  0
SECTION
  2
HEADER
  9
$ACADVER
  1
AC1015
  9
$ACADMAINTVER
 70
    20
  9
$DWGCODEPAGE
  3
ANSI_932
  9
$INSBASE
 10
0.0
 20
0.0
 30
0.0
  9
$EXTMIN
 10
-27.853
 20
-14.4155
 30
0.0
  9
$EXTMAX
 10
377.147
 20
262.5845
 30
0.0
  9
$LIMMIN
 10
-27.854001
 20
-14.4165
  9
$LIMMAX
 10
377.148003
 20
262.585503
  9
$ORTHOMODE
 70
     0
  9
$REGENMODE
 70
     1
  9
$FILLMODE
 70
     1
  9
$QTEXTMODE
 70
     0
  9
$MIRRTEXT
 70
     0
  9
$LTSCALE
 40
6.75
  9
$ATTMODE
 70
     1
  9
$TEXTSIZE
 40
3.2
  9
$TRACEWID
 40
0.05
  9
$TEXTSTYLE
  7
高3.2
  9
$CLAYER
  8
0
  9
$CELTYPE
  6
ByLayer
  9
$CECOLOR
 62
   256
  9
$CELTSCALE
 40
1.0
  9
$DISPSILH
 70
     0
  9
$DIMSCALE
 40
1.0
  9
$DIMASZ
 40
2.5
  9
$DIMEXO
 40
0.25
  9
$DIMDLI
 40
0.2
  9
$DIMRND
 40
0.0
  9
$DIMDLE
 40
0.0
  9
$DIMEXE
 40
1.25
  9
$DIMTP
 40
0.0
  9
$DIMTM
 40
0.0
  9
$DIMTXT
 40
3.0
  9
$DIMCEN
 40
0.0
  9
$DIMTSZ
 40
0.0
  9
$DIMTOL
 70
     0
  9
$DIMLIM
 70
     0
  9
$DIMTIH
 70
     0
  9
$DIMTOH
 70
     0
  9
$DIMSE1
 70
     0
  9
$DIMSE2
 70
     0
  9
$DIMTAD
 70
     3
  9
$DIMZIN
 70
     8
  9
$DIMBLK
  1
Open30
  9
$DIMASO
 70
     1
  9
$DIMSHO
 70
     1
  9
$DIMPOST
  1

  9
$DIMAPOST
  1

  9
$DIMALT
 70
     0
  9
$DIMALTD
 70
     3
  9
$DIMALTF
 40
0.03937007874016
  9
$DIMLFAC
 40
1.0
  9
$DIMTOFL
 70
     1
  9
$DIMTVP
 40
0.0
  9
$DIMTIX
 70
     0
  9
$DIMSOXD
 70
     0
  9
$DIMSAH
 70
     0
  9
$DIMBLK1
  1

  9
$DIMBLK2
  1

  9
$DIMSTYLE
  2
FREE
  9
$DIMCLRD
 70
     0
  9
$DIMCLRE
 70
     0
  9
$DIMCLRT
 70
     4
  9
$DIMTFAC
 40
1.0
  9
$DIMGAP
 40
0.625
  9
$DIMJUST
 70
     0
  9
$DIMSD1
 70
     0
  9
$DIMSD2
 70
     0
  9
$DIMTOLJ
 70
     0
  9
$DIMTZIN
 70
     8
  9
$DIMALTZ
 70
     0
  9
$DIMALTTZ
 70
     0
  9
$DIMUPT
 70
     1
  9
$DIMDEC
 70
     2
  9
$DIMTDEC
 70
     2
  9
$DIMALTU
 70
     2
  9
$DIMALTTD
 70
     3
  9
$DIMTXSTY
  7
STANDARD
  9
$DIMAUNIT
 70
     0
  9
$DIMADEC
 70
     1
  9
$DIMALTRND
 40
0.0
  9
$DIMAZIN
 70
     2
  9
$DIMDSEP
 70
    46
  9
$DIMATFIT
 70
     0
  9
$DIMFRAC
 70
     0
  9
$DIMLDRBLK
  1
Open30
  9
$DIMLUNIT
 70
     2
  9
$DIMLWD
 70
    -2
  9
$DIMLWE
 70
    -2
  9
$DIMTMOVE
 70
     0
  9
$LUNITS
 70
     2
  9
$LUPREC
 70
     4
  9
$SKETCHINC
 40
0.1
  9
$FILLETRAD
 40
0.0
  9
$AUNITS
 70
     0
  9
$AUPREC
 70
     0
  9
$MENU
  1
.
  9
$ELEVATION
 40
0.0
  9
$PELEVATION
 40
0.0
  9
$THICKNESS
 40
0.0
  9
$LIMCHECK
 70
     0
  9
$CHAMFERA
 40
0.0
  9
$CHAMFERB
 40
0.0
  9
$CHAMFERC
 40
0.0
  9
$CHAMFERD
 40
0.0
  9
$SKPOLY
 70
     0
  9
$TDCREATE
 40
2456346.763166320
  9
$TDUCREATE
 40
2456346.388166320
  9
$TDUPDATE
 40
2459893.499363241
  9
$TDUUPDATE
 40
2459893.124363241
  9
$TDINDWG
 40
0.0491917130
  9
$TDUSRTIMER
 40
0.0491916319
  9
$USRTIMER
 70
     1
  9
$ANGBASE
 50
0.0
  9
$ANGDIR
 70
     0
  9
$PDMODE
 70
     0
  9
$PDSIZE
 40
0.0
  9
$PLINEWID
 40
0.0
  9
$SPLFRAME
 70
     0
  9
$SPLINETYPE
 70
     6
  9
$SPLINESEGS
 70
     8
  9
$HANDSEED
  5
CA6
  9
$SURFTAB1
 70
     6
  9
$SURFTAB2
 70
     6
  9
$SURFTYPE
 70
     6
  9
$SURFU
 70
     6
  9
$SURFV
 70
     6
  9
$UCSBASE
  2

  9
$UCSNAME
  2

  9
$UCSORG
 10
0.0
 20
0.0
 30
0.0
  9
$UCSXDIR
 10
1.0
 20
0.0
 30
0.0
  9
$UCSYDIR
 10
0.0
 20
1.0
 30
0.0
  9
$UCSORTHOREF
  2

  9
$UCSORTHOVIEW
 70
     0
  9
$UCSORGTOP
 10
0.0
 20
0.0
 30
0.0
  9
$UCSORGBOTTOM
 10
0.0
 20
0.0
 30
0.0
  9
$UCSORGLEFT
 10
0.0
 20
0.0
 30
0.0
  9
$UCSORGRIGHT
 10
0.0
 20
0.0
 30
0.0
  9
$UCSORGFRONT
 10
0.0
 20
0.0
 30
0.0
  9
$UCSORGBACK
 10
0.0
 20
0.0
 30
0.0
  9
$PUCSBASE
  2

  9
$PUCSNAME
  2

  9
$PUCSORG
 10
0.0
 20
0.0
 30
0.0
  9
$PUCSXDIR
 10
1.0
 20
0.0
 30
0.0
  9
$PUCSYDIR
 10
0.0
 20
1.0
 30
0.0
  9
$PUCSORTHOREF
  2

  9
$PUCSORTHOVIEW
 70
     0
  9
$PUCSORGTOP
 10
0.0
 20
0.0
 30
0.0
  9
$PUCSORGBOTTOM
 10
0.0
 20
0.0
 30
0.0
  9
$PUCSORGLEFT
 10
0.0
 20
0.0
 30
0.0
  9
$PUCSORGRIGHT
 10
0.0
 20
0.0
 30
0.0
  9
$PUCSORGFRONT
 10
0.0
 20
0.0
 30
0.0
  9
$PUCSORGBACK
 10
0.0
 20
0.0
 30
0.0
  9
$USERI1
 70
     0
  9
$USERI2
 70
     0
  9
$USERI3
 70
     0
  9
$USERI4
 70
     0
  9
$USERI5
 70
     0
  9
$USERR1
 40
0.0
  9
$USERR2
 40
0.0
  9
$USERR3
 40
0.0
  9
$USERR4
 40
0.0
  9
$USERR5
 40
0.0
  9
$WORLDVIEW
 70
     1
  9
$SHADEDGE
 70
     3
  9
$SHADEDIF
 70
    70
  9
$TILEMODE
 70
     1
  9
$MAXACTVP
 70
    64
  9
$PINSBASE
 10
0.0
 20
0.0
 30
0.0
  9
$PLIMCHECK
 70
     0
  9
$PEXTMIN
 10
1.000000000000000E+20
 20
1.000000000000000E+20
 30
1.000000000000000E+20
  9
$PEXTMAX
 10
-1.000000000000000E+20
 20
-1.000000000000000E+20
 30
-1.000000000000000E+20
  9
$PLIMMIN
 10
0.0
 20
0.0
  9
$PLIMMAX
 10
12.0
 20
9.0
  9
$UNITMODE
 70
     0
  9
$VISRETAIN
 70
     1
  9
$PLINEGEN
 70
     0
  9
$PSLTSCALE
 70
     1
  9
$TREEDEPTH
 70
  3020
  9
$CMLSTYLE
  2
Standard
  9
$CMLJUST
 70
     0
  9
$CMLSCALE
 40
1.0
  9
$PROXYGRAPHICS
 70
     1
  9
$MEASUREMENT
 70
     0
  9
$CELWEIGHT
370
    -1
  9
$ENDCAPS
280
     0
  9
$JOINSTYLE
280
     0
  9
$LWDISPLAY
290
     0
  9
$INSUNITS
 70
     0
  9
$HYPERLINKBASE
  1

  9
$STYLESHEET
  1

  9
$XEDIT
290
     1
  9
$CEPSNTYPE
380
     0
  9
$PSTYLEMODE
290
     1
  9
$FINGERPRINTGUID
  2
{9D68AA61-CA7B-4A50-954E-B0D8E370EA89}
  9
$VERSIONGUID
  2
{5BCF0862-43AF-489D-92B7-B2D7BDD8AEAD}
  9
$EXTNAMES
290
     1
  9
$PSVPSCALE
 40
0.0
  9
$OLESTARTUP
290
     0
  0
ENDSEC
  0
SECTION
  2
CLASSES
  0
CLASS
  1
ACDBDICTIONARYWDFLT
  2
AcDbDictionaryWithDefault
  3
ObjectDBX Classes
 90
        0
280
     0
281
     0
  0
CLASS
  1
MATERIAL
  2
AcDbMaterial
  3
ObjectDBX Classes
 90
     1153
280
     0
281
     0
  0
CLASS
  1
VISUALSTYLE
  2
AcDbVisualStyle
  3
ObjectDBX Classes
 90
     4095
280
     0
281
     0
  0
CLASS
  1
SCALE
  2
AcDbScale
  3
ObjectDBX Classes
 90
     1153
280
     0
281
     0
  0
CLASS
  1
TABLESTYLE
  2
AcDbTableStyle
  3
ObjectDBX Classes
 90
     4095
280
     0
281
     0
  0
CLASS
  1
MLEADERSTYLE
  2
AcDbMLeaderStyle
  3
ACDB_MLEADERSTYLE_CLASS
 90
     4095
280
     0
281
     0
  0
CLASS
  1
SORTENTSTABLE
  2
AcDbSortentsTable
  3
ObjectDBX Classes
 90
        0
280
     0
281
     0
  0
CLASS
  1
DICTIONARYVAR
  2
AcDbDictionaryVar
  3
ObjectDBX Classes
 90
        0
280
     0
281
     0
  0
CLASS
  1
CELLSTYLEMAP
  2
AcDbCellStyleMap
  3
ObjectDBX Classes
 90
     1152
280
     0
281
     0
  0
CLASS
  1
ACDBPLACEHOLDER
  2
AcDbPlaceHolder
  3
ObjectDBX Classes
 90
        0
280
     0
281
     0
  0
CLASS
  1
LAYOUT
  2
AcDbLayout
  3
ObjectDBX Classes
 90
        0
280
     0
281
     0
  0
ENDSEC
  0
SECTION
  2
TABLES
  0
TABLE
  2
VPORT
  5
8
330
0
100
AcDbSymbolTable
 70
     1
  0
VPORT
  5
8B
330
8
100
AcDbSymbolTableRecord
100
AcDbViewportTableRecord
  2
*Active
 70
     0
 10
0.0
 20
0.0
 11
1.0
 21
1.0
 12
165.480987801767
 22
117.7333448731408
 13
0.0
 23
0.0
 14
1.0
 24
1.0
 15
0.0
 25
0.0
 16
0.0
 26
0.0
 36
1.0
 17
0.0
 27
0.0
 37
0.0
 40
529.6043602464972
 41
1.274104683195592
 42
50.0
 43
0.0
 44
0.0
 50
0.0
 51
0.0
 71
     0
 72
   100
 73
     1
 74
     1
 75
     0
 76
     0
 77
     0
 78
     0
281
     0
 65
     1
110
0.0
120
0.0
130
0.0
111
1.0
121
0.0
131
0.0
112
0.0
122
1.0
132
0.0
 79
     0
146
0.0
  0
ENDTAB
  0
TABLE
  2
LTYPE
  5
5
330
0
100
AcDbSymbolTable
 70
     2
  0
LTYPE
  5
5A
330
5
100
AcDbSymbolTableRecord
100
AcDbLinetypeTableRecord
  2
ByBlock
 70
     0
  3

 72
    65
 73
     0
 40
0.0
  0
LTYPE
  5
5B
330
5
100
AcDbSymbolTableRecord
100
AcDbLinetypeTableRecord
  2
ByLayer
 70
     0
  3

 72
    65
 73
     0
 40
0.0
  0
LTYPE
  5
5C
330
5
100
AcDbSymbolTableRecord
100
AcDbLinetypeTableRecord
  2
CONTINUOUS
 70
     0
  3
Solid-line
 72
    65
 73
     0
 40
0.0
  0
ENDTAB
  0
TABLE
  2
LAYER
  5
2
102
{ACAD_XDICTIONARY
360
605
102
}
330
0
100
AcDbSymbolTable
 70
     2
  0
LAYER
  5
54
102
{ACAD_XDICTIONARY
360
7CE
102
}
330
2
100
AcDbSymbolTableRecord
100
AcDbLayerTableRecord
  2
0
 70
     0
 62
     7
  6
CONTINUOUS
370
    -3
390
F
  0
LAYER
  5
5EE
330
2
100
AcDbSymbolTableRecord
100
AcDbLayerTableRecord
  2
Defpoints
 70
     0
 62
     7
  6
CONTINUOUS
290
     0
370
    -3
390
F
  0
ENDTAB
  0
TABLE
  2
STYLE
  5
3
330
0
100
AcDbSymbolTable
 70
     6
  0
STYLE
  5
55
330
3
100
AcDbSymbolTableRecord
100
AcDbTextStyleTableRecord
  2
STANDARD
 70
     0
 40
0.0
 41
1.0
 50
0.0
 71
     0
 42
0.2
  3
TXT
  4
BIGFONT
  0
STYLE
  5
5EF
330
3
100
AcDbSymbolTableRecord
100
AcDbTextStyleTableRecord
  2
高3.2
 70
     0
 40
3.2
 41
1.0
 50
0.0
 71
     0
 42
3.2
  3
txt.shx
  4
bigfont.shx
  0
STYLE
  5
5F0
330
3
100
AcDbSymbolTableRecord
100
AcDbTextStyleTableRecord
  2
高6.3
 70
     0
 40
6.299999999999998
 41
1.0
 50
0.0
 71
     0
 42
6.299999999999998
  3
txt.shx
  4
bigfont.shx
  0
STYLE
  5
5F1
330
3
100
AcDbSymbolTableRecord
100
AcDbTextStyleTableRecord
  2
高2.5
 70
     0
 40
2.5
 41
1.0
 50
0.0
 71
     0
 42
0.2
  3
txt.shx
  4
bigfont.shx
  0
STYLE
  5
5F2
330
3
100
AcDbSymbolTableRecord
100
AcDbTextStyleTableRecord
  2
高4.5
 70
     0
 40
4.5
 41
1.0
 50
0.0
 71
     0
 42
6.299999999999998
  3
txt.shx
  4
bigfont.shx
  0
STYLE
  5
5F3
330
3
100
AcDbSymbolTableRecord
100
AcDbTextStyleTableRecord
  2
高2
 70
     0
 40
2.0
 41
1.0
 50
0.0
 71
     0
 42
2.0
  3
txt.shx
  4
bigfont.shx
  0
ENDTAB
  0
TABLE
  2
VIEW
  5
6
330
0
100
AcDbSymbolTable
 70
     0
  0
ENDTAB
  0
TABLE
  2
UCS
  5
7
330
0
100
AcDbSymbolTable
 70
     0
  0
ENDTAB
  0
TABLE
  2
APPID
  5
9
330
0
100
AcDbSymbolTable
 70
    10
  0
APPID
  5
56
330
9
100
AcDbSymbolTableRecord
100
AcDbRegAppTableRecord
  2
ACAD
 70
     0
  0
APPID
  5
5D
330
9
100
AcDbSymbolTableRecord
100
AcDbRegAppTableRecord
  2
AcadAnnotative
 70
     0
  0
APPID
  5
5FE
330
9
100
AcDbSymbolTableRecord
100
AcDbRegAppTableRecord
  2
ACAD_DSTYLE_DIMJOGGED_JOGANGLE_SYMBOL
 70
     0
  0
APPID
  5
5FF
330
9
100
AcDbSymbolTableRecord
100
AcDbRegAppTableRecord
  2
ACAD_DSTYLE_DIMJAG
 70
     0
  0
APPID
  5
600
330
9
100
AcDbSymbolTableRecord
100
AcDbRegAppTableRecord
  2
ACAD_DSTYLE_DIMBREAK
 70
     0
  0
APPID
  5
601
330
9
100
AcDbSymbolTableRecord
100
AcDbRegAppTableRecord
  2
ACAD_DSTYLE_DIMTALN
 70
     0
  0
APPID
  5
745
330
9
100
AcDbSymbolTableRecord
100
AcDbRegAppTableRecord
  2
ACAD_EXEMPT_FROM_CAD_STANDARDS
 70
     0
  0
APPID
  5
817
330
9
100
AcDbSymbolTableRecord
100
AcDbRegAppTableRecord
  2
ACAD_MLEADERVER
 70
     0
  0
APPID
  5
81C
330
9
100
AcDbSymbolTableRecord
100
AcDbRegAppTableRecord
  2
ACAD_DSTYLE_DIMARC_LENGTH_SYMBOL
 70
     0
  0
APPID
  5
81D
330
9
100
AcDbSymbolTableRecord
100
AcDbRegAppTableRecord
  2
ACAD_DSTYLE_DIMEXT_LENGTH
 70
     0
  0
ENDTAB
  0
TABLE
  2
DIMSTYLE
  5
A
330
0
100
AcDbSymbolTable
 70
    11
100
AcDbDimStyleTable
 71
     1
340
5FD
  0
DIMSTYLE
105
57
330
A
100
AcDbSymbolTableRecord
100
AcDbDimStyleTableRecord
  2
Standard
 70
     0
340
55
  0
DIMSTYLE
105
5F4
330
A
100
AcDbSymbolTableRecord
100
AcDbDimStyleTableRecord
  2
1：1
 70
     0
 41
2.5
 42
0.25
 43
0.2
 44
1.25
 73
     0
 74
     0
 77
     3
 78
     8
 79
     2
140
3.0
141
0.0
143
0.03937007874016
147
0.625
171
     3
172
     1
178
     4
179
     1
271
     2
272
     2
274
     3
283
     0
284
     8
288
     1
289
     0
340
55
341
55E
342
55E
1001
ACAD_DSTYLE_DIMARC_LENGTH_SYMBOL
1070
   379
1070
     2
1001
ACAD_DSTYLE_DIMEXT_LENGTH
1070
   378
1040
1.25
1001
ACAD_DSTYLE_DIMJOGGED_JOGANGLE_SYMBOL
1070
   384
1040
1.570796326794896
  0
DIMSTYLE
105
5F5
330
A
100
AcDbSymbolTableRecord
100
AcDbDimStyleTableRecord
  2
2：1
 70
     0
 41
2.5
 42
0.25
 43
0.2
 44
1.25
 73
     0
 74
     0
 77
     3
 78
     8
 79
     2
140
3.0
141
0.0
143
0.03937007874016
144
0.5
147
0.625
171
     3
172
     1
178
     4
179
     1
271
     2
272
     2
274
     3
283
     0
284
     8
288
     1
289
     0
340
55
341
55E
342
55E
1001
ACAD_DSTYLE_DIMARC_LENGTH_SYMBOL
1070
   379
1070
     2
1001
ACAD_DSTYLE_DIMEXT_LENGTH
1070
   378
1040
1.25
1001
ACAD_DSTYLE_DIMJOGGED_JOGANGLE_SYMBOL
1070
   384
1040
1.570796326794896
  0
DIMSTYLE
105
5F6
330
A
100
AcDbSymbolTableRecord
100
AcDbDimStyleTableRecord
  2
5：1
 70
     0
 41
2.5
 42
0.25
 43
0.2
 44
1.25
 73
     0
 74
     0
 77
     3
 78
     8
 79
     2
140
3.0
141
0.0
143
0.03937007874016
144
0.2
147
0.625
171
     3
172
     1
178
     4
179
     1
271
     2
272
     2
274
     3
283
     0
284
     8
288
     1
289
     0
340
55
341
55E
342
55E
1001
ACAD_DSTYLE_DIMARC_LENGTH_SYMBOL
1070
   379
1070
     2
1001
ACAD_DSTYLE_DIMEXT_LENGTH
1070
   378
1040
1.25
1001
ACAD_DSTYLE_DIMJOGGED_JOGANGLE_SYMBOL
1070
   384
1040
1.570796326794896
  0
DIMSTYLE
105
5F7
330
A
100
AcDbSymbolTableRecord
100
AcDbDimStyleTableRecord
  2
10：1
 70
     0
 41
2.5
 42
0.25
 43
0.2
 44
1.25
 73
     0
 74
     0
 77
     3
 78
     8
 79
     2
140
3.0
141
0.0
143
0.03937007874016
144
0.1
147
0.625
171
     3
172
     1
178
     4
179
     1
271
     2
272
     2
274
     3
283
     0
284
     8
288
     1
289
     0
340
55
341
55E
342
55E
1001
ACAD_DSTYLE_DIMARC_LENGTH_SYMBOL
1070
   379
1070
     2
1001
ACAD_DSTYLE_DIMEXT_LENGTH
1070
   378
1040
1.25
1001
ACAD_DSTYLE_DIMJOGGED_JOGANGLE_SYMBOL
1070
   384
1040
1.570796326794896
  0
DIMSTYLE
105
5F8
330
A
100
AcDbSymbolTableRecord
100
AcDbDimStyleTableRecord
  2
1／2
 70
     0
 41
2.5
 42
0.25
 43
0.2
 44
1.25
 73
     0
 74
     0
 77
     3
 78
     8
 79
     2
140
3.0
141
0.0
143
0.03937007874016
144
2.0
147
0.625
171
     3
172
     1
178
     4
179
     1
271
     2
272
     2
274
     3
283
     0
284
     8
288
     1
289
     0
340
55
341
55E
342
55E
1001
ACAD_DSTYLE_DIMARC_LENGTH_SYMBOL
1070
   379
1070
     2
1001
ACAD_DSTYLE_DIMEXT_LENGTH
1070
   378
1040
1.25
1001
ACAD_DSTYLE_DIMJOGGED_JOGANGLE_SYMBOL
1070
   384
1040
1.570796326794896
  0
DIMSTYLE
105
5F9
330
A
100
AcDbSymbolTableRecord
100
AcDbDimStyleTableRecord
  2
1／5
 70
     0
 41
2.5
 42
0.25
 43
0.2
 44
1.25
 73
     0
 74
     0
 77
     3
 78
     8
 79
     2
140
3.0
141
0.0
143
0.03937007874016
144
5.0
147
0.625
171
     3
172
     1
178
     4
179
     1
271
     2
272
     2
274
     3
283
     0
284
     8
288
     1
289
     0
340
55
341
55E
342
55E
1001
ACAD_DSTYLE_DIMARC_LENGTH_SYMBOL
1070
   379
1070
     2
1001
ACAD_DSTYLE_DIMEXT_LENGTH
1070
   378
1040
1.25
1001
ACAD_DSTYLE_DIMJOGGED_JOGANGLE_SYMBOL
1070
   384
1040
1.570796326794896
  0
DIMSTYLE
105
5FA
330
A
100
AcDbSymbolTableRecord
100
AcDbDimStyleTableRecord
  2
1／10
 70
     0
 41
2.5
 42
0.25
 43
0.2
 44
1.25
 73
     0
 74
     0
 77
     3
 78
     8
 79
     2
140
3.0
141
0.0
143
0.03937007874016
144
10.0
147
0.625
171
     3
172
     1
178
     4
179
     1
271
     2
272
     2
274
     3
283
     0
284
     8
288
     1
289
     0
340
55
341
55E
342
55E
1001
ACAD_DSTYLE_DIMARC_LENGTH_SYMBOL
1070
   379
1070
     2
1001
ACAD_DSTYLE_DIMEXT_LENGTH
1070
   378
1040
1.25
1001
ACAD_DSTYLE_DIMJOGGED_JOGANGLE_SYMBOL
1070
   384
1040
1.570796326794896
  0
DIMSTYLE
105
5FB
330
A
100
AcDbSymbolTableRecord
100
AcDbDimStyleTableRecord
  2
1／4
 70
     0
 41
2.5
 42
0.25
 43
0.2
 44
1.25
 73
     0
 74
     0
 77
     3
 78
     8
 79
     2
140
3.0
141
0.0
143
0.03937007874016
144
4.0
147
0.625
171
     3
172
     1
178
     4
179
     1
271
     2
272
     2
274
     3
283
     0
284
     8
288
     1
289
     0
340
55
341
55E
342
55E
1001
ACAD_DSTYLE_DIMARC_LENGTH_SYMBOL
1070
   379
1070
     2
1001
ACAD_DSTYLE_DIMEXT_LENGTH
1070
   378
1040
1.25
1001
ACAD_DSTYLE_DIMJOGGED_JOGANGLE_SYMBOL
1070
   384
1040
1.570796326794896
  0
DIMSTYLE
105
5FC
330
A
100
AcDbSymbolTableRecord
100
AcDbDimStyleTableRecord
  2
1／3
 70
     0
 41
2.5
 42
0.25
 43
0.2
 44
1.25
 73
     0
 74
     0
 77
     3
 78
     8
 79
     2
140
3.0
141
0.0
143
0.03937007874016
144
3.0
147
0.625
171
     3
172
     1
178
     4
179
     1
271
     2
272
     2
274
     3
283
     0
284
     8
288
     1
289
     0
340
55
341
55E
342
55E
1001
ACAD_DSTYLE_DIMARC_LENGTH_SYMBOL
1070
   379
1070
     2
1001
ACAD_DSTYLE_DIMEXT_LENGTH
1070
   378
1040
1.25
1001
ACAD_DSTYLE_DIMJOGGED_JOGANGLE_SYMBOL
1070
   384
1040
1.570796326794896
  0
DIMSTYLE
105
5FD
330
A
100
AcDbSymbolTableRecord
100
AcDbDimStyleTableRecord
  2
FREE
 70
     0
 41
2.5
 42
0.25
 43
0.2
 44
1.25
 73
     0
 74
     0
 77
     3
 78
     8
 79
     2
140
3.0
141
0.0
143
0.03937007874016
147
0.625
171
     3
172
     1
178
     4
179
     1
271
     2
272
     2
274
     3
283
     0
284
     8
288
     1
289
     0
340
55
341
55E
342
55E
1001
ACAD_DSTYLE_DIMBREAK
1070
   391
1040
3.75
1001
ACAD_DSTYLE_DIMJAG
1070
   388
1040
1.5
1001
ACAD_DSTYLE_DIMTALN
1070
   392
1070
     0
1001
ACAD_DSTYLE_DIMARC_LENGTH_SYMBOL
1070
   379
1070
     2
1001
ACAD_DSTYLE_DIMEXT_LENGTH
1070
   378
1040
1.25
1001
ACAD_DSTYLE_DIMJOGGED_JOGANGLE_SYMBOL
1070
   384
1040
1.570796326794896
  0
ENDTAB
  0
TABLE
  2
BLOCK_RECORD
  5
1
330
0
100
AcDbSymbolTable
 70
    15
  0
BLOCK_RECORD
  5
6B
102
{ACAD_XDICTIONARY
360
799
102
}
330
1
100
AcDbSymbolTableRecord
100
AcDbBlockTableRecord
  2
*Model_Space
340
6E
  0
BLOCK_RECORD
  5
67
330
1
100
AcDbSymbolTableRecord
100
AcDbBlockTableRecord
  2
*Paper_Space
340
6A
  0
BLOCK_RECORD
  5
55E
330
1
100
AcDbSymbolTableRecord
100
AcDbBlockTableRecord
  2
_Open30
340
0
102
{BLKREFS
331
9E5
331
9E6
331
9F0
331
9F1
331
9FB
331
9FC
331
A06
331
A07
331
A11
331
A12
331
A1C
331
A1D
331
A27
331
A28
331
A32
331
A33
331
A3D
331
A3E
331
A46
331
A47
331
B5A
331
B5B
331
B63
331
B64
331
B6C
331
B6D
102
}
  0
BLOCK_RECORD
  5
747
330
1
100
AcDbSymbolTableRecord
100
AcDbBlockTableRecord
  2
*D1
340
0
  0
BLOCK_RECORD
  5
754
330
1
100
AcDbSymbolTableRecord
100
AcDbBlockTableRecord
  2
*D2
340
0
  0
BLOCK_RECORD
  5
761
330
1
100
AcDbSymbolTableRecord
100
AcDbBlockTableRecord
  2
*D3
340
0
  0
BLOCK_RECORD
  5
87A
330
1
100
AcDbSymbolTableRecord
100
AcDbBlockTableRecord
  2
_DotSmall
340
0
  0
BLOCK_RECORD
  5
956
330
1
100
AcDbSymbolTableRecord
100
AcDbBlockTableRecord
  2
*D5
340
0
  0
BLOCK_RECORD
  5
964
330
1
100
AcDbSymbolTableRecord
100
AcDbBlockTableRecord
  2
*D6
340
0
  0
BLOCK_RECORD
  5
972
330
1
100
AcDbSymbolTableRecord
100
AcDbBlockTableRecord
  2
*D7
340
0
  0
BLOCK_RECORD
  5
980
330
1
100
AcDbSymbolTableRecord
100
AcDbBlockTableRecord
  2
*D8
340
0
  0
BLOCK_RECORD
  5
98E
330
1
100
AcDbSymbolTableRecord
100
AcDbBlockTableRecord
  2
*D9
340
0
  0
BLOCK_RECORD
  5
99C
330
1
100
AcDbSymbolTableRecord
100
AcDbBlockTableRecord
  2
*D10
340
0
  0
BLOCK_RECORD
  5
9AA
330
1
100
AcDbSymbolTableRecord
100
AcDbBlockTableRecord
  2
*D11
340
0
  0
BLOCK_RECORD
  5
9B8
330
1
100
AcDbSymbolTableRecord
100
AcDbBlockTableRecord
  2
*D12
340
0
  0
BLOCK_RECORD
  5
9C6
330
1
100
AcDbSymbolTableRecord
100
AcDbBlockTableRecord
  2
*D13
340
0
  0
BLOCK_RECORD
  5
9D4
330
1
100
AcDbSymbolTableRecord
100
AcDbBlockTableRecord
  2
*D14
340
0
  0
ENDTAB
  0
ENDSEC
  0
SECTION
  2
BLOCKS
  0
BLOCK
  5
6C
330
6B
100
AcDbEntity
  8
0
100
AcDbBlockBegin
  2
*Model_Space
 70
     0
 10
0.0
 20
0.0
 30
0.0
  3
*Model_Space
  1

  0
ENDBLK
  5
6D
330
6B
100
AcDbEntity
  8
0
100
AcDbBlockEnd
  0
BLOCK
  5
68
330
67
100
AcDbEntity
 67
     1
  8
0
100
AcDbBlockBegin
  2
*Paper_Space
 70
     0
 10
0.0
 20
0.0
 30
0.0
  3
*Paper_Space
  1

  0
ENDBLK
  5
69
330
67
100
AcDbEntity
 67
     1
  8
0
100
AcDbBlockEnd
  0
BLOCK
  5
55F
330
55E
100
AcDbEntity
  8
0
100
AcDbBlockBegin
  2
_Open30
 70
     0
 10
0.0
 20
0.0
 30
0.0
  3
_Open30
  1

  0
LINE
  5
560
330
55E
100
AcDbEntity
  8
0
  6
ByBlock
 62
     0
370
    -2
100
AcDbLine
 10
-1.0
 20
0.267949
 30
0.0
 11
0.0
 21
0.0
 31
0.0
  0
LINE
  5
561
330
55E
100
AcDbEntity
  8
0
  6
ByBlock
 62
     0
370
    -2
100
AcDbLine
 10
0.0
 20
0.0
 30
0.0
 11
-1.0
 21
-0.267949
 31
0.0
  0
LINE
  5
562
330
55E
100
AcDbEntity
  8
0
  6
ByBlock
 62
     0
370
    -2
100
AcDbLine
 10
0.0
 20
0.0
 30
0.0
 11
-1.0
 21
0.0
 31
0.0
  0
ENDBLK
  5
563
330
55E
100
AcDbEntity
  8
0
100
AcDbBlockEnd
  0
BLOCK
  5
748
330
747
100
AcDbEntity
  8
0
100
AcDbBlockBegin
  2
*D1
 70
     1
 10
0.0
 20
0.0
 30
0.0
  3
*D1
  1

  0
LINE
  5
B69
330
747
100
AcDbEntity
  8
0
 62
     0
370
    -2
100
AcDbLine
 10
136.285047
 20
156.096363
 30
0.0
 11
136.285047
 21
141.01224
 31
0.0
  0
LINE
  5
B6A
330
747
100
AcDbEntity
  8
0
 62
     0
370
    -2
100
AcDbLine
 10
217.066047
 20
156.096363
 30
0.0
 11
217.066047
 21
141.01224
 31
0.0
  0
LINE
  5
B6B
330
747
100
AcDbEntity
  8
0
 62
     0
370
    -2
100
AcDbLine
 10
138.785047
 20
142.26224
 30
0.0
 11
214.566047
 21
142.26224
 31
0.0
  0
INSERT
  5
B6C
330
747
100
AcDbEntity
  8
0
 62
     0
370
    -2
100
AcDbBlockReference
  2
_Open30
 10
136.285047
 20
142.26224
 30
0.0
 41
2.5
 42
2.5
 43
2.5
 50
180.0
  0
INSERT
  5
B6D
330
747
100
AcDbEntity
  8
0
 62
     0
370
    -2
100
AcDbBlockReference
  2
_Open30
 10
217.066047
 20
142.26224
 30
0.0
 41
2.5
 42
2.5
 43
2.5
  0
MTEXT
  5
B6E
330
747
100
AcDbEntity
  8
0
 62
     4
100
AcDbMText
 10
176.675547
 20
144.38724
 30
0.0
 40
3.0
 41
0.0
 71
     5
 72
     1
  1
315
 73
     1
 44
1.0
1001
ACAD
1000
MTEXTBEGIN
1070
    73
1070
     1
1070
    44
1040
1.0
1070
    74
1070
     0
1000
MTEXTEND
  0
POINT
  5
B6F
330
747
100
AcDbEntity
  8
Defpoints
 62
     0
100
AcDbPoint
 10
136.285047
 20
156.346363
 30
0.0
  0
POINT
  5
B70
330
747
100
AcDbEntity
  8
Defpoints
 62
     0
100
AcDbPoint
 10
217.066047
 20
156.346363
 30
0.0
  0
POINT
  5
B71
330
747
100
AcDbEntity
  8
Defpoints
 62
     0
100
AcDbPoint
 10
217.066047
 20
142.26224
 30
0.0
  0
ENDBLK
  5
749
330
747
100
AcDbEntity
  8
0
100
AcDbBlockEnd
  0
BLOCK
  5
755
330
754
100
AcDbEntity
  8
0
100
AcDbBlockBegin
  2
*D2
 70
     1
 10
0.0
 20
0.0
 30
0.0
  3
*D2
  1

  0
LINE
  5
B60
330
754
100
AcDbEntity
  8
0
 62
     0
370
    -2
100
AcDbLine
 10
29.653047
 20
160.9093629999999
 30
0.0
 11
29.653047
 21
141.01224
 31
0.0
  0
LINE
  5
B61
330
754
100
AcDbEntity
  8
0
 62
     0
370
    -2
100
AcDbLine
 10
119.372047
 20
160.9093629999999
 30
0.0
 11
119.372047
 21
141.01224
 31
0.0
  0
LINE
  5
B62
330
754
100
AcDbEntity
  8
0
 62
     0
370
    -2
100
AcDbLine
 10
32.153047
 20
142.26224
 30
0.0
 11
116.872047
 21
142.26224
 31
0.0
  0
INSERT
  5
B63
330
754
100
AcDbEntity
  8
0
 62
     0
370
    -2
100
AcDbBlockReference
  2
_Open30
 10
29.653047
 20
142.26224
 30
0.0
 41
2.5
 42
2.5
 43
2.5
 50
180.0
  0
INSERT
  5
B64
330
754
100
AcDbEntity
  8
0
 62
     0
370
    -2
100
AcDbBlockReference
  2
_Open30
 10
119.372047
 20
142.26224
 30
0.0
 41
2.5
 42
2.5
 43
2.5
  0
MTEXT
  5
B65
330
754
100
AcDbEntity
  8
0
 62
     4
100
AcDbMText
 10
74.51254699999999
 20
144.38724
 30
0.0
 40
3.0
 41
0.0
 71
     5
 72
     1
  1
260
 73
     1
 44
1.0
1001
ACAD
1000
MTEXTBEGIN
1070
    73
1070
     1
1070
    44
1040
1.0
1070
    74
1070
     0
1000
MTEXTEND
  0
POINT
  5
B66
330
754
100
AcDbEntity
  8
Defpoints
 62
     0
100
AcDbPoint
 10
29.653047
 20
161.1593629999999
 30
0.0
  0
POINT
  5
B67
330
754
100
AcDbEntity
  8
Defpoints
 62
     0
100
AcDbPoint
 10
119.372047
 20
161.1593629999999
 30
0.0
  0
POINT
  5
B68
330
754
100
AcDbEntity
  8
Defpoints
 62
     0
100
AcDbPoint
 10
119.372047
 20
142.26224
 30
0.0
  0
ENDBLK
  5
756
330
754
100
AcDbEntity
  8
0
100
AcDbBlockEnd
  0
BLOCK
  5
762
330
761
100
AcDbEntity
  8
0
100
AcDbBlockBegin
  2
*D3
 70
     1
 10
0.0
 20
0.0
 30
0.0
  3
*D3
  1

  0
LINE
  5
B57
330
761
100
AcDbEntity
  8
0
 62
     0
370
    -2
100
AcDbLine
 10
37.99704699999999
 20
150.502363
 30
0.0
 11
19.53076299999998
 21
150.502363
 31
0.0
  0
LINE
  5
B58
330
761
100
AcDbEntity
  8
0
 62
     0
370
    -2
100
AcDbLine
 10
70.138047
 20
229.912363
 30
0.0
 11
19.530763
 21
229.912363
 31
0.0
  0
LINE
  5
B59
330
761
100
AcDbEntity
  8
0
 62
     0
370
    -2
100
AcDbLine
 10
20.78076299999999
 20
153.002363
 30
0.0
 11
20.780763
 21
227.412363
 31
0.0
  0
INSERT
  5
B5A
330
761
100
AcDbEntity
  8
0
 62
     0
370
    -2
100
AcDbBlockReference
  2
_Open30
 10
20.78076299999998
 20
150.502363
 30
0.0
 41
2.5
 42
2.5
 43
2.5
 50
270.0
  0
INSERT
  5
B5B
330
761
100
AcDbEntity
  8
0
 62
     0
370
    -2
100
AcDbBlockReference
  2
_Open30
 10
20.780763
 20
229.912363
 30
0.0
 41
2.5
 42
2.5
 43
2.5
 50
90.0
  0
MTEXT
  5
B5C
330
761
100
AcDbEntity
  8
0
 62
     4
100
AcDbMText
 10
18.65576299999996
 20
190.207363
 30
0.0
 40
3.0
 41
0.0
 71
     5
 72
     1
  1
230
 11
0.0000000000000001
 21
1.0
 31
0.0
 73
     1
 44
1.0
1001
ACAD
1000
MTEXTBEGIN
1070
    73
1070
     1
1070
    44
1040
1.0
1070
    74
1070
     0
1000
MTEXTEND
  0
POINT
  5
B5D
330
761
100
AcDbEntity
  8
Defpoints
 62
     0
100
AcDbPoint
 10
38.247047
 20
150.502363
 30
0.0
  0
POINT
  5
B5E
330
761
100
AcDbEntity
  8
Defpoints
 62
     0
100
AcDbPoint
 10
70.388047
 20
229.912363
 30
0.0
  0
POINT
  5
B5F
330
761
100
AcDbEntity
  8
Defpoints
 62
     0
100
AcDbPoint
 10
20.780763
 20
229.912363
 30
0.0
  0
ENDBLK
  5
763
330
761
100
AcDbEntity
  8
0
100
AcDbBlockEnd
  0
BLOCK
  5
87C
330
87A
100
AcDbEntity
  8
0
100
AcDbBlockBegin
  2
_DotSmall
 70
     0
 10
0.0
 20
0.0
 30
0.0
  3
_DotSmall
  1

  0
LWPOLYLINE
  5
87B
330
87A
100
AcDbEntity
  8
0
  6
ByBlock
 62
     0
100
AcDbPolyline
 90
        2
 70
     1
 43
0.5
 10
-0.0625
 20
0.0
 42
1.0
 10
0.0625
 20
0.0
 42
1.0
  0
ENDBLK
  5
87D
330
87A
100
AcDbEntity
  8
0
100
AcDbBlockEnd
  0
BLOCK
  5
957
330
956
100
AcDbEntity
  8
0
100
AcDbBlockBegin
  2
*D5
 70
     1
 10
0.0
 20
0.0
 30
0.0
  3
*D5
  1

  0
LINE
  5
9E0
330
956
100
AcDbEntity
  8
0
 62
     0
370
    -2
100
AcDbLine
 10
685.0919164000258
 20
240.9106911821776
 30
0.0
 11
685.0919164000258
 21
238.0010597601688
 31
0.0
  0
LINE
  5
9E1
330
956
100
AcDbEntity
  8
0
 62
     0
370
    -2
100
AcDbLine
 10
682.6347293459056
 20
240.9106911821776
 30
0.0
 11
682.6347293459056
 21
238.0010597601688
 31
0.0
  0
LINE
  5
9E2
330
956
100
AcDbEntity
  8
0
 62
     0
370
    -2
100
AcDbLine
 10
687.5919164000257
 20
239.2510597601688
 30
0.0
 11
690.0919164000257
 21
239.2510597601688
 31
0.0
  0
LINE
  5
9E3
330
956
100
AcDbEntity
  8
0
 62
     0
370
    -2
100
AcDbLine
 10
680.1347293459055
 20
239.2510597601688
 30
0.0
 11
667.3847293459056
 21
239.2510597601688
 31
0.0
  0
LINE
  5
9E4
330
956
100
AcDbEntity
  8
0
 62
     0
370
    -2
100
AcDbLine
 10
685.0919164000258
 20
239.2510597601688
 30
0.0
 11
682.6347293459056
 21
239.2510597601688
 31
0.0
  0
INSERT
  5
9E5
330
956
100
AcDbEntity
  8
0
 62
     0
370
    -2
100
AcDbBlockReference
  2
_Open30
 10
685.0919164000258
 20
239.2510597601688
 30
0.0
 41
2.5
 42
2.5
 43
2.5
 50
180.0
  0
INSERT
  5
9E6
330
956
100
AcDbEntity
  8
0
 62
     0
370
    -2
100
AcDbBlockReference
  2
_Open30
 10
682.6347293459056
 20
239.2510597601688
 30
0.0
 41
2.5
 42
2.5
 43
2.5
  0
MTEXT
  5
9E7
330
956
100
AcDbEntity
  8
0
 62
     4
100
AcDbMText
 10
672.5097293459056
 20
241.3760597601688
 30
0.0
 40
3.0
 41
0.0
 71
     5
 72
     1
  1
2.46
 73
     1
 44
1.0
1001
ACAD
1000
MTEXTBEGIN
1070
    73
1070
     1
1070
    44
1040
1.0
1070
    74
1070
     0
1000
MTEXTEND
  0
POINT
  5
9E8
330
956
100
AcDbEntity
  8
Defpoints
 62
     0
100
AcDbPoint
 10
685.0919164000258
 20
241.1606911821776
 30
0.0
  0
POINT
  5
9E9
330
956
100
AcDbEntity
  8
Defpoints
 62
     0
100
AcDbPoint
 10
682.6347293459056
 20
241.1606911821776
 30
0.0
  0
POINT
  5
9EA
330
956
100
AcDbEntity
  8
Defpoints
 62
     0
100
AcDbPoint
 10
682.6347293459056
 20
239.2510597601688
 30
0.0
  0
ENDBLK
  5
958
330
956
100
AcDbEntity
  8
0
100
AcDbBlockEnd
  0
BLOCK
  5
965
330
964
100
AcDbEntity
  8
0
100
AcDbBlockBegin
  2
*D6
 70
     1
 10
0.0
 20
0.0
 30
0.0
  3
*D6
  1

  0
LINE
  5
9EB
330
964
100
AcDbEntity
  8
0
 62
     0
370
    -2
100
AcDbLine
 10
686.730041306099
 20
235.4546016094154
 30
0.0
 11
686.730041306099
 21
232.9087095399519
 31
0.0
  0
LINE
  5
9EC
330
964
100
AcDbEntity
  8
0
 62
     0
370
    -2
100
AcDbLine
 10
683.6358055079561
 20
235.4546016094154
 30
0.0
 11
683.6358055079561
 21
232.9087095399519
 31
0.0
  0
LINE
  5
9ED
330
964
100
AcDbEntity
  8
0
 62
     0
370
    -2
100
AcDbLine
 10
689.2300413060991
 20
234.1587095399519
 30
0.0
 11
691.7300413060991
 21
234.1587095399519
 31
0.0
  0
LINE
  5
9EE
330
964
100
AcDbEntity
  8
0
 62
     0
370
    -2
100
AcDbLine
 10
681.1358055079562
 20
234.1587095399519
 30
0.0
 11
667.3024721746227
 21
234.1587095399519
 31
0.0
  0
LINE
  5
9EF
330
964
100
AcDbEntity
  8
0
 62
     0
370
    -2
100
AcDbLine
 10
686.730041306099
 20
234.1587095399519
 30
0.0
 11
683.6358055079561
 21
234.1587095399519
 31
0.0
  0
INSERT
  5
9F0
330
964
100
AcDbEntity
  8
0
 62
     0
370
    -2
100
AcDbBlockReference
  2
_Open30
 10
686.730041306099
 20
234.1587095399519
 30
0.0
 41
2.5
 42
2.5
 43
2.5
 50
180.0
  0
INSERT
  5
9F1
330
964
100
AcDbEntity
  8
0
 62
     0
370
    -2
100
AcDbBlockReference
  2
_Open30
 10
683.6358055079561
 20
234.1587095399519
 30
0.0
 41
2.5
 42
2.5
 43
2.5
  0
MTEXT
  5
9F2
330
964
100
AcDbEntity
  8
0
 62
     4
100
AcDbMText
 10
672.5108055079561
 20
236.0337095399519
 30
0.0
 40
2.5
 41
0.0
 71
     5
 72
     1
  1
15.47
  7
高2.5
 73
     1
 44
1.0
1001
ACAD
1000
MTEXTBEGIN
1070
    73
1070
     1
1070
    44
1040
1.0
1070
    74
1070
     0
1000
MTEXTEND
  0
POINT
  5
9F3
330
964
100
AcDbEntity
  8
Defpoints
 62
     0
100
AcDbPoint
 10
686.730041306099
 20
235.7046016094153
 30
0.0
  0
POINT
  5
9F4
330
964
100
AcDbEntity
  8
Defpoints
 62
     0
100
AcDbPoint
 10
683.6358055079561
 20
235.7046016094153
 30
0.0
  0
POINT
  5
9F5
330
964
100
AcDbEntity
  8
Defpoints
 62
     0
100
AcDbPoint
 10
683.6358055079561
 20
234.1587095399519
 30
0.0
  0
ENDBLK
  5
966
330
964
100
AcDbEntity
  8
0
100
AcDbBlockEnd
  0
BLOCK
  5
973
330
972
100
AcDbEntity
  8
0
100
AcDbBlockBegin
  2
*D7
 70
     1
 10
0.0
 20
0.0
 30
0.0
  3
*D7
  1

  0
LINE
  5
9F6
330
972
100
AcDbEntity
  8
0
 62
     0
370
    -2
100
AcDbLine
 10
688.4591729141845
 20
229.9985118935688
 30
0.0
 11
688.4591729141845
 21
227.7254242312015
 31
0.0
  0
LINE
  5
9F7
330
972
100
AcDbEntity
  8
0
 62
     0
370
    -2
100
AcDbLine
 10
684.4548679609927
 20
229.9985118935688
 30
0.0
 11
684.4548679609927
 21
227.7254242312015
 31
0.0
  0
LINE
  5
9F8
330
972
100
AcDbEntity
  8
0
 62
     0
370
    -2
100
AcDbLine
 10
690.9591729141846
 20
228.9754242312015
 30
0.0
 11
693.4591729141845
 21
228.9754242312015
 31
0.0
  0
LINE
  5
9F9
330
972
100
AcDbEntity
  8
0
 62
     0
370
    -2
100
AcDbLine
 10
681.9548679609927
 20
228.9754242312015
 30
0.0
 11
670.2048679609927
 21
228.9754242312015
 31
0.0
  0
LINE
  5
9FA
330
972
100
AcDbEntity
  8
0
 62
     0
370
    -2
100
AcDbLine
 10
688.4591729141845
 20
228.9754242312015
 30
0.0
 11
684.4548679609927
 21
228.9754242312015
 31
0.0
  0
INSERT
  5
9FB
330
972
100
AcDbEntity
  8
0
 62
     0
370
    -2
100
AcDbBlockReference
  2
_Open30
 10
688.4591729141845
 20
228.9754242312015
 30
0.0
 41
2.5
 42
2.5
 43
2.5
 50
180.0
  0
INSERT
  5
9FC
330
972
100
AcDbEntity
  8
0
 62
     0
370
    -2
100
AcDbBlockReference
  2
_Open30
 10
684.4548679609927
 20
228.9754242312015
 30
0.0
 41
2.5
 42
2.5
 43
2.5
  0
MTEXT
  5
9FD
330
972
100
AcDbEntity
  8
0
 62
     4
100
AcDbMText
 10
674.8298679609927
 20
231.2004242312015
 30
0.0
 40
3.2
 41
0.0
 71
     5
 72
     1
  1
8.01
  7
高3.2
 73
     1
 44
1.0
1001
ACAD
1000
MTEXTBEGIN
1070
    73
1070
     1
1070
    44
1040
1.0
1070
    74
1070
     0
1000
MTEXTEND
  0
POINT
  5
9FE
330
972
100
AcDbEntity
  8
Defpoints
 62
     0
100
AcDbPoint
 10
688.4591729141845
 20
230.2485118935688
 30
0.0
  0
POINT
  5
9FF
330
972
100
AcDbEntity
  8
Defpoints
 62
     0
100
AcDbPoint
 10
684.4548679609927
 20
230.2485118935688
 30
0.0
  0
POINT
  5
A00
330
972
100
AcDbEntity
  8
Defpoints
 62
     0
100
AcDbPoint
 10
684.4548679609927
 20
228.9754242312015
 30
0.0
  0
ENDBLK
  5
974
330
972
100
AcDbEntity
  8
0
100
AcDbBlockEnd
  0
BLOCK
  5
981
330
980
100
AcDbEntity
  8
0
100
AcDbBlockBegin
  2
*D8
 70
     1
 10
0.0
 20
0.0
 30
0.0
  3
*D8
  1

  0
LINE
  5
A01
330
980
100
AcDbEntity
  8
0
 62
     0
370
    -2
100
AcDbLine
 10
688.3681662121722
 20
224.7242919255372
 30
0.0
 11
688.3681662121722
 21
222.9058784180808
 31
0.0
  0
LINE
  5
A02
330
980
100
AcDbEntity
  8
0
 62
     0
370
    -2
100
AcDbLine
 10
683.6358055079561
 20
224.7242919255372
 30
0.0
 11
683.6358055079561
 21
222.9058784180808
 31
0.0
  0
LINE
  5
A03
330
980
100
AcDbEntity
  8
0
 62
     0
370
    -2
100
AcDbLine
 10
690.8681662121722
 20
224.1558784180808
 30
0.0
 11
693.3681662121722
 21
224.1558784180808
 31
0.0
  0
LINE
  5
A04
330
980
100
AcDbEntity
  8
0
 62
     0
370
    -2
100
AcDbLine
 10
681.1358055079562
 20
224.1558784180808
 30
0.0
 11
659.3858055079562
 21
224.1558784180808
 31
0.0
  0
LINE
  5
A05
330
980
100
AcDbEntity
  8
0
 62
     0
370
    -2
100
AcDbLine
 10
688.3681662121722
 20
224.1558784180808
 30
0.0
 11
683.6358055079561
 21
224.1558784180808
 31
0.0
  0
INSERT
  5
A06
330
980
100
AcDbEntity
  8
0
 62
     0
370
    -2
100
AcDbBlockReference
  2
_Open30
 10
688.3681662121722
 20
224.1558784180808
 30
0.0
 41
2.5
 42
2.5
 43
2.5
 50
180.0
  0
INSERT
  5
A07
330
980
100
AcDbEntity
  8
0
 62
     0
370
    -2
100
AcDbBlockReference
  2
_Open30
 10
683.6358055079561
 20
224.1558784180808
 30
0.0
 41
2.5
 42
2.5
 43
2.5
  0
MTEXT
  5
A08
330
980
100
AcDbEntity
  8
0
 62
     4
100
AcDbMText
 10
669.0108055079562
 20
227.0308784180808
 30
0.0
 40
4.5
 41
0.0
 71
     5
 72
     1
  1
47.32
  7
高4.5
 73
     1
 44
1.0
1001
ACAD
1000
MTEXTBEGIN
1070
    73
1070
     1
1070
    44
1040
1.0
1070
    74
1070
     0
1000
MTEXTEND
  0
POINT
  5
A09
330
980
100
AcDbEntity
  8
Defpoints
 62
     0
100
AcDbPoint
 10
688.3681662121722
 20
224.9742919255372
 30
0.0
  0
POINT
  5
A0A
330
980
100
AcDbEntity
  8
Defpoints
 62
     0
100
AcDbPoint
 10
683.6358055079561
 20
224.9742919255372
 30
0.0
  0
POINT
  5
A0B
330
980
100
AcDbEntity
  8
Defpoints
 62
     0
100
AcDbPoint
 10
683.6358055079561
 20
224.1558784180808
 30
0.0
  0
ENDBLK
  5
982
330
980
100
AcDbEntity
  8
0
100
AcDbBlockEnd
  0
BLOCK
  5
98F
330
98E
100
AcDbEntity
  8
0
100
AcDbBlockBegin
  2
*D9
 70
     1
 10
0.0
 20
0.0
 30
0.0
  3
*D9
  1

  0
LINE
  5
A0C
330
98E
100
AcDbEntity
  8
0
 62
     0
370
    -2
100
AcDbLine
 10
709.8458024801796
 20
240.9106911821776
 30
0.0
 11
709.8458024801796
 21
238.0010597601688
 31
0.0
  0
LINE
  5
A0D
330
98E
100
AcDbEntity
  8
0
 62
     0
370
    -2
100
AcDbLine
 10
707.3886154260594
 20
240.9106911821776
 30
0.0
 11
707.3886154260594
 21
238.0010597601688
 31
0.0
  0
LINE
  5
A0E
330
98E
100
AcDbEntity
  8
0
 62
     0
370
    -2
100
AcDbLine
 10
712.3458024801797
 20
239.2510597601688
 30
0.0
 11
714.8458024801797
 21
239.2510597601688
 31
0.0
  0
LINE
  5
A0F
330
98E
100
AcDbEntity
  8
0
 62
     0
370
    -2
100
AcDbLine
 10
704.8886154260594
 20
239.2510597601688
 30
0.0
 11
683.2886154260592
 21
239.2510597601688
 31
0.0
  0
LINE
  5
A10
330
98E
100
AcDbEntity
  8
0
 62
     0
370
    -2
100
AcDbLine
 10
709.8458024801796
 20
239.2510597601688
 30
0.0
 11
707.3886154260594
 21
239.2510597601688
 31
0.0
  0
INSERT
  5
A11
330
98E
100
AcDbEntity
  8
0
 62
     0
370
    -2
100
AcDbBlockReference
  2
_Open30
 10
709.8458024801796
 20
239.2510597601688
 30
0.0
 41
2.5
 42
2.5
 43
2.5
 50
180.0
  0
INSERT
  5
A12
330
98E
100
AcDbEntity
  8
0
 62
     0
370
    -2
100
AcDbBlockReference
  2
_Open30
 10
707.3886154260594
 20
239.2510597601688
 30
0.0
 41
2.5
 42
2.5
 43
2.5
  0
MTEXT
  5
A13
330
98E
100
AcDbEntity
  8
0
 62
     4
100
AcDbMText
 10
692.8386154260596
 20
243.0260597601688
 30
0.0
 40
6.299999999999998
 41
0.0
 71
     5
 72
     1
  1
0.25
  7
高6.3
 73
     1
 44
1.0
1001
ACAD
1000
MTEXTBEGIN
1070
    73
1070
     1
1070
    44
1040
1.0
1070
    74
1070
     0
1000
MTEXTEND
  0
POINT
  5
A14
330
98E
100
AcDbEntity
  8
Defpoints
 62
     0
100
AcDbPoint
 10
709.8458024801796
 20
241.1606911821776
 30
0.0
  0
POINT
  5
A15
330
98E
100
AcDbEntity
  8
Defpoints
 62
     0
100
AcDbPoint
 10
707.3886154260594
 20
241.1606911821776
 30
0.0
  0
POINT
  5
A16
330
98E
100
AcDbEntity
  8
Defpoints
 62
     0
100
AcDbPoint
 10
707.3886154260594
 20
239.2510597601688
 30
0.0
  0
ENDBLK
  5
990
330
98E
100
AcDbEntity
  8
0
100
AcDbBlockEnd
  0
BLOCK
  5
99D
330
99C
100
AcDbEntity
  8
0
100
AcDbBlockBegin
  2
*D10
 70
     1
 10
0.0
 20
0.0
 30
0.0
  3
*D10
  1

  0
LINE
  5
A17
330
99C
100
AcDbEntity
  8
0
 62
     0
370
    -2
100
AcDbLine
 10
711.4839273862529
 20
235.4546016094154
 30
0.0
 11
711.4839273862529
 21
232.9087095399519
 31
0.0
  0
LINE
  5
A18
330
99C
100
AcDbEntity
  8
0
 62
     0
370
    -2
100
AcDbLine
 10
708.3896915881099
 20
235.4546016094154
 30
0.0
 11
708.3896915881099
 21
232.9087095399519
 31
0.0
  0
LINE
  5
A19
330
99C
100
AcDbEntity
  8
0
 62
     0
370
    -2
100
AcDbLine
 10
713.9839273862527
 20
234.1587095399519
 30
0.0
 11
716.4839273862527
 21
234.1587095399519
 31
0.0
  0
LINE
  5
A1A
330
99C
100
AcDbEntity
  8
0
 62
     0
370
    -2
100
AcDbLine
 10
705.8896915881099
 20
234.1587095399519
 30
0.0
 11
693.8896915881099
 21
234.1587095399519
 31
0.0
  0
LINE
  5
A1B
330
99C
100
AcDbEntity
  8
0
 62
     0
370
    -2
100
AcDbLine
 10
711.4839273862529
 20
234.1587095399519
 30
0.0
 11
708.3896915881099
 21
234.1587095399519
 31
0.0
  0
INSERT
  5
A1C
330
99C
100
AcDbEntity
  8
0
 62
     0
370
    -2
100
AcDbBlockReference
  2
_Open30
 10
711.4839273862529
 20
234.1587095399519
 30
0.0
 41
2.5
 42
2.5
 43
2.5
 50
180.0
  0
INSERT
  5
A1D
330
99C
100
AcDbEntity
  8
0
 62
     0
370
    -2
100
AcDbBlockReference
  2
_Open30
 10
708.3896915881099
 20
234.1587095399519
 30
0.0
 41
2.5
 42
2.5
 43
2.5
  0
MTEXT
  5
A1E
330
99C
100
AcDbEntity
  8
0
 62
     4
100
AcDbMText
 10
698.5146915881101
 20
236.2837095399519
 30
0.0
 40
3.0
 41
0.0
 71
     5
 72
     1
  1
1.55
 73
     1
 44
1.0
1001
ACAD
1000
MTEXTBEGIN
1070
    73
1070
     1
1070
    44
1040
1.0
1070
    74
1070
     0
1000
MTEXTEND
  0
POINT
  5
A1F
330
99C
100
AcDbEntity
  8
Defpoints
 62
     0
100
AcDbPoint
 10
711.4839273862529
 20
235.7046016094153
 30
0.0
  0
POINT
  5
A20
330
99C
100
AcDbEntity
  8
Defpoints
 62
     0
100
AcDbPoint
 10
708.3896915881099
 20
235.7046016094153
 30
0.0
  0
POINT
  5
A21
330
99C
100
AcDbEntity
  8
Defpoints
 62
     0
100
AcDbPoint
 10
708.3896915881099
 20
234.1587095399519
 30
0.0
  0
ENDBLK
  5
99E
330
99C
100
AcDbEntity
  8
0
100
AcDbBlockEnd
  0
BLOCK
  5
9AB
330
9AA
100
AcDbEntity
  8
0
100
AcDbBlockBegin
  2
*D11
 70
     1
 10
0.0
 20
0.0
 30
0.0
  3
*D11
  1

  0
LINE
  5
A22
330
9AA
100
AcDbEntity
  8
0
 62
     0
370
    -2
100
AcDbLine
 10
713.2130589943382
 20
229.9985118935688
 30
0.0
 11
713.2130589943382
 21
227.7254242312015
 31
0.0
  0
LINE
  5
A23
330
9AA
100
AcDbEntity
  8
0
 62
     0
370
    -2
100
AcDbLine
 10
709.2087540411466
 20
229.9985118935688
 30
0.0
 11
709.2087540411466
 21
227.7254242312015
 31
0.0
  0
LINE
  5
A24
330
9AA
100
AcDbEntity
  8
0
 62
     0
370
    -2
100
AcDbLine
 10
715.7130589943382
 20
228.9754242312015
 30
0.0
 11
718.2130589943382
 21
228.9754242312015
 31
0.0
  0
LINE
  5
A25
330
9AA
100
AcDbEntity
  8
0
 62
     0
370
    -2
100
AcDbLine
 10
706.7087540411466
 20
228.9754242312015
 30
0.0
 11
698.3754207078134
 21
228.9754242312015
 31
0.0
  0
LINE
  5
A26
330
9AA
100
AcDbEntity
  8
0
 62
     0
370
    -2
100
AcDbLine
 10
713.2130589943382
 20
228.9754242312015
 30
0.0
 11
709.2087540411466
 21
228.9754242312015
 31
0.0
  0
INSERT
  5
A27
330
9AA
100
AcDbEntity
  8
0
 62
     0
370
    -2
100
AcDbBlockReference
  2
_Open30
 10
713.2130589943382
 20
228.9754242312015
 30
0.0
 41
2.5
 42
2.5
 43
2.5
 50
180.0
  0
INSERT
  5
A28
330
9AA
100
AcDbEntity
  8
0
 62
     0
370
    -2
100
AcDbBlockReference
  2
_Open30
 10
709.2087540411466
 20
228.9754242312015
 30
0.0
 41
2.5
 42
2.5
 43
2.5
  0
MTEXT
  5
A29
330
9AA
100
AcDbEntity
  8
0
 62
     4
100
AcDbMText
 10
700.8337540411466
 20
230.6004242312015
 30
0.0
 40
2.0
 41
0.0
 71
     5
 72
     1
  1
0.8
  7
高2
 73
     1
 44
1.0
1001
ACAD
1000
MTEXTBEGIN
1070
    73
1070
     1
1070
    44
1040
1.0
1070
    74
1070
     0
1000
MTEXTEND
  0
POINT
  5
A2A
330
9AA
100
AcDbEntity
  8
Defpoints
 62
     0
100
AcDbPoint
 10
713.2130589943382
 20
230.2485118935688
 30
0.0
  0
POINT
  5
A2B
330
9AA
100
AcDbEntity
  8
Defpoints
 62
     0
100
AcDbPoint
 10
709.2087540411466
 20
230.2485118935688
 30
0.0
  0
POINT
  5
A2C
330
9AA
100
AcDbEntity
  8
Defpoints
 62
     0
100
AcDbPoint
 10
709.2087540411466
 20
228.9754242312015
 30
0.0
  0
ENDBLK
  5
9AC
330
9AA
100
AcDbEntity
  8
0
100
AcDbBlockEnd
  0
BLOCK
  5
9B9
330
9B8
100
AcDbEntity
  8
0
100
AcDbBlockBegin
  2
*D12
 70
     1
 10
0.0
 20
0.0
 30
0.0
  3
*D12
  1

  0
LINE
  5
A2D
330
9B8
100
AcDbEntity
  8
0
 62
     0
370
    -2
100
AcDbLine
 10
713.1220522923261
 20
224.7242919255372
 30
0.0
 11
713.1220522923261
 21
222.9058784180808
 31
0.0
  0
LINE
  5
A2E
330
9B8
100
AcDbEntity
  8
0
 62
     0
370
    -2
100
AcDbLine
 10
708.3896915881099
 20
224.7242919255372
 30
0.0
 11
708.3896915881099
 21
222.9058784180808
 31
0.0
  0
LINE
  5
A2F
330
9B8
100
AcDbEntity
  8
0
 62
     0
370
    -2
100
AcDbLine
 10
715.6220522923261
 20
224.1558784180808
 30
0.0
 11
718.122052292326
 21
224.1558784180808
 31
0.0
  0
LINE
  5
A30
330
9B8
100
AcDbEntity
  8
0
 62
     0
370
    -2
100
AcDbLine
 10
705.8896915881099
 20
224.1558784180808
 30
0.0
 11
691.1396915881099
 21
224.1558784180808
 31
0.0
  0
LINE
  5
A31
330
9B8
100
AcDbEntity
  8
0
 62
     0
370
    -2
100
AcDbLine
 10
713.1220522923261
 20
224.1558784180808
 30
0.0
 11
708.3896915881099
 21
224.1558784180808
 31
0.0
  0
INSERT
  5
A32
330
9B8
100
AcDbEntity
  8
0
 62
     0
370
    -2
100
AcDbBlockReference
  2
_Open30
 10
713.1220522923261
 20
224.1558784180808
 30
0.0
 41
2.5
 42
2.5
 43
2.5
 50
180.0
  0
INSERT
  5
A33
330
9B8
100
AcDbEntity
  8
0
 62
     0
370
    -2
100
AcDbBlockReference
  2
_Open30
 10
708.3896915881099
 20
224.1558784180808
 30
0.0
 41
2.5
 42
2.5
 43
2.5
  0
MTEXT
  5
A34
330
9B8
100
AcDbEntity
  8
0
 62
     4
100
AcDbMText
 10
697.2646915881099
 20
226.2808784180807
 30
0.0
 40
3.0
 41
0.0
 71
     5
 72
     1
  1
18.93
 73
     1
 44
1.0
1001
ACAD
1000
MTEXTBEGIN
1070
    73
1070
     1
1070
    44
1040
1.0
1070
    74
1070
     0
1000
MTEXTEND
  0
POINT
  5
A35
330
9B8
100
AcDbEntity
  8
Defpoints
 62
     0
100
AcDbPoint
 10
713.1220522923261
 20
224.9742919255372
 30
0.0
  0
POINT
  5
A36
330
9B8
100
AcDbEntity
  8
Defpoints
 62
     0
100
AcDbPoint
 10
708.3896915881099
 20
224.9742919255372
 30
0.0
  0
POINT
  5
A37
330
9B8
100
AcDbEntity
  8
Defpoints
 62
     0
100
AcDbPoint
 10
708.3896915881099
 20
224.1558784180808
 30
0.0
  0
ENDBLK
  5
9BA
330
9B8
100
AcDbEntity
  8
0
100
AcDbBlockEnd
  0
BLOCK
  5
9C7
330
9C6
100
AcDbEntity
  8
0
100
AcDbBlockBegin
  2
*D13
 70
     1
 10
0.0
 20
0.0
 30
0.0
  3
*D13
  1

  0
LINE
  5
A38
330
9C6
100
AcDbEntity
  8
0
 62
     0
370
    -2
100
AcDbLine
 10
710.3176254411877
 20
219.6684517189474
 30
0.0
 11
710.3176254411877
 21
217.3585306420719
 31
0.0
  0
LINE
  5
A39
330
9C6
100
AcDbEntity
  8
0
 62
     0
370
    -2
100
AcDbLine
 10
705.7289502390399
 20
219.6684517189474
 30
0.0
 11
705.7289502390399
 21
217.3585306420719
 31
0.0
  0
LINE
  5
A3A
330
9C6
100
AcDbEntity
  8
0
 62
     0
370
    -2
100
AcDbLine
 10
712.8176254411877
 20
218.6085306420718
 30
0.0
 11
715.3176254411877
 21
218.6085306420718
 31
0.0
  0
LINE
  5
A3B
330
9C6
100
AcDbEntity
  8
0
 62
     0
370
    -2
100
AcDbLine
 10
703.2289502390399
 20
218.6085306420718
 30
0.0
 11
688.4789502390399
 21
218.6085306420718
 31
0.0
  0
LINE
  5
A3C
330
9C6
100
AcDbEntity
  8
0
 62
     0
370
    -2
100
AcDbLine
 10
710.3176254411877
 20
218.6085306420718
 30
0.0
 11
705.7289502390399
 21
218.6085306420718
 31
0.0
  0
INSERT
  5
A3D
330
9C6
100
AcDbEntity
  8
0
 62
     0
370
    -2
100
AcDbBlockReference
  2
_Open30
 10
710.3176254411877
 20
218.6085306420718
 30
0.0
 41
2.5
 42
2.5
 43
2.5
 50
180.0
  0
INSERT
  5
A3E
330
9C6
100
AcDbEntity
  8
0
 62
     0
370
    -2
100
AcDbBlockReference
  2
_Open30
 10
705.7289502390399
 20
218.6085306420718
 30
0.0
 41
2.5
 42
2.5
 43
2.5
  0
MTEXT
  5
A3F
330
9C6
100
AcDbEntity
  8
0
 62
     4
100
AcDbMText
 10
694.6039502390399
 20
220.7335306420719
 30
0.0
 40
3.0
 41
0.0
 71
     5
 72
     1
  1
13.77
 73
     1
 44
1.0
1001
ACAD
1000
MTEXTBEGIN
1070
    73
1070
     1
1070
    44
1040
1.0
1070
    74
1070
     0
1000
MTEXTEND
  0
POINT
  5
A40
330
9C6
100
AcDbEntity
  8
Defpoints
 62
     0
100
AcDbPoint
 10
710.3176254411877
 20
219.9184517189474
 30
0.0
  0
POINT
  5
A41
330
9C6
100
AcDbEntity
  8
Defpoints
 62
     0
100
AcDbPoint
 10
705.7289502390399
 20
219.9184517189474
 30
0.0
  0
POINT
  5
A42
330
9C6
100
AcDbEntity
  8
Defpoints
 62
     0
100
AcDbPoint
 10
705.7289502390399
 20
218.6085306420718
 30
0.0
  0
ENDBLK
  5
9C8
330
9C6
100
AcDbEntity
  8
0
100
AcDbBlockEnd
  0
BLOCK
  5
9D5
330
9D4
100
AcDbEntity
  8
0
100
AcDbBlockBegin
  2
*D14
 70
     1
 10
0.0
 20
0.0
 30
0.0
  3
*D14
  1

  0
LINE
  5
A43
330
9D4
100
AcDbEntity
  8
0
 62
     0
370
    -2
100
AcDbLine
 10
703.2213426080375
 20
250.5979430372217
 30
0.0
 11
703.2213426080375
 21
257.9944765151595
 31
0.0
  0
LINE
  5
A44
330
9D4
100
AcDbEntity
  8
0
 62
     0
370
    -2
100
AcDbLine
 10
693.2828682385475
 20
250.5979430372217
 30
0.0
 11
693.2828682385475
 21
257.9944765151595
 31
0.0
  0
LINE
  5
A45
330
9D4
100
AcDbEntity
  8
0
 62
     0
370
    -2
100
AcDbLine
 10
700.7213426080376
 20
256.7444765151595
 30
0.0
 11
695.7828682385475
 21
256.7444765151595
 31
0.0
  0
INSERT
  5
A46
330
9D4
100
AcDbEntity
  8
0
 62
     0
370
    -2
100
AcDbBlockReference
  2
_Open30
 10
703.2213426080375
 20
256.7444765151595
 30
0.0
 41
2.5
 42
2.5
 43
2.5
  0
INSERT
  5
A47
330
9D4
100
AcDbEntity
  8
0
 62
     0
370
    -2
100
AcDbBlockReference
  2
_Open30
 10
693.2828682385475
 20
256.7444765151595
 30
0.0
 41
2.5
 42
2.5
 43
2.5
 50
180.0
  0
MTEXT
  5
A48
330
9D4
100
AcDbEntity
  8
0
 62
     4
100
AcDbMText
 10
698.2521054232925
 20
259.8194765151595
 30
0.0
 40
3.0
 41
0.0
 71
     5
 72
     1
  1
9.94\H0.7X;\S+0^ -0.02;
 73
     1
 44
1.0
1001
ACAD
1000
MTEXTBEGIN
1070
    73
1070
     1
1070
    44
1040
1.0
1070
    74
1070
     0
1000
MTEXTEND
  0
POINT
  5
A49
330
9D4
100
AcDbEntity
  8
Defpoints
 62
     0
100
AcDbPoint
 10
703.2213426080375
 20
250.3479430372217
 30
0.0
  0
POINT
  5
A4A
330
9D4
100
AcDbEntity
  8
Defpoints
 62
     0
100
AcDbPoint
 10
693.2828682385475
 20
250.3479430372217
 30
0.0
  0
POINT
  5
A4B
330
9D4
100
AcDbEntity
  8
Defpoints
 62
     0
100
AcDbPoint
 10
693.2828682385475
 20
256.7444765151595
 30
0.0
  0
ENDBLK
  5
9D6
330
9D4
100
AcDbEntity
  8
0
100
AcDbBlockEnd
  0
ENDSEC
  0
SECTION
  2
ENTITIES
  0
ARC
  5
BB
330
6B
100
AcDbEntity
  8
0
 62
     3
100
AcDbCircle
 10
36.356047
 20
161.1593629999999
 30
0.0
 40
6.702999999999997
100
AcDbArc
 50
180.0
 51
270.0
  0
ARC
  5
BC
330
6B
100
AcDbEntity
  8
0
 62
     3
100
AcDbCircle
 10
36.356047
 20
161.1593629999999
 30
0.0
 40
3.266
100
AcDbArc
 50
180.0
 51
270.0
  0
LINE
  5
BD
330
6B
100
AcDbEntity
  8
0
 62
     3
100
AcDbLine
 10
112.669047
 20
208.768363
 30
0.0
 11
36.356047
 21
208.768363
 31
0.0
  0
LINE
  5
BE
330
6B
100
AcDbEntity
  8
0
 62
     3
100
AcDbLine
 10
36.356047
 20
157.893363
 30
0.0
 11
112.669047
 21
157.893363
 31
0.0
  0
ARC
  5
BF
330
6B
100
AcDbEntity
  8
0
 62
     3
100
AcDbCircle
 10
112.669047
 20
161.1593629999999
 30
0.0
 40
3.266
100
AcDbArc
 50
270.0
 51
0.0
  0
LINE
  5
C0
330
6B
100
AcDbEntity
  8
0
 62
     3
100
AcDbLine
 10
36.356047
 20
154.455363
 30
0.0
 11
112.669047
 21
154.455363
 31
0.0
  0
ARC
  5
C1
330
6B
100
AcDbEntity
  8
0
 62
     3
100
AcDbCircle
 10
112.669047
 20
161.1593629999999
 30
0.0
 40
6.702999999999997
100
AcDbArc
 50
270.0
 51
0.0
  0
LINE
  5
C2
330
6B
100
AcDbEntity
  8
0
 62
     3
100
AcDbLine
 10
119.372047
 20
161.1593629999999
 30
0.0
 11
119.372047
 21
205.502363
 31
0.0
  0
ARC
  5
C3
330
6B
100
AcDbEntity
  8
0
 62
     3
100
AcDbCircle
 10
112.669047
 20
205.502363
 30
0.0
 40
6.702999999999997
100
AcDbArc
 50
0.0
 51
90.0
  0
LINE
  5
C4
330
6B
100
AcDbEntity
  8
0
 62
     3
100
AcDbLine
 10
29.653047
 20
205.502363
 30
0.0
 11
29.653047
 21
161.1593629999999
 31
0.0
  0
LINE
  5
C5
330
6B
100
AcDbEntity
  8
0
 62
     3
100
AcDbLine
 10
112.669047
 20
212.205363
 30
0.0
 11
36.356047
 21
212.205363
 31
0.0
  0
ARC
  5
C6
330
6B
100
AcDbEntity
  8
0
 62
     3
100
AcDbCircle
 10
36.356047
 20
205.502363
 30
0.0
 40
6.702999999999997
100
AcDbArc
 50
90.0
 51
180.0
  0
LINE
  5
C7
330
6B
100
AcDbEntity
  8
0
 62
     3
100
AcDbLine
 10
45.46604699999998
 20
150.502363
 30
0.0
 11
38.247047
 21
150.502363
 31
0.0
  0
LINE
  5
C8
330
6B
100
AcDbEntity
  8
0
 62
     3
100
AcDbLine
 10
45.96004699999999
 20
154.455363
 30
0.0
 11
45.46604699999998
 21
150.502363
 31
0.0
  0
LINE
  5
C9
330
6B
100
AcDbEntity
  8
0
 62
     3
100
AcDbLine
 10
38.247047
 20
150.502363
 30
0.0
 11
37.75304699999999
 21
154.455363
 31
0.0
  0
LINE
  5
CA
330
6B
100
AcDbEntity
  8
0
 62
     3
100
AcDbLine
 10
103.560047
 20
150.502363
 30
0.0
 11
110.778047
 21
150.502363
 31
0.0
  0
LINE
  5
CB
330
6B
100
AcDbEntity
  8
0
 62
     3
100
AcDbLine
 10
103.065047
 20
154.455363
 30
0.0
 11
103.560047
 21
150.502363
 31
0.0
  0
LINE
  5
CC
330
6B
100
AcDbEntity
  8
0
 62
     3
100
AcDbLine
 10
110.778047
 20
150.502363
 30
0.0
 11
111.272047
 21
154.455363
 31
0.0
  0
LINE
  5
CD
330
6B
100
AcDbEntity
  8
0
 62
     3
100
AcDbLine
 10
217.066047
 20
156.346363
 30
0.0
 11
217.066047
 21
211.002363
 31
0.0
  0
LINE
  5
CE
330
6B
100
AcDbEntity
  8
0
 62
     3
100
AcDbLine
 10
203.831047
 20
150.502363
 30
0.0
 11
211.050047
 21
150.502363
 31
0.0
  0
LINE
  5
CF
330
6B
100
AcDbEntity
  8
0
 62
     3
100
AcDbLine
 10
203.101047
 20
156.346363
 30
0.0
 11
203.831047
 21
150.502363
 31
0.0
  0
LINE
  5
D0
330
6B
100
AcDbEntity
  8
0
 62
     3
100
AcDbLine
 10
211.050047
 20
150.502363
 30
0.0
 11
211.781047
 21
156.346363
 31
0.0
  0
LINE
  5
D1
330
6B
100
AcDbEntity
  8
0
 62
     3
100
AcDbLine
 10
155.706047
 20
150.502363
 30
0.0
 11
162.925047
 21
150.502363
 31
0.0
  0
LINE
  5
D2
330
6B
100
AcDbEntity
  8
0
 62
     3
100
AcDbLine
 10
154.976047
 20
156.346363
 30
0.0
 11
155.706047
 21
150.502363
 31
0.0
  0
LINE
  5
D3
330
6B
100
AcDbEntity
  8
0
 62
     3
100
AcDbLine
 10
162.925047
 20
150.502363
 30
0.0
 11
163.656047
 21
156.346363
 31
0.0
  0
LINE
  5
D4
330
6B
100
AcDbEntity
  8
0
 62
     3
100
AcDbLine
 10
145.222047
 20
156.346363
 30
0.0
 11
217.066047
 21
156.346363
 31
0.0
  0
LINE
  5
D5
330
6B
100
AcDbEntity
  8
0
 62
     3
100
AcDbLine
 10
145.222047
 20
211.002363
 30
0.0
 11
217.066047
 21
211.002363
 31
0.0
  0
ARC
  5
D6
330
6B
100
AcDbEntity
  8
0
 62
     3
100
AcDbCircle
 10
138.003047
 20
156.346363
 30
0.0
 40
1.719
100
AcDbArc
 50
180.0
 51
270.0
  0
LINE
  5
D7
330
6B
100
AcDbEntity
  8
0
 62
     3
100
AcDbLine
 10
136.285047
 20
156.346363
 30
0.0
 11
136.285047
 21
211.002363
 31
0.0
  0
ARC
  5
D8
330
6B
100
AcDbEntity
  8
0
 62
     3
100
AcDbCircle
 10
138.003047
 20
211.002363
 30
0.0
 40
1.719
100
AcDbArc
 50
90.0
 51
180.0
  0
LINE
  5
D9
330
6B
100
AcDbEntity
  8
0
 62
     3
100
AcDbLine
 10
144.535047
 20
212.721363
 30
0.0
 11
138.003047
 21
212.721363
 31
0.0
  0
ARC
  5
DA
330
6B
100
AcDbEntity
  8
0
 62
     3
100
AcDbCircle
 10
144.535047
 20
212.034363
 30
0.0
 40
0.6879999999999999
100
AcDbArc
 50
0.0
 51
90.0
  0
LINE
  5
DB
330
6B
100
AcDbEntity
  8
0
 62
     3
100
AcDbLine
 10
138.003047
 20
154.627363
 30
0.0
 11
144.535047
 21
154.627363
 31
0.0
  0
LINE
  5
DC
330
6B
100
AcDbEntity
  8
0
 62
     3
100
AcDbLine
 10
145.222047
 20
155.315363
 30
0.0
 11
145.222047
 21
212.034363
 31
0.0
  0
ARC
  5
DD
330
6B
100
AcDbEntity
  8
0
 62
     3
100
AcDbCircle
 10
144.535047
 20
155.315363
 30
0.0
 40
0.6879999999999999
100
AcDbArc
 50
270.0
 51
0.0
  0
LINE
  5
DE
330
6B
100
AcDbEntity
  8
0
 62
     3
100
AcDbLine
 10
217.066047
 20
173.534363
 30
0.0
 11
145.222047
 21
173.534363
 31
0.0
  0
ARC
  5
DF
330
6B
100
AcDbEntity
  8
0
 62
     3
100
AcDbCircle
 10
325.931047
 20
161.1593629999999
 30
0.0
 40
6.702999999999997
100
AcDbArc
 50
270.0
 51
0.0
  0
ARC
  5
E0
330
6B
100
AcDbEntity
  8
0
 62
     3
100
AcDbCircle
 10
249.619047
 20
161.1593629999999
 30
0.0
 40
6.702999999999997
100
AcDbArc
 50
180.0
 51
270.0
  0
LINE
  5
E1
330
6B
100
AcDbEntity
  8
0
 62
     3
100
AcDbLine
 10
242.916047
 20
161.1593629999999
 30
0.0
 11
242.916047
 21
205.502363
 31
0.0
  0
ARC
  5
E2
330
6B
100
AcDbEntity
  8
0
 62
     3
100
AcDbCircle
 10
249.619047
 20
205.502363
 30
0.0
 40
6.702999999999997
100
AcDbArc
 50
90.0
 51
180.0
  0
LINE
  5
E3
330
6B
100
AcDbEntity
  8
0
 62
     3
100
AcDbLine
 10
332.635047
 20
205.502363
 30
0.0
 11
332.635047
 21
161.1593629999999
 31
0.0
  0
LINE
  5
E4
330
6B
100
AcDbEntity
  8
0
 62
     3
100
AcDbLine
 10
249.619047
 20
212.205363
 30
0.0
 11
325.931047
 21
212.205363
 31
0.0
  0
ARC
  5
E5
330
6B
100
AcDbEntity
  8
0
 62
     3
100
AcDbCircle
 10
325.931047
 20
205.502363
 30
0.0
 40
6.702999999999997
100
AcDbArc
 50
0.0
 51
90.0
  0
LINE
  5
E6
330
6B
100
AcDbEntity
  8
0
 62
     3
100
AcDbLine
 10
316.328047
 20
154.455363
 30
0.0
 11
316.822047
 21
150.502363
 31
0.0
  0
LINE
  5
E7
330
6B
100
AcDbEntity
  8
0
 62
     3
100
AcDbLine
 10
324.041047
 20
150.502363
 30
0.0
 11
324.535047
 21
154.455363
 31
0.0
  0
LINE
  5
E8
330
6B
100
AcDbEntity
  8
0
 62
     3
100
AcDbLine
 10
259.222047
 20
154.455363
 30
0.0
 11
258.728047
 21
150.502363
 31
0.0
  0
LINE
  5
E9
330
6B
100
AcDbEntity
  8
0
 62
     3
100
AcDbLine
 10
251.510047
 20
150.502363
 30
0.0
 11
251.015047
 21
154.455363
 31
0.0
  0
LINE
  5
EA
330
6B
100
AcDbEntity
  8
0
 62
     3
100
AcDbLine
 10
325.931047
 20
154.455363
 30
0.0
 11
320.636047
 21
154.455363
 31
0.0
  0
LINE
  5
EB
330
6B
100
AcDbEntity
  8
0
 62
     3
100
AcDbLine
 10
320.636047
 20
150.502363
 30
0.0
 11
324.041047
 21
150.502363
 31
0.0
  0
LINE
  5
EC
330
6B
100
AcDbEntity
  8
0
 62
     3
100
AcDbLine
 10
257.525047
 20
167.588363
 30
0.0
 11
257.525047
 21
165.736363
 31
0.0
  0
ARC
  5
ED
330
6B
100
AcDbEntity
  8
0
 62
     3
100
AcDbCircle
 10
255.119047
 20
166.662363
 30
0.0
 40
2.577999999999998
100
AcDbArc
 50
21.039
 51
158.961
  0
LINE
  5
EE
330
6B
100
AcDbEntity
  8
0
 62
     3
100
AcDbLine
 10
252.713047
 20
167.588363
 30
0.0
 11
252.713047
 21
165.736363
 31
0.0
  0
ARC
  5
EF
330
6B
100
AcDbEntity
  8
0
 62
     3
100
AcDbCircle
 10
255.119047
 20
166.662363
 30
0.0
 40
2.577999999999998
100
AcDbArc
 50
304.557662
 51
338.961
  0
ARC
  5
F0
330
6B
100
AcDbEntity
  8
0
 62
     3
100
AcDbCircle
 10
255.119047
 20
166.662363
 30
0.0
 40
2.577999999999998
100
AcDbArc
 50
201.039
 51
240.034195
  0
LINE
  5
F1
330
6B
100
AcDbEntity
  8
0
 62
     3
100
AcDbLine
 10
253.83138
 20
150.502363
 30
0.0
 11
251.510047
 21
150.502363
 31
0.0
  0
LINE
  5
F2
330
6B
100
AcDbEntity
  8
0
 62
     3
100
AcDbLine
 10
253.83138
 20
154.455363
 30
0.0
 11
249.619047
 21
154.455363
 31
0.0
  0
LINE
  5
F3
330
6B
100
AcDbEntity
  8
0
 62
     3
100
AcDbLine
 10
258.728047
 20
150.502363
 30
0.0
 11
256.58138
 21
150.502363
 31
0.0
  0
LINE
  5
F4
330
6B
100
AcDbEntity
  8
0
 62
     3
100
AcDbLine
 10
316.769047
 20
154.455363
 30
0.0
 11
256.58138
 21
154.455363
 31
0.0
  0
LINE
  5
F5
330
6B
100
AcDbEntity
  8
0
 62
     3
100
AcDbLine
 10
320.636047
 20
142.922363
 30
0.0
 11
320.636047
 21
178.006363
 31
0.0
  0
LINE
  5
F6
330
6B
100
AcDbEntity
  8
0
 62
     3
100
AcDbLine
 10
316.769047
 20
143.244363
 30
0.0
 11
316.769047
 21
178.006363
 31
0.0
  0
ARC
  5
F7
330
6B
100
AcDbEntity
  8
0
 62
     3
100
AcDbCircle
 10
318.703047
 20
178.006363
 30
0.0
 40
2.063
100
AcDbArc
 50
0.0
 51
180.0
  0
ARC
  5
F8
330
6B
100
AcDbEntity
  8
0
 62
     3
100
AcDbCircle
 10
318.703047
 20
178.006363
 30
0.0
 40
3.266
100
AcDbArc
 50
309.1670000000001
 51
230.833
  0
ARC
  5
F9
330
6B
100
AcDbEntity
  8
0
 62
     3
100
AcDbCircle
 10
318.703047
 20
166.662363
 30
0.0
 40
3.266
100
AcDbArc
 50
126.307
 51
230.833
  0
ARC
  5
FA
330
6B
100
AcDbEntity
  8
0
 62
     3
100
AcDbCircle
 10
318.703047
 20
166.662363
 30
0.0
 40
3.266
100
AcDbArc
 50
309.1670000000001
 51
53.69299999999999
  0
ARC
  5
FB
330
6B
100
AcDbEntity
  8
0
 62
     3
100
AcDbCircle
 10
318.703047
 20
166.662363
 30
0.0
 40
2.063
100
AcDbArc
 50
159.636
 51
180.0
  0
LINE
  5
FC
330
6B
100
AcDbEntity
  8
0
 62
     3
100
AcDbLine
 10
315.050047
 20
130.189363
 30
0.0
 11
299.281047
 21
130.189363
 31
0.0
  0
ARC
  5
FD
330
6B
100
AcDbEntity
  8
0
 62
     3
100
AcDbCircle
 10
315.050047
 20
131.9083629999999
 30
0.0
 40
1.719
100
AcDbArc
 50
270.0
 51
0.0
  0
LINE
  5
FE
330
6B
100
AcDbEntity
  8
0
 62
     3
100
AcDbLine
 10
315.480047
 20
126.322363
 30
0.0
 11
299.281047
 21
126.322363
 31
0.0
  0
ARC
  5
FF
330
6B
100
AcDbEntity
  8
0
 62
     3
100
AcDbCircle
 10
315.480047
 20
131.478363
 30
0.0
 40
5.155999999999997
100
AcDbArc
 50
270.0
 51
0.0
  0
LINE
  5
100
330
6B
100
AcDbEntity
  8
0
 62
     3
100
AcDbLine
 10
316.769047
 20
141.955405
 30
0.0
 11
316.769047
 21
131.9083629999999
 31
0.0
  0
LINE
  5
101
330
6B
100
AcDbEntity
  8
0
 62
     3
100
AcDbLine
 10
70.388047
 20
228.193363
 30
0.0
 11
70.388047
 21
229.912363
 31
0.0
  0
LINE
  5
102
330
6B
100
AcDbEntity
  8
0
 62
     3
100
AcDbLine
 10
78.638047
 20
229.912363
 30
0.0
 11
70.388047
 21
229.912363
 31
0.0
  0
LINE
  5
103
330
6B
100
AcDbEntity
  8
0
 62
     3
100
AcDbLine
 10
78.638047
 20
228.193363
 30
0.0
 11
78.638047
 21
229.912363
 31
0.0
  0
LINE
  5
104
330
6B
100
AcDbEntity
  8
0
 62
     3
100
AcDbLine
 10
78.638047
 20
228.193363
 30
0.0
 11
70.388047
 21
228.193363
 31
0.0
  0
LINE
  5
105
330
6B
100
AcDbEntity
  8
0
 62
     3
100
AcDbLine
 10
64.20004699999998
 20
212.205363
 30
0.0
 11
64.20004699999998
 21
214.440363
 31
0.0
  0
ARC
  5
106
330
6B
100
AcDbEntity
  8
0
 62
     3
100
AcDbCircle
 10
52.742047
 20
227.863363
 30
0.0
 40
17.649
100
AcDbArc
 50
310.484
 51
1.06
  0
ARC
  5
107
330
6B
100
AcDbEntity
  8
0
 62
     3
100
AcDbCircle
 10
96.284047
 20
227.863363
 30
0.0
 40
17.649
100
AcDbArc
 50
178.94
 51
229.516
  0
LINE
  5
108
330
6B
100
AcDbEntity
  8
0
 62
     3
100
AcDbLine
 10
84.82504699999998
 20
212.205363
 30
0.0
 11
84.82504699999998
 21
214.440363
 31
0.0
  0
ARC
  5
109
330
6B
100
AcDbEntity
  8
0
 62
     3
100
AcDbCircle
 10
169.630047
 20
219.814363
 30
0.0
 40
1.857
100
AcDbArc
 50
95.56099999999998
 51
165.239
  0
LINE
  5
10A
330
6B
100
AcDbEntity
  8
0
 62
     3
100
AcDbLine
 10
165.524047
 20
213.068363
 30
0.0
 11
167.834047
 21
220.287363
 31
0.0
  0
LINE
  5
10B
330
6B
100
AcDbEntity
  8
0
 62
     3
100
AcDbLine
 10
182.883047
 20
229.912363
 30
0.0
 11
174.633047
 21
229.912363
 31
0.0
  0
LINE
  5
10C
330
6B
100
AcDbEntity
  8
0
 62
     3
100
AcDbLine
 10
200.243047
 20
213.068363
 30
0.0
 11
197.933047
 21
220.287363
 31
0.0
  0
LINE
  5
10D
330
6B
100
AcDbEntity
  8
0
 62
     3
100
AcDbLine
 10
182.883047
 20
229.912363
 30
0.0
 11
191.133047
 21
229.912363
 31
0.0
  0
LINE
  5
10E
330
6B
100
AcDbEntity
  8
0
 62
     3
100
AcDbLine
 10
158.649047
 20
213.068363
 30
0.0
 11
158.649047
 21
212.037363
 31
0.0
  0
LINE
  5
10F
330
6B
100
AcDbEntity
  8
0
 62
     3
100
AcDbLine
 10
150.055047
 20
229.909363
 30
0.0
 11
150.055047
 21
228.534363
 31
0.0
  0
ARC
  5
110
330
6B
100
AcDbEntity
  8
0
 62
     3
100
AcDbCircle
 10
181.050047
 20
213.810363
 30
0.0
 40
22.471
100
AcDbArc
 50
152.847
 51
184.5329999999999
  0
LINE
  5
111
330
6B
100
AcDbEntity
  8
0
 62
     3
100
AcDbLine
 10
150.055047
 20
228.534363
 30
0.0
 11
155.555047
 21
228.534363
 31
0.0
  0
ARC
  5
112
330
6B
100
AcDbEntity
  8
0
 62
     3
100
AcDbCircle
 10
153.447047
 20
223.777363
 30
0.0
 40
5.202999999999998
100
AcDbArc
 50
3.003999999999998
 51
66.09999999999999
  0
ARC
  5
113
330
6B
100
AcDbEntity
  8
0
 62
     3
100
AcDbCircle
 10
229.853047
 20
197.214363
 30
0.0
 40
76.09799999999999
100
AcDbArc
 50
159.351
 51
168.77
  0
LINE
  5
114
330
6B
100
AcDbEntity
  8
0
 62
     3
100
AcDbLine
 10
155.211047
 20
212.034363
 30
0.0
 11
155.211047
 21
211.006363
 31
0.0
  0
LINE
  5
115
330
6B
100
AcDbEntity
  8
0
 62
     3
100
AcDbLine
 10
150.055047
 20
229.909363
 30
0.0
 11
155.899047
 21
229.909363
 31
0.0
  0
ARC
  5
116
330
6B
100
AcDbEntity
  8
0
 62
     3
100
AcDbCircle
 10
154.738047
 20
223.688363
 30
0.0
 40
6.327999999999997
100
AcDbArc
 50
3.418
 51
79.43000000000002
  0
LINE
  5
117
330
6B
100
AcDbEntity
  8
0
 62
     3
100
AcDbLine
 10
165.524047
 20
213.068363
 30
0.0
 11
165.524047
 21
211.002363
 31
0.0
  0
ARC
  5
118
330
6B
100
AcDbEntity
  8
0
 62
     3
100
AcDbCircle
 10
196.137047
 20
219.814363
 30
0.0
 40
1.857
100
AcDbArc
 50
14.761
 51
84.43899999999997
  0
LINE
  5
119
330
6B
100
AcDbEntity
  8
0
 62
     3
100
AcDbLine
 10
169.450047
 20
221.662363
 30
0.0
 11
196.317047
 21
221.662363
 31
0.0
  0
LINE
  5
11A
330
6B
100
AcDbEntity
  8
0
 62
     3
100
AcDbLine
 10
215.711047
 20
229.909363
 30
0.0
 11
215.711047
 21
228.534363
 31
0.0
  0
LINE
  5
11B
330
6B
100
AcDbEntity
  8
0
 62
     3
100
AcDbLine
 10
215.711047
 20
228.534363
 30
0.0
 11
210.211047
 21
228.534363
 31
0.0
  0
ARC
  5
11C
330
6B
100
AcDbEntity
  8
0
 62
     3
100
AcDbCircle
 10
212.319047
 20
223.777363
 30
0.0
 40
5.202999999999998
100
AcDbArc
 50
113.9
 51
176.996
  0
LINE
  5
11D
330
6B
100
AcDbEntity
  8
0
 62
     3
100
AcDbLine
 10
215.711047
 20
229.909363
 30
0.0
 11
209.868047
 21
229.909363
 31
0.0
  0
ARC
  5
11E
330
6B
100
AcDbEntity
  8
0
 62
     3
100
AcDbCircle
 10
211.029047
 20
223.688363
 30
0.0
 40
6.327999999999997
100
AcDbArc
 50
100.57
 51
176.582
  0
ARC
  5
11F
330
6B
100
AcDbEntity
  8
0
 62
     3
100
AcDbCircle
 10
184.717047
 20
213.810363
 30
0.0
 40
22.471
100
AcDbArc
 50
355.467
 51
27.153
  0
ARC
  5
120
330
6B
100
AcDbEntity
  8
0
 62
     3
100
AcDbCircle
 10
135.914047
 20
197.214363
 30
0.0
 40
76.09799999999999
100
AcDbArc
 50
11.23
 51
20.649
  0
LINE
  5
121
330
6B
100
AcDbEntity
  8
0
 62
     3
100
AcDbLine
 10
210.555047
 20
212.034363
 30
0.0
 11
210.555047
 21
211.006363
 31
0.0
  0
LINE
  5
122
330
6B
100
AcDbEntity
  8
0
 62
     3
100
AcDbLine
 10
200.243047
 20
213.068363
 30
0.0
 11
200.243047
 21
211.002363
 31
0.0
  0
ARC
  5
123
330
6B
100
AcDbEntity
  8
0
 62
     3
100
AcDbCircle
 10
175.342047
 20
210.662363
 30
0.0
 40
19.25
100
AcDbArc
 50
89.66700000000001
 51
140.354
  0
ARC
  5
124
330
6B
100
AcDbEntity
  8
0
 62
     3
100
AcDbCircle
 10
190.425047
 20
210.662363
 30
0.0
 40
19.25
100
AcDbArc
 50
39.646
 51
90.333
  0
LINE
  5
125
330
6B
100
AcDbEntity
  8
0
 62
     3
100
AcDbLine
 10
283.650047
 20
228.193363
 30
0.0
 11
283.650047
 21
229.912363
 31
0.0
  0
LINE
  5
126
330
6B
100
AcDbEntity
  8
0
 62
     3
100
AcDbLine
 10
291.900047
 20
229.912363
 30
0.0
 11
283.650047
 21
229.912363
 31
0.0
  0
LINE
  5
127
330
6B
100
AcDbEntity
  8
0
 62
     3
100
AcDbLine
 10
291.900047
 20
228.193363
 30
0.0
 11
291.900047
 21
229.912363
 31
0.0
  0
LINE
  5
128
330
6B
100
AcDbEntity
  8
0
 62
     3
100
AcDbLine
 10
277.463047
 20
212.205363
 30
0.0
 11
277.463047
 21
214.440363
 31
0.0
  0
ARC
  5
129
330
6B
100
AcDbEntity
  8
0
 62
     3
100
AcDbCircle
 10
266.004047
 20
227.863363
 30
0.0
 40
17.649
100
AcDbArc
 50
310.484
 51
1.06
  0
ARC
  5
12A
330
6B
100
AcDbEntity
  8
0
 62
     3
100
AcDbCircle
 10
309.546047
 20
227.863363
 30
0.0
 40
17.649
100
AcDbArc
 50
178.94
 51
229.516
  0
LINE
  5
12B
330
6B
100
AcDbEntity
  8
0
 62
     3
100
AcDbLine
 10
298.088047
 20
212.205363
 30
0.0
 11
298.088047
 21
214.440363
 31
0.0
  0
LINE
  5
12C
330
6B
100
AcDbEntity
  8
0
 62
     3
100
AcDbLine
 10
315.480047
 20
106.816363
 30
0.0
 11
303.750047
 21
106.816363
 31
0.0
  0
ARC
  5
12D
330
6B
100
AcDbEntity
  8
0
 62
     3
100
AcDbCircle
 10
315.480047
 20
111.972363
 30
0.0
 40
5.155999999999997
100
AcDbArc
 50
270.0
 51
0.0
  0
LINE
  5
12E
330
6B
100
AcDbEntity
  8
0
 62
     3
100
AcDbLine
 10
315.050047
 20
110.683363
 30
0.0
 11
303.750047
 21
110.683363
 31
0.0
  0
ARC
  5
12F
330
6B
100
AcDbEntity
  8
0
 62
     3
100
AcDbCircle
 10
315.050047
 20
112.402363
 30
0.0
 40
1.719
100
AcDbArc
 50
270.0
 51
0.0
  0
LINE
  5
130
330
6B
100
AcDbEntity
  8
0
 62
     3
100
AcDbLine
 10
316.769047
 20
126.749363
 30
0.0
 11
316.769047
 21
112.402363
 31
0.0
  0
LINE
  5
131
330
6B
100
AcDbEntity
  8
0
 62
     3
100
AcDbLine
 10
303.750047
 20
106.299363
 30
0.0
 11
303.750047
 21
111.199363
 31
0.0
  0
LINE
  5
132
330
6B
100
AcDbEntity
  8
0
 62
     3
100
AcDbLine
 10
303.750047
 20
111.199363
 30
0.0
 11
286.250047
 21
111.199363
 31
0.0
  0
LINE
  5
133
330
6B
100
AcDbEntity
  8
0
 62
     3
100
AcDbLine
 10
303.750047
 20
106.299363
 30
0.0
 11
286.250047
 21
106.299363
 31
0.0
  0
LINE
  5
134
330
6B
100
AcDbEntity
  8
0
 62
     3
100
AcDbLine
 10
286.250047
 20
106.299363
 30
0.0
 11
286.250047
 21
111.199363
 31
0.0
  0
LINE
  5
135
330
6B
100
AcDbEntity
  8
0
 62
     3
100
AcDbLine
 10
286.185047
 20
107.456363
 30
0.0
 11
280.300047
 21
107.456363
 31
0.0
  0
LINE
  5
136
330
6B
100
AcDbEntity
  8
0
 62
     3
100
AcDbLine
 10
280.300047
 20
107.456363
 30
0.0
 11
271.815047
 21
105.847363
 31
0.0
  0
LINE
  5
137
330
6B
100
AcDbEntity
  8
0
 62
     3
100
AcDbLine
 10
271.769047
 20
105.892363
 30
0.0
 11
269.267047
 21
108.308363
 31
0.0
  0
LINE
  5
138
330
6B
100
AcDbEntity
  8
0
 62
     3
100
AcDbLine
 10
270.548047
 20
111.634363
 30
0.0
 11
269.245047
 21
108.410363
 31
0.0
  0
LINE
  5
139
330
6B
100
AcDbEntity
  8
0
 62
     3
100
AcDbLine
 10
278.977047
 20
113.676363
 30
0.0
 11
270.572047
 21
111.694363
 31
0.0
  0
LINE
  5
13A
330
6B
100
AcDbEntity
  8
0
 62
     3
100
AcDbLine
 10
284.354047
 20
116.070363
 30
0.0
 11
278.977047
 21
113.676363
 31
0.0
  0
LINE
  5
13B
330
6B
100
AcDbEntity
  8
0
 62
     3
100
AcDbLine
 10
285.6280470000001
 20
113.366363
 30
0.0
 11
282.534047
 21
111.181363
 31
0.0
  0
LINE
  5
13C
330
6B
100
AcDbEntity
  8
0
 62
     3
100
AcDbLine
 10
283.943047
 20
117.152363
 30
0.0
 11
285.936047
 21
112.676363
 31
0.0
  0
LINE
  5
13D
330
6B
100
AcDbEntity
  8
0
 62
     3
100
AcDbLine
 10
301.923047
 20
119.794363
 30
0.0
 11
285.936047
 21
112.676363
 31
0.0
  0
LINE
  5
13E
330
6B
100
AcDbEntity
  8
0
 62
     3
100
AcDbLine
 10
299.930047
 20
124.270363
 30
0.0
 11
283.943047
 21
117.152363
 31
0.0
  0
LINE
  5
13F
330
6B
100
AcDbEntity
  8
0
 62
     3
100
AcDbLine
 10
299.930047
 20
124.270363
 30
0.0
 11
301.923047
 21
119.794363
 31
0.0
  0
LINE
  5
140
330
6B
100
AcDbEntity
  8
0
 62
     3
100
AcDbLine
 10
286.250047
 20
110.444363
 30
0.0
 11
280.436047
 21
111.597363
 31
0.0
  0
LINE
  5
141
330
6B
100
AcDbEntity
  8
0
 62
     3
100
AcDbLine
 10
272.201047
 20
107.949363
 30
0.0
 11
280.436047
 21
111.597363
 31
0.0
  0
LINE
  5
142
330
6B
100
AcDbEntity
  8
0
 62
     3
100
AcDbLine
 10
272.201047
 20
107.949363
 30
0.0
 11
269.267047
 21
108.308363
 31
0.0
  0
LINE
  5
143
330
6B
100
AcDbEntity
  8
0
 62
     3
100
AcDbLine
 10
271.780047
 20
109.931363
 30
0.0
 11
269.245047
 21
108.410363
 31
0.0
  0
LINE
  5
144
330
6B
100
AcDbEntity
  8
0
 62
     3
100
AcDbLine
 10
271.780047
 20
109.931363
 30
0.0
 11
276.6950470000001
 21
109.940363
 31
0.0
  0
LINE
  5
145
330
6B
100
AcDbEntity
  8
0
 62
     3
100
AcDbLine
 10
299.281047
 20
125.806363
 30
0.0
 11
299.281047
 21
130.706363
 31
0.0
  0
LINE
  5
146
330
6B
100
AcDbEntity
  8
0
 62
     3
100
AcDbLine
 10
299.281047
 20
130.706363
 30
0.0
 11
281.781047
 21
130.706363
 31
0.0
  0
LINE
  5
147
330
6B
100
AcDbEntity
  8
0
 62
     3
100
AcDbLine
 10
299.281047
 20
125.806363
 30
0.0
 11
281.781047
 21
125.806363
 31
0.0
  0
LINE
  5
148
330
6B
100
AcDbEntity
  8
0
 62
     3
100
AcDbLine
 10
281.781047
 20
125.806363
 30
0.0
 11
281.781047
 21
130.706363
 31
0.0
  0
LINE
  5
149
330
6B
100
AcDbEntity
  8
0
 62
     3
100
AcDbLine
 10
281.717047
 20
126.962363
 30
0.0
 11
275.831047
 21
126.962363
 31
0.0
  0
LINE
  5
14A
330
6B
100
AcDbEntity
  8
0
 62
     3
100
AcDbLine
 10
275.831047
 20
126.962363
 30
0.0
 11
267.346047
 21
125.354363
 31
0.0
  0
LINE
  5
14B
330
6B
100
AcDbEntity
  8
0
 62
     3
100
AcDbLine
 10
267.300047
 20
125.399363
 30
0.0
 11
264.798047
 21
127.814363
 31
0.0
  0
LINE
  5
14C
330
6B
100
AcDbEntity
  8
0
 62
     3
100
AcDbLine
 10
266.079047
 20
131.141363
 30
0.0
 11
264.7770470000001
 21
127.917363
 31
0.0
  0
LINE
  5
14D
330
6B
100
AcDbEntity
  8
0
 62
     3
100
AcDbLine
 10
274.509047
 20
133.182363
 30
0.0
 11
266.104047
 21
131.201363
 31
0.0
  0
LINE
  5
14E
330
6B
100
AcDbEntity
  8
0
 62
     3
100
AcDbLine
 10
279.886047
 20
135.576363
 30
0.0
 11
274.509047
 21
133.182363
 31
0.0
  0
LINE
  5
14F
330
6B
100
AcDbEntity
  8
0
 62
     3
100
AcDbLine
 10
281.160047
 20
132.872363
 30
0.0
 11
278.065047
 21
130.687363
 31
0.0
  0
LINE
  5
150
330
6B
100
AcDbEntity
  8
0
 62
     3
100
AcDbLine
 10
279.474047
 20
136.659363
 30
0.0
 11
281.467047
 21
132.182363
 31
0.0
  0
LINE
  5
151
330
6B
100
AcDbEntity
  8
0
 62
     3
100
AcDbLine
 10
297.454047
 20
139.3003629999999
 30
0.0
 11
281.467047
 21
132.182363
 31
0.0
  0
LINE
  5
152
330
6B
100
AcDbEntity
  8
0
 62
     3
100
AcDbLine
 10
295.461047
 20
143.777363
 30
0.0
 11
279.474047
 21
136.659363
 31
0.0
  0
LINE
  5
153
330
6B
100
AcDbEntity
  8
0
 62
     3
100
AcDbLine
 10
295.461047
 20
143.777363
 30
0.0
 11
297.454047
 21
139.3003629999999
 31
0.0
  0
LINE
  5
154
330
6B
100
AcDbEntity
  8
0
 62
     3
100
AcDbLine
 10
281.781047
 20
129.950363
 30
0.0
 11
275.967047
 21
131.104363
 31
0.0
  0
LINE
  5
155
330
6B
100
AcDbEntity
  8
0
 62
     3
100
AcDbLine
 10
267.732047
 20
127.455363
 30
0.0
 11
275.967047
 21
131.104363
 31
0.0
  0
LINE
  5
156
330
6B
100
AcDbEntity
  8
0
 62
     3
100
AcDbLine
 10
267.732047
 20
127.455363
 30
0.0
 11
264.798047
 21
127.814363
 31
0.0
  0
LINE
  5
157
330
6B
100
AcDbEntity
  8
0
 62
     3
100
AcDbLine
 10
267.3110470000001
 20
129.4373629999999
 30
0.0
 11
264.7770470000001
 21
127.917363
 31
0.0
  0
LINE
  5
158
330
6B
100
AcDbEntity
  8
0
 62
     3
100
AcDbLine
 10
267.3110470000001
 20
129.4373629999999
 30
0.0
 11
272.226047
 21
129.446363
 31
0.0
  0
LINE
  5
159
330
6B
100
AcDbEntity
  8
0
 62
     3
100
AcDbLine
 10
320.636047
 20
141.633405
 30
0.0
 11
320.636047
 21
111.972363
 31
0.0
  0
LINE
  5
16B
330
6B
100
AcDbEntity
  8
0
100
AcDbLine
 10
301.243906
 20
174.63364
 30
0.0
 11
338.340556
 21
199.297899
 31
0.0
  0
LINE
  5
16C
330
6B
100
AcDbEntity
  8
0
100
AcDbLine
 10
338.340556
 20
199.297899
 30
0.0
 11
354.840556
 21
199.297899
 31
0.0
  0
TEXT
  5
16D
330
6B
100
AcDbEntity
  8
0
 62
     4
100
AcDbText
 10
341.090556
 20
200.297899
 30
0.0
 40
3.2
  1
型式銘板
 41
0.716146
100
AcDbText
  0
TEXT
  5
16E
330
6B
100
AcDbEntity
  8
0
 62
     3
100
AcDbText
 10
340.136263
 20
-3.321857
 30
0.0
 40
3.2
  1
1999.11.4
  7
高3.2
100
AcDbText
  0
LINE
  5
174
330
6B
100
AcDbEntity
  8
0
100
AcDbLine
 10
214.009962
 20
206.984429
 30
0.0
 11
233.231078
 21
237.532444
 31
0.0
  0
CIRCLE
  5
175
330
6B
100
AcDbEntity
  8
0
100
AcDbCircle
 10
235.893872
 20
241.764409
 30
0.0
 40
5.0
  0
TEXT
  5
176
330
6B
100
AcDbEntity
  8
0
 62
     4
100
AcDbText
 10
234.786370805705
 20
238.7529967074617
 30
0.0
 40
6.299999999999998
  1
1
  7
高6.3
100
AcDbText
  0
TEXT
  5
177
330
6B
100
AcDbEntity
  8
0
 62
     3
100
AcDbText
 10
194.0693245664297
 20
58.777492
 30
0.0
 40
3.2
  1
セルスタート時電流
 41
0.8
  7
高3.2
100
AcDbText
  0
TEXT
  5
178
330
6B
100
AcDbEntity
  8
0
 62
     3
100
AcDbText
 10
194.0693245664297
 20
53.233492
 30
0.0
 40
3.2
  1
保　護　機　能
  7
高3.2
100
AcDbText
  0
LINE
  5
181
330
6B
100
AcDbEntity
  8
0
100
AcDbLine
 10
81.80348100000001
 20
205.248579
 30
0.0
 11
93.261432
 21
237.060243
 31
0.0
  0
CIRCLE
  5
182
330
6B
100
AcDbEntity
  8
0
100
AcDbCircle
 10
94.955782
 20
241.764409
 30
0.0
 40
5.0
  0
TEXT
  5
183
330
6B
100
AcDbEntity
  8
0
 62
     4
100
AcDbText
 10
92.85365591045277
 20
238.529891091494
 30
0.0
 40
6.299999999999998
  1
2
  7
高6.3
100
AcDbText
  0
LINE
  5
189
330
6B
100
AcDbEntity
  8
0
100
AcDbLine
 10
189.855265
 20
229.912363
 30
0.0
 11
196.709143
 21
237.958198
 31
0.0
  0
CIRCLE
  5
18A
330
6B
100
AcDbEntity
  8
0
100
AcDbCircle
 10
199.951481
 20
241.764409
 30
0.0
 40
5.0
  0
TEXT
  5
18B
330
6B
100
AcDbEntity
  8
0
 62
     4
100
AcDbText
 10
197.8493549104527
 20
238.529891091494
 30
0.0
 40
6.299999999999998
  1
3
  7
高6.3
100
AcDbText
  0
LINE
  5
191
330
6B
100
AcDbEntity
  8
0
100
AcDbLine
 10
78.014468
 20
164.580392
 30
0.0
 11
87.86445500000002
 21
135.421559
 31
0.0
  0
CIRCLE
  5
192
330
6B
100
AcDbEntity
  8
0
100
AcDbCircle
 10
89.46464399999998
 20
130.684534
 30
0.0
 40
5.0
  0
TEXT
  5
193
330
6B
100
AcDbEntity
  8
0
 62
     4
100
AcDbText
 10
86.79305548433331
 20
128.2787007698408
 30
0.0
 40
4.5
  1
10
  7
高4.5
100
AcDbText
  0
LINE
  5
199
330
6B
100
AcDbEntity
  8
0
100
AcDbLine
 10
320.441336
 20
139.478414
 30
0.0
 11
337.133308
 21
151.835263
 31
0.0
  0
CIRCLE
  5
19A
330
6B
100
AcDbEntity
  8
0
100
AcDbCircle
 10
341.151966
 20
154.810223
 30
0.0
 40
5.0
  0
TEXT
  5
19B
330
6B
100
AcDbEntity
  8
0
 62
     4
100
AcDbText
 10
338.151966
 20
152.3643290110424
 30
0.0
 40
4.5
  1
15
  7
高4.5
100
AcDbText
  0
LINE
  5
19C
330
6B
100
AcDbEntity
  8
0
 62
     3
100
AcDbLine
 10
170.6767101817261
 20
-14.4155
 30
0.0
 11
170.6767101817261
 21
75.58449999999997
 31
0.0
  0
LINE
  5
1A2
330
6B
100
AcDbEntity
  8
0
100
AcDbLine
 10
99.42926400000001
 20
198.778788
 30
0.0
 11
112.314166
 21
237.026064
 31
0.0
  0
CIRCLE
  5
1A3
330
6B
100
AcDbEntity
  8
0
100
AcDbCircle
 10
113.910439
 20
241.764409
 30
0.0
 40
5.0
  0
TEXT
  5
1A4
330
6B
100
AcDbEntity
  8
0
 62
     4
100
AcDbText
 10
111.8083129104527
 20
238.529891091494
 30
0.0
 40
6.299999999999998
  1
5
  7
高6.3
100
AcDbText
  0
LINE
  5
1AA
330
6B
100
AcDbEntity
  8
0
100
AcDbLine
 10
318.582835
 20
137.79277
 30
0.0
 11
328.774545
 21
127.60106
 31
0.0
  0
LINE
  5
1AB
330
6B
100
AcDbEntity
  8
0
100
AcDbLine
 10
328.774545
 20
127.60106
 30
0.0
 11
367.2745450000002
 21
127.60106
 31
0.0
  0
TEXT
  5
1AC
330
6B
100
AcDbEntity
  8
0
 62
     4
100
AcDbText
 10
331.524545
 20
128.60106
 30
0.0
 40
3.2
  1
黒コード、クリップ（－）
 41
0.716146
100
AcDbText
  0
LINE
  5
1B2
330
6B
100
AcDbEntity
  8
0
100
AcDbLine
 10
318.758554
 20
117.233631
 30
0.0
 11
330.180298
 21
103.351819
 31
0.0
  0
LINE
  5
1B3
330
6B
100
AcDbEntity
  8
0
100
AcDbLine
 10
330.180298
 20
103.351819
 30
0.0
 11
368.680298
 21
103.351819
 31
0.0
  0
TEXT
  5
1B4
330
6B
100
AcDbEntity
  8
0
 62
     4
100
AcDbText
 10
332.930298
 20
104.351819
 30
0.0
 40
3.2
  1
赤コード、クリップ（＋）
 41
0.716146
100
AcDbText
  0
LINE
  5
1B5
330
6B
100
AcDbEntity
  8
0
100
AcDbLine
 10
112.040093
 20
174.353629
 30
0.0
 11
111.189448
 21
170.394398
 31
0.0
  0
LINE
  5
1B6
330
6B
100
AcDbEntity
  8
0
100
AcDbLine
 10
112.040093
 20
174.353629
 30
0.0
 11
111.273365
 21
174.119217
 31
0.0
  0
ARC
  5
1B7
330
6B
100
AcDbEntity
  8
0
100
AcDbCircle
 10
100.041178
 20
171.412994
 30
0.0
 40
11.5536
100
AcDbArc
 50
13.546356
 51
43.85997800000001
  0
ARC
  5
1B8
330
6B
100
AcDbEntity
  8
0
100
AcDbCircle
 10
100.041178
 20
171.412994
 30
0.0
 40
11.2056
100
AcDbArc
 50
355.225073
 51
43.295075
  0
ARC
  5
1B9
330
6B
100
AcDbEntity
  8
0
100
AcDbCircle
 10
95.468349
 20
188.09556
 30
0.0
 40
15.576234
100
AcDbArc
 50
26.47793900000001
 51
71.607072
  0
TEXT
  5
1BA
330
6B
100
AcDbEntity
  8
0
100
AcDbText
 10
103.013355
 20
199.8490699999999
 30
0.0
 40
1.113599999999999
  1
4
100
AcDbText
  0
TEXT
  5
1BB
330
6B
100
AcDbEntity
  8
0
100
AcDbText
 10
91.189964
 20
199.204079
 30
0.0
 40
1.113599999999999
  1
2
100
AcDbText
  0
TEXT
  5
1BC
330
6B
100
AcDbEntity
  8
0
100
AcDbText
 10
88.14818299999997
 20
194.955717
 30
0.0
 40
1.113599999999999
  1
1
 41
1.499999
100
AcDbText
  0
TEXT
  5
1BD
330
6B
100
AcDbEntity
  8
0
100
AcDbText
 10
98.09360100000001
 20
201.222057
 30
0.0
 40
1.113599999999999
  1
3
100
AcDbText
  0
TEXT
  5
1BE
330
6B
100
AcDbEntity
  8
0
100
AcDbText
 10
106.650856
 20
196.005468
 30
0.0
 40
1.113599999999999
  1
5
100
AcDbText
  0
ARC
  5
1BF
330
6B
100
AcDbEntity
  8
0
 62
     3
100
AcDbCircle
 10
112.669047
 20
205.502363
 30
0.0
 40
3.266
100
AcDbArc
 50
0.0
 51
90.0
  0
LINE
  5
1C0
330
6B
100
AcDbEntity
  8
0
 62
     3
100
AcDbLine
 10
115.935047
 20
161.1593629999999
 30
0.0
 11
115.935047
 21
205.502363
 31
0.0
  0
LINE
  5
1C1
330
6B
100
AcDbEntity
  8
0
 62
     3
100
AcDbLine
 10
33.091047
 20
205.502363
 30
0.0
 11
33.091047
 21
161.1593629999999
 31
0.0
  0
ARC
  5
1C2
330
6B
100
AcDbEntity
  8
0
 62
     3
100
AcDbCircle
 10
36.356047
 20
205.502363
 30
0.0
 40
3.266
100
AcDbArc
 50
90.0
 51
180.0
  0
TEXT
  5
1C3
330
6B
100
AcDbEntity
  8
0
 62
     3
100
AcDbText
 10
224.3599332854963
 20
53.233492
 30
0.0
 40
3.2
  1
ノーヒューズブレーカー
  7
高3.2
100
AcDbText
  0
LINE
  5
1C4
330
6B
100
AcDbEntity
  8
0
 62
     3
100
AcDbLine
 10
192.5693245664297
 20
91.497492
 30
0.0
 11
275.65501689806
 21
91.497492
 31
0.0
  0
LINE
  5
1C5
330
6B
100
AcDbEntity
  8
0
100
AcDbLine
 10
192.5693245664297
 20
85.95349199999999
 30
0.0
 11
275.65501689806
 21
85.95349199999999
 31
0.0
  0
LINE
  5
1C6
330
6B
100
AcDbEntity
  8
0
100
AcDbLine
 10
192.5693245664297
 20
80.409492
 30
0.0
 11
275.65501689806
 21
80.409492
 31
0.0
  0
LINE
  5
1C7
330
6B
100
AcDbEntity
  8
0
100
AcDbLine
 10
192.5693245664297
 20
74.865492
 30
0.0
 11
275.65501689806
 21
74.865492
 31
0.0
  0
LINE
  5
1C8
330
6B
100
AcDbEntity
  8
0
100
AcDbLine
 10
192.5693245664297
 20
63.821492
 30
0.0
 11
275.65501689806
 21
63.821492
 31
0.0
  0
LINE
  5
1C9
330
6B
100
AcDbEntity
  8
0
100
AcDbLine
 10
192.5693245664297
 20
58.277492
 30
0.0
 11
275.65501689806
 21
58.277492
 31
0.0
  0
LINE
  5
1CA
330
6B
100
AcDbEntity
  8
0
100
AcDbLine
 10
192.5693245664297
 20
52.73349200000001
 30
0.0
 11
275.65501689806
 21
52.73349200000001
 31
0.0
  0
LINE
  5
1D0
330
6B
100
AcDbEntity
  8
0
100
AcDbLine
 10
207.536016
 20
150.502363
 30
0.0
 11
213.404746
 21
135.294812
 31
0.0
  0
CIRCLE
  5
1D1
330
6B
100
AcDbEntity
  8
0
100
AcDbCircle
 10
215.204897
 20
130.630108
 30
0.0
 40
5.0
  0
TEXT
  5
1D2
330
6B
100
AcDbEntity
  8
0
 62
     4
100
AcDbText
 10
212.204897
 20
128.1842140110424
 30
0.0
 40
4.5
  1
13
  7
高4.5
100
AcDbText
  0
LINE
  5
1D8
330
6B
100
AcDbEntity
  8
0
100
AcDbLine
 10
254.342249
 20
144.650193
 30
0.0
 11
246.022697
 21
134.497503
 31
0.0
  0
CIRCLE
  5
1D9
330
6B
100
AcDbEntity
  8
0
100
AcDbCircle
 10
242.853587
 20
130.630108
 30
0.0
 40
5.0
  0
TEXT
  5
1DA
330
6B
100
AcDbEntity
  8
0
 62
     4
100
AcDbText
 10
239.853587
 20
128.1842140110424
 30
0.0
 40
4.5
  1
14
  7
高4.5
100
AcDbText
  0
LINE
  5
1E0
330
6B
100
AcDbEntity
  8
0
100
AcDbLine
 10
140.927342
 20
154.627363
 30
0.0
 11
148.346998
 21
135.298025
 31
0.0
  0
CIRCLE
  5
1E1
330
6B
100
AcDbEntity
  8
0
100
AcDbCircle
 10
150.138799
 20
130.630108
 30
0.0
 40
5.0
  0
TEXT
  5
1E2
330
6B
100
AcDbEntity
  8
0
 62
     4
100
AcDbText
 10
147.138799
 20
128.3162230110424
 30
0.0
 40
4.5
  1
12
  7
高4.5
100
AcDbText
  0
CIRCLE
  5
1E9
330
6B
100
AcDbEntity
  8
0
100
AcDbCircle
 10
104.5281758917951
 20
130.630108
 30
0.0
 40
5.0
  0
TEXT
  5
1EA
330
6B
100
AcDbEntity
  8
0
 62
     4
100
AcDbText
 10
102.2863236320953
 20
128.2823188882366
 30
0.0
 40
4.5
  1
11
  7
高4.5
100
AcDbText
  0
LINE
  5
1F0
330
6B
100
AcDbEntity
  8
0
100
AcDbLine
 10
68.53829300000001
 20
164.213395
 30
0.0
 11
64.560699
 21
135.582544
 31
0.0
  0
CIRCLE
  5
1F1
330
6B
100
AcDbEntity
  8
0
100
AcDbCircle
 10
63.872673
 20
130.630108
 30
0.0
 40
5.0
  0
TEXT
  5
1F2
330
6B
100
AcDbEntity
  8
0
 62
     4
100
AcDbText
 10
61.77054691045274
 20
127.3955900914939
 30
0.0
 40
6.299999999999998
  1
9
  7
高6.3
100
AcDbText
  0
LINE
  5
1F8
330
6B
100
AcDbEntity
  8
0
100
AcDbLine
 10
61.047992
 20
164.941344
 30
0.0
 11
53.148634
 21
135.459746
 31
0.0
  0
CIRCLE
  5
1F9
330
6B
100
AcDbEntity
  8
0
100
AcDbCircle
 10
51.854571
 20
130.630108
 30
0.0
 40
5.0
  0
TEXT
  5
1FA
330
6B
100
AcDbEntity
  8
0
 62
     4
100
AcDbText
 10
49.75244491045273
 20
127.3955900914939
 30
0.0
 40
6.299999999999998
  1
8
  7
高6.3
100
AcDbText
  0
LINE
  5
200
330
6B
100
AcDbEntity
  8
0
100
AcDbLine
 10
52.63414599999999
 20
164.808196
 30
0.0
 11
40.63574699999999
 21
135.262685
 31
0.0
  0
CIRCLE
  5
201
330
6B
100
AcDbEntity
  8
0
100
AcDbCircle
 10
38.754463
 20
130.630108
 30
0.0
 40
5.0
  0
TEXT
  5
202
330
6B
100
AcDbEntity
  8
0
 62
     4
100
AcDbText
 10
36.65233691045275
 20
127.3955900914939
 30
0.0
 40
6.299999999999998
  1
7
  7
高6.3
100
AcDbText
  0
LINE
  5
208
330
6B
100
AcDbEntity
  8
0
100
AcDbLine
 10
38.762866
 20
165.062372
 30
0.0
 11
25.844358
 21
135.218658
 31
0.0
  0
CIRCLE
  5
209
330
6B
100
AcDbEntity
  8
0
100
AcDbCircle
 10
23.858103
 20
130.630108
 30
0.0
 40
5.0
  0
TEXT
  5
20A
330
6B
100
AcDbEntity
  8
0
 62
     4
100
AcDbText
 10
21.75597691045275
 20
127.3955900914939
 30
0.0
 40
6.299999999999998
  1
6
  7
高6.3
100
AcDbText
  0
LINE
  5
210
330
6B
100
AcDbEntity
  8
0
100
AcDbLine
 10
52.022118
 20
204.804363
 30
0.0
 11
60.620379
 21
236.917228
 31
0.0
  0
CIRCLE
  5
211
330
6B
100
AcDbEntity
  8
0
100
AcDbCircle
 10
61.91358199999999
 20
241.747096
 30
0.0
 40
5.0
  0
TEXT
  5
212
330
6B
100
AcDbEntity
  8
0
 62
     4
100
AcDbText
 10
59.81145591045272
 20
238.5125780914939
 30
0.0
 40
6.299999999999998
  1
4
  7
高6.3
100
AcDbText
  0
LINE
  5
213
330
6B
100
AcDbEntity
  8
0
100
AcDbLine
 10
192.5693245664297
 20
47.18949199999999
 30
0.0
 11
275.65501689806
 21
47.18949199999999
 31
0.0
  0
LINE
  5
214
330
6B
100
AcDbEntity
  8
0
 62
     3
100
AcDbLine
 10
192.5693245664297
 20
41.64549199999997
 30
0.0
 11
275.65501689806
 21
41.64549199999997
 31
0.0
  0
LINE
  5
215
330
6B
100
AcDbEntity
  8
0
100
AcDbLine
 10
192.5693245664297
 20
69.32149200000001
 30
0.0
 11
275.65501689806
 21
69.32149199999999
 31
0.0
  0
LINE
  5
216
330
6B
100
AcDbEntity
  8
0
 62
     3
100
AcDbLine
 10
275.65501689806
 20
91.497492
 30
0.0
 11
275.65501689806
 21
41.64549199999997
 31
0.0
  0
LINE
  5
217
330
6B
100
AcDbEntity
  8
0
 62
     3
100
AcDbLine
 10
192.5693245664297
 20
91.497492
 30
0.0
 11
192.5693245664297
 21
41.64549199999997
 31
0.0
  0
LINE
  5
218
330
6B
100
AcDbEntity
  8
0
100
AcDbLine
 10
222.8599332854964
 20
41.64549199999997
 30
0.0
 11
222.8599332854964
 21
91.497492
 31
0.0
  0
TEXT
  5
21C
330
6B
100
AcDbEntity
  8
0
 62
     3
100
AcDbText
 10
284.642756
 20
3.594151999999998
 30
0.0
 40
3.2
  1
別　掲
  7
高3.2
100
AcDbText
  0
CIRCLE
  5
21E
330
6B
100
AcDbEntity
  8
0
100
AcDbCircle
 10
76.91904699999998
 20
166.659363
 30
0.0
 40
2.063
  0
CIRCLE
  5
21F
330
6B
100
AcDbEntity
  8
0
100
AcDbCircle
 10
76.91904699999998
 20
166.659363
 30
0.0
 40
0.6450000000000001
  0
CIRCLE
  5
220
330
6B
100
AcDbEntity
  8
0
100
AcDbCircle
 10
69.013047
 20
166.659363
 30
0.0
 40
1.719
  0
CIRCLE
  5
221
330
6B
100
AcDbEntity
  8
0
100
AcDbCircle
 10
61.10604699999999
 20
166.659363
 30
0.0
 40
1.719
  0
CIRCLE
  5
222
330
6B
100
AcDbEntity
  8
0
100
AcDbCircle
 10
98.23104700000001
 20
192.096363
 30
0.0
 40
5.770999999999999
  0
LINE
  5
223
330
6B
100
AcDbEntity
  8
0
100
AcDbLine
 10
92.819047
 20
192.435363
 30
0.0
 11
92.819047
 21
191.757363
 31
0.0
  0
LINE
  5
224
330
6B
100
AcDbEntity
  8
0
100
AcDbLine
 10
92.819047
 20
191.757363
 30
0.0
 11
93.49804699999999
 21
191.757363
 31
0.0
  0
LINE
  5
225
330
6B
100
AcDbEntity
  8
0
100
AcDbLine
 10
93.49804699999999
 20
191.757363
 30
0.0
 11
93.49804699999999
 21
192.435363
 31
0.0
  0
LINE
  5
226
330
6B
100
AcDbEntity
  8
0
100
AcDbLine
 10
93.49804699999999
 20
192.435363
 30
0.0
 11
92.819047
 21
192.435363
 31
0.0
  0
LINE
  5
227
330
6B
100
AcDbEntity
  8
0
100
AcDbLine
 10
93.46404699999999
 20
191.757363
 30
0.0
 11
93.46404699999999
 21
192.435363
 31
0.0
  0
LINE
  5
228
330
6B
100
AcDbEntity
  8
0
100
AcDbLine
 10
93.43004699999999
 20
191.757363
 30
0.0
 11
93.43004699999999
 21
192.435363
 31
0.0
  0
LINE
  5
229
330
6B
100
AcDbEntity
  8
0
100
AcDbLine
 10
93.396047
 20
191.757363
 30
0.0
 11
93.396047
 21
192.435363
 31
0.0
  0
LINE
  5
22A
330
6B
100
AcDbEntity
  8
0
100
AcDbLine
 10
93.36204700000001
 20
191.757363
 30
0.0
 11
93.36204700000001
 21
192.435363
 31
0.0
  0
LINE
  5
22B
330
6B
100
AcDbEntity
  8
0
100
AcDbLine
 10
93.329047
 20
191.757363
 30
0.0
 11
93.329047
 21
192.435363
 31
0.0
  0
LINE
  5
22C
330
6B
100
AcDbEntity
  8
0
100
AcDbLine
 10
93.29504699999999
 20
191.757363
 30
0.0
 11
93.29504699999999
 21
192.435363
 31
0.0
  0
LINE
  5
22D
330
6B
100
AcDbEntity
  8
0
100
AcDbLine
 10
93.261047
 20
191.757363
 30
0.0
 11
93.261047
 21
192.435363
 31
0.0
  0
LINE
  5
22E
330
6B
100
AcDbEntity
  8
0
100
AcDbLine
 10
93.227047
 20
191.757363
 30
0.0
 11
93.227047
 21
192.435363
 31
0.0
  0
LINE
  5
22F
330
6B
100
AcDbEntity
  8
0
100
AcDbLine
 10
93.19304700000001
 20
191.757363
 30
0.0
 11
93.19304700000001
 21
192.435363
 31
0.0
  0
LINE
  5
230
330
6B
100
AcDbEntity
  8
0
100
AcDbLine
 10
93.159047
 20
191.757363
 30
0.0
 11
93.159047
 21
192.435363
 31
0.0
  0
LINE
  5
231
330
6B
100
AcDbEntity
  8
0
100
AcDbLine
 10
93.12504699999999
 20
191.757363
 30
0.0
 11
93.12504699999999
 21
192.435363
 31
0.0
  0
LINE
  5
232
330
6B
100
AcDbEntity
  8
0
100
AcDbLine
 10
93.091047
 20
191.757363
 30
0.0
 11
93.091047
 21
192.435363
 31
0.0
  0
LINE
  5
233
330
6B
100
AcDbEntity
  8
0
100
AcDbLine
 10
93.05704699999999
 20
191.757363
 30
0.0
 11
93.05704699999999
 21
192.435363
 31
0.0
  0
LINE
  5
234
330
6B
100
AcDbEntity
  8
0
100
AcDbLine
 10
93.02304699999998
 20
191.757363
 30
0.0
 11
93.02304699999998
 21
192.435363
 31
0.0
  0
LINE
  5
235
330
6B
100
AcDbEntity
  8
0
100
AcDbLine
 10
92.98904699999999
 20
191.757363
 30
0.0
 11
92.98904699999999
 21
192.435363
 31
0.0
  0
LINE
  5
236
330
6B
100
AcDbEntity
  8
0
100
AcDbLine
 10
92.955047
 20
191.757363
 30
0.0
 11
92.955047
 21
192.435363
 31
0.0
  0
LINE
  5
237
330
6B
100
AcDbEntity
  8
0
100
AcDbLine
 10
92.92104700000001
 20
191.757363
 30
0.0
 11
92.92104700000001
 21
192.435363
 31
0.0
  0
LINE
  5
238
330
6B
100
AcDbEntity
  8
0
100
AcDbLine
 10
92.887047
 20
191.757363
 30
0.0
 11
92.887047
 21
192.435363
 31
0.0
  0
LINE
  5
239
330
6B
100
AcDbEntity
  8
0
100
AcDbLine
 10
92.85304700000001
 20
191.757363
 30
0.0
 11
92.85304700000001
 21
192.435363
 31
0.0
  0
CIRCLE
  5
23A
330
6B
100
AcDbEntity
  8
0
100
AcDbCircle
 10
98.23104700000001
 20
170.096363
 30
0.0
 40
5.770999999999999
  0
LINE
  5
23B
330
6B
100
AcDbEntity
  8
0
100
AcDbLine
 10
96.699047
 20
175.298363
 30
0.0
 11
96.06104700000001
 21
175.066363
 31
0.0
  0
LINE
  5
23C
330
6B
100
AcDbEntity
  8
0
100
AcDbLine
 10
96.06104700000001
 20
175.066363
 30
0.0
 11
96.294047
 21
174.428363
 31
0.0
  0
LINE
  5
23D
330
6B
100
AcDbEntity
  8
0
100
AcDbLine
 10
96.294047
 20
174.428363
 30
0.0
 11
96.932047
 21
174.660363
 31
0.0
  0
LINE
  5
23E
330
6B
100
AcDbEntity
  8
0
100
AcDbLine
 10
96.932047
 20
174.660363
 30
0.0
 11
96.699047
 21
175.298363
 31
0.0
  0
LINE
  5
23F
330
6B
100
AcDbEntity
  8
0
100
AcDbLine
 10
96.28204700000001
 20
174.460363
 30
0.0
 11
96.920047
 21
174.692363
 31
0.0
  0
LINE
  5
240
330
6B
100
AcDbEntity
  8
0
100
AcDbLine
 10
96.270047
 20
174.491363
 30
0.0
 11
96.90804700000001
 21
174.724363
 31
0.0
  0
LINE
  5
241
330
6B
100
AcDbEntity
  8
0
100
AcDbLine
 10
96.25904699999999
 20
174.523363
 30
0.0
 11
96.897047
 21
174.756363
 31
0.0
  0
LINE
  5
242
330
6B
100
AcDbEntity
  8
0
100
AcDbLine
 10
96.247047
 20
174.555363
 30
0.0
 11
96.88504700000001
 21
174.787363
 31
0.0
  0
LINE
  5
243
330
6B
100
AcDbEntity
  8
0
100
AcDbLine
 10
96.23604700000001
 20
174.587363
 30
0.0
 11
96.874047
 21
174.819363
 31
0.0
  0
LINE
  5
244
330
6B
100
AcDbEntity
  8
0
100
AcDbLine
 10
96.224047
 20
174.619363
 30
0.0
 11
96.86204700000001
 21
174.851363
 31
0.0
  0
LINE
  5
245
330
6B
100
AcDbEntity
  8
0
100
AcDbLine
 10
96.21204699999999
 20
174.6513629999999
 30
0.0
 11
96.850047
 21
174.883363
 31
0.0
  0
LINE
  5
246
330
6B
100
AcDbEntity
  8
0
100
AcDbLine
 10
96.201047
 20
174.683363
 30
0.0
 11
96.83904699999999
 21
174.915363
 31
0.0
  0
LINE
  5
247
330
6B
100
AcDbEntity
  8
0
100
AcDbLine
 10
96.18904700000001
 20
174.715363
 30
0.0
 11
96.827047
 21
174.947363
 31
0.0
  0
LINE
  5
248
330
6B
100
AcDbEntity
  8
0
100
AcDbLine
 10
96.178047
 20
174.7473629999999
 30
0.0
 11
96.81504700000001
 21
174.979363
 31
0.0
  0
LINE
  5
249
330
6B
100
AcDbEntity
  8
0
100
AcDbLine
 10
96.16604700000001
 20
174.779363
 30
0.0
 11
96.804047
 21
175.011363
 31
0.0
  0
LINE
  5
24A
330
6B
100
AcDbEntity
  8
0
100
AcDbLine
 10
96.15404699999999
 20
174.810363
 30
0.0
 11
96.79204699999999
 21
175.043363
 31
0.0
  0
LINE
  5
24B
330
6B
100
AcDbEntity
  8
0
100
AcDbLine
 10
96.14304699999999
 20
174.842363
 30
0.0
 11
96.781047
 21
175.075363
 31
0.0
  0
LINE
  5
24C
330
6B
100
AcDbEntity
  8
0
100
AcDbLine
 10
96.131047
 20
174.874363
 30
0.0
 11
96.76904700000001
 21
175.106363
 31
0.0
  0
LINE
  5
24D
330
6B
100
AcDbEntity
  8
0
100
AcDbLine
 10
96.119047
 20
174.906363
 30
0.0
 11
96.757047
 21
175.138363
 31
0.0
  0
LINE
  5
24E
330
6B
100
AcDbEntity
  8
0
100
AcDbLine
 10
96.108047
 20
174.938363
 30
0.0
 11
96.74604700000001
 21
175.1703629999999
 31
0.0
  0
LINE
  5
24F
330
6B
100
AcDbEntity
  8
0
100
AcDbLine
 10
96.096047
 20
174.970363
 30
0.0
 11
96.734047
 21
175.202363
 31
0.0
  0
LINE
  5
250
330
6B
100
AcDbEntity
  8
0
100
AcDbLine
 10
96.08504700000001
 20
175.002363
 30
0.0
 11
96.72304699999999
 21
175.234363
 31
0.0
  0
LINE
  5
251
330
6B
100
AcDbEntity
  8
0
100
AcDbLine
 10
96.073047
 20
175.034363
 30
0.0
 11
96.711047
 21
175.2663629999999
 31
0.0
  0
CIRCLE
  5
252
330
6B
100
AcDbEntity
  8
0
100
AcDbCircle
 10
39.622047
 20
166.659363
 30
0.0
 40
1.044999999999999
  0
LINE
  5
253
330
6B
100
AcDbEntity
  8
0
100
AcDbLine
 10
39.622047
 20
167.690363
 30
0.0
 11
41.169047
 21
167.346363
 31
0.0
  0
LINE
  5
254
330
6B
100
AcDbEntity
  8
0
100
AcDbLine
 10
39.622047
 20
165.627363
 30
0.0
 11
41.169047
 21
165.971363
 31
0.0
  0
ARC
  5
255
330
6B
100
AcDbEntity
  8
0
100
AcDbCircle
 10
40.65304699999999
 20
166.659363
 30
0.0
 40
0.8589999999999998
100
AcDbArc
 50
306.87
 51
53.13
  0
LINE
  5
256
330
6B
100
AcDbEntity
  8
0
100
AcDbLine
 10
46.355047
 20
201.348363
 30
0.0
 11
45.670047
 21
202.039363
 31
0.0
  0
LINE
  5
257
330
6B
100
AcDbEntity
  8
0
100
AcDbLine
 10
49.639047
 20
201.348363
 30
0.0
 11
49.172047
 21
202.039363
 31
0.0
  0
TEXT
  5
258
330
6B
100
AcDbEntity
  8
0
100
AcDbText
 10
41.73004699999999
 20
202.014363
 30
0.0
 40
1.105999999999998
  1
0
 41
1.728000999999999
100
AcDbText
  0
TEXT
  5
259
330
6B
100
AcDbEntity
  8
0
100
AcDbText
 10
48.144047
 20
202.039363
 30
0.0
 40
1.105999999999998
  1
20
 41
1.428218
100
AcDbText
  0
LINE
  5
25A
330
6B
100
AcDbEntity
  8
0
100
AcDbLine
 10
43.980047
 20
200.892363
 30
0.0
 11
41.542047
 21
200.892363
 31
0.0
  0
LINE
  5
25B
330
6B
100
AcDbEntity
  8
0
100
AcDbLine
 10
41.542047
 20
200.892363
 30
0.0
 11
41.542047
 21
195.362363
 31
0.0
  0
LINE
  5
25C
330
6B
100
AcDbEntity
  8
0
100
AcDbLine
 10
43.980047
 20
195.362363
 30
0.0
 11
41.542047
 21
195.362363
 31
0.0
  0
TEXT
  5
25D
330
6B
100
AcDbEntity
  8
0
100
AcDbText
 10
47.38204699999999
 20
196.823363
 30
0.0
 40
1.105999999999998
  1
0
 41
1.728000999999999
100
AcDbText
  0
LINE
  5
25E
330
6B
100
AcDbEntity
  8
0
100
AcDbLine
 10
43.410047
 20
200.484363
 30
0.0
 11
42.208047
 21
201.348363
 31
0.0
  0
LINE
  5
25F
330
6B
100
AcDbEntity
  8
0
100
AcDbLine
 10
42.208047
 20
203.249363
 30
0.0
 11
42.208047
 21
204.113363
 31
0.0
  0
LINE
  5
260
330
6B
100
AcDbEntity
  8
0
100
AcDbLine
 10
42.208047
 20
201.348363
 30
0.0
 11
42.208047
 21
202.039363
 31
0.0
  0
LINE
  5
261
330
6B
100
AcDbEntity
  8
0
100
AcDbLine
 10
48.861047
 20
198.237363
 30
0.0
 11
48.861047
 21
198.928363
 31
0.0
  0
LINE
  5
262
330
6B
100
AcDbEntity
  8
0
100
AcDbLine
 10
48.81904699999999
 20
195.880363
 30
0.0
 11
43.980047
 21
195.880363
 31
0.0
  0
LINE
  5
263
330
6B
100
AcDbEntity
  8
0
100
AcDbLine
 10
48.81904699999999
 20
194.844363
 30
0.0
 11
43.980047
 21
194.844363
 31
0.0
  0
LINE
  5
264
330
6B
100
AcDbEntity
  8
0
100
AcDbLine
 10
43.980047
 20
195.880363
 30
0.0
 11
43.980047
 21
194.844363
 31
0.0
  0
LINE
  5
265
330
6B
100
AcDbEntity
  8
0
100
AcDbLine
 10
48.81904699999999
 20
195.880363
 30
0.0
 11
48.81904699999999
 21
194.844363
 31
0.0
  0
TEXT
  5
266
330
6B
100
AcDbEntity
  8
0
100
AcDbText
 10
44.30804699999998
 20
194.844363
 30
0.0
 40
1.105999999999998
  1
アンペア
 41
0.8339999999999998
100
AcDbText
  0
LINE
  5
267
330
6B
100
AcDbEntity
  8
0
100
AcDbLine
 10
54.47804699999998
 20
201.348363
 30
0.0
 11
54.334047
 21
202.039363
 31
0.0
  0
LINE
  5
268
330
6B
100
AcDbEntity
  8
0
100
AcDbLine
 10
66.920047
 20
201.348363
 30
0.0
 11
67.606047
 21
202.039363
 31
0.0
  0
LINE
  5
269
330
6B
100
AcDbEntity
  8
0
100
AcDbLine
 10
63.63704699999999
 20
201.348363
 30
0.0
 11
64.10304700000001
 21
202.039363
 31
0.0
  0
LINE
  5
26A
330
6B
100
AcDbEntity
  8
0
100
AcDbLine
 10
61.21704699999999
 20
201.348363
 30
0.0
 11
61.523047
 21
202.039363
 31
0.0
  0
TEXT
  5
26B
330
6B
100
AcDbEntity
  8
0
100
AcDbText
 10
53.30504699999998
 20
202.039363
 30
0.0
 40
1.105999999999998
  1
40
 41
1.428218
100
AcDbText
  0
TEXT
  5
26C
330
6B
100
AcDbEntity
  8
0
100
AcDbText
 10
57.914047
 20
202.039363
 30
0.0
 40
1.105999999999998
  1
60
 41
1.428218
100
AcDbText
  0
TEXT
  5
26D
330
6B
100
AcDbEntity
  8
0
100
AcDbText
 10
63.07504699999999
 20
202.039363
 30
0.0
 40
1.105999999999998
  1
80
 41
1.428218
100
AcDbText
  0
LINE
  5
26E
330
6B
100
AcDbEntity
  8
0
100
AcDbLine
 10
52.05804699999998
 20
201.348363
 30
0.0
 11
51.75304699999998
 21
202.039363
 31
0.0
  0
LINE
  5
26F
330
6B
100
AcDbEntity
  8
0
100
AcDbLine
 10
58.798047
 20
201.348363
 30
0.0
 11
58.94204699999999
 21
202.039363
 31
0.0
  0
LINE
  5
270
330
6B
100
AcDbEntity
  8
0
100
AcDbLine
 10
69.29504699999999
 20
195.362363
 30
0.0
 11
71.733047
 21
195.362363
 31
0.0
  0
TEXT
  5
271
330
6B
100
AcDbEntity
  8
0
100
AcDbText
 10
64.195047
 20
197.546363
 30
0.0
 40
1.105999999999998
  1
40V
 41
1.077727
100
AcDbText
  0
LINE
  5
272
330
6B
100
AcDbEntity
  8
0
100
AcDbLine
 10
65.77704699999999
 20
197.546363
 30
0.0
 11
69.144047
 21
199.965363
 31
0.0
  0
LINE
  5
273
330
6B
100
AcDbEntity
  8
0
100
AcDbLine
 10
53.432047
 20
198.237363
 30
0.0
 11
53.127047
 21
198.928363
 31
0.0
  0
LINE
  5
274
330
6B
100
AcDbEntity
  8
0
100
AcDbLine
 10
55.77404699999998
 20
198.237363
 30
0.0
 11
55.77404699999998
 21
198.928363
 31
0.0
  0
LINE
  5
275
330
6B
100
AcDbEntity
  8
0
100
AcDbLine
 10
56.119047
 20
198.237363
 30
0.0
 11
56.119047
 21
198.928363
 31
0.0
  0
LINE
  5
276
330
6B
100
AcDbEntity
  8
0
100
AcDbLine
 10
61.649047
 20
198.928363
 30
0.0
 11
56.119047
 21
198.928363
 31
0.0
  0
LINE
  5
277
330
6B
100
AcDbEntity
  8
0
100
AcDbLine
 10
61.649047
 20
198.237363
 30
0.0
 11
56.119047
 21
198.237363
 31
0.0
  0
LINE
  5
278
330
6B
100
AcDbEntity
  8
0
100
AcDbLine
 10
58.150047
 20
198.237363
 30
0.0
 11
58.294047
 21
198.928363
 31
0.0
  0
LINE
  5
279
330
6B
100
AcDbEntity
  8
0
100
AcDbLine
 10
61.649047
 20
198.237363
 30
0.0
 11
61.649047
 21
198.928363
 31
0.0
  0
LINE
  5
27A
330
6B
100
AcDbEntity
  8
0
100
AcDbLine
 10
64.456047
 20
194.844363
 30
0.0
 11
69.29504699999999
 21
194.844363
 31
0.0
  0
LINE
  5
27B
330
6B
100
AcDbEntity
  8
0
100
AcDbLine
 10
64.456047
 20
195.880363
 30
0.0
 11
64.456047
 21
194.844363
 31
0.0
  0
LINE
  5
27C
330
6B
100
AcDbEntity
  8
0
100
AcDbLine
 10
64.456047
 20
195.880363
 30
0.0
 11
69.29504699999999
 21
195.880363
 31
0.0
  0
LINE
  5
27D
330
6B
100
AcDbEntity
  8
0
100
AcDbLine
 10
69.29504699999999
 20
195.880363
 30
0.0
 11
69.29504699999999
 21
194.844363
 31
0.0
  0
TEXT
  5
27E
330
6B
100
AcDbEntity
  8
0
100
AcDbText
 10
54.212047
 20
191.816363
 30
0.0
 40
2.177
  1
A
 41
1.199999999999999
100
AcDbText
  0
TEXT
  5
27F
330
6B
100
AcDbEntity
  8
0
100
AcDbText
 10
56.885047
 20
191.843363
 30
0.0
 40
2.177
  1
V
 41
0.675
100
AcDbText
  0
LINE
  5
280
330
6B
100
AcDbEntity
  8
0
100
AcDbLine
 10
54.564047
 20
195.880363
 30
0.0
 11
51.108047
 21
195.880363
 31
0.0
  0
LINE
  5
281
330
6B
100
AcDbEntity
  8
0
100
AcDbLine
 10
54.564047
 20
195.006363
 30
0.0
 11
51.108047
 21
195.006363
 31
0.0
  0
LINE
  5
282
330
6B
100
AcDbEntity
  8
0
100
AcDbLine
 10
54.564047
 20
195.006363
 30
0.0
 11
54.564047
 21
195.880363
 31
0.0
  0
LINE
  5
283
330
6B
100
AcDbEntity
  8
0
100
AcDbLine
 10
51.108047
 20
195.006363
 30
0.0
 11
51.108047
 21
195.880363
 31
0.0
  0
LINE
  5
284
330
6B
100
AcDbEntity
  8
0
100
AcDbLine
 10
58.711047
 20
195.006363
 30
0.0
 11
58.711047
 21
195.880363
 31
0.0
  0
LINE
  5
285
330
6B
100
AcDbEntity
  8
0
100
AcDbLine
 10
58.711047
 20
195.006363
 30
0.0
 11
62.16804699999999
 21
195.006363
 31
0.0
  0
LINE
  5
286
330
6B
100
AcDbEntity
  8
0
100
AcDbLine
 10
58.711047
 20
195.880363
 30
0.0
 11
62.16804699999999
 21
195.880363
 31
0.0
  0
LINE
  5
287
330
6B
100
AcDbEntity
  8
0
100
AcDbLine
 10
62.16804699999999
 20
195.006363
 30
0.0
 11
62.16804699999999
 21
195.880363
 31
0.0
  0
TEXT
  5
288
330
6B
100
AcDbEntity
  8
0
100
AcDbText
 10
65.299047
 20
194.844363
 30
0.0
 40
1.105999999999998
  1
ボルト
 41
0.8339999999999998
100
AcDbText
  0
LINE
  5
289
330
6B
100
AcDbEntity
  8
0
100
AcDbLine
 10
56.885047
 20
191.843363
 30
0.0
 11
58.752047
 21
191.843363
 31
0.0
  0
LINE
  5
28A
330
6B
100
AcDbEntity
  8
0
100
AcDbLine
 10
56.04404699999999
 20
191.843363
 30
0.0
 11
54.178047
 21
191.843363
 31
0.0
  0
LINE
  5
28B
330
6B
100
AcDbEntity
  8
0
100
AcDbLine
 10
56.638047
 20
190.979363
 30
0.0
 11
44.132047
 21
199.965363
 31
0.0
  0
LINE
  5
28C
330
6B
100
AcDbEntity
  8
0
100
AcDbLine
 10
69.144047
 20
199.965363
 30
0.0
 11
44.132047
 21
199.965363
 31
0.0
  0
LINE
  5
28D
330
6B
100
AcDbEntity
  8
0
100
AcDbLine
 10
68.18204699999999
 20
199.274363
 30
0.0
 11
45.094047
 21
199.274363
 31
0.0
  0
LINE
  5
28E
330
6B
100
AcDbEntity
  8
0
100
AcDbLine
 10
55.77404699999998
 20
198.928363
 30
0.0
 11
48.861047
 21
198.928363
 31
0.0
  0
LINE
  5
28F
330
6B
100
AcDbEntity
  8
0
100
AcDbLine
 10
55.77404699999998
 20
198.237363
 30
0.0
 11
48.861047
 21
198.237363
 31
0.0
  0
LINE
  5
290
330
6B
100
AcDbEntity
  8
0
100
AcDbLine
 10
71.06804699999995
 20
203.280363
 30
0.0
 11
71.06804699999995
 21
204.113363
 31
0.0
  0
LINE
  5
291
330
6B
100
AcDbEntity
  8
0
100
AcDbLine
 10
71.06804699999995
 20
204.113363
 30
0.0
 11
42.208047
 21
204.113363
 31
0.0
  0
LINE
  5
292
330
6B
100
AcDbEntity
  8
0
100
AcDbLine
 10
71.733047
 20
199.5813629999999
 30
0.0
 11
71.733047
 21
195.362363
 31
0.0
  0
LINE
  5
293
330
6B
100
AcDbEntity
  8
0
100
AcDbLine
 10
67.70904699999999
 20
199.5813629999999
 30
0.0
 11
71.733047
 21
199.5813629999999
 31
0.0
  0
LINE
  5
294
330
6B
100
AcDbEntity
  8
0
100
AcDbLine
 10
69.86504700000001
 20
200.484363
 30
0.0
 11
71.06804699999995
 21
201.348363
 31
0.0
  0
LINE
  5
295
330
6B
100
AcDbEntity
  8
0
100
AcDbLine
 10
71.06804699999995
 20
201.348363
 30
0.0
 11
71.06804699999995
 21
202.039363
 31
0.0
  0
TEXT
  5
296
330
6B
100
AcDbEntity
  8
0
100
AcDbText
 10
68.00004699999999
 20
202.039363
 30
0.0
 40
1.105999999999998
  1
100A
 41
0.9100799999999999
100
AcDbText
  0
CIRCLE
  5
297
330
6B
100
AcDbEntity
  8
0
100
AcDbCircle
 10
44.00104699999999
 20
166.659363
 30
0.0
 40
0.5220000000000004
  0
CIRCLE
  5
298
330
6B
100
AcDbEntity
  8
0
100
AcDbCircle
 10
37.649047
 20
166.659363
 30
0.0
 40
0.5220000000000004
  0
TEXT
  5
299
330
6B
100
AcDbEntity
  8
0
100
AcDbText
 10
45.138353
 20
166.073608
 30
0.0
 40
1.113599999999999
  1
24V
 41
0.9
100
AcDbText
  0
TEXT
  5
29A
330
6B
100
AcDbEntity
  8
0
100
AcDbText
 10
33.327541
 20
166.073608
 30
0.0
 40
1.113599999999999
  1
12V
100
AcDbText
  0
TEXT
  5
29B
330
6B
100
AcDbEntity
  8
0
100
AcDbText
 10
39.838288
 20
171.162259
 30
0.0
 40
1.113599999999999
  1
電圧切替
 41
0.833333
100
AcDbText
  0
TEXT
  5
29C
330
6B
100
AcDbEntity
  8
0
100
AcDbText
 10
47.816695
 20
171.160162
 30
0.0
 40
1.113599999999999
  1
バッテリーチェック
 41
0.833333
100
AcDbText
  0
TEXT
  5
29D
330
6B
100
AcDbEntity
  8
0
100
AcDbText
 10
59.866814
 20
171.09097
 30
0.0
 40
1.113599999999999
  1
電源ランプ
 41
0.833333
100
AcDbText
  0
TEXT
  5
29E
330
6B
100
AcDbEntity
  8
0
100
AcDbText
 10
67.82833199999998
 20
171.184273
 30
0.0
 40
1.113599999999999
  1
異常ランプ
 41
0.833333
100
AcDbText
  0
TEXT
  5
29F
330
6B
100
AcDbEntity
  8
0
100
AcDbText
 10
75.917749
 20
171.188467
 30
0.0
 40
1.113599999999999
  1
ブレーカー
 41
0.833333
100
AcDbText
  0
LINE
  5
2A0
330
6B
100
AcDbEntity
  8
0
100
AcDbLine
 10
33.939405
 20
170.852103
 30
0.0
 11
33.939405
 21
172.592103
 31
0.0
  0
LINE
  5
2A1
330
6B
100
AcDbEntity
  8
0
100
AcDbLine
 10
85.11794100000001
 20
172.592103
 30
0.0
 11
33.939405
 21
172.592103
 31
0.0
  0
LINE
  5
2A2
330
6B
100
AcDbEntity
  8
0
100
AcDbLine
 10
84.784512
 20
170.852103
 30
0.0
 11
33.939405
 21
170.852103
 31
0.0
  0
LINE
  5
2A3
330
6B
100
AcDbEntity
  8
0
100
AcDbLine
 10
84.73974100000003
 20
169.791363
 30
0.0
 11
33.091047
 21
169.791363
 31
0.0
  0
LINE
  5
2A4
330
6B
100
AcDbEntity
  8
0
100
AcDbLine
 10
87.699309
 20
163.527363
 30
0.0
 11
33.091047
 21
163.527363
 31
0.0
  0
LINE
  5
2A5
330
6B
100
AcDbEntity
  8
0
100
AcDbLine
 10
90.080766
 20
166.720406
 30
0.0
 11
88.530312
 21
166.078187
 31
0.0
  0
LINE
  5
2A6
330
6B
100
AcDbEntity
  8
0
100
AcDbLine
 10
106.381327
 20
173.47232
 30
0.0
 11
107.931782
 21
174.1145389999999
 31
0.0
  0
LINE
  5
2A7
330
6B
100
AcDbEntity
  8
0
100
AcDbLine
 10
101.607004
 20
178.246644
 30
0.0
 11
102.249223
 21
179.797098
 31
0.0
  0
LINE
  5
2A8
330
6B
100
AcDbEntity
  8
0
100
AcDbLine
 10
104.469002
 20
163.858409
 30
0.0
 11
105.655668
 21
162.671742
 31
0.0
  0
LINE
  5
2A9
330
6B
100
AcDbEntity
  8
0
100
AcDbLine
 10
106.381327
 20
166.720406
 30
0.0
 11
107.931782
 21
166.078187
 31
0.0
  0
LINE
  5
2AA
330
6B
100
AcDbEntity
  8
0
100
AcDbLine
 10
91.9616
 20
172.693253
 30
0.0
 11
88.530312
 21
174.1145389999999
 31
0.0
  0
LINE
  5
2AB
330
6B
100
AcDbEntity
  8
0
100
AcDbLine
 10
91.993092
 20
163.858409
 30
0.0
 11
90.806426
 21
162.671742
 31
0.0
  0
LINE
  5
2AC
330
6B
100
AcDbEntity
  8
0
100
AcDbLine
 10
104.469002
 20
176.334318
 30
0.0
 11
105.655668
 21
177.520984
 31
0.0
  0
TEXT
  5
2AD
330
6B
100
AcDbEntity
  8
0
100
AcDbText
 10
93.75078
 20
181.375288
 30
0.0
 40
1.113599999999999
  1
１２時間タイマー
 41
0.833333
100
AcDbText
  0
TEXT
  5
2AE
330
6B
100
AcDbEntity
  8
0
100
AcDbText
 10
85.824847
 20
191.487039
 30
0.0
 40
1.113599999999999
  1
OFF
100
AcDbText
  0
LINE
  5
2AF
330
6B
100
AcDbEntity
  8
0
100
AcDbLine
 10
102.786356
 20
182.821221
 30
0.0
 11
93.675738
 21
182.821221
 31
0.0
  0
LINE
  5
2B0
330
6B
100
AcDbEntity
  8
0
100
AcDbLine
 10
113.327123
 20
193.132828
 30
0.0
 11
115.935047
 21
193.132828
 31
0.0
  0
LINE
  5
2B1
330
6B
100
AcDbEntity
  8
0
100
AcDbLine
 10
33.091047
 20
193.132828
 30
0.0
 11
40.825047
 21
193.132828
 31
0.0
  0
LINE
  5
2B2
330
6B
100
AcDbEntity
  8
0
100
AcDbLine
 10
72.45004699999999
 20
193.132828
 30
0.0
 11
84.831786
 21
193.132828
 31
0.0
  0
ARC
  5
2B3
330
6B
100
AcDbEntity
  8
0
100
AcDbCircle
 10
93.675738
 20
181.945862
 30
0.0
 40
0.8753589999999999
100
AcDbArc
 50
90.0
 51
270.0
  0
ARC
  5
2B4
330
6B
100
AcDbEntity
  8
0
100
AcDbCircle
 10
102.786356
 20
181.945862
 30
0.0
 40
0.8753589999999999
100
AcDbArc
 50
270.0
 51
90.0
  0
LINE
  5
2B5
330
6B
100
AcDbEntity
  8
0
100
AcDbLine
 10
93.675738
 20
181.070503
 30
0.0
 11
102.786356
 21
181.070503
 31
0.0
  0
LINE
  5
2B6
330
6B
100
AcDbEntity
  8
0
100
AcDbLine
 10
107.340427
 20
193.694912
 30
0.0
 11
112.110119
 21
193.694912
 31
0.0
  0
LINE
  5
2B7
330
6B
100
AcDbEntity
  8
0
100
AcDbLine
 10
107.340427
 20
190.497814
 30
0.0
 11
112.110119
 21
190.497814
 31
0.0
  0
ARC
  5
2B8
330
6B
100
AcDbEntity
  8
0
100
AcDbCircle
 10
107.340427
 20
192.096363
 30
0.0
 40
1.598549
100
AcDbArc
 50
90.0
 51
270.0
  0
ARC
  5
2B9
330
6B
100
AcDbEntity
  8
0
100
AcDbCircle
 10
112.110119
 20
192.096363
 30
0.0
 40
1.598549
100
AcDbArc
 50
270.0
 51
90.0
  0
LINE
  5
2BA
330
6B
100
AcDbEntity
  8
0
100
AcDbLine
 10
33.091047
 20
203.132828
 30
0.0
 11
40.825047
 21
203.132828
 31
0.0
  0
ARC
  5
2BB
330
6B
100
AcDbEntity
  8
0
100
AcDbCircle
 10
103.384333
 20
205.771608
 30
0.0
 40
0.8753589999999999
100
AcDbArc
 50
270.0
 51
90.0
  0
LINE
  5
2BC
330
6B
100
AcDbEntity
  8
0
100
AcDbLine
 10
92.77371499999999
 20
204.896249
 30
0.0
 11
103.384333
 21
204.896249
 31
0.0
  0
LINE
  5
2BD
330
6B
100
AcDbEntity
  8
0
100
AcDbLine
 10
103.384333
 20
206.646967
 30
0.0
 11
92.77371499999999
 21
206.646967
 31
0.0
  0
ARC
  5
2BE
330
6B
100
AcDbEntity
  8
0
100
AcDbCircle
 10
92.77371499999999
 20
205.771608
 30
0.0
 40
0.8753589999999999
100
AcDbArc
 50
90.0
 51
270.0
  0
TEXT
  5
2BF
330
6B
100
AcDbEntity
  8
0
100
AcDbText
 10
92.22635600000002
 20
205.34718
 30
0.0
 40
0.8908799999999999
  1
CHARGER SWICH
 41
1.048387
100
AcDbText
  0
ARC
  5
2C0
330
6B
100
AcDbEntity
  8
0
100
AcDbCircle
 10
99.078289
 20
191.496712
 30
0.0
 40
14.011396
100
AcDbArc
 50
134.370629
 51
158.955833
  0
ARC
  5
2C1
330
6B
100
AcDbEntity
  8
0
100
AcDbCircle
 10
99.078289
 20
191.496712
 30
0.0
 40
12.511396
100
AcDbArc
 50
134.370629
 51
158.955833
  0
ARC
  5
2C2
330
6B
100
AcDbEntity
  8
0
100
AcDbCircle
 10
89.80463399999996
 20
200.976373
 30
0.0
 40
0.75
100
AcDbArc
 50
314.370629
 51
134.370629
  0
ARC
  5
2C3
330
6B
100
AcDbEntity
  8
0
100
AcDbCircle
 10
86.701376
 20
196.258714
 30
0.0
 40
0.75
100
AcDbArc
 50
158.955833
 51
338.955833
  0
ARC
  5
2C4
330
6B
100
AcDbEntity
  8
0
100
AcDbCircle
 10
95.468349
 20
188.09556
 30
0.0
 40
17.176234
100
AcDbArc
 50
26.47793900000001
 51
71.607072
  0
ARC
  5
2C5
330
6B
100
AcDbEntity
  8
0
100
AcDbCircle
 10
110.126815
 20
195.396957
 30
0.0
 40
0.8
100
AcDbArc
 50
206.477939
 51
26.477942
  0
ARC
  5
2C6
330
6B
100
AcDbEntity
  8
0
100
AcDbCircle
 10
100.635573
 20
203.635214
 30
0.0
 40
0.8067680000000001
100
AcDbArc
 50
64.0
 51
258.849179
  0
LINE
  5
2C7
330
6B
100
AcDbEntity
  8
0
100
AcDbLine
 10
97.424279
 20
203.132828
 30
0.0
 11
72.45004699999999
 21
203.132828
 31
0.0
  0
LINE
  5
2C8
330
6B
100
AcDbEntity
  8
0
100
AcDbLine
 10
106.015104
 20
203.132828
 30
0.0
 11
115.935047
 21
203.132828
 31
0.0
  0
LINE
  5
2C9
330
6B
100
AcDbEntity
  8
0
100
AcDbLine
 10
101.607004
 20
161.946083
 30
0.0
 11
102.249223
 21
160.395628
 31
0.0
  0
LINE
  5
2CA
330
6B
100
AcDbEntity
  8
0
100
AcDbLine
 10
94.85509
 20
161.946083
 30
0.0
 11
94.21287099999998
 21
160.395628
 31
0.0
  0
LINE
  5
2CB
330
6B
100
AcDbEntity
  8
0
100
AcDbLine
 10
158.649047
 20
213.068363
 30
0.0
 11
165.524047
 21
213.068363
 31
0.0
  0
LINE
  5
2CC
330
6B
100
AcDbEntity
  8
0
100
AcDbLine
 10
155.211047
 20
212.034363
 30
0.0
 11
165.524047
 21
212.034363
 31
0.0
  0
LINE
  5
2CD
330
6B
100
AcDbEntity
  8
0
100
AcDbLine
 10
210.555047
 20
212.034363
 30
0.0
 11
200.243047
 21
212.034363
 31
0.0
  0
LINE
  5
2CE
330
6B
100
AcDbEntity
  8
0
100
AcDbLine
 10
207.176047
 20
213.068363
 30
0.0
 11
200.243047
 21
213.068363
 31
0.0
  0
ARC
  5
2CF
330
6B
100
AcDbEntity
  8
0
100
AcDbCircle
 10
150.884047
 20
210.043363
 30
0.0
 40
1.821999999999999
100
AcDbArc
 50
31.891
 51
148.109
  0
CIRCLE
  5
2D0
330
6B
100
AcDbEntity
  8
0
100
AcDbCircle
 10
150.884047
 20
183.849363
 30
0.0
 40
1.546999999999995
  0
LINE
  5
2D1
330
6B
100
AcDbEntity
  8
0
100
AcDbLine
 10
150.000047
 20
183.695363
 30
0.0
 11
150.331047
 21
183.695363
 31
0.0
  0
LINE
  5
2D2
330
6B
100
AcDbEntity
  8
0
100
AcDbLine
 10
150.729047
 20
182.966363
 30
0.0
 11
150.729047
 21
183.297363
 31
0.0
  0
ARC
  5
2D3
330
6B
100
AcDbEntity
  8
0
100
AcDbCircle
 10
150.331047
 20
183.297363
 30
0.0
 40
0.398
100
AcDbArc
 50
0.0
 51
90.0
  0
LINE
  5
2D4
330
6B
100
AcDbEntity
  8
0
100
AcDbLine
 10
151.039047
 20
182.966363
 30
0.0
 11
151.039047
 21
183.297363
 31
0.0
  0
LINE
  5
2D5
330
6B
100
AcDbEntity
  8
0
100
AcDbLine
 10
151.768047
 20
184.004363
 30
0.0
 11
151.768047
 21
183.695363
 31
0.0
  0
LINE
  5
2D6
330
6B
100
AcDbEntity
  8
0
100
AcDbLine
 10
151.768047
 20
183.695363
 30
0.0
 11
151.436047
 21
183.695363
 31
0.0
  0
ARC
  5
2D7
330
6B
100
AcDbEntity
  8
0
100
AcDbCircle
 10
151.436047
 20
183.297363
 30
0.0
 40
0.398
100
AcDbArc
 50
90.0
 51
180.0
  0
LINE
  5
2D8
330
6B
100
AcDbEntity
  8
0
100
AcDbLine
 10
151.039047
 20
182.966363
 30
0.0
 11
150.729047
 21
182.966363
 31
0.0
  0
LINE
  5
2D9
330
6B
100
AcDbEntity
  8
0
100
AcDbLine
 10
151.039047
 20
184.733363
 30
0.0
 11
151.039047
 21
184.402363
 31
0.0
  0
ARC
  5
2DA
330
6B
100
AcDbEntity
  8
0
100
AcDbCircle
 10
151.436047
 20
184.402363
 30
0.0
 40
0.398
100
AcDbArc
 50
180.0
 51
270.0
  0
LINE
  5
2DB
330
6B
100
AcDbEntity
  8
0
100
AcDbLine
 10
150.729047
 20
184.733363
 30
0.0
 11
151.039047
 21
184.733363
 31
0.0
  0
LINE
  5
2DC
330
6B
100
AcDbEntity
  8
0
100
AcDbLine
 10
151.768047
 20
184.004363
 30
0.0
 11
151.436047
 21
184.004363
 31
0.0
  0
LINE
  5
2DD
330
6B
100
AcDbEntity
  8
0
100
AcDbLine
 10
150.000047
 20
184.004363
 30
0.0
 11
150.331047
 21
184.004363
 31
0.0
  0
ARC
  5
2DE
330
6B
100
AcDbEntity
  8
0
100
AcDbCircle
 10
150.331047
 20
184.402363
 30
0.0
 40
0.398
100
AcDbArc
 50
270.0
 51
0.0
  0
LINE
  5
2DF
330
6B
100
AcDbEntity
  8
0
100
AcDbLine
 10
150.729047
 20
184.733363
 30
0.0
 11
150.729047
 21
184.402363
 31
0.0
  0
LINE
  5
2E0
330
6B
100
AcDbEntity
  8
0
100
AcDbLine
 10
150.000047
 20
183.695363
 30
0.0
 11
150.000047
 21
184.004363
 31
0.0
  0
CIRCLE
  5
2E1
330
6B
100
AcDbEntity
  8
0
100
AcDbCircle
 10
150.884047
 20
199.318363
 30
0.0
 40
1.546999999999995
  0
LINE
  5
2E2
330
6B
100
AcDbEntity
  8
0
100
AcDbLine
 10
150.000047
 20
199.164363
 30
0.0
 11
150.331047
 21
199.164363
 31
0.0
  0
LINE
  5
2E3
330
6B
100
AcDbEntity
  8
0
100
AcDbLine
 10
150.729047
 20
198.434363
 30
0.0
 11
150.729047
 21
198.766363
 31
0.0
  0
ARC
  5
2E4
330
6B
100
AcDbEntity
  8
0
100
AcDbCircle
 10
150.331047
 20
198.766363
 30
0.0
 40
0.398
100
AcDbArc
 50
0.0
 51
90.0
  0
LINE
  5
2E5
330
6B
100
AcDbEntity
  8
0
100
AcDbLine
 10
151.039047
 20
198.434363
 30
0.0
 11
151.039047
 21
198.766363
 31
0.0
  0
LINE
  5
2E6
330
6B
100
AcDbEntity
  8
0
100
AcDbLine
 10
151.768047
 20
199.4733629999999
 30
0.0
 11
151.768047
 21
199.164363
 31
0.0
  0
LINE
  5
2E7
330
6B
100
AcDbEntity
  8
0
100
AcDbLine
 10
151.768047
 20
199.164363
 30
0.0
 11
151.436047
 21
199.164363
 31
0.0
  0
ARC
  5
2E8
330
6B
100
AcDbEntity
  8
0
100
AcDbCircle
 10
151.436047
 20
198.766363
 30
0.0
 40
0.398
100
AcDbArc
 50
90.0
 51
180.0
  0
LINE
  5
2E9
330
6B
100
AcDbEntity
  8
0
100
AcDbLine
 10
151.039047
 20
198.434363
 30
0.0
 11
150.729047
 21
198.434363
 31
0.0
  0
LINE
  5
2EA
330
6B
100
AcDbEntity
  8
0
100
AcDbLine
 10
151.039047
 20
200.202363
 30
0.0
 11
151.039047
 21
199.871363
 31
0.0
  0
ARC
  5
2EB
330
6B
100
AcDbEntity
  8
0
100
AcDbCircle
 10
151.436047
 20
199.871363
 30
0.0
 40
0.398
100
AcDbArc
 50
180.0
 51
270.0
  0
LINE
  5
2EC
330
6B
100
AcDbEntity
  8
0
100
AcDbLine
 10
150.729047
 20
200.202363
 30
0.0
 11
151.039047
 21
200.202363
 31
0.0
  0
LINE
  5
2ED
330
6B
100
AcDbEntity
  8
0
100
AcDbLine
 10
151.768047
 20
199.4733629999999
 30
0.0
 11
151.436047
 21
199.4733629999999
 31
0.0
  0
LINE
  5
2EE
330
6B
100
AcDbEntity
  8
0
100
AcDbLine
 10
150.000047
 20
199.4733629999999
 30
0.0
 11
150.331047
 21
199.4733629999999
 31
0.0
  0
ARC
  5
2EF
330
6B
100
AcDbEntity
  8
0
100
AcDbCircle
 10
150.331047
 20
199.871363
 30
0.0
 40
0.398
100
AcDbArc
 50
270.0
 51
0.0
  0
LINE
  5
2F0
330
6B
100
AcDbEntity
  8
0
100
AcDbLine
 10
150.729047
 20
200.202363
 30
0.0
 11
150.729047
 21
199.871363
 31
0.0
  0
LINE
  5
2F1
330
6B
100
AcDbEntity
  8
0
100
AcDbLine
 10
150.000047
 20
199.164363
 30
0.0
 11
150.000047
 21
199.4733629999999
 31
0.0
  0
CIRCLE
  5
2F2
330
6B
100
AcDbEntity
  8
0
100
AcDbCircle
 10
150.884047
 20
168.381363
 30
0.0
 40
1.546999999999995
  0
LINE
  5
2F3
330
6B
100
AcDbEntity
  8
0
100
AcDbLine
 10
150.000047
 20
168.226363
 30
0.0
 11
150.331047
 21
168.226363
 31
0.0
  0
LINE
  5
2F4
330
6B
100
AcDbEntity
  8
0
100
AcDbLine
 10
150.729047
 20
167.497363
 30
0.0
 11
150.729047
 21
167.828363
 31
0.0
  0
ARC
  5
2F5
330
6B
100
AcDbEntity
  8
0
100
AcDbCircle
 10
150.331047
 20
167.828363
 30
0.0
 40
0.398
100
AcDbArc
 50
0.0
 51
90.0
  0
LINE
  5
2F6
330
6B
100
AcDbEntity
  8
0
100
AcDbLine
 10
151.039047
 20
167.497363
 30
0.0
 11
151.039047
 21
167.828363
 31
0.0
  0
LINE
  5
2F7
330
6B
100
AcDbEntity
  8
0
100
AcDbLine
 10
151.768047
 20
168.535363
 30
0.0
 11
151.768047
 21
168.226363
 31
0.0
  0
LINE
  5
2F8
330
6B
100
AcDbEntity
  8
0
100
AcDbLine
 10
151.768047
 20
168.226363
 30
0.0
 11
151.436047
 21
168.226363
 31
0.0
  0
ARC
  5
2F9
330
6B
100
AcDbEntity
  8
0
100
AcDbCircle
 10
151.436047
 20
167.828363
 30
0.0
 40
0.398
100
AcDbArc
 50
90.0
 51
180.0
  0
LINE
  5
2FA
330
6B
100
AcDbEntity
  8
0
100
AcDbLine
 10
151.039047
 20
167.497363
 30
0.0
 11
150.729047
 21
167.497363
 31
0.0
  0
LINE
  5
2FB
330
6B
100
AcDbEntity
  8
0
100
AcDbLine
 10
151.039047
 20
169.265363
 30
0.0
 11
151.039047
 21
168.933363
 31
0.0
  0
ARC
  5
2FC
330
6B
100
AcDbEntity
  8
0
100
AcDbCircle
 10
151.436047
 20
168.933363
 30
0.0
 40
0.398
100
AcDbArc
 50
180.0
 51
270.0
  0
LINE
  5
2FD
330
6B
100
AcDbEntity
  8
0
100
AcDbLine
 10
150.729047
 20
169.265363
 30
0.0
 11
151.039047
 21
169.265363
 31
0.0
  0
LINE
  5
2FE
330
6B
100
AcDbEntity
  8
0
100
AcDbLine
 10
151.768047
 20
168.535363
 30
0.0
 11
151.436047
 21
168.535363
 31
0.0
  0
LINE
  5
2FF
330
6B
100
AcDbEntity
  8
0
100
AcDbLine
 10
150.000047
 20
168.535363
 30
0.0
 11
150.331047
 21
168.535363
 31
0.0
  0
ARC
  5
300
330
6B
100
AcDbEntity
  8
0
100
AcDbCircle
 10
150.331047
 20
168.933363
 30
0.0
 40
0.398
100
AcDbArc
 50
270.0
 51
0.0
  0
LINE
  5
301
330
6B
100
AcDbEntity
  8
0
100
AcDbLine
 10
150.729047
 20
169.265363
 30
0.0
 11
150.729047
 21
168.933363
 31
0.0
  0
LINE
  5
302
330
6B
100
AcDbEntity
  8
0
100
AcDbLine
 10
150.000047
 20
168.226363
 30
0.0
 11
150.000047
 21
168.535363
 31
0.0
  0
LINE
  5
303
330
6B
100
AcDbEntity
  8
0
100
AcDbLine
 10
187.803047
 20
183.8843629999999
 30
0.0
 11
208.428047
 21
183.8843629999999
 31
0.0
  0
ARC
  5
304
330
6B
100
AcDbEntity
  8
0
100
AcDbCircle
 10
204.453047
 20
183.548363
 30
0.0
 40
4.022999999999997
100
AcDbArc
 50
4.785
 51
69.685
  0
ARC
  5
305
330
6B
100
AcDbEntity
  8
0
100
AcDbCircle
 10
191.778047
 20
183.548363
 30
0.0
 40
4.022999999999997
100
AcDbArc
 50
110.315
 51
175.215
  0
LINE
  5
306
330
6B
100
AcDbEntity
  8
0
100
AcDbLine
 10
205.850047
 20
187.321363
 30
0.0
 11
190.381047
 21
187.321363
 31
0.0
  0
LINE
  5
307
330
6B
100
AcDbEntity
  8
0
100
AcDbLine
 10
187.803047
 20
188.353363
 30
0.0
 11
208.428047
 21
188.353363
 31
0.0
  0
ARC
  5
308
330
6B
100
AcDbEntity
  8
0
100
AcDbCircle
 10
204.453047
 20
188.0173629999999
 30
0.0
 40
4.022999999999997
100
AcDbArc
 50
4.785
 51
69.685
  0
ARC
  5
309
330
6B
100
AcDbEntity
  8
0
100
AcDbCircle
 10
191.778047
 20
188.0173629999999
 30
0.0
 40
4.022999999999997
100
AcDbArc
 50
110.315
 51
175.215
  0
LINE
  5
30A
330
6B
100
AcDbEntity
  8
0
100
AcDbLine
 10
205.850047
 20
191.7903629999999
 30
0.0
 11
190.381047
 21
191.7903629999999
 31
0.0
  0
LINE
  5
30B
330
6B
100
AcDbEntity
  8
0
100
AcDbLine
 10
187.803047
 20
192.821363
 30
0.0
 11
208.428047
 21
192.821363
 31
0.0
  0
ARC
  5
30C
330
6B
100
AcDbEntity
  8
0
100
AcDbCircle
 10
204.453047
 20
192.486363
 30
0.0
 40
4.022999999999997
100
AcDbArc
 50
4.785
 51
69.685
  0
ARC
  5
30D
330
6B
100
AcDbEntity
  8
0
100
AcDbCircle
 10
191.778047
 20
192.486363
 30
0.0
 40
4.022999999999997
100
AcDbArc
 50
110.315
 51
175.215
  0
LINE
  5
30E
330
6B
100
AcDbEntity
  8
0
100
AcDbLine
 10
205.850047
 20
196.2593629999999
 30
0.0
 11
190.381047
 21
196.2593629999999
 31
0.0
  0
LINE
  5
30F
330
6B
100
AcDbEntity
  8
0
100
AcDbLine
 10
187.803047
 20
197.290363
 30
0.0
 11
208.428047
 21
197.290363
 31
0.0
  0
ARC
  5
310
330
6B
100
AcDbEntity
  8
0
100
AcDbCircle
 10
204.453047
 20
196.954363
 30
0.0
 40
4.022999999999997
100
AcDbArc
 50
4.785
 51
69.685
  0
ARC
  5
311
330
6B
100
AcDbEntity
  8
0
100
AcDbCircle
 10
191.778047
 20
196.954363
 30
0.0
 40
4.022999999999997
100
AcDbArc
 50
110.315
 51
175.215
  0
LINE
  5
312
330
6B
100
AcDbEntity
  8
0
100
AcDbLine
 10
205.850047
 20
200.728363
 30
0.0
 11
190.381047
 21
200.728363
 31
0.0
  0
LINE
  5
313
330
6B
100
AcDbEntity
  8
0
100
AcDbLine
 10
156.865047
 20
183.8843629999999
 30
0.0
 11
177.490047
 21
183.8843629999999
 31
0.0
  0
ARC
  5
314
330
6B
100
AcDbEntity
  8
0
100
AcDbCircle
 10
173.515047
 20
183.548363
 30
0.0
 40
4.022999999999997
100
AcDbArc
 50
4.785
 51
69.685
  0
ARC
  5
315
330
6B
100
AcDbEntity
  8
0
100
AcDbCircle
 10
160.840047
 20
183.548363
 30
0.0
 40
4.022999999999997
100
AcDbArc
 50
110.315
 51
175.215
  0
LINE
  5
316
330
6B
100
AcDbEntity
  8
0
100
AcDbLine
 10
174.912047
 20
187.321363
 30
0.0
 11
159.443047
 21
187.321363
 31
0.0
  0
LINE
  5
317
330
6B
100
AcDbEntity
  8
0
100
AcDbLine
 10
156.865047
 20
188.353363
 30
0.0
 11
177.490047
 21
188.353363
 31
0.0
  0
ARC
  5
318
330
6B
100
AcDbEntity
  8
0
100
AcDbCircle
 10
173.515047
 20
188.0173629999999
 30
0.0
 40
4.022999999999997
100
AcDbArc
 50
4.785
 51
69.685
  0
ARC
  5
319
330
6B
100
AcDbEntity
  8
0
100
AcDbCircle
 10
160.840047
 20
188.0173629999999
 30
0.0
 40
4.022999999999997
100
AcDbArc
 50
110.315
 51
175.215
  0
LINE
  5
31A
330
6B
100
AcDbEntity
  8
0
100
AcDbLine
 10
174.912047
 20
191.7903629999999
 30
0.0
 11
159.443047
 21
191.7903629999999
 31
0.0
  0
LINE
  5
31B
330
6B
100
AcDbEntity
  8
0
100
AcDbLine
 10
156.865047
 20
192.821363
 30
0.0
 11
177.490047
 21
192.821363
 31
0.0
  0
ARC
  5
31C
330
6B
100
AcDbEntity
  8
0
100
AcDbCircle
 10
173.515047
 20
192.486363
 30
0.0
 40
4.022999999999997
100
AcDbArc
 50
4.785
 51
69.685
  0
ARC
  5
31D
330
6B
100
AcDbEntity
  8
0
100
AcDbCircle
 10
160.840047
 20
192.486363
 30
0.0
 40
4.022999999999997
100
AcDbArc
 50
110.315
 51
175.215
  0
LINE
  5
31E
330
6B
100
AcDbEntity
  8
0
100
AcDbLine
 10
174.912047
 20
196.2593629999999
 30
0.0
 11
159.443047
 21
196.2593629999999
 31
0.0
  0
LINE
  5
31F
330
6B
100
AcDbEntity
  8
0
100
AcDbLine
 10
156.865047
 20
197.290363
 30
0.0
 11
177.490047
 21
197.290363
 31
0.0
  0
ARC
  5
320
330
6B
100
AcDbEntity
  8
0
100
AcDbCircle
 10
173.515047
 20
196.954363
 30
0.0
 40
4.022999999999997
100
AcDbArc
 50
4.785
 51
69.685
  0
ARC
  5
321
330
6B
100
AcDbEntity
  8
0
100
AcDbCircle
 10
160.840047
 20
196.954363
 30
0.0
 40
4.022999999999997
100
AcDbArc
 50
110.315
 51
175.215
  0
LINE
  5
322
330
6B
100
AcDbEntity
  8
0
100
AcDbLine
 10
174.912047
 20
200.728363
 30
0.0
 11
159.443047
 21
200.728363
 31
0.0
  0
CIRCLE
  5
323
330
6B
100
AcDbEntity
  8
0
100
AcDbCircle
 10
214.478047
 20
183.849363
 30
0.0
 40
1.546999999999995
  0
LINE
  5
324
330
6B
100
AcDbEntity
  8
0
100
AcDbLine
 10
213.594047
 20
183.695363
 30
0.0
 11
213.925047
 21
183.695363
 31
0.0
  0
LINE
  5
325
330
6B
100
AcDbEntity
  8
0
100
AcDbLine
 10
214.323047
 20
182.966363
 30
0.0
 11
214.323047
 21
183.297363
 31
0.0
  0
ARC
  5
326
330
6B
100
AcDbEntity
  8
0
100
AcDbCircle
 10
213.925047
 20
183.297363
 30
0.0
 40
0.398
100
AcDbArc
 50
0.0
 51
90.0
  0
LINE
  5
327
330
6B
100
AcDbEntity
  8
0
100
AcDbLine
 10
214.632047
 20
182.966363
 30
0.0
 11
214.632047
 21
183.297363
 31
0.0
  0
LINE
  5
328
330
6B
100
AcDbEntity
  8
0
100
AcDbLine
 10
215.362047
 20
184.004363
 30
0.0
 11
215.362047
 21
183.695363
 31
0.0
  0
LINE
  5
329
330
6B
100
AcDbEntity
  8
0
100
AcDbLine
 10
215.362047
 20
183.695363
 30
0.0
 11
215.030047
 21
183.695363
 31
0.0
  0
ARC
  5
32A
330
6B
100
AcDbEntity
  8
0
100
AcDbCircle
 10
215.030047
 20
183.297363
 30
0.0
 40
0.398
100
AcDbArc
 50
90.0
 51
180.0
  0
LINE
  5
32B
330
6B
100
AcDbEntity
  8
0
100
AcDbLine
 10
214.632047
 20
182.966363
 30
0.0
 11
214.323047
 21
182.966363
 31
0.0
  0
LINE
  5
32C
330
6B
100
AcDbEntity
  8
0
100
AcDbLine
 10
214.632047
 20
184.733363
 30
0.0
 11
214.632047
 21
184.402363
 31
0.0
  0
ARC
  5
32D
330
6B
100
AcDbEntity
  8
0
100
AcDbCircle
 10
215.030047
 20
184.402363
 30
0.0
 40
0.398
100
AcDbArc
 50
180.0
 51
270.0
  0
LINE
  5
32E
330
6B
100
AcDbEntity
  8
0
100
AcDbLine
 10
214.323047
 20
184.733363
 30
0.0
 11
214.632047
 21
184.733363
 31
0.0
  0
LINE
  5
32F
330
6B
100
AcDbEntity
  8
0
100
AcDbLine
 10
215.362047
 20
184.004363
 30
0.0
 11
215.030047
 21
184.004363
 31
0.0
  0
LINE
  5
330
330
6B
100
AcDbEntity
  8
0
100
AcDbLine
 10
213.594047
 20
184.004363
 30
0.0
 11
213.925047
 21
184.004363
 31
0.0
  0
ARC
  5
331
330
6B
100
AcDbEntity
  8
0
100
AcDbCircle
 10
213.925047
 20
184.402363
 30
0.0
 40
0.398
100
AcDbArc
 50
270.0
 51
0.0
  0
LINE
  5
332
330
6B
100
AcDbEntity
  8
0
100
AcDbLine
 10
214.323047
 20
184.733363
 30
0.0
 11
214.323047
 21
184.402363
 31
0.0
  0
LINE
  5
333
330
6B
100
AcDbEntity
  8
0
100
AcDbLine
 10
213.594047
 20
183.695363
 30
0.0
 11
213.594047
 21
184.004363
 31
0.0
  0
CIRCLE
  5
334
330
6B
100
AcDbEntity
  8
0
100
AcDbCircle
 10
214.478047
 20
199.318363
 30
0.0
 40
1.546999999999995
  0
LINE
  5
335
330
6B
100
AcDbEntity
  8
0
100
AcDbLine
 10
213.594047
 20
199.164363
 30
0.0
 11
213.925047
 21
199.164363
 31
0.0
  0
LINE
  5
336
330
6B
100
AcDbEntity
  8
0
100
AcDbLine
 10
214.323047
 20
198.434363
 30
0.0
 11
214.323047
 21
198.766363
 31
0.0
  0
ARC
  5
337
330
6B
100
AcDbEntity
  8
0
100
AcDbCircle
 10
213.925047
 20
198.766363
 30
0.0
 40
0.398
100
AcDbArc
 50
0.0
 51
90.0
  0
LINE
  5
338
330
6B
100
AcDbEntity
  8
0
100
AcDbLine
 10
214.632047
 20
198.434363
 30
0.0
 11
214.632047
 21
198.766363
 31
0.0
  0
LINE
  5
339
330
6B
100
AcDbEntity
  8
0
100
AcDbLine
 10
215.362047
 20
199.4733629999999
 30
0.0
 11
215.362047
 21
199.164363
 31
0.0
  0
LINE
  5
33A
330
6B
100
AcDbEntity
  8
0
100
AcDbLine
 10
215.362047
 20
199.164363
 30
0.0
 11
215.030047
 21
199.164363
 31
0.0
  0
ARC
  5
33B
330
6B
100
AcDbEntity
  8
0
100
AcDbCircle
 10
215.030047
 20
198.766363
 30
0.0
 40
0.398
100
AcDbArc
 50
90.0
 51
180.0
  0
LINE
  5
33C
330
6B
100
AcDbEntity
  8
0
100
AcDbLine
 10
214.632047
 20
198.434363
 30
0.0
 11
214.323047
 21
198.434363
 31
0.0
  0
LINE
  5
33D
330
6B
100
AcDbEntity
  8
0
100
AcDbLine
 10
214.632047
 20
200.202363
 30
0.0
 11
214.632047
 21
199.871363
 31
0.0
  0
ARC
  5
33E
330
6B
100
AcDbEntity
  8
0
100
AcDbCircle
 10
215.030047
 20
199.871363
 30
0.0
 40
0.398
100
AcDbArc
 50
180.0
 51
270.0
  0
LINE
  5
33F
330
6B
100
AcDbEntity
  8
0
100
AcDbLine
 10
214.323047
 20
200.202363
 30
0.0
 11
214.632047
 21
200.202363
 31
0.0
  0
LINE
  5
340
330
6B
100
AcDbEntity
  8
0
100
AcDbLine
 10
215.362047
 20
199.4733629999999
 30
0.0
 11
215.030047
 21
199.4733629999999
 31
0.0
  0
LINE
  5
341
330
6B
100
AcDbEntity
  8
0
100
AcDbLine
 10
213.594047
 20
199.4733629999999
 30
0.0
 11
213.925047
 21
199.4733629999999
 31
0.0
  0
ARC
  5
342
330
6B
100
AcDbEntity
  8
0
100
AcDbCircle
 10
213.925047
 20
199.871363
 30
0.0
 40
0.398
100
AcDbArc
 50
270.0
 51
0.0
  0
LINE
  5
343
330
6B
100
AcDbEntity
  8
0
100
AcDbLine
 10
214.323047
 20
200.202363
 30
0.0
 11
214.323047
 21
199.871363
 31
0.0
  0
LINE
  5
344
330
6B
100
AcDbEntity
  8
0
100
AcDbLine
 10
213.594047
 20
199.164363
 30
0.0
 11
213.594047
 21
199.4733629999999
 31
0.0
  0
CIRCLE
  5
345
330
6B
100
AcDbEntity
  8
0
100
AcDbCircle
 10
214.478047
 20
168.381363
 30
0.0
 40
1.546999999999995
  0
LINE
  5
346
330
6B
100
AcDbEntity
  8
0
100
AcDbLine
 10
213.594047
 20
168.226363
 30
0.0
 11
213.925047
 21
168.226363
 31
0.0
  0
LINE
  5
347
330
6B
100
AcDbEntity
  8
0
100
AcDbLine
 10
214.323047
 20
167.497363
 30
0.0
 11
214.323047
 21
167.828363
 31
0.0
  0
ARC
  5
348
330
6B
100
AcDbEntity
  8
0
100
AcDbCircle
 10
213.925047
 20
167.828363
 30
0.0
 40
0.398
100
AcDbArc
 50
0.0
 51
90.0
  0
LINE
  5
349
330
6B
100
AcDbEntity
  8
0
100
AcDbLine
 10
214.632047
 20
167.497363
 30
0.0
 11
214.632047
 21
167.828363
 31
0.0
  0
LINE
  5
34A
330
6B
100
AcDbEntity
  8
0
100
AcDbLine
 10
215.362047
 20
168.535363
 30
0.0
 11
215.362047
 21
168.226363
 31
0.0
  0
LINE
  5
34B
330
6B
100
AcDbEntity
  8
0
100
AcDbLine
 10
215.362047
 20
168.226363
 30
0.0
 11
215.030047
 21
168.226363
 31
0.0
  0
ARC
  5
34C
330
6B
100
AcDbEntity
  8
0
100
AcDbCircle
 10
215.030047
 20
167.828363
 30
0.0
 40
0.398
100
AcDbArc
 50
90.0
 51
180.0
  0
LINE
  5
34D
330
6B
100
AcDbEntity
  8
0
100
AcDbLine
 10
214.632047
 20
167.497363
 30
0.0
 11
214.323047
 21
167.497363
 31
0.0
  0
LINE
  5
34E
330
6B
100
AcDbEntity
  8
0
100
AcDbLine
 10
214.632047
 20
169.265363
 30
0.0
 11
214.632047
 21
168.933363
 31
0.0
  0
ARC
  5
34F
330
6B
100
AcDbEntity
  8
0
100
AcDbCircle
 10
215.030047
 20
168.933363
 30
0.0
 40
0.398
100
AcDbArc
 50
180.0
 51
270.0
  0
LINE
  5
350
330
6B
100
AcDbEntity
  8
0
100
AcDbLine
 10
214.323047
 20
169.265363
 30
0.0
 11
214.632047
 21
169.265363
 31
0.0
  0
LINE
  5
351
330
6B
100
AcDbEntity
  8
0
100
AcDbLine
 10
215.362047
 20
168.535363
 30
0.0
 11
215.030047
 21
168.535363
 31
0.0
  0
LINE
  5
352
330
6B
100
AcDbEntity
  8
0
100
AcDbLine
 10
213.594047
 20
168.535363
 30
0.0
 11
213.925047
 21
168.535363
 31
0.0
  0
ARC
  5
353
330
6B
100
AcDbEntity
  8
0
100
AcDbCircle
 10
213.925047
 20
168.933363
 30
0.0
 40
0.398
100
AcDbArc
 50
270.0
 51
0.0
  0
LINE
  5
354
330
6B
100
AcDbEntity
  8
0
100
AcDbLine
 10
214.323047
 20
169.265363
 30
0.0
 11
214.323047
 21
168.933363
 31
0.0
  0
LINE
  5
355
330
6B
100
AcDbEntity
  8
0
100
AcDbLine
 10
213.594047
 20
168.226363
 30
0.0
 11
213.594047
 21
168.535363
 31
0.0
  0
ARC
  5
356
330
6B
100
AcDbEntity
  8
0
100
AcDbCircle
 10
210.508047
 20
196.887363
 30
0.0
 40
7.599999999999997
100
AcDbArc
 50
3.041999999999998
 51
30.357
  0
LINE
  5
357
330
6B
100
AcDbEntity
  8
0
100
AcDbLine
 10
217.066047
 20
197.290363
 30
0.0
 11
218.097047
 21
197.290363
 31
0.0
  0
ARC
  5
358
330
6B
100
AcDbEntity
  8
0
100
AcDbCircle
 10
210.508047
 20
192.418363
 30
0.0
 40
7.599999999999997
100
AcDbArc
 50
3.041999999999998
 51
30.357
  0
LINE
  5
359
330
6B
100
AcDbEntity
  8
0
100
AcDbLine
 10
217.066047
 20
192.821363
 30
0.0
 11
218.097047
 21
192.821363
 31
0.0
  0
LINE
  5
35A
330
6B
100
AcDbEntity
  8
0
100
AcDbLine
 10
71.06804699999995
 20
201.348363
 30
0.0
 11
42.208047
 21
201.348363
 31
0.0
  0
LINE
  5
35B
330
6B
100
AcDbEntity
  8
0
100
AcDbLine
 10
69.86504700000001
 20
200.484363
 30
0.0
 11
43.410047
 21
200.484363
 31
0.0
  0
LINE
  5
361
330
6B
100
AcDbEntity
  8
0
100
AcDbLine
 10
291.900047
 20
228.193363
 30
0.0
 11
283.650047
 21
228.193363
 31
0.0
  0
LINE
  5
362
330
6B
100
AcDbEntity
  8
0
100
AcDbLine
 10
325.931047
 20
156.346363
 30
0.0
 11
320.636047
 21
156.346363
 31
0.0
  0
ARC
  5
363
330
6B
100
AcDbEntity
  8
0
100
AcDbCircle
 10
325.931047
 20
161.1593629999999
 30
0.0
 40
4.812999999999997
100
AcDbArc
 50
270.0
 51
0.0
  0
LINE
  5
364
330
6B
100
AcDbEntity
  8
0
100
AcDbLine
 10
330.744047
 20
205.502363
 30
0.0
 11
330.744047
 21
161.1593629999999
 31
0.0
  0
ARC
  5
365
330
6B
100
AcDbEntity
  8
0
100
AcDbCircle
 10
325.931047
 20
205.502363
 30
0.0
 40
4.812999999999997
100
AcDbArc
 50
0.0
 51
90.0
  0
LINE
  5
366
330
6B
100
AcDbEntity
  8
0
100
AcDbLine
 10
249.619047
 20
210.315363
 30
0.0
 11
325.931047
 21
210.315363
 31
0.0
  0
ARC
  5
367
330
6B
100
AcDbEntity
  8
0
100
AcDbCircle
 10
249.619047
 20
205.502363
 30
0.0
 40
4.812999999999997
100
AcDbArc
 50
90.0
 51
180.0
  0
LINE
  5
368
330
6B
100
AcDbEntity
  8
0
100
AcDbLine
 10
244.806047
 20
161.1593629999999
 30
0.0
 11
244.806047
 21
205.502363
 31
0.0
  0
ARC
  5
369
330
6B
100
AcDbEntity
  8
0
100
AcDbCircle
 10
249.619047
 20
161.1593629999999
 30
0.0
 40
4.812999999999997
100
AcDbArc
 50
180.0
 51
270.0
  0
LINE
  5
36A
330
6B
100
AcDbEntity
  8
0
100
AcDbLine
 10
316.769047
 20
156.346363
 30
0.0
 11
256.58138
 21
156.346363
 31
0.0
  0
LINE
  5
36B
330
6B
100
AcDbEntity
  8
0
100
AcDbLine
 10
253.83138
 20
156.346363
 30
0.0
 11
249.619047
 21
156.346363
 31
0.0
  0
LINE
  5
36C
330
6B
100
AcDbEntity
  8
0
100
AcDbLine
 10
312.333072
 20
180.295806
 30
0.0
 11
260.32403
 21
180.295806
 31
0.0
  0
LINE
  5
36D
330
6B
100
AcDbEntity
  8
0
100
AcDbLine
 10
312.333072
 20
185.295806
 30
0.0
 11
260.32403
 21
185.295806
 31
0.0
  0
LINE
  5
36E
330
6B
100
AcDbEntity
  8
0
100
AcDbLine
 10
260.32403
 20
185.295806
 30
0.0
 11
260.32403
 21
160.828827
 31
0.0
  0
LINE
  5
36F
330
6B
100
AcDbEntity
  8
0
100
AcDbLine
 10
312.333072
 20
160.828827
 30
0.0
 11
260.32403
 21
160.828827
 31
0.0
  0
LINE
  5
370
330
6B
100
AcDbEntity
  8
0
100
AcDbLine
 10
312.333072
 20
160.828827
 30
0.0
 11
312.333072
 21
185.295806
 31
0.0
  0
ARC
  5
371
330
6B
100
AcDbEntity
  8
0
100
AcDbCircle
 10
309.6060470000001
 20
188.0173629999999
 30
0.0
 40
4.022999999999997
100
AcDbArc
 50
4.785
 51
69.685
  0
LINE
  5
372
330
6B
100
AcDbEntity
  8
0
100
AcDbLine
 10
311.003047
 20
191.7903629999999
 30
0.0
 11
295.534047
 21
191.7903629999999
 31
0.0
  0
ARC
  5
373
330
6B
100
AcDbEntity
  8
0
100
AcDbCircle
 10
296.931047
 20
188.0173629999999
 30
0.0
 40
4.022999999999997
100
AcDbArc
 50
110.315
 51
175.215
  0
ARC
  5
374
330
6B
100
AcDbEntity
  8
0
100
AcDbCircle
 10
296.931047
 20
192.486363
 30
0.0
 40
4.022999999999997
100
AcDbArc
 50
110.315
 51
175.215
  0
LINE
  5
375
330
6B
100
AcDbEntity
  8
0
100
AcDbLine
 10
311.003047
 20
196.2593629999999
 30
0.0
 11
295.534047
 21
196.2593629999999
 31
0.0
  0
ARC
  5
376
330
6B
100
AcDbEntity
  8
0
100
AcDbCircle
 10
309.6060470000001
 20
192.486363
 30
0.0
 40
4.022999999999997
100
AcDbArc
 50
4.785
 51
69.685
  0
ARC
  5
377
330
6B
100
AcDbEntity
  8
0
100
AcDbCircle
 10
278.668047
 20
192.486363
 30
0.0
 40
4.022999999999997
100
AcDbArc
 50
4.785
 51
69.685
  0
LINE
  5
378
330
6B
100
AcDbEntity
  8
0
100
AcDbLine
 10
280.065047
 20
196.2593629999999
 30
0.0
 11
264.596047
 21
196.2593629999999
 31
0.0
  0
ARC
  5
379
330
6B
100
AcDbEntity
  8
0
100
AcDbCircle
 10
265.993047
 20
192.486363
 30
0.0
 40
4.022999999999997
100
AcDbArc
 50
110.315
 51
175.215
  0
ARC
  5
37A
330
6B
100
AcDbEntity
  8
0
100
AcDbCircle
 10
278.668047
 20
188.0173629999999
 30
0.0
 40
4.022999999999997
100
AcDbArc
 50
4.785
 51
69.685
  0
LINE
  5
37B
330
6B
100
AcDbEntity
  8
0
100
AcDbLine
 10
280.065047
 20
191.7903629999999
 30
0.0
 11
264.596047
 21
191.7903629999999
 31
0.0
  0
ARC
  5
37C
330
6B
100
AcDbEntity
  8
0
100
AcDbCircle
 10
265.993047
 20
188.0173629999999
 30
0.0
 40
4.022999999999997
100
AcDbArc
 50
110.315
 51
175.215
  0
LINE
  5
37D
330
6B
100
AcDbEntity
  8
0
100
AcDbLine
 10
322.570047
 20
141.472363
 30
0.0
 11
314.836047
 21
142.116363
 31
0.0
  0
LINE
  5
37E
330
6B
100
AcDbEntity
  8
0
100
AcDbLine
 10
322.570047
 20
142.761363
 30
0.0
 11
314.836047
 21
143.405363
 31
0.0
  0
LINE
  5
37F
330
6B
100
AcDbEntity
  8
0
100
AcDbLine
 10
291.304047
 20
141.926363
 30
0.0
 11
293.297047
 21
137.4503629999999
 31
0.0
  0
LINE
  5
380
330
6B
100
AcDbEntity
  8
0
100
AcDbLine
 10
288.746047
 20
140.787363
 30
0.0
 11
290.739047
 21
136.311363
 31
0.0
  0
LINE
  5
381
330
6B
100
AcDbEntity
  8
0
100
AcDbLine
 10
290.0250470000001
 20
141.356363
 30
0.0
 11
292.018047
 21
136.880363
 31
0.0
  0
LINE
  5
382
330
6B
100
AcDbEntity
  8
0
100
AcDbLine
 10
287.467047
 20
140.218363
 30
0.0
 11
289.460047
 21
135.7413629999999
 31
0.0
  0
LINE
  5
383
330
6B
100
AcDbEntity
  8
0
100
AcDbLine
 10
286.189047
 20
139.648363
 30
0.0
 11
288.182047
 21
135.172363
 31
0.0
  0
LINE
  5
384
330
6B
100
AcDbEntity
  8
0
100
AcDbLine
 10
284.910047
 20
139.079363
 30
0.0
 11
286.903047
 21
134.602363
 31
0.0
  0
LINE
  5
385
330
6B
100
AcDbEntity
  8
0
100
AcDbLine
 10
283.631047
 20
138.509363
 30
0.0
 11
285.624047
 21
134.0333629999999
 31
0.0
  0
LINE
  5
386
330
6B
100
AcDbEntity
  8
0
100
AcDbLine
 10
282.352047
 20
137.940363
 30
0.0
 11
284.345047
 21
133.463363
 31
0.0
  0
LINE
  5
387
330
6B
100
AcDbEntity
  8
0
100
AcDbLine
 10
284.931047
 20
125.806363
 30
0.0
 11
284.931047
 21
130.706363
 31
0.0
  0
LINE
  5
388
330
6B
100
AcDbEntity
  8
0
100
AcDbLine
 10
286.331047
 20
125.806363
 30
0.0
 11
286.331047
 21
130.706363
 31
0.0
  0
LINE
  5
389
330
6B
100
AcDbEntity
  8
0
100
AcDbLine
 10
287.7310470000001
 20
125.806363
 30
0.0
 11
287.7310470000001
 21
130.706363
 31
0.0
  0
LINE
  5
38A
330
6B
100
AcDbEntity
  8
0
100
AcDbLine
 10
289.131047
 20
125.806363
 30
0.0
 11
289.131047
 21
130.706363
 31
0.0
  0
LINE
  5
38B
330
6B
100
AcDbEntity
  8
0
100
AcDbLine
 10
290.531047
 20
125.806363
 30
0.0
 11
290.531047
 21
130.706363
 31
0.0
  0
LINE
  5
38C
330
6B
100
AcDbEntity
  8
0
100
AcDbLine
 10
291.931047
 20
125.806363
 30
0.0
 11
291.931047
 21
130.706363
 31
0.0
  0
LINE
  5
38D
330
6B
100
AcDbEntity
  8
0
100
AcDbLine
 10
293.331047
 20
125.806363
 30
0.0
 11
293.331047
 21
130.706363
 31
0.0
  0
LINE
  5
38E
330
6B
100
AcDbEntity
  8
0
100
AcDbLine
 10
294.7310470000001
 20
125.806363
 30
0.0
 11
294.7310470000001
 21
130.706363
 31
0.0
  0
LINE
  5
38F
330
6B
100
AcDbEntity
  8
0
100
AcDbLine
 10
295.773047
 20
122.420363
 30
0.0
 11
297.766047
 21
117.943363
 31
0.0
  0
LINE
  5
390
330
6B
100
AcDbEntity
  8
0
100
AcDbLine
 10
294.494047
 20
121.850363
 30
0.0
 11
296.487047
 21
117.374363
 31
0.0
  0
LINE
  5
391
330
6B
100
AcDbEntity
  8
0
100
AcDbLine
 10
290.6570470000001
 20
120.142363
 30
0.0
 11
292.650047
 21
115.666363
 31
0.0
  0
LINE
  5
392
330
6B
100
AcDbEntity
  8
0
100
AcDbLine
 10
291.936047
 20
120.711363
 30
0.0
 11
293.929047
 21
116.235363
 31
0.0
  0
LINE
  5
393
330
6B
100
AcDbEntity
  8
0
100
AcDbLine
 10
293.215047
 20
121.281363
 30
0.0
 11
295.208047
 21
116.804363
 31
0.0
  0
LINE
  5
394
330
6B
100
AcDbEntity
  8
0
100
AcDbLine
 10
289.378047
 20
119.572363
 30
0.0
 11
291.371047
 21
115.096363
 31
0.0
  0
LINE
  5
395
330
6B
100
AcDbEntity
  8
0
100
AcDbLine
 10
288.099047
 20
119.003363
 30
0.0
 11
290.092047
 21
114.527363
 31
0.0
  0
LINE
  5
396
330
6B
100
AcDbEntity
  8
0
100
AcDbLine
 10
286.8200470000001
 20
118.434363
 30
0.0
 11
288.8130470000001
 21
113.957363
 31
0.0
  0
LINE
  5
397
330
6B
100
AcDbEntity
  8
0
100
AcDbLine
 10
299.2000470000001
 20
106.299363
 30
0.0
 11
299.2000470000001
 21
111.199363
 31
0.0
  0
LINE
  5
398
330
6B
100
AcDbEntity
  8
0
100
AcDbLine
 10
296.400047
 20
106.299363
 30
0.0
 11
296.400047
 21
111.199363
 31
0.0
  0
LINE
  5
399
330
6B
100
AcDbEntity
  8
0
100
AcDbLine
 10
295.000047
 20
106.299363
 30
0.0
 11
295.000047
 21
111.199363
 31
0.0
  0
LINE
  5
39A
330
6B
100
AcDbEntity
  8
0
100
AcDbLine
 10
292.200047
 20
106.299363
 30
0.0
 11
292.200047
 21
111.199363
 31
0.0
  0
LINE
  5
39B
330
6B
100
AcDbEntity
  8
0
100
AcDbLine
 10
290.800047
 20
106.299363
 30
0.0
 11
290.800047
 21
111.199363
 31
0.0
  0
LINE
  5
39C
330
6B
100
AcDbEntity
  8
0
100
AcDbLine
 10
289.400047
 20
106.299363
 30
0.0
 11
289.400047
 21
111.199363
 31
0.0
  0
LINE
  5
39D
330
6B
100
AcDbEntity
  8
0
100
AcDbLine
 10
297.800047
 20
106.299363
 30
0.0
 11
297.800047
 21
111.199363
 31
0.0
  0
LINE
  5
39E
330
6B
100
AcDbEntity
  8
0
100
AcDbLine
 10
293.600047
 20
106.299363
 30
0.0
 11
293.600047
 21
111.199363
 31
0.0
  0
LINE
  5
39F
330
6B
100
AcDbEntity
  8
0
100
AcDbLine
 10
218.3421735664297
 20
93.10664
 30
0.0
 11
255.0790941199438
 21
93.10664
 31
0.0
  0
ARC
  5
3A0
330
6B
100
AcDbEntity
  8
0
100
AcDbCircle
 10
214.478047
 20
210.043363
 30
0.0
 40
1.821999999999999
100
AcDbArc
 50
31.891
 51
148.109
  0
LINE
  5
3A1
330
6B
100
AcDbEntity
  8
0
 62
     3
100
AcDbLine
 10
82.70777499999999
 20
194.132828
 30
0.0
 11
74.707775
 21
194.132828
 31
0.0
  0
ARC
  5
3A2
330
6B
100
AcDbEntity
  8
0
 62
     3
100
AcDbCircle
 10
82.70777499999999
 20
194.632828
 30
0.0
 40
0.5
100
AcDbArc
 50
270.0
 51
0.0
  0
LINE
  5
3A3
330
6B
100
AcDbEntity
  8
0
 62
     3
100
AcDbLine
 10
83.207775
 20
194.632828
 30
0.0
 11
83.207775
 21
201.632828
 31
0.0
  0
LINE
  5
3A4
330
6B
100
AcDbEntity
  8
0
 62
     3
100
AcDbLine
 10
74.707775
 20
202.132828
 30
0.0
 11
82.70777499999999
 21
202.132828
 31
0.0
  0
ARC
  5
3A5
330
6B
100
AcDbEntity
  8
0
 62
     3
100
AcDbCircle
 10
82.70777499999999
 20
201.632828
 30
0.0
 40
0.5
100
AcDbArc
 50
0.0
 51
90.0
  0
TEXT
  5
3A6
330
6B
100
AcDbEntity
  8
0
 62
     3
100
AcDbText
 10
74.20777499999998
 20
198.1328279999999
 30
0.0
 40
3.2
  1
12V
 41
0.976562
100
AcDbText
  0
TEXT
  5
3A7
330
6B
100
AcDbEntity
  8
0
 62
     3
100
AcDbText
 10
74.20777499999998
 20
194.632828
 30
0.0
 40
3.2
  1
24V
 41
0.8789059999999999
100
AcDbText
  0
LINE
  5
3A8
330
6B
100
AcDbEntity
  8
0
 62
     3
100
AcDbLine
 10
74.20777499999998
 20
194.632828
 30
0.0
 11
74.20777499999998
 21
201.632828
 31
0.0
  0
ARC
  5
3A9
330
6B
100
AcDbEntity
  8
0
 62
     3
100
AcDbCircle
 10
74.707775
 20
194.632828
 30
0.0
 40
0.5
100
AcDbArc
 50
180.0
 51
270.0
  0
ARC
  5
3AA
330
6B
100
AcDbEntity
  8
0
 62
     3
100
AcDbCircle
 10
74.707775
 20
201.632828
 30
0.0
 40
0.5
100
AcDbArc
 50
90.0
 51
180.0
  0
ARC
  5
3AB
330
6B
100
AcDbEntity
  8
0
 62
     3
100
AcDbCircle
 10
98.23104700000001
 20
192.096363
 30
0.0
 40
6.788999999999997
100
AcDbArc
 50
184.3009999999999
 51
175.699
  0
LINE
  5
3AC
330
6B
100
AcDbEntity
  8
0
 62
     3
100
AcDbLine
 10
91.462047
 20
191.587363
 30
0.0
 11
103.980047
 21
191.587363
 31
0.0
  0
LINE
  5
3AD
330
6B
100
AcDbEntity
  8
0
 62
     3
100
AcDbLine
 10
91.462047
 20
192.605363
 30
0.0
 11
103.980047
 21
192.605363
 31
0.0
  0
LINE
  5
3AE
330
6B
100
AcDbEntity
  8
0
 62
     3
100
AcDbLine
 10
72.45004699999999
 20
190.979363
 30
0.0
 11
40.825047
 21
190.979363
 31
0.0
  0
LINE
  5
3AF
330
6B
100
AcDbEntity
  8
0
 62
     3
100
AcDbLine
 10
72.45004699999999
 20
190.979363
 30
0.0
 11
72.45004699999999
 21
204.804363
 31
0.0
  0
LINE
  5
3B0
330
6B
100
AcDbEntity
  8
0
 62
     3
100
AcDbLine
 10
72.45004699999999
 20
204.804363
 30
0.0
 11
40.825047
 21
204.804363
 31
0.0
  0
LINE
  5
3B1
330
6B
100
AcDbEntity
  8
0
 62
     3
100
AcDbLine
 10
40.825047
 20
204.804363
 30
0.0
 11
40.825047
 21
190.979363
 31
0.0
  0
TEXT
  5
3B2
330
6B
100
AcDbEntity
  8
0
 62
     3
100
AcDbText
 10
39.21165100000001
 20
176.15385
 30
0.0
 40
3.2
  1
急
 41
0.859375
100
AcDbText
  0
TEXT
  5
3B3
330
6B
100
AcDbEntity
  8
0
 62
     3
100
AcDbText
 10
45.0802
 20
176.15385
 30
0.0
 40
3.2
  1
速
 41
0.859375
100
AcDbText
  0
TEXT
  5
3B4
330
6B
100
AcDbEntity
  8
0
 62
     3
100
AcDbText
 10
50.948749
 20
176.15385
 30
0.0
 40
3.2
  1
充
 41
0.859375
100
AcDbText
  0
TEXT
  5
3B5
330
6B
100
AcDbEntity
  8
0
 62
     3
100
AcDbText
 10
56.81729699999999
 20
176.15385
 30
0.0
 40
3.2
  1
電
 41
0.859375
100
AcDbText
  0
TEXT
  5
3B6
330
6B
100
AcDbEntity
  8
0
 62
     3
100
AcDbText
 10
62.685846
 20
176.15385
 30
0.0
 40
3.2
  1
器
 41
0.859375
100
AcDbText
  0
TEXT
  5
3B7
330
6B
100
AcDbEntity
  8
0
 62
     3
100
AcDbText
 10
39.129766
 20
173.285221
 30
0.0
 40
2.630879999999998
  1
エンジンスターター付
 41
0.833333
100
AcDbText
  0
ARC
  5
3B8
330
6B
100
AcDbEntity
  8
0
 62
     3
100
AcDbCircle
 10
98.23104700000001
 20
170.096363
 30
0.0
 40
6.788999999999997
100
AcDbArc
 50
114.301
 51
105.699
  0
LINE
  5
3B9
330
6B
100
AcDbEntity
  8
0
 62
     3
100
AcDbLine
 10
96.394047
 20
176.632363
 30
0.0
 11
100.676047
 21
164.869363
 31
0.0
  0
LINE
  5
3BA
330
6B
100
AcDbEntity
  8
0
 62
     3
100
AcDbLine
 10
95.438047
 20
176.284363
 30
0.0
 11
99.71904700000001
 21
164.5203629999999
 31
0.0
  0
CIRCLE
  5
3BB
330
6B
100
AcDbEntity
  8
0
 62
     3
100
AcDbCircle
 10
76.91904699999998
 20
166.659363
 30
0.0
 40
2.577999999999998
  0
CIRCLE
  5
3BC
330
6B
100
AcDbEntity
  8
0
 62
     3
100
AcDbCircle
 10
69.013047
 20
166.659363
 30
0.0
 40
2.319999999999998
  0
CIRCLE
  5
3BD
330
6B
100
AcDbEntity
  8
0
 62
     3
100
AcDbCircle
 10
61.10604699999999
 20
166.659363
 30
0.0
 40
2.319999999999998
  0
CIRCLE
  5
3BE
330
6B
100
AcDbEntity
  8
0
 62
     3
100
AcDbCircle
 10
53.200047
 20
166.659363
 30
0.0
 40
1.719
  0
CIRCLE
  5
3BF
330
6B
100
AcDbEntity
  8
0
 62
     3
100
AcDbCircle
 10
40.825047
 20
166.659363
 30
0.0
 40
2.544
  0
LINE
  5
3C2
330
6B
100
AcDbEntity
  8
0
 62
     3
100
AcDbLine
 10
351.447637
 20
2.250223
 30
0.0
 11
351.447637
 21
25.250223
 31
0.0
  0
LINE
  5
3C4
330
6B
100
AcDbEntity
  8
0
 62
     3
100
AcDbLine
 10
298.394027
 20
-4.749776999999999
 30
0.0
 11
298.394027
 21
9.250223
 31
0.0
  0
TEXT
  5
3C6
330
6B
100
AcDbEntity
  8
0
 62
     3
100
AcDbText
 10
327.457955
 20
21.455339
 30
0.0
 40
2.0
  1
A
 41
0.7
100
AcDbText
  0
TEXT
  5
3C7
330
6B
100
AcDbEntity
  8
0
 62
     3
100
AcDbText
 10
329.993241
 20
21.455339
 30
0.0
 40
2.0
  1
P
 41
0.7
100
AcDbText
  0
TEXT
  5
3C8
330
6B
100
AcDbEntity
  8
0
 62
     3
100
AcDbText
 10
332.528527
 20
21.455339
 30
0.0
 40
2.0
  1
P
 41
0.7
100
AcDbText
  0
TEXT
  5
3C9
330
6B
100
AcDbEntity
  8
0
 62
     3
100
AcDbText
 10
335.063813
 20
21.455339
 30
0.0
 40
2.0
  1
D
 41
0.7
100
AcDbText
  0
TEXT
  5
3CA
330
6B
100
AcDbEntity
  8
0
 62
     3
100
AcDbText
 10
340.432496
 20
21.455339
 30
0.0
 40
2.0
  1
C
 41
0.7
100
AcDbText
  0
TEXT
  5
3CB
330
6B
100
AcDbEntity
  8
0
 62
     3
100
AcDbText
 10
342.967783
 20
21.455339
 30
0.0
 40
2.0
  1
H
 41
0.7
100
AcDbText
  0
TEXT
  5
3CC
330
6B
100
AcDbEntity
  8
0
 62
     3
100
AcDbText
 10
345.503069
 20
21.455339
 30
0.0
 40
2.0
  1
C
 41
0.7
100
AcDbText
  0
TEXT
  5
3CD
330
6B
100
AcDbEntity
  8
0
 62
     3
100
AcDbText
 10
348.0383549999999
 20
21.455339
 30
0.0
 40
2.0
  1
K
 41
0.7
100
AcDbText
  0
TEXT
  5
3CE
330
6B
100
AcDbEntity
  8
0
 62
     3
100
AcDbText
 10
353.712322
 20
21.455339
 30
0.0
 40
2.0
  1
DESN
 41
1.216762999999998
100
AcDbText
  0
TEXT
  5
3CF
330
6B
100
AcDbEntity
  8
0
 62
     3
100
AcDbText
 10
268.705963
 20
-7.891159
 30
0.0
 40
2.0
  1
NICHIDO IND.CO.LTD
 41
1.274876
100
AcDbText
  0
LINE
  5
3D0
330
6B
100
AcDbEntity
  8
0
 62
     3
100
AcDbLine
 10
279.088992
 20
25.25022300000001
 30
0.0
 11
279.088992
 21
2.250223
 31
0.0
  0
LINE
  5
3D1
330
6B
100
AcDbEntity
  8
0
 62
     3
100
AcDbLine
 10
325.447637
 20
25.250223
 30
0.0
 11
325.447637
 21
-14.4155
 31
0.0
  0
LINE
  5
3D6
330
6B
100
AcDbEntity
  8
0
 62
     3
100
AcDbLine
 10
338.447637
 20
25.250223
 30
0.0
 11
338.447637
 21
-4.749776999999999
 31
0.0
  0
TEXT
  5
3D7
330
6B
100
AcDbEntity
  8
0
 62
     3
100
AcDbText
 10
326.560081
 20
-3.885091
 30
0.0
 40
3.2
  1
作成日
 41
1.017225999999997
100
AcDbText
  0
LINE
  5
3D8
330
6B
100
AcDbEntity
  8
0
 62
     3
100
AcDbLine
 10
377.147
 20
25.250223
 30
0.0
 11
265.843558
 21
25.250223
 31
0.0
  0
LINE
  5
3D9
330
6B
100
AcDbEntity
  8
0
 62
     3
100
AcDbLine
 10
364.447637
 20
2.250223
 30
0.0
 11
364.447637
 21
25.250223
 31
0.0
  0
TEXT
  5
3DA
330
6B
100
AcDbEntity
  8
0
 62
     3
100
AcDbText
 10
367.77144
 20
21.541157
 30
0.0
 40
1.8
  1
D
 41
0.666667
100
AcDbText
  0
TEXT
  5
3DB
330
6B
100
AcDbEntity
  8
0
 62
     3
100
AcDbText
 10
370.588068
 20
21.541157
 30
0.0
 40
1.8
  1
E
 41
0.666667
100
AcDbText
  0
TEXT
  5
3DC
330
6B
100
AcDbEntity
  8
0
 62
     3
100
AcDbText
 10
373.404696
 20
21.541157
 30
0.0
 40
1.8
  1
F
 41
0.666667
100
AcDbText
  0
TEXT
  5
3DD
330
6B
100
AcDbEntity
  8
0
 62
     3
100
AcDbText
 10
367.77144
 20
17.548604
 30
0.0
 40
3.2
  1
製図
 41
1.076369
100
AcDbText
  0
LINE
  5
3DE
330
6B
100
AcDbEntity
  8
0
 62
     3
100
AcDbLine
 10
265.843558
 20
25.250223
 30
0.0
 11
265.843558
 21
-14.4155
 31
0.0
  0
TEXT
  5
3DF
330
6B
100
AcDbEntity
  8
0
 62
     3
100
AcDbText
 10
267.22021
 20
-14.083035
 30
0.0
 40
5.0
  1
日動工業株式会社
 41
0.833333
100
AcDbText
  0
LINE
  5
3E0
330
6B
100
AcDbEntity
  8
0
 62
     3
100
AcDbLine
 10
308.725961
 20
9.250223
 30
0.0
 11
308.725961
 21
-14.4155
 31
0.0
  0
LINE
  5
3E1
330
6B
100
AcDbEntity
  8
0
 62
     3
100
AcDbLine
 10
308.725961
 20
-9.582639
 30
0.0
 11
325.447637
 21
-9.582639
 31
0.0
  0
TEXT
  5
3E2
330
6B
100
AcDbEntity
  8
0
 62
     3
100
AcDbText
 10
309.312563
 20
-8.766208
 30
0.0
 40
3.2
  1
出図コード
 41
0.8356860000000001
100
AcDbText
  0
LINE
  5
3E4
330
6B
100
AcDbEntity
  8
0
 62
     3
100
AcDbLine
 10
265.843558
 20
-4.749776999999999
 30
0.0
 11
377.147
 21
-4.749776999999999
 31
0.0
  0
LINE
  5
3E6
330
6B
100
AcDbEntity
  8
0
 62
     3
100
AcDbLine
 10
265.843558
 20
16.250223
 30
0.0
 11
377.147
 21
16.250223
 31
0.0
  0
LINE
  5
3EC
330
6B
100
AcDbEntity
  8
0
 62
     3
100
AcDbLine
 10
265.843558
 20
9.250223
 30
0.0
 11
325.447637
 21
9.250223
 31
0.0
  0
LINE
  5
3F2
330
6B
100
AcDbEntity
  8
0
 62
     3
100
AcDbLine
 10
265.843558
 20
2.250223
 30
0.0
 11
377.147
 21
2.250223
 31
0.0
  0
TEXT
  5
3F3
330
6B
100
AcDbEntity
  8
0
 62
     3
100
AcDbText
 10
309.5802671174042
 20
-14.13208388587725
 30
0.0
 40
3.2
  1
ZK-A3X
 41
0.8112849999999999
100
AcDbText
  0
TEXT
  5
3F4
330
6B
100
AcDbEntity
  8
0
 62
     3
100
AcDbText
 10
267.660954
 20
21.419748
 30
0.0
 40
2.0
  1
CONPONENTS
 41
0.5331600000000001
100
AcDbText
  0
TEXT
  5
3F5
330
6B
100
AcDbEntity
  8
0
 62
     3
100
AcDbText
 10
267.311228
 20
2.487572
 30
0.0
 40
3.0
  1
材
 41
0.833333
100
AcDbText
  0
TEXT
  5
3F6
330
6B
100
AcDbEntity
  8
0
 62
     3
100
AcDbText
 10
274.84687
 20
2.487572
 30
0.0
 40
3.0
  1
質
 41
0.833333
100
AcDbText
  0
TEXT
  5
3F7
330
6B
100
AcDbEntity
  8
0
 62
     3
100
AcDbText
 10
267.399298
 20
13.112096
 30
0.0
 40
2.0
  1
MODEL
 41
1.031072999999999
100
AcDbText
  0
TEXT
  5
3F8
330
6B
100
AcDbEntity
  8
0
 62
     3
100
AcDbText
 10
267.311228
 20
6.16988
 30
0.0
 40
2.0
  1
MATERIAL
 41
0.659278
100
AcDbText
  0
TEXT
  5
3F9
330
6B
100
AcDbEntity
  8
0
 62
     3
100
AcDbText
 10
298.618508
 20
2.487572
 30
0.0
 40
3.0
  1
備
 41
0.833333
100
AcDbText
  0
TEXT
  5
3FA
330
6B
100
AcDbEntity
  8
0
 62
     3
100
AcDbText
 10
305.35151
 20
2.487572
 30
0.0
 40
3.0
  1
考
 41
0.833333
100
AcDbText
  0
TEXT
  5
3FB
330
6B
100
AcDbEntity
  8
0
 62
     3
100
AcDbText
 10
299.0635816317868
 20
6.16988
 30
0.0
 40
2.0
  1
REMARKS
 41
0.675794
100
AcDbText
  0
TEXT
  5
3FC
330
6B
100
AcDbEntity
  8
0
 62
     3
100
AcDbText
 10
268.900957
 20
-0.750241
 30
0.0
 40
2.0
  1
3AD
 41
1.42614
100
AcDbText
  0
TEXT
  5
3FD
330
6B
100
AcDbEntity
  8
0
 62
     3
100
AcDbText
 10
278.211937
 20
-0.584507
 30
0.0
 40
2.0
  1
ANGLE
 41
1.669883999999995
100
AcDbText
  0
TEXT
  5
3FE
330
6B
100
AcDbEntity
  8
0
 62
     3
100
AcDbText
 10
299.145824
 20
-0.9613479999999999
 30
0.0
 40
2.0
  1
SCALE
 41
0.7719630000000001
100
AcDbText
  0
TEXT
  5
3FF
330
6B
100
AcDbEntity
  8
0
 62
     3
100
AcDbText
 10
268.587087
 20
-4.749776999999999
 30
0.0
 40
3.0
  1
第
 41
0.833333
100
AcDbText
  0
TEXT
  5
400
330
6B
100
AcDbEntity
  8
0
 62
     3
100
AcDbText
 10
276.373937
 20
-4.749776999999999
 30
0.0
 40
3.0
  1
三
 41
0.833333
100
AcDbText
  0
TEXT
  5
401
330
6B
100
AcDbEntity
  8
0
 62
     3
100
AcDbText
 10
284.160787
 20
-4.749776999999999
 30
0.0
 40
3.0
  1
角
 41
0.833333
100
AcDbText
  0
TEXT
  5
402
330
6B
100
AcDbEntity
  8
0
 62
     3
100
AcDbText
 10
291.947637
 20
-4.749776999999999
 30
0.0
 40
3.0
  1
法
 41
0.833333
100
AcDbText
  0
TEXT
  5
403
330
6B
100
AcDbEntity
  8
0
 62
     3
100
AcDbText
 10
299.009029
 20
-4.461348
 30
0.0
 40
3.0
  1
尺
 41
0.833333
100
AcDbText
  0
TEXT
  5
404
330
6B
100
AcDbEntity
  8
0
 62
     3
100
AcDbText
 10
305.74203
 20
-4.461348
 30
0.0
 40
3.0
  1
度
 41
0.833333
100
AcDbText
  0
TEXT
  5
405
330
6B
100
AcDbEntity
  8
0
 62
     3
100
AcDbText
 10
328.325301
 20
17.707951
 30
0.0
 40
3.0
  1
承認
 41
1.089472999999999
100
AcDbText
  0
TEXT
  5
406
330
6B
100
AcDbEntity
  8
0
 62
     3
100
AcDbText
 10
341.568181
 20
17.650223
 30
0.0
 40
3.0
  1
検図
 41
0.931761
100
AcDbText
  0
TEXT
  5
407
330
6B
100
AcDbEntity
  8
0
 62
     3
100
AcDbText
 10
354.568578
 20
17.650223
 30
0.0
 40
3.0
  1
設
 41
0.833333
100
AcDbText
  0
TEXT
  5
408
330
6B
100
AcDbEntity
  8
0
 62
     3
100
AcDbText
 10
359.058446
 20
17.650223
 30
0.0
 40
3.0
  1
計
 41
0.833333
100
AcDbText
  0
TEXT
  5
409
330
6B
100
AcDbEntity
  8
0
 62
     3
100
AcDbText
 10
267.731061
 20
17.822775
 30
0.0
 40
3.0
  1
品
 41
0.833333
100
AcDbText
  0
TEXT
  5
40A
330
6B
100
AcDbEntity
  8
0
 62
     3
100
AcDbText
 10
275.266703
 20
17.822775
 30
0.0
 40
3.0
  1
名
 41
0.833333
100
AcDbText
  0
TEXT
  5
40B
330
6B
100
AcDbEntity
  8
0
 62
     3
100
AcDbText
 10
267.399298
 20
9.564174421030653
 30
0.0
 40
3.0
  1
型
 41
0.833333
100
AcDbText
  0
TEXT
  5
40C
330
6B
100
AcDbEntity
  8
0
 62
     3
100
AcDbText
 10
274.947389
 20
9.564174421030653
 30
0.0
 40
3.0
  1
式
 41
0.833333
100
AcDbText
  0
LINE
  5
40D
330
6B
100
AcDbEntity
  8
0
 62
     3
100
AcDbLine
 10
-25.254924
 20
126.0845
 30
0.0
 11
-27.853
 21
124.5845
 31
0.0
  0
LINE
  5
40E
330
6B
100
AcDbEntity
  8
0
 62
     3
100
AcDbLine
 10
-25.254924
 20
126.0845
 30
0.0
 11
-27.853
 21
127.5845
 31
0.0
  0
LINE
  5
40F
330
6B
100
AcDbEntity
  8
0
 62
     3
100
AcDbLine
 10
-27.853
 20
124.5845
 30
0.0
 11
-27.853
 21
127.5845
 31
0.0
  0
ARC
  5
410
330
6B
100
AcDbEntity
  8
0
100
AcDbCircle
 10
98.23104700000001
 20
170.096363
 30
0.0
 40
8.9349
100
AcDbArc
 50
157.5
 51
90.0
  0
LINE
  5
411
330
6B
100
AcDbEntity
  8
0
100
AcDbLine
 10
94.33875699999999
 20
175.655129
 30
0.0
 11
92.20849399999998
 21
178.69746
 31
0.0
  0
TEXT
  5
412
330
6B
100
AcDbEntity
  8
0
 62
     3
100
AcDbText
 10
311.471634
 20
-3.436966999999998
 30
0.0
 40
3.2
  1
FREE
  7
高3.2
100
AcDbText
  0
LINE
  5
413
330
6B
100
AcDbEntity
  8
0
 62
     3
100
AcDbLine
 10
-12.853
 20
262.5845
 30
0.0
 11
-12.853
 21
-14.4155
 31
0.0
  0
LINE
  5
414
330
6B
100
AcDbEntity
  8
0
 62
     3
100
AcDbLine
 10
377.147
 20
-14.4155
 30
0.0
 11
377.147
 21
262.5845
 31
0.0
  0
LINE
  5
415
330
6B
100
AcDbEntity
  8
0
 62
     3
100
AcDbLine
 10
-12.853
 20
262.5845
 30
0.0
 11
377.147
 21
262.5845
 31
0.0
  0
LINE
  5
416
330
6B
100
AcDbEntity
  8
0
 62
     3
100
AcDbLine
 10
-12.853
 20
-14.4155
 30
0.0
 11
377.147
 21
-14.4155
 31
0.0
  0
LINE
  5
417
330
6B
100
AcDbEntity
  8
0
100
AcDbLine
 10
97.778647
 20
175.960137
 30
0.0
 11
97.778647
 21
176.867266
 31
0.0
  0
LINE
  5
418
330
6B
100
AcDbEntity
  8
0
100
AcDbLine
 10
98.68344700000001
 20
175.960137
 30
0.0
 11
98.68344700000001
 21
176.867266
 31
0.0
  0
TEXT
  5
419
330
6B
100
AcDbEntity
  8
0
100
AcDbText
 10
106.496179
 20
192.299502
 30
0.0
 40
1.113599999999999
  1
エンジン始動
 41
0.833333
100
AcDbText
  0
TEXT
  5
41A
330
6B
100
AcDbEntity
  8
0
100
AcDbText
 10
107.088241
 20
190.965397
 30
0.0
 40
1.113599999999999
  1
BOOST
100
AcDbText
  0
TEXT
  5
41B
330
6B
100
AcDbEntity
  8
0
100
AcDbText
 10
101.312344
 20
176.320009
 30
0.0
 40
1.158144
  1
2
100
AcDbText
  0
TEXT
  5
41C
330
6B
100
AcDbEntity
  8
0
100
AcDbText
 10
104.761522
 20
172.527665
 30
0.0
 40
1.158144
  1
4
100
AcDbText
  0
TEXT
  5
41D
330
6B
100
AcDbEntity
  8
0
100
AcDbText
 10
105.16959
 20
167.625681
 30
0.0
 40
1.158144
  1
6
100
AcDbText
  0
TEXT
  5
41E
330
6B
100
AcDbEntity
  8
0
100
AcDbText
 10
102.427671
 20
163.295251
 30
0.0
 40
1.158144
  1
8
100
AcDbText
  0
LINE
  5
41F
330
6B
100
AcDbEntity
  8
0
100
AcDbLine
 10
103.922265
 20
173.792284
 30
0.0
 11
105.534777
 21
174.839461
 31
0.0
  0
LINE
  5
420
330
6B
100
AcDbEntity
  8
0
100
AcDbLine
 10
102.408926
 20
175.443804
 30
0.0
 11
103.592658
 21
176.958912
 31
0.0
  0
LINE
  5
421
330
6B
100
AcDbEntity
  8
0
100
AcDbLine
 10
104.815474
 20
171.738045
 30
0.0
 11
106.681061
 21
172.203188
 31
0.0
  0
LINE
  5
422
330
6B
100
AcDbEntity
  8
0
100
AcDbLine
 10
101.416881
 20
164.104681
 30
0.0
 11
102.319534
 21
162.407037
 31
0.0
  0
LINE
  5
423
330
6B
100
AcDbEntity
  8
0
100
AcDbLine
 10
97.05266999999999
 20
163.413458
 30
0.0
 11
96.71879699999999
 21
161.519968
 31
0.0
  0
LINE
  5
424
330
6B
100
AcDbEntity
  8
0
100
AcDbLine
 10
100.440352
 20
176.512652
 30
0.0
 11
101.066322
 21
178.330601
 31
0.0
  0
LINE
  5
425
330
6B
100
AcDbEntity
  8
0
100
AcDbLine
 10
103.194013
 20
165.468322
 30
0.0
 11
104.600187
 21
164.157044
 31
0.0
  0
LINE
  5
426
330
6B
100
AcDbEntity
  8
0
100
AcDbLine
 10
104.430366
 20
167.336248
 30
0.0
 11
106.18684
 21
166.554216
 31
0.0
  0
LINE
  5
427
330
6B
100
AcDbEntity
  8
0
100
AcDbLine
 10
104.991224
 20
169.504924
 30
0.0
 11
106.906608
 21
169.33735
 31
0.0
  0
LINE
  5
428
330
6B
100
AcDbEntity
  8
0
100
AcDbLine
 10
93.188066
 20
165.555643
 30
0.0
 11
91.759222
 21
164.269105
 31
0.0
  0
LINE
  5
429
330
6B
100
AcDbEntity
  8
0
100
AcDbLine
 10
94.94112900000001
 20
164.161194
 30
0.0
 11
94.008985
 21
162.479563
 31
0.0
  0
TEXT
  5
42A
330
6B
100
AcDbEntity
  8
0
100
AcDbText
 10
103.037848
 20
177.689683
 30
0.0
 40
1.158144
  1
2
100
AcDbText
  0
TEXT
  5
42B
330
6B
100
AcDbEntity
  8
0
100
AcDbText
 10
107.364417
 20
171.269988
 30
0.0
 40
1.158144
  1
4
100
AcDbText
  0
TEXT
  5
42C
330
6B
100
AcDbEntity
  8
0
100
AcDbText
 10
105.868237
 20
164.013008
 30
0.0
 40
1.158144
  1
6
100
AcDbText
  0
TEXT
  5
42D
330
6B
100
AcDbEntity
  8
0
100
AcDbText
 10
90.101106
 20
168.87287
 30
0.0
 40
0.868608
  1
50HZ
 50
289.999997
 41
1.043478
100
AcDbText
  0
TEXT
  5
42E
330
6B
100
AcDbEntity
  8
0
100
AcDbText
 10
92.49635600000001
 20
163.51035
 30
0.0
 40
0.926515
  1
12
 41
1.199999999999999
100
AcDbText
  0
TEXT
  5
42F
330
6B
100
AcDbEntity
  8
0
100
AcDbText
 10
87.63493199999997
 20
167.565393
 30
0.0
 40
0.926515
  1
12
 41
1.199999999999999
100
AcDbText
  0
TEXT
  5
430
330
6B
100
AcDbEntity
  8
0
100
AcDbText
 10
88.67010400000003
 20
173.725887
 30
0.0
 40
0.868608
  1
60HZ
 50
256.999992
 41
1.043478
100
AcDbText
  0
TEXT
  5
431
330
6B
100
AcDbEntity
  8
0
100
AcDbText
 10
94.55600200000001
 20
177.257933
 30
0.0
 40
1.447679999999999
  1
0
 50
24.999998
 41
1.199999999999999
100
AcDbText
  0
TEXT
  5
432
330
6B
100
AcDbEntity
  8
0
100
AcDbText
 10
96.36505300000001
 20
177.934817
 30
0.0
 40
1.447679999999999
  1
F
 50
7.999998
100
AcDbText
  0
TEXT
  5
433
330
6B
100
AcDbEntity
  8
0
100
AcDbText
 10
95.423041
 20
177.677715
 30
0.0
 40
1.447679999999999
  1
F
 50
15.999996
100
AcDbText
  0
TEXT
  5
434
330
6B
100
AcDbEntity
  8
0
100
AcDbText
 10
91.219686
 20
174.173901
 30
0.0
 40
1.447679999999999
  1
0
 50
53.99999799999999
 41
1.199999999999999
100
AcDbText
  0
TEXT
  5
435
330
6B
100
AcDbEntity
  8
0
100
AcDbText
 10
91.774502
 20
174.961399
 30
0.0
 40
1.447679999999999
  1
N
 50
44.999998
100
AcDbText
  0
LINE
  5
436
330
6B
100
AcDbEntity
  8
0
100
AcDbLine
 10
99.29261099999999
 20
163.39391
 30
0.0
 11
99.59338800000001
 21
161.494882
 31
0.0
  0
TEXT
  5
437
330
6B
100
AcDbEntity
  8
0
100
AcDbText
 10
99.79381100000001
 20
159.783978
 30
0.0
 40
1.158144
  1
8
100
AcDbText
  0
TEXT
  5
438
330
6B
100
AcDbEntity
  8
0
100
AcDbText
 10
97.336624
 20
161.858985
 30
0.0
 40
0.926515
  1
10
 41
1.333333
100
AcDbText
  0
TEXT
  5
439
330
6B
100
AcDbEntity
  8
0
100
AcDbText
 10
91.755288
 20
161.38332
 30
0.0
 40
0.926515
  1
10
 41
1.333333
100
AcDbText
  0
TEXT
  5
43A
330
6B
100
AcDbEntity
  8
0
 62
     3
100
AcDbText
 10
38.26447
 20
185.316313
 30
0.0
 40
2.806272
  1
SUPERBOOSTER
100
AcDbText
  0
TEXT
  5
43B
330
6B
100
AcDbEntity
  8
0
 62
     3
100
AcDbText
 10
194.0693245664297
 20
86.453492
 30
0.0
 40
3.2
  1
型　　　　　式
  7
高3.2
100
AcDbText
  0
TEXT
  5
43C
330
6B
100
AcDbEntity
  8
0
 62
     3
100
AcDbText
 10
194.0693245664297
 20
80.909492
 30
0.0
 40
3.2
  1
入　力　電　圧
  7
高3.2
100
AcDbText
  0
TEXT
  5
43D
330
6B
100
AcDbEntity
  8
0
 62
     3
100
AcDbText
 10
194.0693245664297
 20
75.365492
 30
0.0
 40
3.2
  1
適応バッテリー
  7
高3.2
100
AcDbText
  0
TEXT
  5
43E
330
6B
100
AcDbEntity
  8
0
 62
     3
100
AcDbText
 10
194.0693245664297
 20
64.32149200000001
 30
0.0
 40
3.2
  1
最大充電電流
  7
高3.2
100
AcDbText
  0
TEXT
  5
43F
330
6B
100
AcDbEntity
  8
0
 62
     3
100
AcDbText
 10
224.3599332854963
 20
80.909492
 30
0.0
 40
3.2
  1
AC100V 50/60Hz
  7
高3.2
100
AcDbText
  0
TEXT
  5
440
330
6B
100
AcDbEntity
  8
0
 62
     3
100
AcDbText
 10
218.3421735664297
 20
93.83710684720163
 30
0.0
 40
4.5
  1
主　　仕　　様
  7
高4.5
100
AcDbText
  0
TEXT
  5
441
330
6B
100
AcDbEntity
  8
0
 62
     3
100
AcDbText
 10
224.3599332854963
 20
75.365492
 30
0.0
 40
3.2
  1
12V/24V
  7
高3.2
100
AcDbText
  0
TEXT
  5
442
330
6B
100
AcDbEntity
  8
0
 62
     3
100
AcDbText
 10
194.0693245664297
 20
42.14549199999999
 30
0.0
 40
3.2
  1
質　　　　　量
  7
高3.2
100
AcDbText
  0
TEXT
  5
443
330
6B
100
AcDbEntity
  8
0
 62
     3
100
AcDbText
 10
194.0693245664297
 20
47.689492
 30
0.0
 40
3.2
  1
タイマー機能
  7
高3.2
100
AcDbText
  0
TEXT
  5
444
330
6B
100
AcDbEntity
  8
0
 62
     3
100
AcDbText
 10
224.3599332854963
 20
47.689492
 30
0.0
 40
3.2
  1
12時間
  7
高3.2
100
AcDbText
  0
TEXT
  5
445
330
6B
100
AcDbEntity
  8
0
 62
     3
100
AcDbText
 10
194.0693245664297
 20
69.82149200000001
 30
0.0
 40
3.2
  1
連続充電電流
  7
高3.2
100
AcDbText
  0
TEXT
  5
446
330
6B
100
AcDbEntity
  8
0
 62
     3
100
AcDbText
 10
288.1152467225786
 20
17.847752
 30
0.0
 40
4.5
  1
急速充電器
  7
高4.5
100
AcDbText
  0
TEXT
  5
447
330
6B
100
AcDbEntity
  8
0
 62
     3
100
AcDbText
 10
263.485551
 20
28.66071161058381
 30
0.0
 40
3.2
  1
セルスタート付き強力充電器
  7
高3.2
100
AcDbText
  0
TEXT
  5
448
330
6B
100
AcDbEntity
  8
0
 62
     3
100
AcDbText
 10
289.5603328158677
 20
10.369459
 30
0.0
 40
4.5
  1
NB-200
  7
高4.5
100
AcDbText
  0
TEXT
  5
449
330
6B
100
AcDbEntity
  8
0
 62
     3
100
AcDbText
 10
332.0966311484836
 20
-13.361073
 30
0.0
 40
6.299999999999998
  1
NB-200
  7
高6.3
100
AcDbText
  0
TEXT
  5
44A
330
6B
100
AcDbEntity
  8
0
 62
     3
100
AcDbText
 10
224.3599332854963
 20
86.453492
 30
0.0
 40
3.2
  1
NB-200
  7
高3.2
100
AcDbText
  0
TEXT
  5
44B
330
6B
100
AcDbEntity
  8
0
 62
     3
100
AcDbText
 10
224.3599332854963
 20
64.32149200000001
 30
0.0
 40
3.2
  1
12V/50A  24V/40A
  7
高3.2
100
AcDbText
  0
TEXT
  5
44C
330
6B
100
AcDbEntity
  8
0
 62
     3
100
AcDbText
 10
224.3599332854963
 20
58.777492
 30
0.0
 40
3.2
  1
200A(10sec)MAX
  7
高3.2
100
AcDbText
  0
TEXT
  5
44D
330
6B
100
AcDbEntity
  8
0
 62
     3
100
AcDbText
 10
224.3599332854963
 20
42.14549199999999
 30
0.0
 40
3.2
  1
21.7kg
  7
高3.2
100
AcDbText
  0
TEXT
  5
44E
330
6B
100
AcDbEntity
  8
0
 62
     3
100
AcDbText
 10
71.681876
 20
185.206182
 30
0.0
 40
4.209408999999999
  1
200
 41
1.125
100
AcDbText
  0
TEXT
  5
44F
330
6B
100
AcDbEntity
  8
0
 62
     3
100
AcDbText
 10
39.48478400000001
 20
180.121174
 30
0.0
 40
4.104173
  1
ＮＢー２００
 41
0.833333
100
AcDbText
  0
ARC
  5
450
330
6B
100
AcDbEntity
  8
0
 62
     3
100
AcDbCircle
 10
98.23104700000001
 20
192.096363
 30
0.0
 40
8.662485999999999
100
AcDbArc
 50
9.911823999999999
 51
350.088176
  0
CIRCLE
  5
451
330
6B
100
AcDbEntity
  8
0
 62
     3
100
AcDbCircle
 10
98.23104700000001
 20
170.096363
 30
0.0
 40
10.5
  0
LINE
  5
452
330
6B
100
AcDbEntity
  8
0
 62
     3
100
AcDbLine
 10
246.951938
 20
107.219436
 30
0.0
 11
246.701938
 21
99.406937
 31
0.0
  0
LINE
  5
453
330
6B
100
AcDbEntity
  8
0
 62
     3
100
AcDbLine
 10
246.289438
 20
98.65693700000001
 30
0.0
 11
246.289438
 21
99.406937
 31
0.0
  0
ARC
  5
454
330
6B
100
AcDbEntity
  8
0
 62
     3
100
AcDbCircle
 10
246.039438
 20
98.65693700000001
 30
0.0
 40
0.25
100
AcDbArc
 50
270.0
 51
0.0
  0
LINE
  5
455
330
6B
100
AcDbEntity
  8
0
 62
     3
100
AcDbLine
 10
244.364438
 20
98.406937
 30
0.0
 11
246.039438
 21
98.406937
 31
0.0
  0
ARC
  5
456
330
6B
100
AcDbEntity
  8
0
 62
     3
100
AcDbCircle
 10
244.364438
 20
98.65693700000001
 30
0.0
 40
0.25
100
AcDbArc
 50
180.0
 51
270.0
  0
LINE
  5
457
330
6B
100
AcDbEntity
  8
0
 62
     3
100
AcDbLine
 10
244.114438
 20
98.65693700000001
 30
0.0
 11
244.114438
 21
99.406937
 31
0.0
  0
LINE
  5
458
330
6B
100
AcDbEntity
  8
0
 62
     3
100
AcDbLine
 10
243.416224
 20
107.219436
 30
0.0
 11
243.701938
 21
99.406937
 31
0.0
  0
ARC
  5
459
330
6B
100
AcDbEntity
  8
0
 62
     7
100
AcDbCircle
 10
252.639438
 20
118.03177
 30
0.0
 40
2.5
100
AcDbArc
 50
180.0
 51
225.0
  0
ARC
  5
45A
330
6B
100
AcDbEntity
  8
0
 62
     7
100
AcDbCircle
 10
252.664438
 20
118.042126
 30
0.0
 40
3.149999999999999
100
AcDbArc
 50
180.0
 51
225.0
  0
ARC
  5
45B
330
6B
100
AcDbEntity
  8
0
 62
     3
100
AcDbCircle
 10
257.326847
 20
120.860807
 30
0.0
 40
0.375
100
AcDbArc
 50
270.0
 51
90.0
  0
LINE
  5
45C
330
6B
100
AcDbEntity
  8
0
 62
     3
100
AcDbLine
 10
253.076847
 20
121.235807
 30
0.0
 11
257.326847
 21
121.235807
 31
0.0
  0
ARC
  5
45D
330
6B
100
AcDbEntity
  8
0
 62
     3
100
AcDbCircle
 10
253.076847
 20
120.860807
 30
0.0
 40
0.375
100
AcDbArc
 50
90.0
 51
270.0
  0
LINE
  5
45E
330
6B
100
AcDbEntity
  8
0
 62
     3
100
AcDbLine
 10
255.201847
 20
120.485807
 30
0.0
 11
253.076847
 21
120.485807
 31
0.0
  0
LINE
  5
45F
330
6B
100
AcDbEntity
  8
0
 62
     3
100
AcDbLine
 10
255.201847
 20
120.485807
 30
0.0
 11
257.326847
 21
120.485807
 31
0.0
  0
LINE
  5
460
330
6B
100
AcDbEntity
  8
0
 62
     7
100
AcDbLine
 10
256.71888
 20
100.462353
 30
0.0
 11
256.96888
 21
100.462353
 31
0.0
  0
LINE
  5
461
330
6B
100
AcDbEntity
  8
0
 62
     7
100
AcDbLine
 10
256.6563799999999
 20
100.837353
 30
0.0
 11
257.03138
 21
100.837353
 31
0.0
  0
LINE
  5
462
330
6B
100
AcDbEntity
  8
0
 62
     7
100
AcDbLine
 10
253.38138
 20
100.837353
 30
0.0
 11
253.75638
 21
100.837353
 31
0.0
  0
LINE
  5
463
330
6B
100
AcDbEntity
  8
0
 62
     7
100
AcDbLine
 10
254.62513
 20
104.737353
 30
0.0
 11
254.62513
 21
99.96860300000001
 31
0.0
  0
ARC
  5
464
330
6B
100
AcDbEntity
  8
0
 62
     7
100
AcDbCircle
 10
255.2063799999999
 20
99.96860300000001
 30
0.0
 40
0.58125
100
AcDbArc
 50
180.0
 51
0.0
  0
LINE
  5
465
330
6B
100
AcDbEntity
  8
0
 62
     7
100
AcDbLine
 10
255.78763
 20
104.737353
 30
0.0
 11
255.78763
 21
99.96860300000001
 31
0.0
  0
LINE
  5
466
330
6B
100
AcDbEntity
  8
0
 62
     7
100
AcDbLine
 10
257.03138
 20
104.737353
 30
0.0
 11
257.03138
 21
100.837353
 31
0.0
  0
LINE
  5
467
330
6B
100
AcDbEntity
  8
0
 62
     7
100
AcDbLine
 10
257.03138
 20
100.837353
 30
0.0
 11
256.96888
 21
100.462353
 31
0.0
  0
LINE
  5
468
330
6B
100
AcDbEntity
  8
0
 62
     7
100
AcDbLine
 10
256.6563799999999
 20
100.837353
 30
0.0
 11
256.71888
 21
100.462353
 31
0.0
  0
LINE
  5
469
330
6B
100
AcDbEntity
  8
0
 62
     7
100
AcDbLine
 10
256.6563799999999
 20
104.737353
 30
0.0
 11
256.6563799999999
 21
100.837353
 31
0.0
  0
LINE
  5
46A
330
6B
100
AcDbEntity
  8
0
 62
     7
100
AcDbLine
 10
253.75638
 20
104.737353
 30
0.0
 11
253.75638
 21
100.837353
 31
0.0
  0
LINE
  5
46B
330
6B
100
AcDbEntity
  8
0
 62
     7
100
AcDbLine
 10
253.75638
 20
100.837353
 30
0.0
 11
253.69388
 21
100.462353
 31
0.0
  0
LINE
  5
46C
330
6B
100
AcDbEntity
  8
0
 62
     7
100
AcDbLine
 10
253.44388
 20
100.462353
 30
0.0
 11
253.69388
 21
100.462353
 31
0.0
  0
LINE
  5
46D
330
6B
100
AcDbEntity
  8
0
 62
     7
100
AcDbLine
 10
253.38138
 20
100.837353
 30
0.0
 11
253.44388
 21
100.462353
 31
0.0
  0
LINE
  5
46E
330
6B
100
AcDbEntity
  8
0
 62
     7
100
AcDbLine
 10
253.38138
 20
104.737353
 30
0.0
 11
253.38138
 21
100.837353
 31
0.0
  0
LINE
  5
46F
330
6B
100
AcDbEntity
  8
0
 62
     3
100
AcDbLine
 10
250.83138
 20
104.737353
 30
0.0
 11
259.58138
 21
104.737353
 31
0.0
  0
LINE
  5
470
330
6B
100
AcDbEntity
  8
0
 62
     3
100
AcDbLine
 10
250.83138
 20
104.987353
 30
0.0
 11
259.58138
 21
104.987353
 31
0.0
  0
LINE
  5
471
330
6B
100
AcDbEntity
  8
0
 62
     7
100
AcDbLine
 10
255.45638
 20
119.487353
 30
0.0
 11
255.45638
 21
119.112353
 31
0.0
  0
LINE
  5
472
330
6B
100
AcDbEntity
  8
0
 62
     7
100
AcDbLine
 10
254.95638
 20
119.487353
 30
0.0
 11
254.95638
 21
119.112353
 31
0.0
  0
LINE
  5
473
330
6B
100
AcDbEntity
  8
0
 62
     7
100
AcDbLine
 10
255.45638
 20
118.612353
 30
0.0
 11
255.45638
 21
118.237353
 31
0.0
  0
LINE
  5
474
330
6B
100
AcDbEntity
  8
0
 62
     7
100
AcDbLine
 10
254.95638
 20
118.612353
 30
0.0
 11
254.95638
 21
118.237353
 31
0.0
  0
LINE
  5
475
330
6B
100
AcDbEntity
  8
0
 62
     7
100
AcDbLine
 10
255.45638
 20
117.737353
 30
0.0
 11
255.45638
 21
117.362353
 31
0.0
  0
LINE
  5
476
330
6B
100
AcDbEntity
  8
0
 62
     7
100
AcDbLine
 10
255.45638
 20
116.862353
 30
0.0
 11
255.45638
 21
116.487353
 31
0.0
  0
LINE
  5
477
330
6B
100
AcDbEntity
  8
0
 62
     7
100
AcDbLine
 10
254.95638
 20
117.737353
 30
0.0
 11
254.95638
 21
117.362353
 31
0.0
  0
LINE
  5
478
330
6B
100
AcDbEntity
  8
0
 62
     7
100
AcDbLine
 10
254.95638
 20
116.862353
 30
0.0
 11
254.95638
 21
116.487353
 31
0.0
  0
LINE
  5
479
330
6B
100
AcDbEntity
  8
0
 62
     7
100
AcDbLine
 10
253.501899
 20
117.737353
 30
0.0
 11
253.493376
 21
117.362353
 31
0.0
  0
LINE
  5
47A
330
6B
100
AcDbEntity
  8
0
 62
     7
100
AcDbLine
 10
253.541671
 20
119.487353
 30
0.0
 11
253.533149
 21
119.112353
 31
0.0
  0
LINE
  5
47B
330
6B
100
AcDbEntity
  8
0
 62
     7
100
AcDbLine
 10
253.521785
 20
118.612353
 30
0.0
 11
253.513262
 21
118.237353
 31
0.0
  0
LINE
  5
47C
330
6B
100
AcDbEntity
  8
0
 62
     7
100
AcDbLine
 10
253.223425
 20
116.487353
 30
0.0
 11
257.189334
 21
116.487353
 31
0.0
  0
LINE
  5
47D
330
6B
100
AcDbEntity
  8
0
 62
     7
100
AcDbLine
 10
253.231948
 20
116.862353
 30
0.0
 11
257.180811
 21
116.862353
 31
0.0
  0
LINE
  5
47E
330
6B
100
AcDbEntity
  8
0
 62
     7
100
AcDbLine
 10
253.243311
 20
117.362353
 30
0.0
 11
257.169448
 21
117.362353
 31
0.0
  0
LINE
  5
47F
330
6B
100
AcDbEntity
  8
0
 62
     7
100
AcDbLine
 10
253.251834
 20
117.737353
 30
0.0
 11
257.160925
 21
117.737353
 31
0.0
  0
LINE
  5
480
330
6B
100
AcDbEntity
  8
0
 62
     7
100
AcDbLine
 10
253.263198
 20
118.237353
 30
0.0
 11
257.149561
 21
118.237353
 31
0.0
  0
LINE
  5
481
330
6B
100
AcDbEntity
  8
0
 62
     7
100
AcDbLine
 10
253.271721
 20
118.612353
 30
0.0
 11
257.141039
 21
118.612353
 31
0.0
  0
LINE
  5
482
330
6B
100
AcDbEntity
  8
0
 62
     7
100
AcDbLine
 10
253.283084
 20
119.112353
 30
0.0
 11
257.129675
 21
119.112353
 31
0.0
  0
LINE
  5
483
330
6B
100
AcDbEntity
  8
0
 62
     7
100
AcDbLine
 10
253.291607
 20
119.487353
 30
0.0
 11
257.121152
 21
119.487353
 31
0.0
  0
LINE
  5
484
330
6B
100
AcDbEntity
  8
0
 62
     7
100
AcDbLine
 10
253.482012
 20
116.862353
 30
0.0
 11
253.47349
 21
116.487353
 31
0.0
  0
LINE
  5
485
330
6B
100
AcDbEntity
  8
0
 62
     7
100
AcDbLine
 10
256.93927
 20
116.487353
 30
0.0
 11
256.930747
 21
116.862353
 31
0.0
  0
LINE
  5
486
330
6B
100
AcDbEntity
  8
0
 62
     7
100
AcDbLine
 10
256.919383
 20
117.362353
 30
0.0
 11
256.910861
 21
117.737353
 31
0.0
  0
LINE
  5
487
330
6B
100
AcDbEntity
  8
0
 62
     7
100
AcDbLine
 10
256.899497
 20
118.237353
 30
0.0
 11
256.890974
 21
118.612353
 31
0.0
  0
LINE
  5
488
330
6B
100
AcDbEntity
  8
0
 62
     7
100
AcDbLine
 10
256.879611
 20
119.112353
 30
0.0
 11
256.871088
 21
119.487353
 31
0.0
  0
ARC
  5
489
330
6B
100
AcDbEntity
  8
0
 62
     3
100
AcDbCircle
 10
250.95638
 20
115.069682
 30
0.0
 40
1.875
100
AcDbArc
 50
303.055731
 51
0.0
  0
LINE
  5
48A
330
6B
100
AcDbEntity
  8
0
 62
     7
100
AcDbLine
 10
255.327675
 20
108.4959
 30
0.0
 11
256.247229
 21
108.923253
 31
0.0
  0
LINE
  5
48B
330
6B
100
AcDbEntity
  8
0
 62
     7
100
AcDbLine
 10
256.278494
 20
108.70039
 30
0.0
 11
255.123184
 21
107.54508
 31
0.0
  0
LINE
  5
48C
330
6B
100
AcDbEntity
  8
0
 62
     7
100
AcDbLine
 10
255.327675
 20
109.759684
 30
0.0
 11
255.327675
 21
108.4959
 31
0.0
  0
LINE
  5
48D
330
6B
100
AcDbEntity
  8
0
 62
     7
100
AcDbLine
 10
253.609346
 20
108.1719
 30
0.0
 11
253.937184
 21
108.499738
 31
0.0
  0
LINE
  5
48E
330
6B
100
AcDbEntity
  8
0
 62
     7
100
AcDbLine
 10
254.052855
 20
108.615409
 30
0.0
 11
255.208165
 21
109.770719
 31
0.0
  0
LINE
  5
48F
330
6B
100
AcDbEntity
  8
0
 62
     7
100
AcDbLine
 10
255.003675
 20
108.8199
 30
0.0
 11
254.08412
 21
108.392546
 31
0.0
  0
LINE
  5
490
330
6B
100
AcDbEntity
  8
0
 62
     7
100
AcDbLine
 10
253.968812
 20
108.338958
 30
0.0
 11
253.609346
 21
108.1719
 31
0.0
  0
LINE
  5
491
330
6B
100
AcDbEntity
  8
0
 62
     7
100
AcDbLine
 10
255.003675
 20
108.8199
 30
0.0
 11
255.003675
 21
107.556116
 31
0.0
  0
LINE
  5
492
330
6B
100
AcDbEntity
  8
0
 62
     7
100
AcDbLine
 10
256.362538
 20
108.976842
 30
0.0
 11
256.722004
 21
109.1439
 31
0.0
  0
LINE
  5
493
330
6B
100
AcDbEntity
  8
0
 62
     7
100
AcDbLine
 10
256.722004
 20
109.1439
 30
0.0
 11
256.3941660000001
 21
108.816062
 31
0.0
  0
ARC
  5
494
330
6B
100
AcDbEntity
  8
0
 62
     7
100
AcDbCircle
 10
255.165675
 20
108.6579
 30
0.0
 40
1.113629999999999
100
AcDbArc
 50
13.784921
 51
81.63549399999999
  0
ARC
  5
495
330
6B
100
AcDbEntity
  8
0
 62
     7
100
AcDbCircle
 10
255.165675
 20
108.6579
 30
0.0
 40
1.113629999999999
100
AcDbArc
 50
87.81335099999997
 51
182.186649
  0
ARC
  5
496
330
6B
100
AcDbEntity
  8
0
 62
     7
100
AcDbCircle
 10
255.165675
 20
108.6579
 30
0.0
 40
1.113629999999999
100
AcDbArc
 50
193.784921
 51
261.635494
  0
ARC
  5
497
330
6B
100
AcDbEntity
  8
0
 62
     7
100
AcDbCircle
 10
255.165675
 20
108.6579
 30
0.0
 40
1.113629999999999
100
AcDbArc
 50
267.8133509999999
 51
2.186649
  0
ARC
  5
498
330
6B
100
AcDbEntity
  8
0
 62
     7
100
AcDbCircle
 10
255.165675
 20
108.6579
 30
0.0
 40
1.238629999999999
100
AcDbArc
 50
14.921515
 51
187.336187
  0
ARC
  5
499
330
6B
100
AcDbEntity
  8
0
 62
     7
100
AcDbCircle
 10
255.165675
 20
108.6579
 30
0.0
 40
1.238629999999999
100
AcDbArc
 50
194.92152
 51
7.336186999999997
  0
LINE
  5
4C2
330
6B
100
AcDbEntity
  8
0
 62
     3
100
AcDbLine
 10
244.826938
 20
113.023007
 30
0.0
 11
245.576938
 21
113.023007
 31
0.0
  0
LINE
  5
4C3
330
6B
100
AcDbEntity
  8
0
 62
     3
100
AcDbLine
 10
246.094795
 20
113.023007
 30
0.0
 11
246.094795
 21
110.56765
 31
0.0
  0
LINE
  5
4C4
330
6B
100
AcDbEntity
  8
0
 62
     3
100
AcDbLine
 10
245.576938
 20
113.023007
 30
0.0
 11
246.094795
 21
113.023007
 31
0.0
  0
LINE
  5
4C5
330
6B
100
AcDbEntity
  8
0
 62
     3
100
AcDbLine
 10
244.826938
 20
113.023007
 30
0.0
 11
244.309081
 21
113.023007
 31
0.0
  0
LINE
  5
4C6
330
6B
100
AcDbEntity
  8
0
 62
     3
100
AcDbLine
 10
244.309081
 20
113.023007
 30
0.0
 11
244.309081
 21
110.56765
 31
0.0
  0
LINE
  5
4C7
330
6B
100
AcDbEntity
  8
0
 62
     3
100
AcDbLine
 10
243.416224
 20
107.219436
 30
0.0
 11
244.309081
 21
110.56765
 31
0.0
  0
LINE
  5
4C8
330
6B
100
AcDbEntity
  8
0
 62
     3
100
AcDbLine
 10
246.887116
 20
107.596445
 30
0.0
 11
246.094795
 21
110.56765
 31
0.0
  0
ARC
  5
4C9
330
6B
100
AcDbEntity
  8
0
 62
     3
100
AcDbCircle
 10
244.730342
 20
107.021305
 30
0.0
 40
2.232141999999999
100
AcDbArc
 50
5.092422
 51
14.931417
  0
LINE
  5
4CA
330
6B
100
AcDbEntity
  8
0
 62
     3
100
AcDbLine
 10
244.114438
 20
99.406937
 30
0.0
 11
246.289438
 21
99.406937
 31
0.0
  0
LINE
  5
4CB
330
6B
100
AcDbEntity
  8
0
 62
     3
100
AcDbLine
 10
246.289438
 20
99.406937
 30
0.0
 11
246.701938
 21
99.406937
 31
0.0
  0
LINE
  5
4CC
330
6B
100
AcDbEntity
  8
0
 62
     3
100
AcDbLine
 10
244.114438
 20
99.406937
 30
0.0
 11
243.701938
 21
99.406937
 31
0.0
  0
LINE
  5
4CD
330
6B
100
AcDbEntity
  8
0
 62
     3
100
AcDbLine
 10
250.95638
 20
106.237353
 30
0.0
 11
259.4563799999999
 21
106.237353
 31
0.0
  0
ARC
  5
4CE
330
6B
100
AcDbEntity
  8
0
 62
     3
100
AcDbCircle
 10
259.123046
 20
105.612353
 30
0.0
 40
0.7083330000000001
100
AcDbArc
 50
298.072487
 51
61.92751300000002
  0
LINE
  5
4CF
330
6B
100
AcDbEntity
  8
0
 62
     3
100
AcDbLine
 10
259.58138
 20
105.072291
 30
0.0
 11
259.58138
 21
104.737353
 31
0.0
  0
LINE
  5
4D0
330
6B
100
AcDbEntity
  8
0
 62
     3
100
AcDbLine
 10
250.83138
 20
105.072291
 30
0.0
 11
250.83138
 21
104.737353
 31
0.0
  0
ARC
  5
4D1
330
6B
100
AcDbEntity
  8
0
 62
     3
100
AcDbCircle
 10
251.289713
 20
105.612353
 30
0.0
 40
0.7083330000000001
100
AcDbArc
 50
118.072487
 51
241.927513
  0
ARC
  5
4D2
330
6B
100
AcDbEntity
  8
0
 62
     3
100
AcDbCircle
 10
251.781661
 20
113.512564
 30
0.0
 40
0.125
100
AcDbArc
 50
306.861424
 51
40.236358
  0
ARC
  5
4D3
330
6B
100
AcDbEntity
  8
0
 62
     3
100
AcDbCircle
 10
252.70638
 20
115.313817
 30
0.0
 40
0.125
100
AcDbArc
 50
229.763642
 51
0.0
  0
LINE
  5
4D4
330
6B
100
AcDbEntity
  8
0
 62
     3
100
AcDbLine
 10
257.09846
 20
120.485807
 30
0.0
 11
257.20638
 21
115.737353
 31
0.0
  0
LINE
  5
4D5
330
6B
100
AcDbEntity
  8
0
 62
     3
100
AcDbLine
 10
253.314299
 20
120.485807
 30
0.0
 11
253.2063799999999
 21
115.737353
 31
0.0
  0
LINE
  5
4D6
330
6B
100
AcDbEntity
  8
0
 62
     3
100
AcDbLine
 10
252.83138
 20
115.313817
 30
0.0
 11
252.83138
 21
115.487353
 31
0.0
  0
ARC
  5
4D7
330
6B
100
AcDbEntity
  8
0
 62
     3
100
AcDbCircle
 10
253.08138
 20
115.487353
 30
0.0
 40
0.25
100
AcDbArc
 50
90.0
 51
180.0
  0
LINE
  5
4D8
330
6B
100
AcDbEntity
  8
0
 62
     3
100
AcDbLine
 10
253.08138
 20
115.737353
 30
0.0
 11
257.33138
 21
115.737353
 31
0.0
  0
ARC
  5
4D9
330
6B
100
AcDbEntity
  8
0
 62
     3
100
AcDbCircle
 10
259.4563799999999
 20
115.069682
 30
0.0
 40
1.875
100
AcDbArc
 50
180.0
 51
236.944269
  0
LINE
  5
4DA
330
6B
100
AcDbEntity
  8
0
 62
     3
100
AcDbLine
 10
257.58138
 20
115.487353
 30
0.0
 11
257.58138
 21
115.069682
 31
0.0
  0
ARC
  5
4DB
330
6B
100
AcDbEntity
  8
0
 62
     3
100
AcDbCircle
 10
257.33138
 20
115.487353
 30
0.0
 40
0.25
100
AcDbArc
 50
0.0
 51
90.0
  0
ARC
  5
4DC
330
6B
100
AcDbEntity
  8
0
 62
     3
100
AcDbCircle
 10
253.2063799999999
 20
111.612353
 30
0.0
 40
2.25
100
AcDbArc
 50
126.861424
 51
180.0
  0
LINE
  5
4DD
330
6B
100
AcDbEntity
  8
0
 62
     3
100
AcDbLine
 10
251.877084
 20
113.593306
 30
0.0
 11
250.982333
 21
114.650739
 31
0.0
  0
LINE
  5
4DE
330
6B
100
AcDbEntity
  8
0
 62
     3
100
AcDbLine
 10
250.982333
 20
114.650739
 30
0.0
 11
252.042993
 21
115.7114
 31
0.0
  0
LINE
  5
4DF
330
6B
100
AcDbEntity
  8
0
 62
     3
100
AcDbLine
 10
252.625637
 20
115.218393
 30
0.0
 11
252.042993
 21
115.7114
 31
0.0
  0
ARC
  5
4E0
330
6B
100
AcDbEntity
  8
0
 62
     7
100
AcDbCircle
 10
247.514438
 20
121.908926
 30
0.0
 40
2.625
100
AcDbArc
 50
90.0
 51
180.0
  0
LINE
  5
4E1
330
6B
100
AcDbEntity
  8
0
 62
     7
100
AcDbLine
 10
250.871671
 20
116.264003
 30
0.0
 11
251.733634
 21
115.40204
 31
0.0
  0
LINE
  5
4E2
330
6B
100
AcDbEntity
  8
0
 62
     7
100
AcDbLine
 10
250.437052
 20
115.814739
 30
0.0
 11
251.291692
 21
114.960099
 31
0.0
  0
ARC
  5
4E3
330
6B
100
AcDbEntity
  8
0
 62
     7
100
AcDbCircle
 10
247.514438
 20
121.908926
 30
0.0
 40
2.0
100
AcDbArc
 50
90.0
 51
180.0
  0
LINE
  5
4E4
330
6B
100
AcDbEntity
  8
0
 62
     7
100
AcDbLine
 10
245.514438
 20
119.754378
 30
0.0
 11
245.514438
 21
121.908926
 31
0.0
  0
LINE
  5
4E5
330
6B
100
AcDbEntity
  8
0
 62
     7
100
AcDbLine
 10
244.889438
 20
119.537147
 30
0.0
 11
244.889438
 21
121.908926
 31
0.0
  0
LINE
  5
4E6
330
6B
100
AcDbEntity
  8
0
 62
     3
100
AcDbLine
 10
253.83138
 20
125.313802
 30
0.0
 11
253.83138
 21
121.237353
 31
0.0
  0
LINE
  5
4E7
330
6B
100
AcDbEntity
  8
0
 62
     3
100
AcDbLine
 10
256.58138
 20
125.1776
 30
0.0
 11
256.58138
 21
121.237353
 31
0.0
  0
LINE
  5
4E8
330
6B
100
AcDbEntity
  8
0
 62
     7
100
AcDbLine
 10
244.889438
 20
119.010307
 30
0.0
 11
244.889438
 21
113.012087
 31
0.0
  0
LINE
  5
4E9
330
6B
100
AcDbEntity
  8
0
 62
     7
100
AcDbLine
 10
245.514438
 20
119.224221
 30
0.0
 11
245.514438
 21
113.012087
 31
0.0
  0
LINE
  5
4EA
330
6B
100
AcDbEntity
  8
0
 62
     3
100
AcDbLine
 10
259.4563799999999
 20
111.612353
 30
0.0
 11
259.4563799999999
 21
106.237353
 31
0.0
  0
LINE
  5
4EB
330
6B
100
AcDbEntity
  8
0
 62
     3
100
AcDbLine
 10
250.95638
 20
111.612353
 30
0.0
 11
250.95638
 21
106.237353
 31
0.0
  0
ARC
  5
4EC
330
6B
100
AcDbEntity
  8
0
 62
     3
100
AcDbCircle
 10
257.20638
 20
111.612353
 30
0.0
 40
2.25
100
AcDbArc
 50
0.0
 51
56.94426899999999
  0
LINE
  5
4ED
330
6B
100
AcDbEntity
  8
0
 62
     3
100
AcDbLine
 10
243.416224
 20
107.219436
 30
0.0
 11
246.951938
 21
107.219436
 31
0.0
  0
LINE
  5
4EE
330
6B
100
AcDbEntity
  8
0
 62
     3
100
AcDbLine
 10
244.309081
 20
110.56765
 30
0.0
 11
246.094795
 21
110.56765
 31
0.0
  0
LINE
  5
4EF
330
6B
100
AcDbEntity
  8
0
 62
     7
100
AcDbLine
 10
249.514438
 20
118.042126
 30
0.0
 11
249.514438
 21
121.908926
 31
0.0
  0
LINE
  5
4F0
330
6B
100
AcDbEntity
  8
0
 62
     7
100
AcDbLine
 10
250.139438
 20
118.03177
 30
0.0
 11
250.139438
 21
121.908926
 31
0.0
  0
ARC
  5
4F1
330
6B
100
AcDbEntity
  8
0
 62
     7
100
AcDbCircle
 10
247.514438
 20
121.908926
 30
0.0
 40
2.0
100
AcDbArc
 50
0.0
 51
90.0
  0
ARC
  5
4F2
330
6B
100
AcDbEntity
  8
0
 62
     7
100
AcDbCircle
 10
247.514438
 20
121.908926
 30
0.0
 40
2.625
100
AcDbArc
 50
0.0
 51
90.0
  0
LINE
  5
4F3
330
6B
100
AcDbEntity
  8
0
 62
     3
100
AcDbLine
 10
253.83138
 20
125.1776
 30
0.0
 11
253.83138
 21
166.662363
 31
0.0
  0
LINE
  5
4F4
330
6B
100
AcDbEntity
  8
0
 62
     3
100
AcDbLine
 10
256.58138
 20
125.3138
 30
0.0
 11
256.58138
 21
166.662363
 31
0.0
  0
ARC
  5
4F5
330
6B
100
AcDbEntity
  8
0
 62
     3
100
AcDbCircle
 10
255.2063799999999
 20
166.662363
 30
0.0
 40
1.375
100
AcDbArc
 50
0.0
 51
180.0
  0
TEXT
  5
4F6
330
6B
100
AcDbEntity
  8
0
 62
     3
100
AcDbText
 10
193.3265455664296
 20
37.3031634725262
 30
0.0
 40
3.2
  1
＊密閉型バッテリーは使用不可
  7
高3.2
100
AcDbText
  0
LINE
  5
4F7
330
6B
100
AcDbEntity
  8
0
100
AcDbLine
 10
262.018047
 20
188.353363
 30
0.0
 11
282.643047
 21
188.353363
 31
0.0
  0
LINE
  5
4F8
330
6B
100
AcDbEntity
  8
0
100
AcDbLine
 10
262.018047
 20
192.821363
 30
0.0
 11
282.643047
 21
192.821363
 31
0.0
  0
LINE
  5
4F9
330
6B
100
AcDbEntity
  8
0
100
AcDbLine
 10
292.956047
 20
192.821363
 30
0.0
 11
313.581047
 21
192.821363
 31
0.0
  0
LINE
  5
4FA
330
6B
100
AcDbEntity
  8
0
100
AcDbLine
 10
292.956047
 20
188.353363
 30
0.0
 11
313.581047
 21
188.353363
 31
0.0
  0
TEXT
  5
4FB
330
6B
100
AcDbEntity
  8
0
 62
     3
100
AcDbText
 10
224.3599332854963
 20
69.82149200000001
 30
0.0
 40
3.2
  1
12V/28A  24V/22A
  7
高3.2
100
AcDbText
  0
TEXT
  5
4FC
330
6B
100
AcDbEntity
  8
0
 62
     3
100
AcDbText
 10
84.7434411112132
 20
-8.915499999999997
 30
0.0
 40
3.2
  1
1
 41
0.8
  7
高3.2
100
AcDbText
  0
TEXT
  5
4FD
330
6B
100
AcDbEntity
  8
0
 62
     3
100
AcDbText
 10
84.7434411112132
 20
26.0845
 30
0.0
 40
3.2
  1
1
 41
0.8
  7
高3.2
100
AcDbText
  0
TEXT
  5
4FE
330
6B
100
AcDbEntity
  8
0
 62
     3
100
AcDbText
 10
84.7434411112132
 20
11.0845
 30
0.0
 40
3.2
  1
1
 41
0.8
  7
高3.2
100
AcDbText
  0
TEXT
  5
4FF
330
6B
100
AcDbEntity
  8
0
 62
     3
100
AcDbText
 10
84.7434411112132
 20
21.0845
 30
0.0
 40
3.2
  1
1
 41
0.8
  7
高3.2
100
AcDbText
  0
TEXT
  5
500
330
6B
100
AcDbEntity
  8
0
 62
     3
100
AcDbText
 10
84.7434411112132
 20
31.0845
 30
0.0
 40
3.2
  1
1
 41
0.8
  7
高3.2
100
AcDbText
  0
TEXT
  5
501
330
6B
100
AcDbEntity
  8
0
 62
     3
100
AcDbText
 10
84.7434411112132
 20
16.0845
 30
0.0
 40
3.2
  1
1
 41
0.8
  7
高3.2
100
AcDbText
  0
TEXT
  5
502
330
6B
100
AcDbEntity
  8
0
 62
     3
100
AcDbText
 10
84.7434411112132
 20
-3.915499999999998
 30
0.0
 40
3.2
  1
1
 41
0.8
  7
高3.2
100
AcDbText
  0
TEXT
  5
503
330
6B
100
AcDbEntity
  8
0
 62
     3
100
AcDbText
 10
84.7434411112132
 20
6.0845
 30
0.0
 40
3.2
  1
1
 41
0.8
  7
高3.2
100
AcDbText
  0
TEXT
  5
504
330
6B
100
AcDbEntity
  8
0
 62
     3
100
AcDbText
 10
84.7434411112132
 20
36.0845
 30
0.0
 40
3.2
  1
1
 41
0.8
  7
高3.2
100
AcDbText
  0
TEXT
  5
505
330
6B
100
AcDbEntity
  8
0
 62
     3
100
AcDbText
 10
84.7434411112132
 20
41.0845
 30
0.0
 40
3.2
  1
1
 41
0.8
  7
高3.2
100
AcDbText
  0
TEXT
  5
506
330
6B
100
AcDbEntity
  8
0
 62
     3
100
AcDbText
 10
84.7434411112132
 20
46.0845
 30
0.0
 40
3.2
  1
1
 41
0.8
  7
高3.2
100
AcDbText
  0
TEXT
  5
507
330
6B
100
AcDbEntity
  8
0
 62
     3
100
AcDbText
 10
84.7434411112132
 20
56.0845
 30
0.0
 40
3.2
  1
1
 41
0.8
  7
高3.2
100
AcDbText
  0
TEXT
  5
508
330
6B
100
AcDbEntity
  8
0
 62
     3
100
AcDbText
 10
84.7434411112132
 20
1.0845
 30
0.0
 40
3.2
  1
1
 41
0.8
  7
高3.2
100
AcDbText
  0
TEXT
  5
509
330
6B
100
AcDbEntity
  8
0
 62
     3
100
AcDbText
 10
84.7434411112132
 20
51.0845
 30
0.0
 40
3.2
  1
5
 41
0.8
  7
高3.2
100
AcDbText
  0
LINE
  5
50A
330
6B
100
AcDbEntity
  8
0
100
AcDbLine
 10
83.2434411112132
 20
-14.4155
 30
0.0
 11
83.2434411112132
 21
75.58449999999997
 31
0.0
  0
TEXT
  5
50B
330
6B
100
AcDbEntity
  8
0
 62
     3
100
AcDbText
 10
84.7434411112132
 20
61.0845
 30
0.0
 40
3.2
  1
各1
 41
0.8
  7
高3.2
100
AcDbText
  0
TEXT
  5
50C
330
6B
100
AcDbEntity
  8
0
 62
     3
100
AcDbText
 10
36.1082340592539
 20
-3.915499999999998
 30
0.0
 40
3.2
  1
SPCC
 41
0.8
  7
高3.2
100
AcDbText
  0
TEXT
  5
50D
330
6B
100
AcDbEntity
  8
0
 62
     3
100
AcDbText
 10
36.1082340592539
 20
-8.915499999999997
 30
0.0
 40
3.2
  1
SPCC
 41
0.8
  7
高3.2
100
AcDbText
  0
TEXT
  5
50E
330
6B
100
AcDbEntity
  8
0
 62
     3
100
AcDbText
 10
-4.303337566571855
 20
-8.915499999999997
 30
0.0
 40
3.2
  1
本体カバー
 41
0.8
  7
高3.2
100
AcDbText
  0
TEXT
  5
50F
330
6B
100
AcDbEntity
  8
0
 62
     3
100
AcDbText
 10
-4.303337566571855
 20
1.0845
 30
0.0
 40
3.2
  1
ハンドル取手
 41
0.8
  7
高3.2
100
AcDbText
  0
TEXT
  5
510
330
6B
100
AcDbEntity
  8
0
 62
     3
100
AcDbText
 10
-4.303337566571855
 20
51.0845
 30
0.0
 40
3.2
  1
ゴム足
 41
0.8
  7
高3.2
100
AcDbText
  0
TEXT
  5
511
330
6B
100
AcDbEntity
  8
0
 62
     3
100
AcDbText
 10
-4.303337566571855
 20
61.0845
 30
0.0
 40
3.2
  1
クリップ付き出力コード
 41
0.8
  7
高3.2
100
AcDbText
  0
TEXT
  5
512
330
6B
100
AcDbEntity
  8
0
 62
     3
100
AcDbText
 10
50.85758200197755
 20
-3.915499999999998
 30
0.0
 40
3.2
  1
焼付塗装
 41
0.8
  7
高3.2
100
AcDbText
  0
TEXT
  5
513
330
6B
100
AcDbEntity
  8
0
 62
     3
100
AcDbText
 10
50.85758200197755
 20
-8.915499999999997
 30
0.0
 40
3.2
  1
焼付塗装
 41
0.8
  7
高3.2
100
AcDbText
  0
TEXT
  5
515
330
6B
100
AcDbEntity
  8
0
 62
     3
100
AcDbText
 10
-4.303337566571855
 20
-3.915499999999998
 30
0.0
 40
3.2
  1
前面パネル
 41
0.8
  7
高3.2
100
AcDbText
  0
TEXT
  5
516
330
6B
100
AcDbEntity
  8
0
 62
     3
100
AcDbText
 10
-4.303337566571855
 20
6.0845
 30
0.0
 40
3.2
  1
電圧電流計
 41
0.8
  7
高3.2
100
AcDbText
  0
TEXT
  5
517
330
6B
100
AcDbEntity
  8
0
 62
     3
100
AcDbText
 10
-4.303337566571855
 20
16.0845
 30
0.0
 40
3.2
  1
電圧切替スイッチ
 41
0.8
  7
高3.2
100
AcDbText
  0
TEXT
  5
518
330
6B
100
AcDbEntity
  8
0
 62
     3
100
AcDbText
 10
-4.303337566571855
 20
21.0845
 30
0.0
 40
3.2
  1
バッテリーチェックボタン
 41
0.8
  7
高3.2
100
AcDbText
  0
TEXT
  5
519
330
6B
100
AcDbEntity
  8
0
 62
     3
100
AcDbText
 10
-11.353
 20
-8.915499999999997
 30
0.0
 40
3.2
  1
1
 41
0.8
  7
高3.2
100
AcDbText
  0
TEXT
  5
51A
330
6B
100
AcDbEntity
  8
0
 62
     3
100
AcDbText
 10
-11.353
 20
-3.915499999999998
 30
0.0
 40
3.2
  1
2
 41
0.8
  7
高3.2
100
AcDbText
  0
TEXT
  5
51B
330
6B
100
AcDbEntity
  8
0
 62
     3
100
AcDbText
 10
-11.353
 20
1.0845
 30
0.0
 40
3.2
  1
3
 41
0.8
  7
高3.2
100
AcDbText
  0
TEXT
  5
51C
330
6B
100
AcDbEntity
  8
0
 62
     3
100
AcDbText
 10
-11.353
 20
6.0845
 30
0.0
 40
3.2
  1
4
 41
0.8
  7
高3.2
100
AcDbText
  0
TEXT
  5
51D
330
6B
100
AcDbEntity
  8
0
 62
     3
100
AcDbText
 10
-11.353
 20
11.0845
 30
0.0
 40
3.2
  1
5
 41
0.8
  7
高3.2
100
AcDbText
  0
TEXT
  5
51E
330
6B
100
AcDbEntity
  8
0
 62
     3
100
AcDbText
 10
-11.353
 20
16.0845
 30
0.0
 40
3.2
  1
6
 41
0.8
  7
高3.2
100
AcDbText
  0
TEXT
  5
51F
330
6B
100
AcDbEntity
  8
0
 62
     3
100
AcDbText
 10
-11.353
 20
21.0845
 30
0.0
 40
3.2
  1
7
 41
0.8
  7
高3.2
100
AcDbText
  0
TEXT
  5
520
330
6B
100
AcDbEntity
  8
0
 62
     3
100
AcDbText
 10
-11.35299999999997
 20
26.0845
 30
0.0
 40
3.2
  1
8
 41
0.8
  7
高3.2
100
AcDbText
  0
TEXT
  5
521
330
6B
100
AcDbEntity
  8
0
 62
     3
100
AcDbText
 10
-11.35299999999997
 20
31.0845
 30
0.0
 40
3.2
  1
9
 41
0.8
  7
高3.2
100
AcDbText
  0
TEXT
  5
522
330
6B
100
AcDbEntity
  8
0
 62
     3
100
AcDbText
 10
-11.35299999999997
 20
36.0845
 30
0.0
 40
3.2
  1
10
 41
0.8
  7
高3.2
100
AcDbText
  0
TEXT
  5
523
330
6B
100
AcDbEntity
  8
0
 62
     3
100
AcDbText
 10
-11.353
 20
41.0845
 30
0.0
 40
3.2
  1
11
 41
0.8
  7
高3.2
100
AcDbText
  0
TEXT
  5
524
330
6B
100
AcDbEntity
  8
0
 62
     3
100
AcDbText
 10
-11.353
 20
46.0845
 30
0.0
 40
3.2
  1
12
 41
0.8
  7
高3.2
100
AcDbText
  0
TEXT
  5
525
330
6B
100
AcDbEntity
  8
0
 62
     3
100
AcDbText
 10
-11.353
 20
51.0845
 30
0.0
 40
3.2
  1
13
 41
0.8
  7
高3.2
100
AcDbText
  0
TEXT
  5
526
330
6B
100
AcDbEntity
  8
0
 62
     3
100
AcDbText
 10
-11.353
 20
56.0845
 30
0.0
 40
3.2
  1
14
 41
0.8
  7
高3.2
100
AcDbText
  0
TEXT
  5
527
330
6B
100
AcDbEntity
  8
0
 62
     3
100
AcDbText
 10
-11.353
 20
61.0845
 30
0.0
 40
3.2
  1
15
 41
0.8
  7
高3.2
100
AcDbText
  0
TEXT
  5
528
330
6B
100
AcDbEntity
  8
0
 62
     3
100
AcDbText
 10
-4.303337566571855
 20
26.0845
 30
0.0
 40
3.2
  1
電源ランプ
 41
0.8
  7
高3.2
100
AcDbText
  0
TEXT
  5
529
330
6B
100
AcDbEntity
  8
0
 62
     3
100
AcDbText
 10
50.85758200197755
 20
21.0845
 30
0.0
 40
3.2
  1
DS-299R
 41
0.8
  7
高3.2
100
AcDbText
  0
TEXT
  5
52A
330
6B
100
AcDbEntity
  8
0
 62
     3
100
AcDbText
 10
36.1082340592539
 20
1.0845
 30
0.0
 40
3.2
  1
PF樹脂
 41
0.8
  7
高3.2
100
AcDbText
  0
TEXT
  5
52B
330
6B
100
AcDbEntity
  8
0
 62
     3
100
AcDbText
 10
36.1082340592539
 20
51.0845
 30
0.0
 40
3.2
  1
PE樹脂
 41
0.8
  7
高3.2
100
AcDbText
  0
LINE
  5
52C
330
6B
100
AcDbEntity
  8
0
100
AcDbLine
 10
34.6082340592539
 20
-14.4155
 30
0.0
 11
34.6082340592539
 21
75.58449999999997
 31
0.0
  0
LINE
  5
52D
330
6B
100
AcDbEntity
  8
0
100
AcDbLine
 10
49.35758200197756
 20
-14.4155
 30
0.0
 11
49.35758200197756
 21
75.58449999999997
 31
0.0
  0
LINE
  5
52E
330
6B
100
AcDbEntity
  8
0
100
AcDbLine
 10
-5.80333756657184
 20
-14.4155
 30
0.0
 11
-5.80333756657184
 21
75.58449999999997
 31
0.0
  0
TEXT
  5
530
330
6B
100
AcDbEntity
  8
0
 62
     3
100
AcDbText
 10
-4.303337566571855
 20
46.0845
 30
0.0
 40
3.2
  1
プロテクタ　－
 41
0.8
  7
高3.2
100
AcDbText
  0
TEXT
  5
531
330
6B
100
AcDbEntity
  8
0
 62
     3
100
AcDbText
 10
-4.303337566571855
 20
41.0845
 30
0.0
 40
3.2
  1
タイマ－スイッチツマミ
 41
0.8
  7
高3.2
100
AcDbText
  0
TEXT
  5
532
330
6B
100
AcDbEntity
  8
0
 62
     3
100
AcDbText
 10
-4.303337566571855
 20
36.0845
 30
0.0
 40
3.2
  1
サ－キットブレ－カ－
 41
0.8
  7
高3.2
100
AcDbText
  0
TEXT
  5
533
330
6B
100
AcDbEntity
  8
0
 62
     3
100
AcDbText
 10
-4.303337566571855
 20
31.0845
 30
0.0
 40
3.2
  1
異常ランプ
 41
0.8
  7
高3.2
100
AcDbText
  0
TEXT
  5
534
330
6B
100
AcDbEntity
  8
0
 62
     3
100
AcDbText
 10
50.85758200197755
 20
11.0845
 30
0.0
 40
3.2
  1
HS-16-IN
 41
0.8
  7
高3.2
100
AcDbText
  0
TEXT
  5
536
330
6B
100
AcDbEntity
  8
0
 62
     3
100
AcDbText
 10
-4.303337566571855
 20
56.0845
 30
0.0
 40
3.2
  1
プラグ付き入力電線
 41
0.8
  7
高3.2
100
AcDbText
  0
TEXT
  5
537
330
6B
100
AcDbEntity
  8
0
 62
     3
100
AcDbText
 10
36.1082340592539
 20
61.0845
 30
0.0
 40
3.2
  1
KIV
 41
0.8
  7
高3.2
100
AcDbText
  0
TEXT
  5
538
330
6B
100
AcDbEntity
  8
0
 62
     3
100
AcDbText
 10
50.85758200197755
 20
61.0845
 30
0.0
 40
3.2
  1
8.0sqx2m 赤、黒
 41
0.8
  7
高3.2
100
AcDbText
  0
TEXT
  5
539
330
6B
100
AcDbEntity
  8
0
 62
     3
100
AcDbText
 10
36.1082340592539
 20
46.0845
 30
0.0
 40
3.2
  1
PA樹脂
 41
0.8
  7
高3.2
100
AcDbText
  0
TEXT
  5
53A
330
6B
100
AcDbEntity
  8
0
 62
     3
100
AcDbText
 10
-4.303337566571855
 20
11.0845
 30
0.0
 40
3.2
  1
充電スイッチツマミ
 41
0.8
  7
高3.2
100
AcDbText
  0
TEXT
  5
53B
330
6B
100
AcDbEntity
  8
0
 62
     3
100
AcDbText
 10
50.85758200197755
 20
26.0845
 30
0.0
 40
3.2
  1
100V（緑）
 41
0.8
  7
高3.2
100
AcDbText
  0
TEXT
  5
53C
330
6B
100
AcDbEntity
  8
0
 62
     3
100
AcDbText
 10
50.85758200197755
 20
31.0845
 30
0.0
 40
3.2
  1
100V（赤）
 41
0.8
  7
高3.2
100
AcDbText
  0
TEXT
  5
53D
330
6B
100
AcDbEntity
  8
0
 62
     3
100
AcDbText
 10
50.85758200197755
 20
36.0845
 30
0.0
 40
3.2
  1
25A
 41
0.8
  7
高3.2
100
AcDbText
  0
TEXT
  5
53F
330
6B
100
AcDbEntity
  8
0
 62
     3
100
AcDbText
 10
50.85758200197755
 20
6.0845
 30
0.0
 40
3.2
  1
EX-35
 41
0.8
  7
高3.2
100
AcDbText
  0
TEXT
  5
540
330
6B
100
AcDbEntity
  8
0
 62
     3
100
AcDbText
 10
36.1082340592539
 20
56.0845
 30
0.0
 40
3.2
  1
VCT
 41
0.8
  7
高3.2
100
AcDbText
  0
TEXT
  5
541
330
6B
100
AcDbEntity
  8
0
 62
     3
100
AcDbText
 10
50.85758200197755
 20
56.0845
 30
0.0
 40
3.2
  1
2.0sqx3芯x2m
 41
0.8
  7
高3.2
100
AcDbText
  0
TEXT
  5
542
330
6B
100
AcDbEntity
  8
0
 62
     3
100
AcDbText
 10
84.7434411112132
 20
-13.9155
 30
0.0
 40
3.2
  1
個数
 41
0.8
  7
高3.2
100
AcDbText
  0
TEXT
  5
543
330
6B
100
AcDbEntity
  8
0
 62
     3
100
AcDbText
 10
50.85758200197755
 20
-13.9155
 30
0.0
 40
3.2
  1
備　　　考
 41
0.8
  7
高3.2
100
AcDbText
  0
TEXT
  5
544
330
6B
100
AcDbEntity
  8
0
 62
     3
100
AcDbText
 10
36.1082340592539
 20
-13.9155
 30
0.0
 40
3.2
  1
材　　質
 41
0.8
  7
高3.2
100
AcDbText
  0
TEXT
  5
545
330
6B
100
AcDbEntity
  8
0
 62
     3
100
AcDbText
 10
-4.30333756657184
 20
-13.9155
 30
0.0
 40
3.2
  1
部　　品　　名
 41
0.8
  7
高3.2
100
AcDbText
  0
TEXT
  5
546
330
6B
100
AcDbEntity
  8
0
 62
     3
100
AcDbText
 10
-11.353
 20
-13.9155
 30
0.0
 40
3.2
  1
No
 41
0.8
  7
高3.2
100
AcDbText
  0
LINE
  5
547
330
6B
100
AcDbEntity
  8
0
 62
     3
100
AcDbLine
 10
377.046964
 20
31.250223
 30
0.0
 11
325.4476
 21
31.250223
 31
0.0
  0
TEXT
  5
548
330
6B
100
AcDbEntity
  8
0
 62
     3
100
AcDbText
 10
330.7967638231736
 20
25.806308
 30
0.0
 40
4.5
  1
コード
  7
高4.5
100
AcDbText
  0
LINE
  5
549
330
6B
100
AcDbEntity
  8
0
 62
     3
100
AcDbLine
 10
351.4476
 20
25.250223
 30
0.0
 11
351.4476
 21
31.250223
 31
0.0
  0
LINE
  5
54A
330
6B
100
AcDbEntity
  8
0
 62
     3
100
AcDbLine
 10
325.4476
 20
25.250223
 30
0.0
 11
325.4476
 21
31.250223
 31
0.0
  0
LINE
  5
54B
330
6B
100
AcDbEntity
  8
0
100
AcDbLine
 10
263.485551
 20
27.922371
 30
0.0
 11
313.2063903560787
 21
27.922371
 31
0.0
  0
LINE
  5
54C
330
6B
100
AcDbEntity
  8
0
 62
     7
100
AcDbLine
 10
170.6767101817261
 20
65.58449999999999
 30
0.0
 11
-12.853
 21
65.58449999999999
 31
0.0
  0
LINE
  5
54D
330
6B
100
AcDbEntity
  8
0
100
AcDbLine
 10
170.6767101817261
 20
60.5845
 30
0.0
 11
-12.853
 21
60.5845
 31
0.0
  0
LINE
  5
54E
330
6B
100
AcDbEntity
  8
0
100
AcDbLine
 10
170.6767101817261
 20
55.5845
 30
0.0
 11
-12.853
 21
55.5845
 31
0.0
  0
LINE
  5
54F
330
6B
100
AcDbEntity
  8
0
100
AcDbLine
 10
170.6767101817261
 20
50.5845
 30
0.0
 11
-12.853
 21
50.5845
 31
0.0
  0
LINE
  5
550
330
6B
100
AcDbEntity
  8
0
100
AcDbLine
 10
170.6767101817261
 20
45.58449999999999
 30
0.0
 11
-12.853
 21
45.58449999999999
 31
0.0
  0
LINE
  5
551
330
6B
100
AcDbEntity
  8
0
100
AcDbLine
 10
170.6767101817261
 20
40.58449999999999
 30
0.0
 11
-12.853
 21
40.58449999999999
 31
0.0
  0
LINE
  5
552
330
6B
100
AcDbEntity
  8
0
100
AcDbLine
 10
170.6767101817261
 20
35.5845
 30
0.0
 11
-12.85299999999997
 21
35.5845
 31
0.0
  0
LINE
  5
553
330
6B
100
AcDbEntity
  8
0
100
AcDbLine
 10
170.6767101817261
 20
30.5845
 30
0.0
 11
-12.85299999999997
 21
30.5845
 31
0.0
  0
LINE
  5
554
330
6B
100
AcDbEntity
  8
0
100
AcDbLine
 10
170.6767101817261
 20
25.5845
 30
0.0
 11
-12.85299999999997
 21
25.5845
 31
0.0
  0
LINE
  5
555
330
6B
100
AcDbEntity
  8
0
100
AcDbLine
 10
170.6767101817261
 20
20.5845
 30
0.0
 11
-12.853
 21
20.5845
 31
0.0
  0
LINE
  5
556
330
6B
100
AcDbEntity
  8
0
100
AcDbLine
 10
170.6767101817261
 20
15.5845
 30
0.0
 11
-12.853
 21
15.5845
 31
0.0
  0
LINE
  5
557
330
6B
100
AcDbEntity
  8
0
100
AcDbLine
 10
170.6767101817261
 20
10.5845
 30
0.0
 11
-12.853
 21
10.5845
 31
0.0
  0
LINE
  5
558
330
6B
100
AcDbEntity
  8
0
100
AcDbLine
 10
170.6767101817261
 20
5.5845
 30
0.0
 11
-12.853
 21
5.5845
 31
0.0
  0
LINE
  5
559
330
6B
100
AcDbEntity
  8
0
100
AcDbLine
 10
170.6767101817261
 20
0.5845000000000004
 30
0.0
 11
-12.853
 21
0.5845000000000004
 31
0.0
  0
LINE
  5
55A
330
6B
100
AcDbEntity
  8
0
100
AcDbLine
 10
170.6767101817261
 20
-4.415499999999997
 30
0.0
 11
-12.853
 21
-4.415499999999997
 31
0.0
  0
LINE
  5
55B
330
6B
100
AcDbEntity
  8
0
 62
     3
100
AcDbLine
 10
170.6767101817261
 20
-9.415499999999999
 30
0.0
 11
-12.853
 21
-9.415499999999999
 31
0.0
  0
TEXT
  5
55C
330
6B
100
AcDbEntity
  8
0
 62
     3
100
AcDbText
 10
355.5028585131761
 20
25.748579
 30
0.0
 40
4.5
  1
6541
  7
高4.5
100
AcDbText
  0
TEXT
  5
842
330
6B
100
AcDbEntity
  8
0
 62
     3
100
AcDbText
 10
84.7434411112132
 20
66.08449999999999
 30
0.0
 40
3.2
  1
1
 41
0.8
  7
高3.2
100
AcDbText
  0
TEXT
  5
843
330
6B
100
AcDbEntity
  8
0
 62
     3
100
AcDbText
 10
-4.303337566571855
 20
66.08449999999999
 30
0.0
 40
3.2
  1
タイマースイッチ
 41
0.8
  7
高3.2
100
AcDbText
  0
TEXT
  5
844
330
6B
100
AcDbEntity
  8
0
 62
     3
100
AcDbText
 10
-11.353
 20
66.08449999999999
 30
0.0
 40
3.2
  1
16
 41
0.8
  7
高3.2
100
AcDbText
  0
TEXT
  5
846
330
6B
100
AcDbEntity
  8
0
 62
     3
100
AcDbText
 10
50.85758200197755
 20
66.08449999999999
 30
0.0
 40
3.2
  1
内部　TM300-BK1
 41
0.8
  7
高3.2
100
AcDbText
  0
LINE
  5
847
330
6B
100
AcDbEntity
  8
0
 62
     7
100
AcDbLine
 10
170.6767101817261
 20
70.58449999999997
 30
0.0
 11
-12.853
 21
70.58449999999997
 31
0.0
  0
TEXT
  5
848
330
6B
100
AcDbEntity
  8
0
 62
     3
100
AcDbText
 10
84.7434411112132
 20
71.08449999999997
 30
0.0
 40
3.2
  1
2
 41
0.8
  7
高3.2
100
AcDbText
  0
TEXT
  5
849
330
6B
100
AcDbEntity
  8
0
 62
     3
100
AcDbText
 10
-4.303337566571855
 20
71.08449999999997
 30
0.0
 40
3.2
  1
コードフック
 41
0.8
  7
高3.2
100
AcDbText
  0
TEXT
  5
84A
330
6B
100
AcDbEntity
  8
0
 62
     3
100
AcDbText
 10
-11.353
 20
71.08449999999997
 30
0.0
 40
3.2
  1
17
 41
0.8
  7
高3.2
100
AcDbText
  0
TEXT
  5
84B
330
6B
100
AcDbEntity
  8
0
 62
     3
100
AcDbText
 10
36.1082340592539
 20
71.08449999999997
 30
0.0
 40
3.2
  1
PF樹脂
 41
0.8
  7
高3.2
100
AcDbText
  0
LINE
  5
84D
330
6B
100
AcDbEntity
  8
0
 62
     3
100
AcDbLine
 10
170.6767101817261
 20
75.58449999999997
 30
0.0
 11
-12.853
 21
75.58449999999997
 31
0.0
  0
TEXT
  5
84E
330
6B
100
AcDbEntity
  8
0
 62
     3
100
AcDbText
 10
93.68434093888314
 20
-8.915499999999997
 30
0.0
 40
3.2
  1
-
 41
0.8
  7
高3.2
100
AcDbText
  0
TEXT
  5
84F
330
6B
100
AcDbEntity
  8
0
 62
     3
100
AcDbText
 10
93.68434093888314
 20
31.0845
 30
0.0
 40
3.2
  1
54257
 41
0.8
  7
高3.2
100
AcDbText
  0
TEXT
  5
850
330
6B
100
AcDbEntity
  8
0
 62
     3
100
AcDbText
 10
93.68434093888314
 20
11.0845
 30
0.0
 40
3.2
  1
54289
 41
0.8
  7
高3.2
100
AcDbText
  0
TEXT
  5
851
330
6B
100
AcDbEntity
  8
0
 62
     3
100
AcDbText
 10
93.68434093888314
 20
26.0845
 30
0.0
 40
3.2
  1
54258
 41
0.8
  7
高3.2
100
AcDbText
  0
TEXT
  5
852
330
6B
100
AcDbEntity
  8
0
 62
     3
100
AcDbText
 10
93.68434093888314
 20
36.0845
 30
0.0
 40
3.2
  1
53812
 41
0.8
  7
高3.2
100
AcDbText
  0
TEXT
  5
853
330
6B
100
AcDbEntity
  8
0
 62
     3
100
AcDbText
 10
93.68434093888314
 20
21.0845
 30
0.0
 40
3.2
  1
54259
 41
0.8
  7
高3.2
100
AcDbText
  0
TEXT
  5
854
330
6B
100
AcDbEntity
  8
0
 62
     3
100
AcDbText
 10
93.68434093888314
 20
-3.915499999999998
 30
0.0
 40
3.2
  1
-
 41
0.8
  7
高3.2
100
AcDbText
  0
TEXT
  5
855
330
6B
100
AcDbEntity
  8
0
 62
     3
100
AcDbText
 10
93.68434093888314
 20
6.0845
 30
0.0
 40
3.2
  1
53821
 41
0.8
  7
高3.2
100
AcDbText
  0
TEXT
  5
856
330
6B
100
AcDbEntity
  8
0
 62
     3
100
AcDbText
 10
93.68434093888314
 20
41.0845
 30
0.0
 40
3.2
  1
54289
 41
0.8
  7
高3.2
100
AcDbText
  0
TEXT
  5
857
330
6B
100
AcDbEntity
  8
0
 62
     3
100
AcDbText
 10
93.68434093888314
 20
46.0845
 30
0.0
 40
3.2
  1
50105
 41
0.8
  7
高3.2
100
AcDbText
  0
TEXT
  5
859
330
6B
100
AcDbEntity
  8
0
 62
     3
100
AcDbText
 10
93.68434093888314
 20
56.0845
 30
0.0
 40
3.2
  1
51266
 41
0.8
  7
高3.2
100
AcDbText
  0
TEXT
  5
85A
330
6B
100
AcDbEntity
  8
0
 62
     3
100
AcDbText
 10
93.68434093888314
 20
1.0845
 30
0.0
 40
3.2
  1
50101
 41
0.8
  7
高3.2
100
AcDbText
  0
TEXT
  5
85B
330
6B
100
AcDbEntity
  8
0
 62
     3
100
AcDbText
 10
93.68434093888314
 20
51.0845
 30
0.0
 40
3.2
  1
54262
 41
0.8
  7
高3.2
100
AcDbText
  0
LINE
  5
85C
330
6B
100
AcDbEntity
  8
0
100
AcDbLine
 10
92.1843409388831
 20
-14.4155
 30
0.0
 11
92.1843409388831
 21
75.58449999999997
 31
0.0
  0
TEXT
  5
85D
330
6B
100
AcDbEntity
  8
0
 62
     3
100
AcDbText
 10
93.68434093888314
 20
61.0845
 30
0.0
 40
3.2
  1
54255
 41
0.8
  7
高3.2
100
AcDbText
  0
TEXT
  5
85E
330
6B
100
AcDbEntity
  8
0
 62
     3
100
AcDbText
 10
93.68434093888314
 20
-13.9155
 30
0.0
 40
3.2
  1
コード
 41
0.8
  7
高3.2
100
AcDbText
  0
TEXT
  5
85F
330
6B
100
AcDbEntity
  8
0
 62
     3
100
AcDbText
 10
93.68434093888314
 20
66.08449999999999
 30
0.0
 40
3.2
  1
54170
 41
0.8
  7
高3.2
100
AcDbText
  0
TEXT
  5
860
330
6B
100
AcDbEntity
  8
0
 62
     3
100
AcDbText
 10
93.68434093888314
 20
71.08449999999997
 30
0.0
 40
3.2
  1
50519
 41
0.8
  7
高3.2
100
AcDbText
  0
TEXT
  5
861
330
6B
100
AcDbEntity
  8
0
 62
     3
100
AcDbText
 10
93.68434093888314
 20
16.0845
 30
0.0
 40
3.2
  1
-
 41
0.8
  7
高3.2
100
AcDbText
  0
TEXT
  5
862
330
6B
100
AcDbEntity
  8
0
 62
     3
100
AcDbText
 10
109.6777977988891
 20
-8.915499999999997
 30
0.0
 40
3.2
  1
-
 41
0.6
  7
高3.2
100
AcDbText
  0
TEXT
  5
863
330
6B
100
AcDbEntity
  8
0
 62
     3
100
AcDbText
 10
109.6777977988891
 20
31.0845
 30
0.0
 40
3.2
  1
NB-120/150用 異常ランプ
 41
0.6
  7
高3.2
100
AcDbText
  0
TEXT
  5
864
330
6B
100
AcDbEntity
  8
0
 62
     3
100
AcDbText
 10
109.6777977988891
 20
11.0845
 30
0.0
 40
3.2
  1
NB-120/150用 ロータリースイッチ部ツマミ
 41
0.6
  7
高3.2
100
AcDbText
  0
TEXT
  5
865
330
6B
100
AcDbEntity
  8
0
 62
     3
100
AcDbText
 10
109.6777977988891
 20
26.0845
 30
0.0
 40
3.2
  1
NB-120/150用 電源ランプ
 41
0.6
  7
高3.2
100
AcDbText
  0
TEXT
  5
866
330
6B
100
AcDbEntity
  8
0
 62
     3
100
AcDbText
 10
109.6777977988891
 20
36.0845
 30
0.0
 40
3.2
  1
M-E20用サーキットブレーカー(25A)
 41
0.6
  7
高3.2
100
AcDbText
  0
TEXT
  5
867
330
6B
100
AcDbEntity
  8
0
 62
     3
100
AcDbText
 10
109.6777977988891
 20
21.0845
 30
0.0
 40
3.2
  1
NB-120/150用 バッテリーチェックボタン
 41
0.6
  7
高3.2
100
AcDbText
  0
TEXT
  5
868
330
6B
100
AcDbEntity
  8
0
 62
     3
100
AcDbText
 10
109.6777977988891
 20
-3.915499999999998
 30
0.0
 40
3.2
  1
-
 41
0.6
  7
高3.2
100
AcDbText
  0
TEXT
  5
869
330
6B
100
AcDbEntity
  8
0
 62
     3
100
AcDbText
 10
109.6777977988891
 20
6.0845
 30
0.0
 40
3.2
  1
NB-120,150,200用電流計
 41
0.6
  7
高3.2
100
AcDbText
  0
TEXT
  5
86A
330
6B
100
AcDbEntity
  8
0
 62
     3
100
AcDbText
 10
109.6777977988891
 20
41.0845
 30
0.0
 40
3.2
  1
NB-120/150用 ロータリースイッチ部ツマミ
 41
0.6
  7
高3.2
100
AcDbText
  0
TEXT
  5
86B
330
6B
100
AcDbEntity
  8
0
 62
     3
100
AcDbText
 10
109.6777977988891
 20
46.0845
 30
0.0
 40
3.2
  1
トラパックプロテクター
 41
0.6
  7
高3.2
100
AcDbText
  0
TEXT
  5
86C
330
6B
100
AcDbEntity
  8
0
 62
     3
100
AcDbText
 10
109.6777977988891
 20
56.0845
 30
0.0
 40
3.2
  1
VCT2x3x2.5mポッキン(STB用)
 41
0.6
  7
高3.2
100
AcDbText
  0
TEXT
  5
86D
330
6B
100
AcDbEntity
  8
0
 62
     3
100
AcDbText
 10
109.6777977988891
 20
1.0845
 30
0.0
 40
3.2
  1
トラパック取手
 41
0.6
  7
高3.2
100
AcDbText
  0
TEXT
  5
86E
330
6B
100
AcDbEntity
  8
0
 62
     3
100
AcDbText
 10
109.6777977988891
 20
51.0845
 30
0.0
 40
3.2
  1
NB-120/150用 脚ゴム
 41
0.6
  7
高3.2
100
AcDbText
  0
LINE
  5
86F
330
6B
100
AcDbEntity
  8
0
100
AcDbLine
 10
108.1777977988892
 20
-14.4155
 30
0.0
 11
108.1777977988892
 21
75.58449999999997
 31
0.0
  0
TEXT
  5
870
330
6B
100
AcDbEntity
  8
0
 62
     3
100
AcDbText
 10
109.6777977988891
 20
61.0845
 30
0.0
 40
3.2
  1
NB-120/150用 出力コード クリップ付(赤黒セット)
 41
0.6
  7
高3.2
100
AcDbText
  0
TEXT
  5
871
330
6B
100
AcDbEntity
  8
0
 62
     3
100
AcDbText
 10
109.6777977988891
 20
-13.9155
 30
0.0
 40
3.2
  1
コード番号名称
 41
0.6
  7
高3.2
100
AcDbText
  0
TEXT
  5
872
330
6B
100
AcDbEntity
  8
0
 62
     3
100
AcDbText
 10
109.6777977988891
 20
66.08449999999999
 30
0.0
 40
3.2
  1
充電器用タイマー(NB-200.150.60用)
 41
0.6
  7
高3.2
100
AcDbText
  0
TEXT
  5
873
330
6B
100
AcDbEntity
  8
0
 62
     3
100
AcDbText
 10
109.6777977988891
 20
71.08449999999997
 30
0.0
 40
3.2
  1
トラパック用コードフック
 41
0.6
  7
高3.2
100
AcDbText
  0
TEXT
  5
874
330
6B
100
AcDbEntity
  8
0
 62
     3
100
AcDbText
 10
109.6777977988891
 20
16.0845
 30
0.0
 40
3.2
  1
-
 41
0.6
  7
高3.2
100
AcDbText
  0
CIRCLE
  5
87E
330
6B
100
AcDbEntity
  8
0
100
AcDbCircle
 10
115.3880145676046
 20
130.630108
 30
0.0
 40
5.0
  0
TEXT
  5
87F
330
6B
100
AcDbEntity
  8
0
 62
     4
100
AcDbText
 10
112.4303745805882
 20
128.2823188882366
 30
0.0
 40
4.5
  1
16
  7
高4.5
100
AcDbText
  0
CIRCLE
  5
880
330
6B
100
AcDbEntity
  8
0
100
AcDbCircle
 10
145.4037237576101
 20
241.7807859012859
 30
0.0
 40
5.0
  0
TEXT
  5
881
330
6B
100
AcDbEntity
  8
0
 62
     4
100
AcDbText
 10
142.4460837705936
 20
239.4329967895225
 30
0.0
 40
4.5
  1
17
  7
高4.5
100
AcDbText
  0
TEXT
  5
941
330
6B
100
AcDbEntity
  8
0
 62
     3
100
AcDbText
 10
364.647
 20
253.0845
 30
0.0
 40
3.2
  1
担　当
  7
高3.2
100
AcDbText
  0
TEXT
  5
942
330
6B
100
AcDbEntity
  8
0
 62
     3
100
AcDbText
 10
320.647
 20
253.0845
 30
0.0
 40
3.2
  1
変更・追記内容
  7
高3.2
100
AcDbText
  0
TEXT
  5
943
330
6B
100
AcDbEntity
  8
0
 62
     3
100
AcDbText
 10
295.7605150003392
 20
248.4139614900917
 30
0.0
 40
2.0
  1
1
  7
高2
100
AcDbText
  0
TEXT
  5
944
330
6B
100
AcDbEntity
  8
0
 62
     3
100
AcDbText
 10
295.452003523582
 20
243.2441447778188
 30
0.0
 40
2.0
  1
2
  7
高2
100
AcDbText
  0
TEXT
  5
945
330
6B
100
AcDbEntity
  8
0
 62
     3
100
AcDbText
 10
302.647
 20
253.0845
 30
0.0
 40
3.2
  1
日　付
  7
高3.2
100
AcDbText
  0
TEXT
  5
946
330
6B
100
AcDbEntity
  8
0
 62
     3
100
AcDbText
 10
302.647
 20
258.0845
 30
0.0
 40
3.2
  1
図　　　　面　　　　略　　　　歴
  7
高3.2
100
AcDbText
  0
TEXT
  5
947
330
6B
100
AcDbEntity
  8
0
 62
     3
100
AcDbText
 10
292.647
 20
253.0845
 30
0.0
 40
3.2
  1
記号
  7
高3.2
100
AcDbText
  0
LINE
  5
948
330
6B
100
AcDbEntity
  8
0
 62
     7
100
AcDbLine
 10
296.147
 20
246.3753960000001
 30
0.0
 11
294.247
 21
243.0845
 31
0.0
  0
LINE
  5
949
330
6B
100
AcDbEntity
  8
0
 62
     7
100
AcDbLine
 10
296.147
 20
246.3753960000001
 30
0.0
 11
298.047
 21
243.0845
 31
0.0
  0
LINE
  5
94A
330
6B
100
AcDbEntity
  8
0
 62
     7
100
AcDbLine
 10
294.247
 20
243.0845
 30
0.0
 11
298.047
 21
243.0845
 31
0.0
  0
LINE
  5
94B
330
6B
100
AcDbEntity
  8
0
 62
     7
100
AcDbLine
 10
296.147
 20
251.3753970000001
 30
0.0
 11
294.247
 21
248.0845
 31
0.0
  0
LINE
  5
94C
330
6B
100
AcDbEntity
  8
0
 62
     7
100
AcDbLine
 10
296.147
 20
251.3753970000001
 30
0.0
 11
298.047
 21
248.0845
 31
0.0
  0
LINE
  5
94D
330
6B
100
AcDbEntity
  8
0
 62
     7
100
AcDbLine
 10
294.247
 20
248.0845
 30
0.0
 11
298.047
 21
248.0845
 31
0.0
  0
LINE
  5
94E
330
6B
100
AcDbEntity
  8
0
 62
     3
100
AcDbLine
 10
291.147
 20
257.5845
 30
0.0
 11
377.147
 21
257.5845
 31
0.0
  0
LINE
  5
94F
330
6B
100
AcDbEntity
  8
0
 62
     3
100
AcDbLine
 10
291.147
 20
252.5845
 30
0.0
 11
377.147
 21
252.5845
 31
0.0
  0
LINE
  5
950
330
6B
100
AcDbEntity
  8
0
 62
     7
100
AcDbLine
 10
291.147
 20
247.5845
 30
0.0
 11
377.147
 21
247.5845
 31
0.0
  0
LINE
  5
951
330
6B
100
AcDbEntity
  8
0
 62
     3
100
AcDbLine
 10
291.147
 20
242.5845
 30
0.0
 11
377.147
 21
242.5845
 31
0.0
  0
LINE
  5
952
330
6B
100
AcDbEntity
  8
0
 62
     7
100
AcDbLine
 10
363.1469999999998
 20
242.5845
 30
0.0
 11
363.147
 21
257.5845
 31
0.0
  0
LINE
  5
953
330
6B
100
AcDbEntity
  8
0
 62
     7
100
AcDbLine
 10
319.147
 20
242.5845
 30
0.0
 11
319.147
 21
257.5845
 31
0.0
  0
LINE
  5
954
330
6B
100
AcDbEntity
  8
0
 62
     7
100
AcDbLine
 10
301.147
 20
242.5845
 30
0.0
 11
301.147
 21
257.5845
 31
0.0
  0
LINE
  5
955
330
6B
100
AcDbEntity
  8
0
 62
     3
100
AcDbLine
 10
291.147
 20
242.5845
 30
0.0
 11
291.147
 21
262.5845
 31
0.0
  0
LINE
  5
BF7
330
6B
100
AcDbEntity
  8
0
 62
     3
100
AcDbLine
 10
253.713368
 20
125.224303
 30
0.0
 11
254.292801
 21
125.029316
 31
0.0
  0
LINE
  5
BF8
330
6B
100
AcDbEntity
  8
0
 62
     3
100
AcDbLine
 10
254.292801
 20
125.029316
 30
0.0
 11
254.798641
 21
125.077937
 31
0.0
  0
LINE
  5
BF9
330
6B
100
AcDbEntity
  8
0
 62
     3
100
AcDbLine
 10
254.798641
 20
125.077937
 30
0.0
 11
254.989169
 21
125.225928
 31
0.0
  0
LINE
  5
BFA
330
6B
100
AcDbEntity
  8
0
 62
     3
100
AcDbLine
 10
254.989169
 20
125.225928
 30
0.0
 11
255.182986
 21
125.385848
 31
0.0
  0
LINE
  5
BFB
330
6B
100
AcDbEntity
  8
0
 62
     3
100
AcDbLine
 10
255.182986
 20
125.385848
 30
0.0
 11
255.347829
 21
125.470479
 31
0.0
  0
LINE
  5
BFC
330
6B
100
AcDbEntity
  8
0
 62
     3
100
AcDbLine
 10
255.347829
 20
125.470479
 30
0.0
 11
255.526132
 21
125.527877
 31
0.0
  0
LINE
  5
BFD
330
6B
100
AcDbEntity
  8
0
 62
     3
100
AcDbLine
 10
255.526132
 20
125.527877
 30
0.0
 11
255.742836
 21
125.573349
 31
0.0
  0
LINE
  5
BFE
330
6B
100
AcDbEntity
  8
0
 62
     3
100
AcDbLine
 10
255.742836
 20
125.573349
 30
0.0
 11
255.958182
 21
125.581002
 31
0.0
  0
LINE
  5
BFF
330
6B
100
AcDbEntity
  8
0
 62
     3
100
AcDbLine
 10
255.958182
 20
125.581002
 30
0.0
 11
256.335854
 21
125.46108
 31
0.0
  0
LINE
  5
C00
330
6B
100
AcDbEntity
  8
0
 62
     3
100
AcDbLine
 10
256.335854
 20
125.46108
 30
0.0
 11
256.69388
 21
125.238347
 31
0.0
  0
LINE
  5
C01
330
6B
100
AcDbEntity
  8
0
 62
     3
100
AcDbLine
 10
253.713368
 20
125.224303
 30
0.0
 11
253.903674
 21
125.27719
 31
0.0
  0
LINE
  5
C02
330
6B
100
AcDbEntity
  8
0
 62
     3
100
AcDbLine
 10
253.903674
 20
125.27719
 30
0.0
 11
254.097713
 21
125.331096
 31
0.0
  0
LINE
  5
C03
330
6B
100
AcDbEntity
  8
0
 62
     3
100
AcDbLine
 10
254.097713
 20
125.331096
 30
0.0
 11
254.351634
 21
125.392271
 31
0.0
  0
LINE
  5
C04
330
6B
100
AcDbEntity
  8
0
 62
     3
100
AcDbLine
 10
254.351634
 20
125.392271
 30
0.0
 11
254.600777
 21
125.396148
 31
0.0
  0
LINE
  5
C05
330
6B
100
AcDbEntity
  8
0
 62
     3
100
AcDbLine
 10
254.600777
 20
125.396148
 30
0.0
 11
254.787447
 21
125.32899
 31
0.0
  0
LINE
  5
C06
330
6B
100
AcDbEntity
  8
0
 62
     3
100
AcDbLine
 10
254.787447
 20
125.32899
 30
0.0
 11
254.967233
 21
125.224303
 31
0.0
  0
LINE
  5
C07
330
6B
100
AcDbEntity
  8
0
 62
     7
100
AcDbLine
 10
244.23951
 20
119.243949
 30
0.0
 11
244.658628
 21
119.072943
 31
0.0
  0
LINE
  5
C08
330
6B
100
AcDbEntity
  8
0
 62
     7
100
AcDbLine
 10
244.658628
 20
119.072943
 30
0.0
 11
245.052567
 21
119.076581
 31
0.0
  0
LINE
  5
C09
330
6B
100
AcDbEntity
  8
0
 62
     7
100
AcDbLine
 10
245.052567
 20
119.076581
 30
0.0
 11
245.210105
 21
119.161842
 31
0.0
  0
LINE
  5
C0A
330
6B
100
AcDbEntity
  8
0
 62
     7
100
AcDbLine
 10
245.210105
 20
119.161842
 30
0.0
 11
245.368275
 21
119.243949
 31
0.0
  0
LINE
  5
C0B
330
6B
100
AcDbEntity
  8
0
 62
     7
100
AcDbLine
 10
245.368275
 20
119.243949
 30
0.0
 11
245.697649
 21
119.245255
 31
0.0
  0
LINE
  5
C0C
330
6B
100
AcDbEntity
  8
0
 62
     7
100
AcDbLine
 10
245.697649
 20
119.245255
 30
0.0
 11
246.046831
 21
119.113774
 31
0.0
  0
LINE
  5
C0D
330
6B
100
AcDbEntity
  8
0
 62
     7
100
AcDbLine
 10
244.285785
 20
119.704104
 30
0.0
 11
244.704903
 21
119.533099
 31
0.0
  0
LINE
  5
C0E
330
6B
100
AcDbEntity
  8
0
 62
     7
100
AcDbLine
 10
244.704903
 20
119.533099
 30
0.0
 11
245.098842
 21
119.536736
 31
0.0
  0
LINE
  5
C0F
330
6B
100
AcDbEntity
  8
0
 62
     7
100
AcDbLine
 10
245.098842
 20
119.536736
 30
0.0
 11
245.25638
 21
119.621998
 31
0.0
  0
LINE
  5
C10
330
6B
100
AcDbEntity
  8
0
 62
     7
100
AcDbLine
 10
245.25638
 20
119.621998
 30
0.0
 11
245.41455
 21
119.704104
 31
0.0
  0
LINE
  5
C11
330
6B
100
AcDbEntity
  8
0
 62
     7
100
AcDbLine
 10
245.41455
 20
119.704104
 30
0.0
 11
245.743924
 21
119.70541
 31
0.0
  0
LINE
  5
C12
330
6B
100
AcDbEntity
  8
0
 62
     7
100
AcDbLine
 10
245.743924
 20
119.70541
 30
0.0
 11
246.093106
 21
119.573929
 31
0.0
  0
LINE
  5
C13
330
6B
100
AcDbEntity
  8
0
100
AcDbLine
 10
52.021736
 20
206.874916
 30
0.0
 11
52.022118
 21
204.804363
 31
0.0
  0
LINE
  5
C14
330
6B
100
AcDbEntity
  8
0
100
AcDbLine
 10
52.022118
 20
204.804363
 30
0.0
 11
53.057063
 21
206.597705
 31
0.0
  0
LINE
  5
C15
330
6B
100
AcDbEntity
  8
0
100
AcDbLine
 10
38.460163
 20
163.014066
 30
0.0
 11
38.762866
 21
165.062372
 31
0.0
  0
LINE
  5
C16
330
6B
100
AcDbEntity
  8
0
100
AcDbLine
 10
38.762866
 20
165.062372
 30
0.0
 11
37.476565
 21
163.439838
 31
0.0
  0
LINE
  5
C17
330
6B
100
AcDbEntity
  8
0
100
AcDbLine
 10
52.37815
 20
162.75353
 30
0.0
 11
52.63414599999999
 21
164.808196
 31
0.0
  0
LINE
  5
C18
330
6B
100
AcDbEntity
  8
0
100
AcDbLine
 10
52.63414599999999
 20
164.808196
 30
0.0
 11
51.385114
 21
163.156801
 31
0.0
  0
LINE
  5
C19
330
6B
100
AcDbEntity
  8
0
100
AcDbLine
 10
61.048005
 20
162.870791
 30
0.0
 11
61.047992
 21
164.941344
 31
0.0
  0
LINE
  5
C1A
330
6B
100
AcDbEntity
  8
0
100
AcDbLine
 10
61.047992
 20
164.941344
 30
0.0
 11
60.01272700000001
 21
163.148186
 31
0.0
  0
LINE
  5
C1B
330
6B
100
AcDbEntity
  8
0
100
AcDbLine
 10
68.79388299999999
 20
162.158679
 30
0.0
 11
68.53829300000001
 21
164.213395
 31
0.0
  0
LINE
  5
C1C
330
6B
100
AcDbEntity
  8
0
100
AcDbLine
 10
68.53829300000001
 20
164.213395
 30
0.0
 11
67.732282
 21
162.306163
 31
0.0
  0
LINE
  5
C1D
330
6B
100
AcDbEntity
  8
0
100
AcDbLine
 10
142.144368
 20
152.952241
 30
0.0
 11
140.927342
 21
154.627363
 31
0.0
  0
LINE
  5
C1E
330
6B
100
AcDbEntity
  8
0
100
AcDbLine
 10
140.927342
 20
154.627363
 30
0.0
 11
141.143756
 21
152.568152
 31
0.0
  0
LINE
  5
C1F
330
6B
100
AcDbEntity
  8
0
100
AcDbLine
 10
253.489111
 20
142.763571
 30
0.0
 11
254.342249
 21
144.650193
 31
0.0
  0
LINE
  5
C20
330
6B
100
AcDbEntity
  8
0
100
AcDbLine
 10
254.342249
 20
144.650193
 30
0.0
 11
252.660099
 21
143.442899
 31
0.0
  0
LINE
  5
C21
330
6B
100
AcDbEntity
  8
0
100
AcDbLine
 10
208.756038
 20
148.829421
 30
0.0
 11
207.536016
 21
150.502363
 31
0.0
  0
LINE
  5
C22
330
6B
100
AcDbEntity
  8
0
100
AcDbLine
 10
207.536016
 20
150.502363
 30
0.0
 11
207.756115
 21
148.443542
 31
0.0
  0
LINE
  5
C23
330
6B
100
AcDbEntity
  8
0
100
AcDbLine
 10
320.443111
 20
116.029697
 30
0.0
 11
318.758554
 21
117.233631
 31
0.0
  0
LINE
  5
C24
330
6B
100
AcDbEntity
  8
0
100
AcDbLine
 10
318.758554
 20
117.233631
 30
0.0
 11
319.615456
 21
115.348715
 31
0.0
  0
LINE
  5
C25
330
6B
100
AcDbEntity
  8
0
100
AcDbLine
 10
320.375986
 20
136.7574929999999
 30
0.0
 11
318.582835
 21
137.79277
 31
0.0
  0
LINE
  5
C26
330
6B
100
AcDbEntity
  8
0
100
AcDbLine
 10
318.582835
 20
137.79277
 30
0.0
 11
319.618111
 21
135.999619
 31
0.0
  0
LINE
  5
C27
330
6B
100
AcDbEntity
  8
0
100
AcDbLine
 10
99.55992
 20
200.845214
 30
0.0
 11
99.42926400000001
 21
198.778788
 31
0.0
  0
LINE
  5
C28
330
6B
100
AcDbEntity
  8
0
100
AcDbLine
 10
99.42926400000001
 20
198.778788
 30
0.0
 11
100.575628
 21
200.503037
 31
0.0
  0
LINE
  5
C29
330
6B
100
AcDbEntity
  8
0
100
AcDbLine
 10
321.729944
 20
141.0991169999999
 30
0.0
 11
320.441336
 21
139.478414
 31
0.0
  0
LINE
  5
C2A
330
6B
100
AcDbEntity
  8
0
100
AcDbLine
 10
320.441336
 20
139.478414
 30
0.0
 11
322.367654
 21
140.23768
 31
0.0
  0
LINE
  5
C2B
330
6B
100
AcDbEntity
  8
0
100
AcDbLine
 10
79.162256
 20
162.85709
 30
0.0
 11
78.014468
 21
164.580392
 31
0.0
  0
LINE
  5
C2C
330
6B
100
AcDbEntity
  8
0
100
AcDbLine
 10
78.014468
 20
164.580392
 30
0.0
 11
78.146831
 21
162.514075
 31
0.0
  0
LINE
  5
C2D
330
6B
100
AcDbEntity
  8
0
100
AcDbLine
 10
190.744251
 20
231.782361
 30
0.0
 11
189.855265
 21
229.912363
 31
0.0
  0
LINE
  5
C2E
330
6B
100
AcDbEntity
  8
0
100
AcDbLine
 10
189.855265
 20
229.912363
 30
0.0
 11
191.560148
 21
231.087335
 31
0.0
  0
LINE
  5
C2F
330
6B
100
AcDbEntity
  8
0
100
AcDbLine
 10
81.97703
 20
207.311846
 30
0.0
 11
81.80348100000001
 21
205.248579
 31
0.0
  0
LINE
  5
C30
330
6B
100
AcDbEntity
  8
0
100
AcDbLine
 10
81.80348100000001
 20
205.248579
 30
0.0
 11
82.985412
 21
206.948646
 31
0.0
  0
LINE
  5
C31
330
6B
100
AcDbEntity
  8
0
100
AcDbLine
 10
214.621499
 20
208.962613
 30
0.0
 11
214.009962
 21
206.984429
 31
0.0
  0
LINE
  5
C32
330
6B
100
AcDbEntity
  8
0
100
AcDbLine
 10
214.009962
 20
206.984429
 30
0.0
 11
215.52866
 21
208.391818
 31
0.0
  0
ARC
  5
C33
330
6B
100
AcDbEntity
  8
0
100
AcDbCircle
 10
301.243906
 20
174.63364
 30
0.0
 40
0.25
100
AcDbArc
 50
0.0
 51
180.0
  0
ARC
  5
C34
330
6B
100
AcDbEntity
  8
0
100
AcDbCircle
 10
301.243906
 20
174.63364
 30
0.0
 40
0.25
100
AcDbArc
 50
180.0
 51
0.0
  0
LINE
  5
C35
330
6B
100
AcDbEntity
  8
0
100
AcDbLine
 10
136.285047
 20
156.096363
 30
0.0
 11
136.285047
 21
141.01224
 31
0.0
  0
LINE
  5
C36
330
6B
100
AcDbEntity
  8
0
100
AcDbLine
 10
217.066047
 20
156.096363
 30
0.0
 11
217.066047
 21
141.01224
 31
0.0
  0
LINE
  5
C37
330
6B
100
AcDbEntity
  8
0
100
AcDbLine
 10
138.785047
 20
142.26224
 30
0.0
 11
214.566047
 21
142.26224
 31
0.0
  0
LINE
  5
C3B
330
6B
100
AcDbEntity
  8
0
100
AcDbLine
 10
29.653047
 20
160.9093629999999
 30
0.0
 11
29.653047
 21
141.01224
 31
0.0
  0
LINE
  5
C3C
330
6B
100
AcDbEntity
  8
0
100
AcDbLine
 10
119.372047
 20
160.9093629999999
 30
0.0
 11
119.372047
 21
141.01224
 31
0.0
  0
LINE
  5
C3D
330
6B
100
AcDbEntity
  8
0
100
AcDbLine
 10
32.153047
 20
142.26224
 30
0.0
 11
116.872047
 21
142.26224
 31
0.0
  0
LINE
  5
C41
330
6B
100
AcDbEntity
  8
0
100
AcDbLine
 10
37.99704699999999
 20
150.502363
 30
0.0
 11
19.53076299999998
 21
150.502363
 31
0.0
  0
LINE
  5
C42
330
6B
100
AcDbEntity
  8
0
100
AcDbLine
 10
70.138047
 20
229.912363
 30
0.0
 11
19.530763
 21
229.912363
 31
0.0
  0
LINE
  5
C43
330
6B
100
AcDbEntity
  8
0
100
AcDbLine
 10
20.78076299999999
 20
153.002363
 30
0.0
 11
20.780763
 21
227.412363
 31
0.0
  0
LINE
  5
C47
330
6B
100
AcDbEntity
  8
0
100
AcDbLine
 10
102.3668233729125
 20
161.7889638502128
 30
0.0
 11
113.2842665700517
 21
135.1659920773097
 31
0.0
1001
ACAD
1000
DSTYLE
1002
{
1070
   147
1040
0.625
1070
    77
1070
     0
1002
}
  0
LINE
  5
C48
330
6B
100
AcDbEntity
  8
0
  6
ByBlock
 62
     0
370
    -2
100
AcDbLine
 10
101.7470391122335
 20
161.5348051665706
 30
0.0
 11
101.4182895711734
 21
164.1020318619579
 31
0.0
  0
LINE
  5
C49
330
6B
100
AcDbEntity
  8
0
  6
ByBlock
 62
     0
370
    -2
100
AcDbLine
 10
101.4182895711734
 20
164.1020318619579
 30
0.0
 11
102.9866076335916
 21
162.043122533855
 31
0.0
  0
LINE
  5
C4A
330
6B
100
AcDbEntity
  8
0
  6
ByBlock
 62
     0
370
    -2
100
AcDbLine
 10
101.4182895711734
 20
164.1020318619579
 30
0.0
 11
102.3668233729125
 21
161.7889638502128
 31
0.0
  0
LINE
  5
C4B
330
6B
100
AcDbEntity
  8
0
100
AcDbLine
 10
154.2567276772401
 20
231.7942468802667
 30
0.0
 11
148.7736952387065
 21
238.0871031568428
 31
0.0
1001
ACAD
1000
DSTYLE
1002
{
1070
   147
1040
0.625
1070
    77
1070
     0
1002
}
  0
LINE
  5
C4C
330
6B
100
AcDbEntity
  8
0
  6
ByBlock
 62
     0
370
    -2
100
AcDbLine
 10
154.7617804280737
 20
232.2343047004809
 30
0.0
 11
155.899047
 21
229.909363
 31
0.0
  0
LINE
  5
C4D
330
6B
100
AcDbEntity
  8
0
  6
ByBlock
 62
     0
370
    -2
100
AcDbLine
 10
155.899047
 20
229.909363
 30
0.0
 11
153.7516749264065
 21
231.3541890600526
 31
0.0
  0
LINE
  5
C4E
330
6B
100
AcDbEntity
  8
0
  6
ByBlock
 62
     0
370
    -2
100
AcDbLine
 10
155.899047
 20
229.909363
 30
0.0
 11
154.2567276772401
 21
231.7942468802667
 31
0.0
  0
LINE
  5
C4F
330
6B
100
AcDbEntity
  8
0
100
AcDbLine
 10
96.27099896254094
 20
167.7906976829947
 30
0.0
 11
103.3473807083694
 21
135.488680088052
 31
0.0
1001
ACAD
1000
DSTYLE
1002
{
1070
   341
1005
87A
1070
   147
1040
0.625
1070
    77
1070
     0
1002
}
  0
TEXT
  5
C51
330
6B
100
AcDbEntity
  8
0
 62
     4
100
AcDbText
 10
173.175547
 20
142.88724
 30
0.0
 40
3.0
  1
315
100
AcDbText
  0
LINE
  5
C52
330
6B
100
AcDbEntity
  8
0
  6
ByBlock
 62
     0
370
    -2
100
AcDbLine
 10
214.566047
 20
142.9321125
 30
0.0
 11
217.066047
 21
142.26224
 31
0.0
  0
LINE
  5
C53
330
6B
100
AcDbEntity
  8
0
  6
ByBlock
 62
     0
370
    -2
100
AcDbLine
 10
217.066047
 20
142.26224
 30
0.0
 11
214.566047
 21
141.5923675
 31
0.0
  0
LINE
  5
C54
330
6B
100
AcDbEntity
  8
0
  6
ByBlock
 62
     0
370
    -2
100
AcDbLine
 10
217.066047
 20
142.26224
 30
0.0
 11
214.566047
 21
142.26224
 31
0.0
  0
LINE
  5
C55
330
6B
100
AcDbEntity
  8
0
  6
ByBlock
 62
     0
370
    -2
100
AcDbLine
 10
138.785047
 20
141.5923675
 30
0.0
 11
136.285047
 21
142.26224
 31
0.0
  0
LINE
  5
C56
330
6B
100
AcDbEntity
  8
0
  6
ByBlock
 62
     0
370
    -2
100
AcDbLine
 10
136.285047
 20
142.26224
 30
0.0
 11
138.785047
 21
142.9321125
 31
0.0
  0
LINE
  5
C57
330
6B
100
AcDbEntity
  8
0
  6
ByBlock
 62
     0
370
    -2
100
AcDbLine
 10
136.285047
 20
142.26224
 30
0.0
 11
138.785047
 21
142.26224
 31
0.0
  0
TEXT
  5
C58
330
6B
100
AcDbEntity
  8
0
 62
     4
100
AcDbText
 10
70.76254699999999
 20
142.88724
 30
0.0
 40
3.0
  1
260
100
AcDbText
  0
LINE
  5
C59
330
6B
100
AcDbEntity
  8
0
  6
ByBlock
 62
     0
370
    -2
100
AcDbLine
 10
116.872047
 20
142.9321125
 30
0.0
 11
119.372047
 21
142.26224
 31
0.0
  0
LINE
  5
C5A
330
6B
100
AcDbEntity
  8
0
  6
ByBlock
 62
     0
370
    -2
100
AcDbLine
 10
119.372047
 20
142.26224
 30
0.0
 11
116.872047
 21
141.5923675
 31
0.0
  0
LINE
  5
C5B
330
6B
100
AcDbEntity
  8
0
  6
ByBlock
 62
     0
370
    -2
100
AcDbLine
 10
119.372047
 20
142.26224
 30
0.0
 11
116.872047
 21
142.26224
 31
0.0
  0
LINE
  5
C5C
330
6B
100
AcDbEntity
  8
0
  6
ByBlock
 62
     0
370
    -2
100
AcDbLine
 10
32.153047
 20
141.5923675
 30
0.0
 11
29.653047
 21
142.26224
 31
0.0
  0
LINE
  5
C5D
330
6B
100
AcDbEntity
  8
0
  6
ByBlock
 62
     0
370
    -2
100
AcDbLine
 10
29.653047
 20
142.26224
 30
0.0
 11
32.153047
 21
142.9321125
 31
0.0
  0
LINE
  5
C5E
330
6B
100
AcDbEntity
  8
0
  6
ByBlock
 62
     0
370
    -2
100
AcDbLine
 10
29.653047
 20
142.26224
 30
0.0
 11
32.153047
 21
142.26224
 31
0.0
  0
TEXT
  5
C5F
330
6B
100
AcDbEntity
  8
0
 62
     4
100
AcDbText
 10
20.15576299999996
 20
186.457363
 30
0.0
 40
3.0
  1
230
 50
90.0
100
AcDbText
  0
LINE
  5
C60
330
6B
100
AcDbEntity
  8
0
  6
ByBlock
 62
     0
370
    -2
100
AcDbLine
 10
20.1108905
 20
227.412363
 30
0.0
 11
20.780763
 21
229.912363
 31
0.0
  0
LINE
  5
C61
330
6B
100
AcDbEntity
  8
0
  6
ByBlock
 62
     0
370
    -2
100
AcDbLine
 10
20.780763
 20
229.912363
 30
0.0
 11
21.4506355
 21
227.412363
 31
0.0
  0
LINE
  5
C62
330
6B
100
AcDbEntity
  8
0
  6
ByBlock
 62
     0
370
    -2
100
AcDbLine
 10
20.780763
 20
229.912363
 30
0.0
 11
20.780763
 21
227.412363
 31
0.0
  0
LINE
  5
C63
330
6B
100
AcDbEntity
  8
0
  6
ByBlock
 62
     0
370
    -2
100
AcDbLine
 10
21.45063549999998
 20
153.002363
 30
0.0
 11
20.78076299999998
 21
150.502363
 31
0.0
  0
LINE
  5
C64
330
6B
100
AcDbEntity
  8
0
  6
ByBlock
 62
     0
370
    -2
100
AcDbLine
 10
20.78076299999998
 20
150.502363
 30
0.0
 11
20.11089049999998
 21
153.002363
 31
0.0
  0
LINE
  5
C65
330
6B
100
AcDbEntity
  8
0
  6
ByBlock
 62
     0
370
    -2
100
AcDbLine
 10
20.78076299999998
 20
150.502363
 30
0.0
 11
20.78076299999998
 21
153.002363
 31
0.0
  0
ARC
  5
C66
330
6B
100
AcDbEntity
  8
0
  6
ByBlock
 62
     0
100
AcDbCircle
 10
96.27099896254094
 20
167.7906976829947
 30
0.0
 40
0.1562499999999892
100
AcDbArc
 50
282.3565475178345
 51
102.3565475178345
  0
ARC
  5
C67
330
6B
100
AcDbEntity
  8
0
  6
ByBlock
 62
     0
100
AcDbCircle
 10
96.27099896254094
 20
167.7906976829947
 30
0.0
 40
0.1562499999999892
100
AcDbArc
 50
102.3565475178345
 51
282.3565475178345
  0
ENDSEC
  0
SECTION
  2
OBJECTS
  0
DICTIONARY
  5
C
330
0
100
AcDbDictionary
281
     1
  3
ACAD_2007HEADERVARS_RT
350
C6B
  3
ACAD_COLOR
350
62
  3
ACAD_GROUP
350
D
  3
ACAD_LAYOUT
350
61
  3
ACAD_MATERIAL
350
10
  3
ACAD_MLEADERSTYLE
350
65
  3
ACAD_MLINESTYLE
350
5E
  3
ACAD_PLOTSETTINGS
350
60
  3
ACAD_PLOTSTYLENAME
350
E
  3
ACAD_SCALELIST
350
42
  3
ACAD_TABLESTYLE
350
63
  3
ACAD_VISUALSTYLE
350
29
  3
ACDB_RECOMPOSE_DATA
350
C69
  3
AcDbVariableDictionary
350
7D2
  3
DWGPROPS
350
C6A
  0
DICTIONARY
  5
605
330
2
100
AcDbDictionary
280
     1
281
     1
  3
ACAD_LAYERSTATES
360
606
  0
DICTIONARY
  5
7CE
330
54
100
AcDbDictionary
280
     1
281
     1
  3
ADSK_XREC_LAYER_RECONCILED
360
7CF
  0
DICTIONARY
  5
799
330
6B
100
AcDbDictionary
280
     1
281
     1
  3
ACAD_SORTENTS
360
79A
  0
DICTIONARY
  5
C6B
102
{ACAD_REACTORS
330
C
102
}
330
C
100
AcDbDictionary
281
     1
  3
DIMARCSYM
350
C6D
  3
DIMFXL
350
C6C
  3
DIMJOGANG
350
C6E
  0
DICTIONARY
  5
62
102
{ACAD_REACTORS
330
C
102
}
330
C
100
AcDbDictionary
281
     1
  0
DICTIONARY
  5
D
102
{ACAD_REACTORS
330
C
102
}
330
C
100
AcDbDictionary
281
     1
  0
DICTIONARY
  5
61
102
{ACAD_REACTORS
330
C
102
}
330
C
100
AcDbDictionary
281
     1
  3
Model
350
6E
  3
レイアウト1
350
6A
  0
DICTIONARY
  5
10
102
{ACAD_REACTORS
330
C
102
}
330
C
100
AcDbDictionary
281
     1
  3
ByBlock
350
19
  3
ByLayer
350
11
  3
Global
350
21
  0
DICTIONARY
  5
65
102
{ACAD_REACTORS
330
C
102
}
330
C
100
AcDbDictionary
281
     1
  3
Standard
350
66
  0
DICTIONARY
  5
5E
102
{ACAD_REACTORS
330
C
102
}
330
C
100
AcDbDictionary
281
     1
  3
Standard
350
5F
  0
DICTIONARY
  5
60
102
{ACAD_REACTORS
330
C
102
}
330
C
100
AcDbDictionary
281
     1
  0
ACDBDICTIONARYWDFLT
  5
E
102
{ACAD_REACTORS
330
C
102
}
330
C
100
AcDbDictionary
281
     1
  3
Normal
350
F
100
AcDbDictionaryWithDefault
340
F
  0
DICTIONARY
  5
42
102
{ACAD_REACTORS
330
C
102
}
330
C
100
AcDbDictionary
281
     1
  3
A0
350
43
  3
A1
350
44
  3
A2
350
45
  3
A3
350
46
  3
A4
350
47
  3
A5
350
48
  3
A6
350
49
  3
A7
350
4A
  3
A8
350
4B
  3
A9
350
4C
  3
B0
350
4D
  3
B1
350
4E
  3
B2
350
4F
  3
B3
350
50
  3
B4
350
51
  3
B5
350
52
  3
B6
350
53
  0
DICTIONARY
  5
63
102
{ACAD_REACTORS
330
C
102
}
330
C
100
AcDbDictionary
281
     1
  3
Standard
350
64
  0
DICTIONARY
  5
29
102
{ACAD_REACTORS
330
C
102
}
330
C
100
AcDbDictionary
281
     1
  3
2dWireframe
350
2F
  3
3dWireframe
350
602
  3
Basic
350
2E
  3
Brighten
350
35
  3
ColorChange
350
39
  3
Conceptual
350
32
  3
Dim
350
34
  3
EdgeColorOff
350
41
  3
Facepattern
350
38
  3
Flat
350
2A
  3
FlatWithEdges
350
2B
  3
Gouraud
350
2C
  3
GouraudWithEdges
350
2D
  3
Hidden
350
31
  3
JitterOff
350
3F
  3
Linepattern
350
37
  3
OverhangOff
350
40
  3
Realistic
350
33
  3
Shaded
350
3E
  3
Shaded with edges
350
3D
  3
Shades of Gray
350
3A
  3
Sketchy
350
3B
  3
Thicken
350
36
  3
Wireframe
350
30
  3
X-Ray
350
3C
  0
XRECORD
  5
C69
102
{ACAD_REACTORS
330
C
102
}
330
C
100
AcDbXrecord
280
     1
 90
        1
330
64
  0
DICTIONARY
  5
7D2
102
{ACAD_REACTORS
330
C
102
}
330
C
100
AcDbDictionary
281
     1
  3
CANNOSCALE
350
7D5
  3
CMLEADERSTYLE
350
7D4
  3
CTABLESTYLE
350
7D3
  3
DIMASSOC
350
7D8
  3
INDEXCTL
350
7D7
  3
SORTENTS
350
7D6
  3
XCLIPFRAME
350
B74
  0
XRECORD
  5
C6A
102
{ACAD_REACTORS
330
C
102
}
330
C
100
AcDbXrecord
280
     1
  1
DWGPROPS COOKIE
  2

  3

  4

  6

  7

  8
imamura
  9

300
=
301
=
302
=
303
=
304
=
305
=
306
=
307
=
308
=
309
=
 40
0.0491916087962963
 41
2456346.76316632
 42
2459893.499363241
  1

 90
        0
  0
DICTIONARY
  5
606
102
{ACAD_REACTORS
330
605
102
}
330
605
100
AcDbDictionary
281
     1
  0
XRECORD
  5
7CF
102
{ACAD_REACTORS
330
7CE
102
}
330
7CE
100
AcDbXrecord
280
     1
290
     1
  0
SORTENTSTABLE
  5
79A
102
{ACAD_REACTORS
330
799
102
}
330
799
100
AcDbSortentsTable
330
6B
331
870
  5
C3E
331
BF9
  5
520
331
C18
  5
252
331
854
  5
C1D
331
BC
  5
E3
331
54D
  5
BFD
331
52E
  5
946
331
50F
  5
860
331
3D1
  5
42A
331
3B2
  5
40F
331
393
  5
3E6
331
37C
  5
3C9
331
33E
  5
38C
331
31F
  5
36D
331
308
  5
351
331
2E9
  5
332
331
2CA
  5
313
331
2AB
  5
2F4
331
294
  5
2DD
331
275
  5
2BE
331
256
  5
29F
331
237
  5
280
331
87E
  5
C47
331
860
  5
C2A
331
844
  5
C0F
331
C08
  5
512
331
C27
  5
208
331
53D
  5
953
331
51E
  5
86E
331
3E0
  5
435
331
3A2
  5
3FF
331
38B
  5
3DC
331
36C
  5
3B5
331
34D
  5
39B
331
32E
  5
37C
331
317
  5
365
331
2F8
  5
341
331
2D9
  5
322
331
2BA
  5
303
331
284
  5
2CD
331
265
  5
2AE
331
246
  5
28F
331
BF8
  5
51F
331
C17
  5
251
331
853
  5
C1C
331
BB
  5
E2
331
54C
  5
BFC
331
52D
  5
945
331
50E
  5
85F
331
3D0
  5
429
331
3B1
  5
40E
331
392
  5
3E4
331
37B
  5
3C8
331
33D
  5
38B
331
31E
  5
36C
331
307
  5
350
331
2E8
  5
331
331
2C9
  5
312
331
2AA
  5
2F3
331
293
  5
2DC
331
274
  5
2BD
331
255
  5
29E
331
236
  5
27F
331
843
  5
C0E
331
C07
  5
511
331
C26
  5
213
331
53C
  5
952
331
51D
  5
86D
331
3A1
  5
3FE
331
38A
  5
3DB
331
36B
  5
3B4
331
34C
  5
39A
331
32D
  5
37B
331
316
  5
364
331
2F7
  5
340
331
2D8
  5
321
331
2B9
  5
302
331
283
  5
2CC
331
264
  5
2AD
331
245
  5
28E
331
852
  5
C1B
331
BF7
  5
51E
331
C16
  5
257
331
54B
  5
BFB
331
52C
  5
944
331
50D
  5
85E
331
3B0
  5
40D
331
391
  5
3E2
331
37A
  5
3C7
331
35B
  5
3A9
331
33C
  5
38A
331
31D
  5
36B
331
306
  5
34F
331
2E7
  5
330
331
2C8
  5
311
331
2A9
  5
2F2
331
292
  5
2DB
331
273
  5
2BC
331
254
  5
29D
331
235
  5
27E
331
842
  5
C0D
331
C06
  5
51D
331
C25
  5
212
331
53B
  5
951
331
51C
  5
86C
331
3A0
  5
3FD
331
389
  5
3DA
331
36A
  5
3B3
331
34B
  5
399
331
32C
  5
37A
331
315
  5
363
331
2F6
  5
33F
331
2D7
  5
320
331
2B8
  5
301
331
282
  5
2CB
331
263
  5
2AC
331
244
  5
28D
331
851
  5
C1A
331
C15
  5
256
331
54A
  5
BFA
331
52B
  5
943
331
50C
  5
85D
331
390
  5
3E1
331
379
  5
3C6
331
35A
  5
3A8
331
33B
  5
389
331
31C
  5
36A
331
305
  5
34E
331
2E6
  5
32F
331
2C7
  5
310
331
2A8
  5
2F1
331
291
  5
2DA
331
272
  5
2BB
331
253
  5
29C
331
234
  5
27D
331
53A
  5
950
331
C05
  5
51C
331
C24
  5
218
331
51B
  5
86B
331
388
  5
3D9
331
369
  5
3B2
331
34A
  5
398
331
32B
  5
379
331
314
  5
362
331
2F5
  5
33E
331
2D6
  5
31F
331
2B7
  5
300
331
281
  5
2CA
331
262
  5
2AB
331
243
  5
28C
331
850
  5
C19
331
C14
  5
25C
331
549
  5
BF9
331
52A
  5
942
331
50B
  5
85C
331
378
  5
3C4
331
359
  5
3A7
331
33A
  5
388
331
31B
  5
369
331
304
  5
34D
331
2E5
  5
32E
331
2C6
  5
30F
331
2A7
  5
2F0
331
290
  5
2D9
331
271
  5
2BA
331
252
  5
29B
331
233
  5
27C
331
85F
  5
C27
331
C04
  5
51B
331
C23
  5
217
331
539
  5
94F
331
51A
  5
86A
331
368
  5
3B1
331
349
  5
397
331
32A
  5
378
331
313
  5
361
331
2F4
  5
33D
331
2D5
  5
31E
331
2B6
  5
2FF
331
29F
  5
2E8
331
280
  5
2C9
331
261
  5
2AA
331
242
  5
28B
331
84F
  5
C18
331
C13
  5
25B
331
548
  5
BF8
331
529
  5
941
331
50A
  5
85B
331
358
  5
3A6
331
339
  5
387
331
31A
  5
368
331
303
  5
34C
331
2E4
  5
32D
331
2C5
  5
30E
331
2A6
  5
2EF
331
28F
  5
2D8
331
270
  5
2B9
331
251
  5
29A
331
232
  5
27B
331
85E
  5
C26
331
C03
  5
51A
331
C22
  5
237
331
557
  5
C07
331
538
  5
94E
331
519
  5
869
331
348
  5
396
331
329
  5
377
331
312
  5
35B
331
2F3
  5
33C
331
2D4
  5
31D
331
2B5
  5
2FE
331
29E
  5
2E7
331
27F
  5
2C8
331
260
  5
2A9
331
241
  5
28A
331
84E
  5
C17
331
C12
  5
510
331
547
  5
BF7
331
528
  5
881
331
509
  5
85A
331
338
  5
386
331
319
  5
367
331
302
  5
34B
331
2E3
  5
32C
331
2C4
  5
30D
331
2A5
  5
2EE
331
28E
  5
2D7
331
26F
  5
2B8
331
250
  5
299
331
231
  5
27A
331
85D
  5
C25
331
C02
  5
519
331
C21
  5
236
331
556
  5
C06
331
537
  5
94D
331
518
  5
868
331
328
  5
376
331
311
  5
35A
331
2F2
  5
33B
331
2D3
  5
31C
331
2B4
  5
2FD
331
29D
  5
2E6
331
27E
  5
2C7
331
25F
  5
2A8
331
240
  5
289
331
84D
  5
C16
331
C11
  5
50F
331
546
  5
BF6
331
527
  5
880
331
508
  5
859
331
318
  5
366
331
301
  5
34A
331
2E2
  5
32B
331
2C3
  5
30C
331
2A4
  5
2ED
331
28D
  5
2D6
331
26E
  5
2B7
331
24F
  5
298
331
230
  5
279
331
85C
  5
C24
331
C01
  5
518
331
C20
  5
23C
331
555
  5
C05
331
536
  5
94C
331
517
  5
867
331
310
  5
359
331
2F1
  5
33A
331
2D2
  5
31B
331
2B3
  5
2FC
331
29C
  5
2E5
331
27D
  5
2C6
331
25E
  5
2A7
331
23F
  5
288
331
55C
  5
C0C
331
C10
  5
50E
331
545
  5
BF5
331
526
  5
87F
331
507
  5
857
331
300
  5
349
331
2E1
  5
32A
331
2C2
  5
30B
331
2A3
  5
2EC
331
28C
  5
2D5
331
26D
  5
2B6
331
24E
  5
297
331
22F
  5
278
331
85B
  5
C23
331
C00
  5
527
331
554
  5
C04
331
516
  5
866
331
2F0
  5
339
331
2D1
  5
31A
331
2B2
  5
2FB
331
29B
  5
2E4
331
27C
  5
2C5
331
25D
  5
2A6
331
23E
  5
287
331
84B
  5
C15
331
55B
  5
C0B
331
544
  5
BF4
331
525
  5
87E
331
506
  5
856
331
4F7
  5
846
331
2E0
  5
329
331
2C1
  5
30A
331
2A2
  5
2EB
331
28B
  5
2D4
331
26C
  5
2B5
331
24D
  5
296
331
22E
  5
277
331
21F
  5
268
331
85A
  5
C22
331
553
  5
C03
331
534
  5
94B
331
515
  5
865
331
4E7
  5
550
331
2D0
  5
319
331
2B1
  5
2FA
331
29A
  5
2E3
331
27B
  5
2C4
331
25C
  5
2A5
331
23D
  5
286
331
84A
  5
C14
331
55A
  5
C0A
331
543
  5
BF3
331
524
  5
874
331
505
  5
855
331
4F6
  5
844
331
4D7
  5
540
331
2C0
  5
309
331
2A1
  5
2EA
331
28A
  5
2D3
331
26B
  5
2B4
331
24C
  5
295
331
22D
  5
276
331
21E
  5
267
331
859
  5
C21
331
552
  5
C02
331
533
  5
94A
331
4E6
  5
54F
331
4C7
  5
52D
331
2B0
  5
2F9
331
299
  5
2E2
331
27A
  5
2C3
331
25B
  5
2A4
331
23C
  5
285
331
849
  5
C13
331
559
  5
C09
331
542
  5
BF2
331
523
  5
873
331
504
  5
854
331
4F5
  5
843
331
4D6
  5
53F
331
2A0
  5
2E9
331
289
  5
2D2
331
26A
  5
2B3
331
24B
  5
294
331
22C
  5
275
331
551
  5
C01
331
532
  5
949
331
513
  5
864
331
4E5
  5
54E
331
4C6
  5
52C
331
298
  5
2E1
331
279
  5
2C2
331
25A
  5
2A3
331
23B
  5
284
331
848
  5
C12
331
558
  5
C08
331
541
  5
BF1
331
522
  5
872
331
503
  5
853
331
4F4
  5
842
331
4D5
  5
53D
331
48F
  5
500
331
288
  5
2D1
331
269
  5
2B2
331
24A
  5
293
331
22B
  5
274
331
21C
  5
266
331
1BF
  5
22A
331
550
  5
C00
331
531
  5
948
331
512
  5
863
331
4E4
  5
54D
331
4C5
  5
52B
331
278
  5
2C1
331
259
  5
2A2
331
23A
  5
283
331
12F
  5
156
331
540
  5
955
331
521
  5
871
331
502
  5
852
331
4F3
  5
55C
331
4D4
  5
53C
331
48E
  5
4FF
331
477
  5
4E8
331
268
  5
2B1
331
249
  5
292
331
22A
  5
273
331
1BE
  5
229
331
11F
  5
146
331
530
  5
947
331
511
  5
862
331
4E3
  5
54C
331
4C4
  5
52A
331
467
  5
4D8
331
258
  5
2A1
331
239
  5
282
331
12E
  5
155
331
10F
  5
136
331
520
  5
870
331
501
  5
851
331
4F2
  5
55B
331
4D3
  5
53B
331
48D
  5
4FE
331
476
  5
4E7
331
457
  5
4C8
331
248
  5
291
331
229
  5
272
331
1BD
  5
228
331
11E
  5
145
331
FF
  5
126
331
510
  5
861
331
4E2
  5
54B
331
4C3
  5
529
331
466
  5
4D7
331
447
  5
490
331
C5F
  5
CD
331
238
  5
281
331
20A
  5
25A
331
177
  5
1C8
331
12D
  5
154
331
10E
  5
135
331
EF
  5
116
331
500
  5
850
331
4F1
  5
55A
331
4D2
  5
53A
331
48C
  5
4FD
331
475
  5
4E6
331
C4F
  5
C46
331
456
  5
4C7
331
437
  5
480
331
228
  5
271
331
1FA
  5
250
331
1BC
  5
227
331
11D
  5
144
331
FE
  5
125
331
DF
  5
106
331
4E1
  5
54A
331
4C2
  5
528
331
465
  5
4D6
331
446
  5
48F
331
C5E
  5
D3
331
427
  5
470
331
209
  5
259
331
1EA
  5
246
331
176
  5
1C7
331
157
  5
1BA
331
12C
  5
153
331
10D
  5
134
331
EE
  5
115
331
CF
  5
F6
331
4F0
  5
559
331
4D1
  5
539
331
48B
  5
4FC
331
474
  5
4E5
331
C4E
  5
C4D
331
455
  5
4C6
331
436
  5
47F
331
417
  5
460
331
C2F
  5
1CA
331
218
  5
265
331
1F9
  5
24F
331
1DA
  5
23F
331
1BB
  5
226
331
1A4
  5
211
331
147
  5
19B
331
11C
  5
143
331
FD
  5
124
331
DE
  5
105
331
4FF
  5
84F
331
4E0
  5
549
331
464
  5
4D5
331
445
  5
48E
331
C5D
  5
D2
331
426
  5
46F
331
227
  5
270
331
208
  5
258
331
1E9
  5
245
331
1CA
  5
235
331
175
  5
1C6
331
156
  5
1B9
331
12B
  5
152
331
10C
  5
133
331
ED
  5
114
331
CE
  5
F5
331
4EF
  5
558
331
4D0
  5
538
331
48A
  5
4FB
331
473
  5
4E4
331
C4D
  5
C4C
331
454
  5
4C5
331
435
  5
47E
331
416
  5
45F
331
C2E
  5
1DA
331
3FF
  5
448
331
217
  5
264
331
1F8
  5
24E
331
1D9
  5
23E
331
1BA
  5
225
331
1A3
  5
210
331
146
  5
19A
331
11B
  5
142
331
FC
  5
123
331
86F
  5
C3D
331
DD
  5
104
331
4FE
  5
84E
331
4DF
  5
548
331
499
  5
50A
331
463
  5
4D4
331
444
  5
48D
331
C5C
  5
D1
331
425
  5
46E
331
C3D
  5
D0
331
226
  5
26F
331
1C9
  5
234
331
193
  5
1F2
331
174
  5
1C5
331
155
  5
1B8
331
12A
  5
151
331
10B
  5
132
331
EC
  5
113
331
CD
  5
F4
331
4EE
  5
557
331
4CF
  5
537
331
489
  5
4FA
331
472
  5
4E3
331
C4C
  5
C4B
331
453
  5
4C4
331
434
  5
47D
331
415
  5
45E
331
C2D
  5
1D9
331
3FE
  5
447
331
3DF
  5
434
331
216
  5
263
331
1D8
  5
23D
331
1B9
  5
224
331
1A2
  5
20A
331
183
  5
1D8
331
145
  5
199
331
11A
  5
141
331
FB
  5
122
331
86E
  5
C3C
331
DC
  5
103
331
4FD
  5
84D
331
4DE
  5
547
331
498
  5
509
331
462
  5
4D3
331
443
  5
48C
331
C5B
  5
D6
331
424
  5
46D
331
C3C
  5
CF
331
3CF
  5
428
331
225
  5
26E
331
1C8
  5
233
331
192
  5
1F1
331
154
  5
1B7
331
129
  5
150
331
10A
  5
131
331
EB
  5
112
331
CC
  5
F3
331
4ED
  5
556
331
4CE
  5
536
331
488
  5
4F9
331
471
  5
4E2
331
C4B
  5
C4E
331
452
  5
4C3
331
433
  5
47C
331
414
  5
45D
331
C2C
  5
1EA
331
3FD
  5
446
331
3DE
  5
433
331
3BF
  5
41C
331
215
  5
262
331
1B8
  5
223
331
182
  5
1D2
331
144
  5
193
331
119
  5
140
331
FA
  5
121
331
86D
  5
C3B
331
DB
  5
102
331
4FC
  5
84B
331
4DD
  5
546
331
497
  5
508
331
461
  5
4D2
331
442
  5
48B
331
C5A
  5
D5
331
423
  5
46C
331
C3B
  5
CE
331
3CE
  5
427
331
3AF
  5
40C
331
224
  5
26D
331
1C7
  5
232
331
191
  5
1F0
331
153
  5
1B6
331
128
  5
14F
331
109
  5
130
331
EA
  5
111
331
CB
  5
F2
331
4EC
  5
555
331
4CD
  5
534
331
487
  5
4F8
331
470
  5
4E1
331
C4A
  5
C51
331
451
  5
4C2
331
432
  5
47B
331
413
  5
45C
331
C2B
  5
1E9
331
3FC
  5
445
331
3DD
  5
432
331
3BE
  5
41B
331
39F
  5
3FC
331
214
  5
261
331
1B7
  5
222
331
181
  5
1D1
331
143
  5
192
331
137
  5
174
331
118
  5
13F
331
F9
  5
120
331
86C
  5
C3A
331
DA
  5
101
331
4FB
  5
84A
331
4DC
  5
545
331
496
  5
507
331
47F
  5
4F0
331
460
  5
4D1
331
441
  5
48A
331
C59
  5
D4
331
422
  5
46B
331
3EC
  5
43A
331
3CD
  5
426
331
3AE
  5
40B
331
223
  5
26C
331
1C6
  5
231
331
152
  5
1B5
331
127
  5
14E
331
108
  5
12F
331
E9
  5
110
331
94F
  5
C61
331
CA
  5
F1
331
4EB
  5
554
331
4CC
  5
533
331
486
  5
4F7
331
46F
  5
4E0
331
C49
  5
C50
331
450
  5
499
331
431
  5
47A
331
412
  5
45B
331
C2A
  5
1F9
331
3FB
  5
444
331
3DC
  5
431
331
3BD
  5
41A
331
39E
  5
3FB
331
387
  5
3D8
331
213
  5
260
331
1B6
  5
221
331
142
  5
191
331
136
  5
16E
331
117
  5
13E
331
F8
  5
11F
331
86B
  5
C39
331
D9
  5
100
331
4FA
  5
849
331
4DB
  5
544
331
495
  5
506
331
47E
  5
4EF
331
45F
  5
4D0
331
440
  5
489
331
C58
  5
D7
331
421
  5
46A
331
3CC
  5
425
331
3AD
  5
40A
331
377
  5
3C2
331
222
  5
26B
331
1C5
  5
230
331
151
  5
1B4
331
126
  5
14D
331
107
  5
12E
331
E8
  5
10F
331
94E
  5
C60
331
C9
  5
F0
331
4EA
  5
553
331
4CB
  5
532
331
485
  5
4F6
331
C67
  5
C45
331
46E
  5
4DF
331
C48
  5
C4F
331
44F
  5
498
331
430
  5
479
331
411
  5
45A
331
C29
  5
1F8
331
3FA
  5
443
331
3DB
  5
430
331
3BC
  5
419
331
39D
  5
3FA
331
386
  5
3D7
331
367
  5
3B0
331
212
  5
25F
331
1B5
  5
220
331
141
  5
18B
331
135
  5
16D
331
116
  5
13D
331
F7
  5
11E
331
86A
  5
C38
331
D8
  5
FF
331
4F9
  5
848
331
4DA
  5
543
331
494
  5
505
331
47D
  5
4EE
331
45E
  5
4CF
331
43F
  5
488
331
C57
  5
DD
331
420
  5
469
331
3CB
  5
424
331
3AC
  5
409
331
376
  5
3BF
331
357
  5
3A5
331
221
  5
26A
331
202
  5
255
331
1C4
  5
22F
331
150
  5
1B3
331
125
  5
14C
331
106
  5
12D
331
E7
  5
10E
331
94D
  5
C5F
331
881
  5
C4A
331
C8
  5
EF
331
4E9
  5
552
331
4CA
  5
531
331
484
  5
4F5
331
C66
  5
C44
331
46D
  5
4DE
331
C47
  5
C52
331
44E
  5
497
331
42F
  5
478
331
410
  5
459
331
C28
  5
209
331
3F9
  5
442
331
3DA
  5
42F
331
3BB
  5
418
331
39C
  5
3F9
331
385
  5
3D6
331
366
  5
3AF
331
347
  5
395
331
211
  5
25E
331
1F2
  5
24B
331
1B4
  5
21F
331
140
  5
18A
331
134
  5
16C
331
115
  5
13C
331
F6
  5
11D
331
869
  5
C37
331
D7
  5
FE
331
4F8
  5
847
331
4D9
  5
542
331
493
  5
504
331
47C
  5
4ED
331
45D
  5
4CE
331
43E
  5
487
331
C56
  5
DC
331
41F
  5
468
331
C37
  5
DA
331
3CA
  5
423
331
3AB
  5
408
331
375
  5
3BE
331
356
  5
3A4
331
337
  5
385
331
220
  5
269
331
201
  5
254
331
1E2
  5
244
331
1C3
  5
22E
331
1AC
  5
216
331
16E
  5
1C2
331
14F
  5
1B2
331
124
  5
14B
331
105
  5
12C
331
E6
  5
10D
331
94C
  5
C5E
331
880
  5
C49
331
C7
  5
EE
331
4E8
  5
551
331
4C9
  5
530
331
483
  5
4F4
331
46C
  5
4DD
331
44D
  5
496
331
C65
  5
C3
331
42E
  5
477
331
40F
  5
458
331
3D9
  5
42E
331
3BA
  5
417
331
39B
  5
3F8
331
384
  5
3D1
331
365
  5
3AE
331
346
  5
394
331
327
  5
375
331
3F8
  5
441
331
210
  5
25D
331
1F1
  5
24A
331
1D2
  5
23A
331
1B3
  5
21E
331
19C
  5
202
331
13F
  5
189
331
133
  5
16B
331
114
  5
13B
331
F5
  5
11C
331
947
  5
C59
331
D6
  5
FD
331
868
  5
C36
331
4D8
  5
541
331
492
  5
503
331
47B
  5
4EC
331
45C
  5
4CD
331
43D
  5
486
331
C55
  5
DB
331
41E
  5
467
331
C36
  5
D9
331
407
  5
450
331
3C9
  5
422
331
3AA
  5
407
331
374
  5
3BD
331
355
  5
3A3
331
336
  5
384
331
200
  5
253
331
1E1
  5
243
331
1C2
  5
22D
331
1AB
  5
215
331
16D
  5
1C1
331
14E
  5
1AC
331
123
  5
14A
331
104
  5
12B
331
E5
  5
10C
331
94B
  5
C5D
331
C6
  5
ED
331
C1F
  5
23B
331
4C8
  5
52E
331
482
  5
4F3
331
46B
  5
4DC
331
44C
  5
495
331
C64
  5
C2
331
42D
  5
476
331
3F7
  5
440
331
3D8
  5
42D
331
3B9
  5
416
331
39A
  5
3F7
331
383
  5
3D0
331
364
  5
3AD
331
345
  5
393
331
326
  5
374
331
40E
  5
457
331
30F
  5
358
331
1F0
  5
249
331
1D1
  5
239
331
1B2
  5
21C
331
19B
  5
201
331
13E
  5
183
331
132
  5
159
331
113
  5
13A
331
F4
  5
11B
331
946
  5
C58
331
D5
  5
FC
331
955
  5
C67
331
867
  5
C35
331
C0F
  5
50D
331
491
  5
502
331
47A
  5
4EB
331
45B
  5
4CC
331
43C
  5
485
331
C54
  5
E0
331
41D
  5
466
331
C35
  5
D8
331
406
  5
44F
331
3C8
  5
421
331
3A9
  5
406
331
373
  5
3BC
331
354
  5
3A2
331
2FF
  5
348
331
335
  5
383
331
1E0
  5
242
331
1C1
  5
22C
331
1AA
  5
214
331
18B
  5
1E2
331
16C
  5
1C0
331
14D
  5
1AB
331
122
  5
149
331
103
  5
12A
331
E4
  5
10B
331
94A
  5
C5C
331
C5
  5
EC
331
BFF
  5
526
331
C1E
  5
241
331
481
  5
4F2
331
46A
  5
4DB
331
44B
  5
494
331
C63
  5
C1
331
40D
  5
456
331
3F6
  5
43F
331
3D7
  5
42C
331
3B8
  5
415
331
399
  5
3F6
331
382
  5
3CF
331
363
  5
3AC
331
344
  5
392
331
325
  5
373
331
42C
  5
475
331
30E
  5
357
331
2EF
  5
338
331
1D0
  5
238
331
19A
  5
200
331
13D
  5
182
331
131
  5
158
331
112
  5
139
331
F3
  5
11A
331
945
  5
C57
331
D4
  5
FB
331
954
  5
C66
331
866
  5
C34
331
C0E
  5
50C
331
490
  5
501
331
479
  5
4EA
331
45A
  5
4CB
331
43B
  5
484
331
C53
  5
DF
331
41C
  5
465
331
C34
  5
1BE
331
405
  5
44E
331
3E6
  5
439
331
3C7
  5
420
331
3A8
  5
405
331
372
  5
3BB
331
353
  5
3A1
331
334
  5
382
331
2FE
  5
347
331
2DF
  5
328
331
1C0
  5
22B
331
18A
  5
1E1
331
16B
  5
1BF
331
14C
  5
1AA
331
121
  5
148
331
102
  5
129
331
E3
  5
10A
331
949
  5
C5B
331
C4
  5
EB
331
BFE
  5
525
331
C1D
  5
240
331
480
  5
4F1
331
469
  5
4DA
331
44A
  5
493
331
C62
  5
C9
331
42B
  5
474
331
40C
  5
455
331
3F5
  5
43E
331
3D6
  5
42B
331
3B7
  5
414
331
398
  5
3F5
331
381
  5
3CE
331
362
  5
3AB
331
343
  5
391
331
324
  5
372
331
C43
  5
BD
331
30D
  5
356
331
2EE
  5
337
331
2CF
  5
318
331
199
  5
1FA
331
13C
  5
181
331
130
  5
157
331
111
  5
138
331
F2
  5
119
331
944
  5
C56
331
D3
  5
FA
331
953
  5
C65
331
865
  5
C33
331
C0D
  5
50B
331
478
  5
4E9
331
459
  5
4CA
331
43A
  5
483
331
C52
  5
DE
331
41B
  5
464
331
C33
  5
1BD
331
404
  5
44D
331
3C6
  5
41F
331
3A7
  5
404
331
371
  5
3BA
331
352
  5
3A0
331
333
  5
381
331
2FD
  5
346
331
2DE
  5
327
331
2BF
  5
308
331
189
  5
1E0
331
14B
  5
1A4
331
120
  5
147
331
101
  5
128
331
E2
  5
109
331
948
  5
C5A
331
874
  5
C42
331
C3
  5
EA
331
BFD
  5
524
331
C1C
  5
248
331
468
  5
4D9
331
449
  5
492
331
C61
  5
C8
331
42A
  5
473
331
40B
  5
454
331
3F4
  5
43D
331
3B6
  5
413
331
397
  5
3F4
331
380
  5
3CD
331
361
  5
3AA
331
342
  5
390
331
323
  5
371
331
30C
  5
355
331
C42
  5
BC
331
2ED
  5
336
331
2CE
  5
317
331
2AF
  5
2F8
331
13B
  5
178
331
110
  5
137
331
F1
  5
118
331
943
  5
C55
331
D2
  5
F9
331
952
  5
C64
331
864
  5
C32
331
C0C
  5
517
331
458
  5
4C9
331
439
  5
482
331
C51
  5
E1
331
41A
  5
463
331
C32
  5
1C4
331
403
  5
44C
331
3E4
  5
438
331
3A6
  5
403
331
38F
  5
3E0
331
370
  5
3B9
331
351
  5
39F
331
332
  5
380
331
2FC
  5
345
331
2DD
  5
326
331
2BE
  5
307
331
14A
  5
1A3
331
100
  5
127
331
E1
  5
108
331
873
  5
C41
331
C2
  5
E9
331
BFC
  5
523
331
C1B
  5
247
331
857
  5
C20
331
BF
  5
E6
331
448
  5
491
331
C60
  5
C7
331
429
  5
472
331
40A
  5
453
331
3F3
  5
43C
331
3B5
  5
412
331
396
  5
3F3
331
37F
  5
3CC
331
341
  5
38F
331
322
  5
370
331
30B
  5
354
331
2EC
  5
335
331
C41
  5
BB
331
2CD
  5
316
331
2AE
  5
2F7
331
297
  5
2E0
331
178
  5
1C9
331
159
  5
1BC
331
13A
  5
177
331
F0
  5
117
331
942
  5
C54
331
D1
  5
F8
331
951
  5
C63
331
863
  5
C2D
331
847
  5
C11
331
C0B
  5
516
331
438
  5
481
331
419
  5
462
331
C31
  5
1C3
331
402
  5
44B
331
3C4
  5
41E
331
3A5
  5
402
331
38E
  5
3DF
331
36F
  5
3B8
331
350
  5
39E
331
331
  5
37F
331
2FB
  5
344
331
2DC
  5
325
331
2BD
  5
306
331
287
  5
2D0
331
149
  5
1A2
331
E0
  5
107
331
872
  5
C40
331
C1
  5
E8
331
BFB
  5
522
331
C1A
  5
24D
331
856
  5
C1F
331
BE
  5
E5
331
54F
  5
BFF
331
428
  5
471
331
409
  5
452
331
3F2
  5
43B
331
3B4
  5
411
331
395
  5
3F2
331
37E
  5
3CB
331
340
  5
38E
331
321
  5
36F
331
30A
  5
353
331
2EB
  5
334
331
2CC
  5
315
331
2AD
  5
2F6
331
296
  5
2DF
331
277
  5
2C0
331
158
  5
1BB
331
139
  5
176
331
941
  5
C53
331
D0
  5
F7
331
950
  5
C62
331
862
  5
C2C
331
846
  5
C10
331
C0A
  5
515
331
53F
  5
954
331
418
  5
461
331
C30
  5
1D0
331
401
  5
44A
331
3E2
  5
437
331
3A4
  5
401
331
38D
  5
3DE
331
36E
  5
3B7
331
34F
  5
39D
331
330
  5
37E
331
2FA
  5
343
331
2DB
  5
324
331
2BC
  5
305
331
286
  5
2CF
331
267
  5
2B0
331
148
  5
19C
331
871
  5
C3F
331
C0
  5
E7
331
BFA
  5
521
331
C19
  5
24C
331
855
  5
C1E
331
BD
  5
E4
331
54E
  5
BFE
331
408
  5
451
331
3B3
  5
410
331
394
  5
3EC
331
37D
  5
3CA
331
33F
  5
38D
331
320
  5
36E
331
309
  5
352
331
2EA
  5
333
331
2CB
  5
314
331
2AC
  5
2F5
331
295
  5
2DE
331
276
  5
2BF
331
257
  5
2A0
331
138
  5
175
331
87F
  5
C48
331
861
  5
C2B
331
51F
  5
86F
331
C09
  5
513
331
400
  5
449
331
3E1
  5
436
331
3C2
  5
41D
331
3A3
  5
400
331
38C
  5
3DD
331
36D
  5
3B6
331
34E
  5
39C
331
32F
  5
37D
331
2F9
  5
342
331
2DA
  5
323
331
2BB
  5
304
331
285
  5
2CE
331
266
  5
2AF
331
247
  5
290
  0
XRECORD
  5
C6D
102
{ACAD_REACTORS
330
C6B
102
}
330
C6B
100
AcDbXrecord
280
     1
 70
     2
  0
XRECORD
  5
C6C
102
{ACAD_REACTORS
330
C6B
102
}
330
C6B
100
AcDbXrecord
280
     1
 40
1.25
  0
XRECORD
  5
C6E
102
{ACAD_REACTORS
330
C6B
102
}
330
C6B
100
AcDbXrecord
280
     1
 40
1.570796326794896
  0
LAYOUT
  5
6E
102
{ACAD_XDICTIONARY
360
CA2
102
}
102
{ACAD_REACTORS
330
61
102
}
330
61
100
AcDbPlotSettings
  1

  2
FX DP 205
  4

  6

 40
0.0
 41
0.0
 42
0.0
 43
0.0
 44
0.0
 45
0.0
 46
0.0
 47
0.0
 48
0.0
 49
0.0
140
0.0
141
0.0
142
1.0
143
1.0
 70
  1712
 72
     0
 73
     0
 74
     0
  7

 75
     0
147
1.0
148
0.0
149
0.0
100
AcDbLayout
  1
Model
 70
     1
 71
     0
 10
0.0
 20
0.0
 11
12.0
 21
9.0
 12
0.0
 22
0.0
 32
0.0
 14
0.0
 24
0.0
 34
0.0
 15
0.0
 25
0.0
 35
0.0
146
0.0
 13
0.0
 23
0.0
 33
0.0
 16
1.0
 26
0.0
 36
0.0
 17
0.0
 27
1.0
 37
0.0
 76
     0
330
6B
331
8B
  0
LAYOUT
  5
6A
102
{ACAD_XDICTIONARY
360
CA0
102
}
102
{ACAD_REACTORS
330
61
102
}
330
61
100
AcDbPlotSettings
  1

  2
FX DP 205
  4

  6

 40
0.0
 41
0.0
 42
0.0
 43
0.0
 44
0.0
 45
0.0
 46
0.0
 47
0.0
 48
0.0
 49
0.0
140
0.0
141
0.0
142
1.0
143
1.0
 70
   688
 72
     0
 73
     0
 74
     5
  7

 75
    16
147
1.0
148
0.0
149
0.0
100
AcDbLayout
  1
レイアウト1
 70
     1
 71
     1
 10
0.0
 20
0.0
 11
12.0
 21
9.0
 12
0.0
 22
0.0
 32
0.0
 14
1.000000000000000E+20
 24
1.000000000000000E+20
 34
1.000000000000000E+20
 15
-1.000000000000000E+20
 25
-1.000000000000000E+20
 35
-1.000000000000000E+20
146
0.0
 13
0.0
 23
0.0
 33
0.0
 16
1.0
 26
0.0
 36
0.0
 17
0.0
 27
1.0
 37
0.0
 76
     0
330
67
  0
MATERIAL
  5
19
102
{ACAD_XDICTIONARY
360
1A
102
}
102
{ACAD_REACTORS
330
10
102
}
330
10
100
AcDbMaterial
  1
ByBlock
 72
     0
 43
0.0208333333333333
 43
0.0
 43
0.0
 43
0.0
 43
0.0
 43
0.0208333333333333
 43
0.0
 43
0.0
 43
0.0
 43
0.0
 43
1.0
 43
0.0
 43
0.0
 43
0.0
 43
0.0
 43
1.0
 77
     0
 47
0.0208333333333333
 47
0.0
 47
0.0
 47
0.0
 47
0.0
 47
0.0208333333333333
 47
0.0
 47
0.0
 47
0.0
 47
0.0
 47
1.0
 47
0.0
 47
0.0
 47
0.0
 47
0.0
 47
1.0
171
     0
 49
0.0208333333333333
 49
0.0
 49
0.0
 49
0.0
 49
0.0
 49
0.0208333333333333
 49
0.0
 49
0.0
 49
0.0
 49
0.0
 49
1.0
 49
0.0
 49
0.0
 49
0.0
 49
0.0
 49
1.0
175
     0
142
0.0208333333333333
142
0.0
142
0.0
142
0.0
142
0.0
142
0.0208333333333333
142
0.0
142
0.0
142
0.0
142
0.0
142
1.0
142
0.0
142
0.0
142
0.0
142
0.0
142
1.0
179
     0
144
0.0208333333333333
144
0.0
144
0.0
144
0.0
144
0.0
144
0.0208333333333333
144
0.0
144
0.0
144
0.0
144
0.0
144
1.0
144
0.0
144
0.0
144
0.0
144
0.0
144
1.0
147
0.0208333333333333
147
0.0
147
0.0
147
0.0
147
0.0
147
0.0208333333333333
147
0.0
147
0.0
147
0.0
147
0.0
147
1.0
147
0.0
147
0.0
147
0.0
147
0.0
147
1.0
  0
MATERIAL
  5
11
102
{ACAD_XDICTIONARY
360
12
102
}
102
{ACAD_REACTORS
330
10
102
}
330
10
100
AcDbMaterial
  1
ByLayer
 72
     0
 43
0.0208333333333333
 43
0.0
 43
0.0
 43
0.0
 43
0.0
 43
0.0208333333333333
 43
0.0
 43
0.0
 43
0.0
 43
0.0
 43
1.0
 43
0.0
 43
0.0
 43
0.0
 43
0.0
 43
1.0
 77
     0
 47
0.0208333333333333
 47
0.0
 47
0.0
 47
0.0
 47
0.0
 47
0.0208333333333333
 47
0.0
 47
0.0
 47
0.0
 47
0.0
 47
1.0
 47
0.0
 47
0.0
 47
0.0
 47
0.0
 47
1.0
171
     0
 49
0.0208333333333333
 49
0.0
 49
0.0
 49
0.0
 49
0.0
 49
0.0208333333333333
 49
0.0
 49
0.0
 49
0.0
 49
0.0
 49
1.0
 49
0.0
 49
0.0
 49
0.0
 49
0.0
 49
1.0
175
     0
142
0.0208333333333333
142
0.0
142
0.0
142
0.0
142
0.0
142
0.0208333333333333
142
0.0
142
0.0
142
0.0
142
0.0
142
1.0
142
0.0
142
0.0
142
0.0
142
0.0
142
1.0
179
     0
144
0.0208333333333333
144
0.0
144
0.0
144
0.0
144
0.0
144
0.0208333333333333
144
0.0
144
0.0
144
0.0
144
0.0
144
1.0
144
0.0
144
0.0
144
0.0
144
0.0
144
1.0
147
0.0208333333333333
147
0.0
147
0.0
147
0.0
147
0.0
147
0.0208333333333333
147
0.0
147
0.0
147
0.0
147
0.0
147
1.0
147
0.0
147
0.0
147
0.0
147
0.0
147
1.0
  0
MATERIAL
  5
21
102
{ACAD_XDICTIONARY
360
22
102
}
102
{ACAD_REACTORS
330
10
102
}
330
10
100
AcDbMaterial
  1
Global
 72
     0
 43
0.0208333333333333
 43
0.0
 43
0.0
 43
0.0
 43
0.0
 43
0.0208333333333333
 43
0.0
 43
0.0
 43
0.0
 43
0.0
 43
1.0
 43
0.0
 43
0.0
 43
0.0
 43
0.0
 43
1.0
 77
     0
 47
0.0208333333333333
 47
0.0
 47
0.0
 47
0.0
 47
0.0
 47
0.0208333333333333
 47
0.0
 47
0.0
 47
0.0
 47
0.0
 47
1.0
 47
0.0
 47
0.0
 47
0.0
 47
0.0
 47
1.0
171
     0
 49
0.0208333333333333
 49
0.0
 49
0.0
 49
0.0
 49
0.0
 49
0.0208333333333333
 49
0.0
 49
0.0
 49
0.0
 49
0.0
 49
1.0
 49
0.0
 49
0.0
 49
0.0
 49
0.0
 49
1.0
175
     0
142
0.0208333333333333
142
0.0
142
0.0
142
0.0
142
0.0
142
0.0208333333333333
142
0.0
142
0.0
142
0.0
142
0.0
142
1.0
142
0.0
142
0.0
142
0.0
142
0.0
142
1.0
179
     0
144
0.0208333333333333
144
0.0
144
0.0
144
0.0
144
0.0
144
0.0208333333333333
144
0.0
144
0.0
144
0.0
144
0.0
144
1.0
144
0.0
144
0.0
144
0.0
144
0.0
144
1.0
147
0.0208333333333333
147
0.0
147
0.0
147
0.0
147
0.0
147
0.0208333333333333
147
0.0
147
0.0
147
0.0
147
0.0
147
1.0
147
0.0
147
0.0
147
0.0
147
0.0
147
1.0
  0
MLEADERSTYLE
  5
66
102
{ACAD_REACTORS
330
65
102
}
330
65
100
AcDbMLeaderStyle
170
     2
171
     1
172
     0
 90
        2
 40
0.0
 41
0.0
173
     1
 91
-1056964608
340
5A
 92
       -2
290
     1
 42
0.09
291
     1
 43
0.36
  3
Standard
 44
0.18
300

342
55
174
     1
178
     6
175
     1
176
     0
 93
-1056964608
 45
0.18
292
     0
297
     0
 46
0.18
 94
-1056964608
 47
1.0
 49
1.0
140
1.0
293
     1
141
0.0
294
     1
177
     0
142
1.0
295
     0
296
     0
143
0.125
1001
ACAD_MLEADERVER
1070
     2
  0
MLINESTYLE
  5
5F
102
{ACAD_REACTORS
330
5E
102
}
330
5E
100
AcDbMlineStyle
  2
STANDARD
 70
     0
  3

 62
   256
 51
90.0
 52
90.0
 71
     2
 49
0.5
 62
   256
  6
BYLAYER
 49
-0.5
 62
   256
  6
BYLAYER
  0
ACDBPLACEHOLDER
  5
F
102
{ACAD_REACTORS
330
E
102
}
330
E
  0
SCALE
  5
43
102
{ACAD_REACTORS
330
42
102
}
330
42
100
AcDbScale
 70
     0
300
1:1
140
1.0
141
1.0
290
     1
  0
SCALE
  5
44
102
{ACAD_REACTORS
330
42
102
}
330
42
100
AcDbScale
 70
     0
300
1/128" = 1'-0"
140
0.0078125
141
12.0
290
     0
  0
SCALE
  5
45
102
{ACAD_REACTORS
330
42
102
}
330
42
100
AcDbScale
 70
     0
300
1/64" = 1'-0"
140
0.015625
141
12.0
290
     0
  0
SCALE
  5
46
102
{ACAD_REACTORS
330
42
102
}
330
42
100
AcDbScale
 70
     0
300
1/32" = 1'-0"
140
0.03125
141
12.0
290
     0
  0
SCALE
  5
47
102
{ACAD_REACTORS
330
42
102
}
330
42
100
AcDbScale
 70
     0
300
1/16" = 1'-0"
140
0.0625
141
12.0
290
     0
  0
SCALE
  5
48
102
{ACAD_REACTORS
330
42
102
}
330
42
100
AcDbScale
 70
     0
300
3/32" = 1'-0"
140
0.09375
141
12.0
290
     0
  0
SCALE
  5
49
102
{ACAD_REACTORS
330
42
102
}
330
42
100
AcDbScale
 70
     0
300
1/8" = 1'-0"
140
0.125
141
12.0
290
     0
  0
SCALE
  5
4A
102
{ACAD_REACTORS
330
42
102
}
330
42
100
AcDbScale
 70
     0
300
3/16" = 1'-0"
140
0.1875
141
12.0
290
     0
  0
SCALE
  5
4B
102
{ACAD_REACTORS
330
42
102
}
330
42
100
AcDbScale
 70
     0
300
1/4" = 1'-0"
140
0.25
141
12.0
290
     0
  0
SCALE
  5
4C
102
{ACAD_REACTORS
330
42
102
}
330
42
100
AcDbScale
 70
     0
300
3/8" = 1'-0"
140
0.375
141
12.0
290
     0
  0
SCALE
  5
4D
102
{ACAD_REACTORS
330
42
102
}
330
42
100
AcDbScale
 70
     0
300
1/2" = 1'-0"
140
0.5
141
12.0
290
     0
  0
SCALE
  5
4E
102
{ACAD_REACTORS
330
42
102
}
330
42
100
AcDbScale
 70
     0
300
3/4" = 1'-0"
140
0.75
141
12.0
290
     0
  0
SCALE
  5
4F
102
{ACAD_REACTORS
330
42
102
}
330
42
100
AcDbScale
 70
     0
300
1" = 1'-0"
140
1.0
141
12.0
290
     0
  0
SCALE
  5
50
102
{ACAD_REACTORS
330
42
102
}
330
42
100
AcDbScale
 70
     0
300
1-1/2" = 1'-0"
140
1.5
141
12.0
290
     0
  0
SCALE
  5
51
102
{ACAD_REACTORS
330
42
102
}
330
42
100
AcDbScale
 70
     0
300
3" = 1'-0"
140
3.0
141
12.0
290
     0
  0
SCALE
  5
52
102
{ACAD_REACTORS
330
42
102
}
330
42
100
AcDbScale
 70
     0
300
6" = 1'-0"
140
6.0
141
12.0
290
     0
  0
SCALE
  5
53
102
{ACAD_REACTORS
330
42
102
}
330
42
100
AcDbScale
 70
     0
300
1'-0" = 1'-0"
140
12.0
141
12.0
290
     0
  0
TABLESTYLE
  5
64
102
{ACAD_XDICTIONARY
360
7DA
102
}
102
{ACAD_REACTORS
330
63
102
}
330
63
100
AcDbTableStyle
  3
Standard
 70
     0
 71
     0
 40
0.06
 41
0.06
280
     0
281
     0
  7
STANDARD
140
0.18
170
     2
 62
     0
 63
     7
283
     0
274
    -2
284
     1
 64
     0
275
    -2
285
     1
 65
     0
276
    -2
286
     1
 66
     0
277
    -2
287
     1
 67
     0
278
    -2
288
     1
 68
     0
279
    -2
289
     1
 69
     0
  7
STANDARD
140
0.25
170
     5
 62
     0
 63
     7
283
     0
274
    -2
284
     1
 64
     0
275
    -2
285
     1
 65
     0
276
    -2
286
     1
 66
     0
277
    -2
287
     1
 67
     0
278
    -2
288
     1
 68
     0
279
    -2
289
     1
 69
     0
  7
STANDARD
140
0.18
170
     5
 62
     0
 63
     7
283
     0
274
    -2
284
     1
 64
     0
275
    -2
285
     1
 65
     0
276
    -2
286
     1
 66
     0
277
    -2
287
     1
 67
     0
278
    -2
288
     1
 68
     0
279
    -2
289
     1
 69
     0
  0
VISUALSTYLE
  5
2F
102
{ACAD_XDICTIONARY
360
C79
102
}
102
{ACAD_REACTORS
330
29
102
}
330
29
100
AcDbVisualStyle
  2

 70
     4
 71
     0
 72
     2
 73
     0
 90
        0
 40
-0.6
 41
-30.0
 62
     5
 63
     7
 74
     1
 91
        4
 64
     7
 65
   257
 75
     1
175
     1
 42
1.0
 92
        0
 66
   257
 43
1.0
 76
     1
 77
     6
 78
     2
 67
     7
 79
     5
170
     0
171
     0
290
     0
174
     0
 93
        1
 44
0.0
173
     0
291
     0
 45
0.0
1001
ACAD
1000
AcDbSavedByObjectVersion
1070
     0
  0
VISUALSTYLE
  5
602
102
{ACAD_XDICTIONARY
360
CA4
102
}
102
{ACAD_REACTORS
330
29
102
}
330
29
100
AcDbVisualStyle
  2

 70
     5
 71
     0
 72
     2
 73
     1
 90
        0
 40
-0.6
 41
-30.0
 62
     5
 63
     7
 74
     1
 91
        4
 64
     7
 65
   257
 75
     1
175
     1
 42
1.0
 92
        0
 66
   257
 43
1.0
 76
     1
 77
     6
 78
     2
 67
     7
 79
     5
170
     0
171
     0
290
     0
174
     0
 93
        1
 44
0.0
173
     0
291
     0
 45
0.0
1001
ACAD
1000
AcDbSavedByObjectVersion
1070
     0
  0
VISUALSTYLE
  5
2E
102
{ACAD_XDICTIONARY
360
C77
102
}
102
{ACAD_REACTORS
330
29
102
}
330
29
100
AcDbVisualStyle
  2

 70
     7
 71
     1
 72
     0
 73
     1
 90
        0
 40
-0.6
 41
-30.0
 62
     5
 63
     7
 74
     0
 91
        4
 64
     7
 65
   257
 75
     1
175
     1
 42
1.0
 92
        8
 66
     7
 43
1.0
 76
     1
 77
     6
 78
     2
 67
     7
 79
     5
170
     0
171
     0
290
     0
174
     0
 93
        1
 44
0.0
173
     0
291
     1
 45
0.0
1001
ACAD
1000
AcDbSavedByObjectVersion
1070
     0
  0
VISUALSTYLE
  5
35
102
{ACAD_XDICTIONARY
360
C85
102
}
102
{ACAD_REACTORS
330
29
102
}
330
29
100
AcDbVisualStyle
  2

 70
    12
 71
     2
 72
     2
 73
     0
 90
        0
 40
-0.6
 41
-30.0
 62
     5
 63
     7
 74
     1
 91
        4
 64
     7
 65
   257
 75
     1
175
     1
 42
1.0
 92
        8
 66
     7
 43
1.0
 76
     1
 77
     6
 78
     2
 67
     7
 79
     5
170
     0
171
     0
290
     0
174
     0
 93
        1
 44
50.0
173
     0
291
     1
 45
0.0
1001
ACAD
1000
AcDbSavedByObjectVersion
1070
     0
  0
VISUALSTYLE
  5
39
102
{ACAD_XDICTIONARY
360
C8D
102
}
102
{ACAD_REACTORS
330
29
102
}
330
29
100
AcDbVisualStyle
  2

 70
    16
 71
     2
 72
     2
 73
     3
 90
        0
 40
-0.6
 41
-30.0
 62
     5
 63
     8
 74
     1
 91
        4
 64
     7
 65
   257
 75
     1
175
     1
 42
1.0
 92
        8
 66
     8
 43
1.0
 76
     1
 77
     6
 78
     2
 67
     7
 79
     5
170
     0
171
     0
290
     0
174
     0
 93
        1
 44
0.0
173
     0
291
     1
 45
0.0
1001
ACAD
1000
AcDbSavedByObjectVersion
1070
     0
  0
VISUALSTYLE
  5
32
102
{ACAD_XDICTIONARY
360
C7F
102
}
102
{ACAD_REACTORS
330
29
102
}
330
29
100
AcDbVisualStyle
  2

 70
     9
 71
     3
 72
     2
 73
     0
 90
        0
 40
-0.6
 41
-30.0
 62
     5
 63
     7
 74
     2
 91
        2
 64
     7
 65
   257
 75
     1
175
     1
 42
179.0
 92
        8
 66
     7
 43
1.0
 76
     1
 77
     6
 78
     2
 67
     7
 79
     3
170
     0
171
     0
290
     0
174
     0
 93
        1
 44
0.0
173
     0
291
     0
 45
0.0
1001
ACAD
1000
AcDbSavedByObjectVersion
1070
     0
  0
VISUALSTYLE
  5
34
102
{ACAD_XDICTIONARY
360
C83
102
}
102
{ACAD_REACTORS
330
29
102
}
330
29
100
AcDbVisualStyle
  2

 70
    11
 71
     2
 72
     2
 73
     0
 90
        0
 40
-0.6
 41
-30.0
 62
     5
 63
     7
 74
     1
 91
        4
 64
     7
 65
   257
 75
     1
175
     1
 42
1.0
 92
        8
 66
     7
 43
1.0
 76
     1
 77
     6
 78
     2
 67
     7
 79
     5
170
     0
171
     0
290
     0
174
     0
 93
        1
 44
-50.0
173
     0
291
     1
 45
0.0
1001
ACAD
1000
AcDbSavedByObjectVersion
1070
     0
  0
VISUALSTYLE
  5
41
102
{ACAD_XDICTIONARY
360
C9D
102
}
102
{ACAD_REACTORS
330
29
102
}
330
29
100
AcDbVisualStyle
  2

 70
    22
 71
     2
 72
     2
 73
     0
 90
        0
 40
-0.6
 41
-30.0
 62
     5
 63
     7
 74
     1
 91
        4
 64
     7
 65
   257
 75
     1
175
     1
 42
1.0
 92
        8
 66
     7
 43
1.0
 76
     1
 77
     6
 78
     2
 67
     7
 79
     5
170
     0
171
     0
290
     0
174
     0
 93
        1
 44
0.0
173
     0
291
     1
 45
0.0
1001
ACAD
1000
AcDbSavedByObjectVersion
1070
     0
  0
VISUALSTYLE
  5
38
102
{ACAD_XDICTIONARY
360
C8B
102
}
102
{ACAD_REACTORS
330
29
102
}
330
29
100
AcDbVisualStyle
  2

 70
    15
 71
     2
 72
     2
 73
     0
 90
        0
 40
-0.6
 41
-30.0
 62
     5
 63
     7
 74
     1
 91
        4
 64
     7
 65
   257
 75
     1
175
     1
 42
1.0
 92
        8
 66
     7
 43
1.0
 76
     1
 77
     6
 78
     2
 67
     7
 79
     5
170
     0
171
     0
290
     0
174
     0
 93
        1
 44
0.0
173
     0
291
     1
 45
0.0
1001
ACAD
1000
AcDbSavedByObjectVersion
1070
     0
  0
VISUALSTYLE
  5
2A
102
{ACAD_XDICTIONARY
360
C6F
102
}
102
{ACAD_REACTORS
330
29
102
}
330
29
100
AcDbVisualStyle
  2

 70
     0
 71
     2
 72
     1
 73
     1
 90
        2
 40
-0.6
 41
30.0
 62
     5
 63
     7
 74
     0
 91
        0
 64
     7
 65
   257
 75
     1
175
     1
 42
1.0
 92
        8
 66
     7
 43
1.0
 76
     1
 77
     6
 78
     2
 67
     7
 79
     5
170
     0
171
     0
290
     0
174
     0
 93
       13
 44
0.0
173
     0
291
     1
 45
0.0
1001
ACAD
1000
AcDbSavedByObjectVersion
1070
     0
  0
VISUALSTYLE
  5
2B
102
{ACAD_XDICTIONARY
360
C71
102
}
102
{ACAD_REACTORS
330
29
102
}
330
29
100
AcDbVisualStyle
  2

 70
     1
 71
     2
 72
     1
 73
     1
 90
        2
 40
-0.6
 41
30.0
 62
     5
 63
     7
 74
     1
 91
        0
 64
     7
 65
   257
 75
     1
175
     1
 42
1.0
 92
        0
 66
   257
 43
1.0
 76
     1
 77
     6
 78
     2
 67
     7
 79
     5
170
     0
171
     0
290
     0
174
     0
 93
       13
 44
0.0
173
     0
291
     1
 45
0.0
1001
ACAD
1000
AcDbSavedByObjectVersion
1070
     0
  0
VISUALSTYLE
  5
2C
102
{ACAD_XDICTIONARY
360
C73
102
}
102
{ACAD_REACTORS
330
29
102
}
330
29
100
AcDbVisualStyle
  2

 70
     2
 71
     2
 72
     2
 73
     1
 90
        2
 40
-0.6
 41
30.0
 62
     5
 63
     7
 74
     0
 91
        0
 64
     7
 65
   257
 75
     1
175
     1
 42
1.0
 92
        0
 66
     7
 43
1.0
 76
     1
 77
     6
 78
     2
 67
     7
 79
     5
170
     0
171
     0
290
     0
174
     0
 93
       13
 44
0.0
173
     0
291
     1
 45
0.0
1001
ACAD
1000
AcDbSavedByObjectVersion
1070
     0
  0
VISUALSTYLE
  5
2D
102
{ACAD_XDICTIONARY
360
C75
102
}
102
{ACAD_REACTORS
330
29
102
}
330
29
100
AcDbVisualStyle
  2

 70
     3
 71
     2
 72
     2
 73
     1
 90
        2
 40
-0.6
 41
30.0
 62
     5
 63
     7
 74
     1
 91
        0
 64
     7
 65
   257
 75
     1
175
     1
 42
1.0
 92
        0
 66
   257
 43
1.0
 76
     1
 77
     6
 78
     2
 67
     7
 79
     5
170
     0
171
     0
290
     0
174
     0
 93
       13
 44
0.0
173
     0
291
     1
 45
0.0
1001
ACAD
1000
AcDbSavedByObjectVersion
1070
     0
  0
VISUALSTYLE
  5
31
102
{ACAD_XDICTIONARY
360
C7D
102
}
102
{ACAD_REACTORS
330
29
102
}
330
29
100
AcDbVisualStyle
  2

 70
     6
 71
     1
 72
     2
 73
     2
 90
        0
 40
-0.6
 41
-30.0
 62
     5
 63
     7
 74
     2
 91
        2
 64
     7
 65
   257
 75
     2
175
     1
 42
40.0
 92
        0
 66
   257
 43
1.0
 76
     1
 77
     6
 78
     2
 67
     7
 79
     3
170
     0
171
     0
290
     0
174
     0
 93
        1
 44
0.0
173
     0
291
     0
 45
0.0
1001
ACAD
1000
AcDbSavedByObjectVersion
1070
     0
  0
VISUALSTYLE
  5
3F
102
{ACAD_XDICTIONARY
360
C99
102
}
102
{ACAD_REACTORS
330
29
102
}
330
29
100
AcDbVisualStyle
  2

 70
    20
 71
     2
 72
     2
 73
     0
 90
        0
 40
-0.6
 41
-30.0
 62
     5
 63
     7
 74
     1
 91
        4
 64
     7
 65
   257
 75
     1
175
     1
 42
1.0
 92
       10
 66
     7
 43
1.0
 76
     1
 77
     6
 78
     2
 67
     7
 79
     5
170
     0
171
     0
290
     0
174
     0
 93
        1
 44
0.0
173
     0
291
     1
 45
0.0
1001
ACAD
1000
AcDbSavedByObjectVersion
1070
     0
  0
VISUALSTYLE
  5
37
102
{ACAD_XDICTIONARY
360
C89
102
}
102
{ACAD_REACTORS
330
29
102
}
330
29
100
AcDbVisualStyle
  2

 70
    14
 71
     2
 72
     2
 73
     0
 90
        0
 40
-0.6
 41
-30.0
 62
     5
 63
     7
 74
     1
 91
        4
 64
     7
 65
   257
 75
     7
175
     7
 42
1.0
 92
        8
 66
     7
 43
1.0
 76
     1
 77
     6
 78
     2
 67
     7
 79
     5
170
     0
171
     0
290
     0
174
     0
 93
        1
 44
0.0
173
     0
291
     1
 45
0.0
1001
ACAD
1000
AcDbSavedByObjectVersion
1070
     0
  0
VISUALSTYLE
  5
40
102
{ACAD_XDICTIONARY
360
C9B
102
}
102
{ACAD_REACTORS
330
29
102
}
330
29
100
AcDbVisualStyle
  2

 70
    21
 71
     2
 72
     2
 73
     0
 90
        0
 40
-0.6
 41
-30.0
 62
     5
 63
     7
 74
     1
 91
        4
 64
     7
 65
   257
 75
     1
175
     1
 42
1.0
 92
        9
 66
     7
 43
1.0
 76
     1
 77
     6
 78
     2
 67
     7
 79
     5
170
     0
171
     0
290
     0
174
     0
 93
        1
 44
0.0
173
     0
291
     1
 45
0.0
1001
ACAD
1000
AcDbSavedByObjectVersion
1070
     0
  0
VISUALSTYLE
  5
33
102
{ACAD_XDICTIONARY
360
C81
102
}
102
{ACAD_REACTORS
330
29
102
}
330
29
100
AcDbVisualStyle
  2

 70
     8
 71
     2
 72
     3
 73
     0
 90
        2
 40
-0.6
 41
30.0
 62
     5
 63
     7
 74
     0
 91
        0
 64
     7
 65
   257
 75
     1
175
     1
 42
1.0
 92
        8
 66
   257
 43
1.0
 76
     1
 77
     6
 78
     2
 67
     7
 79
     3
170
     0
171
     0
290
     0
174
     0
 93
       13
 44
0.0
173
     0
291
     0
 45
0.0
1001
ACAD
1000
AcDbSavedByObjectVersion
1070
     0
  0
VISUALSTYLE
  5
3E
102
{ACAD_XDICTIONARY
360
C97
102
}
102
{ACAD_REACTORS
330
29
102
}
330
29
100
AcDbVisualStyle
  2

 70
    27
 71
     2
 72
     2
 73
     1
 90
        2
 40
-0.6
 41
30.0
 62
     5
 63
     7
 74
     0
 91
        4
 64
     7
 65
   257
 75
     1
175
     1
 42
1.0
 92
        8
 66
   257
 43
1.0
 76
     1
 77
     6
 78
     2
 67
     8
 79
     3
170
     0
171
     0
290
     0
174
     0
 93
        5
 44
0.0
173
     0
291
     0
 45
0.0
1001
ACAD
1000
AcDbSavedByObjectVersion
1070
     0
  0
VISUALSTYLE
  5
3D
102
{ACAD_XDICTIONARY
360
C95
102
}
102
{ACAD_REACTORS
330
29
102
}
330
29
100
AcDbVisualStyle
  2

 70
    26
 71
     2
 72
     2
 73
     1
 90
        2
 40
-0.6
 41
30.0
 62
     5
 63
     7
 74
     1
 91
       10
 64
     7
 65
   257
 75
     2
175
     1
 42
1.0
 92
        8
 66
   257
 43
1.0
 76
     1
 77
     6
 78
     2
 67
     7
 79
     3
170
     0
171
     0
290
     0
174
     0
 93
        5
 44
0.0
173
     0
291
     0
 45
0.0
1001
ACAD
1000
AcDbSavedByObjectVersion
1070
     0
  0
VISUALSTYLE
  5
3A
102
{ACAD_XDICTIONARY
360
C8F
102
}
102
{ACAD_REACTORS
330
29
102
}
330
29
100
AcDbVisualStyle
  2

 70
    23
 71
     2
 72
     2
 73
     3
 90
        0
 40
-0.6
 41
-30.0
 62
     5
 63
     7
 74
     2
 91
        2
 64
     7
 65
     7
 75
     1
175
     1
 42
40.0
 92
        8
 66
     7
 43
1.0
 76
     1
 77
     6
 78
     2
 67
     7
 79
     3
170
     0
171
     0
290
     0
174
     0
 93
        1
 44
0.0
173
     0
291
     0
 45
0.0
1001
ACAD
1000
AcDbSavedByObjectVersion
1070
     0
  0
VISUALSTYLE
  5
3B
102
{ACAD_XDICTIONARY
360
C91
102
}
102
{ACAD_REACTORS
330
29
102
}
330
29
100
AcDbVisualStyle
  2

 70
    24
 71
     1
 72
     2
 73
     2
 90
        0
 40
-0.6
 41
-30.0
 62
     5
 63
     7
 74
     2
 91
        2
 64
     7
 65
     7
 75
     1
175
     1
 42
40.0
 92
       11
 66
     7
 43
1.0
 76
     1
 77
     6
 78
     2
 67
     7
 79
     6
170
     0
171
     0
290
     0
174
     0
 93
        1
 44
0.0
173
     0
291
     0
 45
0.0
1001
ACAD
1000
AcDbSavedByObjectVersion
1070
     0
  0
VISUALSTYLE
  5
36
102
{ACAD_XDICTIONARY
360
C87
102
}
102
{ACAD_REACTORS
330
29
102
}
330
29
100
AcDbVisualStyle
  2

 70
    13
 71
     2
 72
     2
 73
     0
 90
        0
 40
-0.6
 41
-30.0
 62
     5
 63
     7
 74
     1
 91
        4
 64
     7
 65
   257
 75
     1
175
     1
 42
1.0
 92
       12
 66
     7
 43
1.0
 76
     1
 77
     6
 78
     2
 67
     7
 79
     5
170
     0
171
     0
290
     0
174
     0
 93
        1
 44
0.0
173
     0
291
     1
 45
0.0
1001
ACAD
1000
AcDbSavedByObjectVersion
1070
     0
  0
VISUALSTYLE
  5
30
102
{ACAD_XDICTIONARY
360
C7B
102
}
102
{ACAD_REACTORS
330
29
102
}
330
29
100
AcDbVisualStyle
  2

 70
     5
 71
     0
 72
     2
 73
     0
 90
        0
 40
-0.6
 41
-30.0
 62
     5
 63
     7
 74
     1
 91
        4
 64
     7
 65
   257
 75
     1
175
     1
 42
1.0
 92
        0
 66
   257
 43
1.0
 76
     1
 77
     6
 78
     2
 67
     7
 79
     3
170
     0
171
     0
290
     0
174
     0
 93
        1
 44
0.0
173
     0
291
     0
 45
0.0
1001
ACAD
1000
AcDbSavedByObjectVersion
1070
     0
  0
VISUALSTYLE
  5
3C
102
{ACAD_XDICTIONARY
360
C93
102
}
102
{ACAD_REACTORS
330
29
102
}
330
29
100
AcDbVisualStyle
  2

 70
    25
 71
     2
 72
     2
 73
     1
 90
        1
 40
0.5
 41
-30.0
 62
     5
 63
     7
 74
     1
 91
        0
 64
     7
 65
   257
 75
     1
175
     1
 42
1.0
 92
        8
 66
     7
 43
1.0
 76
     1
 77
     6
 78
     2
 67
     7
 79
     3
170
     0
171
     0
290
     0
174
     0
 93
       13
 44
0.0
173
     0
291
     0
 45
0.0
1001
ACAD
1000
AcDbSavedByObjectVersion
1070
     0
  0
DICTIONARYVAR
  5
7D5
102
{ACAD_REACTORS
330
7D2
102
}
330
7D2
100
DictionaryVariables
280
     0
  1
1:1
  0
DICTIONARYVAR
  5
7D4
102
{ACAD_REACTORS
330
7D2
102
}
330
7D2
100
DictionaryVariables
280
     0
  1
STANDARD
  0
DICTIONARYVAR
  5
7D3
102
{ACAD_REACTORS
330
7D2
102
}
330
7D2
100
DictionaryVariables
280
     0
  1
STANDARD
  0
DICTIONARYVAR
  5
7D8
102
{ACAD_REACTORS
330
7D2
102
}
330
7D2
100
DictionaryVariables
280
     0
  1
1
  0
DICTIONARYVAR
  5
7D7
102
{ACAD_REACTORS
330
7D2
102
}
330
7D2
100
DictionaryVariables
280
     0
  1
0
  0
DICTIONARYVAR
  5
7D6
102
{ACAD_REACTORS
330
7D2
102
}
330
7D2
100
DictionaryVariables
280
     0
  1
127
  0
DICTIONARYVAR
  5
B74
102
{ACAD_REACTORS
330
7D2
102
}
330
7D2
100
DictionaryVariables
280
     0
  1
2
  0
DICTIONARY
  5
CA2
330
6E
100
AcDbDictionary
280
     1
281
     1
  3
ACAD_XREC_ROUNDTRIP
360
CA3
  0
DICTIONARY
  5
CA0
330
6A
100
AcDbDictionary
280
     1
281
     1
  3
ACAD_XREC_ROUNDTRIP
360
CA1
  0
DICTIONARY
  5
1A
330
19
100
AcDbDictionary
280
     1
281
     1
  3
ACAD_XREC_ROUNDTRIP
360
7E4
  3
BUMPTILE
360
1C
  3
DIFFUSETILE
360
1B
  3
OPACITYTILE
360
1F
  3
REFLECTIONTILE
360
1E
  3
REFRACTIONTILE
360
20
  3
SPECULARTILE
360
1D
  0
DICTIONARY
  5
12
330
11
100
AcDbDictionary
280
     1
281
     1
  3
ACAD_XREC_ROUNDTRIP
360
7E3
  3
BUMPTILE
360
14
  3
DIFFUSETILE
360
13
  3
OPACITYTILE
360
17
  3
REFLECTIONTILE
360
16
  3
REFRACTIONTILE
360
18
  3
SPECULARTILE
360
15
  0
DICTIONARY
  5
22
330
21
100
AcDbDictionary
280
     1
281
     1
  3
ACAD_XREC_ROUNDTRIP
360
7E5
  3
BUMPTILE
360
24
  3
DIFFUSETILE
360
23
  3
OPACITYTILE
360
27
  3
REFLECTIONTILE
360
26
  3
REFRACTIONTILE
360
28
  3
SPECULARTILE
360
25
  0
DICTIONARY
  5
7DA
330
64
100
AcDbDictionary
280
     1
281
     1
  3
ACAD_ROUNDTRIP_2008_TABLESTYLE_CELLSTYLEMAP
360
C68
  3
ACAD_XREC_ROUNDTRIP
360
C9F
  0
DICTIONARY
  5
C79
330
2F
100
AcDbDictionary
280
     1
281
     1
  3
ACAD_XREC_ROUNDTRIP
360
C7A
  0
DICTIONARY
  5
CA4
330
602
100
AcDbDictionary
280
     1
281
     1
  3
ACAD_XREC_ROUNDTRIP
360
CA5
  0
DICTIONARY
  5
C77
330
2E
100
AcDbDictionary
280
     1
281
     1
  3
ACAD_XREC_ROUNDTRIP
360
C78
  0
DICTIONARY
  5
C85
330
35
100
AcDbDictionary
280
     1
281
     1
  3
ACAD_XREC_ROUNDTRIP
360
C86
  0
DICTIONARY
  5
C8D
330
39
100
AcDbDictionary
280
     1
281
     1
  3
ACAD_XREC_ROUNDTRIP
360
C8E
  0
DICTIONARY
  5
C7F
330
32
100
AcDbDictionary
280
     1
281
     1
  3
ACAD_XREC_ROUNDTRIP
360
C80
  0
DICTIONARY
  5
C83
330
34
100
AcDbDictionary
280
     1
281
     1
  3
ACAD_XREC_ROUNDTRIP
360
C84
  0
DICTIONARY
  5
C9D
330
41
100
AcDbDictionary
280
     1
281
     1
  3
ACAD_XREC_ROUNDTRIP
360
C9E
  0
DICTIONARY
  5
C8B
330
38
100
AcDbDictionary
280
     1
281
     1
  3
ACAD_XREC_ROUNDTRIP
360
C8C
  0
DICTIONARY
  5
C6F
330
2A
100
AcDbDictionary
280
     1
281
     1
  3
ACAD_XREC_ROUNDTRIP
360
C70
  0
DICTIONARY
  5
C71
330
2B
100
AcDbDictionary
280
     1
281
     1
  3
ACAD_XREC_ROUNDTRIP
360
C72
  0
DICTIONARY
  5
C73
330
2C
100
AcDbDictionary
280
     1
281
     1
  3
ACAD_XREC_ROUNDTRIP
360
C74
  0
DICTIONARY
  5
C75
330
2D
100
AcDbDictionary
280
     1
281
     1
  3
ACAD_XREC_ROUNDTRIP
360
C76
  0
DICTIONARY
  5
C7D
330
31
100
AcDbDictionary
280
     1
281
     1
  3
ACAD_XREC_ROUNDTRIP
360
C7E
  0
DICTIONARY
  5
C99
330
3F
100
AcDbDictionary
280
     1
281
     1
  3
ACAD_XREC_ROUNDTRIP
360
C9A
  0
DICTIONARY
  5
C89
330
37
100
AcDbDictionary
280
     1
281
     1
  3
ACAD_XREC_ROUNDTRIP
360
C8A
  0
DICTIONARY
  5
C9B
330
40
100
AcDbDictionary
280
     1
281
     1
  3
ACAD_XREC_ROUNDTRIP
360
C9C
  0
DICTIONARY
  5
C81
330
33
100
AcDbDictionary
280
     1
281
     1
  3
ACAD_XREC_ROUNDTRIP
360
C82
  0
DICTIONARY
  5
C97
330
3E
100
AcDbDictionary
280
     1
281
     1
  3
ACAD_XREC_ROUNDTRIP
360
C98
  0
DICTIONARY
  5
C95
330
3D
100
AcDbDictionary
280
     1
281
     1
  3
ACAD_XREC_ROUNDTRIP
360
C96
  0
DICTIONARY
  5
C8F
330
3A
100
AcDbDictionary
280
     1
281
     1
  3
ACAD_XREC_ROUNDTRIP
360
C90
  0
DICTIONARY
  5
C91
330
3B
100
AcDbDictionary
280
     1
281
     1
  3
ACAD_XREC_ROUNDTRIP
360
C92
  0
DICTIONARY
  5
C87
330
36
100
AcDbDictionary
280
     1
281
     1
  3
ACAD_XREC_ROUNDTRIP
360
C88
  0
DICTIONARY
  5
C7B
330
30
100
AcDbDictionary
280
     1
281
     1
  3
ACAD_XREC_ROUNDTRIP
360
C7C
  0
DICTIONARY
  5
C93
330
3C
100
AcDbDictionary
280
     1
281
     1
  3
ACAD_XREC_ROUNDTRIP
360
C94
  0
XRECORD
  5
CA3
102
{ACAD_REACTORS
330
CA2
102
}
330
CA2
100
AcDbXrecord
280
     1
102
SHADEPLOT
 70
     0
102
SHADEPLOTRESLEVEL
 70
     2
102
SHADEPLOTCUSTOMDPI
 70
   300
  0
XRECORD
  5
CA1
102
{ACAD_REACTORS
330
CA0
102
}
330
CA0
100
AcDbXrecord
280
     1
102
SHADEPLOT
 70
     0
102
SHADEPLOTRESLEVEL
 70
     2
102
SHADEPLOTCUSTOMDPI
 70
   300
  0
XRECORD
  5
7E4
102
{ACAD_REACTORS
330
1A
102
}
330
1A
100
AcDbXrecord
280
     1
102
MATERIAL
148
0.0
149
0.0
149
0.0
 93
        0
 94
      127
282
     0
 72
     0
 77
     0
171
     0
175
     0
179
     0
273
     0
  0
XRECORD
  5
1C
102
{ACAD_REACTORS
330
1A
102
}
330
1A
100
AcDbXrecord
280
     1
270
     1
271
     1
  0
XRECORD
  5
1B
102
{ACAD_REACTORS
330
1A
102
}
330
1A
100
AcDbXrecord
280
     1
270
     1
271
     1
  0
XRECORD
  5
1F
102
{ACAD_REACTORS
330
1A
102
}
330
1A
100
AcDbXrecord
280
     1
270
     1
271
     1
  0
XRECORD
  5
1E
102
{ACAD_REACTORS
330
1A
102
}
330
1A
100
AcDbXrecord
280
     1
270
     1
271
     1
  0
XRECORD
  5
20
102
{ACAD_REACTORS
330
1A
102
}
330
1A
100
AcDbXrecord
280
     1
270
     1
271
     1
  0
XRECORD
  5
1D
102
{ACAD_REACTORS
330
1A
102
}
330
1A
100
AcDbXrecord
280
     1
270
     1
271
     1
  0
XRECORD
  5
7E3
102
{ACAD_REACTORS
330
12
102
}
330
12
100
AcDbXrecord
280
     1
102
MATERIAL
148
0.0
149
0.0
149
0.0
 93
        0
 94
      127
282
     0
 72
     0
 77
     0
171
     0
175
     0
179
     0
273
     0
  0
XRECORD
  5
14
102
{ACAD_REACTORS
330
12
102
}
330
12
100
AcDbXrecord
280
     1
270
     1
271
     1
  0
XRECORD
  5
13
102
{ACAD_REACTORS
330
12
102
}
330
12
100
AcDbXrecord
280
     1
270
     1
271
     1
  0
XRECORD
  5
17
102
{ACAD_REACTORS
330
12
102
}
330
12
100
AcDbXrecord
280
     1
270
     1
271
     1
  0
XRECORD
  5
16
102
{ACAD_REACTORS
330
12
102
}
330
12
100
AcDbXrecord
280
     1
270
     1
271
     1
  0
XRECORD
  5
18
102
{ACAD_REACTORS
330
12
102
}
330
12
100
AcDbXrecord
280
     1
270
     1
271
     1
  0
XRECORD
  5
15
102
{ACAD_REACTORS
330
12
102
}
330
12
100
AcDbXrecord
280
     1
270
     1
271
     1
  0
XRECORD
  5
7E5
102
{ACAD_REACTORS
330
22
102
}
330
22
100
AcDbXrecord
280
     1
102
MATERIAL
148
0.0
149
0.0
149
0.0
 93
        0
 94
      127
282
     0
 72
     0
 77
     0
171
     0
175
     0
179
     0
273
     0
  0
XRECORD
  5
24
102
{ACAD_REACTORS
330
22
102
}
330
22
100
AcDbXrecord
280
     1
270
     1
271
     1
  0
XRECORD
  5
23
102
{ACAD_REACTORS
330
22
102
}
330
22
100
AcDbXrecord
280
     1
270
     1
271
     1
  0
XRECORD
  5
27
102
{ACAD_REACTORS
330
22
102
}
330
22
100
AcDbXrecord
280
     1
270
     1
271
     1
  0
XRECORD
  5
26
102
{ACAD_REACTORS
330
22
102
}
330
22
100
AcDbXrecord
280
     1
270
     1
271
     1
  0
XRECORD
  5
28
102
{ACAD_REACTORS
330
22
102
}
330
22
100
AcDbXrecord
280
     1
270
     1
271
     1
  0
XRECORD
  5
25
102
{ACAD_REACTORS
330
22
102
}
330
22
100
AcDbXrecord
280
     1
270
     1
271
     1
  0
CELLSTYLEMAP
  5
C68
102
{ACAD_REACTORS
330
7DA
102
}
330
7DA
100
AcDbCellStyleMap
 90
        3
300
CELLSTYLE
  1
TABLEFORMAT_BEGIN
 90
        5
170
     1
 91
        0
 92
    32768
 62
   257
 93
        1
300
CONTENTFORMAT
  1
CONTENTFORMAT_BEGIN
 90
        0
 91
        0
 92
      512
 93
        0
300

 40
0.0
140
1.0
 94
        5
 62
     0
340
55
144
0.25
309
CONTENTFORMAT_END
171
     1
301
MARGIN
  1
CELLMARGIN_BEGIN
 40
0.06
 40
0.06
 40
0.06
 40
0.06
 40
0.18
 40
0.18
309
CELLMARGIN_END
 94
        6
 95
        1
302
GRIDFORMAT
  1
GRIDFORMAT_BEGIN
 90
        0
 91
        1
 62
     0
 92
       -2
340
0
 93
        0
 40
0.045
309
GRIDFORMAT_END
 95
        2
302
GRIDFORMAT
  1
GRIDFORMAT_BEGIN
 90
        0
 91
        1
 62
     0
 92
       -2
340
0
 93
        0
 40
0.045
309
GRIDFORMAT_END
 95
        4
302
GRIDFORMAT
  1
GRIDFORMAT_BEGIN
 90
        0
 91
        1
 62
     0
 92
       -2
340
0
 93
        0
 40
0.045
309
GRIDFORMAT_END
 95
        8
302
GRIDFORMAT
  1
GRIDFORMAT_BEGIN
 90
        0
 91
        1
 62
     0
 92
       -2
340
0
 93
        0
 40
0.045
309
GRIDFORMAT_END
 95
       16
302
GRIDFORMAT
  1
GRIDFORMAT_BEGIN
 90
        0
 91
        1
 62
     0
 92
       -2
340
0
 93
        0
 40
0.045
309
GRIDFORMAT_END
 95
       32
302
GRIDFORMAT
  1
GRIDFORMAT_BEGIN
 90
        0
 91
        1
 62
     0
 92
       -2
340
0
 93
        0
 40
0.045
309
GRIDFORMAT_END
309
TABLEFORMAT_END
  1
CELLSTYLE_BEGIN
 90
        1
 91
        1
300
_TITLE
309
CELLSTYLE_END
300
CELLSTYLE
  1
TABLEFORMAT_BEGIN
 90
        5
170
     1
 91
        0
 92
        0
 62
   257
 93
        1
300
CONTENTFORMAT
  1
CONTENTFORMAT_BEGIN
 90
        0
 91
        0
 92
      512
 93
        0
300

 40
0.0
140
1.0
 94
        5
 62
     0
340
55
144
0.18
309
CONTENTFORMAT_END
171
     1
301
MARGIN
  1
CELLMARGIN_BEGIN
 40
0.06
 40
0.06
 40
0.06
 40
0.06
 40
0.18
 40
0.18
309
CELLMARGIN_END
 94
        6
 95
        1
302
GRIDFORMAT
  1
GRIDFORMAT_BEGIN
 90
        0
 91
        1
 62
     0
 92
       -2
340
0
 93
        0
 40
0.045
309
GRIDFORMAT_END
 95
        2
302
GRIDFORMAT
  1
GRIDFORMAT_BEGIN
 90
        0
 91
        1
 62
     0
 92
       -2
340
0
 93
        0
 40
0.045
309
GRIDFORMAT_END
 95
        4
302
GRIDFORMAT
  1
GRIDFORMAT_BEGIN
 90
        0
 91
        1
 62
     0
 92
       -2
340
0
 93
        0
 40
0.045
309
GRIDFORMAT_END
 95
        8
302
GRIDFORMAT
  1
GRIDFORMAT_BEGIN
 90
        0
 91
        1
 62
     0
 92
       -2
340
0
 93
        0
 40
0.045
309
GRIDFORMAT_END
 95
       16
302
GRIDFORMAT
  1
GRIDFORMAT_BEGIN
 90
        0
 91
        1
 62
     0
 92
       -2
340
0
 93
        0
 40
0.045
309
GRIDFORMAT_END
 95
       32
302
GRIDFORMAT
  1
GRIDFORMAT_BEGIN
 90
        0
 91
        1
 62
     0
 92
       -2
340
0
 93
        0
 40
0.045
309
GRIDFORMAT_END
309
TABLEFORMAT_END
  1
CELLSTYLE_BEGIN
 90
        2
 91
        1
300
_HEADER
309
CELLSTYLE_END
300
CELLSTYLE
  1
TABLEFORMAT_BEGIN
 90
        5
170
     1
 91
        0
 92
        0
 62
   257
 93
        1
300
CONTENTFORMAT
  1
CONTENTFORMAT_BEGIN
 90
        0
 91
        0
 92
      512
 93
        0
300

 40
0.0
140
1.0
 94
        2
 62
     0
340
55
144
0.18
309
CONTENTFORMAT_END
171
     1
301
MARGIN
  1
CELLMARGIN_BEGIN
 40
0.06
 40
0.06
 40
0.06
 40
0.06
 40
0.18
 40
0.18
309
CELLMARGIN_END
 94
        6
 95
        1
302
GRIDFORMAT
  1
GRIDFORMAT_BEGIN
 90
        0
 91
        1
 62
     0
 92
       -2
340
0
 93
        0
 40
0.045
309
GRIDFORMAT_END
 95
        2
302
GRIDFORMAT
  1
GRIDFORMAT_BEGIN
 90
        0
 91
        1
 62
     0
 92
       -2
340
0
 93
        0
 40
0.045
309
GRIDFORMAT_END
 95
        4
302
GRIDFORMAT
  1
GRIDFORMAT_BEGIN
 90
        0
 91
        1
 62
     0
 92
       -2
340
0
 93
        0
 40
0.045
309
GRIDFORMAT_END
 95
        8
302
GRIDFORMAT
  1
GRIDFORMAT_BEGIN
 90
        0
 91
        1
 62
     0
 92
       -2
340
0
 93
        0
 40
0.045
309
GRIDFORMAT_END
 95
       16
302
GRIDFORMAT
  1
GRIDFORMAT_BEGIN
 90
        0
 91
        1
 62
     0
 92
       -2
340
0
 93
        0
 40
0.045
309
GRIDFORMAT_END
 95
       32
302
GRIDFORMAT
  1
GRIDFORMAT_BEGIN
 90
        0
 91
        1
 62
     0
 92
       -2
340
0
 93
        0
 40
0.045
309
GRIDFORMAT_END
309
TABLEFORMAT_END
  1
CELLSTYLE_BEGIN
 90
        3
 91
        2
300
_DATA
309
CELLSTYLE_END
  0
XRECORD
  5
C9F
102
{ACAD_REACTORS
330
7DA
102
}
330
7DA
100
AcDbXrecord
280
     1
102
ACAD_ROUNDTRIP_PRE2007_TABLESTYLE
 90
      512
 91
        0
  1

 92
      512
 93
        0
  2

 94
      512
 95
        0
  3

  0
XRECORD
  5
C7A
102
{ACAD_REACTORS
330
C79
102
}
330
C79
100
AcDbXrecord
280
     1
102
RTVSPropertyOp0
 70
     1
102
RTVSPropertyOp1
 70
     1
102
RTVSPropertyOp2
 70
     1
102
RTVSPropertyOp3
 70
     1
102
RTVSPropertyOp4
 70
     1
102
RTVSPropertyOp5
 70
     1
102
RTVSPropertyOp6
 70
     1
102
RTVSPropertyOp7
 70
     1
102
RTVSPropertyOp8
 70
     1
102
RTVSPropertyOp9
 70
     1
102
RTVSPropertyOp10
 70
     1
102
RTVSPropertyOp11
 70
     1
102
RTVSPropertyOp12
 70
     1
102
RTVSPropertyOp13
 70
     1
102
RTVSPropertyOp14
 70
     1
102
RTVSPropertyOp15
 70
     1
102
RTVSPropertyOp16
 70
     1
102
RTVSPropertyOp17
 70
     1
102
RTVSPropertyOp18
 70
     1
102
RTVSPropertyOp19
 70
     1
102
RTVSPropertyOp20
 70
     1
102
RTVSPropertyOp21
 70
     1
102
RTVSPropertyOp22
 70
     1
102
RTVSPropertyOp23
 70
     1
102
RTVSPropertyOp24
 70
     1
102
RTVSPropertyOp25
 70
     1
102
RTVSPropertyOp26
 70
     1
102
RTVSPropertyOp27
 70
     1
102
RTVSPropertyOp28
 70
     1
102
RTVSPropertyOp29
 70
     1
102
RTVSPropertyOp30
 70
     1
102
RTVSPropertyOp31
 70
     1
102
RTVSPropertyOp32
 70
     1
  0
XRECORD
  5
CA5
102
{ACAD_REACTORS
330
CA4
102
}
330
CA4
100
AcDbXrecord
280
     1
102
RTVSPropertyOp0
 70
     1
102
RTVSPropertyOp1
 70
     1
102
RTVSPropertyOp2
 70
     1
102
RTVSPropertyOp3
 70
     1
102
RTVSPropertyOp4
 70
     1
102
RTVSPropertyOp5
 70
     1
102
RTVSPropertyOp6
 70
     1
102
RTVSPropertyOp7
 70
     1
102
RTVSPropertyOp8
 70
     1
102
RTVSPropertyOp9
 70
     1
102
RTVSPropertyOp10
 70
     1
102
RTVSPropertyOp11
 70
     1
102
RTVSPropertyOp12
 70
     1
102
RTVSPropertyOp13
 70
     1
102
RTVSPropertyOp14
 70
     1
102
RTVSPropertyOp15
 70
     1
102
RTVSPropertyOp16
 70
     1
102
RTVSPropertyOp17
 70
     1
102
RTVSPropertyOp18
 70
     1
102
RTVSPropertyOp19
 70
     1
102
RTVSPropertyOp20
 70
     1
102
RTVSPropertyOp21
 70
     1
102
RTVSPropertyOp22
 70
     1
102
RTVSPropertyOp23
 70
     1
102
RTVSPropertyOp24
 70
     1
102
RTVSPropertyOp25
 70
     1
102
RTVSPropertyOp26
 70
     1
102
RTVSPropertyOp27
 70
     1
102
RTVSPropertyOp28
 70
     1
102
RTVSPropertyOp29
 70
     1
102
RTVSPropertyOp30
 70
     1
102
RTVSPropertyOp31
 70
     1
102
RTVSPropertyOp32
 70
     1
  0
XRECORD
  5
C78
102
{ACAD_REACTORS
330
C77
102
}
330
C77
100
AcDbXrecord
280
     1
102
RTVSPropertyOp0
 70
     1
102
RTVSPropertyOp1
 70
     1
102
RTVSPropertyOp2
 70
     1
102
RTVSPropertyOp3
 70
     1
102
RTVSPropertyOp4
 70
     1
102
RTVSPropertyOp5
 70
     1
102
RTVSPropertyOp6
 70
     1
102
RTVSPropertyOp7
 70
     1
102
RTVSPropertyOp8
 70
     1
102
RTVSPropertyOp9
 70
     1
102
RTVSPropertyOp10
 70
     1
102
RTVSPropertyOp11
 70
     1
102
RTVSPropertyOp12
 70
     1
102
RTVSPropertyOp13
 70
     1
102
RTVSPropertyOp14
 70
     1
102
RTVSPropertyOp15
 70
     1
102
RTVSPropertyOp16
 70
     1
102
RTVSPropertyOp17
 70
     1
102
RTVSPropertyOp18
 70
     1
102
RTVSPropertyOp19
 70
     1
102
RTVSPropertyOp20
 70
     1
102
RTVSPropertyOp21
 70
     1
102
RTVSPropertyOp22
 70
     1
102
RTVSPropertyOp23
 70
     1
102
RTVSPropertyOp24
 70
     1
102
RTVSPropertyOp25
 70
     1
102
RTVSPropertyOp26
 70
     1
102
RTVSPropertyOp27
 70
     1
102
RTVSPropertyOp28
 70
     1
102
RTVSPropertyOp29
 70
     1
102
RTVSPropertyOp30
 70
     1
102
RTVSPropertyOp31
 70
     1
102
RTVSPropertyOp32
 70
     1
  0
XRECORD
  5
C86
102
{ACAD_REACTORS
330
C85
102
}
330
C85
100
AcDbXrecord
280
     1
102
RTVSPropertyOp0
 70
     1
102
RTVSPropertyOp1
 70
     1
102
RTVSPropertyOp2
 70
     1
102
RTVSPropertyOp3
 70
     1
102
RTVSPropertyOp4
 70
     1
102
RTVSPropertyOp5
 70
     1
102
RTVSPropertyOp6
 70
     1
102
RTVSPropertyOp7
 70
     1
102
RTVSPropertyOp8
 70
     1
102
RTVSPropertyOp9
 70
     1
102
RTVSPropertyOp10
 70
     1
102
RTVSPropertyOp11
 70
     1
102
RTVSPropertyOp12
 70
     1
102
RTVSPropertyOp13
 70
     1
102
RTVSPropertyOp14
 70
     1
102
RTVSPropertyOp15
 70
     1
102
RTVSPropertyOp16
 70
     1
102
RTVSPropertyOp17
 70
     1
102
RTVSPropertyOp18
 70
     1
102
RTVSPropertyOp19
 70
     1
102
RTVSPropertyOp20
 70
     1
102
RTVSPropertyOp21
 70
     1
102
RTVSPropertyOp22
 70
     1
102
RTVSPropertyOp23
 70
     1
102
RTVSPropertyOp24
 70
     1
102
RTVSPropertyOp25
 70
     1
102
RTVSPropertyOp26
 70
     1
102
RTVSPropertyOp27
 70
     1
102
RTVSPropertyOp28
 70
     1
102
RTVSPropertyOp29
 70
     1
102
RTVSPropertyOp30
 70
     1
102
RTVSPropertyOp31
 70
     1
102
RTVSPropertyOp32
 70
     1
  0
XRECORD
  5
C8E
102
{ACAD_REACTORS
330
C8D
102
}
330
C8D
100
AcDbXrecord
280
     1
102
RTVSPropertyOp0
 70
     1
102
RTVSPropertyOp1
 70
     1
102
RTVSPropertyOp2
 70
     1
102
RTVSPropertyOp3
 70
     1
102
RTVSPropertyOp4
 70
     1
102
RTVSPropertyOp5
 70
     1
102
RTVSPropertyOp6
 70
     1
102
RTVSPropertyOp7
 70
     1
102
RTVSPropertyOp8
 70
     1
102
RTVSPropertyOp9
 70
     1
102
RTVSPropertyOp10
 70
     1
102
RTVSPropertyOp11
 70
     1
102
RTVSPropertyOp12
 70
     1
102
RTVSPropertyOp13
 70
     1
102
RTVSPropertyOp14
 70
     1
102
RTVSPropertyOp15
 70
     1
102
RTVSPropertyOp16
 70
     1
102
RTVSPropertyOp17
 70
     1
102
RTVSPropertyOp18
 70
     1
102
RTVSPropertyOp19
 70
     1
102
RTVSPropertyOp20
 70
     1
102
RTVSPropertyOp21
 70
     1
102
RTVSPropertyOp22
 70
     1
102
RTVSPropertyOp23
 70
     1
102
RTVSPropertyOp24
 70
     1
102
RTVSPropertyOp25
 70
     1
102
RTVSPropertyOp26
 70
     1
102
RTVSPropertyOp27
 70
     1
102
RTVSPropertyOp28
 70
     1
102
RTVSPropertyOp29
 70
     1
102
RTVSPropertyOp30
 70
     1
102
RTVSPropertyOp31
 70
     1
102
RTVSPropertyOp32
 70
     1
  0
XRECORD
  5
C80
102
{ACAD_REACTORS
330
C7F
102
}
330
C7F
100
AcDbXrecord
280
     1
102
RTVSPropertyOp0
 70
     1
102
RTVSPropertyOp1
 70
     1
102
RTVSPropertyOp2
 70
     1
102
RTVSPropertyOp3
 70
     1
102
RTVSPropertyOp4
 70
     1
102
RTVSPropertyOp5
 70
     1
102
RTVSPropertyOp6
 70
     1
102
RTVSPropertyOp7
 70
     1
102
RTVSPropertyOp8
 70
     1
102
RTVSPropertyOp9
 70
     1
102
RTVSPropertyOp10
 70
     1
102
RTVSPropertyOp11
 70
     1
102
RTVSPropertyOp12
 70
     1
102
RTVSPropertyOp13
 70
     1
102
RTVSPropertyOp14
 70
     1
102
RTVSPropertyOp15
 70
     1
102
RTVSPropertyOp16
 70
     1
102
RTVSPropertyOp17
 70
     1
102
RTVSPropertyOp18
 70
     1
102
RTVSPropertyOp19
 70
     1
102
RTVSPropertyOp20
 70
     1
102
RTVSPropertyOp21
 70
     1
102
RTVSPropertyOp22
 70
     1
102
RTVSPropertyOp23
 70
     1
102
RTVSPropertyOp24
 70
     1
102
RTVSPropertyOp25
 70
     1
102
RTVSPropertyOp26
 70
     1
102
RTVSPropertyOp27
 70
     1
102
RTVSPropertyOp28
 70
     1
102
RTVSPropertyOp29
 70
     1
102
RTVSPropertyOp30
 70
     1
102
RTVSPropertyOp31
 70
     1
102
RTVSPropertyOp32
 70
     1
  0
XRECORD
  5
C84
102
{ACAD_REACTORS
330
C83
102
}
330
C83
100
AcDbXrecord
280
     1
102
RTVSPropertyOp0
 70
     1
102
RTVSPropertyOp1
 70
     1
102
RTVSPropertyOp2
 70
     1
102
RTVSPropertyOp3
 70
     1
102
RTVSPropertyOp4
 70
     1
102
RTVSPropertyOp5
 70
     1
102
RTVSPropertyOp6
 70
     1
102
RTVSPropertyOp7
 70
     1
102
RTVSPropertyOp8
 70
     1
102
RTVSPropertyOp9
 70
     1
102
RTVSPropertyOp10
 70
     1
102
RTVSPropertyOp11
 70
     1
102
RTVSPropertyOp12
 70
     1
102
RTVSPropertyOp13
 70
     1
102
RTVSPropertyOp14
 70
     1
102
RTVSPropertyOp15
 70
     1
102
RTVSPropertyOp16
 70
     1
102
RTVSPropertyOp17
 70
     1
102
RTVSPropertyOp18
 70
     1
102
RTVSPropertyOp19
 70
     1
102
RTVSPropertyOp20
 70
     1
102
RTVSPropertyOp21
 70
     1
102
RTVSPropertyOp22
 70
     1
102
RTVSPropertyOp23
 70
     1
102
RTVSPropertyOp24
 70
     1
102
RTVSPropertyOp25
 70
     1
102
RTVSPropertyOp26
 70
     1
102
RTVSPropertyOp27
 70
     1
102
RTVSPropertyOp28
 70
     1
102
RTVSPropertyOp29
 70
     1
102
RTVSPropertyOp30
 70
     1
102
RTVSPropertyOp31
 70
     1
102
RTVSPropertyOp32
 70
     1
  0
XRECORD
  5
C9E
102
{ACAD_REACTORS
330
C9D
102
}
330
C9D
100
AcDbXrecord
280
     1
102
RTVSPropertyOp0
 70
     0
102
RTVSPropertyOp1
 70
     0
102
RTVSPropertyOp2
 70
     0
102
RTVSPropertyOp3
 70
     0
102
RTVSPropertyOp4
 70
     0
102
RTVSPropertyOp5
 70
     0
102
RTVSPropertyOp6
 70
     0
102
RTVSPropertyOp7
 70
     0
102
RTVSPropertyOp8
 70
     0
102
RTVSPropertyOp9
 70
     0
102
RTVSPropertyOp10
 70
     0
102
RTVSPropertyOp11
 70
     0
102
RTVSPropertyOp12
 70
     0
102
RTVSPropertyOp13
 70
     0
102
RTVSPropertyOp14
 70
     2
102
RTVSPropertyOp15
 70
     0
102
RTVSPropertyOp16
 70
     0
102
RTVSPropertyOp17
 70
     0
102
RTVSPropertyOp18
 70
     0
102
RTVSPropertyOp19
 70
     0
102
RTVSPropertyOp20
 70
     0
102
RTVSPropertyOp21
 70
     0
102
RTVSPropertyOp22
 70
     0
102
RTVSPropertyOp23
 70
     0
102
RTVSPropertyOp24
 70
     0
102
RTVSPropertyOp25
 70
     0
102
RTVSPropertyOp26
 70
     0
102
RTVSPropertyOp27
 70
     0
102
RTVSPropertyOp28
 70
     0
102
RTVSPropertyOp29
 70
     0
102
RTVSPropertyOp30
 70
     0
102
RTVSPropertyOp31
 70
     0
102
RTVSPropertyOp32
 70
     0
  0
XRECORD
  5
C8C
102
{ACAD_REACTORS
330
C8B
102
}
330
C8B
100
AcDbXrecord
280
     1
102
RTVSPropertyOp0
 70
     1
102
RTVSPropertyOp1
 70
     1
102
RTVSPropertyOp2
 70
     1
102
RTVSPropertyOp3
 70
     1
102
RTVSPropertyOp4
 70
     1
102
RTVSPropertyOp5
 70
     1
102
RTVSPropertyOp6
 70
     1
102
RTVSPropertyOp7
 70
     1
102
RTVSPropertyOp8
 70
     1
102
RTVSPropertyOp9
 70
     1
102
RTVSPropertyOp10
 70
     1
102
RTVSPropertyOp11
 70
     1
102
RTVSPropertyOp12
 70
     1
102
RTVSPropertyOp13
 70
     1
102
RTVSPropertyOp14
 70
     1
102
RTVSPropertyOp15
 70
     1
102
RTVSPropertyOp16
 70
     1
102
RTVSPropertyOp17
 70
     1
102
RTVSPropertyOp18
 70
     1
102
RTVSPropertyOp19
 70
     1
102
RTVSPropertyOp20
 70
     1
102
RTVSPropertyOp21
 70
     1
102
RTVSPropertyOp22
 70
     1
102
RTVSPropertyOp23
 70
     1
102
RTVSPropertyOp24
 70
     1
102
RTVSPropertyOp25
 70
     1
102
RTVSPropertyOp26
 70
     1
102
RTVSPropertyOp27
 70
     1
102
RTVSPropertyOp28
 70
     1
102
RTVSPropertyOp29
 70
     1
102
RTVSPropertyOp30
 70
     1
102
RTVSPropertyOp31
 70
     1
102
RTVSPropertyOp32
 70
     1
  0
XRECORD
  5
C70
102
{ACAD_REACTORS
330
C6F
102
}
330
C6F
100
AcDbXrecord
280
     1
102
RTVSPropertyOp0
 70
     1
102
RTVSPropertyOp1
 70
     1
102
RTVSPropertyOp2
 70
     1
102
RTVSPropertyOp3
 70
     1
102
RTVSPropertyOp4
 70
     1
102
RTVSPropertyOp5
 70
     1
102
RTVSPropertyOp6
 70
     1
102
RTVSPropertyOp7
 70
     1
102
RTVSPropertyOp8
 70
     1
102
RTVSPropertyOp9
 70
     1
102
RTVSPropertyOp10
 70
     1
102
RTVSPropertyOp11
 70
     1
102
RTVSPropertyOp12
 70
     1
102
RTVSPropertyOp13
 70
     1
102
RTVSPropertyOp14
 70
     1
102
RTVSPropertyOp15
 70
     1
102
RTVSPropertyOp16
 70
     1
102
RTVSPropertyOp17
 70
     1
102
RTVSPropertyOp18
 70
     1
102
RTVSPropertyOp19
 70
     1
102
RTVSPropertyOp20
 70
     1
102
RTVSPropertyOp21
 70
     1
102
RTVSPropertyOp22
 70
     1
102
RTVSPropertyOp23
 70
     1
102
RTVSPropertyOp24
 70
     1
102
RTVSPropertyOp25
 70
     1
102
RTVSPropertyOp26
 70
     1
102
RTVSPropertyOp27
 70
     1
102
RTVSPropertyOp28
 70
     1
102
RTVSPropertyOp29
 70
     1
102
RTVSPropertyOp30
 70
     1
102
RTVSPropertyOp31
 70
     1
102
RTVSPropertyOp32
 70
     1
  0
XRECORD
  5
C72
102
{ACAD_REACTORS
330
C71
102
}
330
C71
100
AcDbXrecord
280
     1
102
RTVSPropertyOp0
 70
     1
102
RTVSPropertyOp1
 70
     1
102
RTVSPropertyOp2
 70
     1
102
RTVSPropertyOp3
 70
     1
102
RTVSPropertyOp4
 70
     1
102
RTVSPropertyOp5
 70
     1
102
RTVSPropertyOp6
 70
     1
102
RTVSPropertyOp7
 70
     1
102
RTVSPropertyOp8
 70
     1
102
RTVSPropertyOp9
 70
     1
102
RTVSPropertyOp10
 70
     1
102
RTVSPropertyOp11
 70
     1
102
RTVSPropertyOp12
 70
     1
102
RTVSPropertyOp13
 70
     1
102
RTVSPropertyOp14
 70
     1
102
RTVSPropertyOp15
 70
     1
102
RTVSPropertyOp16
 70
     1
102
RTVSPropertyOp17
 70
     1
102
RTVSPropertyOp18
 70
     1
102
RTVSPropertyOp19
 70
     1
102
RTVSPropertyOp20
 70
     1
102
RTVSPropertyOp21
 70
     1
102
RTVSPropertyOp22
 70
     1
102
RTVSPropertyOp23
 70
     1
102
RTVSPropertyOp24
 70
     1
102
RTVSPropertyOp25
 70
     1
102
RTVSPropertyOp26
 70
     1
102
RTVSPropertyOp27
 70
     1
102
RTVSPropertyOp28
 70
     1
102
RTVSPropertyOp29
 70
     1
102
RTVSPropertyOp30
 70
     1
102
RTVSPropertyOp31
 70
     1
102
RTVSPropertyOp32
 70
     1
  0
XRECORD
  5
C74
102
{ACAD_REACTORS
330
C73
102
}
330
C73
100
AcDbXrecord
280
     1
102
RTVSPropertyOp0
 70
     1
102
RTVSPropertyOp1
 70
     1
102
RTVSPropertyOp2
 70
     1
102
RTVSPropertyOp3
 70
     1
102
RTVSPropertyOp4
 70
     1
102
RTVSPropertyOp5
 70
     1
102
RTVSPropertyOp6
 70
     1
102
RTVSPropertyOp7
 70
     1
102
RTVSPropertyOp8
 70
     1
102
RTVSPropertyOp9
 70
     1
102
RTVSPropertyOp10
 70
     1
102
RTVSPropertyOp11
 70
     1
102
RTVSPropertyOp12
 70
     1
102
RTVSPropertyOp13
 70
     1
102
RTVSPropertyOp14
 70
     1
102
RTVSPropertyOp15
 70
     1
102
RTVSPropertyOp16
 70
     1
102
RTVSPropertyOp17
 70
     1
102
RTVSPropertyOp18
 70
     1
102
RTVSPropertyOp19
 70
     1
102
RTVSPropertyOp20
 70
     1
102
RTVSPropertyOp21
 70
     1
102
RTVSPropertyOp22
 70
     1
102
RTVSPropertyOp23
 70
     1
102
RTVSPropertyOp24
 70
     1
102
RTVSPropertyOp25
 70
     1
102
RTVSPropertyOp26
 70
     1
102
RTVSPropertyOp27
 70
     1
102
RTVSPropertyOp28
 70
     1
102
RTVSPropertyOp29
 70
     1
102
RTVSPropertyOp30
 70
     1
102
RTVSPropertyOp31
 70
     1
102
RTVSPropertyOp32
 70
     1
  0
XRECORD
  5
C76
102
{ACAD_REACTORS
330
C75
102
}
330
C75
100
AcDbXrecord
280
     1
102
RTVSPropertyOp0
 70
     1
102
RTVSPropertyOp1
 70
     1
102
RTVSPropertyOp2
 70
     1
102
RTVSPropertyOp3
 70
     1
102
RTVSPropertyOp4
 70
     1
102
RTVSPropertyOp5
 70
     1
102
RTVSPropertyOp6
 70
     1
102
RTVSPropertyOp7
 70
     1
102
RTVSPropertyOp8
 70
     1
102
RTVSPropertyOp9
 70
     1
102
RTVSPropertyOp10
 70
     1
102
RTVSPropertyOp11
 70
     1
102
RTVSPropertyOp12
 70
     1
102
RTVSPropertyOp13
 70
     1
102
RTVSPropertyOp14
 70
     1
102
RTVSPropertyOp15
 70
     1
102
RTVSPropertyOp16
 70
     1
102
RTVSPropertyOp17
 70
     1
102
RTVSPropertyOp18
 70
     1
102
RTVSPropertyOp19
 70
     1
102
RTVSPropertyOp20
 70
     1
102
RTVSPropertyOp21
 70
     1
102
RTVSPropertyOp22
 70
     1
102
RTVSPropertyOp23
 70
     1
102
RTVSPropertyOp24
 70
     1
102
RTVSPropertyOp25
 70
     1
102
RTVSPropertyOp26
 70
     1
102
RTVSPropertyOp27
 70
     1
102
RTVSPropertyOp28
 70
     1
102
RTVSPropertyOp29
 70
     1
102
RTVSPropertyOp30
 70
     1
102
RTVSPropertyOp31
 70
     1
102
RTVSPropertyOp32
 70
     1
  0
XRECORD
  5
C7E
102
{ACAD_REACTORS
330
C7D
102
}
330
C7D
100
AcDbXrecord
280
     1
102
RTVSPropertyOp0
 70
     1
102
RTVSPropertyOp1
 70
     1
102
RTVSPropertyOp2
 70
     1
102
RTVSPropertyOp3
 70
     1
102
RTVSPropertyOp4
 70
     1
102
RTVSPropertyOp5
 70
     1
102
RTVSPropertyOp6
 70
     1
102
RTVSPropertyOp7
 70
     1
102
RTVSPropertyOp8
 70
     1
102
RTVSPropertyOp9
 70
     1
102
RTVSPropertyOp10
 70
     1
102
RTVSPropertyOp11
 70
     1
102
RTVSPropertyOp12
 70
     1
102
RTVSPropertyOp13
 70
     1
102
RTVSPropertyOp14
 70
     1
102
RTVSPropertyOp15
 70
     1
102
RTVSPropertyOp16
 70
     1
102
RTVSPropertyOp17
 70
     1
102
RTVSPropertyOp18
 70
     1
102
RTVSPropertyOp19
 70
     1
102
RTVSPropertyOp20
 70
     1
102
RTVSPropertyOp21
 70
     1
102
RTVSPropertyOp22
 70
     1
102
RTVSPropertyOp23
 70
     1
102
RTVSPropertyOp24
 70
     1
102
RTVSPropertyOp25
 70
     1
102
RTVSPropertyOp26
 70
     1
102
RTVSPropertyOp27
 70
     1
102
RTVSPropertyOp28
 70
     1
102
RTVSPropertyOp29
 70
     1
102
RTVSPropertyOp30
 70
     1
102
RTVSPropertyOp31
 70
     1
102
RTVSPropertyOp32
 70
     1
  0
XRECORD
  5
C9A
102
{ACAD_REACTORS
330
C99
102
}
330
C99
100
AcDbXrecord
280
     1
102
RTVSPropertyOp0
 70
     0
102
RTVSPropertyOp1
 70
     0
102
RTVSPropertyOp2
 70
     0
102
RTVSPropertyOp3
 70
     0
102
RTVSPropertyOp4
 70
     0
102
RTVSPropertyOp5
 70
     0
102
RTVSPropertyOp6
 70
     0
102
RTVSPropertyOp7
 70
     0
102
RTVSPropertyOp8
 70
     0
102
RTVSPropertyOp9
 70
     0
102
RTVSPropertyOp10
 70
     0
102
RTVSPropertyOp11
 70
     0
102
RTVSPropertyOp12
 70
     0
102
RTVSPropertyOp13
 70
     0
102
RTVSPropertyOp14
 70
     2
102
RTVSPropertyOp15
 70
     0
102
RTVSPropertyOp16
 70
     0
102
RTVSPropertyOp17
 70
     0
102
RTVSPropertyOp18
 70
     0
102
RTVSPropertyOp19
 70
     0
102
RTVSPropertyOp20
 70
     0
102
RTVSPropertyOp21
 70
     0
102
RTVSPropertyOp22
 70
     0
102
RTVSPropertyOp23
 70
     0
102
RTVSPropertyOp24
 70
     0
102
RTVSPropertyOp25
 70
     0
102
RTVSPropertyOp26
 70
     0
102
RTVSPropertyOp27
 70
     0
102
RTVSPropertyOp28
 70
     0
102
RTVSPropertyOp29
 70
     0
102
RTVSPropertyOp30
 70
     0
102
RTVSPropertyOp31
 70
     0
102
RTVSPropertyOp32
 70
     0
  0
XRECORD
  5
C8A
102
{ACAD_REACTORS
330
C89
102
}
330
C89
100
AcDbXrecord
280
     1
102
RTVSPropertyOp0
 70
     1
102
RTVSPropertyOp1
 70
     1
102
RTVSPropertyOp2
 70
     1
102
RTVSPropertyOp3
 70
     1
102
RTVSPropertyOp4
 70
     1
102
RTVSPropertyOp5
 70
     1
102
RTVSPropertyOp6
 70
     1
102
RTVSPropertyOp7
 70
     1
102
RTVSPropertyOp8
 70
     1
102
RTVSPropertyOp9
 70
     1
102
RTVSPropertyOp10
 70
     1
102
RTVSPropertyOp11
 70
     1
102
RTVSPropertyOp12
 70
     1
102
RTVSPropertyOp13
 70
     1
102
RTVSPropertyOp14
 70
     1
102
RTVSPropertyOp15
 70
     1
102
RTVSPropertyOp16
 70
     1
102
RTVSPropertyOp17
 70
     1
102
RTVSPropertyOp18
 70
     1
102
RTVSPropertyOp19
 70
     1
102
RTVSPropertyOp20
 70
     1
102
RTVSPropertyOp21
 70
     1
102
RTVSPropertyOp22
 70
     1
102
RTVSPropertyOp23
 70
     1
102
RTVSPropertyOp24
 70
     1
102
RTVSPropertyOp25
 70
     1
102
RTVSPropertyOp26
 70
     1
102
RTVSPropertyOp27
 70
     1
102
RTVSPropertyOp28
 70
     1
102
RTVSPropertyOp29
 70
     1
102
RTVSPropertyOp30
 70
     1
102
RTVSPropertyOp31
 70
     1
102
RTVSPropertyOp32
 70
     1
  0
XRECORD
  5
C9C
102
{ACAD_REACTORS
330
C9B
102
}
330
C9B
100
AcDbXrecord
280
     1
102
RTVSPropertyOp0
 70
     0
102
RTVSPropertyOp1
 70
     0
102
RTVSPropertyOp2
 70
     0
102
RTVSPropertyOp3
 70
     0
102
RTVSPropertyOp4
 70
     0
102
RTVSPropertyOp5
 70
     0
102
RTVSPropertyOp6
 70
     0
102
RTVSPropertyOp7
 70
     0
102
RTVSPropertyOp8
 70
     0
102
RTVSPropertyOp9
 70
     0
102
RTVSPropertyOp10
 70
     0
102
RTVSPropertyOp11
 70
     0
102
RTVSPropertyOp12
 70
     0
102
RTVSPropertyOp13
 70
     0
102
RTVSPropertyOp14
 70
     2
102
RTVSPropertyOp15
 70
     0
102
RTVSPropertyOp16
 70
     0
102
RTVSPropertyOp17
 70
     0
102
RTVSPropertyOp18
 70
     0
102
RTVSPropertyOp19
 70
     0
102
RTVSPropertyOp20
 70
     0
102
RTVSPropertyOp21
 70
     0
102
RTVSPropertyOp22
 70
     0
102
RTVSPropertyOp23
 70
     0
102
RTVSPropertyOp24
 70
     0
102
RTVSPropertyOp25
 70
     0
102
RTVSPropertyOp26
 70
     0
102
RTVSPropertyOp27
 70
     0
102
RTVSPropertyOp28
 70
     0
102
RTVSPropertyOp29
 70
     0
102
RTVSPropertyOp30
 70
     0
102
RTVSPropertyOp31
 70
     0
102
RTVSPropertyOp32
 70
     0
  0
XRECORD
  5
C82
102
{ACAD_REACTORS
330
C81
102
}
330
C81
100
AcDbXrecord
280
     1
102
RTVSPropertyOp0
 70
     1
102
RTVSPropertyOp1
 70
     1
102
RTVSPropertyOp2
 70
     1
102
RTVSPropertyOp3
 70
     1
102
RTVSPropertyOp4
 70
     1
102
RTVSPropertyOp5
 70
     1
102
RTVSPropertyOp6
 70
     1
102
RTVSPropertyOp7
 70
     1
102
RTVSPropertyOp8
 70
     1
102
RTVSPropertyOp9
 70
     1
102
RTVSPropertyOp10
 70
     1
102
RTVSPropertyOp11
 70
     1
102
RTVSPropertyOp12
 70
     1
102
RTVSPropertyOp13
 70
     1
102
RTVSPropertyOp14
 70
     1
102
RTVSPropertyOp15
 70
     1
102
RTVSPropertyOp16
 70
     1
102
RTVSPropertyOp17
 70
     1
102
RTVSPropertyOp18
 70
     1
102
RTVSPropertyOp19
 70
     1
102
RTVSPropertyOp20
 70
     1
102
RTVSPropertyOp21
 70
     1
102
RTVSPropertyOp22
 70
     1
102
RTVSPropertyOp23
 70
     1
102
RTVSPropertyOp24
 70
     1
102
RTVSPropertyOp25
 70
     1
102
RTVSPropertyOp26
 70
     1
102
RTVSPropertyOp27
 70
     1
102
RTVSPropertyOp28
 70
     1
102
RTVSPropertyOp29
 70
     1
102
RTVSPropertyOp30
 70
     1
102
RTVSPropertyOp31
 70
     1
102
RTVSPropertyOp32
 70
     1
  0
XRECORD
  5
C98
102
{ACAD_REACTORS
330
C97
102
}
330
C97
100
AcDbXrecord
280
     1
102
RTVSPropertyOp0
 70
     1
102
RTVSPropertyOp1
 70
     1
102
RTVSPropertyOp2
 70
     1
102
RTVSPropertyOp3
 70
     1
102
RTVSPropertyOp4
 70
     1
102
RTVSPropertyOp5
 70
     1
102
RTVSPropertyOp6
 70
     1
102
RTVSPropertyOp7
 70
     1
102
RTVSPropertyOp8
 70
     1
102
RTVSPropertyOp9
 70
     1
102
RTVSPropertyOp10
 70
     1
102
RTVSPropertyOp11
 70
     1
102
RTVSPropertyOp12
 70
     1
102
RTVSPropertyOp13
 70
     1
102
RTVSPropertyOp14
 70
     1
102
RTVSPropertyOp15
 70
     1
102
RTVSPropertyOp16
 70
     1
102
RTVSPropertyOp17
 70
     1
102
RTVSPropertyOp18
 70
     1
102
RTVSPropertyOp19
 70
     1
102
RTVSPropertyOp20
 70
     1
102
RTVSPropertyOp21
 70
     1
102
RTVSPropertyOp22
 70
     1
102
RTVSPropertyOp23
 70
     1
102
RTVSPropertyOp24
 70
     1
102
RTVSPropertyOp25
 70
     1
102
RTVSPropertyOp26
 70
     1
102
RTVSPropertyOp27
 70
     1
102
RTVSPropertyOp28
 70
     1
102
RTVSPropertyOp29
 70
     1
102
RTVSPropertyOp30
 70
     1
102
RTVSPropertyOp31
 70
     1
102
RTVSPropertyOp32
 70
     1
  0
XRECORD
  5
C96
102
{ACAD_REACTORS
330
C95
102
}
330
C95
100
AcDbXrecord
280
     1
102
RTVSPropertyOp0
 70
     1
102
RTVSPropertyOp1
 70
     1
102
RTVSPropertyOp2
 70
     1
102
RTVSPropertyOp3
 70
     1
102
RTVSPropertyOp4
 70
     1
102
RTVSPropertyOp5
 70
     1
102
RTVSPropertyOp6
 70
     1
102
RTVSPropertyOp7
 70
     1
102
RTVSPropertyOp8
 70
     1
102
RTVSPropertyOp9
 70
     1
102
RTVSPropertyOp10
 70
     1
102
RTVSPropertyOp11
 70
     1
102
RTVSPropertyOp12
 70
     1
102
RTVSPropertyOp13
 70
     1
102
RTVSPropertyOp14
 70
     1
102
RTVSPropertyOp15
 70
     1
102
RTVSPropertyOp16
 70
     1
102
RTVSPropertyOp17
 70
     1
102
RTVSPropertyOp18
 70
     1
102
RTVSPropertyOp19
 70
     1
102
RTVSPropertyOp20
 70
     1
102
RTVSPropertyOp21
 70
     1
102
RTVSPropertyOp22
 70
     1
102
RTVSPropertyOp23
 70
     1
102
RTVSPropertyOp24
 70
     1
102
RTVSPropertyOp25
 70
     1
102
RTVSPropertyOp26
 70
     1
102
RTVSPropertyOp27
 70
     1
102
RTVSPropertyOp28
 70
     1
102
RTVSPropertyOp29
 70
     1
102
RTVSPropertyOp30
 70
     1
102
RTVSPropertyOp31
 70
     1
102
RTVSPropertyOp32
 70
     1
  0
XRECORD
  5
C90
102
{ACAD_REACTORS
330
C8F
102
}
330
C8F
100
AcDbXrecord
280
     1
102
RTVSPropertyOp0
 70
     1
102
RTVSPropertyOp1
 70
     1
102
RTVSPropertyOp2
 70
     1
102
RTVSPropertyOp3
 70
     1
102
RTVSPropertyOp4
 70
     1
102
RTVSPropertyOp5
 70
     1
102
RTVSPropertyOp6
 70
     1
102
RTVSPropertyOp7
 70
     1
102
RTVSPropertyOp8
 70
     1
102
RTVSPropertyOp9
 70
     1
102
RTVSPropertyOp10
 70
     1
102
RTVSPropertyOp11
 70
     1
102
RTVSPropertyOp12
 70
     1
102
RTVSPropertyOp13
 70
     1
102
RTVSPropertyOp14
 70
     1
102
RTVSPropertyOp15
 70
     1
102
RTVSPropertyOp16
 70
     1
102
RTVSPropertyOp17
 70
     1
102
RTVSPropertyOp18
 70
     1
102
RTVSPropertyOp19
 70
     1
102
RTVSPropertyOp20
 70
     1
102
RTVSPropertyOp21
 70
     1
102
RTVSPropertyOp22
 70
     1
102
RTVSPropertyOp23
 70
     1
102
RTVSPropertyOp24
 70
     1
102
RTVSPropertyOp25
 70
     1
102
RTVSPropertyOp26
 70
     1
102
RTVSPropertyOp27
 70
     1
102
RTVSPropertyOp28
 70
     1
102
RTVSPropertyOp29
 70
     1
102
RTVSPropertyOp30
 70
     1
102
RTVSPropertyOp31
 70
     1
102
RTVSPropertyOp32
 70
     1
  0
XRECORD
  5
C92
102
{ACAD_REACTORS
330
C91
102
}
330
C91
100
AcDbXrecord
280
     1
102
RTVSPropertyOp0
 70
     1
102
RTVSPropertyOp1
 70
     1
102
RTVSPropertyOp2
 70
     1
102
RTVSPropertyOp3
 70
     1
102
RTVSPropertyOp4
 70
     1
102
RTVSPropertyOp5
 70
     1
102
RTVSPropertyOp6
 70
     1
102
RTVSPropertyOp7
 70
     1
102
RTVSPropertyOp8
 70
     1
102
RTVSPropertyOp9
 70
     1
102
RTVSPropertyOp10
 70
     1
102
RTVSPropertyOp11
 70
     1
102
RTVSPropertyOp12
 70
     1
102
RTVSPropertyOp13
 70
     1
102
RTVSPropertyOp14
 70
     1
102
RTVSPropertyOp15
 70
     1
102
RTVSPropertyOp16
 70
     1
102
RTVSPropertyOp17
 70
     1
102
RTVSPropertyOp18
 70
     1
102
RTVSPropertyOp19
 70
     1
102
RTVSPropertyOp20
 70
     1
102
RTVSPropertyOp21
 70
     1
102
RTVSPropertyOp22
 70
     1
102
RTVSPropertyOp23
 70
     1
102
RTVSPropertyOp24
 70
     1
102
RTVSPropertyOp25
 70
     1
102
RTVSPropertyOp26
 70
     1
102
RTVSPropertyOp27
 70
     1
102
RTVSPropertyOp28
 70
     1
102
RTVSPropertyOp29
 70
     1
102
RTVSPropertyOp30
 70
     1
102
RTVSPropertyOp31
 70
     1
102
RTVSPropertyOp32
 70
     1
  0
XRECORD
  5
C88
102
{ACAD_REACTORS
330
C87
102
}
330
C87
100
AcDbXrecord
280
     1
102
RTVSPropertyOp0
 70
     1
102
RTVSPropertyOp1
 70
     1
102
RTVSPropertyOp2
 70
     1
102
RTVSPropertyOp3
 70
     1
102
RTVSPropertyOp4
 70
     1
102
RTVSPropertyOp5
 70
     1
102
RTVSPropertyOp6
 70
     1
102
RTVSPropertyOp7
 70
     1
102
RTVSPropertyOp8
 70
     1
102
RTVSPropertyOp9
 70
     1
102
RTVSPropertyOp10
 70
     1
102
RTVSPropertyOp11
 70
     1
102
RTVSPropertyOp12
 70
     1
102
RTVSPropertyOp13
 70
     1
102
RTVSPropertyOp14
 70
     1
102
RTVSPropertyOp15
 70
     1
102
RTVSPropertyOp16
 70
     1
102
RTVSPropertyOp17
 70
     1
102
RTVSPropertyOp18
 70
     1
102
RTVSPropertyOp19
 70
     1
102
RTVSPropertyOp20
 70
     1
102
RTVSPropertyOp21
 70
     1
102
RTVSPropertyOp22
 70
     1
102
RTVSPropertyOp23
 70
     1
102
RTVSPropertyOp24
 70
     1
102
RTVSPropertyOp25
 70
     1
102
RTVSPropertyOp26
 70
     1
102
RTVSPropertyOp27
 70
     1
102
RTVSPropertyOp28
 70
     1
102
RTVSPropertyOp29
 70
     1
102
RTVSPropertyOp30
 70
     1
102
RTVSPropertyOp31
 70
     1
102
RTVSPropertyOp32
 70
     1
  0
XRECORD
  5
C7C
102
{ACAD_REACTORS
330
C7B
102
}
330
C7B
100
AcDbXrecord
280
     1
102
RTVSPropertyOp0
 70
     1
102
RTVSPropertyOp1
 70
     1
102
RTVSPropertyOp2
 70
     1
102
RTVSPropertyOp3
 70
     1
102
RTVSPropertyOp4
 70
     1
102
RTVSPropertyOp5
 70
     1
102
RTVSPropertyOp6
 70
     1
102
RTVSPropertyOp7
 70
     1
102
RTVSPropertyOp8
 70
     1
102
RTVSPropertyOp9
 70
     1
102
RTVSPropertyOp10
 70
     1
102
RTVSPropertyOp11
 70
     1
102
RTVSPropertyOp12
 70
     1
102
RTVSPropertyOp13
 70
     1
102
RTVSPropertyOp14
 70
     1
102
RTVSPropertyOp15
 70
     1
102
RTVSPropertyOp16
 70
     1
102
RTVSPropertyOp17
 70
     1
102
RTVSPropertyOp18
 70
     1
102
RTVSPropertyOp19
 70
     1
102
RTVSPropertyOp20
 70
     1
102
RTVSPropertyOp21
 70
     1
102
RTVSPropertyOp22
 70
     1
102
RTVSPropertyOp23
 70
     1
102
RTVSPropertyOp24
 70
     1
102
RTVSPropertyOp25
 70
     1
102
RTVSPropertyOp26
 70
     1
102
RTVSPropertyOp27
 70
     1
102
RTVSPropertyOp28
 70
     1
102
RTVSPropertyOp29
 70
     1
102
RTVSPropertyOp30
 70
     1
102
RTVSPropertyOp31
 70
     1
102
RTVSPropertyOp32
 70
     1
  0
XRECORD
  5
C94
102
{ACAD_REACTORS
330
C93
102
}
330
C93
100
AcDbXrecord
280
     1
102
RTVSPropertyOp0
 70
     1
102
RTVSPropertyOp1
 70
     1
102
RTVSPropertyOp2
 70
     1
102
RTVSPropertyOp3
 70
     1
102
RTVSPropertyOp4
 70
     1
102
RTVSPropertyOp5
 70
     1
102
RTVSPropertyOp6
 70
     1
102
RTVSPropertyOp7
 70
     1
102
RTVSPropertyOp8
 70
     1
102
RTVSPropertyOp9
 70
     1
102
RTVSPropertyOp10
 70
     1
102
RTVSPropertyOp11
 70
     1
102
RTVSPropertyOp12
 70
     1
102
RTVSPropertyOp13
 70
     1
102
RTVSPropertyOp14
 70
     1
102
RTVSPropertyOp15
 70
     1
102
RTVSPropertyOp16
 70
     1
102
RTVSPropertyOp17
 70
     1
102
RTVSPropertyOp18
 70
     1
102
RTVSPropertyOp19
 70
     1
102
RTVSPropertyOp20
 70
     1
102
RTVSPropertyOp21
 70
     1
102
RTVSPropertyOp22
 70
     1
102
RTVSPropertyOp23
 70
     1
102
RTVSPropertyOp24
 70
     1
102
RTVSPropertyOp25
 70
     1
102
RTVSPropertyOp26
 70
     1
102
RTVSPropertyOp27
 70
     1
102
RTVSPropertyOp28
 70
     1
102
RTVSPropertyOp29
 70
     1
102
RTVSPropertyOp30
 70
     1
102
RTVSPropertyOp31
 70
     1
102
RTVSPropertyOp32
 70
     1
  0
ENDSEC
  0
EOF
