  0
SECTION
  2
HEADER
  9
$ACADVER
  1
AC1015
  9
$ACADMAINTVER
 70
    20
  9
$DWGCODEPAGE
  3
ANSI_932
  9
$INSBASE
 10
0.0
 20
0.0
 30
0.0
  9
$EXTMIN
 10
-27.853
 20
-14.4155
 30
0.0
  9
$EXTMAX
 10
377.147
 20
262.5845
 30
0.0
  9
$LIMMIN
 10
-27.854001
 20
-14.4165
  9
$LIMMAX
 10
377.148003
 20
262.585503
  9
$ORTHOMODE
 70
     0
  9
$REGENMODE
 70
     1
  9
$FILLMODE
 70
     1
  9
$QTEXTMODE
 70
     0
  9
$MIRRTEXT
 70
     0
  9
$LTSCALE
 40
6.75
  9
$ATTMODE
 70
     1
  9
$TEXTSIZE
 40
3.2
  9
$TRACEWID
 40
0.05
  9
$TEXTSTYLE
  7
高3.2
  9
$CLAYER
  8
0
  9
$CELTYPE
  6
CONTINUOUS
  9
$CECOLOR
 62
   256
  9
$CELTSCALE
 40
1.0
  9
$DISPSILH
 70
     0
  9
$DIMSCALE
 40
1.0
  9
$DIMASZ
 40
2.5
  9
$DIMEXO
 40
0.25
  9
$DIMDLI
 40
0.2
  9
$DIMRND
 40
0.0
  9
$DIMDLE
 40
0.0
  9
$DIMEXE
 40
1.25
  9
$DIMTP
 40
0.0
  9
$DIMTM
 40
0.0
  9
$DIMTXT
 40
3.0
  9
$DIMCEN
 40
0.0
  9
$DIMTSZ
 40
0.0
  9
$DIMTOL
 70
     0
  9
$DIMLIM
 70
     0
  9
$DIMTIH
 70
     0
  9
$DIMTOH
 70
     0
  9
$DIMSE1
 70
     0
  9
$DIMSE2
 70
     0
  9
$DIMTAD
 70
     3
  9
$DIMZIN
 70
     8
  9
$DIMBLK
  1

  9
$DIMASO
 70
     1
  9
$DIMSHO
 70
     1
  9
$DIMPOST
  1

  9
$DIMAPOST
  1

  9
$DIMALT
 70
     0
  9
$DIMALTD
 70
     3
  9
$DIMALTF
 40
0.03937007874016
  9
$DIMLFAC
 40
1.0
  9
$DIMTOFL
 70
     1
  9
$DIMTVP
 40
0.0
  9
$DIMTIX
 70
     0
  9
$DIMSOXD
 70
     0
  9
$DIMSAH
 70
     0
  9
$DIMBLK1
  1

  9
$DIMBLK2
  1

  9
$DIMSTYLE
  2
1：1
  9
$DIMCLRD
 70
     0
  9
$DIMCLRE
 70
     0
  9
$DIMCLRT
 70
     4
  9
$DIMTFAC
 40
1.0
  9
$DIMGAP
 40
0.625
  9
$DIMJUST
 70
     0
  9
$DIMSD1
 70
     0
  9
$DIMSD2
 70
     0
  9
$DIMTOLJ
 70
     0
  9
$DIMTZIN
 70
     8
  9
$DIMALTZ
 70
     0
  9
$DIMALTTZ
 70
     0
  9
$DIMUPT
 70
     1
  9
$DIMDEC
 70
     2
  9
$DIMTDEC
 70
     2
  9
$DIMALTU
 70
     2
  9
$DIMALTTD
 70
     3
  9
$DIMTXSTY
  7
STANDARD
  9
$DIMAUNIT
 70
     0
  9
$DIMADEC
 70
     1
  9
$DIMALTRND
 40
0.0
  9
$DIMAZIN
 70
     2
  9
$DIMDSEP
 70
    46
  9
$DIMATFIT
 70
     0
  9
$DIMFRAC
 70
     0
  9
$DIMLDRBLK
  1
Open30
  9
$DIMLUNIT
 70
     2
  9
$DIMLWD
 70
    -2
  9
$DIMLWE
 70
    -2
  9
$DIMTMOVE
 70
     0
  9
$LUNITS
 70
     2
  9
$LUPREC
 70
     4
  9
$SKETCHINC
 40
0.1
  9
$FILLETRAD
 40
0.0
  9
$AUNITS
 70
     0
  9
$AUPREC
 70
     0
  9
$MENU
  1
.
  9
$ELEVATION
 40
0.0
  9
$PELEVATION
 40
0.0
  9
$THICKNESS
 40
0.0
  9
$LIMCHECK
 70
     0
  9
$CHAMFERA
 40
0.0
  9
$CHAMFERB
 40
0.0
  9
$CHAMFERC
 40
0.0
  9
$CHAMFERD
 40
0.0
  9
$SKPOLY
 70
     0
  9
$TDCREATE
 40
2455467.768131863
  9
$TDUCREATE
 40
2455467.393131864
  9
$TDUPDATE
 40
2456861.436011875
  9
$TDUUPDATE
 40
2456861.061011875
  9
$TDINDWG
 40
0.0753889120
  9
$TDUSRTIMER
 40
0.0753886227
  9
$USRTIMER
 70
     1
  9
$ANGBASE
 50
0.0
  9
$ANGDIR
 70
     0
  9
$PDMODE
 70
     0
  9
$PDSIZE
 40
0.0
  9
$PLINEWID
 40
0.0
  9
$SPLFRAME
 70
     0
  9
$SPLINETYPE
 70
     6
  9
$SPLINESEGS
 70
     8
  9
$HANDSEED
  5
C54
  9
$SURFTAB1
 70
     6
  9
$SURFTAB2
 70
     6
  9
$SURFTYPE
 70
     6
  9
$SURFU
 70
     6
  9
$SURFV
 70
     6
  9
$UCSBASE
  2

  9
$UCSNAME
  2

  9
$UCSORG
 10
0.0
 20
0.0
 30
0.0
  9
$UCSXDIR
 10
1.0
 20
0.0
 30
0.0
  9
$UCSYDIR
 10
0.0
 20
1.0
 30
0.0
  9
$UCSORTHOREF
  2

  9
$UCSORTHOVIEW
 70
     0
  9
$UCSORGTOP
 10
0.0
 20
0.0
 30
0.0
  9
$UCSORGBOTTOM
 10
0.0
 20
0.0
 30
0.0
  9
$UCSORGLEFT
 10
0.0
 20
0.0
 30
0.0
  9
$UCSORGRIGHT
 10
0.0
 20
0.0
 30
0.0
  9
$UCSORGFRONT
 10
0.0
 20
0.0
 30
0.0
  9
$UCSORGBACK
 10
0.0
 20
0.0
 30
0.0
  9
$PUCSBASE
  2

  9
$PUCSNAME
  2

  9
$PUCSORG
 10
0.0
 20
0.0
 30
0.0
  9
$PUCSXDIR
 10
1.0
 20
0.0
 30
0.0
  9
$PUCSYDIR
 10
0.0
 20
1.0
 30
0.0
  9
$PUCSORTHOREF
  2

  9
$PUCSORTHOVIEW
 70
     0
  9
$PUCSORGTOP
 10
0.0
 20
0.0
 30
0.0
  9
$PUCSORGBOTTOM
 10
0.0
 20
0.0
 30
0.0
  9
$PUCSORGLEFT
 10
0.0
 20
0.0
 30
0.0
  9
$PUCSORGRIGHT
 10
0.0
 20
0.0
 30
0.0
  9
$PUCSORGFRONT
 10
0.0
 20
0.0
 30
0.0
  9
$PUCSORGBACK
 10
0.0
 20
0.0
 30
0.0
  9
$USERI1
 70
     0
  9
$USERI2
 70
     0
  9
$USERI3
 70
     0
  9
$USERI4
 70
     0
  9
$USERI5
 70
     0
  9
$USERR1
 40
0.0
  9
$USERR2
 40
0.0
  9
$USERR3
 40
0.0
  9
$USERR4
 40
0.0
  9
$USERR5
 40
0.0
  9
$WORLDVIEW
 70
     1
  9
$SHADEDGE
 70
     3
  9
$SHADEDIF
 70
    70
  9
$TILEMODE
 70
     1
  9
$MAXACTVP
 70
    64
  9
$PINSBASE
 10
0.0
 20
0.0
 30
0.0
  9
$PLIMCHECK
 70
     0
  9
$PEXTMIN
 10
1.000000000000000E+20
 20
1.000000000000000E+20
 30
1.000000000000000E+20
  9
$PEXTMAX
 10
-1.000000000000000E+20
 20
-1.000000000000000E+20
 30
-1.000000000000000E+20
  9
$PLIMMIN
 10
0.0
 20
0.0
  9
$PLIMMAX
 10
12.0
 20
9.0
  9
$UNITMODE
 70
     0
  9
$VISRETAIN
 70
     1
  9
$PLINEGEN
 70
     0
  9
$PSLTSCALE
 70
     1
  9
$TREEDEPTH
 70
  3020
  9
$CMLSTYLE
  2
Standard
  9
$CMLJUST
 70
     0
  9
$CMLSCALE
 40
1.0
  9
$PROXYGRAPHICS
 70
     1
  9
$MEASUREMENT
 70
     0
  9
$CELWEIGHT
370
    -1
  9
$ENDCAPS
280
     0
  9
$JOINSTYLE
280
     0
  9
$LWDISPLAY
290
     0
  9
$INSUNITS
 70
     0
  9
$HYPERLINKBASE
  1

  9
$STYLESHEET
  1
N-PLOT.CTB
  9
$XEDIT
290
     1
  9
$CEPSNTYPE
380
     0
  9
$PSTYLEMODE
290
     1
  9
$FINGERPRINTGUID
  2
{48AE4DA4-0E9E-4925-9FB6-40521E2401CB}
  9
$VERSIONGUID
  2
{B647FCC5-710D-4E77-A272-D9F93FEB3428}
  9
$EXTNAMES
290
     1
  9
$PSVPSCALE
 40
0.0
  9
$OLESTARTUP
290
     0
  0
ENDSEC
  0
SECTION
  2
CLASSES
  0
CLASS
  1
ACDBDICTIONARYWDFLT
  2
AcDbDictionaryWithDefault
  3
ObjectDBX Classes
 90
        0
280
     0
281
     0
  0
CLASS
  1
MATERIAL
  2
AcDbMaterial
  3
ObjectDBX Classes
 90
     1153
280
     0
281
     0
  0
CLASS
  1
VISUALSTYLE
  2
AcDbVisualStyle
  3
ObjectDBX Classes
 90
     4095
280
     0
281
     0
  0
CLASS
  1
TABLESTYLE
  2
AcDbTableStyle
  3
ObjectDBX Classes
 90
     4095
280
     0
281
     0
  0
CLASS
  1
SORTENTSTABLE
  2
AcDbSortentsTable
  3
ObjectDBX Classes
 90
        0
280
     0
281
     0
  0
CLASS
  1
DICTIONARYVAR
  2
AcDbDictionaryVar
  3
ObjectDBX Classes
 90
        0
280
     0
281
     0
  0
CLASS
  1
ACDBPLACEHOLDER
  2
AcDbPlaceHolder
  3
ObjectDBX Classes
 90
        0
280
     0
281
     0
  0
CLASS
  1
LAYOUT
  2
AcDbLayout
  3
ObjectDBX Classes
 90
        0
280
     0
281
     0
  0
CLASS
  1
SCALE
  2
AcDbScale
  3
ObjectDBX Classes
 90
     1153
280
     0
281
     0
  0
CLASS
  1
MLEADERSTYLE
  2
AcDbMLeaderStyle
  3
ACDB_MLEADERSTYLE_CLASS
 90
     4095
280
     0
281
     0
  0
CLASS
  1
CELLSTYLEMAP
  2
AcDbCellStyleMap
  3
ObjectDBX Classes
 90
     1152
280
     0
281
     0
  0
ENDSEC
  0
SECTION
  2
TABLES
  0
TABLE
  2
VPORT
  5
8
330
0
100
AcDbSymbolTable
 70
     1
  0
VPORT
  5
56
330
8
100
AcDbSymbolTableRecord
100
AcDbViewportTableRecord
  2
*Active
 70
     0
 10
0.0
 20
0.0
 11
1.0
 21
1.0
 12
377.7446314408646
 22
95.81202523628173
 13
0.0
 23
0.0
 14
1.0
 24
1.0
 15
0.0
 25
0.0
 16
0.0
 26
0.0
 36
1.0
 17
0.0
 27
0.0
 37
0.0
 40
591.4593976501645
 41
2.22889305816135
 42
50.0
 43
0.0
 44
0.0
 50
0.0
 51
0.0
 71
     0
 72
   100
 73
     1
 74
     1
 75
     0
 76
     0
 77
     0
 78
     0
281
     0
 65
     1
110
0.0
120
0.0
130
0.0
111
1.0
121
0.0
131
0.0
112
0.0
122
1.0
132
0.0
 79
     0
146
0.0
  0
ENDTAB
  0
TABLE
  2
LTYPE
  5
5
330
0
100
AcDbSymbolTable
 70
     1
  0
LTYPE
  5
28
330
5
100
AcDbSymbolTableRecord
100
AcDbLinetypeTableRecord
  2
ByBlock
 70
     0
  3

 72
    65
 73
     0
 40
0.0
  0
LTYPE
  5
29
330
5
100
AcDbSymbolTableRecord
100
AcDbLinetypeTableRecord
  2
ByLayer
 70
     0
  3

 72
    65
 73
     0
 40
0.0
  0
LTYPE
  5
2A
330
5
100
AcDbSymbolTableRecord
100
AcDbLinetypeTableRecord
  2
CONTINUOUS
 70
     0
  3
Solid-line
 72
    65
 73
     0
 40
0.0
  0
ENDTAB
  0
TABLE
  2
LAYER
  5
2
102
{ACAD_XDICTIONARY
360
5C4
102
}
330
0
100
AcDbSymbolTable
 70
     2
  0
LAYER
  5
25
102
{ACAD_XDICTIONARY
360
77E
102
}
330
2
100
AcDbSymbolTableRecord
100
AcDbLayerTableRecord
  2
0
 70
     0
 62
     7
  6
CONTINUOUS
370
    -3
390
F
  0
LAYER
  5
5B7
330
2
100
AcDbSymbolTableRecord
100
AcDbLayerTableRecord
  2
Defpoints
 70
     0
 62
     7
  6
CONTINUOUS
290
     0
370
    -3
390
F
  0
ENDTAB
  0
TABLE
  2
STYLE
  5
3
330
0
100
AcDbSymbolTable
 70
     6
  0
STYLE
  5
26
330
3
100
AcDbSymbolTableRecord
100
AcDbTextStyleTableRecord
  2
STANDARD
 70
     0
 40
0.0
 41
1.0
 50
0.0
 71
     0
 42
0.2
  3
TXT
  4
BIGFONT
  0
STYLE
  5
5B8
330
3
100
AcDbSymbolTableRecord
100
AcDbTextStyleTableRecord
  2
高3.2
 70
     0
 40
3.2
 41
1.0
 50
0.0
 71
     0
 42
3.2
  3
txt.shx
  4
bigfont.shx
  0
STYLE
  5
5B9
330
3
100
AcDbSymbolTableRecord
100
AcDbTextStyleTableRecord
  2
高6.3
 70
     0
 40
6.299999999999998
 41
1.0
 50
0.0
 71
     0
 42
6.299999999999998
  3
txt.shx
  4
bigfont.shx
  0
STYLE
  5
5BB
330
3
100
AcDbSymbolTableRecord
100
AcDbTextStyleTableRecord
  2
高4.5
 70
     0
 40
4.5
 41
1.0
 50
0.0
 71
     0
 42
6.299999999999998
  3
txt.shx
  4
bigfont.shx
  0
STYLE
  5
897
330
3
100
AcDbSymbolTableRecord
100
AcDbTextStyleTableRecord
  2
高2.5
 70
     0
 40
2.5
 41
1.0
 50
0.0
 71
     0
 42
0.2
  3
txt.shx
  4
bigfont.shx
  0
STYLE
  5
898
330
3
100
AcDbSymbolTableRecord
100
AcDbTextStyleTableRecord
  2
高2
 70
     0
 40
2.0
 41
1.0
 50
0.0
 71
     0
 42
2.0
  3
txt.shx
  4
bigfont.shx
  0
ENDTAB
  0
TABLE
  2
VIEW
  5
6
330
0
100
AcDbSymbolTable
 70
     0
  0
ENDTAB
  0
TABLE
  2
UCS
  5
7
330
0
100
AcDbSymbolTable
 70
     0
  0
ENDTAB
  0
TABLE
  2
APPID
  5
9
330
0
100
AcDbSymbolTable
 70
    10
  0
APPID
  5
27
330
9
100
AcDbSymbolTableRecord
100
AcDbRegAppTableRecord
  2
ACAD
 70
     0
  0
APPID
  5
5C3
330
9
100
AcDbSymbolTableRecord
100
AcDbRegAppTableRecord
  2
ACAD_DSTYLE_DIMJOGGED_JOGANGLE_SYMBOL
 70
     0
  0
APPID
  5
724
330
9
100
AcDbSymbolTableRecord
100
AcDbRegAppTableRecord
  2
ACAD_EXEMPT_FROM_CAD_STANDARDS
 70
     0
  0
APPID
  5
73E
330
9
100
AcDbSymbolTableRecord
100
AcDbRegAppTableRecord
  2
ACAD_DSTYLE_DIMARC_LENGTH_SYMBOL
 70
     0
  0
APPID
  5
73F
330
9
100
AcDbSymbolTableRecord
100
AcDbRegAppTableRecord
  2
ACAD_DSTYLE_DIMEXT_LENGTH
 70
     0
  0
APPID
  5
7C6
330
9
100
AcDbSymbolTableRecord
100
AcDbRegAppTableRecord
  2
ACAD_MLEADERVER
 70
     0
  0
APPID
  5
8A2
330
9
100
AcDbSymbolTableRecord
100
AcDbRegAppTableRecord
  2
ACAD_DSTYLE_DIMJAG
 70
     0
  0
APPID
  5
8A3
330
9
100
AcDbSymbolTableRecord
100
AcDbRegAppTableRecord
  2
ACAD_DSTYLE_DIMBREAK
 70
     0
  0
APPID
  5
8A4
330
9
100
AcDbSymbolTableRecord
100
AcDbRegAppTableRecord
  2
ACAD_DSTYLE_DIMTALN
 70
     0
  0
APPID
  5
A48
330
9
100
AcDbSymbolTableRecord
100
AcDbRegAppTableRecord
  2
ACAD_PSEXT
 70
     0
  0
ENDTAB
  0
TABLE
  2
DIMSTYLE
  5
A
330
0
100
AcDbSymbolTable
 70
    11
100
AcDbDimStyleTable
 71
     2
340
5BC
340
545
  0
DIMSTYLE
105
545
330
A
100
AcDbSymbolTableRecord
100
AcDbDimStyleTableRecord
  2
Standard
 70
     0
340
26
  0
DIMSTYLE
105
5BC
330
A
100
AcDbSymbolTableRecord
100
AcDbDimStyleTableRecord
  2
1：1
 70
     0
 41
2.5
 42
0.25
 43
0.2
 44
1.25
 73
     0
 74
     0
 77
     3
 78
     8
 79
     2
140
3.0
141
0.0
143
0.03937007874016
147
0.625
171
     3
172
     1
178
     4
179
     1
271
     2
272
     2
274
     3
283
     0
284
     8
288
     1
289
     0
340
26
341
547
342
547
1001
ACAD_DSTYLE_DIMARC_LENGTH_SYMBOL
1070
   379
1070
     2
1001
ACAD_DSTYLE_DIMEXT_LENGTH
1070
   378
1040
1.25
1001
ACAD_DSTYLE_DIMJOGGED_JOGANGLE_SYMBOL
1070
   384
1040
1.570796326794896
  0
DIMSTYLE
105
899
330
A
100
AcDbSymbolTableRecord
100
AcDbDimStyleTableRecord
  2
2：1
 70
     0
 41
2.5
 42
0.25
 43
0.2
 44
1.25
 73
     0
 74
     0
 77
     3
 78
     8
 79
     2
140
3.0
141
0.0
143
0.03937007874016
144
0.5
147
0.625
171
     3
172
     1
178
     4
179
     1
271
     2
272
     2
274
     3
283
     0
284
     8
288
     1
289
     0
340
26
341
547
342
547
1001
ACAD_DSTYLE_DIMARC_LENGTH_SYMBOL
1070
   379
1070
     2
1001
ACAD_DSTYLE_DIMEXT_LENGTH
1070
   378
1040
1.25
1001
ACAD_DSTYLE_DIMJOGGED_JOGANGLE_SYMBOL
1070
   384
1040
1.570796326794896
  0
DIMSTYLE
105
89A
330
A
100
AcDbSymbolTableRecord
100
AcDbDimStyleTableRecord
  2
5：1
 70
     0
 41
2.5
 42
0.25
 43
0.2
 44
1.25
 73
     0
 74
     0
 77
     3
 78
     8
 79
     2
140
3.0
141
0.0
143
0.03937007874016
144
0.2
147
0.625
171
     3
172
     1
178
     4
179
     1
271
     2
272
     2
274
     3
283
     0
284
     8
288
     1
289
     0
340
26
341
547
342
547
1001
ACAD_DSTYLE_DIMARC_LENGTH_SYMBOL
1070
   379
1070
     2
1001
ACAD_DSTYLE_DIMEXT_LENGTH
1070
   378
1040
1.25
1001
ACAD_DSTYLE_DIMJOGGED_JOGANGLE_SYMBOL
1070
   384
1040
1.570796326794896
  0
DIMSTYLE
105
89B
330
A
100
AcDbSymbolTableRecord
100
AcDbDimStyleTableRecord
  2
10：1
 70
     0
 41
2.5
 42
0.25
 43
0.2
 44
1.25
 73
     0
 74
     0
 77
     3
 78
     8
 79
     2
140
3.0
141
0.0
143
0.03937007874016
144
0.1
147
0.625
171
     3
172
     1
178
     4
179
     1
271
     2
272
     2
274
     3
283
     0
284
     8
288
     1
289
     0
340
26
341
547
342
547
1001
ACAD_DSTYLE_DIMARC_LENGTH_SYMBOL
1070
   379
1070
     2
1001
ACAD_DSTYLE_DIMEXT_LENGTH
1070
   378
1040
1.25
1001
ACAD_DSTYLE_DIMJOGGED_JOGANGLE_SYMBOL
1070
   384
1040
1.570796326794896
  0
DIMSTYLE
105
89C
330
A
100
AcDbSymbolTableRecord
100
AcDbDimStyleTableRecord
  2
1／2
 70
     0
 41
2.5
 42
0.25
 43
0.2
 44
1.25
 73
     0
 74
     0
 77
     3
 78
     8
 79
     2
140
3.0
141
0.0
143
0.03937007874016
144
2.0
147
0.625
171
     3
172
     1
178
     4
179
     1
271
     2
272
     2
274
     3
283
     0
284
     8
288
     1
289
     0
340
26
341
547
342
547
1001
ACAD_DSTYLE_DIMARC_LENGTH_SYMBOL
1070
   379
1070
     2
1001
ACAD_DSTYLE_DIMEXT_LENGTH
1070
   378
1040
1.25
1001
ACAD_DSTYLE_DIMJOGGED_JOGANGLE_SYMBOL
1070
   384
1040
1.570796326794896
  0
DIMSTYLE
105
89D
330
A
100
AcDbSymbolTableRecord
100
AcDbDimStyleTableRecord
  2
1／5
 70
     0
 41
2.5
 42
0.25
 43
0.2
 44
1.25
 73
     0
 74
     0
 77
     3
 78
     8
 79
     2
140
3.0
141
0.0
143
0.03937007874016
144
5.0
147
0.625
171
     3
172
     1
178
     4
179
     1
271
     2
272
     2
274
     3
283
     0
284
     8
288
     1
289
     0
340
26
341
547
342
547
1001
ACAD_DSTYLE_DIMARC_LENGTH_SYMBOL
1070
   379
1070
     2
1001
ACAD_DSTYLE_DIMEXT_LENGTH
1070
   378
1040
1.25
1001
ACAD_DSTYLE_DIMJOGGED_JOGANGLE_SYMBOL
1070
   384
1040
1.570796326794896
  0
DIMSTYLE
105
89E
330
A
100
AcDbSymbolTableRecord
100
AcDbDimStyleTableRecord
  2
1／10
 70
     0
 41
2.5
 42
0.25
 43
0.2
 44
1.25
 73
     0
 74
     0
 77
     3
 78
     8
 79
     2
140
3.0
141
0.0
143
0.03937007874016
144
10.0
147
0.625
171
     3
172
     1
178
     4
179
     1
271
     2
272
     2
274
     3
283
     0
284
     8
288
     1
289
     0
340
26
341
547
342
547
1001
ACAD_DSTYLE_DIMARC_LENGTH_SYMBOL
1070
   379
1070
     2
1001
ACAD_DSTYLE_DIMEXT_LENGTH
1070
   378
1040
1.25
1001
ACAD_DSTYLE_DIMJOGGED_JOGANGLE_SYMBOL
1070
   384
1040
1.570796326794896
  0
DIMSTYLE
105
89F
330
A
100
AcDbSymbolTableRecord
100
AcDbDimStyleTableRecord
  2
1／4
 70
     0
 41
2.5
 42
0.25
 43
0.2
 44
1.25
 73
     0
 74
     0
 77
     3
 78
     8
 79
     2
140
3.0
141
0.0
143
0.03937007874016
144
4.0
147
0.625
171
     3
172
     1
178
     4
179
     1
271
     2
272
     2
274
     3
283
     0
284
     8
288
     1
289
     0
340
26
341
547
342
547
1001
ACAD_DSTYLE_DIMARC_LENGTH_SYMBOL
1070
   379
1070
     2
1001
ACAD_DSTYLE_DIMEXT_LENGTH
1070
   378
1040
1.25
1001
ACAD_DSTYLE_DIMJOGGED_JOGANGLE_SYMBOL
1070
   384
1040
1.570796326794896
  0
DIMSTYLE
105
8A0
330
A
100
AcDbSymbolTableRecord
100
AcDbDimStyleTableRecord
  2
1／3
 70
     0
 41
2.5
 42
0.25
 43
0.2
 44
1.25
 73
     0
 74
     0
 77
     3
 78
     8
 79
     2
140
3.0
141
0.0
143
0.03937007874016
144
3.0
147
0.625
171
     3
172
     1
178
     4
179
     1
271
     2
272
     2
274
     3
283
     0
284
     8
288
     1
289
     0
340
26
341
547
342
547
1001
ACAD_DSTYLE_DIMARC_LENGTH_SYMBOL
1070
   379
1070
     2
1001
ACAD_DSTYLE_DIMEXT_LENGTH
1070
   378
1040
1.25
1001
ACAD_DSTYLE_DIMJOGGED_JOGANGLE_SYMBOL
1070
   384
1040
1.570796326794896
  0
DIMSTYLE
105
8A1
330
A
100
AcDbSymbolTableRecord
100
AcDbDimStyleTableRecord
  2
FREE
 70
     0
 41
2.5
 42
0.25
 43
0.2
 44
1.25
 73
     0
 74
     0
 77
     3
 78
     8
 79
     2
140
3.0
141
0.0
143
0.03937007874016
147
0.625
171
     3
172
     1
178
     4
179
     1
271
     2
272
     2
274
     3
283
     0
284
     8
288
     1
289
     0
340
26
341
547
342
547
1001
ACAD_DSTYLE_DIMBREAK
1070
   391
1040
3.75
1001
ACAD_DSTYLE_DIMJAG
1070
   388
1040
1.5
1001
ACAD_DSTYLE_DIMTALN
1070
   392
1070
     0
1001
ACAD_DSTYLE_DIMARC_LENGTH_SYMBOL
1070
   379
1070
     2
1001
ACAD_DSTYLE_DIMEXT_LENGTH
1070
   378
1040
1.25
1001
ACAD_DSTYLE_DIMJOGGED_JOGANGLE_SYMBOL
1070
   384
1040
1.570796326794896
  0
ENDTAB
  0
TABLE
  2
BLOCK_RECORD
  5
1
330
0
100
AcDbSymbolTable
 70
    15
  0
BLOCK_RECORD
  5
36
102
{ACAD_XDICTIONARY
360
6F8
102
}
330
1
100
AcDbSymbolTableRecord
100
AcDbBlockTableRecord
  2
*Model_Space
340
39
  0
BLOCK_RECORD
  5
32
330
1
100
AcDbSymbolTableRecord
100
AcDbBlockTableRecord
  2
*Paper_Space
340
35
  0
BLOCK_RECORD
  5
547
330
1
100
AcDbSymbolTableRecord
100
AcDbBlockTableRecord
  2
_Open30
340
0
102
{BLKREFS
331
97E
331
97F
331
987
331
988
331
992
331
993
331
99D
331
99E
331
9A8
331
9A9
331
9B3
331
9B4
331
9BE
331
9BF
331
9C9
331
9CA
331
9D4
331
9D5
331
9DF
331
9E0
331
A9C
331
A9D
331
AA5
331
AA6
331
AAE
331
AAF
102
}
  0
BLOCK_RECORD
  5
697
330
1
100
AcDbSymbolTableRecord
100
AcDbBlockTableRecord
  2
*D1
340
0
  0
BLOCK_RECORD
  5
6A2
330
1
100
AcDbSymbolTableRecord
100
AcDbBlockTableRecord
  2
*D2
340
0
  0
BLOCK_RECORD
  5
6AD
330
1
100
AcDbSymbolTableRecord
100
AcDbBlockTableRecord
  2
*D3
340
0
  0
BLOCK_RECORD
  5
8EF
330
1
100
AcDbSymbolTableRecord
100
AcDbBlockTableRecord
  2
*D4
340
0
  0
BLOCK_RECORD
  5
8FD
330
1
100
AcDbSymbolTableRecord
100
AcDbBlockTableRecord
  2
*D5
340
0
  0
BLOCK_RECORD
  5
909
330
1
100
AcDbSymbolTableRecord
100
AcDbBlockTableRecord
  2
*D6
340
0
  0
BLOCK_RECORD
  5
917
330
1
100
AcDbSymbolTableRecord
100
AcDbBlockTableRecord
  2
*D7
340
0
  0
BLOCK_RECORD
  5
925
330
1
100
AcDbSymbolTableRecord
100
AcDbBlockTableRecord
  2
*D8
340
0
  0
BLOCK_RECORD
  5
933
330
1
100
AcDbSymbolTableRecord
100
AcDbBlockTableRecord
  2
*D9
340
0
  0
BLOCK_RECORD
  5
941
330
1
100
AcDbSymbolTableRecord
100
AcDbBlockTableRecord
  2
*D10
340
0
  0
BLOCK_RECORD
  5
94F
330
1
100
AcDbSymbolTableRecord
100
AcDbBlockTableRecord
  2
*D11
340
0
  0
BLOCK_RECORD
  5
95D
330
1
100
AcDbSymbolTableRecord
100
AcDbBlockTableRecord
  2
*D12
340
0
  0
BLOCK_RECORD
  5
96B
330
1
100
AcDbSymbolTableRecord
100
AcDbBlockTableRecord
  2
*D13
340
0
  0
BLOCK_RECORD
  5
9E7
330
1
100
AcDbSymbolTableRecord
100
AcDbBlockTableRecord
  2
_DotSmall
340
0
  0
ENDTAB
  0
ENDSEC
  0
SECTION
  2
BLOCKS
  0
BLOCK
  5
37
330
36
100
AcDbEntity
  8
0
100
AcDbBlockBegin
  2
*Model_Space
 70
     0
 10
0.0
 20
0.0
 30
0.0
  3
*Model_Space
  1

  0
ENDBLK
  5
38
330
36
100
AcDbEntity
  8
0
100
AcDbBlockEnd
  0
BLOCK
  5
33
330
32
100
AcDbEntity
 67
     1
  8
0
100
AcDbBlockBegin
  2
*Paper_Space
 70
     0
 10
0.0
 20
0.0
 30
0.0
  3
*Paper_Space
  1

  0
ENDBLK
  5
34
330
32
100
AcDbEntity
 67
     1
  8
0
100
AcDbBlockEnd
  0
BLOCK
  5
548
330
547
100
AcDbEntity
  8
0
100
AcDbBlockBegin
  2
_Open30
 70
     0
 10
0.0
 20
0.0
 30
0.0
  3
_Open30
  1

  0
LINE
  5
549
330
547
100
AcDbEntity
  8
0
  6
ByBlock
 62
     0
370
    -2
100
AcDbLine
 10
-1.0
 20
0.267949
 30
0.0
 11
0.0
 21
0.0
 31
0.0
  0
LINE
  5
54A
330
547
100
AcDbEntity
  8
0
  6
ByBlock
 62
     0
370
    -2
100
AcDbLine
 10
0.0
 20
0.0
 30
0.0
 11
-1.0
 21
-0.267949
 31
0.0
  0
LINE
  5
54B
330
547
100
AcDbEntity
  8
0
  6
ByBlock
 62
     0
370
    -2
100
AcDbLine
 10
0.0
 20
0.0
 30
0.0
 11
-1.0
 21
0.0
 31
0.0
  0
ENDBLK
  5
54C
330
547
100
AcDbEntity
  8
0
100
AcDbBlockEnd
  0
BLOCK
  5
6A0
330
697
100
AcDbEntity
  8
0
100
AcDbBlockBegin
  2
*D1
 70
     1
 10
0.0
 20
0.0
 30
0.0
  3
*D1
  1

  0
LINE
  5
AAB
330
697
100
AcDbEntity
  8
0
 62
     0
370
    -2
100
AcDbLine
 10
136.285047
 20
151.096363
 30
0.0
 11
136.285047
 21
136.01224
 31
0.0
  0
LINE
  5
AAC
330
697
100
AcDbEntity
  8
0
 62
     0
370
    -2
100
AcDbLine
 10
217.066047
 20
151.096363
 30
0.0
 11
217.066047
 21
136.01224
 31
0.0
  0
LINE
  5
AAD
330
697
100
AcDbEntity
  8
0
 62
     0
370
    -2
100
AcDbLine
 10
138.785047
 20
137.26224
 30
0.0
 11
214.566047
 21
137.26224
 31
0.0
  0
INSERT
  5
AAE
330
697
100
AcDbEntity
  8
0
 62
     0
370
    -2
100
AcDbBlockReference
  2
_Open30
 10
136.285047
 20
137.26224
 30
0.0
 41
2.5
 42
2.5
 43
2.5
 50
180.0
  0
INSERT
  5
AAF
330
697
100
AcDbEntity
  8
0
 62
     0
370
    -2
100
AcDbBlockReference
  2
_Open30
 10
217.066047
 20
137.26224
 30
0.0
 41
2.5
 42
2.5
 43
2.5
  0
MTEXT
  5
AB0
330
697
100
AcDbEntity
  8
0
 62
     4
100
AcDbMText
 10
176.675547
 20
139.38724
 30
0.0
 40
3.0
 41
0.0
 71
     5
 72
     1
  1
235
 73
     1
 44
1.0
1001
ACAD
1000
MTEXTBEGIN
1070
    73
1070
     1
1070
    44
1040
1.0
1070
    74
1070
     0
1000
MTEXTEND
  0
POINT
  5
AB1
330
697
100
AcDbEntity
  8
Defpoints
 62
     0
100
AcDbPoint
 10
136.285047
 20
151.346363
 30
0.0
  0
POINT
  5
AB2
330
697
100
AcDbEntity
  8
Defpoints
 62
     0
100
AcDbPoint
 10
217.066047
 20
151.346363
 30
0.0
  0
POINT
  5
AB3
330
697
100
AcDbEntity
  8
Defpoints
 62
     0
100
AcDbPoint
 10
217.066047
 20
137.26224
 30
0.0
  0
ENDBLK
  5
6A1
330
697
100
AcDbEntity
  8
0
100
AcDbBlockEnd
  0
BLOCK
  5
6AB
330
6A2
100
AcDbEntity
  8
0
100
AcDbBlockBegin
  2
*D2
 70
     1
 10
0.0
 20
0.0
 30
0.0
  3
*D2
  1

  0
LINE
  5
AA2
330
6A2
100
AcDbEntity
  8
0
 62
     0
370
    -2
100
AcDbLine
 10
29.653047
 20
155.909363
 30
0.0
 11
29.653047
 21
136.01224
 31
0.0
  0
LINE
  5
AA3
330
6A2
100
AcDbEntity
  8
0
 62
     0
370
    -2
100
AcDbLine
 10
119.372047
 20
155.909363
 30
0.0
 11
119.372047
 21
136.01224
 31
0.0
  0
LINE
  5
AA4
330
6A2
100
AcDbEntity
  8
0
 62
     0
370
    -2
100
AcDbLine
 10
32.153047
 20
137.26224
 30
0.0
 11
116.872047
 21
137.26224
 31
0.0
  0
INSERT
  5
AA5
330
6A2
100
AcDbEntity
  8
0
 62
     0
370
    -2
100
AcDbBlockReference
  2
_Open30
 10
29.653047
 20
137.26224
 30
0.0
 41
2.5
 42
2.5
 43
2.5
 50
180.0
  0
INSERT
  5
AA6
330
6A2
100
AcDbEntity
  8
0
 62
     0
370
    -2
100
AcDbBlockReference
  2
_Open30
 10
119.372047
 20
137.26224
 30
0.0
 41
2.5
 42
2.5
 43
2.5
  0
MTEXT
  5
AA7
330
6A2
100
AcDbEntity
  8
0
 62
     4
100
AcDbMText
 10
74.51254699999999
 20
139.38724
 30
0.0
 40
3.0
 41
0.0
 71
     5
 72
     1
  1
260
 73
     1
 44
1.0
1001
ACAD
1000
MTEXTBEGIN
1070
    73
1070
     1
1070
    44
1040
1.0
1070
    74
1070
     0
1000
MTEXTEND
  0
POINT
  5
AA8
330
6A2
100
AcDbEntity
  8
Defpoints
 62
     0
100
AcDbPoint
 10
29.653047
 20
156.159363
 30
0.0
  0
POINT
  5
AA9
330
6A2
100
AcDbEntity
  8
Defpoints
 62
     0
100
AcDbPoint
 10
119.372047
 20
156.159363
 30
0.0
  0
POINT
  5
AAA
330
6A2
100
AcDbEntity
  8
Defpoints
 62
     0
100
AcDbPoint
 10
119.372047
 20
137.26224
 30
0.0
  0
ENDBLK
  5
6AC
330
6A2
100
AcDbEntity
  8
0
100
AcDbBlockEnd
  0
BLOCK
  5
6B6
330
6AD
100
AcDbEntity
  8
0
100
AcDbBlockBegin
  2
*D3
 70
     1
 10
0.0
 20
0.0
 30
0.0
  3
*D3
  1

  0
LINE
  5
A99
330
6AD
100
AcDbEntity
  8
0
 62
     0
370
    -2
100
AcDbLine
 10
37.99704699999999
 20
145.502363
 30
0.0
 11
19.53076299999998
 21
145.502363
 31
0.0
  0
LINE
  5
A9A
330
6AD
100
AcDbEntity
  8
0
 62
     0
370
    -2
100
AcDbLine
 10
70.138047
 20
224.912363
 30
0.0
 11
19.530763
 21
224.912363
 31
0.0
  0
LINE
  5
A9B
330
6AD
100
AcDbEntity
  8
0
 62
     0
370
    -2
100
AcDbLine
 10
20.78076299999998
 20
148.002363
 30
0.0
 11
20.780763
 21
222.412363
 31
0.0
  0
INSERT
  5
A9C
330
6AD
100
AcDbEntity
  8
0
 62
     0
370
    -2
100
AcDbBlockReference
  2
_Open30
 10
20.78076299999998
 20
145.502363
 30
0.0
 41
2.5
 42
2.5
 43
2.5
 50
270.0
  0
INSERT
  5
A9D
330
6AD
100
AcDbEntity
  8
0
 62
     0
370
    -2
100
AcDbBlockReference
  2
_Open30
 10
20.780763
 20
224.912363
 30
0.0
 41
2.5
 42
2.5
 43
2.5
 50
90.0
  0
MTEXT
  5
A9E
330
6AD
100
AcDbEntity
  8
0
 62
     4
100
AcDbMText
 10
18.65576299999996
 20
185.207363
 30
0.0
 40
3.0
 41
0.0
 71
     5
 72
     1
  1
230
 11
0.0000000000000001
 21
1.0
 31
0.0
 73
     1
 44
1.0
1001
ACAD
1000
MTEXTBEGIN
1070
    73
1070
     1
1070
    44
1040
1.0
1070
    74
1070
     0
1000
MTEXTEND
  0
POINT
  5
A9F
330
6AD
100
AcDbEntity
  8
Defpoints
 62
     0
100
AcDbPoint
 10
38.247047
 20
145.502363
 30
0.0
  0
POINT
  5
AA0
330
6AD
100
AcDbEntity
  8
Defpoints
 62
     0
100
AcDbPoint
 10
70.388047
 20
224.912363
 30
0.0
  0
POINT
  5
AA1
330
6AD
100
AcDbEntity
  8
Defpoints
 62
     0
100
AcDbPoint
 10
20.780763
 20
224.912363
 30
0.0
  0
ENDBLK
  5
6B7
330
6AD
100
AcDbEntity
  8
0
100
AcDbBlockEnd
  0
BLOCK
  5
8F0
330
8EF
100
AcDbEntity
  8
0
100
AcDbBlockBegin
  2
*D4
 70
     1
 10
0.0
 20
0.0
 30
0.0
  3
*D4
  1

  0
LINE
  5
979
330
8EF
100
AcDbEntity
  8
0
 62
     0
370
    -2
100
AcDbLine
 10
698.5454973796862
 20
210.624396495666
 30
0.0
 11
698.5454973796862
 21
208.3144754187905
 31
0.0
  0
LINE
  5
97A
330
8EF
100
AcDbEntity
  8
0
 62
     0
370
    -2
100
AcDbLine
 10
693.9568221775385
 20
210.624396495666
 30
0.0
 11
693.9568221775385
 21
208.3144754187905
 31
0.0
  0
LINE
  5
97B
330
8EF
100
AcDbEntity
  8
0
 62
     0
370
    -2
100
AcDbLine
 10
701.0454973796862
 20
209.5644754187905
 30
0.0
 11
703.5454973796865
 21
209.5644754187905
 31
0.0
  0
LINE
  5
97C
330
8EF
100
AcDbEntity
  8
0
 62
     0
370
    -2
100
AcDbLine
 10
691.4568221775383
 20
209.5644754187905
 30
0.0
 11
676.7068221775383
 21
209.5644754187905
 31
0.0
  0
LINE
  5
97D
330
8EF
100
AcDbEntity
  8
0
 62
     0
370
    -2
100
AcDbLine
 10
698.5454973796862
 20
209.5644754187905
 30
0.0
 11
693.9568221775385
 21
209.5644754187905
 31
0.0
  0
INSERT
  5
97E
330
8EF
100
AcDbEntity
  8
0
 62
     0
370
    -2
100
AcDbBlockReference
  2
_Open30
 10
698.5454973796862
 20
209.5644754187905
 30
0.0
 41
2.5
 42
2.5
 43
2.5
 50
180.0
  0
INSERT
  5
97F
330
8EF
100
AcDbEntity
  8
0
 62
     0
370
    -2
100
AcDbBlockReference
  2
_Open30
 10
693.9568221775385
 20
209.5644754187905
 30
0.0
 41
2.5
 42
2.5
 43
2.5
  0
MTEXT
  5
980
330
8EF
100
AcDbEntity
  8
0
 62
     4
100
AcDbMText
 10
682.8318221775385
 20
211.6894754187905
 30
0.0
 40
3.0
 41
0.0
 71
     5
 72
     1
  1
13.77
 73
     1
 44
1.0
1001
ACAD
1000
MTEXTBEGIN
1070
    73
1070
     1
1070
    44
1040
1.0
1070
    74
1070
     0
1000
MTEXTEND
  0
POINT
  5
981
330
8EF
100
AcDbEntity
  8
Defpoints
 62
     0
100
AcDbPoint
 10
698.5454973796862
 20
210.874396495666
 30
0.0
  0
POINT
  5
982
330
8EF
100
AcDbEntity
  8
Defpoints
 62
     0
100
AcDbPoint
 10
693.9568221775385
 20
210.874396495666
 30
0.0
  0
POINT
  5
983
330
8EF
100
AcDbEntity
  8
Defpoints
 62
     0
100
AcDbPoint
 10
693.9568221775385
 20
209.5644754187905
 30
0.0
  0
ENDBLK
  5
8F1
330
8EF
100
AcDbEntity
  8
0
100
AcDbBlockEnd
  0
BLOCK
  5
8FE
330
8FD
100
AcDbEntity
  8
0
100
AcDbBlockBegin
  2
*D5
 70
     1
 10
0.0
 20
0.0
 30
0.0
  3
*D5
  1

  0
LINE
  5
984
330
8FD
100
AcDbEntity
  8
0
 62
     0
370
    -2
100
AcDbLine
 10
691.4492145465359
 20
241.5538878139404
 30
0.0
 11
691.4492145465359
 21
248.9504212918781
 31
0.0
  0
LINE
  5
985
330
8FD
100
AcDbEntity
  8
0
 62
     0
370
    -2
100
AcDbLine
 10
681.5107401770459
 20
241.5538878139404
 30
0.0
 11
681.5107401770459
 21
248.9504212918781
 31
0.0
  0
LINE
  5
986
330
8FD
100
AcDbEntity
  8
0
 62
     0
370
    -2
100
AcDbLine
 10
688.9492145465359
 20
247.7004212918781
 30
0.0
 11
684.0107401770459
 21
247.7004212918781
 31
0.0
  0
INSERT
  5
987
330
8FD
100
AcDbEntity
  8
0
 62
     0
370
    -2
100
AcDbBlockReference
  2
_Open30
 10
691.4492145465359
 20
247.7004212918781
 30
0.0
 41
2.5
 42
2.5
 43
2.5
  0
INSERT
  5
988
330
8FD
100
AcDbEntity
  8
0
 62
     0
370
    -2
100
AcDbBlockReference
  2
_Open30
 10
681.5107401770459
 20
247.7004212918781
 30
0.0
 41
2.5
 42
2.5
 43
2.5
 50
180.0
  0
MTEXT
  5
989
330
8FD
100
AcDbEntity
  8
0
 62
     4
100
AcDbMText
 10
686.479977361791
 20
250.7754212918781
 30
0.0
 40
3.0
 41
0.0
 71
     5
 72
     1
  1
9.94\H0.7X;\S+0^ -0.02;
 73
     1
 44
1.0
1001
ACAD
1000
MTEXTBEGIN
1070
    73
1070
     1
1070
    44
1040
1.0
1070
    74
1070
     0
1000
MTEXTEND
  0
POINT
  5
98A
330
8FD
100
AcDbEntity
  8
Defpoints
 62
     0
100
AcDbPoint
 10
691.4492145465359
 20
241.3038878139404
 30
0.0
  0
POINT
  5
98B
330
8FD
100
AcDbEntity
  8
Defpoints
 62
     0
100
AcDbPoint
 10
681.5107401770459
 20
241.3038878139404
 30
0.0
  0
POINT
  5
98C
330
8FD
100
AcDbEntity
  8
Defpoints
 62
     0
100
AcDbPoint
 10
681.5107401770459
 20
247.7004212918781
 30
0.0
  0
ENDBLK
  5
8FF
330
8FD
100
AcDbEntity
  8
0
100
AcDbBlockEnd
  0
BLOCK
  5
90A
330
909
100
AcDbEntity
  8
0
100
AcDbBlockBegin
  2
*D6
 70
     1
 10
0.0
 20
0.0
 30
0.0
  3
*D6
  1

  0
LINE
  5
98D
330
909
100
AcDbEntity
  8
0
 62
     0
370
    -2
100
AcDbLine
 10
673.3197883385244
 20
231.8666359588963
 30
0.0
 11
673.3197883385244
 21
228.9570045368874
 31
0.0
  0
LINE
  5
98E
330
909
100
AcDbEntity
  8
0
 62
     0
370
    -2
100
AcDbLine
 10
670.8626012844042
 20
231.8666359588963
 30
0.0
 11
670.8626012844042
 21
228.9570045368874
 31
0.0
  0
LINE
  5
98F
330
909
100
AcDbEntity
  8
0
 62
     0
370
    -2
100
AcDbLine
 10
675.8197883385244
 20
230.2070045368874
 30
0.0
 11
678.3197883385244
 21
230.2070045368874
 31
0.0
  0
LINE
  5
990
330
909
100
AcDbEntity
  8
0
 62
     0
370
    -2
100
AcDbLine
 10
668.3626012844041
 20
230.2070045368874
 30
0.0
 11
655.6126012844041
 21
230.2070045368874
 31
0.0
  0
LINE
  5
991
330
909
100
AcDbEntity
  8
0
 62
     0
370
    -2
100
AcDbLine
 10
673.3197883385244
 20
230.2070045368874
 30
0.0
 11
670.8626012844042
 21
230.2070045368874
 31
0.0
  0
INSERT
  5
992
330
909
100
AcDbEntity
  8
0
 62
     0
370
    -2
100
AcDbBlockReference
  2
_Open30
 10
673.3197883385244
 20
230.2070045368874
 30
0.0
 41
2.5
 42
2.5
 43
2.5
 50
180.0
  0
INSERT
  5
993
330
909
100
AcDbEntity
  8
0
 62
     0
370
    -2
100
AcDbBlockReference
  2
_Open30
 10
670.8626012844042
 20
230.2070045368874
 30
0.0
 41
2.5
 42
2.5
 43
2.5
  0
MTEXT
  5
994
330
909
100
AcDbEntity
  8
0
 62
     4
100
AcDbMText
 10
660.7376012844041
 20
232.3320045368874
 30
0.0
 40
3.0
 41
0.0
 71
     5
 72
     1
  1
2.46
 73
     1
 44
1.0
1001
ACAD
1000
MTEXTBEGIN
1070
    73
1070
     1
1070
    44
1040
1.0
1070
    74
1070
     0
1000
MTEXTEND
  0
POINT
  5
995
330
909
100
AcDbEntity
  8
Defpoints
 62
     0
100
AcDbPoint
 10
673.3197883385244
 20
232.1166359588963
 30
0.0
  0
POINT
  5
996
330
909
100
AcDbEntity
  8
Defpoints
 62
     0
100
AcDbPoint
 10
670.8626012844042
 20
232.1166359588963
 30
0.0
  0
POINT
  5
997
330
909
100
AcDbEntity
  8
Defpoints
 62
     0
100
AcDbPoint
 10
670.8626012844042
 20
230.2070045368874
 30
0.0
  0
ENDBLK
  5
90B
330
909
100
AcDbEntity
  8
0
100
AcDbBlockEnd
  0
BLOCK
  5
918
330
917
100
AcDbEntity
  8
0
100
AcDbBlockBegin
  2
*D7
 70
     1
 10
0.0
 20
0.0
 30
0.0
  3
*D7
  1

  0
LINE
  5
998
330
917
100
AcDbEntity
  8
0
 62
     0
370
    -2
100
AcDbLine
 10
674.9579132445976
 20
226.4105463861339
 30
0.0
 11
674.9579132445976
 21
223.8646543166705
 31
0.0
  0
LINE
  5
999
330
917
100
AcDbEntity
  8
0
 62
     0
370
    -2
100
AcDbLine
 10
671.8636774464547
 20
226.4105463861339
 30
0.0
 11
671.8636774464547
 21
223.8646543166705
 31
0.0
  0
LINE
  5
99A
330
917
100
AcDbEntity
  8
0
 62
     0
370
    -2
100
AcDbLine
 10
677.4579132445976
 20
225.1146543166706
 30
0.0
 11
679.9579132445976
 21
225.1146543166706
 31
0.0
  0
LINE
  5
99B
330
917
100
AcDbEntity
  8
0
 62
     0
370
    -2
100
AcDbLine
 10
669.3636774464547
 20
225.1146543166706
 30
0.0
 11
655.5303441131215
 21
225.1146543166706
 31
0.0
  0
LINE
  5
99C
330
917
100
AcDbEntity
  8
0
 62
     0
370
    -2
100
AcDbLine
 10
674.9579132445976
 20
225.1146543166706
 30
0.0
 11
671.8636774464547
 21
225.1146543166706
 31
0.0
  0
INSERT
  5
99D
330
917
100
AcDbEntity
  8
0
 62
     0
370
    -2
100
AcDbBlockReference
  2
_Open30
 10
674.9579132445976
 20
225.1146543166706
 30
0.0
 41
2.5
 42
2.5
 43
2.5
 50
180.0
  0
INSERT
  5
99E
330
917
100
AcDbEntity
  8
0
 62
     0
370
    -2
100
AcDbBlockReference
  2
_Open30
 10
671.8636774464547
 20
225.1146543166706
 30
0.0
 41
2.5
 42
2.5
 43
2.5
  0
MTEXT
  5
99F
330
917
100
AcDbEntity
  8
0
 62
     4
100
AcDbMText
 10
660.7386774464547
 20
226.9896543166705
 30
0.0
 40
2.5
 41
0.0
 71
     5
 72
     1
  1
15.47
  7
高2.5
 73
     1
 44
1.0
1001
ACAD
1000
MTEXTBEGIN
1070
    73
1070
     1
1070
    44
1040
1.0
1070
    74
1070
     0
1000
MTEXTEND
  0
POINT
  5
9A0
330
917
100
AcDbEntity
  8
Defpoints
 62
     0
100
AcDbPoint
 10
674.9579132445976
 20
226.6605463861339
 30
0.0
  0
POINT
  5
9A1
330
917
100
AcDbEntity
  8
Defpoints
 62
     0
100
AcDbPoint
 10
671.8636774464547
 20
226.6605463861339
 30
0.0
  0
POINT
  5
9A2
330
917
100
AcDbEntity
  8
Defpoints
 62
     0
100
AcDbPoint
 10
671.8636774464547
 20
225.1146543166706
 30
0.0
  0
ENDBLK
  5
919
330
917
100
AcDbEntity
  8
0
100
AcDbBlockEnd
  0
BLOCK
  5
926
330
925
100
AcDbEntity
  8
0
100
AcDbBlockBegin
  2
*D8
 70
     1
 10
0.0
 20
0.0
 30
0.0
  3
*D8
  1

  0
LINE
  5
9A3
330
925
100
AcDbEntity
  8
0
 62
     0
370
    -2
100
AcDbLine
 10
676.6870448526831
 20
220.9544566702874
 30
0.0
 11
676.6870448526831
 21
218.6813690079201
 31
0.0
  0
LINE
  5
9A4
330
925
100
AcDbEntity
  8
0
 62
     0
370
    -2
100
AcDbLine
 10
672.6827398994912
 20
220.9544566702874
 30
0.0
 11
672.6827398994912
 21
218.6813690079201
 31
0.0
  0
LINE
  5
9A5
330
925
100
AcDbEntity
  8
0
 62
     0
370
    -2
100
AcDbLine
 10
679.1870448526831
 20
219.9313690079201
 30
0.0
 11
681.6870448526831
 21
219.9313690079201
 31
0.0
  0
LINE
  5
9A6
330
925
100
AcDbEntity
  8
0
 62
     0
370
    -2
100
AcDbLine
 10
670.1827398994912
 20
219.9313690079201
 30
0.0
 11
658.4327398994912
 21
219.9313690079201
 31
0.0
  0
LINE
  5
9A7
330
925
100
AcDbEntity
  8
0
 62
     0
370
    -2
100
AcDbLine
 10
676.6870448526831
 20
219.9313690079201
 30
0.0
 11
672.6827398994912
 21
219.9313690079201
 31
0.0
  0
INSERT
  5
9A8
330
925
100
AcDbEntity
  8
0
 62
     0
370
    -2
100
AcDbBlockReference
  2
_Open30
 10
676.6870448526831
 20
219.9313690079201
 30
0.0
 41
2.5
 42
2.5
 43
2.5
 50
180.0
  0
INSERT
  5
9A9
330
925
100
AcDbEntity
  8
0
 62
     0
370
    -2
100
AcDbBlockReference
  2
_Open30
 10
672.6827398994912
 20
219.9313690079201
 30
0.0
 41
2.5
 42
2.5
 43
2.5
  0
MTEXT
  5
9AA
330
925
100
AcDbEntity
  8
0
 62
     4
100
AcDbMText
 10
663.0577398994912
 20
222.1563690079201
 30
0.0
 40
3.2
 41
0.0
 71
     5
 72
     1
  1
8.01
  7
高3.2
 73
     1
 44
1.0
1001
ACAD
1000
MTEXTBEGIN
1070
    73
1070
     1
1070
    44
1040
1.0
1070
    74
1070
     0
1000
MTEXTEND
  0
POINT
  5
9AB
330
925
100
AcDbEntity
  8
Defpoints
 62
     0
100
AcDbPoint
 10
676.6870448526831
 20
221.2044566702874
 30
0.0
  0
POINT
  5
9AC
330
925
100
AcDbEntity
  8
Defpoints
 62
     0
100
AcDbPoint
 10
672.6827398994912
 20
221.2044566702874
 30
0.0
  0
POINT
  5
9AD
330
925
100
AcDbEntity
  8
Defpoints
 62
     0
100
AcDbPoint
 10
672.6827398994912
 20
219.9313690079201
 30
0.0
  0
ENDBLK
  5
927
330
925
100
AcDbEntity
  8
0
100
AcDbBlockEnd
  0
BLOCK
  5
934
330
933
100
AcDbEntity
  8
0
100
AcDbBlockBegin
  2
*D9
 70
     1
 10
0.0
 20
0.0
 30
0.0
  3
*D9
  1

  0
LINE
  5
9AE
330
933
100
AcDbEntity
  8
0
 62
     0
370
    -2
100
AcDbLine
 10
676.5960381506707
 20
215.6802367022558
 30
0.0
 11
676.5960381506707
 21
213.8618231947994
 31
0.0
  0
LINE
  5
9AF
330
933
100
AcDbEntity
  8
0
 62
     0
370
    -2
100
AcDbLine
 10
671.8636774464547
 20
215.6802367022558
 30
0.0
 11
671.8636774464547
 21
213.8618231947994
 31
0.0
  0
LINE
  5
9B0
330
933
100
AcDbEntity
  8
0
 62
     0
370
    -2
100
AcDbLine
 10
679.0960381506708
 20
215.1118231947994
 30
0.0
 11
681.5960381506709
 21
215.1118231947994
 31
0.0
  0
LINE
  5
9B1
330
933
100
AcDbEntity
  8
0
 62
     0
370
    -2
100
AcDbLine
 10
669.3636774464547
 20
215.1118231947994
 30
0.0
 11
647.6136774464547
 21
215.1118231947994
 31
0.0
  0
LINE
  5
9B2
330
933
100
AcDbEntity
  8
0
 62
     0
370
    -2
100
AcDbLine
 10
676.5960381506707
 20
215.1118231947994
 30
0.0
 11
671.8636774464547
 21
215.1118231947994
 31
0.0
  0
INSERT
  5
9B3
330
933
100
AcDbEntity
  8
0
 62
     0
370
    -2
100
AcDbBlockReference
  2
_Open30
 10
676.5960381506707
 20
215.1118231947994
 30
0.0
 41
2.5
 42
2.5
 43
2.5
 50
180.0
  0
INSERT
  5
9B4
330
933
100
AcDbEntity
  8
0
 62
     0
370
    -2
100
AcDbBlockReference
  2
_Open30
 10
671.8636774464547
 20
215.1118231947994
 30
0.0
 41
2.5
 42
2.5
 43
2.5
  0
MTEXT
  5
9B5
330
933
100
AcDbEntity
  8
0
 62
     4
100
AcDbMText
 10
657.2386774464547
 20
217.9868231947994
 30
0.0
 40
4.5
 41
0.0
 71
     5
 72
     1
  1
47.32
  7
高4.5
 73
     1
 44
1.0
1001
ACAD
1000
MTEXTBEGIN
1070
    73
1070
     1
1070
    44
1040
1.0
1070
    74
1070
     0
1000
MTEXTEND
  0
POINT
  5
9B6
330
933
100
AcDbEntity
  8
Defpoints
 62
     0
100
AcDbPoint
 10
676.5960381506707
 20
215.9302367022558
 30
0.0
  0
POINT
  5
9B7
330
933
100
AcDbEntity
  8
Defpoints
 62
     0
100
AcDbPoint
 10
671.8636774464547
 20
215.9302367022558
 30
0.0
  0
POINT
  5
9B8
330
933
100
AcDbEntity
  8
Defpoints
 62
     0
100
AcDbPoint
 10
671.8636774464547
 20
215.1118231947994
 30
0.0
  0
ENDBLK
  5
935
330
933
100
AcDbEntity
  8
0
100
AcDbBlockEnd
  0
BLOCK
  5
942
330
941
100
AcDbEntity
  8
0
100
AcDbBlockBegin
  2
*D10
 70
     1
 10
0.0
 20
0.0
 30
0.0
  3
*D10
  1

  0
LINE
  5
9B9
330
941
100
AcDbEntity
  8
0
 62
     0
370
    -2
100
AcDbLine
 10
698.0736744186782
 20
231.8666359588963
 30
0.0
 11
698.0736744186782
 21
228.9570045368874
 31
0.0
  0
LINE
  5
9BA
330
941
100
AcDbEntity
  8
0
 62
     0
370
    -2
100
AcDbLine
 10
695.616487364558
 20
231.8666359588963
 30
0.0
 11
695.616487364558
 21
228.9570045368874
 31
0.0
  0
LINE
  5
9BB
330
941
100
AcDbEntity
  8
0
 62
     0
370
    -2
100
AcDbLine
 10
700.5736744186783
 20
230.2070045368874
 30
0.0
 11
703.0736744186782
 21
230.2070045368874
 31
0.0
  0
LINE
  5
9BC
330
941
100
AcDbEntity
  8
0
 62
     0
370
    -2
100
AcDbLine
 10
693.1164873645577
 20
230.2070045368874
 30
0.0
 11
671.5164873645578
 21
230.2070045368874
 31
0.0
  0
LINE
  5
9BD
330
941
100
AcDbEntity
  8
0
 62
     0
370
    -2
100
AcDbLine
 10
698.0736744186782
 20
230.2070045368874
 30
0.0
 11
695.616487364558
 21
230.2070045368874
 31
0.0
  0
INSERT
  5
9BE
330
941
100
AcDbEntity
  8
0
 62
     0
370
    -2
100
AcDbBlockReference
  2
_Open30
 10
698.0736744186782
 20
230.2070045368874
 30
0.0
 41
2.5
 42
2.5
 43
2.5
 50
180.0
  0
INSERT
  5
9BF
330
941
100
AcDbEntity
  8
0
 62
     0
370
    -2
100
AcDbBlockReference
  2
_Open30
 10
695.616487364558
 20
230.2070045368874
 30
0.0
 41
2.5
 42
2.5
 43
2.5
  0
MTEXT
  5
9C0
330
941
100
AcDbEntity
  8
0
 62
     4
100
AcDbMText
 10
681.066487364558
 20
233.9820045368874
 30
0.0
 40
6.299999999999998
 41
0.0
 71
     5
 72
     1
  1
0.25
  7
高6.3
 73
     1
 44
1.0
1001
ACAD
1000
MTEXTBEGIN
1070
    73
1070
     1
1070
    44
1040
1.0
1070
    74
1070
     0
1000
MTEXTEND
  0
POINT
  5
9C1
330
941
100
AcDbEntity
  8
Defpoints
 62
     0
100
AcDbPoint
 10
698.0736744186782
 20
232.1166359588963
 30
0.0
  0
POINT
  5
9C2
330
941
100
AcDbEntity
  8
Defpoints
 62
     0
100
AcDbPoint
 10
695.616487364558
 20
232.1166359588963
 30
0.0
  0
POINT
  5
9C3
330
941
100
AcDbEntity
  8
Defpoints
 62
     0
100
AcDbPoint
 10
695.616487364558
 20
230.2070045368874
 30
0.0
  0
ENDBLK
  5
943
330
941
100
AcDbEntity
  8
0
100
AcDbBlockEnd
  0
BLOCK
  5
950
330
94F
100
AcDbEntity
  8
0
100
AcDbBlockBegin
  2
*D11
 70
     1
 10
0.0
 20
0.0
 30
0.0
  3
*D11
  1

  0
LINE
  5
9C4
330
94F
100
AcDbEntity
  8
0
 62
     0
370
    -2
100
AcDbLine
 10
699.7117993247513
 20
226.4105463861339
 30
0.0
 11
699.7117993247513
 21
223.8646543166705
 31
0.0
  0
LINE
  5
9C5
330
94F
100
AcDbEntity
  8
0
 62
     0
370
    -2
100
AcDbLine
 10
696.6175635266084
 20
226.4105463861339
 30
0.0
 11
696.6175635266084
 21
223.8646543166705
 31
0.0
  0
LINE
  5
9C6
330
94F
100
AcDbEntity
  8
0
 62
     0
370
    -2
100
AcDbLine
 10
702.2117993247514
 20
225.1146543166706
 30
0.0
 11
704.7117993247513
 21
225.1146543166706
 31
0.0
  0
LINE
  5
9C7
330
94F
100
AcDbEntity
  8
0
 62
     0
370
    -2
100
AcDbLine
 10
694.1175635266086
 20
225.1146543166706
 30
0.0
 11
682.1175635266087
 21
225.1146543166706
 31
0.0
  0
LINE
  5
9C8
330
94F
100
AcDbEntity
  8
0
 62
     0
370
    -2
100
AcDbLine
 10
699.7117993247513
 20
225.1146543166706
 30
0.0
 11
696.6175635266084
 21
225.1146543166706
 31
0.0
  0
INSERT
  5
9C9
330
94F
100
AcDbEntity
  8
0
 62
     0
370
    -2
100
AcDbBlockReference
  2
_Open30
 10
699.7117993247513
 20
225.1146543166706
 30
0.0
 41
2.5
 42
2.5
 43
2.5
 50
180.0
  0
INSERT
  5
9CA
330
94F
100
AcDbEntity
  8
0
 62
     0
370
    -2
100
AcDbBlockReference
  2
_Open30
 10
696.6175635266084
 20
225.1146543166706
 30
0.0
 41
2.5
 42
2.5
 43
2.5
  0
MTEXT
  5
9CB
330
94F
100
AcDbEntity
  8
0
 62
     4
100
AcDbMText
 10
686.7425635266084
 20
227.2396543166706
 30
0.0
 40
3.0
 41
0.0
 71
     5
 72
     1
  1
1.55
 73
     1
 44
1.0
1001
ACAD
1000
MTEXTBEGIN
1070
    73
1070
     1
1070
    44
1040
1.0
1070
    74
1070
     0
1000
MTEXTEND
  0
POINT
  5
9CC
330
94F
100
AcDbEntity
  8
Defpoints
 62
     0
100
AcDbPoint
 10
699.7117993247513
 20
226.6605463861339
 30
0.0
  0
POINT
  5
9CD
330
94F
100
AcDbEntity
  8
Defpoints
 62
     0
100
AcDbPoint
 10
696.6175635266084
 20
226.6605463861339
 30
0.0
  0
POINT
  5
9CE
330
94F
100
AcDbEntity
  8
Defpoints
 62
     0
100
AcDbPoint
 10
696.6175635266084
 20
225.1146543166706
 30
0.0
  0
ENDBLK
  5
951
330
94F
100
AcDbEntity
  8
0
100
AcDbBlockEnd
  0
BLOCK
  5
95E
330
95D
100
AcDbEntity
  8
0
100
AcDbBlockBegin
  2
*D12
 70
     1
 10
0.0
 20
0.0
 30
0.0
  3
*D12
  1

  0
LINE
  5
9CF
330
95D
100
AcDbEntity
  8
0
 62
     0
370
    -2
100
AcDbLine
 10
701.4409309328368
 20
220.9544566702874
 30
0.0
 11
701.4409309328368
 21
218.6813690079201
 31
0.0
  0
LINE
  5
9D0
330
95D
100
AcDbEntity
  8
0
 62
     0
370
    -2
100
AcDbLine
 10
697.4366259796452
 20
220.9544566702874
 30
0.0
 11
697.4366259796452
 21
218.6813690079201
 31
0.0
  0
LINE
  5
9D1
330
95D
100
AcDbEntity
  8
0
 62
     0
370
    -2
100
AcDbLine
 10
703.940930932837
 20
219.9313690079201
 30
0.0
 11
706.4409309328368
 21
219.9313690079201
 31
0.0
  0
LINE
  5
9D2
330
95D
100
AcDbEntity
  8
0
 62
     0
370
    -2
100
AcDbLine
 10
694.9366259796452
 20
219.9313690079201
 30
0.0
 11
686.6032926463121
 21
219.9313690079201
 31
0.0
  0
LINE
  5
9D3
330
95D
100
AcDbEntity
  8
0
 62
     0
370
    -2
100
AcDbLine
 10
701.4409309328368
 20
219.9313690079201
 30
0.0
 11
697.4366259796452
 21
219.9313690079201
 31
0.0
  0
INSERT
  5
9D4
330
95D
100
AcDbEntity
  8
0
 62
     0
370
    -2
100
AcDbBlockReference
  2
_Open30
 10
701.4409309328368
 20
219.9313690079201
 30
0.0
 41
2.5
 42
2.5
 43
2.5
 50
180.0
  0
INSERT
  5
9D5
330
95D
100
AcDbEntity
  8
0
 62
     0
370
    -2
100
AcDbBlockReference
  2
_Open30
 10
697.4366259796452
 20
219.9313690079201
 30
0.0
 41
2.5
 42
2.5
 43
2.5
  0
MTEXT
  5
9D6
330
95D
100
AcDbEntity
  8
0
 62
     4
100
AcDbMText
 10
689.0616259796452
 20
221.5563690079201
 30
0.0
 40
2.0
 41
0.0
 71
     5
 72
     1
  1
0.8
  7
高2
 73
     1
 44
1.0
1001
ACAD
1000
MTEXTBEGIN
1070
    73
1070
     1
1070
    44
1040
1.0
1070
    74
1070
     0
1000
MTEXTEND
  0
POINT
  5
9D7
330
95D
100
AcDbEntity
  8
Defpoints
 62
     0
100
AcDbPoint
 10
701.4409309328368
 20
221.2044566702874
 30
0.0
  0
POINT
  5
9D8
330
95D
100
AcDbEntity
  8
Defpoints
 62
     0
100
AcDbPoint
 10
697.4366259796452
 20
221.2044566702874
 30
0.0
  0
POINT
  5
9D9
330
95D
100
AcDbEntity
  8
Defpoints
 62
     0
100
AcDbPoint
 10
697.4366259796452
 20
219.9313690079201
 30
0.0
  0
ENDBLK
  5
95F
330
95D
100
AcDbEntity
  8
0
100
AcDbBlockEnd
  0
BLOCK
  5
96C
330
96B
100
AcDbEntity
  8
0
100
AcDbBlockBegin
  2
*D13
 70
     1
 10
0.0
 20
0.0
 30
0.0
  3
*D13
  1

  0
LINE
  5
9DA
330
96B
100
AcDbEntity
  8
0
 62
     0
370
    -2
100
AcDbLine
 10
701.3499242308246
 20
215.6802367022558
 30
0.0
 11
701.3499242308246
 21
213.8618231947994
 31
0.0
  0
LINE
  5
9DB
330
96B
100
AcDbEntity
  8
0
 62
     0
370
    -2
100
AcDbLine
 10
696.6175635266084
 20
215.6802367022558
 30
0.0
 11
696.6175635266084
 21
213.8618231947994
 31
0.0
  0
LINE
  5
9DC
330
96B
100
AcDbEntity
  8
0
 62
     0
370
    -2
100
AcDbLine
 10
703.8499242308246
 20
215.1118231947994
 30
0.0
 11
706.3499242308246
 21
215.1118231947994
 31
0.0
  0
LINE
  5
9DD
330
96B
100
AcDbEntity
  8
0
 62
     0
370
    -2
100
AcDbLine
 10
694.1175635266086
 20
215.1118231947994
 30
0.0
 11
679.3675635266087
 21
215.1118231947994
 31
0.0
  0
LINE
  5
9DE
330
96B
100
AcDbEntity
  8
0
 62
     0
370
    -2
100
AcDbLine
 10
701.3499242308246
 20
215.1118231947994
 30
0.0
 11
696.6175635266084
 21
215.1118231947994
 31
0.0
  0
INSERT
  5
9DF
330
96B
100
AcDbEntity
  8
0
 62
     0
370
    -2
100
AcDbBlockReference
  2
_Open30
 10
701.3499242308246
 20
215.1118231947994
 30
0.0
 41
2.5
 42
2.5
 43
2.5
 50
180.0
  0
INSERT
  5
9E0
330
96B
100
AcDbEntity
  8
0
 62
     0
370
    -2
100
AcDbBlockReference
  2
_Open30
 10
696.6175635266084
 20
215.1118231947994
 30
0.0
 41
2.5
 42
2.5
 43
2.5
  0
MTEXT
  5
9E1
330
96B
100
AcDbEntity
  8
0
 62
     4
100
AcDbMText
 10
685.4925635266084
 20
217.2368231947994
 30
0.0
 40
3.0
 41
0.0
 71
     5
 72
     1
  1
18.93
 73
     1
 44
1.0
1001
ACAD
1000
MTEXTBEGIN
1070
    73
1070
     1
1070
    44
1040
1.0
1070
    74
1070
     0
1000
MTEXTEND
  0
POINT
  5
9E2
330
96B
100
AcDbEntity
  8
Defpoints
 62
     0
100
AcDbPoint
 10
701.3499242308246
 20
215.9302367022558
 30
0.0
  0
POINT
  5
9E3
330
96B
100
AcDbEntity
  8
Defpoints
 62
     0
100
AcDbPoint
 10
696.6175635266084
 20
215.9302367022558
 30
0.0
  0
POINT
  5
9E4
330
96B
100
AcDbEntity
  8
Defpoints
 62
     0
100
AcDbPoint
 10
696.6175635266084
 20
215.1118231947994
 30
0.0
  0
ENDBLK
  5
96D
330
96B
100
AcDbEntity
  8
0
100
AcDbBlockEnd
  0
BLOCK
  5
9E9
330
9E7
100
AcDbEntity
  8
0
100
AcDbBlockBegin
  2
_DotSmall
 70
     0
 10
0.0
 20
0.0
 30
0.0
  3
_DotSmall
  1

  0
LWPOLYLINE
  5
9E8
330
9E7
100
AcDbEntity
  8
0
  6
ByBlock
 62
     0
100
AcDbPolyline
 90
        2
 70
     1
 43
0.5
 10
-0.0625
 20
0.0
 42
1.0
 10
0.0625
 20
0.0
 42
1.0
  0
ENDBLK
  5
9EA
330
9E7
100
AcDbEntity
  8
0
100
AcDbBlockEnd
  0
ENDSEC
  0
SECTION
  2
ENTITIES
  0
ARC
  5
86
330
36
100
AcDbEntity
  8
0
 62
     3
100
AcDbCircle
 10
36.356047
 20
156.159363
 30
0.0
 40
6.702999999999997
100
AcDbArc
 50
180.0
 51
270.0
  0
ARC
  5
87
330
36
100
AcDbEntity
  8
0
 62
     3
100
AcDbCircle
 10
36.356047
 20
156.159363
 30
0.0
 40
3.266
100
AcDbArc
 50
180.0
 51
270.0
  0
LINE
  5
88
330
36
100
AcDbEntity
  8
0
 62
     3
100
AcDbLine
 10
112.669047
 20
203.768363
 30
0.0
 11
36.356047
 21
203.768363
 31
0.0
  0
LINE
  5
89
330
36
100
AcDbEntity
  8
0
 62
     3
100
AcDbLine
 10
36.356047
 20
152.893363
 30
0.0
 11
112.669047
 21
152.893363
 31
0.0
  0
ARC
  5
8A
330
36
100
AcDbEntity
  8
0
 62
     3
100
AcDbCircle
 10
112.669047
 20
156.159363
 30
0.0
 40
3.266
100
AcDbArc
 50
270.0
 51
0.0
  0
LINE
  5
8B
330
36
100
AcDbEntity
  8
0
 62
     3
100
AcDbLine
 10
36.356047
 20
149.4553629999999
 30
0.0
 11
112.669047
 21
149.4553629999999
 31
0.0
  0
ARC
  5
8C
330
36
100
AcDbEntity
  8
0
 62
     3
100
AcDbCircle
 10
112.669047
 20
156.159363
 30
0.0
 40
6.702999999999997
100
AcDbArc
 50
270.0
 51
0.0
  0
LINE
  5
8D
330
36
100
AcDbEntity
  8
0
 62
     3
100
AcDbLine
 10
119.372047
 20
156.159363
 30
0.0
 11
119.372047
 21
200.502363
 31
0.0
  0
ARC
  5
8E
330
36
100
AcDbEntity
  8
0
 62
     3
100
AcDbCircle
 10
112.669047
 20
200.502363
 30
0.0
 40
6.702999999999997
100
AcDbArc
 50
0.0
 51
90.0
  0
LINE
  5
8F
330
36
100
AcDbEntity
  8
0
 62
     3
100
AcDbLine
 10
29.653047
 20
200.502363
 30
0.0
 11
29.653047
 21
156.159363
 31
0.0
  0
LINE
  5
90
330
36
100
AcDbEntity
  8
0
 62
     3
100
AcDbLine
 10
112.669047
 20
207.205363
 30
0.0
 11
36.356047
 21
207.205363
 31
0.0
  0
ARC
  5
91
330
36
100
AcDbEntity
  8
0
 62
     3
100
AcDbCircle
 10
36.356047
 20
200.502363
 30
0.0
 40
6.702999999999997
100
AcDbArc
 50
90.0
 51
180.0
  0
LINE
  5
92
330
36
100
AcDbEntity
  8
0
 62
     3
100
AcDbLine
 10
45.46604699999998
 20
145.502363
 30
0.0
 11
38.247047
 21
145.502363
 31
0.0
  0
LINE
  5
93
330
36
100
AcDbEntity
  8
0
 62
     3
100
AcDbLine
 10
45.96004699999999
 20
149.4553629999999
 30
0.0
 11
45.46604699999998
 21
145.502363
 31
0.0
  0
LINE
  5
94
330
36
100
AcDbEntity
  8
0
 62
     3
100
AcDbLine
 10
38.247047
 20
145.502363
 30
0.0
 11
37.75304699999999
 21
149.4553629999999
 31
0.0
  0
LINE
  5
95
330
36
100
AcDbEntity
  8
0
 62
     3
100
AcDbLine
 10
103.560047
 20
145.502363
 30
0.0
 11
110.778047
 21
145.502363
 31
0.0
  0
LINE
  5
96
330
36
100
AcDbEntity
  8
0
 62
     3
100
AcDbLine
 10
103.065047
 20
149.4553629999999
 30
0.0
 11
103.560047
 21
145.502363
 31
0.0
  0
LINE
  5
97
330
36
100
AcDbEntity
  8
0
 62
     3
100
AcDbLine
 10
110.778047
 20
145.502363
 30
0.0
 11
111.272047
 21
149.4553629999999
 31
0.0
  0
LINE
  5
98
330
36
100
AcDbEntity
  8
0
 62
     3
100
AcDbLine
 10
217.066047
 20
151.346363
 30
0.0
 11
217.066047
 21
206.002363
 31
0.0
  0
LINE
  5
99
330
36
100
AcDbEntity
  8
0
 62
     3
100
AcDbLine
 10
203.831047
 20
145.502363
 30
0.0
 11
211.050047
 21
145.502363
 31
0.0
  0
LINE
  5
9A
330
36
100
AcDbEntity
  8
0
 62
     3
100
AcDbLine
 10
203.101047
 20
151.346363
 30
0.0
 11
203.831047
 21
145.502363
 31
0.0
  0
LINE
  5
9B
330
36
100
AcDbEntity
  8
0
 62
     3
100
AcDbLine
 10
211.050047
 20
145.502363
 30
0.0
 11
211.781047
 21
151.346363
 31
0.0
  0
LINE
  5
9C
330
36
100
AcDbEntity
  8
0
 62
     3
100
AcDbLine
 10
155.706047
 20
145.502363
 30
0.0
 11
162.925047
 21
145.502363
 31
0.0
  0
LINE
  5
9D
330
36
100
AcDbEntity
  8
0
 62
     3
100
AcDbLine
 10
154.976047
 20
151.346363
 30
0.0
 11
155.706047
 21
145.502363
 31
0.0
  0
LINE
  5
9E
330
36
100
AcDbEntity
  8
0
 62
     3
100
AcDbLine
 10
162.925047
 20
145.502363
 30
0.0
 11
163.656047
 21
151.346363
 31
0.0
  0
LINE
  5
9F
330
36
100
AcDbEntity
  8
0
 62
     3
100
AcDbLine
 10
145.222047
 20
151.346363
 30
0.0
 11
217.066047
 21
151.346363
 31
0.0
  0
LINE
  5
A0
330
36
100
AcDbEntity
  8
0
 62
     3
100
AcDbLine
 10
145.222047
 20
206.002363
 30
0.0
 11
217.066047
 21
206.002363
 31
0.0
  0
ARC
  5
A1
330
36
100
AcDbEntity
  8
0
 62
     3
100
AcDbCircle
 10
138.003047
 20
151.346363
 30
0.0
 40
1.719
100
AcDbArc
 50
180.0
 51
270.0
  0
LINE
  5
A2
330
36
100
AcDbEntity
  8
0
 62
     3
100
AcDbLine
 10
136.285047
 20
151.346363
 30
0.0
 11
136.285047
 21
206.002363
 31
0.0
  0
ARC
  5
A3
330
36
100
AcDbEntity
  8
0
 62
     3
100
AcDbCircle
 10
138.003047
 20
206.002363
 30
0.0
 40
1.719
100
AcDbArc
 50
90.0
 51
180.0
  0
LINE
  5
A4
330
36
100
AcDbEntity
  8
0
 62
     3
100
AcDbLine
 10
144.535047
 20
207.721363
 30
0.0
 11
138.003047
 21
207.721363
 31
0.0
  0
ARC
  5
A5
330
36
100
AcDbEntity
  8
0
 62
     3
100
AcDbCircle
 10
144.535047
 20
207.034363
 30
0.0
 40
0.6879999999999999
100
AcDbArc
 50
0.0
 51
90.0
  0
LINE
  5
A6
330
36
100
AcDbEntity
  8
0
 62
     3
100
AcDbLine
 10
138.003047
 20
149.627363
 30
0.0
 11
144.535047
 21
149.627363
 31
0.0
  0
LINE
  5
A7
330
36
100
AcDbEntity
  8
0
 62
     3
100
AcDbLine
 10
145.222047
 20
150.315363
 30
0.0
 11
145.222047
 21
207.034363
 31
0.0
  0
ARC
  5
A8
330
36
100
AcDbEntity
  8
0
 62
     3
100
AcDbCircle
 10
144.535047
 20
150.315363
 30
0.0
 40
0.6879999999999999
100
AcDbArc
 50
270.0
 51
0.0
  0
LINE
  5
A9
330
36
100
AcDbEntity
  8
0
 62
     3
100
AcDbLine
 10
217.066047
 20
168.534363
 30
0.0
 11
145.222047
 21
168.534363
 31
0.0
  0
ARC
  5
AA
330
36
100
AcDbEntity
  8
0
 62
     3
100
AcDbCircle
 10
325.931047
 20
156.159363
 30
0.0
 40
6.702999999999997
100
AcDbArc
 50
270.0
 51
0.0
  0
ARC
  5
AB
330
36
100
AcDbEntity
  8
0
 62
     3
100
AcDbCircle
 10
249.619047
 20
156.159363
 30
0.0
 40
6.702999999999997
100
AcDbArc
 50
180.0
 51
270.0
  0
LINE
  5
AC
330
36
100
AcDbEntity
  8
0
 62
     3
100
AcDbLine
 10
242.916047
 20
156.159363
 30
0.0
 11
242.916047
 21
200.502363
 31
0.0
  0
ARC
  5
AD
330
36
100
AcDbEntity
  8
0
 62
     3
100
AcDbCircle
 10
249.619047
 20
200.502363
 30
0.0
 40
6.702999999999997
100
AcDbArc
 50
90.0
 51
180.0
  0
LINE
  5
AE
330
36
100
AcDbEntity
  8
0
 62
     3
100
AcDbLine
 10
332.635047
 20
200.502363
 30
0.0
 11
332.635047
 21
156.159363
 31
0.0
  0
LINE
  5
AF
330
36
100
AcDbEntity
  8
0
 62
     3
100
AcDbLine
 10
249.619047
 20
207.205363
 30
0.0
 11
325.931047
 21
207.205363
 31
0.0
  0
ARC
  5
B0
330
36
100
AcDbEntity
  8
0
 62
     3
100
AcDbCircle
 10
325.931047
 20
200.502363
 30
0.0
 40
6.702999999999997
100
AcDbArc
 50
0.0
 51
90.0
  0
LINE
  5
B1
330
36
100
AcDbEntity
  8
0
 62
     3
100
AcDbLine
 10
316.328047
 20
149.4553629999999
 30
0.0
 11
316.822047
 21
145.502363
 31
0.0
  0
LINE
  5
B2
330
36
100
AcDbEntity
  8
0
 62
     3
100
AcDbLine
 10
324.041047
 20
145.502363
 30
0.0
 11
324.535047
 21
149.4553629999999
 31
0.0
  0
LINE
  5
B3
330
36
100
AcDbEntity
  8
0
 62
     3
100
AcDbLine
 10
259.222047
 20
149.4553629999999
 30
0.0
 11
258.728047
 21
145.502363
 31
0.0
  0
LINE
  5
B4
330
36
100
AcDbEntity
  8
0
 62
     3
100
AcDbLine
 10
251.510047
 20
145.502363
 30
0.0
 11
251.015047
 21
149.4553629999999
 31
0.0
  0
LINE
  5
B5
330
36
100
AcDbEntity
  8
0
 62
     3
100
AcDbLine
 10
292.956047
 20
183.353363
 30
0.0
 11
313.581047
 21
183.353363
 31
0.0
  0
LINE
  5
B6
330
36
100
AcDbEntity
  8
0
 62
     3
100
AcDbLine
 10
292.956047
 20
187.821363
 30
0.0
 11
313.581047
 21
187.821363
 31
0.0
  0
LINE
  5
B7
330
36
100
AcDbEntity
  8
0
 62
     3
100
AcDbLine
 10
262.018047
 20
183.353363
 30
0.0
 11
282.643047
 21
183.353363
 31
0.0
  0
LINE
  5
B8
330
36
100
AcDbEntity
  8
0
 62
     3
100
AcDbLine
 10
262.018047
 20
187.821363
 30
0.0
 11
282.643047
 21
187.821363
 31
0.0
  0
LINE
  5
B9
330
36
100
AcDbEntity
  8
0
 62
     3
100
AcDbLine
 10
325.931047
 20
149.4553629999999
 30
0.0
 11
320.636047
 21
149.4553629999999
 31
0.0
  0
LINE
  5
BA
330
36
100
AcDbEntity
  8
0
 62
     3
100
AcDbLine
 10
320.636047
 20
145.502363
 30
0.0
 11
324.041047
 21
145.502363
 31
0.0
  0
ARC
  5
BB
330
36
100
AcDbEntity
  8
0
 62
     3
100
AcDbCircle
 10
252.151047
 20
112.261363
 30
0.0
 40
1.169999999999999
100
AcDbArc
 50
291.595
 51
68.405
  0
ARC
  5
BC
330
36
100
AcDbEntity
  8
0
 62
     3
100
AcDbCircle
 10
259.335047
 20
106.196363
 30
0.0
 40
8.39
100
AcDbArc
 50
143.61
 51
181.907
  0
ARC
  5
BD
330
36
100
AcDbEntity
  8
0
 62
     3
100
AcDbCircle
 10
258.087047
 20
112.261363
 30
0.0
 40
1.169999999999999
100
AcDbArc
 50
111.595
 51
248.405
  0
ARC
  5
BE
330
36
100
AcDbEntity
  8
0
 62
     3
100
AcDbCircle
 10
250.903047
 20
106.196363
 30
0.0
 40
8.39
100
AcDbArc
 50
358.093
 51
36.39
  0
LINE
  5
BF
330
36
100
AcDbEntity
  8
0
 62
     3
100
AcDbLine
 10
253.850047
 20
116.974363
 30
0.0
 11
256.388047
 21
116.974363
 31
0.0
  0
LINE
  5
C0
330
36
100
AcDbEntity
  8
0
 62
     3
100
AcDbLine
 10
256.388047
 20
116.974363
 30
0.0
 11
256.750047
 21
113.712363
 31
0.0
  0
LINE
  5
C1
330
36
100
AcDbEntity
  8
0
 62
     3
100
AcDbLine
 10
256.750047
 20
113.712363
 30
0.0
 11
253.487047
 21
113.712363
 31
0.0
  0
LINE
  5
C2
330
36
100
AcDbEntity
  8
0
 62
     3
100
AcDbLine
 10
253.487047
 20
113.712363
 30
0.0
 11
253.850047
 21
116.974363
 31
0.0
  0
LINE
  5
C3
330
36
100
AcDbEntity
  8
0
 62
     3
100
AcDbLine
 10
253.487047
 20
113.712363
 30
0.0
 11
252.581047
 21
113.712363
 31
0.0
  0
LINE
  5
C4
330
36
100
AcDbEntity
  8
0
 62
     3
100
AcDbLine
 10
252.581047
 20
113.712363
 30
0.0
 11
252.581047
 21
113.349363
 31
0.0
  0
LINE
  5
C5
330
36
100
AcDbEntity
  8
0
 62
     3
100
AcDbLine
 10
257.657047
 20
113.349363
 30
0.0
 11
257.657047
 21
113.712363
 31
0.0
  0
LINE
  5
C6
330
36
100
AcDbEntity
  8
0
 62
     3
100
AcDbLine
 10
257.657047
 20
113.712363
 30
0.0
 11
256.750047
 21
113.712363
 31
0.0
  0
LINE
  5
C7
330
36
100
AcDbEntity
  8
0
 62
     3
100
AcDbLine
 10
250.950047
 20
105.917363
 30
0.0
 11
259.288047
 21
105.917363
 31
0.0
  0
LINE
  5
C8
330
36
100
AcDbEntity
  8
0
 62
     3
100
AcDbLine
 10
256.207047
 20
121.684363
 30
0.0
 11
256.207047
 21
116.974363
 31
0.0
  0
LINE
  5
C9
330
36
100
AcDbEntity
  8
0
 62
     3
100
AcDbLine
 10
254.031047
 20
120.696363
 30
0.0
 11
254.031047
 21
116.974363
 31
0.0
  0
LINE
  5
CA
330
36
100
AcDbEntity
  8
0
 62
     3
100
AcDbLine
 10
254.070047
 20
121.836363
 30
0.0
 11
254.070047
 21
161.662363
 31
0.0
  0
LINE
  5
CB
330
36
100
AcDbEntity
  8
0
 62
     3
100
AcDbLine
 10
256.218047
 20
122.910363
 30
0.0
 11
256.218047
 21
161.662363
 31
0.0
  0
LINE
  5
CC
330
36
100
AcDbEntity
  8
0
 62
     3
100
AcDbLine
 10
257.525047
 20
162.588363
 30
0.0
 11
257.525047
 21
160.736363
 31
0.0
  0
ARC
  5
CD
330
36
100
AcDbEntity
  8
0
 62
     3
100
AcDbCircle
 10
255.119047
 20
161.662363
 30
0.0
 40
2.577999999999998
100
AcDbArc
 50
21.039
 51
158.961
  0
LINE
  5
CE
330
36
100
AcDbEntity
  8
0
 62
     3
100
AcDbLine
 10
252.713047
 20
162.588363
 30
0.0
 11
252.713047
 21
160.736363
 31
0.0
  0
ARC
  5
CF
330
36
100
AcDbEntity
  8
0
 62
     3
100
AcDbCircle
 10
255.119047
 20
161.662363
 30
0.0
 40
2.577999999999998
100
AcDbArc
 50
295.233
 51
338.961
  0
ARC
  5
D0
330
36
100
AcDbEntity
  8
0
 62
     3
100
AcDbCircle
 10
255.119047
 20
161.662363
 30
0.0
 40
2.577999999999998
100
AcDbArc
 50
201.039
 51
246.438
  0
LINE
  5
D1
330
36
100
AcDbEntity
  8
0
 62
     3
100
AcDbLine
 10
254.070047
 20
161.662363
 30
0.0
 11
256.218047
 21
161.662363
 31
0.0
  0
LINE
  5
D2
330
36
100
AcDbEntity
  8
0
 62
     3
100
AcDbLine
 10
254.070047
 20
145.502363
 30
0.0
 11
251.510047
 21
145.502363
 31
0.0
  0
LINE
  5
D3
330
36
100
AcDbEntity
  8
0
 62
     3
100
AcDbLine
 10
254.070047
 20
149.4553629999999
 30
0.0
 11
249.619047
 21
149.4553629999999
 31
0.0
  0
LINE
  5
D4
330
36
100
AcDbEntity
  8
0
 62
     3
100
AcDbLine
 10
258.728047
 20
145.502363
 30
0.0
 11
256.218047
 21
145.502363
 31
0.0
  0
LINE
  5
D5
330
36
100
AcDbEntity
  8
0
 62
     3
100
AcDbLine
 10
316.769047
 20
149.4553629999999
 30
0.0
 11
256.218047
 21
149.4553629999999
 31
0.0
  0
LINE
  5
D6
330
36
100
AcDbEntity
  8
0
 62
     3
100
AcDbLine
 10
320.636047
 20
137.922363
 30
0.0
 11
320.636047
 21
173.006363
 31
0.0
  0
LINE
  5
D7
330
36
100
AcDbEntity
  8
0
 62
     3
100
AcDbLine
 10
316.769047
 20
138.244363
 30
0.0
 11
316.769047
 21
173.006363
 31
0.0
  0
ARC
  5
D8
330
36
100
AcDbEntity
  8
0
 62
     3
100
AcDbCircle
 10
318.703047
 20
173.006363
 30
0.0
 40
2.063
100
AcDbArc
 50
0.0
 51
180.0
  0
ARC
  5
D9
330
36
100
AcDbEntity
  8
0
 62
     3
100
AcDbCircle
 10
318.703047
 20
173.006363
 30
0.0
 40
3.266
100
AcDbArc
 50
309.1670000000001
 51
230.833
  0
ARC
  5
DA
330
36
100
AcDbEntity
  8
0
 62
     3
100
AcDbCircle
 10
318.703047
 20
161.662363
 30
0.0
 40
3.266
100
AcDbArc
 50
126.307
 51
230.833
  0
ARC
  5
DB
330
36
100
AcDbEntity
  8
0
 62
     3
100
AcDbCircle
 10
318.703047
 20
161.662363
 30
0.0
 40
3.266
100
AcDbArc
 50
309.1670000000001
 51
53.69299999999999
  0
ARC
  5
DC
330
36
100
AcDbEntity
  8
0
 62
     3
100
AcDbCircle
 10
318.703047
 20
161.662363
 30
0.0
 40
2.063
100
AcDbArc
 50
159.636
 51
180.0
  0
LINE
  5
DD
330
36
100
AcDbEntity
  8
0
 62
     3
100
AcDbLine
 10
315.050047
 20
125.189363
 30
0.0
 11
299.281047
 21
125.189363
 31
0.0
  0
ARC
  5
DE
330
36
100
AcDbEntity
  8
0
 62
     3
100
AcDbCircle
 10
315.050047
 20
126.908363
 30
0.0
 40
1.719
100
AcDbArc
 50
270.0
 51
0.0
  0
LINE
  5
DF
330
36
100
AcDbEntity
  8
0
 62
     3
100
AcDbLine
 10
315.480047
 20
121.322363
 30
0.0
 11
299.281047
 21
121.322363
 31
0.0
  0
ARC
  5
E0
330
36
100
AcDbEntity
  8
0
 62
     3
100
AcDbCircle
 10
315.480047
 20
126.478363
 30
0.0
 40
5.155999999999997
100
AcDbArc
 50
270.0
 51
0.0
  0
LINE
  5
E1
330
36
100
AcDbEntity
  8
0
 62
     3
100
AcDbLine
 10
316.769047
 20
136.955405
 30
0.0
 11
316.769047
 21
126.908363
 31
0.0
  0
LINE
  5
E2
330
36
100
AcDbEntity
  8
0
 62
     3
100
AcDbLine
 10
70.388047
 20
223.193363
 30
0.0
 11
70.388047
 21
224.912363
 31
0.0
  0
LINE
  5
E3
330
36
100
AcDbEntity
  8
0
 62
     3
100
AcDbLine
 10
78.638047
 20
224.912363
 30
0.0
 11
70.388047
 21
224.912363
 31
0.0
  0
LINE
  5
E4
330
36
100
AcDbEntity
  8
0
 62
     3
100
AcDbLine
 10
78.638047
 20
223.193363
 30
0.0
 11
78.638047
 21
224.912363
 31
0.0
  0
LINE
  5
E5
330
36
100
AcDbEntity
  8
0
 62
     3
100
AcDbLine
 10
78.638047
 20
223.193363
 30
0.0
 11
70.388047
 21
223.193363
 31
0.0
  0
LINE
  5
E6
330
36
100
AcDbEntity
  8
0
 62
     3
100
AcDbLine
 10
64.20004699999998
 20
207.205363
 30
0.0
 11
64.20004699999998
 21
209.440363
 31
0.0
  0
ARC
  5
E7
330
36
100
AcDbEntity
  8
0
 62
     3
100
AcDbCircle
 10
52.742047
 20
222.863363
 30
0.0
 40
17.649
100
AcDbArc
 50
310.484
 51
1.06
  0
ARC
  5
E8
330
36
100
AcDbEntity
  8
0
 62
     3
100
AcDbCircle
 10
96.284047
 20
222.863363
 30
0.0
 40
17.649
100
AcDbArc
 50
178.94
 51
229.516
  0
LINE
  5
E9
330
36
100
AcDbEntity
  8
0
 62
     3
100
AcDbLine
 10
84.82504699999998
 20
207.205363
 30
0.0
 11
84.82504699999998
 21
209.440363
 31
0.0
  0
ARC
  5
EA
330
36
100
AcDbEntity
  8
0
 62
     3
100
AcDbCircle
 10
169.630047
 20
214.814363
 30
0.0
 40
1.857
100
AcDbArc
 50
95.56099999999998
 51
165.239
  0
LINE
  5
EB
330
36
100
AcDbEntity
  8
0
 62
     3
100
AcDbLine
 10
165.524047
 20
208.068363
 30
0.0
 11
167.834047
 21
215.287363
 31
0.0
  0
LINE
  5
EC
330
36
100
AcDbEntity
  8
0
 62
     3
100
AcDbLine
 10
182.883047
 20
224.912363
 30
0.0
 11
174.633047
 21
224.912363
 31
0.0
  0
LINE
  5
ED
330
36
100
AcDbEntity
  8
0
 62
     3
100
AcDbLine
 10
200.243047
 20
208.068363
 30
0.0
 11
197.933047
 21
215.287363
 31
0.0
  0
LINE
  5
EE
330
36
100
AcDbEntity
  8
0
 62
     3
100
AcDbLine
 10
182.883047
 20
224.912363
 30
0.0
 11
191.133047
 21
224.912363
 31
0.0
  0
LINE
  5
EF
330
36
100
AcDbEntity
  8
0
 62
     3
100
AcDbLine
 10
158.649047
 20
208.068363
 30
0.0
 11
158.649047
 21
207.037363
 31
0.0
  0
LINE
  5
F0
330
36
100
AcDbEntity
  8
0
 62
     3
100
AcDbLine
 10
150.055047
 20
224.909363
 30
0.0
 11
150.055047
 21
223.534363
 31
0.0
  0
ARC
  5
F1
330
36
100
AcDbEntity
  8
0
 62
     3
100
AcDbCircle
 10
181.050047
 20
208.810363
 30
0.0
 40
22.471
100
AcDbArc
 50
152.847
 51
184.5329999999999
  0
LINE
  5
F2
330
36
100
AcDbEntity
  8
0
 62
     3
100
AcDbLine
 10
150.055047
 20
223.534363
 30
0.0
 11
155.555047
 21
223.534363
 31
0.0
  0
ARC
  5
F3
330
36
100
AcDbEntity
  8
0
 62
     3
100
AcDbCircle
 10
153.447047
 20
218.777363
 30
0.0
 40
5.202999999999998
100
AcDbArc
 50
3.003999999999998
 51
66.09999999999999
  0
ARC
  5
F4
330
36
100
AcDbEntity
  8
0
 62
     3
100
AcDbCircle
 10
229.853047
 20
192.214363
 30
0.0
 40
76.09799999999999
100
AcDbArc
 50
159.351
 51
168.77
  0
LINE
  5
F5
330
36
100
AcDbEntity
  8
0
 62
     3
100
AcDbLine
 10
155.211047
 20
207.034363
 30
0.0
 11
155.211047
 21
206.006363
 31
0.0
  0
LINE
  5
F6
330
36
100
AcDbEntity
  8
0
 62
     3
100
AcDbLine
 10
150.055047
 20
224.909363
 30
0.0
 11
155.899047
 21
224.909363
 31
0.0
  0
ARC
  5
F7
330
36
100
AcDbEntity
  8
0
 62
     3
100
AcDbCircle
 10
154.738047
 20
218.688363
 30
0.0
 40
6.327999999999997
100
AcDbArc
 50
3.418
 51
79.43000000000002
  0
LINE
  5
F8
330
36
100
AcDbEntity
  8
0
 62
     3
100
AcDbLine
 10
165.524047
 20
208.068363
 30
0.0
 11
165.524047
 21
206.002363
 31
0.0
  0
ARC
  5
F9
330
36
100
AcDbEntity
  8
0
 62
     3
100
AcDbCircle
 10
196.137047
 20
214.814363
 30
0.0
 40
1.857
100
AcDbArc
 50
14.761
 51
84.43899999999997
  0
LINE
  5
FA
330
36
100
AcDbEntity
  8
0
 62
     3
100
AcDbLine
 10
169.450047
 20
216.662363
 30
0.0
 11
196.317047
 21
216.662363
 31
0.0
  0
LINE
  5
FB
330
36
100
AcDbEntity
  8
0
 62
     3
100
AcDbLine
 10
215.711047
 20
224.909363
 30
0.0
 11
215.711047
 21
223.534363
 31
0.0
  0
LINE
  5
FC
330
36
100
AcDbEntity
  8
0
 62
     3
100
AcDbLine
 10
215.711047
 20
223.534363
 30
0.0
 11
210.211047
 21
223.534363
 31
0.0
  0
ARC
  5
FD
330
36
100
AcDbEntity
  8
0
 62
     3
100
AcDbCircle
 10
212.319047
 20
218.777363
 30
0.0
 40
5.202999999999998
100
AcDbArc
 50
113.9
 51
176.996
  0
LINE
  5
FE
330
36
100
AcDbEntity
  8
0
 62
     3
100
AcDbLine
 10
215.711047
 20
224.909363
 30
0.0
 11
209.868047
 21
224.909363
 31
0.0
  0
ARC
  5
FF
330
36
100
AcDbEntity
  8
0
 62
     3
100
AcDbCircle
 10
211.029047
 20
218.688363
 30
0.0
 40
6.327999999999997
100
AcDbArc
 50
100.57
 51
176.582
  0
ARC
  5
100
330
36
100
AcDbEntity
  8
0
 62
     3
100
AcDbCircle
 10
184.717047
 20
208.810363
 30
0.0
 40
22.471
100
AcDbArc
 50
355.467
 51
27.153
  0
ARC
  5
101
330
36
100
AcDbEntity
  8
0
 62
     3
100
AcDbCircle
 10
135.914047
 20
192.214363
 30
0.0
 40
76.09799999999999
100
AcDbArc
 50
11.23
 51
20.649
  0
LINE
  5
102
330
36
100
AcDbEntity
  8
0
 62
     3
100
AcDbLine
 10
210.555047
 20
207.034363
 30
0.0
 11
210.555047
 21
206.006363
 31
0.0
  0
LINE
  5
103
330
36
100
AcDbEntity
  8
0
 62
     3
100
AcDbLine
 10
200.243047
 20
208.068363
 30
0.0
 11
200.243047
 21
206.002363
 31
0.0
  0
ARC
  5
104
330
36
100
AcDbEntity
  8
0
 62
     3
100
AcDbCircle
 10
175.342047
 20
205.662363
 30
0.0
 40
19.25
100
AcDbArc
 50
89.66700000000001
 51
140.354
  0
ARC
  5
105
330
36
100
AcDbEntity
  8
0
 62
     3
100
AcDbCircle
 10
190.425047
 20
205.662363
 30
0.0
 40
19.25
100
AcDbArc
 50
39.646
 51
90.333
  0
LINE
  5
106
330
36
100
AcDbEntity
  8
0
 62
     3
100
AcDbLine
 10
283.650047
 20
223.193363
 30
0.0
 11
283.650047
 21
224.912363
 31
0.0
  0
LINE
  5
107
330
36
100
AcDbEntity
  8
0
 62
     3
100
AcDbLine
 10
291.900047
 20
224.912363
 30
0.0
 11
283.650047
 21
224.912363
 31
0.0
  0
LINE
  5
108
330
36
100
AcDbEntity
  8
0
 62
     3
100
AcDbLine
 10
291.900047
 20
223.193363
 30
0.0
 11
291.900047
 21
224.912363
 31
0.0
  0
LINE
  5
109
330
36
100
AcDbEntity
  8
0
 62
     3
100
AcDbLine
 10
277.463047
 20
207.205363
 30
0.0
 11
277.463047
 21
209.440363
 31
0.0
  0
ARC
  5
10A
330
36
100
AcDbEntity
  8
0
 62
     3
100
AcDbCircle
 10
266.004047
 20
222.863363
 30
0.0
 40
17.649
100
AcDbArc
 50
310.484
 51
1.06
  0
ARC
  5
10B
330
36
100
AcDbEntity
  8
0
 62
     3
100
AcDbCircle
 10
309.546047
 20
222.863363
 30
0.0
 40
17.649
100
AcDbArc
 50
178.94
 51
229.516
  0
LINE
  5
10C
330
36
100
AcDbEntity
  8
0
 62
     3
100
AcDbLine
 10
298.088047
 20
207.205363
 30
0.0
 11
298.088047
 21
209.440363
 31
0.0
  0
LINE
  5
10D
330
36
100
AcDbEntity
  8
0
 62
     3
100
AcDbLine
 10
315.480047
 20
101.816363
 30
0.0
 11
303.750047
 21
101.816363
 31
0.0
  0
ARC
  5
10E
330
36
100
AcDbEntity
  8
0
 62
     3
100
AcDbCircle
 10
315.480047
 20
106.972363
 30
0.0
 40
5.155999999999997
100
AcDbArc
 50
270.0
 51
0.0
  0
LINE
  5
10F
330
36
100
AcDbEntity
  8
0
 62
     3
100
AcDbLine
 10
315.050047
 20
105.683363
 30
0.0
 11
303.750047
 21
105.683363
 31
0.0
  0
ARC
  5
110
330
36
100
AcDbEntity
  8
0
 62
     3
100
AcDbCircle
 10
315.050047
 20
107.402363
 30
0.0
 40
1.719
100
AcDbArc
 50
270.0
 51
0.0
  0
LINE
  5
111
330
36
100
AcDbEntity
  8
0
 62
     3
100
AcDbLine
 10
316.769047
 20
121.749363
 30
0.0
 11
316.769047
 21
107.402363
 31
0.0
  0
LINE
  5
112
330
36
100
AcDbEntity
  8
0
 62
     3
100
AcDbLine
 10
303.750047
 20
101.299363
 30
0.0
 11
303.750047
 21
106.199363
 31
0.0
  0
LINE
  5
113
330
36
100
AcDbEntity
  8
0
 62
     3
100
AcDbLine
 10
303.750047
 20
106.199363
 30
0.0
 11
286.250047
 21
106.199363
 31
0.0
  0
LINE
  5
114
330
36
100
AcDbEntity
  8
0
 62
     3
100
AcDbLine
 10
303.750047
 20
101.299363
 30
0.0
 11
286.250047
 21
101.299363
 31
0.0
  0
LINE
  5
115
330
36
100
AcDbEntity
  8
0
 62
     3
100
AcDbLine
 10
286.250047
 20
101.299363
 30
0.0
 11
286.250047
 21
106.199363
 31
0.0
  0
LINE
  5
116
330
36
100
AcDbEntity
  8
0
 62
     3
100
AcDbLine
 10
286.185047
 20
102.456363
 30
0.0
 11
280.300047
 21
102.456363
 31
0.0
  0
LINE
  5
117
330
36
100
AcDbEntity
  8
0
 62
     3
100
AcDbLine
 10
280.300047
 20
102.456363
 30
0.0
 11
271.815047
 21
100.847363
 31
0.0
  0
LINE
  5
118
330
36
100
AcDbEntity
  8
0
 62
     3
100
AcDbLine
 10
271.769047
 20
100.892363
 30
0.0
 11
269.267047
 21
103.308363
 31
0.0
  0
LINE
  5
119
330
36
100
AcDbEntity
  8
0
 62
     3
100
AcDbLine
 10
270.548047
 20
106.634363
 30
0.0
 11
269.245047
 21
103.410363
 31
0.0
  0
LINE
  5
11A
330
36
100
AcDbEntity
  8
0
 62
     3
100
AcDbLine
 10
278.977047
 20
108.676363
 30
0.0
 11
270.572047
 21
106.694363
 31
0.0
  0
LINE
  5
11B
330
36
100
AcDbEntity
  8
0
 62
     3
100
AcDbLine
 10
284.354047
 20
111.070363
 30
0.0
 11
278.977047
 21
108.676363
 31
0.0
  0
LINE
  5
11C
330
36
100
AcDbEntity
  8
0
 62
     3
100
AcDbLine
 10
285.6280470000001
 20
108.366363
 30
0.0
 11
282.534047
 21
106.181363
 31
0.0
  0
LINE
  5
11D
330
36
100
AcDbEntity
  8
0
 62
     3
100
AcDbLine
 10
283.943047
 20
112.152363
 30
0.0
 11
285.936047
 21
107.676363
 31
0.0
  0
LINE
  5
11E
330
36
100
AcDbEntity
  8
0
 62
     3
100
AcDbLine
 10
301.923047
 20
114.794363
 30
0.0
 11
285.936047
 21
107.676363
 31
0.0
  0
LINE
  5
11F
330
36
100
AcDbEntity
  8
0
 62
     3
100
AcDbLine
 10
299.930047
 20
119.270363
 30
0.0
 11
283.943047
 21
112.152363
 31
0.0
  0
LINE
  5
120
330
36
100
AcDbEntity
  8
0
 62
     3
100
AcDbLine
 10
299.930047
 20
119.270363
 30
0.0
 11
301.923047
 21
114.794363
 31
0.0
  0
LINE
  5
121
330
36
100
AcDbEntity
  8
0
 62
     3
100
AcDbLine
 10
286.250047
 20
105.444363
 30
0.0
 11
280.436047
 21
106.597363
 31
0.0
  0
LINE
  5
122
330
36
100
AcDbEntity
  8
0
 62
     3
100
AcDbLine
 10
272.201047
 20
102.949363
 30
0.0
 11
280.436047
 21
106.597363
 31
0.0
  0
LINE
  5
123
330
36
100
AcDbEntity
  8
0
 62
     3
100
AcDbLine
 10
272.201047
 20
102.949363
 30
0.0
 11
269.267047
 21
103.308363
 31
0.0
  0
LINE
  5
124
330
36
100
AcDbEntity
  8
0
 62
     3
100
AcDbLine
 10
271.780047
 20
104.931363
 30
0.0
 11
269.245047
 21
103.410363
 31
0.0
  0
LINE
  5
125
330
36
100
AcDbEntity
  8
0
 62
     3
100
AcDbLine
 10
271.780047
 20
104.931363
 30
0.0
 11
276.6950470000001
 21
104.940363
 31
0.0
  0
LINE
  5
126
330
36
100
AcDbEntity
  8
0
 62
     3
100
AcDbLine
 10
299.281047
 20
120.806363
 30
0.0
 11
299.281047
 21
125.7063629999999
 31
0.0
  0
LINE
  5
127
330
36
100
AcDbEntity
  8
0
 62
     3
100
AcDbLine
 10
299.281047
 20
125.7063629999999
 30
0.0
 11
281.781047
 21
125.7063629999999
 31
0.0
  0
LINE
  5
128
330
36
100
AcDbEntity
  8
0
 62
     3
100
AcDbLine
 10
299.281047
 20
120.806363
 30
0.0
 11
281.781047
 21
120.806363
 31
0.0
  0
LINE
  5
129
330
36
100
AcDbEntity
  8
0
 62
     3
100
AcDbLine
 10
281.781047
 20
120.806363
 30
0.0
 11
281.781047
 21
125.7063629999999
 31
0.0
  0
LINE
  5
12A
330
36
100
AcDbEntity
  8
0
 62
     3
100
AcDbLine
 10
281.717047
 20
121.962363
 30
0.0
 11
275.831047
 21
121.962363
 31
0.0
  0
LINE
  5
12B
330
36
100
AcDbEntity
  8
0
 62
     3
100
AcDbLine
 10
275.831047
 20
121.962363
 30
0.0
 11
267.346047
 21
120.354363
 31
0.0
  0
LINE
  5
12C
330
36
100
AcDbEntity
  8
0
 62
     3
100
AcDbLine
 10
267.300047
 20
120.399363
 30
0.0
 11
264.798047
 21
122.814363
 31
0.0
  0
LINE
  5
12D
330
36
100
AcDbEntity
  8
0
 62
     3
100
AcDbLine
 10
266.079047
 20
126.141363
 30
0.0
 11
264.7770470000001
 21
122.917363
 31
0.0
  0
LINE
  5
12E
330
36
100
AcDbEntity
  8
0
 62
     3
100
AcDbLine
 10
274.509047
 20
128.182363
 30
0.0
 11
266.104047
 21
126.201363
 31
0.0
  0
LINE
  5
12F
330
36
100
AcDbEntity
  8
0
 62
     3
100
AcDbLine
 10
279.886047
 20
130.576363
 30
0.0
 11
274.509047
 21
128.182363
 31
0.0
  0
LINE
  5
130
330
36
100
AcDbEntity
  8
0
 62
     3
100
AcDbLine
 10
281.160047
 20
127.872363
 30
0.0
 11
278.065047
 21
125.687363
 31
0.0
  0
LINE
  5
131
330
36
100
AcDbEntity
  8
0
 62
     3
100
AcDbLine
 10
279.474047
 20
131.659363
 30
0.0
 11
281.467047
 21
127.182363
 31
0.0
  0
LINE
  5
132
330
36
100
AcDbEntity
  8
0
 62
     3
100
AcDbLine
 10
297.454047
 20
134.300363
 30
0.0
 11
281.467047
 21
127.182363
 31
0.0
  0
LINE
  5
133
330
36
100
AcDbEntity
  8
0
 62
     3
100
AcDbLine
 10
295.461047
 20
138.777363
 30
0.0
 11
279.474047
 21
131.659363
 31
0.0
  0
LINE
  5
134
330
36
100
AcDbEntity
  8
0
 62
     3
100
AcDbLine
 10
295.461047
 20
138.777363
 30
0.0
 11
297.454047
 21
134.300363
 31
0.0
  0
LINE
  5
135
330
36
100
AcDbEntity
  8
0
 62
     3
100
AcDbLine
 10
281.781047
 20
124.950363
 30
0.0
 11
275.967047
 21
126.104363
 31
0.0
  0
LINE
  5
136
330
36
100
AcDbEntity
  8
0
 62
     3
100
AcDbLine
 10
267.732047
 20
122.455363
 30
0.0
 11
275.967047
 21
126.104363
 31
0.0
  0
LINE
  5
137
330
36
100
AcDbEntity
  8
0
 62
     3
100
AcDbLine
 10
267.732047
 20
122.455363
 30
0.0
 11
264.798047
 21
122.814363
 31
0.0
  0
LINE
  5
138
330
36
100
AcDbEntity
  8
0
 62
     3
100
AcDbLine
 10
267.3110470000001
 20
124.437363
 30
0.0
 11
264.7770470000001
 21
122.917363
 31
0.0
  0
LINE
  5
139
330
36
100
AcDbEntity
  8
0
 62
     3
100
AcDbLine
 10
267.3110470000001
 20
124.437363
 30
0.0
 11
272.226047
 21
124.446363
 31
0.0
  0
LINE
  5
13A
330
36
100
AcDbEntity
  8
0
 62
     3
100
AcDbLine
 10
320.636047
 20
136.633405
 30
0.0
 11
320.636047
 21
106.972363
 31
0.0
  0
TEXT
  5
148
330
36
100
AcDbEntity
  8
0
 62
     3
100
AcDbText
 10
36.912725
 20
154.465364
 30
0.0
 40
2.85012
  1
型式ＮＢー１５０
 41
0.833333
100
AcDbText
  0
LINE
  5
14D
330
36
100
AcDbEntity
  8
0
 62
     7
100
AcDbLine
 10
301.243906
 20
169.63364
 30
0.0
 11
338.340556
 21
194.297899
 31
0.0
  0
LINE
  5
14E
330
36
100
AcDbEntity
  8
0
 62
     7
100
AcDbLine
 10
338.340556
 20
194.297899
 30
0.0
 11
354.840556
 21
194.297899
 31
0.0
  0
TEXT
  5
14F
330
36
100
AcDbEntity
  8
0
 62
     4
100
AcDbText
 10
341.090556
 20
195.297899
 30
0.0
 40
3.2
  1
型式銘板
 41
0.716146
100
AcDbText
  0
TEXT
  5
150
330
36
100
AcDbEntity
  8
0
 62
     3
100
AcDbText
 10
340.136263
 20
-3.321857
 30
0.0
 40
3.2
  1
1999.11.4
 41
1.35
100
AcDbText
  0
CIRCLE
  5
157
330
36
100
AcDbEntity
  8
0
 62
     7
100
AcDbCircle
 10
235.893872
 20
236.764409
 30
0.0
 40
5.0
  0
TEXT
  5
158
330
36
100
AcDbEntity
  8
0
 62
     4
100
AcDbText
 10
234.8401663117879
 20
233.4716737861171
 30
0.0
 40
6.299999999999998
  1
1
  7
高6.3
100
AcDbText
  0
TEXT
  5
159
330
36
100
AcDbEntity
  8
0
 62
     3
100
AcDbText
 10
261.285718
 20
52.93316
 30
0.0
 40
3.2
  1
セルスタート時電流
  7
高3.2
100
AcDbText
  0
TEXT
  5
15A
330
36
100
AcDbEntity
  8
0
 62
     3
100
AcDbText
 10
261.285718
 20
47.38915999999998
 30
0.0
 40
3.2
  1
保　護　機　能
  7
高3.2
100
AcDbText
  0
CIRCLE
  5
164
330
36
100
AcDbEntity
  8
0
 62
     7
100
AcDbCircle
 10
94.955782
 20
236.764409
 30
0.0
 40
5.0
  0
TEXT
  5
165
330
36
100
AcDbEntity
  8
0
 62
     4
100
AcDbText
 10
93.82715334095951
 20
233.7090236427596
 30
0.0
 40
6.299999999999998
  1
1
  7
高6.3
100
AcDbText
  0
CIRCLE
  5
16C
330
36
100
AcDbEntity
  8
0
 62
     7
100
AcDbCircle
 10
199.951481
 20
236.764409
 30
0.0
 40
5.0
  0
TEXT
  5
16D
330
36
100
AcDbEntity
  8
0
 62
     4
100
AcDbText
 10
197.8021228913796
 20
233.583859319198
 30
0.0
 40
6.299999999999998
  1
2
  7
高6.3
100
AcDbText
  0
CIRCLE
  5
174
330
36
100
AcDbEntity
  8
0
 62
     7
100
AcDbCircle
 10
89.46464399999998
 20
125.684534
 30
0.0
 40
5.0
  0
TEXT
  5
175
330
36
100
AcDbEntity
  8
0
 62
     4
100
AcDbText
 10
87.34219198454821
 20
122.3482100153929
 30
0.0
 40
6.299999999999998
  1
9
  7
高6.3
100
AcDbText
  0
CIRCLE
  5
17C
330
36
100
AcDbEntity
  8
0
 62
     7
100
AcDbCircle
 10
341.151966
 20
149.810223
 30
0.0
 40
5.0
  0
TEXT
  5
17D
330
36
100
AcDbEntity
  8
0
 62
     4
100
AcDbText
 10
338.0544648903028
 20
147.4151011641437
 30
0.0
 40
4.5
  1
14
  7
高4.5
100
AcDbText
  0
CIRCLE
  5
184
330
36
100
AcDbEntity
  8
0
 62
     7
100
AcDbCircle
 10
113.910439
 20
236.764409
 30
0.0
 40
5.0
  0
TEXT
  5
185
330
36
100
AcDbEntity
  8
0
 62
     4
100
AcDbText
 10
111.6973483389211
 20
233.545031297826
 30
0.0
 40
6.299999999999998
  1
4
  7
高6.3
100
AcDbText
  0
LINE
  5
18B
330
36
100
AcDbEntity
  8
0
 62
     7
100
AcDbLine
 10
318.582835
 20
132.79277
 30
0.0
 11
328.774545
 21
122.60106
 31
0.0
  0
LINE
  5
18C
330
36
100
AcDbEntity
  8
0
 62
     7
100
AcDbLine
 10
328.774545
 20
122.60106
 30
0.0
 11
367.2745450000002
 21
122.60106
 31
0.0
  0
TEXT
  5
18D
330
36
100
AcDbEntity
  8
0
 62
     4
100
AcDbText
 10
331.524545
 20
123.60106
 30
0.0
 40
3.2
  1
黒コード、クリップ（－）
 41
0.716146
100
AcDbText
  0
LINE
  5
193
330
36
100
AcDbEntity
  8
0
 62
     7
100
AcDbLine
 10
318.758554
 20
112.233631
 30
0.0
 11
330.180298
 21
98.351819
 31
0.0
  0
LINE
  5
194
330
36
100
AcDbEntity
  8
0
 62
     7
100
AcDbLine
 10
330.180298
 20
98.351819
 30
0.0
 11
368.680298
 21
98.351819
 31
0.0
  0
TEXT
  5
195
330
36
100
AcDbEntity
  8
0
 62
     4
100
AcDbText
 10
332.930298
 20
99.35181900000001
 30
0.0
 40
3.2
  1
赤コード、クリップ（＋）
 41
0.716146
100
AcDbText
  0
LINE
  5
196
330
36
100
AcDbEntity
  8
0
 62
     7
100
AcDbLine
 10
112.942376
 20
170.25632
 30
0.0
 11
112.93349
 21
166.206749
 31
0.0
  0
LINE
  5
197
330
36
100
AcDbEntity
  8
0
 62
     7
100
AcDbLine
 10
112.942376
 20
170.25632
 30
0.0
 11
112.24114
 21
169.867619
 31
0.0
  0
ARC
  5
198
330
36
100
AcDbEntity
  8
0
 62
     7
100
AcDbCircle
 10
101.817058
 20
164.88523
 30
0.0
 40
11.5536
100
AcDbArc
 50
25.546356
 51
55.85997800000001
  0
ARC
  5
199
330
36
100
AcDbEntity
  8
0
 62
     7
100
AcDbCircle
 10
101.817058
 20
164.88523
 30
0.0
 40
11.2056
100
AcDbArc
 50
7.225073
 51
55.295075
  0
ARC
  5
19A
330
36
100
AcDbEntity
  8
0
 62
     7
100
AcDbCircle
 10
100.398912
 20
181.900718
 30
0.0
 40
15.576234
100
AcDbArc
 50
52.477939
 51
97.607072
  0
TEXT
  5
19B
330
36
100
AcDbEntity
  8
0
 62
     7
100
AcDbText
 10
103.013355
 20
195.654393
 30
0.0
 40
1.113599999999999
  1
4
100
AcDbText
  0
TEXT
  5
1E2
330
36
100
AcDbEntity
  8
0
 62
     7
100
AcDbText
 10
90.62072099999999
 20
194.960862
 30
0.0
 40
1.113599999999999
  1
2
100
AcDbText
  0
TEXT
  5
1E3
330
36
100
AcDbEntity
  8
0
 62
     7
100
AcDbText
 10
84.238502
 20
190.644103
 30
0.0
 40
1.113599999999999
  1
1
 41
1.499999
100
AcDbText
  0
TEXT
  5
1E4
330
36
100
AcDbEntity
  8
0
 62
     7
100
AcDbText
 10
98.09360100000001
 20
196.222057
 30
0.0
 40
1.113599999999999
  1
3
100
AcDbText
  0
TEXT
  5
1E5
330
36
100
AcDbEntity
  8
0
 62
     7
100
AcDbText
 10
108.618934
 20
193.421439
 30
0.0
 40
1.113599999999999
  1
5
100
AcDbText
  0
ARC
  5
1E6
330
36
100
AcDbEntity
  8
0
 62
     3
100
AcDbCircle
 10
112.669047
 20
200.502363
 30
0.0
 40
3.266
100
AcDbArc
 50
0.0
 51
90.0
  0
LINE
  5
1E7
330
36
100
AcDbEntity
  8
0
 62
     3
100
AcDbLine
 10
115.935047
 20
156.159363
 30
0.0
 11
115.935047
 21
200.502363
 31
0.0
  0
LINE
  5
1E8
330
36
100
AcDbEntity
  8
0
 62
     3
100
AcDbLine
 10
33.091047
 20
200.502363
 30
0.0
 11
33.091047
 21
156.159363
 31
0.0
  0
ARC
  5
1E9
330
36
100
AcDbEntity
  8
0
 62
     3
100
AcDbCircle
 10
36.356047
 20
200.502363
 30
0.0
 40
3.266
100
AcDbArc
 50
90.0
 51
180.0
  0
TEXT
  5
1EA
330
36
100
AcDbEntity
  8
0
 62
     3
100
AcDbText
 10
297.6082582957754
 20
52.93316
 30
0.0
 40
3.2
  1
150A(10sec)MAX
  7
高3.2
100
AcDbText
  0
TEXT
  5
1EB
330
36
100
AcDbEntity
  8
0
 62
     3
100
AcDbText
 10
297.6082582957754
 20
47.38915999999998
 30
0.0
 40
3.2
  1
ノーヒューズブレーカー
  7
高3.2
100
AcDbText
  0
LINE
  5
1EC
330
36
100
AcDbEntity
  8
0
 62
     3
100
AcDbLine
 10
259.785718
 20
85.65316000000001
 30
0.0
 11
351.8127439476448
 21
85.65316000000001
 31
0.0
  0
LINE
  5
1ED
330
36
100
AcDbEntity
  8
0
 62
     7
100
AcDbLine
 10
259.785718
 20
80.10915999999998
 30
0.0
 11
351.8127439476448
 21
80.10916000000001
 31
0.0
  0
LINE
  5
1EE
330
36
100
AcDbEntity
  8
0
 62
     7
100
AcDbLine
 10
259.785718
 20
74.56515999999997
 30
0.0
 11
351.8127439476448
 21
74.56515999999997
 31
0.0
  0
LINE
  5
1EF
330
36
100
AcDbEntity
  8
0
 62
     7
100
AcDbLine
 10
259.785718
 20
69.02115999999999
 30
0.0
 11
351.8127439476448
 21
69.02115999999999
 31
0.0
  0
LINE
  5
1F0
330
36
100
AcDbEntity
  8
0
 62
     7
100
AcDbLine
 10
259.785718
 20
57.97716
 30
0.0
 11
351.8127439476448
 21
57.97716
 31
0.0
  0
LINE
  5
1F1
330
36
100
AcDbEntity
  8
0
 62
     7
100
AcDbLine
 10
259.785718
 20
52.43316
 30
0.0
 11
351.8127439476448
 21
52.43316
 31
0.0
  0
LINE
  5
1F2
330
36
100
AcDbEntity
  8
0
 62
     7
100
AcDbLine
 10
259.785718
 20
46.88915999999998
 30
0.0
 11
351.8127439476448
 21
46.88915999999998
 31
0.0
  0
CIRCLE
  5
1F9
330
36
100
AcDbEntity
  8
0
 62
     7
100
AcDbCircle
 10
215.204897
 20
125.630108
 30
0.0
 40
5.0
  0
TEXT
  5
1FA
330
36
100
AcDbEntity
  8
0
 62
     4
100
AcDbText
 10
212.0306477366901
 20
123.4171208586193
 30
0.0
 40
4.5
  1
12
  7
高4.5
100
AcDbText
  0
CIRCLE
  5
201
330
36
100
AcDbEntity
  8
0
 62
     7
100
AcDbCircle
 10
242.853587
 20
125.630108
 30
0.0
 40
5.0
  0
TEXT
  5
202
330
36
100
AcDbEntity
  8
0
 62
     4
100
AcDbText
 10
239.6799857139531
 20
123.126757505718
 30
0.0
 40
4.5
  1
13
  7
高4.5
100
AcDbText
  0
CIRCLE
  5
209
330
36
100
AcDbEntity
  8
0
 62
     7
100
AcDbCircle
 10
150.138799
 20
125.630108
 30
0.0
 40
5.0
  0
TEXT
  5
20A
330
36
100
AcDbEntity
  8
0
 62
     4
100
AcDbText
 10
147.6918769755243
 20
123.5928969185634
 30
0.0
 40
4.5
  1
11
  7
高4.5
100
AcDbText
  0
CIRCLE
  5
211
330
36
100
AcDbEntity
  8
0
 62
     7
100
AcDbCircle
 10
104.5565478914639
 20
125.630108
 30
0.0
 40
5.0
  0
TEXT
  5
212
330
36
100
AcDbEntity
  8
0
 62
     4
100
AcDbText
 10
101.6831404661455
 20
123.2180553381781
 30
0.0
 40
4.5
  1
10
  7
高4.5
100
AcDbText
  0
CIRCLE
  5
219
330
36
100
AcDbEntity
  8
0
 62
     7
100
AcDbCircle
 10
63.872673
 20
125.630108
 30
0.0
 40
5.0
  0
TEXT
  5
21A
330
36
100
AcDbEntity
  8
0
 62
     4
100
AcDbText
 10
61.86134506432289
 20
122.3932546220086
 30
0.0
 40
6.299999999999998
  1
8
  7
高6.3
100
AcDbText
  0
CIRCLE
  5
221
330
36
100
AcDbEntity
  8
0
 62
     7
100
AcDbCircle
 10
51.854571
 20
125.630108
 30
0.0
 40
5.0
  0
TEXT
  5
222
330
36
100
AcDbEntity
  8
0
 62
     4
100
AcDbText
 10
50.14022087957551
 20
122.0701560043279
 30
0.0
 40
6.299999999999998
  1
7
  7
高6.3
100
AcDbText
  0
CIRCLE
  5
229
330
36
100
AcDbEntity
  8
0
 62
     7
100
AcDbCircle
 10
38.754463
 20
125.630108
 30
0.0
 40
5.0
  0
TEXT
  5
22A
330
36
100
AcDbEntity
  8
0
 62
     4
100
AcDbText
 10
36.75772620999556
 20
122.3023521383144
 30
0.0
 40
6.299999999999998
  1
6
  7
高6.3
100
AcDbText
  0
CIRCLE
  5
231
330
36
100
AcDbEntity
  8
0
 62
     7
100
AcDbCircle
 10
23.858103
 20
125.630108
 30
0.0
 40
5.0
  0
TEXT
  5
232
330
36
100
AcDbEntity
  8
0
 62
     4
100
AcDbText
 10
22.02768885460273
 20
122.1630339419698
 30
0.0
 40
6.299999999999998
  1
5
  7
高6.3
100
AcDbText
  0
CIRCLE
  5
239
330
36
100
AcDbEntity
  8
0
 62
     7
100
AcDbCircle
 10
61.91358199999999
 20
236.747096
 30
0.0
 40
5.0
  0
TEXT
  5
23A
330
36
100
AcDbEntity
  8
0
 62
     4
100
AcDbText
 10
59.89541157591793
 20
233.545031297826
 30
0.0
 40
6.299999999999998
  1
3
  7
高6.3
100
AcDbText
  0
LINE
  5
23B
330
36
100
AcDbEntity
  8
0
 62
     7
100
AcDbLine
 10
259.785718
 20
41.34516
 30
0.0
 11
351.8127439476448
 21
41.34516
 31
0.0
  0
LINE
  5
23C
330
36
100
AcDbEntity
  8
0
 62
     3
100
AcDbLine
 10
259.785718
 20
35.80116
 30
0.0
 11
351.8127439476448
 21
35.80116
 31
0.0
  0
LINE
  5
23D
330
36
100
AcDbEntity
  8
0
 62
     7
100
AcDbLine
 10
259.785718
 20
63.47716
 30
0.0
 11
351.8127439476448
 21
63.47716000000001
 31
0.0
  0
LINE
  5
23E
330
36
100
AcDbEntity
  8
0
 62
     3
100
AcDbLine
 10
351.8127439476448
 20
85.65316000000001
 30
0.0
 11
351.8127439476448
 21
35.80116
 31
0.0
  0
LINE
  5
23F
330
36
100
AcDbEntity
  8
0
 62
     3
100
AcDbLine
 10
259.785718
 20
85.65316000000001
 30
0.0
 11
259.785718
 21
35.80116
 31
0.0
  0
LINE
  5
240
330
36
100
AcDbEntity
  8
0
 62
     7
100
AcDbLine
 10
296.1082582957754
 20
35.80116
 30
0.0
 11
296.1082582957754
 21
85.65316000000001
 31
0.0
  0
TEXT
  5
244
330
36
100
AcDbEntity
  8
0
 62
     3
100
AcDbText
 10
284.642756
 20
3.594151999999998
 30
0.0
 40
3.2
  1
別　掲
 41
0.833333
100
AcDbText
  0
TEXT
  5
245
330
36
100
AcDbEntity
  8
0
 62
     3
100
AcDbText
 10
327.71659
 20
-13.361073
 30
0.0
 40
6.299999999999998
  1
K-NB-150
 41
0.797644
100
AcDbText
  0
CIRCLE
  5
247
330
36
100
AcDbEntity
  8
0
 62
     7
100
AcDbCircle
 10
76.91904699999998
 20
161.659363
 30
0.0
 40
2.063
  0
CIRCLE
  5
248
330
36
100
AcDbEntity
  8
0
 62
     7
100
AcDbCircle
 10
76.91904699999998
 20
161.659363
 30
0.0
 40
0.6450000000000001
  0
CIRCLE
  5
249
330
36
100
AcDbEntity
  8
0
 62
     7
100
AcDbCircle
 10
69.013047
 20
161.659363
 30
0.0
 40
1.719
  0
CIRCLE
  5
24A
330
36
100
AcDbEntity
  8
0
 62
     7
100
AcDbCircle
 10
61.10604699999999
 20
161.659363
 30
0.0
 40
1.719
  0
CIRCLE
  5
24B
330
36
100
AcDbEntity
  8
0
 62
     7
100
AcDbCircle
 10
98.23104700000001
 20
187.096363
 30
0.0
 40
5.770999999999999
  0
LINE
  5
24C
330
36
100
AcDbEntity
  8
0
 62
     7
100
AcDbLine
 10
92.819047
 20
187.435363
 30
0.0
 11
92.819047
 21
186.757363
 31
0.0
  0
LINE
  5
24D
330
36
100
AcDbEntity
  8
0
 62
     7
100
AcDbLine
 10
92.819047
 20
186.757363
 30
0.0
 11
93.49804699999999
 21
186.757363
 31
0.0
  0
LINE
  5
24E
330
36
100
AcDbEntity
  8
0
 62
     7
100
AcDbLine
 10
93.49804699999999
 20
186.757363
 30
0.0
 11
93.49804699999999
 21
187.435363
 31
0.0
  0
LINE
  5
24F
330
36
100
AcDbEntity
  8
0
 62
     7
100
AcDbLine
 10
93.49804699999999
 20
187.435363
 30
0.0
 11
92.819047
 21
187.435363
 31
0.0
  0
LINE
  5
250
330
36
100
AcDbEntity
  8
0
 62
     7
100
AcDbLine
 10
93.46404699999999
 20
186.757363
 30
0.0
 11
93.46404699999999
 21
187.435363
 31
0.0
  0
LINE
  5
251
330
36
100
AcDbEntity
  8
0
 62
     7
100
AcDbLine
 10
93.43004699999999
 20
186.757363
 30
0.0
 11
93.43004699999999
 21
187.435363
 31
0.0
  0
LINE
  5
252
330
36
100
AcDbEntity
  8
0
 62
     7
100
AcDbLine
 10
93.396047
 20
186.757363
 30
0.0
 11
93.396047
 21
187.435363
 31
0.0
  0
LINE
  5
253
330
36
100
AcDbEntity
  8
0
 62
     7
100
AcDbLine
 10
93.36204700000001
 20
186.757363
 30
0.0
 11
93.36204700000001
 21
187.435363
 31
0.0
  0
LINE
  5
254
330
36
100
AcDbEntity
  8
0
 62
     7
100
AcDbLine
 10
93.329047
 20
186.757363
 30
0.0
 11
93.329047
 21
187.435363
 31
0.0
  0
LINE
  5
255
330
36
100
AcDbEntity
  8
0
 62
     7
100
AcDbLine
 10
93.29504699999999
 20
186.757363
 30
0.0
 11
93.29504699999999
 21
187.435363
 31
0.0
  0
LINE
  5
256
330
36
100
AcDbEntity
  8
0
 62
     7
100
AcDbLine
 10
93.261047
 20
186.757363
 30
0.0
 11
93.261047
 21
187.435363
 31
0.0
  0
LINE
  5
257
330
36
100
AcDbEntity
  8
0
 62
     7
100
AcDbLine
 10
93.227047
 20
186.757363
 30
0.0
 11
93.227047
 21
187.435363
 31
0.0
  0
LINE
  5
258
330
36
100
AcDbEntity
  8
0
 62
     7
100
AcDbLine
 10
93.19304700000001
 20
186.757363
 30
0.0
 11
93.19304700000001
 21
187.435363
 31
0.0
  0
LINE
  5
259
330
36
100
AcDbEntity
  8
0
 62
     7
100
AcDbLine
 10
93.159047
 20
186.757363
 30
0.0
 11
93.159047
 21
187.435363
 31
0.0
  0
LINE
  5
25A
330
36
100
AcDbEntity
  8
0
 62
     7
100
AcDbLine
 10
93.12504699999999
 20
186.757363
 30
0.0
 11
93.12504699999999
 21
187.435363
 31
0.0
  0
LINE
  5
25B
330
36
100
AcDbEntity
  8
0
 62
     7
100
AcDbLine
 10
93.091047
 20
186.757363
 30
0.0
 11
93.091047
 21
187.435363
 31
0.0
  0
LINE
  5
25C
330
36
100
AcDbEntity
  8
0
 62
     7
100
AcDbLine
 10
93.05704699999999
 20
186.757363
 30
0.0
 11
93.05704699999999
 21
187.435363
 31
0.0
  0
LINE
  5
25D
330
36
100
AcDbEntity
  8
0
 62
     7
100
AcDbLine
 10
93.02304699999998
 20
186.757363
 30
0.0
 11
93.02304699999998
 21
187.435363
 31
0.0
  0
LINE
  5
25E
330
36
100
AcDbEntity
  8
0
 62
     7
100
AcDbLine
 10
92.98904699999999
 20
186.757363
 30
0.0
 11
92.98904699999999
 21
187.435363
 31
0.0
  0
LINE
  5
25F
330
36
100
AcDbEntity
  8
0
 62
     7
100
AcDbLine
 10
92.955047
 20
186.757363
 30
0.0
 11
92.955047
 21
187.435363
 31
0.0
  0
LINE
  5
260
330
36
100
AcDbEntity
  8
0
 62
     7
100
AcDbLine
 10
92.92104700000001
 20
186.757363
 30
0.0
 11
92.92104700000001
 21
187.435363
 31
0.0
  0
LINE
  5
261
330
36
100
AcDbEntity
  8
0
 62
     7
100
AcDbLine
 10
92.887047
 20
186.757363
 30
0.0
 11
92.887047
 21
187.435363
 31
0.0
  0
LINE
  5
262
330
36
100
AcDbEntity
  8
0
 62
     7
100
AcDbLine
 10
92.85304700000001
 20
186.757363
 30
0.0
 11
92.85304700000001
 21
187.435363
 31
0.0
  0
CIRCLE
  5
263
330
36
100
AcDbEntity
  8
0
 62
     7
100
AcDbCircle
 10
98.23104700000001
 20
165.096363
 30
0.0
 40
5.770999999999999
  0
LINE
  5
264
330
36
100
AcDbEntity
  8
0
 62
     7
100
AcDbLine
 10
96.699047
 20
170.298363
 30
0.0
 11
96.06104700000001
 21
170.066363
 31
0.0
  0
LINE
  5
265
330
36
100
AcDbEntity
  8
0
 62
     7
100
AcDbLine
 10
96.06104700000001
 20
170.066363
 30
0.0
 11
96.294047
 21
169.428363
 31
0.0
  0
LINE
  5
266
330
36
100
AcDbEntity
  8
0
 62
     7
100
AcDbLine
 10
96.294047
 20
169.428363
 30
0.0
 11
96.932047
 21
169.660363
 31
0.0
  0
LINE
  5
267
330
36
100
AcDbEntity
  8
0
 62
     7
100
AcDbLine
 10
96.932047
 20
169.660363
 30
0.0
 11
96.699047
 21
170.298363
 31
0.0
  0
LINE
  5
268
330
36
100
AcDbEntity
  8
0
 62
     7
100
AcDbLine
 10
96.28204700000001
 20
169.460363
 30
0.0
 11
96.920047
 21
169.692363
 31
0.0
  0
LINE
  5
269
330
36
100
AcDbEntity
  8
0
 62
     7
100
AcDbLine
 10
96.270047
 20
169.491363
 30
0.0
 11
96.90804700000001
 21
169.724363
 31
0.0
  0
LINE
  5
26A
330
36
100
AcDbEntity
  8
0
 62
     7
100
AcDbLine
 10
96.25904699999999
 20
169.523363
 30
0.0
 11
96.897047
 21
169.756363
 31
0.0
  0
LINE
  5
26B
330
36
100
AcDbEntity
  8
0
 62
     7
100
AcDbLine
 10
96.247047
 20
169.555363
 30
0.0
 11
96.88504700000001
 21
169.787363
 31
0.0
  0
LINE
  5
26C
330
36
100
AcDbEntity
  8
0
 62
     7
100
AcDbLine
 10
96.23604700000001
 20
169.587363
 30
0.0
 11
96.874047
 21
169.819363
 31
0.0
  0
LINE
  5
26D
330
36
100
AcDbEntity
  8
0
 62
     7
100
AcDbLine
 10
96.224047
 20
169.619363
 30
0.0
 11
96.86204700000001
 21
169.851363
 31
0.0
  0
LINE
  5
26E
330
36
100
AcDbEntity
  8
0
 62
     7
100
AcDbLine
 10
96.21204699999999
 20
169.651363
 30
0.0
 11
96.850047
 21
169.883363
 31
0.0
  0
LINE
  5
26F
330
36
100
AcDbEntity
  8
0
 62
     7
100
AcDbLine
 10
96.201047
 20
169.683363
 30
0.0
 11
96.83904699999999
 21
169.915363
 31
0.0
  0
LINE
  5
270
330
36
100
AcDbEntity
  8
0
 62
     7
100
AcDbLine
 10
96.18904700000001
 20
169.715363
 30
0.0
 11
96.827047
 21
169.947363
 31
0.0
  0
LINE
  5
271
330
36
100
AcDbEntity
  8
0
 62
     7
100
AcDbLine
 10
96.178047
 20
169.7473629999999
 30
0.0
 11
96.81504700000001
 21
169.979363
 31
0.0
  0
LINE
  5
272
330
36
100
AcDbEntity
  8
0
 62
     7
100
AcDbLine
 10
96.16604700000001
 20
169.779363
 30
0.0
 11
96.804047
 21
170.011363
 31
0.0
  0
LINE
  5
273
330
36
100
AcDbEntity
  8
0
 62
     7
100
AcDbLine
 10
96.154047
 20
169.810363
 30
0.0
 11
96.79204699999999
 21
170.043363
 31
0.0
  0
LINE
  5
274
330
36
100
AcDbEntity
  8
0
 62
     7
100
AcDbLine
 10
96.14304699999999
 20
169.8423629999999
 30
0.0
 11
96.781047
 21
170.075363
 31
0.0
  0
LINE
  5
275
330
36
100
AcDbEntity
  8
0
 62
     7
100
AcDbLine
 10
96.131047
 20
169.874363
 30
0.0
 11
96.76904700000001
 21
170.106363
 31
0.0
  0
LINE
  5
276
330
36
100
AcDbEntity
  8
0
 62
     7
100
AcDbLine
 10
96.119047
 20
169.906363
 30
0.0
 11
96.757047
 21
170.138363
 31
0.0
  0
LINE
  5
277
330
36
100
AcDbEntity
  8
0
 62
     7
100
AcDbLine
 10
96.108047
 20
169.9383629999999
 30
0.0
 11
96.74604700000001
 21
170.170363
 31
0.0
  0
LINE
  5
278
330
36
100
AcDbEntity
  8
0
 62
     7
100
AcDbLine
 10
96.096047
 20
169.970363
 30
0.0
 11
96.734047
 21
170.202363
 31
0.0
  0
LINE
  5
279
330
36
100
AcDbEntity
  8
0
 62
     7
100
AcDbLine
 10
96.08504700000001
 20
170.002363
 30
0.0
 11
96.72304699999999
 21
170.234363
 31
0.0
  0
LINE
  5
27A
330
36
100
AcDbEntity
  8
0
 62
     7
100
AcDbLine
 10
96.073047
 20
170.034363
 30
0.0
 11
96.711047
 21
170.266363
 31
0.0
  0
CIRCLE
  5
27B
330
36
100
AcDbEntity
  8
0
 62
     7
100
AcDbCircle
 10
39.622047
 20
161.659363
 30
0.0
 40
1.044999999999999
  0
LINE
  5
27C
330
36
100
AcDbEntity
  8
0
 62
     7
100
AcDbLine
 10
39.622047
 20
162.690363
 30
0.0
 11
41.169047
 21
162.346363
 31
0.0
  0
LINE
  5
27D
330
36
100
AcDbEntity
  8
0
 62
     7
100
AcDbLine
 10
39.622047
 20
160.627363
 30
0.0
 11
41.169047
 21
160.971363
 31
0.0
  0
ARC
  5
27E
330
36
100
AcDbEntity
  8
0
 62
     7
100
AcDbCircle
 10
40.65304699999999
 20
161.659363
 30
0.0
 40
0.8589999999999998
100
AcDbArc
 50
306.87
 51
53.13
  0
LINE
  5
27F
330
36
100
AcDbEntity
  8
0
 62
     7
100
AcDbLine
 10
46.355047
 20
196.3483629999999
 30
0.0
 11
45.670047
 21
197.039363
 31
0.0
  0
LINE
  5
280
330
36
100
AcDbEntity
  8
0
 62
     7
100
AcDbLine
 10
49.639047
 20
196.3483629999999
 30
0.0
 11
49.172047
 21
197.039363
 31
0.0
  0
TEXT
  5
281
330
36
100
AcDbEntity
  8
0
 62
     7
100
AcDbText
 10
41.73004699999999
 20
197.014363
 30
0.0
 40
1.105999999999998
  1
0
 41
1.728000999999999
100
AcDbText
  0
TEXT
  5
282
330
36
100
AcDbEntity
  8
0
 62
     7
100
AcDbText
 10
48.144047
 20
197.039363
 30
0.0
 40
1.105999999999998
  1
20
 41
1.428218
100
AcDbText
  0
LINE
  5
283
330
36
100
AcDbEntity
  8
0
 62
     7
100
AcDbLine
 10
43.980047
 20
195.892363
 30
0.0
 11
41.542047
 21
195.892363
 31
0.0
  0
LINE
  5
284
330
36
100
AcDbEntity
  8
0
 62
     7
100
AcDbLine
 10
41.542047
 20
195.892363
 30
0.0
 11
41.542047
 21
190.362363
 31
0.0
  0
LINE
  5
285
330
36
100
AcDbEntity
  8
0
 62
     7
100
AcDbLine
 10
43.980047
 20
190.362363
 30
0.0
 11
41.542047
 21
190.362363
 31
0.0
  0
TEXT
  5
286
330
36
100
AcDbEntity
  8
0
 62
     7
100
AcDbText
 10
47.38204699999999
 20
191.823363
 30
0.0
 40
1.105999999999998
  1
0
 41
1.728000999999999
100
AcDbText
  0
LINE
  5
287
330
36
100
AcDbEntity
  8
0
 62
     7
100
AcDbLine
 10
43.410047
 20
195.484363
 30
0.0
 11
42.208047
 21
196.3483629999999
 31
0.0
  0
LINE
  5
288
330
36
100
AcDbEntity
  8
0
 62
     7
100
AcDbLine
 10
42.208047
 20
198.249363
 30
0.0
 11
42.208047
 21
199.113363
 31
0.0
  0
LINE
  5
289
330
36
100
AcDbEntity
  8
0
 62
     7
100
AcDbLine
 10
42.208047
 20
196.3483629999999
 30
0.0
 11
42.208047
 21
197.039363
 31
0.0
  0
LINE
  5
28A
330
36
100
AcDbEntity
  8
0
 62
     7
100
AcDbLine
 10
48.861047
 20
193.237363
 30
0.0
 11
48.861047
 21
193.928363
 31
0.0
  0
LINE
  5
28B
330
36
100
AcDbEntity
  8
0
 62
     7
100
AcDbLine
 10
48.81904699999999
 20
190.880363
 30
0.0
 11
43.980047
 21
190.880363
 31
0.0
  0
LINE
  5
28C
330
36
100
AcDbEntity
  8
0
 62
     7
100
AcDbLine
 10
48.81904699999999
 20
189.844363
 30
0.0
 11
43.980047
 21
189.844363
 31
0.0
  0
LINE
  5
28D
330
36
100
AcDbEntity
  8
0
 62
     7
100
AcDbLine
 10
43.980047
 20
190.880363
 30
0.0
 11
43.980047
 21
189.844363
 31
0.0
  0
LINE
  5
28E
330
36
100
AcDbEntity
  8
0
 62
     7
100
AcDbLine
 10
48.81904699999999
 20
190.880363
 30
0.0
 11
48.81904699999999
 21
189.844363
 31
0.0
  0
TEXT
  5
28F
330
36
100
AcDbEntity
  8
0
 62
     7
100
AcDbText
 10
44.30804699999998
 20
189.844363
 30
0.0
 40
1.105999999999998
  1
アンペア
 41
0.8339999999999998
100
AcDbText
  0
LINE
  5
290
330
36
100
AcDbEntity
  8
0
 62
     7
100
AcDbLine
 10
54.47804699999998
 20
196.3483629999999
 30
0.0
 11
54.334047
 21
197.039363
 31
0.0
  0
LINE
  5
291
330
36
100
AcDbEntity
  8
0
 62
     7
100
AcDbLine
 10
66.920047
 20
196.3483629999999
 30
0.0
 11
67.606047
 21
197.039363
 31
0.0
  0
LINE
  5
292
330
36
100
AcDbEntity
  8
0
 62
     7
100
AcDbLine
 10
63.63704699999999
 20
196.3483629999999
 30
0.0
 11
64.10304700000001
 21
197.039363
 31
0.0
  0
LINE
  5
293
330
36
100
AcDbEntity
  8
0
 62
     7
100
AcDbLine
 10
61.21704699999999
 20
196.3483629999999
 30
0.0
 11
61.523047
 21
197.039363
 31
0.0
  0
TEXT
  5
294
330
36
100
AcDbEntity
  8
0
 62
     7
100
AcDbText
 10
53.30504699999998
 20
197.039363
 30
0.0
 40
1.105999999999998
  1
40
 41
1.428218
100
AcDbText
  0
TEXT
  5
295
330
36
100
AcDbEntity
  8
0
 62
     7
100
AcDbText
 10
57.914047
 20
197.039363
 30
0.0
 40
1.105999999999998
  1
60
 41
1.428218
100
AcDbText
  0
TEXT
  5
296
330
36
100
AcDbEntity
  8
0
 62
     7
100
AcDbText
 10
63.07504699999999
 20
197.039363
 30
0.0
 40
1.105999999999998
  1
80
 41
1.428218
100
AcDbText
  0
LINE
  5
297
330
36
100
AcDbEntity
  8
0
 62
     7
100
AcDbLine
 10
52.05804699999998
 20
196.3483629999999
 30
0.0
 11
51.75304699999998
 21
197.039363
 31
0.0
  0
LINE
  5
298
330
36
100
AcDbEntity
  8
0
 62
     7
100
AcDbLine
 10
58.798047
 20
196.3483629999999
 30
0.0
 11
58.94204699999999
 21
197.039363
 31
0.0
  0
LINE
  5
299
330
36
100
AcDbEntity
  8
0
 62
     7
100
AcDbLine
 10
69.29504699999999
 20
190.362363
 30
0.0
 11
71.733047
 21
190.362363
 31
0.0
  0
TEXT
  5
29A
330
36
100
AcDbEntity
  8
0
 62
     7
100
AcDbText
 10
64.195047
 20
192.546363
 30
0.0
 40
1.105999999999998
  1
40V
 41
1.077727
100
AcDbText
  0
LINE
  5
29B
330
36
100
AcDbEntity
  8
0
 62
     7
100
AcDbLine
 10
65.77704699999999
 20
192.546363
 30
0.0
 11
69.144047
 21
194.965363
 31
0.0
  0
LINE
  5
29C
330
36
100
AcDbEntity
  8
0
 62
     7
100
AcDbLine
 10
53.432047
 20
193.237363
 30
0.0
 11
53.127047
 21
193.928363
 31
0.0
  0
LINE
  5
29D
330
36
100
AcDbEntity
  8
0
 62
     7
100
AcDbLine
 10
55.77404699999998
 20
193.237363
 30
0.0
 11
55.77404699999998
 21
193.928363
 31
0.0
  0
LINE
  5
29E
330
36
100
AcDbEntity
  8
0
 62
     7
100
AcDbLine
 10
56.119047
 20
193.237363
 30
0.0
 11
56.119047
 21
193.928363
 31
0.0
  0
LINE
  5
29F
330
36
100
AcDbEntity
  8
0
 62
     7
100
AcDbLine
 10
61.649047
 20
193.928363
 30
0.0
 11
56.119047
 21
193.928363
 31
0.0
  0
LINE
  5
2A0
330
36
100
AcDbEntity
  8
0
 62
     7
100
AcDbLine
 10
61.649047
 20
193.237363
 30
0.0
 11
56.119047
 21
193.237363
 31
0.0
  0
LINE
  5
2A1
330
36
100
AcDbEntity
  8
0
 62
     7
100
AcDbLine
 10
58.150047
 20
193.237363
 30
0.0
 11
58.294047
 21
193.928363
 31
0.0
  0
LINE
  5
2A2
330
36
100
AcDbEntity
  8
0
 62
     7
100
AcDbLine
 10
61.649047
 20
193.237363
 30
0.0
 11
61.649047
 21
193.928363
 31
0.0
  0
LINE
  5
2A3
330
36
100
AcDbEntity
  8
0
 62
     7
100
AcDbLine
 10
64.456047
 20
189.844363
 30
0.0
 11
69.29504699999999
 21
189.844363
 31
0.0
  0
LINE
  5
2A4
330
36
100
AcDbEntity
  8
0
 62
     7
100
AcDbLine
 10
64.456047
 20
190.880363
 30
0.0
 11
64.456047
 21
189.844363
 31
0.0
  0
LINE
  5
2A5
330
36
100
AcDbEntity
  8
0
 62
     7
100
AcDbLine
 10
64.456047
 20
190.880363
 30
0.0
 11
69.29504699999999
 21
190.880363
 31
0.0
  0
LINE
  5
2A6
330
36
100
AcDbEntity
  8
0
 62
     7
100
AcDbLine
 10
69.29504699999999
 20
190.880363
 30
0.0
 11
69.29504699999999
 21
189.844363
 31
0.0
  0
TEXT
  5
2A7
330
36
100
AcDbEntity
  8
0
 62
     7
100
AcDbText
 10
54.212047
 20
186.816363
 30
0.0
 40
2.177
  1
A
 41
1.199999999999999
100
AcDbText
  0
TEXT
  5
2A8
330
36
100
AcDbEntity
  8
0
 62
     7
100
AcDbText
 10
56.885047
 20
186.843363
 30
0.0
 40
2.177
  1
V
 41
0.675
100
AcDbText
  0
LINE
  5
2A9
330
36
100
AcDbEntity
  8
0
 62
     7
100
AcDbLine
 10
54.564047
 20
190.880363
 30
0.0
 11
51.108047
 21
190.880363
 31
0.0
  0
LINE
  5
2AA
330
36
100
AcDbEntity
  8
0
 62
     7
100
AcDbLine
 10
54.564047
 20
190.006363
 30
0.0
 11
51.108047
 21
190.006363
 31
0.0
  0
LINE
  5
2AB
330
36
100
AcDbEntity
  8
0
 62
     7
100
AcDbLine
 10
54.564047
 20
190.006363
 30
0.0
 11
54.564047
 21
190.880363
 31
0.0
  0
LINE
  5
2AC
330
36
100
AcDbEntity
  8
0
 62
     7
100
AcDbLine
 10
51.108047
 20
190.006363
 30
0.0
 11
51.108047
 21
190.880363
 31
0.0
  0
LINE
  5
2AD
330
36
100
AcDbEntity
  8
0
 62
     7
100
AcDbLine
 10
58.711047
 20
190.006363
 30
0.0
 11
58.711047
 21
190.880363
 31
0.0
  0
LINE
  5
2AE
330
36
100
AcDbEntity
  8
0
 62
     7
100
AcDbLine
 10
58.711047
 20
190.006363
 30
0.0
 11
62.16804699999999
 21
190.006363
 31
0.0
  0
LINE
  5
2AF
330
36
100
AcDbEntity
  8
0
 62
     7
100
AcDbLine
 10
58.711047
 20
190.880363
 30
0.0
 11
62.16804699999999
 21
190.880363
 31
0.0
  0
LINE
  5
2B0
330
36
100
AcDbEntity
  8
0
 62
     7
100
AcDbLine
 10
62.16804699999999
 20
190.006363
 30
0.0
 11
62.16804699999999
 21
190.880363
 31
0.0
  0
TEXT
  5
2B1
330
36
100
AcDbEntity
  8
0
 62
     7
100
AcDbText
 10
65.299047
 20
189.844363
 30
0.0
 40
1.105999999999998
  1
ボルト
 41
0.8339999999999998
100
AcDbText
  0
LINE
  5
2B2
330
36
100
AcDbEntity
  8
0
 62
     7
100
AcDbLine
 10
56.885047
 20
186.843363
 30
0.0
 11
58.752047
 21
186.843363
 31
0.0
  0
LINE
  5
2B3
330
36
100
AcDbEntity
  8
0
 62
     7
100
AcDbLine
 10
56.04404699999999
 20
186.843363
 30
0.0
 11
54.178047
 21
186.843363
 31
0.0
  0
LINE
  5
2B4
330
36
100
AcDbEntity
  8
0
 62
     7
100
AcDbLine
 10
56.638047
 20
185.979363
 30
0.0
 11
44.132047
 21
194.965363
 31
0.0
  0
LINE
  5
2B5
330
36
100
AcDbEntity
  8
0
 62
     7
100
AcDbLine
 10
69.144047
 20
194.965363
 30
0.0
 11
44.132047
 21
194.965363
 31
0.0
  0
LINE
  5
2B6
330
36
100
AcDbEntity
  8
0
 62
     7
100
AcDbLine
 10
68.18204699999999
 20
194.274363
 30
0.0
 11
45.094047
 21
194.274363
 31
0.0
  0
LINE
  5
2B7
330
36
100
AcDbEntity
  8
0
 62
     7
100
AcDbLine
 10
55.77404699999998
 20
193.928363
 30
0.0
 11
48.861047
 21
193.928363
 31
0.0
  0
LINE
  5
2B8
330
36
100
AcDbEntity
  8
0
 62
     7
100
AcDbLine
 10
55.77404699999998
 20
193.237363
 30
0.0
 11
48.861047
 21
193.237363
 31
0.0
  0
LINE
  5
2B9
330
36
100
AcDbEntity
  8
0
 62
     7
100
AcDbLine
 10
71.06804699999995
 20
198.280363
 30
0.0
 11
71.06804699999995
 21
199.113363
 31
0.0
  0
LINE
  5
2BA
330
36
100
AcDbEntity
  8
0
 62
     7
100
AcDbLine
 10
71.06804699999995
 20
199.113363
 30
0.0
 11
42.208047
 21
199.113363
 31
0.0
  0
LINE
  5
2BB
330
36
100
AcDbEntity
  8
0
 62
     7
100
AcDbLine
 10
71.733047
 20
194.581363
 30
0.0
 11
71.733047
 21
190.362363
 31
0.0
  0
LINE
  5
2BC
330
36
100
AcDbEntity
  8
0
 62
     7
100
AcDbLine
 10
67.70904699999999
 20
194.581363
 30
0.0
 11
71.733047
 21
194.581363
 31
0.0
  0
LINE
  5
2BD
330
36
100
AcDbEntity
  8
0
 62
     7
100
AcDbLine
 10
69.86504700000001
 20
195.484363
 30
0.0
 11
71.06804699999995
 21
196.3483629999999
 31
0.0
  0
LINE
  5
2BE
330
36
100
AcDbEntity
  8
0
 62
     7
100
AcDbLine
 10
71.06804699999995
 20
196.3483629999999
 30
0.0
 11
71.06804699999995
 21
197.039363
 31
0.0
  0
TEXT
  5
2BF
330
36
100
AcDbEntity
  8
0
 62
     7
100
AcDbText
 10
68.00004699999999
 20
197.039363
 30
0.0
 40
1.105999999999998
  1
100A
 41
0.9100799999999999
100
AcDbText
  0
CIRCLE
  5
2C0
330
36
100
AcDbEntity
  8
0
 62
     7
100
AcDbCircle
 10
44.00104699999999
 20
161.659363
 30
0.0
 40
0.5220000000000004
  0
CIRCLE
  5
2C1
330
36
100
AcDbEntity
  8
0
 62
     7
100
AcDbCircle
 10
37.649047
 20
161.659363
 30
0.0
 40
0.5220000000000004
  0
TEXT
  5
2C2
330
36
100
AcDbEntity
  8
0
 62
     7
100
AcDbText
 10
45.138353
 20
161.073608
 30
0.0
 40
1.113599999999999
  1
24V
 41
0.9
100
AcDbText
  0
TEXT
  5
2C3
330
36
100
AcDbEntity
  8
0
 62
     7
100
AcDbText
 10
33.327541
 20
161.073608
 30
0.0
 40
1.113599999999999
  1
12V
100
AcDbText
  0
TEXT
  5
2C4
330
36
100
AcDbEntity
  8
0
 62
     7
100
AcDbText
 10
39.838288
 20
166.162259
 30
0.0
 40
1.113599999999999
  1
電圧切替
 41
0.833333
100
AcDbText
  0
TEXT
  5
2C5
330
36
100
AcDbEntity
  8
0
 62
     7
100
AcDbText
 10
47.816695
 20
166.160162
 30
0.0
 40
1.113599999999999
  1
バッテリーチェック
 41
0.833333
100
AcDbText
  0
TEXT
  5
2C6
330
36
100
AcDbEntity
  8
0
 62
     7
100
AcDbText
 10
59.866814
 20
166.09097
 30
0.0
 40
1.113599999999999
  1
電源ランプ
 41
0.833333
100
AcDbText
  0
TEXT
  5
2C7
330
36
100
AcDbEntity
  8
0
 62
     7
100
AcDbText
 10
67.82833199999998
 20
166.184273
 30
0.0
 40
1.113599999999999
  1
異常ランプ
 41
0.833333
100
AcDbText
  0
TEXT
  5
2C8
330
36
100
AcDbEntity
  8
0
 62
     7
100
AcDbText
 10
75.917749
 20
166.188467
 30
0.0
 40
1.113599999999999
  1
ブレーカー
 41
0.833333
100
AcDbText
  0
LINE
  5
2C9
330
36
100
AcDbEntity
  8
0
 62
     7
100
AcDbLine
 10
33.939405
 20
165.852103
 30
0.0
 11
33.939405
 21
167.592103
 31
0.0
  0
LINE
  5
2CA
330
36
100
AcDbEntity
  8
0
 62
     7
100
AcDbLine
 10
85.11794100000001
 20
167.592103
 30
0.0
 11
33.939405
 21
167.592103
 31
0.0
  0
LINE
  5
2CB
330
36
100
AcDbEntity
  8
0
 62
     7
100
AcDbLine
 10
84.784512
 20
165.852103
 30
0.0
 11
33.939405
 21
165.852103
 31
0.0
  0
LINE
  5
2CC
330
36
100
AcDbEntity
  8
0
 62
     7
100
AcDbLine
 10
84.73974100000003
 20
164.791363
 30
0.0
 11
33.091047
 21
164.791363
 31
0.0
  0
LINE
  5
2CD
330
36
100
AcDbEntity
  8
0
 62
     7
100
AcDbLine
 10
87.699309
 20
158.527363
 30
0.0
 11
33.091047
 21
158.527363
 31
0.0
  0
LINE
  5
2CE
330
36
100
AcDbEntity
  8
0
 62
     7
100
AcDbLine
 10
90.080766
 20
161.720406
 30
0.0
 11
86.319055
 21
160.162255
 31
0.0
  0
LINE
  5
2CF
330
36
100
AcDbEntity
  8
0
 62
     7
100
AcDbLine
 10
106.381327
 20
168.47232
 30
0.0
 11
108.262161
 21
169.251387
 31
0.0
  0
LINE
  5
2D0
330
36
100
AcDbEntity
  8
0
 62
     7
100
AcDbLine
 10
101.607004
 20
173.246644
 30
0.0
 11
102.386071
 21
175.127478
 31
0.0
  0
LINE
  5
2D1
330
36
100
AcDbEntity
  8
0
 62
     7
100
AcDbLine
 10
104.469002
 20
158.858409
 30
0.0
 11
106.519245
 21
156.808165
 31
0.0
  0
LINE
  5
2D2
330
36
100
AcDbEntity
  8
0
 62
     7
100
AcDbLine
 10
106.381327
 20
161.720406
 30
0.0
 11
110.146634
 21
160.160765
 31
0.0
  0
LINE
  5
2D3
330
36
100
AcDbEntity
  8
0
 62
     7
100
AcDbLine
 10
91.9616
 20
167.693253
 30
0.0
 11
86.31546
 21
170.031961
 31
0.0
  0
LINE
  5
2D4
330
36
100
AcDbEntity
  8
0
 62
     7
100
AcDbLine
 10
91.993092
 20
158.858409
 30
0.0
 11
89.942849
 21
156.808165
 31
0.0
  0
LINE
  5
2D5
330
36
100
AcDbEntity
  8
0
 62
     7
100
AcDbLine
 10
104.469002
 20
171.334318
 30
0.0
 11
105.90853
 21
172.773846
 31
0.0
  0
LINE
  5
2D6
330
36
100
AcDbEntity
  8
0
 62
     7
100
AcDbLine
 10
98.579047
 20
194.047658
 30
0.0
 11
98.579047
 21
195.593539
 31
0.0
  0
LINE
  5
2D7
330
36
100
AcDbEntity
  8
0
 62
     7
100
AcDbLine
 10
97.88304700000001
 20
194.047658
 30
0.0
 11
97.88304700000001
 21
195.593539
 31
0.0
  0
LINE
  5
2D8
330
36
100
AcDbEntity
  8
0
 62
     7
100
AcDbLine
 10
93.56181300000001
 20
192.257744
 30
0.0
 11
91.39392200000001
 21
194.425634
 31
0.0
  0
LINE
  5
2D9
330
36
100
AcDbEntity
  8
0
 62
     7
100
AcDbLine
 10
93.069666
 20
191.765598
 30
0.0
 11
90.68906
 21
194.146203
 31
0.0
  0
TEXT
  5
2DA
330
36
100
AcDbEntity
  8
0
 62
     7
100
AcDbText
 10
93.75078
 20
176.375288
 30
0.0
 40
1.113599999999999
  1
１２時間タイマー
 41
0.833333
100
AcDbText
  0
TEXT
  5
2DB
330
36
100
AcDbEntity
  8
0
 62
     7
100
AcDbText
 10
85.824847
 20
186.487039
 30
0.0
 40
1.113599999999999
  1
OFF
100
AcDbText
  0
LINE
  5
2DC
330
36
100
AcDbEntity
  8
0
 62
     7
100
AcDbLine
 10
102.786356
 20
177.821221
 30
0.0
 11
93.675738
 21
177.821221
 31
0.0
  0
LINE
  5
2DD
330
36
100
AcDbEntity
  8
0
 62
     7
100
AcDbLine
 10
113.327123
 20
188.132828
 30
0.0
 11
115.935047
 21
188.132828
 31
0.0
  0
LINE
  5
2DE
330
36
100
AcDbEntity
  8
0
 62
     7
100
AcDbLine
 10
33.091047
 20
188.132828
 30
0.0
 11
40.825047
 21
188.132828
 31
0.0
  0
LINE
  5
2DF
330
36
100
AcDbEntity
  8
0
 62
     7
100
AcDbLine
 10
72.45004699999999
 20
188.132828
 30
0.0
 11
84.831786
 21
188.132828
 31
0.0
  0
ARC
  5
2E0
330
36
100
AcDbEntity
  8
0
 62
     7
100
AcDbCircle
 10
93.675738
 20
176.945862
 30
0.0
 40
0.8753589999999999
100
AcDbArc
 50
90.0
 51
270.0
  0
ARC
  5
2E1
330
36
100
AcDbEntity
  8
0
 62
     7
100
AcDbCircle
 10
102.786356
 20
176.945862
 30
0.0
 40
0.8753589999999999
100
AcDbArc
 50
270.0
 51
90.0
  0
LINE
  5
2E2
330
36
100
AcDbEntity
  8
0
 62
     7
100
AcDbLine
 10
93.675738
 20
176.070503
 30
0.0
 11
102.786356
 21
176.070503
 31
0.0
  0
LINE
  5
32E
330
36
100
AcDbEntity
  8
0
 62
     7
100
AcDbLine
 10
107.340427
 20
188.694912
 30
0.0
 11
112.110119
 21
188.694912
 31
0.0
  0
LINE
  5
32F
330
36
100
AcDbEntity
  8
0
 62
     7
100
AcDbLine
 10
107.340427
 20
185.497814
 30
0.0
 11
112.110119
 21
185.497814
 31
0.0
  0
ARC
  5
330
330
36
100
AcDbEntity
  8
0
 62
     7
100
AcDbCircle
 10
107.340427
 20
187.096363
 30
0.0
 40
1.598549
100
AcDbArc
 50
90.0
 51
270.0
  0
ARC
  5
331
330
36
100
AcDbEntity
  8
0
 62
     7
100
AcDbCircle
 10
112.110119
 20
187.096363
 30
0.0
 40
1.598549
100
AcDbArc
 50
270.0
 51
90.0
  0
LINE
  5
332
330
36
100
AcDbEntity
  8
0
 62
     7
100
AcDbLine
 10
91.42654300000002
 20
188.559348
 30
0.0
 11
85.61239300000002
 21
190.117245
 31
0.0
  0
LINE
  5
333
330
36
100
AcDbEntity
  8
0
 62
     7
100
AcDbLine
 10
91.606681
 20
189.231633
 30
0.0
 11
86.02473600000001
 21
190.727311
 31
0.0
  0
LINE
  5
334
330
36
100
AcDbEntity
  8
0
 62
     7
100
AcDbLine
 10
104.077045
 20
190.873387
 30
0.0
 11
107.857182
 21
193.055851
 31
0.0
  0
LINE
  5
335
330
36
100
AcDbEntity
  8
0
 62
     7
100
AcDbLine
 10
104.425045
 20
190.270634
 30
0.0
 11
108.493002
 21
192.61927
 31
0.0
  0
LINE
  5
336
330
36
100
AcDbEntity
  8
0
 62
     7
100
AcDbLine
 10
102.008071
 20
192.942361
 30
0.0
 11
103.196367
 21
195.00055
 31
0.0
  0
LINE
  5
337
330
36
100
AcDbEntity
  8
0
 62
     7
100
AcDbLine
 10
101.405317
 20
193.290361
 30
0.0
 11
102.4865
 21
195.163025
 31
0.0
  0
LINE
  5
338
330
36
100
AcDbEntity
  8
0
 62
     7
100
AcDbLine
 10
33.091047
 20
198.1328279999999
 30
0.0
 11
40.825047
 21
198.1328279999999
 31
0.0
  0
ARC
  5
339
330
36
100
AcDbEntity
  8
0
 62
     7
100
AcDbCircle
 10
103.384333
 20
200.771608
 30
0.0
 40
0.8753589999999999
100
AcDbArc
 50
270.0
 51
90.0
  0
LINE
  5
33A
330
36
100
AcDbEntity
  8
0
 62
     7
100
AcDbLine
 10
92.77371499999999
 20
199.896249
 30
0.0
 11
103.384333
 21
199.896249
 31
0.0
  0
LINE
  5
33B
330
36
100
AcDbEntity
  8
0
 62
     7
100
AcDbLine
 10
103.384333
 20
201.646967
 30
0.0
 11
92.77371499999999
 21
201.646967
 31
0.0
  0
ARC
  5
33C
330
36
100
AcDbEntity
  8
0
 62
     7
100
AcDbCircle
 10
92.77371499999999
 20
200.771608
 30
0.0
 40
0.8753589999999999
100
AcDbArc
 50
90.0
 51
270.0
  0
TEXT
  5
33D
330
36
100
AcDbEntity
  8
0
 62
     7
100
AcDbText
 10
92.22635600000002
 20
200.34718
 30
0.0
 40
0.8908799999999999
  1
CHARGER SWICH
 41
1.048387
100
AcDbText
  0
ARC
  5
33E
330
36
100
AcDbEntity
  8
0
 62
     7
100
AcDbCircle
 10
94.071005
 20
184.342892
 30
0.0
 40
14.011396
100
AcDbArc
 50
114.370629
 51
138.955833
  0
ARC
  5
33F
330
36
100
AcDbEntity
  8
0
 62
     7
100
AcDbCircle
 10
94.071005
 20
184.342892
 30
0.0
 40
12.511396
100
AcDbArc
 50
114.370629
 51
138.955833
  0
ARC
  5
340
330
36
100
AcDbEntity
  8
0
 62
     7
100
AcDbCircle
 10
88.59885600000001
 20
196.422635
 30
0.0
 40
0.75
100
AcDbArc
 50
294.370629
 51
114.370629
  0
ARC
  5
341
330
36
100
AcDbEntity
  8
0
 62
     7
100
AcDbCircle
 10
84.06921199999997
 20
193.050863
 30
0.0
 40
0.75
100
AcDbArc
 50
138.955833
 51
318.955833
  0
ARC
  5
342
330
36
100
AcDbEntity
  8
0
 62
     7
100
AcDbCircle
 10
100.398912
 20
181.900718
 30
0.0
 40
17.176234
100
AcDbArc
 50
52.477939
 51
97.607072
  0
ARC
  5
343
330
36
100
AcDbEntity
  8
0
 62
     7
100
AcDbCircle
 10
110.373133
 20
194.889018
 30
0.0
 40
0.8
100
AcDbArc
 50
232.477939
 51
52.47794200000001
  0
ARC
  5
344
330
36
100
AcDbEntity
  8
0
 62
     7
100
AcDbCircle
 10
98.23104700000001
 20
198.1328279999999
 30
0.0
 40
0.8067680000000001
100
AcDbArc
 50
90.0
 51
284.849179
  0
LINE
  5
345
330
36
100
AcDbEntity
  8
0
 62
     7
100
AcDbLine
 10
97.424279
 20
198.1328279999999
 30
0.0
 11
72.45004699999999
 21
198.1328279999999
 31
0.0
  0
LINE
  5
346
330
36
100
AcDbEntity
  8
0
 62
     7
100
AcDbLine
 10
106.015104
 20
198.1328279999999
 30
0.0
 11
115.935047
 21
198.1328279999999
 31
0.0
  0
LINE
  5
347
330
36
100
AcDbEntity
  8
0
 62
     7
100
AcDbLine
 10
101.607004
 20
156.946083
 30
0.0
 11
102.386071
 21
155.065249
 31
0.0
  0
LINE
  5
348
330
36
100
AcDbEntity
  8
0
 62
     7
100
AcDbLine
 10
94.85509
 20
156.946083
 30
0.0
 11
94.07602299999998
 21
155.065249
 31
0.0
  0
LINE
  5
349
330
36
100
AcDbEntity
  8
0
 62
     7
100
AcDbLine
 10
158.649047
 20
208.068363
 30
0.0
 11
165.524047
 21
208.068363
 31
0.0
  0
LINE
  5
34A
330
36
100
AcDbEntity
  8
0
 62
     7
100
AcDbLine
 10
155.211047
 20
207.034363
 30
0.0
 11
165.524047
 21
207.034363
 31
0.0
  0
LINE
  5
34B
330
36
100
AcDbEntity
  8
0
 62
     7
100
AcDbLine
 10
210.555047
 20
207.034363
 30
0.0
 11
200.243047
 21
207.034363
 31
0.0
  0
LINE
  5
34C
330
36
100
AcDbEntity
  8
0
 62
     7
100
AcDbLine
 10
207.176047
 20
208.068363
 30
0.0
 11
200.243047
 21
208.068363
 31
0.0
  0
ARC
  5
34D
330
36
100
AcDbEntity
  8
0
 62
     7
100
AcDbCircle
 10
150.884047
 20
205.043363
 30
0.0
 40
1.821999999999999
100
AcDbArc
 50
31.891
 51
148.109
  0
CIRCLE
  5
34E
330
36
100
AcDbEntity
  8
0
 62
     7
100
AcDbCircle
 10
150.884047
 20
178.849363
 30
0.0
 40
1.546999999999996
  0
LINE
  5
34F
330
36
100
AcDbEntity
  8
0
 62
     7
100
AcDbLine
 10
150.000047
 20
178.695363
 30
0.0
 11
150.331047
 21
178.695363
 31
0.0
  0
LINE
  5
350
330
36
100
AcDbEntity
  8
0
 62
     7
100
AcDbLine
 10
150.729047
 20
177.966363
 30
0.0
 11
150.729047
 21
178.297363
 31
0.0
  0
ARC
  5
351
330
36
100
AcDbEntity
  8
0
 62
     7
100
AcDbCircle
 10
150.331047
 20
178.297363
 30
0.0
 40
0.398
100
AcDbArc
 50
0.0
 51
90.0
  0
LINE
  5
352
330
36
100
AcDbEntity
  8
0
 62
     7
100
AcDbLine
 10
151.039047
 20
177.966363
 30
0.0
 11
151.039047
 21
178.297363
 31
0.0
  0
LINE
  5
353
330
36
100
AcDbEntity
  8
0
 62
     7
100
AcDbLine
 10
151.768047
 20
179.0043629999999
 30
0.0
 11
151.768047
 21
178.695363
 31
0.0
  0
LINE
  5
354
330
36
100
AcDbEntity
  8
0
 62
     7
100
AcDbLine
 10
151.768047
 20
178.695363
 30
0.0
 11
151.436047
 21
178.695363
 31
0.0
  0
ARC
  5
355
330
36
100
AcDbEntity
  8
0
 62
     7
100
AcDbCircle
 10
151.436047
 20
178.297363
 30
0.0
 40
0.398
100
AcDbArc
 50
90.0
 51
180.0
  0
LINE
  5
356
330
36
100
AcDbEntity
  8
0
 62
     7
100
AcDbLine
 10
151.039047
 20
177.966363
 30
0.0
 11
150.729047
 21
177.966363
 31
0.0
  0
LINE
  5
357
330
36
100
AcDbEntity
  8
0
 62
     7
100
AcDbLine
 10
151.039047
 20
179.733363
 30
0.0
 11
151.039047
 21
179.402363
 31
0.0
  0
ARC
  5
358
330
36
100
AcDbEntity
  8
0
 62
     7
100
AcDbCircle
 10
151.436047
 20
179.402363
 30
0.0
 40
0.398
100
AcDbArc
 50
180.0
 51
270.0
  0
LINE
  5
359
330
36
100
AcDbEntity
  8
0
 62
     7
100
AcDbLine
 10
150.729047
 20
179.733363
 30
0.0
 11
151.039047
 21
179.733363
 31
0.0
  0
LINE
  5
35A
330
36
100
AcDbEntity
  8
0
 62
     7
100
AcDbLine
 10
151.768047
 20
179.0043629999999
 30
0.0
 11
151.436047
 21
179.0043629999999
 31
0.0
  0
LINE
  5
35B
330
36
100
AcDbEntity
  8
0
 62
     7
100
AcDbLine
 10
150.000047
 20
179.0043629999999
 30
0.0
 11
150.331047
 21
179.0043629999999
 31
0.0
  0
ARC
  5
35C
330
36
100
AcDbEntity
  8
0
 62
     7
100
AcDbCircle
 10
150.331047
 20
179.402363
 30
0.0
 40
0.398
100
AcDbArc
 50
270.0
 51
0.0
  0
LINE
  5
35D
330
36
100
AcDbEntity
  8
0
 62
     7
100
AcDbLine
 10
150.729047
 20
179.733363
 30
0.0
 11
150.729047
 21
179.402363
 31
0.0
  0
LINE
  5
35E
330
36
100
AcDbEntity
  8
0
 62
     7
100
AcDbLine
 10
150.000047
 20
178.695363
 30
0.0
 11
150.000047
 21
179.0043629999999
 31
0.0
  0
CIRCLE
  5
35F
330
36
100
AcDbEntity
  8
0
 62
     7
100
AcDbCircle
 10
150.884047
 20
194.318363
 30
0.0
 40
1.546999999999996
  0
LINE
  5
360
330
36
100
AcDbEntity
  8
0
 62
     7
100
AcDbLine
 10
150.000047
 20
194.164363
 30
0.0
 11
150.331047
 21
194.164363
 31
0.0
  0
LINE
  5
361
330
36
100
AcDbEntity
  8
0
 62
     7
100
AcDbLine
 10
150.729047
 20
193.434363
 30
0.0
 11
150.729047
 21
193.766363
 31
0.0
  0
ARC
  5
362
330
36
100
AcDbEntity
  8
0
 62
     7
100
AcDbCircle
 10
150.331047
 20
193.766363
 30
0.0
 40
0.398
100
AcDbArc
 50
0.0
 51
90.0
  0
LINE
  5
363
330
36
100
AcDbEntity
  8
0
 62
     7
100
AcDbLine
 10
151.039047
 20
193.434363
 30
0.0
 11
151.039047
 21
193.766363
 31
0.0
  0
LINE
  5
364
330
36
100
AcDbEntity
  8
0
 62
     7
100
AcDbLine
 10
151.768047
 20
194.4733629999999
 30
0.0
 11
151.768047
 21
194.164363
 31
0.0
  0
LINE
  5
365
330
36
100
AcDbEntity
  8
0
 62
     7
100
AcDbLine
 10
151.768047
 20
194.164363
 30
0.0
 11
151.436047
 21
194.164363
 31
0.0
  0
ARC
  5
366
330
36
100
AcDbEntity
  8
0
 62
     7
100
AcDbCircle
 10
151.436047
 20
193.766363
 30
0.0
 40
0.398
100
AcDbArc
 50
90.0
 51
180.0
  0
LINE
  5
367
330
36
100
AcDbEntity
  8
0
 62
     7
100
AcDbLine
 10
151.039047
 20
193.434363
 30
0.0
 11
150.729047
 21
193.434363
 31
0.0
  0
LINE
  5
368
330
36
100
AcDbEntity
  8
0
 62
     7
100
AcDbLine
 10
151.039047
 20
195.202363
 30
0.0
 11
151.039047
 21
194.871363
 31
0.0
  0
ARC
  5
369
330
36
100
AcDbEntity
  8
0
 62
     7
100
AcDbCircle
 10
151.436047
 20
194.871363
 30
0.0
 40
0.398
100
AcDbArc
 50
180.0
 51
270.0
  0
LINE
  5
36A
330
36
100
AcDbEntity
  8
0
 62
     7
100
AcDbLine
 10
150.729047
 20
195.202363
 30
0.0
 11
151.039047
 21
195.202363
 31
0.0
  0
LINE
  5
36B
330
36
100
AcDbEntity
  8
0
 62
     7
100
AcDbLine
 10
151.768047
 20
194.4733629999999
 30
0.0
 11
151.436047
 21
194.4733629999999
 31
0.0
  0
LINE
  5
36C
330
36
100
AcDbEntity
  8
0
 62
     7
100
AcDbLine
 10
150.000047
 20
194.4733629999999
 30
0.0
 11
150.331047
 21
194.4733629999999
 31
0.0
  0
ARC
  5
36D
330
36
100
AcDbEntity
  8
0
 62
     7
100
AcDbCircle
 10
150.331047
 20
194.871363
 30
0.0
 40
0.398
100
AcDbArc
 50
270.0
 51
0.0
  0
LINE
  5
36E
330
36
100
AcDbEntity
  8
0
 62
     7
100
AcDbLine
 10
150.729047
 20
195.202363
 30
0.0
 11
150.729047
 21
194.871363
 31
0.0
  0
LINE
  5
36F
330
36
100
AcDbEntity
  8
0
 62
     7
100
AcDbLine
 10
150.000047
 20
194.164363
 30
0.0
 11
150.000047
 21
194.4733629999999
 31
0.0
  0
CIRCLE
  5
370
330
36
100
AcDbEntity
  8
0
 62
     7
100
AcDbCircle
 10
150.884047
 20
163.381363
 30
0.0
 40
1.546999999999996
  0
LINE
  5
371
330
36
100
AcDbEntity
  8
0
 62
     7
100
AcDbLine
 10
150.000047
 20
163.226363
 30
0.0
 11
150.331047
 21
163.226363
 31
0.0
  0
LINE
  5
372
330
36
100
AcDbEntity
  8
0
 62
     7
100
AcDbLine
 10
150.729047
 20
162.4973629999999
 30
0.0
 11
150.729047
 21
162.828363
 31
0.0
  0
ARC
  5
373
330
36
100
AcDbEntity
  8
0
 62
     7
100
AcDbCircle
 10
150.331047
 20
162.828363
 30
0.0
 40
0.398
100
AcDbArc
 50
0.0
 51
90.0
  0
LINE
  5
374
330
36
100
AcDbEntity
  8
0
 62
     7
100
AcDbLine
 10
151.039047
 20
162.4973629999999
 30
0.0
 11
151.039047
 21
162.828363
 31
0.0
  0
LINE
  5
375
330
36
100
AcDbEntity
  8
0
 62
     7
100
AcDbLine
 10
151.768047
 20
163.535363
 30
0.0
 11
151.768047
 21
163.226363
 31
0.0
  0
LINE
  5
376
330
36
100
AcDbEntity
  8
0
 62
     7
100
AcDbLine
 10
151.768047
 20
163.226363
 30
0.0
 11
151.436047
 21
163.226363
 31
0.0
  0
ARC
  5
377
330
36
100
AcDbEntity
  8
0
 62
     7
100
AcDbCircle
 10
151.436047
 20
162.828363
 30
0.0
 40
0.398
100
AcDbArc
 50
90.0
 51
180.0
  0
LINE
  5
378
330
36
100
AcDbEntity
  8
0
 62
     7
100
AcDbLine
 10
151.039047
 20
162.4973629999999
 30
0.0
 11
150.729047
 21
162.4973629999999
 31
0.0
  0
LINE
  5
379
330
36
100
AcDbEntity
  8
0
 62
     7
100
AcDbLine
 10
151.039047
 20
164.265363
 30
0.0
 11
151.039047
 21
163.933363
 31
0.0
  0
ARC
  5
37A
330
36
100
AcDbEntity
  8
0
 62
     7
100
AcDbCircle
 10
151.436047
 20
163.933363
 30
0.0
 40
0.398
100
AcDbArc
 50
180.0
 51
270.0
  0
LINE
  5
37B
330
36
100
AcDbEntity
  8
0
 62
     7
100
AcDbLine
 10
150.729047
 20
164.265363
 30
0.0
 11
151.039047
 21
164.265363
 31
0.0
  0
LINE
  5
37C
330
36
100
AcDbEntity
  8
0
 62
     7
100
AcDbLine
 10
151.768047
 20
163.535363
 30
0.0
 11
151.436047
 21
163.535363
 31
0.0
  0
LINE
  5
37D
330
36
100
AcDbEntity
  8
0
 62
     7
100
AcDbLine
 10
150.000047
 20
163.535363
 30
0.0
 11
150.331047
 21
163.535363
 31
0.0
  0
ARC
  5
37E
330
36
100
AcDbEntity
  8
0
 62
     7
100
AcDbCircle
 10
150.331047
 20
163.933363
 30
0.0
 40
0.398
100
AcDbArc
 50
270.0
 51
0.0
  0
LINE
  5
37F
330
36
100
AcDbEntity
  8
0
 62
     7
100
AcDbLine
 10
150.729047
 20
164.265363
 30
0.0
 11
150.729047
 21
163.933363
 31
0.0
  0
LINE
  5
380
330
36
100
AcDbEntity
  8
0
 62
     7
100
AcDbLine
 10
150.000047
 20
163.226363
 30
0.0
 11
150.000047
 21
163.535363
 31
0.0
  0
LINE
  5
381
330
36
100
AcDbEntity
  8
0
 62
     7
100
AcDbLine
 10
187.803047
 20
178.884363
 30
0.0
 11
208.428047
 21
178.884363
 31
0.0
  0
ARC
  5
382
330
36
100
AcDbEntity
  8
0
 62
     7
100
AcDbCircle
 10
204.453047
 20
178.548363
 30
0.0
 40
4.022999999999997
100
AcDbArc
 50
4.785
 51
69.685
  0
ARC
  5
383
330
36
100
AcDbEntity
  8
0
 62
     7
100
AcDbCircle
 10
191.778047
 20
178.548363
 30
0.0
 40
4.022999999999997
100
AcDbArc
 50
110.315
 51
175.215
  0
LINE
  5
384
330
36
100
AcDbEntity
  8
0
 62
     7
100
AcDbLine
 10
205.850047
 20
182.321363
 30
0.0
 11
190.381047
 21
182.321363
 31
0.0
  0
LINE
  5
385
330
36
100
AcDbEntity
  8
0
 62
     7
100
AcDbLine
 10
187.803047
 20
183.353363
 30
0.0
 11
208.428047
 21
183.353363
 31
0.0
  0
ARC
  5
386
330
36
100
AcDbEntity
  8
0
 62
     7
100
AcDbCircle
 10
204.453047
 20
183.017363
 30
0.0
 40
4.022999999999997
100
AcDbArc
 50
4.785
 51
69.685
  0
ARC
  5
387
330
36
100
AcDbEntity
  8
0
 62
     7
100
AcDbCircle
 10
191.778047
 20
183.017363
 30
0.0
 40
4.022999999999997
100
AcDbArc
 50
110.315
 51
175.215
  0
LINE
  5
388
330
36
100
AcDbEntity
  8
0
 62
     7
100
AcDbLine
 10
205.850047
 20
186.7903629999999
 30
0.0
 11
190.381047
 21
186.7903629999999
 31
0.0
  0
LINE
  5
389
330
36
100
AcDbEntity
  8
0
 62
     7
100
AcDbLine
 10
187.803047
 20
187.821363
 30
0.0
 11
208.428047
 21
187.821363
 31
0.0
  0
ARC
  5
38A
330
36
100
AcDbEntity
  8
0
 62
     7
100
AcDbCircle
 10
204.453047
 20
187.486363
 30
0.0
 40
4.022999999999997
100
AcDbArc
 50
4.785
 51
69.685
  0
ARC
  5
38B
330
36
100
AcDbEntity
  8
0
 62
     7
100
AcDbCircle
 10
191.778047
 20
187.486363
 30
0.0
 40
4.022999999999997
100
AcDbArc
 50
110.315
 51
175.215
  0
LINE
  5
38C
330
36
100
AcDbEntity
  8
0
 62
     7
100
AcDbLine
 10
205.850047
 20
191.259363
 30
0.0
 11
190.381047
 21
191.259363
 31
0.0
  0
LINE
  5
38D
330
36
100
AcDbEntity
  8
0
 62
     7
100
AcDbLine
 10
187.803047
 20
192.290363
 30
0.0
 11
208.428047
 21
192.290363
 31
0.0
  0
ARC
  5
38E
330
36
100
AcDbEntity
  8
0
 62
     7
100
AcDbCircle
 10
204.453047
 20
191.954363
 30
0.0
 40
4.022999999999997
100
AcDbArc
 50
4.785
 51
69.685
  0
ARC
  5
38F
330
36
100
AcDbEntity
  8
0
 62
     7
100
AcDbCircle
 10
191.778047
 20
191.954363
 30
0.0
 40
4.022999999999997
100
AcDbArc
 50
110.315
 51
175.215
  0
LINE
  5
390
330
36
100
AcDbEntity
  8
0
 62
     7
100
AcDbLine
 10
205.850047
 20
195.728363
 30
0.0
 11
190.381047
 21
195.728363
 31
0.0
  0
LINE
  5
391
330
36
100
AcDbEntity
  8
0
 62
     7
100
AcDbLine
 10
156.865047
 20
178.884363
 30
0.0
 11
177.490047
 21
178.884363
 31
0.0
  0
ARC
  5
392
330
36
100
AcDbEntity
  8
0
 62
     7
100
AcDbCircle
 10
173.515047
 20
178.548363
 30
0.0
 40
4.022999999999997
100
AcDbArc
 50
4.785
 51
69.685
  0
ARC
  5
393
330
36
100
AcDbEntity
  8
0
 62
     7
100
AcDbCircle
 10
160.840047
 20
178.548363
 30
0.0
 40
4.022999999999997
100
AcDbArc
 50
110.315
 51
175.215
  0
LINE
  5
394
330
36
100
AcDbEntity
  8
0
 62
     7
100
AcDbLine
 10
174.912047
 20
182.321363
 30
0.0
 11
159.443047
 21
182.321363
 31
0.0
  0
LINE
  5
395
330
36
100
AcDbEntity
  8
0
 62
     7
100
AcDbLine
 10
156.865047
 20
183.353363
 30
0.0
 11
177.490047
 21
183.353363
 31
0.0
  0
ARC
  5
396
330
36
100
AcDbEntity
  8
0
 62
     7
100
AcDbCircle
 10
173.515047
 20
183.017363
 30
0.0
 40
4.022999999999997
100
AcDbArc
 50
4.785
 51
69.685
  0
ARC
  5
397
330
36
100
AcDbEntity
  8
0
 62
     7
100
AcDbCircle
 10
160.840047
 20
183.017363
 30
0.0
 40
4.022999999999997
100
AcDbArc
 50
110.315
 51
175.215
  0
LINE
  5
398
330
36
100
AcDbEntity
  8
0
 62
     7
100
AcDbLine
 10
174.912047
 20
186.7903629999999
 30
0.0
 11
159.443047
 21
186.7903629999999
 31
0.0
  0
LINE
  5
399
330
36
100
AcDbEntity
  8
0
 62
     7
100
AcDbLine
 10
156.865047
 20
187.821363
 30
0.0
 11
177.490047
 21
187.821363
 31
0.0
  0
ARC
  5
39A
330
36
100
AcDbEntity
  8
0
 62
     7
100
AcDbCircle
 10
173.515047
 20
187.486363
 30
0.0
 40
4.022999999999997
100
AcDbArc
 50
4.785
 51
69.685
  0
ARC
  5
39B
330
36
100
AcDbEntity
  8
0
 62
     7
100
AcDbCircle
 10
160.840047
 20
187.486363
 30
0.0
 40
4.022999999999997
100
AcDbArc
 50
110.315
 51
175.215
  0
LINE
  5
39C
330
36
100
AcDbEntity
  8
0
 62
     7
100
AcDbLine
 10
174.912047
 20
191.259363
 30
0.0
 11
159.443047
 21
191.259363
 31
0.0
  0
LINE
  5
39D
330
36
100
AcDbEntity
  8
0
 62
     7
100
AcDbLine
 10
156.865047
 20
192.290363
 30
0.0
 11
177.490047
 21
192.290363
 31
0.0
  0
ARC
  5
39E
330
36
100
AcDbEntity
  8
0
 62
     7
100
AcDbCircle
 10
173.515047
 20
191.954363
 30
0.0
 40
4.022999999999997
100
AcDbArc
 50
4.785
 51
69.685
  0
ARC
  5
39F
330
36
100
AcDbEntity
  8
0
 62
     7
100
AcDbCircle
 10
160.840047
 20
191.954363
 30
0.0
 40
4.022999999999997
100
AcDbArc
 50
110.315
 51
175.215
  0
LINE
  5
3A0
330
36
100
AcDbEntity
  8
0
 62
     7
100
AcDbLine
 10
174.912047
 20
195.728363
 30
0.0
 11
159.443047
 21
195.728363
 31
0.0
  0
CIRCLE
  5
3A1
330
36
100
AcDbEntity
  8
0
 62
     7
100
AcDbCircle
 10
214.478047
 20
178.849363
 30
0.0
 40
1.546999999999996
  0
LINE
  5
3A2
330
36
100
AcDbEntity
  8
0
 62
     7
100
AcDbLine
 10
213.594047
 20
178.695363
 30
0.0
 11
213.925047
 21
178.695363
 31
0.0
  0
LINE
  5
3A3
330
36
100
AcDbEntity
  8
0
 62
     7
100
AcDbLine
 10
214.323047
 20
177.966363
 30
0.0
 11
214.323047
 21
178.297363
 31
0.0
  0
ARC
  5
3A4
330
36
100
AcDbEntity
  8
0
 62
     7
100
AcDbCircle
 10
213.925047
 20
178.297363
 30
0.0
 40
0.398
100
AcDbArc
 50
0.0
 51
90.0
  0
LINE
  5
3A5
330
36
100
AcDbEntity
  8
0
 62
     7
100
AcDbLine
 10
214.632047
 20
177.966363
 30
0.0
 11
214.632047
 21
178.297363
 31
0.0
  0
LINE
  5
3A6
330
36
100
AcDbEntity
  8
0
 62
     7
100
AcDbLine
 10
215.362047
 20
179.0043629999999
 30
0.0
 11
215.362047
 21
178.695363
 31
0.0
  0
LINE
  5
3A7
330
36
100
AcDbEntity
  8
0
 62
     7
100
AcDbLine
 10
215.362047
 20
178.695363
 30
0.0
 11
215.030047
 21
178.695363
 31
0.0
  0
ARC
  5
3A8
330
36
100
AcDbEntity
  8
0
 62
     7
100
AcDbCircle
 10
215.030047
 20
178.297363
 30
0.0
 40
0.398
100
AcDbArc
 50
90.0
 51
180.0
  0
LINE
  5
3A9
330
36
100
AcDbEntity
  8
0
 62
     7
100
AcDbLine
 10
214.632047
 20
177.966363
 30
0.0
 11
214.323047
 21
177.966363
 31
0.0
  0
LINE
  5
3AA
330
36
100
AcDbEntity
  8
0
 62
     7
100
AcDbLine
 10
214.632047
 20
179.733363
 30
0.0
 11
214.632047
 21
179.402363
 31
0.0
  0
ARC
  5
3AB
330
36
100
AcDbEntity
  8
0
 62
     7
100
AcDbCircle
 10
215.030047
 20
179.402363
 30
0.0
 40
0.398
100
AcDbArc
 50
180.0
 51
270.0
  0
LINE
  5
3AC
330
36
100
AcDbEntity
  8
0
 62
     7
100
AcDbLine
 10
214.323047
 20
179.733363
 30
0.0
 11
214.632047
 21
179.733363
 31
0.0
  0
LINE
  5
3AD
330
36
100
AcDbEntity
  8
0
 62
     7
100
AcDbLine
 10
215.362047
 20
179.0043629999999
 30
0.0
 11
215.030047
 21
179.0043629999999
 31
0.0
  0
LINE
  5
3AE
330
36
100
AcDbEntity
  8
0
 62
     7
100
AcDbLine
 10
213.594047
 20
179.0043629999999
 30
0.0
 11
213.925047
 21
179.0043629999999
 31
0.0
  0
ARC
  5
3AF
330
36
100
AcDbEntity
  8
0
 62
     7
100
AcDbCircle
 10
213.925047
 20
179.402363
 30
0.0
 40
0.398
100
AcDbArc
 50
270.0
 51
0.0
  0
LINE
  5
3B0
330
36
100
AcDbEntity
  8
0
 62
     7
100
AcDbLine
 10
214.323047
 20
179.733363
 30
0.0
 11
214.323047
 21
179.402363
 31
0.0
  0
LINE
  5
3B1
330
36
100
AcDbEntity
  8
0
 62
     7
100
AcDbLine
 10
213.594047
 20
178.695363
 30
0.0
 11
213.594047
 21
179.0043629999999
 31
0.0
  0
CIRCLE
  5
3B2
330
36
100
AcDbEntity
  8
0
 62
     7
100
AcDbCircle
 10
214.478047
 20
194.318363
 30
0.0
 40
1.546999999999996
  0
LINE
  5
3B3
330
36
100
AcDbEntity
  8
0
 62
     7
100
AcDbLine
 10
213.594047
 20
194.164363
 30
0.0
 11
213.925047
 21
194.164363
 31
0.0
  0
LINE
  5
3B4
330
36
100
AcDbEntity
  8
0
 62
     7
100
AcDbLine
 10
214.323047
 20
193.434363
 30
0.0
 11
214.323047
 21
193.766363
 31
0.0
  0
ARC
  5
3B5
330
36
100
AcDbEntity
  8
0
 62
     7
100
AcDbCircle
 10
213.925047
 20
193.766363
 30
0.0
 40
0.398
100
AcDbArc
 50
0.0
 51
90.0
  0
LINE
  5
3B6
330
36
100
AcDbEntity
  8
0
 62
     7
100
AcDbLine
 10
214.632047
 20
193.434363
 30
0.0
 11
214.632047
 21
193.766363
 31
0.0
  0
LINE
  5
3B7
330
36
100
AcDbEntity
  8
0
 62
     7
100
AcDbLine
 10
215.362047
 20
194.4733629999999
 30
0.0
 11
215.362047
 21
194.164363
 31
0.0
  0
LINE
  5
3B8
330
36
100
AcDbEntity
  8
0
 62
     7
100
AcDbLine
 10
215.362047
 20
194.164363
 30
0.0
 11
215.030047
 21
194.164363
 31
0.0
  0
ARC
  5
3B9
330
36
100
AcDbEntity
  8
0
 62
     7
100
AcDbCircle
 10
215.030047
 20
193.766363
 30
0.0
 40
0.398
100
AcDbArc
 50
90.0
 51
180.0
  0
LINE
  5
3BA
330
36
100
AcDbEntity
  8
0
 62
     7
100
AcDbLine
 10
214.632047
 20
193.434363
 30
0.0
 11
214.323047
 21
193.434363
 31
0.0
  0
LINE
  5
3BB
330
36
100
AcDbEntity
  8
0
 62
     7
100
AcDbLine
 10
214.632047
 20
195.202363
 30
0.0
 11
214.632047
 21
194.871363
 31
0.0
  0
ARC
  5
3BC
330
36
100
AcDbEntity
  8
0
 62
     7
100
AcDbCircle
 10
215.030047
 20
194.871363
 30
0.0
 40
0.398
100
AcDbArc
 50
180.0
 51
270.0
  0
LINE
  5
3BD
330
36
100
AcDbEntity
  8
0
 62
     7
100
AcDbLine
 10
214.323047
 20
195.202363
 30
0.0
 11
214.632047
 21
195.202363
 31
0.0
  0
LINE
  5
3BE
330
36
100
AcDbEntity
  8
0
 62
     7
100
AcDbLine
 10
215.362047
 20
194.4733629999999
 30
0.0
 11
215.030047
 21
194.4733629999999
 31
0.0
  0
LINE
  5
3BF
330
36
100
AcDbEntity
  8
0
 62
     7
100
AcDbLine
 10
213.594047
 20
194.4733629999999
 30
0.0
 11
213.925047
 21
194.4733629999999
 31
0.0
  0
ARC
  5
3C0
330
36
100
AcDbEntity
  8
0
 62
     7
100
AcDbCircle
 10
213.925047
 20
194.871363
 30
0.0
 40
0.398
100
AcDbArc
 50
270.0
 51
0.0
  0
LINE
  5
3C1
330
36
100
AcDbEntity
  8
0
 62
     7
100
AcDbLine
 10
214.323047
 20
195.202363
 30
0.0
 11
214.323047
 21
194.871363
 31
0.0
  0
LINE
  5
3C2
330
36
100
AcDbEntity
  8
0
 62
     7
100
AcDbLine
 10
213.594047
 20
194.164363
 30
0.0
 11
213.594047
 21
194.4733629999999
 31
0.0
  0
CIRCLE
  5
3C3
330
36
100
AcDbEntity
  8
0
 62
     7
100
AcDbCircle
 10
214.478047
 20
163.381363
 30
0.0
 40
1.546999999999996
  0
LINE
  5
3C4
330
36
100
AcDbEntity
  8
0
 62
     7
100
AcDbLine
 10
213.594047
 20
163.226363
 30
0.0
 11
213.925047
 21
163.226363
 31
0.0
  0
LINE
  5
3C5
330
36
100
AcDbEntity
  8
0
 62
     7
100
AcDbLine
 10
214.323047
 20
162.4973629999999
 30
0.0
 11
214.323047
 21
162.828363
 31
0.0
  0
ARC
  5
3C6
330
36
100
AcDbEntity
  8
0
 62
     7
100
AcDbCircle
 10
213.925047
 20
162.828363
 30
0.0
 40
0.398
100
AcDbArc
 50
0.0
 51
90.0
  0
LINE
  5
3C7
330
36
100
AcDbEntity
  8
0
 62
     7
100
AcDbLine
 10
214.632047
 20
162.4973629999999
 30
0.0
 11
214.632047
 21
162.828363
 31
0.0
  0
LINE
  5
3C8
330
36
100
AcDbEntity
  8
0
 62
     7
100
AcDbLine
 10
215.362047
 20
163.535363
 30
0.0
 11
215.362047
 21
163.226363
 31
0.0
  0
LINE
  5
3C9
330
36
100
AcDbEntity
  8
0
 62
     7
100
AcDbLine
 10
215.362047
 20
163.226363
 30
0.0
 11
215.030047
 21
163.226363
 31
0.0
  0
ARC
  5
3CA
330
36
100
AcDbEntity
  8
0
 62
     7
100
AcDbCircle
 10
215.030047
 20
162.828363
 30
0.0
 40
0.398
100
AcDbArc
 50
90.0
 51
180.0
  0
LINE
  5
3CB
330
36
100
AcDbEntity
  8
0
 62
     7
100
AcDbLine
 10
214.632047
 20
162.4973629999999
 30
0.0
 11
214.323047
 21
162.4973629999999
 31
0.0
  0
LINE
  5
3CC
330
36
100
AcDbEntity
  8
0
 62
     7
100
AcDbLine
 10
214.632047
 20
164.265363
 30
0.0
 11
214.632047
 21
163.933363
 31
0.0
  0
ARC
  5
3CD
330
36
100
AcDbEntity
  8
0
 62
     7
100
AcDbCircle
 10
215.030047
 20
163.933363
 30
0.0
 40
0.398
100
AcDbArc
 50
180.0
 51
270.0
  0
LINE
  5
3CE
330
36
100
AcDbEntity
  8
0
 62
     7
100
AcDbLine
 10
214.323047
 20
164.265363
 30
0.0
 11
214.632047
 21
164.265363
 31
0.0
  0
LINE
  5
3CF
330
36
100
AcDbEntity
  8
0
 62
     7
100
AcDbLine
 10
215.362047
 20
163.535363
 30
0.0
 11
215.030047
 21
163.535363
 31
0.0
  0
LINE
  5
3D0
330
36
100
AcDbEntity
  8
0
 62
     7
100
AcDbLine
 10
213.594047
 20
163.535363
 30
0.0
 11
213.925047
 21
163.535363
 31
0.0
  0
ARC
  5
3D1
330
36
100
AcDbEntity
  8
0
 62
     7
100
AcDbCircle
 10
213.925047
 20
163.933363
 30
0.0
 40
0.398
100
AcDbArc
 50
270.0
 51
0.0
  0
LINE
  5
3D2
330
36
100
AcDbEntity
  8
0
 62
     7
100
AcDbLine
 10
214.323047
 20
164.265363
 30
0.0
 11
214.323047
 21
163.933363
 31
0.0
  0
LINE
  5
3D3
330
36
100
AcDbEntity
  8
0
 62
     7
100
AcDbLine
 10
213.594047
 20
163.226363
 30
0.0
 11
213.594047
 21
163.535363
 31
0.0
  0
ARC
  5
3D4
330
36
100
AcDbEntity
  8
0
 62
     7
100
AcDbCircle
 10
210.508047
 20
191.887363
 30
0.0
 40
7.599999999999997
100
AcDbArc
 50
3.041999999999998
 51
30.357
  0
LINE
  5
3D5
330
36
100
AcDbEntity
  8
0
 62
     7
100
AcDbLine
 10
217.066047
 20
192.290363
 30
0.0
 11
218.097047
 21
192.290363
 31
0.0
  0
ARC
  5
3D6
330
36
100
AcDbEntity
  8
0
 62
     7
100
AcDbCircle
 10
210.508047
 20
187.418363
 30
0.0
 40
7.599999999999997
100
AcDbArc
 50
3.041999999999998
 51
30.357
  0
LINE
  5
3D7
330
36
100
AcDbEntity
  8
0
 62
     7
100
AcDbLine
 10
217.066047
 20
187.821363
 30
0.0
 11
218.097047
 21
187.821363
 31
0.0
  0
LINE
  5
3D8
330
36
100
AcDbEntity
  8
0
 62
     7
100
AcDbLine
 10
71.06804699999995
 20
196.3483629999999
 30
0.0
 11
42.208047
 21
196.3483629999999
 31
0.0
  0
LINE
  5
3D9
330
36
100
AcDbEntity
  8
0
 62
     7
100
AcDbLine
 10
69.86504700000001
 20
195.484363
 30
0.0
 11
43.410047
 21
195.484363
 31
0.0
  0
LINE
  5
3DF
330
36
100
AcDbEntity
  8
0
 62
     7
100
AcDbLine
 10
291.900047
 20
223.193363
 30
0.0
 11
283.650047
 21
223.193363
 31
0.0
  0
LINE
  5
3E0
330
36
100
AcDbEntity
  8
0
 62
     7
100
AcDbLine
 10
325.931047
 20
151.346363
 30
0.0
 11
320.636047
 21
151.346363
 31
0.0
  0
ARC
  5
3E1
330
36
100
AcDbEntity
  8
0
 62
     7
100
AcDbCircle
 10
325.931047
 20
156.159363
 30
0.0
 40
4.812999999999997
100
AcDbArc
 50
270.0
 51
0.0
  0
LINE
  5
3E2
330
36
100
AcDbEntity
  8
0
 62
     7
100
AcDbLine
 10
330.744047
 20
200.502363
 30
0.0
 11
330.744047
 21
156.159363
 31
0.0
  0
ARC
  5
3E3
330
36
100
AcDbEntity
  8
0
 62
     7
100
AcDbCircle
 10
325.931047
 20
200.502363
 30
0.0
 40
4.812999999999997
100
AcDbArc
 50
0.0
 51
90.0
  0
LINE
  5
3E4
330
36
100
AcDbEntity
  8
0
 62
     7
100
AcDbLine
 10
249.619047
 20
205.315363
 30
0.0
 11
325.931047
 21
205.315363
 31
0.0
  0
ARC
  5
3E5
330
36
100
AcDbEntity
  8
0
 62
     7
100
AcDbCircle
 10
249.619047
 20
200.502363
 30
0.0
 40
4.812999999999997
100
AcDbArc
 50
90.0
 51
180.0
  0
LINE
  5
3E6
330
36
100
AcDbEntity
  8
0
 62
     7
100
AcDbLine
 10
244.806047
 20
156.159363
 30
0.0
 11
244.806047
 21
200.502363
 31
0.0
  0
ARC
  5
3E7
330
36
100
AcDbEntity
  8
0
 62
     7
100
AcDbCircle
 10
249.619047
 20
156.159363
 30
0.0
 40
4.812999999999997
100
AcDbArc
 50
180.0
 51
270.0
  0
LINE
  5
3E8
330
36
100
AcDbEntity
  8
0
 62
     7
100
AcDbLine
 10
316.769047
 20
151.346363
 30
0.0
 11
256.218047
 21
151.346363
 31
0.0
  0
LINE
  5
3E9
330
36
100
AcDbEntity
  8
0
 62
     7
100
AcDbLine
 10
254.070047
 20
151.346363
 30
0.0
 11
249.619047
 21
151.346363
 31
0.0
  0
LINE
  5
3EA
330
36
100
AcDbEntity
  8
0
 62
     7
100
AcDbLine
 10
312.333072
 20
175.295806
 30
0.0
 11
260.32403
 21
175.295806
 31
0.0
  0
LINE
  5
3EB
330
36
100
AcDbEntity
  8
0
 62
     7
100
AcDbLine
 10
312.333072
 20
180.295806
 30
0.0
 11
260.32403
 21
180.295806
 31
0.0
  0
LINE
  5
3EC
330
36
100
AcDbEntity
  8
0
 62
     7
100
AcDbLine
 10
260.32403
 20
180.295806
 30
0.0
 11
260.32403
 21
155.828827
 31
0.0
  0
LINE
  5
3ED
330
36
100
AcDbEntity
  8
0
 62
     7
100
AcDbLine
 10
312.333072
 20
155.828827
 30
0.0
 11
260.32403
 21
155.828827
 31
0.0
  0
LINE
  5
3EE
330
36
100
AcDbEntity
  8
0
 62
     7
100
AcDbLine
 10
312.333072
 20
155.828827
 30
0.0
 11
312.333072
 21
180.295806
 31
0.0
  0
ARC
  5
3EF
330
36
100
AcDbEntity
  8
0
 62
     7
100
AcDbCircle
 10
309.6060470000001
 20
183.017363
 30
0.0
 40
4.022999999999997
100
AcDbArc
 50
4.785
 51
69.685
  0
LINE
  5
3F0
330
36
100
AcDbEntity
  8
0
 62
     7
100
AcDbLine
 10
311.003047
 20
186.7903629999999
 30
0.0
 11
295.534047
 21
186.7903629999999
 31
0.0
  0
ARC
  5
3F1
330
36
100
AcDbEntity
  8
0
 62
     7
100
AcDbCircle
 10
296.931047
 20
183.017363
 30
0.0
 40
4.022999999999997
100
AcDbArc
 50
110.315
 51
175.215
  0
ARC
  5
3F2
330
36
100
AcDbEntity
  8
0
 62
     7
100
AcDbCircle
 10
296.931047
 20
187.486363
 30
0.0
 40
4.022999999999997
100
AcDbArc
 50
110.315
 51
175.215
  0
LINE
  5
3F3
330
36
100
AcDbEntity
  8
0
 62
     7
100
AcDbLine
 10
311.003047
 20
191.259363
 30
0.0
 11
295.534047
 21
191.259363
 31
0.0
  0
ARC
  5
3F4
330
36
100
AcDbEntity
  8
0
 62
     7
100
AcDbCircle
 10
309.6060470000001
 20
187.486363
 30
0.0
 40
4.022999999999997
100
AcDbArc
 50
4.785
 51
69.685
  0
ARC
  5
3F5
330
36
100
AcDbEntity
  8
0
 62
     7
100
AcDbCircle
 10
278.668047
 20
187.486363
 30
0.0
 40
4.022999999999997
100
AcDbArc
 50
4.785
 51
69.685
  0
LINE
  5
3F6
330
36
100
AcDbEntity
  8
0
 62
     7
100
AcDbLine
 10
280.065047
 20
191.259363
 30
0.0
 11
264.596047
 21
191.259363
 31
0.0
  0
ARC
  5
3F7
330
36
100
AcDbEntity
  8
0
 62
     7
100
AcDbCircle
 10
265.993047
 20
187.486363
 30
0.0
 40
4.022999999999997
100
AcDbArc
 50
110.315
 51
175.215
  0
ARC
  5
3F8
330
36
100
AcDbEntity
  8
0
 62
     7
100
AcDbCircle
 10
278.668047
 20
183.017363
 30
0.0
 40
4.022999999999997
100
AcDbArc
 50
4.785
 51
69.685
  0
LINE
  5
3F9
330
36
100
AcDbEntity
  8
0
 62
     7
100
AcDbLine
 10
280.065047
 20
186.7903629999999
 30
0.0
 11
264.596047
 21
186.7903629999999
 31
0.0
  0
ARC
  5
3FA
330
36
100
AcDbEntity
  8
0
 62
     7
100
AcDbCircle
 10
265.993047
 20
183.017363
 30
0.0
 40
4.022999999999997
100
AcDbArc
 50
110.315
 51
175.215
  0
LINE
  5
3FB
330
36
100
AcDbEntity
  8
0
 62
     7
100
AcDbLine
 10
322.570047
 20
136.472363
 30
0.0
 11
314.836047
 21
137.116363
 31
0.0
  0
LINE
  5
3FC
330
36
100
AcDbEntity
  8
0
 62
     7
100
AcDbLine
 10
322.570047
 20
137.761363
 30
0.0
 11
314.836047
 21
138.405363
 31
0.0
  0
LINE
  5
3FD
330
36
100
AcDbEntity
  8
0
 62
     7
100
AcDbLine
 10
252.165047
 20
119.847363
 30
0.0
 11
258.073047
 21
122.533363
 31
0.0
  0
LINE
  5
3FE
330
36
100
AcDbEntity
  8
0
 62
     7
100
AcDbLine
 10
252.165047
 20
120.921363
 30
0.0
 11
257.536047
 21
123.607363
 31
0.0
  0
LINE
  5
3FF
330
36
100
AcDbEntity
  8
0
 62
     7
100
AcDbLine
 10
291.304047
 20
136.926363
 30
0.0
 11
293.297047
 21
132.450363
 31
0.0
  0
LINE
  5
400
330
36
100
AcDbEntity
  8
0
 62
     7
100
AcDbLine
 10
288.746047
 20
135.787363
 30
0.0
 11
290.739047
 21
131.311363
 31
0.0
  0
LINE
  5
401
330
36
100
AcDbEntity
  8
0
 62
     7
100
AcDbLine
 10
290.0250470000001
 20
136.356363
 30
0.0
 11
292.018047
 21
131.880363
 31
0.0
  0
LINE
  5
402
330
36
100
AcDbEntity
  8
0
 62
     7
100
AcDbLine
 10
287.467047
 20
135.218363
 30
0.0
 11
289.460047
 21
130.741363
 31
0.0
  0
LINE
  5
403
330
36
100
AcDbEntity
  8
0
 62
     7
100
AcDbLine
 10
286.189047
 20
134.648363
 30
0.0
 11
288.182047
 21
130.172363
 31
0.0
  0
LINE
  5
404
330
36
100
AcDbEntity
  8
0
 62
     7
100
AcDbLine
 10
284.910047
 20
134.079363
 30
0.0
 11
286.903047
 21
129.602363
 31
0.0
  0
LINE
  5
405
330
36
100
AcDbEntity
  8
0
 62
     7
100
AcDbLine
 10
283.631047
 20
133.509363
 30
0.0
 11
285.624047
 21
129.033363
 31
0.0
  0
LINE
  5
406
330
36
100
AcDbEntity
  8
0
 62
     7
100
AcDbLine
 10
282.352047
 20
132.940363
 30
0.0
 11
284.345047
 21
128.463363
 31
0.0
  0
LINE
  5
407
330
36
100
AcDbEntity
  8
0
 62
     7
100
AcDbLine
 10
284.931047
 20
120.806363
 30
0.0
 11
284.931047
 21
125.7063629999999
 31
0.0
  0
LINE
  5
408
330
36
100
AcDbEntity
  8
0
 62
     7
100
AcDbLine
 10
286.331047
 20
120.806363
 30
0.0
 11
286.331047
 21
125.7063629999999
 31
0.0
  0
LINE
  5
409
330
36
100
AcDbEntity
  8
0
 62
     7
100
AcDbLine
 10
287.7310470000001
 20
120.806363
 30
0.0
 11
287.7310470000001
 21
125.7063629999999
 31
0.0
  0
LINE
  5
40A
330
36
100
AcDbEntity
  8
0
 62
     7
100
AcDbLine
 10
289.131047
 20
120.806363
 30
0.0
 11
289.131047
 21
125.7063629999999
 31
0.0
  0
LINE
  5
40B
330
36
100
AcDbEntity
  8
0
 62
     7
100
AcDbLine
 10
290.531047
 20
120.806363
 30
0.0
 11
290.531047
 21
125.7063629999999
 31
0.0
  0
LINE
  5
40C
330
36
100
AcDbEntity
  8
0
 62
     7
100
AcDbLine
 10
291.931047
 20
120.806363
 30
0.0
 11
291.931047
 21
125.7063629999999
 31
0.0
  0
LINE
  5
40D
330
36
100
AcDbEntity
  8
0
 62
     7
100
AcDbLine
 10
293.331047
 20
120.806363
 30
0.0
 11
293.331047
 21
125.7063629999999
 31
0.0
  0
LINE
  5
40E
330
36
100
AcDbEntity
  8
0
 62
     7
100
AcDbLine
 10
294.7310470000001
 20
120.806363
 30
0.0
 11
294.7310470000001
 21
125.7063629999999
 31
0.0
  0
LINE
  5
40F
330
36
100
AcDbEntity
  8
0
 62
     7
100
AcDbLine
 10
295.773047
 20
117.420363
 30
0.0
 11
297.766047
 21
112.943363
 31
0.0
  0
LINE
  5
410
330
36
100
AcDbEntity
  8
0
 62
     7
100
AcDbLine
 10
294.494047
 20
116.850363
 30
0.0
 11
296.487047
 21
112.374363
 31
0.0
  0
LINE
  5
411
330
36
100
AcDbEntity
  8
0
 62
     7
100
AcDbLine
 10
290.6570470000001
 20
115.142363
 30
0.0
 11
292.650047
 21
110.666363
 31
0.0
  0
LINE
  5
412
330
36
100
AcDbEntity
  8
0
 62
     7
100
AcDbLine
 10
291.936047
 20
115.711363
 30
0.0
 11
293.929047
 21
111.235363
 31
0.0
  0
LINE
  5
413
330
36
100
AcDbEntity
  8
0
 62
     7
100
AcDbLine
 10
293.215047
 20
116.281363
 30
0.0
 11
295.208047
 21
111.804363
 31
0.0
  0
LINE
  5
414
330
36
100
AcDbEntity
  8
0
 62
     7
100
AcDbLine
 10
289.378047
 20
114.572363
 30
0.0
 11
291.371047
 21
110.096363
 31
0.0
  0
LINE
  5
415
330
36
100
AcDbEntity
  8
0
 62
     7
100
AcDbLine
 10
288.099047
 20
114.003363
 30
0.0
 11
290.092047
 21
109.527363
 31
0.0
  0
LINE
  5
416
330
36
100
AcDbEntity
  8
0
 62
     7
100
AcDbLine
 10
286.8200470000001
 20
113.434363
 30
0.0
 11
288.8130470000001
 21
108.957363
 31
0.0
  0
LINE
  5
417
330
36
100
AcDbEntity
  8
0
 62
     7
100
AcDbLine
 10
299.2000470000001
 20
101.299363
 30
0.0
 11
299.2000470000001
 21
106.199363
 31
0.0
  0
LINE
  5
418
330
36
100
AcDbEntity
  8
0
 62
     7
100
AcDbLine
 10
296.400047
 20
101.299363
 30
0.0
 11
296.400047
 21
106.199363
 31
0.0
  0
LINE
  5
419
330
36
100
AcDbEntity
  8
0
 62
     7
100
AcDbLine
 10
295.000047
 20
101.299363
 30
0.0
 11
295.000047
 21
106.199363
 31
0.0
  0
LINE
  5
41A
330
36
100
AcDbEntity
  8
0
 62
     7
100
AcDbLine
 10
292.200047
 20
101.299363
 30
0.0
 11
292.200047
 21
106.199363
 31
0.0
  0
LINE
  5
41B
330
36
100
AcDbEntity
  8
0
 62
     7
100
AcDbLine
 10
290.800047
 20
101.299363
 30
0.0
 11
290.800047
 21
106.199363
 31
0.0
  0
LINE
  5
41C
330
36
100
AcDbEntity
  8
0
 62
     7
100
AcDbLine
 10
289.400047
 20
101.299363
 30
0.0
 11
289.400047
 21
106.199363
 31
0.0
  0
LINE
  5
41D
330
36
100
AcDbEntity
  8
0
 62
     7
100
AcDbLine
 10
297.800047
 20
101.299363
 30
0.0
 11
297.800047
 21
106.199363
 31
0.0
  0
LINE
  5
41E
330
36
100
AcDbEntity
  8
0
 62
     7
100
AcDbLine
 10
293.600047
 20
101.299363
 30
0.0
 11
293.600047
 21
106.199363
 31
0.0
  0
LINE
  5
41F
330
36
100
AcDbEntity
  8
0
 62
     7
100
AcDbLine
 10
285.4214713971974
 20
86.67807233334178
 30
0.0
 11
316.9214713971974
 21
86.67807233334178
 31
0.0
  0
LINE
  5
420
330
36
100
AcDbEntity
  8
0
 62
     7
100
AcDbLine
 10
253.487047
 20
105.917363
 30
0.0
 11
253.487047
 21
101.204363
 31
0.0
  0
LINE
  5
421
330
36
100
AcDbEntity
  8
0
 62
     7
100
AcDbLine
 10
253.487047
 20
101.204363
 30
0.0
 11
252.762047
 21
101.204363
 31
0.0
  0
LINE
  5
422
330
36
100
AcDbEntity
  8
0
 62
     7
100
AcDbLine
 10
252.762047
 20
101.204363
 30
0.0
 11
252.762047
 21
105.917363
 31
0.0
  0
LINE
  5
423
330
36
100
AcDbEntity
  8
0
 62
     7
100
AcDbLine
 10
257.476047
 20
105.917363
 30
0.0
 11
257.476047
 21
101.204363
 31
0.0
  0
LINE
  5
424
330
36
100
AcDbEntity
  8
0
 62
     7
100
AcDbLine
 10
257.476047
 20
101.204363
 30
0.0
 11
256.750047
 21
101.204363
 31
0.0
  0
LINE
  5
425
330
36
100
AcDbEntity
  8
0
 62
     7
100
AcDbLine
 10
256.750047
 20
101.204363
 30
0.0
 11
256.750047
 21
105.917363
 31
0.0
  0
LINE
  5
426
330
36
100
AcDbEntity
  8
0
 62
     7
100
AcDbLine
 10
252.581047
 20
113.349363
 30
0.0
 11
257.657047
 21
113.349363
 31
0.0
  0
ARC
  5
427
330
36
100
AcDbEntity
  8
0
 62
     7
100
AcDbCircle
 10
214.478047
 20
205.043363
 30
0.0
 40
1.821999999999999
100
AcDbArc
 50
31.891
 51
148.109
  0
LINE
  5
428
330
36
100
AcDbEntity
  8
0
 62
     3
100
AcDbLine
 10
82.70777499999999
 20
189.132828
 30
0.0
 11
74.707775
 21
189.132828
 31
0.0
  0
ARC
  5
429
330
36
100
AcDbEntity
  8
0
 62
     3
100
AcDbCircle
 10
82.70777499999999
 20
189.632828
 30
0.0
 40
0.5
100
AcDbArc
 50
270.0
 51
0.0
  0
LINE
  5
42A
330
36
100
AcDbEntity
  8
0
 62
     3
100
AcDbLine
 10
83.207775
 20
189.632828
 30
0.0
 11
83.207775
 21
196.632828
 31
0.0
  0
LINE
  5
42B
330
36
100
AcDbEntity
  8
0
 62
     3
100
AcDbLine
 10
74.707775
 20
197.132828
 30
0.0
 11
82.70777499999999
 21
197.132828
 31
0.0
  0
ARC
  5
42C
330
36
100
AcDbEntity
  8
0
 62
     3
100
AcDbCircle
 10
82.70777499999999
 20
196.632828
 30
0.0
 40
0.5
100
AcDbArc
 50
0.0
 51
90.0
  0
TEXT
  5
42D
330
36
100
AcDbEntity
  8
0
 62
     3
100
AcDbText
 10
74.20777499999998
 20
193.132828
 30
0.0
 40
3.2
  1
12V
 41
0.976562
100
AcDbText
  0
TEXT
  5
42E
330
36
100
AcDbEntity
  8
0
 62
     3
100
AcDbText
 10
74.20777499999998
 20
189.632828
 30
0.0
 40
3.2
  1
24V
 41
0.8789059999999999
100
AcDbText
  0
LINE
  5
42F
330
36
100
AcDbEntity
  8
0
 62
     3
100
AcDbLine
 10
74.20777499999998
 20
189.632828
 30
0.0
 11
74.20777499999998
 21
196.632828
 31
0.0
  0
ARC
  5
430
330
36
100
AcDbEntity
  8
0
 62
     3
100
AcDbCircle
 10
74.707775
 20
189.632828
 30
0.0
 40
0.5
100
AcDbArc
 50
180.0
 51
270.0
  0
ARC
  5
431
330
36
100
AcDbEntity
  8
0
 62
     3
100
AcDbCircle
 10
74.707775
 20
196.632828
 30
0.0
 40
0.5
100
AcDbArc
 50
90.0
 51
180.0
  0
ARC
  5
432
330
36
100
AcDbEntity
  8
0
 62
     3
100
AcDbCircle
 10
98.23104700000001
 20
187.096363
 30
0.0
 40
6.788999999999997
100
AcDbArc
 50
184.3009999999999
 51
175.699
  0
LINE
  5
433
330
36
100
AcDbEntity
  8
0
 62
     3
100
AcDbLine
 10
91.462047
 20
186.587363
 30
0.0
 11
103.980047
 21
186.587363
 31
0.0
  0
LINE
  5
434
330
36
100
AcDbEntity
  8
0
 62
     3
100
AcDbLine
 10
91.462047
 20
187.605363
 30
0.0
 11
103.980047
 21
187.605363
 31
0.0
  0
LINE
  5
435
330
36
100
AcDbEntity
  8
0
 62
     3
100
AcDbLine
 10
72.45004699999999
 20
185.979363
 30
0.0
 11
40.825047
 21
185.979363
 31
0.0
  0
LINE
  5
436
330
36
100
AcDbEntity
  8
0
 62
     3
100
AcDbLine
 10
72.45004699999999
 20
185.979363
 30
0.0
 11
72.45004699999999
 21
199.804363
 31
0.0
  0
LINE
  5
437
330
36
100
AcDbEntity
  8
0
 62
     3
100
AcDbLine
 10
72.45004699999999
 20
199.804363
 30
0.0
 11
40.825047
 21
199.804363
 31
0.0
  0
LINE
  5
438
330
36
100
AcDbEntity
  8
0
 62
     3
100
AcDbLine
 10
40.825047
 20
199.804363
 30
0.0
 11
40.825047
 21
185.979363
 31
0.0
  0
TEXT
  5
439
330
36
100
AcDbEntity
  8
0
 62
     3
100
AcDbText
 10
39.97733800000001
 20
173.961369
 30
0.0
 40
3.2
  1
急
 41
0.859375
100
AcDbText
  0
TEXT
  5
43A
330
36
100
AcDbEntity
  8
0
 62
     3
100
AcDbText
 10
45.845887
 20
173.961369
 30
0.0
 40
3.2
  1
速
 41
0.859375
100
AcDbText
  0
TEXT
  5
43B
330
36
100
AcDbEntity
  8
0
 62
     3
100
AcDbText
 10
51.71443599999999
 20
173.961369
 30
0.0
 40
3.2
  1
充
 41
0.859375
100
AcDbText
  0
TEXT
  5
43C
330
36
100
AcDbEntity
  8
0
 62
     3
100
AcDbText
 10
57.582985
 20
173.961369
 30
0.0
 40
3.2
  1
電
 41
0.859375
100
AcDbText
  0
TEXT
  5
43D
330
36
100
AcDbEntity
  8
0
 62
     3
100
AcDbText
 10
63.45153299999999
 20
173.961369
 30
0.0
 40
3.2
  1
器
 41
0.859375
100
AcDbText
  0
TEXT
  5
43E
330
36
100
AcDbEntity
  8
0
 62
     3
100
AcDbText
 10
40.085392
 20
170.071825
 30
0.0
 40
2.630879999999998
  1
エンジンスターター付
 41
0.833333
100
AcDbText
  0
ARC
  5
43F
330
36
100
AcDbEntity
  8
0
 62
     3
100
AcDbCircle
 10
98.23104700000001
 20
165.096363
 30
0.0
 40
6.788999999999997
100
AcDbArc
 50
114.301
 51
105.699
  0
LINE
  5
440
330
36
100
AcDbEntity
  8
0
 62
     3
100
AcDbLine
 10
96.394047
 20
171.632363
 30
0.0
 11
100.676047
 21
159.869363
 31
0.0
  0
LINE
  5
441
330
36
100
AcDbEntity
  8
0
 62
     3
100
AcDbLine
 10
95.438047
 20
171.284363
 30
0.0
 11
99.71904700000001
 21
159.520363
 31
0.0
  0
CIRCLE
  5
442
330
36
100
AcDbEntity
  8
0
 62
     3
100
AcDbCircle
 10
76.91904699999998
 20
161.659363
 30
0.0
 40
2.577999999999998
  0
CIRCLE
  5
443
330
36
100
AcDbEntity
  8
0
 62
     3
100
AcDbCircle
 10
69.013047
 20
161.659363
 30
0.0
 40
2.319999999999998
  0
CIRCLE
  5
444
330
36
100
AcDbEntity
  8
0
 62
     3
100
AcDbCircle
 10
61.10604699999999
 20
161.659363
 30
0.0
 40
2.319999999999998
  0
CIRCLE
  5
445
330
36
100
AcDbEntity
  8
0
 62
     3
100
AcDbCircle
 10
53.200047
 20
161.659363
 30
0.0
 40
1.719
  0
CIRCLE
  5
446
330
36
100
AcDbEntity
  8
0
 62
     3
100
AcDbCircle
 10
40.825047
 20
161.659363
 30
0.0
 40
2.544
  0
LINE
  5
449
330
36
100
AcDbEntity
  8
0
 62
     3
100
AcDbLine
 10
351.447637
 20
2.250223
 30
0.0
 11
351.447637
 21
25.250223
 31
0.0
  0
LINE
  5
44B
330
36
100
AcDbEntity
  8
0
 62
     3
100
AcDbLine
 10
298.394027
 20
-4.749776999999999
 30
0.0
 11
298.394027
 21
9.250223
 31
0.0
  0
TEXT
  5
44D
330
36
100
AcDbEntity
  8
0
 62
     3
100
AcDbText
 10
327.457955
 20
21.455339
 30
0.0
 40
2.0
  1
A
 41
0.7
100
AcDbText
  0
TEXT
  5
44E
330
36
100
AcDbEntity
  8
0
 62
     3
100
AcDbText
 10
329.993241
 20
21.455339
 30
0.0
 40
2.0
  1
P
 41
0.7
100
AcDbText
  0
TEXT
  5
44F
330
36
100
AcDbEntity
  8
0
 62
     3
100
AcDbText
 10
332.528527
 20
21.455339
 30
0.0
 40
2.0
  1
P
 41
0.7
100
AcDbText
  0
TEXT
  5
450
330
36
100
AcDbEntity
  8
0
 62
     3
100
AcDbText
 10
335.063813
 20
21.455339
 30
0.0
 40
2.0
  1
D
 41
0.7
100
AcDbText
  0
TEXT
  5
451
330
36
100
AcDbEntity
  8
0
 62
     3
100
AcDbText
 10
340.432496
 20
21.455339
 30
0.0
 40
2.0
  1
C
 41
0.7
100
AcDbText
  0
TEXT
  5
452
330
36
100
AcDbEntity
  8
0
 62
     3
100
AcDbText
 10
342.967783
 20
21.455339
 30
0.0
 40
2.0
  1
H
 41
0.7
100
AcDbText
  0
TEXT
  5
453
330
36
100
AcDbEntity
  8
0
 62
     3
100
AcDbText
 10
345.503069
 20
21.455339
 30
0.0
 40
2.0
  1
C
 41
0.7
100
AcDbText
  0
TEXT
  5
454
330
36
100
AcDbEntity
  8
0
 62
     3
100
AcDbText
 10
348.0383549999999
 20
21.455339
 30
0.0
 40
2.0
  1
K
 41
0.7
100
AcDbText
  0
TEXT
  5
455
330
36
100
AcDbEntity
  8
0
 62
     3
100
AcDbText
 10
353.712322
 20
21.455339
 30
0.0
 40
2.0
  1
DESN
 41
1.216762999999998
100
AcDbText
  0
TEXT
  5
456
330
36
100
AcDbEntity
  8
0
 62
     3
100
AcDbText
 10
268.705963
 20
-7.891159
 30
0.0
 40
2.0
  1
NICHIDO IND.CO.LTD
 41
1.274876
100
AcDbText
  0
LINE
  5
457
330
36
100
AcDbEntity
  8
0
 62
     3
100
AcDbLine
 10
279.088992
 20
22.890898
 30
0.0
 11
279.088992
 21
2.250223
 31
0.0
  0
LINE
  5
458
330
36
100
AcDbEntity
  8
0
 62
     3
100
AcDbLine
 10
325.447637
 20
25.250223
 30
0.0
 11
325.447637
 21
-14.4155
 31
0.0
  0
LINE
  5
459
330
36
100
AcDbEntity
  8
0
 62
     3
100
AcDbLine
 10
279.088992
 20
23.250223
 30
0.0
 11
279.088992
 21
25.250223
 31
0.0
  0
LINE
  5
45D
330
36
100
AcDbEntity
  8
0
 62
     3
100
AcDbLine
 10
338.447637
 20
25.250223
 30
0.0
 11
338.447637
 21
-4.749776999999999
 31
0.0
  0
TEXT
  5
45E
330
36
100
AcDbEntity
  8
0
 62
     3
100
AcDbText
 10
326.560081
 20
-3.885091
 30
0.0
 40
3.2
  1
作成日
 41
1.017225999999997
100
AcDbText
  0
LINE
  5
45F
330
36
100
AcDbEntity
  8
0
 62
     3
100
AcDbLine
 10
377.147
 20
25.250223
 30
0.0
 11
265.843558
 21
25.250223
 31
0.0
  0
LINE
  5
460
330
36
100
AcDbEntity
  8
0
 62
     3
100
AcDbLine
 10
364.447637
 20
2.250223
 30
0.0
 11
364.447637
 21
25.250223
 31
0.0
  0
TEXT
  5
461
330
36
100
AcDbEntity
  8
0
 62
     3
100
AcDbText
 10
367.77144
 20
21.541157
 30
0.0
 40
1.8
  1
D
 41
0.666667
100
AcDbText
  0
TEXT
  5
462
330
36
100
AcDbEntity
  8
0
 62
     3
100
AcDbText
 10
370.588068
 20
21.541157
 30
0.0
 40
1.8
  1
E
 41
0.666667
100
AcDbText
  0
TEXT
  5
463
330
36
100
AcDbEntity
  8
0
 62
     3
100
AcDbText
 10
373.404696
 20
21.541157
 30
0.0
 40
1.8
  1
F
 41
0.666667
100
AcDbText
  0
TEXT
  5
464
330
36
100
AcDbEntity
  8
0
 62
     3
100
AcDbText
 10
367.77144
 20
17.548604
 30
0.0
 40
3.2
  1
製図
 41
1.076369
100
AcDbText
  0
LINE
  5
465
330
36
100
AcDbEntity
  8
0
 62
     3
100
AcDbLine
 10
265.843558
 20
25.250223
 30
0.0
 11
265.843558
 21
-14.4155
 31
0.0
  0
TEXT
  5
466
330
36
100
AcDbEntity
  8
0
 62
     3
100
AcDbText
 10
267.22021
 20
-14.083035
 30
0.0
 40
5.0
  1
日動工業株式会社
 41
0.833333
100
AcDbText
  0
LINE
  5
467
330
36
100
AcDbEntity
  8
0
 62
     3
100
AcDbLine
 10
308.725961
 20
9.250223
 30
0.0
 11
308.725961
 21
-14.4155
 31
0.0
  0
LINE
  5
468
330
36
100
AcDbEntity
  8
0
 62
     3
100
AcDbLine
 10
308.725961
 20
-9.582639
 30
0.0
 11
325.447637
 21
-9.582639
 31
0.0
  0
TEXT
  5
469
330
36
100
AcDbEntity
  8
0
 62
     3
100
AcDbText
 10
309.312563
 20
-8.766208
 30
0.0
 40
3.2
  1
出図コード
 41
0.8356860000000001
100
AcDbText
  0
LINE
  5
46B
330
36
100
AcDbEntity
  8
0
 62
     3
100
AcDbLine
 10
265.843558
 20
-4.749776999999999
 30
0.0
 11
377.147
 21
-4.749776999999999
 31
0.0
  0
LINE
  5
46D
330
36
100
AcDbEntity
  8
0
 62
     3
100
AcDbLine
 10
265.843558
 20
16.250223
 30
0.0
 11
377.147
 21
16.250223
 31
0.0
  0
LINE
  5
473
330
36
100
AcDbEntity
  8
0
 62
     3
100
AcDbLine
 10
265.843558
 20
9.250223
 30
0.0
 11
325.447637
 21
9.250223
 31
0.0
  0
LINE
  5
479
330
36
100
AcDbEntity
  8
0
 62
     3
100
AcDbLine
 10
265.843558
 20
2.250223
 30
0.0
 11
377.147
 21
2.250223
 31
0.0
  0
TEXT
  5
47A
330
36
100
AcDbEntity
  8
0
 62
     3
100
AcDbText
 10
309.172045051268
 20
-13.99664436357193
 30
0.0
 40
3.2
  1
ZK-A3X
 41
0.8112849999999999
100
AcDbText
  0
TEXT
  5
47B
330
36
100
AcDbEntity
  8
0
 62
     3
100
AcDbText
 10
267.660954
 20
21.419748
 30
0.0
 40
2.0
  1
CONPONENTS
 41
0.5331600000000001
100
AcDbText
  0
TEXT
  5
47C
330
36
100
AcDbEntity
  8
0
 62
     3
100
AcDbText
 10
267.311228
 20
2.487572
 30
0.0
 40
3.0
  1
材
 41
0.833333
100
AcDbText
  0
TEXT
  5
47D
330
36
100
AcDbEntity
  8
0
 62
     3
100
AcDbText
 10
274.84687
 20
2.487572
 30
0.0
 40
3.0
  1
質
 41
0.833333
100
AcDbText
  0
TEXT
  5
47E
330
36
100
AcDbEntity
  8
0
 62
     3
100
AcDbText
 10
267.399298
 20
13.112096
 30
0.0
 40
2.0
  1
MODEL
 41
1.031072999999999
100
AcDbText
  0
TEXT
  5
47F
330
36
100
AcDbEntity
  8
0
 62
     3
100
AcDbText
 10
267.311228
 20
6.16988
 30
0.0
 40
2.0
  1
MATERIAL
 41
0.659278
100
AcDbText
  0
TEXT
  5
480
330
36
100
AcDbEntity
  8
0
 62
     3
100
AcDbText
 10
298.618508
 20
2.487572
 30
0.0
 40
3.0
  1
備
 41
0.833333
100
AcDbText
  0
TEXT
  5
481
330
36
100
AcDbEntity
  8
0
 62
     3
100
AcDbText
 10
305.35151
 20
2.487572
 30
0.0
 40
3.0
  1
考
 41
0.833333
100
AcDbText
  0
TEXT
  5
482
330
36
100
AcDbEntity
  8
0
 62
     3
100
AcDbText
 10
298.8327505922623
 20
6.16988
 30
0.0
 40
2.0
  1
REMARKS
 41
0.675794
100
AcDbText
  0
TEXT
  5
483
330
36
100
AcDbEntity
  8
0
 62
     3
100
AcDbText
 10
268.900957
 20
-0.750241
 30
0.0
 40
2.0
  1
3AD
 41
1.42614
100
AcDbText
  0
TEXT
  5
484
330
36
100
AcDbEntity
  8
0
 62
     3
100
AcDbText
 10
278.211937
 20
-0.584507
 30
0.0
 40
2.0
  1
ANGLE
 41
1.669883999999996
100
AcDbText
  0
TEXT
  5
485
330
36
100
AcDbEntity
  8
0
 62
     3
100
AcDbText
 10
299.145824
 20
-0.9613479999999999
 30
0.0
 40
2.0
  1
SCALE
 41
0.7719630000000001
100
AcDbText
  0
TEXT
  5
486
330
36
100
AcDbEntity
  8
0
 62
     3
100
AcDbText
 10
268.587087
 20
-4.749776999999999
 30
0.0
 40
3.0
  1
第
 41
0.833333
100
AcDbText
  0
TEXT
  5
487
330
36
100
AcDbEntity
  8
0
 62
     3
100
AcDbText
 10
276.373937
 20
-4.749776999999999
 30
0.0
 40
3.0
  1
三
 41
0.833333
100
AcDbText
  0
TEXT
  5
488
330
36
100
AcDbEntity
  8
0
 62
     3
100
AcDbText
 10
284.160787
 20
-4.749776999999999
 30
0.0
 40
3.0
  1
角
 41
0.833333
100
AcDbText
  0
TEXT
  5
489
330
36
100
AcDbEntity
  8
0
 62
     3
100
AcDbText
 10
291.947637
 20
-4.749776999999999
 30
0.0
 40
3.0
  1
法
 41
0.833333
100
AcDbText
  0
TEXT
  5
48A
330
36
100
AcDbEntity
  8
0
 62
     3
100
AcDbText
 10
299.009029
 20
-4.461348
 30
0.0
 40
3.0
  1
尺
 41
0.833333
100
AcDbText
  0
TEXT
  5
48B
330
36
100
AcDbEntity
  8
0
 62
     3
100
AcDbText
 10
305.74203
 20
-4.461348
 30
0.0
 40
3.0
  1
度
 41
0.833333
100
AcDbText
  0
TEXT
  5
48C
330
36
100
AcDbEntity
  8
0
 62
     3
100
AcDbText
 10
328.325301
 20
17.707951
 30
0.0
 40
3.0
  1
承認
 41
1.089472999999999
100
AcDbText
  0
TEXT
  5
48D
330
36
100
AcDbEntity
  8
0
 62
     3
100
AcDbText
 10
341.568181
 20
17.650223
 30
0.0
 40
3.0
  1
検図
 41
0.931761
100
AcDbText
  0
TEXT
  5
48E
330
36
100
AcDbEntity
  8
0
 62
     3
100
AcDbText
 10
354.568578
 20
17.650223
 30
0.0
 40
3.0
  1
設
 41
0.833333
100
AcDbText
  0
TEXT
  5
48F
330
36
100
AcDbEntity
  8
0
 62
     3
100
AcDbText
 10
359.058446
 20
17.650223
 30
0.0
 40
3.0
  1
計
 41
0.833333
100
AcDbText
  0
TEXT
  5
490
330
36
100
AcDbEntity
  8
0
 62
     3
100
AcDbText
 10
267.731061
 20
17.822775
 30
0.0
 40
3.0
  1
品
 41
0.833333
100
AcDbText
  0
TEXT
  5
491
330
36
100
AcDbEntity
  8
0
 62
     3
100
AcDbText
 10
275.266703
 20
17.822775
 30
0.0
 40
3.0
  1
名
 41
0.833333
100
AcDbText
  0
TEXT
  5
492
330
36
100
AcDbEntity
  8
0
 62
     3
100
AcDbText
 10
267.399298
 20
9.600726744335355
 30
0.0
 40
3.0
  1
型
 41
0.833333
100
AcDbText
  0
TEXT
  5
493
330
36
100
AcDbEntity
  8
0
 62
     3
100
AcDbText
 10
274.947389
 20
9.600726744335355
 30
0.0
 40
3.0
  1
式
 41
0.833333
100
AcDbText
  0
LINE
  5
494
330
36
100
AcDbEntity
  8
0
 62
     3
100
AcDbLine
 10
-25.254924
 20
126.0845
 30
0.0
 11
-27.853
 21
124.5845
 31
0.0
  0
LINE
  5
495
330
36
100
AcDbEntity
  8
0
 62
     3
100
AcDbLine
 10
-25.254924
 20
126.0845
 30
0.0
 11
-27.853
 21
127.5845
 31
0.0
  0
LINE
  5
496
330
36
100
AcDbEntity
  8
0
 62
     3
100
AcDbLine
 10
-27.853
 20
124.5845
 30
0.0
 11
-27.853
 21
127.5845
 31
0.0
  0
ARC
  5
497
330
36
100
AcDbEntity
  8
0
 62
     7
100
AcDbCircle
 10
98.23104700000001
 20
165.096363
 30
0.0
 40
8.9349
100
AcDbArc
 50
157.5
 51
90.0
  0
LINE
  5
498
330
36
100
AcDbEntity
  8
0
 62
     7
100
AcDbLine
 10
94.33875699999999
 20
170.655129
 30
0.0
 11
91.77429899999999
 21
174.317555
 31
0.0
  0
TEXT
  5
499
330
36
100
AcDbEntity
  8
0
 62
     3
100
AcDbText
 10
311.471634
 20
-3.436966999999998
 30
0.0
 40
3.255599999999998
  1
FREE
 41
0.9516
100
AcDbText
  0
LINE
  5
49A
330
36
100
AcDbEntity
  8
0
 62
     3
100
AcDbLine
 10
-12.853
 20
262.5845
 30
0.0
 11
-12.853
 21
-14.4155
 31
0.0
  0
LINE
  5
49B
330
36
100
AcDbEntity
  8
0
 62
     3
100
AcDbLine
 10
377.147
 20
-14.4155
 30
0.0
 11
377.147
 21
262.5845
 31
0.0
  0
LINE
  5
49C
330
36
100
AcDbEntity
  8
0
 62
     3
100
AcDbLine
 10
-12.853
 20
262.5845
 30
0.0
 11
377.147
 21
262.5845
 31
0.0
  0
LINE
  5
49D
330
36
100
AcDbEntity
  8
0
 62
     3
100
AcDbLine
 10
-12.853
 20
-14.4155
 30
0.0
 11
377.147
 21
-14.4155
 31
0.0
  0
TEXT
  5
49E
330
36
100
AcDbEntity
  8
0
 62
     3
100
AcDbText
 10
291.066892
 20
17.737622
 30
0.0
 40
4.5
  1
急速充電器
 41
0.833333
100
AcDbText
  0
TEXT
  5
49F
330
36
100
AcDbEntity
  8
0
 62
     3
100
AcDbText
 10
288.748387
 20
10.369459
 30
0.0
 40
4.5
  1
NB-150
 41
1.090908999999999
100
AcDbText
  0
LINE
  5
4A0
330
36
100
AcDbEntity
  8
0
 62
     7
100
AcDbLine
 10
97.778647
 20
170.960137
 30
0.0
 11
97.778647
 21
171.867266
 31
0.0
  0
LINE
  5
4A1
330
36
100
AcDbEntity
  8
0
 62
     7
100
AcDbLine
 10
98.68344700000001
 20
170.960137
 30
0.0
 11
98.68344700000001
 21
171.867266
 31
0.0
  0
TEXT
  5
4A2
330
36
100
AcDbEntity
  8
0
 62
     7
100
AcDbText
 10
106.496179
 20
187.299502
 30
0.0
 40
1.113599999999999
  1
エンジン始動
 41
0.833333
100
AcDbText
  0
TEXT
  5
4A3
330
36
100
AcDbEntity
  8
0
 62
     7
100
AcDbText
 10
107.088241
 20
185.965397
 30
0.0
 40
1.113599999999999
  1
BOOST
100
AcDbText
  0
TEXT
  5
4A4
330
36
100
AcDbEntity
  8
0
 62
     7
100
AcDbText
 10
101.312344
 20
171.320009
 30
0.0
 40
1.158144
  1
2
100
AcDbText
  0
TEXT
  5
4A5
330
36
100
AcDbEntity
  8
0
 62
     7
100
AcDbText
 10
104.761522
 20
167.5276649999999
 30
0.0
 40
1.158144
  1
4
100
AcDbText
  0
TEXT
  5
4A6
330
36
100
AcDbEntity
  8
0
 62
     7
100
AcDbText
 10
105.16959
 20
162.625681
 30
0.0
 40
1.158144
  1
6
100
AcDbText
  0
TEXT
  5
4A7
330
36
100
AcDbEntity
  8
0
 62
     7
100
AcDbText
 10
102.427671
 20
158.295251
 30
0.0
 40
1.158144
  1
8
100
AcDbText
  0
LINE
  5
4A8
330
36
100
AcDbEntity
  8
0
 62
     7
100
AcDbLine
 10
103.922265
 20
168.792284
 30
0.0
 11
105.534777
 21
169.839461
 31
0.0
  0
LINE
  5
4A9
330
36
100
AcDbEntity
  8
0
 62
     7
100
AcDbLine
 10
102.408926
 20
170.443804
 30
0.0
 11
103.592658
 21
171.958912
 31
0.0
  0
LINE
  5
4AA
330
36
100
AcDbEntity
  8
0
 62
     7
100
AcDbLine
 10
104.815474
 20
166.738045
 30
0.0
 11
106.681061
 21
167.203188
 31
0.0
  0
LINE
  5
4AB
330
36
100
AcDbEntity
  8
0
 62
     7
100
AcDbLine
 10
101.416881
 20
159.104681
 30
0.0
 11
102.319534
 21
157.407037
 31
0.0
  0
LINE
  5
4AC
330
36
100
AcDbEntity
  8
0
 62
     7
100
AcDbLine
 10
97.05267
 20
158.413458
 30
0.0
 11
96.71879699999999
 21
156.519968
 31
0.0
  0
LINE
  5
4AD
330
36
100
AcDbEntity
  8
0
 62
     7
100
AcDbLine
 10
100.440352
 20
171.512652
 30
0.0
 11
101.066322
 21
173.330601
 31
0.0
  0
LINE
  5
4AE
330
36
100
AcDbEntity
  8
0
 62
     7
100
AcDbLine
 10
103.194013
 20
160.468322
 30
0.0
 11
104.600187
 21
159.157044
 31
0.0
  0
LINE
  5
4AF
330
36
100
AcDbEntity
  8
0
 62
     7
100
AcDbLine
 10
104.430366
 20
162.336248
 30
0.0
 11
106.18684
 21
161.554216
 31
0.0
  0
LINE
  5
4B0
330
36
100
AcDbEntity
  8
0
 62
     7
100
AcDbLine
 10
104.991224
 20
164.504924
 30
0.0
 11
106.906608
 21
164.33735
 31
0.0
  0
LINE
  5
4B1
330
36
100
AcDbEntity
  8
0
 62
     7
100
AcDbLine
 10
93.188066
 20
160.555643
 30
0.0
 11
91.759222
 21
159.269105
 31
0.0
  0
LINE
  5
4B2
330
36
100
AcDbEntity
  8
0
 62
     7
100
AcDbLine
 10
94.94112900000001
 20
159.161194
 30
0.0
 11
94.008985
 21
157.479563
 31
0.0
  0
TEXT
  5
4B3
330
36
100
AcDbEntity
  8
0
 62
     7
100
AcDbText
 10
103.037848
 20
172.689683
 30
0.0
 40
1.158144
  1
2
100
AcDbText
  0
TEXT
  5
4B4
330
36
100
AcDbEntity
  8
0
 62
     7
100
AcDbText
 10
107.364417
 20
166.269988
 30
0.0
 40
1.158144
  1
4
100
AcDbText
  0
TEXT
  5
4B5
330
36
100
AcDbEntity
  8
0
 62
     7
100
AcDbText
 10
105.868237
 20
159.013008
 30
0.0
 40
1.158144
  1
6
100
AcDbText
  0
TEXT
  5
4B6
330
36
100
AcDbEntity
  8
0
 62
     7
100
AcDbText
 10
90.101106
 20
163.87287
 30
0.0
 40
0.868608
  1
50HZ
 50
289.999997
 41
1.043478
100
AcDbText
  0
TEXT
  5
4B7
330
36
100
AcDbEntity
  8
0
 62
     7
100
AcDbText
 10
92.49635600000001
 20
158.51035
 30
0.0
 40
0.926515
  1
12
 41
1.199999999999999
100
AcDbText
  0
TEXT
  5
4B8
330
36
100
AcDbEntity
  8
0
 62
     7
100
AcDbText
 10
87.63493199999997
 20
162.565393
 30
0.0
 40
0.926515
  1
12
 41
1.199999999999999
100
AcDbText
  0
TEXT
  5
4B9
330
36
100
AcDbEntity
  8
0
 62
     7
100
AcDbText
 10
88.67010400000003
 20
168.725887
 30
0.0
 40
0.868608
  1
60HZ
 50
256.999992
 41
1.043478
100
AcDbText
  0
TEXT
  5
4BA
330
36
100
AcDbEntity
  8
0
 62
     7
100
AcDbText
 10
94.55600200000001
 20
172.257933
 30
0.0
 40
1.447679999999999
  1
0
 50
24.999998
 41
1.199999999999999
100
AcDbText
  0
TEXT
  5
4BB
330
36
100
AcDbEntity
  8
0
 62
     7
100
AcDbText
 10
96.36505300000001
 20
172.9348169999999
 30
0.0
 40
1.447679999999999
  1
F
 50
7.999998
100
AcDbText
  0
TEXT
  5
4BC
330
36
100
AcDbEntity
  8
0
 62
     7
100
AcDbText
 10
95.423041
 20
172.677715
 30
0.0
 40
1.447679999999999
  1
F
 50
15.999996
100
AcDbText
  0
TEXT
  5
4BD
330
36
100
AcDbEntity
  8
0
 62
     7
100
AcDbText
 10
91.219686
 20
169.173901
 30
0.0
 40
1.447679999999999
  1
0
 50
53.99999799999999
 41
1.199999999999999
100
AcDbText
  0
TEXT
  5
4BE
330
36
100
AcDbEntity
  8
0
 62
     7
100
AcDbText
 10
91.774502
 20
169.961399
 30
0.0
 40
1.447679999999999
  1
N
 50
44.999998
100
AcDbText
  0
LINE
  5
4BF
330
36
100
AcDbEntity
  8
0
 62
     7
100
AcDbLine
 10
99.29261099999999
 20
158.39391
 30
0.0
 11
99.59338800000001
 21
156.494882
 31
0.0
  0
TEXT
  5
4C0
330
36
100
AcDbEntity
  8
0
 62
     7
100
AcDbText
 10
99.79381100000001
 20
154.783978
 30
0.0
 40
1.158144
  1
8
100
AcDbText
  0
TEXT
  5
4C1
330
36
100
AcDbEntity
  8
0
 62
     7
100
AcDbText
 10
97.336624
 20
156.858985
 30
0.0
 40
0.926515
  1
10
 41
1.333333
100
AcDbText
  0
TEXT
  5
4C2
330
36
100
AcDbEntity
  8
0
 62
     7
100
AcDbText
 10
91.755288
 20
156.38332
 30
0.0
 40
0.926515
  1
10
 41
1.333333
100
AcDbText
  0
TEXT
  5
4C3
330
36
100
AcDbEntity
  8
0
 62
     3
100
AcDbText
 10
38.26447
 20
180.3163129999999
 30
0.0
 40
2.806272
  1
SUPERBOOSTER
100
AcDbText
  0
TEXT
  5
4C4
330
36
100
AcDbEntity
  8
0
 62
     3
100
AcDbText
 10
71.681876
 20
180.206182
 30
0.0
 40
4.209408999999999
  1
150
 41
1.199999999999999
100
AcDbText
  0
TEXT
  5
4C5
330
36
100
AcDbEntity
  8
0
 62
     3
100
AcDbText
 10
261.285718
 20
80.60915999999997
 30
0.0
 40
3.2
  1
型　　　　　式
  7
高3.2
100
AcDbText
  0
TEXT
  5
4C6
330
36
100
AcDbEntity
  8
0
 62
     3
100
AcDbText
 10
261.285718
 20
75.06515999999997
 30
0.0
 40
3.2
  1
入　力　電　圧
  7
高3.2
100
AcDbText
  0
TEXT
  5
4C7
330
36
100
AcDbEntity
  8
0
 62
     3
100
AcDbText
 10
261.285718
 20
69.52116
 30
0.0
 40
3.2
  1
適応バッテリー
  7
高3.2
100
AcDbText
  0
TEXT
  5
4C8
330
36
100
AcDbEntity
  8
0
 62
     3
100
AcDbText
 10
261.285718
 20
58.47716
 30
0.0
 40
3.2
  1
最大充電電流
  7
高3.2
100
AcDbText
  0
TEXT
  5
4C9
330
36
100
AcDbEntity
  8
0
 62
     3
100
AcDbText
 10
297.6082582957754
 20
75.06515999999997
 30
0.0
 40
3.2
  1
AC100V 50/60Hz
  7
高3.2
100
AcDbText
  0
TEXT
  5
4CA
330
36
100
AcDbEntity
  8
0
 62
     3
100
AcDbText
 10
285.558567
 20
87.26230799999996
 30
0.0
 40
4.5
  1
主　　仕　　様
 41
0.833333
100
AcDbText
  0
TEXT
  5
4CB
330
36
100
AcDbEntity
  8
0
 62
     3
100
AcDbText
 10
297.6082582957754
 20
80.60915999999997
 30
0.0
 40
3.2
  1
NB-150
  7
高3.2
100
AcDbText
  0
TEXT
  5
4CC
330
36
100
AcDbEntity
  8
0
 62
     3
100
AcDbText
 10
297.6082582957754
 20
69.52116
 30
0.0
 40
3.2
  1
12V/24V
  7
高3.2
100
AcDbText
  0
TEXT
  5
4CD
330
36
100
AcDbEntity
  8
0
 62
     3
100
AcDbText
 10
297.6082582957754
 20
58.47716
 30
0.0
 40
3.2
  1
12V/35A  24V/17.5A
  7
高3.2
100
AcDbText
  0
TEXT
  5
4CE
330
36
100
AcDbEntity
  8
0
 62
     3
100
AcDbText
 10
297.6082582957754
 20
36.30116
 30
0.0
 40
3.2
  1
12.0kg
  7
高3.2
100
AcDbText
  0
TEXT
  5
4CF
330
36
100
AcDbEntity
  8
0
 62
     3
100
AcDbText
 10
261.285718
 20
36.30116
 30
0.0
 40
3.2
  1
質　　　　　量
  7
高3.2
100
AcDbText
  0
TEXT
  5
4D0
330
36
100
AcDbEntity
  8
0
 62
     3
100
AcDbText
 10
261.285718
 20
41.84516
 30
0.0
 40
3.2
  1
タイマー機能
  7
高3.2
100
AcDbText
  0
TEXT
  5
4D1
330
36
100
AcDbEntity
  8
0
 62
     3
100
AcDbText
 10
297.6082582957754
 20
41.84516
 30
0.0
 40
3.2
  1
12時間
  7
高3.2
100
AcDbText
  0
TEXT
  5
4D2
330
36
100
AcDbEntity
  8
0
 62
     3
100
AcDbText
 10
261.285718
 20
63.97715999999999
 30
0.0
 40
3.2
  1
連続充電電流
  7
高3.2
100
AcDbText
  0
TEXT
  5
4D3
330
36
100
AcDbEntity
  8
0
 62
     3
100
AcDbText
 10
297.6082582957754
 20
63.97715999999999
 30
0.0
 40
3.2
  1
12V/20A  24V/10A
  7
高3.2
100
AcDbText
  0
TEXT
  5
4D4
330
36
100
AcDbEntity
  8
0
 62
     3
100
AcDbText
 10
91.4515023947534
 20
-13.9155
 30
0.0
 40
3.2
  1
個数
 41
0.8
  7
高3.2
100
AcDbText
  0
TEXT
  5
4D5
330
36
100
AcDbEntity
  8
0
 62
     3
100
AcDbText
 10
-3.347552761359126
 20
-13.9155
 30
0.0
 40
3.2
  1
部　　品　　名
 41
0.8
  7
高3.2
100
AcDbText
  0
TEXT
  5
4D6
330
36
100
AcDbEntity
  8
0
 62
     3
100
AcDbText
 10
56.50581156584165
 20
-13.9155
 30
0.0
 40
3.2
  1
備　　　考
 41
0.8
  7
高3.2
100
AcDbText
  0
TEXT
  5
4D7
330
36
100
AcDbEntity
  8
0
 62
     3
100
AcDbText
 10
-11.353
 20
-13.9155
 30
0.0
 40
3.2
  1
No
 41
0.8
  7
高3.2
100
AcDbText
  0
TEXT
  5
4D8
330
36
100
AcDbEntity
  8
0
 62
     3
100
AcDbText
 10
39.69142620451184
 20
-13.9155
 30
0.0
 40
3.2
  1
材　　質
 41
0.8
  7
高3.2
100
AcDbText
  0
LINE
  5
4D9
330
36
100
AcDbEntity
  8
0
 62
     7
100
AcDbLine
 10
99.23006052990238
 20
-14.4155
 30
0.0
 11
99.23006052990238
 21
75.58449999999997
 31
0.0
  0
TEXT
  5
4DA
330
36
100
AcDbEntity
  8
0
 62
     3
100
AcDbText
 10
91.4515023947534
 20
-8.915499999999997
 30
0.0
 40
3.2
  1
1
 41
0.8
  7
高3.2
100
AcDbText
  0
TEXT
  5
4DB
330
36
100
AcDbEntity
  8
0
 62
     3
100
AcDbText
 10
91.4515023947534
 20
26.0845
 30
0.0
 40
3.2
  1
1
 41
0.8
  7
高3.2
100
AcDbText
  0
TEXT
  5
4DC
330
36
100
AcDbEntity
  8
0
 62
     3
100
AcDbText
 10
91.4515023947534
 20
11.0845
 30
0.0
 40
3.2
  1
1
 41
0.8
  7
高3.2
100
AcDbText
  0
TEXT
  5
4DD
330
36
100
AcDbEntity
  8
0
 62
     3
100
AcDbText
 10
91.4515023947534
 20
21.0845
 30
0.0
 40
3.2
  1
1
 41
0.8
  7
高3.2
100
AcDbText
  0
TEXT
  5
4DE
330
36
100
AcDbEntity
  8
0
 62
     3
100
AcDbText
 10
91.4515023947534
 20
31.08450000000001
 30
0.0
 40
3.2
  1
1
 41
0.8
  7
高3.2
100
AcDbText
  0
TEXT
  5
4DF
330
36
100
AcDbEntity
  8
0
 62
     3
100
AcDbText
 10
91.4515023947534
 20
16.0845
 30
0.0
 40
3.2
  1
1
 41
0.8
  7
高3.2
100
AcDbText
  0
TEXT
  5
4E0
330
36
100
AcDbEntity
  8
0
 62
     3
100
AcDbText
 10
91.4515023947534
 20
-3.915499999999997
 30
0.0
 40
3.2
  1
1
 41
0.8
  7
高3.2
100
AcDbText
  0
TEXT
  5
4E1
330
36
100
AcDbEntity
  8
0
 62
     3
100
AcDbText
 10
91.4515023947534
 20
6.0845
 30
0.0
 40
3.2
  1
1
 41
0.8
  7
高3.2
100
AcDbText
  0
TEXT
  5
4E2
330
36
100
AcDbEntity
  8
0
 62
     3
100
AcDbText
 10
91.4515023947534
 20
36.08450000000001
 30
0.0
 40
3.2
  1
1
 41
0.8
  7
高3.2
100
AcDbText
  0
TEXT
  5
4E3
330
36
100
AcDbEntity
  8
0
 62
     3
100
AcDbText
 10
91.4515023947534
 20
41.08449999999999
 30
0.0
 40
3.2
  1
1
 41
0.8
  7
高3.2
100
AcDbText
  0
TEXT
  5
4E4
330
36
100
AcDbEntity
  8
0
 62
     3
100
AcDbText
 10
91.4515023947534
 20
46.08449999999999
 30
0.0
 40
3.2
  1
1
 41
0.8
  7
高3.2
100
AcDbText
  0
TEXT
  5
4E5
330
36
100
AcDbEntity
  8
0
 62
     3
100
AcDbText
 10
91.4515023947534
 20
56.0845
 30
0.0
 40
3.2
  1
1
 41
0.8
  7
高3.2
100
AcDbText
  0
TEXT
  5
4E6
330
36
100
AcDbEntity
  8
0
 62
     3
100
AcDbText
 10
91.4515023947534
 20
1.084500000000002
 30
0.0
 40
3.2
  1
1
 41
0.8
  7
高3.2
100
AcDbText
  0
TEXT
  5
4E7
330
36
100
AcDbEntity
  8
0
 62
     3
100
AcDbText
 10
91.4515023947534
 20
51.0845
 30
0.0
 40
3.2
  1
4
 41
0.8
  7
高3.2
100
AcDbText
  0
LINE
  5
4E8
330
36
100
AcDbEntity
  8
0
 62
     7
100
AcDbLine
 10
89.95150239475341
 20
-14.4155
 30
0.0
 11
89.95150239475341
 21
75.58449999999997
 31
0.0
  0
TEXT
  5
4EA
330
36
100
AcDbEntity
  8
0
 62
     3
100
AcDbText
 10
39.69142620451184
 20
-3.915499999999997
 30
0.0
 40
3.2
  1
SPCC
 41
0.8
  7
高3.2
100
AcDbText
  0
TEXT
  5
4EB
330
36
100
AcDbEntity
  8
0
 62
     3
100
AcDbText
 10
39.69142620451184
 20
-8.915499999999997
 30
0.0
 40
3.2
  1
SPCC
 41
0.8
  7
高3.2
100
AcDbText
  0
TEXT
  5
4EC
330
36
100
AcDbEntity
  8
0
 62
     3
100
AcDbText
 10
-3.347552761359126
 20
-8.915499999999997
 30
0.0
 40
3.2
  1
本体カバー
 41
0.8
  7
高3.2
100
AcDbText
  0
TEXT
  5
4ED
330
36
100
AcDbEntity
  8
0
 62
     3
100
AcDbText
 10
-3.347552761359126
 20
1.084500000000002
 30
0.0
 40
3.2
  1
ハンドル取手
 41
0.8
  7
高3.2
100
AcDbText
  0
TEXT
  5
4EE
330
36
100
AcDbEntity
  8
0
 62
     3
100
AcDbText
 10
-3.347552761359126
 20
51.0845
 30
0.0
 40
3.2
  1
ゴム足
 41
0.8
  7
高3.2
100
AcDbText
  0
TEXT
  5
4EF
330
36
100
AcDbEntity
  8
0
 62
     3
100
AcDbText
 10
-3.347552761359126
 20
61.0845
 30
0.0
 40
3.2
  1
クリップ付き出力コード
 41
0.8
  7
高3.2
100
AcDbText
  0
TEXT
  5
4F0
330
36
100
AcDbEntity
  8
0
 62
     3
100
AcDbText
 10
39.69142620451185
 20
56.0845
 30
0.0
 40
3.2
  1
VCTFK
 41
0.8
  7
高3.2
100
AcDbText
  0
TEXT
  5
4F1
330
36
100
AcDbEntity
  8
0
 62
     3
100
AcDbText
 10
56.50581156584165
 20
-3.915499999999997
 30
0.0
 40
3.2
  1
焼付塗装
 41
0.8
  7
高3.2
100
AcDbText
  0
TEXT
  5
4F2
330
36
100
AcDbEntity
  8
0
 62
     3
100
AcDbText
 10
56.50581156584165
 20
-8.915499999999997
 30
0.0
 40
3.2
  1
焼付塗装
 41
0.8
  7
高3.2
100
AcDbText
  0
TEXT
  5
4F4
330
36
100
AcDbEntity
  8
0
 62
     3
100
AcDbText
 10
-3.347552761359126
 20
-3.915499999999997
 30
0.0
 40
3.2
  1
前面パネル
 41
0.8
  7
高3.2
100
AcDbText
  0
TEXT
  5
4F5
330
36
100
AcDbEntity
  8
0
 62
     3
100
AcDbText
 10
-3.347552761359126
 20
6.0845
 30
0.0
 40
3.2
  1
電圧電流計
 41
0.8
  7
高3.2
100
AcDbText
  0
TEXT
  5
4F6
330
36
100
AcDbEntity
  8
0
 62
     3
100
AcDbText
 10
-3.347552761359126
 20
16.0845
 30
0.0
 40
3.2
  1
電圧切替スイッチ
 41
0.8
  7
高3.2
100
AcDbText
  0
TEXT
  5
4F7
330
36
100
AcDbEntity
  8
0
 62
     3
100
AcDbText
 10
-3.347552761359126
 20
21.0845
 30
0.0
 40
3.2
  1
バッテリーチェックボタン
 41
0.8
  7
高3.2
100
AcDbText
  0
TEXT
  5
4F8
330
36
100
AcDbEntity
  8
0
 62
     3
100
AcDbText
 10
-11.353
 20
-8.915499999999997
 30
0.0
 40
3.2
  1
1
 41
0.8
  7
高3.2
100
AcDbText
  0
TEXT
  5
4F9
330
36
100
AcDbEntity
  8
0
 62
     3
100
AcDbText
 10
-11.353
 20
1.0845
 30
0.0
 40
3.2
  1
2
 41
0.8
  7
高3.2
100
AcDbText
  0
TEXT
  5
4FA
330
36
100
AcDbEntity
  8
0
 62
     3
100
AcDbText
 10
-11.353
 20
6.0845
 30
0.0
 40
3.2
  1
3
 41
0.8
  7
高3.2
100
AcDbText
  0
TEXT
  5
4FB
330
36
100
AcDbEntity
  8
0
 62
     3
100
AcDbText
 10
-11.353
 20
11.0845
 30
0.0
 40
3.2
  1
4
 41
0.8
  7
高3.2
100
AcDbText
  0
TEXT
  5
4FC
330
36
100
AcDbEntity
  8
0
 62
     3
100
AcDbText
 10
-11.353
 20
16.0845
 30
0.0
 40
3.2
  1
5
 41
0.8
  7
高3.2
100
AcDbText
  0
TEXT
  5
4FD
330
36
100
AcDbEntity
  8
0
 62
     3
100
AcDbText
 10
-11.353
 20
21.0845
 30
0.0
 40
3.2
  1
6
 41
0.8
  7
高3.2
100
AcDbText
  0
TEXT
  5
4FE
330
36
100
AcDbEntity
  8
0
 62
     3
100
AcDbText
 10
-11.353
 20
26.0845
 30
0.0
 40
3.2
  1
7
 41
0.8
  7
高3.2
100
AcDbText
  0
TEXT
  5
4FF
330
36
100
AcDbEntity
  8
0
 62
     3
100
AcDbText
 10
-11.353
 20
31.0845
 30
0.0
 40
3.2
  1
8
 41
0.8
  7
高3.2
100
AcDbText
  0
TEXT
  5
500
330
36
100
AcDbEntity
  8
0
 62
     3
100
AcDbText
 10
-11.353
 20
36.0845
 30
0.0
 40
3.2
  1
9
 41
0.8
  7
高3.2
100
AcDbText
  0
TEXT
  5
501
330
36
100
AcDbEntity
  8
0
 62
     3
100
AcDbText
 10
-11.353
 20
41.08449999999999
 30
0.0
 40
3.2
  1
10
 41
0.8
  7
高3.2
100
AcDbText
  0
TEXT
  5
502
330
36
100
AcDbEntity
  8
0
 62
     3
100
AcDbText
 10
-11.353
 20
46.08449999999999
 30
0.0
 40
3.2
  1
11
 41
0.8
  7
高3.2
100
AcDbText
  0
TEXT
  5
503
330
36
100
AcDbEntity
  8
0
 62
     3
100
AcDbText
 10
-11.353
 20
51.0845
 30
0.0
 40
3.2
  1
12
 41
0.8
  7
高3.2
100
AcDbText
  0
TEXT
  5
504
330
36
100
AcDbEntity
  8
0
 62
     3
100
AcDbText
 10
-11.353
 20
56.0845
 30
0.0
 40
3.2
  1
13
 41
0.8
  7
高3.2
100
AcDbText
  0
TEXT
  5
505
330
36
100
AcDbEntity
  8
0
 62
     3
100
AcDbText
 10
-11.353
 20
61.0845
 30
0.0
 40
3.2
  1
14
 41
0.8
  7
高3.2
100
AcDbText
  0
TEXT
  5
506
330
36
100
AcDbEntity
  8
0
 62
     3
100
AcDbText
 10
-11.353
 20
66.08449999999999
 30
0.0
 40
3.2
  1
15
 41
0.8
  7
高3.2
100
AcDbText
  0
TEXT
  5
507
330
36
100
AcDbEntity
  8
0
 62
     3
100
AcDbText
 10
-3.347552761359126
 20
26.0845
 30
0.0
 40
3.2
  1
電源ランプ
 41
0.8
  7
高3.2
100
AcDbText
  0
TEXT
  5
508
330
36
100
AcDbEntity
  8
0
 62
     3
100
AcDbText
 10
56.50581156584165
 20
21.0845
 30
0.0
 40
3.2
  1
DS-299R
 41
0.8
  7
高3.2
100
AcDbText
  0
TEXT
  5
509
330
36
100
AcDbEntity
  8
0
 62
     3
100
AcDbText
 10
39.69142620451184
 20
1.084500000000002
 30
0.0
 40
3.2
  1
PF樹脂
 41
0.8
  7
高3.2
100
AcDbText
  0
TEXT
  5
50A
330
36
100
AcDbEntity
  8
0
 62
     3
100
AcDbText
 10
39.69142620451185
 20
51.0845
 30
0.0
 40
3.2
  1
PE樹脂
 41
0.8
  7
高3.2
100
AcDbText
  0
LINE
  5
50B
330
36
100
AcDbEntity
  8
0
 62
     7
100
AcDbLine
 10
38.19142620451184
 20
-14.4155
 30
0.0
 11
38.19142620451184
 21
75.58449999999997
 31
0.0
  0
LINE
  5
50C
330
36
100
AcDbEntity
  8
0
 62
     7
100
AcDbLine
 10
55.00581156584168
 20
-14.4155
 30
0.0
 11
55.00581156584165
 21
75.58449999999997
 31
0.0
  0
LINE
  5
50D
330
36
100
AcDbEntity
  8
0
 62
     7
100
AcDbLine
 10
-4.847552761359126
 20
-14.4155
 30
0.0
 11
-4.847552761359127
 21
75.58449999999997
 31
0.0
  0
TEXT
  5
50F
330
36
100
AcDbEntity
  8
0
 62
     3
100
AcDbText
 10
-3.347552761359126
 20
46.08449999999999
 30
0.0
 40
3.2
  1
プロテクタ　－
 41
0.8
  7
高3.2
100
AcDbText
  0
TEXT
  5
510
330
36
100
AcDbEntity
  8
0
 62
     3
100
AcDbText
 10
-3.347552761359126
 20
36.0845
 30
0.0
 40
3.2
  1
サ－キットブレ－カ－
 41
0.8
  7
高3.2
100
AcDbText
  0
TEXT
  5
511
330
36
100
AcDbEntity
  8
0
 62
     3
100
AcDbText
 10
-3.347552761359126
 20
31.0845
 30
0.0
 40
3.2
  1
異常ランプ
 41
0.8
  7
高3.2
100
AcDbText
  0
TEXT
  5
512
330
36
100
AcDbEntity
  8
0
 62
     3
100
AcDbText
 10
56.50581156584165
 20
11.0845
 30
0.0
 40
3.2
  1
HS-16-IN
 41
0.8
  7
高3.2
100
AcDbText
  0
TEXT
  5
513
330
36
100
AcDbEntity
  8
0
 62
     3
100
AcDbText
 10
56.50581156584165
 20
71.08449999999997
 30
0.0
 40
3.2
  1
内部　TM300-BK1
 41
0.8
  7
高3.2
100
AcDbText
  0
TEXT
  5
514
330
36
100
AcDbEntity
  8
0
 62
     3
100
AcDbText
 10
-3.347552761359126
 20
56.0845
 30
0.0
 40
3.2
  1
プラグ付き入力電線
 41
0.8
  7
高3.2
100
AcDbText
  0
TEXT
  5
515
330
36
100
AcDbEntity
  8
0
 62
     3
100
AcDbText
 10
39.69142620451185
 20
61.0845
 30
0.0
 40
3.2
  1
KIV
 41
0.8
  7
高3.2
100
AcDbText
  0
TEXT
  5
516
330
36
100
AcDbEntity
  8
0
 62
     3
100
AcDbText
 10
56.50581156584165
 20
61.0845
 30
0.0
 40
3.2
  1
8.0sqx2m 赤、黒
 41
0.8
  7
高3.2
100
AcDbText
  0
TEXT
  5
517
330
36
100
AcDbEntity
  8
0
 62
     3
100
AcDbText
 10
39.69142620451185
 20
46.08449999999999
 30
0.0
 40
3.2
  1
PA樹脂
 41
0.8
  7
高3.2
100
AcDbText
  0
TEXT
  5
518
330
36
100
AcDbEntity
  8
0
 62
     3
100
AcDbText
 10
56.50581156584165
 20
26.0845
 30
0.0
 40
3.2
  1
100V（緑）
 41
0.8
  7
高3.2
100
AcDbText
  0
TEXT
  5
519
330
36
100
AcDbEntity
  8
0
 62
     3
100
AcDbText
 10
56.50581156584165
 20
31.08450000000001
 30
0.0
 40
3.2
  1
100V（赤）
 41
0.8
  7
高3.2
100
AcDbText
  0
TEXT
  5
51A
330
36
100
AcDbEntity
  8
0
 62
     3
100
AcDbText
 10
56.50581156584165
 20
36.08450000000001
 30
0.0
 40
3.2
  1
15A
 41
0.8
  7
高3.2
100
AcDbText
  0
TEXT
  5
51B
330
36
100
AcDbEntity
  8
0
 62
     3
100
AcDbText
 10
56.50581156584165
 20
16.0845
 30
0.0
 40
3.2
  1
S-6A
 41
0.8
  7
高3.2
100
AcDbText
  0
TEXT
  5
51C
330
36
100
AcDbEntity
  8
0
 62
     3
100
AcDbText
 10
56.50581156584165
 20
6.0845
 30
0.0
 40
3.2
  1
EX-35
 41
0.8
  7
高3.2
100
AcDbText
  0
TEXT
  5
51D
330
36
100
AcDbEntity
  8
0
 62
     3
100
AcDbText
 10
56.50581156584165
 20
56.0845
 30
0.0
 40
3.2
  1
1.25sqx2芯x2m
 41
0.8
  7
高3.2
100
AcDbText
  0
LINE
  5
51E
330
36
100
AcDbEntity
  8
0
 62
     3
100
AcDbLine
 10
377.046964
 20
31.250223
 30
0.0
 11
325.4476
 21
31.250223
 31
0.0
  0
TEXT
  5
51F
330
36
100
AcDbEntity
  8
0
 62
     3
100
AcDbText
 10
326.497114
 20
25.806308
 30
0.0
 40
4.5
  1
コード
 41
0.833333
100
AcDbText
  0
LINE
  5
520
330
36
100
AcDbEntity
  8
0
 62
     3
100
AcDbLine
 10
351.4476
 20
25.250223
 30
0.0
 11
351.4476
 21
31.250223
 31
0.0
  0
LINE
  5
521
330
36
100
AcDbEntity
  8
0
 62
     3
100
AcDbLine
 10
325.4476
 20
25.250223
 30
0.0
 11
325.4476
 21
31.250223
 31
0.0
  0
TEXT
  5
522
330
36
100
AcDbEntity
  8
0
 62
     3
100
AcDbText
 10
352.740391
 20
25.748579
 30
0.0
 40
4.5
  1
6540
 41
1.043478
100
AcDbText
  0
TEXT
  5
523
330
36
100
AcDbEntity
  8
0
 62
     3
100
AcDbText
 10
100.7300605299024
 20
-13.9155
 30
0.0
 40
3.2
  1
コード
 41
0.8
  7
高3.2
100
AcDbText
  0
LINE
  5
524
330
36
100
AcDbEntity
  8
0
 62
     3
100
AcDbLine
 10
178.0944120038166
 20
-14.4155
 30
0.0
 11
178.0944120038166
 21
75.58449999999997
 31
0.0
  0
TEXT
  5
535
330
36
100
AcDbEntity
  8
0
 62
     3
100
AcDbText
 10
-3.347552761359126
 20
41.08449999999999
 30
0.0
 40
3.2
  1
タイマ－ツマミ
 41
0.8
  7
高3.2
100
AcDbText
  0
TEXT
  5
536
330
36
100
AcDbEntity
  8
0
 62
     3
100
AcDbText
 10
-3.347552761359126
 20
11.0845
 30
0.0
 40
3.2
  1
充電スイッチ（ツマミ）
 41
0.8
  7
高3.2
100
AcDbText
  0
TEXT
  5
537
330
36
100
AcDbEntity
  8
0
 62
     3
100
AcDbText
 10
100.7300605299024
 20
61.0845
 30
0.0
 40
3.2
  1
54255
 41
0.8
  7
高3.2
100
AcDbText
  0
TEXT
  5
538
330
36
100
AcDbEntity
  8
0
 62
     3
100
AcDbText
 10
100.7300605299024
 20
56.0845
 30
0.0
 40
3.2
  1
54261
 41
0.8
  7
高3.2
100
AcDbText
  0
TEXT
  5
539
330
36
100
AcDbEntity
  8
0
 62
     3
100
AcDbText
 10
100.7300605299024
 20
51.0845
 30
0.0
 40
3.2
  1
54262
 41
0.8
  7
高3.2
100
AcDbText
  0
TEXT
  5
53A
330
36
100
AcDbEntity
  8
0
 62
     3
100
AcDbText
 10
100.7300605299024
 20
46.08449999999999
 30
0.0
 40
3.2
  1
50105
 41
0.8
  7
高3.2
100
AcDbText
  0
TEXT
  5
53B
330
36
100
AcDbEntity
  8
0
 62
     3
100
AcDbText
 10
100.7300605299024
 20
41.08449999999999
 30
0.0
 40
3.2
  1
54289
 41
0.8
  7
高3.2
100
AcDbText
  0
TEXT
  5
53C
330
36
100
AcDbEntity
  8
0
 62
     3
100
AcDbText
 10
100.7300605299024
 20
36.08450000000001
 30
0.0
 40
3.2
  1
54263
 41
0.8
  7
高3.2
100
AcDbText
  0
TEXT
  5
53D
330
36
100
AcDbEntity
  8
0
 62
     3
100
AcDbText
 10
100.7300605299024
 20
31.08450000000001
 30
0.0
 40
3.2
  1
54257
 41
0.8
  7
高3.2
100
AcDbText
  0
TEXT
  5
53E
330
36
100
AcDbEntity
  8
0
 62
     3
100
AcDbText
 10
100.7300605299024
 20
26.0845
 30
0.0
 40
3.2
  1
54258
 41
0.8
  7
高3.2
100
AcDbText
  0
TEXT
  5
53F
330
36
100
AcDbEntity
  8
0
 62
     3
100
AcDbText
 10
100.7300605299024
 20
21.0845
 30
0.0
 40
3.2
  1
54259
 41
0.8
  7
高3.2
100
AcDbText
  0
TEXT
  5
540
330
36
100
AcDbEntity
  8
0
 62
     3
100
AcDbText
 10
100.7300605299024
 20
16.0845
 30
0.0
 40
3.2
  1
54260
 41
0.8
  7
高3.2
100
AcDbText
  0
TEXT
  5
541
330
36
100
AcDbEntity
  8
0
 62
     3
100
AcDbText
 10
100.7300605299024
 20
11.0845
 30
0.0
 40
3.2
  1
54289
 41
0.8
  7
高3.2
100
AcDbText
  0
TEXT
  5
542
330
36
100
AcDbEntity
  8
0
 62
     3
100
AcDbText
 10
100.7300605299024
 20
6.0845
 30
0.0
 40
3.2
  1
53821
 41
0.8
  7
高3.2
100
AcDbText
  0
TEXT
  5
543
330
36
100
AcDbEntity
  8
0
 62
     3
100
AcDbText
 10
100.7300605299024
 20
1.084500000000002
 30
0.0
 40
3.2
  1
50101
 41
0.8
  7
高3.2
100
AcDbText
  0
TEXT
  5
544
330
36
100
AcDbEntity
  8
0
 62
     3
100
AcDbText
 10
100.7300605299024
 20
-8.915499999999997
 30
0.0
 40
3.2
  1
54265
 41
0.8
  7
高3.2
100
AcDbText
  0
CIRCLE
  5
6EE
330
36
100
AcDbEntity
  8
0
 62
     7
100
AcDbCircle
 10
218.6797110255195
 20
237.3644641228955
 30
0.0
 40
5.0
  0
TEXT
  5
6EF
330
36
100
AcDbEntity
  8
0
 62
     4
100
AcDbText
 10
215.3102172558909
 20
234.7416984820528
 30
0.0
 40
4.5
  1
15
  7
高4.5
100
AcDbText
  0
TEXT
  5
6F1
330
36
100
AcDbEntity
  8
0
 62
     3
100
AcDbText
 10
-3.347552761359126
 20
66.08449999999999
 30
0.0
 40
3.2
  1
トラパック用コードフック
 41
0.8
  7
高3.2
100
AcDbText
  0
TEXT
  5
6F4
330
36
100
AcDbEntity
  8
0
 62
     3
100
AcDbText
 10
100.7300605299024
 20
66.08449999999999
 30
0.0
 40
3.2
  1
50519
 41
0.8
  7
高3.2
100
AcDbText
  0
TEXT
  5
6F5
330
36
100
AcDbEntity
  8
0
 62
     3
100
AcDbText
 10
91.4515023947534
 20
61.0845
 30
0.0
 40
3.2
  1
1
 41
0.8
  7
高3.2
100
AcDbText
  0
TEXT
  5
6F6
330
36
100
AcDbEntity
  8
0
 62
     3
100
AcDbText
 10
91.4515023947534
 20
66.08449999999999
 30
0.0
 40
3.2
  1
2
 41
0.8
  7
高3.2
100
AcDbText
  0
LINE
  5
6F7
330
36
100
AcDbEntity
  8
0
 62
     7
100
AcDbLine
 10
-12.853
 20
-9.415499999999999
 30
0.0
 11
178.0944120038165
 21
-9.415499999999999
 31
0.0
  0
LINE
  5
6FA
330
36
100
AcDbEntity
  8
0
 62
     7
100
AcDbLine
 10
-4.847552761359127
 20
-4.415499999999997
 30
0.0
 11
99.23006052990238
 21
-4.415499999999997
 31
0.0
  0
LINE
  5
6FB
330
36
100
AcDbEntity
  8
0
 62
     7
100
AcDbLine
 10
-12.853
 20
0.5845000000000004
 30
0.0
 11
178.0944120038165
 21
0.5845000000000004
 31
0.0
  0
LINE
  5
6FC
330
36
100
AcDbEntity
  8
0
 62
     7
100
AcDbLine
 10
-12.853
 20
5.5845
 30
0.0
 11
178.0944120038165
 21
5.5845
 31
0.0
  0
LINE
  5
6FD
330
36
100
AcDbEntity
  8
0
 62
     7
100
AcDbLine
 10
-12.853
 20
10.5845
 30
0.0
 11
178.0944120038165
 21
10.5845
 31
0.0
  0
LINE
  5
6FE
330
36
100
AcDbEntity
  8
0
 62
     7
100
AcDbLine
 10
-12.853
 20
15.5845
 30
0.0
 11
178.0944120038165
 21
15.5845
 31
0.0
  0
LINE
  5
6FF
330
36
100
AcDbEntity
  8
0
 62
     7
100
AcDbLine
 10
-12.853
 20
20.5845
 30
0.0
 11
178.0944120038165
 21
20.5845
 31
0.0
  0
LINE
  5
700
330
36
100
AcDbEntity
  8
0
 62
     7
100
AcDbLine
 10
-12.853
 20
25.5845
 30
0.0
 11
178.0944120038165
 21
25.5845
 31
0.0
  0
LINE
  5
701
330
36
100
AcDbEntity
  8
0
 62
     7
100
AcDbLine
 10
-12.853
 20
30.5845
 30
0.0
 11
178.0944120038165
 21
30.58450000000001
 31
0.0
  0
LINE
  5
702
330
36
100
AcDbEntity
  8
0
 62
     7
100
AcDbLine
 10
-12.853
 20
35.5845
 30
0.0
 11
178.0944120038165
 21
35.58450000000001
 31
0.0
  0
LINE
  5
703
330
36
100
AcDbEntity
  8
0
 62
     7
100
AcDbLine
 10
-12.853
 20
40.58449999999999
 30
0.0
 11
178.0944120038165
 21
40.58449999999999
 31
0.0
  0
LINE
  5
704
330
36
100
AcDbEntity
  8
0
 62
     7
100
AcDbLine
 10
-12.853
 20
45.58449999999999
 30
0.0
 11
178.0944120038165
 21
45.58449999999999
 31
0.0
  0
LINE
  5
705
330
36
100
AcDbEntity
  8
0
 62
     7
100
AcDbLine
 10
-12.853
 20
50.5845
 30
0.0
 11
178.0944120038165
 21
50.5845
 31
0.0
  0
LINE
  5
706
330
36
100
AcDbEntity
  8
0
 62
     7
100
AcDbLine
 10
-12.853
 20
55.5845
 30
0.0
 11
178.0944120038165
 21
55.5845
 31
0.0
  0
LINE
  5
707
330
36
100
AcDbEntity
  8
0
 62
     7
100
AcDbLine
 10
-12.853
 20
60.5845
 30
0.0
 11
178.0944120038165
 21
60.5845
 31
0.0
  0
LINE
  5
708
330
36
100
AcDbEntity
  8
0
 62
     7
100
AcDbLine
 10
-12.853
 20
65.58449999999999
 30
0.0
 11
178.0944120038165
 21
65.58449999999999
 31
0.0
  0
LINE
  5
70E
330
36
100
AcDbEntity
  8
0
 62
     7
100
AcDbLine
 10
-12.853
 20
70.58449999999997
 30
0.0
 11
178.0944120038166
 21
70.58449999999997
 31
0.0
  0
LINE
  5
7E8
330
36
100
AcDbEntity
  8
0
 62
     7
100
AcDbLine
 10
115.4686625707777
 20
-14.4155
 30
0.0
 11
115.4686625707777
 21
75.58449999999997
 31
0.0
  0
TEXT
  5
7E9
330
36
100
AcDbEntity
  8
0
 62
     3
100
AcDbText
 10
116.9686625707777
 20
-13.9155
 30
0.0
 40
3.2
  1
コード番号名称
 41
0.6
  7
高3.2
100
AcDbText
  0
TEXT
  5
7EA
330
36
100
AcDbEntity
  8
0
 62
     3
100
AcDbText
 10
116.9686625707777
 20
61.0845
 30
0.0
 40
3.2
  1
NB-120/150用 出力コード クリップ付(赤黒セット)
 41
0.6
  7
高3.2
100
AcDbText
  0
TEXT
  5
7EB
330
36
100
AcDbEntity
  8
0
 62
     3
100
AcDbText
 10
116.9686625707777
 20
56.0845
 30
0.0
 40
3.2
  1
NB-120/150用 入力電線 プラグ付
 41
0.6
  7
高3.2
100
AcDbText
  0
TEXT
  5
7EC
330
36
100
AcDbEntity
  8
0
 62
     3
100
AcDbText
 10
116.9686625707777
 20
51.0845
 30
0.0
 40
3.2
  1
NB-120/150用 脚ゴム
 41
0.6
  7
高3.2
100
AcDbText
  0
TEXT
  5
7ED
330
36
100
AcDbEntity
  8
0
 62
     3
100
AcDbText
 10
116.9686625707777
 20
46.08449999999999
 30
0.0
 40
3.2
  1
トラパックプロテクター
 41
0.6
  7
高3.2
100
AcDbText
  0
TEXT
  5
7EE
330
36
100
AcDbEntity
  8
0
 62
     3
100
AcDbText
 10
116.9686625707777
 20
41.08449999999999
 30
0.0
 40
3.2
  1
NB-120/150用 ロータリースイッチ部ツマミ
 41
0.6
  7
高3.2
100
AcDbText
  0
TEXT
  5
7EF
330
36
100
AcDbEntity
  8
0
 62
     3
100
AcDbText
 10
116.9686625707777
 20
36.08450000000001
 30
0.0
 40
3.2
  1
NB-120/150用 サーキットブレーカー 15A
 41
0.6
  7
高3.2
100
AcDbText
  0
TEXT
  5
7F0
330
36
100
AcDbEntity
  8
0
 62
     3
100
AcDbText
 10
116.9686625707777
 20
31.08450000000001
 30
0.0
 40
3.2
  1
NB-120/150用 異常ランプ
 41
0.6
  7
高3.2
100
AcDbText
  0
TEXT
  5
7F1
330
36
100
AcDbEntity
  8
0
 62
     3
100
AcDbText
 10
116.9686625707777
 20
26.0845
 30
0.0
 40
3.2
  1
NB-120/150用 電源ランプ
 41
0.6
  7
高3.2
100
AcDbText
  0
TEXT
  5
7F2
330
36
100
AcDbEntity
  8
0
 62
     3
100
AcDbText
 10
116.9686625707777
 20
21.0845
 30
0.0
 40
3.2
  1
NB-120/150用 バッテリーチェックボタン
 41
0.6
  7
高3.2
100
AcDbText
  0
TEXT
  5
7F3
330
36
100
AcDbEntity
  8
0
 62
     3
100
AcDbText
 10
116.9686625707777
 20
16.0845
 30
0.0
 40
3.2
  1
NB-120/150用 電圧切替スイッチ
 41
0.6
  7
高3.2
100
AcDbText
  0
TEXT
  5
7F4
330
36
100
AcDbEntity
  8
0
 62
     3
100
AcDbText
 10
116.9686625707777
 20
11.0845
 30
0.0
 40
3.2
  1
NB-120/150用 ロータリースイッチ部ツマミ
 41
0.6
  7
高3.2
100
AcDbText
  0
TEXT
  5
7F5
330
36
100
AcDbEntity
  8
0
 62
     3
100
AcDbText
 10
116.9686625707777
 20
6.0845
 30
0.0
 40
3.2
  1
NB-120,150,200用電流計
 41
0.6
  7
高3.2
100
AcDbText
  0
TEXT
  5
7F6
330
36
100
AcDbEntity
  8
0
 62
     3
100
AcDbText
 10
116.9686625707777
 20
1.084500000000002
 30
0.0
 40
3.2
  1
トラパック取手
 41
0.6
  7
高3.2
100
AcDbText
  0
TEXT
  5
7F7
330
36
100
AcDbEntity
  8
0
 62
     3
100
AcDbText
 10
116.9686625707777
 20
-8.915499999999997
 30
0.0
 40
3.2
  1
NB-150用 本体カバー 一式
 41
0.6
  7
高3.2
100
AcDbText
  0
TEXT
  5
7F8
330
36
100
AcDbEntity
  8
0
 62
     3
100
AcDbText
 10
116.9686625707777
 20
66.08449999999999
 30
0.0
 40
3.2
  1
トラパック用コードフック
 41
0.6
  7
高3.2
100
AcDbText
  0
LINE
  5
7F9
330
36
100
AcDbEntity
  8
0
 62
     3
100
AcDbLine
 10
-12.853
 20
75.58449999999997
 30
0.0
 11
178.0944120038166
 21
75.58449999999997
 31
0.0
  0
TEXT
  5
7FA
330
36
100
AcDbEntity
  8
0
 62
     3
100
AcDbText
 10
-11.353
 20
71.08449999999997
 30
0.0
 40
3.2
  1
16
 41
0.8
  7
高3.2
100
AcDbText
  0
TEXT
  5
7FB
330
36
100
AcDbEntity
  8
0
 62
     3
100
AcDbText
 10
-3.347552761359126
 20
71.08449999999997
 30
0.0
 40
3.2
  1
タイマースイッチ
 41
0.8
  7
高3.2
100
AcDbText
  0
TEXT
  5
7FC
330
36
100
AcDbEntity
  8
0
 62
     3
100
AcDbText
 10
100.7300605299024
 20
71.08449999999997
 30
0.0
 40
3.2
  1
54170
 41
0.8
  7
高3.2
100
AcDbText
  0
TEXT
  5
7FD
330
36
100
AcDbEntity
  8
0
 62
     3
100
AcDbText
 10
91.4515023947534
 20
71.08449999999997
 30
0.0
 40
3.2
  1
1
 41
0.8
  7
高3.2
100
AcDbText
  0
TEXT
  5
7FE
330
36
100
AcDbEntity
  8
0
 62
     3
100
AcDbText
 10
116.9686625707777
 20
71.08449999999997
 30
0.0
 40
3.2
  1
充電器用タイマー(NB-200.150.60用)
 41
0.6
  7
高3.2
100
AcDbText
  0
TEXT
  5
8DA
330
36
100
AcDbEntity
  8
0
 62
     3
100
AcDbText
 10
364.647
 20
253.0845
 30
0.0
 40
3.2
  1
担　当
  7
高3.2
100
AcDbText
  0
TEXT
  5
8DB
330
36
100
AcDbEntity
  8
0
 62
     3
100
AcDbText
 10
320.647
 20
253.0845
 30
0.0
 40
3.2
  1
変更・追記内容
  7
高3.2
100
AcDbText
  0
TEXT
  5
8DC
330
36
100
AcDbEntity
  8
0
 62
     3
100
AcDbText
 10
295.7605150003392
 20
248.4139614900917
 30
0.0
 40
2.0
  1
1
  7
高2
100
AcDbText
  0
TEXT
  5
8DD
330
36
100
AcDbEntity
  8
0
 62
     3
100
AcDbText
 10
295.452003523582
 20
243.2441447778188
 30
0.0
 40
2.0
  1
2
  7
高2
100
AcDbText
  0
TEXT
  5
8DE
330
36
100
AcDbEntity
  8
0
 62
     3
100
AcDbText
 10
302.647
 20
253.0845
 30
0.0
 40
3.2
  1
日　付
  7
高3.2
100
AcDbText
  0
TEXT
  5
8DF
330
36
100
AcDbEntity
  8
0
 62
     3
100
AcDbText
 10
302.647
 20
258.0845
 30
0.0
 40
3.2
  1
図　　　　面　　　　略　　　　歴
  7
高3.2
100
AcDbText
  0
TEXT
  5
8E0
330
36
100
AcDbEntity
  8
0
 62
     3
100
AcDbText
 10
292.647
 20
253.0845
 30
0.0
 40
3.2
  1
記号
  7
高3.2
100
AcDbText
  0
LINE
  5
8E1
330
36
100
AcDbEntity
  8
0
 62
     7
100
AcDbLine
 10
296.147
 20
246.3753960000001
 30
0.0
 11
294.247
 21
243.0845
 31
0.0
  0
LINE
  5
8E2
330
36
100
AcDbEntity
  8
0
 62
     7
100
AcDbLine
 10
296.147
 20
246.3753960000001
 30
0.0
 11
298.047
 21
243.0845
 31
0.0
  0
LINE
  5
8E3
330
36
100
AcDbEntity
  8
0
 62
     7
100
AcDbLine
 10
294.247
 20
243.0845
 30
0.0
 11
298.047
 21
243.0845
 31
0.0
  0
LINE
  5
8E4
330
36
100
AcDbEntity
  8
0
 62
     7
100
AcDbLine
 10
296.147
 20
251.3753970000001
 30
0.0
 11
294.247
 21
248.0845
 31
0.0
  0
LINE
  5
8E5
330
36
100
AcDbEntity
  8
0
 62
     7
100
AcDbLine
 10
296.147
 20
251.3753970000001
 30
0.0
 11
298.047
 21
248.0845
 31
0.0
  0
LINE
  5
8E6
330
36
100
AcDbEntity
  8
0
 62
     7
100
AcDbLine
 10
294.247
 20
248.0845
 30
0.0
 11
298.047
 21
248.0845
 31
0.0
  0
LINE
  5
8E7
330
36
100
AcDbEntity
  8
0
 62
     3
100
AcDbLine
 10
291.147
 20
257.5845
 30
0.0
 11
377.147
 21
257.5845
 31
0.0
  0
LINE
  5
8E8
330
36
100
AcDbEntity
  8
0
 62
     3
100
AcDbLine
 10
291.147
 20
252.5845
 30
0.0
 11
377.147
 21
252.5845
 31
0.0
  0
LINE
  5
8E9
330
36
100
AcDbEntity
  8
0
 62
     7
100
AcDbLine
 10
291.147
 20
247.5845
 30
0.0
 11
377.147
 21
247.5845
 31
0.0
  0
LINE
  5
8EA
330
36
100
AcDbEntity
  8
0
 62
     3
100
AcDbLine
 10
291.147
 20
242.5845
 30
0.0
 11
377.147
 21
242.5845
 31
0.0
  0
LINE
  5
8EB
330
36
100
AcDbEntity
  8
0
 62
     7
100
AcDbLine
 10
363.1469999999998
 20
242.5845
 30
0.0
 11
363.147
 21
257.5845
 31
0.0
  0
LINE
  5
8EC
330
36
100
AcDbEntity
  8
0
 62
     7
100
AcDbLine
 10
319.147
 20
242.5845
 30
0.0
 11
319.147
 21
257.5845
 31
0.0
  0
LINE
  5
8ED
330
36
100
AcDbEntity
  8
0
 62
     7
100
AcDbLine
 10
301.147
 20
242.5845
 30
0.0
 11
301.147
 21
257.5845
 31
0.0
  0
LINE
  5
8EE
330
36
100
AcDbEntity
  8
0
 62
     3
100
AcDbLine
 10
291.147
 20
242.5845
 30
0.0
 11
291.147
 21
262.5845
 31
0.0
  0
CIRCLE
  5
9E5
330
36
100
AcDbEntity
  8
0
 62
     7
100
AcDbCircle
 10
115.6469910759197
 20
125.630108
 30
0.0
 40
5.0
  0
TEXT
  5
9E6
330
36
100
AcDbEntity
  8
0
 62
     4
100
AcDbText
 10
112.7735836506013
 20
123.2180553381781
 30
0.0
 40
4.5
  1
16
  7
高4.5
100
AcDbText
  0
LINE
  5
B18
330
36
100
AcDbEntity
  8
0
 62
     7
100
AcDbLine
 10
84.731047
 20
165.096363
 30
0.0
 11
84.78241800000002
 21
164.181228
 31
0.0
  0
LINE
  5
B19
330
36
100
AcDbEntity
  8
0
 62
     7
100
AcDbLine
 10
84.78241800000002
 20
164.181228
 30
0.0
 11
84.93614200000001
 21
163.273057
 31
0.0
  0
LINE
  5
B1A
330
36
100
AcDbEntity
  8
0
 62
     7
100
AcDbLine
 10
84.93614200000001
 20
163.273057
 30
0.0
 11
85.19104799999999
 21
162.378763
 31
0.0
  0
LINE
  5
B1B
330
36
100
AcDbEntity
  8
0
 62
     7
100
AcDbLine
 10
85.19104799999999
 20
162.378763
 30
0.0
 11
85.545197
 21
161.505152
 31
0.0
  0
LINE
  5
B1C
330
36
100
AcDbEntity
  8
0
 62
     7
100
AcDbLine
 10
85.545197
 20
161.505152
 30
0.0
 11
85.995892
 21
160.658871
 31
0.0
  0
LINE
  5
B1D
330
36
100
AcDbEntity
  8
0
 62
     7
100
AcDbLine
 10
85.995892
 20
160.658871
 30
0.0
 11
86.539704
 21
159.846363
 31
0.0
  0
LINE
  5
B1E
330
36
100
AcDbEntity
  8
0
 62
     7
100
AcDbLine
 10
86.539704
 20
159.846363
 30
0.0
 11
87.172494
 21
159.073811
 31
0.0
  0
LINE
  5
B1F
330
36
100
AcDbEntity
  8
0
 62
     7
100
AcDbLine
 10
87.172494
 20
159.073811
 30
0.0
 11
87.889447
 21
158.347093
 31
0.0
  0
LINE
  5
B20
330
36
100
AcDbEntity
  8
0
 62
     7
100
AcDbLine
 10
87.889447
 20
158.347093
 30
0.0
 11
88.68510500000002
 21
157.671742
 31
0.0
  0
LINE
  5
B21
330
36
100
AcDbEntity
  8
0
 62
     7
100
AcDbLine
 10
88.68510500000002
 20
157.671742
 30
0.0
 11
89.553414
 21
157.052897
 31
0.0
  0
LINE
  5
B22
330
36
100
AcDbEntity
  8
0
 62
     7
100
AcDbLine
 10
89.553414
 20
157.052897
 30
0.0
 11
90.487765
 21
156.495267
 31
0.0
  0
LINE
  5
B23
330
36
100
AcDbEntity
  8
0
 62
     7
100
AcDbLine
 10
90.487765
 20
156.495267
 30
0.0
 11
91.48104700000001
 21
156.003096
 31
0.0
  0
LINE
  5
B24
330
36
100
AcDbEntity
  8
0
 62
     7
100
AcDbLine
 10
91.48104700000001
 20
156.003096
 30
0.0
 11
92.5257
 21
155.580131
 31
0.0
  0
LINE
  5
B25
330
36
100
AcDbEntity
  8
0
 62
     7
100
AcDbLine
 10
92.5257
 20
155.580131
 30
0.0
 11
93.61377500000001
 21
155.229591
 31
0.0
  0
LINE
  5
B26
330
36
100
AcDbEntity
  8
0
 62
     7
100
AcDbLine
 10
93.61377500000001
 20
155.229591
 30
0.0
 11
94.73699000000001
 21
154.954142
 31
0.0
  0
LINE
  5
B27
330
36
100
AcDbEntity
  8
0
 62
     7
100
AcDbLine
 10
94.73699000000001
 20
154.954142
 30
0.0
 11
95.886797
 21
154.755882
 31
0.0
  0
LINE
  5
B28
330
36
100
AcDbEntity
  8
0
 62
     7
100
AcDbLine
 10
95.886797
 20
154.755882
 30
0.0
 11
97.05444400000001
 21
154.636319
 31
0.0
  0
LINE
  5
B29
330
36
100
AcDbEntity
  8
0
 62
     7
100
AcDbLine
 10
97.05444400000001
 20
154.636319
 30
0.0
 11
98.23104700000001
 21
154.596363
 31
0.0
  0
LINE
  5
B2A
330
36
100
AcDbEntity
  8
0
 62
     7
100
AcDbLine
 10
98.23104700000001
 20
154.596363
 30
0.0
 11
99.40764900000001
 21
154.636319
 31
0.0
  0
LINE
  5
B2B
330
36
100
AcDbEntity
  8
0
 62
     7
100
AcDbLine
 10
99.40764900000001
 20
154.636319
 30
0.0
 11
100.575297
 21
154.755882
 31
0.0
  0
LINE
  5
B2C
330
36
100
AcDbEntity
  8
0
 62
     7
100
AcDbLine
 10
100.575297
 20
154.755882
 30
0.0
 11
101.725104
 21
154.954142
 31
0.0
  0
LINE
  5
B2D
330
36
100
AcDbEntity
  8
0
 62
     7
100
AcDbLine
 10
101.725104
 20
154.954142
 30
0.0
 11
102.848319
 21
155.229591
 31
0.0
  0
LINE
  5
B2E
330
36
100
AcDbEntity
  8
0
 62
     7
100
AcDbLine
 10
102.848319
 20
155.229591
 30
0.0
 11
103.936393
 21
155.580131
 31
0.0
  0
LINE
  5
B2F
330
36
100
AcDbEntity
  8
0
 62
     7
100
AcDbLine
 10
103.936393
 20
155.580131
 30
0.0
 11
104.981047
 21
156.003096
 31
0.0
  0
LINE
  5
B30
330
36
100
AcDbEntity
  8
0
 62
     7
100
AcDbLine
 10
104.981047
 20
156.003096
 30
0.0
 11
105.974329
 21
156.495267
 31
0.0
  0
LINE
  5
B31
330
36
100
AcDbEntity
  8
0
 62
     7
100
AcDbLine
 10
105.974329
 20
156.495267
 30
0.0
 11
106.90868
 21
157.052897
 31
0.0
  0
LINE
  5
B32
330
36
100
AcDbEntity
  8
0
 62
     7
100
AcDbLine
 10
106.90868
 20
157.052897
 30
0.0
 11
107.776988
 21
157.671742
 31
0.0
  0
LINE
  5
B33
330
36
100
AcDbEntity
  8
0
 62
     7
100
AcDbLine
 10
107.776988
 20
157.671742
 30
0.0
 11
108.572647
 21
158.347093
 31
0.0
  0
LINE
  5
B34
330
36
100
AcDbEntity
  8
0
 62
     7
100
AcDbLine
 10
108.572647
 20
158.347093
 30
0.0
 11
109.2896
 21
159.073811
 31
0.0
  0
LINE
  5
B35
330
36
100
AcDbEntity
  8
0
 62
     7
100
AcDbLine
 10
109.2896
 20
159.073811
 30
0.0
 11
109.92239
 21
159.846363
 31
0.0
  0
LINE
  5
B36
330
36
100
AcDbEntity
  8
0
 62
     7
100
AcDbLine
 10
109.92239
 20
159.846363
 30
0.0
 11
110.466202
 21
160.658871
 31
0.0
  0
LINE
  5
B37
330
36
100
AcDbEntity
  8
0
 62
     7
100
AcDbLine
 10
110.466202
 20
160.658871
 30
0.0
 11
110.916897
 21
161.505152
 31
0.0
  0
LINE
  5
B38
330
36
100
AcDbEntity
  8
0
 62
     7
100
AcDbLine
 10
110.916897
 20
161.505152
 30
0.0
 11
111.271046
 21
162.378763
 31
0.0
  0
LINE
  5
B39
330
36
100
AcDbEntity
  8
0
 62
     7
100
AcDbLine
 10
111.271046
 20
162.378763
 30
0.0
 11
111.525952
 21
163.273057
 31
0.0
  0
LINE
  5
B3A
330
36
100
AcDbEntity
  8
0
 62
     7
100
AcDbLine
 10
111.525952
 20
163.273057
 30
0.0
 11
111.679675
 21
164.181228
 31
0.0
  0
LINE
  5
B3B
330
36
100
AcDbEntity
  8
0
 62
     7
100
AcDbLine
 10
111.679675
 20
164.181228
 30
0.0
 11
111.731047
 21
165.096363
 31
0.0
  0
LINE
  5
B3C
330
36
100
AcDbEntity
  8
0
 62
     7
100
AcDbLine
 10
111.731047
 20
165.096363
 30
0.0
 11
111.679675
 21
166.011498
 31
0.0
  0
LINE
  5
B3D
330
36
100
AcDbEntity
  8
0
 62
     7
100
AcDbLine
 10
111.679675
 20
166.011498
 30
0.0
 11
111.525952
 21
166.919669
 31
0.0
  0
LINE
  5
B3E
330
36
100
AcDbEntity
  8
0
 62
     7
100
AcDbLine
 10
111.525952
 20
166.919669
 30
0.0
 11
111.271046
 21
167.813963
 31
0.0
  0
LINE
  5
B3F
330
36
100
AcDbEntity
  8
0
 62
     7
100
AcDbLine
 10
111.271046
 20
167.813963
 30
0.0
 11
110.916897
 21
168.687575
 31
0.0
  0
LINE
  5
B40
330
36
100
AcDbEntity
  8
0
 62
     7
100
AcDbLine
 10
110.916897
 20
168.687575
 30
0.0
 11
110.466202
 21
169.533855
 31
0.0
  0
LINE
  5
B41
330
36
100
AcDbEntity
  8
0
 62
     7
100
AcDbLine
 10
110.466202
 20
169.533855
 30
0.0
 11
109.92239
 21
170.346363
 31
0.0
  0
LINE
  5
B42
330
36
100
AcDbEntity
  8
0
 62
     7
100
AcDbLine
 10
109.92239
 20
170.346363
 30
0.0
 11
109.2896
 21
171.118916
 31
0.0
  0
LINE
  5
B43
330
36
100
AcDbEntity
  8
0
 62
     7
100
AcDbLine
 10
109.2896
 20
171.118916
 30
0.0
 11
108.572647
 21
171.845633
 31
0.0
  0
LINE
  5
B44
330
36
100
AcDbEntity
  8
0
 62
     7
100
AcDbLine
 10
108.572647
 20
171.845633
 30
0.0
 11
107.776988
 21
172.520984
 31
0.0
  0
LINE
  5
B45
330
36
100
AcDbEntity
  8
0
 62
     7
100
AcDbLine
 10
107.776988
 20
172.520984
 30
0.0
 11
106.90868
 21
173.13983
 31
0.0
  0
LINE
  5
B46
330
36
100
AcDbEntity
  8
0
 62
     7
100
AcDbLine
 10
106.90868
 20
173.13983
 30
0.0
 11
105.974329
 21
173.69746
 31
0.0
  0
LINE
  5
B47
330
36
100
AcDbEntity
  8
0
 62
     7
100
AcDbLine
 10
105.974329
 20
173.69746
 30
0.0
 11
104.981047
 21
174.18963
 31
0.0
  0
LINE
  5
B48
330
36
100
AcDbEntity
  8
0
 62
     7
100
AcDbLine
 10
104.981047
 20
174.18963
 30
0.0
 11
103.936393
 21
174.612595
 31
0.0
  0
LINE
  5
B49
330
36
100
AcDbEntity
  8
0
 62
     7
100
AcDbLine
 10
103.936393
 20
174.612595
 30
0.0
 11
102.848319
 21
174.963136
 31
0.0
  0
LINE
  5
B4A
330
36
100
AcDbEntity
  8
0
 62
     7
100
AcDbLine
 10
102.848319
 20
174.963136
 30
0.0
 11
101.725104
 21
175.238584
 31
0.0
  0
LINE
  5
B4B
330
36
100
AcDbEntity
  8
0
 62
     7
100
AcDbLine
 10
101.725104
 20
175.238584
 30
0.0
 11
100.575297
 21
175.436845
 31
0.0
  0
LINE
  5
B4C
330
36
100
AcDbEntity
  8
0
 62
     7
100
AcDbLine
 10
100.575297
 20
175.436845
 30
0.0
 11
99.40764900000001
 21
175.556408
 31
0.0
  0
LINE
  5
B4D
330
36
100
AcDbEntity
  8
0
 62
     7
100
AcDbLine
 10
99.40764900000001
 20
175.556408
 30
0.0
 11
98.23104700000001
 21
175.596363
 31
0.0
  0
LINE
  5
B4E
330
36
100
AcDbEntity
  8
0
 62
     7
100
AcDbLine
 10
98.23104700000001
 20
175.596363
 30
0.0
 11
97.05444400000001
 21
175.556408
 31
0.0
  0
LINE
  5
B4F
330
36
100
AcDbEntity
  8
0
 62
     7
100
AcDbLine
 10
97.05444400000001
 20
175.556408
 30
0.0
 11
95.886797
 21
175.436845
 31
0.0
  0
LINE
  5
B50
330
36
100
AcDbEntity
  8
0
 62
     7
100
AcDbLine
 10
95.886797
 20
175.436845
 30
0.0
 11
94.73699000000001
 21
175.238584
 31
0.0
  0
LINE
  5
B51
330
36
100
AcDbEntity
  8
0
 62
     7
100
AcDbLine
 10
94.73699000000001
 20
175.238584
 30
0.0
 11
93.61377500000001
 21
174.963136
 31
0.0
  0
LINE
  5
B52
330
36
100
AcDbEntity
  8
0
 62
     7
100
AcDbLine
 10
93.61377500000001
 20
174.963136
 30
0.0
 11
92.5257
 21
174.612595
 31
0.0
  0
LINE
  5
B53
330
36
100
AcDbEntity
  8
0
 62
     7
100
AcDbLine
 10
92.5257
 20
174.612595
 30
0.0
 11
91.48104700000001
 21
174.18963
 31
0.0
  0
LINE
  5
B54
330
36
100
AcDbEntity
  8
0
 62
     7
100
AcDbLine
 10
91.48104700000001
 20
174.18963
 30
0.0
 11
90.487765
 21
173.69746
 31
0.0
  0
LINE
  5
B55
330
36
100
AcDbEntity
  8
0
 62
     7
100
AcDbLine
 10
90.487765
 20
173.69746
 30
0.0
 11
89.553414
 21
173.13983
 31
0.0
  0
LINE
  5
B56
330
36
100
AcDbEntity
  8
0
 62
     7
100
AcDbLine
 10
89.553414
 20
173.13983
 30
0.0
 11
88.68510500000002
 21
172.520984
 31
0.0
  0
LINE
  5
B57
330
36
100
AcDbEntity
  8
0
 62
     7
100
AcDbLine
 10
88.68510500000002
 20
172.520984
 30
0.0
 11
87.889447
 21
171.845633
 31
0.0
  0
LINE
  5
B58
330
36
100
AcDbEntity
  8
0
 62
     7
100
AcDbLine
 10
87.889447
 20
171.845633
 30
0.0
 11
87.172494
 21
171.118916
 31
0.0
  0
LINE
  5
B59
330
36
100
AcDbEntity
  8
0
 62
     7
100
AcDbLine
 10
87.172494
 20
171.118916
 30
0.0
 11
86.539704
 21
170.346363
 31
0.0
  0
LINE
  5
B5A
330
36
100
AcDbEntity
  8
0
 62
     7
100
AcDbLine
 10
86.539704
 20
170.346363
 30
0.0
 11
85.995892
 21
169.533855
 31
0.0
  0
LINE
  5
B5B
330
36
100
AcDbEntity
  8
0
 62
     7
100
AcDbLine
 10
85.995892
 20
169.533855
 30
0.0
 11
85.545197
 21
168.687575
 31
0.0
  0
LINE
  5
B5C
330
36
100
AcDbEntity
  8
0
 62
     7
100
AcDbLine
 10
85.545197
 20
168.687575
 30
0.0
 11
85.19104799999999
 21
167.813963
 31
0.0
  0
LINE
  5
B5D
330
36
100
AcDbEntity
  8
0
 62
     7
100
AcDbLine
 10
85.19104799999999
 20
167.813963
 30
0.0
 11
84.93614200000001
 21
166.919669
 31
0.0
  0
LINE
  5
B5E
330
36
100
AcDbEntity
  8
0
 62
     7
100
AcDbLine
 10
84.93614200000001
 20
166.919669
 30
0.0
 11
84.78241800000002
 21
166.011498
 31
0.0
  0
LINE
  5
B5F
330
36
100
AcDbEntity
  8
0
 62
     7
100
AcDbLine
 10
84.78241800000002
 20
166.011498
 30
0.0
 11
84.731047
 21
165.096363
 31
0.0
  0
LINE
  5
B60
330
36
100
AcDbEntity
  8
0
 62
     7
100
AcDbLine
 10
111.490162
 20
188.694912
 30
0.0
 11
111.215238
 21
189.423506
 31
0.0
  0
LINE
  5
B61
330
36
100
AcDbEntity
  8
0
 62
     7
100
AcDbLine
 10
111.215238
 20
189.423506
 30
0.0
 11
110.839529
 21
190.134037
 31
0.0
  0
LINE
  5
B62
330
36
100
AcDbEntity
  8
0
 62
     7
100
AcDbLine
 10
110.839529
 20
190.134037
 30
0.0
 11
110.365951
 21
190.820988
 31
0.0
  0
LINE
  5
B63
330
36
100
AcDbEntity
  8
0
 62
     7
100
AcDbLine
 10
110.365951
 20
190.820988
 30
0.0
 11
109.798181
 21
191.479029
 31
0.0
  0
LINE
  5
B64
330
36
100
AcDbEntity
  8
0
 62
     7
100
AcDbLine
 10
109.798181
 20
191.479029
 30
0.0
 11
109.140626
 21
192.103051
 31
0.0
  0
LINE
  5
B65
330
36
100
AcDbEntity
  8
0
 62
     7
100
AcDbLine
 10
109.140626
 20
192.103051
 30
0.0
 11
108.398389
 21
192.68821
 31
0.0
  0
LINE
  5
B66
330
36
100
AcDbEntity
  8
0
 62
     7
100
AcDbLine
 10
108.398389
 20
192.68821
 30
0.0
 11
107.577232
 21
193.229965
 31
0.0
  0
LINE
  5
B67
330
36
100
AcDbEntity
  8
0
 62
     7
100
AcDbLine
 10
107.577232
 20
193.229965
 30
0.0
 11
106.683529
 21
193.72411
 31
0.0
  0
LINE
  5
B68
330
36
100
AcDbEntity
  8
0
 62
     7
100
AcDbLine
 10
106.683529
 20
193.72411
 30
0.0
 11
105.724217
 21
194.16681
 31
0.0
  0
LINE
  5
B69
330
36
100
AcDbEntity
  8
0
 62
     7
100
AcDbLine
 10
105.724217
 20
194.16681
 30
0.0
 11
104.706742
 21
194.554628
 31
0.0
  0
LINE
  5
B6A
330
36
100
AcDbEntity
  8
0
 62
     7
100
AcDbLine
 10
104.706742
 20
194.554628
 30
0.0
 11
103.639002
 21
194.884554
 31
0.0
  0
LINE
  5
B6B
330
36
100
AcDbEntity
  8
0
 62
     7
100
AcDbLine
 10
103.639002
 20
194.884554
 30
0.0
 11
102.529285
 21
195.154027
 31
0.0
  0
LINE
  5
B6C
330
36
100
AcDbEntity
  8
0
 62
     7
100
AcDbLine
 10
102.529285
 20
195.154027
 30
0.0
 11
101.386204
 21
195.360956
 31
0.0
  0
LINE
  5
B6D
330
36
100
AcDbEntity
  8
0
 62
     7
100
AcDbLine
 10
101.386204
 20
195.360956
 30
0.0
 11
100.218632
 21
195.503734
 31
0.0
  0
LINE
  5
B6E
330
36
100
AcDbEntity
  8
0
 62
     7
100
AcDbLine
 10
100.218632
 20
195.503734
 30
0.0
 11
99.035633
 21
195.581254
 31
0.0
  0
LINE
  5
B6F
330
36
100
AcDbEntity
  8
0
 62
     7
100
AcDbLine
 10
99.035633
 20
195.581254
 30
0.0
 11
97.846389
 21
195.592912
 31
0.0
  0
LINE
  5
B70
330
36
100
AcDbEntity
  8
0
 62
     7
100
AcDbLine
 10
97.846389
 20
195.592912
 30
0.0
 11
96.66012999999999
 21
195.538619
 31
0.0
  0
LINE
  5
B71
330
36
100
AcDbEntity
  8
0
 62
     7
100
AcDbLine
 10
96.66012999999999
 20
195.538619
 30
0.0
 11
95.48606499999999
 21
195.4187969999999
 31
0.0
  0
LINE
  5
B72
330
36
100
AcDbEntity
  8
0
 62
     7
100
AcDbLine
 10
95.48606499999999
 20
195.4187969999999
 30
0.0
 11
94.33330599999999
 21
195.234375
 31
0.0
  0
LINE
  5
B73
330
36
100
AcDbEntity
  8
0
 62
     7
100
AcDbLine
 10
94.33330599999999
 20
195.234375
 30
0.0
 11
93.210803
 21
194.986784
 31
0.0
  0
LINE
  5
B74
330
36
100
AcDbEntity
  8
0
 62
     7
100
AcDbLine
 10
93.210803
 20
194.986784
 30
0.0
 11
92.12726700000001
 21
194.677948
 31
0.0
  0
LINE
  5
B75
330
36
100
AcDbEntity
  8
0
 62
     7
100
AcDbLine
 10
92.12726700000001
 20
194.677948
 30
0.0
 11
91.09110900000001
 21
194.310262
 31
0.0
  0
LINE
  5
B76
330
36
100
AcDbEntity
  8
0
 62
     7
100
AcDbLine
 10
91.09110900000001
 20
194.310262
 30
0.0
 11
90.11037299999999
 21
193.886581
 31
0.0
  0
LINE
  5
B77
330
36
100
AcDbEntity
  8
0
 62
     7
100
AcDbLine
 10
90.11037299999999
 20
193.886581
 30
0.0
 11
89.19266999999996
 21
193.410193
 31
0.0
  0
LINE
  5
B78
330
36
100
AcDbEntity
  8
0
 62
     7
100
AcDbLine
 10
89.19266999999996
 20
193.410193
 30
0.0
 11
88.34512399999999
 21
192.8847969999999
 31
0.0
  0
LINE
  5
B79
330
36
100
AcDbEntity
  8
0
 62
     7
100
AcDbLine
 10
88.34512399999999
 20
192.8847969999999
 30
0.0
 11
87.574313
 21
192.314471
 31
0.0
  0
LINE
  5
B7A
330
36
100
AcDbEntity
  8
0
 62
     7
100
AcDbLine
 10
87.574313
 20
192.314471
 30
0.0
 11
86.88622200000002
 21
191.703641
 31
0.0
  0
LINE
  5
B7B
330
36
100
AcDbEntity
  8
0
 62
     7
100
AcDbLine
 10
86.88622200000002
 20
191.703641
 30
0.0
 11
86.28619
 21
191.057048
 31
0.0
  0
LINE
  5
B7C
330
36
100
AcDbEntity
  8
0
 62
     7
100
AcDbLine
 10
86.28619
 20
191.057048
 30
0.0
 11
85.778875
 21
190.379713
 31
0.0
  0
LINE
  5
B7D
330
36
100
AcDbEntity
  8
0
 62
     7
100
AcDbLine
 10
85.778875
 20
190.379713
 30
0.0
 11
85.36821600000001
 21
189.676891
 31
0.0
  0
LINE
  5
B7E
330
36
100
AcDbEntity
  8
0
 62
     7
100
AcDbLine
 10
85.36821600000001
 20
189.676891
 30
0.0
 11
85.05740000000001
 21
188.95404
 31
0.0
  0
LINE
  5
B7F
330
36
100
AcDbEntity
  8
0
 62
     7
100
AcDbLine
 10
85.05740000000001
 20
188.95404
 30
0.0
 11
84.84883899999998
 21
188.216768
 31
0.0
  0
LINE
  5
B80
330
36
100
AcDbEntity
  8
0
 62
     7
100
AcDbLine
 10
84.84883899999998
 20
188.216768
 30
0.0
 11
84.74415200000001
 21
187.4708
 31
0.0
  0
LINE
  5
B81
330
36
100
AcDbEntity
  8
0
 62
     7
100
AcDbLine
 10
84.74415200000001
 20
187.4708
 30
0.0
 11
84.74415200000001
 21
186.721926
 31
0.0
  0
LINE
  5
B82
330
36
100
AcDbEntity
  8
0
 62
     7
100
AcDbLine
 10
84.74415200000001
 20
186.721926
 30
0.0
 11
84.84883899999998
 21
185.975958
 31
0.0
  0
LINE
  5
B83
330
36
100
AcDbEntity
  8
0
 62
     7
100
AcDbLine
 10
84.84883899999998
 20
185.975958
 30
0.0
 11
85.05740000000001
 21
185.238687
 31
0.0
  0
LINE
  5
B84
330
36
100
AcDbEntity
  8
0
 62
     7
100
AcDbLine
 10
85.05740000000001
 20
185.238687
 30
0.0
 11
85.36821600000001
 21
184.515835
 31
0.0
  0
LINE
  5
B85
330
36
100
AcDbEntity
  8
0
 62
     7
100
AcDbLine
 10
85.36821600000001
 20
184.515835
 30
0.0
 11
85.778875
 21
183.813014
 31
0.0
  0
LINE
  5
B86
330
36
100
AcDbEntity
  8
0
 62
     7
100
AcDbLine
 10
85.778875
 20
183.813014
 30
0.0
 11
86.28619
 21
183.135678
 31
0.0
  0
LINE
  5
B87
330
36
100
AcDbEntity
  8
0
 62
     7
100
AcDbLine
 10
86.28619
 20
183.135678
 30
0.0
 11
86.88622200000002
 21
182.489086
 31
0.0
  0
LINE
  5
B88
330
36
100
AcDbEntity
  8
0
 62
     7
100
AcDbLine
 10
86.88622200000002
 20
182.489086
 30
0.0
 11
87.574313
 21
181.878256
 31
0.0
  0
LINE
  5
B89
330
36
100
AcDbEntity
  8
0
 62
     7
100
AcDbLine
 10
87.574313
 20
181.878256
 30
0.0
 11
88.34512399999999
 21
181.307929
 31
0.0
  0
LINE
  5
B8A
330
36
100
AcDbEntity
  8
0
 62
     7
100
AcDbLine
 10
88.34512399999999
 20
181.307929
 30
0.0
 11
89.19266999999996
 21
180.782533
 31
0.0
  0
LINE
  5
B8B
330
36
100
AcDbEntity
  8
0
 62
     7
100
AcDbLine
 10
89.19266999999996
 20
180.782533
 30
0.0
 11
90.11037299999999
 21
180.306146
 31
0.0
  0
LINE
  5
B8C
330
36
100
AcDbEntity
  8
0
 62
     7
100
AcDbLine
 10
90.11037299999999
 20
180.306146
 30
0.0
 11
91.09110900000001
 21
179.882465
 31
0.0
  0
LINE
  5
B8D
330
36
100
AcDbEntity
  8
0
 62
     7
100
AcDbLine
 10
91.09110900000001
 20
179.882465
 30
0.0
 11
92.12726700000001
 21
179.514779
 31
0.0
  0
LINE
  5
B8E
330
36
100
AcDbEntity
  8
0
 62
     7
100
AcDbLine
 10
92.12726700000001
 20
179.514779
 30
0.0
 11
93.210803
 21
179.205942
 31
0.0
  0
LINE
  5
B8F
330
36
100
AcDbEntity
  8
0
 62
     7
100
AcDbLine
 10
93.210803
 20
179.205942
 30
0.0
 11
94.33330599999999
 21
178.958352
 31
0.0
  0
LINE
  5
B90
330
36
100
AcDbEntity
  8
0
 62
     7
100
AcDbLine
 10
94.33330599999999
 20
178.958352
 30
0.0
 11
95.48606499999999
 21
178.77393
 31
0.0
  0
LINE
  5
B91
330
36
100
AcDbEntity
  8
0
 62
     7
100
AcDbLine
 10
95.48606499999999
 20
178.77393
 30
0.0
 11
96.66012999999999
 21
178.654107
 31
0.0
  0
LINE
  5
B92
330
36
100
AcDbEntity
  8
0
 62
     7
100
AcDbLine
 10
96.66012999999999
 20
178.654107
 30
0.0
 11
97.846389
 21
178.599814
 31
0.0
  0
LINE
  5
B93
330
36
100
AcDbEntity
  8
0
 62
     7
100
AcDbLine
 10
97.846389
 20
178.599814
 30
0.0
 11
99.035633
 21
178.611473
 31
0.0
  0
LINE
  5
B94
330
36
100
AcDbEntity
  8
0
 62
     7
100
AcDbLine
 10
99.035633
 20
178.611473
 30
0.0
 11
100.218632
 21
178.688992
 31
0.0
  0
LINE
  5
B95
330
36
100
AcDbEntity
  8
0
 62
     7
100
AcDbLine
 10
100.218632
 20
178.688992
 30
0.0
 11
101.386204
 21
178.83177
 31
0.0
  0
LINE
  5
B96
330
36
100
AcDbEntity
  8
0
 62
     7
100
AcDbLine
 10
101.386204
 20
178.83177
 30
0.0
 11
102.529285
 21
179.038699
 31
0.0
  0
LINE
  5
B97
330
36
100
AcDbEntity
  8
0
 62
     7
100
AcDbLine
 10
102.529285
 20
179.038699
 30
0.0
 11
103.639002
 21
179.308172
 31
0.0
  0
LINE
  5
B98
330
36
100
AcDbEntity
  8
0
 62
     7
100
AcDbLine
 10
103.639002
 20
179.308172
 30
0.0
 11
104.706742
 21
179.638099
 31
0.0
  0
LINE
  5
B99
330
36
100
AcDbEntity
  8
0
 62
     7
100
AcDbLine
 10
104.706742
 20
179.638099
 30
0.0
 11
105.724217
 21
180.025917
 31
0.0
  0
LINE
  5
B9A
330
36
100
AcDbEntity
  8
0
 62
     7
100
AcDbLine
 10
105.724217
 20
180.025917
 30
0.0
 11
106.683529
 21
180.468616
 31
0.0
  0
LINE
  5
B9B
330
36
100
AcDbEntity
  8
0
 62
     7
100
AcDbLine
 10
106.683529
 20
180.468616
 30
0.0
 11
107.577232
 21
180.962762
 31
0.0
  0
LINE
  5
B9C
330
36
100
AcDbEntity
  8
0
 62
     7
100
AcDbLine
 10
107.577232
 20
180.962762
 30
0.0
 11
108.398389
 21
181.504516
 31
0.0
  0
LINE
  5
B9D
330
36
100
AcDbEntity
  8
0
 62
     7
100
AcDbLine
 10
108.398389
 20
181.504516
 30
0.0
 11
109.140626
 21
182.089676
 31
0.0
  0
LINE
  5
B9E
330
36
100
AcDbEntity
  8
0
 62
     7
100
AcDbLine
 10
109.140626
 20
182.089676
 30
0.0
 11
109.798181
 21
182.713698
 31
0.0
  0
LINE
  5
B9F
330
36
100
AcDbEntity
  8
0
 62
     7
100
AcDbLine
 10
109.798181
 20
182.713698
 30
0.0
 11
110.365951
 21
183.371738
 31
0.0
  0
LINE
  5
BA0
330
36
100
AcDbEntity
  8
0
 62
     7
100
AcDbLine
 10
110.365951
 20
183.371738
 30
0.0
 11
110.839529
 21
184.05869
 31
0.0
  0
LINE
  5
BA1
330
36
100
AcDbEntity
  8
0
 62
     7
100
AcDbLine
 10
110.839529
 20
184.05869
 30
0.0
 11
111.215238
 21
184.76922
 31
0.0
  0
LINE
  5
BA2
330
36
100
AcDbEntity
  8
0
 62
     7
100
AcDbLine
 10
111.215238
 20
184.76922
 30
0.0
 11
111.490162
 21
185.497814
 31
0.0
  0
LINE
  5
BA3
330
36
100
AcDbEntity
  8
0
 62
     7
100
AcDbLine
 10
320.443111
 20
111.029697
 30
0.0
 11
318.758554
 21
112.233631
 31
0.0
  0
LINE
  5
BA4
330
36
100
AcDbEntity
  8
0
 62
     7
100
AcDbLine
 10
318.758554
 20
112.233631
 30
0.0
 11
319.615456
 21
110.348715
 31
0.0
  0
LINE
  5
BA5
330
36
100
AcDbEntity
  8
0
 62
     7
100
AcDbLine
 10
320.375986
 20
131.757493
 30
0.0
 11
318.582835
 21
132.79277
 31
0.0
  0
LINE
  5
BA6
330
36
100
AcDbEntity
  8
0
 62
     7
100
AcDbLine
 10
318.582835
 20
132.79277
 30
0.0
 11
319.618111
 21
130.999619
 31
0.0
  0
ARC
  5
BA7
330
36
100
AcDbEntity
  8
0
 62
     7
100
AcDbCircle
 10
301.243906
 20
169.63364
 30
0.0
 40
0.25
100
AcDbArc
 50
0.0
 51
180.0
  0
ARC
  5
BA8
330
36
100
AcDbEntity
  8
0
 62
     7
100
AcDbCircle
 10
301.243906
 20
169.63364
 30
0.0
 40
0.25
100
AcDbArc
 50
180.0
 51
0.0
  0
LINE
  5
BA9
330
36
100
AcDbEntity
  8
0
100
AcDbLine
 10
136.285047
 20
151.096363
 30
0.0
 11
136.285047
 21
136.01224
 31
0.0
  0
LINE
  5
BAA
330
36
100
AcDbEntity
  8
0
100
AcDbLine
 10
217.066047
 20
151.096363
 30
0.0
 11
217.066047
 21
136.01224
 31
0.0
  0
LINE
  5
BAB
330
36
100
AcDbEntity
  8
0
100
AcDbLine
 10
138.785047
 20
137.26224
 30
0.0
 11
214.566047
 21
137.26224
 31
0.0
  0
LINE
  5
BAF
330
36
100
AcDbEntity
  8
0
100
AcDbLine
 10
29.653047
 20
155.909363
 30
0.0
 11
29.653047
 21
136.01224
 31
0.0
  0
LINE
  5
BB0
330
36
100
AcDbEntity
  8
0
100
AcDbLine
 10
119.372047
 20
155.909363
 30
0.0
 11
119.372047
 21
136.01224
 31
0.0
  0
LINE
  5
BB1
330
36
100
AcDbEntity
  8
0
100
AcDbLine
 10
32.153047
 20
137.26224
 30
0.0
 11
116.872047
 21
137.26224
 31
0.0
  0
LINE
  5
BB5
330
36
100
AcDbEntity
  8
0
100
AcDbLine
 10
37.99704699999999
 20
145.502363
 30
0.0
 11
19.53076299999998
 21
145.502363
 31
0.0
  0
LINE
  5
BB6
330
36
100
AcDbEntity
  8
0
100
AcDbLine
 10
70.138047
 20
224.912363
 30
0.0
 11
19.530763
 21
224.912363
 31
0.0
  0
LINE
  5
BB7
330
36
100
AcDbEntity
  8
0
100
AcDbLine
 10
20.78076299999998
 20
148.002363
 30
0.0
 11
20.780763
 21
222.412363
 31
0.0
  0
LINE
  5
BBB
330
36
100
AcDbEntity
  8
0
  6
Continuous
100
AcDbLine
 10
102.3828449813608
 20
156.7955989319385
 30
0.0
 11
113.5232972145925
 21
130.1566877665965
 31
0.0
1001
ACAD
1000
DSTYLE
1002
{
1070
   147
1040
0.625
1070
    77
1070
     0
1070
   342
1005
0
1002
}
  0
LINE
  5
BBC
330
36
100
AcDbEntity
  8
0
  6
ByBlock
 62
     0
370
    -2
100
AcDbLine
 10
101.7648385841951
 20
156.5371472743342
 30
0.0
 11
101.4182895711734
 21
159.102031861958
 31
0.0
  0
LINE
  5
BBD
330
36
100
AcDbEntity
  8
0
  6
ByBlock
 62
     0
370
    -2
100
AcDbLine
 10
101.4182895711734
 20
159.102031861958
 30
0.0
 11
103.0008513785266
 21
157.0540505895429
 31
0.0
  0
LINE
  5
BBE
330
36
100
AcDbEntity
  8
0
  6
ByBlock
 62
     0
370
    -2
100
AcDbLine
 10
101.4182895711734
 20
159.102031861958
 30
0.0
 11
102.3828449813608
 21
156.7955989319385
 31
0.0
  0
LINE
  5
BBF
330
36
100
AcDbEntity
  8
0
  6
Continuous
100
AcDbLine
 10
322.6386270685773
 20
135.9749677307216
 30
0.0
 11
337.1468058628455
 21
146.8171155385566
 31
0.0
1001
ACAD
1000
DSTYLE
1002
{
1070
   147
1040
0.625
1070
    77
1070
     0
1070
   342
1005
0
1002
}
  0
LINE
  5
BC0
330
36
100
AcDbEntity
  8
0
  6
ByBlock
 62
     0
370
    -2
100
AcDbLine
 10
323.0396271441705
 20
135.4383784039264
 30
0.0
 11
320.636047
 21
134.478414
 31
0.0
  0
LINE
  5
BC1
330
36
100
AcDbEntity
  8
0
  6
ByBlock
 62
     0
370
    -2
100
AcDbLine
 10
320.636047
 20
134.478414
 30
0.0
 11
322.2376269929842
 21
136.5115570575168
 31
0.0
  0
LINE
  5
BC2
330
36
100
AcDbEntity
  8
0
  6
ByBlock
 62
     0
370
    -2
100
AcDbLine
 10
320.636047
 20
134.478414
 30
0.0
 11
322.6386270685773
 21
135.9749677307216
 31
0.0
  0
LINE
  5
BC3
330
36
100
AcDbEntity
  8
0
  6
Continuous
100
AcDbLine
 10
251.7611595919674
 20
129.3285905234543
 30
0.0
 11
247.4713618160651
 21
127.5474383701017
 31
0.0
1001
ACAD
1000
DSTYLE
1002
{
1070
   147
1040
0.625
1070
    77
1070
     0
1070
   342
1005
0
1002
}
  0
LINE
  5
BC4
330
36
100
AcDbEntity
  8
0
  6
ByBlock
 62
     0
370
    -2
100
AcDbLine
 10
251.5042862142983
 20
129.9472545955492
 30
0.0
 11
254.070047
 21
130.2872557085052
 31
0.0
  0
LINE
  5
BC5
330
36
100
AcDbEntity
  8
0
  6
ByBlock
 62
     0
370
    -2
100
AcDbLine
 10
254.070047
 20
130.2872557085052
 30
0.0
 11
252.0180329696366
 21
128.7099264513594
 31
0.0
  0
LINE
  5
BC6
330
36
100
AcDbEntity
  8
0
  6
ByBlock
 62
     0
370
    -2
100
AcDbLine
 10
254.070047
 20
130.2872557085052
 30
0.0
 11
251.7611595919674
 21
129.3285905234543
 31
0.0
  0
LINE
  5
BC7
330
36
100
AcDbEntity
  8
0
  6
Continuous
100
AcDbLine
 10
208.3503512675714
 20
143.1737891457474
 30
0.0
 11
213.3852884648573
 21
130.2872557085052
 31
0.0
1001
ACAD
1000
DSTYLE
1002
{
1070
   147
1040
0.625
1070
    77
1070
     0
1070
   342
1005
0
1002
}
  0
LINE
  5
BC8
330
36
100
AcDbEntity
  8
0
  6
ByBlock
 62
     0
370
    -2
100
AcDbLine
 10
207.7264122318982
 20
142.9300080020559
 30
0.0
 11
207.440547
 21
145.502363
 31
0.0
  0
LINE
  5
BC9
330
36
100
AcDbEntity
  8
0
  6
ByBlock
 62
     0
370
    -2
100
AcDbLine
 10
207.440547
 20
145.502363
 30
0.0
 11
208.9742903032445
 21
143.4175702894388
 31
0.0
  0
LINE
  5
BCA
330
36
100
AcDbEntity
  8
0
  6
ByBlock
 62
     0
370
    -2
100
AcDbLine
 10
207.440547
 20
145.502363
 30
0.0
 11
208.3503512675714
 21
143.1737891457474
 31
0.0
  0
LINE
  5
BCB
330
36
100
AcDbEntity
  8
0
  6
Continuous
100
AcDbLine
 10
142.1357756278877
 20
147.2824149226218
 30
0.0
 11
148.4053417442245
 21
130.3200041547565
 31
0.0
1001
ACAD
1000
DSTYLE
1002
{
1070
   147
1040
0.625
1070
    77
1070
     0
1070
   342
1005
0
1002
}
  0
LINE
  5
BCC
330
36
100
AcDbEntity
  8
0
  6
ByBlock
 62
     0
370
    -2
100
AcDbLine
 10
141.5074491355023
 20
147.0501758535078
 30
0.0
 11
141.269047
 21
149.627363
 31
0.0
  0
LINE
  5
BCD
330
36
100
AcDbEntity
  8
0
  6
ByBlock
 62
     0
370
    -2
100
AcDbLine
 10
141.269047
 20
149.627363
 30
0.0
 11
142.7641021202731
 21
147.5146539917356
 31
0.0
  0
LINE
  5
BCE
330
36
100
AcDbEntity
  8
0
  6
ByBlock
 62
     0
370
    -2
100
AcDbLine
 10
141.269047
 20
149.627363
 30
0.0
 11
142.1357756278877
 21
147.2824149226218
 31
0.0
  0
LINE
  5
BCF
330
36
100
AcDbEntity
  8
0
  6
Continuous
100
AcDbLine
 10
96.12499050879272
 20
163.5899623087815
 30
0.0
 11
103.1509422422778
 21
130.4284694660607
 31
0.0
1001
ACAD
1000
DSTYLE
1002
{
1070
   341
1005
9E7
1070
   147
1040
0.625
1070
    77
1070
     0
1070
   342
1005
0
1002
}
  0
LINE
  5
BD1
330
36
100
AcDbEntity
  8
0
  6
Continuous
100
AcDbLine
 10
78.59115179611588
 20
156.8645585669905
 30
0.0
 11
87.81822336577793
 21
130.405688423995
 31
0.0
1001
ACAD
1000
DSTYLE
1002
{
1070
   147
1040
0.625
1070
    77
1070
     0
1070
   342
1005
0
1002
}
  0
LINE
  5
BD2
330
36
100
AcDbEntity
  8
0
  6
ByBlock
 62
     0
370
    -2
100
AcDbLine
 10
77.95863749273836
 20
156.643980185731
 30
0.0
 11
77.76794147900488
 21
159.2251357789881
 31
0.0
  0
LINE
  5
BD3
330
36
100
AcDbEntity
  8
0
  6
ByBlock
 62
     0
370
    -2
100
AcDbLine
 10
77.76794147900488
 20
159.2251357789881
 30
0.0
 11
79.22366609949341
 21
157.0851369482501
 31
0.0
  0
LINE
  5
BD4
330
36
100
AcDbEntity
  8
0
  6
ByBlock
 62
     0
370
    -2
100
AcDbLine
 10
77.76794147900488
 20
159.2251357789881
 30
0.0
 11
78.59115179611588
 21
156.8645585669905
 31
0.0
  0
LINE
  5
BD5
330
36
100
AcDbEntity
  8
0
  6
Continuous
100
AcDbLine
 10
68.33226079247309
 20
156.8876829877148
 30
0.0
 11
64.57888275884535
 21
130.5799835314161
 31
0.0
1001
ACAD
1000
DSTYLE
1002
{
1070
   147
1040
0.625
1070
    77
1070
     0
1070
   342
1005
0
1002
}
  0
LINE
  5
BD6
330
36
100
AcDbEntity
  8
0
  6
ByBlock
 62
     0
370
    -2
100
AcDbLine
 10
67.6691036930894
 20
156.9822970870513
 30
0.0
 11
68.68536567189576
 21
159.3626207534229
 31
0.0
  0
LINE
  5
BD7
330
36
100
AcDbEntity
  8
0
  6
ByBlock
 62
     0
370
    -2
100
AcDbLine
 10
68.68536567189576
 20
159.3626207534229
 30
0.0
 11
68.9954178918568
 21
156.7930688883784
 31
0.0
  0
LINE
  5
BD8
330
36
100
AcDbEntity
  8
0
  6
ByBlock
 62
     0
370
    -2
100
AcDbLine
 10
68.68536567189576
 20
159.3626207534229
 30
0.0
 11
68.33226079247309
 21
156.8876829877148
 31
0.0
  0
LINE
  5
BD9
330
36
100
AcDbEntity
  8
0
  6
Continuous
100
AcDbLine
 10
59.90727232019464
 20
156.9908151243691
 30
0.0
 11
53.09811319896819
 21
130.4729999871689
 31
0.0
1001
ACAD
1000
DSTYLE
1002
{
1070
   147
1040
0.625
1070
    77
1070
     0
1070
   342
1005
0
1002
}
  0
LINE
  5
BDA
330
36
100
AcDbEntity
  8
0
  6
ByBlock
 62
     0
370
    -2
100
AcDbLine
 10
59.25844828765967
 20
157.1574180687048
 30
0.0
 11
60.52904341967874
 21
159.4122611179536
 31
0.0
  0
LINE
  5
BDB
330
36
100
AcDbEntity
  8
0
  6
ByBlock
 62
     0
370
    -2
100
AcDbLine
 10
60.52904341967874
 20
159.4122611179536
 30
0.0
 11
60.55609635272961
 21
156.8242121800334
 31
0.0
  0
LINE
  5
BDC
330
36
100
AcDbEntity
  8
0
  6
ByBlock
 62
     0
370
    -2
100
AcDbLine
 10
60.52904341967874
 20
159.4122611179536
 30
0.0
 11
59.90727232019464
 21
156.9908151243691
 31
0.0
  0
LINE
  5
BDD
330
36
100
AcDbEntity
  8
0
  6
Continuous
100
AcDbLine
 10
51.62997560472401
 20
157.7433909860887
 30
0.0
 11
40.61517809276604
 21
130.270985001554
 31
0.0
1001
ACAD
1000
DSTYLE
1002
{
1070
   147
1040
0.625
1070
    77
1070
     0
1070
   342
1005
0
1002
}
  0
LINE
  5
BDE
330
36
100
AcDbEntity
  8
0
  6
ByBlock
 62
     0
370
    -2
100
AcDbLine
 10
51.00821642887932
 20
157.9926793602845
 30
0.0
 11
52.56033315110704
 21
160.0638294868657
 31
0.0
  0
LINE
  5
BDF
330
36
100
AcDbEntity
  8
0
  6
ByBlock
 62
     0
370
    -2
100
AcDbLine
 10
52.56033315110704
 20
160.0638294868657
 30
0.0
 11
52.25173478056871
 21
157.4941026118929
 31
0.0
  0
LINE
  5
BE0
330
36
100
AcDbEntity
  8
0
  6
ByBlock
 62
     0
370
    -2
100
AcDbLine
 10
52.56033315110704
 20
160.0638294868657
 30
0.0
 11
51.62997560472401
 21
157.7433909860887
 31
0.0
  0
LINE
  5
BE1
330
36
100
AcDbEntity
  8
0
  6
Continuous
100
AcDbLine
 10
38.67608246573542
 20
157.096043218254
 30
0.0
 11
25.98832161049223
 21
130.153620868503
 31
0.0
1001
ACAD
1000
DSTYLE
1002
{
1070
   147
1040
0.625
1070
    77
1070
     0
1070
   342
1005
0
1002
}
  0
LINE
  5
BE2
330
36
100
AcDbEntity
  8
0
  6
ByBlock
 62
     0
370
    -2
100
AcDbLine
 10
38.07004709093417
 20
157.3814381914854
 30
0.0
 11
39.74119177098155
 21
159.3577996525056
 31
0.0
  0
LINE
  5
BE3
330
36
100
AcDbEntity
  8
0
  6
ByBlock
 62
     0
370
    -2
100
AcDbLine
 10
39.74119177098155
 20
159.3577996525056
 30
0.0
 11
39.28211784053669
 21
156.8106482450226
 31
0.0
  0
LINE
  5
BE4
330
36
100
AcDbEntity
  8
0
  6
ByBlock
 62
     0
370
    -2
100
AcDbLine
 10
39.74119177098155
 20
159.3577996525056
 30
0.0
 11
38.67608246573542
 21
157.096043218254
 31
0.0
  0
LINE
  5
BE5
330
36
100
AcDbEntity
  8
0
  6
Continuous
100
AcDbLine
 10
84.70824884104859
 20
202.9805947265119
 30
0.0
 11
93.50444613901421
 21
231.9796807717077
 31
0.0
1001
ACAD
1000
DSTYLE
1002
{
1070
   147
1040
0.625
1070
    77
1070
     0
1070
   342
1005
0
1002
}
  0
LINE
  5
BE6
330
36
100
AcDbEntity
  8
0
  6
ByBlock
 62
     0
370
    -2
100
AcDbLine
 10
85.34928041306994
 20
202.7861527302043
 30
0.0
 11
83.98258091055572
 21
200.5882306123658
 31
0.0
  0
LINE
  5
BE7
330
36
100
AcDbEntity
  8
0
  6
ByBlock
 62
     0
370
    -2
100
AcDbLine
 10
83.98258091055572
 20
200.5882306123658
 30
0.0
 11
84.06721726902725
 21
203.1750367228196
 31
0.0
  0
LINE
  5
BE8
330
36
100
AcDbEntity
  8
0
  6
ByBlock
 62
     0
370
    -2
100
AcDbLine
 10
83.98258091055572
 20
200.5882306123658
 30
0.0
 11
84.70824884104859
 21
202.9805947265119
 31
0.0
  0
LINE
  5
BE9
330
36
100
AcDbEntity
  8
0
  6
Continuous
100
AcDbLine
 10
101.0274041867312
 20
195.9544614124255
 30
0.0
 11
112.405240815733
 21
231.9963508600357
 31
0.0
1001
ACAD
1000
DSTYLE
1002
{
1070
   147
1040
0.625
1070
    77
1070
     0
1070
   342
1005
0
1002
}
  0
LINE
  5
BEA
330
36
100
AcDbEntity
  8
0
  6
ByBlock
 62
     0
370
    -2
100
AcDbLine
 10
101.6662023920038
 20
195.7528032382874
 30
0.0
 11
100.2748050945977
 21
193.5704323424434
 31
0.0
  0
LINE
  5
BEB
330
36
100
AcDbEntity
  8
0
  6
ByBlock
 62
     0
370
    -2
100
AcDbLine
 10
100.2748050945977
 20
193.5704323424434
 30
0.0
 11
100.3886059814586
 21
196.1561195865636
 31
0.0
  0
LINE
  5
BEC
330
36
100
AcDbEntity
  8
0
  6
ByBlock
 62
     0
370
    -2
100
AcDbLine
 10
100.2748050945977
 20
193.5704323424434
 30
0.0
 11
101.0274041867312
 21
195.9544614124255
 31
0.0
  0
LINE
  5
BED
330
36
100
AcDbEntity
  8
0
  6
Continuous
100
AcDbLine
 10
56.99100202381709
 20
202.2792507845548
 30
0.0
 11
61.20667195236581
 21
231.7973204308904
 31
0.0
1001
ACAD
1000
DSTYLE
1002
{
1070
   147
1040
0.625
1070
    77
1070
     0
1070
   342
1005
0
1002
}
  0
LINE
  5
BEE
330
36
100
AcDbEntity
  8
0
  6
ByBlock
 62
     0
370
    -2
100
AcDbLine
 10
57.65414573080075
 20
202.184542864378
 30
0.0
 11
56.637547
 21
199.804363
 31
0.0
  0
LINE
  5
BEF
330
36
100
AcDbEntity
  8
0
  6
ByBlock
 62
     0
370
    -2
100
AcDbLine
 10
56.637547
 20
199.804363
 30
0.0
 11
56.32785831683342
 21
202.3739587047316
 31
0.0
  0
LINE
  5
BF0
330
36
100
AcDbEntity
  8
0
  6
ByBlock
 62
     0
370
    -2
100
AcDbLine
 10
56.637547
 20
199.804363
 30
0.0
 11
56.99100202381709
 21
202.2792507845548
 31
0.0
  0
LINE
  5
BF1
330
36
100
AcDbEntity
  8
0
  6
Continuous
100
AcDbLine
 10
191.8904634858688
 20
226.8516610096797
 30
0.0
 11
196.7968893512289
 21
232.8851627420905
 31
0.0
1001
ACAD
1000
DSTYLE
1002
{
1070
   147
1040
0.625
1070
    77
1070
     0
1070
   342
1005
0
1002
}
  0
LINE
  5
BF2
330
36
100
AcDbEntity
  8
0
  6
ByBlock
 62
     0
370
    -2
100
AcDbLine
 10
192.410183563649
 20
226.4290261708314
 30
0.0
 11
190.3131676614833
 21
224.912037880725
 31
0.0
  0
LINE
  5
BF3
330
36
100
AcDbEntity
  8
0
  6
ByBlock
 62
     0
370
    -2
100
AcDbLine
 10
190.3131676614833
 20
224.912037880725
 30
0.0
 11
191.3707434080885
 21
227.274295848528
 31
0.0
  0
LINE
  5
BF4
330
36
100
AcDbEntity
  8
0
  6
ByBlock
 62
     0
370
    -2
100
AcDbLine
 10
190.3131676614833
 20
224.912037880725
 30
0.0
 11
191.8904634858688
 21
226.8516610096797
 31
0.0
  0
LINE
  5
BF5
330
36
100
AcDbEntity
  8
0
  6
Continuous
100
AcDbLine
 10
214.7182728908374
 20
205.1205483927559
 30
0.0
 11
233.1131302136309
 21
232.6089938441412
 31
0.0
1001
ACAD
1000
DSTYLE
1002
{
1070
   147
1040
0.625
1070
    77
1070
     0
1070
   342
1005
0
1002
}
  0
LINE
  5
BF6
330
36
100
AcDbEntity
  8
0
  6
ByBlock
 62
     0
370
    -2
100
AcDbLine
 10
215.274992558636
 20
204.747999902298
 30
0.0
 11
213.3279019976528
 21
203.0428408148265
 31
0.0
  0
LINE
  5
BF7
330
36
100
AcDbEntity
  8
0
  6
ByBlock
 62
     0
370
    -2
100
AcDbLine
 10
213.3279019976528
 20
203.0428408148265
 30
0.0
 11
214.1615532230388
 21
205.4930968832138
 31
0.0
  0
LINE
  5
BF8
330
36
100
AcDbEntity
  8
0
  6
ByBlock
 62
     0
370
    -2
100
AcDbLine
 10
213.3279019976528
 20
203.0428408148265
 30
0.0
 11
214.7182728908374
 21
205.1205483927559
 31
0.0
  0
LINE
  5
BF9
330
36
100
AcDbEntity
  8
0
  6
Continuous
100
AcDbLine
 10
213.8583368530422
 20
227.1693825242595
 30
0.0
 11
216.5421313194352
 21
232.8444250743765
 31
0.0
1001
ACAD
1000
DSTYLE
1002
{
1070
   147
1040
0.625
1070
    77
1070
     0
1070
   342
1005
0
1002
}
  0
LINE
  5
BFA
330
36
100
AcDbEntity
  8
0
  6
ByBlock
 62
     0
370
    -2
100
AcDbLine
 10
214.463906824548
 20
226.8830013519267
 30
0.0
 11
212.789547
 21
224.909363
 31
0.0
  0
LINE
  5
BFB
330
36
100
AcDbEntity
  8
0
  6
ByBlock
 62
     0
370
    -2
100
AcDbLine
 10
212.789547
 20
224.909363
 30
0.0
 11
213.2527668815364
 21
227.4557636965923
 31
0.0
  0
LINE
  5
BFC
330
36
100
AcDbEntity
  8
0
  6
ByBlock
 62
     0
370
    -2
100
AcDbLine
 10
212.789547
 20
224.909363
 30
0.0
 11
213.8583368530422
 21
227.1693825242595
 31
0.0
  0
TEXT
  5
BFD
330
36
100
AcDbEntity
  8
0
  6
Continuous
 62
     4
100
AcDbText
 10
172.675547
 20
137.88724
 30
0.0
 40
3.0
  1
235
100
AcDbText
  0
LINE
  5
BFE
330
36
100
AcDbEntity
  8
0
  6
ByBlock
 62
     0
370
    -2
100
AcDbLine
 10
214.566047
 20
137.9321125
 30
0.0
 11
217.066047
 21
137.26224
 31
0.0
  0
LINE
  5
BFF
330
36
100
AcDbEntity
  8
0
  6
ByBlock
 62
     0
370
    -2
100
AcDbLine
 10
217.066047
 20
137.26224
 30
0.0
 11
214.566047
 21
136.5923675
 31
0.0
  0
LINE
  5
C00
330
36
100
AcDbEntity
  8
0
  6
ByBlock
 62
     0
370
    -2
100
AcDbLine
 10
217.066047
 20
137.26224
 30
0.0
 11
214.566047
 21
137.26224
 31
0.0
  0
LINE
  5
C01
330
36
100
AcDbEntity
  8
0
  6
ByBlock
 62
     0
370
    -2
100
AcDbLine
 10
138.785047
 20
136.5923675
 30
0.0
 11
136.285047
 21
137.26224
 31
0.0
  0
LINE
  5
C02
330
36
100
AcDbEntity
  8
0
  6
ByBlock
 62
     0
370
    -2
100
AcDbLine
 10
136.285047
 20
137.26224
 30
0.0
 11
138.785047
 21
137.9321125
 31
0.0
  0
LINE
  5
C03
330
36
100
AcDbEntity
  8
0
  6
ByBlock
 62
     0
370
    -2
100
AcDbLine
 10
136.285047
 20
137.26224
 30
0.0
 11
138.785047
 21
137.26224
 31
0.0
  0
TEXT
  5
C04
330
36
100
AcDbEntity
  8
0
  6
Continuous
 62
     4
100
AcDbText
 10
70.76254699999999
 20
137.88724
 30
0.0
 40
3.0
  1
260
100
AcDbText
  0
LINE
  5
C05
330
36
100
AcDbEntity
  8
0
  6
ByBlock
 62
     0
370
    -2
100
AcDbLine
 10
116.872047
 20
137.9321125
 30
0.0
 11
119.372047
 21
137.26224
 31
0.0
  0
LINE
  5
C06
330
36
100
AcDbEntity
  8
0
  6
ByBlock
 62
     0
370
    -2
100
AcDbLine
 10
119.372047
 20
137.26224
 30
0.0
 11
116.872047
 21
136.5923675
 31
0.0
  0
LINE
  5
C07
330
36
100
AcDbEntity
  8
0
  6
ByBlock
 62
     0
370
    -2
100
AcDbLine
 10
119.372047
 20
137.26224
 30
0.0
 11
116.872047
 21
137.26224
 31
0.0
  0
LINE
  5
C08
330
36
100
AcDbEntity
  8
0
  6
ByBlock
 62
     0
370
    -2
100
AcDbLine
 10
32.153047
 20
136.5923675
 30
0.0
 11
29.653047
 21
137.26224
 31
0.0
  0
LINE
  5
C09
330
36
100
AcDbEntity
  8
0
  6
ByBlock
 62
     0
370
    -2
100
AcDbLine
 10
29.653047
 20
137.26224
 30
0.0
 11
32.153047
 21
137.9321125
 31
0.0
  0
LINE
  5
C0A
330
36
100
AcDbEntity
  8
0
  6
ByBlock
 62
     0
370
    -2
100
AcDbLine
 10
29.653047
 20
137.26224
 30
0.0
 11
32.153047
 21
137.26224
 31
0.0
  0
TEXT
  5
C0B
330
36
100
AcDbEntity
  8
0
  6
Continuous
 62
     4
100
AcDbText
 10
20.15576299999996
 20
181.457363
 30
0.0
 40
3.0
  1
230
 50
90.0
100
AcDbText
  0
LINE
  5
C0C
330
36
100
AcDbEntity
  8
0
  6
ByBlock
 62
     0
370
    -2
100
AcDbLine
 10
20.1108905
 20
222.412363
 30
0.0
 11
20.780763
 21
224.912363
 31
0.0
  0
LINE
  5
C0D
330
36
100
AcDbEntity
  8
0
  6
ByBlock
 62
     0
370
    -2
100
AcDbLine
 10
20.780763
 20
224.912363
 30
0.0
 11
21.4506355
 21
222.412363
 31
0.0
  0
LINE
  5
C0E
330
36
100
AcDbEntity
  8
0
  6
ByBlock
 62
     0
370
    -2
100
AcDbLine
 10
20.780763
 20
224.912363
 30
0.0
 11
20.780763
 21
222.412363
 31
0.0
  0
LINE
  5
C0F
330
36
100
AcDbEntity
  8
0
  6
ByBlock
 62
     0
370
    -2
100
AcDbLine
 10
21.45063549999998
 20
148.002363
 30
0.0
 11
20.78076299999998
 21
145.502363
 31
0.0
  0
LINE
  5
C10
330
36
100
AcDbEntity
  8
0
  6
ByBlock
 62
     0
370
    -2
100
AcDbLine
 10
20.78076299999998
 20
145.502363
 30
0.0
 11
20.11089049999998
 21
148.002363
 31
0.0
  0
LINE
  5
C11
330
36
100
AcDbEntity
  8
0
  6
ByBlock
 62
     0
370
    -2
100
AcDbLine
 10
20.78076299999998
 20
145.502363
 30
0.0
 11
20.78076299999998
 21
148.002363
 31
0.0
  0
ARC
  5
C12
330
36
100
AcDbEntity
  8
0
  6
ByBlock
 62
     0
100
AcDbCircle
 10
96.12499050879272
 20
163.5899623087815
 30
0.0
 40
0.1562499999999911
100
AcDbArc
 50
281.9624014958451
 51
101.962401495845
  0
ARC
  5
C13
330
36
100
AcDbEntity
  8
0
  6
ByBlock
 62
     0
100
AcDbCircle
 10
96.12499050879272
 20
163.5899623087815
 30
0.0
 40
0.1562499999999911
100
AcDbArc
 50
101.962401495845
 51
281.9624014958451
  0
ENDSEC
  0
SECTION
  2
OBJECTS
  0
DICTIONARY
  5
C
330
0
100
AcDbDictionary
281
     1
  3
ACAD_2007HEADERVARS_RT
350
C17
  3
ACAD_COLOR
350
2F
  3
ACAD_GROUP
350
D
  3
ACAD_LAYOUT
350
2E
  3
ACAD_MATERIAL
350
10
  3
ACAD_MLEADERSTYLE
350
760
  3
ACAD_MLINESTYLE
350
2B
  3
ACAD_PLOTSETTINGS
350
2D
  3
ACAD_PLOTSTYLENAME
350
E
  3
ACAD_SCALELIST
350
74E
  3
ACAD_TABLESTYLE
350
30
  3
ACAD_VISUALSTYLE
350
14
  3
AcadDim
350
721
  3
ACDB_RECOMPOSE_DATA
350
C15
  3
AcDbVariableDictionary
350
70F
  3
DWGPROPS
350
C16
  0
DICTIONARY
  5
5C4
330
2
100
AcDbDictionary
280
     1
281
     1
  3
ACAD_LAYERSTATES
360
5C5
  0
DICTIONARY
  5
77E
330
25
100
AcDbDictionary
280
     1
281
     1
  3
ADSK_XREC_LAYER_RECONCILED
360
77F
  0
DICTIONARY
  5
6F8
330
36
100
AcDbDictionary
280
     1
281
     1
  3
ACAD_SORTENTS
360
6F9
  0
DICTIONARY
  5
C17
102
{ACAD_REACTORS
330
C
102
}
330
C
100
AcDbDictionary
281
     1
  3
DIMARCSYM
350
C19
  3
DIMFXL
350
C18
  3
DIMJOGANG
350
C1A
  0
DICTIONARY
  5
2F
102
{ACAD_REACTORS
330
C
102
}
330
C
100
AcDbDictionary
281
     1
  0
DICTIONARY
  5
D
102
{ACAD_REACTORS
330
C
102
}
330
C
100
AcDbDictionary
281
     1
  0
DICTIONARY
  5
2E
102
{ACAD_REACTORS
330
C
102
}
330
C
100
AcDbDictionary
281
     1
  3
Model
350
39
  3
レイアウト1
350
35
  0
DICTIONARY
  5
10
102
{ACAD_REACTORS
330
C
102
}
330
C
100
AcDbDictionary
281
     1
  3
ByBlock
350
12
  3
ByLayer
350
11
  3
Global
350
13
  0
DICTIONARY
  5
760
102
{ACAD_REACTORS
330
C
102
}
330
C
100
AcDbDictionary
281
     1
  3
Standard
350
761
  0
DICTIONARY
  5
2B
102
{ACAD_REACTORS
330
C
102
}
330
C
100
AcDbDictionary
281
     1
  3
Standard
350
2C
  0
DICTIONARY
  5
2D
102
{ACAD_REACTORS
330
C
102
}
330
C
100
AcDbDictionary
281
     1
  0
ACDBDICTIONARYWDFLT
  5
E
102
{ACAD_REACTORS
330
C
102
}
330
C
100
AcDbDictionary
281
     1
  3
Normal
350
F
100
AcDbDictionaryWithDefault
340
F
  0
DICTIONARY
  5
74E
102
{ACAD_REACTORS
330
C
102
}
330
C
100
AcDbDictionary
281
     1
  3
A0
350
74F
  3
A1
350
750
  3
A2
350
751
  3
A3
350
752
  3
A4
350
753
  3
A5
350
754
  3
A6
350
755
  3
A7
350
756
  3
A8
350
757
  3
A9
350
758
  3
B0
350
759
  3
B1
350
75A
  3
B2
350
75B
  3
B3
350
75C
  3
B4
350
75D
  3
B5
350
75E
  3
B6
350
75F
  0
DICTIONARY
  5
30
102
{ACAD_REACTORS
330
C
102
}
330
C
100
AcDbDictionary
281
     1
  3
Standard
350
31
  0
DICTIONARY
  5
14
102
{ACAD_REACTORS
330
C
102
}
330
C
100
AcDbDictionary
281
     1
  3
2dWireframe
350
1A
  3
3D Hidden
350
1C
  3
3dWireframe
350
1B
  3
Basic
350
19
  3
Brighten
350
20
  3
ColorChange
350
24
  3
Conceptual
350
1D
  3
Dim
350
1F
  3
EdgeColorOff
350
74D
  3
Facepattern
350
23
  3
Flat
350
15
  3
FlatWithEdges
350
16
  3
Gouraud
350
17
  3
GouraudWithEdges
350
18
  3
Hidden
350
745
  3
JitterOff
350
74B
  3
Linepattern
350
22
  3
OverhangOff
350
74C
  3
Realistic
350
1E
  3
Shaded
350
74A
  3
Shaded with edges
350
749
  3
Shades of Gray
350
746
  3
Sketchy
350
747
  3
Thicken
350
21
  3
Wireframe
350
744
  3
X-Ray
350
748
  0
XRECORD
  5
721
102
{ACAD_REACTORS
330
C
102
}
330
C
100
AcDbXrecord
280
     1
 90
   990106
  3

 60
     0
 61
     0
 62
     1
 63
     3
 64
     0
 65
     0
 66
     0
 67
     3
 68
     1
 69
     0
 70
     0
 71
     0
 72
     0
 40
0.0
170
     0
  0
XRECORD
  5
C15
102
{ACAD_REACTORS
330
C
102
}
330
C
100
AcDbXrecord
280
     1
 90
        1
330
31
  0
DICTIONARY
  5
70F
102
{ACAD_REACTORS
330
C
102
}
330
C
100
AcDbDictionary
281
     1
  3
CANNOSCALE
350
783
  3
CMLEADERSTYLE
350
782
  3
CTABLESTYLE
350
710
  3
DIMASSOC
350
72C
  3
INDEXCTL
350
72B
  3
SORTENTS
350
72A
  3
XCLIPFRAME
350
AB5
  0
XRECORD
  5
C16
102
{ACAD_REACTORS
330
C
102
}
330
C
100
AcDbXrecord
280
     1
  1
DWGPROPS COOKIE
  2

  3

  4

  6

  7

  8
imamura
  9

300
=
301
=
302
=
303
=
304
=
305
=
306
=
307
=
308
=
309
=
 40
0.0753887384259259
 41
2455467.768131863
 42
2456861.436011875
  1

 90
        0
  0
DICTIONARY
  5
5C5
102
{ACAD_REACTORS
330
5C4
102
}
330
5C4
100
AcDbDictionary
281
     1
  0
XRECORD
  5
77F
102
{ACAD_REACTORS
330
77E
102
}
330
77E
100
AcDbXrecord
280
     1
290
     1
  0
SORTENTSTABLE
  5
6F9
102
{ACAD_REACTORS
330
6F8
102
}
330
6F8
100
AcDbSortentsTable
330
36
331
26F
  5
2DF
331
26B
  5
2DB
331
1F1
  5
29B
331
137
  5
1E6
331
2A6
  5
361
331
1ED
  5
297
331
133
  5
1E2
331
39F
  5
463
331
2E1
  5
39C
331
267
  5
2D7
331
2A2
  5
35D
331
1E9
  5
293
331
35C
  5
419
331
263
  5
2D3
331
48F
  5
70D
331
415
  5
4E1
331
39B
  5
45F
331
2DD
  5
398
331
358
  5
415
331
3D6
  5
4A7
331
2D9
  5
394
331
397
  5
458
331
505
  5
B4B
331
48B
  5
709
331
411
  5
4DD
331
B27
  5
3AD
331
3D2
  5
4A3
331
393
  5
454
331
4C6
  5
B0E
331
40D
  5
4D9
331
B23
  5
3A9
331
501
  5
B47
331
487
  5
6FD
331
4C2
  5
B0A
331
409
  5
4D5
331
4FD
  5
B43
331
483
  5
6F7
331
BDF
  5
BBF
331
6F6
  5
B9F
331
B65
  5
24E
331
8E7
  5
C06
331
4F9
  5
B3F
331
BDB
  5
BC3
331
B61
  5
24A
331
C4
  5
EB
331
8E3
  5
C02
331
7FD
  5
BF7
331
B5D
  5
3E8
331
B9C
  5
285
331
BD7
  5
BC7
331
FF
  5
126
331
C0
  5
E7
331
7F9
  5
BF3
331
C12
  5
BCF
331
B59
  5
3E4
331
B98
  5
281
331
BD3
  5
BCB
331
FB
  5
122
331
BC
  5
E3
331
B8
  5
DF
331
12F
  5
198
331
29E
  5
359
331
1E5
  5
28F
331
12B
  5
194
331
25F
  5
2CF
331
29A
  5
355
331
127
  5
18B
331
354
  5
411
331
25B
  5
2CB
331
2D5
  5
390
331
296
  5
351
331
123
  5
17C
331
350
  5
40D
331
257
  5
2C7
331
3CE
  5
49F
331
2D1
  5
38C
331
38F
  5
450
331
B1F
  5
3A5
331
292
  5
34D
331
199
  5
245
331
34C
  5
409
331
253
  5
2C3
331
3CA
  5
49A
331
2CD
  5
388
331
38B
  5
44B
331
444
  5
513
331
B1B
  5
3A1
331
4BE
  5
B06
331
405
  5
4D1
331
47F
  5
6F1
331
348
  5
405
331
3C6
  5
496
331
2C9
  5
384
331
440
  5
50F
331
387
  5
444
331
4BA
  5
B02
331
401
  5
4CD
331
53C
  5
B91
331
47B
  5
5D8
331
4F5
  5
B3B
331
6FE
  5
7FA
331
3C2
  5
492
331
43C
  5
50B
331
383
  5
440
331
538
  5
B8D
331
4B6
  5
AFE
331
3FD
  5
4C9
331
4F1
  5
B38
331
8DF
  5
BFE
331
6FA
  5
7F6
331
438
  5
507
331
4B2
  5
AFA
331
3F9
  5
4C5
331
8DB
  5
BFA
331
4ED
  5
B34
331
473
  5
5D5
331
7F5
  5
BEF
331
B55
  5
3E0
331
B94
  5
27D
331
BCF
  5
BD1
331
C0E
  5
94
331
F7
  5
11E
331
9E6
  5
C0F
331
7F1
  5
BEB
331
B51
  5
3D7
331
B90
  5
279
331
BCB
  5
BD5
331
C0A
  5
9E
331
F3
  5
11A
331
B4
  5
DB
331
7ED
  5
BE7
331
B4D
  5
3D3
331
B8C
  5
275
331
BC7
  5
BD9
331
C06
  5
A0
331
EF
  5
116
331
B0
  5
D7
331
7E9
  5
BE3
331
B49
  5
3CF
331
B88
  5
271
331
BC3
  5
BDD
331
C02
  5
A7
331
EB
  5
112
331
AC
  5
D3
331
A8
  5
CF
331
11F
  5
16C
331
15A
  5
1FA
331
28E
  5
349
331
195
  5
23E
331
11B
  5
159
331
24F
  5
2BF
331
28A
  5
345
331
117
  5
14F
331
344
  5
401
331
24B
  5
2BB
331
2C5
  5
380
331
286
  5
341
331
18D
  5
239
331
113
  5
13A
331
340
  5
3FD
331
247
  5
2B7
331
3BE
  5
48E
331
2C1
  5
37C
331
37F
  5
43C
331
33C
  5
3F9
331
282
  5
33D
331
3BA
  5
48A
331
2BD
  5
378
331
434
  5
503
331
37B
  5
438
331
4AE
  5
AF6
331
3F5
  5
4C1
331
338
  5
3F5
331
3B6
  5
486
331
2B9
  5
374
331
430
  5
4FF
331
377
  5
434
331
4AA
  5
8ED
331
3F1
  5
4BD
331
524
  5
B69
331
46B
  5
5D3
331
4E5
  5
B2D
331
3B2
  5
482
331
42C
  5
4FB
331
373
  5
430
331
4A6
  5
8E9
331
3ED
  5
4B9
331
520
  5
B65
331
467
  5
543
331
4E1
  5
B29
331
428
  5
4F7
331
4A2
  5
8E5
331
3E9
  5
4B5
331
51C
  5
B61
331
463
  5
53F
331
4DD
  5
B25
331
8EC
  5
C0B
331
86
  5
AD
331
B45
  5
3CB
331
B84
  5
26D
331
BBF
  5
BE1
331
BFE
  5
A9
331
E7
  5
10E
331
518
  5
B5D
331
8E8
  5
C07
331
4D9
  5
B21
331
BBB
  5
C13
331
BFA
  5
BA0
331
B41
  5
3C7
331
B80
  5
269
331
E3
  5
10A
331
A4
  5
CB
331
BF6
  5
BA4
331
B3D
  5
3C3
331
B7C
  5
265
331
DF
  5
106
331
A0
  5
C7
331
BB7
  5
88
331
BF2
  5
BA8
331
B39
  5
3BF
331
B78
  5
261
331
DB
  5
102
331
9C
  5
C3
331
98
  5
BF
331
10F
  5
136
331
27E
  5
339
331
185
  5
222
331
10B
  5
132
331
23F
  5
2B3
331
14E
  5
1EE
331
27A
  5
335
331
107
  5
12E
331
334
  5
3F1
331
23B
  5
2AF
331
2B5
  5
370
331
330
  5
3ED
331
276
  5
331
331
17D
  5
21A
331
103
  5
12A
331
3AE
  5
47E
331
2B1
  5
36C
331
36F
  5
42C
331
3AA
  5
47A
331
2AD
  5
368
331
272
  5
2E2
331
424
  5
4F2
331
36B
  5
428
331
49E
  5
8E1
331
3E5
  5
4B1
331
45F
  5
53B
331
3A6
  5
46B
331
2A9
  5
364
331
420
  5
4EE
331
367
  5
424
331
514
  5
B59
331
49A
  5
7F1
331
3E1
  5
4AD
331
4D5
  5
B1D
331
3A2
  5
466
331
496
  5
7ED
331
41C
  5
4E8
331
363
  5
420
331
510
  5
B55
331
457
  5
536
331
542
  5
B97
331
4D1
  5
B19
331
418
  5
4E4
331
492
  5
7E9
331
3D9
  5
4AA
331
50C
  5
B52
331
453
  5
51E
331
4CD
  5
B15
331
BEE
  5
BAC
331
B35
  5
3BB
331
B74
  5
25D
331
D7
  5
FE
331
BAF
  5
99
331
508
  5
B4E
331
4C9
  5
B11
331
BEA
  5
BB0
331
B31
  5
3B7
331
B70
  5
259
331
D3
  5
FA
331
BAB
  5
A5
331
94
  5
BB
331
BE6
  5
BB4
331
705
  5
8DC
331
B2D
  5
3B3
331
B6C
  5
255
331
BA7
  5
1EB
331
CF
  5
F6
331
90
  5
B7
331
BE2
  5
BB8
331
701
  5
7FD
331
B29
  5
3AF
331
B68
  5
251
331
BA3
  5
23A
331
CB
  5
F2
331
8C
  5
B3
331
88
  5
AF
331
26E
  5
2DE
331
13A
  5
1E9
331
175
  5
212
331
26A
  5
2DA
331
1F0
  5
29A
331
136
  5
1E5
331
2A5
  5
360
331
1EC
  5
296
331
132
  5
19B
331
35F
  5
41C
331
266
  5
2D6
331
39E
  5
462
331
2E0
  5
39B
331
2A1
  5
35C
331
1E8
  5
292
331
35B
  5
418
331
262
  5
2D2
331
48E
  5
70C
331
414
  5
4E0
331
39A
  5
45E
331
2DC
  5
397
331
3D5
  5
4A6
331
2D8
  5
393
331
396
  5
457
331
44F
  5
51A
331
B26
  5
3AC
331
504
  5
B4A
331
48A
  5
700
331
410
  5
4DC
331
3D1
  5
4A2
331
392
  5
453
331
44B
  5
517
331
B22
  5
3A8
331
4C5
  5
B0D
331
40C
  5
4D8
331
6EF
  5
B9B
331
486
  5
6FC
331
500
  5
B46
331
4C1
  5
B09
331
408
  5
4D4
331
4FC
  5
B42
331
482
  5
6F6
331
BDE
  5
BBE
331
6F5
  5
B9E
331
B64
  5
24D
331
C7
  5
EE
331
8E6
  5
C05
331
4F8
  5
B3E
331
B9F
  5
288
331
BDA
  5
BC2
331
6F1
  5
B9C
331
B60
  5
249
331
C3
  5
EA
331
8E2
  5
C01
331
7FC
  5
BF6
331
B5C
  5
3E7
331
B9B
  5
284
331
BD6
  5
BC6
331
FE
  5
125
331
BF
  5
E6
331
7F8
  5
BF2
331
B58
  5
3E3
331
BD2
  5
BCA
331
C11
  5
8E
331
FA
  5
121
331
BB
  5
E2
331
16D
  5
20A
331
12E
  5
197
331
29D
  5
358
331
1E4
  5
28E
331
12A
  5
193
331
357
  5
414
331
25E
  5
2CE
331
165
  5
202
331
299
  5
354
331
126
  5
185
331
353
  5
410
331
25A
  5
2CA
331
2D4
  5
38F
331
295
  5
350
331
122
  5
175
331
34F
  5
40C
331
256
  5
2C6
331
3CD
  5
49E
331
2D0
  5
38B
331
38E
  5
44F
331
B1E
  5
3A4
331
291
  5
34C
331
198
  5
244
331
34B
  5
408
331
252
  5
2C2
331
3C9
  5
499
331
2CC
  5
387
331
38A
  5
449
331
443
  5
512
331
B1A
  5
3A0
331
4BD
  5
B05
331
404
  5
4D0
331
53F
  5
B94
331
47E
  5
6EF
331
3C5
  5
495
331
2C8
  5
383
331
43F
  5
50E
331
386
  5
443
331
4B9
  5
B01
331
400
  5
4CC
331
53B
  5
B90
331
47A
  5
5D7
331
4F4
  5
B3A
331
6FD
  5
7F9
331
3C1
  5
491
331
43B
  5
50A
331
382
  5
43F
331
537
  5
B8C
331
4B5
  5
AFD
331
3FC
  5
4C8
331
8DE
  5
BFD
331
4F0
  5
B37
331
B97
  5
280
331
8DA
  5
BF9
331
4EC
  5
B33
331
4B1
  5
AF9
331
3F8
  5
4C4
331
7F4
  5
BEE
331
B54
  5
3DF
331
B93
  5
27C
331
BCE
  5
BD4
331
C0D
  5
93
331
F6
  5
11D
331
B7
  5
DE
331
9E5
  5
C0E
331
4E8
  5
B30
331
7F0
  5
BEA
331
B50
  5
3D6
331
B8F
  5
278
331
BCA
  5
BD8
331
C09
  5
9D
331
F2
  5
119
331
B3
  5
DA
331
7EC
  5
BE6
331
B4C
  5
3D2
331
B8B
  5
274
331
BC6
  5
BDC
331
C05
  5
9F
331
EE
  5
115
331
AF
  5
D6
331
7E8
  5
BE2
331
B48
  5
3CE
331
BC2
  5
BE0
331
C01
  5
A6
331
EA
  5
111
331
AB
  5
D2
331
11E
  5
165
331
159
  5
1F9
331
28D
  5
348
331
194
  5
23D
331
11A
  5
158
331
347
  5
404
331
24E
  5
2BE
331
289
  5
344
331
116
  5
14E
331
343
  5
400
331
24A
  5
2BA
331
2C4
  5
37F
331
33F
  5
3FC
331
285
  5
340
331
18C
  5
232
331
112
  5
139
331
3BD
  5
48D
331
2C0
  5
37B
331
437
  5
506
331
37E
  5
43B
331
33B
  5
3F8
331
281
  5
33C
331
3B9
  5
489
331
2BC
  5
377
331
433
  5
502
331
37A
  5
437
331
4AD
  5
9E6
331
3F4
  5
4C0
331
3B5
  5
485
331
2B8
  5
373
331
42F
  5
4FE
331
376
  5
433
331
523
  5
B68
331
4A9
  5
8EC
331
3F0
  5
4BC
331
4E4
  5
B2C
331
3B1
  5
481
331
42B
  5
4FA
331
372
  5
42F
331
4A5
  5
8E8
331
3EC
  5
4B8
331
51F
  5
B64
331
466
  5
542
331
4E0
  5
B28
331
B87
  5
270
331
4A1
  5
8E4
331
3E8
  5
4B4
331
51B
  5
B60
331
462
  5
53E
331
8EB
  5
C0A
331
4DC
  5
B24
331
B44
  5
3CA
331
B83
  5
26C
331
BBE
  5
C12
331
BFD
  5
AC
331
E6
  5
10D
331
A7
  5
CE
331
4D8
  5
B20
331
BF9
  5
BA3
331
B40
  5
3C6
331
B7F
  5
268
331
E2
  5
109
331
A3
  5
CA
331
BF5
  5
BA7
331
B3C
  5
3C2
331
B7B
  5
264
331
DE
  5
105
331
9F
  5
C6
331
BB6
  5
87
331
BF1
  5
BAB
331
B38
  5
3BE
331
DA
  5
101
331
9B
  5
C2
331
10E
  5
135
331
27D
  5
338
331
184
  5
221
331
10A
  5
131
331
337
  5
3F4
331
23E
  5
2B2
331
14D
  5
1ED
331
279
  5
334
331
106
  5
12D
331
333
  5
3F0
331
23A
  5
2AE
331
2B4
  5
36F
331
32F
  5
3EC
331
275
  5
330
331
17C
  5
219
331
102
  5
129
331
3AD
  5
47D
331
2B0
  5
36B
331
427
  5
4F6
331
36E
  5
42B
331
271
  5
2E1
331
3A9
  5
479
331
2AC
  5
367
331
232
  5
2AC
331
423
  5
4F1
331
36A
  5
427
331
49D
  5
7F4
331
3E4
  5
4B0
331
517
  5
B5C
331
45E
  5
53A
331
3A5
  5
469
331
2A8
  5
363
331
41F
  5
4EC
331
366
  5
423
331
513
  5
B58
331
499
  5
7F0
331
3E0
  5
4AC
331
4D4
  5
B1C
331
3A1
  5
465
331
495
  5
7EC
331
41B
  5
4E7
331
362
  5
41F
331
50F
  5
B54
331
456
  5
535
331
541
  5
B96
331
4D0
  5
B18
331
B77
  5
260
331
491
  5
7E8
331
3D8
  5
4A9
331
50B
  5
B51
331
452
  5
51D
331
4CC
  5
B14
331
BED
  5
BAF
331
B34
  5
3BA
331
B73
  5
25C
331
D6
  5
FD
331
97
  5
BE
331
4C8
  5
B10
331
BE9
  5
BB3
331
708
  5
8DF
331
B30
  5
3B6
331
B6F
  5
258
331
D2
  5
F9
331
BAA
  5
A4
331
93
  5
BA
331
BE5
  5
BB7
331
704
  5
8DB
331
B2C
  5
3B2
331
B6B
  5
254
331
BA6
  5
22A
331
CE
  5
F5
331
8F
  5
B6
331
BE1
  5
BBD
331
700
  5
7FC
331
B28
  5
3AE
331
BA2
  5
28B
331
CA
  5
F1
331
8B
  5
B2
331
26D
  5
2DD
331
139
  5
1E8
331
174
  5
211
331
269
  5
2D9
331
1EF
  5
299
331
135
  5
1E4
331
22A
  5
2AA
331
131
  5
19A
331
2A4
  5
35F
331
1EB
  5
295
331
35E
  5
41B
331
265
  5
2D5
331
417
  5
4E3
331
39D
  5
461
331
2DF
  5
39A
331
2A0
  5
35B
331
35A
  5
417
331
261
  5
2D1
331
507
  5
B4D
331
48D
  5
70B
331
413
  5
4DF
331
399
  5
45D
331
2DB
  5
396
331
3D4
  5
4A5
331
395
  5
456
331
44E
  5
519
331
B25
  5
3AB
331
503
  5
B49
331
489
  5
6FF
331
40F
  5
4DB
331
3D0
  5
4A1
331
391
  5
452
331
4C4
  5
B0C
331
40B
  5
4D7
331
B21
  5
3A7
331
6EE
  5
B9A
331
485
  5
6FB
331
4FF
  5
B45
331
B67
  5
250
331
4C0
  5
B08
331
4FB
  5
B41
331
481
  5
6F5
331
BDD
  5
BC1
331
6F4
  5
B9D
331
B63
  5
24C
331
C6
  5
ED
331
8E5
  5
C04
331
BD9
  5
BC5
331
B5F
  5
3EA
331
B9E
  5
287
331
C2
  5
E9
331
8E1
  5
C00
331
7FB
  5
BF5
331
B5B
  5
3E6
331
B9A
  5
283
331
BD5
  5
BC9
331
FD
  5
124
331
BE
  5
E5
331
BD1
  5
BCD
331
C10
  5
8D
331
F9
  5
120
331
BA
  5
E1
331
16C
  5
209
331
1E7
  5
291
331
12D
  5
196
331
222
  5
2A8
331
129
  5
18D
331
29C
  5
357
331
1E3
  5
28D
331
356
  5
413
331
25D
  5
2CD
331
2D7
  5
392
331
164
  5
201
331
298
  5
353
331
125
  5
184
331
352
  5
40F
331
259
  5
2C9
331
2D3
  5
38E
331
21A
  5
2A6
331
121
  5
174
331
294
  5
34F
331
19B
  5
248
331
34E
  5
40B
331
255
  5
2C5
331
3CC
  5
49D
331
2CF
  5
38A
331
38D
  5
44E
331
446
  5
515
331
B1D
  5
3A3
331
407
  5
4D3
331
290
  5
34B
331
34A
  5
407
331
251
  5
2C1
331
3C8
  5
498
331
2CB
  5
386
331
389
  5
446
331
442
  5
511
331
B19
  5
39F
331
4BC
  5
B04
331
403
  5
4CF
331
53E
  5
B93
331
47D
  5
6EE
331
4F7
  5
B3D
331
3C4
  5
494
331
43E
  5
50D
331
385
  5
442
331
4B8
  5
B00
331
3FF
  5
4CB
331
53A
  5
B8F
331
479
  5
5D6
331
6FC
  5
7F8
331
3C0
  5
490
331
43A
  5
509
331
381
  5
43E
331
536
  5
B8B
331
4B4
  5
AFC
331
3FB
  5
4C7
331
8DD
  5
BFC
331
4EF
  5
B36
331
7F7
  5
BF1
331
B57
  5
3E2
331
B96
  5
27F
331
4EB
  5
B32
331
4B0
  5
AF8
331
7F3
  5
BED
331
B53
  5
3D9
331
B92
  5
27B
331
BCD
  5
BD3
331
C0C
  5
92
331
F5
  5
11C
331
B6
  5
DD
331
7EF
  5
BE9
331
B4F
  5
3D5
331
B8E
  5
277
331
BC9
  5
BD7
331
C08
  5
9C
331
F1
  5
118
331
B2
  5
D9
331
7EB
  5
BE5
331
B4B
  5
3D1
331
B8A
  5
273
331
BC5
  5
BDB
331
C04
  5
A2
331
ED
  5
114
331
AE
  5
D5
331
BC1
  5
BDF
331
C00
  5
AB
331
E9
  5
110
331
AA
  5
D1
331
197
  5
240
331
11D
  5
164
331
158
  5
1F2
331
212
  5
2A4
331
119
  5
157
331
28C
  5
347
331
193
  5
23C
331
346
  5
403
331
24D
  5
2BD
331
2C7
  5
382
331
288
  5
343
331
115
  5
14D
331
342
  5
3FF
331
249
  5
2B9
331
2C3
  5
37E
331
150
  5
1F0
331
20A
  5
2A2
331
111
  5
138
331
284
  5
33F
331
18B
  5
231
331
33E
  5
3FB
331
245
  5
2B6
331
3BC
  5
48C
331
2BF
  5
37A
331
436
  5
505
331
37D
  5
43A
331
3F7
  5
4C3
331
33A
  5
3F7
331
280
  5
33B
331
3B8
  5
488
331
2BB
  5
376
331
432
  5
501
331
379
  5
436
331
4AC
  5
9E5
331
3F3
  5
4BF
331
4E7
  5
B2F
331
46D
  5
5D4
331
3B4
  5
484
331
42E
  5
4FD
331
375
  5
432
331
4A8
  5
8EB
331
3EF
  5
4BB
331
522
  5
B67
331
469
  5
5D2
331
4E3
  5
B2B
331
3B0
  5
480
331
42A
  5
4F9
331
371
  5
42E
331
4A4
  5
8E7
331
3EB
  5
4B7
331
51E
  5
B63
331
465
  5
541
331
8EE
  5
C0D
331
4DF
  5
B27
331
B47
  5
3CD
331
B86
  5
26F
331
4A0
  5
8E3
331
51A
  5
B5F
331
461
  5
53D
331
8EA
  5
C09
331
4DB
  5
B23
331
BBD
  5
C11
331
BFC
  5
BA2
331
B43
  5
3C9
331
B82
  5
26B
331
E5
  5
10C
331
A6
  5
CD
331
BF8
  5
BA6
331
B3F
  5
3C5
331
B7E
  5
267
331
E1
  5
108
331
A2
  5
C9
331
BF4
  5
BAA
331
B3B
  5
3C1
331
B7A
  5
263
331
DD
  5
104
331
9E
  5
C5
331
BB5
  5
86
331
BF0
  5
BAE
331
D9
  5
100
331
BB1
  5
9B
331
9A
  5
C1
331
10D
  5
134
331
27C
  5
337
331
202
  5
2A0
331
109
  5
130
331
336
  5
3F3
331
23D
  5
2B1
331
2B7
  5
372
331
278
  5
333
331
105
  5
12C
331
332
  5
3EF
331
239
  5
2AD
331
2B3
  5
36E
331
148
  5
1EA
331
32E
  5
3EB
331
274
  5
32F
331
1FA
  5
29E
331
101
  5
128
331
3AC
  5
47C
331
2AF
  5
36A
331
426
  5
4F5
331
36D
  5
42A
331
3E7
  5
4B3
331
270
  5
2E0
331
3A8
  5
473
331
2AB
  5
366
331
231
  5
2AB
331
422
  5
4F0
331
369
  5
426
331
49C
  5
7F3
331
3E3
  5
4AF
331
516
  5
B5B
331
45D
  5
539
331
4D7
  5
B1F
331
3A4
  5
468
331
41E
  5
4EB
331
365
  5
422
331
498
  5
7EF
331
3DF
  5
4AB
331
512
  5
B57
331
459
  5
538
331
544
  5
B99
331
4D3
  5
B1B
331
3A0
  5
464
331
494
  5
7EB
331
41A
  5
4E6
331
361
  5
41E
331
540
  5
B95
331
4CF
  5
B17
331
455
  5
522
331
B37
  5
3BD
331
B76
  5
25F
331
490
  5
70E
331
50A
  5
B50
331
451
  5
51C
331
4CB
  5
B13
331
BEC
  5
BB2
331
B33
  5
3B9
331
B72
  5
25B
331
D5
  5
FC
331
96
  5
BD
331
BE8
  5
BB6
331
707
  5
8DE
331
B2F
  5
3B5
331
B6E
  5
257
331
D1
  5
F8
331
BA9
  5
A3
331
92
  5
B9
331
BE4
  5
BBC
331
703
  5
8DA
331
B2B
  5
3B1
331
B6A
  5
253
331
BA5
  5
229
331
CD
  5
F4
331
8E
  5
B5
331
BE0
  5
BC0
331
BA1
  5
28A
331
C9
  5
F0
331
8A
  5
B1
331
26C
  5
2DC
331
1F2
  5
29C
331
138
  5
1E7
331
2A7
  5
362
331
1EE
  5
298
331
134
  5
1E3
331
2E2
  5
39D
331
268
  5
2D8
331
229
  5
2A9
331
130
  5
199
331
2A3
  5
35E
331
1EA
  5
294
331
35D
  5
41A
331
264
  5
2D4
331
416
  5
4E2
331
39C
  5
460
331
2DE
  5
399
331
359
  5
416
331
260
  5
2D0
331
3D7
  5
4A8
331
2DA
  5
395
331
506
  5
B4C
331
48C
  5
70A
331
412
  5
4DE
331
398
  5
459
331
3D3
  5
4A4
331
394
  5
455
331
44D
  5
518
331
B24
  5
3AA
331
4C7
  5
B0F
331
40E
  5
4DA
331
502
  5
B48
331
488
  5
6FE
331
390
  5
451
331
449
  5
516
331
B20
  5
3A6
331
4C3
  5
B0B
331
40A
  5
4D6
331
4FE
  5
B44
331
484
  5
6FA
331
6F7
  5
7F5
331
B66
  5
24F
331
4FA
  5
B40
331
480
  5
6F4
331
BDC
  5
BC4
331
B62
  5
24B
331
C5
  5
EC
331
8E4
  5
C03
331
7FE
  5
BF8
331
B5E
  5
3E9
331
B9D
  5
286
331
BD8
  5
BC8
331
C1
  5
E8
331
8E0
  5
BFF
331
7FA
  5
BF4
331
C13
  5
BD0
331
B5A
  5
3E5
331
B99
  5
282
331
BD4
  5
BCC
331
FC
  5
123
331
BD
  5
E4
331
F8
  5
11F
331
B9
  5
E0
331
29F
  5
35A
331
1E6
  5
290
331
12C
  5
195
331
221
  5
2A7
331
128
  5
18C
331
29B
  5
356
331
1E2
  5
28C
331
355
  5
412
331
25C
  5
2CC
331
2D6
  5
391
331
297
  5
352
331
124
  5
17D
331
351
  5
40E
331
258
  5
2C8
331
3CF
  5
4A0
331
2D2
  5
38D
331
219
  5
2A5
331
120
  5
16D
331
293
  5
34E
331
19A
  5
247
331
34D
  5
40A
331
254
  5
2C4
331
3CB
  5
49C
331
2CE
  5
389
331
38C
  5
44D
331
445
  5
514
331
B1C
  5
3A2
331
4BF
  5
B07
331
406
  5
4D2
331
349
  5
406
331
250
  5
2C0
331
3C7
  5
497
331
2CA
  5
385
331
388
  5
445
331
441
  5
510
331
B18
  5
39E
331
4BB
  5
B03
331
402
  5
4CE
331
53D
  5
B92
331
47C
  5
5D9
331
4F6
  5
B3C
331
6FF
  5
7FB
331
3C3
  5
493
331
43D
  5
50C
331
384
  5
441
331
539
  5
B8E
331
4B7
  5
AFF
331
3FE
  5
4CA
331
4F2
  5
B39
331
6FB
  5
7F7
331
439
  5
508
331
380
  5
43D
331
535
  5
B6A
331
4B3
  5
AFB
331
3FA
  5
4C6
331
8DC
  5
BFB
331
4EE
  5
B35
331
7F6
  5
BF0
331
B56
  5
3E1
331
B95
  5
27E
331
C0F
  5
8C
331
4EA
  5
B31
331
7F2
  5
BEC
331
B52
  5
3D8
331
B91
  5
27A
331
BCC
  5
BD2
331
C0B
  5
98
331
F4
  5
11B
331
B5
  5
DC
331
7EE
  5
BE8
331
B4E
  5
3D4
331
B8D
  5
276
331
BC8
  5
BD6
331
C07
  5
A1
331
F0
  5
117
331
B1
  5
D8
331
7EA
  5
BE4
331
B4A
  5
3D0
331
B89
  5
272
331
BC4
  5
BDA
331
C03
  5
A8
331
EC
  5
113
331
AD
  5
D4
331
BC0
  5
BDE
331
E8
  5
10F
331
A9
  5
D0
331
28F
  5
34A
331
196
  5
23F
331
11C
  5
15A
331
157
  5
1F1
331
28B
  5
346
331
211
  5
2A3
331
118
  5
150
331
345
  5
402
331
24C
  5
2BC
331
2C6
  5
381
331
287
  5
342
331
114
  5
148
331
341
  5
3FE
331
248
  5
2B8
331
3BF
  5
48F
331
2C2
  5
37D
331
283
  5
33E
331
209
  5
2A1
331
110
  5
137
331
33D
  5
3FA
331
244
  5
2B5
331
3BB
  5
48B
331
2BE
  5
379
331
435
  5
504
331
37C
  5
439
331
4AF
  5
AF7
331
3F6
  5
4C2
331
339
  5
3F6
331
240
  5
2B4
331
3B7
  5
487
331
2BA
  5
375
331
431
  5
500
331
378
  5
435
331
4E6
  5
B2E
331
4AB
  5
8EE
331
3F2
  5
4BE
331
3B3
  5
483
331
42D
  5
4FC
331
374
  5
431
331
4A7
  5
8EA
331
3EE
  5
4BA
331
521
  5
B66
331
468
  5
544
331
4E2
  5
B2A
331
429
  5
4F8
331
370
  5
42D
331
4A3
  5
8E6
331
3EA
  5
4B6
331
51D
  5
B62
331
464
  5
540
331
4DE
  5
B26
331
8ED
  5
C0C
331
87
  5
AE
331
B46
  5
3CC
331
B85
  5
26E
331
BFF
  5
AA
331
519
  5
B5E
331
460
  5
53C
331
8E9
  5
C08
331
4DA
  5
B22
331
BBC
  5
C10
331
BFB
  5
BA1
331
B42
  5
3C8
331
B81
  5
26A
331
E4
  5
10B
331
A5
  5
CC
331
BF7
  5
BA5
331
B3E
  5
3C4
331
B7D
  5
266
331
A1
  5
C8
331
E0
  5
107
331
BF3
  5
BA9
331
B3A
  5
3C0
331
B79
  5
262
331
DC
  5
103
331
9D
  5
C4
331
D8
  5
FF
331
BB0
  5
9A
331
99
  5
C0
331
27F
  5
33A
331
10C
  5
133
331
14F
  5
1EF
331
27B
  5
336
331
201
  5
29F
331
108
  5
12F
331
335
  5
3F2
331
23C
  5
2B0
331
2B6
  5
371
331
331
  5
3EE
331
277
  5
332
331
104
  5
12B
331
3AF
  5
47F
331
2B2
  5
36D
331
3AB
  5
47B
331
2AE
  5
369
331
273
  5
32E
331
1F9
  5
29D
331
100
  5
127
331
425
  5
4F4
331
36C
  5
429
331
49F
  5
8E2
331
3E6
  5
4B2
331
3A7
  5
46D
331
2AA
  5
365
331
421
  5
4EF
331
368
  5
425
331
515
  5
B5A
331
49B
  5
7F2
331
3E2
  5
4AE
331
4D6
  5
B1E
331
3A3
  5
467
331
497
  5
7EE
331
41D
  5
4EA
331
364
  5
421
331
511
  5
B56
331
458
  5
537
331
543
  5
B98
331
4D2
  5
B1A
331
493
  5
7EA
331
419
  5
4E5
331
360
  5
41D
331
50D
  5
B53
331
454
  5
520
331
4CE
  5
B16
331
BEF
  5
BAD
331
70E
  5
8E0
331
B36
  5
3BC
331
B75
  5
25E
331
509
  5
B4F
331
450
  5
51B
331
4CA
  5
B12
331
BEB
  5
BB1
331
B32
  5
3B8
331
B71
  5
25A
331
D4
  5
FB
331
95
  5
BC
331
BE7
  5
BB5
331
706
  5
8DD
331
B2E
  5
3B4
331
B6D
  5
256
331
BA8
  5
1EC
331
D0
  5
F7
331
91
  5
B8
331
BE3
  5
BBB
331
702
  5
7FE
331
B2A
  5
3B0
331
B69
  5
252
331
BA4
  5
23B
331
CC
  5
F3
331
8D
  5
B4
331
BA0
  5
289
331
C8
  5
EF
331
89
  5
B0
  0
XRECORD
  5
C19
102
{ACAD_REACTORS
330
C17
102
}
330
C17
100
AcDbXrecord
280
     1
 70
     2
  0
XRECORD
  5
C18
102
{ACAD_REACTORS
330
C17
102
}
330
C17
100
AcDbXrecord
280
     1
 40
1.25
  0
XRECORD
  5
C1A
102
{ACAD_REACTORS
330
C17
102
}
330
C17
100
AcDbXrecord
280
     1
 40
1.570796326794896
  0
LAYOUT
  5
39
102
{ACAD_XDICTIONARY
360
C3E
102
}
102
{ACAD_REACTORS
330
2E
102
}
330
2E
100
AcDbPlotSettings
  1

  2
none_device
  4
Letter_(8.50_x_11.00_Inches)
  6

 40
6.349999904632567
 41
6.349999904632567
 42
6.350006103515625
 43
6.350006103515625
 44
215.8999938964844
 45
279.3999938964844
 46
0.0
 47
0.0
 48
0.0
 49
0.0
140
0.0
141
0.0
142
1.0
143
138.4112067176314
 70
 11952
 72
     0
 73
     1
 74
     0
  7

 75
     0
147
0.0072248485055121
148
13192.89900044857
149
8705.345851658929
100
AcDbLayout
  1
Model
 70
     1
 71
     0
 10
0.0
 20
0.0
 11
12.0
 21
9.0
 12
0.0
 22
0.0
 32
0.0
 14
0.0
 24
0.0
 34
0.0
 15
0.0
 25
0.0
 35
0.0
146
0.0
 13
0.0
 23
0.0
 33
0.0
 16
1.0
 26
0.0
 36
0.0
 17
0.0
 27
1.0
 37
0.0
 76
     0
330
36
331
56
1001
ACAD_PSEXT
1000
なし
1000
なし
1000
適切ではありません
1000
新しいプロッタ環境設定名を選択しない限り、レイアウトは印刷されません。
1070
     0
  0
LAYOUT
  5
35
102
{ACAD_XDICTIONARY
360
C3C
102
}
102
{ACAD_REACTORS
330
2E
102
}
330
2E
100
AcDbPlotSettings
  1

  2
DocuPrint 305
  4

  6

 40
0.0
 41
0.0
 42
0.0
 43
0.0
 44
0.0
 45
0.0
 46
0.0
 47
0.0
 48
0.0
 49
0.0
140
0.0
141
0.0
142
1.0
143
1.0
 70
   688
 72
     0
 73
     0
 74
     5
  7

 75
    16
147
1.0
148
0.0
149
0.0
100
AcDbLayout
  1
レイアウト1
 70
     1
 71
     1
 10
0.0
 20
0.0
 11
12.0
 21
9.0
 12
0.0
 22
0.0
 32
0.0
 14
1.000000000000000E+20
 24
1.000000000000000E+20
 34
1.000000000000000E+20
 15
-1.000000000000000E+20
 25
-1.000000000000000E+20
 35
-1.000000000000000E+20
146
0.0
 13
0.0
 23
0.0
 33
0.0
 16
1.0
 26
0.0
 36
0.0
 17
0.0
 27
1.0
 37
0.0
 76
     0
330
32
  0
MATERIAL
  5
12
102
{ACAD_XDICTIONARY
360
734
102
}
102
{ACAD_REACTORS
330
10
102
}
330
10
100
AcDbMaterial
  1
ByBlock
  0
MATERIAL
  5
11
102
{ACAD_XDICTIONARY
360
732
102
}
102
{ACAD_REACTORS
330
10
102
}
330
10
100
AcDbMaterial
  1
ByLayer
  0
MATERIAL
  5
13
102
{ACAD_XDICTIONARY
360
736
102
}
102
{ACAD_REACTORS
330
10
102
}
330
10
100
AcDbMaterial
  1
Global
  0
MLEADERSTYLE
  5
761
102
{ACAD_REACTORS
330
760
102
}
330
760
100
AcDbMLeaderStyle
170
     2
171
     1
172
     0
 90
        2
 40
0.0
 41
0.0
173
     1
 91
-1056964608
340
28
 92
       -2
290
     1
 42
0.09
291
     1
 43
0.36
  3
Standard
 44
0.18
300

342
26
174
     1
178
     6
175
     1
176
     0
 93
-1056964608
 45
0.18
292
     0
297
     0
 46
0.18
 94
-1056964608
 47
1.0
 49
1.0
140
1.0
293
     1
141
0.0
294
     1
177
     0
142
1.0
295
     0
296
     0
143
0.125
1001
ACAD_MLEADERVER
1070
     2
  0
MLINESTYLE
  5
2C
102
{ACAD_REACTORS
330
2B
102
}
330
2B
100
AcDbMlineStyle
  2
STANDARD
 70
     0
  3

 62
   256
 51
90.0
 52
90.0
 71
     2
 49
0.5
 62
   256
  6
BYLAYER
 49
-0.5
 62
   256
  6
BYLAYER
  0
ACDBPLACEHOLDER
  5
F
102
{ACAD_REACTORS
330
E
102
}
330
E
  0
SCALE
  5
74F
102
{ACAD_REACTORS
330
74E
102
}
330
74E
100
AcDbScale
 70
     0
300
1:1
140
1.0
141
1.0
290
     1
  0
SCALE
  5
750
102
{ACAD_REACTORS
330
74E
102
}
330
74E
100
AcDbScale
 70
     0
300
1/128" = 1'-0"
140
0.0078125
141
12.0
290
     0
  0
SCALE
  5
751
102
{ACAD_REACTORS
330
74E
102
}
330
74E
100
AcDbScale
 70
     0
300
1/64" = 1'-0"
140
0.015625
141
12.0
290
     0
  0
SCALE
  5
752
102
{ACAD_REACTORS
330
74E
102
}
330
74E
100
AcDbScale
 70
     0
300
1/32" = 1'-0"
140
0.03125
141
12.0
290
     0
  0
SCALE
  5
753
102
{ACAD_REACTORS
330
74E
102
}
330
74E
100
AcDbScale
 70
     0
300
1/16" = 1'-0"
140
0.0625
141
12.0
290
     0
  0
SCALE
  5
754
102
{ACAD_REACTORS
330
74E
102
}
330
74E
100
AcDbScale
 70
     0
300
3/32" = 1'-0"
140
0.09375
141
12.0
290
     0
  0
SCALE
  5
755
102
{ACAD_REACTORS
330
74E
102
}
330
74E
100
AcDbScale
 70
     0
300
1/8" = 1'-0"
140
0.125
141
12.0
290
     0
  0
SCALE
  5
756
102
{ACAD_REACTORS
330
74E
102
}
330
74E
100
AcDbScale
 70
     0
300
3/16" = 1'-0"
140
0.1875
141
12.0
290
     0
  0
SCALE
  5
757
102
{ACAD_REACTORS
330
74E
102
}
330
74E
100
AcDbScale
 70
     0
300
1/4" = 1'-0"
140
0.25
141
12.0
290
     0
  0
SCALE
  5
758
102
{ACAD_REACTORS
330
74E
102
}
330
74E
100
AcDbScale
 70
     0
300
3/8" = 1'-0"
140
0.375
141
12.0
290
     0
  0
SCALE
  5
759
102
{ACAD_REACTORS
330
74E
102
}
330
74E
100
AcDbScale
 70
     0
300
1/2" = 1'-0"
140
0.5
141
12.0
290
     0
  0
SCALE
  5
75A
102
{ACAD_REACTORS
330
74E
102
}
330
74E
100
AcDbScale
 70
     0
300
3/4" = 1'-0"
140
0.75
141
12.0
290
     0
  0
SCALE
  5
75B
102
{ACAD_REACTORS
330
74E
102
}
330
74E
100
AcDbScale
 70
     0
300
1" = 1'-0"
140
1.0
141
12.0
290
     0
  0
SCALE
  5
75C
102
{ACAD_REACTORS
330
74E
102
}
330
74E
100
AcDbScale
 70
     0
300
1-1/2" = 1'-0"
140
1.5
141
12.0
290
     0
  0
SCALE
  5
75D
102
{ACAD_REACTORS
330
74E
102
}
330
74E
100
AcDbScale
 70
     0
300
3" = 1'-0"
140
3.0
141
12.0
290
     0
  0
SCALE
  5
75E
102
{ACAD_REACTORS
330
74E
102
}
330
74E
100
AcDbScale
 70
     0
300
6" = 1'-0"
140
6.0
141
12.0
290
     0
  0
SCALE
  5
75F
102
{ACAD_REACTORS
330
74E
102
}
330
74E
100
AcDbScale
 70
     0
300
1'-0" = 1'-0"
140
12.0
141
12.0
290
     0
  0
TABLESTYLE
  5
31
102
{ACAD_XDICTIONARY
360
785
102
}
102
{ACAD_REACTORS
330
30
102
}
330
30
100
AcDbTableStyle
  3
Standard
 70
     0
 71
     0
 40
0.06
 41
0.06
280
     0
281
     0
  7
STANDARD
140
0.18
170
     2
 62
     0
 63
     7
283
     0
274
    -2
284
     1
 64
     0
275
    -2
285
     1
 65
     0
276
    -2
286
     1
 66
     0
277
    -2
287
     1
 67
     0
278
    -2
288
     1
 68
     0
279
    -2
289
     1
 69
     0
  7
STANDARD
140
0.25
170
     5
 62
     0
 63
     7
283
     0
274
    -2
284
     1
 64
     0
275
    -2
285
     1
 65
     0
276
    -2
286
     1
 66
     0
277
    -2
287
     1
 67
     0
278
    -2
288
     1
 68
     0
279
    -2
289
     1
 69
     0
  7
STANDARD
140
0.18
170
     5
 62
     0
 63
     7
283
     0
274
    -2
284
     1
 64
     0
275
    -2
285
     1
 65
     0
276
    -2
286
     1
 66
     0
277
    -2
287
     1
 67
     0
278
    -2
288
     1
 68
     0
279
    -2
289
     1
 69
     0
  0
VISUALSTYLE
  5
1A
102
{ACAD_XDICTIONARY
360
C25
102
}
102
{ACAD_REACTORS
330
14
102
}
330
14
100
AcDbVisualStyle
  2

 70
     4
 71
     0
 72
     2
 73
     0
 90
        0
 40
-0.6
 41
-30.0
 62
     5
 63
     7
 74
     1
 91
        4
 64
     7
 65
   257
 75
     1
175
     1
 42
1.0
 92
        0
 66
   257
 43
1.0
 76
     1
 77
     6
 78
     2
 67
     7
 79
     5
170
     0
171
     0
290
     0
174
     0
 93
        1
 44
0.0
173
     0
291
     0
 45
0.0
1001
ACAD
1000
AcDbSavedByObjectVersion
1070
     0
  0
VISUALSTYLE
  5
1C
102
{ACAD_XDICTIONARY
360
C29
102
}
102
{ACAD_REACTORS
330
14
102
}
330
14
100
AcDbVisualStyle
  2

 70
     6
 71
     1
 72
     2
 73
     2
 90
        0
 40
-0.6
 41
-30.0
 62
     5
 63
     7
 74
     2
 91
        2
 64
     7
 65
   257
 75
     2
175
     1
 42
40.0
 92
        0
 66
   257
 43
1.0
 76
     1
 77
     6
 78
     2
 67
     7
 79
     3
170
     0
171
     0
290
     0
174
     0
 93
        1
 44
0.0
173
     0
291
     0
 45
0.0
1001
ACAD
1000
AcDbSavedByObjectVersion
1070
     0
  0
VISUALSTYLE
  5
1B
102
{ACAD_XDICTIONARY
360
C27
102
}
102
{ACAD_REACTORS
330
14
102
}
330
14
100
AcDbVisualStyle
  2

 70
     5
 71
     0
 72
     2
 73
     0
 90
        0
 40
-0.6
 41
-30.0
 62
     5
 63
     7
 74
     1
 91
        4
 64
     7
 65
   257
 75
     1
175
     1
 42
1.0
 92
        0
 66
   257
 43
1.0
 76
     1
 77
     6
 78
     2
 67
     7
 79
     5
170
     0
171
     0
290
     0
174
     0
 93
        1
 44
0.0
173
     0
291
     0
 45
0.0
1001
ACAD
1000
AcDbSavedByObjectVersion
1070
     0
  0
VISUALSTYLE
  5
19
102
{ACAD_XDICTIONARY
360
C23
102
}
102
{ACAD_REACTORS
330
14
102
}
330
14
100
AcDbVisualStyle
  2

 70
     7
 71
     1
 72
     0
 73
     1
 90
        0
 40
-0.6
 41
-30.0
 62
     5
 63
     7
 74
     0
 91
        4
 64
     7
 65
   257
 75
     1
175
     1
 42
1.0
 92
        8
 66
     7
 43
1.0
 76
     1
 77
     6
 78
     2
 67
     7
 79
     5
170
     0
171
     0
290
     0
174
     0
 93
        1
 44
0.0
173
     0
291
     1
 45
0.0
1001
ACAD
1000
AcDbSavedByObjectVersion
1070
     0
  0
VISUALSTYLE
  5
20
102
{ACAD_XDICTIONARY
360
C31
102
}
102
{ACAD_REACTORS
330
14
102
}
330
14
100
AcDbVisualStyle
  2

 70
    12
 71
     2
 72
     2
 73
     0
 90
        0
 40
-0.6
 41
-30.0
 62
     5
 63
     7
 74
     1
 91
        4
 64
     7
 65
   257
 75
     1
175
     1
 42
1.0
 92
        8
 66
     7
 43
1.0
 76
     1
 77
     6
 78
     2
 67
     7
 79
     5
170
     0
171
     0
290
     0
174
     0
 93
        1
 44
50.0
173
     0
291
     1
 45
0.0
1001
ACAD
1000
AcDbSavedByObjectVersion
1070
     0
  0
VISUALSTYLE
  5
24
102
{ACAD_XDICTIONARY
360
C39
102
}
102
{ACAD_REACTORS
330
14
102
}
330
14
100
AcDbVisualStyle
  2

 70
    16
 71
     2
 72
     2
 73
     3
 90
        0
 40
-0.6
 41
-30.0
 62
     5
 63
     8
 74
     1
 91
        4
 64
     7
 65
   257
 75
     1
175
     1
 42
1.0
 92
        8
 66
     8
 43
1.0
 76
     1
 77
     6
 78
     2
 67
     7
 79
     5
170
     0
171
     0
290
     0
174
     0
 93
        1
 44
0.0
173
     0
291
     1
 45
0.0
1001
ACAD
1000
AcDbSavedByObjectVersion
1070
     0
  0
VISUALSTYLE
  5
1D
102
{ACAD_XDICTIONARY
360
C2B
102
}
102
{ACAD_REACTORS
330
14
102
}
330
14
100
AcDbVisualStyle
  2

 70
     9
 71
     3
 72
     2
 73
     0
 90
        0
 40
-0.6
 41
-30.0
 62
     5
 63
     7
 74
     2
 91
        2
 64
     7
 65
   257
 75
     1
175
     1
 42
40.0
 92
        8
 66
     7
 43
1.0
 76
     1
 77
     6
 78
     2
 67
     7
 79
     3
170
     0
171
     0
290
     0
174
     0
 93
        1
 44
0.0
173
     0
291
     0
 45
0.0
1001
ACAD
1000
AcDbSavedByObjectVersion
1070
     0
  0
VISUALSTYLE
  5
1F
102
{ACAD_XDICTIONARY
360
C2F
102
}
102
{ACAD_REACTORS
330
14
102
}
330
14
100
AcDbVisualStyle
  2

 70
    11
 71
     2
 72
     2
 73
     0
 90
        0
 40
-0.6
 41
-30.0
 62
     5
 63
     7
 74
     1
 91
        4
 64
     7
 65
   257
 75
     1
175
     1
 42
1.0
 92
        8
 66
     7
 43
1.0
 76
     1
 77
     6
 78
     2
 67
     7
 79
     5
170
     0
171
     0
290
     0
174
     0
 93
        1
 44
-50.0
173
     0
291
     1
 45
0.0
1001
ACAD
1000
AcDbSavedByObjectVersion
1070
     0
  0
VISUALSTYLE
  5
74D
102
{ACAD_XDICTIONARY
360
C52
102
}
102
{ACAD_REACTORS
330
14
102
}
330
14
100
AcDbVisualStyle
  2

 70
    22
 71
     2
 72
     2
 73
     0
 90
        0
 40
-0.6
 41
-30.0
 62
     5
 63
     7
 74
     1
 91
        4
 64
     7
 65
   257
 75
     1
175
     1
 42
1.0
 92
        8
 66
     7
 43
1.0
 76
     1
 77
     6
 78
     2
 67
     7
 79
     5
170
     0
171
     0
290
     0
174
     0
 93
        1
 44
0.0
173
     0
291
     1
 45
0.0
1001
ACAD
1000
AcDbSavedByObjectVersion
1070
     0
  0
VISUALSTYLE
  5
23
102
{ACAD_XDICTIONARY
360
C37
102
}
102
{ACAD_REACTORS
330
14
102
}
330
14
100
AcDbVisualStyle
  2

 70
    15
 71
     2
 72
     2
 73
     0
 90
        0
 40
-0.6
 41
-30.0
 62
     5
 63
     7
 74
     1
 91
        4
 64
     7
 65
   257
 75
     1
175
     1
 42
1.0
 92
        8
 66
     7
 43
1.0
 76
     1
 77
     6
 78
     2
 67
     7
 79
     5
170
     0
171
     0
290
     0
174
     0
 93
        1
 44
0.0
173
     0
291
     1
 45
0.0
1001
ACAD
1000
AcDbSavedByObjectVersion
1070
     0
  0
VISUALSTYLE
  5
15
102
{ACAD_XDICTIONARY
360
C1B
102
}
102
{ACAD_REACTORS
330
14
102
}
330
14
100
AcDbVisualStyle
  2

 70
     0
 71
     2
 72
     1
 73
     1
 90
        2
 40
-0.6
 41
30.0
 62
     5
 63
     7
 74
     0
 91
        4
 64
     7
 65
   257
 75
     1
175
     1
 42
1.0
 92
        8
 66
     7
 43
1.0
 76
     1
 77
     6
 78
     2
 67
     7
 79
     5
170
     0
171
     0
290
     0
174
     0
 93
       13
 44
0.0
173
     0
291
     1
 45
0.0
1001
ACAD
1000
AcDbSavedByObjectVersion
1070
     0
  0
VISUALSTYLE
  5
16
102
{ACAD_XDICTIONARY
360
C1D
102
}
102
{ACAD_REACTORS
330
14
102
}
330
14
100
AcDbVisualStyle
  2

 70
     1
 71
     2
 72
     1
 73
     1
 90
        2
 40
-0.6
 41
30.0
 62
     5
 63
     7
 74
     1
 91
        4
 64
     7
 65
   257
 75
     1
175
     1
 42
1.0
 92
        0
 66
   257
 43
1.0
 76
     1
 77
     6
 78
     2
 67
     7
 79
     5
170
     0
171
     0
290
     0
174
     0
 93
       13
 44
0.0
173
     0
291
     1
 45
0.0
1001
ACAD
1000
AcDbSavedByObjectVersion
1070
     0
  0
VISUALSTYLE
  5
17
102
{ACAD_XDICTIONARY
360
C1F
102
}
102
{ACAD_REACTORS
330
14
102
}
330
14
100
AcDbVisualStyle
  2

 70
     2
 71
     2
 72
     2
 73
     1
 90
        2
 40
-0.6
 41
30.0
 62
     5
 63
     7
 74
     0
 91
        4
 64
     7
 65
   257
 75
     1
175
     1
 42
1.0
 92
        0
 66
     7
 43
1.0
 76
     1
 77
     6
 78
     2
 67
     7
 79
     5
170
     0
171
     0
290
     0
174
     0
 93
       13
 44
0.0
173
     0
291
     1
 45
0.0
1001
ACAD
1000
AcDbSavedByObjectVersion
1070
     0
  0
VISUALSTYLE
  5
18
102
{ACAD_XDICTIONARY
360
C21
102
}
102
{ACAD_REACTORS
330
14
102
}
330
14
100
AcDbVisualStyle
  2

 70
     3
 71
     2
 72
     2
 73
     1
 90
        2
 40
-0.6
 41
30.0
 62
     5
 63
     7
 74
     1
 91
        4
 64
     7
 65
   257
 75
     1
175
     1
 42
1.0
 92
        0
 66
   257
 43
1.0
 76
     1
 77
     6
 78
     2
 67
     7
 79
     5
170
     0
171
     0
290
     0
174
     0
 93
       13
 44
0.0
173
     0
291
     1
 45
0.0
1001
ACAD
1000
AcDbSavedByObjectVersion
1070
     0
  0
VISUALSTYLE
  5
745
102
{ACAD_XDICTIONARY
360
C42
102
}
102
{ACAD_REACTORS
330
14
102
}
330
14
100
AcDbVisualStyle
  2

 70
     6
 71
     1
 72
     2
 73
     2
 90
        0
 40
-0.6
 41
-30.0
 62
     5
 63
     7
 74
     2
 91
        2
 64
     7
 65
   257
 75
     2
175
     1
 42
40.0
 92
        0
 66
   257
 43
1.0
 76
     1
 77
     6
 78
     2
 67
     7
 79
     3
170
     0
171
     0
290
     0
174
     0
 93
        1
 44
0.0
173
     0
291
     0
 45
0.0
1001
ACAD
1000
AcDbSavedByObjectVersion
1070
     0
  0
VISUALSTYLE
  5
74B
102
{ACAD_XDICTIONARY
360
C4E
102
}
102
{ACAD_REACTORS
330
14
102
}
330
14
100
AcDbVisualStyle
  2

 70
    20
 71
     2
 72
     2
 73
     0
 90
        0
 40
-0.6
 41
-30.0
 62
     5
 63
     7
 74
     1
 91
        4
 64
     7
 65
   257
 75
     1
175
     1
 42
1.0
 92
       10
 66
     7
 43
1.0
 76
     1
 77
     6
 78
     2
 67
     7
 79
     5
170
     0
171
     0
290
     0
174
     0
 93
        1
 44
0.0
173
     0
291
     1
 45
0.0
1001
ACAD
1000
AcDbSavedByObjectVersion
1070
     0
  0
VISUALSTYLE
  5
22
102
{ACAD_XDICTIONARY
360
C35
102
}
102
{ACAD_REACTORS
330
14
102
}
330
14
100
AcDbVisualStyle
  2

 70
    14
 71
     2
 72
     2
 73
     0
 90
        0
 40
-0.6
 41
-30.0
 62
     5
 63
     7
 74
     1
 91
        4
 64
     7
 65
   257
 75
     7
175
     7
 42
1.0
 92
        8
 66
     7
 43
1.0
 76
     1
 77
     6
 78
     2
 67
     7
 79
     5
170
     0
171
     0
290
     0
174
     0
 93
        1
 44
0.0
173
     0
291
     1
 45
0.0
1001
ACAD
1000
AcDbSavedByObjectVersion
1070
     0
  0
VISUALSTYLE
  5
74C
102
{ACAD_XDICTIONARY
360
C50
102
}
102
{ACAD_REACTORS
330
14
102
}
330
14
100
AcDbVisualStyle
  2

 70
    21
 71
     2
 72
     2
 73
     0
 90
        0
 40
-0.6
 41
-30.0
 62
     5
 63
     7
 74
     1
 91
        4
 64
     7
 65
   257
 75
     1
175
     1
 42
1.0
 92
        9
 66
     7
 43
1.0
 76
     1
 77
     6
 78
     2
 67
     7
 79
     5
170
     0
171
     0
290
     0
174
     0
 93
        1
 44
0.0
173
     0
291
     1
 45
0.0
1001
ACAD
1000
AcDbSavedByObjectVersion
1070
     0
  0
VISUALSTYLE
  5
1E
102
{ACAD_XDICTIONARY
360
C2D
102
}
102
{ACAD_REACTORS
330
14
102
}
330
14
100
AcDbVisualStyle
  2

 70
     8
 71
     2
 72
     2
 73
     0
 90
        0
 40
-0.6
 41
-30.0
 62
     5
 63
     7
 74
     1
 91
        0
 64
     7
 65
   257
 75
     1
175
     1
 42
1.0
 92
        8
 66
     8
 43
1.0
 76
     1
 77
     6
 78
     2
 67
     7
 79
     5
170
     0
171
     0
290
     0
174
     0
 93
       13
 44
0.0
173
     0
291
     0
 45
0.0
1001
ACAD
1000
AcDbSavedByObjectVersion
1070
     0
  0
VISUALSTYLE
  5
74A
102
{ACAD_XDICTIONARY
360
C4C
102
}
102
{ACAD_REACTORS
330
14
102
}
330
14
100
AcDbVisualStyle
  2

 70
    27
 71
     2
 72
     2
 73
     1
 90
        2
 40
-0.6
 41
30.0
 62
     5
 63
     7
 74
     0
 91
        4
 64
     7
 65
   257
 75
     1
175
     1
 42
1.0
 92
        8
 66
   257
 43
1.0
 76
     1
 77
     6
 78
     2
 67
     8
 79
     3
170
     0
171
     0
290
     0
174
     0
 93
        5
 44
0.0
173
     0
291
     0
 45
0.0
1001
ACAD
1000
AcDbSavedByObjectVersion
1070
     0
  0
VISUALSTYLE
  5
749
102
{ACAD_XDICTIONARY
360
C4A
102
}
102
{ACAD_REACTORS
330
14
102
}
330
14
100
AcDbVisualStyle
  2

 70
    26
 71
     2
 72
     2
 73
     1
 90
        2
 40
-0.6
 41
30.0
 62
     5
 63
     7
 74
     1
 91
       10
 64
     7
 65
   257
 75
     2
175
     1
 42
1.0
 92
        8
 66
   257
 43
1.0
 76
     1
 77
     6
 78
     2
 67
     7
 79
     3
170
     0
171
     0
290
     0
174
     0
 93
        5
 44
0.0
173
     0
291
     0
 45
0.0
1001
ACAD
1000
AcDbSavedByObjectVersion
1070
     0
  0
VISUALSTYLE
  5
746
102
{ACAD_XDICTIONARY
360
C44
102
}
102
{ACAD_REACTORS
330
14
102
}
330
14
100
AcDbVisualStyle
  2

 70
    23
 71
     2
 72
     2
 73
     3
 90
        0
 40
-0.6
 41
-30.0
 62
     5
 63
     7
 74
     2
 91
        2
 64
     7
 65
     7
 75
     1
175
     1
 42
40.0
 92
        8
 66
     7
 43
1.0
 76
     1
 77
     6
 78
     2
 67
     7
 79
     3
170
     0
171
     0
290
     0
174
     0
 93
        1
 44
0.0
173
     0
291
     0
 45
0.0
1001
ACAD
1000
AcDbSavedByObjectVersion
1070
     0
  0
VISUALSTYLE
  5
747
102
{ACAD_XDICTIONARY
360
C46
102
}
102
{ACAD_REACTORS
330
14
102
}
330
14
100
AcDbVisualStyle
  2

 70
    24
 71
     1
 72
     2
 73
     2
 90
        0
 40
-0.6
 41
-30.0
 62
     5
 63
     7
 74
     2
 91
        2
 64
     7
 65
     7
 75
     1
175
     1
 42
40.0
 92
       11
 66
     7
 43
1.0
 76
     1
 77
     6
 78
     2
 67
     7
 79
     6
170
     0
171
     0
290
     0
174
     0
 93
        1
 44
0.0
173
     0
291
     0
 45
0.0
1001
ACAD
1000
AcDbSavedByObjectVersion
1070
     0
  0
VISUALSTYLE
  5
21
102
{ACAD_XDICTIONARY
360
C33
102
}
102
{ACAD_REACTORS
330
14
102
}
330
14
100
AcDbVisualStyle
  2

 70
    13
 71
     2
 72
     2
 73
     0
 90
        0
 40
-0.6
 41
-30.0
 62
     5
 63
     7
 74
     1
 91
        4
 64
     7
 65
   257
 75
     1
175
     1
 42
1.0
 92
       12
 66
     7
 43
1.0
 76
     1
 77
     6
 78
     2
 67
     7
 79
     5
170
     0
171
     0
290
     0
174
     0
 93
        1
 44
0.0
173
     0
291
     1
 45
0.0
1001
ACAD
1000
AcDbSavedByObjectVersion
1070
     0
  0
VISUALSTYLE
  5
744
102
{ACAD_XDICTIONARY
360
C40
102
}
102
{ACAD_REACTORS
330
14
102
}
330
14
100
AcDbVisualStyle
  2

 70
     5
 71
     0
 72
     2
 73
     0
 90
        0
 40
-0.6
 41
-30.0
 62
     5
 63
     7
 74
     1
 91
        4
 64
     7
 65
   257
 75
     1
175
     1
 42
1.0
 92
        0
 66
   257
 43
1.0
 76
     1
 77
     6
 78
     2
 67
     7
 79
     3
170
     0
171
     0
290
     0
174
     0
 93
        1
 44
0.0
173
     0
291
     0
 45
0.0
1001
ACAD
1000
AcDbSavedByObjectVersion
1070
     0
  0
VISUALSTYLE
  5
748
102
{ACAD_XDICTIONARY
360
C48
102
}
102
{ACAD_REACTORS
330
14
102
}
330
14
100
AcDbVisualStyle
  2

 70
    25
 71
     2
 72
     2
 73
     1
 90
        1
 40
0.5
 41
-30.0
 62
     5
 63
     7
 74
     1
 91
        0
 64
     7
 65
   257
 75
     1
175
     1
 42
1.0
 92
        8
 66
     7
 43
1.0
 76
     1
 77
     6
 78
     2
 67
     7
 79
     3
170
     0
171
     0
290
     0
174
     0
 93
       13
 44
0.0
173
     0
291
     0
 45
0.0
1001
ACAD
1000
AcDbSavedByObjectVersion
1070
     0
  0
DICTIONARYVAR
  5
783
102
{ACAD_REACTORS
330
70F
102
}
330
70F
100
DictionaryVariables
280
     0
  1
1:1
  0
DICTIONARYVAR
  5
782
102
{ACAD_REACTORS
330
70F
102
}
330
70F
100
DictionaryVariables
280
     0
  1
STANDARD
  0
DICTIONARYVAR
  5
710
102
{ACAD_REACTORS
330
70F
102
}
330
70F
100
DictionaryVariables
280
     0
  1
STANDARD
  0
DICTIONARYVAR
  5
72C
102
{ACAD_REACTORS
330
70F
102
}
330
70F
100
DictionaryVariables
280
     0
  1
1
  0
DICTIONARYVAR
  5
72B
102
{ACAD_REACTORS
330
70F
102
}
330
70F
100
DictionaryVariables
280
     0
  1
0
  0
DICTIONARYVAR
  5
72A
102
{ACAD_REACTORS
330
70F
102
}
330
70F
100
DictionaryVariables
280
     0
  1
127
  0
DICTIONARYVAR
  5
AB5
102
{ACAD_REACTORS
330
70F
102
}
330
70F
100
DictionaryVariables
280
     0
  1
2
  0
DICTIONARY
  5
C3E
330
39
100
AcDbDictionary
280
     1
281
     1
  3
ACAD_XREC_ROUNDTRIP
360
C3F
  0
DICTIONARY
  5
C3C
330
35
100
AcDbDictionary
280
     1
281
     1
  3
ACAD_XREC_ROUNDTRIP
360
C3D
  0
DICTIONARY
  5
734
330
12
100
AcDbDictionary
280
     1
281
     1
  3
ACAD_XREC_ROUNDTRIP
360
735
  0
DICTIONARY
  5
732
330
11
100
AcDbDictionary
280
     1
281
     1
  3
ACAD_XREC_ROUNDTRIP
360
733
  0
DICTIONARY
  5
736
330
13
100
AcDbDictionary
280
     1
281
     1
  3
ACAD_XREC_ROUNDTRIP
360
737
  0
DICTIONARY
  5
785
330
31
100
AcDbDictionary
280
     1
281
     1
  3
ACAD_ROUNDTRIP_2008_TABLESTYLE_CELLSTYLEMAP
360
C14
  3
ACAD_XREC_ROUNDTRIP
360
C3B
  0
DICTIONARY
  5
C25
330
1A
100
AcDbDictionary
280
     1
281
     1
  3
ACAD_XREC_ROUNDTRIP
360
C26
  0
DICTIONARY
  5
C29
330
1C
100
AcDbDictionary
280
     1
281
     1
  3
ACAD_XREC_ROUNDTRIP
360
C2A
  0
DICTIONARY
  5
C27
330
1B
100
AcDbDictionary
280
     1
281
     1
  3
ACAD_XREC_ROUNDTRIP
360
C28
  0
DICTIONARY
  5
C23
330
19
100
AcDbDictionary
280
     1
281
     1
  3
ACAD_XREC_ROUNDTRIP
360
C24
  0
DICTIONARY
  5
C31
330
20
100
AcDbDictionary
280
     1
281
     1
  3
ACAD_XREC_ROUNDTRIP
360
C32
  0
DICTIONARY
  5
C39
330
24
100
AcDbDictionary
280
     1
281
     1
  3
ACAD_XREC_ROUNDTRIP
360
C3A
  0
DICTIONARY
  5
C2B
330
1D
100
AcDbDictionary
280
     1
281
     1
  3
ACAD_XREC_ROUNDTRIP
360
C2C
  0
DICTIONARY
  5
C2F
330
1F
100
AcDbDictionary
280
     1
281
     1
  3
ACAD_XREC_ROUNDTRIP
360
C30
  0
DICTIONARY
  5
C52
330
74D
100
AcDbDictionary
280
     1
281
     1
  3
ACAD_XREC_ROUNDTRIP
360
C53
  0
DICTIONARY
  5
C37
330
23
100
AcDbDictionary
280
     1
281
     1
  3
ACAD_XREC_ROUNDTRIP
360
C38
  0
DICTIONARY
  5
C1B
330
15
100
AcDbDictionary
280
     1
281
     1
  3
ACAD_XREC_ROUNDTRIP
360
C1C
  0
DICTIONARY
  5
C1D
330
16
100
AcDbDictionary
280
     1
281
     1
  3
ACAD_XREC_ROUNDTRIP
360
C1E
  0
DICTIONARY
  5
C1F
330
17
100
AcDbDictionary
280
     1
281
     1
  3
ACAD_XREC_ROUNDTRIP
360
C20
  0
DICTIONARY
  5
C21
330
18
100
AcDbDictionary
280
     1
281
     1
  3
ACAD_XREC_ROUNDTRIP
360
C22
  0
DICTIONARY
  5
C42
330
745
100
AcDbDictionary
280
     1
281
     1
  3
ACAD_XREC_ROUNDTRIP
360
C43
  0
DICTIONARY
  5
C4E
330
74B
100
AcDbDictionary
280
     1
281
     1
  3
ACAD_XREC_ROUNDTRIP
360
C4F
  0
DICTIONARY
  5
C35
330
22
100
AcDbDictionary
280
     1
281
     1
  3
ACAD_XREC_ROUNDTRIP
360
C36
  0
DICTIONARY
  5
C50
330
74C
100
AcDbDictionary
280
     1
281
     1
  3
ACAD_XREC_ROUNDTRIP
360
C51
  0
DICTIONARY
  5
C2D
330
1E
100
AcDbDictionary
280
     1
281
     1
  3
ACAD_XREC_ROUNDTRIP
360
C2E
  0
DICTIONARY
  5
C4C
330
74A
100
AcDbDictionary
280
     1
281
     1
  3
ACAD_XREC_ROUNDTRIP
360
C4D
  0
DICTIONARY
  5
C4A
330
749
100
AcDbDictionary
280
     1
281
     1
  3
ACAD_XREC_ROUNDTRIP
360
C4B
  0
DICTIONARY
  5
C44
330
746
100
AcDbDictionary
280
     1
281
     1
  3
ACAD_XREC_ROUNDTRIP
360
C45
  0
DICTIONARY
  5
C46
330
747
100
AcDbDictionary
280
     1
281
     1
  3
ACAD_XREC_ROUNDTRIP
360
C47
  0
DICTIONARY
  5
C33
330
21
100
AcDbDictionary
280
     1
281
     1
  3
ACAD_XREC_ROUNDTRIP
360
C34
  0
DICTIONARY
  5
C40
330
744
100
AcDbDictionary
280
     1
281
     1
  3
ACAD_XREC_ROUNDTRIP
360
C41
  0
DICTIONARY
  5
C48
330
748
100
AcDbDictionary
280
     1
281
     1
  3
ACAD_XREC_ROUNDTRIP
360
C49
  0
XRECORD
  5
C3F
102
{ACAD_REACTORS
330
C3E
102
}
330
C3E
100
AcDbXrecord
280
     1
102
SHADEPLOT
 70
     0
102
SHADEPLOTRESLEVEL
 70
     2
102
SHADEPLOTCUSTOMDPI
 70
   300
  0
XRECORD
  5
C3D
102
{ACAD_REACTORS
330
C3C
102
}
330
C3C
100
AcDbXrecord
280
     1
102
SHADEPLOT
 70
     0
102
SHADEPLOTRESLEVEL
 70
     2
102
SHADEPLOTCUSTOMDPI
 70
   300
  0
XRECORD
  5
735
102
{ACAD_REACTORS
330
734
102
}
330
734
100
AcDbXrecord
280
     1
102
MATERIAL
148
0.0
149
0.0
149
0.0
 93
        0
 94
      127
282
     0
 72
     1
 77
     1
171
     1
175
     1
179
     1
273
     0
  0
XRECORD
  5
733
102
{ACAD_REACTORS
330
732
102
}
330
732
100
AcDbXrecord
280
     1
102
MATERIAL
148
0.0
149
0.0
149
0.0
 93
        0
 94
      127
282
     0
 72
     1
 77
     1
171
     1
175
     1
179
     1
273
     0
  0
XRECORD
  5
737
102
{ACAD_REACTORS
330
736
102
}
330
736
100
AcDbXrecord
280
     1
102
MATERIAL
148
0.0
149
0.0
149
0.0
 93
        0
 94
      127
282
     0
 72
     1
 77
     1
171
     1
175
     1
179
     1
273
     0
  0
CELLSTYLEMAP
  5
C14
102
{ACAD_REACTORS
330
785
102
}
330
785
100
AcDbCellStyleMap
 90
        3
300
CELLSTYLE
  1
TABLEFORMAT_BEGIN
 90
        5
170
     1
 91
        0
 92
    32768
 62
   257
 93
        1
300
CONTENTFORMAT
  1
CONTENTFORMAT_BEGIN
 90
        0
 91
        0
 92
      512
 93
        0
300

 40
0.0
140
1.0
 94
        5
 62
     0
340
26
144
0.25
309
CONTENTFORMAT_END
171
     1
301
MARGIN
  1
CELLMARGIN_BEGIN
 40
0.06
 40
0.06
 40
0.06
 40
0.06
 40
0.18
 40
0.18
309
CELLMARGIN_END
 94
        6
 95
        1
302
GRIDFORMAT
  1
GRIDFORMAT_BEGIN
 90
        0
 91
        1
 62
     0
 92
       -2
340
0
 93
        0
 40
0.045
309
GRIDFORMAT_END
 95
        2
302
GRIDFORMAT
  1
GRIDFORMAT_BEGIN
 90
        0
 91
        1
 62
     0
 92
       -2
340
0
 93
        0
 40
0.045
309
GRIDFORMAT_END
 95
        4
302
GRIDFORMAT
  1
GRIDFORMAT_BEGIN
 90
        0
 91
        1
 62
     0
 92
       -2
340
0
 93
        0
 40
0.045
309
GRIDFORMAT_END
 95
        8
302
GRIDFORMAT
  1
GRIDFORMAT_BEGIN
 90
        0
 91
        1
 62
     0
 92
       -2
340
0
 93
        0
 40
0.045
309
GRIDFORMAT_END
 95
       16
302
GRIDFORMAT
  1
GRIDFORMAT_BEGIN
 90
        0
 91
        1
 62
     0
 92
       -2
340
0
 93
        0
 40
0.045
309
GRIDFORMAT_END
 95
       32
302
GRIDFORMAT
  1
GRIDFORMAT_BEGIN
 90
        0
 91
        1
 62
     0
 92
       -2
340
0
 93
        0
 40
0.045
309
GRIDFORMAT_END
309
TABLEFORMAT_END
  1
CELLSTYLE_BEGIN
 90
        1
 91
        1
300
_TITLE
309
CELLSTYLE_END
300
CELLSTYLE
  1
TABLEFORMAT_BEGIN
 90
        5
170
     1
 91
        0
 92
        0
 62
   257
 93
        1
300
CONTENTFORMAT
  1
CONTENTFORMAT_BEGIN
 90
        0
 91
        0
 92
      512
 93
        0
300

 40
0.0
140
1.0
 94
        5
 62
     0
340
26
144
0.18
309
CONTENTFORMAT_END
171
     1
301
MARGIN
  1
CELLMARGIN_BEGIN
 40
0.06
 40
0.06
 40
0.06
 40
0.06
 40
0.18
 40
0.18
309
CELLMARGIN_END
 94
        6
 95
        1
302
GRIDFORMAT
  1
GRIDFORMAT_BEGIN
 90
        0
 91
        1
 62
     0
 92
       -2
340
0
 93
        0
 40
0.045
309
GRIDFORMAT_END
 95
        2
302
GRIDFORMAT
  1
GRIDFORMAT_BEGIN
 90
        0
 91
        1
 62
     0
 92
       -2
340
0
 93
        0
 40
0.045
309
GRIDFORMAT_END
 95
        4
302
GRIDFORMAT
  1
GRIDFORMAT_BEGIN
 90
        0
 91
        1
 62
     0
 92
       -2
340
0
 93
        0
 40
0.045
309
GRIDFORMAT_END
 95
        8
302
GRIDFORMAT
  1
GRIDFORMAT_BEGIN
 90
        0
 91
        1
 62
     0
 92
       -2
340
0
 93
        0
 40
0.045
309
GRIDFORMAT_END
 95
       16
302
GRIDFORMAT
  1
GRIDFORMAT_BEGIN
 90
        0
 91
        1
 62
     0
 92
       -2
340
0
 93
        0
 40
0.045
309
GRIDFORMAT_END
 95
       32
302
GRIDFORMAT
  1
GRIDFORMAT_BEGIN
 90
        0
 91
        1
 62
     0
 92
       -2
340
0
 93
        0
 40
0.045
309
GRIDFORMAT_END
309
TABLEFORMAT_END
  1
CELLSTYLE_BEGIN
 90
        2
 91
        1
300
_HEADER
309
CELLSTYLE_END
300
CELLSTYLE
  1
TABLEFORMAT_BEGIN
 90
        5
170
     1
 91
        0
 92
        0
 62
   257
 93
        1
300
CONTENTFORMAT
  1
CONTENTFORMAT_BEGIN
 90
        0
 91
        0
 92
      512
 93
        0
300

 40
0.0
140
1.0
 94
        2
 62
     0
340
26
144
0.18
309
CONTENTFORMAT_END
171
     1
301
MARGIN
  1
CELLMARGIN_BEGIN
 40
0.06
 40
0.06
 40
0.06
 40
0.06
 40
0.18
 40
0.18
309
CELLMARGIN_END
 94
        6
 95
        1
302
GRIDFORMAT
  1
GRIDFORMAT_BEGIN
 90
        0
 91
        1
 62
     0
 92
       -2
340
0
 93
        0
 40
0.045
309
GRIDFORMAT_END
 95
        2
302
GRIDFORMAT
  1
GRIDFORMAT_BEGIN
 90
        0
 91
        1
 62
     0
 92
       -2
340
0
 93
        0
 40
0.045
309
GRIDFORMAT_END
 95
        4
302
GRIDFORMAT
  1
GRIDFORMAT_BEGIN
 90
        0
 91
        1
 62
     0
 92
       -2
340
0
 93
        0
 40
0.045
309
GRIDFORMAT_END
 95
        8
302
GRIDFORMAT
  1
GRIDFORMAT_BEGIN
 90
        0
 91
        1
 62
     0
 92
       -2
340
0
 93
        0
 40
0.045
309
GRIDFORMAT_END
 95
       16
302
GRIDFORMAT
  1
GRIDFORMAT_BEGIN
 90
        0
 91
        1
 62
     0
 92
       -2
340
0
 93
        0
 40
0.045
309
GRIDFORMAT_END
 95
       32
302
GRIDFORMAT
  1
GRIDFORMAT_BEGIN
 90
        0
 91
        1
 62
     0
 92
       -2
340
0
 93
        0
 40
0.045
309
GRIDFORMAT_END
309
TABLEFORMAT_END
  1
CELLSTYLE_BEGIN
 90
        3
 91
        2
300
_DATA
309
CELLSTYLE_END
  0
XRECORD
  5
C3B
102
{ACAD_REACTORS
330
785
102
}
330
785
100
AcDbXrecord
280
     1
102
ACAD_ROUNDTRIP_PRE2007_TABLESTYLE
 90
      512
 91
        0
  1

 92
      512
 93
        0
  2

 94
      512
 95
        0
  3

  0
XRECORD
  5
C26
102
{ACAD_REACTORS
330
C25
102
}
330
C25
100
AcDbXrecord
280
     1
102
RTVSPropertyOp0
 70
     1
102
RTVSPropertyOp1
 70
     1
102
RTVSPropertyOp2
 70
     1
102
RTVSPropertyOp3
 70
     1
102
RTVSPropertyOp4
 70
     1
102
RTVSPropertyOp5
 70
     1
102
RTVSPropertyOp6
 70
     1
102
RTVSPropertyOp7
 70
     1
102
RTVSPropertyOp8
 70
     1
102
RTVSPropertyOp9
 70
     1
102
RTVSPropertyOp10
 70
     1
102
RTVSPropertyOp11
 70
     1
102
RTVSPropertyOp12
 70
     1
102
RTVSPropertyOp13
 70
     1
102
RTVSPropertyOp14
 70
     1
102
RTVSPropertyOp15
 70
     1
102
RTVSPropertyOp16
 70
     1
102
RTVSPropertyOp17
 70
     1
102
RTVSPropertyOp18
 70
     1
102
RTVSPropertyOp19
 70
     1
102
RTVSPropertyOp20
 70
     1
102
RTVSPropertyOp21
 70
     1
102
RTVSPropertyOp22
 70
     1
102
RTVSPropertyOp23
 70
     1
102
RTVSPropertyOp24
 70
     1
102
RTVSPropertyOp25
 70
     1
102
RTVSPropertyOp26
 70
     1
102
RTVSPropertyOp27
 70
     1
102
RTVSPropertyOp28
 70
     1
102
RTVSPropertyOp29
 70
     1
102
RTVSPropertyOp30
 70
     1
102
RTVSPropertyOp31
 70
     1
102
RTVSPropertyOp32
 70
     1
  0
XRECORD
  5
C2A
102
{ACAD_REACTORS
330
C29
102
}
330
C29
100
AcDbXrecord
280
     1
102
RTVSPropertyOp0
 70
     1
102
RTVSPropertyOp1
 70
     1
102
RTVSPropertyOp2
 70
     1
102
RTVSPropertyOp3
 70
     1
102
RTVSPropertyOp4
 70
     1
102
RTVSPropertyOp5
 70
     1
102
RTVSPropertyOp6
 70
     1
102
RTVSPropertyOp7
 70
     1
102
RTVSPropertyOp8
 70
     1
102
RTVSPropertyOp9
 70
     1
102
RTVSPropertyOp10
 70
     1
102
RTVSPropertyOp11
 70
     1
102
RTVSPropertyOp12
 70
     1
102
RTVSPropertyOp13
 70
     1
102
RTVSPropertyOp14
 70
     1
102
RTVSPropertyOp15
 70
     1
102
RTVSPropertyOp16
 70
     1
102
RTVSPropertyOp17
 70
     1
102
RTVSPropertyOp18
 70
     1
102
RTVSPropertyOp19
 70
     1
102
RTVSPropertyOp20
 70
     1
102
RTVSPropertyOp21
 70
     1
102
RTVSPropertyOp22
 70
     1
102
RTVSPropertyOp23
 70
     1
102
RTVSPropertyOp24
 70
     1
102
RTVSPropertyOp25
 70
     1
102
RTVSPropertyOp26
 70
     1
102
RTVSPropertyOp27
 70
     1
102
RTVSPropertyOp28
 70
     1
102
RTVSPropertyOp29
 70
     1
102
RTVSPropertyOp30
 70
     1
102
RTVSPropertyOp31
 70
     1
102
RTVSPropertyOp32
 70
     1
  0
XRECORD
  5
C28
102
{ACAD_REACTORS
330
C27
102
}
330
C27
100
AcDbXrecord
280
     1
102
RTVSPropertyOp0
 70
     1
102
RTVSPropertyOp1
 70
     1
102
RTVSPropertyOp2
 70
     1
102
RTVSPropertyOp3
 70
     1
102
RTVSPropertyOp4
 70
     1
102
RTVSPropertyOp5
 70
     1
102
RTVSPropertyOp6
 70
     1
102
RTVSPropertyOp7
 70
     1
102
RTVSPropertyOp8
 70
     1
102
RTVSPropertyOp9
 70
     1
102
RTVSPropertyOp10
 70
     1
102
RTVSPropertyOp11
 70
     1
102
RTVSPropertyOp12
 70
     1
102
RTVSPropertyOp13
 70
     1
102
RTVSPropertyOp14
 70
     1
102
RTVSPropertyOp15
 70
     1
102
RTVSPropertyOp16
 70
     1
102
RTVSPropertyOp17
 70
     1
102
RTVSPropertyOp18
 70
     1
102
RTVSPropertyOp19
 70
     1
102
RTVSPropertyOp20
 70
     1
102
RTVSPropertyOp21
 70
     1
102
RTVSPropertyOp22
 70
     1
102
RTVSPropertyOp23
 70
     1
102
RTVSPropertyOp24
 70
     1
102
RTVSPropertyOp25
 70
     1
102
RTVSPropertyOp26
 70
     1
102
RTVSPropertyOp27
 70
     1
102
RTVSPropertyOp28
 70
     1
102
RTVSPropertyOp29
 70
     1
102
RTVSPropertyOp30
 70
     1
102
RTVSPropertyOp31
 70
     1
102
RTVSPropertyOp32
 70
     1
  0
XRECORD
  5
C24
102
{ACAD_REACTORS
330
C23
102
}
330
C23
100
AcDbXrecord
280
     1
102
RTVSPropertyOp0
 70
     1
102
RTVSPropertyOp1
 70
     1
102
RTVSPropertyOp2
 70
     1
102
RTVSPropertyOp3
 70
     1
102
RTVSPropertyOp4
 70
     1
102
RTVSPropertyOp5
 70
     1
102
RTVSPropertyOp6
 70
     1
102
RTVSPropertyOp7
 70
     1
102
RTVSPropertyOp8
 70
     1
102
RTVSPropertyOp9
 70
     1
102
RTVSPropertyOp10
 70
     1
102
RTVSPropertyOp11
 70
     1
102
RTVSPropertyOp12
 70
     1
102
RTVSPropertyOp13
 70
     1
102
RTVSPropertyOp14
 70
     1
102
RTVSPropertyOp15
 70
     1
102
RTVSPropertyOp16
 70
     1
102
RTVSPropertyOp17
 70
     1
102
RTVSPropertyOp18
 70
     1
102
RTVSPropertyOp19
 70
     1
102
RTVSPropertyOp20
 70
     1
102
RTVSPropertyOp21
 70
     1
102
RTVSPropertyOp22
 70
     1
102
RTVSPropertyOp23
 70
     1
102
RTVSPropertyOp24
 70
     1
102
RTVSPropertyOp25
 70
     1
102
RTVSPropertyOp26
 70
     1
102
RTVSPropertyOp27
 70
     1
102
RTVSPropertyOp28
 70
     1
102
RTVSPropertyOp29
 70
     1
102
RTVSPropertyOp30
 70
     1
102
RTVSPropertyOp31
 70
     1
102
RTVSPropertyOp32
 70
     1
  0
XRECORD
  5
C32
102
{ACAD_REACTORS
330
C31
102
}
330
C31
100
AcDbXrecord
280
     1
102
RTVSPropertyOp0
 70
     1
102
RTVSPropertyOp1
 70
     1
102
RTVSPropertyOp2
 70
     1
102
RTVSPropertyOp3
 70
     1
102
RTVSPropertyOp4
 70
     1
102
RTVSPropertyOp5
 70
     1
102
RTVSPropertyOp6
 70
     1
102
RTVSPropertyOp7
 70
     1
102
RTVSPropertyOp8
 70
     1
102
RTVSPropertyOp9
 70
     1
102
RTVSPropertyOp10
 70
     1
102
RTVSPropertyOp11
 70
     1
102
RTVSPropertyOp12
 70
     1
102
RTVSPropertyOp13
 70
     1
102
RTVSPropertyOp14
 70
     1
102
RTVSPropertyOp15
 70
     1
102
RTVSPropertyOp16
 70
     1
102
RTVSPropertyOp17
 70
     1
102
RTVSPropertyOp18
 70
     1
102
RTVSPropertyOp19
 70
     1
102
RTVSPropertyOp20
 70
     1
102
RTVSPropertyOp21
 70
     1
102
RTVSPropertyOp22
 70
     1
102
RTVSPropertyOp23
 70
     1
102
RTVSPropertyOp24
 70
     1
102
RTVSPropertyOp25
 70
     1
102
RTVSPropertyOp26
 70
     1
102
RTVSPropertyOp27
 70
     1
102
RTVSPropertyOp28
 70
     1
102
RTVSPropertyOp29
 70
     1
102
RTVSPropertyOp30
 70
     1
102
RTVSPropertyOp31
 70
     1
102
RTVSPropertyOp32
 70
     1
  0
XRECORD
  5
C3A
102
{ACAD_REACTORS
330
C39
102
}
330
C39
100
AcDbXrecord
280
     1
102
RTVSPropertyOp0
 70
     1
102
RTVSPropertyOp1
 70
     1
102
RTVSPropertyOp2
 70
     1
102
RTVSPropertyOp3
 70
     1
102
RTVSPropertyOp4
 70
     1
102
RTVSPropertyOp5
 70
     1
102
RTVSPropertyOp6
 70
     1
102
RTVSPropertyOp7
 70
     1
102
RTVSPropertyOp8
 70
     1
102
RTVSPropertyOp9
 70
     1
102
RTVSPropertyOp10
 70
     1
102
RTVSPropertyOp11
 70
     1
102
RTVSPropertyOp12
 70
     1
102
RTVSPropertyOp13
 70
     1
102
RTVSPropertyOp14
 70
     1
102
RTVSPropertyOp15
 70
     1
102
RTVSPropertyOp16
 70
     1
102
RTVSPropertyOp17
 70
     1
102
RTVSPropertyOp18
 70
     1
102
RTVSPropertyOp19
 70
     1
102
RTVSPropertyOp20
 70
     1
102
RTVSPropertyOp21
 70
     1
102
RTVSPropertyOp22
 70
     1
102
RTVSPropertyOp23
 70
     1
102
RTVSPropertyOp24
 70
     1
102
RTVSPropertyOp25
 70
     1
102
RTVSPropertyOp26
 70
     1
102
RTVSPropertyOp27
 70
     1
102
RTVSPropertyOp28
 70
     1
102
RTVSPropertyOp29
 70
     1
102
RTVSPropertyOp30
 70
     1
102
RTVSPropertyOp31
 70
     1
102
RTVSPropertyOp32
 70
     1
  0
XRECORD
  5
C2C
102
{ACAD_REACTORS
330
C2B
102
}
330
C2B
100
AcDbXrecord
280
     1
102
RTVSPropertyOp0
 70
     1
102
RTVSPropertyOp1
 70
     1
102
RTVSPropertyOp2
 70
     1
102
RTVSPropertyOp3
 70
     1
102
RTVSPropertyOp4
 70
     1
102
RTVSPropertyOp5
 70
     1
102
RTVSPropertyOp6
 70
     1
102
RTVSPropertyOp7
 70
     1
102
RTVSPropertyOp8
 70
     1
102
RTVSPropertyOp9
 70
     1
102
RTVSPropertyOp10
 70
     1
102
RTVSPropertyOp11
 70
     1
102
RTVSPropertyOp12
 70
     1
102
RTVSPropertyOp13
 70
     1
102
RTVSPropertyOp14
 70
     1
102
RTVSPropertyOp15
 70
     1
102
RTVSPropertyOp16
 70
     1
102
RTVSPropertyOp17
 70
     1
102
RTVSPropertyOp18
 70
     1
102
RTVSPropertyOp19
 70
     1
102
RTVSPropertyOp20
 70
     1
102
RTVSPropertyOp21
 70
     1
102
RTVSPropertyOp22
 70
     1
102
RTVSPropertyOp23
 70
     1
102
RTVSPropertyOp24
 70
     1
102
RTVSPropertyOp25
 70
     1
102
RTVSPropertyOp26
 70
     1
102
RTVSPropertyOp27
 70
     1
102
RTVSPropertyOp28
 70
     1
102
RTVSPropertyOp29
 70
     1
102
RTVSPropertyOp30
 70
     1
102
RTVSPropertyOp31
 70
     1
102
RTVSPropertyOp32
 70
     1
  0
XRECORD
  5
C30
102
{ACAD_REACTORS
330
C2F
102
}
330
C2F
100
AcDbXrecord
280
     1
102
RTVSPropertyOp0
 70
     1
102
RTVSPropertyOp1
 70
     1
102
RTVSPropertyOp2
 70
     1
102
RTVSPropertyOp3
 70
     1
102
RTVSPropertyOp4
 70
     1
102
RTVSPropertyOp5
 70
     1
102
RTVSPropertyOp6
 70
     1
102
RTVSPropertyOp7
 70
     1
102
RTVSPropertyOp8
 70
     1
102
RTVSPropertyOp9
 70
     1
102
RTVSPropertyOp10
 70
     1
102
RTVSPropertyOp11
 70
     1
102
RTVSPropertyOp12
 70
     1
102
RTVSPropertyOp13
 70
     1
102
RTVSPropertyOp14
 70
     1
102
RTVSPropertyOp15
 70
     1
102
RTVSPropertyOp16
 70
     1
102
RTVSPropertyOp17
 70
     1
102
RTVSPropertyOp18
 70
     1
102
RTVSPropertyOp19
 70
     1
102
RTVSPropertyOp20
 70
     1
102
RTVSPropertyOp21
 70
     1
102
RTVSPropertyOp22
 70
     1
102
RTVSPropertyOp23
 70
     1
102
RTVSPropertyOp24
 70
     1
102
RTVSPropertyOp25
 70
     1
102
RTVSPropertyOp26
 70
     1
102
RTVSPropertyOp27
 70
     1
102
RTVSPropertyOp28
 70
     1
102
RTVSPropertyOp29
 70
     1
102
RTVSPropertyOp30
 70
     1
102
RTVSPropertyOp31
 70
     1
102
RTVSPropertyOp32
 70
     1
  0
XRECORD
  5
C53
102
{ACAD_REACTORS
330
C52
102
}
330
C52
100
AcDbXrecord
280
     1
102
RTVSPropertyOp0
 70
     0
102
RTVSPropertyOp1
 70
     0
102
RTVSPropertyOp2
 70
     0
102
RTVSPropertyOp3
 70
     0
102
RTVSPropertyOp4
 70
     0
102
RTVSPropertyOp5
 70
     0
102
RTVSPropertyOp6
 70
     0
102
RTVSPropertyOp7
 70
     0
102
RTVSPropertyOp8
 70
     0
102
RTVSPropertyOp9
 70
     0
102
RTVSPropertyOp10
 70
     0
102
RTVSPropertyOp11
 70
     0
102
RTVSPropertyOp12
 70
     0
102
RTVSPropertyOp13
 70
     0
102
RTVSPropertyOp14
 70
     2
102
RTVSPropertyOp15
 70
     0
102
RTVSPropertyOp16
 70
     0
102
RTVSPropertyOp17
 70
     0
102
RTVSPropertyOp18
 70
     0
102
RTVSPropertyOp19
 70
     0
102
RTVSPropertyOp20
 70
     0
102
RTVSPropertyOp21
 70
     0
102
RTVSPropertyOp22
 70
     0
102
RTVSPropertyOp23
 70
     0
102
RTVSPropertyOp24
 70
     0
102
RTVSPropertyOp25
 70
     0
102
RTVSPropertyOp26
 70
     0
102
RTVSPropertyOp27
 70
     0
102
RTVSPropertyOp28
 70
     0
102
RTVSPropertyOp29
 70
     0
102
RTVSPropertyOp30
 70
     0
102
RTVSPropertyOp31
 70
     0
102
RTVSPropertyOp32
 70
     0
  0
XRECORD
  5
C38
102
{ACAD_REACTORS
330
C37
102
}
330
C37
100
AcDbXrecord
280
     1
102
RTVSPropertyOp0
 70
     1
102
RTVSPropertyOp1
 70
     1
102
RTVSPropertyOp2
 70
     1
102
RTVSPropertyOp3
 70
     1
102
RTVSPropertyOp4
 70
     1
102
RTVSPropertyOp5
 70
     1
102
RTVSPropertyOp6
 70
     1
102
RTVSPropertyOp7
 70
     1
102
RTVSPropertyOp8
 70
     1
102
RTVSPropertyOp9
 70
     1
102
RTVSPropertyOp10
 70
     1
102
RTVSPropertyOp11
 70
     1
102
RTVSPropertyOp12
 70
     1
102
RTVSPropertyOp13
 70
     1
102
RTVSPropertyOp14
 70
     1
102
RTVSPropertyOp15
 70
     1
102
RTVSPropertyOp16
 70
     1
102
RTVSPropertyOp17
 70
     1
102
RTVSPropertyOp18
 70
     1
102
RTVSPropertyOp19
 70
     1
102
RTVSPropertyOp20
 70
     1
102
RTVSPropertyOp21
 70
     1
102
RTVSPropertyOp22
 70
     1
102
RTVSPropertyOp23
 70
     1
102
RTVSPropertyOp24
 70
     1
102
RTVSPropertyOp25
 70
     1
102
RTVSPropertyOp26
 70
     1
102
RTVSPropertyOp27
 70
     1
102
RTVSPropertyOp28
 70
     1
102
RTVSPropertyOp29
 70
     1
102
RTVSPropertyOp30
 70
     1
102
RTVSPropertyOp31
 70
     1
102
RTVSPropertyOp32
 70
     1
  0
XRECORD
  5
C1C
102
{ACAD_REACTORS
330
C1B
102
}
330
C1B
100
AcDbXrecord
280
     1
102
RTVSPropertyOp0
 70
     1
102
RTVSPropertyOp1
 70
     1
102
RTVSPropertyOp2
 70
     1
102
RTVSPropertyOp3
 70
     1
102
RTVSPropertyOp4
 70
     1
102
RTVSPropertyOp5
 70
     1
102
RTVSPropertyOp6
 70
     1
102
RTVSPropertyOp7
 70
     1
102
RTVSPropertyOp8
 70
     1
102
RTVSPropertyOp9
 70
     1
102
RTVSPropertyOp10
 70
     1
102
RTVSPropertyOp11
 70
     1
102
RTVSPropertyOp12
 70
     1
102
RTVSPropertyOp13
 70
     1
102
RTVSPropertyOp14
 70
     1
102
RTVSPropertyOp15
 70
     1
102
RTVSPropertyOp16
 70
     1
102
RTVSPropertyOp17
 70
     1
102
RTVSPropertyOp18
 70
     1
102
RTVSPropertyOp19
 70
     1
102
RTVSPropertyOp20
 70
     1
102
RTVSPropertyOp21
 70
     1
102
RTVSPropertyOp22
 70
     1
102
RTVSPropertyOp23
 70
     1
102
RTVSPropertyOp24
 70
     1
102
RTVSPropertyOp25
 70
     1
102
RTVSPropertyOp26
 70
     1
102
RTVSPropertyOp27
 70
     1
102
RTVSPropertyOp28
 70
     1
102
RTVSPropertyOp29
 70
     1
102
RTVSPropertyOp30
 70
     1
102
RTVSPropertyOp31
 70
     1
102
RTVSPropertyOp32
 70
     1
  0
XRECORD
  5
C1E
102
{ACAD_REACTORS
330
C1D
102
}
330
C1D
100
AcDbXrecord
280
     1
102
RTVSPropertyOp0
 70
     1
102
RTVSPropertyOp1
 70
     1
102
RTVSPropertyOp2
 70
     1
102
RTVSPropertyOp3
 70
     1
102
RTVSPropertyOp4
 70
     1
102
RTVSPropertyOp5
 70
     1
102
RTVSPropertyOp6
 70
     1
102
RTVSPropertyOp7
 70
     1
102
RTVSPropertyOp8
 70
     1
102
RTVSPropertyOp9
 70
     1
102
RTVSPropertyOp10
 70
     1
102
RTVSPropertyOp11
 70
     1
102
RTVSPropertyOp12
 70
     1
102
RTVSPropertyOp13
 70
     1
102
RTVSPropertyOp14
 70
     1
102
RTVSPropertyOp15
 70
     1
102
RTVSPropertyOp16
 70
     1
102
RTVSPropertyOp17
 70
     1
102
RTVSPropertyOp18
 70
     1
102
RTVSPropertyOp19
 70
     1
102
RTVSPropertyOp20
 70
     1
102
RTVSPropertyOp21
 70
     1
102
RTVSPropertyOp22
 70
     1
102
RTVSPropertyOp23
 70
     1
102
RTVSPropertyOp24
 70
     1
102
RTVSPropertyOp25
 70
     1
102
RTVSPropertyOp26
 70
     1
102
RTVSPropertyOp27
 70
     1
102
RTVSPropertyOp28
 70
     1
102
RTVSPropertyOp29
 70
     1
102
RTVSPropertyOp30
 70
     1
102
RTVSPropertyOp31
 70
     1
102
RTVSPropertyOp32
 70
     1
  0
XRECORD
  5
C20
102
{ACAD_REACTORS
330
C1F
102
}
330
C1F
100
AcDbXrecord
280
     1
102
RTVSPropertyOp0
 70
     1
102
RTVSPropertyOp1
 70
     1
102
RTVSPropertyOp2
 70
     1
102
RTVSPropertyOp3
 70
     1
102
RTVSPropertyOp4
 70
     1
102
RTVSPropertyOp5
 70
     1
102
RTVSPropertyOp6
 70
     1
102
RTVSPropertyOp7
 70
     1
102
RTVSPropertyOp8
 70
     1
102
RTVSPropertyOp9
 70
     1
102
RTVSPropertyOp10
 70
     1
102
RTVSPropertyOp11
 70
     1
102
RTVSPropertyOp12
 70
     1
102
RTVSPropertyOp13
 70
     1
102
RTVSPropertyOp14
 70
     1
102
RTVSPropertyOp15
 70
     1
102
RTVSPropertyOp16
 70
     1
102
RTVSPropertyOp17
 70
     1
102
RTVSPropertyOp18
 70
     1
102
RTVSPropertyOp19
 70
     1
102
RTVSPropertyOp20
 70
     1
102
RTVSPropertyOp21
 70
     1
102
RTVSPropertyOp22
 70
     1
102
RTVSPropertyOp23
 70
     1
102
RTVSPropertyOp24
 70
     1
102
RTVSPropertyOp25
 70
     1
102
RTVSPropertyOp26
 70
     1
102
RTVSPropertyOp27
 70
     1
102
RTVSPropertyOp28
 70
     1
102
RTVSPropertyOp29
 70
     1
102
RTVSPropertyOp30
 70
     1
102
RTVSPropertyOp31
 70
     1
102
RTVSPropertyOp32
 70
     1
  0
XRECORD
  5
C22
102
{ACAD_REACTORS
330
C21
102
}
330
C21
100
AcDbXrecord
280
     1
102
RTVSPropertyOp0
 70
     1
102
RTVSPropertyOp1
 70
     1
102
RTVSPropertyOp2
 70
     1
102
RTVSPropertyOp3
 70
     1
102
RTVSPropertyOp4
 70
     1
102
RTVSPropertyOp5
 70
     1
102
RTVSPropertyOp6
 70
     1
102
RTVSPropertyOp7
 70
     1
102
RTVSPropertyOp8
 70
     1
102
RTVSPropertyOp9
 70
     1
102
RTVSPropertyOp10
 70
     1
102
RTVSPropertyOp11
 70
     1
102
RTVSPropertyOp12
 70
     1
102
RTVSPropertyOp13
 70
     1
102
RTVSPropertyOp14
 70
     1
102
RTVSPropertyOp15
 70
     1
102
RTVSPropertyOp16
 70
     1
102
RTVSPropertyOp17
 70
     1
102
RTVSPropertyOp18
 70
     1
102
RTVSPropertyOp19
 70
     1
102
RTVSPropertyOp20
 70
     1
102
RTVSPropertyOp21
 70
     1
102
RTVSPropertyOp22
 70
     1
102
RTVSPropertyOp23
 70
     1
102
RTVSPropertyOp24
 70
     1
102
RTVSPropertyOp25
 70
     1
102
RTVSPropertyOp26
 70
     1
102
RTVSPropertyOp27
 70
     1
102
RTVSPropertyOp28
 70
     1
102
RTVSPropertyOp29
 70
     1
102
RTVSPropertyOp30
 70
     1
102
RTVSPropertyOp31
 70
     1
102
RTVSPropertyOp32
 70
     1
  0
XRECORD
  5
C43
102
{ACAD_REACTORS
330
C42
102
}
330
C42
100
AcDbXrecord
280
     1
102
RTVSPropertyOp0
 70
     1
102
RTVSPropertyOp1
 70
     1
102
RTVSPropertyOp2
 70
     1
102
RTVSPropertyOp3
 70
     1
102
RTVSPropertyOp4
 70
     1
102
RTVSPropertyOp5
 70
     1
102
RTVSPropertyOp6
 70
     1
102
RTVSPropertyOp7
 70
     1
102
RTVSPropertyOp8
 70
     1
102
RTVSPropertyOp9
 70
     1
102
RTVSPropertyOp10
 70
     1
102
RTVSPropertyOp11
 70
     1
102
RTVSPropertyOp12
 70
     1
102
RTVSPropertyOp13
 70
     1
102
RTVSPropertyOp14
 70
     1
102
RTVSPropertyOp15
 70
     1
102
RTVSPropertyOp16
 70
     1
102
RTVSPropertyOp17
 70
     1
102
RTVSPropertyOp18
 70
     1
102
RTVSPropertyOp19
 70
     1
102
RTVSPropertyOp20
 70
     1
102
RTVSPropertyOp21
 70
     1
102
RTVSPropertyOp22
 70
     1
102
RTVSPropertyOp23
 70
     1
102
RTVSPropertyOp24
 70
     1
102
RTVSPropertyOp25
 70
     1
102
RTVSPropertyOp26
 70
     1
102
RTVSPropertyOp27
 70
     1
102
RTVSPropertyOp28
 70
     1
102
RTVSPropertyOp29
 70
     1
102
RTVSPropertyOp30
 70
     1
102
RTVSPropertyOp31
 70
     1
102
RTVSPropertyOp32
 70
     1
  0
XRECORD
  5
C4F
102
{ACAD_REACTORS
330
C4E
102
}
330
C4E
100
AcDbXrecord
280
     1
102
RTVSPropertyOp0
 70
     0
102
RTVSPropertyOp1
 70
     0
102
RTVSPropertyOp2
 70
     0
102
RTVSPropertyOp3
 70
     0
102
RTVSPropertyOp4
 70
     0
102
RTVSPropertyOp5
 70
     0
102
RTVSPropertyOp6
 70
     0
102
RTVSPropertyOp7
 70
     0
102
RTVSPropertyOp8
 70
     0
102
RTVSPropertyOp9
 70
     0
102
RTVSPropertyOp10
 70
     0
102
RTVSPropertyOp11
 70
     0
102
RTVSPropertyOp12
 70
     0
102
RTVSPropertyOp13
 70
     0
102
RTVSPropertyOp14
 70
     2
102
RTVSPropertyOp15
 70
     0
102
RTVSPropertyOp16
 70
     0
102
RTVSPropertyOp17
 70
     0
102
RTVSPropertyOp18
 70
     0
102
RTVSPropertyOp19
 70
     0
102
RTVSPropertyOp20
 70
     0
102
RTVSPropertyOp21
 70
     0
102
RTVSPropertyOp22
 70
     0
102
RTVSPropertyOp23
 70
     0
102
RTVSPropertyOp24
 70
     0
102
RTVSPropertyOp25
 70
     0
102
RTVSPropertyOp26
 70
     0
102
RTVSPropertyOp27
 70
     0
102
RTVSPropertyOp28
 70
     0
102
RTVSPropertyOp29
 70
     0
102
RTVSPropertyOp30
 70
     0
102
RTVSPropertyOp31
 70
     0
102
RTVSPropertyOp32
 70
     0
  0
XRECORD
  5
C36
102
{ACAD_REACTORS
330
C35
102
}
330
C35
100
AcDbXrecord
280
     1
102
RTVSPropertyOp0
 70
     1
102
RTVSPropertyOp1
 70
     1
102
RTVSPropertyOp2
 70
     1
102
RTVSPropertyOp3
 70
     1
102
RTVSPropertyOp4
 70
     1
102
RTVSPropertyOp5
 70
     1
102
RTVSPropertyOp6
 70
     1
102
RTVSPropertyOp7
 70
     1
102
RTVSPropertyOp8
 70
     1
102
RTVSPropertyOp9
 70
     1
102
RTVSPropertyOp10
 70
     1
102
RTVSPropertyOp11
 70
     1
102
RTVSPropertyOp12
 70
     1
102
RTVSPropertyOp13
 70
     1
102
RTVSPropertyOp14
 70
     1
102
RTVSPropertyOp15
 70
     1
102
RTVSPropertyOp16
 70
     1
102
RTVSPropertyOp17
 70
     1
102
RTVSPropertyOp18
 70
     1
102
RTVSPropertyOp19
 70
     1
102
RTVSPropertyOp20
 70
     1
102
RTVSPropertyOp21
 70
     1
102
RTVSPropertyOp22
 70
     1
102
RTVSPropertyOp23
 70
     1
102
RTVSPropertyOp24
 70
     1
102
RTVSPropertyOp25
 70
     1
102
RTVSPropertyOp26
 70
     1
102
RTVSPropertyOp27
 70
     1
102
RTVSPropertyOp28
 70
     1
102
RTVSPropertyOp29
 70
     1
102
RTVSPropertyOp30
 70
     1
102
RTVSPropertyOp31
 70
     1
102
RTVSPropertyOp32
 70
     1
  0
XRECORD
  5
C51
102
{ACAD_REACTORS
330
C50
102
}
330
C50
100
AcDbXrecord
280
     1
102
RTVSPropertyOp0
 70
     0
102
RTVSPropertyOp1
 70
     0
102
RTVSPropertyOp2
 70
     0
102
RTVSPropertyOp3
 70
     0
102
RTVSPropertyOp4
 70
     0
102
RTVSPropertyOp5
 70
     0
102
RTVSPropertyOp6
 70
     0
102
RTVSPropertyOp7
 70
     0
102
RTVSPropertyOp8
 70
     0
102
RTVSPropertyOp9
 70
     0
102
RTVSPropertyOp10
 70
     0
102
RTVSPropertyOp11
 70
     0
102
RTVSPropertyOp12
 70
     0
102
RTVSPropertyOp13
 70
     0
102
RTVSPropertyOp14
 70
     2
102
RTVSPropertyOp15
 70
     0
102
RTVSPropertyOp16
 70
     0
102
RTVSPropertyOp17
 70
     0
102
RTVSPropertyOp18
 70
     0
102
RTVSPropertyOp19
 70
     0
102
RTVSPropertyOp20
 70
     0
102
RTVSPropertyOp21
 70
     0
102
RTVSPropertyOp22
 70
     0
102
RTVSPropertyOp23
 70
     0
102
RTVSPropertyOp24
 70
     0
102
RTVSPropertyOp25
 70
     0
102
RTVSPropertyOp26
 70
     0
102
RTVSPropertyOp27
 70
     0
102
RTVSPropertyOp28
 70
     0
102
RTVSPropertyOp29
 70
     0
102
RTVSPropertyOp30
 70
     0
102
RTVSPropertyOp31
 70
     0
102
RTVSPropertyOp32
 70
     0
  0
XRECORD
  5
C2E
102
{ACAD_REACTORS
330
C2D
102
}
330
C2D
100
AcDbXrecord
280
     1
102
RTVSPropertyOp0
 70
     1
102
RTVSPropertyOp1
 70
     1
102
RTVSPropertyOp2
 70
     1
102
RTVSPropertyOp3
 70
     1
102
RTVSPropertyOp4
 70
     1
102
RTVSPropertyOp5
 70
     1
102
RTVSPropertyOp6
 70
     1
102
RTVSPropertyOp7
 70
     1
102
RTVSPropertyOp8
 70
     1
102
RTVSPropertyOp9
 70
     1
102
RTVSPropertyOp10
 70
     1
102
RTVSPropertyOp11
 70
     1
102
RTVSPropertyOp12
 70
     1
102
RTVSPropertyOp13
 70
     1
102
RTVSPropertyOp14
 70
     1
102
RTVSPropertyOp15
 70
     1
102
RTVSPropertyOp16
 70
     1
102
RTVSPropertyOp17
 70
     1
102
RTVSPropertyOp18
 70
     1
102
RTVSPropertyOp19
 70
     1
102
RTVSPropertyOp20
 70
     1
102
RTVSPropertyOp21
 70
     1
102
RTVSPropertyOp22
 70
     1
102
RTVSPropertyOp23
 70
     1
102
RTVSPropertyOp24
 70
     1
102
RTVSPropertyOp25
 70
     1
102
RTVSPropertyOp26
 70
     1
102
RTVSPropertyOp27
 70
     1
102
RTVSPropertyOp28
 70
     1
102
RTVSPropertyOp29
 70
     1
102
RTVSPropertyOp30
 70
     1
102
RTVSPropertyOp31
 70
     1
102
RTVSPropertyOp32
 70
     1
  0
XRECORD
  5
C4D
102
{ACAD_REACTORS
330
C4C
102
}
330
C4C
100
AcDbXrecord
280
     1
102
RTVSPropertyOp0
 70
     1
102
RTVSPropertyOp1
 70
     1
102
RTVSPropertyOp2
 70
     1
102
RTVSPropertyOp3
 70
     1
102
RTVSPropertyOp4
 70
     1
102
RTVSPropertyOp5
 70
     1
102
RTVSPropertyOp6
 70
     1
102
RTVSPropertyOp7
 70
     1
102
RTVSPropertyOp8
 70
     1
102
RTVSPropertyOp9
 70
     1
102
RTVSPropertyOp10
 70
     1
102
RTVSPropertyOp11
 70
     1
102
RTVSPropertyOp12
 70
     1
102
RTVSPropertyOp13
 70
     1
102
RTVSPropertyOp14
 70
     1
102
RTVSPropertyOp15
 70
     1
102
RTVSPropertyOp16
 70
     1
102
RTVSPropertyOp17
 70
     1
102
RTVSPropertyOp18
 70
     1
102
RTVSPropertyOp19
 70
     1
102
RTVSPropertyOp20
 70
     1
102
RTVSPropertyOp21
 70
     1
102
RTVSPropertyOp22
 70
     1
102
RTVSPropertyOp23
 70
     1
102
RTVSPropertyOp24
 70
     1
102
RTVSPropertyOp25
 70
     1
102
RTVSPropertyOp26
 70
     1
102
RTVSPropertyOp27
 70
     1
102
RTVSPropertyOp28
 70
     1
102
RTVSPropertyOp29
 70
     1
102
RTVSPropertyOp30
 70
     1
102
RTVSPropertyOp31
 70
     1
102
RTVSPropertyOp32
 70
     1
  0
XRECORD
  5
C4B
102
{ACAD_REACTORS
330
C4A
102
}
330
C4A
100
AcDbXrecord
280
     1
102
RTVSPropertyOp0
 70
     1
102
RTVSPropertyOp1
 70
     1
102
RTVSPropertyOp2
 70
     1
102
RTVSPropertyOp3
 70
     1
102
RTVSPropertyOp4
 70
     1
102
RTVSPropertyOp5
 70
     1
102
RTVSPropertyOp6
 70
     1
102
RTVSPropertyOp7
 70
     1
102
RTVSPropertyOp8
 70
     1
102
RTVSPropertyOp9
 70
     1
102
RTVSPropertyOp10
 70
     1
102
RTVSPropertyOp11
 70
     1
102
RTVSPropertyOp12
 70
     1
102
RTVSPropertyOp13
 70
     1
102
RTVSPropertyOp14
 70
     1
102
RTVSPropertyOp15
 70
     1
102
RTVSPropertyOp16
 70
     1
102
RTVSPropertyOp17
 70
     1
102
RTVSPropertyOp18
 70
     1
102
RTVSPropertyOp19
 70
     1
102
RTVSPropertyOp20
 70
     1
102
RTVSPropertyOp21
 70
     1
102
RTVSPropertyOp22
 70
     1
102
RTVSPropertyOp23
 70
     1
102
RTVSPropertyOp24
 70
     1
102
RTVSPropertyOp25
 70
     1
102
RTVSPropertyOp26
 70
     1
102
RTVSPropertyOp27
 70
     1
102
RTVSPropertyOp28
 70
     1
102
RTVSPropertyOp29
 70
     1
102
RTVSPropertyOp30
 70
     1
102
RTVSPropertyOp31
 70
     1
102
RTVSPropertyOp32
 70
     1
  0
XRECORD
  5
C45
102
{ACAD_REACTORS
330
C44
102
}
330
C44
100
AcDbXrecord
280
     1
102
RTVSPropertyOp0
 70
     1
102
RTVSPropertyOp1
 70
     1
102
RTVSPropertyOp2
 70
     1
102
RTVSPropertyOp3
 70
     1
102
RTVSPropertyOp4
 70
     1
102
RTVSPropertyOp5
 70
     1
102
RTVSPropertyOp6
 70
     1
102
RTVSPropertyOp7
 70
     1
102
RTVSPropertyOp8
 70
     1
102
RTVSPropertyOp9
 70
     1
102
RTVSPropertyOp10
 70
     1
102
RTVSPropertyOp11
 70
     1
102
RTVSPropertyOp12
 70
     1
102
RTVSPropertyOp13
 70
     1
102
RTVSPropertyOp14
 70
     1
102
RTVSPropertyOp15
 70
     1
102
RTVSPropertyOp16
 70
     1
102
RTVSPropertyOp17
 70
     1
102
RTVSPropertyOp18
 70
     1
102
RTVSPropertyOp19
 70
     1
102
RTVSPropertyOp20
 70
     1
102
RTVSPropertyOp21
 70
     1
102
RTVSPropertyOp22
 70
     1
102
RTVSPropertyOp23
 70
     1
102
RTVSPropertyOp24
 70
     1
102
RTVSPropertyOp25
 70
     1
102
RTVSPropertyOp26
 70
     1
102
RTVSPropertyOp27
 70
     1
102
RTVSPropertyOp28
 70
     1
102
RTVSPropertyOp29
 70
     1
102
RTVSPropertyOp30
 70
     1
102
RTVSPropertyOp31
 70
     1
102
RTVSPropertyOp32
 70
     1
  0
XRECORD
  5
C47
102
{ACAD_REACTORS
330
C46
102
}
330
C46
100
AcDbXrecord
280
     1
102
RTVSPropertyOp0
 70
     1
102
RTVSPropertyOp1
 70
     1
102
RTVSPropertyOp2
 70
     1
102
RTVSPropertyOp3
 70
     1
102
RTVSPropertyOp4
 70
     1
102
RTVSPropertyOp5
 70
     1
102
RTVSPropertyOp6
 70
     1
102
RTVSPropertyOp7
 70
     1
102
RTVSPropertyOp8
 70
     1
102
RTVSPropertyOp9
 70
     1
102
RTVSPropertyOp10
 70
     1
102
RTVSPropertyOp11
 70
     1
102
RTVSPropertyOp12
 70
     1
102
RTVSPropertyOp13
 70
     1
102
RTVSPropertyOp14
 70
     1
102
RTVSPropertyOp15
 70
     1
102
RTVSPropertyOp16
 70
     1
102
RTVSPropertyOp17
 70
     1
102
RTVSPropertyOp18
 70
     1
102
RTVSPropertyOp19
 70
     1
102
RTVSPropertyOp20
 70
     1
102
RTVSPropertyOp21
 70
     1
102
RTVSPropertyOp22
 70
     1
102
RTVSPropertyOp23
 70
     1
102
RTVSPropertyOp24
 70
     1
102
RTVSPropertyOp25
 70
     1
102
RTVSPropertyOp26
 70
     1
102
RTVSPropertyOp27
 70
     1
102
RTVSPropertyOp28
 70
     1
102
RTVSPropertyOp29
 70
     1
102
RTVSPropertyOp30
 70
     1
102
RTVSPropertyOp31
 70
     1
102
RTVSPropertyOp32
 70
     1
  0
XRECORD
  5
C34
102
{ACAD_REACTORS
330
C33
102
}
330
C33
100
AcDbXrecord
280
     1
102
RTVSPropertyOp0
 70
     1
102
RTVSPropertyOp1
 70
     1
102
RTVSPropertyOp2
 70
     1
102
RTVSPropertyOp3
 70
     1
102
RTVSPropertyOp4
 70
     1
102
RTVSPropertyOp5
 70
     1
102
RTVSPropertyOp6
 70
     1
102
RTVSPropertyOp7
 70
     1
102
RTVSPropertyOp8
 70
     1
102
RTVSPropertyOp9
 70
     1
102
RTVSPropertyOp10
 70
     1
102
RTVSPropertyOp11
 70
     1
102
RTVSPropertyOp12
 70
     1
102
RTVSPropertyOp13
 70
     1
102
RTVSPropertyOp14
 70
     1
102
RTVSPropertyOp15
 70
     1
102
RTVSPropertyOp16
 70
     1
102
RTVSPropertyOp17
 70
     1
102
RTVSPropertyOp18
 70
     1
102
RTVSPropertyOp19
 70
     1
102
RTVSPropertyOp20
 70
     1
102
RTVSPropertyOp21
 70
     1
102
RTVSPropertyOp22
 70
     1
102
RTVSPropertyOp23
 70
     1
102
RTVSPropertyOp24
 70
     1
102
RTVSPropertyOp25
 70
     1
102
RTVSPropertyOp26
 70
     1
102
RTVSPropertyOp27
 70
     1
102
RTVSPropertyOp28
 70
     1
102
RTVSPropertyOp29
 70
     1
102
RTVSPropertyOp30
 70
     1
102
RTVSPropertyOp31
 70
     1
102
RTVSPropertyOp32
 70
     1
  0
XRECORD
  5
C41
102
{ACAD_REACTORS
330
C40
102
}
330
C40
100
AcDbXrecord
280
     1
102
RTVSPropertyOp0
 70
     1
102
RTVSPropertyOp1
 70
     1
102
RTVSPropertyOp2
 70
     1
102
RTVSPropertyOp3
 70
     1
102
RTVSPropertyOp4
 70
     1
102
RTVSPropertyOp5
 70
     1
102
RTVSPropertyOp6
 70
     1
102
RTVSPropertyOp7
 70
     1
102
RTVSPropertyOp8
 70
     1
102
RTVSPropertyOp9
 70
     1
102
RTVSPropertyOp10
 70
     1
102
RTVSPropertyOp11
 70
     1
102
RTVSPropertyOp12
 70
     1
102
RTVSPropertyOp13
 70
     1
102
RTVSPropertyOp14
 70
     1
102
RTVSPropertyOp15
 70
     1
102
RTVSPropertyOp16
 70
     1
102
RTVSPropertyOp17
 70
     1
102
RTVSPropertyOp18
 70
     1
102
RTVSPropertyOp19
 70
     1
102
RTVSPropertyOp20
 70
     1
102
RTVSPropertyOp21
 70
     1
102
RTVSPropertyOp22
 70
     1
102
RTVSPropertyOp23
 70
     1
102
RTVSPropertyOp24
 70
     1
102
RTVSPropertyOp25
 70
     1
102
RTVSPropertyOp26
 70
     1
102
RTVSPropertyOp27
 70
     1
102
RTVSPropertyOp28
 70
     1
102
RTVSPropertyOp29
 70
     1
102
RTVSPropertyOp30
 70
     1
102
RTVSPropertyOp31
 70
     1
102
RTVSPropertyOp32
 70
     1
  0
XRECORD
  5
C49
102
{ACAD_REACTORS
330
C48
102
}
330
C48
100
AcDbXrecord
280
     1
102
RTVSPropertyOp0
 70
     1
102
RTVSPropertyOp1
 70
     1
102
RTVSPropertyOp2
 70
     1
102
RTVSPropertyOp3
 70
     1
102
RTVSPropertyOp4
 70
     1
102
RTVSPropertyOp5
 70
     1
102
RTVSPropertyOp6
 70
     1
102
RTVSPropertyOp7
 70
     1
102
RTVSPropertyOp8
 70
     1
102
RTVSPropertyOp9
 70
     1
102
RTVSPropertyOp10
 70
     1
102
RTVSPropertyOp11
 70
     1
102
RTVSPropertyOp12
 70
     1
102
RTVSPropertyOp13
 70
     1
102
RTVSPropertyOp14
 70
     1
102
RTVSPropertyOp15
 70
     1
102
RTVSPropertyOp16
 70
     1
102
RTVSPropertyOp17
 70
     1
102
RTVSPropertyOp18
 70
     1
102
RTVSPropertyOp19
 70
     1
102
RTVSPropertyOp20
 70
     1
102
RTVSPropertyOp21
 70
     1
102
RTVSPropertyOp22
 70
     1
102
RTVSPropertyOp23
 70
     1
102
RTVSPropertyOp24
 70
     1
102
RTVSPropertyOp25
 70
     1
102
RTVSPropertyOp26
 70
     1
102
RTVSPropertyOp27
 70
     1
102
RTVSPropertyOp28
 70
     1
102
RTVSPropertyOp29
 70
     1
102
RTVSPropertyOp30
 70
     1
102
RTVSPropertyOp31
 70
     1
102
RTVSPropertyOp32
 70
     1
  0
ENDSEC
  0
EOF
