  0
SECTION
  2
HEADER
  9
$ACADVER
  1
AC1015
  9
$ACADMAINTVER
 70
    20
  9
$DWGCODEPAGE
  3
ANSI_932
  9
$INSBASE
 10
0.0
 20
0.0
 30
0.0
  9
$EXTMIN
 10
494.3015579999998
 20
45.27148699999997
 30
0.0
  9
$EXTMAX
 10
899.3015579999999
 20
325.102114
 30
0.0
  9
$LIMMIN
 10
494.300544
 20
45.270488
  9
$LIMMAX
 10
899.328393
 20
325.103112
  9
$ORTHOMODE
 70
     0
  9
$REGENMODE
 70
     1
  9
$FILLMODE
 70
     1
  9
$QTEXTMODE
 70
     0
  9
$MIRRTEXT
 70
     0
  9
$LTSCALE
 40
6.750430999999997
  9
$ATTMODE
 70
     1
  9
$TEXTSIZE
 40
3.2
  9
$TRACEWID
 40
0.05
  9
$TEXTSTYLE
  7
高3.2
  9
$CLAYER
  8
0
  9
$CELTYPE
  6
CONTINUOUS
  9
$CECOLOR
 62
   256
  9
$CELTSCALE
 40
1.0
  9
$DISPSILH
 70
     0
  9
$DIMSCALE
 40
1.0
  9
$DIMASZ
 40
2.5
  9
$DIMEXO
 40
0.25
  9
$DIMDLI
 40
0.2
  9
$DIMRND
 40
0.0
  9
$DIMDLE
 40
0.0
  9
$DIMEXE
 40
1.25
  9
$DIMTP
 40
0.0
  9
$DIMTM
 40
0.0
  9
$DIMTXT
 40
3.0
  9
$DIMCEN
 40
0.0
  9
$DIMTSZ
 40
0.0
  9
$DIMTOL
 70
     0
  9
$DIMLIM
 70
     0
  9
$DIMTIH
 70
     0
  9
$DIMTOH
 70
     0
  9
$DIMSE1
 70
     0
  9
$DIMSE2
 70
     0
  9
$DIMTAD
 70
     3
  9
$DIMZIN
 70
     8
  9
$DIMBLK
  1
Open30
  9
$DIMASO
 70
     1
  9
$DIMSHO
 70
     1
  9
$DIMPOST
  1

  9
$DIMAPOST
  1

  9
$DIMALT
 70
     0
  9
$DIMALTD
 70
     3
  9
$DIMALTF
 40
0.03937007874016
  9
$DIMLFAC
 40
5.0
  9
$DIMTOFL
 70
     1
  9
$DIMTVP
 40
0.0
  9
$DIMTIX
 70
     0
  9
$DIMSOXD
 70
     0
  9
$DIMSAH
 70
     0
  9
$DIMBLK1
  1

  9
$DIMBLK2
  1

  9
$DIMSTYLE
  2
1／5
  9
$DIMCLRD
 70
     0
  9
$DIMCLRE
 70
     0
  9
$DIMCLRT
 70
     4
  9
$DIMTFAC
 40
1.0
  9
$DIMGAP
 40
0.625
  9
$DIMJUST
 70
     0
  9
$DIMSD1
 70
     0
  9
$DIMSD2
 70
     0
  9
$DIMTOLJ
 70
     0
  9
$DIMTZIN
 70
     8
  9
$DIMALTZ
 70
     0
  9
$DIMALTTZ
 70
     0
  9
$DIMUPT
 70
     1
  9
$DIMDEC
 70
     2
  9
$DIMTDEC
 70
     2
  9
$DIMALTU
 70
     2
  9
$DIMALTTD
 70
     3
  9
$DIMTXSTY
  7
STANDARD
  9
$DIMAUNIT
 70
     0
  9
$DIMADEC
 70
     1
  9
$DIMALTRND
 40
0.0
  9
$DIMAZIN
 70
     2
  9
$DIMDSEP
 70
    46
  9
$DIMATFIT
 70
     0
  9
$DIMFRAC
 70
     0
  9
$DIMLDRBLK
  1
Open30
  9
$DIMLUNIT
 70
     2
  9
$DIMLWD
 70
    -2
  9
$DIMLWE
 70
    -2
  9
$DIMTMOVE
 70
     0
  9
$LUNITS
 70
     2
  9
$LUPREC
 70
     4
  9
$SKETCHINC
 40
0.1
  9
$FILLETRAD
 40
0.0
  9
$AUNITS
 70
     0
  9
$AUPREC
 70
     0
  9
$MENU
  1
.
  9
$ELEVATION
 40
0.0
  9
$PELEVATION
 40
0.0
  9
$THICKNESS
 40
0.0
  9
$LIMCHECK
 70
     0
  9
$CHAMFERA
 40
0.0
  9
$CHAMFERB
 40
0.0
  9
$CHAMFERC
 40
0.0
  9
$CHAMFERD
 40
0.0
  9
$SKPOLY
 70
     0
  9
$TDCREATE
 40
2456184.755218576
  9
$TDUCREATE
 40
2456184.380218576
  9
$TDUPDATE
 40
2457596.679406470
  9
$TDUUPDATE
 40
2457596.304406470
  9
$TDINDWG
 40
0.0424142593
  9
$TDUSRTIMER
 40
0.0424140741
  9
$USRTIMER
 70
     1
  9
$ANGBASE
 50
0.0
  9
$ANGDIR
 70
     0
  9
$PDMODE
 70
     0
  9
$PDSIZE
 40
0.0
  9
$PLINEWID
 40
0.0
  9
$SPLFRAME
 70
     0
  9
$SPLINETYPE
 70
     6
  9
$SPLINESEGS
 70
     8
  9
$HANDSEED
  5
F5F
  9
$SURFTAB1
 70
     6
  9
$SURFTAB2
 70
     6
  9
$SURFTYPE
 70
     6
  9
$SURFU
 70
     6
  9
$SURFV
 70
     6
  9
$UCSBASE
  2

  9
$UCSNAME
  2

  9
$UCSORG
 10
0.0
 20
0.0
 30
0.0
  9
$UCSXDIR
 10
1.0
 20
0.0
 30
0.0
  9
$UCSYDIR
 10
0.0
 20
1.0
 30
0.0
  9
$UCSORTHOREF
  2

  9
$UCSORTHOVIEW
 70
     0
  9
$UCSORGTOP
 10
0.0
 20
0.0
 30
0.0
  9
$UCSORGBOTTOM
 10
0.0
 20
0.0
 30
0.0
  9
$UCSORGLEFT
 10
0.0
 20
0.0
 30
0.0
  9
$UCSORGRIGHT
 10
0.0
 20
0.0
 30
0.0
  9
$UCSORGFRONT
 10
0.0
 20
0.0
 30
0.0
  9
$UCSORGBACK
 10
0.0
 20
0.0
 30
0.0
  9
$PUCSBASE
  2

  9
$PUCSNAME
  2

  9
$PUCSORG
 10
0.0
 20
0.0
 30
0.0
  9
$PUCSXDIR
 10
1.0
 20
0.0
 30
0.0
  9
$PUCSYDIR
 10
0.0
 20
1.0
 30
0.0
  9
$PUCSORTHOREF
  2

  9
$PUCSORTHOVIEW
 70
     0
  9
$PUCSORGTOP
 10
0.0
 20
0.0
 30
0.0
  9
$PUCSORGBOTTOM
 10
0.0
 20
0.0
 30
0.0
  9
$PUCSORGLEFT
 10
0.0
 20
0.0
 30
0.0
  9
$PUCSORGRIGHT
 10
0.0
 20
0.0
 30
0.0
  9
$PUCSORGFRONT
 10
0.0
 20
0.0
 30
0.0
  9
$PUCSORGBACK
 10
0.0
 20
0.0
 30
0.0
  9
$USERI1
 70
     0
  9
$USERI2
 70
     0
  9
$USERI3
 70
     0
  9
$USERI4
 70
     0
  9
$USERI5
 70
     0
  9
$USERR1
 40
0.0
  9
$USERR2
 40
0.0
  9
$USERR3
 40
0.0
  9
$USERR4
 40
0.0
  9
$USERR5
 40
0.0
  9
$WORLDVIEW
 70
     1
  9
$SHADEDGE
 70
     3
  9
$SHADEDIF
 70
    70
  9
$TILEMODE
 70
     1
  9
$MAXACTVP
 70
    64
  9
$PINSBASE
 10
0.0
 20
0.0
 30
0.0
  9
$PLIMCHECK
 70
     0
  9
$PEXTMIN
 10
1.000000000000000E+20
 20
1.000000000000000E+20
 30
1.000000000000000E+20
  9
$PEXTMAX
 10
-1.000000000000000E+20
 20
-1.000000000000000E+20
 30
-1.000000000000000E+20
  9
$PLIMMIN
 10
0.0
 20
0.0
  9
$PLIMMAX
 10
12.0
 20
9.0
  9
$UNITMODE
 70
     0
  9
$VISRETAIN
 70
     1
  9
$PLINEGEN
 70
     0
  9
$PSLTSCALE
 70
     1
  9
$TREEDEPTH
 70
  3020
  9
$CMLSTYLE
  2
Standard
  9
$CMLJUST
 70
     0
  9
$CMLSCALE
 40
1.0
  9
$PROXYGRAPHICS
 70
     1
  9
$MEASUREMENT
 70
     0
  9
$CELWEIGHT
370
    -1
  9
$ENDCAPS
280
     0
  9
$JOINSTYLE
280
     0
  9
$LWDISPLAY
290
     0
  9
$INSUNITS
 70
     0
  9
$HYPERLINKBASE
  1

  9
$STYLESHEET
  1

  9
$XEDIT
290
     1
  9
$CEPSNTYPE
380
     0
  9
$PSTYLEMODE
290
     1
  9
$FINGERPRINTGUID
  2
{4F7048A0-0720-4069-A29E-ED59CD217348}
  9
$VERSIONGUID
  2
{938A680E-00A3-44D7-A268-E6F29C4AD074}
  9
$EXTNAMES
290
     1
  9
$PSVPSCALE
 40
0.0
  9
$OLESTARTUP
290
     0
  0
ENDSEC
  0
SECTION
  2
CLASSES
  0
CLASS
  1
ACDBDICTIONARYWDFLT
  2
AcDbDictionaryWithDefault
  3
ObjectDBX Classes
 90
        0
280
     0
281
     0
  0
CLASS
  1
MATERIAL
  2
AcDbMaterial
  3
ObjectDBX Classes
 90
     1153
280
     0
281
     0
  0
CLASS
  1
VISUALSTYLE
  2
AcDbVisualStyle
  3
ObjectDBX Classes
 90
     4095
280
     0
281
     0
  0
CLASS
  1
SCALE
  2
AcDbScale
  3
ObjectDBX Classes
 90
     1153
280
     0
281
     0
  0
CLASS
  1
TABLESTYLE
  2
AcDbTableStyle
  3
ObjectDBX Classes
 90
     4095
280
     0
281
     0
  0
CLASS
  1
MLEADERSTYLE
  2
AcDbMLeaderStyle
  3
ACDB_MLEADERSTYLE_CLASS
 90
     4095
280
     0
281
     0
  0
CLASS
  1
SORTENTSTABLE
  2
AcDbSortentsTable
  3
ObjectDBX Classes
 90
        0
280
     0
281
     0
  0
CLASS
  1
DICTIONARYVAR
  2
AcDbDictionaryVar
  3
ObjectDBX Classes
 90
        0
280
     0
281
     0
  0
CLASS
  1
CELLSTYLEMAP
  2
AcDbCellStyleMap
  3
ObjectDBX Classes
 90
     1152
280
     0
281
     0
  0
CLASS
  1
ACDBPLACEHOLDER
  2
AcDbPlaceHolder
  3
ObjectDBX Classes
 90
        0
280
     0
281
     0
  0
CLASS
  1
LAYOUT
  2
AcDbLayout
  3
ObjectDBX Classes
 90
        0
280
     0
281
     0
  0
CLASS
  1
AEC_REFEDIT_STATUS_TRACKER
  2
AecDbRefEditStatusTracker
  3
AecArchBase60|Product Desc: Autodesk Architectural Desktop 2007 |Company: Autodesk,Inc. |WEB Address: www.autodesk.com
 90
      129
280
     0
281
     0
  0
CLASS
  1
NPOCOLLECTION
  2
AcDbImpNonPersistentObjectsCollection
  3
ObjectDBX Classes
 90
     1153
280
     0
281
     0
  0
ENDSEC
  0
SECTION
  2
TABLES
  0
TABLE
  2
VPORT
  5
8
330
0
100
AcDbSymbolTable
 70
     1
  0
VPORT
  5
8B
330
8
100
AcDbSymbolTableRecord
100
AcDbViewportTableRecord
  2
*Active
 70
     0
 10
0.0
 20
0.0
 11
1.0
 21
1.0
 12
690.740532188883
 22
184.5848996169793
 13
0.0
 23
0.0
 14
1.0
 24
1.0
 15
0.0
 25
0.0
 16
0.0
 26
0.0
 36
1.0
 17
0.0
 27
0.0
 37
0.0
 40
506.6195046952556
 41
1.344428364688856
 42
50.0
 43
0.0
 44
0.0
 50
0.0
 51
0.0
 71
     0
 72
   100
 73
     1
 74
     1
 75
     0
 76
     0
 77
     0
 78
     0
281
     0
 65
     1
110
0.0
120
0.0
130
0.0
111
1.0
121
0.0
131
0.0
112
0.0
122
1.0
132
0.0
 79
     0
146
0.0
  0
ENDTAB
  0
TABLE
  2
LTYPE
  5
5
330
0
100
AcDbSymbolTable
 70
     3
  0
LTYPE
  5
5A
330
5
100
AcDbSymbolTableRecord
100
AcDbLinetypeTableRecord
  2
ByBlock
 70
     0
  3

 72
    65
 73
     0
 40
0.0
  0
LTYPE
  5
5B
330
5
100
AcDbSymbolTableRecord
100
AcDbLinetypeTableRecord
  2
ByLayer
 70
     0
  3

 72
    65
 73
     0
 40
0.0
  0
LTYPE
  5
5C
330
5
100
AcDbSymbolTableRecord
100
AcDbLinetypeTableRecord
  2
CONTINUOUS
 70
     0
  3
Solid-line
 72
    65
 73
     0
 40
0.0
  0
LTYPE
  5
72
330
5
100
AcDbSymbolTableRecord
100
AcDbLinetypeTableRecord
  2
CENTER
 70
     0
  3
CENTER
 72
    65
 73
     4
 40
2.0
 49
1.25
 74
     0
 49
-0.25
 74
     0
 49
0.25
 74
     0
 49
-0.25
 74
     0
  0
ENDTAB
  0
TABLE
  2
LAYER
  5
2
102
{ACAD_XDICTIONARY
360
55C
102
}
330
0
100
AcDbSymbolTable
 70
     2
  0
LAYER
  5
54
102
{ACAD_XDICTIONARY
360
864
102
}
330
2
100
AcDbSymbolTableRecord
100
AcDbLayerTableRecord
  2
0
 70
     0
 62
     7
  6
CONTINUOUS
370
    -3
390
F
  0
LAYER
  5
547
330
2
100
AcDbSymbolTableRecord
100
AcDbLayerTableRecord
  2
Defpoints
 70
     0
 62
     7
  6
CONTINUOUS
290
     0
370
    -3
390
F
  0
ENDTAB
  0
TABLE
  2
STYLE
  5
3
330
0
100
AcDbSymbolTable
 70
     6
  0
STYLE
  5
55
330
3
100
AcDbSymbolTableRecord
100
AcDbTextStyleTableRecord
  2
STANDARD
 70
     0
 40
0.0
 41
1.0
 50
0.0
 71
     0
 42
0.2
  3
TXT
  4
BIGFONT
  0
STYLE
  5
548
330
3
100
AcDbSymbolTableRecord
100
AcDbTextStyleTableRecord
  2
高3.2
 70
     0
 40
3.2
 41
1.0
 50
0.0
 71
     0
 42
3.2
  3
txt.shx
  4
bigfont.shx
  0
STYLE
  5
549
330
3
100
AcDbSymbolTableRecord
100
AcDbTextStyleTableRecord
  2
高6.3
 70
     0
 40
6.299999999999998
 41
1.0
 50
0.0
 71
     0
 42
6.299999999999998
  3
txt.shx
  4
bigfont.shx
  0
STYLE
  5
54A
330
3
100
AcDbSymbolTableRecord
100
AcDbTextStyleTableRecord
  2
高2.5
 70
     0
 40
2.5
 41
1.0
 50
0.0
 71
     0
 42
0.2
  3
txt.shx
  4
bigfont.shx
  0
STYLE
  5
54B
330
3
100
AcDbSymbolTableRecord
100
AcDbTextStyleTableRecord
  2
高4.5
 70
     0
 40
4.5
 41
1.0
 50
0.0
 71
     0
 42
6.299999999999998
  3
txt.shx
  4
bigfont.shx
  0
STYLE
  5
54C
330
3
100
AcDbSymbolTableRecord
100
AcDbTextStyleTableRecord
  2
高2
 70
     0
 40
2.0
 41
1.0
 50
0.0
 71
     0
 42
2.0
  3
txt.shx
  4
bigfont.shx
  0
ENDTAB
  0
TABLE
  2
VIEW
  5
6
330
0
100
AcDbSymbolTable
 70
     0
  0
ENDTAB
  0
TABLE
  2
UCS
  5
7
330
0
100
AcDbSymbolTable
 70
     0
  0
ENDTAB
  0
TABLE
  2
APPID
  5
9
330
0
100
AcDbSymbolTable
 70
    10
  0
APPID
  5
56
330
9
100
AcDbSymbolTableRecord
100
AcDbRegAppTableRecord
  2
ACAD
 70
     0
  0
APPID
  5
5D
330
9
100
AcDbSymbolTableRecord
100
AcDbRegAppTableRecord
  2
AcadAnnotative
 70
     0
  0
APPID
  5
557
330
9
100
AcDbSymbolTableRecord
100
AcDbRegAppTableRecord
  2
ACAD_DSTYLE_DIMJOGGED_JOGANGLE_SYMBOL
 70
     0
  0
APPID
  5
558
330
9
100
AcDbSymbolTableRecord
100
AcDbRegAppTableRecord
  2
ACAD_DSTYLE_DIMJAG
 70
     0
  0
APPID
  5
559
330
9
100
AcDbSymbolTableRecord
100
AcDbRegAppTableRecord
  2
ACAD_DSTYLE_DIMBREAK
 70
     0
  0
APPID
  5
55A
330
9
100
AcDbSymbolTableRecord
100
AcDbRegAppTableRecord
  2
ACAD_DSTYLE_DIMTALN
 70
     0
  0
APPID
  5
6F3
330
9
100
AcDbSymbolTableRecord
100
AcDbRegAppTableRecord
  2
ACAD_EXEMPT_FROM_CAD_STANDARDS
 70
     0
  0
APPID
  5
8F5
330
9
100
AcDbSymbolTableRecord
100
AcDbRegAppTableRecord
  2
ACAD_MLEADERVER
 70
     0
  0
APPID
  5
8FA
330
9
100
AcDbSymbolTableRecord
100
AcDbRegAppTableRecord
  2
ACAD_DSTYLE_DIMARC_LENGTH_SYMBOL
 70
     0
  0
APPID
  5
8FB
330
9
100
AcDbSymbolTableRecord
100
AcDbRegAppTableRecord
  2
ACAD_DSTYLE_DIMEXT_LENGTH
 70
     0
  0
ENDTAB
  0
TABLE
  2
DIMSTYLE
  5
A
330
0
100
AcDbSymbolTable
 70
    12
100
AcDbDimStyleTable
 71
     3
340
552
340
54D
340
57
  0
DIMSTYLE
105
57
330
A
100
AcDbSymbolTableRecord
100
AcDbDimStyleTableRecord
  2
Standard
 70
     0
340
55
  0
DIMSTYLE
105
54D
330
A
100
AcDbSymbolTableRecord
100
AcDbDimStyleTableRecord
  2
1：1
 70
     0
 41
2.5
 42
0.25
 43
0.2
 44
1.25
 73
     0
 74
     0
 77
     3
 78
     8
 79
     2
140
3.0
141
0.0
143
0.03937007874016
147
0.625
171
     3
172
     1
178
     4
179
     1
271
     2
272
     2
274
     3
283
     0
284
     8
288
     1
289
     0
340
55
341
4B7
342
4B7
1001
ACAD_DSTYLE_DIMARC_LENGTH_SYMBOL
1070
   379
1070
     2
1001
ACAD_DSTYLE_DIMEXT_LENGTH
1070
   378
1040
1.25
1001
ACAD_DSTYLE_DIMJOGGED_JOGANGLE_SYMBOL
1070
   384
1040
1.570796326794896
  0
DIMSTYLE
105
552
330
A
100
AcDbSymbolTableRecord
100
AcDbDimStyleTableRecord
  2
1／5
 70
     0
 41
2.5
 42
0.25
 43
0.2
 44
1.25
 73
     0
 74
     0
 77
     3
 78
     8
 79
     2
140
3.0
141
0.0
143
0.03937007874016
144
5.0
147
0.625
171
     3
172
     1
178
     4
179
     1
271
     2
272
     2
274
     3
283
     0
284
     8
288
     1
289
     0
340
55
341
4B7
342
4B7
1001
ACAD_DSTYLE_DIMARC_LENGTH_SYMBOL
1070
   379
1070
     2
1001
ACAD_DSTYLE_DIMEXT_LENGTH
1070
   378
1040
1.25
1001
ACAD_DSTYLE_DIMJOGGED_JOGANGLE_SYMBOL
1070
   384
1040
1.570796326794896
  0
DIMSTYLE
105
AC8
330
A
100
AcDbSymbolTableRecord
100
AcDbDimStyleTableRecord
  2
2：1
 70
     0
 41
2.5
 42
0.25
 43
0.2
 44
1.25
 73
     0
 74
     0
 77
     3
 78
     8
 79
     2
140
3.0
141
0.0
143
0.03937007874016
144
0.5
147
0.625
171
     3
172
     1
178
     4
179
     1
271
     2
272
     2
274
     3
283
     0
284
     8
288
     1
289
     0
340
55
341
4B7
342
4B7
1001
ACAD_DSTYLE_DIMARC_LENGTH_SYMBOL
1070
   379
1070
     2
1001
ACAD_DSTYLE_DIMEXT_LENGTH
1070
   378
1040
1.25
1001
ACAD_DSTYLE_DIMJOGGED_JOGANGLE_SYMBOL
1070
   384
1040
1.570796326794896
  0
DIMSTYLE
105
AC9
330
A
100
AcDbSymbolTableRecord
100
AcDbDimStyleTableRecord
  2
5：1
 70
     0
 41
2.5
 42
0.25
 43
0.2
 44
1.25
 73
     0
 74
     0
 77
     3
 78
     8
 79
     2
140
3.0
141
0.0
143
0.03937007874016
144
0.2
147
0.625
171
     3
172
     1
178
     4
179
     1
271
     2
272
     2
274
     3
283
     0
284
     8
288
     1
289
     0
340
55
341
4B7
342
4B7
1001
ACAD_DSTYLE_DIMARC_LENGTH_SYMBOL
1070
   379
1070
     2
1001
ACAD_DSTYLE_DIMEXT_LENGTH
1070
   378
1040
1.25
1001
ACAD_DSTYLE_DIMJOGGED_JOGANGLE_SYMBOL
1070
   384
1040
1.570796326794896
  0
DIMSTYLE
105
ACA
330
A
100
AcDbSymbolTableRecord
100
AcDbDimStyleTableRecord
  2
10：1
 70
     0
 41
2.5
 42
0.25
 43
0.2
 44
1.25
 73
     0
 74
     0
 77
     3
 78
     8
 79
     2
140
3.0
141
0.0
143
0.03937007874016
144
0.1
147
0.625
171
     3
172
     1
178
     4
179
     1
271
     2
272
     2
274
     3
283
     0
284
     8
288
     1
289
     0
340
55
341
4B7
342
4B7
1001
ACAD_DSTYLE_DIMARC_LENGTH_SYMBOL
1070
   379
1070
     2
1001
ACAD_DSTYLE_DIMEXT_LENGTH
1070
   378
1040
1.25
1001
ACAD_DSTYLE_DIMJOGGED_JOGANGLE_SYMBOL
1070
   384
1040
1.570796326794896
  0
DIMSTYLE
105
ACB
330
A
100
AcDbSymbolTableRecord
100
AcDbDimStyleTableRecord
  2
1／2
 70
     0
 41
2.5
 42
0.25
 43
0.2
 44
1.25
 73
     0
 74
     0
 77
     3
 78
     8
 79
     2
140
3.0
141
0.0
143
0.03937007874016
144
2.0
147
0.625
171
     3
172
     1
178
     4
179
     1
271
     2
272
     2
274
     3
283
     0
284
     8
288
     1
289
     0
340
55
341
4B7
342
4B7
1001
ACAD_DSTYLE_DIMARC_LENGTH_SYMBOL
1070
   379
1070
     2
1001
ACAD_DSTYLE_DIMEXT_LENGTH
1070
   378
1040
1.25
1001
ACAD_DSTYLE_DIMJOGGED_JOGANGLE_SYMBOL
1070
   384
1040
1.570796326794896
  0
DIMSTYLE
105
ACC
330
A
100
AcDbSymbolTableRecord
100
AcDbDimStyleTableRecord
  2
1／10
 70
     0
 41
2.5
 42
0.25
 43
0.2
 44
1.25
 73
     0
 74
     0
 77
     3
 78
     8
 79
     2
140
3.0
141
0.0
143
0.03937007874016
144
10.0
147
0.625
171
     3
172
     1
178
     4
179
     1
271
     2
272
     2
274
     3
283
     0
284
     8
288
     1
289
     0
340
55
341
4B7
342
4B7
1001
ACAD_DSTYLE_DIMARC_LENGTH_SYMBOL
1070
   379
1070
     2
1001
ACAD_DSTYLE_DIMEXT_LENGTH
1070
   378
1040
1.25
1001
ACAD_DSTYLE_DIMJOGGED_JOGANGLE_SYMBOL
1070
   384
1040
1.570796326794896
  0
DIMSTYLE
105
ACD
330
A
100
AcDbSymbolTableRecord
100
AcDbDimStyleTableRecord
  2
1／4
 70
     0
 41
2.5
 42
0.25
 43
0.2
 44
1.25
 73
     0
 74
     0
 77
     3
 78
     8
 79
     2
140
3.0
141
0.0
143
0.03937007874016
144
4.0
147
0.625
171
     3
172
     1
178
     4
179
     1
271
     2
272
     2
274
     3
283
     0
284
     8
288
     1
289
     0
340
55
341
4B7
342
4B7
1001
ACAD_DSTYLE_DIMARC_LENGTH_SYMBOL
1070
   379
1070
     2
1001
ACAD_DSTYLE_DIMEXT_LENGTH
1070
   378
1040
1.25
1001
ACAD_DSTYLE_DIMJOGGED_JOGANGLE_SYMBOL
1070
   384
1040
1.570796326794896
  0
DIMSTYLE
105
ACE
330
A
100
AcDbSymbolTableRecord
100
AcDbDimStyleTableRecord
  2
1／3
 70
     0
 41
2.5
 42
0.25
 43
0.2
 44
1.25
 73
     0
 74
     0
 77
     3
 78
     8
 79
     2
140
3.0
141
0.0
143
0.03937007874016
144
3.0
147
0.625
171
     3
172
     1
178
     4
179
     1
271
     2
272
     2
274
     3
283
     0
284
     8
288
     1
289
     0
340
55
341
4B7
342
4B7
1001
ACAD_DSTYLE_DIMARC_LENGTH_SYMBOL
1070
   379
1070
     2
1001
ACAD_DSTYLE_DIMEXT_LENGTH
1070
   378
1040
1.25
1001
ACAD_DSTYLE_DIMJOGGED_JOGANGLE_SYMBOL
1070
   384
1040
1.570796326794896
  0
DIMSTYLE
105
ACF
330
A
100
AcDbSymbolTableRecord
100
AcDbDimStyleTableRecord
  2
FREE
 70
     0
 41
2.5
 42
0.25
 43
0.2
 44
1.25
 73
     0
 74
     0
 77
     3
 78
     8
 79
     2
140
3.0
141
0.0
143
0.03937007874016
147
0.625
171
     3
172
     1
178
     4
179
     1
271
     2
272
     2
274
     3
283
     0
284
     8
288
     1
289
     0
340
55
341
4B7
342
4B7
1001
ACAD_DSTYLE_DIMBREAK
1070
   391
1040
3.75
1001
ACAD_DSTYLE_DIMJAG
1070
   388
1040
1.5
1001
ACAD_DSTYLE_DIMTALN
1070
   392
1070
     0
1001
ACAD_DSTYLE_DIMARC_LENGTH_SYMBOL
1070
   379
1070
     2
1001
ACAD_DSTYLE_DIMEXT_LENGTH
1070
   378
1040
1.25
1001
ACAD_DSTYLE_DIMJOGGED_JOGANGLE_SYMBOL
1070
   384
1040
1.570796326794896
  0
DIMSTYLE
105
DA1
330
A
100
AcDbSymbolTableRecord
100
AcDbDimStyleTableRecord
  2
ISO-25
 70
     0
 41
2.5
 42
0.625
 43
3.75
 44
1.25
 73
     0
 74
     0
 77
     1
 78
     8
140
2.5
141
2.5
143
0.03937007874016
147
0.625
171
     3
172
     1
271
     2
272
     2
274
     3
278
    44
283
     0
284
     8
340
55
  0
ENDTAB
  0
TABLE
  2
BLOCK_RECORD
  5
1
330
0
100
AcDbSymbolTable
 70
    34
  0
BLOCK_RECORD
  5
6B
102
{ACAD_XDICTIONARY
360
7ED
102
}
330
1
100
AcDbSymbolTableRecord
100
AcDbBlockTableRecord
  2
*Model_Space
340
6E
  0
BLOCK_RECORD
  5
67
330
1
100
AcDbSymbolTableRecord
100
AcDbBlockTableRecord
  2
*Paper_Space
340
6A
  0
BLOCK_RECORD
  5
4B7
330
1
100
AcDbSymbolTableRecord
100
AcDbBlockTableRecord
  2
_Open30
340
0
102
{BLKREFS
331
A45
331
A46
331
A53
331
A54
331
A61
331
A62
331
A6F
331
A70
331
A7D
331
A7E
331
A8B
331
A8C
331
A99
331
A9A
331
AA7
331
AA8
331
AB5
331
AB6
331
AC1
331
AC2
331
BA9
331
BAA
331
BB4
331
BB5
331
BBF
331
BC0
331
BCA
331
BCB
331
BD5
331
BD6
331
BE0
331
BE1
331
BEB
331
BEC
331
BF6
331
BF7
331
C01
331
C02
331
C0A
331
C0B
331
D26
331
D27
331
D2F
331
D30
331
D38
331
D39
331
D41
331
D42
331
D4C
331
D4D
331
D57
331
D58
331
D62
331
D63
331
D6B
331
D6C
331
D74
331
D75
331
D7D
331
D7E
331
D85
331
D86
331
D90
331
D91
102
}
  0
BLOCK_RECORD
  5
66E
330
1
100
AcDbSymbolTableRecord
100
AcDbBlockTableRecord
  2
*D1
340
0
  0
BLOCK_RECORD
  5
683
330
1
100
AcDbSymbolTableRecord
100
AcDbBlockTableRecord
  2
*D2
340
0
  0
BLOCK_RECORD
  5
68F
330
1
100
AcDbSymbolTableRecord
100
AcDbBlockTableRecord
  2
*D3
340
0
  0
BLOCK_RECORD
  5
6A4
330
1
100
AcDbSymbolTableRecord
100
AcDbBlockTableRecord
  2
*D4
340
0
  0
BLOCK_RECORD
  5
6B9
330
1
100
AcDbSymbolTableRecord
100
AcDbBlockTableRecord
  2
*D5
340
0
  0
BLOCK_RECORD
  5
6C7
330
1
100
AcDbSymbolTableRecord
100
AcDbBlockTableRecord
  2
*D6
340
0
  0
BLOCK_RECORD
  5
6F5
330
1
100
AcDbSymbolTableRecord
100
AcDbBlockTableRecord
  2
*D7
340
0
  0
BLOCK_RECORD
  5
723
330
1
100
AcDbSymbolTableRecord
100
AcDbBlockTableRecord
  2
*D8
340
0
  0
BLOCK_RECORD
  5
738
330
1
100
AcDbSymbolTableRecord
100
AcDbBlockTableRecord
  2
*D9
340
0
  0
BLOCK_RECORD
  5
744
330
1
100
AcDbSymbolTableRecord
100
AcDbBlockTableRecord
  2
*D10
340
0
  0
BLOCK_RECORD
  5
767
330
1
100
AcDbSymbolTableRecord
100
AcDbBlockTableRecord
  2
*D11
340
0
  0
BLOCK_RECORD
  5
780
330
1
100
AcDbSymbolTableRecord
100
AcDbBlockTableRecord
  2
*D12
340
0
  0
BLOCK_RECORD
  5
A3E
330
1
100
AcDbSymbolTableRecord
100
AcDbBlockTableRecord
  2
*D13
340
0
  0
BLOCK_RECORD
  5
A4C
330
1
100
AcDbSymbolTableRecord
100
AcDbBlockTableRecord
  2
*D14
340
0
  0
BLOCK_RECORD
  5
A5A
330
1
100
AcDbSymbolTableRecord
100
AcDbBlockTableRecord
  2
*D15
340
0
  0
BLOCK_RECORD
  5
A68
330
1
100
AcDbSymbolTableRecord
100
AcDbBlockTableRecord
  2
*D16
340
0
  0
BLOCK_RECORD
  5
A76
330
1
100
AcDbSymbolTableRecord
100
AcDbBlockTableRecord
  2
*D17
340
0
  0
BLOCK_RECORD
  5
A84
330
1
100
AcDbSymbolTableRecord
100
AcDbBlockTableRecord
  2
*D18
340
0
  0
BLOCK_RECORD
  5
A92
330
1
100
AcDbSymbolTableRecord
100
AcDbBlockTableRecord
  2
*D19
340
0
  0
BLOCK_RECORD
  5
AA0
330
1
100
AcDbSymbolTableRecord
100
AcDbBlockTableRecord
  2
*D20
340
0
  0
BLOCK_RECORD
  5
AAE
330
1
100
AcDbSymbolTableRecord
100
AcDbBlockTableRecord
  2
*D21
340
0
  0
BLOCK_RECORD
  5
ABC
330
1
100
AcDbSymbolTableRecord
100
AcDbBlockTableRecord
  2
*D22
340
0
  0
BLOCK_RECORD
  5
B1A
330
1
100
AcDbSymbolTableRecord
100
AcDbBlockTableRecord
  2
*D23
340
0
  0
BLOCK_RECORD
  5
B28
330
1
100
AcDbSymbolTableRecord
100
AcDbBlockTableRecord
  2
*D24
340
0
  0
BLOCK_RECORD
  5
B36
330
1
100
AcDbSymbolTableRecord
100
AcDbBlockTableRecord
  2
*D25
340
0
  0
BLOCK_RECORD
  5
B44
330
1
100
AcDbSymbolTableRecord
100
AcDbBlockTableRecord
  2
*D26
340
0
  0
BLOCK_RECORD
  5
B52
330
1
100
AcDbSymbolTableRecord
100
AcDbBlockTableRecord
  2
*D27
340
0
  0
BLOCK_RECORD
  5
B60
330
1
100
AcDbSymbolTableRecord
100
AcDbBlockTableRecord
  2
*D28
340
0
  0
BLOCK_RECORD
  5
B6E
330
1
100
AcDbSymbolTableRecord
100
AcDbBlockTableRecord
  2
*D29
340
0
  0
BLOCK_RECORD
  5
B7C
330
1
100
AcDbSymbolTableRecord
100
AcDbBlockTableRecord
  2
*D30
340
0
  0
BLOCK_RECORD
  5
B8A
330
1
100
AcDbSymbolTableRecord
100
AcDbBlockTableRecord
  2
*D31
340
0
  0
BLOCK_RECORD
  5
B98
330
1
100
AcDbSymbolTableRecord
100
AcDbBlockTableRecord
  2
*D32
340
0
  0
BLOCK_RECORD
  5
DA2
330
1
100
AcDbSymbolTableRecord
100
AcDbBlockTableRecord
  2
A$C0CE64B42
340
0
1001
ACAD
1000
DesignCenter Data
1002
{
1070
     1
1070
     4
1002
}
  0
ENDTAB
  0
ENDSEC
  0
SECTION
  2
BLOCKS
  0
BLOCK
  5
6C
330
6B
100
AcDbEntity
  8
0
100
AcDbBlockBegin
  2
*Model_Space
 70
     0
 10
0.0
 20
0.0
 30
0.0
  3
*Model_Space
  1

  0
ENDBLK
  5
6D
330
6B
100
AcDbEntity
  8
0
100
AcDbBlockEnd
  0
BLOCK
  5
68
330
67
100
AcDbEntity
 67
     1
  8
0
100
AcDbBlockBegin
  2
*Paper_Space
 70
     0
 10
0.0
 20
0.0
 30
0.0
  3
*Paper_Space
  1

  0
ENDBLK
  5
69
330
67
100
AcDbEntity
 67
     1
  8
0
100
AcDbBlockEnd
  0
BLOCK
  5
4B8
330
4B7
100
AcDbEntity
  8
0
100
AcDbBlockBegin
  2
_Open30
 70
     0
 10
0.0
 20
0.0
 30
0.0
  3
_Open30
  1

  0
LINE
  5
4B9
330
4B7
100
AcDbEntity
  8
0
  6
ByBlock
 62
     0
370
    -2
100
AcDbLine
 10
-1.0
 20
0.267949
 30
0.0
 11
0.0
 21
0.0
 31
0.0
  0
LINE
  5
4BA
330
4B7
100
AcDbEntity
  8
0
  6
ByBlock
 62
     0
370
    -2
100
AcDbLine
 10
0.0
 20
0.0
 30
0.0
 11
-1.0
 21
-0.267949
 31
0.0
  0
LINE
  5
4BB
330
4B7
100
AcDbEntity
  8
0
  6
ByBlock
 62
     0
370
    -2
100
AcDbLine
 10
0.0
 20
0.0
 30
0.0
 11
-1.0
 21
0.0
 31
0.0
  0
ENDBLK
  5
4BC
330
4B7
100
AcDbEntity
  8
0
100
AcDbBlockEnd
  0
BLOCK
  5
66F
330
66E
100
AcDbEntity
  8
0
100
AcDbBlockBegin
  2
*D1
 70
     1
 10
0.0
 20
0.0
 30
0.0
  3
*D1
  1

  0
LINE
  5
D23
330
66E
100
AcDbEntity
  8
0
 62
     0
370
    -2
100
AcDbLine
 10
777.9396849999997
 20
119.431296
 30
0.0
 11
777.9396849999997
 21
104.961236
 31
0.0
  0
LINE
  5
D24
330
66E
100
AcDbEntity
  8
0
 62
     0
370
    -2
100
AcDbLine
 10
837.239684
 20
120.091295
 30
0.0
 11
837.239684
 21
104.961236
 31
0.0
  0
LINE
  5
D25
330
66E
100
AcDbEntity
  8
0
 62
     0
370
    -2
100
AcDbLine
 10
780.4396849999997
 20
106.211236
 30
0.0
 11
834.739684
 21
106.211236
 31
0.0
  0
INSERT
  5
D26
330
66E
100
AcDbEntity
  8
0
 62
     0
370
    -2
100
AcDbBlockReference
  2
_Open30
 10
777.9396849999997
 20
106.211236
 30
0.0
 41
2.5
 42
2.5
 43
2.5
 50
180.0
  0
INSERT
  5
D27
330
66E
100
AcDbEntity
  8
0
 62
     0
370
    -2
100
AcDbBlockReference
  2
_Open30
 10
837.239684
 20
106.211236
 30
0.0
 41
2.5
 42
2.5
 43
2.5
  0
MTEXT
  5
D28
330
66E
100
AcDbEntity
  8
0
 62
     4
100
AcDbMText
 10
807.5896844999999
 20
108.336236
 30
0.0
 40
3.0
 41
0.0
 71
     5
 72
     1
  1
296
 73
     1
 44
1.0
1001
ACAD
1000
MTEXTBEGIN
1070
    73
1070
     1
1070
    44
1040
1.0
1070
    74
1070
     0
1000
MTEXTEND
  0
POINT
  5
D29
330
66E
100
AcDbEntity
  8
Defpoints
 62
     0
100
AcDbPoint
 10
777.9396849999997
 20
119.681296
 30
0.0
  0
POINT
  5
D2A
330
66E
100
AcDbEntity
  8
Defpoints
 62
     0
100
AcDbPoint
 10
837.239684
 20
120.341295
 30
0.0
  0
POINT
  5
D2B
330
66E
100
AcDbEntity
  8
Defpoints
 62
     0
100
AcDbPoint
 10
837.239684
 20
106.211236
 30
0.0
  0
ENDBLK
  5
670
330
66E
100
AcDbEntity
  8
0
100
AcDbBlockEnd
  0
BLOCK
  5
684
330
683
100
AcDbEntity
  8
0
100
AcDbBlockBegin
  2
*D2
 70
     1
 10
0.0
 20
0.0
 30
0.0
  3
*D2
  1

  0
LINE
  5
D2C
330
683
100
AcDbEntity
  8
0
 62
     0
370
    -2
100
AcDbLine
 10
640.5714059999998
 20
119.431296
 30
0.0
 11
640.5714059999998
 21
89.71177
 31
0.0
  0
LINE
  5
D2D
330
683
100
AcDbEntity
  8
0
 62
     0
370
    -2
100
AcDbLine
 10
728.5714059999996
 20
119.431296
 30
0.0
 11
728.5714059999996
 21
89.71177
 31
0.0
  0
LINE
  5
D2E
330
683
100
AcDbEntity
  8
0
 62
     0
370
    -2
100
AcDbLine
 10
643.0714059999997
 20
90.96177
 30
0.0
 11
726.0714059999997
 21
90.96177
 31
0.0
  0
INSERT
  5
D2F
330
683
100
AcDbEntity
  8
0
 62
     0
370
    -2
100
AcDbBlockReference
  2
_Open30
 10
640.5714059999998
 20
90.96177
 30
0.0
 41
2.5
 42
2.5
 43
2.5
 50
180.0
  0
INSERT
  5
D30
330
683
100
AcDbEntity
  8
0
 62
     0
370
    -2
100
AcDbBlockReference
  2
_Open30
 10
728.5714059999996
 20
90.96177
 30
0.0
 41
2.5
 42
2.5
 43
2.5
  0
MTEXT
  5
D31
330
683
100
AcDbEntity
  8
0
 62
     4
100
AcDbMText
 10
684.5714059999997
 20
93.08677000000001
 30
0.0
 40
3.0
 41
0.0
 71
     5
 72
     1
  1
440
 73
     1
 44
1.0
1001
ACAD
1000
MTEXTBEGIN
1070
    73
1070
     1
1070
    44
1040
1.0
1070
    74
1070
     0
1000
MTEXTEND
  0
POINT
  5
D32
330
683
100
AcDbEntity
  8
Defpoints
 62
     0
100
AcDbPoint
 10
640.5714059999998
 20
119.681296
 30
0.0
  0
POINT
  5
D33
330
683
100
AcDbEntity
  8
Defpoints
 62
     0
100
AcDbPoint
 10
728.5714059999996
 20
119.681296
 30
0.0
  0
POINT
  5
D34
330
683
100
AcDbEntity
  8
Defpoints
 62
     0
100
AcDbPoint
 10
728.5714059999996
 20
90.96177
 30
0.0
  0
ENDBLK
  5
685
330
683
100
AcDbEntity
  8
0
100
AcDbBlockEnd
  0
BLOCK
  5
690
330
68F
100
AcDbEntity
  8
0
100
AcDbBlockBegin
  2
*D3
 70
     1
 10
0.0
 20
0.0
 30
0.0
  3
*D3
  1

  0
LINE
  5
D35
330
68F
100
AcDbEntity
  8
0
 62
     0
370
    -2
100
AcDbLine
 10
641.0314049999997
 20
184.499586
 30
0.0
 11
641.0314049999997
 21
214.587919
 31
0.0
  0
LINE
  5
D36
330
68F
100
AcDbEntity
  8
0
 62
     0
370
    -2
100
AcDbLine
 10
728.111407
 20
184.499586
 30
0.0
 11
728.111407
 21
214.587919
 31
0.0
  0
LINE
  5
D37
330
68F
100
AcDbEntity
  8
0
 62
     0
370
    -2
100
AcDbLine
 10
643.5314049999997
 20
213.337919
 30
0.0
 11
725.6114069999999
 21
213.337919
 31
0.0
  0
INSERT
  5
D38
330
68F
100
AcDbEntity
  8
0
 62
     0
370
    -2
100
AcDbBlockReference
  2
_Open30
 10
641.0314049999997
 20
213.337919
 30
0.0
 41
2.5
 42
2.5
 43
2.5
 50
180.0
  0
INSERT
  5
D39
330
68F
100
AcDbEntity
  8
0
 62
     0
370
    -2
100
AcDbBlockReference
  2
_Open30
 10
728.111407
 20
213.337919
 30
0.0
 41
2.5
 42
2.5
 43
2.5
  0
MTEXT
  5
D3A
330
68F
100
AcDbEntity
  8
0
 62
     4
100
AcDbMText
 10
684.5714059999997
 20
215.462919
 30
0.0
 40
3.0
 41
0.0
 71
     5
 72
     1
  1
435
 73
     1
 44
1.0
1001
ACAD
1000
MTEXTBEGIN
1070
    73
1070
     1
1070
    44
1040
1.0
1070
    74
1070
     0
1000
MTEXTEND
  0
POINT
  5
D3B
330
68F
100
AcDbEntity
  8
Defpoints
 62
     0
100
AcDbPoint
 10
641.0314049999997
 20
184.249586
 30
0.0
  0
POINT
  5
D3C
330
68F
100
AcDbEntity
  8
Defpoints
 62
     0
100
AcDbPoint
 10
728.111407
 20
184.249586
 30
0.0
  0
POINT
  5
D3D
330
68F
100
AcDbEntity
  8
Defpoints
 62
     0
100
AcDbPoint
 10
728.111407
 20
213.337919
 30
0.0
  0
ENDBLK
  5
691
330
68F
100
AcDbEntity
  8
0
100
AcDbBlockEnd
  0
BLOCK
  5
6A5
330
6A4
100
AcDbEntity
  8
0
100
AcDbBlockBegin
  2
*D4
 70
     1
 10
0.0
 20
0.0
 30
0.0
  3
*D4
  1

  0
LINE
  5
D3E
330
6A4
100
AcDbEntity
  8
0
 62
     0
370
    -2
100
AcDbLine
 10
640.3214059999998
 20
119.681296
 30
0.0
 11
615.7539849999997
 21
119.681296
 31
0.0
  0
LINE
  5
D3F
330
6A4
100
AcDbEntity
  8
0
 62
     0
370
    -2
100
AcDbLine
 10
656.321405
 20
197.814212
 30
0.0
 11
615.7539849999997
 21
197.814212
 31
0.0
  0
LINE
  5
D40
330
6A4
100
AcDbEntity
  8
0
 62
     0
370
    -2
100
AcDbLine
 10
617.0039849999997
 20
122.181296
 30
0.0
 11
617.0039849999997
 21
195.314212
 31
0.0
  0
INSERT
  5
D41
330
6A4
100
AcDbEntity
  8
0
 62
     0
370
    -2
100
AcDbBlockReference
  2
_Open30
 10
617.0039849999997
 20
119.681296
 30
0.0
 41
2.5
 42
2.5
 43
2.5
 50
270.0
  0
INSERT
  5
D42
330
6A4
100
AcDbEntity
  8
0
 62
     0
370
    -2
100
AcDbBlockReference
  2
_Open30
 10
617.0039849999997
 20
197.814212
 30
0.0
 41
2.5
 42
2.5
 43
2.5
 50
90.0
  0
MTEXT
  5
D43
330
6A4
100
AcDbEntity
  8
0
 62
     4
100
AcDbMText
 10
614.8789849999997
 20
158.7477540000001
 30
0.0
 40
3.0
 41
0.0
 71
     5
 72
     1
  1
391
 11
0.0000000000000001
 21
1.0
 31
0.0
 73
     1
 44
1.0
1001
ACAD
1000
MTEXTBEGIN
1070
    73
1070
     1
1070
    44
1040
1.0
1070
    74
1070
     0
1000
MTEXTEND
  0
POINT
  5
D44
330
6A4
100
AcDbEntity
  8
Defpoints
 62
     0
100
AcDbPoint
 10
640.5714059999998
 20
119.681296
 30
0.0
  0
POINT
  5
D45
330
6A4
100
AcDbEntity
  8
Defpoints
 62
     0
100
AcDbPoint
 10
656.571405
 20
197.814212
 30
0.0
  0
POINT
  5
D46
330
6A4
100
AcDbEntity
  8
Defpoints
 62
     0
100
AcDbPoint
 10
617.0039849999997
 20
197.814212
 30
0.0
  0
ENDBLK
  5
6A6
330
6A4
100
AcDbEntity
  8
0
100
AcDbBlockEnd
  0
BLOCK
  5
6BA
330
6B9
100
AcDbEntity
  8
0
100
AcDbBlockBegin
  2
*D5
 70
     1
 10
0.0
 20
0.0
 30
0.0
  3
*D5
  1

  0
LINE
  5
D47
330
6B9
100
AcDbEntity
  8
0
 62
     0
370
    -2
100
AcDbLine
 10
640.3214059999998
 20
119.681296
 30
0.0
 11
625.0552799999998
 21
119.681296
 31
0.0
  0
LINE
  5
D48
330
6B9
100
AcDbEntity
  8
0
 62
     0
370
    -2
100
AcDbLine
 10
646.3214059999998
 20
129.221295
 30
0.0
 11
625.0552799999998
 21
129.221295
 31
0.0
  0
LINE
  5
D49
330
6B9
100
AcDbEntity
  8
0
 62
     0
370
    -2
100
AcDbLine
 10
626.3052799999997
 20
117.181296
 30
0.0
 11
626.3052799999997
 21
114.681296
 31
0.0
  0
LINE
  5
D4A
330
6B9
100
AcDbEntity
  8
0
 62
     0
370
    -2
100
AcDbLine
 10
626.3052799999997
 20
131.721295
 30
0.0
 11
626.3052799999997
 21
144.471295
 31
0.0
  0
LINE
  5
D4B
330
6B9
100
AcDbEntity
  8
0
 62
     0
370
    -2
100
AcDbLine
 10
626.3052799999997
 20
119.681296
 30
0.0
 11
626.3052799999997
 21
129.221295
 31
0.0
  0
INSERT
  5
D4C
330
6B9
100
AcDbEntity
  8
0
 62
     0
370
    -2
100
AcDbBlockReference
  2
_Open30
 10
626.3052799999997
 20
119.681296
 30
0.0
 41
2.5
 42
2.5
 43
2.5
 50
90.0
  0
INSERT
  5
D4D
330
6B9
100
AcDbEntity
  8
0
 62
     0
370
    -2
100
AcDbBlockReference
  2
_Open30
 10
626.3052799999997
 20
129.221295
 30
0.0
 41
2.5
 42
2.5
 43
2.5
 50
270.0
  0
MTEXT
  5
D4E
330
6B9
100
AcDbEntity
  8
0
 62
     4
100
AcDbMText
 10
624.1802799999998
 20
139.3462950000001
 30
0.0
 40
3.0
 41
0.0
 71
     5
 72
     1
  1
47.7
 11
0.0000000000000001
 21
1.0
 31
0.0
 73
     1
 44
1.0
1001
ACAD
1000
MTEXTBEGIN
1070
    73
1070
     1
1070
    44
1040
1.0
1070
    74
1070
     0
1000
MTEXTEND
  0
POINT
  5
D4F
330
6B9
100
AcDbEntity
  8
Defpoints
 62
     0
100
AcDbPoint
 10
640.5714059999998
 20
119.681296
 30
0.0
  0
POINT
  5
D50
330
6B9
100
AcDbEntity
  8
Defpoints
 62
     0
100
AcDbPoint
 10
646.5714059999998
 20
129.221295
 30
0.0
  0
POINT
  5
D51
330
6B9
100
AcDbEntity
  8
Defpoints
 62
     0
100
AcDbPoint
 10
626.3052799999997
 20
129.221295
 30
0.0
  0
ENDBLK
  5
6BB
330
6B9
100
AcDbEntity
  8
0
100
AcDbBlockEnd
  0
BLOCK
  5
6C8
330
6C7
100
AcDbEntity
  8
0
100
AcDbBlockBegin
  2
*D6
 70
     1
 10
0.0
 20
0.0
 30
0.0
  3
*D6
  1

  0
LINE
  5
D52
330
6C7
100
AcDbEntity
  8
0
 62
     0
370
    -2
100
AcDbLine
 10
681.1414059999999
 20
121.781296
 30
0.0
 11
669.985354
 21
121.781296
 31
0.0
  0
LINE
  5
D53
330
6C7
100
AcDbEntity
  8
0
 62
     0
370
    -2
100
AcDbLine
 10
684.3214059999998
 20
129.221295
 30
0.0
 11
669.985354
 21
129.221295
 31
0.0
  0
LINE
  5
D54
330
6C7
100
AcDbEntity
  8
0
 62
     0
370
    -2
100
AcDbLine
 10
671.235354
 20
119.281296
 30
0.0
 11
671.235354
 21
116.781296
 31
0.0
  0
LINE
  5
D55
330
6C7
100
AcDbEntity
  8
0
 62
     0
370
    -2
100
AcDbLine
 10
671.235354
 20
131.721295
 30
0.0
 11
671.235354
 21
144.471295
 31
0.0
  0
LINE
  5
D56
330
6C7
100
AcDbEntity
  8
0
 62
     0
370
    -2
100
AcDbLine
 10
671.235354
 20
121.781296
 30
0.0
 11
671.235354
 21
129.221295
 31
0.0
  0
INSERT
  5
D57
330
6C7
100
AcDbEntity
  8
0
 62
     0
370
    -2
100
AcDbBlockReference
  2
_Open30
 10
671.235354
 20
121.781296
 30
0.0
 41
2.5
 42
2.5
 43
2.5
 50
90.0
  0
INSERT
  5
D58
330
6C7
100
AcDbEntity
  8
0
 62
     0
370
    -2
100
AcDbBlockReference
  2
_Open30
 10
671.235354
 20
129.221295
 30
0.0
 41
2.5
 42
2.5
 43
2.5
 50
270.0
  0
MTEXT
  5
D59
330
6C7
100
AcDbEntity
  8
0
 62
     4
100
AcDbMText
 10
669.110354
 20
139.3462950000001
 30
0.0
 40
3.0
 41
0.0
 71
     5
 72
     1
  1
37.2
 11
0.0000000000000001
 21
1.0
 31
0.0
 73
     1
 44
1.0
1001
ACAD
1000
MTEXTBEGIN
1070
    73
1070
     1
1070
    44
1040
1.0
1070
    74
1070
     0
1000
MTEXTEND
  0
POINT
  5
D5A
330
6C7
100
AcDbEntity
  8
Defpoints
 62
     0
100
AcDbPoint
 10
681.391406
 20
121.781296
 30
0.0
  0
POINT
  5
D5B
330
6C7
100
AcDbEntity
  8
Defpoints
 62
     0
100
AcDbPoint
 10
684.5714059999997
 20
129.221295
 30
0.0
  0
POINT
  5
D5C
330
6C7
100
AcDbEntity
  8
Defpoints
 62
     0
100
AcDbPoint
 10
671.235354
 20
129.221295
 30
0.0
  0
ENDBLK
  5
6C9
330
6C7
100
AcDbEntity
  8
0
100
AcDbBlockEnd
  0
BLOCK
  5
6F6
330
6F5
100
AcDbEntity
  8
0
100
AcDbBlockBegin
  2
*D7
 70
     1
 10
0.0
 20
0.0
 30
0.0
  3
*D7
  1

  0
LINE
  5
D5D
330
6F5
100
AcDbEntity
  8
0
 62
     0
370
    -2
100
AcDbLine
 10
681.391406
 20
121.531296
 30
0.0
 11
681.391406
 21
105.118846
 31
0.0
  0
LINE
  5
D5E
330
6F5
100
AcDbEntity
  8
0
 62
     0
370
    -2
100
AcDbLine
 10
687.751406
 20
121.531296
 30
0.0
 11
687.751406
 21
105.118846
 31
0.0
  0
LINE
  5
D5F
330
6F5
100
AcDbEntity
  8
0
 62
     0
370
    -2
100
AcDbLine
 10
678.8914059999999
 20
106.368846
 30
0.0
 11
676.3914059999999
 21
106.368846
 31
0.0
  0
LINE
  5
D60
330
6F5
100
AcDbEntity
  8
0
 62
     0
370
    -2
100
AcDbLine
 10
690.2514059999999
 20
106.368846
 30
0.0
 11
726.201406
 21
106.368846
 31
0.0
  0
LINE
  5
D61
330
6F5
100
AcDbEntity
  8
0
 62
     0
370
    -2
100
AcDbLine
 10
681.391406
 20
106.368846
 30
0.0
 11
687.751406
 21
106.368846
 31
0.0
  0
INSERT
  5
D62
330
6F5
100
AcDbEntity
  8
0
 62
     0
370
    -2
100
AcDbBlockReference
  2
_Open30
 10
681.391406
 20
106.368846
 30
0.0
 41
2.5
 42
2.5
 43
2.5
  0
INSERT
  5
D63
330
6F5
100
AcDbEntity
  8
0
 62
     0
370
    -2
100
AcDbBlockReference
  2
_Open30
 10
687.751406
 20
106.368846
 30
0.0
 41
2.5
 42
2.5
 43
2.5
 50
180.0
  0
MTEXT
  5
D64
330
6F5
100
AcDbEntity
  8
0
 62
     4
100
AcDbMText
 10
709.476406
 20
108.493846
 30
0.0
 40
3.0
 41
0.0
 71
     5
 72
     1
  1
%%C31.8(内径27.8)
 73
     1
 44
1.0
1001
ACAD
1000
MTEXTBEGIN
1070
    73
1070
     1
1070
    44
1040
1.0
1070
    74
1070
     0
1000
MTEXTEND
  0
POINT
  5
D65
330
6F5
100
AcDbEntity
  8
Defpoints
 62
     0
100
AcDbPoint
 10
681.391406
 20
121.781296
 30
0.0
  0
POINT
  5
D66
330
6F5
100
AcDbEntity
  8
Defpoints
 62
     0
100
AcDbPoint
 10
687.751406
 20
121.781296
 30
0.0
  0
POINT
  5
D67
330
6F5
100
AcDbEntity
  8
Defpoints
 62
     0
100
AcDbPoint
 10
687.751406
 20
106.368846
 30
0.0
  0
ENDBLK
  5
6F7
330
6F5
100
AcDbEntity
  8
0
100
AcDbBlockEnd
  0
BLOCK
  5
724
330
723
100
AcDbEntity
  8
0
100
AcDbBlockBegin
  2
*D8
 70
     1
 10
0.0
 20
0.0
 30
0.0
  3
*D8
  1

  0
LINE
  5
D68
330
723
100
AcDbEntity
  8
0
 62
     0
370
    -2
100
AcDbLine
 10
728.8214059999996
 20
236.504492
 30
0.0
 11
745.3158879999997
 21
236.504492
 31
0.0
  0
LINE
  5
D69
330
723
100
AcDbEntity
  8
0
 62
     0
370
    -2
100
AcDbLine
 10
701.301012
 20
267.3044910000001
 30
0.0
 11
745.3158879999998
 21
267.3044910000001
 31
0.0
  0
LINE
  5
D6A
330
723
100
AcDbEntity
  8
0
 62
     0
370
    -2
100
AcDbLine
 10
744.0658879999997
 20
239.004492
 30
0.0
 11
744.0658879999999
 21
264.8044910000001
 31
0.0
  0
INSERT
  5
D6B
330
723
100
AcDbEntity
  8
0
 62
     0
370
    -2
100
AcDbBlockReference
  2
_Open30
 10
744.0658879999997
 20
236.504492
 30
0.0
 41
2.5
 42
2.5
 43
2.5
 50
270.0
  0
INSERT
  5
D6C
330
723
100
AcDbEntity
  8
0
 62
     0
370
    -2
100
AcDbBlockReference
  2
_Open30
 10
744.0658879999999
 20
267.3044910000001
 30
0.0
 41
2.5
 42
2.5
 43
2.5
 50
90.0
  0
MTEXT
  5
D6D
330
723
100
AcDbEntity
  8
0
 62
     4
100
AcDbMText
 10
741.9408879999997
 20
251.9044915000002
 30
0.0
 40
3.0
 41
0.0
 71
     5
 72
     1
  1
(154)
 11
0.0000000000000001
 21
1.0
 31
0.0
 73
     1
 44
1.0
1001
ACAD
1000
MTEXTBEGIN
1070
    73
1070
     1
1070
    44
1040
1.0
1070
    74
1070
     0
1000
MTEXTEND
  0
POINT
  5
D6E
330
723
100
AcDbEntity
  8
Defpoints
 62
     0
100
AcDbPoint
 10
728.5714059999996
 20
236.504492
 30
0.0
  0
POINT
  5
D6F
330
723
100
AcDbEntity
  8
Defpoints
 62
     0
100
AcDbPoint
 10
701.051012
 20
267.3044910000001
 30
0.0
  0
POINT
  5
D70
330
723
100
AcDbEntity
  8
Defpoints
 62
     0
100
AcDbPoint
 10
744.0658879999999
 20
267.3044910000001
 30
0.0
  0
ENDBLK
  5
725
330
723
100
AcDbEntity
  8
0
100
AcDbBlockEnd
  0
BLOCK
  5
739
330
738
100
AcDbEntity
  8
0
100
AcDbBlockBegin
  2
*D9
 70
     1
 10
0.0
 20
0.0
 30
0.0
  3
*D9
  1

  0
LINE
  5
D71
330
738
100
AcDbEntity
  8
0
 62
     0
370
    -2
100
AcDbLine
 10
677.2714059999997
 20
274.186038
 30
0.0
 11
677.2714059999997
 21
288.403919
 31
0.0
  0
LINE
  5
D72
330
738
100
AcDbEntity
  8
0
 62
     0
370
    -2
100
AcDbLine
 10
691.871406
 20
274.186038
 30
0.0
 11
691.871406
 21
288.403919
 31
0.0
  0
LINE
  5
D73
330
738
100
AcDbEntity
  8
0
 62
     0
370
    -2
100
AcDbLine
 10
679.7714059999997
 20
287.153919
 30
0.0
 11
689.3714059999999
 21
287.153919
 31
0.0
  0
INSERT
  5
D74
330
738
100
AcDbEntity
  8
0
 62
     0
370
    -2
100
AcDbBlockReference
  2
_Open30
 10
677.2714059999997
 20
287.153919
 30
0.0
 41
2.5
 42
2.5
 43
2.5
 50
180.0
  0
INSERT
  5
D75
330
738
100
AcDbEntity
  8
0
 62
     0
370
    -2
100
AcDbBlockReference
  2
_Open30
 10
691.871406
 20
287.153919
 30
0.0
 41
2.5
 42
2.5
 43
2.5
  0
MTEXT
  5
D76
330
738
100
AcDbEntity
  8
0
 62
     4
100
AcDbMText
 10
684.5714059999997
 20
289.278919
 30
0.0
 40
3.0
 41
0.0
 71
     5
 72
     1
  1
73
 73
     1
 44
1.0
1001
ACAD
1000
MTEXTBEGIN
1070
    73
1070
     1
1070
    44
1040
1.0
1070
    74
1070
     0
1000
MTEXTEND
  0
POINT
  5
D77
330
738
100
AcDbEntity
  8
Defpoints
 62
     0
100
AcDbPoint
 10
677.2714059999997
 20
273.936038
 30
0.0
  0
POINT
  5
D78
330
738
100
AcDbEntity
  8
Defpoints
 62
     0
100
AcDbPoint
 10
691.871406
 20
273.936038
 30
0.0
  0
POINT
  5
D79
330
738
100
AcDbEntity
  8
Defpoints
 62
     0
100
AcDbPoint
 10
691.871406
 20
287.153919
 30
0.0
  0
ENDBLK
  5
73A
330
738
100
AcDbEntity
  8
0
100
AcDbBlockEnd
  0
BLOCK
  5
745
330
744
100
AcDbEntity
  8
0
100
AcDbBlockBegin
  2
*D10
 70
     1
 10
0.0
 20
0.0
 30
0.0
  3
*D10
  1

  0
LINE
  5
D7A
330
744
100
AcDbEntity
  8
0
 62
     0
370
    -2
100
AcDbLine
 10
689.5462201615981
 20
270.0528573262973
 30
0.0
 11
687.9315082190374
 21
271.9614445898387
 31
0.0
  0
LINE
  5
D7B
330
744
100
AcDbEntity
  8
0
 62
     0
370
    -2
100
AcDbLine
 10
694.1965908384022
 20
264.5561256737031
 30
0.0
 11
710.4680747685771
 21
245.3232543673801
 31
0.0
  0
LINE
  5
D7C
330
744
100
AcDbEntity
  8
0
 62
     0
370
    -2
100
AcDbLine
 10
691.1609321041586
 20
268.144270062756
 30
0.0
 11
692.5818788958415
 21
266.4647129372444
 31
0.0
  0
INSERT
  5
D7D
330
744
100
AcDbEntity
  8
0
 62
     0
370
    -2
100
AcDbBlockReference
  2
_Open30
 10
691.1609321041586
 20
268.144270062756
 30
0.0
 41
2.5
 42
2.5
 43
2.5
 50
310.2320454663369
  0
INSERT
  5
D7E
330
744
100
AcDbEntity
  8
0
 62
     0
370
    -2
100
AcDbBlockReference
  2
_Open30
 10
692.5818788958415
 20
266.4647129372444
 30
0.0
 41
2.5
 42
2.5
 43
2.5
 50
130.2320454663369
  0
MTEXT
  5
D7F
102
{ACAD_XDICTIONARY
360
F59
102
}
330
744
100
AcDbEntity
  8
0
 62
     4
100
AcDbMText
 10
706.5842062184556
 20
253.2040420872325
 30
0.0
 40
3.0
 41
0.0
 71
     5
 72
     1
  1
3-\U+220511穴
 11
0.645884777024223
 21
-0.7634349054165455
 31
0.0
 73
     1
 44
1.0
1001
ACAD
1000
MTEXTBEGIN
1070
    73
1070
     1
1070
    44
1040
1.0
1070
    74
1070
     0
1000
MTEXTEND
  0
POINT
  5
D80
330
744
100
AcDbEntity
  8
Defpoints
 62
     0
100
AcDbPoint
 10
692.5818788958415
 20
266.4647129372444
 30
0.0
  0
POINT
  5
D81
330
744
100
AcDbEntity
  8
Defpoints
 62
     0
100
AcDbPoint
 10
691.1609321041586
 20
268.144270062756
 30
0.0
  0
ENDBLK
  5
746
330
744
100
AcDbEntity
  8
0
100
AcDbBlockEnd
  0
BLOCK
  5
768
330
767
100
AcDbEntity
  8
0
100
AcDbBlockBegin
  2
*D11
 70
     1
 10
0.0
 20
0.0
 30
0.0
  3
*D11
  1

  0
LINE
  5
D82
330
767
100
AcDbEntity
  8
0
 62
     0
370
    -2
100
AcDbLine
 10
684.5714059999998
 20
259.4229450000001
 30
0.0
 11
684.5714060000001
 21
236.4139678852789
 31
0.0
  0
LINE
  5
D83
330
767
100
AcDbEntity
  8
0
 62
     0
370
    -2
100
AcDbLine
 10
693.4313959086594
 20
256.7455668944544
 30
0.0
 11
704.4274522856308
 21
243.6409780696677
 31
0.0
  0
ARC
  5
D84
330
767
100
AcDbEntity
  8
0
 62
     0
370
    -2
100
AcDbCircle
 10
684.5714059999997
 20
267.3044910000001
 30
0.0
 40
29.64052311472122
100
AcDbArc
 50
274.8339882619206
 51
305.1660136042808
  0
INSERT
  5
D85
330
767
100
AcDbEntity
  8
0
 62
     0
370
    -2
100
AcDbBlockReference
  2
_Open30
 10
684.5714060000001
 20
237.6639678852789
 30
0.0
 41
2.5
 42
2.5
 43
2.5
 50
182.4169941309606
  0
INSERT
  5
D86
330
767
100
AcDbEntity
  8
0
 62
     0
370
    -2
100
AcDbBlockReference
  2
_Open30
 10
703.6239677423337
 20
244.5985335973959
 30
0.0
 41
2.5
 42
2.5
 43
2.5
 50
37.58300773524078
  0
MTEXT
  5
D87
102
{ACAD_XDICTIONARY
360
F5B
102
}
330
767
100
AcDbEntity
  8
0
 62
     4
100
AcDbMText
 10
693.6573504297643
 20
242.3410651097498
 30
0.0
 40
3.0
 41
0.0
 71
     5
 72
     1
  1
40\U+00B0{\H2.100000;\S+0\U+00B0^ -5\U+00B0;}
 11
0.939692615215878
 21
0.3420201586292011
 31
0.0
 73
     1
 44
1.0
1001
ACAD
1000
MTEXTBEGIN
1070
    73
1070
     1
1070
    44
1040
1.0
1070
    74
1070
     0
1000
MTEXTEND
  0
POINT
  5
D88
330
767
100
AcDbEntity
  8
Defpoints
 62
     0
100
AcDbPoint
 10
691.406981360499
 20
238.4629320961326
 30
0.0
  0
POINT
  5
D89
330
767
100
AcDbEntity
  8
Defpoints
 62
     0
100
AcDbPoint
 10
693.270699
 20
256.937078
 30
0.0
  0
POINT
  5
D8A
330
767
100
AcDbEntity
  8
Defpoints
 62
     0
100
AcDbPoint
 10
684.5714059999997
 20
267.3044910000001
 30
0.0
  0
POINT
  5
D8B
330
767
100
AcDbEntity
  8
Defpoints
 62
     0
100
AcDbPoint
 10
684.5714059999998
 20
259.6729450000001
 30
0.0
  0
POINT
  5
D8C
330
767
100
AcDbEntity
  8
Defpoints
 62
     0
100
AcDbPoint
 10
684.5714059999997
 20
267.3044910000001
 30
0.0
  0
ENDBLK
  5
769
330
767
100
AcDbEntity
  8
0
100
AcDbBlockEnd
  0
BLOCK
  5
781
330
780
100
AcDbEntity
  8
0
100
AcDbBlockBegin
  2
*D12
 70
     1
 10
0.0
 20
0.0
 30
0.0
  3
*D12
  1

  0
LINE
  5
D8D
330
780
100
AcDbEntity
  8
0
 62
     0
370
    -2
100
AcDbLine
 10
675.7114160913406
 20
256.7455668944544
 30
0.0
 11
664.800116322222
 21
243.7419870548902
 31
0.0
  0
LINE
  5
D8E
330
780
100
AcDbEntity
  8
0
 62
     0
370
    -2
100
AcDbLine
 10
684.5714059999997
 20
259.422945
 30
0.0
 11
684.5714059999997
 21
236.5458257544807
 31
0.0
  0
ARC
  5
D8F
330
780
100
AcDbEntity
  8
0
 62
     0
370
    -2
100
AcDbCircle
 10
684.5714059999997
 20
267.3044910000001
 30
0.0
 40
29.50866524551936
100
AcDbArc
 50
234.8555997180955
 51
265.1443984157048
  0
INSERT
  5
D90
330
780
100
AcDbEntity
  8
0
 62
     0
370
    -2
100
AcDbBlockReference
  2
_Open30
 10
665.6036008655192
 20
244.6995425826184
 30
0.0
 41
2.5
 42
2.5
 43
2.5
 50
142.4277989259481
  0
INSERT
  5
D91
330
780
100
AcDbEntity
  8
0
 62
     0
370
    -2
100
AcDbBlockReference
  2
_Open30
 10
684.5714059999997
 20
237.7958257544808
 30
0.0
 41
2.5
 42
2.5
 43
2.5
 50
357.5721992078523
  0
MTEXT
  5
D92
102
{ACAD_XDICTIONARY
360
F5D
102
}
330
780
100
AcDbEntity
  8
0
 62
     4
100
AcDbMText
 10
675.5305596195767
 20
242.4649709756967
 30
0.0
 40
3.0
 41
0.0
 71
     5
 72
     1
  1
40\U+00B0{\H2.100000;\S+0\U+00B0^ -5\U+00B0;}
 11
0.9396926152158862
 21
-0.3420201586291786
 31
0.0
 73
     1
 44
1.0
1001
ACAD
1000
MTEXTBEGIN
1070
    73
1070
     1
1070
    44
1040
1.0
1070
    74
1070
     0
1000
MTEXTEND
  0
POINT
  5
D93
330
780
100
AcDbEntity
  8
Defpoints
 62
     0
100
AcDbPoint
 10
671.3279406563989
 20
240.9345848517984
 30
0.0
  0
POINT
  5
D94
330
780
100
AcDbEntity
  8
Defpoints
 62
     0
100
AcDbPoint
 10
684.5714059999997
 20
259.672945
 30
0.0
  0
POINT
  5
D95
330
780
100
AcDbEntity
  8
Defpoints
 62
     0
100
AcDbPoint
 10
684.5714059999997
 20
267.3044910000001
 30
0.0
  0
POINT
  5
D96
330
780
100
AcDbEntity
  8
Defpoints
 62
     0
100
AcDbPoint
 10
675.8721130000001
 20
256.937078
 30
0.0
  0
POINT
  5
D97
330
780
100
AcDbEntity
  8
Defpoints
 62
     0
100
AcDbPoint
 10
684.5714059999997
 20
267.3044910000001
 30
0.0
  0
ENDBLK
  5
782
330
780
100
AcDbEntity
  8
0
100
AcDbBlockEnd
  0
BLOCK
  5
A3F
330
A3E
100
AcDbEntity
  8
0
100
AcDbBlockBegin
  2
*D13
 70
     1
 10
0.0
 20
0.0
 30
0.0
  3
*D13
  1

  0
LINE
  5
A40
330
A3E
100
AcDbEntity
  8
0
 62
     0
370
    -2
100
AcDbLine
 10
-178.2339678749101
 20
-812.0370112307897
 30
0.0
 11
-178.2339678749101
 21
-814.9466426527986
 31
0.0
  0
LINE
  5
A41
330
A3E
100
AcDbEntity
  8
0
 62
     0
370
    -2
100
AcDbLine
 10
-180.6911549290304
 20
-812.0370112307897
 30
0.0
 11
-180.6911549290304
 21
-814.9466426527986
 31
0.0
  0
LINE
  5
A42
330
A3E
100
AcDbEntity
  8
0
 62
     0
370
    -2
100
AcDbLine
 10
-175.7339678749101
 20
-813.6966426527985
 30
0.0
 11
-173.2339678749101
 21
-813.6966426527985
 31
0.0
  0
LINE
  5
A43
330
A3E
100
AcDbEntity
  8
0
 62
     0
370
    -2
100
AcDbLine
 10
-183.1911549290304
 20
-813.6966426527985
 30
0.0
 11
-195.9411549290304
 21
-813.6966426527985
 31
0.0
  0
LINE
  5
A44
330
A3E
100
AcDbEntity
  8
0
 62
     0
370
    -2
100
AcDbLine
 10
-178.2339678749101
 20
-813.6966426527985
 30
0.0
 11
-180.6911549290304
 21
-813.6966426527985
 31
0.0
  0
INSERT
  5
A45
330
A3E
100
AcDbEntity
  8
0
 62
     0
370
    -2
100
AcDbBlockReference
  2
_Open30
 10
-178.2339678749101
 20
-813.6966426527985
 30
0.0
 41
2.5
 42
2.5
 43
2.5
 50
180.0
  0
INSERT
  5
A46
330
A3E
100
AcDbEntity
  8
0
 62
     0
370
    -2
100
AcDbBlockReference
  2
_Open30
 10
-180.6911549290304
 20
-813.6966426527985
 30
0.0
 41
2.5
 42
2.5
 43
2.5
  0
MTEXT
  5
A47
330
A3E
100
AcDbEntity
  8
0
 62
     4
100
AcDbMText
 10
-190.8161549290304
 20
-811.5716426527985
 30
0.0
 40
3.0
 41
0.0
 71
     5
 72
     1
  1
2.46
 73
     1
 44
1.0
1001
ACAD
1000
MTEXTBEGIN
1070
    73
1070
     1
1070
    44
1040
1.0
1070
    74
1070
     0
1000
MTEXTEND
  0
POINT
  5
A48
330
A3E
100
AcDbEntity
  8
Defpoints
 62
     0
100
AcDbPoint
 10
-178.2339678749101
 20
-811.7870112307898
 30
0.0
  0
POINT
  5
A49
330
A3E
100
AcDbEntity
  8
Defpoints
 62
     0
100
AcDbPoint
 10
-180.6911549290304
 20
-811.7870112307898
 30
0.0
  0
POINT
  5
A4A
330
A3E
100
AcDbEntity
  8
Defpoints
 62
     0
100
AcDbPoint
 10
-180.6911549290304
 20
-813.6966426527985
 30
0.0
  0
ENDBLK
  5
A4B
330
A3E
100
AcDbEntity
  8
0
100
AcDbBlockEnd
  0
BLOCK
  5
A4D
330
A4C
100
AcDbEntity
  8
0
100
AcDbBlockBegin
  2
*D14
 70
     1
 10
0.0
 20
0.0
 30
0.0
  3
*D14
  1

  0
LINE
  5
A4E
330
A4C
100
AcDbEntity
  8
0
 62
     0
370
    -2
100
AcDbLine
 10
-176.5958429688369
 20
-817.4931008035521
 30
0.0
 11
-176.5958429688369
 21
-820.0389928730155
 31
0.0
  0
LINE
  5
A4F
330
A4C
100
AcDbEntity
  8
0
 62
     0
370
    -2
100
AcDbLine
 10
-179.6900787669798
 20
-817.4931008035521
 30
0.0
 11
-179.6900787669798
 21
-820.0389928730155
 31
0.0
  0
LINE
  5
A50
330
A4C
100
AcDbEntity
  8
0
 62
     0
370
    -2
100
AcDbLine
 10
-174.0958429688369
 20
-818.7889928730154
 30
0.0
 11
-171.5958429688369
 21
-818.7889928730154
 31
0.0
  0
LINE
  5
A51
330
A4C
100
AcDbEntity
  8
0
 62
     0
370
    -2
100
AcDbLine
 10
-182.1900787669798
 20
-818.7889928730154
 30
0.0
 11
-196.0234121003131
 21
-818.7889928730154
 31
0.0
  0
LINE
  5
A52
330
A4C
100
AcDbEntity
  8
0
 62
     0
370
    -2
100
AcDbLine
 10
-176.5958429688369
 20
-818.7889928730154
 30
0.0
 11
-179.6900787669798
 21
-818.7889928730154
 31
0.0
  0
INSERT
  5
A53
330
A4C
100
AcDbEntity
  8
0
 62
     0
370
    -2
100
AcDbBlockReference
  2
_Open30
 10
-176.5958429688369
 20
-818.7889928730154
 30
0.0
 41
2.5
 42
2.5
 43
2.5
 50
180.0
  0
INSERT
  5
A54
330
A4C
100
AcDbEntity
  8
0
 62
     0
370
    -2
100
AcDbBlockReference
  2
_Open30
 10
-179.6900787669798
 20
-818.7889928730154
 30
0.0
 41
2.5
 42
2.5
 43
2.5
  0
MTEXT
  5
A55
330
A4C
100
AcDbEntity
  8
0
 62
     4
100
AcDbMText
 10
-190.8150787669798
 20
-816.9139928730155
 30
0.0
 40
2.5
 41
0.0
 71
     5
 72
     1
  1
15.47
  7
高2.5
 73
     1
 44
1.0
1001
ACAD
1000
MTEXTBEGIN
1070
    73
1070
     1
1070
    44
1040
1.0
1070
    74
1070
     0
1000
MTEXTEND
  0
POINT
  5
A56
330
A4C
100
AcDbEntity
  8
Defpoints
 62
     0
100
AcDbPoint
 10
-176.5958429688369
 20
-817.2431008035522
 30
0.0
  0
POINT
  5
A57
330
A4C
100
AcDbEntity
  8
Defpoints
 62
     0
100
AcDbPoint
 10
-179.6900787669798
 20
-817.2431008035522
 30
0.0
  0
POINT
  5
A58
330
A4C
100
AcDbEntity
  8
Defpoints
 62
     0
100
AcDbPoint
 10
-179.6900787669798
 20
-818.7889928730154
 30
0.0
  0
ENDBLK
  5
A59
330
A4C
100
AcDbEntity
  8
0
100
AcDbBlockEnd
  0
BLOCK
  5
A5B
330
A5A
100
AcDbEntity
  8
0
100
AcDbBlockBegin
  2
*D15
 70
     1
 10
0.0
 20
0.0
 30
0.0
  3
*D15
  1

  0
LINE
  5
A5C
330
A5A
100
AcDbEntity
  8
0
 62
     0
370
    -2
100
AcDbLine
 10
-174.8667113607514
 20
-822.9491905193986
 30
0.0
 11
-174.8667113607514
 21
-825.2222781817659
 31
0.0
  0
LINE
  5
A5D
330
A5A
100
AcDbEntity
  8
0
 62
     0
370
    -2
100
AcDbLine
 10
-178.8710163139432
 20
-822.9491905193986
 30
0.0
 11
-178.8710163139432
 21
-825.2222781817659
 31
0.0
  0
LINE
  5
A5E
330
A5A
100
AcDbEntity
  8
0
 62
     0
370
    -2
100
AcDbLine
 10
-172.3667113607514
 20
-823.9722781817658
 30
0.0
 11
-169.8667113607514
 21
-823.9722781817658
 31
0.0
  0
LINE
  5
A5F
330
A5A
100
AcDbEntity
  8
0
 62
     0
370
    -2
100
AcDbLine
 10
-181.3710163139432
 20
-823.9722781817658
 30
0.0
 11
-193.1210163139432
 21
-823.9722781817658
 31
0.0
  0
LINE
  5
A60
330
A5A
100
AcDbEntity
  8
0
 62
     0
370
    -2
100
AcDbLine
 10
-174.8667113607514
 20
-823.9722781817658
 30
0.0
 11
-178.8710163139432
 21
-823.9722781817658
 31
0.0
  0
INSERT
  5
A61
330
A5A
100
AcDbEntity
  8
0
 62
     0
370
    -2
100
AcDbBlockReference
  2
_Open30
 10
-174.8667113607514
 20
-823.9722781817658
 30
0.0
 41
2.5
 42
2.5
 43
2.5
 50
180.0
  0
INSERT
  5
A62
330
A5A
100
AcDbEntity
  8
0
 62
     0
370
    -2
100
AcDbBlockReference
  2
_Open30
 10
-178.8710163139432
 20
-823.9722781817658
 30
0.0
 41
2.5
 42
2.5
 43
2.5
  0
MTEXT
  5
A63
330
A5A
100
AcDbEntity
  8
0
 62
     4
100
AcDbMText
 10
-188.4960163139432
 20
-821.7472781817658
 30
0.0
 40
3.2
 41
0.0
 71
     5
 72
     1
  1
8.01
  7
高3.2
 73
     1
 44
1.0
1001
ACAD
1000
MTEXTBEGIN
1070
    73
1070
     1
1070
    44
1040
1.0
1070
    74
1070
     0
1000
MTEXTEND
  0
POINT
  5
A64
330
A5A
100
AcDbEntity
  8
Defpoints
 62
     0
100
AcDbPoint
 10
-174.8667113607514
 20
-822.6991905193985
 30
0.0
  0
POINT
  5
A65
330
A5A
100
AcDbEntity
  8
Defpoints
 62
     0
100
AcDbPoint
 10
-178.8710163139432
 20
-822.6991905193985
 30
0.0
  0
POINT
  5
A66
330
A5A
100
AcDbEntity
  8
Defpoints
 62
     0
100
AcDbPoint
 10
-178.8710163139432
 20
-823.9722781817658
 30
0.0
  0
ENDBLK
  5
A67
330
A5A
100
AcDbEntity
  8
0
100
AcDbBlockEnd
  0
BLOCK
  5
A69
330
A68
100
AcDbEntity
  8
0
100
AcDbBlockBegin
  2
*D16
 70
     1
 10
0.0
 20
0.0
 30
0.0
  3
*D16
  1

  0
LINE
  5
A6A
330
A68
100
AcDbEntity
  8
0
 62
     0
370
    -2
100
AcDbLine
 10
-174.9577180627636
 20
-828.2234104874302
 30
0.0
 11
-174.9577180627636
 21
-830.0418239948866
 31
0.0
  0
LINE
  5
A6B
330
A68
100
AcDbEntity
  8
0
 62
     0
370
    -2
100
AcDbLine
 10
-179.6900787669798
 20
-828.2234104874302
 30
0.0
 11
-179.6900787669798
 21
-830.0418239948866
 31
0.0
  0
LINE
  5
A6C
330
A68
100
AcDbEntity
  8
0
 62
     0
370
    -2
100
AcDbLine
 10
-172.4577180627636
 20
-828.7918239948865
 30
0.0
 11
-169.9577180627637
 21
-828.7918239948865
 31
0.0
  0
LINE
  5
A6D
330
A68
100
AcDbEntity
  8
0
 62
     0
370
    -2
100
AcDbLine
 10
-182.1900787669798
 20
-828.7918239948865
 30
0.0
 11
-203.9400787669798
 21
-828.7918239948865
 31
0.0
  0
LINE
  5
A6E
330
A68
100
AcDbEntity
  8
0
 62
     0
370
    -2
100
AcDbLine
 10
-174.9577180627636
 20
-828.7918239948865
 30
0.0
 11
-179.6900787669798
 21
-828.7918239948865
 31
0.0
  0
INSERT
  5
A6F
330
A68
100
AcDbEntity
  8
0
 62
     0
370
    -2
100
AcDbBlockReference
  2
_Open30
 10
-174.9577180627636
 20
-828.7918239948865
 30
0.0
 41
2.5
 42
2.5
 43
2.5
 50
180.0
  0
INSERT
  5
A70
330
A68
100
AcDbEntity
  8
0
 62
     0
370
    -2
100
AcDbBlockReference
  2
_Open30
 10
-179.6900787669798
 20
-828.7918239948865
 30
0.0
 41
2.5
 42
2.5
 43
2.5
  0
MTEXT
  5
A71
330
A68
100
AcDbEntity
  8
0
 62
     4
100
AcDbMText
 10
-194.3150787669798
 20
-825.9168239948866
 30
0.0
 40
4.5
 41
0.0
 71
     5
 72
     1
  1
47.32
  7
高4.5
 73
     1
 44
1.0
1001
ACAD
1000
MTEXTBEGIN
1070
    73
1070
     1
1070
    44
1040
1.0
1070
    74
1070
     0
1000
MTEXTEND
  0
POINT
  5
A72
330
A68
100
AcDbEntity
  8
Defpoints
 62
     0
100
AcDbPoint
 10
-174.9577180627636
 20
-827.9734104874302
 30
0.0
  0
POINT
  5
A73
330
A68
100
AcDbEntity
  8
Defpoints
 62
     0
100
AcDbPoint
 10
-179.6900787669798
 20
-827.9734104874302
 30
0.0
  0
POINT
  5
A74
330
A68
100
AcDbEntity
  8
Defpoints
 62
     0
100
AcDbPoint
 10
-179.6900787669798
 20
-828.7918239948865
 30
0.0
  0
ENDBLK
  5
A75
330
A68
100
AcDbEntity
  8
0
100
AcDbBlockEnd
  0
BLOCK
  5
A77
330
A76
100
AcDbEntity
  8
0
100
AcDbBlockBegin
  2
*D17
 70
     1
 10
0.0
 20
0.0
 30
0.0
  3
*D17
  1

  0
LINE
  5
A78
330
A76
100
AcDbEntity
  8
0
 62
     0
370
    -2
100
AcDbLine
 10
-153.4800817947562
 20
-812.0370112307897
 30
0.0
 11
-153.4800817947562
 21
-814.9466426527986
 31
0.0
  0
LINE
  5
A79
330
A76
100
AcDbEntity
  8
0
 62
     0
370
    -2
100
AcDbLine
 10
-155.9372688488765
 20
-812.0370112307897
 30
0.0
 11
-155.9372688488765
 21
-814.9466426527986
 31
0.0
  0
LINE
  5
A7A
330
A76
100
AcDbEntity
  8
0
 62
     0
370
    -2
100
AcDbLine
 10
-150.9800817947562
 20
-813.6966426527985
 30
0.0
 11
-148.4800817947562
 21
-813.6966426527985
 31
0.0
  0
LINE
  5
A7B
330
A76
100
AcDbEntity
  8
0
 62
     0
370
    -2
100
AcDbLine
 10
-158.4372688488765
 20
-813.6966426527985
 30
0.0
 11
-180.0372688488765
 21
-813.6966426527985
 31
0.0
  0
LINE
  5
A7C
330
A76
100
AcDbEntity
  8
0
 62
     0
370
    -2
100
AcDbLine
 10
-153.4800817947562
 20
-813.6966426527985
 30
0.0
 11
-155.9372688488765
 21
-813.6966426527985
 31
0.0
  0
INSERT
  5
A7D
330
A76
100
AcDbEntity
  8
0
 62
     0
370
    -2
100
AcDbBlockReference
  2
_Open30
 10
-153.4800817947562
 20
-813.6966426527985
 30
0.0
 41
2.5
 42
2.5
 43
2.5
 50
180.0
  0
INSERT
  5
A7E
330
A76
100
AcDbEntity
  8
0
 62
     0
370
    -2
100
AcDbBlockReference
  2
_Open30
 10
-155.9372688488765
 20
-813.6966426527985
 30
0.0
 41
2.5
 42
2.5
 43
2.5
  0
MTEXT
  5
A7F
330
A76
100
AcDbEntity
  8
0
 62
     4
100
AcDbMText
 10
-170.4872688488765
 20
-809.9216426527986
 30
0.0
 40
6.299999999999998
 41
0.0
 71
     5
 72
     1
  1
0.25
  7
高6.3
 73
     1
 44
1.0
1001
ACAD
1000
MTEXTBEGIN
1070
    73
1070
     1
1070
    44
1040
1.0
1070
    74
1070
     0
1000
MTEXTEND
  0
POINT
  5
A80
330
A76
100
AcDbEntity
  8
Defpoints
 62
     0
100
AcDbPoint
 10
-153.4800817947562
 20
-811.7870112307898
 30
0.0
  0
POINT
  5
A81
330
A76
100
AcDbEntity
  8
Defpoints
 62
     0
100
AcDbPoint
 10
-155.9372688488765
 20
-811.7870112307898
 30
0.0
  0
POINT
  5
A82
330
A76
100
AcDbEntity
  8
Defpoints
 62
     0
100
AcDbPoint
 10
-155.9372688488765
 20
-813.6966426527985
 30
0.0
  0
ENDBLK
  5
A83
330
A76
100
AcDbEntity
  8
0
100
AcDbBlockEnd
  0
BLOCK
  5
A85
330
A84
100
AcDbEntity
  8
0
100
AcDbBlockBegin
  2
*D18
 70
     1
 10
0.0
 20
0.0
 30
0.0
  3
*D18
  1

  0
LINE
  5
A86
330
A84
100
AcDbEntity
  8
0
 62
     0
370
    -2
100
AcDbLine
 10
-151.841956888683
 20
-817.4931008035521
 30
0.0
 11
-151.841956888683
 21
-820.0389928730155
 31
0.0
  0
LINE
  5
A87
330
A84
100
AcDbEntity
  8
0
 62
     0
370
    -2
100
AcDbLine
 10
-154.9361926868259
 20
-817.4931008035521
 30
0.0
 11
-154.9361926868259
 21
-820.0389928730155
 31
0.0
  0
LINE
  5
A88
330
A84
100
AcDbEntity
  8
0
 62
     0
370
    -2
100
AcDbLine
 10
-149.341956888683
 20
-818.7889928730154
 30
0.0
 11
-146.841956888683
 21
-818.7889928730154
 31
0.0
  0
LINE
  5
A89
330
A84
100
AcDbEntity
  8
0
 62
     0
370
    -2
100
AcDbLine
 10
-157.4361926868259
 20
-818.7889928730154
 30
0.0
 11
-169.4361926868259
 21
-818.7889928730154
 31
0.0
  0
LINE
  5
A8A
330
A84
100
AcDbEntity
  8
0
 62
     0
370
    -2
100
AcDbLine
 10
-151.841956888683
 20
-818.7889928730154
 30
0.0
 11
-154.9361926868259
 21
-818.7889928730154
 31
0.0
  0
INSERT
  5
A8B
330
A84
100
AcDbEntity
  8
0
 62
     0
370
    -2
100
AcDbBlockReference
  2
_Open30
 10
-151.841956888683
 20
-818.7889928730154
 30
0.0
 41
2.5
 42
2.5
 43
2.5
 50
180.0
  0
INSERT
  5
A8C
330
A84
100
AcDbEntity
  8
0
 62
     0
370
    -2
100
AcDbBlockReference
  2
_Open30
 10
-154.9361926868259
 20
-818.7889928730154
 30
0.0
 41
2.5
 42
2.5
 43
2.5
  0
MTEXT
  5
A8D
330
A84
100
AcDbEntity
  8
0
 62
     4
100
AcDbMText
 10
-164.8111926868259
 20
-816.6639928730154
 30
0.0
 40
3.0
 41
0.0
 71
     5
 72
     1
  1
1.55
 73
     1
 44
1.0
1001
ACAD
1000
MTEXTBEGIN
1070
    73
1070
     1
1070
    44
1040
1.0
1070
    74
1070
     0
1000
MTEXTEND
  0
POINT
  5
A8E
330
A84
100
AcDbEntity
  8
Defpoints
 62
     0
100
AcDbPoint
 10
-151.841956888683
 20
-817.2431008035522
 30
0.0
  0
POINT
  5
A8F
330
A84
100
AcDbEntity
  8
Defpoints
 62
     0
100
AcDbPoint
 10
-154.9361926868259
 20
-817.2431008035522
 30
0.0
  0
POINT
  5
A90
330
A84
100
AcDbEntity
  8
Defpoints
 62
     0
100
AcDbPoint
 10
-154.9361926868259
 20
-818.7889928730154
 30
0.0
  0
ENDBLK
  5
A91
330
A84
100
AcDbEntity
  8
0
100
AcDbBlockEnd
  0
BLOCK
  5
A93
330
A92
100
AcDbEntity
  8
0
100
AcDbBlockBegin
  2
*D19
 70
     1
 10
0.0
 20
0.0
 30
0.0
  3
*D19
  1

  0
LINE
  5
A94
330
A92
100
AcDbEntity
  8
0
 62
     0
370
    -2
100
AcDbLine
 10
-150.1128252805975
 20
-822.9491905193986
 30
0.0
 11
-150.1128252805975
 21
-825.2222781817659
 31
0.0
  0
LINE
  5
A95
330
A92
100
AcDbEntity
  8
0
 62
     0
370
    -2
100
AcDbLine
 10
-154.1171302337894
 20
-822.9491905193986
 30
0.0
 11
-154.1171302337894
 21
-825.2222781817659
 31
0.0
  0
LINE
  5
A96
330
A92
100
AcDbEntity
  8
0
 62
     0
370
    -2
100
AcDbLine
 10
-147.6128252805976
 20
-823.9722781817658
 30
0.0
 11
-145.1128252805975
 21
-823.9722781817658
 31
0.0
  0
LINE
  5
A97
330
A92
100
AcDbEntity
  8
0
 62
     0
370
    -2
100
AcDbLine
 10
-156.6171302337894
 20
-823.9722781817658
 30
0.0
 11
-164.9504635671227
 21
-823.9722781817658
 31
0.0
  0
LINE
  5
A98
330
A92
100
AcDbEntity
  8
0
 62
     0
370
    -2
100
AcDbLine
 10
-150.1128252805975
 20
-823.9722781817658
 30
0.0
 11
-154.1171302337894
 21
-823.9722781817658
 31
0.0
  0
INSERT
  5
A99
330
A92
100
AcDbEntity
  8
0
 62
     0
370
    -2
100
AcDbBlockReference
  2
_Open30
 10
-150.1128252805975
 20
-823.9722781817658
 30
0.0
 41
2.5
 42
2.5
 43
2.5
 50
180.0
  0
INSERT
  5
A9A
330
A92
100
AcDbEntity
  8
0
 62
     0
370
    -2
100
AcDbBlockReference
  2
_Open30
 10
-154.1171302337894
 20
-823.9722781817658
 30
0.0
 41
2.5
 42
2.5
 43
2.5
  0
MTEXT
  5
A9B
330
A92
100
AcDbEntity
  8
0
 62
     4
100
AcDbMText
 10
-162.4921302337894
 20
-822.3472781817658
 30
0.0
 40
2.0
 41
0.0
 71
     5
 72
     1
  1
0.8
  7
高2
 73
     1
 44
1.0
1001
ACAD
1000
MTEXTBEGIN
1070
    73
1070
     1
1070
    44
1040
1.0
1070
    74
1070
     0
1000
MTEXTEND
  0
POINT
  5
A9C
330
A92
100
AcDbEntity
  8
Defpoints
 62
     0
100
AcDbPoint
 10
-150.1128252805975
 20
-822.6991905193985
 30
0.0
  0
POINT
  5
A9D
330
A92
100
AcDbEntity
  8
Defpoints
 62
     0
100
AcDbPoint
 10
-154.1171302337894
 20
-822.6991905193985
 30
0.0
  0
POINT
  5
A9E
330
A92
100
AcDbEntity
  8
Defpoints
 62
     0
100
AcDbPoint
 10
-154.1171302337894
 20
-823.9722781817658
 30
0.0
  0
ENDBLK
  5
A9F
330
A92
100
AcDbEntity
  8
0
100
AcDbBlockEnd
  0
BLOCK
  5
AA1
330
AA0
100
AcDbEntity
  8
0
100
AcDbBlockBegin
  2
*D20
 70
     1
 10
0.0
 20
0.0
 30
0.0
  3
*D20
  1

  0
LINE
  5
AA2
330
AA0
100
AcDbEntity
  8
0
 62
     0
370
    -2
100
AcDbLine
 10
-150.2038319826098
 20
-828.2234104874302
 30
0.0
 11
-150.2038319826098
 21
-830.0418239948866
 31
0.0
  0
LINE
  5
AA3
330
AA0
100
AcDbEntity
  8
0
 62
     0
370
    -2
100
AcDbLine
 10
-154.9361926868259
 20
-828.2234104874302
 30
0.0
 11
-154.9361926868259
 21
-830.0418239948866
 31
0.0
  0
LINE
  5
AA4
330
AA0
100
AcDbEntity
  8
0
 62
     0
370
    -2
100
AcDbLine
 10
-147.7038319826099
 20
-828.7918239948865
 30
0.0
 11
-145.2038319826098
 21
-828.7918239948865
 31
0.0
  0
LINE
  5
AA5
330
AA0
100
AcDbEntity
  8
0
 62
     0
370
    -2
100
AcDbLine
 10
-157.4361926868259
 20
-828.7918239948865
 30
0.0
 11
-172.1861926868259
 21
-828.7918239948865
 31
0.0
  0
LINE
  5
AA6
330
AA0
100
AcDbEntity
  8
0
 62
     0
370
    -2
100
AcDbLine
 10
-150.2038319826098
 20
-828.7918239948865
 30
0.0
 11
-154.9361926868259
 21
-828.7918239948865
 31
0.0
  0
INSERT
  5
AA7
330
AA0
100
AcDbEntity
  8
0
 62
     0
370
    -2
100
AcDbBlockReference
  2
_Open30
 10
-150.2038319826098
 20
-828.7918239948865
 30
0.0
 41
2.5
 42
2.5
 43
2.5
 50
180.0
  0
INSERT
  5
AA8
330
AA0
100
AcDbEntity
  8
0
 62
     0
370
    -2
100
AcDbBlockReference
  2
_Open30
 10
-154.9361926868259
 20
-828.7918239948865
 30
0.0
 41
2.5
 42
2.5
 43
2.5
  0
MTEXT
  5
AA9
330
AA0
100
AcDbEntity
  8
0
 62
     4
100
AcDbMText
 10
-166.0611926868259
 20
-826.6668239948867
 30
0.0
 40
3.0
 41
0.0
 71
     5
 72
     1
  1
18.93
 73
     1
 44
1.0
1001
ACAD
1000
MTEXTBEGIN
1070
    73
1070
     1
1070
    44
1040
1.0
1070
    74
1070
     0
1000
MTEXTEND
  0
POINT
  5
AAA
330
AA0
100
AcDbEntity
  8
Defpoints
 62
     0
100
AcDbPoint
 10
-150.2038319826098
 20
-827.9734104874302
 30
0.0
  0
POINT
  5
AAB
330
AA0
100
AcDbEntity
  8
Defpoints
 62
     0
100
AcDbPoint
 10
-154.9361926868259
 20
-827.9734104874302
 30
0.0
  0
POINT
  5
AAC
330
AA0
100
AcDbEntity
  8
Defpoints
 62
     0
100
AcDbPoint
 10
-154.9361926868259
 20
-828.7918239948865
 30
0.0
  0
ENDBLK
  5
AAD
330
AA0
100
AcDbEntity
  8
0
100
AcDbBlockEnd
  0
BLOCK
  5
AAF
330
AAE
100
AcDbEntity
  8
0
100
AcDbBlockBegin
  2
*D21
 70
     1
 10
0.0
 20
0.0
 30
0.0
  3
*D21
  1

  0
LINE
  5
AB0
330
AAE
100
AcDbEntity
  8
0
 62
     0
370
    -2
100
AcDbLine
 10
-153.0082588337482
 20
-833.2792506940199
 30
0.0
 11
-153.0082588337482
 21
-835.5891717708955
 31
0.0
  0
LINE
  5
AB1
330
AAE
100
AcDbEntity
  8
0
 62
     0
370
    -2
100
AcDbLine
 10
-157.5969340358961
 20
-833.2792506940199
 30
0.0
 11
-157.5969340358961
 21
-835.5891717708955
 31
0.0
  0
LINE
  5
AB2
330
AAE
100
AcDbEntity
  8
0
 62
     0
370
    -2
100
AcDbLine
 10
-150.5082588337482
 20
-834.3391717708955
 30
0.0
 11
-148.0082588337482
 21
-834.3391717708955
 31
0.0
  0
LINE
  5
AB3
330
AAE
100
AcDbEntity
  8
0
 62
     0
370
    -2
100
AcDbLine
 10
-160.0969340358961
 20
-834.3391717708955
 30
0.0
 11
-174.8469340358961
 21
-834.3391717708955
 31
0.0
  0
LINE
  5
AB4
330
AAE
100
AcDbEntity
  8
0
 62
     0
370
    -2
100
AcDbLine
 10
-153.0082588337482
 20
-834.3391717708955
 30
0.0
 11
-157.5969340358961
 21
-834.3391717708955
 31
0.0
  0
INSERT
  5
AB5
330
AAE
100
AcDbEntity
  8
0
 62
     0
370
    -2
100
AcDbBlockReference
  2
_Open30
 10
-153.0082588337482
 20
-834.3391717708955
 30
0.0
 41
2.5
 42
2.5
 43
2.5
 50
180.0
  0
INSERT
  5
AB6
330
AAE
100
AcDbEntity
  8
0
 62
     0
370
    -2
100
AcDbBlockReference
  2
_Open30
 10
-157.5969340358961
 20
-834.3391717708955
 30
0.0
 41
2.5
 42
2.5
 43
2.5
  0
MTEXT
  5
AB7
330
AAE
100
AcDbEntity
  8
0
 62
     4
100
AcDbMText
 10
-168.7219340358961
 20
-832.2141717708955
 30
0.0
 40
3.0
 41
0.0
 71
     5
 72
     1
  1
13.77
 73
     1
 44
1.0
1001
ACAD
1000
MTEXTBEGIN
1070
    73
1070
     1
1070
    44
1040
1.0
1070
    74
1070
     0
1000
MTEXTEND
  0
POINT
  5
AB8
330
AAE
100
AcDbEntity
  8
Defpoints
 62
     0
100
AcDbPoint
 10
-153.0082588337482
 20
-833.0292506940201
 30
0.0
  0
POINT
  5
AB9
330
AAE
100
AcDbEntity
  8
Defpoints
 62
     0
100
AcDbPoint
 10
-157.5969340358961
 20
-833.0292506940201
 30
0.0
  0
POINT
  5
ABA
330
AAE
100
AcDbEntity
  8
Defpoints
 62
     0
100
AcDbPoint
 10
-157.5969340358961
 20
-834.3391717708955
 30
0.0
  0
ENDBLK
  5
ABB
330
AAE
100
AcDbEntity
  8
0
100
AcDbBlockEnd
  0
BLOCK
  5
ABD
330
ABC
100
AcDbEntity
  8
0
100
AcDbBlockBegin
  2
*D22
 70
     1
 10
0.0
 20
0.0
 30
0.0
  3
*D22
  1

  0
LINE
  5
ABE
330
ABC
100
AcDbEntity
  8
0
 62
     0
370
    -2
100
AcDbLine
 10
-160.1045416668985
 20
-802.3497593757458
 30
0.0
 11
-160.1045416668985
 21
-794.9532258978079
 31
0.0
  0
LINE
  5
ABF
330
ABC
100
AcDbEntity
  8
0
 62
     0
370
    -2
100
AcDbLine
 10
-170.0430160363884
 20
-802.3497593757458
 30
0.0
 11
-170.0430160363884
 21
-794.9532258978079
 31
0.0
  0
LINE
  5
AC0
330
ABC
100
AcDbEntity
  8
0
 62
     0
370
    -2
100
AcDbLine
 10
-162.6045416668985
 20
-796.2032258978077
 30
0.0
 11
-167.5430160363885
 21
-796.2032258978077
 31
0.0
  0
INSERT
  5
AC1
330
ABC
100
AcDbEntity
  8
0
 62
     0
370
    -2
100
AcDbBlockReference
  2
_Open30
 10
-160.1045416668985
 20
-796.2032258978077
 30
0.0
 41
2.5
 42
2.5
 43
2.5
  0
INSERT
  5
AC2
330
ABC
100
AcDbEntity
  8
0
 62
     0
370
    -2
100
AcDbBlockReference
  2
_Open30
 10
-170.0430160363884
 20
-796.2032258978077
 30
0.0
 41
2.5
 42
2.5
 43
2.5
 50
180.0
  0
MTEXT
  5
AC3
330
ABC
100
AcDbEntity
  8
0
 62
     4
100
AcDbMText
 10
-165.0737788516435
 20
-793.1282258978077
 30
0.0
 40
3.0
 41
0.0
 71
     5
 72
     1
  1
9.94\H0.7X;\S+0^ -0.02;
 73
     1
 44
1.0
1001
ACAD
1000
MTEXTBEGIN
1070
    73
1070
     1
1070
    44
1040
1.0
1070
    74
1070
     0
1000
MTEXTEND
  0
POINT
  5
AC4
330
ABC
100
AcDbEntity
  8
Defpoints
 62
     0
100
AcDbPoint
 10
-160.1045416668985
 20
-802.5997593757455
 30
0.0
  0
POINT
  5
AC5
330
ABC
100
AcDbEntity
  8
Defpoints
 62
     0
100
AcDbPoint
 10
-170.0430160363884
 20
-802.5997593757455
 30
0.0
  0
POINT
  5
AC6
330
ABC
100
AcDbEntity
  8
Defpoints
 62
     0
100
AcDbPoint
 10
-170.0430160363884
 20
-796.2032258978077
 30
0.0
  0
ENDBLK
  5
AC7
330
ABC
100
AcDbEntity
  8
0
100
AcDbBlockEnd
  0
BLOCK
  5
B1B
330
B1A
100
AcDbEntity
  8
0
100
AcDbBlockBegin
  2
*D23
 70
     1
 10
0.0
 20
0.0
 30
0.0
  3
*D23
  1

  0
LINE
  5
BA4
330
B1A
100
AcDbEntity
  8
0
 62
     0
370
    -2
100
AcDbLine
 10
1192.282925860339
 20
292.4476176889657
 30
0.0
 11
1192.282925860339
 21
289.5379862669569
 31
0.0
  0
LINE
  5
BA5
330
B1A
100
AcDbEntity
  8
0
 62
     0
370
    -2
100
AcDbLine
 10
1189.825738806218
 20
292.4476176889657
 30
0.0
 11
1189.825738806218
 21
289.5379862669569
 31
0.0
  0
LINE
  5
BA6
330
B1A
100
AcDbEntity
  8
0
 62
     0
370
    -2
100
AcDbLine
 10
1194.782925860339
 20
290.7879862669568
 30
0.0
 11
1197.282925860339
 21
290.7879862669568
 31
0.0
  0
LINE
  5
BA7
330
B1A
100
AcDbEntity
  8
0
 62
     0
370
    -2
100
AcDbLine
 10
1187.325738806218
 20
290.7879862669568
 30
0.0
 11
1174.575738806218
 21
290.7879862669568
 31
0.0
  0
LINE
  5
BA8
330
B1A
100
AcDbEntity
  8
0
 62
     0
370
    -2
100
AcDbLine
 10
1192.282925860339
 20
290.7879862669568
 30
0.0
 11
1189.825738806218
 21
290.7879862669568
 31
0.0
  0
INSERT
  5
BA9
330
B1A
100
AcDbEntity
  8
0
 62
     0
370
    -2
100
AcDbBlockReference
  2
_Open30
 10
1192.282925860339
 20
290.7879862669568
 30
0.0
 41
2.5
 42
2.5
 43
2.5
 50
180.0
  0
INSERT
  5
BAA
330
B1A
100
AcDbEntity
  8
0
 62
     0
370
    -2
100
AcDbBlockReference
  2
_Open30
 10
1189.825738806218
 20
290.7879862669568
 30
0.0
 41
2.5
 42
2.5
 43
2.5
  0
MTEXT
  5
BAB
330
B1A
100
AcDbEntity
  8
0
 62
     4
100
AcDbMText
 10
1179.700738806218
 20
292.9129862669569
 30
0.0
 40
3.0
 41
0.0
 71
     5
 72
     1
  1
2.46
 73
     1
 44
1.0
1001
ACAD
1000
MTEXTBEGIN
1070
    73
1070
     1
1070
    44
1040
1.0
1070
    74
1070
     0
1000
MTEXTEND
  0
POINT
  5
BAC
330
B1A
100
AcDbEntity
  8
Defpoints
 62
     0
100
AcDbPoint
 10
1192.282925860339
 20
292.6976176889657
 30
0.0
  0
POINT
  5
BAD
330
B1A
100
AcDbEntity
  8
Defpoints
 62
     0
100
AcDbPoint
 10
1189.825738806218
 20
292.6976176889657
 30
0.0
  0
POINT
  5
BAE
330
B1A
100
AcDbEntity
  8
Defpoints
 62
     0
100
AcDbPoint
 10
1189.825738806218
 20
290.7879862669568
 30
0.0
  0
ENDBLK
  5
B1C
330
B1A
100
AcDbEntity
  8
0
100
AcDbBlockEnd
  0
BLOCK
  5
B29
330
B28
100
AcDbEntity
  8
0
100
AcDbBlockBegin
  2
*D24
 70
     1
 10
0.0
 20
0.0
 30
0.0
  3
*D24
  1

  0
LINE
  5
BAF
330
B28
100
AcDbEntity
  8
0
 62
     0
370
    -2
100
AcDbLine
 10
1193.921050766412
 20
286.9915281162033
 30
0.0
 11
1193.921050766412
 21
284.44563604674
 31
0.0
  0
LINE
  5
BB0
330
B28
100
AcDbEntity
  8
0
 62
     0
370
    -2
100
AcDbLine
 10
1190.826814968269
 20
286.9915281162033
 30
0.0
 11
1190.826814968269
 21
284.44563604674
 31
0.0
  0
LINE
  5
BB1
330
B28
100
AcDbEntity
  8
0
 62
     0
370
    -2
100
AcDbLine
 10
1196.421050766412
 20
285.69563604674
 30
0.0
 11
1198.921050766412
 21
285.69563604674
 31
0.0
  0
LINE
  5
BB2
330
B28
100
AcDbEntity
  8
0
 62
     0
370
    -2
100
AcDbLine
 10
1188.326814968269
 20
285.69563604674
 30
0.0
 11
1174.493481634935
 21
285.69563604674
 31
0.0
  0
LINE
  5
BB3
330
B28
100
AcDbEntity
  8
0
 62
     0
370
    -2
100
AcDbLine
 10
1193.921050766412
 20
285.69563604674
 30
0.0
 11
1190.826814968269
 21
285.69563604674
 31
0.0
  0
INSERT
  5
BB4
330
B28
100
AcDbEntity
  8
0
 62
     0
370
    -2
100
AcDbBlockReference
  2
_Open30
 10
1193.921050766412
 20
285.69563604674
 30
0.0
 41
2.5
 42
2.5
 43
2.5
 50
180.0
  0
INSERT
  5
BB5
330
B28
100
AcDbEntity
  8
0
 62
     0
370
    -2
100
AcDbBlockReference
  2
_Open30
 10
1190.826814968269
 20
285.69563604674
 30
0.0
 41
2.5
 42
2.5
 43
2.5
  0
MTEXT
  5
BB6
330
B28
100
AcDbEntity
  8
0
 62
     4
100
AcDbMText
 10
1179.701814968269
 20
287.57063604674
 30
0.0
 40
2.5
 41
0.0
 71
     5
 72
     1
  1
15.47
  7
高2.5
 73
     1
 44
1.0
1001
ACAD
1000
MTEXTBEGIN
1070
    73
1070
     1
1070
    44
1040
1.0
1070
    74
1070
     0
1000
MTEXTEND
  0
POINT
  5
BB7
330
B28
100
AcDbEntity
  8
Defpoints
 62
     0
100
AcDbPoint
 10
1193.921050766412
 20
287.2415281162033
 30
0.0
  0
POINT
  5
BB8
330
B28
100
AcDbEntity
  8
Defpoints
 62
     0
100
AcDbPoint
 10
1190.826814968269
 20
287.2415281162033
 30
0.0
  0
POINT
  5
BB9
330
B28
100
AcDbEntity
  8
Defpoints
 62
     0
100
AcDbPoint
 10
1190.826814968269
 20
285.69563604674
 30
0.0
  0
ENDBLK
  5
B2A
330
B28
100
AcDbEntity
  8
0
100
AcDbBlockEnd
  0
BLOCK
  5
B37
330
B36
100
AcDbEntity
  8
0
100
AcDbBlockBegin
  2
*D25
 70
     1
 10
0.0
 20
0.0
 30
0.0
  3
*D25
  1

  0
LINE
  5
BBA
330
B36
100
AcDbEntity
  8
0
 62
     0
370
    -2
100
AcDbLine
 10
1195.650182374497
 20
281.5354384003569
 30
0.0
 11
1195.650182374497
 21
279.2623507379896
 31
0.0
  0
LINE
  5
BBB
330
B36
100
AcDbEntity
  8
0
 62
     0
370
    -2
100
AcDbLine
 10
1191.645877421305
 20
281.5354384003569
 30
0.0
 11
1191.645877421305
 21
279.2623507379896
 31
0.0
  0
LINE
  5
BBC
330
B36
100
AcDbEntity
  8
0
 62
     0
370
    -2
100
AcDbLine
 10
1198.150182374497
 20
280.5123507379895
 30
0.0
 11
1200.650182374497
 21
280.5123507379895
 31
0.0
  0
LINE
  5
BBD
330
B36
100
AcDbEntity
  8
0
 62
     0
370
    -2
100
AcDbLine
 10
1189.145877421305
 20
280.5123507379895
 30
0.0
 11
1177.395877421306
 21
280.5123507379895
 31
0.0
  0
LINE
  5
BBE
330
B36
100
AcDbEntity
  8
0
 62
     0
370
    -2
100
AcDbLine
 10
1195.650182374497
 20
280.5123507379895
 30
0.0
 11
1191.645877421305
 21
280.5123507379895
 31
0.0
  0
INSERT
  5
BBF
330
B36
100
AcDbEntity
  8
0
 62
     0
370
    -2
100
AcDbBlockReference
  2
_Open30
 10
1195.650182374497
 20
280.5123507379895
 30
0.0
 41
2.5
 42
2.5
 43
2.5
 50
180.0
  0
INSERT
  5
BC0
330
B36
100
AcDbEntity
  8
0
 62
     0
370
    -2
100
AcDbBlockReference
  2
_Open30
 10
1191.645877421305
 20
280.5123507379895
 30
0.0
 41
2.5
 42
2.5
 43
2.5
  0
MTEXT
  5
BC1
330
B36
100
AcDbEntity
  8
0
 62
     4
100
AcDbMText
 10
1182.020877421305
 20
282.7373507379896
 30
0.0
 40
3.2
 41
0.0
 71
     5
 72
     1
  1
8.01
  7
高3.2
 73
     1
 44
1.0
1001
ACAD
1000
MTEXTBEGIN
1070
    73
1070
     1
1070
    44
1040
1.0
1070
    74
1070
     0
1000
MTEXTEND
  0
POINT
  5
BC2
330
B36
100
AcDbEntity
  8
Defpoints
 62
     0
100
AcDbPoint
 10
1195.650182374497
 20
281.7854384003569
 30
0.0
  0
POINT
  5
BC3
330
B36
100
AcDbEntity
  8
Defpoints
 62
     0
100
AcDbPoint
 10
1191.645877421305
 20
281.7854384003569
 30
0.0
  0
POINT
  5
BC4
330
B36
100
AcDbEntity
  8
Defpoints
 62
     0
100
AcDbPoint
 10
1191.645877421305
 20
280.5123507379895
 30
0.0
  0
ENDBLK
  5
B38
330
B36
100
AcDbEntity
  8
0
100
AcDbBlockEnd
  0
BLOCK
  5
B45
330
B44
100
AcDbEntity
  8
0
100
AcDbBlockBegin
  2
*D26
 70
     1
 10
0.0
 20
0.0
 30
0.0
  3
*D26
  1

  0
LINE
  5
BC5
330
B44
100
AcDbEntity
  8
0
 62
     0
370
    -2
100
AcDbLine
 10
1195.559175672485
 20
276.2612184323252
 30
0.0
 11
1195.559175672485
 21
274.4428049248688
 31
0.0
  0
LINE
  5
BC6
330
B44
100
AcDbEntity
  8
0
 62
     0
370
    -2
100
AcDbLine
 10
1190.826814968269
 20
276.2612184323252
 30
0.0
 11
1190.826814968269
 21
274.4428049248688
 31
0.0
  0
LINE
  5
BC7
330
B44
100
AcDbEntity
  8
0
 62
     0
370
    -2
100
AcDbLine
 10
1198.059175672485
 20
275.6928049248688
 30
0.0
 11
1200.559175672485
 21
275.6928049248688
 31
0.0
  0
LINE
  5
BC8
330
B44
100
AcDbEntity
  8
0
 62
     0
370
    -2
100
AcDbLine
 10
1188.326814968269
 20
275.6928049248688
 30
0.0
 11
1166.576814968269
 21
275.6928049248688
 31
0.0
  0
LINE
  5
BC9
330
B44
100
AcDbEntity
  8
0
 62
     0
370
    -2
100
AcDbLine
 10
1195.559175672485
 20
275.6928049248688
 30
0.0
 11
1190.826814968269
 21
275.6928049248688
 31
0.0
  0
INSERT
  5
BCA
330
B44
100
AcDbEntity
  8
0
 62
     0
370
    -2
100
AcDbBlockReference
  2
_Open30
 10
1195.559175672485
 20
275.6928049248688
 30
0.0
 41
2.5
 42
2.5
 43
2.5
 50
180.0
  0
INSERT
  5
BCB
330
B44
100
AcDbEntity
  8
0
 62
     0
370
    -2
100
AcDbBlockReference
  2
_Open30
 10
1190.826814968269
 20
275.6928049248688
 30
0.0
 41
2.5
 42
2.5
 43
2.5
  0
MTEXT
  5
BCC
330
B44
100
AcDbEntity
  8
0
 62
     4
100
AcDbMText
 10
1176.201814968269
 20
278.5678049248688
 30
0.0
 40
4.5
 41
0.0
 71
     5
 72
     1
  1
47.32
  7
高4.5
 73
     1
 44
1.0
1001
ACAD
1000
MTEXTBEGIN
1070
    73
1070
     1
1070
    44
1040
1.0
1070
    74
1070
     0
1000
MTEXTEND
  0
POINT
  5
BCD
330
B44
100
AcDbEntity
  8
Defpoints
 62
     0
100
AcDbPoint
 10
1195.559175672485
 20
276.5112184323252
 30
0.0
  0
POINT
  5
BCE
330
B44
100
AcDbEntity
  8
Defpoints
 62
     0
100
AcDbPoint
 10
1190.826814968269
 20
276.5112184323252
 30
0.0
  0
POINT
  5
BCF
330
B44
100
AcDbEntity
  8
Defpoints
 62
     0
100
AcDbPoint
 10
1190.826814968269
 20
275.6928049248688
 30
0.0
  0
ENDBLK
  5
B46
330
B44
100
AcDbEntity
  8
0
100
AcDbBlockEnd
  0
BLOCK
  5
B53
330
B52
100
AcDbEntity
  8
0
100
AcDbBlockBegin
  2
*D27
 70
     1
 10
0.0
 20
0.0
 30
0.0
  3
*D27
  1

  0
LINE
  5
BD0
330
B52
100
AcDbEntity
  8
0
 62
     0
370
    -2
100
AcDbLine
 10
1217.036811940493
 20
292.4476176889657
 30
0.0
 11
1217.036811940493
 21
289.5379862669569
 31
0.0
  0
LINE
  5
BD1
330
B52
100
AcDbEntity
  8
0
 62
     0
370
    -2
100
AcDbLine
 10
1214.579624886372
 20
292.4476176889657
 30
0.0
 11
1214.579624886372
 21
289.5379862669569
 31
0.0
  0
LINE
  5
BD2
330
B52
100
AcDbEntity
  8
0
 62
     0
370
    -2
100
AcDbLine
 10
1219.536811940493
 20
290.7879862669568
 30
0.0
 11
1222.036811940492
 21
290.7879862669568
 31
0.0
  0
LINE
  5
BD3
330
B52
100
AcDbEntity
  8
0
 62
     0
370
    -2
100
AcDbLine
 10
1212.079624886372
 20
290.7879862669568
 30
0.0
 11
1190.479624886372
 21
290.7879862669568
 31
0.0
  0
LINE
  5
BD4
330
B52
100
AcDbEntity
  8
0
 62
     0
370
    -2
100
AcDbLine
 10
1217.036811940493
 20
290.7879862669568
 30
0.0
 11
1214.579624886372
 21
290.7879862669568
 31
0.0
  0
INSERT
  5
BD5
330
B52
100
AcDbEntity
  8
0
 62
     0
370
    -2
100
AcDbBlockReference
  2
_Open30
 10
1217.036811940493
 20
290.7879862669568
 30
0.0
 41
2.5
 42
2.5
 43
2.5
 50
180.0
  0
INSERT
  5
BD6
330
B52
100
AcDbEntity
  8
0
 62
     0
370
    -2
100
AcDbBlockReference
  2
_Open30
 10
1214.579624886372
 20
290.7879862669568
 30
0.0
 41
2.5
 42
2.5
 43
2.5
  0
MTEXT
  5
BD7
330
B52
100
AcDbEntity
  8
0
 62
     4
100
AcDbMText
 10
1200.029624886372
 20
294.5629862669568
 30
0.0
 40
6.299999999999998
 41
0.0
 71
     5
 72
     1
  1
0.25
  7
高6.3
 73
     1
 44
1.0
1001
ACAD
1000
MTEXTBEGIN
1070
    73
1070
     1
1070
    44
1040
1.0
1070
    74
1070
     0
1000
MTEXTEND
  0
POINT
  5
BD8
330
B52
100
AcDbEntity
  8
Defpoints
 62
     0
100
AcDbPoint
 10
1217.036811940493
 20
292.6976176889657
 30
0.0
  0
POINT
  5
BD9
330
B52
100
AcDbEntity
  8
Defpoints
 62
     0
100
AcDbPoint
 10
1214.579624886372
 20
292.6976176889657
 30
0.0
  0
POINT
  5
BDA
330
B52
100
AcDbEntity
  8
Defpoints
 62
     0
100
AcDbPoint
 10
1214.579624886372
 20
290.7879862669568
 30
0.0
  0
ENDBLK
  5
B54
330
B52
100
AcDbEntity
  8
0
100
AcDbBlockEnd
  0
BLOCK
  5
B61
330
B60
100
AcDbEntity
  8
0
100
AcDbBlockBegin
  2
*D28
 70
     1
 10
0.0
 20
0.0
 30
0.0
  3
*D28
  1

  0
LINE
  5
BDB
330
B60
100
AcDbEntity
  8
0
 62
     0
370
    -2
100
AcDbLine
 10
1218.674936846565
 20
286.9915281162033
 30
0.0
 11
1218.674936846565
 21
284.44563604674
 31
0.0
  0
LINE
  5
BDC
330
B60
100
AcDbEntity
  8
0
 62
     0
370
    -2
100
AcDbLine
 10
1215.580701048423
 20
286.9915281162033
 30
0.0
 11
1215.580701048423
 21
284.44563604674
 31
0.0
  0
LINE
  5
BDD
330
B60
100
AcDbEntity
  8
0
 62
     0
370
    -2
100
AcDbLine
 10
1221.174936846566
 20
285.69563604674
 30
0.0
 11
1223.674936846566
 21
285.69563604674
 31
0.0
  0
LINE
  5
BDE
330
B60
100
AcDbEntity
  8
0
 62
     0
370
    -2
100
AcDbLine
 10
1213.080701048423
 20
285.69563604674
 30
0.0
 11
1201.080701048423
 21
285.69563604674
 31
0.0
  0
LINE
  5
BDF
330
B60
100
AcDbEntity
  8
0
 62
     0
370
    -2
100
AcDbLine
 10
1218.674936846565
 20
285.69563604674
 30
0.0
 11
1215.580701048423
 21
285.69563604674
 31
0.0
  0
INSERT
  5
BE0
330
B60
100
AcDbEntity
  8
0
 62
     0
370
    -2
100
AcDbBlockReference
  2
_Open30
 10
1218.674936846565
 20
285.69563604674
 30
0.0
 41
2.5
 42
2.5
 43
2.5
 50
180.0
  0
INSERT
  5
BE1
330
B60
100
AcDbEntity
  8
0
 62
     0
370
    -2
100
AcDbBlockReference
  2
_Open30
 10
1215.580701048423
 20
285.69563604674
 30
0.0
 41
2.5
 42
2.5
 43
2.5
  0
MTEXT
  5
BE2
330
B60
100
AcDbEntity
  8
0
 62
     4
100
AcDbMText
 10
1205.705701048423
 20
287.82063604674
 30
0.0
 40
3.0
 41
0.0
 71
     5
 72
     1
  1
1.55
 73
     1
 44
1.0
1001
ACAD
1000
MTEXTBEGIN
1070
    73
1070
     1
1070
    44
1040
1.0
1070
    74
1070
     0
1000
MTEXTEND
  0
POINT
  5
BE3
330
B60
100
AcDbEntity
  8
Defpoints
 62
     0
100
AcDbPoint
 10
1218.674936846565
 20
287.2415281162033
 30
0.0
  0
POINT
  5
BE4
330
B60
100
AcDbEntity
  8
Defpoints
 62
     0
100
AcDbPoint
 10
1215.580701048423
 20
287.2415281162033
 30
0.0
  0
POINT
  5
BE5
330
B60
100
AcDbEntity
  8
Defpoints
 62
     0
100
AcDbPoint
 10
1215.580701048423
 20
285.69563604674
 30
0.0
  0
ENDBLK
  5
B62
330
B60
100
AcDbEntity
  8
0
100
AcDbBlockEnd
  0
BLOCK
  5
B6F
330
B6E
100
AcDbEntity
  8
0
100
AcDbBlockBegin
  2
*D29
 70
     1
 10
0.0
 20
0.0
 30
0.0
  3
*D29
  1

  0
LINE
  5
BE6
330
B6E
100
AcDbEntity
  8
0
 62
     0
370
    -2
100
AcDbLine
 10
1220.404068454651
 20
281.5354384003569
 30
0.0
 11
1220.404068454651
 21
279.2623507379896
 31
0.0
  0
LINE
  5
BE7
330
B6E
100
AcDbEntity
  8
0
 62
     0
370
    -2
100
AcDbLine
 10
1216.399763501459
 20
281.5354384003569
 30
0.0
 11
1216.399763501459
 21
279.2623507379896
 31
0.0
  0
LINE
  5
BE8
330
B6E
100
AcDbEntity
  8
0
 62
     0
370
    -2
100
AcDbLine
 10
1222.904068454651
 20
280.5123507379895
 30
0.0
 11
1225.404068454651
 21
280.5123507379895
 31
0.0
  0
LINE
  5
BE9
330
B6E
100
AcDbEntity
  8
0
 62
     0
370
    -2
100
AcDbLine
 10
1213.899763501459
 20
280.5123507379895
 30
0.0
 11
1205.566430168126
 21
280.5123507379895
 31
0.0
  0
LINE
  5
BEA
330
B6E
100
AcDbEntity
  8
0
 62
     0
370
    -2
100
AcDbLine
 10
1220.404068454651
 20
280.5123507379895
 30
0.0
 11
1216.399763501459
 21
280.5123507379895
 31
0.0
  0
INSERT
  5
BEB
330
B6E
100
AcDbEntity
  8
0
 62
     0
370
    -2
100
AcDbBlockReference
  2
_Open30
 10
1220.404068454651
 20
280.5123507379895
 30
0.0
 41
2.5
 42
2.5
 43
2.5
 50
180.0
  0
INSERT
  5
BEC
330
B6E
100
AcDbEntity
  8
0
 62
     0
370
    -2
100
AcDbBlockReference
  2
_Open30
 10
1216.399763501459
 20
280.5123507379895
 30
0.0
 41
2.5
 42
2.5
 43
2.5
  0
MTEXT
  5
BED
330
B6E
100
AcDbEntity
  8
0
 62
     4
100
AcDbMText
 10
1208.024763501459
 20
282.1373507379895
 30
0.0
 40
2.0
 41
0.0
 71
     5
 72
     1
  1
0.8
  7
高2
 73
     1
 44
1.0
1001
ACAD
1000
MTEXTBEGIN
1070
    73
1070
     1
1070
    44
1040
1.0
1070
    74
1070
     0
1000
MTEXTEND
  0
POINT
  5
BEE
330
B6E
100
AcDbEntity
  8
Defpoints
 62
     0
100
AcDbPoint
 10
1220.404068454651
 20
281.7854384003569
 30
0.0
  0
POINT
  5
BEF
330
B6E
100
AcDbEntity
  8
Defpoints
 62
     0
100
AcDbPoint
 10
1216.399763501459
 20
281.7854384003569
 30
0.0
  0
POINT
  5
BF0
330
B6E
100
AcDbEntity
  8
Defpoints
 62
     0
100
AcDbPoint
 10
1216.399763501459
 20
280.5123507379895
 30
0.0
  0
ENDBLK
  5
B70
330
B6E
100
AcDbEntity
  8
0
100
AcDbBlockEnd
  0
BLOCK
  5
B7D
330
B7C
100
AcDbEntity
  8
0
100
AcDbBlockBegin
  2
*D30
 70
     1
 10
0.0
 20
0.0
 30
0.0
  3
*D30
  1

  0
LINE
  5
BF1
330
B7C
100
AcDbEntity
  8
0
 62
     0
370
    -2
100
AcDbLine
 10
1220.313061752639
 20
276.2612184323252
 30
0.0
 11
1220.313061752639
 21
274.4428049248688
 31
0.0
  0
LINE
  5
BF2
330
B7C
100
AcDbEntity
  8
0
 62
     0
370
    -2
100
AcDbLine
 10
1215.580701048423
 20
276.2612184323252
 30
0.0
 11
1215.580701048423
 21
274.4428049248688
 31
0.0
  0
LINE
  5
BF3
330
B7C
100
AcDbEntity
  8
0
 62
     0
370
    -2
100
AcDbLine
 10
1222.813061752639
 20
275.6928049248688
 30
0.0
 11
1225.313061752639
 21
275.6928049248688
 31
0.0
  0
LINE
  5
BF4
330
B7C
100
AcDbEntity
  8
0
 62
     0
370
    -2
100
AcDbLine
 10
1213.080701048423
 20
275.6928049248688
 30
0.0
 11
1198.330701048423
 21
275.6928049248688
 31
0.0
  0
LINE
  5
BF5
330
B7C
100
AcDbEntity
  8
0
 62
     0
370
    -2
100
AcDbLine
 10
1220.313061752639
 20
275.6928049248688
 30
0.0
 11
1215.580701048423
 21
275.6928049248688
 31
0.0
  0
INSERT
  5
BF6
330
B7C
100
AcDbEntity
  8
0
 62
     0
370
    -2
100
AcDbBlockReference
  2
_Open30
 10
1220.313061752639
 20
275.6928049248688
 30
0.0
 41
2.5
 42
2.5
 43
2.5
 50
180.0
  0
INSERT
  5
BF7
330
B7C
100
AcDbEntity
  8
0
 62
     0
370
    -2
100
AcDbBlockReference
  2
_Open30
 10
1215.580701048423
 20
275.6928049248688
 30
0.0
 41
2.5
 42
2.5
 43
2.5
  0
MTEXT
  5
BF8
330
B7C
100
AcDbEntity
  8
0
 62
     4
100
AcDbMText
 10
1204.455701048423
 20
277.8178049248688
 30
0.0
 40
3.0
 41
0.0
 71
     5
 72
     1
  1
18.93
 73
     1
 44
1.0
1001
ACAD
1000
MTEXTBEGIN
1070
    73
1070
     1
1070
    44
1040
1.0
1070
    74
1070
     0
1000
MTEXTEND
  0
POINT
  5
BF9
330
B7C
100
AcDbEntity
  8
Defpoints
 62
     0
100
AcDbPoint
 10
1220.313061752639
 20
276.5112184323252
 30
0.0
  0
POINT
  5
BFA
330
B7C
100
AcDbEntity
  8
Defpoints
 62
     0
100
AcDbPoint
 10
1215.580701048423
 20
276.5112184323252
 30
0.0
  0
POINT
  5
BFB
330
B7C
100
AcDbEntity
  8
Defpoints
 62
     0
100
AcDbPoint
 10
1215.580701048423
 20
275.6928049248688
 30
0.0
  0
ENDBLK
  5
B7E
330
B7C
100
AcDbEntity
  8
0
100
AcDbBlockEnd
  0
BLOCK
  5
B8B
330
B8A
100
AcDbEntity
  8
0
100
AcDbBlockBegin
  2
*D31
 70
     1
 10
0.0
 20
0.0
 30
0.0
  3
*D31
  1

  0
LINE
  5
BFC
330
B8A
100
AcDbEntity
  8
0
 62
     0
370
    -2
100
AcDbLine
 10
1217.5086349015
 20
271.2053782257354
 30
0.0
 11
1217.5086349015
 21
268.8954571488599
 31
0.0
  0
LINE
  5
BFD
330
B8A
100
AcDbEntity
  8
0
 62
     0
370
    -2
100
AcDbLine
 10
1212.919959699353
 20
271.2053782257354
 30
0.0
 11
1212.919959699353
 21
268.8954571488599
 31
0.0
  0
LINE
  5
BFE
330
B8A
100
AcDbEntity
  8
0
 62
     0
370
    -2
100
AcDbLine
 10
1220.008634901501
 20
270.1454571488599
 30
0.0
 11
1222.508634901501
 21
270.1454571488599
 31
0.0
  0
LINE
  5
BFF
330
B8A
100
AcDbEntity
  8
0
 62
     0
370
    -2
100
AcDbLine
 10
1210.419959699353
 20
270.1454571488599
 30
0.0
 11
1195.669959699353
 21
270.1454571488599
 31
0.0
  0
LINE
  5
C00
330
B8A
100
AcDbEntity
  8
0
 62
     0
370
    -2
100
AcDbLine
 10
1217.5086349015
 20
270.1454571488599
 30
0.0
 11
1212.919959699353
 21
270.1454571488599
 31
0.0
  0
INSERT
  5
C01
330
B8A
100
AcDbEntity
  8
0
 62
     0
370
    -2
100
AcDbBlockReference
  2
_Open30
 10
1217.5086349015
 20
270.1454571488599
 30
0.0
 41
2.5
 42
2.5
 43
2.5
 50
180.0
  0
INSERT
  5
C02
330
B8A
100
AcDbEntity
  8
0
 62
     0
370
    -2
100
AcDbBlockReference
  2
_Open30
 10
1212.919959699353
 20
270.1454571488599
 30
0.0
 41
2.5
 42
2.5
 43
2.5
  0
MTEXT
  5
C03
330
B8A
100
AcDbEntity
  8
0
 62
     4
100
AcDbMText
 10
1201.794959699353
 20
272.2704571488599
 30
0.0
 40
3.0
 41
0.0
 71
     5
 72
     1
  1
13.77
 73
     1
 44
1.0
1001
ACAD
1000
MTEXTBEGIN
1070
    73
1070
     1
1070
    44
1040
1.0
1070
    74
1070
     0
1000
MTEXTEND
  0
POINT
  5
C04
330
B8A
100
AcDbEntity
  8
Defpoints
 62
     0
100
AcDbPoint
 10
1217.5086349015
 20
271.4553782257354
 30
0.0
  0
POINT
  5
C05
330
B8A
100
AcDbEntity
  8
Defpoints
 62
     0
100
AcDbPoint
 10
1212.919959699353
 20
271.4553782257354
 30
0.0
  0
POINT
  5
C06
330
B8A
100
AcDbEntity
  8
Defpoints
 62
     0
100
AcDbPoint
 10
1212.919959699353
 20
270.1454571488599
 30
0.0
  0
ENDBLK
  5
B8C
330
B8A
100
AcDbEntity
  8
0
100
AcDbBlockEnd
  0
BLOCK
  5
B99
330
B98
100
AcDbEntity
  8
0
100
AcDbBlockBegin
  2
*D32
 70
     1
 10
0.0
 20
0.0
 30
0.0
  3
*D32
  1

  0
LINE
  5
C07
330
B98
100
AcDbEntity
  8
0
 62
     0
370
    -2
100
AcDbLine
 10
1210.41235206835
 20
302.1348695440098
 30
0.0
 11
1210.41235206835
 21
309.5314030219475
 31
0.0
  0
LINE
  5
C08
330
B98
100
AcDbEntity
  8
0
 62
     0
370
    -2
100
AcDbLine
 10
1200.47387769886
 20
302.1348695440098
 30
0.0
 11
1200.47387769886
 21
309.5314030219475
 31
0.0
  0
LINE
  5
C09
330
B98
100
AcDbEntity
  8
0
 62
     0
370
    -2
100
AcDbLine
 10
1207.91235206835
 20
308.2814030219475
 30
0.0
 11
1202.97387769886
 21
308.2814030219475
 31
0.0
  0
INSERT
  5
C0A
330
B98
100
AcDbEntity
  8
0
 62
     0
370
    -2
100
AcDbBlockReference
  2
_Open30
 10
1210.41235206835
 20
308.2814030219475
 30
0.0
 41
2.5
 42
2.5
 43
2.5
  0
INSERT
  5
C0B
330
B98
100
AcDbEntity
  8
0
 62
     0
370
    -2
100
AcDbBlockReference
  2
_Open30
 10
1200.47387769886
 20
308.2814030219475
 30
0.0
 41
2.5
 42
2.5
 43
2.5
 50
180.0
  0
MTEXT
  5
C0C
330
B98
100
AcDbEntity
  8
0
 62
     4
100
AcDbMText
 10
1205.443114883605
 20
311.3564030219475
 30
0.0
 40
3.0
 41
0.0
 71
     5
 72
     1
  1
9.94\H0.7X;\S+0^ -0.02;
 73
     1
 44
1.0
1001
ACAD
1000
MTEXTBEGIN
1070
    73
1070
     1
1070
    44
1040
1.0
1070
    74
1070
     0
1000
MTEXTEND
  0
POINT
  5
C0D
330
B98
100
AcDbEntity
  8
Defpoints
 62
     0
100
AcDbPoint
 10
1210.41235206835
 20
301.8848695440098
 30
0.0
  0
POINT
  5
C0E
330
B98
100
AcDbEntity
  8
Defpoints
 62
     0
100
AcDbPoint
 10
1200.47387769886
 20
301.8848695440098
 30
0.0
  0
POINT
  5
C0F
330
B98
100
AcDbEntity
  8
Defpoints
 62
     0
100
AcDbPoint
 10
1200.47387769886
 20
308.2814030219475
 30
0.0
  0
ENDBLK
  5
B9A
330
B98
100
AcDbEntity
  8
0
100
AcDbBlockEnd
  0
BLOCK
  5
DB1
330
DA2
100
AcDbEntity
  8
0
100
AcDbBlockBegin
  2
A$C0CE64B42
 70
     0
 10
0.0
 20
0.0
 30
0.0
  3
A$C0CE64B42
  1

  0
LINE
  5
DA3
330
DA2
100
AcDbEntity
  8
0
 62
     3
100
AcDbLine
 10
23.47950045382595
 20
-5.827779775918543
 30
0.0
 11
4.004684410896061
 21
4.644562596022069
 31
0.0
  0
LINE
  5
DA4
330
DA2
100
AcDbEntity
  8
0
 62
     3
100
AcDbLine
 10
-2.418968226853849
 20
-5.63542813664776
 30
0.0
 11
15.53071163957929
 21
-18.54850248104429
 31
0.0
  0
ARC
  5
DA5
330
DA2
100
AcDbEntity
  8
0
 62
     3
100
AcDbCircle
 10
3.531078610160648
 20
3.763827109798512
 30
0.0
 40
1.000000000000017
100
AcDbArc
 50
61.73139699915806
 51
148.0000000000005
  0
ARC
  5
DA6
330
DA2
100
AcDbEntity
  8
0
 62
     3
100
AcDbCircle
 10
-1.834982417847868
 20
-4.823665638264856
 30
0.0
 40
0.9999999999999957
100
AcDbArc
 50
148.0000000000005
 51
234.2686030008456
  0
SPLINE
  5
DA7
330
DA2
100
AcDbEntity
  8
0
 62
     3
100
AcDbSpline
210
0.0
220
0.0
230
1.0
 70
     8
 71
     3
 72
    13
 73
     9
 74
     0
 42
0.0000000001
 43
0.0000000001
 40
0.0
 40
0.0
 40
0.0
 40
0.0
 40
0.4581619834879955
 40
0.6145473961653554
 40
0.7718470653318112
 40
0.8762071890762065
 40
0.9814584107317447
 40
1.0
 40
1.0
 40
1.0
 40
1.0
 10
23.54497056817627
 20
-18.93256873494482
 30
0.0
 10
23.33610156357508
 20
-19.2384911641472
 30
0.0
 10
23.05593885356598
 20
-19.64883475237695
 30
0.0
 10
22.55444032374771
 20
-20.01837425944694
 30
0.0
 10
22.24006369071663
 20
-20.1521823188105
 30
0.0
 10
21.94057360693114
 20
-20.17771972775626
 30
0.0
 10
21.75545728248153
 20
-20.12787231520849
 30
0.0
 10
21.66879303091673
 20
-20.07647332541637
 30
0.0
 10
21.65581252789116
 20
-20.06877482539511
 30
0.0
  0
SPLINE
  5
DA8
330
DA2
100
AcDbEntity
  8
0
 62
     3
100
AcDbSpline
210
0.0
220
0.0
230
1.0
 70
     8
 71
     3
 72
    12
 73
     8
 74
     0
 42
0.0000000001
 43
0.0000000001
 40
0.0
 40
0.0
 40
0.0
 40
0.0
 40
0.0979866034340287
 40
0.1953634406408594
 40
0.3403893480091844
 40
0.5787119564660092
 40
0.9999999999999998
 40
0.9999999999999998
 40
0.9999999999999998
 40
0.9999999999999998
 10
27.53097717082119
 20
-10.66654444342953
 30
0.0
 10
27.59391726375793
 20
-10.71705607802971
 30
0.0
 10
27.7194057762631
 20
-10.81776501559921
 30
0.0
 10
27.84001479389213
 20
-11.07406161847859
 30
0.0
 10
27.89271166125491
 20
-11.46196908277352
 30
0.0
 10
27.76926163267785
 20
-12.10799516184363
 30
0.0
 10
27.50603598067641
 20
-12.56848011781301
 30
0.0
 10
27.33791586374855
 20
-12.86258817321163
 30
0.0
  0
LINE
  5
DA9
330
DA2
100
AcDbEntity
  8
0
 62
     3
100
AcDbLine
 10
27.53097717082119
 20
-10.66654444342953
 30
0.0
 11
22.44268883382892
 21
-7.487031525434076
 31
0.0
  0
LINE
  5
DAA
330
DA2
100
AcDbEntity
  8
0
 62
     3
100
AcDbLine
 10
21.65581252789116
 20
-20.06877482539511
 30
0.0
 11
16.5675237252376
 21
-16.88925818210936
 31
0.0
  0
LINE
  5
DAB
330
DA2
100
AcDbEntity
  8
0
 62
     3
100
AcDbLine
 10
35.08632813254985
 20
-4.236693576026937
 30
0.0
 11
19.18875020360565
 21
-29.67813879853583
 31
0.0
  0
LINE
  5
DAC
330
DA2
100
AcDbEntity
  8
0
 62
     3
100
AcDbLine
 10
27.45389532661056
 20
0.5325797139992119
 30
0.0
 11
35.08632783209896
 21
-4.236693388284265
 31
0.0
  0
LINE
  5
DAD
330
DA2
100
AcDbEntity
  8
0
 62
     3
100
AcDbLine
 10
19.18875020360565
 20
-29.67813879853583
 30
0.0
 11
11.55631723245597
 21
-24.90886569625235
 31
0.0
  0
LINE
  5
DAE
330
DA2
100
AcDbEntity
  8
0
 62
     3
100
AcDbLine
 10
27.45389532661056
 20
0.5325797139992119
 30
0.0
 11
11.55631723245597
 21
-24.90886569625235
 31
0.0
  0
LINE
  5
DAF
330
DA2
100
AcDbEntity
  8
0
 62
     3
100
AcDbLine
 10
27.33791586374855
 20
-12.86258817321163
 30
0.0
 11
23.54497056817627
 21
-18.93256873494482
 31
0.0
  0
LINE
  5
DB0
330
DA2
100
AcDbEntity
  8
0
 62
     3
100
AcDbLine
 10
2.683030514004258
 20
4.293746374031684
 30
0.0
 11
-2.683030514004258
 21
-4.293746374031684
 31
0.0
  0
ENDBLK
  5
DB2
330
DA2
100
AcDbEntity
  8
0
100
AcDbBlockEnd
  0
ENDSEC
  0
SECTION
  2
ENTITIES
  0
LINE
  5
13D
330
6B
100
AcDbEntity
  8
0
 62
     3
100
AcDbLine
 10
663.1714059999998
 20
191.774211
 30
0.0
 11
705.971406
 21
191.774211
 31
0.0
  0
LINE
  5
13E
330
6B
100
AcDbEntity
  8
0
 62
     3
100
AcDbLine
 10
705.971406
 20
198.7742129999999
 30
0.0
 11
663.1714059999998
 21
198.7742129999999
 31
0.0
  0
ARC
  5
13F
330
6B
100
AcDbEntity
  8
0
 62
     3
100
AcDbCircle
 10
663.1714059999998
 20
197.974212
 30
0.0
 40
0.8
100
AcDbArc
 50
90.0
 51
180.0
  0
ARC
  5
140
330
6B
100
AcDbEntity
  8
0
 62
     3
100
AcDbCircle
 10
663.1714059999998
 20
192.574212
 30
0.0
 40
0.8
100
AcDbArc
 50
180.0
 51
270.0
  0
ARC
  5
141
330
6B
100
AcDbEntity
  8
0
 62
     3
100
AcDbCircle
 10
705.971406
 20
197.974212
 30
0.0
 40
0.8
100
AcDbArc
 50
0.0
 51
90.0
  0
ARC
  5
142
330
6B
100
AcDbEntity
  8
0
 62
     3
100
AcDbCircle
 10
705.971406
 20
192.574212
 30
0.0
 40
0.8
100
AcDbArc
 50
270.0
 51
0.0
  0
LINE
  5
143
330
6B
100
AcDbEntity
  8
0
 62
     3
100
AcDbLine
 10
646.111404
 20
166.949405
 30
0.0
 11
646.111404
 21
184.249586
 31
0.0
  0
LINE
  5
144
330
6B
100
AcDbEntity
  8
0
 62
     3
100
AcDbLine
 10
641.0314049999997
 20
184.249586
 30
0.0
 11
641.0314049999997
 21
166.949405
 31
0.0
  0
LINE
  5
145
330
6B
100
AcDbEntity
  8
0
 62
     3
100
AcDbLine
 10
728.111407
 20
166.949405
 30
0.0
 11
728.111407
 21
184.249586
 31
0.0
  0
LINE
  5
146
330
6B
100
AcDbEntity
  8
0
 62
     3
100
AcDbLine
 10
723.031407
 20
184.249586
 30
0.0
 11
723.031407
 21
166.949405
 31
0.0
  0
LINE
  5
147
330
6B
100
AcDbEntity
  8
0
 62
     3
100
AcDbLine
 10
656.5714059999997
 20
192.734212
 30
0.0
 11
662.371406
 21
192.734212
 31
0.0
  0
LINE
  5
148
330
6B
100
AcDbEntity
  8
0
 62
     3
100
AcDbLine
 10
706.771406
 20
192.734212
 30
0.0
 11
712.5714059999997
 21
192.734212
 31
0.0
  0
LINE
  5
149
330
6B
100
AcDbEntity
  8
0
 62
     3
100
AcDbLine
 10
712.5714059999997
 20
197.814212
 30
0.0
 11
706.771406
 21
197.814212
 31
0.0
  0
LINE
  5
14A
330
6B
100
AcDbEntity
  8
0
 62
     3
100
AcDbLine
 10
662.371406
 20
197.814212
 30
0.0
 11
656.5714059999997
 21
197.814212
 31
0.0
  0
LINE
  5
14B
330
6B
100
AcDbEntity
  8
0
 62
     3
100
AcDbLine
 10
641.0314049999997
 20
166.67803
 30
0.0
 11
641.0314049999997
 21
139.53598
 31
0.0
  0
LINE
  5
14C
330
6B
100
AcDbEntity
  8
0
 62
     3
100
AcDbLine
 10
646.111404
 20
139.53598
 30
0.0
 11
646.111404
 21
166.67803
 31
0.0
  0
LINE
  5
14D
330
6B
100
AcDbEntity
  8
0
 62
     3
100
AcDbLine
 10
723.031407
 20
166.67803
 30
0.0
 11
723.031407
 21
139.53598
 31
0.0
  0
LINE
  5
14E
330
6B
100
AcDbEntity
  8
0
 62
     3
100
AcDbLine
 10
728.111407
 20
139.53598
 30
0.0
 11
728.111407
 21
166.67803
 31
0.0
  0
LINE
  5
14F
330
6B
100
AcDbEntity
  8
0
 62
     3
100
AcDbLine
 10
662.371406
 20
192.574212
 30
0.0
 11
662.371406
 21
197.974211
 31
0.0
  0
LINE
  5
150
330
6B
100
AcDbEntity
  8
0
 62
     3
100
AcDbLine
 10
706.771406
 20
197.974211
 30
0.0
 11
706.771406
 21
192.574212
 31
0.0
  0
LINE
  5
151
330
6B
100
AcDbEntity
  8
0
 62
     3
100
AcDbLine
 10
641.971406
 20
121.681294
 30
0.0
 11
640.5714059999998
 21
121.681294
 31
0.0
  0
LINE
  5
152
330
6B
100
AcDbEntity
  8
0
 62
     3
100
AcDbLine
 10
641.971406
 20
119.681296
 30
0.0
 11
640.5714059999998
 21
119.681296
 31
0.0
  0
LINE
  5
153
330
6B
100
AcDbEntity
  8
0
 62
     3
100
AcDbLine
 10
646.5714059999998
 20
121.681294
 30
0.0
 11
645.1714059999998
 21
121.681294
 31
0.0
  0
LINE
  5
154
330
6B
100
AcDbEntity
  8
0
 62
     3
100
AcDbLine
 10
646.5714059999998
 20
119.681296
 30
0.0
 11
645.1714059999998
 21
119.681296
 31
0.0
  0
LINE
  5
155
330
6B
100
AcDbEntity
  8
0
 62
     3
100
AcDbLine
 10
641.971406
 20
139.53598
 30
0.0
 11
640.5714059999998
 21
139.53598
 31
0.0
  0
LINE
  5
156
330
6B
100
AcDbEntity
  8
0
 62
     3
100
AcDbLine
 10
641.971406
 20
119.681296
 30
0.0
 11
641.971406
 21
139.53598
 31
0.0
  0
LINE
  5
157
330
6B
100
AcDbEntity
  8
0
 62
     3
100
AcDbLine
 10
640.5714059999998
 20
139.53598
 30
0.0
 11
640.5714059999998
 21
119.681296
 31
0.0
  0
LINE
  5
158
330
6B
100
AcDbEntity
  8
0
 62
     3
100
AcDbLine
 10
646.5714059999998
 20
139.53598
 30
0.0
 11
645.1714059999998
 21
139.53598
 31
0.0
  0
LINE
  5
159
330
6B
100
AcDbEntity
  8
0
 62
     3
100
AcDbLine
 10
646.5714059999998
 20
139.53598
 30
0.0
 11
646.5714059999998
 21
119.681296
 31
0.0
  0
LINE
  5
15A
330
6B
100
AcDbEntity
  8
0
 62
     3
100
AcDbLine
 10
645.1714059999998
 20
139.53598
 30
0.0
 11
645.1714059999998
 21
119.681296
 31
0.0
  0
LINE
  5
15B
330
6B
100
AcDbEntity
  8
0
 62
     3
100
AcDbLine
 10
723.9714049999999
 20
121.681294
 30
0.0
 11
722.571405
 21
121.681294
 31
0.0
  0
LINE
  5
15C
330
6B
100
AcDbEntity
  8
0
 62
     3
100
AcDbLine
 10
723.9714049999999
 20
119.681296
 30
0.0
 11
722.571405
 21
119.681296
 31
0.0
  0
LINE
  5
15D
330
6B
100
AcDbEntity
  8
0
 62
     3
100
AcDbLine
 10
728.5714059999996
 20
121.681294
 30
0.0
 11
727.1714059999997
 21
121.681294
 31
0.0
  0
LINE
  5
15E
330
6B
100
AcDbEntity
  8
0
 62
     3
100
AcDbLine
 10
728.5714059999996
 20
119.681296
 30
0.0
 11
727.1714059999997
 21
119.681296
 31
0.0
  0
LINE
  5
15F
330
6B
100
AcDbEntity
  8
0
 62
     3
100
AcDbLine
 10
723.9714049999999
 20
139.53598
 30
0.0
 11
722.571405
 21
139.53598
 31
0.0
  0
LINE
  5
160
330
6B
100
AcDbEntity
  8
0
 62
     3
100
AcDbLine
 10
723.9714049999999
 20
119.681296
 30
0.0
 11
723.9714049999999
 21
139.53598
 31
0.0
  0
LINE
  5
161
330
6B
100
AcDbEntity
  8
0
 62
     3
100
AcDbLine
 10
722.571405
 20
139.53598
 30
0.0
 11
722.571405
 21
119.681296
 31
0.0
  0
LINE
  5
162
330
6B
100
AcDbEntity
  8
0
 62
     3
100
AcDbLine
 10
728.5714059999996
 20
139.53598
 30
0.0
 11
727.1714059999997
 21
139.53598
 31
0.0
  0
LINE
  5
163
330
6B
100
AcDbEntity
  8
0
 62
     3
100
AcDbLine
 10
727.1714059999997
 20
139.53598
 30
0.0
 11
727.1714059999997
 21
119.681296
 31
0.0
  0
LINE
  5
164
330
6B
100
AcDbEntity
  8
0
 62
     3
100
AcDbLine
 10
728.5714059999996
 20
139.53598
 30
0.0
 11
728.5714059999996
 21
119.681296
 31
0.0
  0
ARC
  5
165
330
6B
100
AcDbEntity
  8
0
 62
     3
100
AcDbCircle
 10
643.5714059999997
 20
122.681295
 30
0.0
 40
2.54
100
AcDbArc
 50
230.955687
 51
309.044313
  0
ARC
  5
166
330
6B
100
AcDbEntity
  8
0
 62
     3
100
AcDbCircle
 10
725.5714059999997
 20
122.681295
 30
0.0
 40
2.54
100
AcDbArc
 50
230.955687
 51
309.044313
  0
LINE
  5
167
330
6B
100
AcDbEntity
  8
0
 62
     3
100
AcDbLine
 10
646.5714059999998
 20
129.221295
 30
0.0
 11
722.571405
 21
129.221295
 31
0.0
  0
LINE
  5
168
330
6B
100
AcDbEntity
  8
0
 62
     3
100
AcDbLine
 10
722.571405
 20
125.221294
 30
0.0
 11
646.5714059999998
 21
125.221294
 31
0.0
  0
ARC
  5
169
330
6B
100
AcDbEntity
  8
0
 62
     3
100
AcDbCircle
 10
705.971406
 20
280.96558
 30
0.0
 40
0.8
100
AcDbArc
 50
0.0
 51
90.0
  0
ARC
  5
16A
330
6B
100
AcDbEntity
  8
0
 62
     3
100
AcDbCircle
 10
705.971406
 20
275.5655799999999
 30
0.0
 40
0.8
100
AcDbArc
 50
270.0
 51
0.0
  0
LINE
  5
16B
330
6B
100
AcDbEntity
  8
0
 62
     3
100
AcDbLine
 10
663.1714059999998
 20
274.76558
 30
0.0
 11
705.971406
 21
274.76558
 31
0.0
  0
LINE
  5
16C
330
6B
100
AcDbEntity
  8
0
 62
     3
100
AcDbLine
 10
705.971406
 20
281.765581
 30
0.0
 11
663.1714059999998
 21
281.765581
 31
0.0
  0
ARC
  5
16D
330
6B
100
AcDbEntity
  8
0
 62
     3
100
AcDbCircle
 10
663.1714059999998
 20
280.96558
 30
0.0
 40
0.8
100
AcDbArc
 50
90.0
 51
180.0
  0
ARC
  5
16E
330
6B
100
AcDbEntity
  8
0
 62
     3
100
AcDbCircle
 10
663.1714059999998
 20
275.5655799999999
 30
0.0
 40
0.8
100
AcDbArc
 50
180.0
 51
270.0
  0
LINE
  5
16F
330
6B
100
AcDbEntity
  8
0
 62
     3
100
AcDbLine
 10
656.5714059999997
 20
275.72558
 30
0.0
 11
662.371406
 21
275.72558
 31
0.0
  0
LINE
  5
170
330
6B
100
AcDbEntity
  8
0
 62
     3
100
AcDbLine
 10
706.771406
 20
275.72558
 30
0.0
 11
712.5714059999997
 21
275.72558
 31
0.0
  0
LINE
  5
171
330
6B
100
AcDbEntity
  8
0
 62
     3
100
AcDbLine
 10
712.5714059999997
 20
280.8055799999999
 30
0.0
 11
706.771406
 21
280.8055799999999
 31
0.0
  0
LINE
  5
172
330
6B
100
AcDbEntity
  8
0
 62
     3
100
AcDbLine
 10
662.371406
 20
280.8055799999999
 30
0.0
 11
656.5714059999997
 21
280.8055799999999
 31
0.0
  0
LINE
  5
173
330
6B
100
AcDbEntity
  8
0
 62
     3
100
AcDbLine
 10
728.111407
 20
260.566277
 30
0.0
 11
728.111407
 21
271.37663
 31
0.0
  0
LINE
  5
174
330
6B
100
AcDbEntity
  8
0
 62
     3
100
AcDbLine
 10
723.031407
 20
271.37663
 30
0.0
 11
723.031407
 21
260.566277
 31
0.0
  0
LINE
  5
175
330
6B
100
AcDbEntity
  8
0
 62
     3
100
AcDbLine
 10
646.111404
 20
260.566277
 30
0.0
 11
646.111404
 21
271.37663
 31
0.0
  0
LINE
  5
176
330
6B
100
AcDbEntity
  8
0
 62
     3
100
AcDbLine
 10
641.0314049999997
 20
271.37663
 30
0.0
 11
641.0314049999997
 21
260.566277
 31
0.0
  0
ARC
  5
177
330
6B
100
AcDbEntity
  8
0
 62
     3
100
AcDbCircle
 10
645.9114059999997
 20
295.604491
 30
0.0
 40
0.2
100
AcDbArc
 50
0.0
 51
90.0
  0
ARC
  5
178
330
6B
100
AcDbEntity
  8
0
 62
     3
100
AcDbCircle
 10
641.2314059999999
 20
295.604491
 30
0.0
 40
0.2
100
AcDbArc
 50
90.0
 51
180.0
  0
ARC
  5
179
330
6B
100
AcDbEntity
  8
0
 62
     3
100
AcDbCircle
 10
727.9114059999997
 20
295.604491
 30
0.0
 40
0.2
100
AcDbArc
 50
0.0
 51
90.0
  0
ARC
  5
17A
330
6B
100
AcDbEntity
  8
0
 62
     3
100
AcDbCircle
 10
723.231406
 20
295.604491
 30
0.0
 40
0.2
100
AcDbArc
 50
90.0
 51
180.0
  0
LINE
  5
17B
330
6B
100
AcDbEntity
  8
0
 62
     3
100
AcDbLine
 10
641.0314049999997
 20
260.396703
 30
0.0
 11
641.0314049999997
 21
242.464488
 31
0.0
  0
LINE
  5
17C
330
6B
100
AcDbEntity
  8
0
 62
     3
100
AcDbLine
 10
646.111404
 20
242.464488
 30
0.0
 11
646.111404
 21
260.396703
 31
0.0
  0
ARC
  5
17D
330
6B
100
AcDbEntity
  8
0
 62
     3
100
AcDbCircle
 10
643.5714059999997
 20
240.944969
 30
0.0
 40
2.54
100
AcDbArc
 50
230.955687
 51
309.044313
  0
LINE
  5
17E
330
6B
100
AcDbEntity
  8
0
 62
     3
100
AcDbLine
 10
641.0314059999997
 20
295.604491
 30
0.0
 11
641.0314049999997
 21
271.37663
 31
0.0
  0
LINE
  5
17F
330
6B
100
AcDbEntity
  8
0
 62
     3
100
AcDbLine
 10
641.0314049999997
 20
260.566277
 30
0.0
 11
641.0314049999997
 21
260.396703
 31
0.0
  0
LINE
  5
180
330
6B
100
AcDbEntity
  8
0
 62
     3
100
AcDbLine
 10
646.111404
 20
260.396703
 30
0.0
 11
646.111404
 21
260.566277
 31
0.0
  0
LINE
  5
181
330
6B
100
AcDbEntity
  8
0
 62
     3
100
AcDbLine
 10
646.111404
 20
278.449927
 30
0.0
 11
646.1114059999998
 21
295.604491
 31
0.0
  0
LINE
  5
182
330
6B
100
AcDbEntity
  8
0
 62
     3
100
AcDbLine
 10
723.031407
 20
260.396703
 30
0.0
 11
723.031407
 21
242.464488
 31
0.0
  0
LINE
  5
183
330
6B
100
AcDbEntity
  8
0
 62
     3
100
AcDbLine
 10
728.111407
 20
242.464488
 30
0.0
 11
728.111407
 21
260.396703
 31
0.0
  0
ARC
  5
184
330
6B
100
AcDbEntity
  8
0
 62
     3
100
AcDbCircle
 10
725.5714059999997
 20
240.944969
 30
0.0
 40
2.54
100
AcDbArc
 50
230.955687
 51
309.044313
  0
LINE
  5
185
330
6B
100
AcDbEntity
  8
0
 62
     3
100
AcDbLine
 10
723.0314059999997
 20
295.604491
 30
0.0
 11
723.031407
 21
278.444512
 31
0.0
  0
LINE
  5
186
330
6B
100
AcDbEntity
  8
0
 62
     3
100
AcDbLine
 10
723.031407
 20
260.566277
 30
0.0
 11
723.031407
 21
260.396703
 31
0.0
  0
LINE
  5
187
330
6B
100
AcDbEntity
  8
0
 62
     3
100
AcDbLine
 10
728.111407
 20
260.396703
 30
0.0
 11
728.111407
 21
260.566277
 31
0.0
  0
LINE
  5
188
330
6B
100
AcDbEntity
  8
0
 62
     3
100
AcDbLine
 10
728.111407
 20
271.37663
 30
0.0
 11
728.111406
 21
295.604491
 31
0.0
  0
LINE
  5
189
330
6B
100
AcDbEntity
  8
0
 62
     3
100
AcDbLine
 10
706.771406
 20
280.965581
 30
0.0
 11
706.771406
 21
275.5655799999999
 31
0.0
  0
LINE
  5
18A
330
6B
100
AcDbEntity
  8
0
 62
     3
100
AcDbLine
 10
662.371406
 20
275.5655799999999
 30
0.0
 11
662.371406
 21
280.965581
 31
0.0
  0
ARC
  5
18B
330
6B
100
AcDbEntity
  8
0
 62
     3
100
AcDbCircle
 10
644.158118
 20
242.429933
 30
0.0
 40
1.944650999999995
100
AcDbArc
 50
301.403676
 51
1.140945
  0
ARC
  5
18C
330
6B
100
AcDbEntity
  8
0
 62
     3
100
AcDbCircle
 10
643.0669289999997
 20
242.482948
 30
0.0
 40
2.033195999999998
100
AcDbArc
 50
180.289134
 51
237.396763
  0
LINE
  5
18D
330
6B
100
AcDbEntity
  8
0
 62
     3
100
AcDbLine
 10
645.1714059999998
 20
240.77014
 30
0.0
 11
645.1714059999998
 21
236.504492
 31
0.0
  0
LINE
  5
18E
330
6B
100
AcDbEntity
  8
0
 62
     3
100
AcDbLine
 10
641.971406
 20
236.504492
 30
0.0
 11
641.971406
 21
240.77014
 31
0.0
  0
LINE
  5
18F
330
6B
100
AcDbEntity
  8
0
 62
     3
100
AcDbLine
 10
640.5714059999998
 20
243.460775
 30
0.0
 11
640.5714059999998
 21
236.504492
 31
0.0
  0
LINE
  5
190
330
6B
100
AcDbEntity
  8
0
 62
     3
100
AcDbLine
 10
646.5714059999998
 20
243.460775
 30
0.0
 11
646.5714059999998
 21
236.504492
 31
0.0
  0
LINE
  5
191
330
6B
100
AcDbEntity
  8
0
 62
     3
100
AcDbLine
 10
640.5714059999998
 20
250.904491
 30
0.0
 11
641.0314049999997
 21
250.904491
 31
0.0
  0
LINE
  5
192
330
6B
100
AcDbEntity
  8
0
 62
     3
100
AcDbLine
 10
640.5714059999998
 20
243.443062
 30
0.0
 11
640.5714059999998
 21
250.904491
 31
0.0
  0
LINE
  5
193
330
6B
100
AcDbEntity
  8
0
 62
     3
100
AcDbLine
 10
646.111404
 20
250.904491
 30
0.0
 11
646.5714059999998
 21
250.904491
 31
0.0
  0
LINE
  5
194
330
6B
100
AcDbEntity
  8
0
 62
     3
100
AcDbLine
 10
646.5714059999998
 20
250.904491
 30
0.0
 11
646.5714059999998
 21
243.436209
 31
0.0
  0
LINE
  5
195
330
6B
100
AcDbEntity
  8
0
 62
     3
100
AcDbLine
 10
646.5714059999998
 20
236.504492
 30
0.0
 11
645.1714059999998
 21
236.504492
 31
0.0
  0
LINE
  5
196
330
6B
100
AcDbEntity
  8
0
 62
     3
100
AcDbLine
 10
641.971406
 20
236.504492
 30
0.0
 11
640.5714059999998
 21
236.504492
 31
0.0
  0
ARC
  5
197
330
6B
100
AcDbEntity
  8
0
 62
     3
100
AcDbCircle
 10
726.158133
 20
242.429924
 30
0.0
 40
1.944634999999999
100
AcDbArc
 50
301.403414
 51
1.141206999999998
  0
ARC
  5
198
330
6B
100
AcDbEntity
  8
0
 62
     3
100
AcDbCircle
 10
725.0669280000002
 20
242.482948
 30
0.0
 40
2.033195999999998
100
AcDbArc
 50
180.289134
 51
237.396763
  0
LINE
  5
199
330
6B
100
AcDbEntity
  8
0
 62
     3
100
AcDbLine
 10
722.571405
 20
243.460775
 30
0.0
 11
722.571405
 21
236.504492
 31
0.0
  0
LINE
  5
19A
330
6B
100
AcDbEntity
  8
0
 62
     3
100
AcDbLine
 10
728.5714059999996
 20
243.460775
 30
0.0
 11
728.5714059999996
 21
236.504492
 31
0.0
  0
LINE
  5
19B
330
6B
100
AcDbEntity
  8
0
 62
     3
100
AcDbLine
 10
723.9714049999999
 20
236.504492
 30
0.0
 11
723.9714049999999
 21
240.77014
 31
0.0
  0
LINE
  5
19C
330
6B
100
AcDbEntity
  8
0
 62
     3
100
AcDbLine
 10
727.1714059999997
 20
240.77014
 30
0.0
 11
727.1714059999997
 21
236.504492
 31
0.0
  0
LINE
  5
19D
330
6B
100
AcDbEntity
  8
0
 62
     3
100
AcDbLine
 10
722.571405
 20
250.904491
 30
0.0
 11
723.031407
 21
250.904491
 31
0.0
  0
LINE
  5
19E
330
6B
100
AcDbEntity
  8
0
 62
     3
100
AcDbLine
 10
722.571405
 20
243.443062
 30
0.0
 11
722.571405
 21
250.904491
 31
0.0
  0
LINE
  5
19F
330
6B
100
AcDbEntity
  8
0
 62
     3
100
AcDbLine
 10
728.111407
 20
250.904491
 30
0.0
 11
728.5714059999996
 21
250.904491
 31
0.0
  0
LINE
  5
1A0
330
6B
100
AcDbEntity
  8
0
 62
     3
100
AcDbLine
 10
728.5714059999996
 20
250.904491
 30
0.0
 11
728.5714059999996
 21
243.436209
 31
0.0
  0
LINE
  5
1A1
330
6B
100
AcDbEntity
  8
0
 62
     3
100
AcDbLine
 10
723.9714049999999
 20
236.504492
 30
0.0
 11
722.571405
 21
236.504492
 31
0.0
  0
LINE
  5
1A2
330
6B
100
AcDbEntity
  8
0
 62
     3
100
AcDbLine
 10
728.5714059999996
 20
236.504492
 30
0.0
 11
727.1714059999997
 21
236.504492
 31
0.0
  0
LINE
  5
1A3
330
6B
100
AcDbEntity
  8
0
 62
     3
100
AcDbLine
 10
645.911407
 20
295.804491
 30
0.0
 11
641.2314049999999
 21
295.804491
 31
0.0
  0
LINE
  5
1A4
330
6B
100
AcDbEntity
  8
0
 62
     3
100
AcDbLine
 10
646.111404
 20
294.904491
 30
0.0
 11
641.0314049999997
 21
294.904491
 31
0.0
  0
LINE
  5
1A5
330
6B
100
AcDbEntity
  8
0
 62
     3
100
AcDbLine
 10
728.111407
 20
294.904491
 30
0.0
 11
723.031407
 21
294.904491
 31
0.0
  0
LINE
  5
1A6
330
6B
100
AcDbEntity
  8
0
 62
     3
100
AcDbLine
 10
727.9114059999997
 20
295.804491
 30
0.0
 11
723.231405
 21
295.804491
 31
0.0
  0
LINE
  5
1A7
330
6B
100
AcDbEntity
  8
0
 62
     3
100
AcDbLine
 10
646.1094369999997
 20
260.48149
 30
0.0
 11
646.111404
 21
260.396703
 31
0.0
  0
LINE
  5
1A8
330
6B
100
AcDbEntity
  8
0
 62
     3
100
AcDbLine
 10
641.0314049999997
 20
260.396703
 30
0.0
 11
641.0333749999997
 21
260.48149
 31
0.0
  0
LINE
  5
1A9
330
6B
100
AcDbEntity
  8
0
 62
     3
100
AcDbLine
 10
641.0314049999997
 20
294.904491
 30
0.0
 11
646.111404
 21
294.904491
 31
0.0
  0
LINE
  5
1AA
330
6B
100
AcDbEntity
  8
0
 62
     3
100
AcDbLine
 10
728.1094369999997
 20
260.48149
 30
0.0
 11
728.111407
 21
260.396703
 31
0.0
  0
LINE
  5
1AB
330
6B
100
AcDbEntity
  8
0
 62
     3
100
AcDbLine
 10
723.031407
 20
260.396703
 30
0.0
 11
723.0333739999996
 21
260.48149
 31
0.0
  0
LINE
  5
1AC
330
6B
100
AcDbEntity
  8
0
 62
     3
100
AcDbLine
 10
723.031407
 20
294.904491
 30
0.0
 11
728.111407
 21
294.904491
 31
0.0
  0
LINE
  5
1AD
330
6B
100
AcDbEntity
  8
0
 62
     3
100
AcDbLine
 10
646.111404
 20
271.304491
 30
0.0
 11
723.031407
 21
271.304491
 31
0.0
  0
CIRCLE
  5
1AE
330
6B
100
AcDbEntity
  8
0
 62
     3
100
AcDbCircle
 10
691.871406
 20
267.3044910000001
 30
0.0
 40
1.1
  0
CIRCLE
  5
1AF
330
6B
100
AcDbEntity
  8
0
 62
     3
100
AcDbCircle
 10
677.2714059999997
 20
267.3044910000001
 30
0.0
 40
1.1
  0
CIRCLE
  5
1B0
330
6B
100
AcDbEntity
  8
0
 62
     3
100
AcDbCircle
 10
684.5714059999997
 20
267.3044910000001
 30
0.0
 40
1.1
  0
LINE
  5
1B1
330
6B
100
AcDbEntity
  8
0
 62
     3
100
AcDbLine
 10
723.031407
 20
263.304492
 30
0.0
 11
646.111404
 21
263.304492
 31
0.0
  0
LINE
  5
1B2
330
6B
100
AcDbEntity
  8
0
 62
     3
100
AcDbLine
 10
802.759685
 20
125.281295
 30
0.0
 11
802.359685
 21
125.221294
 31
0.0
  0
LINE
  5
1B3
330
6B
100
AcDbEntity
  8
0
 62
     3
100
AcDbLine
 10
806.316883
 20
169.062326
 30
0.0
 11
821.854816
 21
193.928217
 31
0.0
  0
LINE
  5
1B4
330
6B
100
AcDbEntity
  8
0
 62
     3
100
AcDbLine
 10
804.1555119999996
 20
165.60341
 30
0.0
 11
804.962534
 21
166.894914
 31
0.0
  0
LINE
  5
1B5
330
6B
100
AcDbEntity
  8
0
 62
     3
100
AcDbLine
 10
817.546732
 20
196.620207
 30
0.0
 11
799.847428
 21
168.2954
 31
0.0
  0
LINE
  5
1B6
330
6B
100
AcDbEntity
  8
0
 62
     3
100
AcDbLine
 10
805.0494629999999
 20
166.609441
 30
0.0
 11
805.9976930000001
 21
166.096229
 31
0.0
  0
LINE
  5
1B7
330
6B
100
AcDbEntity
  8
0
 62
     3
100
AcDbLine
 10
807.487678
 20
168.480702
 30
0.0
 11
806.6107289999999
 21
169.107989
 31
0.0
  0
ARC
  5
1B8
330
6B
100
AcDbEntity
  8
0
 62
     3
100
AcDbCircle
 10
807.429499
 20
168.399368
 30
0.0
 40
0.1
100
AcDbArc
 50
328.0
 51
54.42366599999999
  0
ARC
  5
1B9
330
6B
100
AcDbEntity
  8
0
 62
     3
100
AcDbCircle
 10
806.0452919999999
 20
166.184173
 30
0.0
 40
0.1
100
AcDbArc
 50
241.576334
 51
328.0
  0
ARC
  5
1BA
330
6B
100
AcDbEntity
  8
0
 62
     3
100
AcDbCircle
 10
837.039685
 20
120.341295
 30
0.0
 40
0.2
100
AcDbArc
 50
270.0
 51
0.0
  0
ARC
  5
1BB
330
6B
100
AcDbEntity
  8
0
 62
     3
100
AcDbCircle
 10
837.039685
 20
125.021295
 30
0.0
 40
0.2
100
AcDbArc
 50
0.0
 51
90.0
  0
LINE
  5
1BC
330
6B
100
AcDbEntity
  8
0
 62
     3
100
AcDbLine
 10
837.039685
 20
125.221295
 30
0.0
 11
792.380162
 21
125.221294
 31
0.0
  0
LINE
  5
1BD
330
6B
100
AcDbEntity
  8
0
 62
     3
100
AcDbLine
 10
792.380162
 20
120.141295
 30
0.0
 11
837.039685
 21
120.141295
 31
0.0
  0
LINE
  5
1BE
330
6B
100
AcDbEntity
  8
0
 62
     3
100
AcDbLine
 10
799.677854
 20
168.024025
 30
0.0
 11
781.745638
 21
139.326482
 31
0.0
  0
LINE
  5
1BF
330
6B
100
AcDbEntity
  8
0
 62
     3
100
AcDbLine
 10
786.053723
 20
136.634493
 30
0.0
 11
803.9859380000001
 21
165.332034
 31
0.0
  0
LINE
  5
1C0
330
6B
100
AcDbEntity
  8
0
 62
     3
100
AcDbLine
 10
792.380162
 20
125.221294
 30
0.0
 11
792.338522
 21
125.221411
 31
0.0
  0
LINE
  5
1C1
330
6B
100
AcDbEntity
  8
0
 62
     3
100
AcDbLine
 10
786.0317129999997
 20
136.599048
 30
0.0
 11
786.053723
 21
136.634493
 31
0.0
  0
LINE
  5
1C2
330
6B
100
AcDbEntity
  8
0
 62
     3
100
AcDbLine
 10
781.745638
 20
139.326482
 30
0.0
 11
781.724246
 21
139.292121
 31
0.0
  0
LINE
  5
1C3
330
6B
100
AcDbEntity
  8
0
 62
     3
100
AcDbLine
 10
792.339684
 20
120.14136
 30
0.0
 11
792.380162
 21
120.141295
 31
0.0
  0
LINE
  5
1C4
330
6B
100
AcDbEntity
  8
0
 62
     3
100
AcDbLine
 10
802.759685
 20
125.281295
 30
0.0
 11
802.759685
 21
125.221294
 31
0.0
  0
ARC
  5
1C5
330
6B
100
AcDbEntity
  8
0
 62
     3
100
AcDbCircle
 10
819.700774
 20
195.274212
 30
0.0
 40
3.5
100
AcDbArc
 50
284.528301
 51
191.4717
  0
ARC
  5
1C6
330
6B
100
AcDbEntity
  8
0
 62
     3
100
AcDbCircle
 10
819.700774
 20
195.274212
 30
0.0
 40
2.54
100
AcDbArc
 50
328.0
 51
148.0
  0
LINE
  5
1C7
330
6B
100
AcDbEntity
  8
0
 62
     3
100
AcDbLine
 10
812.739685
 20
128.981295
 30
0.0
 11
812.739685
 21
125.461295
 31
0.0
  0
LINE
  5
1C8
330
6B
100
AcDbEntity
  8
0
 62
     3
100
AcDbLine
 10
804.739685
 20
125.461295
 30
0.0
 11
804.739685
 21
128.981295
 31
0.0
  0
ARC
  5
1C9
330
6B
100
AcDbEntity
  8
0
 62
     3
100
AcDbCircle
 10
805.349108
 20
177.290728
 30
0.0
 40
8.286292999999997
100
AcDbArc
 50
274.9062009999999
 51
278.71851
  0
LINE
  5
1CA
330
6B
100
AcDbEntity
  8
0
 62
     3
100
AcDbLine
 10
777.9396849999997
 20
119.681296
 30
0.0
 11
792.339684
 21
119.681296
 31
0.0
  0
LINE
  5
1CB
330
6B
100
AcDbEntity
  8
0
 62
     3
100
AcDbLine
 10
777.9396849999997
 20
121.681294
 30
0.0
 11
777.9396849999997
 21
119.681296
 31
0.0
  0
LINE
  5
1CC
330
6B
100
AcDbEntity
  8
0
 62
     3
100
AcDbLine
 10
778.523545
 20
121.681294
 30
0.0
 11
777.9396849999997
 21
121.681294
 31
0.0
  0
ARC
  5
1CD
330
6B
100
AcDbEntity
  8
0
 62
     3
100
AcDbCircle
 10
778.523544
 20
124.681295
 30
0.0
 40
3.0
100
AcDbArc
 50
270.0
 51
30.0
  0
ARC
  5
1CE
330
6B
100
AcDbEntity
  8
0
 62
     3
100
AcDbCircle
 10
792.37995
 20
132.681295
 30
0.0
 40
13.0
100
AcDbArc
 50
148.177905
 51
210.0
  0
LINE
  5
1CF
330
6B
100
AcDbEntity
  8
0
 62
     3
100
AcDbLine
 10
786.4224759999999
 20
136.356342
 30
0.0
 11
781.333988
 21
139.53598
 31
0.0
  0
LINE
  5
1D0
330
6B
100
AcDbEntity
  8
0
 62
     3
100
AcDbLine
 10
792.339684
 20
119.681296
 30
0.0
 11
792.339684
 21
125.681412
 31
0.0
  0
ARC
  5
1D1
330
6B
100
AcDbEntity
  8
0
 62
     3
100
AcDbCircle
 10
792.380162
 20
132.681295
 30
0.0
 40
7.0
100
AcDbArc
 50
148.331305
 51
269.668681
  0
LINE
  5
1D2
330
6B
100
AcDbEntity
  8
0
 62
     3
100
AcDbLine
 10
836.339684
 20
122.681296
 30
0.0
 11
836.339684
 21
125.221294
 31
0.0
  0
LINE
  5
1D3
330
6B
100
AcDbEntity
  8
0
 62
     3
100
AcDbLine
 10
836.339684
 20
120.141295
 30
0.0
 11
836.339684
 21
122.681296
 31
0.0
  0
LINE
  5
1D4
330
6B
100
AcDbEntity
  8
0
 62
     3
100
AcDbLine
 10
837.239684
 20
122.681296
 30
0.0
 11
837.239684
 21
120.341295
 31
0.0
  0
LINE
  5
1D5
330
6B
100
AcDbEntity
  8
0
 62
     3
100
AcDbLine
 10
837.239684
 20
125.021294
 30
0.0
 11
837.239684
 21
122.681296
 31
0.0
  0
LINE
  5
1D6
330
6B
100
AcDbEntity
  8
0
 62
     3
100
AcDbLine
 10
836.339684
 20
125.221294
 30
0.0
 11
836.339684
 21
120.141295
 31
0.0
  0
ARC
  5
1D7
330
6B
100
AcDbEntity
  8
0
 62
     3
100
AcDbCircle
 10
804.9796849999999
 20
125.461295
 30
0.0
 40
0.24
100
AcDbArc
 50
180.0
 51
270.0
  0
ARC
  5
1D8
330
6B
100
AcDbEntity
  8
0
 62
     3
100
AcDbCircle
 10
804.9796849999999
 20
128.981295
 30
0.0
 40
0.24
100
AcDbArc
 50
90.0
 51
180.0
  0
LINE
  5
1D9
330
6B
100
AcDbEntity
  8
0
 62
     3
100
AcDbLine
 10
812.499685
 20
129.221295
 30
0.0
 11
804.9796849999999
 21
129.221295
 31
0.0
  0
ARC
  5
1DA
330
6B
100
AcDbEntity
  8
0
 62
     3
100
AcDbCircle
 10
812.499685
 20
128.981295
 30
0.0
 40
0.24
100
AcDbArc
 50
0.0
 51
90.0
  0
ARC
  5
1DB
330
6B
100
AcDbEntity
  8
0
 62
     3
100
AcDbCircle
 10
812.499685
 20
125.461295
 30
0.0
 40
0.24
100
AcDbArc
 50
270.0
 51
0.0
  0
ARC
  5
1DC
330
6B
100
AcDbEntity
  8
0
 62
     3
100
AcDbCircle
 10
800.338954
 20
165.33102
 30
0.0
 40
4.880906999999996
100
AcDbArc
 50
15.184185
 51
21.735159
  0
LINE
  5
1DD
330
6B
100
AcDbEntity
  8
0
 62
     3
100
AcDbLine
 10
807.514304
 20
168.346376
 30
0.0
 11
806.130096
 21
166.131181
 31
0.0
  0
LINE
  5
1DE
330
6B
100
AcDbEntity
  8
0
 62
     3
100
AcDbLine
 10
806.0577910000002
 20
169.034796
 30
0.0
 11
804.8728549999998
 21
167.138502
 31
0.0
  0
ARC
  5
1DF
330
6B
100
AcDbEntity
  8
0
 62
     3
100
AcDbCircle
 10
648.4996670000001
 20
271.017996
 30
0.0
 40
2.41504
100
AcDbArc
 50
130.962596
 51
171.459966
  0
ARC
  5
1E0
330
6B
100
AcDbEntity
  8
0
 62
     3
100
AcDbCircle
 10
653.2998049999998
 20
265.540578
 30
0.0
 40
9.698112
100
AcDbArc
 50
104.691272
 51
131.163202
  0
ARC
  5
1E1
330
6B
100
AcDbEntity
  8
0
 62
     3
100
AcDbCircle
 10
656.496383
 20
255.430676
 30
0.0
 40
20.295043
100
AcDbArc
 50
89.788201
 51
106.18232
  0
ARC
  5
1E2
330
6B
100
AcDbEntity
  8
0
 62
     3
100
AcDbCircle
 10
648.436811
 20
271.098368
 30
0.0
 40
7.420886999999997
100
AcDbArc
 50
126.496208
 51
175.481409
  0
ARC
  5
1E3
330
6B
100
AcDbEntity
  8
0
 62
     3
100
AcDbCircle
 10
653.739788
 20
264.69658
 30
0.0
 40
15.727906
100
AcDbArc
 50
102.636765
 51
128.155632
  0
ARC
  5
1E4
330
6B
100
AcDbEntity
  8
0
 62
     3
100
AcDbCircle
 10
656.485704
 20
255.31693
 30
0.0
 40
25.488794
100
AcDbArc
 50
89.807353
 51
104.047274
  0
ARC
  5
1E5
330
6B
100
AcDbEntity
  8
0
 62
     3
100
AcDbCircle
 10
720.643145
 20
271.017996
 30
0.0
 40
2.41504
100
AcDbArc
 50
8.540034
 51
49.037404
  0
ARC
  5
1E6
330
6B
100
AcDbEntity
  8
0
 62
     3
100
AcDbCircle
 10
715.8430059999997
 20
265.540578
 30
0.0
 40
9.698112
100
AcDbArc
 50
48.83679799999999
 51
75.308728
  0
ARC
  5
1E7
330
6B
100
AcDbEntity
  8
0
 62
     3
100
AcDbCircle
 10
712.646428
 20
255.430676
 30
0.0
 40
20.295043
100
AcDbArc
 50
73.81768
 51
90.21179899999999
  0
ARC
  5
1E8
330
6B
100
AcDbEntity
  8
0
 62
     3
100
AcDbCircle
 10
720.706001
 20
271.098368
 30
0.0
 40
7.420886999999997
100
AcDbArc
 50
4.518591
 51
53.50379199999999
  0
ARC
  5
1E9
330
6B
100
AcDbEntity
  8
0
 62
     3
100
AcDbCircle
 10
715.403024
 20
264.69658
 30
0.0
 40
15.727906
100
AcDbArc
 50
51.844368
 51
77.36323500000001
  0
ARC
  5
1EA
330
6B
100
AcDbEntity
  8
0
 62
     3
100
AcDbCircle
 10
712.6571069999997
 20
255.31693
 30
0.0
 40
25.488794
100
AcDbArc
 50
75.952726
 51
90.19264699999999
  0
LINE
  5
1ED
330
6B
100
AcDbEntity
  8
0
 62
     3
100
AcDbLine
 10
873.6021939999996
 20
61.93721
 30
0.0
 11
873.6021939999996
 21
84.93720999999998
 31
0.0
  0
LINE
  5
1EF
330
6B
100
AcDbEntity
  8
0
 62
     3
100
AcDbLine
 10
820.548585
 20
54.93721
 30
0.0
 11
820.548585
 21
68.93720999999999
 31
0.0
  0
TEXT
  5
1F1
330
6B
100
AcDbEntity
  8
0
 62
     3
100
AcDbText
 10
849.6125119999996
 20
81.14232599999999
 30
0.0
 40
2.0
  1
A
 41
0.7
100
AcDbText
  0
TEXT
  5
1F2
330
6B
100
AcDbEntity
  8
0
 62
     3
100
AcDbText
 10
852.147798
 20
81.14232599999999
 30
0.0
 40
2.0
  1
P
 41
0.7
100
AcDbText
  0
TEXT
  5
1F3
330
6B
100
AcDbEntity
  8
0
 62
     3
100
AcDbText
 10
854.683085
 20
81.14232599999999
 30
0.0
 40
2.0
  1
P
 41
0.7
100
AcDbText
  0
TEXT
  5
1F4
330
6B
100
AcDbEntity
  8
0
 62
     3
100
AcDbText
 10
857.218371
 20
81.14232599999999
 30
0.0
 40
2.0
  1
D
 41
0.7
100
AcDbText
  0
TEXT
  5
1F5
330
6B
100
AcDbEntity
  8
0
 62
     3
100
AcDbText
 10
862.5870539999999
 20
81.14232599999999
 30
0.0
 40
2.0
  1
C
 41
0.7
100
AcDbText
  0
TEXT
  5
1F6
330
6B
100
AcDbEntity
  8
0
 62
     3
100
AcDbText
 10
865.1223400000001
 20
81.14232599999999
 30
0.0
 40
2.0
  1
H
 41
0.7
100
AcDbText
  0
TEXT
  5
1F7
330
6B
100
AcDbEntity
  8
0
 62
     3
100
AcDbText
 10
867.6576259999999
 20
81.14232599999999
 30
0.0
 40
2.0
  1
C
 41
0.7
100
AcDbText
  0
TEXT
  5
1F8
330
6B
100
AcDbEntity
  8
0
 62
     3
100
AcDbText
 10
870.1929130000001
 20
81.14232599999999
 30
0.0
 40
2.0
  1
K
 41
0.7
100
AcDbText
  0
TEXT
  5
1F9
330
6B
100
AcDbEntity
  8
0
 62
     3
100
AcDbText
 10
875.8668789999997
 20
81.14232599999999
 30
0.0
 40
2.0
  1
DESN
 41
1.216762999999998
100
AcDbText
  0
TEXT
  5
1FA
330
6B
100
AcDbEntity
  8
0
 62
     3
100
AcDbText
 10
790.8605200000002
 20
51.795828
 30
0.0
 40
2.0
  1
NICHIDO IND.CO.LTD
 41
1.274876
100
AcDbText
  0
LINE
  5
1FB
330
6B
100
AcDbEntity
  8
0
 62
     3
100
AcDbLine
 10
801.24355
 20
84.93720999999998
 30
0.0
 11
801.24355
 21
61.93721
 31
0.0
  0
LINE
  5
1FC
330
6B
100
AcDbEntity
  8
0
 62
     3
100
AcDbLine
 10
847.6021939999997
 20
84.93720999999997
 30
0.0
 11
847.6021939999997
 21
45.271487
 31
0.0
  0
LINE
  5
201
330
6B
100
AcDbEntity
  8
0
 62
     3
100
AcDbLine
 10
860.6021939999997
 20
84.93720999999998
 30
0.0
 11
860.6021939999997
 21
54.93721
 31
0.0
  0
TEXT
  5
202
330
6B
100
AcDbEntity
  8
0
 62
     3
100
AcDbText
 10
848.7146390000001
 20
55.801897
 30
0.0
 40
3.2
  1
作成日
 41
1.017225999999997
100
AcDbText
  0
LINE
  5
203
330
6B
100
AcDbEntity
  8
0
 62
     3
100
AcDbLine
 10
899.3015579999999
 20
84.93720999999998
 30
0.0
 11
787.9981149999996
 21
84.93720999999998
 31
0.0
  0
LINE
  5
204
330
6B
100
AcDbEntity
  8
0
 62
     3
100
AcDbLine
 10
886.6021939999997
 20
61.93721
 30
0.0
 11
886.6021939999997
 21
84.93720999999998
 31
0.0
  0
TEXT
  5
205
330
6B
100
AcDbEntity
  8
0
 62
     3
100
AcDbText
 10
889.9259970000001
 20
81.22814400000001
 30
0.0
 40
1.8
  1
D
 41
0.666667
100
AcDbText
  0
TEXT
  5
206
330
6B
100
AcDbEntity
  8
0
 62
     3
100
AcDbText
 10
892.742626
 20
81.22814400000001
 30
0.0
 40
1.8
  1
E
 41
0.666667
100
AcDbText
  0
TEXT
  5
207
330
6B
100
AcDbEntity
  8
0
 62
     3
100
AcDbText
 10
895.5592539999999
 20
81.22814400000001
 30
0.0
 40
1.8
  1
F
 41
0.666667
100
AcDbText
  0
TEXT
  5
208
330
6B
100
AcDbEntity
  8
0
 62
     3
100
AcDbText
 10
889.9259970000001
 20
77.235591
 30
0.0
 40
3.2
  1
製図
 41
1.076369
100
AcDbText
  0
LINE
  5
209
330
6B
100
AcDbEntity
  8
0
 62
     3
100
AcDbLine
 10
787.9981149999996
 20
84.93720999999998
 30
0.0
 11
787.9981149999996
 21
45.271487
 31
0.0
  0
TEXT
  5
20A
330
6B
100
AcDbEntity
  8
0
 62
     3
100
AcDbText
 10
789.374768
 20
45.603953
 30
0.0
 40
5.0
  1
日動工業株式会社
 41
0.833333
100
AcDbText
  0
LINE
  5
20B
330
6B
100
AcDbEntity
  8
0
 62
     3
100
AcDbLine
 10
830.8805190000001
 20
68.93720999999998
 30
0.0
 11
830.8805190000001
 21
45.271487
 31
0.0
  0
LINE
  5
20C
330
6B
100
AcDbEntity
  8
0
 62
     3
100
AcDbLine
 10
830.8805190000001
 20
50.104348
 30
0.0
 11
847.6021939999997
 21
50.104348
 31
0.0
  0
TEXT
  5
20D
330
6B
100
AcDbEntity
  8
0
 62
     3
100
AcDbText
 10
831.467121
 20
50.92077899999999
 30
0.0
 40
3.2
  1
出図コード
 41
0.8356860000000001
100
AcDbText
  0
LINE
  5
21F
330
6B
100
AcDbEntity
  8
0
 62
     3
100
AcDbLine
 10
787.9981149999995
 20
54.93721
 30
0.0
 11
899.3015579999999
 21
54.93721
 31
0.0
  0
LINE
  5
221
330
6B
100
AcDbEntity
  8
0
 62
     3
100
AcDbLine
 10
787.9981149999996
 20
75.93720999999998
 30
0.0
 11
899.3015579999999
 21
75.93720999999998
 31
0.0
  0
LINE
  5
227
330
6B
100
AcDbEntity
  8
0
 62
     3
100
AcDbLine
 10
787.9981149999996
 20
68.93720999999999
 30
0.0
 11
847.6021939999997
 21
68.93720999999999
 31
0.0
  0
LINE
  5
22D
330
6B
100
AcDbEntity
  8
0
 62
     3
100
AcDbLine
 10
787.9981149999996
 20
61.93721
 30
0.0
 11
899.3015579999999
 21
61.93721
 31
0.0
  0
LINE
  5
231
330
6B
100
AcDbEntity
  8
0
 62
     3
100
AcDbLine
 10
899.3015579999999
 20
319.326848
 30
0.0
 11
899.3015579999999
 21
45.27148699999997
 31
0.0
  0
LINE
  5
232
330
6B
100
AcDbEntity
  8
0
 62
     3
100
AcDbLine
 10
509.301558
 20
319.326848
 30
0.0
 11
509.301558
 21
45.271487
 31
0.0
  0
LINE
  5
233
330
6B
100
AcDbEntity
  8
0
 62
     3
100
AcDbLine
 10
899.3015579999999
 20
45.271487
 30
0.0
 11
509.301558
 21
45.271487
 31
0.0
  0
TEXT
  5
236
330
6B
100
AcDbEntity
  8
0
 62
     3
100
AcDbText
 10
831.3345730000001
 20
45.69756203586917
 30
0.0
 40
3.2
  1
ZK-A3X
 41
0.8112849999999999
100
AcDbText
  0
LINE
  5
237
330
6B
100
AcDbEntity
  8
0
 62
     2
100
AcDbLine
 10
687.076447
 20
321.76685
 30
0.0
 11
687.698944
 21
321.441896
 31
0.0
  0
LINE
  5
238
330
6B
100
AcDbEntity
  8
0
 62
     2
100
AcDbLine
 10
687.076447
 20
316.437378
 30
0.0
 11
687.698944
 21
316.762333
 31
0.0
  0
LINE
  5
239
330
6B
100
AcDbEntity
  8
0
 62
     2
100
AcDbLine
 10
687.698944
 20
321.441896
 30
0.0
 11
687.698944
 21
316.762333
 31
0.0
  0
LINE
  5
23A
330
6B
100
AcDbEntity
  8
0
 62
     2
100
AcDbLine
 10
689.275398
 20
316.437378
 30
0.0
 11
688.6529009999996
 21
316.762333
 31
0.0
  0
LINE
  5
23B
330
6B
100
AcDbEntity
  8
0
 62
     2
100
AcDbLine
 10
688.6529009999996
 20
319.614988
 30
0.0
 11
688.6529009999996
 21
316.762333
 31
0.0
  0
LINE
  5
23C
330
6B
100
AcDbEntity
  8
0
 62
     2
100
AcDbLine
 10
692.9066299999997
 20
321.76685
 30
0.0
 11
692.2841329999997
 21
321.441896
 31
0.0
  0
LINE
  5
23D
330
6B
100
AcDbEntity
  8
0
 62
     2
100
AcDbLine
 10
690.7076799999996
 20
321.76685
 30
0.0
 11
691.3301769999996
 21
321.441896
 31
0.0
  0
LINE
  5
23E
330
6B
100
AcDbEntity
  8
0
 62
     2
100
AcDbLine
 10
691.3301769999996
 20
321.441896
 30
0.0
 11
691.3301769999996
 21
319.381414
 31
0.0
  0
LINE
  5
23F
330
6B
100
AcDbEntity
  8
0
 62
     2
100
AcDbLine
 10
692.2841329999997
 20
321.441896
 30
0.0
 11
692.2841329999997
 21
316.135148
 31
0.0
  0
LINE
  5
240
330
6B
100
AcDbEntity
  8
0
 62
     2
100
AcDbLine
 10
693.2141979999999
 20
321.766847
 30
0.0
 11
693.8366919999999
 21
321.441888
 31
0.0
  0
LINE
  5
241
330
6B
100
AcDbEntity
  8
0
 62
     2
100
AcDbLine
 10
693.214086
 20
316.43745
 30
0.0
 11
693.8365949999997
 21
316.762382
 31
0.0
  0
LINE
  5
242
330
6B
100
AcDbEntity
  8
0
 62
     2
100
AcDbLine
 10
693.8366919999999
 20
321.441888
 30
0.0
 11
693.8366919999999
 21
316.762382
 31
0.0
  0
LINE
  5
243
330
6B
100
AcDbEntity
  8
0
 62
     2
100
AcDbLine
 10
695.970678
 20
321.766813
 30
0.0
 11
695.3481769999997
 21
321.441867
 31
0.0
  0
LINE
  5
244
330
6B
100
AcDbEntity
  8
0
 62
     2
100
AcDbLine
 10
695.3481769999997
 20
321.441867
 30
0.0
 11
695.3481769999997
 21
316.762362
 31
0.0
  0
LINE
  5
245
330
6B
100
AcDbEntity
  8
0
 62
     2
100
AcDbLine
 10
695.970678
 20
316.437416
 30
0.0
 11
695.3481769999997
 21
316.762362
 31
0.0
  0
LINE
  5
246
330
6B
100
AcDbEntity
  8
0
 62
     2
100
AcDbLine
 10
701.242469
 20
321.766754
 30
0.0
 11
701.864965
 21
321.441798
 31
0.0
  0
LINE
  5
247
330
6B
100
AcDbEntity
  8
0
 62
     2
100
AcDbLine
 10
701.864965
 20
321.441798
 30
0.0
 11
701.864883
 21
316.762292
 31
0.0
  0
LINE
  5
248
330
6B
100
AcDbEntity
  8
0
 62
     2
100
AcDbLine
 10
701.2423759999997
 20
316.4373569999999
 30
0.0
 11
701.864883
 21
316.762292
 31
0.0
  0
LINE
  5
249
330
6B
100
AcDbEntity
  8
0
 62
     2
100
AcDbLine
 10
704.031413
 20
321.766754
 30
0.0
 11
703.4089169999997
 21
321.441798
 31
0.0
  0
LINE
  5
24A
330
6B
100
AcDbEntity
  8
0
 62
     2
100
AcDbLine
 10
704.0315059999997
 20
316.4373569999999
 30
0.0
 11
703.408999
 21
316.762292
 31
0.0
  0
LINE
  5
24B
330
6B
100
AcDbEntity
  8
0
 62
     2
100
AcDbLine
 10
704.3224529999996
 20
321.766754
 30
0.0
 11
704.944949
 21
321.441798
 31
0.0
  0
LINE
  5
24C
330
6B
100
AcDbEntity
  8
0
 62
     2
100
AcDbLine
 10
704.32236
 20
316.4373569999999
 30
0.0
 11
704.944867
 21
316.762292
 31
0.0
  0
LINE
  5
24D
330
6B
100
AcDbEntity
  8
0
 62
     2
100
AcDbLine
 10
707.1113969999997
 20
321.766754
 30
0.0
 11
706.4889009999997
 21
321.441798
 31
0.0
  0
LINE
  5
24E
330
6B
100
AcDbEntity
  8
0
 62
     2
100
AcDbLine
 10
706.4889009999997
 20
321.441798
 30
0.0
 11
706.4889829999997
 21
316.762292
 31
0.0
  0
LINE
  5
24F
330
6B
100
AcDbEntity
  8
0
 62
     2
100
AcDbLine
 10
707.11149
 20
316.4373569999999
 30
0.0
 11
706.4889829999997
 21
316.762292
 31
0.0
  0
LINE
  5
250
330
6B
100
AcDbEntity
  8
0
 62
     2
100
AcDbLine
 10
704.944913
 20
319.403036
 30
0.0
 11
703.408953
 21
319.403036
 31
0.0
  0
LINE
  5
251
330
6B
100
AcDbEntity
  8
0
 62
     2
100
AcDbLine
 10
704.944903
 20
318.801193
 30
0.0
 11
703.4089629999997
 21
318.801193
 31
0.0
  0
LINE
  5
252
330
6B
100
AcDbEntity
  8
0
 62
     2
100
AcDbLine
 10
704.944949
 20
321.441798
 30
0.0
 11
704.944913
 21
319.403036
 31
0.0
  0
LINE
  5
253
330
6B
100
AcDbEntity
  8
0
 62
     2
100
AcDbLine
 10
704.944903
 20
318.801193
 30
0.0
 11
704.944867
 21
316.762292
 31
0.0
  0
LINE
  5
254
330
6B
100
AcDbEntity
  8
0
 62
     2
100
AcDbLine
 10
703.4089169999997
 20
321.441798
 30
0.0
 11
703.408953
 21
319.403036
 31
0.0
  0
LINE
  5
255
330
6B
100
AcDbEntity
  8
0
 62
     2
100
AcDbLine
 10
703.4089629999997
 20
318.801193
 30
0.0
 11
703.408999
 21
316.762292
 31
0.0
  0
LINE
  5
256
330
6B
100
AcDbEntity
  8
0
 62
     2
100
AcDbLine
 10
707.407053
 20
321.766754
 30
0.0
 11
708.029549
 21
321.441798
 31
0.0
  0
LINE
  5
257
330
6B
100
AcDbEntity
  8
0
 62
     2
100
AcDbLine
 10
708.029549
 20
321.441798
 30
0.0
 11
708.0294669999997
 21
316.762292
 31
0.0
  0
LINE
  5
258
330
6B
100
AcDbEntity
  8
0
 62
     2
100
AcDbLine
 10
707.4069599999996
 20
316.4373569999999
 30
0.0
 11
708.0294669999997
 21
316.762292
 31
0.0
  0
LINE
  5
259
330
6B
100
AcDbEntity
  8
0
 62
     2
100
AcDbLine
 10
710.163496
 20
321.766754
 30
0.0
 11
709.5410000000001
 21
321.441798
 31
0.0
  0
LINE
  5
25A
330
6B
100
AcDbEntity
  8
0
 62
     2
100
AcDbLine
 10
709.5410000000001
 20
321.441798
 30
0.0
 11
709.541082
 21
316.762292
 31
0.0
  0
LINE
  5
25B
330
6B
100
AcDbEntity
  8
0
 62
     2
100
AcDbLine
 10
710.1635889999997
 20
316.4373569999999
 30
0.0
 11
709.541082
 21
316.762292
 31
0.0
  0
LINE
  5
25C
330
6B
100
AcDbEntity
  8
0
 62
     2
100
AcDbLine
 10
710.469724
 20
321.766754
 30
0.0
 11
711.09222
 21
321.441798
 31
0.0
  0
LINE
  5
25D
330
6B
100
AcDbEntity
  8
0
 62
     2
100
AcDbLine
 10
711.09222
 20
321.441798
 30
0.0
 11
711.0921379999997
 21
316.762292
 31
0.0
  0
LINE
  5
25E
330
6B
100
AcDbEntity
  8
0
 62
     2
100
AcDbLine
 10
710.4696309999996
 20
316.4373569999999
 30
0.0
 11
711.0921379999997
 21
316.762292
 31
0.0
  0
ARC
  5
25F
330
6B
100
AcDbEntity
  8
0
 62
     2
100
AcDbCircle
 10
699.2540240000002
 20
319.115528
 30
0.0
 40
2.980408
100
AcDbArc
 50
97.701524
 51
270.0
  0
ARC
  5
260
330
6B
100
AcDbEntity
  8
0
 62
     2
100
AcDbCircle
 10
717.654882
 20
319.08559
 30
0.0
 40
3.012775999999998
100
AcDbArc
 50
0.31425
 51
69.00558199999998
  0
ARC
  5
261
330
6B
100
AcDbEntity
  8
0
 62
     2
100
AcDbCircle
 10
718.3129899999999
 20
319.08559
 30
0.0
 40
3.012775999999998
100
AcDbArc
 50
110.994418
 51
148.116611
  0
ARC
  5
262
330
6B
100
AcDbEntity
  8
0
 62
     2
100
AcDbCircle
 10
717.654882
 20
319.118638
 30
0.0
 40
3.012775999999998
100
AcDbArc
 50
290.994418
 51
359.68575
  0
ARC
  5
263
330
6B
100
AcDbEntity
  8
0
 62
     2
100
AcDbCircle
 10
718.3129899999999
 20
319.118638
 30
0.0
 40
3.012775999999998
100
AcDbArc
 50
211.883389
 51
249.005582
  0
ARC
  5
264
330
6B
100
AcDbEntity
  8
0
 62
     2
100
AcDbCircle
 10
717.983936
 20
320.334693
 30
0.0
 40
1.734386999999999
100
AcDbArc
 50
64.365172
 51
115.634828
  0
ARC
  5
265
330
6B
100
AcDbEntity
  8
0
 62
     2
100
AcDbCircle
 10
717.983936
 20
317.869535
 30
0.0
 40
1.734386999999999
100
AcDbArc
 50
244.365172
 51
295.634828
  0
ARC
  5
266
330
6B
100
AcDbEntity
  8
0
 62
     2
100
AcDbCircle
 10
717.983936
 20
320.367639
 30
0.0
 40
0.8512219999999999
100
AcDbArc
 50
19.486606
 51
160.513394
  0
ARC
  5
267
330
6B
100
AcDbEntity
  8
0
 62
     2
100
AcDbCircle
 10
717.983936
 20
317.83659
 30
0.0
 40
0.8512219999999999
100
AcDbArc
 50
199.4866059999999
 51
340.513394
  0
ARC
  5
268
330
6B
100
AcDbEntity
  8
0
 62
     3
100
AcDbCircle
 10
711.2089759999999
 20
287.347743
 30
0.0
 40
37.20000000000001
100
AcDbArc
 50
69.50571500000001
 51
81.689988
  0
ARC
  5
269
330
6B
100
AcDbEntity
  8
0
 62
     3
100
AcDbCircle
 10
711.2089759999999
 20
350.856486
 30
0.0
 40
37.20000000000001
100
AcDbArc
 50
278.310012
 51
290.494285
  0
ARC
  5
26A
330
6B
100
AcDbEntity
  8
0
 62
     3
100
AcDbCircle
 10
723.0778389999997
 20
319.102114
 30
0.0
 40
3.299999999999998
100
AcDbArc
 50
290.494285
 51
69.50571500000001
  0
ARC
  5
26B
330
6B
100
AcDbEntity
  8
0
 62
     3
100
AcDbCircle
 10
684.0778389999997
 20
319.102114
 30
0.0
 40
3.299999999999998
100
AcDbArc
 50
110.494285
 51
249.505715
  0
ARC
  5
26C
330
6B
100
AcDbEntity
  8
0
 62
     3
100
AcDbCircle
 10
695.9467019999997
 20
287.347743
 30
0.0
 40
37.20000000000001
100
AcDbArc
 50
98.31001200000001
 51
110.494285
  0
ARC
  5
26D
330
6B
100
AcDbEntity
  8
0
 62
     3
100
AcDbCircle
 10
695.9467019999997
 20
350.856486
 30
0.0
 40
37.20000000000001
100
AcDbArc
 50
249.505715
 51
261.689988
  0
ARC
  5
26E
330
6B
100
AcDbEntity
  8
0
 62
     3
100
AcDbCircle
 10
703.5778389999997
 20
235.102114
 30
0.0
 40
90.0
100
AcDbArc
 50
81.689988
 51
98.31001200000001
  0
ARC
  5
26F
330
6B
100
AcDbEntity
  8
0
 62
     3
100
AcDbCircle
 10
703.5778389999997
 20
403.102114
 30
0.0
 40
90.0
100
AcDbArc
 50
261.689988
 51
278.310012
  0
ARC
  5
270
330
6B
100
AcDbEntity
  8
0
 62
     3
100
AcDbCircle
 10
703.5778389999997
 20
235.102114
 30
0.0
 40
89.1
100
AcDbArc
 50
81.689988
 51
98.31001200000001
  0
ARC
  5
271
330
6B
100
AcDbEntity
  8
0
 62
     3
100
AcDbCircle
 10
703.5778389999997
 20
403.102114
 30
0.0
 40
89.1
100
AcDbArc
 50
261.689988
 51
278.310012
  0
ARC
  5
272
330
6B
100
AcDbEntity
  8
0
 62
     3
100
AcDbCircle
 10
711.2089759999999
 20
350.856486
 30
0.0
 40
36.3
100
AcDbArc
 50
278.310012
 51
290.494285
  0
ARC
  5
273
330
6B
100
AcDbEntity
  8
0
 62
     3
100
AcDbCircle
 10
711.2089759999999
 20
287.347743
 30
0.0
 40
36.3
100
AcDbArc
 50
69.50571500000001
 51
81.689988
  0
ARC
  5
274
330
6B
100
AcDbEntity
  8
0
 62
     3
100
AcDbCircle
 10
723.0778389999997
 20
319.102114
 30
0.0
 40
2.399999999999999
100
AcDbArc
 50
290.494285
 51
69.50571500000001
  0
ARC
  5
275
330
6B
100
AcDbEntity
  8
0
 62
     3
100
AcDbCircle
 10
684.0778389999997
 20
319.102114
 30
0.0
 40
2.399999999999999
100
AcDbArc
 50
110.494285
 51
249.505715
  0
ARC
  5
276
330
6B
100
AcDbEntity
  8
0
 62
     3
100
AcDbCircle
 10
695.9467019999997
 20
287.347743
 30
0.0
 40
36.3
100
AcDbArc
 50
98.31001200000001
 51
110.494285
  0
ARC
  5
277
330
6B
100
AcDbEntity
  8
0
 62
     3
100
AcDbCircle
 10
695.9467019999997
 20
350.856486
 30
0.0
 40
36.3
100
AcDbArc
 50
249.505715
 51
261.689988
  0
LINE
  5
278
330
6B
100
AcDbEntity
  8
0
 62
     2
100
AcDbLine
 10
710.163497
 20
316.135148
 30
0.0
 11
707.4070519999996
 21
316.135148
 31
0.0
  0
LINE
  5
279
330
6B
100
AcDbEntity
  8
0
 62
     2
100
AcDbLine
 10
710.163497
 20
316.437378
 30
0.0
 11
710.163497
 21
316.135148
 31
0.0
  0
LINE
  5
27A
330
6B
100
AcDbEntity
  8
0
 62
     2
100
AcDbLine
 10
707.1113979999997
 20
322.06894
 30
0.0
 11
704.3224519999996
 21
322.06894
 31
0.0
  0
LINE
  5
27B
330
6B
100
AcDbEntity
  8
0
 62
     2
100
AcDbLine
 10
707.1113979999997
 20
322.06894
 30
0.0
 11
707.1113979999997
 21
321.76685
 31
0.0
  0
LINE
  5
27C
330
6B
100
AcDbEntity
  8
0
 62
     2
100
AcDbLine
 10
707.1113979999997
 20
316.437378
 30
0.0
 11
707.1113979999997
 21
316.135007
 31
0.0
  0
LINE
  5
27D
330
6B
100
AcDbEntity
  8
0
 62
     2
100
AcDbLine
 10
707.1113979999997
 20
316.135007
 30
0.0
 11
704.3224519999996
 21
316.135007
 31
0.0
  0
LINE
  5
27E
330
6B
100
AcDbEntity
  8
0
 62
     2
100
AcDbLine
 10
710.163497
 20
322.069081
 30
0.0
 11
710.163497
 21
321.76685
 31
0.0
  0
LINE
  5
27F
330
6B
100
AcDbEntity
  8
0
 62
     2
100
AcDbLine
 10
710.163497
 20
322.069081
 30
0.0
 11
707.4070519999996
 21
322.069081
 31
0.0
  0
LINE
  5
280
330
6B
100
AcDbEntity
  8
0
 62
     2
100
AcDbLine
 10
707.4070519999996
 20
322.069081
 30
0.0
 11
707.4070519999996
 21
321.76685
 31
0.0
  0
LINE
  5
281
330
6B
100
AcDbEntity
  8
0
 62
     2
100
AcDbLine
 10
710.469723
 20
316.437378
 30
0.0
 11
710.469723
 21
316.135148
 31
0.0
  0
LINE
  5
282
330
6B
100
AcDbEntity
  8
0
 62
     2
100
AcDbLine
 10
713.304438
 20
316.135148
 30
0.0
 11
710.469723
 21
316.135148
 31
0.0
  0
LINE
  5
283
330
6B
100
AcDbEntity
  8
0
 62
     2
100
AcDbLine
 10
712.603671
 20
321.115124
 30
0.0
 11
712.603671
 21
317.089105
 31
0.0
  0
LINE
  5
284
330
6B
100
AcDbEntity
  8
0
 62
     2
100
AcDbLine
 10
712.603671
 20
317.089105
 30
0.0
 11
712.87517
 21
317.089105
 31
0.0
  0
ARC
  5
285
330
6B
100
AcDbEntity
  8
0
 62
     2
100
AcDbCircle
 10
711.486905
 20
319.102114
 30
0.0
 40
2.445299
100
AcDbArc
 50
304.591955
 51
55.408045
  0
LINE
  5
286
330
6B
100
AcDbEntity
  8
0
 62
     2
100
AcDbLine
 10
713.304438
 20
322.069081
 30
0.0
 11
710.469723
 21
322.069081
 31
0.0
  0
LINE
  5
287
330
6B
100
AcDbEntity
  8
0
 62
     2
100
AcDbLine
 10
710.469723
 20
322.069081
 30
0.0
 11
710.469723
 21
321.76685
 31
0.0
  0
LINE
  5
288
330
6B
100
AcDbEntity
  8
0
 62
     2
100
AcDbLine
 10
707.4070519999996
 20
316.437378
 30
0.0
 11
707.4070519999996
 21
316.135148
 31
0.0
  0
LINE
  5
289
330
6B
100
AcDbEntity
  8
0
 62
     2
100
AcDbLine
 10
712.603671
 20
321.115124
 30
0.0
 11
712.87517
 21
321.115124
 31
0.0
  0
LINE
  5
28A
330
6B
100
AcDbEntity
  8
0
 62
     2
100
AcDbLine
 10
695.970586
 20
316.437378
 30
0.0
 11
695.9705809999997
 21
316.13512
 31
0.0
  0
LINE
  5
28B
330
6B
100
AcDbEntity
  8
0
 62
     2
100
AcDbLine
 10
693.2141349999997
 20
316.135176
 30
0.0
 11
695.9705809999997
 21
316.1351279999999
 31
0.0
  0
LINE
  5
28C
330
6B
100
AcDbEntity
  8
0
 62
     2
100
AcDbLine
 10
687.076447
 20
316.135148
 30
0.0
 11
689.275398
 21
316.135148
 31
0.0
  0
ARC
  5
28D
330
6B
100
AcDbEntity
  8
0
 62
     2
100
AcDbCircle
 10
679.9593859999998
 20
319.171981
 30
0.0
 40
21.019379
100
AcDbArc
 50
353.866006
 51
357.694034
  0
LINE
  5
28E
330
6B
100
AcDbEntity
  8
0
 62
     2
100
AcDbLine
 10
699.5544999999999
 20
318.331456
 30
0.0
 11
700.961744
 21
318.326249
 31
0.0
  0
LINE
  5
2D1
330
6B
100
AcDbEntity
  8
0
 62
     2
100
AcDbLine
 10
699.5601839999997
 20
319.867477
 30
0.0
 11
700.967428
 21
319.86227
 31
0.0
  0
ARC
  5
2D2
330
6B
100
AcDbEntity
  8
0
 62
     2
100
AcDbCircle
 10
679.9593859999998
 20
319.171981
 30
0.0
 40
21.019379
100
AcDbArc
 50
1.881965999999999
 51
5.709994
  0
LINE
  5
2D3
330
6B
100
AcDbEntity
  8
0
 62
     2
100
AcDbLine
 10
695.9706849999999
 20
322.069052
 30
0.0
 11
695.970679
 21
321.76685
 31
0.0
  0
LINE
  5
2D4
330
6B
100
AcDbEntity
  8
0
 62
     2
100
AcDbLine
 10
693.214239
 20
322.069109
 30
0.0
 11
695.9706849999999
 21
322.069061
 31
0.0
  0
LINE
  5
2D5
330
6B
100
AcDbEntity
  8
0
 62
     2
100
AcDbLine
 10
693.214141
 20
316.437378
 30
0.0
 11
693.2141349999997
 21
316.135176
 31
0.0
  0
LINE
  5
2D6
330
6B
100
AcDbEntity
  8
0
 62
     2
100
AcDbLine
 10
693.214239
 20
322.069109
 30
0.0
 11
693.214234
 21
321.76685
 31
0.0
  0
LINE
  5
2D7
330
6B
100
AcDbEntity
  8
0
 62
     2
100
AcDbLine
 10
689.275398
 20
316.437378
 30
0.0
 11
689.275398
 21
316.135148
 31
0.0
  0
LINE
  5
2D8
330
6B
100
AcDbEntity
  8
0
 62
     2
100
AcDbLine
 10
688.6529009999996
 20
319.614988
 30
0.0
 11
690.827801
 21
316.135148
 31
0.0
  0
LINE
  5
2D9
330
6B
100
AcDbEntity
  8
0
 62
     2
100
AcDbLine
 10
690.827801
 20
316.135148
 30
0.0
 11
692.2841329999997
 21
316.135148
 31
0.0
  0
LINE
  5
2DA
330
6B
100
AcDbEntity
  8
0
 62
     2
100
AcDbLine
 10
692.9066299999997
 20
322.069081
 30
0.0
 11
692.9066299999997
 21
321.76685
 31
0.0
  0
LINE
  5
2DB
330
6B
100
AcDbEntity
  8
0
 62
     2
100
AcDbLine
 10
690.7076799999996
 20
322.069081
 30
0.0
 11
692.9066299999997
 21
322.069081
 31
0.0
  0
LINE
  5
2DC
330
6B
100
AcDbEntity
  8
0
 62
     2
100
AcDbLine
 10
690.7076799999996
 20
322.069081
 30
0.0
 11
690.7076799999996
 21
321.76685
 31
0.0
  0
LINE
  5
2DD
330
6B
100
AcDbEntity
  8
0
 62
     2
100
AcDbLine
 10
691.3301769999996
 20
319.381414
 30
0.0
 11
689.5663959999997
 21
322.069081
 31
0.0
  0
LINE
  5
2DE
330
6B
100
AcDbEntity
  8
0
 62
     2
100
AcDbLine
 10
687.076447
 20
322.069081
 30
0.0
 11
689.5663959999997
 21
322.069081
 31
0.0
  0
LINE
  5
2DF
330
6B
100
AcDbEntity
  8
0
 62
     2
100
AcDbLine
 10
701.2424679999996
 20
322.06894
 30
0.0
 11
704.0314139999996
 21
322.06894
 31
0.0
  0
LINE
  5
2E0
330
6B
100
AcDbEntity
  8
0
 62
     2
100
AcDbLine
 10
701.2424679999996
 20
321.76685
 30
0.0
 11
701.2424679999996
 21
322.06894
 31
0.0
  0
LINE
  5
2E1
330
6B
100
AcDbEntity
  8
0
 62
     2
100
AcDbLine
 10
701.2424679999996
 20
316.135007
 30
0.0
 11
701.2424679999996
 21
316.437378
 31
0.0
  0
LINE
  5
2E2
330
6B
100
AcDbEntity
  8
0
 62
     2
100
AcDbLine
 10
701.2424679999996
 20
316.135007
 30
0.0
 11
704.0314139999996
 21
316.135007
 31
0.0
  0
LINE
  5
2E3
330
6B
100
AcDbEntity
  8
0
 62
     2
100
AcDbLine
 10
704.3224519999996
 20
316.437378
 30
0.0
 11
704.3224519999996
 21
316.135007
 31
0.0
  0
LINE
  5
2E4
330
6B
100
AcDbEntity
  8
0
 62
     2
100
AcDbLine
 10
704.0314139999996
 20
316.437378
 30
0.0
 11
704.0314139999996
 21
316.135007
 31
0.0
  0
LINE
  5
2E5
330
6B
100
AcDbEntity
  8
0
 62
     2
100
AcDbLine
 10
704.0314139999996
 20
321.76685
 30
0.0
 11
704.0314139999996
 21
322.06894
 31
0.0
  0
LINE
  5
2E6
330
6B
100
AcDbEntity
  8
0
 62
     2
100
AcDbLine
 10
704.3224519999996
 20
321.76685
 30
0.0
 11
704.3224519999996
 21
322.06894
 31
0.0
  0
LINE
  5
2E7
330
6B
100
AcDbEntity
  8
0
 62
     2
100
AcDbLine
 10
687.076447
 20
316.437378
 30
0.0
 11
687.076447
 21
316.135148
 31
0.0
  0
LINE
  5
2E8
330
6B
100
AcDbEntity
  8
0
 62
     2
100
AcDbLine
 10
687.076447
 20
322.069081
 30
0.0
 11
687.076447
 21
321.76685
 31
0.0
  0
ARC
  5
2E9
330
6B
100
AcDbEntity
  8
0
 62
     2
100
AcDbCircle
 10
713.6044379999997
 20
319.724611
 30
0.0
 40
2.344468999999999
100
AcDbArc
 50
17.308749
 51
23.765071
  0
ARC
  5
2EA
330
6B
100
AcDbEntity
  8
0
 62
     2
100
AcDbCircle
 10
711.606905
 20
319.102114
 30
0.0
 40
4.436751
100
AcDbArc
 50
342.691251
 51
17.308566
  0
ARC
  5
2EB
330
6B
100
AcDbEntity
  8
0
 62
     2
100
AcDbCircle
 10
713.6044379999997
 20
318.479617
 30
0.0
 40
2.344468999999999
100
AcDbArc
 50
336.234929
 51
342.691251
  0
ARC
  5
2EC
330
6B
100
AcDbEntity
  8
0
 62
     2
100
AcDbCircle
 10
713.304438
 20
319.724611
 30
0.0
 40
2.344468999999999
100
AcDbArc
 50
17.308749
 51
90.0
  0
ARC
  5
2ED
330
6B
100
AcDbEntity
  8
0
 62
     2
100
AcDbCircle
 10
711.306905
 20
319.102114
 30
0.0
 40
4.436751
100
AcDbArc
 50
342.691251
 51
17.308566
  0
ARC
  5
2EE
330
6B
100
AcDbEntity
  8
0
 62
     2
100
AcDbCircle
 10
713.304438
 20
318.479617
 30
0.0
 40
2.344468999999999
100
AcDbArc
 50
270.0
 51
342.691251
  0
ARC
  5
2EF
330
6B
100
AcDbEntity
  8
0
 62
     2
100
AcDbCircle
 10
698.841666
 20
319.102114
 30
0.0
 40
2.966965999999997
100
AcDbArc
 50
46.75287999999999
 51
89.749998
  0
ARC
  5
2F0
330
6B
100
AcDbEntity
  8
0
 62
     2
100
AcDbCircle
 10
698.841666
 20
319.102114
 30
0.0
 40
2.966965999999997
100
AcDbArc
 50
273.976333
 51
312.82312
  0
ARC
  5
2F1
330
6B
100
AcDbEntity
  8
0
 62
     2
100
AcDbCircle
 10
715.1871059999997
 20
319.056312
 30
0.0
 40
3.936983999999998
100
AcDbArc
 50
0.6665840000000001
 51
23.903928
  0
ARC
  5
2F2
330
6B
100
AcDbEntity
  8
0
 62
     2
100
AcDbCircle
 10
720.780766
 20
319.056312
 30
0.0
 40
3.936983999999998
100
AcDbArc
 50
156.096072
 51
179.333416
  0
ARC
  5
2F3
330
6B
100
AcDbEntity
  8
0
 62
     2
100
AcDbCircle
 10
715.1871059999997
 20
319.147917
 30
0.0
 40
3.936983999999998
100
AcDbArc
 50
336.096072
 51
359.333416
  0
ARC
  5
2F4
330
6B
100
AcDbEntity
  8
0
 62
     2
100
AcDbCircle
 10
720.780766
 20
319.147917
 30
0.0
 40
3.936983999999998
100
AcDbArc
 50
180.666584
 51
203.903928
  0
LINE
  5
2F5
330
6B
100
AcDbEntity
  8
0
 62
     3
100
AcDbLine
 10
727.958283
 20
319.326848
 30
0.0
 11
899.3015579999999
 21
319.326848
 31
0.0
  0
LINE
  5
2F6
330
6B
100
AcDbEntity
  8
0
 62
     3
100
AcDbLine
 10
679.404248
 20
319.326848
 30
0.0
 11
509.301558
 21
319.326848
 31
0.0
  0
TEXT
  5
2F7
330
6B
100
AcDbEntity
  8
0
 62
     3
100
AcDbText
 10
789.815512
 20
81.106736
 30
0.0
 40
2.0
  1
CONPONENTS
 41
0.5331600000000001
100
AcDbText
  0
TEXT
  5
2F8
330
6B
100
AcDbEntity
  8
0
 62
     3
100
AcDbText
 10
789.4657849999996
 20
62.174559
 30
0.0
 40
3.0
  1
材
 41
0.833333
100
AcDbText
  0
TEXT
  5
2F9
330
6B
100
AcDbEntity
  8
0
 62
     3
100
AcDbText
 10
797.001428
 20
62.174559
 30
0.0
 40
3.0
  1
質
 41
0.833333
100
AcDbText
  0
TEXT
  5
2FA
330
6B
100
AcDbEntity
  8
0
 62
     3
100
AcDbText
 10
789.553856
 20
72.79908299999998
 30
0.0
 40
2.0
  1
MODEL
 41
1.031072999999999
100
AcDbText
  0
TEXT
  5
2FB
330
6B
100
AcDbEntity
  8
0
 62
     3
100
AcDbText
 10
789.4657849999996
 20
65.85686700000001
 30
0.0
 40
2.0
  1
MATERIAL
 41
0.659278
100
AcDbText
  0
TEXT
  5
2FC
330
6B
100
AcDbEntity
  8
0
 62
     3
100
AcDbText
 10
820.7730659999999
 20
62.174559
 30
0.0
 40
3.0
  1
備
 41
0.833333
100
AcDbText
  0
TEXT
  5
2FD
330
6B
100
AcDbEntity
  8
0
 62
     3
100
AcDbText
 10
827.5060679999997
 20
62.174559
 30
0.0
 40
3.0
  1
考
 41
0.833333
100
AcDbText
  0
TEXT
  5
2FE
330
6B
100
AcDbEntity
  8
0
 62
     3
100
AcDbText
 10
821.0299675347188
 20
65.85686700000001
 30
0.0
 40
2.0
  1
REMARKS
 41
0.675794
100
AcDbText
  0
TEXT
  5
2FF
330
6B
100
AcDbEntity
  8
0
 62
     3
100
AcDbText
 10
791.055514
 20
58.936746
 30
0.0
 40
2.0
  1
3AD
 41
1.42614
100
AcDbText
  0
TEXT
  5
300
330
6B
100
AcDbEntity
  8
0
 62
     3
100
AcDbText
 10
800.366494
 20
59.10248000000001
 30
0.0
 40
2.0
  1
ANGLE
 41
1.669883999999995
100
AcDbText
  0
TEXT
  5
301
330
6B
100
AcDbEntity
  8
0
 62
     3
100
AcDbText
 10
821.300381
 20
58.725639
 30
0.0
 40
2.0
  1
SCALE
 41
0.7719630000000001
100
AcDbText
  0
TEXT
  5
302
330
6B
100
AcDbEntity
  8
0
 62
     3
100
AcDbText
 10
790.741644
 20
54.93721
 30
0.0
 40
3.0
  1
第
 41
0.833333
100
AcDbText
  0
TEXT
  5
303
330
6B
100
AcDbEntity
  8
0
 62
     3
100
AcDbText
 10
798.528494
 20
54.93721
 30
0.0
 40
3.0
  1
三
 41
0.833333
100
AcDbText
  0
TEXT
  5
304
330
6B
100
AcDbEntity
  8
0
 62
     3
100
AcDbText
 10
806.315344
 20
54.93721
 30
0.0
 40
3.0
  1
角
 41
0.833333
100
AcDbText
  0
TEXT
  5
305
330
6B
100
AcDbEntity
  8
0
 62
     3
100
AcDbText
 10
814.1021939999998
 20
54.93721
 30
0.0
 40
3.0
  1
法
 41
0.833333
100
AcDbText
  0
TEXT
  5
306
330
6B
100
AcDbEntity
  8
0
 62
     3
100
AcDbText
 10
821.1635859999999
 20
55.225639
 30
0.0
 40
3.0
  1
尺
 41
0.833333
100
AcDbText
  0
TEXT
  5
307
330
6B
100
AcDbEntity
  8
0
 62
     3
100
AcDbText
 10
827.8965879999997
 20
55.225639
 30
0.0
 40
3.0
  1
度
 41
0.833333
100
AcDbText
  0
TEXT
  5
308
330
6B
100
AcDbEntity
  8
0
 62
     3
100
AcDbText
 10
850.479858
 20
77.39493900000002
 30
0.0
 40
3.0
  1
承認
 41
1.089472999999999
100
AcDbText
  0
TEXT
  5
309
330
6B
100
AcDbEntity
  8
0
 62
     3
100
AcDbText
 10
863.7227390000001
 20
77.33721
 30
0.0
 40
3.0
  1
検図
 41
0.931761
100
AcDbText
  0
TEXT
  5
30A
330
6B
100
AcDbEntity
  8
0
 62
     3
100
AcDbText
 10
876.7231349999999
 20
77.33721
 30
0.0
 40
3.0
  1
設
 41
0.833333
100
AcDbText
  0
TEXT
  5
30B
330
6B
100
AcDbEntity
  8
0
 62
     3
100
AcDbText
 10
881.213003
 20
77.33721
 30
0.0
 40
3.0
  1
計
 41
0.833333
100
AcDbText
  0
TEXT
  5
30C
330
6B
100
AcDbEntity
  8
0
 62
     3
100
AcDbText
 10
789.885619
 20
77.509762
 30
0.0
 40
3.0
  1
品
 41
0.833333
100
AcDbText
  0
TEXT
  5
30D
330
6B
100
AcDbEntity
  8
0
 62
     3
100
AcDbText
 10
797.4212610000003
 20
77.509762
 30
0.0
 40
3.0
  1
名
 41
0.833333
100
AcDbText
  0
TEXT
  5
30E
330
6B
100
AcDbEntity
  8
0
 62
     3
100
AcDbText
 10
789.553856
 20
69.285386198808
 30
0.0
 40
3.0
  1
型
 41
0.833333
100
AcDbText
  0
TEXT
  5
30F
330
6B
100
AcDbEntity
  8
0
 62
     3
100
AcDbText
 10
797.1019469999996
 20
69.285386198808
 30
0.0
 40
3.0
  1
式
 41
0.833333
100
AcDbText
  0
LINE
  5
310
330
6B
100
AcDbEntity
  8
0
 62
     3
100
AcDbLine
 10
496.899634
 20
185.771487
 30
0.0
 11
494.3015579999998
 21
184.271487
 31
0.0
  0
LINE
  5
311
330
6B
100
AcDbEntity
  8
0
 62
     3
100
AcDbLine
 10
496.899634
 20
185.771487
 30
0.0
 11
494.3015579999998
 21
187.271487
 31
0.0
  0
LINE
  5
312
330
6B
100
AcDbEntity
  8
0
 62
     3
100
AcDbLine
 10
494.3015579999998
 20
184.271487
 30
0.0
 11
494.3015579999998
 21
187.271487
 31
0.0
  0
LINE
  5
320
330
6B
100
AcDbEntity
  8
0
100
AcDbLine
 10
645.1714059999998
 20
237.944757
 30
0.0
 11
646.5714059999998
 21
237.944757
 31
0.0
  0
LINE
  5
321
330
6B
100
AcDbEntity
  8
0
100
AcDbLine
 10
640.5714059999998
 20
237.944757
 30
0.0
 11
641.971406
 21
237.944757
 31
0.0
  0
LINE
  5
322
330
6B
100
AcDbEntity
  8
0
100
AcDbLine
 10
727.1714059999997
 20
237.944757
 30
0.0
 11
728.5714059999996
 21
237.944757
 31
0.0
  0
LINE
  5
323
330
6B
100
AcDbEntity
  8
0
100
AcDbLine
 10
722.571405
 20
237.944757
 30
0.0
 11
723.9714049999999
 21
237.944757
 31
0.0
  0
LINE
  5
324
330
6B
100
AcDbEntity
  8
0
100
AcDbLine
 10
646.5714059999998
 20
243.460775
 30
0.0
 11
646.111404
 21
243.850882
 31
0.0
  0
LINE
  5
325
330
6B
100
AcDbEntity
  8
0
100
AcDbLine
 10
646.5714059999998
 20
239.898794
 30
0.0
 11
645.1714059999998
 21
239.898794
 31
0.0
  0
LINE
  5
326
330
6B
100
AcDbEntity
  8
0
100
AcDbLine
 10
641.971406
 20
239.898794
 30
0.0
 11
640.5714059999998
 21
239.898794
 31
0.0
  0
LINE
  5
327
330
6B
100
AcDbEntity
  8
0
100
AcDbLine
 10
641.0314049999997
 20
243.850882
 30
0.0
 11
640.5714059999998
 21
243.460775
 31
0.0
  0
LINE
  5
328
330
6B
100
AcDbEntity
  8
0
100
AcDbLine
 10
728.5714059999996
 20
243.460775
 30
0.0
 11
728.111407
 21
243.850882
 31
0.0
  0
LINE
  5
329
330
6B
100
AcDbEntity
  8
0
100
AcDbLine
 10
728.5714059999996
 20
239.898794
 30
0.0
 11
727.1714059999997
 21
239.898794
 31
0.0
  0
LINE
  5
32A
330
6B
100
AcDbEntity
  8
0
100
AcDbLine
 10
723.9714049999999
 20
239.898794
 30
0.0
 11
722.571405
 21
239.898794
 31
0.0
  0
LINE
  5
32B
330
6B
100
AcDbEntity
  8
0
100
AcDbLine
 10
723.031407
 20
243.850882
 30
0.0
 11
722.571405
 21
243.460775
 31
0.0
  0
ARC
  5
32C
330
6B
100
AcDbEntity
  8
0
100
AcDbCircle
 10
725.5833909999997
 20
261.000943
 30
0.0
 40
2.588735999999999
100
AcDbArc
 50
189.666131
 51
347.465039
  0
ARC
  5
32D
330
6B
100
AcDbEntity
  8
0
100
AcDbCircle
 10
643.578286
 20
260.994927
 30
0.0
 40
2.582700999999999
100
AcDbArc
 50
189.553552
 51
348.533297
  0
LINE
  5
32E
330
6B
100
AcDbEntity
  8
0
100
AcDbLine
 10
689.057192
 20
122.890747
 30
0.0
 11
689.061191
 21
122.890747
 31
0.0
  0
ARC
  5
337
330
6B
100
AcDbEntity
  8
0
100
AcDbCircle
 10
803.8841729999997
 20
165.395625
 30
0.0
 40
0.12
100
AcDbArc
 50
328.0
 51
58.0
  0
ARC
  5
338
330
6B
100
AcDbEntity
  8
0
100
AcDbCircle
 10
799.77962
 20
167.960435
 30
0.0
 40
0.12
100
AcDbArc
 50
58.0
 51
148.0
  0
ARC
  5
339
330
6B
100
AcDbEntity
  8
0
100
AcDbCircle
 10
803.8078219999999
 20
165.726338
 30
0.0
 40
0.12
100
AcDbArc
 50
148.0
 51
238.0
  0
ARC
  5
33A
330
6B
100
AcDbEntity
  8
0
100
AcDbCircle
 10
800.110332
 20
168.036786
 30
0.0
 40
0.12
100
AcDbArc
 50
238.0
 51
328.0
  0
LINE
  5
33B
330
6B
100
AcDbEntity
  8
0
100
AcDbLine
 10
803.706056
 20
165.789928
 30
0.0
 11
803.7484500000001
 21
165.857771
 31
0.0
  0
LINE
  5
33C
330
6B
100
AcDbEntity
  8
0
100
AcDbLine
 10
800.2544910000001
 20
168.041039
 30
0.0
 11
800.2120969999998
 21
167.973195
 31
0.0
  0
ARC
  5
33E
330
6B
100
AcDbEntity
  8
0
100
AcDbCircle
 10
792.380162
 20
132.681295
 30
0.0
 40
8.8
100
AcDbArc
 50
148.263546
 51
269.736454
  0
LINE
  5
33F
330
6B
100
AcDbEntity
  8
0
100
AcDbLine
 10
799.847428
 20
168.2954
 30
0.0
 11
804.1555119999996
 21
165.60341
 31
0.0
  0
LINE
  5
340
330
6B
100
AcDbEntity
  8
0
100
AcDbLine
 10
803.947763
 20
165.497391
 30
0.0
 11
799.84321
 21
168.0622
 31
0.0
  0
LINE
  5
343
330
6B
100
AcDbEntity
  8
0
  6
CENTER
100
AcDbLine
 10
691.871406
 20
273.936038
 30
0.0
 11
691.871406
 21
260.672945
 31
0.0
  0
LINE
  5
344
330
6B
100
AcDbEntity
  8
0
  6
CENTER
100
AcDbLine
 10
668.0918
 20
267.3044910000001
 30
0.0
 11
701.051012
 21
267.3044910000001
 31
0.0
  0
LINE
  5
345
330
6B
100
AcDbEntity
  8
0
  6
CENTER
100
AcDbLine
 10
684.5714059999997
 20
273.936038
 30
0.0
 11
684.5714059999997
 21
260.672945
 31
0.0
  0
LINE
  5
346
330
6B
100
AcDbEntity
  8
0
  6
CENTER
100
AcDbLine
 10
677.2714059999997
 20
273.936038
 30
0.0
 11
677.2714059999997
 21
260.672945
 31
0.0
  0
LINE
  5
34C
330
6B
100
AcDbEntity
  8
0
100
AcDbLine
 10
837.239684
 20
122.142814
 30
0.0
 11
857.705374
 21
141.075054
 31
0.0
  0
CIRCLE
  5
34D
330
6B
100
AcDbEntity
  8
0
100
AcDbCircle
 10
861.3757390000001
 20
144.470407
 30
0.0
 40
5.0
  0
TEXT
  5
34E
330
6B
100
AcDbEntity
  8
0
 62
     4
100
AcDbText
 10
859.1676849858277
 20
141.3752861548899
 30
0.0
 40
6.299999999999998
  1
3
  7
高6.3
100
AcDbText
  0
LINE
  5
354
330
6B
100
AcDbEntity
  8
0
100
AcDbLine
 10
808.719315
 20
129.164229
 30
0.0
 11
834.293133
 21
143.208974
 31
0.0
  0
CIRCLE
  5
355
330
6B
100
AcDbEntity
  8
0
100
AcDbCircle
 10
838.6757209999997
 20
145.615823
 30
0.0
 40
5.0
  0
TEXT
  5
356
330
6B
100
AcDbEntity
  8
0
 62
     4
100
AcDbText
 10
836.4676669858276
 20
142.5207021548899
 30
0.0
 40
6.299999999999998
  1
4
  7
高6.3
100
AcDbText
  0
CIRCLE
  5
35D
330
6B
100
AcDbEntity
  8
0
100
AcDbCircle
 10
839.4992890000002
 20
157.348362
 30
0.0
 40
5.0
  0
TEXT
  5
35E
330
6B
100
AcDbEntity
  8
0
 62
     4
100
AcDbText
 10
837.2912349858276
 20
154.2532411548899
 30
0.0
 40
6.299999999999998
  1
8
  7
高6.3
100
AcDbText
  0
LINE
  5
364
330
6B
100
AcDbEntity
  8
0
100
AcDbLine
 10
807.3978759999999
 20
168.544938
 30
0.0
 11
834.680374
 21
169.878804
 31
0.0
  0
CIRCLE
  5
365
330
6B
100
AcDbEntity
  8
0
100
AcDbCircle
 10
839.674409
 20
170.122966
 30
0.0
 40
5.0
  0
TEXT
  5
366
330
6B
100
AcDbEntity
  8
0
 62
     4
100
AcDbText
 10
837.4663549858276
 20
167.0278451548899
 30
0.0
 40
6.299999999999998
  1
7
  7
高6.3
100
AcDbText
  0
LINE
  5
36C
330
6B
100
AcDbEntity
  8
0
100
AcDbLine
 10
706.771406
 20
194.932657
 30
0.0
 11
744.692825
 21
209.108893
 31
0.0
  0
CIRCLE
  5
36D
330
6B
100
AcDbEntity
  8
0
100
AcDbCircle
 10
749.3762669999996
 20
210.859713
 30
0.0
 40
5.0
  0
TEXT
  5
36E
330
6B
100
AcDbEntity
  8
0
 62
     4
100
AcDbText
 10
747.1682129858276
 20
207.7645921548899
 30
0.0
 40
6.299999999999998
  1
6
  7
高6.3
100
AcDbText
  0
LINE
  5
374
330
6B
100
AcDbEntity
  8
0
100
AcDbLine
 10
728.111407
 20
179.232885
 30
0.0
 11
745.6910699999999
 21
187.89398
 31
0.0
  0
CIRCLE
  5
375
330
6B
100
AcDbEntity
  8
0
100
AcDbCircle
 10
750.1762669999997
 20
190.103733
 30
0.0
 40
5.0
  0
TEXT
  5
376
330
6B
100
AcDbEntity
  8
0
 62
     4
100
AcDbText
 10
747.9682129858272
 20
187.0086121548899
 30
0.0
 40
6.299999999999998
  1
5
  7
高6.3
100
AcDbText
  0
LINE
  5
37C
330
6B
100
AcDbEntity
  8
0
100
AcDbLine
 10
728.111407
 20
147.595467
 30
0.0
 11
744.265292
 21
149.672402
 31
0.0
  0
CIRCLE
  5
37D
330
6B
100
AcDbEntity
  8
0
100
AcDbCircle
 10
749.224471
 20
150.310013
 30
0.0
 40
5.0
  0
TEXT
  5
37E
330
6B
100
AcDbEntity
  8
0
 62
     4
100
AcDbText
 10
748.1473510390301
 20
147.2662279231992
 30
0.0
 40
6.299999999999998
  1
1
  7
高6.3
100
AcDbText
  0
LINE
  5
384
330
6B
100
AcDbEntity
  8
0
100
AcDbLine
 10
728.5714059999996
 20
127.61394
 30
0.0
 11
744.5548269999997
 21
130.09701
 31
0.0
  0
CIRCLE
  5
385
330
6B
100
AcDbEntity
  8
0
100
AcDbCircle
 10
749.495561
 20
130.864567
 30
0.0
 40
5.0
  0
TEXT
  5
386
330
6B
100
AcDbEntity
  8
0
 62
     4
100
AcDbText
 10
747.2875069858276
 20
127.7694461548899
 30
0.0
 40
6.299999999999998
  1
2
  7
高6.3
100
AcDbText
  0
ARC
  5
387
330
6B
100
AcDbEntity
  8
0
 62
     3
100
AcDbCircle
 10
653.8816
 20
184.034513
 30
0.0
 40
7.773171999999997
100
AcDbArc
 50
128.265924
 51
178.414503
  0
ARC
  5
388
330
6B
100
AcDbEntity
  8
0
 62
     3
100
AcDbCircle
 10
656.442805
 20
180.965144
 30
0.0
 40
11.76977
100
AcDbArc
 50
89.373952
 51
128.801509
  0
ARC
  5
389
330
6B
100
AcDbEntity
  8
0
 62
     3
100
AcDbCircle
 10
715.2612109999997
 20
184.034513
 30
0.0
 40
7.773171999999997
100
AcDbArc
 50
1.585496999999999
 51
51.734076
  0
ARC
  5
38A
330
6B
100
AcDbEntity
  8
0
 62
     3
100
AcDbCircle
 10
712.700007
 20
180.965144
 30
0.0
 40
11.76977
100
AcDbArc
 50
51.19849099999999
 51
90.626048
  0
ARC
  5
38B
330
6B
100
AcDbEntity
  8
0
 62
     3
100
AcDbCircle
 10
653.926542
 20
184.008442
 30
0.0
 40
12.897391
100
AcDbArc
 50
129.66183
 51
178.928671
  0
ARC
  5
38C
330
6B
100
AcDbEntity
  8
0
 62
     3
100
AcDbCircle
 10
656.386732
 20
181.136973
 30
0.0
 40
16.678261
100
AcDbArc
 50
89.365567
 51
129.872027
  0
ARC
  5
38D
330
6B
100
AcDbEntity
  8
0
 62
     3
100
AcDbCircle
 10
715.2162699999997
 20
184.008442
 30
0.0
 40
12.897391
100
AcDbArc
 50
1.071329
 51
50.33816999999999
  0
ARC
  5
38E
330
6B
100
AcDbEntity
  8
0
 62
     3
100
AcDbCircle
 10
712.756079
 20
181.136973
 30
0.0
 40
16.678261
100
AcDbArc
 50
50.12797299999999
 51
90.63443300000001
  0
ARC
  5
38F
330
6B
100
AcDbEntity
  8
0
100
AcDbCircle
 10
641.8312419999997
 20
166.941849
 30
0.0
 40
0.799873
100
AcDbArc
 50
140.440751
 51
190.503178
  0
ARC
  5
390
330
6B
100
AcDbEntity
  8
0
100
AcDbCircle
 10
642.868022
 20
165.930537
 30
0.0
 40
2.246449999999998
100
AcDbArc
 50
108.527411
 51
137.394342
  0
ARC
  5
391
330
6B
100
AcDbEntity
  8
0
100
AcDbCircle
 10
642.091112
 20
166.620809
 30
0.0
 40
1.061250999999999
100
AcDbArc
 50
120.180458
 51
176.909219
  0
ARC
  5
392
330
6B
100
AcDbEntity
  8
0
100
AcDbCircle
 10
725.740844
 20
165.176296
 30
0.0
 40
2.996717999999998
100
AcDbArc
 50
52.01433000000001
 51
93.24130799999997
  0
ARC
  5
393
330
6B
100
AcDbEntity
  8
0
100
AcDbCircle
 10
725.4050179999997
 20
165.155856
 30
0.0
 40
3.016955999999998
100
AcDbArc
 50
86.838496
 51
127.372968
  0
LINE
  5
394
330
6B
100
AcDbEntity
  8
0
100
AcDbLine
 10
646.111404
 20
166.67803
 30
0.0
 11
646.1079530000001
 21
166.748198
 31
0.0
  0
LINE
  5
395
330
6B
100
AcDbEntity
  8
0
100
AcDbLine
 10
641.0334429999998
 20
166.731914
 30
0.0
 11
641.0314049999997
 21
166.67803
 31
0.0
  0
LINE
  5
396
330
6B
100
AcDbEntity
  8
0
100
AcDbLine
 10
728.111407
 20
166.67803
 30
0.0
 11
728.107953
 21
166.748198
 31
0.0
  0
LINE
  5
397
330
6B
100
AcDbEntity
  8
0
100
AcDbLine
 10
723.0334429999997
 20
166.731914
 30
0.0
 11
723.031407
 21
166.67803
 31
0.0
  0
ARC
  5
398
330
6B
100
AcDbEntity
  8
0
100
AcDbCircle
 10
643.401968
 20
165.176296
 30
0.0
 40
2.996717999999998
100
AcDbArc
 50
86.75869200000002
 51
127.98567
  0
ARC
  5
399
330
6B
100
AcDbEntity
  8
0
100
AcDbCircle
 10
643.737793
 20
165.155856
 30
0.0
 40
3.016955999999998
100
AcDbArc
 50
52.62703199999998
 51
93.16150400000003
  0
LINE
  5
39A
330
6B
100
AcDbEntity
  8
0
100
AcDbLine
 10
641.0314049999997
 20
166.67803
 30
0.0
 11
641.0348589999999
 21
166.748198
 31
0.0
  0
LINE
  5
39B
330
6B
100
AcDbEntity
  8
0
100
AcDbLine
 10
646.109369
 20
166.731914
 30
0.0
 11
646.111404
 21
166.67803
 31
0.0
  0
ARC
  5
39C
330
6B
100
AcDbEntity
  8
0
100
AcDbCircle
 10
727.311569
 20
166.941849
 30
0.0
 40
0.799873
100
AcDbArc
 50
349.496822
 51
39.559249
  0
ARC
  5
39D
330
6B
100
AcDbEntity
  8
0
100
AcDbCircle
 10
726.2747889999997
 20
165.930537
 30
0.0
 40
2.246449999999998
100
AcDbArc
 50
42.605658
 51
71.472589
  0
ARC
  5
39E
330
6B
100
AcDbEntity
  8
0
100
AcDbCircle
 10
725.551421
 20
163.781125
 30
0.0
 40
4.514319999999997
100
AcDbArc
 50
71.43598799999998
 51
89.74635699999998
  0
ARC
  5
39F
330
6B
100
AcDbEntity
  8
0
100
AcDbCircle
 10
723.8312419999997
 20
166.941849
 30
0.0
 40
0.799873
100
AcDbArc
 50
140.440751
 51
190.503178
  0
ARC
  5
3A0
330
6B
100
AcDbEntity
  8
0
100
AcDbCircle
 10
724.8680219999997
 20
165.930537
 30
0.0
 40
2.246449999999998
100
AcDbArc
 50
108.527411
 51
137.394342
  0
ARC
  5
3A1
330
6B
100
AcDbEntity
  8
0
100
AcDbCircle
 10
725.59139
 20
163.781125
 30
0.0
 40
4.514319999999997
100
AcDbArc
 50
90.25364299999999
 51
108.564012
  0
ARC
  5
3A2
330
6B
100
AcDbEntity
  8
0
100
AcDbCircle
 10
727.0516989999999
 20
166.620809
 30
0.0
 40
1.061250999999999
100
AcDbArc
 50
3.090780999999998
 51
59.819542
  0
ARC
  5
3A3
330
6B
100
AcDbEntity
  8
0
100
AcDbCircle
 10
725.718195
 20
164.593053
 30
0.0
 40
3.487073999999998
100
AcDbArc
 50
57.628127
 51
92.41258799999998
  0
ARC
  5
3A4
330
6B
100
AcDbEntity
  8
0
100
AcDbCircle
 10
724.091112
 20
166.620809
 30
0.0
 40
1.061250999999999
100
AcDbArc
 50
120.180458
 51
176.909219
  0
ARC
  5
3A5
330
6B
100
AcDbEntity
  8
0
100
AcDbCircle
 10
725.424617
 20
164.593053
 30
0.0
 40
3.487073999999998
100
AcDbArc
 50
87.58741200000001
 51
122.371873
  0
ARC
  5
3A6
330
6B
100
AcDbEntity
  8
0
100
AcDbCircle
 10
643.591391
 20
163.781125
 30
0.0
 40
4.514319999999997
100
AcDbArc
 50
90.25364299999999
 51
108.564012
  0
ARC
  5
3A7
330
6B
100
AcDbEntity
  8
0
100
AcDbCircle
 10
645.31157
 20
166.941849
 30
0.0
 40
0.799873
100
AcDbArc
 50
349.496822
 51
39.559249
  0
ARC
  5
3A8
330
6B
100
AcDbEntity
  8
0
100
AcDbCircle
 10
644.27479
 20
165.930537
 30
0.0
 40
2.246449999999998
100
AcDbArc
 50
42.605658
 51
71.472589
  0
ARC
  5
3A9
330
6B
100
AcDbEntity
  8
0
100
AcDbCircle
 10
643.551421
 20
163.781125
 30
0.0
 40
4.514319999999997
100
AcDbArc
 50
71.43598799999998
 51
89.74635699999998
  0
ARC
  5
3AA
330
6B
100
AcDbEntity
  8
0
100
AcDbCircle
 10
643.424617
 20
164.593053
 30
0.0
 40
3.487073999999998
100
AcDbArc
 50
87.58741200000001
 51
122.371873
  0
ARC
  5
3AB
330
6B
100
AcDbEntity
  8
0
100
AcDbCircle
 10
645.0516989999997
 20
166.620809
 30
0.0
 40
1.061250999999999
100
AcDbArc
 50
3.090780999999998
 51
59.819542
  0
ARC
  5
3AC
330
6B
100
AcDbEntity
  8
0
100
AcDbCircle
 10
643.718195
 20
164.593053
 30
0.0
 40
3.487073999999998
100
AcDbArc
 50
57.628127
 51
92.41258799999998
  0
TEXT
  5
3AD
330
6B
100
AcDbEntity
  8
0
 62
     3
100
AcDbText
 10
834.3897919999998
 20
56.038127
 30
0.0
 40
3.2
  1
1/5
  7
高3.2
100
AcDbText
  0
LINE
  5
3AE
330
6B
100
AcDbEntity
  8
0
 62
     7
100
AcDbLine
 10
579.2170177356207
 20
45.27148699999999
 30
0.0
 11
579.2170177356207
 21
95.27148211506782
 31
0.0
  0
TEXT
  5
3AF
330
6B
100
AcDbEntity
  8
0
 62
     3
100
AcDbText
 10
807.5009469999999
 20
78.130593
 30
0.0
 40
4.5
  1
マルチ床スタンド
 41
0.8
  7
高4.5
100
AcDbText
  0
TEXT
  5
3B0
330
6B
100
AcDbEntity
  8
0
 62
     3
100
AcDbText
 10
864.1657039999996
 20
56.238099
 30
0.0
 40
3.2
  1
2009.10.05
  7
高3.2
100
AcDbText
  0
LINE
  5
3B1
330
6B
100
AcDbEntity
  8
0
100
AcDbLine
 10
520.9802315585458
 20
45.27148699999999
 30
0.0
 11
520.9802315585458
 21
95.27148211506782
 31
0.0
  0
LINE
  5
3B2
330
6B
100
AcDbEntity
  8
0
100
AcDbLine
 10
544.3310540345748
 20
45.27148699999999
 30
0.0
 11
544.3310540345748
 21
95.27148211506782
 31
0.0
  0
LINE
  5
3B3
330
6B
100
AcDbEntity
  8
0
100
AcDbLine
 10
568.2570219106096
 20
45.27148699999999
 30
0.0
 11
568.2570219106096
 21
95.27148211506782
 31
0.0
  0
TEXT
  5
3B4
330
6B
100
AcDbEntity
  8
0
 62
     3
100
AcDbText
 10
806.8172618938801
 20
69.85993837724071
 30
0.0
 40
4.5
  1
MS-ST
  7
高4.5
100
AcDbText
  0
TEXT
  5
3B5
330
6B
100
AcDbEntity
  8
0
 62
     3
100
AcDbText
 10
849.4138989999999
 20
46.57358688481417
 30
0.0
 40
6.299999999999998
  1
MS-ST
  7
高6.3
100
AcDbText
  0
LINE
  5
3B6
330
6B
100
AcDbEntity
  8
0
 62
     3
100
AcDbLine
 10
873.6021939999996
 20
84.93720999999998
 30
0.0
 11
873.6021939999996
 21
90.93721
 31
0.0
  0
LINE
  5
3B7
330
6B
100
AcDbEntity
  8
0
 62
     3
100
AcDbLine
 10
847.6021939999997
 20
84.93720999999998
 30
0.0
 11
847.6021939999997
 21
90.93721
 31
0.0
  0
LINE
  5
3B8
330
6B
100
AcDbEntity
  8
0
 62
     3
100
AcDbLine
 10
899.3015579999999
 20
90.93721
 30
0.0
 11
847.6021939999997
 21
90.93721
 31
0.0
  0
TEXT
  5
3B9
330
6B
100
AcDbEntity
  8
0
 62
     3
100
AcDbText
 10
853.597792
 20
85.73355900000001
 30
0.0
 40
4.5
  1
コード
  7
高4.5
100
AcDbText
  0
TEXT
  5
3BA
330
6B
100
AcDbEntity
  8
0
 62
     3
100
AcDbText
 10
875.589341
 20
85.581347
 30
0.0
 40
4.5
  1
8834
  7
高4.5
100
AcDbText
  0
TEXT
  5
3BB
330
6B
100
AcDbEntity
  8
0
 62
     3
100
AcDbText
 10
847.206408
 20
102.877698
 30
0.0
 40
4.5
  1
質量：約2kg
  7
高4.5
100
AcDbText
  0
LINE
  5
3BC
330
6B
100
AcDbEntity
  8
0
100
AcDbLine
 10
847.1999422468629
 20
101.8339992293201
 30
0.0
 11
881.6404951096032
 21
101.8339992293201
 31
0.0
  0
TEXT
  5
3BD
330
6B
100
AcDbEntity
  8
0
 62
     3
100
AcDbText
 10
522.4802315585458
 20
50.77148699999999
 30
0.0
 40
3.2
  1
フレーム下
 41
0.8
  7
高3.2
100
AcDbText
  0
TEXT
  5
3BE
330
6B
100
AcDbEntity
  8
0
 62
     3
100
AcDbText
 10
522.4802315585458
 20
70.77148455753392
 30
0.0
 40
3.2
  1
フレーム上
 41
0.8
  7
高3.2
100
AcDbText
  0
TEXT
  5
3BF
330
6B
100
AcDbEntity
  8
0
 62
     3
100
AcDbText
 10
522.4802315585458
 20
75.77148374337854
 30
0.0
 40
3.2
  1
クッション
 41
0.8
  7
高3.2
100
AcDbText
  0
TEXT
  5
3C0
330
6B
100
AcDbEntity
  8
0
 62
     3
100
AcDbText
 10
522.4802315585458
 20
60.77148537168928
 30
0.0
 40
3.2
  1
キャップ丸
 41
0.8
  7
高3.2
100
AcDbText
  0
TEXT
  5
3C1
330
6B
100
AcDbEntity
  8
0
 62
     3
100
AcDbText
 10
522.4802315585458
 20
65.77148537168928
 30
0.0
 40
3.2
  1
キャップ角
 41
0.8
  7
高3.2
100
AcDbText
  0
TEXT
  5
3C2
330
6B
100
AcDbEntity
  8
0
 62
     3
100
AcDbText
 10
522.4802315585458
 20
85.77148292922315
 30
0.0
 40
3.2
  1
ネジ
 41
0.8
  7
高3.2
100
AcDbText
  0
TEXT
  5
3C3
330
6B
100
AcDbEntity
  8
0
 62
     3
100
AcDbText
 10
522.4802315585458
 20
80.77148374337854
 30
0.0
 40
3.2
  1
ネジ台座
 41
0.8
  7
高3.2
100
AcDbText
  0
TEXT
  5
3C4
330
6B
100
AcDbEntity
  8
0
 62
     3
100
AcDbText
 10
522.4802315585458
 20
55.77148618584464
 30
0.0
 40
3.2
  1
樹脂ガード
 41
0.8
  7
高3.2
100
AcDbText
  0
TEXT
  5
3C5
330
6B
100
AcDbEntity
  8
0
 62
     3
100
AcDbText
 10
545.8310540345746
 20
55.77148618584464
 30
0.0
 40
3.2
  1
PE
 41
0.8
  7
高3.2
100
AcDbText
  0
TEXT
  5
3C6
330
6B
100
AcDbEntity
  8
0
 62
     3
100
AcDbText
 10
569.7570219106096
 20
50.77148699999999
 30
0.0
 40
3.2
  1
1
 41
0.8
  7
高3.2
100
AcDbText
  0
TEXT
  5
3C7
330
6B
100
AcDbEntity
  8
0
 62
     3
100
AcDbText
 10
569.7570219106096
 20
55.77148618584464
 30
0.0
 40
3.2
  1
2
 41
0.8
  7
高3.2
100
AcDbText
  0
TEXT
  5
3C8
330
6B
100
AcDbEntity
  8
0
 62
     3
100
AcDbText
 10
569.7570219106096
 20
70.77148455753392
 30
0.0
 40
3.2
  1
1
 41
0.8
  7
高3.2
100
AcDbText
  0
TEXT
  5
3C9
330
6B
100
AcDbEntity
  8
0
 62
     3
100
AcDbText
 10
569.7570219106096
 20
75.77148374337854
 30
0.0
 40
3.2
  1
1
 41
0.8
  7
高3.2
100
AcDbText
  0
TEXT
  5
3CA
330
6B
100
AcDbEntity
  8
0
 62
     3
100
AcDbText
 10
569.7570219106096
 20
60.77148537168928
 30
0.0
 40
3.2
  1
2
 41
0.8
  7
高3.2
100
AcDbText
  0
TEXT
  5
3CB
330
6B
100
AcDbEntity
  8
0
 62
     3
100
AcDbText
 10
569.7570219106096
 20
65.77148537168928
 30
0.0
 40
3.2
  1
2
 41
0.8
  7
高3.2
100
AcDbText
  0
TEXT
  5
3CC
330
6B
100
AcDbEntity
  8
0
 62
     3
100
AcDbText
 10
569.7570219106096
 20
80.77148374337854
 30
0.0
 40
3.2
  1
2
 41
0.8
  7
高3.2
100
AcDbText
  0
TEXT
  5
3CD
330
6B
100
AcDbEntity
  8
0
 62
     3
100
AcDbText
 10
569.7570219106096
 20
85.77148292922315
 30
0.0
 40
3.2
  1
2
 41
0.8
  7
高3.2
100
AcDbText
  0
TEXT
  5
3CE
330
6B
100
AcDbEntity
  8
0
 62
     3
100
AcDbText
 10
545.8310540345746
 20
60.77148537168928
 30
0.0
 40
3.2
  1
PE
 41
0.8
  7
高3.2
100
AcDbText
  0
TEXT
  5
3CF
330
6B
100
AcDbEntity
  8
0
 62
     3
100
AcDbText
 10
545.8310540345746
 20
65.77148537168928
 30
0.0
 40
3.2
  1
PE
 41
0.8
  7
高3.2
100
AcDbText
  0
TEXT
  5
3D0
330
6B
100
AcDbEntity
  8
0
 62
     3
100
AcDbText
 10
545.8310540345746
 20
75.77148374337854
 30
0.0
 40
3.2
  1
発泡材
 41
0.8
  7
高3.2
100
AcDbText
  0
TEXT
  5
3D1
330
6B
100
AcDbEntity
  8
0
 62
     3
100
AcDbText
 10
545.8310540345746
 20
80.77148374337854
 30
0.0
 40
3.2
  1
PE
 41
0.8
  7
高3.2
100
AcDbText
  0
TEXT
  5
3D2
330
6B
100
AcDbEntity
  8
0
 62
     3
100
AcDbText
 10
545.8310540345746
 20
85.77148292922315
 30
0.0
 40
3.2
  1
M6
 41
0.8
  7
高3.2
100
AcDbText
  0
TEXT
  5
3D3
330
6B
100
AcDbEntity
  8
0
 62
     3
100
AcDbText
 10
522.4802315585458
 20
90.77148211506781
 30
0.0
 40
3.2
  1
蝶ボルト
 41
0.8
  7
高3.2
100
AcDbText
  0
TEXT
  5
3D4
330
6B
100
AcDbEntity
  8
0
 62
     3
100
AcDbText
 10
545.8310540345746
 20
50.77148699999999
 30
0.0
 40
3.2
  1
STKM
 41
0.8
  7
高3.2
100
AcDbText
  0
TEXT
  5
3D5
330
6B
100
AcDbEntity
  8
0
 62
     3
100
AcDbText
 10
545.8310540345746
 20
70.77148455753392
 30
0.0
 40
3.2
  1
STKM
 41
0.8
  7
高3.2
100
AcDbText
  0
TEXT
  5
3D6
330
6B
100
AcDbEntity
  8
0
 62
     3
100
AcDbText
 10
510.8015579999998
 20
45.771487
 30
0.0
 40
3.2
  1
No.
 41
0.8
  7
高3.2
100
AcDbText
  0
TEXT
  5
3D7
330
6B
100
AcDbEntity
  8
0
 62
     3
100
AcDbText
 10
522.4802315585458
 20
45.77148699999999
 30
0.0
 40
3.2
  1
部品名
 41
0.8
  7
高3.2
100
AcDbText
  0
TEXT
  5
3D8
330
6B
100
AcDbEntity
  8
0
 62
     3
100
AcDbText
 10
569.7570219106096
 20
45.77148699999999
 30
0.0
 40
3.2
  1
数
 41
0.8
  7
高3.2
100
AcDbText
  0
TEXT
  5
3D9
330
6B
100
AcDbEntity
  8
0
 62
     3
100
AcDbText
 10
510.8015579999998
 20
50.77148699999999
 30
0.0
 40
3.2
  1
1
 41
0.8
  7
高3.2
100
AcDbText
  0
TEXT
  5
3DA
330
6B
100
AcDbEntity
  8
0
 62
     3
100
AcDbText
 10
510.8015579999998
 20
55.77148618584464
 30
0.0
 40
3.2
  1
2
 41
0.8
  7
高3.2
100
AcDbText
  0
TEXT
  5
3DB
330
6B
100
AcDbEntity
  8
0
 62
     3
100
AcDbText
 10
510.8015579999998
 20
60.77148537168928
 30
0.0
 40
3.2
  1
3
 41
0.8
  7
高3.2
100
AcDbText
  0
TEXT
  5
3DC
330
6B
100
AcDbEntity
  8
0
 62
     3
100
AcDbText
 10
510.8015579999998
 20
65.77148537168928
 30
0.0
 40
3.2
  1
4
 41
0.8
  7
高3.2
100
AcDbText
  0
TEXT
  5
3DD
330
6B
100
AcDbEntity
  8
0
 62
     3
100
AcDbText
 10
510.8015579999998
 20
70.77148455753392
 30
0.0
 40
3.2
  1
5
 41
0.8
  7
高3.2
100
AcDbText
  0
TEXT
  5
3DE
330
6B
100
AcDbEntity
  8
0
 62
     3
100
AcDbText
 10
510.8015579999998
 20
75.77148374337854
 30
0.0
 40
3.2
  1
6
 41
0.8
  7
高3.2
100
AcDbText
  0
TEXT
  5
3DF
330
6B
100
AcDbEntity
  8
0
 62
     3
100
AcDbText
 10
510.8015579999998
 20
80.77148374337854
 30
0.0
 40
3.2
  1
7
 41
0.8
  7
高3.2
100
AcDbText
  0
TEXT
  5
3E0
330
6B
100
AcDbEntity
  8
0
 62
     3
100
AcDbText
 10
510.8015579999998
 20
85.77148292922315
 30
0.0
 40
3.2
  1
8
 41
0.8
  7
高3.2
100
AcDbText
  0
TEXT
  5
3E1
330
6B
100
AcDbEntity
  8
0
 62
     3
100
AcDbText
 10
510.8015579999998
 20
90.77148211506781
 30
0.0
 40
3.2
  1
9
 41
0.8
  7
高3.2
100
AcDbText
  0
TEXT
  5
3E2
330
6B
100
AcDbEntity
  8
0
 62
     3
100
AcDbText
 10
580.7170177356207
 20
45.771487
 30
0.0
 40
3.2
  1
コード
 41
0.8
  7
高3.2
100
AcDbText
  0
LINE
  5
3E3
330
6B
100
AcDbEntity
  8
0
 62
     3
100
AcDbLine
 10
600.3850571225033
 20
45.27148699999999
 30
0.0
 11
600.3850571225033
 21
95.27148211506782
 31
0.0
  0
LINE
  5
3E4
330
6B
100
AcDbEntity
  8
0
 62
     3
100
AcDbLine
 10
509.301558
 20
50.27148699999999
 30
0.0
 11
600.3850571225033
 21
50.27148699999999
 31
0.0
  0
LINE
  5
3E5
330
6B
100
AcDbEntity
  8
0
 62
     3
100
AcDbLine
 10
509.301558
 20
95.27148211506782
 30
0.0
 11
600.3850571225033
 21
95.27148211506782
 31
0.0
  0
LINE
  5
3E6
330
6B
100
AcDbEntity
  8
0
100
AcDbLine
 10
509.301558
 20
55.27148618584464
 30
0.0
 11
600.3850571225033
 21
55.27148618584464
 31
0.0
  0
LINE
  5
3E7
330
6B
100
AcDbEntity
  8
0
100
AcDbLine
 10
509.301558
 20
60.27148537168928
 30
0.0
 11
600.3850571225033
 21
60.27148537168928
 31
0.0
  0
LINE
  5
3E8
330
6B
100
AcDbEntity
  8
0
100
AcDbLine
 10
509.301558
 20
65.27148537168928
 30
0.0
 11
600.3850571225033
 21
65.27148537168928
 31
0.0
  0
LINE
  5
3E9
330
6B
100
AcDbEntity
  8
0
100
AcDbLine
 10
509.301558
 20
70.27148455753392
 30
0.0
 11
600.3850571225033
 21
70.27148455753392
 31
0.0
  0
LINE
  5
3EA
330
6B
100
AcDbEntity
  8
0
100
AcDbLine
 10
509.301558
 20
75.27148374337854
 30
0.0
 11
600.3850571225033
 21
75.27148374337854
 31
0.0
  0
LINE
  5
3EB
330
6B
100
AcDbEntity
  8
0
100
AcDbLine
 10
509.301558
 20
80.27148374337853
 30
0.0
 11
600.3850571225033
 21
80.27148374337853
 31
0.0
  0
LINE
  5
3EC
330
6B
100
AcDbEntity
  8
0
100
AcDbLine
 10
509.301558
 20
85.27148292922317
 30
0.0
 11
579.2170177356207
 21
85.27148292922317
 31
0.0
  0
LINE
  5
3ED
330
6B
100
AcDbEntity
  8
0
100
AcDbLine
 10
509.301558
 20
90.27148211506782
 30
0.0
 11
600.3850571225033
 21
90.27148211506782
 31
0.0
  0
ARC
  5
3EE
330
6B
100
AcDbEntity
  8
0
100
AcDbCircle
 10
678.98059
 20
123.836773
 30
0.0
 40
0.2
100
AcDbArc
 50
95.65035100000001
 51
180.0
  0
LINE
  5
3EF
330
6B
100
AcDbEntity
  8
0
100
AcDbLine
 10
678.7805900000002
 20
123.836774
 30
0.0
 11
678.7805900000002
 21
123.125816
 31
0.0
  0
ARC
  5
3F0
330
6B
100
AcDbEntity
  8
0
100
AcDbCircle
 10
678.98059
 20
123.125816
 30
0.0
 40
0.2
100
AcDbArc
 50
180.0
 51
264.349649
  0
ARC
  5
3F1
330
6B
100
AcDbEntity
  8
0
100
AcDbCircle
 10
680.836244
 20
123.873361
 30
0.0
 40
0.2
100
AcDbArc
 50
0.0
 51
77.299712
  0
ARC
  5
3F2
330
6B
100
AcDbEntity
  8
0
100
AcDbCircle
 10
680.836244
 20
123.089229
 30
0.0
 40
0.2
100
AcDbArc
 50
282.700288
 51
0.0
  0
LINE
  5
3F3
330
6B
100
AcDbEntity
  8
0
100
AcDbLine
 10
681.036244
 20
123.089227
 30
0.0
 11
681.036244
 21
123.873362
 31
0.0
  0
LINE
  5
3F4
330
6B
100
AcDbEntity
  8
0
100
AcDbLine
 10
680.638042
 20
124.123046
 30
0.0
 11
678.960899
 21
124.035803
 31
0.0
  0
LINE
  5
3F5
330
6B
100
AcDbEntity
  8
0
100
AcDbLine
 10
678.960899
 20
122.926787
 30
0.0
 11
680.638042
 21
122.839543
 31
0.0
  0
LINE
  5
3F6
330
6B
100
AcDbEntity
  8
0
100
AcDbLine
 10
680.8802139999998
 20
124.068466
 30
0.0
 11
680.638042
 21
124.123046
 31
0.0
  0
LINE
  5
3F7
330
6B
100
AcDbEntity
  8
0
100
AcDbLine
 10
680.638042
 20
122.839543
 30
0.0
 11
680.8802139999998
 21
122.894123
 31
0.0
  0
LINE
  5
3F8
330
6B
100
AcDbEntity
  8
0
100
AcDbLine
 10
678.085333
 20
122.309634
 30
0.0
 11
679.2783779999997
 21
121.927408
 31
0.0
  0
LINE
  5
3F9
330
6B
100
AcDbEntity
  8
0
100
AcDbLine
 10
679.2783779999997
 20
125.035182
 30
0.0
 11
678.085333
 21
124.652955
 31
0.0
  0
LINE
  5
3FA
330
6B
100
AcDbEntity
  8
0
100
AcDbLine
 10
675.6231989999998
 20
122.889269
 30
0.0
 11
677.517156
 21
122.851923
 31
0.0
  0
LINE
  5
3FB
330
6B
100
AcDbEntity
  8
0
100
AcDbLine
 10
677.517156
 20
124.110666
 30
0.0
 11
675.6231989999998
 21
124.073321
 31
0.0
  0
LINE
  5
3FC
330
6B
100
AcDbEntity
  8
0
100
AcDbLine
 10
680.5273070000001
 20
122.481296
 30
0.0
 11
681.498881
 21
122.481296
 31
0.0
  0
LINE
  5
3FD
330
6B
100
AcDbEntity
  8
0
100
AcDbLine
 10
681.498881
 20
124.481294
 30
0.0
 11
680.5273070000001
 21
124.481294
 31
0.0
  0
ARC
  5
3FE
330
6B
100
AcDbEntity
  8
0
100
AcDbCircle
 10
675.627142
 20
123.089229
 30
0.0
 40
0.2
100
AcDbArc
 50
180.0
 51
268.870452
  0
ARC
  5
3FF
330
6B
100
AcDbEntity
  8
0
100
AcDbCircle
 10
675.627142
 20
123.873361
 30
0.0
 40
0.2
100
AcDbArc
 50
91.129548
 51
180.0
  0
LINE
  5
400
330
6B
100
AcDbEntity
  8
0
100
AcDbLine
 10
675.427141
 20
123.873362
 30
0.0
 11
675.427141
 21
123.089227
 31
0.0
  0
LINE
  5
401
330
6B
100
AcDbEntity
  8
0
100
AcDbLine
 10
681.391406
 20
125.221294
 30
0.0
 11
681.391406
 21
125.181294
 31
0.0
  0
LINE
  5
409
330
6B
100
AcDbEntity
  8
0
100
AcDbLine
 10
680.6988559999997
 20
122.85325
 30
0.0
 11
680.6953949999997
 21
122.845891
 31
0.0
  0
LINE
  5
40A
330
6B
100
AcDbEntity
  8
0
100
AcDbLine
 10
675.6231989999998
 20
122.889269
 30
0.0
 11
675.6235719999997
 21
122.889304
 31
0.0
  0
LINE
  5
40B
330
6B
100
AcDbEntity
  8
0
100
AcDbLine
 10
675.6231989999998
 20
124.073321
 30
0.0
 11
675.6235719999997
 21
124.073285
 31
0.0
  0
LINE
  5
40C
330
6B
100
AcDbEntity
  8
0
100
AcDbLine
 10
683.2792099999998
 20
121.781296
 30
0.0
 11
684.031079
 21
123.481295
 31
0.0
  0
LINE
  5
40D
330
6B
100
AcDbEntity
  8
0
100
AcDbLine
 10
680.844611
 20
121.781296
 30
0.0
 11
688.2981999999997
 21
121.781296
 31
0.0
  0
LINE
  5
40E
330
6B
100
AcDbEntity
  8
0
100
AcDbLine
 10
683.100219
 20
123.481295
 30
0.0
 11
684.031079
 21
123.481295
 31
0.0
  0
LINE
  5
40F
330
6B
100
AcDbEntity
  8
0
100
AcDbLine
 10
684.031079
 20
123.481295
 30
0.0
 11
683.2792099999998
 21
125.181294
 31
0.0
  0
LINE
  5
410
330
6B
100
AcDbEntity
  8
0
100
AcDbLine
 10
680.844611
 20
125.181294
 30
0.0
 11
683.2792099999998
 21
125.181294
 31
0.0
  0
ARC
  5
411
330
6B
100
AcDbEntity
  8
0
100
AcDbCircle
 10
681.369922
 20
123.589093
 30
0.0
 40
0.9014719999999998
100
AcDbArc
 50
353.132114
 51
81.77538100000003
  0
ARC
  5
412
330
6B
100
AcDbEntity
  8
0
100
AcDbCircle
 10
681.369922
 20
123.373496
 30
0.0
 40
0.9014719999999998
100
AcDbArc
 50
278.224619
 51
6.867885999999997
  0
LINE
  5
41A
330
6B
100
AcDbEntity
  8
0
100
AcDbLine
 10
680.336562
 20
260.701878
 30
0.0
 11
682.2649249999997
 21
263.000011
 31
0.0
  0
LINE
  5
41B
330
6B
100
AcDbEntity
  8
0
100
AcDbLine
 10
679.9095999999997
 20
263.304492
 30
0.0
 11
678.804474
 21
261.987453
 31
0.0
  0
LINE
  5
41C
330
6B
100
AcDbEntity
  8
0
100
AcDbLine
 10
675.6097099999997
 20
262.133832
 30
0.0
 11
678.3448469999997
 21
262.373126
 31
0.0
  0
LINE
  5
41D
330
6B
100
AcDbEntity
  8
0
100
AcDbLine
 10
680.7961889999997
 20
260.316205
 30
0.0
 11
681.035483
 21
257.581069
 31
0.0
  0
LINE
  5
41E
330
6B
100
AcDbEntity
  8
0
100
AcDbLine
 10
677.1354989999998
 20
260.478023
 30
0.0
 11
675.8730789999997
 21
259.897246
 31
0.0
  0
ARC
  5
41F
330
6B
100
AcDbEntity
  8
0
100
AcDbCircle
 10
677.302665
 20
260.11473
 30
0.0
 40
0.399933
100
AcDbArc
 50
50.00194699999997
 51
114.691351
  0
LINE
  5
420
330
6B
100
AcDbEntity
  8
0
100
AcDbLine
 10
678.787141
 20
257.452057
 30
0.0
 11
679.139878
 21
258.796149
 31
0.0
  0
ARC
  5
421
330
6B
100
AcDbEntity
  8
0
100
AcDbCircle
 10
678.7530730000002
 20
258.89769
 30
0.0
 40
0.399936
100
AcDbArc
 50
345.308819
 51
49.99778099999999
  0
ARC
  5
422
330
6B
100
AcDbEntity
  8
0
100
AcDbCircle
 10
675.627142
 20
261.934593
 30
0.0
 40
0.2
100
AcDbArc
 50
95.0
 51
185.0
  0
ARC
  5
423
330
6B
100
AcDbEntity
  8
0
100
AcDbCircle
 10
680.836244
 20
257.563638
 30
0.0
 40
0.2
100
AcDbArc
 50
275.0
 51
5.0
  0
LINE
  5
424
330
6B
100
AcDbEntity
  8
0
100
AcDbLine
 10
675.5902509999997
 20
260.061509
 30
0.0
 11
675.427903
 21
261.917162
 31
0.0
  0
LINE
  5
425
330
6B
100
AcDbEntity
  8
0
100
AcDbLine
 10
680.853675
 20
257.364398
 30
0.0
 11
678.998021
 21
257.20205
 31
0.0
  0
ARC
  5
426
330
6B
100
AcDbEntity
  8
0
100
AcDbCircle
 10
675.78949
 20
260.07894
 30
0.0
 40
0.2
100
AcDbArc
 50
185.0
 51
294.704824
  0
ARC
  5
427
330
6B
100
AcDbEntity
  8
0
100
AcDbCircle
 10
678.98059
 20
257.401289
 30
0.0
 40
0.2
100
AcDbArc
 50
165.295176
 51
275.0
  0
ARC
  5
428
330
6B
100
AcDbEntity
  8
0
100
AcDbCircle
 10
677.302676
 20
260.114633
 30
0.0
 40
0.4
100
AcDbArc
 50
50.0
 51
114.704824
  0
LINE
  5
429
330
6B
100
AcDbEntity
  8
0
100
AcDbLine
 10
677.5597269999997
 20
260.4211049999999
 30
0.0
 11
677.559791
 21
260.421051
 31
0.0
  0
ARC
  5
42A
330
6B
100
AcDbEntity
  8
0
100
AcDbCircle
 10
678.7529789999998
 20
258.897685
 30
0.0
 40
0.4
100
AcDbArc
 50
345.295176
 51
50.0
  0
LINE
  5
42B
330
6B
100
AcDbEntity
  8
0
100
AcDbLine
 10
679.0100940000002
 20
259.204103
 30
0.0
 11
679.0101589999998
 21
259.204048
 31
0.0
  0
LINE
  5
42C
330
6B
100
AcDbEntity
  8
0
100
AcDbLine
 10
682.34835
 20
263.12822
 30
0.0
 11
682.496259
 21
263.304492
 31
0.0
  0
LINE
  5
42D
330
6B
100
AcDbEntity
  8
0
100
AcDbLine
 10
683.100219
 20
262.497327
 30
0.0
 11
683.7775099999999
 21
263.304492
 31
0.0
  0
ARC
  5
42E
330
6B
100
AcDbEntity
  8
0
100
AcDbCircle
 10
687.100873
 20
126.266956
 30
0.0
 40
4.87495
100
AcDbArc
 50
192.867792
 51
214.849546
  0
ARC
  5
42F
330
6B
100
AcDbEntity
  8
0
100
AcDbCircle
 10
687.100873
 20
120.695634
 30
0.0
 40
4.87495
100
AcDbArc
 50
145.150454
 51
167.132208
  0
ARC
  5
430
330
6B
100
AcDbEntity
  8
0
100
AcDbCircle
 10
678.582412
 20
123.563351
 30
0.0
 40
1.197632999999999
100
AcDbArc
 50
114.522517
 51
158.366202
  0
ARC
  5
431
330
6B
100
AcDbEntity
  8
0
100
AcDbCircle
 10
678.266758
 20
123.775738
 30
0.0
 40
0.8957809999999998
100
AcDbArc
 50
17.436019
 51
101.685059
  0
ARC
  5
432
330
6B
100
AcDbEntity
  8
0
100
AcDbCircle
 10
678.513536
 20
123.327074
 30
0.0
 40
1.103876
100
AcDbArc
 50
200.954444
 51
247.175597
  0
ARC
  5
433
330
6B
100
AcDbEntity
  8
0
100
AcDbCircle
 10
678.2698400000001
 20
123.181606
 30
0.0
 40
0.8912779999999999
100
AcDbArc
 50
258.05262
 51
342.826302
  0
ARC
  5
434
330
6B
100
AcDbEntity
  8
0
100
AcDbCircle
 10
684.99215
 20
122.364846
 30
0.0
 40
5.013427
100
AcDbArc
 50
145.820952
 51
154.142769
  0
ARC
  5
435
330
6B
100
AcDbEntity
  8
0
100
AcDbCircle
 10
679.4986129999998
 20
123.846764
 30
0.0
 40
1.208652
100
AcDbArc
 50
31.66752800000001
 51
100.498811
  0
ARC
  5
436
330
6B
100
AcDbEntity
  8
0
100
AcDbCircle
 10
675.5421209999997
 20
121.953355
 30
0.0
 40
5.589503999999998
100
AcDbArc
 50
22.687836
 51
26.88912
  0
ARC
  5
437
330
6B
100
AcDbEntity
  8
0
100
AcDbCircle
 10
679.409636
 20
123.316453
 30
0.0
 40
1.395234
100
AcDbArc
 50
264.601861
 51
323.2318
  0
ARC
  5
438
330
6B
100
AcDbEntity
  8
0
100
AcDbCircle
 10
675.709545
 20
124.928834
 30
0.0
 40
5.403820999999997
100
AcDbArc
 50
333.068349
 51
337.412392
  0
ARC
  5
439
330
6B
100
AcDbEntity
  8
0
100
AcDbCircle
 10
690.162221
 20
123.836773
 30
0.0
 40
0.2
100
AcDbArc
 50
359.999997
 51
84.34964599999998
  0
LINE
  5
43A
330
6B
100
AcDbEntity
  8
0
100
AcDbLine
 10
690.3622209999999
 20
123.836774
 30
0.0
 11
690.3622209999999
 21
123.125815
 31
0.0
  0
ARC
  5
43B
330
6B
100
AcDbEntity
  8
0
100
AcDbCircle
 10
690.162221
 20
123.125816
 30
0.0
 40
0.2
100
AcDbArc
 50
275.650348
 51
359.999997
  0
ARC
  5
43C
330
6B
100
AcDbEntity
  8
0
100
AcDbCircle
 10
688.3065679999997
 20
123.873361
 30
0.0
 40
0.2
100
AcDbArc
 50
102.700285
 51
179.999997
  0
ARC
  5
43D
330
6B
100
AcDbEntity
  8
0
100
AcDbCircle
 10
688.3065679999997
 20
123.089228
 30
0.0
 40
0.2
100
AcDbArc
 50
179.999997
 51
257.299709
  0
LINE
  5
43E
330
6B
100
AcDbEntity
  8
0
100
AcDbLine
 10
688.1065679999997
 20
123.089227
 30
0.0
 11
688.1065679999997
 21
123.873362
 31
0.0
  0
LINE
  5
43F
330
6B
100
AcDbEntity
  8
0
100
AcDbLine
 10
688.50477
 20
124.123046
 30
0.0
 11
690.1819129999997
 21
124.035802
 31
0.0
  0
LINE
  5
440
330
6B
100
AcDbEntity
  8
0
100
AcDbLine
 10
690.1819129999997
 20
122.926787
 30
0.0
 11
688.50477
 21
122.839543
 31
0.0
  0
LINE
  5
441
330
6B
100
AcDbEntity
  8
0
100
AcDbLine
 10
688.262598
 20
124.068466
 30
0.0
 11
688.50477
 21
124.123046
 31
0.0
  0
LINE
  5
442
330
6B
100
AcDbEntity
  8
0
100
AcDbLine
 10
688.50477
 20
122.839543
 30
0.0
 11
688.262598
 21
122.894123
 31
0.0
  0
LINE
  5
443
330
6B
100
AcDbEntity
  8
0
100
AcDbLine
 10
691.0574780000001
 20
122.309634
 30
0.0
 11
689.8644329999997
 21
121.927407
 31
0.0
  0
LINE
  5
444
330
6B
100
AcDbEntity
  8
0
100
AcDbLine
 10
689.8644329999997
 20
125.035182
 30
0.0
 11
691.0574780000001
 21
124.652955
 31
0.0
  0
LINE
  5
445
330
6B
100
AcDbEntity
  8
0
100
AcDbLine
 10
693.5196129999996
 20
122.889268
 30
0.0
 11
691.6256559999997
 21
122.851923
 31
0.0
  0
LINE
  5
446
330
6B
100
AcDbEntity
  8
0
100
AcDbLine
 10
691.6256559999997
 20
124.110666
 30
0.0
 11
693.5196129999996
 21
124.07332
 31
0.0
  0
LINE
  5
447
330
6B
100
AcDbEntity
  8
0
100
AcDbLine
 10
688.615504
 20
122.481296
 30
0.0
 11
687.6439299999997
 21
122.481296
 31
0.0
  0
LINE
  5
448
330
6B
100
AcDbEntity
  8
0
100
AcDbLine
 10
687.6439309999997
 20
124.481294
 30
0.0
 11
688.615504
 21
124.481294
 31
0.0
  0
ARC
  5
449
330
6B
100
AcDbEntity
  8
0
100
AcDbCircle
 10
693.51567
 20
123.089228
 30
0.0
 40
0.2
100
AcDbArc
 50
271.129545
 51
359.999997
  0
ARC
  5
44A
330
6B
100
AcDbEntity
  8
0
100
AcDbCircle
 10
693.51567
 20
123.87336
 30
0.0
 40
0.2
100
AcDbArc
 50
359.999997
 51
88.87044899999997
  0
LINE
  5
44B
330
6B
100
AcDbEntity
  8
0
100
AcDbLine
 10
693.71567
 20
123.873362
 30
0.0
 11
693.71567
 21
123.089227
 31
0.0
  0
LINE
  5
44C
330
6B
100
AcDbEntity
  8
0
100
AcDbLine
 10
687.751406
 20
125.221294
 30
0.0
 11
687.751406
 21
125.181294
 31
0.0
  0
LINE
  5
454
330
6B
100
AcDbEntity
  8
0
100
AcDbLine
 10
688.4439549999997
 20
122.853249
 30
0.0
 11
688.4474169999997
 21
122.845891
 31
0.0
  0
LINE
  5
455
330
6B
100
AcDbEntity
  8
0
100
AcDbLine
 10
693.5196129999996
 20
122.889268
 30
0.0
 11
693.519239
 21
122.889304
 31
0.0
  0
LINE
  5
456
330
6B
100
AcDbEntity
  8
0
100
AcDbLine
 10
693.5196129999996
 20
124.07332
 30
0.0
 11
693.519239
 21
124.073285
 31
0.0
  0
LINE
  5
457
330
6B
100
AcDbEntity
  8
0
100
AcDbLine
 10
685.863601
 20
121.781296
 30
0.0
 11
685.1117320000001
 21
123.481295
 31
0.0
  0
LINE
  5
458
330
6B
100
AcDbEntity
  8
0
100
AcDbLine
 10
686.0425929999999
 20
123.481295
 30
0.0
 11
685.1117320000001
 21
123.481295
 31
0.0
  0
LINE
  5
459
330
6B
100
AcDbEntity
  8
0
100
AcDbLine
 10
685.1117320000001
 20
123.481295
 30
0.0
 11
685.863601
 21
125.181294
 31
0.0
  0
LINE
  5
45A
330
6B
100
AcDbEntity
  8
0
100
AcDbLine
 10
688.2981999999997
 20
125.181294
 30
0.0
 11
685.863601
 21
125.181294
 31
0.0
  0
ARC
  5
45B
330
6B
100
AcDbEntity
  8
0
100
AcDbCircle
 10
687.7728900000001
 20
123.589093
 30
0.0
 40
0.9014719999999998
100
AcDbArc
 50
98.224616
 51
186.867883
  0
ARC
  5
45C
330
6B
100
AcDbEntity
  8
0
100
AcDbCircle
 10
687.7728900000001
 20
123.373496
 30
0.0
 40
0.9014719999999998
100
AcDbArc
 50
173.13211
 51
261.775378
  0
ARC
  5
464
330
6B
100
AcDbEntity
  8
0
100
AcDbCircle
 10
682.0419389999997
 20
126.266956
 30
0.0
 40
4.87495
100
AcDbArc
 50
325.150451
 51
347.132204
  0
ARC
  5
465
330
6B
100
AcDbEntity
  8
0
100
AcDbCircle
 10
682.0419379999997
 20
120.695634
 30
0.0
 40
4.87495
100
AcDbArc
 50
12.867789
 51
34.849543
  0
ARC
  5
466
330
6B
100
AcDbEntity
  8
0
100
AcDbCircle
 10
690.5603999999997
 20
123.563351
 30
0.0
 40
1.197632999999999
100
AcDbArc
 50
21.633795
 51
65.477479
  0
ARC
  5
467
330
6B
100
AcDbEntity
  8
0
100
AcDbCircle
 10
690.8760539999997
 20
123.775738
 30
0.0
 40
0.8957809999999998
100
AcDbArc
 50
78.314938
 51
162.563978
  0
ARC
  5
468
330
6B
100
AcDbEntity
  8
0
100
AcDbCircle
 10
690.629276
 20
123.327074
 30
0.0
 40
1.103876
100
AcDbArc
 50
292.8244
 51
339.045553
  0
ARC
  5
469
330
6B
100
AcDbEntity
  8
0
100
AcDbCircle
 10
690.872972
 20
123.181606
 30
0.0
 40
0.8912779999999999
100
AcDbArc
 50
197.173695
 51
281.947377
  0
ARC
  5
46A
330
6B
100
AcDbEntity
  8
0
100
AcDbCircle
 10
684.150662
 20
122.364846
 30
0.0
 40
5.013427
100
AcDbArc
 50
25.857228
 51
34.17904500000001
  0
ARC
  5
46B
330
6B
100
AcDbEntity
  8
0
100
AcDbCircle
 10
689.644198
 20
123.846764
 30
0.0
 40
1.208652
100
AcDbArc
 50
79.501186
 51
148.332469
  0
ARC
  5
46C
330
6B
100
AcDbEntity
  8
0
100
AcDbCircle
 10
693.6006899999996
 20
121.953354
 30
0.0
 40
5.589503999999998
100
AcDbArc
 50
153.110877
 51
157.312161
  0
ARC
  5
46D
330
6B
100
AcDbEntity
  8
0
100
AcDbCircle
 10
689.7331749999997
 20
123.316453
 30
0.0
 40
1.395234
100
AcDbArc
 50
216.768197
 51
275.398136
  0
ARC
  5
46E
330
6B
100
AcDbEntity
  8
0
100
AcDbCircle
 10
693.4332669999996
 20
124.928833
 30
0.0
 40
5.403820999999997
100
AcDbArc
 50
202.587605
 51
206.931648
  0
LINE
  5
46F
330
6B
100
AcDbEntity
  8
0
100
AcDbLine
 10
680.7961889999997
 20
260.316205
 30
0.0
 11
678.3448469999997
 21
262.373126
 31
0.0
  0
LINE
  5
470
330
6B
100
AcDbEntity
  8
0
100
AcDbLine
 10
679.101185
 20
259.127668
 30
0.0
 11
680.7961889999997
 21
260.316205
 31
0.0
  0
LINE
  5
471
330
6B
100
AcDbEntity
  8
0
100
AcDbLine
 10
677.4687
 20
260.497485
 30
0.0
 11
678.3448469999997
 21
262.373126
 31
0.0
  0
LINE
  5
472
330
6B
100
AcDbEntity
  8
0
100
AcDbLine
 10
679.101185
 20
259.127668
 30
0.0
 11
677.4687
 21
260.497485
 31
0.0
  0
ARC
  5
473
330
6B
100
AcDbEntity
  8
0
100
AcDbCircle
 10
683.1852539999998
 20
263.362136
 30
0.0
 40
0.8689799999999998
100
AcDbArc
 50
195.615752
 51
264.384246
  0
ARC
  5
474
330
6B
100
AcDbEntity
  8
0
100
AcDbCircle
 10
683.001384
 20
264.682363
 30
0.0
 40
1.685767999999999
100
AcDbArc
 50
234.820947
 51
247.208383
  0
LINE
  5
475
330
6B
100
AcDbEntity
  8
0
100
AcDbLine
 10
682.6266849999996
 20
262.696459
 30
0.0
 11
681.9020599999999
 21
263.304492
 31
0.0
  0
LINE
  5
476
330
6B
100
AcDbEntity
  8
0
100
AcDbLine
 10
688.806249
 20
260.701878
 30
0.0
 11
686.8778859999999
 21
263.000011
 31
0.0
  0
LINE
  5
477
330
6B
100
AcDbEntity
  8
0
100
AcDbLine
 10
689.2332119999996
 20
263.304492
 30
0.0
 11
690.338338
 21
261.987453
 31
0.0
  0
LINE
  5
478
330
6B
100
AcDbEntity
  8
0
100
AcDbLine
 10
693.5331009999996
 20
262.133832
 30
0.0
 11
690.7979650000003
 21
262.373126
 31
0.0
  0
LINE
  5
479
330
6B
100
AcDbEntity
  8
0
100
AcDbLine
 10
688.346622
 20
260.316205
 30
0.0
 11
688.107329
 21
257.581069
 31
0.0
  0
LINE
  5
47A
330
6B
100
AcDbEntity
  8
0
100
AcDbLine
 10
692.0073119999997
 20
260.478023
 30
0.0
 11
693.2697329999997
 21
259.897246
 31
0.0
  0
ARC
  5
47B
330
6B
100
AcDbEntity
  8
0
100
AcDbCircle
 10
691.840146
 20
260.11473
 30
0.0
 40
0.399933
100
AcDbArc
 50
65.308649
 51
129.998053
  0
LINE
  5
47C
330
6B
100
AcDbEntity
  8
0
100
AcDbLine
 10
690.355671
 20
257.452057
 30
0.0
 11
690.0029329999996
 21
258.796149
 31
0.0
  0
ARC
  5
47D
330
6B
100
AcDbEntity
  8
0
100
AcDbCircle
 10
690.389738
 20
258.89769
 30
0.0
 40
0.399936
100
AcDbArc
 50
130.002219
 51
194.691181
  0
ARC
  5
47E
330
6B
100
AcDbEntity
  8
0
100
AcDbCircle
 10
693.51567
 20
261.934593
 30
0.0
 40
0.2
100
AcDbArc
 50
355.0
 51
85.0
  0
ARC
  5
47F
330
6B
100
AcDbEntity
  8
0
100
AcDbCircle
 10
688.3065679999997
 20
257.563638
 30
0.0
 40
0.2
100
AcDbArc
 50
175.0
 51
265.0
  0
LINE
  5
480
330
6B
100
AcDbEntity
  8
0
100
AcDbLine
 10
693.552561
 20
260.061509
 30
0.0
 11
693.714909
 21
261.917162
 31
0.0
  0
LINE
  5
481
330
6B
100
AcDbEntity
  8
0
100
AcDbLine
 10
688.289137
 20
257.364398
 30
0.0
 11
690.14479
 21
257.20205
 31
0.0
  0
ARC
  5
482
330
6B
100
AcDbEntity
  8
0
100
AcDbCircle
 10
693.353321
 20
260.07894
 30
0.0
 40
0.2
100
AcDbArc
 50
245.295176
 51
355.0
  0
ARC
  5
483
330
6B
100
AcDbEntity
  8
0
100
AcDbCircle
 10
690.162221
 20
257.401289
 30
0.0
 40
0.2
100
AcDbArc
 50
265.0
 51
14.704824
  0
ARC
  5
484
330
6B
100
AcDbEntity
  8
0
100
AcDbCircle
 10
691.8401349999997
 20
260.114633
 30
0.0
 40
0.4
100
AcDbArc
 50
65.295176
 51
130.0
  0
LINE
  5
485
330
6B
100
AcDbEntity
  8
0
100
AcDbLine
 10
691.5830849999996
 20
260.4211049999999
 30
0.0
 11
691.583021
 21
260.421051
 31
0.0
  0
ARC
  5
486
330
6B
100
AcDbEntity
  8
0
100
AcDbCircle
 10
690.389832
 20
258.897685
 30
0.0
 40
0.4
100
AcDbArc
 50
130.0
 51
194.704824
  0
LINE
  5
487
330
6B
100
AcDbEntity
  8
0
100
AcDbLine
 10
690.132717
 20
259.204103
 30
0.0
 11
690.132653
 21
259.204048
 31
0.0
  0
LINE
  5
488
330
6B
100
AcDbEntity
  8
0
100
AcDbLine
 10
686.7944620000002
 20
263.12822
 30
0.0
 11
686.646553
 21
263.304492
 31
0.0
  0
LINE
  5
489
330
6B
100
AcDbEntity
  8
0
100
AcDbLine
 10
686.0425929999999
 20
262.497327
 30
0.0
 11
685.3653019999998
 21
263.304492
 31
0.0
  0
LINE
  5
48A
330
6B
100
AcDbEntity
  8
0
100
AcDbLine
 10
688.346622
 20
260.316205
 30
0.0
 11
690.7979650000003
 21
262.373126
 31
0.0
  0
LINE
  5
48B
330
6B
100
AcDbEntity
  8
0
100
AcDbLine
 10
690.041627
 20
259.127668
 30
0.0
 11
688.346622
 21
260.316205
 31
0.0
  0
LINE
  5
48C
330
6B
100
AcDbEntity
  8
0
100
AcDbLine
 10
691.674111
 20
260.497485
 30
0.0
 11
690.7979650000003
 21
262.373126
 31
0.0
  0
LINE
  5
48D
330
6B
100
AcDbEntity
  8
0
100
AcDbLine
 10
690.041627
 20
259.127668
 30
0.0
 11
691.674111
 21
260.497485
 31
0.0
  0
ARC
  5
48E
330
6B
100
AcDbEntity
  8
0
100
AcDbCircle
 10
685.957557
 20
263.362136
 30
0.0
 40
0.8689799999999998
100
AcDbArc
 50
275.615754
 51
344.384248
  0
ARC
  5
48F
330
6B
100
AcDbEntity
  8
0
100
AcDbCircle
 10
686.1414279999998
 20
264.682363
 30
0.0
 40
1.685767999999999
100
AcDbArc
 50
292.7916169999999
 51
305.1790529999999
  0
LINE
  5
490
330
6B
100
AcDbEntity
  8
0
100
AcDbLine
 10
686.5161269999997
 20
262.696459
 30
0.0
 11
687.2407509999996
 21
263.304492
 31
0.0
  0
LINE
  5
491
330
6B
100
AcDbEntity
  8
0
  6
CENTER
100
AcDbLine
 10
692.627911
 20
257.703122
 30
0.0
 11
684.5714059999997
 21
267.3044910000001
 31
0.0
  0
LINE
  5
492
330
6B
100
AcDbEntity
  8
0
  6
CENTER
100
AcDbLine
 10
684.5714059999997
 20
267.3044910000001
 30
0.0
 11
676.5149
 21
257.703122
 31
0.0
  0
LINE
  5
498
330
6B
100
AcDbEntity
  8
0
100
AcDbLine
 10
693.71567
 20
123.089228
 30
0.0
 11
744.923852
 21
110.142058
 31
0.0
  0
CIRCLE
  5
499
330
6B
100
AcDbEntity
  8
0
100
AcDbCircle
 10
749.771315
 20
108.916455
 30
0.0
 40
5.0
  0
TEXT
  5
49A
330
6B
100
AcDbEntity
  8
0
 62
     4
100
AcDbText
 10
747.5632609858275
 20
105.8213341548899
 30
0.0
 40
6.299999999999998
  1
9
  7
高6.3
100
AcDbText
  0
TEXT
  5
4A7
330
6B
100
AcDbEntity
  8
0
 62
     3
100
AcDbText
 10
545.8310540345746
 20
45.771487
 30
0.0
 40
3.2
  1
材質／備考
 41
0.8
  7
高3.2
100
AcDbText
  0
TEXT
  5
4A8
330
6B
100
AcDbEntity
  8
0
 62
     3
100
AcDbText
 10
569.7570219106096
 20
90.77148211506781
 30
0.0
 40
3.2
  1
2
 41
0.8
  7
高3.2
100
AcDbText
  0
TEXT
  5
4A9
330
6B
100
AcDbEntity
  8
0
 62
     3
100
AcDbText
 10
545.8310540345746
 20
90.77148211506781
 30
0.0
 40
3.2
  1
M10x30
 41
0.8
  7
高3.2
100
AcDbText
  0
TEXT
  5
4AA
330
6B
100
AcDbEntity
  8
0
 62
     7
100
AcDbText
 10
824.8015579999997
 20
304.826848
 30
0.0
 40
2.5
  1
10.02.24
  7
高2.5
100
AcDbText
  0
TEXT
  5
4AB
330
6B
100
AcDbEntity
  8
0
 62
     7
100
AcDbText
 10
842.8015579999996
 20
304.826848
 30
0.0
 40
2.5
  1
底部ナット追加
  7
高2.5
100
AcDbText
  0
TEXT
  5
4AC
330
6B
100
AcDbEntity
  8
0
 62
     7
100
AcDbText
 10
886.8015579999996
 20
304.826848
 30
0.0
 40
2.5
  1
今村
  7
高2.5
100
AcDbText
  0
TEXT
  5
4AD
330
6B
100
AcDbEntity
  8
0
 62
     3
100
AcDbText
 10
580.7170177356207
 20
90.77148211506781
 30
0.0
 40
3.2
  1
54116
 41
0.8
  7
高3.2
100
AcDbText
  0
TEXT
  5
4AF
330
6B
100
AcDbEntity
  8
0
 62
     3
100
AcDbText
 10
580.7170177356207
 20
80.77148374337854
 30
0.0
 40
3.2
  1
52587
 41
0.8
  7
高3.2
100
AcDbText
  0
TEXT
  5
4B0
330
6B
100
AcDbEntity
  8
0
 62
     3
100
AcDbText
 10
580.7170177356207
 20
75.77148374337854
 30
0.0
 40
3.2
  1
56322
 41
0.8
  7
高3.2
100
AcDbText
  0
TEXT
  5
4B1
330
6B
100
AcDbEntity
  8
0
 62
     3
100
AcDbText
 10
580.7170177356207
 20
70.77148455753392
 30
0.0
 40
3.2
  1
-
 41
0.8
  7
高3.2
100
AcDbText
  0
TEXT
  5
4B2
330
6B
100
AcDbEntity
  8
0
 62
     3
100
AcDbText
 10
580.7170177356207
 20
65.77148537168928
 30
0.0
 40
3.2
  1
54137
 41
0.8
  7
高3.2
100
AcDbText
  0
TEXT
  5
4B3
330
6B
100
AcDbEntity
  8
0
 62
     3
100
AcDbText
 10
580.7170177356207
 20
60.77148537168928
 30
0.0
 40
3.2
  1
56321
 41
0.8
  7
高3.2
100
AcDbText
  0
TEXT
  5
4B4
330
6B
100
AcDbEntity
  8
0
 62
     3
100
AcDbText
 10
580.7170177356207
 20
55.77148618584464
 30
0.0
 40
3.2
  1
56320
 41
0.8
  7
高3.2
100
AcDbText
  0
TEXT
  5
4B5
330
6B
100
AcDbEntity
  8
0
 62
     3
100
AcDbText
 10
580.7170177356207
 20
50.77148699999999
 30
0.0
 40
3.2
  1
-
 41
0.8
  7
高3.2
100
AcDbText
  0
TEXT
  5
B05
330
6B
100
AcDbEntity
  8
0
 62
     3
100
AcDbText
 10
886.8015579999999
 20
309.826848
 30
0.0
 40
3.2
  1
担　当
  7
高3.2
100
AcDbText
  0
TEXT
  5
B06
330
6B
100
AcDbEntity
  8
0
 62
     3
100
AcDbText
 10
842.8015579999996
 20
309.826848
 30
0.0
 40
3.2
  1
変更・追記内容
  7
高3.2
100
AcDbText
  0
TEXT
  5
B07
330
6B
100
AcDbEntity
  8
0
 62
     3
100
AcDbText
 10
817.915073000339
 20
305.1563094900917
 30
0.0
 40
2.0
  1
1
  7
高2
100
AcDbText
  0
TEXT
  5
B08
330
6B
100
AcDbEntity
  8
0
 62
     3
100
AcDbText
 10
817.6065615235819
 20
299.9864927778188
 30
0.0
 40
2.0
  1
2
  7
高2
100
AcDbText
  0
TEXT
  5
B09
330
6B
100
AcDbEntity
  8
0
 62
     3
100
AcDbText
 10
824.8015579999997
 20
309.826848
 30
0.0
 40
3.2
  1
日　付
  7
高3.2
100
AcDbText
  0
TEXT
  5
B0A
330
6B
100
AcDbEntity
  8
0
 62
     3
100
AcDbText
 10
824.8015579999997
 20
314.826848
 30
0.0
 40
3.2
  1
図　　　　面　　　　略　　　　歴
  7
高3.2
100
AcDbText
  0
TEXT
  5
B0B
330
6B
100
AcDbEntity
  8
0
 62
     3
100
AcDbText
 10
814.8015579999999
 20
309.826848
 30
0.0
 40
3.2
  1
記号
  7
高3.2
100
AcDbText
  0
LINE
  5
B0C
330
6B
100
AcDbEntity
  8
0
 62
     7
100
AcDbLine
 10
818.3015579999999
 20
303.1177440000001
 30
0.0
 11
816.4015579999997
 21
299.826848
 31
0.0
  0
LINE
  5
B0D
330
6B
100
AcDbEntity
  8
0
 62
     7
100
AcDbLine
 10
818.3015579999999
 20
303.1177440000001
 30
0.0
 11
820.2015579999999
 21
299.826848
 31
0.0
  0
LINE
  5
B0E
330
6B
100
AcDbEntity
  8
0
 62
     7
100
AcDbLine
 10
816.4015579999997
 20
299.826848
 30
0.0
 11
820.2015579999999
 21
299.826848
 31
0.0
  0
LINE
  5
B0F
330
6B
100
AcDbEntity
  8
0
 62
     7
100
AcDbLine
 10
818.3015579999999
 20
308.1177450000001
 30
0.0
 11
816.4015579999997
 21
304.826848
 31
0.0
  0
LINE
  5
B10
330
6B
100
AcDbEntity
  8
0
 62
     7
100
AcDbLine
 10
818.3015579999999
 20
308.1177450000001
 30
0.0
 11
820.2015579999999
 21
304.826848
 31
0.0
  0
LINE
  5
B11
330
6B
100
AcDbEntity
  8
0
 62
     7
100
AcDbLine
 10
816.4015579999997
 20
304.826848
 30
0.0
 11
820.2015579999999
 21
304.826848
 31
0.0
  0
LINE
  5
B12
330
6B
100
AcDbEntity
  8
0
 62
     3
100
AcDbLine
 10
813.3015579999996
 20
314.326848
 30
0.0
 11
899.3015579999999
 21
314.326848
 31
0.0
  0
LINE
  5
B13
330
6B
100
AcDbEntity
  8
0
 62
     3
100
AcDbLine
 10
813.3015579999996
 20
309.326848
 30
0.0
 11
899.3015579999999
 21
309.326848
 31
0.0
  0
LINE
  5
B14
330
6B
100
AcDbEntity
  8
0
 62
     7
100
AcDbLine
 10
813.3015579999996
 20
304.326848
 30
0.0
 11
899.3015579999999
 21
304.326848
 31
0.0
  0
LINE
  5
B15
330
6B
100
AcDbEntity
  8
0
 62
     3
100
AcDbLine
 10
813.3015579999996
 20
299.326848
 30
0.0
 11
899.3015579999999
 21
299.326848
 31
0.0
  0
LINE
  5
B16
330
6B
100
AcDbEntity
  8
0
 62
     7
100
AcDbLine
 10
885.3015579999997
 20
299.326848
 30
0.0
 11
885.3015579999999
 21
314.326848
 31
0.0
  0
LINE
  5
B17
330
6B
100
AcDbEntity
  8
0
 62
     7
100
AcDbLine
 10
841.3015579999999
 20
299.326848
 30
0.0
 11
841.3015579999999
 21
314.326848
 31
0.0
  0
LINE
  5
B18
330
6B
100
AcDbEntity
  8
0
 62
     7
100
AcDbLine
 10
823.3015579999996
 20
299.326848
 30
0.0
 11
823.3015579999996
 21
314.326848
 31
0.0
  0
LINE
  5
B19
330
6B
100
AcDbEntity
  8
0
 62
     3
100
AcDbLine
 10
813.3015579999996
 20
299.326848
 30
0.0
 11
813.3015579999996
 21
319.326848
 31
0.0
  0
LINE
  5
E02
330
6B
100
AcDbEntity
  8
0
 62
     3
100
AcDbLine
 10
811.5181000907652
 20
166.0732225448162
 30
0.0
 11
807.6231368821792
 21
168.1676910192044
 31
0.0
  0
LINE
  5
E03
330
6B
100
AcDbEntity
  8
0
 62
     3
100
AcDbLine
 10
806.3384063546292
 20
166.1116928726704
 30
0.0
 11
809.9283423279159
 21
163.5290780037911
 31
0.0
  0
ARC
  5
E04
330
6B
100
AcDbEntity
  8
0
 62
     3
100
AcDbCircle
 10
807.5284157220322
 20
167.9915439219597
 30
0.0
 40
0.2000000000000035
100
AcDbArc
 50
61.73139699916458
 51
148.0000000000074
  0
ARC
  5
E05
330
6B
100
AcDbEntity
  8
0
 62
     3
100
AcDbCircle
 10
806.4552035164306
 20
166.274045372347
 30
0.0
 40
0.1999999999999992
100
AcDbArc
 50
148.0000000000074
 51
234.2686030008474
  0
SPLINE
  5
E06
330
6B
100
AcDbEntity
  8
0
 62
     3
100
AcDbSpline
210
0.0
220
0.0
230
1.0
 70
     8
 71
     3
 72
    13
 73
     9
 74
     0
 42
0.0000000001
 43
0.0000000001
 40
0.0
 40
0.0
 40
0.0
 40
0.0
 40
0.4581619834879955
 40
0.6145473961653554
 40
0.7718470653318112
 40
0.8762071890762065
 40
0.9814584107317447
 40
1.0
 40
1.0
 40
1.0
 40
1.0
 10
811.5311941136353
 20
163.452264753011
 30
0.0
 10
811.489420312715
 20
163.3910802671706
 30
0.0
 10
811.4333877707132
 20
163.3090115495246
 30
0.0
 10
811.3330880647495
 20
163.2351036481106
 30
0.0
 10
811.2702127381433
 20
163.2083420362379
 30
0.0
 10
811.2103147213863
 20
163.2032345544487
 30
0.0
 10
811.1732914564964
 20
163.2132040369583
 30
0.0
 10
811.1559586061833
 20
163.2234838349167
 30
0.0
 10
811.1533625055782
 20
163.225023534921
 30
0.0
  0
SPLINE
  5
E07
330
6B
100
AcDbEntity
  8
0
 62
     3
100
AcDbSpline
210
0.0
220
0.0
230
1.0
 70
     8
 71
     3
 72
    12
 73
     8
 74
     0
 42
0.0000000001
 43
0.0000000001
 40
0.0
 40
0.0
 40
0.0
 40
0.0
 40
0.0979866034340287
 40
0.1953634406408594
 40
0.3403893480091844
 40
0.5787119564660092
 40
0.9999999999999998
 40
0.9999999999999998
 40
0.9999999999999998
 40
0.9999999999999998
 10
812.3283954341642
 20
165.105469611314
 30
0.0
 10
812.3409834527516
 20
165.095367284394
 30
0.0
 10
812.3660811552527
 20
165.0752254968801
 30
0.0
 10
812.3902029587783
 20
165.0239661763043
 30
0.0
 10
812.400742332251
 20
164.9463846834453
 30
0.0
 10
812.3760523265357
 20
164.8171794676312
 30
0.0
 10
812.3234071961354
 20
164.7250824764374
 30
0.0
 10
812.2897831727497
 20
164.6662608653576
 30
0.0
  0
LINE
  5
E08
330
6B
100
AcDbEntity
  8
0
 62
     3
100
AcDbLine
 10
812.3283954341642
 20
165.105469611314
 30
0.0
 11
811.3107377667658
 21
165.7413721949131
 31
0.0
  0
LINE
  5
E09
330
6B
100
AcDbEntity
  8
0
 62
     3
100
AcDbLine
 10
811.1533625055782
 20
163.225023534921
 30
0.0
 11
810.1357047450475
 21
163.8609268635781
 31
0.0
  0
LINE
  5
E0A
330
6B
100
AcDbEntity
  8
0
 62
     3
100
AcDbLine
 10
813.83946562651
 20
166.3914397847946
 30
0.0
 11
810.6599500407211
 21
161.3031507402928
 31
0.0
  0
LINE
  5
E0B
330
6B
100
AcDbEntity
  8
0
 62
     3
100
AcDbLine
 10
812.3129790653221
 20
167.3452944427998
 30
0.0
 11
813.8394655664198
 21
166.3914398223431
 31
0.0
  0
LINE
  5
E0C
330
6B
100
AcDbEntity
  8
0
 62
     3
100
AcDbLine
 10
810.6599500407211
 20
161.3031507402928
 30
0.0
 11
809.1334634464912
 21
162.2570053607495
 31
0.0
  0
LINE
  5
E0D
330
6B
100
AcDbEntity
  8
0
 62
     3
100
AcDbLine
 10
812.3129790653221
 20
167.3452944427998
 30
0.0
 11
809.1334634464912
 21
162.2570053607495
 31
0.0
  0
LINE
  5
E0E
330
6B
100
AcDbEntity
  8
0
 62
     3
100
AcDbLine
 10
812.2897831727497
 20
164.6662608653576
 30
0.0
 11
811.5311941136353
 21
163.452264753011
 31
0.0
  0
LINE
  5
E0F
330
6B
100
AcDbEntity
  8
0
 62
     3
100
AcDbLine
 10
807.358806102801
 20
168.0975277748063
 30
0.0
 11
806.2855938971992
 21
166.3800292251936
 31
0.0
  0
LINE
  5
E10
330
6B
100
AcDbEntity
  8
0
100
AcDbLine
 10
695.786015
 20
123.118536
 30
0.0
 11
693.71567
 21
123.089228
 31
0.0
  0
LINE
  5
E11
330
6B
100
AcDbEntity
  8
0
100
AcDbLine
 10
693.71567
 20
123.089228
 30
0.0
 11
695.523295
 21
122.079437
 31
0.0
  0
LINE
  5
E12
330
6B
100
AcDbEntity
  8
0
100
AcDbLine
 10
688.2981999999997
 20
121.781296
 30
0.0
 11
688.430007
 21
121.987113
 31
0.0
  0
LINE
  5
E13
330
6B
100
AcDbEntity
  8
0
100
AcDbLine
 10
688.430007
 20
121.987113
 30
0.0
 11
688.553192
 21
122.197732
 31
0.0
  0
LINE
  5
E14
330
6B
100
AcDbEntity
  8
0
100
AcDbLine
 10
688.553192
 20
122.197732
 30
0.0
 11
688.612754
 21
122.312809
 31
0.0
  0
LINE
  5
E15
330
6B
100
AcDbEntity
  8
0
100
AcDbLine
 10
688.612754
 20
122.312809
 30
0.0
 11
688.6698849999996
 21
122.42924
 31
0.0
  0
LINE
  5
E16
330
6B
100
AcDbEntity
  8
0
100
AcDbLine
 10
691.6601469999997
 20
124.030289
 30
0.0
 11
691.6626059999996
 21
124.026686
 31
0.0
  0
LINE
  5
E17
330
6B
100
AcDbEntity
  8
0
100
AcDbLine
 10
691.6626059999996
 20
124.026686
 30
0.0
 11
691.664949
 21
124.023017
 31
0.0
  0
LINE
  5
E18
330
6B
100
AcDbEntity
  8
0
100
AcDbLine
 10
691.664949
 20
124.023017
 30
0.0
 11
691.669619
 21
124.014127
 31
0.0
  0
LINE
  5
E19
330
6B
100
AcDbEntity
  8
0
100
AcDbLine
 10
691.669619
 20
124.014127
 30
0.0
 11
691.67367
 21
124.004885
 31
0.0
  0
LINE
  5
E1A
330
6B
100
AcDbEntity
  8
0
100
AcDbLine
 10
680.844611
 20
121.781296
 30
0.0
 11
680.712804
 21
121.987113
 31
0.0
  0
LINE
  5
E1B
330
6B
100
AcDbEntity
  8
0
100
AcDbLine
 10
680.712804
 20
121.987113
 30
0.0
 11
680.5896190000002
 21
122.197733
 31
0.0
  0
LINE
  5
E1C
330
6B
100
AcDbEntity
  8
0
100
AcDbLine
 10
680.5896190000002
 20
122.197733
 30
0.0
 11
680.530057
 21
122.312809
 31
0.0
  0
LINE
  5
E1D
330
6B
100
AcDbEntity
  8
0
100
AcDbLine
 10
680.530057
 20
122.312809
 30
0.0
 11
680.472926
 21
122.42924
 31
0.0
  0
LINE
  5
E1E
330
6B
100
AcDbEntity
  8
0
100
AcDbLine
 10
677.482665
 20
124.030289
 30
0.0
 11
677.4802049999997
 21
124.026686
 31
0.0
  0
LINE
  5
E1F
330
6B
100
AcDbEntity
  8
0
100
AcDbLine
 10
677.4802049999997
 20
124.026686
 30
0.0
 11
677.4778619999997
 21
124.023018
 31
0.0
  0
LINE
  5
E20
330
6B
100
AcDbEntity
  8
0
100
AcDbLine
 10
677.4778619999997
 20
124.023018
 30
0.0
 11
677.473192
 21
124.014127
 31
0.0
  0
LINE
  5
E21
330
6B
100
AcDbEntity
  8
0
100
AcDbLine
 10
677.473192
 20
124.014127
 30
0.0
 11
677.469141
 21
124.004886
 31
0.0
  0
LINE
  5
E22
330
6B
100
AcDbEntity
  8
0
100
AcDbLine
 10
730.4654329999997
 20
128.450509
 30
0.0
 11
728.5714059999996
 21
127.61394
 31
0.0
  0
LINE
  5
E23
330
6B
100
AcDbEntity
  8
0
100
AcDbLine
 10
728.5714059999996
 20
127.61394
 30
0.0
 11
730.6299659999997
 21
127.391416
 31
0.0
  0
LINE
  5
E24
330
6B
100
AcDbEntity
  8
0
100
AcDbLine
 10
730.026739
 20
148.382034
 30
0.0
 11
728.111407
 21
147.595467
 31
0.0
  0
LINE
  5
E25
330
6B
100
AcDbEntity
  8
0
100
AcDbLine
 10
728.111407
 20
147.595467
 30
0.0
 11
730.1634169999996
 21
147.318988
 31
0.0
  0
LINE
  5
E26
330
6B
100
AcDbEntity
  8
0
100
AcDbLine
 10
729.668645
 20
180.597509
 30
0.0
 11
728.111407
 21
179.232885
 31
0.0
  0
LINE
  5
E27
330
6B
100
AcDbEntity
  8
0
100
AcDbLine
 10
728.111407
 20
179.232885
 30
0.0
 11
730.1423259999997
 21
179.636065
 31
0.0
  0
LINE
  5
E28
330
6B
100
AcDbEntity
  8
0
100
AcDbLine
 10
708.457131
 20
196.134955
 30
0.0
 11
706.771406
 21
194.932657
 31
0.0
  0
LINE
  5
E29
330
6B
100
AcDbEntity
  8
0
100
AcDbLine
 10
706.771406
 20
194.932657
 30
0.0
 11
708.8324349999997
 21
195.131015
 31
0.0
  0
LINE
  5
E2A
330
6B
100
AcDbEntity
  8
0
100
AcDbLine
 10
809.3693209999999
 20
169.177862
 30
0.0
 11
807.3978759999999
 21
168.544938
 31
0.0
  0
LINE
  5
E2B
330
6B
100
AcDbEntity
  8
0
100
AcDbLine
 10
807.3978759999999
 20
168.544938
 30
0.0
 11
809.421659
 21
168.107344
 31
0.0
  0
LINE
  5
E2C
330
6B
100
AcDbEntity
  8
0
100
AcDbLine
 10
810.214385
 20
130.596693
 30
0.0
 11
808.719315
 21
129.164229
 31
0.0
  0
LINE
  5
E2D
330
6B
100
AcDbEntity
  8
0
100
AcDbLine
 10
808.719315
 20
129.164229
 30
0.0
 11
810.730316
 21
129.657244
 31
0.0
  0
LINE
  5
E2E
330
6B
100
AcDbEntity
  8
0
100
AcDbLine
 10
838.3439179999996
 20
123.894344
 30
0.0
 11
837.239684
 21
122.142814
 31
0.0
  0
LINE
  5
E2F
330
6B
100
AcDbEntity
  8
0
100
AcDbLine
 10
837.239684
 20
122.142814
 30
0.0
 11
839.071743
 21
123.107567
 31
0.0
  0
LINE
  5
E30
330
6B
100
AcDbEntity
  8
0
 62
     2
100
AcDbLine
 10
699.5601839999997
 20
319.867477
 30
0.0
 11
699.533573
 21
320.037859
 31
0.0
  0
LINE
  5
E31
330
6B
100
AcDbEntity
  8
0
 62
     2
100
AcDbLine
 10
699.533573
 20
320.037859
 30
0.0
 11
699.501614
 21
320.201009
 31
0.0
  0
LINE
  5
E32
330
6B
100
AcDbEntity
  8
0
 62
     2
100
AcDbLine
 10
699.501614
 20
320.201009
 30
0.0
 11
699.464554
 21
320.355665
 31
0.0
  0
LINE
  5
E33
330
6B
100
AcDbEntity
  8
0
 62
     2
100
AcDbLine
 10
699.464554
 20
320.355665
 30
0.0
 11
699.4226799999997
 21
320.500631
 31
0.0
  0
LINE
  5
E34
330
6B
100
AcDbEntity
  8
0
 62
     2
100
AcDbLine
 10
699.4226799999997
 20
320.500631
 30
0.0
 11
699.3763139999996
 21
320.634788
 31
0.0
  0
LINE
  5
E35
330
6B
100
AcDbEntity
  8
0
 62
     2
100
AcDbLine
 10
699.3763139999996
 20
320.634788
 30
0.0
 11
699.325816
 21
320.757098
 31
0.0
  0
LINE
  5
E36
330
6B
100
AcDbEntity
  8
0
 62
     2
100
AcDbLine
 10
699.325816
 20
320.757098
 30
0.0
 11
699.271576
 21
320.866616
 31
0.0
  0
LINE
  5
E37
330
6B
100
AcDbEntity
  8
0
 62
     2
100
AcDbLine
 10
699.271576
 20
320.866616
 30
0.0
 11
699.214013
 21
320.9624950000001
 31
0.0
  0
LINE
  5
E38
330
6B
100
AcDbEntity
  8
0
 62
     2
100
AcDbLine
 10
699.214013
 20
320.9624950000001
 30
0.0
 11
699.1535719999997
 21
321.043994
 31
0.0
  0
LINE
  5
E39
330
6B
100
AcDbEntity
  8
0
 62
     2
100
AcDbLine
 10
699.1535719999997
 20
321.043994
 30
0.0
 11
699.090719
 21
321.110484
 31
0.0
  0
LINE
  5
E3A
330
6B
100
AcDbEntity
  8
0
 62
     2
100
AcDbLine
 10
699.090719
 20
321.110484
 30
0.0
 11
699.025942
 21
321.161449
 31
0.0
  0
LINE
  5
E3B
330
6B
100
AcDbEntity
  8
0
 62
     2
100
AcDbLine
 10
699.025942
 20
321.161449
 30
0.0
 11
698.959741
 21
321.196498
 31
0.0
  0
LINE
  5
E3C
330
6B
100
AcDbEntity
  8
0
 62
     2
100
AcDbLine
 10
698.959741
 20
321.196498
 30
0.0
 11
698.8926269999997
 21
321.215357
 31
0.0
  0
LINE
  5
E3D
330
6B
100
AcDbEntity
  8
0
 62
     2
100
AcDbLine
 10
698.8926269999997
 20
321.215357
 30
0.0
 11
698.8251179999998
 21
321.217883
 31
0.0
  0
LINE
  5
E3E
330
6B
100
AcDbEntity
  8
0
 62
     2
100
AcDbLine
 10
698.8251179999998
 20
321.217883
 30
0.0
 11
698.757738
 21
321.204055
 31
0.0
  0
LINE
  5
E3F
330
6B
100
AcDbEntity
  8
0
 62
     2
100
AcDbLine
 10
698.757738
 20
321.204055
 30
0.0
 11
698.691007
 21
321.173979
 31
0.0
  0
LINE
  5
E40
330
6B
100
AcDbEntity
  8
0
 62
     2
100
AcDbLine
 10
698.691007
 20
321.173979
 30
0.0
 11
698.6254399999997
 21
321.12789
 31
0.0
  0
LINE
  5
E41
330
6B
100
AcDbEntity
  8
0
 62
     2
100
AcDbLine
 10
698.6254399999997
 20
321.12789
 30
0.0
 11
698.561544
 21
321.066142
 31
0.0
  0
LINE
  5
E42
330
6B
100
AcDbEntity
  8
0
 62
     2
100
AcDbLine
 10
698.561544
 20
321.066142
 30
0.0
 11
698.499814
 21
320.989213
 31
0.0
  0
LINE
  5
E43
330
6B
100
AcDbEntity
  8
0
 62
     2
100
AcDbLine
 10
698.499814
 20
320.989213
 30
0.0
 11
698.4407259999997
 21
320.897698
 31
0.0
  0
LINE
  5
E44
330
6B
100
AcDbEntity
  8
0
 62
     2
100
AcDbLine
 10
698.4407259999997
 20
320.897698
 30
0.0
 11
698.3847369999997
 21
320.792304
 31
0.0
  0
LINE
  5
E45
330
6B
100
AcDbEntity
  8
0
 62
     2
100
AcDbLine
 10
698.3847369999997
 20
320.792304
 30
0.0
 11
698.3322799999997
 21
320.673846
 31
0.0
  0
LINE
  5
E46
330
6B
100
AcDbEntity
  8
0
 62
     2
100
AcDbLine
 10
698.3322799999997
 20
320.673846
 30
0.0
 11
698.2837599999997
 21
320.543239
 31
0.0
  0
LINE
  5
E47
330
6B
100
AcDbEntity
  8
0
 62
     2
100
AcDbLine
 10
698.2837599999997
 20
320.543239
 30
0.0
 11
698.2395519999997
 21
320.401492
 31
0.0
  0
LINE
  5
E48
330
6B
100
AcDbEntity
  8
0
 62
     2
100
AcDbLine
 10
698.2395519999997
 20
320.401492
 30
0.0
 11
698.199998
 21
320.2497029999999
 31
0.0
  0
LINE
  5
E49
330
6B
100
AcDbEntity
  8
0
 62
     2
100
AcDbLine
 10
698.199998
 20
320.2497029999999
 30
0.0
 11
698.1654049999997
 21
320.089043
 31
0.0
  0
LINE
  5
E4A
330
6B
100
AcDbEntity
  8
0
 62
     2
100
AcDbLine
 10
698.1654049999997
 20
320.089043
 30
0.0
 11
698.1360379999999
 21
319.920754
 31
0.0
  0
LINE
  5
E4B
330
6B
100
AcDbEntity
  8
0
 62
     2
100
AcDbLine
 10
698.1360379999999
 20
319.920754
 30
0.0
 11
698.112126
 21
319.746138
 31
0.0
  0
LINE
  5
E4C
330
6B
100
AcDbEntity
  8
0
 62
     2
100
AcDbLine
 10
698.112126
 20
319.746138
 30
0.0
 11
698.0938519999997
 21
319.566544
 31
0.0
  0
LINE
  5
E4D
330
6B
100
AcDbEntity
  8
0
 62
     2
100
AcDbLine
 10
698.0938519999997
 20
319.566544
 30
0.0
 11
698.081359
 21
319.383361
 31
0.0
  0
LINE
  5
E4E
330
6B
100
AcDbEntity
  8
0
 62
     2
100
AcDbLine
 10
698.081359
 20
319.383361
 30
0.0
 11
698.074742
 21
319.198003
 31
0.0
  0
LINE
  5
E4F
330
6B
100
AcDbEntity
  8
0
 62
     2
100
AcDbLine
 10
698.074742
 20
319.198003
 30
0.0
 11
698.074054
 21
319.011904
 31
0.0
  0
LINE
  5
E50
330
6B
100
AcDbEntity
  8
0
 62
     2
100
AcDbLine
 10
698.074054
 20
319.011904
 30
0.0
 11
698.079298
 21
318.826502
 31
0.0
  0
LINE
  5
E51
330
6B
100
AcDbEntity
  8
0
 62
     2
100
AcDbLine
 10
698.079298
 20
318.826502
 30
0.0
 11
698.0904360000002
 21
318.643231
 31
0.0
  0
LINE
  5
E52
330
6B
100
AcDbEntity
  8
0
 62
     2
100
AcDbLine
 10
698.0904360000002
 20
318.643231
 30
0.0
 11
698.10738
 21
318.463507
 31
0.0
  0
LINE
  5
E53
330
6B
100
AcDbEntity
  8
0
 62
     2
100
AcDbLine
 10
698.10738
 20
318.463507
 30
0.0
 11
698.129999
 21
318.288718
 31
0.0
  0
LINE
  5
E54
330
6B
100
AcDbEntity
  8
0
 62
     2
100
AcDbLine
 10
698.129999
 20
318.288718
 30
0.0
 11
698.15812
 21
318.120217
 31
0.0
  0
LINE
  5
E55
330
6B
100
AcDbEntity
  8
0
 62
     2
100
AcDbLine
 10
698.15812
 20
318.120217
 30
0.0
 11
698.1915240000001
 21
317.959306
 31
0.0
  0
LINE
  5
E56
330
6B
100
AcDbEntity
  8
0
 62
     2
100
AcDbLine
 10
698.1915240000001
 20
317.959306
 30
0.0
 11
698.229953
 21
317.8072279999999
 31
0.0
  0
LINE
  5
E57
330
6B
100
AcDbEntity
  8
0
 62
     2
100
AcDbLine
 10
698.229953
 20
317.8072279999999
 30
0.0
 11
698.2731099999997
 21
317.665158
 31
0.0
  0
LINE
  5
E58
330
6B
100
AcDbEntity
  8
0
 62
     2
100
AcDbLine
 10
698.2731099999997
 20
317.665158
 30
0.0
 11
698.3206619999997
 21
317.534196
 31
0.0
  0
LINE
  5
E59
330
6B
100
AcDbEntity
  8
0
 62
     2
100
AcDbLine
 10
698.3206619999997
 20
317.534196
 30
0.0
 11
698.372242
 21
317.415352
 31
0.0
  0
LINE
  5
E5A
330
6B
100
AcDbEntity
  8
0
 62
     2
100
AcDbLine
 10
698.372242
 20
317.415352
 30
0.0
 11
698.427449
 21
317.309547
 31
0.0
  0
LINE
  5
E5B
330
6B
100
AcDbEntity
  8
0
 62
     2
100
AcDbLine
 10
698.427449
 20
317.309547
 30
0.0
 11
698.485858
 21
317.217597
 31
0.0
  0
LINE
  5
E5C
330
6B
100
AcDbEntity
  8
0
 62
     2
100
AcDbLine
 10
698.485858
 20
317.217597
 30
0.0
 11
698.547018
 21
317.140214
 31
0.0
  0
LINE
  5
E5D
330
6B
100
AcDbEntity
  8
0
 62
     2
100
AcDbLine
 10
698.547018
 20
317.140214
 30
0.0
 11
698.610455
 21
317.077995
 31
0.0
  0
LINE
  5
E5E
330
6B
100
AcDbEntity
  8
0
 62
     2
100
AcDbLine
 10
698.610455
 20
317.077995
 30
0.0
 11
698.6756790000002
 21
317.031421
 31
0.0
  0
LINE
  5
E5F
330
6B
100
AcDbEntity
  8
0
 62
     2
100
AcDbLine
 10
698.6756790000002
 20
317.031421
 30
0.0
 11
698.742186
 21
317.000853
 31
0.0
  0
LINE
  5
E60
330
6B
100
AcDbEntity
  8
0
 62
     2
100
AcDbLine
 10
698.742186
 20
317.000853
 30
0.0
 11
698.809462
 21
316.986526
 31
0.0
  0
LINE
  5
E61
330
6B
100
AcDbEntity
  8
0
 62
     2
100
AcDbLine
 10
698.809462
 20
316.986526
 30
0.0
 11
698.8769869999996
 21
316.988552
 31
0.0
  0
LINE
  5
E62
330
6B
100
AcDbEntity
  8
0
 62
     2
100
AcDbLine
 10
698.8769869999996
 20
316.988552
 30
0.0
 11
698.9442389999997
 21
317.006915
 31
0.0
  0
LINE
  5
E63
330
6B
100
AcDbEntity
  8
0
 62
     2
100
AcDbLine
 10
698.9442389999997
 20
317.006915
 30
0.0
 11
699.010698
 21
317.041472
 31
0.0
  0
LINE
  5
E64
330
6B
100
AcDbEntity
  8
0
 62
     2
100
AcDbLine
 10
699.010698
 20
317.041472
 30
0.0
 11
699.0758499999997
 21
317.091957
 31
0.0
  0
LINE
  5
E65
330
6B
100
AcDbEntity
  8
0
 62
     2
100
AcDbLine
 10
699.0758499999997
 20
317.091957
 30
0.0
 11
699.1391929999998
 21
317.15798
 31
0.0
  0
LINE
  5
E66
330
6B
100
AcDbEntity
  8
0
 62
     2
100
AcDbLine
 10
699.1391929999998
 20
317.15798
 30
0.0
 11
699.200236
 21
317.2390299999999
 31
0.0
  0
LINE
  5
E67
330
6B
100
AcDbEntity
  8
0
 62
     2
100
AcDbLine
 10
699.200236
 20
317.2390299999999
 30
0.0
 11
699.258507
 21
317.33448
 31
0.0
  0
LINE
  5
E68
330
6B
100
AcDbEntity
  8
0
 62
     2
100
AcDbLine
 10
699.258507
 20
317.33448
 30
0.0
 11
699.3135559999997
 21
317.443593
 31
0.0
  0
LINE
  5
E69
330
6B
100
AcDbEntity
  8
0
 62
     2
100
AcDbLine
 10
699.3135559999997
 20
317.443593
 30
0.0
 11
699.364958
 21
317.565526
 31
0.0
  0
LINE
  5
E6A
330
6B
100
AcDbEntity
  8
0
 62
     2
100
AcDbLine
 10
699.364958
 20
317.565526
 30
0.0
 11
699.412315
 21
317.6993359999999
 31
0.0
  0
LINE
  5
E6B
330
6B
100
AcDbEntity
  8
0
 62
     2
100
AcDbLine
 10
699.412315
 20
317.6993359999999
 30
0.0
 11
699.455261
 21
317.843989
 31
0.0
  0
LINE
  5
E6C
330
6B
100
AcDbEntity
  8
0
 62
     2
100
AcDbLine
 10
699.455261
 20
317.843989
 30
0.0
 11
699.493464
 21
317.998366
 31
0.0
  0
LINE
  5
E6D
330
6B
100
AcDbEntity
  8
0
 62
     2
100
AcDbLine
 10
699.493464
 20
317.998366
 30
0.0
 11
699.5266289999997
 21
318.161275
 31
0.0
  0
LINE
  5
E6E
330
6B
100
AcDbEntity
  8
0
 62
     2
100
AcDbLine
 10
699.5266289999997
 20
318.161275
 30
0.0
 11
699.5544999999999
 21
318.331456
 31
0.0
  0
LINE
  5
E6F
330
6B
100
AcDbEntity
  8
0
100
AcDbLine
 10
677.2714059999997
 20
274.186038
 30
0.0
 11
677.2714059999997
 21
288.403919
 31
0.0
  0
LINE
  5
E70
330
6B
100
AcDbEntity
  8
0
100
AcDbLine
 10
691.871406
 20
274.186038
 30
0.0
 11
691.871406
 21
288.403919
 31
0.0
  0
LINE
  5
E71
330
6B
100
AcDbEntity
  8
0
100
AcDbLine
 10
679.7714059999997
 20
287.153919
 30
0.0
 11
689.3714059999999
 21
287.153919
 31
0.0
  0
LINE
  5
E75
330
6B
100
AcDbEntity
  8
0
100
AcDbLine
 10
675.7114160913406
 20
256.7455668944544
 30
0.0
 11
664.800116322222
 21
243.7419870548902
 31
0.0
  0
LINE
  5
E76
330
6B
100
AcDbEntity
  8
0
100
AcDbLine
 10
684.5714059999997
 20
259.422945
 30
0.0
 11
684.5714059999997
 21
236.5458257544807
 31
0.0
  0
ARC
  5
E77
330
6B
100
AcDbEntity
  8
0
100
AcDbCircle
 10
684.5714059999997
 20
267.3044910000001
 30
0.0
 40
29.50866524551936
100
AcDbArc
 50
234.8555997180955
 51
265.1443984157048
  0
LINE
  5
E7B
330
6B
100
AcDbEntity
  8
0
100
AcDbLine
 10
684.5714059999998
 20
259.4229450000001
 30
0.0
 11
684.5714060000001
 21
236.4139678852789
 31
0.0
  0
LINE
  5
E7C
330
6B
100
AcDbEntity
  8
0
100
AcDbLine
 10
693.4313959086594
 20
256.7455668944544
 30
0.0
 11
704.4274522856308
 21
243.6409780696677
 31
0.0
  0
ARC
  5
E7D
330
6B
100
AcDbEntity
  8
0
100
AcDbCircle
 10
684.5714059999997
 20
267.3044910000001
 30
0.0
 40
29.64052311472122
100
AcDbArc
 50
274.8339882619206
 51
305.1660136042808
  0
LINE
  5
E81
330
6B
100
AcDbEntity
  8
0
100
AcDbLine
 10
777.9396849999997
 20
119.431296
 30
0.0
 11
777.9396849999997
 21
104.961236
 31
0.0
  0
LINE
  5
E82
330
6B
100
AcDbEntity
  8
0
100
AcDbLine
 10
837.239684
 20
120.091295
 30
0.0
 11
837.239684
 21
104.961236
 31
0.0
  0
LINE
  5
E83
330
6B
100
AcDbEntity
  8
0
100
AcDbLine
 10
780.4396849999997
 20
106.211236
 30
0.0
 11
834.739684
 21
106.211236
 31
0.0
  0
LINE
  5
E87
330
6B
100
AcDbEntity
  8
0
100
AcDbLine
 10
681.391406
 20
121.531296
 30
0.0
 11
681.391406
 21
105.118846
 31
0.0
  0
LINE
  5
E88
330
6B
100
AcDbEntity
  8
0
100
AcDbLine
 10
687.751406
 20
121.531296
 30
0.0
 11
687.751406
 21
105.118846
 31
0.0
  0
LINE
  5
E89
330
6B
100
AcDbEntity
  8
0
100
AcDbLine
 10
678.8914059999999
 20
106.368846
 30
0.0
 11
676.3914059999999
 21
106.368846
 31
0.0
  0
LINE
  5
E8A
330
6B
100
AcDbEntity
  8
0
100
AcDbLine
 10
690.2514059999999
 20
106.368846
 30
0.0
 11
726.201406
 21
106.368846
 31
0.0
  0
LINE
  5
E8B
330
6B
100
AcDbEntity
  8
0
100
AcDbLine
 10
681.391406
 20
106.368846
 30
0.0
 11
687.751406
 21
106.368846
 31
0.0
  0
LINE
  5
E8F
330
6B
100
AcDbEntity
  8
0
100
AcDbLine
 10
640.3214059999998
 20
119.681296
 30
0.0
 11
615.7539849999997
 21
119.681296
 31
0.0
  0
LINE
  5
E90
330
6B
100
AcDbEntity
  8
0
100
AcDbLine
 10
656.321405
 20
197.814212
 30
0.0
 11
615.7539849999997
 21
197.814212
 31
0.0
  0
LINE
  5
E91
330
6B
100
AcDbEntity
  8
0
100
AcDbLine
 10
617.0039849999997
 20
122.181296
 30
0.0
 11
617.0039849999997
 21
195.314212
 31
0.0
  0
LINE
  5
E95
330
6B
100
AcDbEntity
  8
0
100
AcDbLine
 10
641.0314049999997
 20
184.499586
 30
0.0
 11
641.0314049999997
 21
214.587919
 31
0.0
  0
LINE
  5
E96
330
6B
100
AcDbEntity
  8
0
100
AcDbLine
 10
728.111407
 20
184.499586
 30
0.0
 11
728.111407
 21
214.587919
 31
0.0
  0
LINE
  5
E97
330
6B
100
AcDbEntity
  8
0
100
AcDbLine
 10
643.5314049999997
 20
213.337919
 30
0.0
 11
725.6114069999999
 21
213.337919
 31
0.0
  0
LINE
  5
E9B
330
6B
100
AcDbEntity
  8
0
100
AcDbLine
 10
728.8214059999996
 20
236.504492
 30
0.0
 11
745.3158879999997
 21
236.504492
 31
0.0
  0
LINE
  5
E9C
330
6B
100
AcDbEntity
  8
0
100
AcDbLine
 10
701.301012
 20
267.3044910000001
 30
0.0
 11
745.3158879999998
 21
267.3044910000001
 31
0.0
  0
LINE
  5
E9D
330
6B
100
AcDbEntity
  8
0
100
AcDbLine
 10
744.0658879999997
 20
239.004492
 30
0.0
 11
744.0658879999999
 21
264.8044910000001
 31
0.0
  0
LINE
  5
EA1
330
6B
100
AcDbEntity
  8
0
100
AcDbLine
 10
689.5462201615981
 20
270.0528573262973
 30
0.0
 11
687.9315082190374
 21
271.9614445898387
 31
0.0
  0
LINE
  5
EA2
330
6B
100
AcDbEntity
  8
0
100
AcDbLine
 10
694.1965908384022
 20
264.5561256737031
 30
0.0
 11
710.4680747685771
 21
245.3232543673801
 31
0.0
  0
LINE
  5
EA3
330
6B
100
AcDbEntity
  8
0
100
AcDbLine
 10
691.1609321041586
 20
268.144270062756
 30
0.0
 11
692.5818788958415
 21
266.4647129372444
 31
0.0
  0
LINE
  5
EA7
330
6B
100
AcDbEntity
  8
0
100
AcDbLine
 10
640.3214059999998
 20
119.681296
 30
0.0
 11
625.0552799999998
 21
119.681296
 31
0.0
  0
LINE
  5
EA8
330
6B
100
AcDbEntity
  8
0
100
AcDbLine
 10
646.3214059999998
 20
129.221295
 30
0.0
 11
625.0552799999998
 21
129.221295
 31
0.0
  0
LINE
  5
EA9
330
6B
100
AcDbEntity
  8
0
100
AcDbLine
 10
626.3052799999997
 20
117.181296
 30
0.0
 11
626.3052799999997
 21
114.681296
 31
0.0
  0
LINE
  5
EAA
330
6B
100
AcDbEntity
  8
0
100
AcDbLine
 10
626.3052799999997
 20
131.721295
 30
0.0
 11
626.3052799999997
 21
144.471295
 31
0.0
  0
LINE
  5
EAB
330
6B
100
AcDbEntity
  8
0
100
AcDbLine
 10
626.3052799999997
 20
119.681296
 30
0.0
 11
626.3052799999997
 21
129.221295
 31
0.0
  0
LINE
  5
EAF
330
6B
100
AcDbEntity
  8
0
100
AcDbLine
 10
640.5714059999998
 20
119.431296
 30
0.0
 11
640.5714059999998
 21
89.71177
 31
0.0
  0
LINE
  5
EB0
330
6B
100
AcDbEntity
  8
0
100
AcDbLine
 10
728.5714059999996
 20
119.431296
 30
0.0
 11
728.5714059999996
 21
89.71177
 31
0.0
  0
LINE
  5
EB1
330
6B
100
AcDbEntity
  8
0
100
AcDbLine
 10
643.0714059999997
 20
90.96177
 30
0.0
 11
726.0714059999997
 21
90.96177
 31
0.0
  0
LINE
  5
EB5
330
6B
100
AcDbEntity
  8
0
100
AcDbLine
 10
681.1414059999999
 20
121.781296
 30
0.0
 11
669.985354
 21
121.781296
 31
0.0
  0
LINE
  5
EB6
330
6B
100
AcDbEntity
  8
0
100
AcDbLine
 10
684.3214059999998
 20
129.221295
 30
0.0
 11
669.985354
 21
129.221295
 31
0.0
  0
LINE
  5
EB7
330
6B
100
AcDbEntity
  8
0
100
AcDbLine
 10
671.235354
 20
119.281296
 30
0.0
 11
671.235354
 21
116.781296
 31
0.0
  0
LINE
  5
EB8
330
6B
100
AcDbEntity
  8
0
100
AcDbLine
 10
671.235354
 20
131.721295
 30
0.0
 11
671.235354
 21
144.471295
 31
0.0
  0
LINE
  5
EB9
330
6B
100
AcDbEntity
  8
0
100
AcDbLine
 10
671.235354
 20
121.781296
 30
0.0
 11
671.235354
 21
129.221295
 31
0.0
  0
LINE
  5
EBD
330
6B
100
AcDbEntity
  8
0
  6
Continuous
100
AcDbLine
 10
816.1973256469615
 20
165.560478820635
 30
0.0
 11
834.7835689590976
 21
159.0102839283191
 31
0.0
1001
ACAD
1000
DSTYLE
1002
{
1070
   147
1040
0.625
1070
    77
1070
     0
1002
}
  0
LINE
  5
EBE
330
6B
100
AcDbEntity
  8
0
  6
ByBlock
 62
     0
370
    -2
100
AcDbLine
 10
815.9746704875757
 20
164.9286925860151
 30
0.0
 11
813.83946562651
 21
166.3914397847946
 31
0.0
  0
LINE
  5
EBF
330
6B
100
AcDbEntity
  8
0
  6
ByBlock
 62
     0
370
    -2
100
AcDbLine
 10
813.83946562651
 20
166.3914397847946
 30
0.0
 11
816.419980806347
 21
166.192265055255
 31
0.0
  0
LINE
  5
EC0
330
6B
100
AcDbEntity
  8
0
  6
ByBlock
 62
     0
370
    -2
100
AcDbLine
 10
813.83946562651
 20
166.3914397847946
 30
0.0
 11
816.1973256469615
 21
165.560478820635
 31
0.0
  0
TEXT
  5
EC1
330
6B
100
AcDbEntity
  8
0
  6
Continuous
 62
     4
100
AcDbText
 10
682.0714059999998
 20
287.778919
 30
0.0
 40
3.0
  1
73
100
AcDbText
  0
LINE
  5
EC2
330
6B
100
AcDbEntity
  8
0
  6
ByBlock
 62
     0
370
    -2
100
AcDbLine
 10
689.3714059999999
 20
287.8237915
 30
0.0
 11
691.871406
 21
287.153919
 31
0.0
  0
LINE
  5
EC3
330
6B
100
AcDbEntity
  8
0
  6
ByBlock
 62
     0
370
    -2
100
AcDbLine
 10
691.871406
 20
287.153919
 30
0.0
 11
689.3714059999999
 21
286.4840465
 31
0.0
  0
LINE
  5
EC4
330
6B
100
AcDbEntity
  8
0
  6
ByBlock
 62
     0
370
    -2
100
AcDbLine
 10
691.871406
 20
287.153919
 30
0.0
 11
689.3714059999999
 21
287.153919
 31
0.0
  0
LINE
  5
EC5
330
6B
100
AcDbEntity
  8
0
  6
ByBlock
 62
     0
370
    -2
100
AcDbLine
 10
679.7714059999997
 20
286.4840465
 30
0.0
 11
677.2714059999997
 21
287.153919
 31
0.0
  0
LINE
  5
EC6
330
6B
100
AcDbEntity
  8
0
  6
ByBlock
 62
     0
370
    -2
100
AcDbLine
 10
677.2714059999997
 20
287.153919
 30
0.0
 11
679.7714059999997
 21
287.8237915
 31
0.0
  0
LINE
  5
EC7
330
6B
100
AcDbEntity
  8
0
  6
ByBlock
 62
     0
370
    -2
100
AcDbLine
 10
677.2714059999997
 20
287.153919
 30
0.0
 11
679.7714059999997
 21
287.153919
 31
0.0
  0
TEXT
  5
EC8
330
6B
100
AcDbEntity
  8
0
  6
Continuous
 62
     4
100
AcDbText
 10
668.8665160165967
 20
242.2832490519187
 30
0.0
 40
3.0
  1
40\U+00B0
 50
339.9999990669007
100
AcDbText
  0
TEXT
  5
EC9
330
6B
100
AcDbEntity
  8
0
  6
Continuous
 62
     4
100
AcDbText
 10
676.8718670748775
 20
242.3492371848043
 30
0.0
 40
2.1
  1
+0\U+00B0
 50
339.9999990669007
100
AcDbText
  0
TEXT
  5
ECA
330
6B
100
AcDbEntity
  8
0
  6
Continuous
 62
     4
100
AcDbText
 10
675.9142106307158
 20
239.7180978621998
 30
0.0
 40
2.1
  1
-5\U+00B0
 50
339.9999990669007
100
AcDbText
  0
LINE
  5
ECB
330
6B
100
AcDbEntity
  8
0
  6
ByBlock
 62
     0
370
    -2
100
AcDbLine
 10
682.1020261084144
 20
238.5709980690603
 30
0.0
 11
684.5714059999997
 21
237.7958257544808
 31
0.0
  0
LINE
  5
ECC
330
6B
100
AcDbEntity
  8
0
  6
ByBlock
 62
     0
370
    -2
100
AcDbLine
 10
684.5714059999997
 20
237.7958257544808
 30
0.0
 11
682.0452739227067
 21
237.2324556325113
 31
0.0
  0
LINE
  5
ECD
330
6B
100
AcDbEntity
  8
0
  6
ByBlock
 62
     0
370
    -2
100
AcDbLine
 10
684.5714059999997
 20
237.7958257544808
 30
0.0
 11
682.0736500155605
 21
237.9017268507858
 31
0.0
  0
LINE
  5
ECE
330
6B
100
AcDbEntity
  8
0
  6
ByBlock
 62
     0
370
    -2
100
AcDbLine
 10
667.1766029048995
 20
242.6442095803141
 30
0.0
 11
665.6036008655192
 21
244.6995425826184
 31
0.0
  0
LINE
  5
ECF
330
6B
100
AcDbEntity
  8
0
  6
ByBlock
 62
     0
370
    -2
100
AcDbLine
 10
665.6036008655192
 20
244.6995425826184
 30
0.0
 11
667.993526736243
 21
243.7060721508986
 31
0.0
  0
LINE
  5
ED0
330
6B
100
AcDbEntity
  8
0
  6
ByBlock
 62
     0
370
    -2
100
AcDbLine
 10
665.6036008655192
 20
244.6995425826184
 30
0.0
 11
667.5850648205712
 21
243.1751408656063
 31
0.0
  0
TEXT
  5
ED1
330
6B
100
AcDbEntity
  8
0
  6
Continuous
 62
     4
100
AcDbText
 10
688.6692056040675
 20
237.9182932189699
 30
0.0
 40
3.0
  1
40\U+00B0
 50
20.00000093310068
100
AcDbText
  0
TEXT
  5
ED2
330
6B
100
AcDbEntity
  8
0
  6
Continuous
 62
     4
100
AcDbText
 10
694.7592437740248
 20
243.1145837312934
 30
0.0
 40
2.1
  1
+0\U+00B0
 50
20.00000093310068
100
AcDbText
  0
TEXT
  5
ED3
330
6B
100
AcDbEntity
  8
0
  6
Continuous
 62
     4
100
AcDbText
 10
695.7169002181866
 20
240.483444408689
 30
0.0
 40
2.1
  1
-5\U+00B0
 50
20.00000093310068
100
AcDbText
  0
LINE
  5
ED4
330
6B
100
AcDbEntity
  8
0
  6
ByBlock
 62
     0
370
    -2
100
AcDbLine
 10
701.234229294384
 20
243.6046124150843
 30
0.0
 11
703.6239677423337
 21
244.5985335973959
 31
0.0
  0
LINE
  5
ED5
330
6B
100
AcDbEntity
  8
0
  6
ByBlock
 62
     0
370
    -2
100
AcDbLine
 10
703.6239677423337
 20
244.5985335973959
 30
0.0
 11
702.0513533910262
 21
242.5429039448762
 31
0.0
  0
LINE
  5
ED6
330
6B
100
AcDbEntity
  8
0
  6
ByBlock
 62
     0
370
    -2
100
AcDbLine
 10
703.6239677423337
 20
244.5985335973959
 30
0.0
 11
701.6427913427051
 21
243.0737581799803
 31
0.0
  0
LINE
  5
ED7
330
6B
100
AcDbEntity
  8
0
  6
ByBlock
 62
     0
370
    -2
100
AcDbLine
 10
687.0974317740974
 20
237.1001213149673
 30
0.0
 11
684.5714060000001
 21
237.6639678852789
 31
0.0
  0
LINE
  5
ED8
330
6B
100
AcDbEntity
  8
0
  6
ByBlock
 62
     0
370
    -2
100
AcDbLine
 10
684.5714060000001
 20
237.6639678852789
 30
0.0
 11
687.0409320543213
 21
238.4386744318403
 31
0.0
  0
LINE
  5
ED9
330
6B
100
AcDbEntity
  8
0
  6
ByBlock
 62
     0
370
    -2
100
AcDbLine
 10
684.5714060000001
 20
237.6639678852789
 30
0.0
 11
687.0691819142093
 21
237.7693978734038
 31
0.0
  0
TEXT
  5
EDA
330
6B
100
AcDbEntity
  8
0
  6
Continuous
 62
     4
100
AcDbText
 10
803.5896844999998
 20
106.836236
 30
0.0
 40
3.0
  1
296
100
AcDbText
  0
LINE
  5
EDB
330
6B
100
AcDbEntity
  8
0
  6
ByBlock
 62
     0
370
    -2
100
AcDbLine
 10
834.739684
 20
106.8811085
 30
0.0
 11
837.239684
 21
106.211236
 31
0.0
  0
LINE
  5
EDC
330
6B
100
AcDbEntity
  8
0
  6
ByBlock
 62
     0
370
    -2
100
AcDbLine
 10
837.239684
 20
106.211236
 30
0.0
 11
834.739684
 21
105.5413635
 31
0.0
  0
LINE
  5
EDD
330
6B
100
AcDbEntity
  8
0
  6
ByBlock
 62
     0
370
    -2
100
AcDbLine
 10
837.239684
 20
106.211236
 30
0.0
 11
834.739684
 21
106.211236
 31
0.0
  0
LINE
  5
EDE
330
6B
100
AcDbEntity
  8
0
  6
ByBlock
 62
     0
370
    -2
100
AcDbLine
 10
780.4396849999997
 20
105.5413635
 30
0.0
 11
777.9396849999997
 21
106.211236
 31
0.0
  0
LINE
  5
EDF
330
6B
100
AcDbEntity
  8
0
  6
ByBlock
 62
     0
370
    -2
100
AcDbLine
 10
777.9396849999997
 20
106.211236
 30
0.0
 11
780.4396849999997
 21
106.8811085
 31
0.0
  0
LINE
  5
EE0
330
6B
100
AcDbEntity
  8
0
  6
ByBlock
 62
     0
370
    -2
100
AcDbLine
 10
777.9396849999997
 20
106.211236
 30
0.0
 11
780.4396849999997
 21
106.211236
 31
0.0
  0
TEXT
  5
EE1
330
6B
100
AcDbEntity
  8
0
  6
Continuous
 62
     4
100
AcDbText
 10
693.3764059999999
 20
106.993846
 30
0.0
 40
3.0
  1
\U+220531.8(内径27.8)
100
AcDbText
  0
LINE
  5
EE2
330
6B
100
AcDbEntity
  8
0
  6
ByBlock
 62
     0
370
    -2
100
AcDbLine
 10
690.2514059999999
 20
105.6989735
 30
0.0
 11
687.751406
 21
106.368846
 31
0.0
  0
LINE
  5
EE3
330
6B
100
AcDbEntity
  8
0
  6
ByBlock
 62
     0
370
    -2
100
AcDbLine
 10
687.751406
 20
106.368846
 30
0.0
 11
690.2514059999999
 21
107.0387185
 31
0.0
  0
LINE
  5
EE4
330
6B
100
AcDbEntity
  8
0
  6
ByBlock
 62
     0
370
    -2
100
AcDbLine
 10
687.751406
 20
106.368846
 30
0.0
 11
690.2514059999999
 21
106.368846
 31
0.0
  0
LINE
  5
EE5
330
6B
100
AcDbEntity
  8
0
  6
ByBlock
 62
     0
370
    -2
100
AcDbLine
 10
678.8914059999999
 20
107.0387185
 30
0.0
 11
681.391406
 21
106.368846
 31
0.0
  0
LINE
  5
EE6
330
6B
100
AcDbEntity
  8
0
  6
ByBlock
 62
     0
370
    -2
100
AcDbLine
 10
681.391406
 20
106.368846
 30
0.0
 11
678.8914059999999
 21
105.6989735
 31
0.0
  0
LINE
  5
EE7
330
6B
100
AcDbEntity
  8
0
  6
ByBlock
 62
     0
370
    -2
100
AcDbLine
 10
681.391406
 20
106.368846
 30
0.0
 11
678.8914059999999
 21
106.368846
 31
0.0
  0
TEXT
  5
EE8
330
6B
100
AcDbEntity
  8
0
  6
Continuous
 62
     4
100
AcDbText
 10
616.3789849999997
 20
155.2477540000001
 30
0.0
 40
3.0
  1
391
 50
90.0
100
AcDbText
  0
LINE
  5
EE9
330
6B
100
AcDbEntity
  8
0
  6
ByBlock
 62
     0
370
    -2
100
AcDbLine
 10
616.3341124999996
 20
195.314212
 30
0.0
 11
617.0039849999997
 21
197.814212
 31
0.0
  0
LINE
  5
EEA
330
6B
100
AcDbEntity
  8
0
  6
ByBlock
 62
     0
370
    -2
100
AcDbLine
 10
617.0039849999997
 20
197.814212
 30
0.0
 11
617.6738574999997
 21
195.314212
 31
0.0
  0
LINE
  5
EEB
330
6B
100
AcDbEntity
  8
0
  6
ByBlock
 62
     0
370
    -2
100
AcDbLine
 10
617.0039849999997
 20
197.814212
 30
0.0
 11
617.0039849999997
 21
195.314212
 31
0.0
  0
LINE
  5
EEC
330
6B
100
AcDbEntity
  8
0
  6
ByBlock
 62
     0
370
    -2
100
AcDbLine
 10
617.6738574999997
 20
122.181296
 30
0.0
 11
617.0039849999997
 21
119.681296
 31
0.0
  0
LINE
  5
EED
330
6B
100
AcDbEntity
  8
0
  6
ByBlock
 62
     0
370
    -2
100
AcDbLine
 10
617.0039849999997
 20
119.681296
 30
0.0
 11
616.3341124999996
 21
122.181296
 31
0.0
  0
LINE
  5
EEE
330
6B
100
AcDbEntity
  8
0
  6
ByBlock
 62
     0
370
    -2
100
AcDbLine
 10
617.0039849999997
 20
119.681296
 30
0.0
 11
617.0039849999997
 21
122.181296
 31
0.0
  0
TEXT
  5
EEF
330
6B
100
AcDbEntity
  8
0
  6
Continuous
 62
     4
100
AcDbText
 10
680.5714059999997
 20
213.962919
 30
0.0
 40
3.0
  1
435
100
AcDbText
  0
LINE
  5
EF0
330
6B
100
AcDbEntity
  8
0
  6
ByBlock
 62
     0
370
    -2
100
AcDbLine
 10
725.6114069999999
 20
214.0077915
 30
0.0
 11
728.111407
 21
213.337919
 31
0.0
  0
LINE
  5
EF1
330
6B
100
AcDbEntity
  8
0
  6
ByBlock
 62
     0
370
    -2
100
AcDbLine
 10
728.111407
 20
213.337919
 30
0.0
 11
725.6114069999999
 21
212.6680465
 31
0.0
  0
LINE
  5
EF2
330
6B
100
AcDbEntity
  8
0
  6
ByBlock
 62
     0
370
    -2
100
AcDbLine
 10
728.111407
 20
213.337919
 30
0.0
 11
725.6114069999999
 21
213.337919
 31
0.0
  0
LINE
  5
EF3
330
6B
100
AcDbEntity
  8
0
  6
ByBlock
 62
     0
370
    -2
100
AcDbLine
 10
643.5314049999997
 20
212.6680465
 30
0.0
 11
641.0314049999997
 21
213.337919
 31
0.0
  0
LINE
  5
EF4
330
6B
100
AcDbEntity
  8
0
  6
ByBlock
 62
     0
370
    -2
100
AcDbLine
 10
641.0314049999997
 20
213.337919
 30
0.0
 11
643.5314049999997
 21
214.0077915
 31
0.0
  0
LINE
  5
EF5
330
6B
100
AcDbEntity
  8
0
  6
ByBlock
 62
     0
370
    -2
100
AcDbLine
 10
641.0314049999997
 20
213.337919
 30
0.0
 11
643.5314049999997
 21
213.337919
 31
0.0
  0
TEXT
  5
EF6
330
6B
100
AcDbEntity
  8
0
  6
Continuous
 62
     4
100
AcDbText
 10
743.4408879999997
 20
246.4044915000002
 30
0.0
 40
3.0
  1
(154)
 50
90.0
100
AcDbText
  0
LINE
  5
EF7
330
6B
100
AcDbEntity
  8
0
  6
ByBlock
 62
     0
370
    -2
100
AcDbLine
 10
743.3960154999998
 20
264.8044910000001
 30
0.0
 11
744.0658879999999
 21
267.3044910000001
 31
0.0
  0
LINE
  5
EF8
330
6B
100
AcDbEntity
  8
0
  6
ByBlock
 62
     0
370
    -2
100
AcDbLine
 10
744.0658879999999
 20
267.3044910000001
 30
0.0
 11
744.7357604999998
 21
264.8044910000001
 31
0.0
  0
LINE
  5
EF9
330
6B
100
AcDbEntity
  8
0
  6
ByBlock
 62
     0
370
    -2
100
AcDbLine
 10
744.0658879999999
 20
267.3044910000001
 30
0.0
 11
744.0658879999999
 21
264.8044910000001
 31
0.0
  0
LINE
  5
EFA
330
6B
100
AcDbEntity
  8
0
  6
ByBlock
 62
     0
370
    -2
100
AcDbLine
 10
744.7357604999997
 20
239.004492
 30
0.0
 11
744.0658879999997
 21
236.504492
 31
0.0
  0
LINE
  5
EFB
330
6B
100
AcDbEntity
  8
0
  6
ByBlock
 62
     0
370
    -2
100
AcDbLine
 10
744.0658879999997
 20
236.504492
 30
0.0
 11
743.3960154999997
 21
239.004492
 31
0.0
  0
LINE
  5
EFC
330
6B
100
AcDbEntity
  8
0
  6
ByBlock
 62
     0
370
    -2
100
AcDbLine
 10
744.0658879999997
 20
236.504492
 30
0.0
 11
744.0658879999997
 21
239.004492
 31
0.0
  0
TEXT
  5
EFD
330
6B
100
AcDbEntity
  8
0
  6
Continuous
 62
     4
100
AcDbText
 10
700.3365641218394
 20
258.2663506744868
 30
0.0
 40
3.0
  1
3-\U+220511穴
 50
310.2320454663369
100
AcDbText
  0
LINE
  5
EFE
330
6B
100
AcDbEntity
  8
0
  6
ByBlock
 62
     0
370
    -2
100
AcDbLine
 10
693.6851867897234
 20
264.1234652234059
 30
0.0
 11
692.5818788958415
 21
266.4647129372444
 31
0.0
  0
LINE
  5
EFF
330
6B
100
AcDbEntity
  8
0
  6
ByBlock
 62
     0
370
    -2
100
AcDbLine
 10
692.5818788958415
 20
266.4647129372444
 30
0.0
 11
694.7079948870808
 21
264.9887861240002
 31
0.0
  0
LINE
  5
F00
330
6B
100
AcDbEntity
  8
0
  6
ByBlock
 62
     0
370
    -2
100
AcDbLine
 10
692.5818788958415
 20
266.4647129372444
 30
0.0
 11
694.1965908384021
 21
264.556125673703
 31
0.0
  0
LINE
  5
F01
330
6B
100
AcDbEntity
  8
0
  6
ByBlock
 62
     0
370
    -2
100
AcDbLine
 10
690.0576242102767
 20
270.4855177765945
 30
0.0
 11
691.1609321041586
 21
268.144270062756
 31
0.0
  0
LINE
  5
F02
330
6B
100
AcDbEntity
  8
0
  6
ByBlock
 62
     0
370
    -2
100
AcDbLine
 10
691.1609321041586
 20
268.144270062756
 30
0.0
 11
689.0348161129194
 21
269.6201968760001
 31
0.0
  0
LINE
  5
F03
330
6B
100
AcDbEntity
  8
0
  6
ByBlock
 62
     0
370
    -2
100
AcDbLine
 10
691.1609321041586
 20
268.144270062756
 30
0.0
 11
689.5462201615981
 21
270.0528573262973
 31
0.0
  0
TEXT
  5
F04
330
6B
100
AcDbEntity
  8
0
  6
Continuous
 62
     4
100
AcDbText
 10
625.6802799999998
 20
134.8462950000001
 30
0.0
 40
3.0
  1
47.7
 50
90.0
100
AcDbText
  0
LINE
  5
F05
330
6B
100
AcDbEntity
  8
0
  6
ByBlock
 62
     0
370
    -2
100
AcDbLine
 10
626.9751524999998
 20
131.721295
 30
0.0
 11
626.3052799999997
 21
129.221295
 31
0.0
  0
LINE
  5
F06
330
6B
100
AcDbEntity
  8
0
  6
ByBlock
 62
     0
370
    -2
100
AcDbLine
 10
626.3052799999997
 20
129.221295
 30
0.0
 11
625.6354074999998
 21
131.721295
 31
0.0
  0
LINE
  5
F07
330
6B
100
AcDbEntity
  8
0
  6
ByBlock
 62
     0
370
    -2
100
AcDbLine
 10
626.3052799999997
 20
129.221295
 30
0.0
 11
626.3052799999997
 21
131.721295
 31
0.0
  0
LINE
  5
F08
330
6B
100
AcDbEntity
  8
0
  6
ByBlock
 62
     0
370
    -2
100
AcDbLine
 10
625.6354074999998
 20
117.181296
 30
0.0
 11
626.3052799999997
 21
119.681296
 31
0.0
  0
LINE
  5
F09
330
6B
100
AcDbEntity
  8
0
  6
ByBlock
 62
     0
370
    -2
100
AcDbLine
 10
626.3052799999997
 20
119.681296
 30
0.0
 11
626.9751524999998
 21
117.181296
 31
0.0
  0
LINE
  5
F0A
330
6B
100
AcDbEntity
  8
0
  6
ByBlock
 62
     0
370
    -2
100
AcDbLine
 10
626.3052799999997
 20
119.681296
 30
0.0
 11
626.3052799999997
 21
117.181296
 31
0.0
  0
TEXT
  5
F0B
330
6B
100
AcDbEntity
  8
0
  6
Continuous
 62
     4
100
AcDbText
 10
680.8214059999998
 20
91.58677
 30
0.0
 40
3.0
  1
440
100
AcDbText
  0
LINE
  5
F0C
330
6B
100
AcDbEntity
  8
0
  6
ByBlock
 62
     0
370
    -2
100
AcDbLine
 10
726.0714059999997
 20
91.63164249999999
 30
0.0
 11
728.5714059999996
 21
90.96177
 31
0.0
  0
LINE
  5
F0D
330
6B
100
AcDbEntity
  8
0
  6
ByBlock
 62
     0
370
    -2
100
AcDbLine
 10
728.5714059999996
 20
90.96177
 30
0.0
 11
726.0714059999997
 21
90.2918975
 31
0.0
  0
LINE
  5
F0E
330
6B
100
AcDbEntity
  8
0
  6
ByBlock
 62
     0
370
    -2
100
AcDbLine
 10
728.5714059999996
 20
90.96177
 30
0.0
 11
726.0714059999997
 21
90.96177
 31
0.0
  0
LINE
  5
F0F
330
6B
100
AcDbEntity
  8
0
  6
ByBlock
 62
     0
370
    -2
100
AcDbLine
 10
643.0714059999997
 20
90.2918975
 30
0.0
 11
640.5714059999998
 21
90.96177
 31
0.0
  0
LINE
  5
F10
330
6B
100
AcDbEntity
  8
0
  6
ByBlock
 62
     0
370
    -2
100
AcDbLine
 10
640.5714059999998
 20
90.96177
 30
0.0
 11
643.0714059999997
 21
91.63164249999999
 31
0.0
  0
LINE
  5
F11
330
6B
100
AcDbEntity
  8
0
  6
ByBlock
 62
     0
370
    -2
100
AcDbLine
 10
640.5714059999998
 20
90.96177
 30
0.0
 11
643.0714059999997
 21
90.96177
 31
0.0
  0
TEXT
  5
F12
330
6B
100
AcDbEntity
  8
0
  6
Continuous
 62
     4
100
AcDbText
 10
670.610354
 20
134.8462950000001
 30
0.0
 40
3.0
  1
37.2
 50
90.0
100
AcDbText
  0
LINE
  5
F13
330
6B
100
AcDbEntity
  8
0
  6
ByBlock
 62
     0
370
    -2
100
AcDbLine
 10
671.9052265
 20
131.721295
 30
0.0
 11
671.235354
 21
129.221295
 31
0.0
  0
LINE
  5
F14
330
6B
100
AcDbEntity
  8
0
  6
ByBlock
 62
     0
370
    -2
100
AcDbLine
 10
671.235354
 20
129.221295
 30
0.0
 11
670.5654815
 21
131.721295
 31
0.0
  0
LINE
  5
F15
330
6B
100
AcDbEntity
  8
0
  6
ByBlock
 62
     0
370
    -2
100
AcDbLine
 10
671.235354
 20
129.221295
 30
0.0
 11
671.235354
 21
131.721295
 31
0.0
  0
LINE
  5
F16
330
6B
100
AcDbEntity
  8
0
  6
ByBlock
 62
     0
370
    -2
100
AcDbLine
 10
670.5654815
 20
119.281296
 30
0.0
 11
671.235354
 21
121.781296
 31
0.0
  0
LINE
  5
F17
330
6B
100
AcDbEntity
  8
0
  6
ByBlock
 62
     0
370
    -2
100
AcDbLine
 10
671.235354
 20
121.781296
 30
0.0
 11
671.9052265
 21
119.281296
 31
0.0
  0
LINE
  5
F18
330
6B
100
AcDbEntity
  8
0
  6
ByBlock
 62
     0
370
    -2
100
AcDbLine
 10
671.235354
 20
121.781296
 30
0.0
 11
671.235354
 21
119.281296
 31
0.0
  0
ENDSEC
  0
SECTION
  2
OBJECTS
  0
DICTIONARY
  5
C
330
0
100
AcDbDictionary
281
     1
  3
ACAD_2007HEADERVARS_RT
350
F1D
  3
ACAD_COLOR
350
62
  3
ACAD_GROUP
350
D
  3
ACAD_LAYOUT
350
61
  3
ACAD_MATERIAL
350
10
  3
ACAD_MLEADERSTYLE
350
65
  3
ACAD_MLINESTYLE
350
5E
  3
ACAD_PLOTSETTINGS
350
60
  3
ACAD_PLOTSTYLENAME
350
E
  3
ACAD_SCALELIST
350
42
  3
ACAD_TABLESTYLE
350
63
  3
ACAD_VISUALSTYLE
350
29
  3
ACDB_RECOMPOSE_DATA
350
F1B
  3
AcDbVariableDictionary
350
866
  3
AEC_PROPERTY_SET_DEFS
350
DB3
  3
DWGPROPS
350
F1C
  0
DICTIONARY
  5
55C
330
2
100
AcDbDictionary
280
     1
281
     1
  3
ACAD_LAYERSTATES
360
55D
  0
DICTIONARY
  5
864
330
54
100
AcDbDictionary
280
     1
281
     1
  3
ADSK_XREC_LAYER_RECONCILED
360
865
  0
DICTIONARY
  5
7ED
330
6B
100
AcDbDictionary
280
     1
281
     1
  3
ACAD_SORTENTS
360
7EE
  0
DICTIONARY
  5
F59
330
D7F
100
AcDbDictionary
280
     1
281
     1
  3
ACAD_MTEXT_RT
360
F5A
  0
DICTIONARY
  5
F5B
330
D87
100
AcDbDictionary
280
     1
281
     1
  3
ACAD_MTEXT_RT
360
F5C
  0
DICTIONARY
  5
F5D
330
D92
100
AcDbDictionary
280
     1
281
     1
  3
ACAD_MTEXT_RT
360
F5E
  0
DICTIONARY
  5
F1D
102
{ACAD_REACTORS
330
C
102
}
330
C
100
AcDbDictionary
281
     1
  3
DIMARCSYM
350
F1F
  3
DIMFXL
350
F1E
  3
DIMJOGANG
350
F20
  0
DICTIONARY
  5
62
102
{ACAD_REACTORS
330
C
102
}
330
C
100
AcDbDictionary
281
     1
  0
DICTIONARY
  5
D
102
{ACAD_REACTORS
330
C
102
}
330
C
100
AcDbDictionary
281
     1
  0
DICTIONARY
  5
61
102
{ACAD_REACTORS
330
C
102
}
330
C
100
AcDbDictionary
281
     1
  3
Model
350
6E
  3
レイアウト1
350
6A
  0
DICTIONARY
  5
10
102
{ACAD_REACTORS
330
C
102
}
330
C
100
AcDbDictionary
281
     1
  3
ByBlock
350
19
  3
ByLayer
350
11
  3
Global
350
21
  0
DICTIONARY
  5
65
102
{ACAD_REACTORS
330
C
102
}
330
C
100
AcDbDictionary
281
     1
  3
Standard
350
66
  0
DICTIONARY
  5
5E
102
{ACAD_REACTORS
330
C
102
}
330
C
100
AcDbDictionary
281
     1
  3
Standard
350
5F
  0
DICTIONARY
  5
60
102
{ACAD_REACTORS
330
C
102
}
330
C
100
AcDbDictionary
281
     1
  0
ACDBDICTIONARYWDFLT
  5
E
102
{ACAD_REACTORS
330
C
102
}
330
C
100
AcDbDictionary
281
     1
  3
Normal
350
F
100
AcDbDictionaryWithDefault
340
F
  0
DICTIONARY
  5
42
102
{ACAD_REACTORS
330
C
102
}
330
C
100
AcDbDictionary
281
     1
  3
A0
350
43
  3
A1
350
44
  3
A2
350
45
  3
A3
350
46
  3
A4
350
47
  3
A5
350
48
  3
A6
350
49
  3
A7
350
4A
  3
A8
350
4B
  3
A9
350
4C
  3
B0
350
4D
  3
B1
350
4E
  3
B2
350
4F
  3
B3
350
50
  3
B4
350
51
  3
B5
350
52
  3
B6
350
53
  0
DICTIONARY
  5
63
102
{ACAD_REACTORS
330
C
102
}
330
C
100
AcDbDictionary
281
     1
  3
Standard
350
64
  3
部品表
350
AD0
  0
DICTIONARY
  5
29
102
{ACAD_REACTORS
330
C
102
}
330
C
100
AcDbDictionary
281
     1
  3
2dWireframe
350
2F
  3
3dWireframe
350
55B
  3
Basic
350
2E
  3
Brighten
350
35
  3
ColorChange
350
39
  3
Conceptual
350
32
  3
Dim
350
34
  3
EdgeColorOff
350
41
  3
Facepattern
350
38
  3
Flat
350
2A
  3
FlatWithEdges
350
2B
  3
Gouraud
350
2C
  3
GouraudWithEdges
350
2D
  3
Hidden
350
31
  3
JitterOff
350
3F
  3
Linepattern
350
37
  3
OverhangOff
350
40
  3
Realistic
350
33
  3
Shaded
350
3E
  3
Shaded with edges
350
3D
  3
Shades of Gray
350
3A
  3
Sketchy
350
3B
  3
Thicken
350
36
  3
Wireframe
350
30
  3
X-Ray
350
3C
  0
XRECORD
  5
F1B
102
{ACAD_REACTORS
330
C
102
}
330
C
100
AcDbXrecord
280
     1
 90
        1
330
64
330
AD0
  0
DICTIONARY
  5
866
102
{ACAD_REACTORS
330
C
102
}
330
C
100
AcDbDictionary
281
     1
  3
CANNOSCALE
350
869
  3
CMLEADERSTYLE
350
868
  3
CTABLESTYLE
350
867
  3
DIMASSOC
350
86C
  3
INDEXCTL
350
86B
  3
SORTENTS
350
86A
  3
XCLIPFRAME
350
DB9
  0
DICTIONARY
  5
DB3
102
{ACAD_REACTORS
330
C
102
}
330
C
100
AcDbDictionary
281
     1
  0
XRECORD
  5
F1C
102
{ACAD_REACTORS
330
C
102
}
330
C
100
AcDbXrecord
280
     1
  1
DWGPROPS COOKIE
  2

  3

  4

  6

  7

  8
imamura
  9

300
=
301
=
302
=
303
=
304
=
305
=
306
=
307
=
308
=
309
=
 40
0.0424140277777778
 41
2456184.755218576
 42
2457596.67940647
  1

 90
        0
  0
DICTIONARY
  5
55D
102
{ACAD_REACTORS
330
55C
102
}
330
55C
100
AcDbDictionary
281
     1
  0
XRECORD
  5
865
102
{ACAD_REACTORS
330
864
102
}
330
864
100
AcDbXrecord
280
     1
290
     1
  0
SORTENTSTABLE
  5
7EE
102
{ACAD_REACTORS
330
7ED
102
}
330
7ED
100
AcDbSortentsTable
330
6B
331
E76
  5
1CE
331
EEC
  5
1A4
331
E6E
  5
3F6
331
EE8
  5
1AA
331
E6A
  5
3F2
331
EA9
  5
167
331
EE4
  5
1B5
331
13D
  5
1E3
331
EE0
  5
1BC
331
17E
  5
24D
331
17A
  5
249
331
1B5
  5
284
331
277
  5
3A0
331
1F5
  5
302
331
176
  5
245
331
1B1
  5
280
331
3AF
  5
E05
331
273
  5
39C
331
1F1
  5
2FE
331
172
  5
241
331
2EE
  5
422
331
1ED
  5
2FC
331
3AB
  5
E01
331
26F
  5
398
331
2EA
  5
41E
331
1E9
  5
2FA
331
36C
  5
484
331
26B
  5
394
331
3E6
  5
E3C
331
32D
  5
45B
331
425
  5
E75
331
3A7
  5
B17
331
3E2
  5
E38
331
329
  5
457
331
421
  5
E71
331
3A3
  5
B13
331
45C
  5
EA9
331
41D
  5
E6D
331
458
  5
EA5
331
E36
  5
3BE
331
E32
  5
3BA
331
E66
  5
3EE
331
E62
  5
3EA
331
EA1
  5
17A
331
EDC
  5
1BE
331
E5E
  5
3E6
331
E9D
  5
18F
331
4B5
  5
EF1
331
ED8
  5
1C5
331
F17
  5
146
331
E5A
  5
3E2
331
4B1
  5
EED
331
ED4
  5
1C7
331
F13
  5
14B
331
ED0
  5
1D2
331
1AD
  5
27C
331
16E
  5
23D
331
1A9
  5
278
331
16A
  5
239
331
1A5
  5
274
331
2E6
  5
41A
331
1E5
  5
2F6
331
166
  5
233
331
267
  5
390
331
1A1
  5
270
331
2E2
  5
40F
331
1E1
  5
2F2
331
162
  5
227
331
364
  5
47F
331
263
  5
38C
331
3DE
  5
E34
331
325
  5
44C
331
39F
  5
B0F
331
2DE
  5
40B
331
1DD
  5
2EE
331
3DA
  5
E30
331
321
  5
448
331
25F
  5
388
331
39B
  5
B0B
331
2DA
  5
400
331
1D9
  5
2EA
331
3D6
  5
E2C
331
25B
  5
384
331
48F
  5
EDB
331
454
  5
EA1
331
397
  5
B07
331
3D2
  5
E28
331
311
  5
445
331
48B
  5
ED7
331
411
  5
E64
331
393
  5
4B4
331
E2E
  5
471
331
44C
  5
E9C
331
B16
  5
F03
331
40D
  5
E60
331
487
  5
ED3
331
E2A
  5
47D
331
448
  5
E98
331
B12
  5
EFF
331
409
  5
E5C
331
483
  5
ECF
331
E26
  5
487
331
E22
  5
491
331
E56
  5
3DE
331
E95
  5
197
331
F0F
  5
155
331
E52
  5
3DA
331
E91
  5
1A3
331
ECC
  5
1D4
331
F0B
  5
161
331
E4E
  5
3D6
331
EC8
  5
1D6
331
F07
  5
175
331
E4A
  5
3D2
331
E89
  5
1AD
331
EC4
  5
1E1
331
F03
  5
185
331
EC0
  5
F17
331
19D
  5
26C
331
15E
  5
20C
331
199
  5
268
331
15A
  5
208
331
195
  5
264
331
2D6
  5
3FC
331
1D5
  5
2E6
331
156
  5
204
331
257
  5
376
331
191
  5
260
331
2D2
  5
3F8
331
1D1
  5
2E2
331
152
  5
1FC
331
354
  5
478
331
253
  5
36D
331
3CE
  5
E24
331
30D
  5
441
331
38F
  5
4B0
331
20C
  5
322
331
28E
  5
3B7
331
1CD
  5
2DE
331
3CA
  5
E20
331
309
  5
43D
331
24F
  5
364
331
38B
  5
4AB
331
208
  5
311
331
28A
  5
3B3
331
1C9
  5
2DA
331
34C
  5
473
331
24B
  5
355
331
3C6
  5
E1C
331
305
  5
439
331
B0E
  5
EFB
331
444
  5
E94
331
387
  5
4A7
331
47F
  5
ECB
331
440
  5
E90
331
3C2
  5
E18
331
301
  5
435
331
B0A
  5
EF7
331
401
  5
E57
331
47B
  5
EC7
331
E1E
  5
E58
331
43C
  5
E8C
331
B06
  5
EF3
331
3FD
  5
E53
331
477
  5
EC3
331
E1A
  5
E66
331
438
  5
E88
331
473
  5
EBF
331
3F9
  5
E4F
331
E16
  5
E9D
331
E12
  5
EAA
331
E46
  5
3CE
331
EFF
  5
187
331
E42
  5
3CA
331
E81
  5
1B7
331
EFB
  5
191
331
E3E
  5
3C6
331
E7D
  5
1C3
331
EF7
  5
193
331
EB8
  5
140
331
E3A
  5
3C2
331
EF3
  5
19A
331
EB0
  5
153
331
18D
  5
25C
331
14E
  5
1F8
331
189
  5
258
331
14A
  5
1F4
331
185
  5
254
331
204
  5
30D
331
146
  5
1EF
331
286
  5
3AF
331
1C5
  5
2D6
331
247
  5
34C
331
181
  5
250
331
282
  5
3AB
331
1C1
  5
2D2
331
142
  5
1E8
331
344
  5
46E
331
243
  5
343
331
3BE
  5
E14
331
2FD
  5
431
331
1FC
  5
309
331
27E
  5
3A7
331
1BD
  5
28C
331
340
  5
46C
331
23F
  5
33C
331
3BA
  5
E10
331
2F9
  5
42D
331
1F8
  5
305
331
27A
  5
3A3
331
1B9
  5
288
331
33C
  5
469
331
23B
  5
338
331
434
  5
E84
331
3B6
  5
E0C
331
2F5
  5
429
331
46F
  5
EB9
331
3F5
  5
E4B
331
338
  5
465
331
430
  5
E80
331
3B2
  5
E08
331
2F1
  5
425
331
4AA
  5
EE7
331
3F1
  5
E47
331
E0E
  5
F13
331
46B
  5
EB5
331
42C
  5
E7C
331
E0A
  5
F0F
331
467
  5
EB1
331
3ED
  5
E43
331
428
  5
E78
331
E06
  5
F0B
331
3E9
  5
E3F
331
E02
  5
F07
331
E75
  5
1CD
331
EEF
  5
1A0
331
E71
  5
1DB
331
EEB
  5
1A9
331
E6D
  5
3F5
331
EE7
  5
1B2
331
E69
  5
3F1
331
EA8
  5
166
331
EE3
  5
1B4
331
17D
  5
24C
331
179
  5
248
331
1B4
  5
283
331
276
  5
39F
331
1F4
  5
301
331
175
  5
244
331
1B0
  5
27F
331
3AE
  5
E04
331
272
  5
39B
331
237
  5
32C
331
171
  5
240
331
2ED
  5
421
331
233
  5
32A
331
3AA
  5
E00
331
26E
  5
397
331
2E9
  5
41D
331
1E8
  5
2F9
331
3E5
  5
E3B
331
32C
  5
45A
331
26A
  5
393
331
424
  5
E74
331
3A6
  5
B16
331
3E1
  5
E37
331
328
  5
456
331
49A
  5
EE3
331
420
  5
E70
331
3A2
  5
B12
331
45B
  5
EA8
331
41C
  5
E6C
331
492
  5
EDE
331
E35
  5
3BD
331
E31
  5
3B9
331
E65
  5
3ED
331
EDF
  5
1BB
331
E61
  5
3E9
331
EDB
  5
1BD
331
E5D
  5
3E5
331
E9C
  5
18E
331
4B4
  5
EF0
331
ED7
  5
1C4
331
F16
  5
145
331
E59
  5
3E1
331
4B0
  5
EEC
331
ED3
  5
1CC
331
F12
  5
14E
331
1AC
  5
27B
331
16D
  5
23C
331
1A8
  5
277
331
169
  5
238
331
1A4
  5
273
331
2E5
  5
412
331
1E4
  5
2F5
331
165
  5
232
331
266
  5
38F
331
1A0
  5
26F
331
227
  5
326
331
161
  5
221
331
2E1
  5
40E
331
1E0
  5
2F1
331
3DD
  5
E33
331
324
  5
44B
331
262
  5
38B
331
39E
  5
B0E
331
2DD
  5
40A
331
1DC
  5
2ED
331
3D9
  5
E2F
331
320
  5
447
331
25E
  5
387
331
457
  5
EA4
331
39A
  5
B0A
331
2D9
  5
3FF
331
1D8
  5
2E9
331
3D5
  5
E2B
331
25A
  5
37E
331
48E
  5
EDA
331
396
  5
B06
331
3D1
  5
E27
331
310
  5
444
331
48A
  5
ED6
331
410
  5
E63
331
392
  5
4B3
331
E2D
  5
477
331
44B
  5
E9B
331
B15
  5
F02
331
40C
  5
E5F
331
486
  5
ED2
331
E29
  5
483
331
B11
  5
EFE
331
482
  5
ECE
331
E25
  5
48D
331
E21
  5
E5B
331
E55
  5
3DD
331
ECF
  5
1D1
331
F0E
  5
160
331
E51
  5
3D9
331
E90
  5
1A2
331
ECB
  5
1D3
331
F0A
  5
16F
331
E4D
  5
3D5
331
EC7
  5
1DE
331
F06
  5
174
331
E49
  5
3D1
331
E88
  5
1AC
331
EC3
  5
1E0
331
F02
  5
181
331
19C
  5
26B
331
15D
  5
20B
331
198
  5
267
331
21F
  5
324
331
159
  5
207
331
B19
  5
F06
331
194
  5
263
331
2D5
  5
3FB
331
1D4
  5
2E5
331
155
  5
203
331
256
  5
375
331
190
  5
25F
331
2D1
  5
3F7
331
1D0
  5
2E1
331
151
  5
1FB
331
3CD
  5
E23
331
30C
  5
440
331
252
  5
36C
331
38E
  5
4AF
331
20B
  5
321
331
28D
  5
3B6
331
1CC
  5
2DD
331
3C9
  5
E1F
331
308
  5
43C
331
24E
  5
35E
331
447
  5
E97
331
38A
  5
4AA
331
289
  5
3B2
331
1C8
  5
2D9
331
3C5
  5
E1B
331
304
  5
438
331
24A
  5
354
331
B0D
  5
EFA
331
443
  5
E93
331
386
  5
49A
331
47E
  5
ECA
331
43F
  5
E8F
331
3C1
  5
E17
331
300
  5
434
331
B09
  5
EF6
331
400
  5
E56
331
47A
  5
EC6
331
E1D
  5
E69
331
43B
  5
E8B
331
B05
  5
EF2
331
3FC
  5
E52
331
476
  5
EC2
331
E19
  5
EA0
331
472
  5
EBE
331
3F8
  5
E4E
331
E15
  5
EAD
331
E11
  5
EE0
331
E45
  5
3CD
331
EBF
  5
F16
331
EFE
  5
186
331
E41
  5
3C9
331
EFA
  5
190
331
E3D
  5
3C5
331
E7C
  5
1C2
331
EF6
  5
196
331
EB7
  5
13F
331
E39
  5
3C1
331
EF2
  5
19F
331
18C
  5
25B
331
14D
  5
1F7
331
188
  5
257
331
207
  5
310
331
149
  5
1F3
331
184
  5
253
331
203
  5
30C
331
145
  5
1ED
331
285
  5
3AE
331
1C4
  5
2D5
331
246
  5
346
331
180
  5
24F
331
281
  5
3AA
331
1C0
  5
2D1
331
141
  5
1E7
331
343
  5
46D
331
242
  5
340
331
3BD
  5
E13
331
2FC
  5
430
331
37E
  5
490
331
1FB
  5
308
331
27D
  5
3A6
331
1BC
  5
28B
331
33F
  5
46B
331
23E
  5
33B
331
437
  5
E87
331
3B9
  5
E0F
331
2F8
  5
42C
331
279
  5
3A2
331
1B8
  5
287
331
33B
  5
468
331
23A
  5
337
331
3B5
  5
E0B
331
2F4
  5
428
331
433
  5
E83
331
376
  5
48B
331
4AD
  5
EEA
331
3F4
  5
E4A
331
46E
  5
EB8
331
42F
  5
E7F
331
3B1
  5
E07
331
2F0
  5
424
331
4A9
  5
EE6
331
3F0
  5
E46
331
E0D
  5
F12
331
46A
  5
EB4
331
42B
  5
E7B
331
E09
  5
F0E
331
466
  5
EB0
331
3EC
  5
E42
331
E05
  5
F0A
331
3E8
  5
E3E
331
EEE
  5
1A6
331
E70
  5
1DA
331
EAF
  5
14F
331
EEA
  5
1A8
331
E6C
  5
3F4
331
EAB
  5
16C
331
EE6
  5
1B1
331
E68
  5
3F0
331
13F
  5
1E5
331
EE2
  5
1B3
331
17C
  5
24B
331
1B7
  5
286
331
1F7
  5
304
331
178
  5
247
331
1B3
  5
282
331
337
  5
464
331
275
  5
39E
331
1F3
  5
300
331
174
  5
243
331
236
  5
32B
331
170
  5
23F
331
3AD
  5
E03
331
271
  5
39A
331
1EF
  5
2FD
331
2EC
  5
420
331
232
  5
329
331
427
  5
E77
331
3A9
  5
B19
331
36E
  5
486
331
26D
  5
396
331
2E8
  5
41C
331
3E4
  5
E3A
331
32B
  5
459
331
269
  5
392
331
423
  5
E73
331
3A5
  5
B15
331
3E0
  5
E36
331
499
  5
EE2
331
41F
  5
E6F
331
3A1
  5
B11
331
45A
  5
EA7
331
41B
  5
E6B
331
491
  5
EDD
331
E34
  5
3BC
331
E30
  5
3B8
331
EA7
  5
165
331
E64
  5
3EC
331
EA3
  5
17F
331
EDE
  5
1BA
331
E60
  5
3E8
331
EDA
  5
1C0
331
E5C
  5
3E4
331
E9B
  5
18D
331
4B3
  5
EEF
331
ED6
  5
1C9
331
F15
  5
14D
331
E58
  5
3E0
331
ED2
  5
1CB
331
F11
  5
15A
331
1AF
  5
27E
331
1AB
  5
27A
331
16C
  5
23B
331
1A7
  5
276
331
1E7
  5
2F8
331
168
  5
237
331
1A3
  5
272
331
2E4
  5
411
331
1E3
  5
2F4
331
164
  5
231
331
366
  5
481
331
265
  5
38E
331
327
  5
455
331
2E0
  5
40D
331
1DF
  5
2F0
331
160
  5
21F
331
3DC
  5
E32
331
323
  5
44A
331
261
  5
38A
331
39D
  5
B0D
331
2DC
  5
409
331
1DB
  5
2EC
331
3D8
  5
E2E
331
35E
  5
47C
331
25D
  5
386
331
456
  5
EA3
331
399
  5
B09
331
2D8
  5
3FE
331
3D4
  5
E2A
331
259
  5
37D
331
48D
  5
ED9
331
395
  5
B05
331
3D0
  5
E26
331
489
  5
ED5
331
40F
  5
E62
331
391
  5
4B2
331
E2C
  5
476
331
44A
  5
E9A
331
B14
  5
F01
331
40B
  5
E5E
331
485
  5
ED1
331
E28
  5
482
331
B10
  5
EFD
331
481
  5
ECD
331
E24
  5
48C
331
E20
  5
E5A
331
E97
  5
199
331
E54
  5
3DC
331
ECE
  5
1D0
331
F0D
  5
15F
331
E50
  5
3D8
331
E8F
  5
1A1
331
ECA
  5
1D8
331
F09
  5
16E
331
E4C
  5
3D4
331
E8B
  5
1AF
331
EC6
  5
1DD
331
F05
  5
173
331
E48
  5
3D0
331
EC2
  5
1DF
331
F01
  5
180
331
19F
  5
26E
331
19B
  5
26A
331
15C
  5
20A
331
197
  5
266
331
1D7
  5
2E8
331
158
  5
206
331
B18
  5
F05
331
193
  5
262
331
2D4
  5
3FA
331
1D3
  5
2E4
331
154
  5
202
331
356
  5
47A
331
255
  5
374
331
30F
  5
443
331
3CC
  5
E22
331
30B
  5
43F
331
251
  5
366
331
1CF
  5
2E0
331
150
  5
1FA
331
38D
  5
4AD
331
20A
  5
320
331
28C
  5
3B5
331
1CB
  5
2DC
331
34E
  5
475
331
24D
  5
35D
331
3C8
  5
E1E
331
307
  5
43B
331
446
  5
E96
331
389
  5
4A9
331
288
  5
3B1
331
3C4
  5
E1A
331
303
  5
437
331
249
  5
34E
331
B0C
  5
EF9
331
442
  5
E92
331
385
  5
499
331
47D
  5
EC9
331
43E
  5
E8E
331
3C0
  5
E16
331
B08
  5
EF5
331
3FF
  5
E55
331
479
  5
EC5
331
E1C
  5
E68
331
43A
  5
E8A
331
475
  5
EC1
331
3FB
  5
E51
331
E18
  5
E9F
331
471
  5
EBD
331
E14
  5
EAC
331
E10
  5
EDF
331
E87
  5
1AB
331
E44
  5
3CC
331
E83
  5
1B9
331
EBE
  5
F15
331
EFD
  5
18C
331
E40
  5
3C8
331
EF9
  5
195
331
E3C
  5
3C4
331
E7B
  5
1C1
331
EF5
  5
19C
331
EB6
  5
13E
331
E38
  5
3C0
331
EF1
  5
19E
331
18F
  5
25E
331
18B
  5
25A
331
14C
  5
1F6
331
187
  5
256
331
206
  5
30F
331
148
  5
1F2
331
1C7
  5
2D8
331
183
  5
252
331
202
  5
30B
331
144
  5
1EA
331
284
  5
3AD
331
1C3
  5
2D4
331
346
  5
470
331
245
  5
345
331
2FF
  5
433
331
280
  5
3A9
331
1BF
  5
28E
331
140
  5
1E6
331
3BC
  5
E12
331
2FB
  5
42F
331
241
  5
33F
331
37D
  5
48F
331
1FA
  5
307
331
27C
  5
3A5
331
1BB
  5
28A
331
33E
  5
46A
331
23D
  5
33A
331
436
  5
E86
331
3B8
  5
E0E
331
2F7
  5
42B
331
3F7
  5
E4D
331
278
  5
3A1
331
33A
  5
467
331
239
  5
32E
331
3B4
  5
E0A
331
2F3
  5
427
331
432
  5
E82
331
375
  5
48A
331
4AC
  5
EE9
331
3F3
  5
E49
331
46D
  5
EB7
331
42E
  5
E7E
331
3B0
  5
E06
331
4A8
  5
EE5
331
3EF
  5
E45
331
E0C
  5
F11
331
469
  5
EB3
331
42A
  5
E7A
331
E08
  5
F0D
331
465
  5
EAF
331
3EB
  5
E41
331
E04
  5
F09
331
E77
  5
1CF
331
EED
  5
1A5
331
E6F
  5
1D9
331
EE9
  5
1A7
331
E6B
  5
3F3
331
EAA
  5
16B
331
EE5
  5
1B0
331
13E
  5
1E4
331
EE1
  5
1B6
331
17F
  5
24E
331
17B
  5
24A
331
1B6
  5
285
331
1F6
  5
303
331
177
  5
246
331
1B2
  5
281
331
274
  5
39D
331
1F2
  5
2FF
331
173
  5
242
331
2EF
  5
423
331
3AC
  5
E02
331
270
  5
399
331
231
  5
328
331
2EB
  5
41F
331
1EA
  5
2FB
331
36D
  5
485
331
26C
  5
395
331
3E7
  5
E3D
331
32E
  5
45C
331
426
  5
E76
331
3A8
  5
B18
331
3E3
  5
E39
331
32A
  5
458
331
268
  5
391
331
422
  5
E72
331
3A4
  5
B14
331
498
  5
EE1
331
41E
  5
E6E
331
3A0
  5
B10
331
459
  5
EA6
331
41A
  5
E6A
331
E37
  5
3BF
331
490
  5
EDC
331
E33
  5
3BB
331
E67
  5
3EF
331
E63
  5
3EB
331
EA2
  5
17B
331
EDD
  5
1BF
331
E5F
  5
3E7
331
ED9
  5
1C6
331
F18
  5
147
331
E5B
  5
3E3
331
4B2
  5
EEE
331
ED5
  5
1C8
331
F14
  5
14C
331
ED1
  5
1CA
331
F10
  5
159
331
1AE
  5
27D
331
16F
  5
23E
331
1AA
  5
279
331
16B
  5
23A
331
1A6
  5
275
331
22D
  5
327
331
167
  5
236
331
2E7
  5
41B
331
1E6
  5
2F7
331
1A2
  5
271
331
2E3
  5
410
331
1E2
  5
2F3
331
163
  5
22D
331
365
  5
480
331
264
  5
38D
331
3DF
  5
E35
331
326
  5
454
331
2DF
  5
40C
331
1DE
  5
2EF
331
3DB
  5
E31
331
322
  5
449
331
260
  5
389
331
39C
  5
B0C
331
221
  5
325
331
2DB
  5
401
331
1DA
  5
2EB
331
3D7
  5
E2D
331
35D
  5
47B
331
25C
  5
385
331
455
  5
EA2
331
398
  5
B08
331
3D3
  5
E29
331
312
  5
446
331
258
  5
37C
331
48C
  5
ED8
331
412
  5
E65
331
394
  5
4B5
331
E2F
  5
472
331
B17
  5
F04
331
40E
  5
E61
331
390
  5
4B1
331
488
  5
ED4
331
E2B
  5
47E
331
449
  5
E99
331
B13
  5
F00
331
40A
  5
E5D
331
484
  5
ED0
331
E27
  5
488
331
480
  5
ECC
331
E23
  5
492
331
E57
  5
3DF
331
E96
  5
198
331
E53
  5
3DB
331
ECD
  5
1D5
331
F0C
  5
15B
331
E4F
  5
3D7
331
EC9
  5
1D7
331
F08
  5
16D
331
E4B
  5
3D3
331
E8A
  5
1AE
331
EC5
  5
1DC
331
F04
  5
179
331
EC1
  5
1E2
331
F00
  5
18B
331
19E
  5
26D
331
15F
  5
20D
331
19A
  5
269
331
15B
  5
209
331
196
  5
265
331
2D7
  5
3FD
331
1D6
  5
2E7
331
157
  5
205
331
192
  5
261
331
2D3
  5
3F9
331
1D2
  5
2E3
331
153
  5
201
331
355
  5
479
331
254
  5
36E
331
3CF
  5
E25
331
30E
  5
442
331
20D
  5
323
331
3CB
  5
E21
331
30A
  5
43E
331
250
  5
365
331
1CE
  5
2DF
331
38C
  5
4AC
331
209
  5
312
331
28B
  5
3B4
331
1CA
  5
2DB
331
34D
  5
474
331
24C
  5
356
331
3C7
  5
E1D
331
306
  5
43A
331
B0F
  5
EFC
331
445
  5
E95
331
388
  5
4A8
331
3C3
  5
E19
331
302
  5
436
331
248
  5
34D
331
B0B
  5
EF8
331
441
  5
E91
331
384
  5
498
331
47C
  5
EC8
331
E1F
  5
E59
331
43D
  5
E8D
331
B07
  5
EF4
331
3FE
  5
E54
331
478
  5
EC4
331
E1B
  5
E67
331
439
  5
E89
331
474
  5
EC0
331
3FA
  5
E50
331
E17
  5
E9E
331
470
  5
EBA
331
E13
  5
EAB
331
E47
  5
3CF
331
E43
  5
3CB
331
E82
  5
1B8
331
EBD
  5
F18
331
EFC
  5
192
331
E3F
  5
3C7
331
EF8
  5
194
331
EB9
  5
141
331
E3B
  5
3C3
331
EF4
  5
19B
331
EB5
  5
13D
331
EF0
  5
19D
331
EB1
  5
154
331
18E
  5
25D
331
14F
  5
1F9
331
18A
  5
259
331
14B
  5
1F5
331
186
  5
255
331
205
  5
30E
331
147
  5
1F1
331
287
  5
3B0
331
1C6
  5
2D7
331
182
  5
251
331
201
  5
30A
331
143
  5
1E9
331
283
  5
3AC
331
1C2
  5
2D3
331
345
  5
46F
331
244
  5
344
331
3BF
  5
E15
331
2FE
  5
432
331
27F
  5
3A8
331
1BE
  5
28D
331
3BB
  5
E11
331
2FA
  5
42E
331
240
  5
33E
331
37C
  5
48E
331
1F9
  5
306
331
27B
  5
3A4
331
1BA
  5
289
331
435
  5
E85
331
3B7
  5
E0D
331
2F6
  5
42A
331
23C
  5
339
331
4AF
  5
EEB
331
3F6
  5
E4C
331
339
  5
466
331
238
  5
32D
331
3B3
  5
E09
331
2F2
  5
426
331
431
  5
E81
331
374
  5
489
331
4AB
  5
EE8
331
3F2
  5
E48
331
E0F
  5
F14
331
46C
  5
EB6
331
42D
  5
E7D
331
4A7
  5
EE4
331
3EE
  5
E44
331
E0B
  5
F10
331
468
  5
EB2
331
429
  5
E79
331
E07
  5
F0C
331
464
  5
EAE
331
3EA
  5
E40
331
E03
  5
F08
  0
XRECORD
  5
F5A
102
{ACAD_REACTORS
330
F59
102
}
330
F59
100
AcDbXrecord
280
     1
 40
586.0
  1
3-\U+220511穴
  0
XRECORD
  5
F5C
102
{ACAD_REACTORS
330
F5B
102
}
330
F5B
100
AcDbXrecord
280
     1
 40
17004.0
  1
40\U+00B0{\H2.100000;\S+0\U+00B0^ -5\U+00B0;}
  0
XRECORD
  5
F5E
102
{ACAD_REACTORS
330
F5D
102
}
330
F5D
100
AcDbXrecord
280
     1
 40
17004.0
  1
40\U+00B0{\H2.100000;\S+0\U+00B0^ -5\U+00B0;}
  0
XRECORD
  5
F1F
102
{ACAD_REACTORS
330
F1D
102
}
330
F1D
100
AcDbXrecord
280
     1
 70
     2
  0
XRECORD
  5
F1E
102
{ACAD_REACTORS
330
F1D
102
}
330
F1D
100
AcDbXrecord
280
     1
 40
1.25
  0
XRECORD
  5
F20
102
{ACAD_REACTORS
330
F1D
102
}
330
F1D
100
AcDbXrecord
280
     1
 40
1.570796326794896
  0
LAYOUT
  5
6E
102
{ACAD_XDICTIONARY
360
F54
102
}
102
{ACAD_REACTORS
330
61
102
}
330
61
100
AcDbPlotSettings
  1

  2
FX DP 205
  4

  6

 40
0.0
 41
0.0
 42
0.0
 43
0.0
 44
0.0
 45
0.0
 46
0.0
 47
0.0
 48
0.0
 49
0.0
140
0.0
141
0.0
142
1.0
143
1.0
 70
  1712
 72
     0
 73
     0
 74
     0
  7

 75
     0
147
1.0
148
0.0
149
0.0
100
AcDbLayout
  1
Model
 70
     1
 71
     0
 10
0.0
 20
0.0
 11
12.0
 21
9.0
 12
0.0
 22
0.0
 32
0.0
 14
0.0
 24
0.0
 34
0.0
 15
0.0
 25
0.0
 35
0.0
146
0.0
 13
0.0
 23
0.0
 33
0.0
 16
1.0
 26
0.0
 36
0.0
 17
0.0
 27
1.0
 37
0.0
 76
     0
330
6B
331
8B
  0
LAYOUT
  5
6A
102
{ACAD_XDICTIONARY
360
F52
102
}
102
{ACAD_REACTORS
330
61
102
}
330
61
100
AcDbPlotSettings
  1

  2
FX DP 205
  4

  6

 40
0.0
 41
0.0
 42
0.0
 43
0.0
 44
0.0
 45
0.0
 46
0.0
 47
0.0
 48
0.0
 49
0.0
140
0.0
141
0.0
142
1.0
143
1.0
 70
   688
 72
     0
 73
     0
 74
     5
  7

 75
    16
147
1.0
148
0.0
149
0.0
100
AcDbLayout
  1
レイアウト1
 70
     1
 71
     1
 10
0.0
 20
0.0
 11
12.0
 21
9.0
 12
0.0
 22
0.0
 32
0.0
 14
1.000000000000000E+20
 24
1.000000000000000E+20
 34
1.000000000000000E+20
 15
-1.000000000000000E+20
 25
-1.000000000000000E+20
 35
-1.000000000000000E+20
146
0.0
 13
0.0
 23
0.0
 33
0.0
 16
1.0
 26
0.0
 36
0.0
 17
0.0
 27
1.0
 37
0.0
 76
     0
330
67
  0
MATERIAL
  5
19
102
{ACAD_XDICTIONARY
360
1A
102
}
102
{ACAD_REACTORS
330
10
102
}
330
10
100
AcDbMaterial
  1
ByBlock
 72
     0
 43
0.0208333333333333
 43
0.0
 43
0.0
 43
0.0
 43
0.0
 43
0.0208333333333333
 43
0.0
 43
0.0
 43
0.0
 43
0.0
 43
1.0
 43
0.0
 43
0.0
 43
0.0
 43
0.0
 43
1.0
 77
     0
 47
0.0208333333333333
 47
0.0
 47
0.0
 47
0.0
 47
0.0
 47
0.0208333333333333
 47
0.0
 47
0.0
 47
0.0
 47
0.0
 47
1.0
 47
0.0
 47
0.0
 47
0.0
 47
0.0
 47
1.0
171
     0
 49
0.0208333333333333
 49
0.0
 49
0.0
 49
0.0
 49
0.0
 49
0.0208333333333333
 49
0.0
 49
0.0
 49
0.0
 49
0.0
 49
1.0
 49
0.0
 49
0.0
 49
0.0
 49
0.0
 49
1.0
175
     0
142
0.0208333333333333
142
0.0
142
0.0
142
0.0
142
0.0
142
0.0208333333333333
142
0.0
142
0.0
142
0.0
142
0.0
142
1.0
142
0.0
142
0.0
142
0.0
142
0.0
142
1.0
179
     0
144
0.0208333333333333
144
0.0
144
0.0
144
0.0
144
0.0
144
0.0208333333333333
144
0.0
144
0.0
144
0.0
144
0.0
144
1.0
144
0.0
144
0.0
144
0.0
144
0.0
144
1.0
147
0.0208333333333333
147
0.0
147
0.0
147
0.0
147
0.0
147
0.0208333333333333
147
0.0
147
0.0
147
0.0
147
0.0
147
1.0
147
0.0
147
0.0
147
0.0
147
0.0
147
1.0
  0
MATERIAL
  5
11
102
{ACAD_XDICTIONARY
360
12
102
}
102
{ACAD_REACTORS
330
10
102
}
330
10
100
AcDbMaterial
  1
ByLayer
 72
     0
 43
0.0208333333333333
 43
0.0
 43
0.0
 43
0.0
 43
0.0
 43
0.0208333333333333
 43
0.0
 43
0.0
 43
0.0
 43
0.0
 43
1.0
 43
0.0
 43
0.0
 43
0.0
 43
0.0
 43
1.0
 77
     0
 47
0.0208333333333333
 47
0.0
 47
0.0
 47
0.0
 47
0.0
 47
0.0208333333333333
 47
0.0
 47
0.0
 47
0.0
 47
0.0
 47
1.0
 47
0.0
 47
0.0
 47
0.0
 47
0.0
 47
1.0
171
     0
 49
0.0208333333333333
 49
0.0
 49
0.0
 49
0.0
 49
0.0
 49
0.0208333333333333
 49
0.0
 49
0.0
 49
0.0
 49
0.0
 49
1.0
 49
0.0
 49
0.0
 49
0.0
 49
0.0
 49
1.0
175
     0
142
0.0208333333333333
142
0.0
142
0.0
142
0.0
142
0.0
142
0.0208333333333333
142
0.0
142
0.0
142
0.0
142
0.0
142
1.0
142
0.0
142
0.0
142
0.0
142
0.0
142
1.0
179
     0
144
0.0208333333333333
144
0.0
144
0.0
144
0.0
144
0.0
144
0.0208333333333333
144
0.0
144
0.0
144
0.0
144
0.0
144
1.0
144
0.0
144
0.0
144
0.0
144
0.0
144
1.0
147
0.0208333333333333
147
0.0
147
0.0
147
0.0
147
0.0
147
0.0208333333333333
147
0.0
147
0.0
147
0.0
147
0.0
147
1.0
147
0.0
147
0.0
147
0.0
147
0.0
147
1.0
  0
MATERIAL
  5
21
102
{ACAD_XDICTIONARY
360
22
102
}
102
{ACAD_REACTORS
330
10
102
}
330
10
100
AcDbMaterial
  1
Global
 72
     0
 43
0.0208333333333333
 43
0.0
 43
0.0
 43
0.0
 43
0.0
 43
0.0208333333333333
 43
0.0
 43
0.0
 43
0.0
 43
0.0
 43
1.0
 43
0.0
 43
0.0
 43
0.0
 43
0.0
 43
1.0
 77
     0
 47
0.0208333333333333
 47
0.0
 47
0.0
 47
0.0
 47
0.0
 47
0.0208333333333333
 47
0.0
 47
0.0
 47
0.0
 47
0.0
 47
1.0
 47
0.0
 47
0.0
 47
0.0
 47
0.0
 47
1.0
171
     0
 49
0.0208333333333333
 49
0.0
 49
0.0
 49
0.0
 49
0.0
 49
0.0208333333333333
 49
0.0
 49
0.0
 49
0.0
 49
0.0
 49
1.0
 49
0.0
 49
0.0
 49
0.0
 49
0.0
 49
1.0
175
     0
142
0.0208333333333333
142
0.0
142
0.0
142
0.0
142
0.0
142
0.0208333333333333
142
0.0
142
0.0
142
0.0
142
0.0
142
1.0
142
0.0
142
0.0
142
0.0
142
0.0
142
1.0
179
     0
144
0.0208333333333333
144
0.0
144
0.0
144
0.0
144
0.0
144
0.0208333333333333
144
0.0
144
0.0
144
0.0
144
0.0
144
1.0
144
0.0
144
0.0
144
0.0
144
0.0
144
1.0
147
0.0208333333333333
147
0.0
147
0.0
147
0.0
147
0.0
147
0.0208333333333333
147
0.0
147
0.0
147
0.0
147
0.0
147
1.0
147
0.0
147
0.0
147
0.0
147
0.0
147
1.0
  0
MLEADERSTYLE
  5
66
102
{ACAD_REACTORS
330
65
102
}
330
65
100
AcDbMLeaderStyle
170
     2
171
     1
172
     0
 90
        2
 40
0.0
 41
0.0
173
     1
 91
-1056964608
340
5A
 92
       -2
290
     1
 42
0.09
291
     1
 43
0.36
  3
Standard
 44
0.18
300

342
55
174
     1
178
     6
175
     1
176
     0
 93
-1056964608
 45
0.18
292
     0
297
     0
 46
0.18
 94
-1056964608
 47
1.0
 49
1.0
140
1.0
293
     1
141
0.0
294
     1
177
     0
142
1.0
295
     0
296
     0
143
0.125
1001
ACAD_MLEADERVER
1070
     2
  0
MLINESTYLE
  5
5F
102
{ACAD_REACTORS
330
5E
102
}
330
5E
100
AcDbMlineStyle
  2
STANDARD
 70
     0
  3

 62
   256
 51
90.0
 52
90.0
 71
     2
 49
0.5
 62
   256
  6
BYLAYER
 49
-0.5
 62
   256
  6
BYLAYER
  0
ACDBPLACEHOLDER
  5
F
102
{ACAD_REACTORS
330
E
102
}
330
E
  0
SCALE
  5
43
102
{ACAD_REACTORS
330
42
102
}
330
42
100
AcDbScale
 70
     0
300
1:1
140
1.0
141
1.0
290
     1
  0
SCALE
  5
44
102
{ACAD_REACTORS
330
42
102
}
330
42
100
AcDbScale
 70
     0
300
1/128" = 1'-0"
140
0.0078125
141
12.0
290
     0
  0
SCALE
  5
45
102
{ACAD_REACTORS
330
42
102
}
330
42
100
AcDbScale
 70
     0
300
1/64" = 1'-0"
140
0.015625
141
12.0
290
     0
  0
SCALE
  5
46
102
{ACAD_REACTORS
330
42
102
}
330
42
100
AcDbScale
 70
     0
300
1/32" = 1'-0"
140
0.03125
141
12.0
290
     0
  0
SCALE
  5
47
102
{ACAD_REACTORS
330
42
102
}
330
42
100
AcDbScale
 70
     0
300
1/16" = 1'-0"
140
0.0625
141
12.0
290
     0
  0
SCALE
  5
48
102
{ACAD_REACTORS
330
42
102
}
330
42
100
AcDbScale
 70
     0
300
3/32" = 1'-0"
140
0.09375
141
12.0
290
     0
  0
SCALE
  5
49
102
{ACAD_REACTORS
330
42
102
}
330
42
100
AcDbScale
 70
     0
300
1/8" = 1'-0"
140
0.125
141
12.0
290
     0
  0
SCALE
  5
4A
102
{ACAD_REACTORS
330
42
102
}
330
42
100
AcDbScale
 70
     0
300
3/16" = 1'-0"
140
0.1875
141
12.0
290
     0
  0
SCALE
  5
4B
102
{ACAD_REACTORS
330
42
102
}
330
42
100
AcDbScale
 70
     0
300
1/4" = 1'-0"
140
0.25
141
12.0
290
     0
  0
SCALE
  5
4C
102
{ACAD_REACTORS
330
42
102
}
330
42
100
AcDbScale
 70
     0
300
3/8" = 1'-0"
140
0.375
141
12.0
290
     0
  0
SCALE
  5
4D
102
{ACAD_REACTORS
330
42
102
}
330
42
100
AcDbScale
 70
     0
300
1/2" = 1'-0"
140
0.5
141
12.0
290
     0
  0
SCALE
  5
4E
102
{ACAD_REACTORS
330
42
102
}
330
42
100
AcDbScale
 70
     0
300
3/4" = 1'-0"
140
0.75
141
12.0
290
     0
  0
SCALE
  5
4F
102
{ACAD_REACTORS
330
42
102
}
330
42
100
AcDbScale
 70
     0
300
1" = 1'-0"
140
1.0
141
12.0
290
     0
  0
SCALE
  5
50
102
{ACAD_REACTORS
330
42
102
}
330
42
100
AcDbScale
 70
     0
300
1-1/2" = 1'-0"
140
1.5
141
12.0
290
     0
  0
SCALE
  5
51
102
{ACAD_REACTORS
330
42
102
}
330
42
100
AcDbScale
 70
     0
300
3" = 1'-0"
140
3.0
141
12.0
290
     0
  0
SCALE
  5
52
102
{ACAD_REACTORS
330
42
102
}
330
42
100
AcDbScale
 70
     0
300
6" = 1'-0"
140
6.0
141
12.0
290
     0
  0
SCALE
  5
53
102
{ACAD_REACTORS
330
42
102
}
330
42
100
AcDbScale
 70
     0
300
1'-0" = 1'-0"
140
12.0
141
12.0
290
     0
  0
TABLESTYLE
  5
64
102
{ACAD_XDICTIONARY
360
8B9
102
}
102
{ACAD_REACTORS
330
63
102
}
330
63
100
AcDbTableStyle
  3
Standard
 70
     0
 71
     0
 40
0.06
 41
0.06
280
     0
281
     0
  7
STANDARD
140
0.18
170
     2
 62
     0
 63
     7
283
     0
274
    -2
284
     1
 64
     0
275
    -2
285
     1
 65
     0
276
    -2
286
     1
 66
     0
277
    -2
287
     1
 67
     0
278
    -2
288
     1
 68
     0
279
    -2
289
     1
 69
     0
  7
STANDARD
140
0.25
170
     5
 62
     0
 63
     7
283
     0
274
    -2
284
     1
 64
     0
275
    -2
285
     1
 65
     0
276
    -2
286
     1
 66
     0
277
    -2
287
     1
 67
     0
278
    -2
288
     1
 68
     0
279
    -2
289
     1
 69
     0
  7
STANDARD
140
0.18
170
     5
 62
     0
 63
     7
283
     0
274
    -2
284
     1
 64
     0
275
    -2
285
     1
 65
     0
276
    -2
286
     1
 66
     0
277
    -2
287
     1
 67
     0
278
    -2
288
     1
 68
     0
279
    -2
289
     1
 69
     0
  0
TABLESTYLE
  5
AD0
102
{ACAD_XDICTIONARY
360
AD1
102
}
102
{ACAD_REACTORS
330
63
102
}
330
63
100
AcDbTableStyle
  3
Standard
 70
     1
 71
     0
 40
1.5
 41
0.5
280
     0
281
     0
  7
高3.2
140
0.18
170
     7
 62
     3
 63
     7
283
     0
274
    -2
284
     1
 64
     3
275
    -2
285
     1
 65
     7
276
    -2
286
     1
 66
     3
277
    -2
287
     1
 67
     3
278
    -2
288
     1
 68
     7
279
    -2
289
     1
 69
     3
  7
高3.2
140
0.25
170
     8
 62
     3
 63
     7
283
     0
274
    -2
284
     1
 64
     0
275
    -2
285
     1
 65
     0
276
    -2
286
     1
 66
     0
277
    -2
287
     1
 67
     0
278
    -2
288
     1
 68
     0
279
    -2
289
     1
 69
     0
  7
高3.2
140
0.18
170
     7
 62
     3
 63
     7
283
     0
274
    -2
284
     1
 64
     3
275
    -2
285
     1
 65
     7
276
    -2
286
     1
 66
     3
277
    -2
287
     1
 67
     3
278
    -2
288
     1
 68
     7
279
    -2
289
     1
 69
     3
  0
VISUALSTYLE
  5
2F
102
{ACAD_XDICTIONARY
360
F2B
102
}
102
{ACAD_REACTORS
330
29
102
}
330
29
100
AcDbVisualStyle
  2

 70
     4
 71
     0
 72
     2
 73
     0
 90
        0
 40
-0.6
 41
-30.0
 62
     5
 63
     7
 74
     1
 91
        4
 64
     7
 65
   257
 75
     1
175
     1
 42
1.0
 92
        0
 66
   257
 43
1.0
 76
     1
 77
     6
 78
     2
 67
     7
 79
     5
170
     0
171
     0
290
     0
174
     0
 93
        1
 44
0.0
173
     0
291
     0
 45
0.0
1001
ACAD
1000
AcDbSavedByObjectVersion
1070
     0
  0
VISUALSTYLE
  5
55B
102
{ACAD_XDICTIONARY
360
F56
102
}
102
{ACAD_REACTORS
330
29
102
}
330
29
100
AcDbVisualStyle
  2

 70
     5
 71
     0
 72
     2
 73
     1
 90
        0
 40
-0.6
 41
-30.0
 62
     5
 63
     7
 74
     1
 91
        4
 64
     7
 65
   257
 75
     1
175
     1
 42
1.0
 92
        0
 66
   257
 43
1.0
 76
     1
 77
     6
 78
     2
 67
     7
 79
     5
170
     0
171
     0
290
     0
174
     0
 93
        1
 44
0.0
173
     0
291
     0
 45
0.0
1001
ACAD
1000
AcDbSavedByObjectVersion
1070
     0
  0
VISUALSTYLE
  5
2E
102
{ACAD_XDICTIONARY
360
F29
102
}
102
{ACAD_REACTORS
330
29
102
}
330
29
100
AcDbVisualStyle
  2

 70
     7
 71
     1
 72
     0
 73
     1
 90
        0
 40
-0.6
 41
-30.0
 62
     5
 63
     7
 74
     0
 91
        4
 64
     7
 65
   257
 75
     1
175
     1
 42
1.0
 92
        8
 66
     7
 43
1.0
 76
     1
 77
     6
 78
     2
 67
     7
 79
     5
170
     0
171
     0
290
     0
174
     0
 93
        1
 44
0.0
173
     0
291
     1
 45
0.0
1001
ACAD
1000
AcDbSavedByObjectVersion
1070
     0
  0
VISUALSTYLE
  5
35
102
{ACAD_XDICTIONARY
360
F37
102
}
102
{ACAD_REACTORS
330
29
102
}
330
29
100
AcDbVisualStyle
  2

 70
    12
 71
     2
 72
     2
 73
     0
 90
        0
 40
-0.6
 41
-30.0
 62
     5
 63
     7
 74
     1
 91
        4
 64
     7
 65
   257
 75
     1
175
     1
 42
1.0
 92
        8
 66
     7
 43
1.0
 76
     1
 77
     6
 78
     2
 67
     7
 79
     5
170
     0
171
     0
290
     0
174
     0
 93
        1
 44
50.0
173
     0
291
     1
 45
0.0
1001
ACAD
1000
AcDbSavedByObjectVersion
1070
     0
  0
VISUALSTYLE
  5
39
102
{ACAD_XDICTIONARY
360
F3F
102
}
102
{ACAD_REACTORS
330
29
102
}
330
29
100
AcDbVisualStyle
  2

 70
    16
 71
     2
 72
     2
 73
     3
 90
        0
 40
-0.6
 41
-30.0
 62
     5
 63
     8
 74
     1
 91
        4
 64
     7
 65
   257
 75
     1
175
     1
 42
1.0
 92
        8
 66
     8
 43
1.0
 76
     1
 77
     6
 78
     2
 67
     7
 79
     5
170
     0
171
     0
290
     0
174
     0
 93
        1
 44
0.0
173
     0
291
     1
 45
0.0
1001
ACAD
1000
AcDbSavedByObjectVersion
1070
     0
  0
VISUALSTYLE
  5
32
102
{ACAD_XDICTIONARY
360
F31
102
}
102
{ACAD_REACTORS
330
29
102
}
330
29
100
AcDbVisualStyle
  2

 70
     9
 71
     3
 72
     2
 73
     0
 90
        0
 40
-0.6
 41
-30.0
 62
     5
 63
     7
 74
     2
 91
        2
 64
     7
 65
   257
 75
     1
175
     1
 42
179.0
 92
        8
 66
     7
 43
1.0
 76
     1
 77
     6
 78
     2
 67
     7
 79
     3
170
     0
171
     0
290
     0
174
     0
 93
        1
 44
0.0
173
     0
291
     0
 45
0.0
1001
ACAD
1000
AcDbSavedByObjectVersion
1070
     0
  0
VISUALSTYLE
  5
34
102
{ACAD_XDICTIONARY
360
F35
102
}
102
{ACAD_REACTORS
330
29
102
}
330
29
100
AcDbVisualStyle
  2

 70
    11
 71
     2
 72
     2
 73
     0
 90
        0
 40
-0.6
 41
-30.0
 62
     5
 63
     7
 74
     1
 91
        4
 64
     7
 65
   257
 75
     1
175
     1
 42
1.0
 92
        8
 66
     7
 43
1.0
 76
     1
 77
     6
 78
     2
 67
     7
 79
     5
170
     0
171
     0
290
     0
174
     0
 93
        1
 44
-50.0
173
     0
291
     1
 45
0.0
1001
ACAD
1000
AcDbSavedByObjectVersion
1070
     0
  0
VISUALSTYLE
  5
41
102
{ACAD_XDICTIONARY
360
F4F
102
}
102
{ACAD_REACTORS
330
29
102
}
330
29
100
AcDbVisualStyle
  2

 70
    22
 71
     2
 72
     2
 73
     0
 90
        0
 40
-0.6
 41
-30.0
 62
     5
 63
     7
 74
     1
 91
        4
 64
     7
 65
   257
 75
     1
175
     1
 42
1.0
 92
        8
 66
     7
 43
1.0
 76
     1
 77
     6
 78
     2
 67
     7
 79
     5
170
     0
171
     0
290
     0
174
     0
 93
        1
 44
0.0
173
     0
291
     1
 45
0.0
1001
ACAD
1000
AcDbSavedByObjectVersion
1070
     0
  0
VISUALSTYLE
  5
38
102
{ACAD_XDICTIONARY
360
F3D
102
}
102
{ACAD_REACTORS
330
29
102
}
330
29
100
AcDbVisualStyle
  2

 70
    15
 71
     2
 72
     2
 73
     0
 90
        0
 40
-0.6
 41
-30.0
 62
     5
 63
     7
 74
     1
 91
        4
 64
     7
 65
   257
 75
     1
175
     1
 42
1.0
 92
        8
 66
     7
 43
1.0
 76
     1
 77
     6
 78
     2
 67
     7
 79
     5
170
     0
171
     0
290
     0
174
     0
 93
        1
 44
0.0
173
     0
291
     1
 45
0.0
1001
ACAD
1000
AcDbSavedByObjectVersion
1070
     0
  0
VISUALSTYLE
  5
2A
102
{ACAD_XDICTIONARY
360
F21
102
}
102
{ACAD_REACTORS
330
29
102
}
330
29
100
AcDbVisualStyle
  2

 70
     0
 71
     2
 72
     1
 73
     1
 90
        2
 40
-0.6
 41
30.0
 62
     5
 63
     7
 74
     0
 91
        0
 64
     7
 65
   257
 75
     1
175
     1
 42
1.0
 92
        8
 66
     7
 43
1.0
 76
     1
 77
     6
 78
     2
 67
     7
 79
     5
170
     0
171
     0
290
     0
174
     0
 93
       13
 44
0.0
173
     0
291
     1
 45
0.0
1001
ACAD
1000
AcDbSavedByObjectVersion
1070
     0
  0
VISUALSTYLE
  5
2B
102
{ACAD_XDICTIONARY
360
F23
102
}
102
{ACAD_REACTORS
330
29
102
}
330
29
100
AcDbVisualStyle
  2

 70
     1
 71
     2
 72
     1
 73
     1
 90
        2
 40
-0.6
 41
30.0
 62
     5
 63
     7
 74
     1
 91
        0
 64
     7
 65
   257
 75
     1
175
     1
 42
1.0
 92
        0
 66
   257
 43
1.0
 76
     1
 77
     6
 78
     2
 67
     7
 79
     5
170
     0
171
     0
290
     0
174
     0
 93
       13
 44
0.0
173
     0
291
     1
 45
0.0
1001
ACAD
1000
AcDbSavedByObjectVersion
1070
     0
  0
VISUALSTYLE
  5
2C
102
{ACAD_XDICTIONARY
360
F25
102
}
102
{ACAD_REACTORS
330
29
102
}
330
29
100
AcDbVisualStyle
  2

 70
     2
 71
     2
 72
     2
 73
     1
 90
        2
 40
-0.6
 41
30.0
 62
     5
 63
     7
 74
     0
 91
        0
 64
     7
 65
   257
 75
     1
175
     1
 42
1.0
 92
        0
 66
     7
 43
1.0
 76
     1
 77
     6
 78
     2
 67
     7
 79
     5
170
     0
171
     0
290
     0
174
     0
 93
       13
 44
0.0
173
     0
291
     1
 45
0.0
1001
ACAD
1000
AcDbSavedByObjectVersion
1070
     0
  0
VISUALSTYLE
  5
2D
102
{ACAD_XDICTIONARY
360
F27
102
}
102
{ACAD_REACTORS
330
29
102
}
330
29
100
AcDbVisualStyle
  2

 70
     3
 71
     2
 72
     2
 73
     1
 90
        2
 40
-0.6
 41
30.0
 62
     5
 63
     7
 74
     1
 91
        0
 64
     7
 65
   257
 75
     1
175
     1
 42
1.0
 92
        0
 66
   257
 43
1.0
 76
     1
 77
     6
 78
     2
 67
     7
 79
     5
170
     0
171
     0
290
     0
174
     0
 93
       13
 44
0.0
173
     0
291
     1
 45
0.0
1001
ACAD
1000
AcDbSavedByObjectVersion
1070
     0
  0
VISUALSTYLE
  5
31
102
{ACAD_XDICTIONARY
360
F2F
102
}
102
{ACAD_REACTORS
330
29
102
}
330
29
100
AcDbVisualStyle
  2

 70
     6
 71
     1
 72
     2
 73
     2
 90
        0
 40
-0.6
 41
-30.0
 62
     5
 63
     7
 74
     2
 91
        2
 64
     7
 65
   257
 75
     2
175
     1
 42
40.0
 92
        0
 66
   257
 43
1.0
 76
     1
 77
     6
 78
     2
 67
     7
 79
     3
170
     0
171
     0
290
     0
174
     0
 93
        1
 44
0.0
173
     0
291
     0
 45
0.0
1001
ACAD
1000
AcDbSavedByObjectVersion
1070
     0
  0
VISUALSTYLE
  5
3F
102
{ACAD_XDICTIONARY
360
F4B
102
}
102
{ACAD_REACTORS
330
29
102
}
330
29
100
AcDbVisualStyle
  2

 70
    20
 71
     2
 72
     2
 73
     0
 90
        0
 40
-0.6
 41
-30.0
 62
     5
 63
     7
 74
     1
 91
        4
 64
     7
 65
   257
 75
     1
175
     1
 42
1.0
 92
       10
 66
     7
 43
1.0
 76
     1
 77
     6
 78
     2
 67
     7
 79
     5
170
     0
171
     0
290
     0
174
     0
 93
        1
 44
0.0
173
     0
291
     1
 45
0.0
1001
ACAD
1000
AcDbSavedByObjectVersion
1070
     0
  0
VISUALSTYLE
  5
37
102
{ACAD_XDICTIONARY
360
F3B
102
}
102
{ACAD_REACTORS
330
29
102
}
330
29
100
AcDbVisualStyle
  2

 70
    14
 71
     2
 72
     2
 73
     0
 90
        0
 40
-0.6
 41
-30.0
 62
     5
 63
     7
 74
     1
 91
        4
 64
     7
 65
   257
 75
     7
175
     7
 42
1.0
 92
        8
 66
     7
 43
1.0
 76
     1
 77
     6
 78
     2
 67
     7
 79
     5
170
     0
171
     0
290
     0
174
     0
 93
        1
 44
0.0
173
     0
291
     1
 45
0.0
1001
ACAD
1000
AcDbSavedByObjectVersion
1070
     0
  0
VISUALSTYLE
  5
40
102
{ACAD_XDICTIONARY
360
F4D
102
}
102
{ACAD_REACTORS
330
29
102
}
330
29
100
AcDbVisualStyle
  2

 70
    21
 71
     2
 72
     2
 73
     0
 90
        0
 40
-0.6
 41
-30.0
 62
     5
 63
     7
 74
     1
 91
        4
 64
     7
 65
   257
 75
     1
175
     1
 42
1.0
 92
        9
 66
     7
 43
1.0
 76
     1
 77
     6
 78
     2
 67
     7
 79
     5
170
     0
171
     0
290
     0
174
     0
 93
        1
 44
0.0
173
     0
291
     1
 45
0.0
1001
ACAD
1000
AcDbSavedByObjectVersion
1070
     0
  0
VISUALSTYLE
  5
33
102
{ACAD_XDICTIONARY
360
F33
102
}
102
{ACAD_REACTORS
330
29
102
}
330
29
100
AcDbVisualStyle
  2

 70
     8
 71
     2
 72
     3
 73
     0
 90
        2
 40
-0.6
 41
30.0
 62
     5
 63
     7
 74
     0
 91
        0
 64
     7
 65
   257
 75
     1
175
     1
 42
1.0
 92
        8
 66
   257
 43
1.0
 76
     1
 77
     6
 78
     2
 67
     7
 79
     3
170
     0
171
     0
290
     0
174
     0
 93
       13
 44
0.0
173
     0
291
     0
 45
0.0
1001
ACAD
1000
AcDbSavedByObjectVersion
1070
     0
  0
VISUALSTYLE
  5
3E
102
{ACAD_XDICTIONARY
360
F49
102
}
102
{ACAD_REACTORS
330
29
102
}
330
29
100
AcDbVisualStyle
  2

 70
    27
 71
     2
 72
     2
 73
     1
 90
        2
 40
-0.6
 41
30.0
 62
     5
 63
     7
 74
     0
 91
        4
 64
     7
 65
   257
 75
     1
175
     1
 42
1.0
 92
        8
 66
   257
 43
1.0
 76
     1
 77
     6
 78
     2
 67
     8
 79
     3
170
     0
171
     0
290
     0
174
     0
 93
        5
 44
0.0
173
     0
291
     0
 45
0.0
1001
ACAD
1000
AcDbSavedByObjectVersion
1070
     0
  0
VISUALSTYLE
  5
3D
102
{ACAD_XDICTIONARY
360
F47
102
}
102
{ACAD_REACTORS
330
29
102
}
330
29
100
AcDbVisualStyle
  2

 70
    26
 71
     2
 72
     2
 73
     1
 90
        2
 40
-0.6
 41
30.0
 62
     5
 63
     7
 74
     1
 91
       10
 64
     7
 65
   257
 75
     2
175
     1
 42
1.0
 92
        8
 66
   257
 43
1.0
 76
     1
 77
     6
 78
     2
 67
     7
 79
     3
170
     0
171
     0
290
     0
174
     0
 93
        5
 44
0.0
173
     0
291
     0
 45
0.0
1001
ACAD
1000
AcDbSavedByObjectVersion
1070
     0
  0
VISUALSTYLE
  5
3A
102
{ACAD_XDICTIONARY
360
F41
102
}
102
{ACAD_REACTORS
330
29
102
}
330
29
100
AcDbVisualStyle
  2

 70
    23
 71
     2
 72
     2
 73
     3
 90
        0
 40
-0.6
 41
-30.0
 62
     5
 63
     7
 74
     2
 91
        2
 64
     7
 65
     7
 75
     1
175
     1
 42
40.0
 92
        8
 66
     7
 43
1.0
 76
     1
 77
     6
 78
     2
 67
     7
 79
     3
170
     0
171
     0
290
     0
174
     0
 93
        1
 44
0.0
173
     0
291
     0
 45
0.0
1001
ACAD
1000
AcDbSavedByObjectVersion
1070
     0
  0
VISUALSTYLE
  5
3B
102
{ACAD_XDICTIONARY
360
F43
102
}
102
{ACAD_REACTORS
330
29
102
}
330
29
100
AcDbVisualStyle
  2

 70
    24
 71
     1
 72
     2
 73
     2
 90
        0
 40
-0.6
 41
-30.0
 62
     5
 63
     7
 74
     2
 91
        2
 64
     7
 65
     7
 75
     1
175
     1
 42
40.0
 92
       11
 66
     7
 43
1.0
 76
     1
 77
     6
 78
     2
 67
     7
 79
     6
170
     0
171
     0
290
     0
174
     0
 93
        1
 44
0.0
173
     0
291
     0
 45
0.0
1001
ACAD
1000
AcDbSavedByObjectVersion
1070
     0
  0
VISUALSTYLE
  5
36
102
{ACAD_XDICTIONARY
360
F39
102
}
102
{ACAD_REACTORS
330
29
102
}
330
29
100
AcDbVisualStyle
  2

 70
    13
 71
     2
 72
     2
 73
     0
 90
        0
 40
-0.6
 41
-30.0
 62
     5
 63
     7
 74
     1
 91
        4
 64
     7
 65
   257
 75
     1
175
     1
 42
1.0
 92
       12
 66
     7
 43
1.0
 76
     1
 77
     6
 78
     2
 67
     7
 79
     5
170
     0
171
     0
290
     0
174
     0
 93
        1
 44
0.0
173
     0
291
     1
 45
0.0
1001
ACAD
1000
AcDbSavedByObjectVersion
1070
     0
  0
VISUALSTYLE
  5
30
102
{ACAD_XDICTIONARY
360
F2D
102
}
102
{ACAD_REACTORS
330
29
102
}
330
29
100
AcDbVisualStyle
  2

 70
     5
 71
     0
 72
     2
 73
     0
 90
        0
 40
-0.6
 41
-30.0
 62
     5
 63
     7
 74
     1
 91
        4
 64
     7
 65
   257
 75
     1
175
     1
 42
1.0
 92
        0
 66
   257
 43
1.0
 76
     1
 77
     6
 78
     2
 67
     7
 79
     3
170
     0
171
     0
290
     0
174
     0
 93
        1
 44
0.0
173
     0
291
     0
 45
0.0
1001
ACAD
1000
AcDbSavedByObjectVersion
1070
     0
  0
VISUALSTYLE
  5
3C
102
{ACAD_XDICTIONARY
360
F45
102
}
102
{ACAD_REACTORS
330
29
102
}
330
29
100
AcDbVisualStyle
  2

 70
    25
 71
     2
 72
     2
 73
     1
 90
        1
 40
0.5
 41
-30.0
 62
     5
 63
     7
 74
     1
 91
        0
 64
     7
 65
   257
 75
     1
175
     1
 42
1.0
 92
        8
 66
     7
 43
1.0
 76
     1
 77
     6
 78
     2
 67
     7
 79
     3
170
     0
171
     0
290
     0
174
     0
 93
       13
 44
0.0
173
     0
291
     0
 45
0.0
1001
ACAD
1000
AcDbSavedByObjectVersion
1070
     0
  0
DICTIONARYVAR
  5
869
102
{ACAD_REACTORS
330
866
102
}
330
866
100
DictionaryVariables
280
     0
  1
1:1
  0
DICTIONARYVAR
  5
868
102
{ACAD_REACTORS
330
866
102
}
330
866
100
DictionaryVariables
280
     0
  1
STANDARD
  0
DICTIONARYVAR
  5
867
102
{ACAD_REACTORS
330
866
102
}
330
866
100
DictionaryVariables
280
     0
  1
STANDARD
  0
DICTIONARYVAR
  5
86C
102
{ACAD_REACTORS
330
866
102
}
330
866
100
DictionaryVariables
280
     0
  1
1
  0
DICTIONARYVAR
  5
86B
102
{ACAD_REACTORS
330
866
102
}
330
866
100
DictionaryVariables
280
     0
  1
0
  0
DICTIONARYVAR
  5
86A
102
{ACAD_REACTORS
330
866
102
}
330
866
100
DictionaryVariables
280
     0
  1
127
  0
DICTIONARYVAR
  5
DB9
102
{ACAD_REACTORS
330
866
102
}
330
866
100
DictionaryVariables
280
     0
  1
2
  0
DICTIONARY
  5
F54
330
6E
100
AcDbDictionary
280
     1
281
     1
  3
ACAD_XREC_ROUNDTRIP
360
F55
  0
DICTIONARY
  5
F52
330
6A
100
AcDbDictionary
280
     1
281
     1
  3
ACAD_XREC_ROUNDTRIP
360
F53
  0
DICTIONARY
  5
1A
330
19
100
AcDbDictionary
280
     1
281
     1
  3
ACAD_XREC_ROUNDTRIP
360
8C2
  3
BUMPTILE
360
1C
  3
DIFFUSETILE
360
1B
  3
OPACITYTILE
360
1F
  3
REFLECTIONTILE
360
1E
  3
REFRACTIONTILE
360
20
  3
SPECULARTILE
360
1D
  0
DICTIONARY
  5
12
330
11
100
AcDbDictionary
280
     1
281
     1
  3
ACAD_XREC_ROUNDTRIP
360
8C1
  3
BUMPTILE
360
14
  3
DIFFUSETILE
360
13
  3
OPACITYTILE
360
17
  3
REFLECTIONTILE
360
16
  3
REFRACTIONTILE
360
18
  3
SPECULARTILE
360
15
  0
DICTIONARY
  5
22
330
21
100
AcDbDictionary
280
     1
281
     1
  3
ACAD_XREC_ROUNDTRIP
360
8C3
  3
BUMPTILE
360
24
  3
DIFFUSETILE
360
23
  3
OPACITYTILE
360
27
  3
REFLECTIONTILE
360
26
  3
REFRACTIONTILE
360
28
  3
SPECULARTILE
360
25
  0
DICTIONARY
  5
8B9
330
64
100
AcDbDictionary
280
     1
281
     1
  3
ACAD_ROUNDTRIP_2008_TABLESTYLE_CELLSTYLEMAP
360
F19
  3
ACAD_XREC_ROUNDTRIP
360
F51
  0
DICTIONARY
  5
AD1
330
AD0
100
AcDbDictionary
280
     1
281
     1
  3
ACAD_ROUNDTRIP_2008_TABLESTYLE_CELLSTYLEMAP
360
F1A
  3
ACAD_XREC_ROUNDTRIP
360
F58
  0
DICTIONARY
  5
F2B
330
2F
100
AcDbDictionary
280
     1
281
     1
  3
ACAD_XREC_ROUNDTRIP
360
F2C
  0
DICTIONARY
  5
F56
330
55B
100
AcDbDictionary
280
     1
281
     1
  3
ACAD_XREC_ROUNDTRIP
360
F57
  0
DICTIONARY
  5
F29
330
2E
100
AcDbDictionary
280
     1
281
     1
  3
ACAD_XREC_ROUNDTRIP
360
F2A
  0
DICTIONARY
  5
F37
330
35
100
AcDbDictionary
280
     1
281
     1
  3
ACAD_XREC_ROUNDTRIP
360
F38
  0
DICTIONARY
  5
F3F
330
39
100
AcDbDictionary
280
     1
281
     1
  3
ACAD_XREC_ROUNDTRIP
360
F40
  0
DICTIONARY
  5
F31
330
32
100
AcDbDictionary
280
     1
281
     1
  3
ACAD_XREC_ROUNDTRIP
360
F32
  0
DICTIONARY
  5
F35
330
34
100
AcDbDictionary
280
     1
281
     1
  3
ACAD_XREC_ROUNDTRIP
360
F36
  0
DICTIONARY
  5
F4F
330
41
100
AcDbDictionary
280
     1
281
     1
  3
ACAD_XREC_ROUNDTRIP
360
F50
  0
DICTIONARY
  5
F3D
330
38
100
AcDbDictionary
280
     1
281
     1
  3
ACAD_XREC_ROUNDTRIP
360
F3E
  0
DICTIONARY
  5
F21
330
2A
100
AcDbDictionary
280
     1
281
     1
  3
ACAD_XREC_ROUNDTRIP
360
F22
  0
DICTIONARY
  5
F23
330
2B
100
AcDbDictionary
280
     1
281
     1
  3
ACAD_XREC_ROUNDTRIP
360
F24
  0
DICTIONARY
  5
F25
330
2C
100
AcDbDictionary
280
     1
281
     1
  3
ACAD_XREC_ROUNDTRIP
360
F26
  0
DICTIONARY
  5
F27
330
2D
100
AcDbDictionary
280
     1
281
     1
  3
ACAD_XREC_ROUNDTRIP
360
F28
  0
DICTIONARY
  5
F2F
330
31
100
AcDbDictionary
280
     1
281
     1
  3
ACAD_XREC_ROUNDTRIP
360
F30
  0
DICTIONARY
  5
F4B
330
3F
100
AcDbDictionary
280
     1
281
     1
  3
ACAD_XREC_ROUNDTRIP
360
F4C
  0
DICTIONARY
  5
F3B
330
37
100
AcDbDictionary
280
     1
281
     1
  3
ACAD_XREC_ROUNDTRIP
360
F3C
  0
DICTIONARY
  5
F4D
330
40
100
AcDbDictionary
280
     1
281
     1
  3
ACAD_XREC_ROUNDTRIP
360
F4E
  0
DICTIONARY
  5
F33
330
33
100
AcDbDictionary
280
     1
281
     1
  3
ACAD_XREC_ROUNDTRIP
360
F34
  0
DICTIONARY
  5
F49
330
3E
100
AcDbDictionary
280
     1
281
     1
  3
ACAD_XREC_ROUNDTRIP
360
F4A
  0
DICTIONARY
  5
F47
330
3D
100
AcDbDictionary
280
     1
281
     1
  3
ACAD_XREC_ROUNDTRIP
360
F48
  0
DICTIONARY
  5
F41
330
3A
100
AcDbDictionary
280
     1
281
     1
  3
ACAD_XREC_ROUNDTRIP
360
F42
  0
DICTIONARY
  5
F43
330
3B
100
AcDbDictionary
280
     1
281
     1
  3
ACAD_XREC_ROUNDTRIP
360
F44
  0
DICTIONARY
  5
F39
330
36
100
AcDbDictionary
280
     1
281
     1
  3
ACAD_XREC_ROUNDTRIP
360
F3A
  0
DICTIONARY
  5
F2D
330
30
100
AcDbDictionary
280
     1
281
     1
  3
ACAD_XREC_ROUNDTRIP
360
F2E
  0
DICTIONARY
  5
F45
330
3C
100
AcDbDictionary
280
     1
281
     1
  3
ACAD_XREC_ROUNDTRIP
360
F46
  0
XRECORD
  5
F55
102
{ACAD_REACTORS
330
F54
102
}
330
F54
100
AcDbXrecord
280
     1
102
SHADEPLOT
 70
     0
102
SHADEPLOTRESLEVEL
 70
     2
102
SHADEPLOTCUSTOMDPI
 70
   300
  0
XRECORD
  5
F53
102
{ACAD_REACTORS
330
F52
102
}
330
F52
100
AcDbXrecord
280
     1
102
SHADEPLOT
 70
     0
102
SHADEPLOTRESLEVEL
 70
     2
102
SHADEPLOTCUSTOMDPI
 70
   300
  0
XRECORD
  5
8C2
102
{ACAD_REACTORS
330
1A
102
}
330
1A
100
AcDbXrecord
280
     1
102
MATERIAL
148
0.0
149
0.0
149
0.0
 93
        0
 94
      127
282
     0
 72
     0
 77
     0
171
     0
175
     0
179
     0
273
     0
  0
XRECORD
  5
1C
102
{ACAD_REACTORS
330
1A
102
}
330
1A
100
AcDbXrecord
280
     1
270
     1
271
     1
  0
XRECORD
  5
1B
102
{ACAD_REACTORS
330
1A
102
}
330
1A
100
AcDbXrecord
280
     1
270
     1
271
     1
  0
XRECORD
  5
1F
102
{ACAD_REACTORS
330
1A
102
}
330
1A
100
AcDbXrecord
280
     1
270
     1
271
     1
  0
XRECORD
  5
1E
102
{ACAD_REACTORS
330
1A
102
}
330
1A
100
AcDbXrecord
280
     1
270
     1
271
     1
  0
XRECORD
  5
20
102
{ACAD_REACTORS
330
1A
102
}
330
1A
100
AcDbXrecord
280
     1
270
     1
271
     1
  0
XRECORD
  5
1D
102
{ACAD_REACTORS
330
1A
102
}
330
1A
100
AcDbXrecord
280
     1
270
     1
271
     1
  0
XRECORD
  5
8C1
102
{ACAD_REACTORS
330
12
102
}
330
12
100
AcDbXrecord
280
     1
102
MATERIAL
148
0.0
149
0.0
149
0.0
 93
        0
 94
      127
282
     0
 72
     0
 77
     0
171
     0
175
     0
179
     0
273
     0
  0
XRECORD
  5
14
102
{ACAD_REACTORS
330
12
102
}
330
12
100
AcDbXrecord
280
     1
270
     1
271
     1
  0
XRECORD
  5
13
102
{ACAD_REACTORS
330
12
102
}
330
12
100
AcDbXrecord
280
     1
270
     1
271
     1
  0
XRECORD
  5
17
102
{ACAD_REACTORS
330
12
102
}
330
12
100
AcDbXrecord
280
     1
270
     1
271
     1
  0
XRECORD
  5
16
102
{ACAD_REACTORS
330
12
102
}
330
12
100
AcDbXrecord
280
     1
270
     1
271
     1
  0
XRECORD
  5
18
102
{ACAD_REACTORS
330
12
102
}
330
12
100
AcDbXrecord
280
     1
270
     1
271
     1
  0
XRECORD
  5
15
102
{ACAD_REACTORS
330
12
102
}
330
12
100
AcDbXrecord
280
     1
270
     1
271
     1
  0
XRECORD
  5
8C3
102
{ACAD_REACTORS
330
22
102
}
330
22
100
AcDbXrecord
280
     1
102
MATERIAL
148
0.0
149
0.0
149
0.0
 93
        0
 94
      127
282
     0
 72
     0
 77
     0
171
     0
175
     0
179
     0
273
     0
  0
XRECORD
  5
24
102
{ACAD_REACTORS
330
22
102
}
330
22
100
AcDbXrecord
280
     1
270
     1
271
     1
  0
XRECORD
  5
23
102
{ACAD_REACTORS
330
22
102
}
330
22
100
AcDbXrecord
280
     1
270
     1
271
     1
  0
XRECORD
  5
27
102
{ACAD_REACTORS
330
22
102
}
330
22
100
AcDbXrecord
280
     1
270
     1
271
     1
  0
XRECORD
  5
26
102
{ACAD_REACTORS
330
22
102
}
330
22
100
AcDbXrecord
280
     1
270
     1
271
     1
  0
XRECORD
  5
28
102
{ACAD_REACTORS
330
22
102
}
330
22
100
AcDbXrecord
280
     1
270
     1
271
     1
  0
XRECORD
  5
25
102
{ACAD_REACTORS
330
22
102
}
330
22
100
AcDbXrecord
280
     1
270
     1
271
     1
  0
CELLSTYLEMAP
  5
F19
102
{ACAD_REACTORS
330
8B9
102
}
330
8B9
100
AcDbCellStyleMap
 90
        3
300
CELLSTYLE
  1
TABLEFORMAT_BEGIN
 90
        5
170
     1
 91
        0
 92
    32768
 62
   257
 93
        1
300
CONTENTFORMAT
  1
CONTENTFORMAT_BEGIN
 90
        0
 91
        0
 92
      512
 93
        0
300

 40
0.0
140
1.0
 94
        5
 62
     0
340
55
144
0.25
309
CONTENTFORMAT_END
171
     1
301
MARGIN
  1
CELLMARGIN_BEGIN
 40
0.06
 40
0.06
 40
0.06
 40
0.06
 40
0.18
 40
0.18
309
CELLMARGIN_END
 94
        6
 95
        1
302
GRIDFORMAT
  1
GRIDFORMAT_BEGIN
 90
        0
 91
        1
 62
     0
 92
       -2
340
0
 93
        0
 40
0.045
309
GRIDFORMAT_END
 95
        2
302
GRIDFORMAT
  1
GRIDFORMAT_BEGIN
 90
        0
 91
        1
 62
     0
 92
       -2
340
0
 93
        0
 40
0.045
309
GRIDFORMAT_END
 95
        4
302
GRIDFORMAT
  1
GRIDFORMAT_BEGIN
 90
        0
 91
        1
 62
     0
 92
       -2
340
0
 93
        0
 40
0.045
309
GRIDFORMAT_END
 95
        8
302
GRIDFORMAT
  1
GRIDFORMAT_BEGIN
 90
        0
 91
        1
 62
     0
 92
       -2
340
0
 93
        0
 40
0.045
309
GRIDFORMAT_END
 95
       16
302
GRIDFORMAT
  1
GRIDFORMAT_BEGIN
 90
        0
 91
        1
 62
     0
 92
       -2
340
0
 93
        0
 40
0.045
309
GRIDFORMAT_END
 95
       32
302
GRIDFORMAT
  1
GRIDFORMAT_BEGIN
 90
        0
 91
        1
 62
     0
 92
       -2
340
0
 93
        0
 40
0.045
309
GRIDFORMAT_END
309
TABLEFORMAT_END
  1
CELLSTYLE_BEGIN
 90
        1
 91
        1
300
_TITLE
309
CELLSTYLE_END
300
CELLSTYLE
  1
TABLEFORMAT_BEGIN
 90
        5
170
     1
 91
        0
 92
        0
 62
   257
 93
        1
300
CONTENTFORMAT
  1
CONTENTFORMAT_BEGIN
 90
        0
 91
        0
 92
      512
 93
        0
300

 40
0.0
140
1.0
 94
        5
 62
     0
340
55
144
0.18
309
CONTENTFORMAT_END
171
     1
301
MARGIN
  1
CELLMARGIN_BEGIN
 40
0.06
 40
0.06
 40
0.06
 40
0.06
 40
0.18
 40
0.18
309
CELLMARGIN_END
 94
        6
 95
        1
302
GRIDFORMAT
  1
GRIDFORMAT_BEGIN
 90
        0
 91
        1
 62
     0
 92
       -2
340
0
 93
        0
 40
0.045
309
GRIDFORMAT_END
 95
        2
302
GRIDFORMAT
  1
GRIDFORMAT_BEGIN
 90
        0
 91
        1
 62
     0
 92
       -2
340
0
 93
        0
 40
0.045
309
GRIDFORMAT_END
 95
        4
302
GRIDFORMAT
  1
GRIDFORMAT_BEGIN
 90
        0
 91
        1
 62
     0
 92
       -2
340
0
 93
        0
 40
0.045
309
GRIDFORMAT_END
 95
        8
302
GRIDFORMAT
  1
GRIDFORMAT_BEGIN
 90
        0
 91
        1
 62
     0
 92
       -2
340
0
 93
        0
 40
0.045
309
GRIDFORMAT_END
 95
       16
302
GRIDFORMAT
  1
GRIDFORMAT_BEGIN
 90
        0
 91
        1
 62
     0
 92
       -2
340
0
 93
        0
 40
0.045
309
GRIDFORMAT_END
 95
       32
302
GRIDFORMAT
  1
GRIDFORMAT_BEGIN
 90
        0
 91
        1
 62
     0
 92
       -2
340
0
 93
        0
 40
0.045
309
GRIDFORMAT_END
309
TABLEFORMAT_END
  1
CELLSTYLE_BEGIN
 90
        2
 91
        1
300
_HEADER
309
CELLSTYLE_END
300
CELLSTYLE
  1
TABLEFORMAT_BEGIN
 90
        5
170
     1
 91
        0
 92
        0
 62
   257
 93
        1
300
CONTENTFORMAT
  1
CONTENTFORMAT_BEGIN
 90
        0
 91
        0
 92
      512
 93
        0
300

 40
0.0
140
1.0
 94
        2
 62
     0
340
55
144
0.18
309
CONTENTFORMAT_END
171
     1
301
MARGIN
  1
CELLMARGIN_BEGIN
 40
0.06
 40
0.06
 40
0.06
 40
0.06
 40
0.18
 40
0.18
309
CELLMARGIN_END
 94
        6
 95
        1
302
GRIDFORMAT
  1
GRIDFORMAT_BEGIN
 90
        0
 91
        1
 62
     0
 92
       -2
340
0
 93
        0
 40
0.045
309
GRIDFORMAT_END
 95
        2
302
GRIDFORMAT
  1
GRIDFORMAT_BEGIN
 90
        0
 91
        1
 62
     0
 92
       -2
340
0
 93
        0
 40
0.045
309
GRIDFORMAT_END
 95
        4
302
GRIDFORMAT
  1
GRIDFORMAT_BEGIN
 90
        0
 91
        1
 62
     0
 92
       -2
340
0
 93
        0
 40
0.045
309
GRIDFORMAT_END
 95
        8
302
GRIDFORMAT
  1
GRIDFORMAT_BEGIN
 90
        0
 91
        1
 62
     0
 92
       -2
340
0
 93
        0
 40
0.045
309
GRIDFORMAT_END
 95
       16
302
GRIDFORMAT
  1
GRIDFORMAT_BEGIN
 90
        0
 91
        1
 62
     0
 92
       -2
340
0
 93
        0
 40
0.045
309
GRIDFORMAT_END
 95
       32
302
GRIDFORMAT
  1
GRIDFORMAT_BEGIN
 90
        0
 91
        1
 62
     0
 92
       -2
340
0
 93
        0
 40
0.045
309
GRIDFORMAT_END
309
TABLEFORMAT_END
  1
CELLSTYLE_BEGIN
 90
        3
 91
        2
300
_DATA
309
CELLSTYLE_END
  0
XRECORD
  5
F51
102
{ACAD_REACTORS
330
8B9
102
}
330
8B9
100
AcDbXrecord
280
     1
102
ACAD_ROUNDTRIP_PRE2007_TABLESTYLE
 90
      512
 91
        0
  1

 92
      512
 93
        0
  2

 94
      512
 95
        0
  3

  0
CELLSTYLEMAP
  5
F1A
102
{ACAD_REACTORS
330
AD1
102
}
330
AD1
100
AcDbCellStyleMap
 90
        3
300
CELLSTYLE
  1
TABLEFORMAT_BEGIN
 90
        5
170
     1
 91
        0
 92
    32768
 62
   257
 93
        1
300
CONTENTFORMAT
  1
CONTENTFORMAT_BEGIN
 90
        0
 91
        0
 92
      512
 93
        0
300

 40
0.0
140
1.0
 94
        8
 62
     3
340
548
144
0.25
309
CONTENTFORMAT_END
171
     1
301
MARGIN
  1
CELLMARGIN_BEGIN
 40
0.5
 40
10.0
 40
0.06
 40
0.06
 40
0.18
 40
0.18
309
CELLMARGIN_END
 94
        6
 95
        1
302
GRIDFORMAT
  1
GRIDFORMAT_BEGIN
 90
        0
 91
        1
 62
     0
 92
       -2
340
0
 93
        0
 40
0.045
309
GRIDFORMAT_END
 95
        2
302
GRIDFORMAT
  1
GRIDFORMAT_BEGIN
 90
        0
 91
        1
 62
     0
 92
       -2
340
0
 93
        0
 40
0.045
309
GRIDFORMAT_END
 95
        4
302
GRIDFORMAT
  1
GRIDFORMAT_BEGIN
 90
        0
 91
        1
 62
     0
 92
       -2
340
0
 93
        0
 40
0.045
309
GRIDFORMAT_END
 95
        8
302
GRIDFORMAT
  1
GRIDFORMAT_BEGIN
 90
        0
 91
        1
 62
     0
 92
       -2
340
0
 93
        0
 40
0.045
309
GRIDFORMAT_END
 95
       16
302
GRIDFORMAT
  1
GRIDFORMAT_BEGIN
 90
        0
 91
        1
 62
     0
 92
       -2
340
0
 93
        0
 40
0.045
309
GRIDFORMAT_END
 95
       32
302
GRIDFORMAT
  1
GRIDFORMAT_BEGIN
 90
        0
 91
        1
 62
     0
 92
       -2
340
0
 93
        0
 40
0.045
309
GRIDFORMAT_END
309
TABLEFORMAT_END
  1
CELLSTYLE_BEGIN
 90
        1
 91
        1
300
_TITLE
309
CELLSTYLE_END
300
CELLSTYLE
  1
TABLEFORMAT_BEGIN
 90
        5
170
     1
 91
        0
 92
        0
 62
   257
 93
        1
300
CONTENTFORMAT
  1
CONTENTFORMAT_BEGIN
 90
        0
 91
        0
 92
      512
 93
        0
300

 40
0.0
140
1.0
 94
        7
 62
     3
340
548
144
0.18
309
CONTENTFORMAT_END
171
     1
301
MARGIN
  1
CELLMARGIN_BEGIN
 40
0.5
 40
1.5
 40
0.06
 40
0.06
 40
0.18
 40
0.18
309
CELLMARGIN_END
 94
        6
 95
        1
302
GRIDFORMAT
  1
GRIDFORMAT_BEGIN
 90
        0
 91
        1
 62
     3
 92
       -2
340
5A
 93
        0
 40
0.045
309
GRIDFORMAT_END
 95
        2
302
GRIDFORMAT
  1
GRIDFORMAT_BEGIN
 90
        0
 91
        1
 62
     7
 92
       -2
340
5A
 93
        0
 40
0.045
309
GRIDFORMAT_END
 95
        4
302
GRIDFORMAT
  1
GRIDFORMAT_BEGIN
 90
        0
 91
        1
 62
     3
 92
       -2
340
5A
 93
        0
 40
0.045
309
GRIDFORMAT_END
 95
        8
302
GRIDFORMAT
  1
GRIDFORMAT_BEGIN
 90
        0
 91
        1
 62
     3
 92
       -2
340
5A
 93
        0
 40
0.045
309
GRIDFORMAT_END
 95
       16
302
GRIDFORMAT
  1
GRIDFORMAT_BEGIN
 90
        0
 91
        1
 62
     7
 92
       -2
340
5A
 93
        0
 40
0.045
309
GRIDFORMAT_END
 95
       32
302
GRIDFORMAT
  1
GRIDFORMAT_BEGIN
 90
        0
 91
        1
 62
     3
 92
       -2
340
5A
 93
        0
 40
0.045
309
GRIDFORMAT_END
309
TABLEFORMAT_END
  1
CELLSTYLE_BEGIN
 90
        2
 91
        1
300
_HEADER
309
CELLSTYLE_END
300
CELLSTYLE
  1
TABLEFORMAT_BEGIN
 90
        5
170
     1
 91
        0
 92
        0
 62
   257
 93
        1
300
CONTENTFORMAT
  1
CONTENTFORMAT_BEGIN
 90
        0
 91
        0
 92
      512
 93
        0
300

 40
0.0
140
1.0
 94
        7
 62
     3
340
548
144
0.18
309
CONTENTFORMAT_END
171
     1
301
MARGIN
  1
CELLMARGIN_BEGIN
 40
0.5
 40
1.5
 40
0.06
 40
0.06
 40
0.18
 40
0.18
309
CELLMARGIN_END
 94
        6
 95
        1
302
GRIDFORMAT
  1
GRIDFORMAT_BEGIN
 90
        0
 91
        1
 62
     3
 92
       -2
340
5A
 93
        0
 40
0.045
309
GRIDFORMAT_END
 95
        2
302
GRIDFORMAT
  1
GRIDFORMAT_BEGIN
 90
        0
 91
        1
 62
     7
 92
       -2
340
5A
 93
        0
 40
0.045
309
GRIDFORMAT_END
 95
        4
302
GRIDFORMAT
  1
GRIDFORMAT_BEGIN
 90
        0
 91
        1
 62
     3
 92
       -2
340
5A
 93
        0
 40
0.045
309
GRIDFORMAT_END
 95
        8
302
GRIDFORMAT
  1
GRIDFORMAT_BEGIN
 90
        0
 91
        1
 62
     3
 92
       -2
340
5A
 93
        0
 40
0.045
309
GRIDFORMAT_END
 95
       16
302
GRIDFORMAT
  1
GRIDFORMAT_BEGIN
 90
        0
 91
        1
 62
     7
 92
       -2
340
5A
 93
        0
 40
0.045
309
GRIDFORMAT_END
 95
       32
302
GRIDFORMAT
  1
GRIDFORMAT_BEGIN
 90
        0
 91
        1
 62
     3
 92
       -2
340
5A
 93
        0
 40
0.045
309
GRIDFORMAT_END
309
TABLEFORMAT_END
  1
CELLSTYLE_BEGIN
 90
        3
 91
        2
300
_DATA
309
CELLSTYLE_END
  0
XRECORD
  5
F58
102
{ACAD_REACTORS
330
AD1
102
}
330
AD1
100
AcDbXrecord
280
     1
102
ACAD_ROUNDTRIP_PRE2007_TABLESTYLE
 90
      512
 91
        0
  1

 92
      512
 93
        0
  2

 94
      512
 95
        0
  3

  0
XRECORD
  5
F2C
102
{ACAD_REACTORS
330
F2B
102
}
330
F2B
100
AcDbXrecord
280
     1
102
RTVSPropertyOp0
 70
     1
102
RTVSPropertyOp1
 70
     1
102
RTVSPropertyOp2
 70
     1
102
RTVSPropertyOp3
 70
     1
102
RTVSPropertyOp4
 70
     1
102
RTVSPropertyOp5
 70
     1
102
RTVSPropertyOp6
 70
     1
102
RTVSPropertyOp7
 70
     1
102
RTVSPropertyOp8
 70
     1
102
RTVSPropertyOp9
 70
     1
102
RTVSPropertyOp10
 70
     1
102
RTVSPropertyOp11
 70
     1
102
RTVSPropertyOp12
 70
     1
102
RTVSPropertyOp13
 70
     1
102
RTVSPropertyOp14
 70
     1
102
RTVSPropertyOp15
 70
     1
102
RTVSPropertyOp16
 70
     1
102
RTVSPropertyOp17
 70
     1
102
RTVSPropertyOp18
 70
     1
102
RTVSPropertyOp19
 70
     1
102
RTVSPropertyOp20
 70
     1
102
RTVSPropertyOp21
 70
     1
102
RTVSPropertyOp22
 70
     1
102
RTVSPropertyOp23
 70
     1
102
RTVSPropertyOp24
 70
     1
102
RTVSPropertyOp25
 70
     1
102
RTVSPropertyOp26
 70
     1
102
RTVSPropertyOp27
 70
     1
102
RTVSPropertyOp28
 70
     1
102
RTVSPropertyOp29
 70
     1
102
RTVSPropertyOp30
 70
     1
102
RTVSPropertyOp31
 70
     1
102
RTVSPropertyOp32
 70
     1
  0
XRECORD
  5
F57
102
{ACAD_REACTORS
330
F56
102
}
330
F56
100
AcDbXrecord
280
     1
102
RTVSPropertyOp0
 70
     1
102
RTVSPropertyOp1
 70
     1
102
RTVSPropertyOp2
 70
     1
102
RTVSPropertyOp3
 70
     1
102
RTVSPropertyOp4
 70
     1
102
RTVSPropertyOp5
 70
     1
102
RTVSPropertyOp6
 70
     1
102
RTVSPropertyOp7
 70
     1
102
RTVSPropertyOp8
 70
     1
102
RTVSPropertyOp9
 70
     1
102
RTVSPropertyOp10
 70
     1
102
RTVSPropertyOp11
 70
     1
102
RTVSPropertyOp12
 70
     1
102
RTVSPropertyOp13
 70
     1
102
RTVSPropertyOp14
 70
     1
102
RTVSPropertyOp15
 70
     1
102
RTVSPropertyOp16
 70
     1
102
RTVSPropertyOp17
 70
     1
102
RTVSPropertyOp18
 70
     1
102
RTVSPropertyOp19
 70
     1
102
RTVSPropertyOp20
 70
     1
102
RTVSPropertyOp21
 70
     1
102
RTVSPropertyOp22
 70
     1
102
RTVSPropertyOp23
 70
     1
102
RTVSPropertyOp24
 70
     1
102
RTVSPropertyOp25
 70
     1
102
RTVSPropertyOp26
 70
     1
102
RTVSPropertyOp27
 70
     1
102
RTVSPropertyOp28
 70
     1
102
RTVSPropertyOp29
 70
     1
102
RTVSPropertyOp30
 70
     1
102
RTVSPropertyOp31
 70
     1
102
RTVSPropertyOp32
 70
     1
  0
XRECORD
  5
F2A
102
{ACAD_REACTORS
330
F29
102
}
330
F29
100
AcDbXrecord
280
     1
102
RTVSPropertyOp0
 70
     1
102
RTVSPropertyOp1
 70
     1
102
RTVSPropertyOp2
 70
     1
102
RTVSPropertyOp3
 70
     1
102
RTVSPropertyOp4
 70
     1
102
RTVSPropertyOp5
 70
     1
102
RTVSPropertyOp6
 70
     1
102
RTVSPropertyOp7
 70
     1
102
RTVSPropertyOp8
 70
     1
102
RTVSPropertyOp9
 70
     1
102
RTVSPropertyOp10
 70
     1
102
RTVSPropertyOp11
 70
     1
102
RTVSPropertyOp12
 70
     1
102
RTVSPropertyOp13
 70
     1
102
RTVSPropertyOp14
 70
     1
102
RTVSPropertyOp15
 70
     1
102
RTVSPropertyOp16
 70
     1
102
RTVSPropertyOp17
 70
     1
102
RTVSPropertyOp18
 70
     1
102
RTVSPropertyOp19
 70
     1
102
RTVSPropertyOp20
 70
     1
102
RTVSPropertyOp21
 70
     1
102
RTVSPropertyOp22
 70
     1
102
RTVSPropertyOp23
 70
     1
102
RTVSPropertyOp24
 70
     1
102
RTVSPropertyOp25
 70
     1
102
RTVSPropertyOp26
 70
     1
102
RTVSPropertyOp27
 70
     1
102
RTVSPropertyOp28
 70
     1
102
RTVSPropertyOp29
 70
     1
102
RTVSPropertyOp30
 70
     1
102
RTVSPropertyOp31
 70
     1
102
RTVSPropertyOp32
 70
     1
  0
XRECORD
  5
F38
102
{ACAD_REACTORS
330
F37
102
}
330
F37
100
AcDbXrecord
280
     1
102
RTVSPropertyOp0
 70
     1
102
RTVSPropertyOp1
 70
     1
102
RTVSPropertyOp2
 70
     1
102
RTVSPropertyOp3
 70
     1
102
RTVSPropertyOp4
 70
     1
102
RTVSPropertyOp5
 70
     1
102
RTVSPropertyOp6
 70
     1
102
RTVSPropertyOp7
 70
     1
102
RTVSPropertyOp8
 70
     1
102
RTVSPropertyOp9
 70
     1
102
RTVSPropertyOp10
 70
     1
102
RTVSPropertyOp11
 70
     1
102
RTVSPropertyOp12
 70
     1
102
RTVSPropertyOp13
 70
     1
102
RTVSPropertyOp14
 70
     1
102
RTVSPropertyOp15
 70
     1
102
RTVSPropertyOp16
 70
     1
102
RTVSPropertyOp17
 70
     1
102
RTVSPropertyOp18
 70
     1
102
RTVSPropertyOp19
 70
     1
102
RTVSPropertyOp20
 70
     1
102
RTVSPropertyOp21
 70
     1
102
RTVSPropertyOp22
 70
     1
102
RTVSPropertyOp23
 70
     1
102
RTVSPropertyOp24
 70
     1
102
RTVSPropertyOp25
 70
     1
102
RTVSPropertyOp26
 70
     1
102
RTVSPropertyOp27
 70
     1
102
RTVSPropertyOp28
 70
     1
102
RTVSPropertyOp29
 70
     1
102
RTVSPropertyOp30
 70
     1
102
RTVSPropertyOp31
 70
     1
102
RTVSPropertyOp32
 70
     1
  0
XRECORD
  5
F40
102
{ACAD_REACTORS
330
F3F
102
}
330
F3F
100
AcDbXrecord
280
     1
102
RTVSPropertyOp0
 70
     1
102
RTVSPropertyOp1
 70
     1
102
RTVSPropertyOp2
 70
     1
102
RTVSPropertyOp3
 70
     1
102
RTVSPropertyOp4
 70
     1
102
RTVSPropertyOp5
 70
     1
102
RTVSPropertyOp6
 70
     1
102
RTVSPropertyOp7
 70
     1
102
RTVSPropertyOp8
 70
     1
102
RTVSPropertyOp9
 70
     1
102
RTVSPropertyOp10
 70
     1
102
RTVSPropertyOp11
 70
     1
102
RTVSPropertyOp12
 70
     1
102
RTVSPropertyOp13
 70
     1
102
RTVSPropertyOp14
 70
     1
102
RTVSPropertyOp15
 70
     1
102
RTVSPropertyOp16
 70
     1
102
RTVSPropertyOp17
 70
     1
102
RTVSPropertyOp18
 70
     1
102
RTVSPropertyOp19
 70
     1
102
RTVSPropertyOp20
 70
     1
102
RTVSPropertyOp21
 70
     1
102
RTVSPropertyOp22
 70
     1
102
RTVSPropertyOp23
 70
     1
102
RTVSPropertyOp24
 70
     1
102
RTVSPropertyOp25
 70
     1
102
RTVSPropertyOp26
 70
     1
102
RTVSPropertyOp27
 70
     1
102
RTVSPropertyOp28
 70
     1
102
RTVSPropertyOp29
 70
     1
102
RTVSPropertyOp30
 70
     1
102
RTVSPropertyOp31
 70
     1
102
RTVSPropertyOp32
 70
     1
  0
XRECORD
  5
F32
102
{ACAD_REACTORS
330
F31
102
}
330
F31
100
AcDbXrecord
280
     1
102
RTVSPropertyOp0
 70
     1
102
RTVSPropertyOp1
 70
     1
102
RTVSPropertyOp2
 70
     1
102
RTVSPropertyOp3
 70
     1
102
RTVSPropertyOp4
 70
     1
102
RTVSPropertyOp5
 70
     1
102
RTVSPropertyOp6
 70
     1
102
RTVSPropertyOp7
 70
     1
102
RTVSPropertyOp8
 70
     1
102
RTVSPropertyOp9
 70
     1
102
RTVSPropertyOp10
 70
     1
102
RTVSPropertyOp11
 70
     1
102
RTVSPropertyOp12
 70
     1
102
RTVSPropertyOp13
 70
     1
102
RTVSPropertyOp14
 70
     1
102
RTVSPropertyOp15
 70
     1
102
RTVSPropertyOp16
 70
     1
102
RTVSPropertyOp17
 70
     1
102
RTVSPropertyOp18
 70
     1
102
RTVSPropertyOp19
 70
     1
102
RTVSPropertyOp20
 70
     1
102
RTVSPropertyOp21
 70
     1
102
RTVSPropertyOp22
 70
     1
102
RTVSPropertyOp23
 70
     1
102
RTVSPropertyOp24
 70
     1
102
RTVSPropertyOp25
 70
     1
102
RTVSPropertyOp26
 70
     1
102
RTVSPropertyOp27
 70
     1
102
RTVSPropertyOp28
 70
     1
102
RTVSPropertyOp29
 70
     1
102
RTVSPropertyOp30
 70
     1
102
RTVSPropertyOp31
 70
     1
102
RTVSPropertyOp32
 70
     1
  0
XRECORD
  5
F36
102
{ACAD_REACTORS
330
F35
102
}
330
F35
100
AcDbXrecord
280
     1
102
RTVSPropertyOp0
 70
     1
102
RTVSPropertyOp1
 70
     1
102
RTVSPropertyOp2
 70
     1
102
RTVSPropertyOp3
 70
     1
102
RTVSPropertyOp4
 70
     1
102
RTVSPropertyOp5
 70
     1
102
RTVSPropertyOp6
 70
     1
102
RTVSPropertyOp7
 70
     1
102
RTVSPropertyOp8
 70
     1
102
RTVSPropertyOp9
 70
     1
102
RTVSPropertyOp10
 70
     1
102
RTVSPropertyOp11
 70
     1
102
RTVSPropertyOp12
 70
     1
102
RTVSPropertyOp13
 70
     1
102
RTVSPropertyOp14
 70
     1
102
RTVSPropertyOp15
 70
     1
102
RTVSPropertyOp16
 70
     1
102
RTVSPropertyOp17
 70
     1
102
RTVSPropertyOp18
 70
     1
102
RTVSPropertyOp19
 70
     1
102
RTVSPropertyOp20
 70
     1
102
RTVSPropertyOp21
 70
     1
102
RTVSPropertyOp22
 70
     1
102
RTVSPropertyOp23
 70
     1
102
RTVSPropertyOp24
 70
     1
102
RTVSPropertyOp25
 70
     1
102
RTVSPropertyOp26
 70
     1
102
RTVSPropertyOp27
 70
     1
102
RTVSPropertyOp28
 70
     1
102
RTVSPropertyOp29
 70
     1
102
RTVSPropertyOp30
 70
     1
102
RTVSPropertyOp31
 70
     1
102
RTVSPropertyOp32
 70
     1
  0
XRECORD
  5
F50
102
{ACAD_REACTORS
330
F4F
102
}
330
F4F
100
AcDbXrecord
280
     1
102
RTVSPropertyOp0
 70
     0
102
RTVSPropertyOp1
 70
     0
102
RTVSPropertyOp2
 70
     0
102
RTVSPropertyOp3
 70
     0
102
RTVSPropertyOp4
 70
     0
102
RTVSPropertyOp5
 70
     0
102
RTVSPropertyOp6
 70
     0
102
RTVSPropertyOp7
 70
     0
102
RTVSPropertyOp8
 70
     0
102
RTVSPropertyOp9
 70
     0
102
RTVSPropertyOp10
 70
     0
102
RTVSPropertyOp11
 70
     0
102
RTVSPropertyOp12
 70
     0
102
RTVSPropertyOp13
 70
     0
102
RTVSPropertyOp14
 70
     2
102
RTVSPropertyOp15
 70
     0
102
RTVSPropertyOp16
 70
     0
102
RTVSPropertyOp17
 70
     0
102
RTVSPropertyOp18
 70
     0
102
RTVSPropertyOp19
 70
     0
102
RTVSPropertyOp20
 70
     0
102
RTVSPropertyOp21
 70
     0
102
RTVSPropertyOp22
 70
     0
102
RTVSPropertyOp23
 70
     0
102
RTVSPropertyOp24
 70
     0
102
RTVSPropertyOp25
 70
     0
102
RTVSPropertyOp26
 70
     0
102
RTVSPropertyOp27
 70
     0
102
RTVSPropertyOp28
 70
     0
102
RTVSPropertyOp29
 70
     0
102
RTVSPropertyOp30
 70
     0
102
RTVSPropertyOp31
 70
     0
102
RTVSPropertyOp32
 70
     0
  0
XRECORD
  5
F3E
102
{ACAD_REACTORS
330
F3D
102
}
330
F3D
100
AcDbXrecord
280
     1
102
RTVSPropertyOp0
 70
     1
102
RTVSPropertyOp1
 70
     1
102
RTVSPropertyOp2
 70
     1
102
RTVSPropertyOp3
 70
     1
102
RTVSPropertyOp4
 70
     1
102
RTVSPropertyOp5
 70
     1
102
RTVSPropertyOp6
 70
     1
102
RTVSPropertyOp7
 70
     1
102
RTVSPropertyOp8
 70
     1
102
RTVSPropertyOp9
 70
     1
102
RTVSPropertyOp10
 70
     1
102
RTVSPropertyOp11
 70
     1
102
RTVSPropertyOp12
 70
     1
102
RTVSPropertyOp13
 70
     1
102
RTVSPropertyOp14
 70
     1
102
RTVSPropertyOp15
 70
     1
102
RTVSPropertyOp16
 70
     1
102
RTVSPropertyOp17
 70
     1
102
RTVSPropertyOp18
 70
     1
102
RTVSPropertyOp19
 70
     1
102
RTVSPropertyOp20
 70
     1
102
RTVSPropertyOp21
 70
     1
102
RTVSPropertyOp22
 70
     1
102
RTVSPropertyOp23
 70
     1
102
RTVSPropertyOp24
 70
     1
102
RTVSPropertyOp25
 70
     1
102
RTVSPropertyOp26
 70
     1
102
RTVSPropertyOp27
 70
     1
102
RTVSPropertyOp28
 70
     1
102
RTVSPropertyOp29
 70
     1
102
RTVSPropertyOp30
 70
     1
102
RTVSPropertyOp31
 70
     1
102
RTVSPropertyOp32
 70
     1
  0
XRECORD
  5
F22
102
{ACAD_REACTORS
330
F21
102
}
330
F21
100
AcDbXrecord
280
     1
102
RTVSPropertyOp0
 70
     1
102
RTVSPropertyOp1
 70
     1
102
RTVSPropertyOp2
 70
     1
102
RTVSPropertyOp3
 70
     1
102
RTVSPropertyOp4
 70
     1
102
RTVSPropertyOp5
 70
     1
102
RTVSPropertyOp6
 70
     1
102
RTVSPropertyOp7
 70
     1
102
RTVSPropertyOp8
 70
     1
102
RTVSPropertyOp9
 70
     1
102
RTVSPropertyOp10
 70
     1
102
RTVSPropertyOp11
 70
     1
102
RTVSPropertyOp12
 70
     1
102
RTVSPropertyOp13
 70
     1
102
RTVSPropertyOp14
 70
     1
102
RTVSPropertyOp15
 70
     1
102
RTVSPropertyOp16
 70
     1
102
RTVSPropertyOp17
 70
     1
102
RTVSPropertyOp18
 70
     1
102
RTVSPropertyOp19
 70
     1
102
RTVSPropertyOp20
 70
     1
102
RTVSPropertyOp21
 70
     1
102
RTVSPropertyOp22
 70
     1
102
RTVSPropertyOp23
 70
     1
102
RTVSPropertyOp24
 70
     1
102
RTVSPropertyOp25
 70
     1
102
RTVSPropertyOp26
 70
     1
102
RTVSPropertyOp27
 70
     1
102
RTVSPropertyOp28
 70
     1
102
RTVSPropertyOp29
 70
     1
102
RTVSPropertyOp30
 70
     1
102
RTVSPropertyOp31
 70
     1
102
RTVSPropertyOp32
 70
     1
  0
XRECORD
  5
F24
102
{ACAD_REACTORS
330
F23
102
}
330
F23
100
AcDbXrecord
280
     1
102
RTVSPropertyOp0
 70
     1
102
RTVSPropertyOp1
 70
     1
102
RTVSPropertyOp2
 70
     1
102
RTVSPropertyOp3
 70
     1
102
RTVSPropertyOp4
 70
     1
102
RTVSPropertyOp5
 70
     1
102
RTVSPropertyOp6
 70
     1
102
RTVSPropertyOp7
 70
     1
102
RTVSPropertyOp8
 70
     1
102
RTVSPropertyOp9
 70
     1
102
RTVSPropertyOp10
 70
     1
102
RTVSPropertyOp11
 70
     1
102
RTVSPropertyOp12
 70
     1
102
RTVSPropertyOp13
 70
     1
102
RTVSPropertyOp14
 70
     1
102
RTVSPropertyOp15
 70
     1
102
RTVSPropertyOp16
 70
     1
102
RTVSPropertyOp17
 70
     1
102
RTVSPropertyOp18
 70
     1
102
RTVSPropertyOp19
 70
     1
102
RTVSPropertyOp20
 70
     1
102
RTVSPropertyOp21
 70
     1
102
RTVSPropertyOp22
 70
     1
102
RTVSPropertyOp23
 70
     1
102
RTVSPropertyOp24
 70
     1
102
RTVSPropertyOp25
 70
     1
102
RTVSPropertyOp26
 70
     1
102
RTVSPropertyOp27
 70
     1
102
RTVSPropertyOp28
 70
     1
102
RTVSPropertyOp29
 70
     1
102
RTVSPropertyOp30
 70
     1
102
RTVSPropertyOp31
 70
     1
102
RTVSPropertyOp32
 70
     1
  0
XRECORD
  5
F26
102
{ACAD_REACTORS
330
F25
102
}
330
F25
100
AcDbXrecord
280
     1
102
RTVSPropertyOp0
 70
     1
102
RTVSPropertyOp1
 70
     1
102
RTVSPropertyOp2
 70
     1
102
RTVSPropertyOp3
 70
     1
102
RTVSPropertyOp4
 70
     1
102
RTVSPropertyOp5
 70
     1
102
RTVSPropertyOp6
 70
     1
102
RTVSPropertyOp7
 70
     1
102
RTVSPropertyOp8
 70
     1
102
RTVSPropertyOp9
 70
     1
102
RTVSPropertyOp10
 70
     1
102
RTVSPropertyOp11
 70
     1
102
RTVSPropertyOp12
 70
     1
102
RTVSPropertyOp13
 70
     1
102
RTVSPropertyOp14
 70
     1
102
RTVSPropertyOp15
 70
     1
102
RTVSPropertyOp16
 70
     1
102
RTVSPropertyOp17
 70
     1
102
RTVSPropertyOp18
 70
     1
102
RTVSPropertyOp19
 70
     1
102
RTVSPropertyOp20
 70
     1
102
RTVSPropertyOp21
 70
     1
102
RTVSPropertyOp22
 70
     1
102
RTVSPropertyOp23
 70
     1
102
RTVSPropertyOp24
 70
     1
102
RTVSPropertyOp25
 70
     1
102
RTVSPropertyOp26
 70
     1
102
RTVSPropertyOp27
 70
     1
102
RTVSPropertyOp28
 70
     1
102
RTVSPropertyOp29
 70
     1
102
RTVSPropertyOp30
 70
     1
102
RTVSPropertyOp31
 70
     1
102
RTVSPropertyOp32
 70
     1
  0
XRECORD
  5
F28
102
{ACAD_REACTORS
330
F27
102
}
330
F27
100
AcDbXrecord
280
     1
102
RTVSPropertyOp0
 70
     1
102
RTVSPropertyOp1
 70
     1
102
RTVSPropertyOp2
 70
     1
102
RTVSPropertyOp3
 70
     1
102
RTVSPropertyOp4
 70
     1
102
RTVSPropertyOp5
 70
     1
102
RTVSPropertyOp6
 70
     1
102
RTVSPropertyOp7
 70
     1
102
RTVSPropertyOp8
 70
     1
102
RTVSPropertyOp9
 70
     1
102
RTVSPropertyOp10
 70
     1
102
RTVSPropertyOp11
 70
     1
102
RTVSPropertyOp12
 70
     1
102
RTVSPropertyOp13
 70
     1
102
RTVSPropertyOp14
 70
     1
102
RTVSPropertyOp15
 70
     1
102
RTVSPropertyOp16
 70
     1
102
RTVSPropertyOp17
 70
     1
102
RTVSPropertyOp18
 70
     1
102
RTVSPropertyOp19
 70
     1
102
RTVSPropertyOp20
 70
     1
102
RTVSPropertyOp21
 70
     1
102
RTVSPropertyOp22
 70
     1
102
RTVSPropertyOp23
 70
     1
102
RTVSPropertyOp24
 70
     1
102
RTVSPropertyOp25
 70
     1
102
RTVSPropertyOp26
 70
     1
102
RTVSPropertyOp27
 70
     1
102
RTVSPropertyOp28
 70
     1
102
RTVSPropertyOp29
 70
     1
102
RTVSPropertyOp30
 70
     1
102
RTVSPropertyOp31
 70
     1
102
RTVSPropertyOp32
 70
     1
  0
XRECORD
  5
F30
102
{ACAD_REACTORS
330
F2F
102
}
330
F2F
100
AcDbXrecord
280
     1
102
RTVSPropertyOp0
 70
     1
102
RTVSPropertyOp1
 70
     1
102
RTVSPropertyOp2
 70
     1
102
RTVSPropertyOp3
 70
     1
102
RTVSPropertyOp4
 70
     1
102
RTVSPropertyOp5
 70
     1
102
RTVSPropertyOp6
 70
     1
102
RTVSPropertyOp7
 70
     1
102
RTVSPropertyOp8
 70
     1
102
RTVSPropertyOp9
 70
     1
102
RTVSPropertyOp10
 70
     1
102
RTVSPropertyOp11
 70
     1
102
RTVSPropertyOp12
 70
     1
102
RTVSPropertyOp13
 70
     1
102
RTVSPropertyOp14
 70
     1
102
RTVSPropertyOp15
 70
     1
102
RTVSPropertyOp16
 70
     1
102
RTVSPropertyOp17
 70
     1
102
RTVSPropertyOp18
 70
     1
102
RTVSPropertyOp19
 70
     1
102
RTVSPropertyOp20
 70
     1
102
RTVSPropertyOp21
 70
     1
102
RTVSPropertyOp22
 70
     1
102
RTVSPropertyOp23
 70
     1
102
RTVSPropertyOp24
 70
     1
102
RTVSPropertyOp25
 70
     1
102
RTVSPropertyOp26
 70
     1
102
RTVSPropertyOp27
 70
     1
102
RTVSPropertyOp28
 70
     1
102
RTVSPropertyOp29
 70
     1
102
RTVSPropertyOp30
 70
     1
102
RTVSPropertyOp31
 70
     1
102
RTVSPropertyOp32
 70
     1
  0
XRECORD
  5
F4C
102
{ACAD_REACTORS
330
F4B
102
}
330
F4B
100
AcDbXrecord
280
     1
102
RTVSPropertyOp0
 70
     0
102
RTVSPropertyOp1
 70
     0
102
RTVSPropertyOp2
 70
     0
102
RTVSPropertyOp3
 70
     0
102
RTVSPropertyOp4
 70
     0
102
RTVSPropertyOp5
 70
     0
102
RTVSPropertyOp6
 70
     0
102
RTVSPropertyOp7
 70
     0
102
RTVSPropertyOp8
 70
     0
102
RTVSPropertyOp9
 70
     0
102
RTVSPropertyOp10
 70
     0
102
RTVSPropertyOp11
 70
     0
102
RTVSPropertyOp12
 70
     0
102
RTVSPropertyOp13
 70
     0
102
RTVSPropertyOp14
 70
     2
102
RTVSPropertyOp15
 70
     0
102
RTVSPropertyOp16
 70
     0
102
RTVSPropertyOp17
 70
     0
102
RTVSPropertyOp18
 70
     0
102
RTVSPropertyOp19
 70
     0
102
RTVSPropertyOp20
 70
     0
102
RTVSPropertyOp21
 70
     0
102
RTVSPropertyOp22
 70
     0
102
RTVSPropertyOp23
 70
     0
102
RTVSPropertyOp24
 70
     0
102
RTVSPropertyOp25
 70
     0
102
RTVSPropertyOp26
 70
     0
102
RTVSPropertyOp27
 70
     0
102
RTVSPropertyOp28
 70
     0
102
RTVSPropertyOp29
 70
     0
102
RTVSPropertyOp30
 70
     0
102
RTVSPropertyOp31
 70
     0
102
RTVSPropertyOp32
 70
     0
  0
XRECORD
  5
F3C
102
{ACAD_REACTORS
330
F3B
102
}
330
F3B
100
AcDbXrecord
280
     1
102
RTVSPropertyOp0
 70
     1
102
RTVSPropertyOp1
 70
     1
102
RTVSPropertyOp2
 70
     1
102
RTVSPropertyOp3
 70
     1
102
RTVSPropertyOp4
 70
     1
102
RTVSPropertyOp5
 70
     1
102
RTVSPropertyOp6
 70
     1
102
RTVSPropertyOp7
 70
     1
102
RTVSPropertyOp8
 70
     1
102
RTVSPropertyOp9
 70
     1
102
RTVSPropertyOp10
 70
     1
102
RTVSPropertyOp11
 70
     1
102
RTVSPropertyOp12
 70
     1
102
RTVSPropertyOp13
 70
     1
102
RTVSPropertyOp14
 70
     1
102
RTVSPropertyOp15
 70
     1
102
RTVSPropertyOp16
 70
     1
102
RTVSPropertyOp17
 70
     1
102
RTVSPropertyOp18
 70
     1
102
RTVSPropertyOp19
 70
     1
102
RTVSPropertyOp20
 70
     1
102
RTVSPropertyOp21
 70
     1
102
RTVSPropertyOp22
 70
     1
102
RTVSPropertyOp23
 70
     1
102
RTVSPropertyOp24
 70
     1
102
RTVSPropertyOp25
 70
     1
102
RTVSPropertyOp26
 70
     1
102
RTVSPropertyOp27
 70
     1
102
RTVSPropertyOp28
 70
     1
102
RTVSPropertyOp29
 70
     1
102
RTVSPropertyOp30
 70
     1
102
RTVSPropertyOp31
 70
     1
102
RTVSPropertyOp32
 70
     1
  0
XRECORD
  5
F4E
102
{ACAD_REACTORS
330
F4D
102
}
330
F4D
100
AcDbXrecord
280
     1
102
RTVSPropertyOp0
 70
     0
102
RTVSPropertyOp1
 70
     0
102
RTVSPropertyOp2
 70
     0
102
RTVSPropertyOp3
 70
     0
102
RTVSPropertyOp4
 70
     0
102
RTVSPropertyOp5
 70
     0
102
RTVSPropertyOp6
 70
     0
102
RTVSPropertyOp7
 70
     0
102
RTVSPropertyOp8
 70
     0
102
RTVSPropertyOp9
 70
     0
102
RTVSPropertyOp10
 70
     0
102
RTVSPropertyOp11
 70
     0
102
RTVSPropertyOp12
 70
     0
102
RTVSPropertyOp13
 70
     0
102
RTVSPropertyOp14
 70
     2
102
RTVSPropertyOp15
 70
     0
102
RTVSPropertyOp16
 70
     0
102
RTVSPropertyOp17
 70
     0
102
RTVSPropertyOp18
 70
     0
102
RTVSPropertyOp19
 70
     0
102
RTVSPropertyOp20
 70
     0
102
RTVSPropertyOp21
 70
     0
102
RTVSPropertyOp22
 70
     0
102
RTVSPropertyOp23
 70
     0
102
RTVSPropertyOp24
 70
     0
102
RTVSPropertyOp25
 70
     0
102
RTVSPropertyOp26
 70
     0
102
RTVSPropertyOp27
 70
     0
102
RTVSPropertyOp28
 70
     0
102
RTVSPropertyOp29
 70
     0
102
RTVSPropertyOp30
 70
     0
102
RTVSPropertyOp31
 70
     0
102
RTVSPropertyOp32
 70
     0
  0
XRECORD
  5
F34
102
{ACAD_REACTORS
330
F33
102
}
330
F33
100
AcDbXrecord
280
     1
102
RTVSPropertyOp0
 70
     1
102
RTVSPropertyOp1
 70
     1
102
RTVSPropertyOp2
 70
     1
102
RTVSPropertyOp3
 70
     1
102
RTVSPropertyOp4
 70
     1
102
RTVSPropertyOp5
 70
     1
102
RTVSPropertyOp6
 70
     1
102
RTVSPropertyOp7
 70
     1
102
RTVSPropertyOp8
 70
     1
102
RTVSPropertyOp9
 70
     1
102
RTVSPropertyOp10
 70
     1
102
RTVSPropertyOp11
 70
     1
102
RTVSPropertyOp12
 70
     1
102
RTVSPropertyOp13
 70
     1
102
RTVSPropertyOp14
 70
     1
102
RTVSPropertyOp15
 70
     1
102
RTVSPropertyOp16
 70
     1
102
RTVSPropertyOp17
 70
     1
102
RTVSPropertyOp18
 70
     1
102
RTVSPropertyOp19
 70
     1
102
RTVSPropertyOp20
 70
     1
102
RTVSPropertyOp21
 70
     1
102
RTVSPropertyOp22
 70
     1
102
RTVSPropertyOp23
 70
     1
102
RTVSPropertyOp24
 70
     1
102
RTVSPropertyOp25
 70
     1
102
RTVSPropertyOp26
 70
     1
102
RTVSPropertyOp27
 70
     1
102
RTVSPropertyOp28
 70
     1
102
RTVSPropertyOp29
 70
     1
102
RTVSPropertyOp30
 70
     1
102
RTVSPropertyOp31
 70
     1
102
RTVSPropertyOp32
 70
     1
  0
XRECORD
  5
F4A
102
{ACAD_REACTORS
330
F49
102
}
330
F49
100
AcDbXrecord
280
     1
102
RTVSPropertyOp0
 70
     1
102
RTVSPropertyOp1
 70
     1
102
RTVSPropertyOp2
 70
     1
102
RTVSPropertyOp3
 70
     1
102
RTVSPropertyOp4
 70
     1
102
RTVSPropertyOp5
 70
     1
102
RTVSPropertyOp6
 70
     1
102
RTVSPropertyOp7
 70
     1
102
RTVSPropertyOp8
 70
     1
102
RTVSPropertyOp9
 70
     1
102
RTVSPropertyOp10
 70
     1
102
RTVSPropertyOp11
 70
     1
102
RTVSPropertyOp12
 70
     1
102
RTVSPropertyOp13
 70
     1
102
RTVSPropertyOp14
 70
     1
102
RTVSPropertyOp15
 70
     1
102
RTVSPropertyOp16
 70
     1
102
RTVSPropertyOp17
 70
     1
102
RTVSPropertyOp18
 70
     1
102
RTVSPropertyOp19
 70
     1
102
RTVSPropertyOp20
 70
     1
102
RTVSPropertyOp21
 70
     1
102
RTVSPropertyOp22
 70
     1
102
RTVSPropertyOp23
 70
     1
102
RTVSPropertyOp24
 70
     1
102
RTVSPropertyOp25
 70
     1
102
RTVSPropertyOp26
 70
     1
102
RTVSPropertyOp27
 70
     1
102
RTVSPropertyOp28
 70
     1
102
RTVSPropertyOp29
 70
     1
102
RTVSPropertyOp30
 70
     1
102
RTVSPropertyOp31
 70
     1
102
RTVSPropertyOp32
 70
     1
  0
XRECORD
  5
F48
102
{ACAD_REACTORS
330
F47
102
}
330
F47
100
AcDbXrecord
280
     1
102
RTVSPropertyOp0
 70
     1
102
RTVSPropertyOp1
 70
     1
102
RTVSPropertyOp2
 70
     1
102
RTVSPropertyOp3
 70
     1
102
RTVSPropertyOp4
 70
     1
102
RTVSPropertyOp5
 70
     1
102
RTVSPropertyOp6
 70
     1
102
RTVSPropertyOp7
 70
     1
102
RTVSPropertyOp8
 70
     1
102
RTVSPropertyOp9
 70
     1
102
RTVSPropertyOp10
 70
     1
102
RTVSPropertyOp11
 70
     1
102
RTVSPropertyOp12
 70
     1
102
RTVSPropertyOp13
 70
     1
102
RTVSPropertyOp14
 70
     1
102
RTVSPropertyOp15
 70
     1
102
RTVSPropertyOp16
 70
     1
102
RTVSPropertyOp17
 70
     1
102
RTVSPropertyOp18
 70
     1
102
RTVSPropertyOp19
 70
     1
102
RTVSPropertyOp20
 70
     1
102
RTVSPropertyOp21
 70
     1
102
RTVSPropertyOp22
 70
     1
102
RTVSPropertyOp23
 70
     1
102
RTVSPropertyOp24
 70
     1
102
RTVSPropertyOp25
 70
     1
102
RTVSPropertyOp26
 70
     1
102
RTVSPropertyOp27
 70
     1
102
RTVSPropertyOp28
 70
     1
102
RTVSPropertyOp29
 70
     1
102
RTVSPropertyOp30
 70
     1
102
RTVSPropertyOp31
 70
     1
102
RTVSPropertyOp32
 70
     1
  0
XRECORD
  5
F42
102
{ACAD_REACTORS
330
F41
102
}
330
F41
100
AcDbXrecord
280
     1
102
RTVSPropertyOp0
 70
     1
102
RTVSPropertyOp1
 70
     1
102
RTVSPropertyOp2
 70
     1
102
RTVSPropertyOp3
 70
     1
102
RTVSPropertyOp4
 70
     1
102
RTVSPropertyOp5
 70
     1
102
RTVSPropertyOp6
 70
     1
102
RTVSPropertyOp7
 70
     1
102
RTVSPropertyOp8
 70
     1
102
RTVSPropertyOp9
 70
     1
102
RTVSPropertyOp10
 70
     1
102
RTVSPropertyOp11
 70
     1
102
RTVSPropertyOp12
 70
     1
102
RTVSPropertyOp13
 70
     1
102
RTVSPropertyOp14
 70
     1
102
RTVSPropertyOp15
 70
     1
102
RTVSPropertyOp16
 70
     1
102
RTVSPropertyOp17
 70
     1
102
RTVSPropertyOp18
 70
     1
102
RTVSPropertyOp19
 70
     1
102
RTVSPropertyOp20
 70
     1
102
RTVSPropertyOp21
 70
     1
102
RTVSPropertyOp22
 70
     1
102
RTVSPropertyOp23
 70
     1
102
RTVSPropertyOp24
 70
     1
102
RTVSPropertyOp25
 70
     1
102
RTVSPropertyOp26
 70
     1
102
RTVSPropertyOp27
 70
     1
102
RTVSPropertyOp28
 70
     1
102
RTVSPropertyOp29
 70
     1
102
RTVSPropertyOp30
 70
     1
102
RTVSPropertyOp31
 70
     1
102
RTVSPropertyOp32
 70
     1
  0
XRECORD
  5
F44
102
{ACAD_REACTORS
330
F43
102
}
330
F43
100
AcDbXrecord
280
     1
102
RTVSPropertyOp0
 70
     1
102
RTVSPropertyOp1
 70
     1
102
RTVSPropertyOp2
 70
     1
102
RTVSPropertyOp3
 70
     1
102
RTVSPropertyOp4
 70
     1
102
RTVSPropertyOp5
 70
     1
102
RTVSPropertyOp6
 70
     1
102
RTVSPropertyOp7
 70
     1
102
RTVSPropertyOp8
 70
     1
102
RTVSPropertyOp9
 70
     1
102
RTVSPropertyOp10
 70
     1
102
RTVSPropertyOp11
 70
     1
102
RTVSPropertyOp12
 70
     1
102
RTVSPropertyOp13
 70
     1
102
RTVSPropertyOp14
 70
     1
102
RTVSPropertyOp15
 70
     1
102
RTVSPropertyOp16
 70
     1
102
RTVSPropertyOp17
 70
     1
102
RTVSPropertyOp18
 70
     1
102
RTVSPropertyOp19
 70
     1
102
RTVSPropertyOp20
 70
     1
102
RTVSPropertyOp21
 70
     1
102
RTVSPropertyOp22
 70
     1
102
RTVSPropertyOp23
 70
     1
102
RTVSPropertyOp24
 70
     1
102
RTVSPropertyOp25
 70
     1
102
RTVSPropertyOp26
 70
     1
102
RTVSPropertyOp27
 70
     1
102
RTVSPropertyOp28
 70
     1
102
RTVSPropertyOp29
 70
     1
102
RTVSPropertyOp30
 70
     1
102
RTVSPropertyOp31
 70
     1
102
RTVSPropertyOp32
 70
     1
  0
XRECORD
  5
F3A
102
{ACAD_REACTORS
330
F39
102
}
330
F39
100
AcDbXrecord
280
     1
102
RTVSPropertyOp0
 70
     1
102
RTVSPropertyOp1
 70
     1
102
RTVSPropertyOp2
 70
     1
102
RTVSPropertyOp3
 70
     1
102
RTVSPropertyOp4
 70
     1
102
RTVSPropertyOp5
 70
     1
102
RTVSPropertyOp6
 70
     1
102
RTVSPropertyOp7
 70
     1
102
RTVSPropertyOp8
 70
     1
102
RTVSPropertyOp9
 70
     1
102
RTVSPropertyOp10
 70
     1
102
RTVSPropertyOp11
 70
     1
102
RTVSPropertyOp12
 70
     1
102
RTVSPropertyOp13
 70
     1
102
RTVSPropertyOp14
 70
     1
102
RTVSPropertyOp15
 70
     1
102
RTVSPropertyOp16
 70
     1
102
RTVSPropertyOp17
 70
     1
102
RTVSPropertyOp18
 70
     1
102
RTVSPropertyOp19
 70
     1
102
RTVSPropertyOp20
 70
     1
102
RTVSPropertyOp21
 70
     1
102
RTVSPropertyOp22
 70
     1
102
RTVSPropertyOp23
 70
     1
102
RTVSPropertyOp24
 70
     1
102
RTVSPropertyOp25
 70
     1
102
RTVSPropertyOp26
 70
     1
102
RTVSPropertyOp27
 70
     1
102
RTVSPropertyOp28
 70
     1
102
RTVSPropertyOp29
 70
     1
102
RTVSPropertyOp30
 70
     1
102
RTVSPropertyOp31
 70
     1
102
RTVSPropertyOp32
 70
     1
  0
XRECORD
  5
F2E
102
{ACAD_REACTORS
330
F2D
102
}
330
F2D
100
AcDbXrecord
280
     1
102
RTVSPropertyOp0
 70
     1
102
RTVSPropertyOp1
 70
     1
102
RTVSPropertyOp2
 70
     1
102
RTVSPropertyOp3
 70
     1
102
RTVSPropertyOp4
 70
     1
102
RTVSPropertyOp5
 70
     1
102
RTVSPropertyOp6
 70
     1
102
RTVSPropertyOp7
 70
     1
102
RTVSPropertyOp8
 70
     1
102
RTVSPropertyOp9
 70
     1
102
RTVSPropertyOp10
 70
     1
102
RTVSPropertyOp11
 70
     1
102
RTVSPropertyOp12
 70
     1
102
RTVSPropertyOp13
 70
     1
102
RTVSPropertyOp14
 70
     1
102
RTVSPropertyOp15
 70
     1
102
RTVSPropertyOp16
 70
     1
102
RTVSPropertyOp17
 70
     1
102
RTVSPropertyOp18
 70
     1
102
RTVSPropertyOp19
 70
     1
102
RTVSPropertyOp20
 70
     1
102
RTVSPropertyOp21
 70
     1
102
RTVSPropertyOp22
 70
     1
102
RTVSPropertyOp23
 70
     1
102
RTVSPropertyOp24
 70
     1
102
RTVSPropertyOp25
 70
     1
102
RTVSPropertyOp26
 70
     1
102
RTVSPropertyOp27
 70
     1
102
RTVSPropertyOp28
 70
     1
102
RTVSPropertyOp29
 70
     1
102
RTVSPropertyOp30
 70
     1
102
RTVSPropertyOp31
 70
     1
102
RTVSPropertyOp32
 70
     1
  0
XRECORD
  5
F46
102
{ACAD_REACTORS
330
F45
102
}
330
F45
100
AcDbXrecord
280
     1
102
RTVSPropertyOp0
 70
     1
102
RTVSPropertyOp1
 70
     1
102
RTVSPropertyOp2
 70
     1
102
RTVSPropertyOp3
 70
     1
102
RTVSPropertyOp4
 70
     1
102
RTVSPropertyOp5
 70
     1
102
RTVSPropertyOp6
 70
     1
102
RTVSPropertyOp7
 70
     1
102
RTVSPropertyOp8
 70
     1
102
RTVSPropertyOp9
 70
     1
102
RTVSPropertyOp10
 70
     1
102
RTVSPropertyOp11
 70
     1
102
RTVSPropertyOp12
 70
     1
102
RTVSPropertyOp13
 70
     1
102
RTVSPropertyOp14
 70
     1
102
RTVSPropertyOp15
 70
     1
102
RTVSPropertyOp16
 70
     1
102
RTVSPropertyOp17
 70
     1
102
RTVSPropertyOp18
 70
     1
102
RTVSPropertyOp19
 70
     1
102
RTVSPropertyOp20
 70
     1
102
RTVSPropertyOp21
 70
     1
102
RTVSPropertyOp22
 70
     1
102
RTVSPropertyOp23
 70
     1
102
RTVSPropertyOp24
 70
     1
102
RTVSPropertyOp25
 70
     1
102
RTVSPropertyOp26
 70
     1
102
RTVSPropertyOp27
 70
     1
102
RTVSPropertyOp28
 70
     1
102
RTVSPropertyOp29
 70
     1
102
RTVSPropertyOp30
 70
     1
102
RTVSPropertyOp31
 70
     1
102
RTVSPropertyOp32
 70
     1
  0
ENDSEC
  0
EOF
