  0
SECTION
  2
HEADER
  9
$ACADVER
  1
AC1015
  9
$ACADMAINTVER
 70
    20
  9
$DWGCODEPAGE
  3
ANSI_932
  9
$INSBASE
 10
0.0
 20
0.0
 30
0.0
  9
$EXTMIN
 10
609.5351899093729
 20
-459.0402464318703
 30
0.0
  9
$EXTMAX
 10
1014.535189909373
 20
-184.9848854318704
 30
0.0
  9
$LIMMIN
 10
5.317936
 20
-457.965783
  9
$LIMMAX
 10
410.3457879999998
 20
-183.908409
  9
$ORTHOMODE
 70
     1
  9
$REGENMODE
 70
     1
  9
$FILLMODE
 70
     1
  9
$QTEXTMODE
 70
     0
  9
$MIRRTEXT
 70
     0
  9
$LTSCALE
 40
8.0
  9
$ATTMODE
 70
     1
  9
$TEXTSIZE
 40
3.2
  9
$TRACEWID
 40
0.05
  9
$TEXTSTYLE
  7
高3.2
  9
$CLAYER
  8
0
  9
$CELTYPE
  6
ByLayer
  9
$CECOLOR
 62
   256
  9
$CELTSCALE
 40
1.0
  9
$DISPSILH
 70
     0
  9
$DIMSCALE
 40
1.0
  9
$DIMASZ
 40
2.5
  9
$DIMEXO
 40
0.25
  9
$DIMDLI
 40
0.2
  9
$DIMRND
 40
0.0
  9
$DIMDLE
 40
0.0
  9
$DIMEXE
 40
1.25
  9
$DIMTP
 40
0.0
  9
$DIMTM
 40
0.0
  9
$DIMTXT
 40
3.0
  9
$DIMCEN
 40
0.0
  9
$DIMTSZ
 40
0.0
  9
$DIMTOL
 70
     0
  9
$DIMLIM
 70
     0
  9
$DIMTIH
 70
     0
  9
$DIMTOH
 70
     0
  9
$DIMSE1
 70
     0
  9
$DIMSE2
 70
     0
  9
$DIMTAD
 70
     3
  9
$DIMZIN
 70
     8
  9
$DIMBLK
  1
Open30
  9
$DIMASO
 70
     1
  9
$DIMSHO
 70
     1
  9
$DIMPOST
  1

  9
$DIMAPOST
  1

  9
$DIMALT
 70
     0
  9
$DIMALTD
 70
     3
  9
$DIMALTF
 40
0.03937007874016
  9
$DIMLFAC
 40
2.0
  9
$DIMTOFL
 70
     1
  9
$DIMTVP
 40
0.0
  9
$DIMTIX
 70
     0
  9
$DIMSOXD
 70
     0
  9
$DIMSAH
 70
     0
  9
$DIMBLK1
  1

  9
$DIMBLK2
  1

  9
$DIMSTYLE
  2
1／2
  9
$DIMCLRD
 70
     0
  9
$DIMCLRE
 70
     0
  9
$DIMCLRT
 70
     4
  9
$DIMTFAC
 40
1.0
  9
$DIMGAP
 40
0.625
  9
$DIMJUST
 70
     0
  9
$DIMSD1
 70
     0
  9
$DIMSD2
 70
     0
  9
$DIMTOLJ
 70
     0
  9
$DIMTZIN
 70
     8
  9
$DIMALTZ
 70
     0
  9
$DIMALTTZ
 70
     0
  9
$DIMUPT
 70
     1
  9
$DIMDEC
 70
     2
  9
$DIMTDEC
 70
     2
  9
$DIMALTU
 70
     2
  9
$DIMALTTD
 70
     3
  9
$DIMTXSTY
  7
STANDARD
  9
$DIMAUNIT
 70
     0
  9
$DIMADEC
 70
     1
  9
$DIMALTRND
 40
0.0
  9
$DIMAZIN
 70
     2
  9
$DIMDSEP
 70
    46
  9
$DIMATFIT
 70
     0
  9
$DIMFRAC
 70
     0
  9
$DIMLDRBLK
  1
Open30
  9
$DIMLUNIT
 70
     2
  9
$DIMLWD
 70
    -2
  9
$DIMLWE
 70
    -2
  9
$DIMTMOVE
 70
     0
  9
$LUNITS
 70
     2
  9
$LUPREC
 70
     4
  9
$SKETCHINC
 40
0.1
  9
$FILLETRAD
 40
0.0
  9
$AUNITS
 70
     0
  9
$AUPREC
 70
     0
  9
$MENU
  1
.
  9
$ELEVATION
 40
0.0
  9
$PELEVATION
 40
0.0
  9
$THICKNESS
 40
0.0
  9
$LIMCHECK
 70
     0
  9
$CHAMFERA
 40
0.0
  9
$CHAMFERB
 40
0.0
  9
$CHAMFERC
 40
0.0
  9
$CHAMFERD
 40
0.0
  9
$SKPOLY
 70
     0
  9
$TDCREATE
 40
2455754.748965220
  9
$TDUCREATE
 40
2455754.373965220
  9
$TDUPDATE
 40
2459893.498353113
  9
$TDUUPDATE
 40
2459893.123353114
  9
$TDINDWG
 40
0.0914807060
  9
$TDUSRTIMER
 40
0.0914807060
  9
$USRTIMER
 70
     1
  9
$ANGBASE
 50
0.0
  9
$ANGDIR
 70
     0
  9
$PDMODE
 70
     0
  9
$PDSIZE
 40
0.0
  9
$PLINEWID
 40
0.0
  9
$SPLFRAME
 70
     0
  9
$SPLINETYPE
 70
     6
  9
$SPLINESEGS
 70
     8
  9
$HANDSEED
  5
16FF
  9
$SURFTAB1
 70
     6
  9
$SURFTAB2
 70
     6
  9
$SURFTYPE
 70
     6
  9
$SURFU
 70
     6
  9
$SURFV
 70
     6
  9
$UCSBASE
  2

  9
$UCSNAME
  2

  9
$UCSORG
 10
0.0
 20
0.0
 30
0.0
  9
$UCSXDIR
 10
1.0
 20
0.0
 30
0.0
  9
$UCSYDIR
 10
0.0
 20
1.0
 30
0.0
  9
$UCSORTHOREF
  2

  9
$UCSORTHOVIEW
 70
     0
  9
$UCSORGTOP
 10
0.0
 20
0.0
 30
0.0
  9
$UCSORGBOTTOM
 10
0.0
 20
0.0
 30
0.0
  9
$UCSORGLEFT
 10
0.0
 20
0.0
 30
0.0
  9
$UCSORGRIGHT
 10
0.0
 20
0.0
 30
0.0
  9
$UCSORGFRONT
 10
0.0
 20
0.0
 30
0.0
  9
$UCSORGBACK
 10
0.0
 20
0.0
 30
0.0
  9
$PUCSBASE
  2

  9
$PUCSNAME
  2

  9
$PUCSORG
 10
0.0
 20
0.0
 30
0.0
  9
$PUCSXDIR
 10
1.0
 20
0.0
 30
0.0
  9
$PUCSYDIR
 10
0.0
 20
1.0
 30
0.0
  9
$PUCSORTHOREF
  2

  9
$PUCSORTHOVIEW
 70
     0
  9
$PUCSORGTOP
 10
0.0
 20
0.0
 30
0.0
  9
$PUCSORGBOTTOM
 10
0.0
 20
0.0
 30
0.0
  9
$PUCSORGLEFT
 10
0.0
 20
0.0
 30
0.0
  9
$PUCSORGRIGHT
 10
0.0
 20
0.0
 30
0.0
  9
$PUCSORGFRONT
 10
0.0
 20
0.0
 30
0.0
  9
$PUCSORGBACK
 10
0.0
 20
0.0
 30
0.0
  9
$USERI1
 70
     0
  9
$USERI2
 70
     0
  9
$USERI3
 70
     0
  9
$USERI4
 70
     0
  9
$USERI5
 70
     0
  9
$USERR1
 40
0.0
  9
$USERR2
 40
0.0
  9
$USERR3
 40
0.0
  9
$USERR4
 40
0.0
  9
$USERR5
 40
0.0
  9
$WORLDVIEW
 70
     1
  9
$SHADEDGE
 70
     3
  9
$SHADEDIF
 70
    70
  9
$TILEMODE
 70
     1
  9
$MAXACTVP
 70
    64
  9
$PINSBASE
 10
0.0
 20
0.0
 30
0.0
  9
$PLIMCHECK
 70
     0
  9
$PEXTMIN
 10
1.000000000000000E+20
 20
1.000000000000000E+20
 30
1.000000000000000E+20
  9
$PEXTMAX
 10
-1.000000000000000E+20
 20
-1.000000000000000E+20
 30
-1.000000000000000E+20
  9
$PLIMMIN
 10
0.0
 20
0.0
  9
$PLIMMAX
 10
12.0
 20
9.0
  9
$UNITMODE
 70
     0
  9
$VISRETAIN
 70
     1
  9
$PLINEGEN
 70
     0
  9
$PSLTSCALE
 70
     1
  9
$TREEDEPTH
 70
  3020
  9
$CMLSTYLE
  2
Standard
  9
$CMLJUST
 70
     0
  9
$CMLSCALE
 40
1.0
  9
$PROXYGRAPHICS
 70
     1
  9
$MEASUREMENT
 70
     0
  9
$CELWEIGHT
370
    -1
  9
$ENDCAPS
280
     0
  9
$JOINSTYLE
280
     0
  9
$LWDISPLAY
290
     0
  9
$INSUNITS
 70
     0
  9
$HYPERLINKBASE
  1

  9
$STYLESHEET
  1
N-PLOT.CTB
  9
$XEDIT
290
     1
  9
$CEPSNTYPE
380
     0
  9
$PSTYLEMODE
290
     1
  9
$FINGERPRINTGUID
  2
{F311CFBA-2A29-42B8-BC39-DB0E8492383F}
  9
$VERSIONGUID
  2
{9B21AFD2-86A0-454F-AA02-188DD93F059A}
  9
$EXTNAMES
290
     1
  9
$PSVPSCALE
 40
0.0
  9
$OLESTARTUP
290
     0
  0
ENDSEC
  0
SECTION
  2
CLASSES
  0
CLASS
  1
ACDBDICTIONARYWDFLT
  2
AcDbDictionaryWithDefault
  3
ObjectDBX Classes
 90
        0
280
     0
281
     0
  0
CLASS
  1
MATERIAL
  2
AcDbMaterial
  3
ObjectDBX Classes
 90
     1153
280
     0
281
     0
  0
CLASS
  1
VISUALSTYLE
  2
AcDbVisualStyle
  3
ObjectDBX Classes
 90
     4095
280
     0
281
     0
  0
CLASS
  1
SCALE
  2
AcDbScale
  3
ObjectDBX Classes
 90
     1153
280
     0
281
     0
  0
CLASS
  1
TABLESTYLE
  2
AcDbTableStyle
  3
ObjectDBX Classes
 90
     4095
280
     0
281
     0
  0
CLASS
  1
MLEADERSTYLE
  2
AcDbMLeaderStyle
  3
ACDB_MLEADERSTYLE_CLASS
 90
     4095
280
     0
281
     0
  0
CLASS
  1
SORTENTSTABLE
  2
AcDbSortentsTable
  3
ObjectDBX Classes
 90
        0
280
     0
281
     0
  0
CLASS
  1
DICTIONARYVAR
  2
AcDbDictionaryVar
  3
ObjectDBX Classes
 90
        0
280
     0
281
     0
  0
CLASS
  1
CELLSTYLEMAP
  2
AcDbCellStyleMap
  3
ObjectDBX Classes
 90
     1152
280
     0
281
     0
  0
CLASS
  1
ACDBPLACEHOLDER
  2
AcDbPlaceHolder
  3
ObjectDBX Classes
 90
        0
280
     0
281
     0
  0
CLASS
  1
LAYOUT
  2
AcDbLayout
  3
ObjectDBX Classes
 90
        0
280
     0
281
     0
  0
ENDSEC
  0
SECTION
  2
TABLES
  0
TABLE
  2
VPORT
  5
8
330
0
100
AcDbSymbolTable
 70
     1
  0
VPORT
  5
8B
330
8
100
AcDbSymbolTableRecord
100
AcDbViewportTableRecord
  2
*Active
 70
     0
 10
0.0
 20
0.0
 11
1.0
 21
1.0
 12
832.0911453785678
 22
-310.2470495881637
 13
0.0
 23
0.0
 14
1.0
 24
1.0
 15
0.0
 25
0.0
 16
0.0
 26
0.0
 36
1.0
 17
0.0
 27
0.0
 37
0.0
 40
686.2652017230193
 41
1.202479338842975
 42
50.0
 43
0.0
 44
0.0
 50
0.0
 51
0.0
 71
     0
 72
   100
 73
     1
 74
     1
 75
     0
 76
     0
 77
     0
 78
     0
281
     0
 65
     1
110
0.0
120
0.0
130
0.0
111
1.0
121
0.0
131
0.0
112
0.0
122
1.0
132
0.0
 79
     0
146
0.0
  0
ENDTAB
  0
TABLE
  2
LTYPE
  5
5
330
0
100
AcDbSymbolTable
 70
     4
  0
LTYPE
  5
5A
330
5
100
AcDbSymbolTableRecord
100
AcDbLinetypeTableRecord
  2
ByBlock
 70
     0
  3

 72
    65
 73
     0
 40
0.0
  0
LTYPE
  5
5B
330
5
100
AcDbSymbolTableRecord
100
AcDbLinetypeTableRecord
  2
ByLayer
 70
     0
  3

 72
    65
 73
     0
 40
0.0
  0
LTYPE
  5
5C
330
5
100
AcDbSymbolTableRecord
100
AcDbLinetypeTableRecord
  2
CONTINUOUS
 70
     0
  3
Solid-line
 72
    65
 73
     0
 40
0.0
  0
LTYPE
  5
82
330
5
100
AcDbSymbolTableRecord
100
AcDbLinetypeTableRecord
  2
HIDDEN2
 70
     0
  3
HIDDEN2
 72
    65
 73
     2
 40
0.1875
 49
0.125
 74
     0
 49
-0.0625
 74
     0
  0
LTYPE
  5
15C8
330
5
100
AcDbSymbolTableRecord
100
AcDbLinetypeTableRecord
  2
HIDDEN
 70
     0
  3
Hidden __ __ __ __ __ __ __ __ __ __ __ __ __ _
 72
    65
 73
     2
 40
0.375
 49
0.25
 74
     0
 49
-0.125
 74
     0
  0
ENDTAB
  0
TABLE
  2
LAYER
  5
2
102
{ACAD_XDICTIONARY
360
556
102
}
330
0
100
AcDbSymbolTable
 70
     2
  0
LAYER
  5
54
102
{ACAD_XDICTIONARY
360
6BB
102
}
330
2
100
AcDbSymbolTableRecord
100
AcDbLayerTableRecord
  2
0
 70
     0
 62
     7
  6
CONTINUOUS
370
    -3
390
F
  0
LAYER
  5
410
330
2
100
AcDbSymbolTableRecord
100
AcDbLayerTableRecord
  2
Defpoints
 70
     0
 62
     7
  6
CONTINUOUS
290
     0
370
    -3
390
F
  0
ENDTAB
  0
TABLE
  2
STYLE
  5
3
330
0
100
AcDbSymbolTable
 70
     7
  0
STYLE
  5
55
330
3
100
AcDbSymbolTableRecord
100
AcDbTextStyleTableRecord
  2
STANDARD
 70
     0
 40
0.0
 41
1.0
 50
0.0
 71
     0
 42
0.2
  3
TXT
  4
BIGFONT
  0
STYLE
  5
542
330
3
100
AcDbSymbolTableRecord
100
AcDbTextStyleTableRecord
  2
高3.2
 70
     0
 40
3.2
 41
1.0
 50
0.0
 71
     0
 42
3.2
  3
txt.shx
  4
bigfont.shx
  0
STYLE
  5
543
330
3
100
AcDbSymbolTableRecord
100
AcDbTextStyleTableRecord
  2
高6.3
 70
     0
 40
6.299999999999998
 41
1.0
 50
0.0
 71
     0
 42
6.299999999999998
  3
txt.shx
  4
bigfont.shx
  0
STYLE
  5
544
330
3
100
AcDbSymbolTableRecord
100
AcDbTextStyleTableRecord
  2
高2.5
 70
     0
 40
2.5
 41
1.0
 50
0.0
 71
     0
 42
0.2
  3
txt.shx
  4
bigfont.shx
  0
STYLE
  5
545
330
3
100
AcDbSymbolTableRecord
100
AcDbTextStyleTableRecord
  2
高4.5
 70
     0
 40
4.5
 41
1.0
 50
0.0
 71
     0
 42
6.299999999999998
  3
txt.shx
  4
bigfont.shx
  0
STYLE
  5
546
330
3
100
AcDbSymbolTableRecord
100
AcDbTextStyleTableRecord
  2
高2
 70
     0
 40
2.0
 41
1.0
 50
0.0
 71
     0
 42
6.299999999999998
  3
txt.shx
  4
bigfont.shx
  0
STYLE
  5
15C7
330
3
100
AcDbSymbolTableRecord
100
AcDbTextStyleTableRecord
  2

 70
     1
 40
0.0
 41
1.0
 50
0.0
 71
     0
 42
3.2
  3
ltypeshp.shx
  4

  0
ENDTAB
  0
TABLE
  2
VIEW
  5
6
330
0
100
AcDbSymbolTable
 70
     0
  0
ENDTAB
  0
TABLE
  2
UCS
  5
7
330
0
100
AcDbSymbolTable
 70
     0
  0
ENDTAB
  0
TABLE
  2
APPID
  5
9
330
0
100
AcDbSymbolTable
 70
    13
  0
APPID
  5
56
330
9
100
AcDbSymbolTableRecord
100
AcDbRegAppTableRecord
  2
ACAD
 70
     0
  0
APPID
  5
5D
330
9
100
AcDbSymbolTableRecord
100
AcDbRegAppTableRecord
  2
AcadAnnotative
 70
     0
  0
APPID
  5
403
330
9
100
AcDbSymbolTableRecord
100
AcDbRegAppTableRecord
  2
ACAD_EXEMPT_FROM_CAD_STANDARDS
 70
     0
  0
APPID
  5
46B
330
9
100
AcDbSymbolTableRecord
100
AcDbRegAppTableRecord
  2
GradientColor1ACI
 70
     0
  0
APPID
  5
46C
330
9
100
AcDbSymbolTableRecord
100
AcDbRegAppTableRecord
  2
GradientColor2ACI
 70
     0
  0
APPID
  5
551
330
9
100
AcDbSymbolTableRecord
100
AcDbRegAppTableRecord
  2
ACAD_DSTYLE_DIMJOGGED_JOGANGLE_SYMBOL
 70
     0
  0
APPID
  5
552
330
9
100
AcDbSymbolTableRecord
100
AcDbRegAppTableRecord
  2
ACAD_DSTYLE_DIMJAG
 70
     0
  0
APPID
  5
553
330
9
100
AcDbSymbolTableRecord
100
AcDbRegAppTableRecord
  2
ACAD_DSTYLE_DIMBREAK
 70
     0
  0
APPID
  5
554
330
9
100
AcDbSymbolTableRecord
100
AcDbRegAppTableRecord
  2
ACAD_DSTYLE_DIMTALN
 70
     0
  0
APPID
  5
6BF
330
9
100
AcDbSymbolTableRecord
100
AcDbRegAppTableRecord
  2
ACAD_PSEXT
 70
     0
  0
APPID
  5
71D
330
9
100
AcDbSymbolTableRecord
100
AcDbRegAppTableRecord
  2
ACAD_MLEADERVER
 70
     0
  0
APPID
  5
722
330
9
100
AcDbSymbolTableRecord
100
AcDbRegAppTableRecord
  2
ACAD_DSTYLE_DIMARC_LENGTH_SYMBOL
 70
     0
  0
APPID
  5
723
330
9
100
AcDbSymbolTableRecord
100
AcDbRegAppTableRecord
  2
ACAD_DSTYLE_DIMEXT_LENGTH
 70
     0
  0
ENDTAB
  0
TABLE
  2
DIMSTYLE
  5
A
330
0
100
AcDbSymbolTable
 70
    11
100
AcDbDimStyleTable
 71
     3
340
54B
340
550
340
57
  0
DIMSTYLE
105
57
330
A
100
AcDbSymbolTableRecord
100
AcDbDimStyleTableRecord
  2
Standard
 70
     0
340
55
  0
DIMSTYLE
105
547
330
A
100
AcDbSymbolTableRecord
100
AcDbDimStyleTableRecord
  2
1：1
 70
     0
 41
2.5
 42
0.25
 43
0.2
 44
1.25
 73
     0
 74
     0
 77
     3
 78
     8
 79
     2
140
3.0
141
0.0
143
0.03937007874016
147
0.625
171
     3
172
     1
178
     4
179
     1
271
     2
272
     2
274
     3
283
     0
284
     8
288
     1
289
     0
340
55
341
4B2
342
4B2
1001
ACAD_DSTYLE_DIMARC_LENGTH_SYMBOL
1070
   379
1070
     2
1001
ACAD_DSTYLE_DIMEXT_LENGTH
1070
   378
1040
1.25
1001
ACAD_DSTYLE_DIMJOGGED_JOGANGLE_SYMBOL
1070
   384
1040
1.570796326794896
  0
DIMSTYLE
105
548
330
A
100
AcDbSymbolTableRecord
100
AcDbDimStyleTableRecord
  2
2：1
 70
     0
 41
2.5
 42
0.25
 43
0.2
 44
1.25
 73
     0
 74
     0
 77
     3
 78
     8
 79
     2
140
3.0
141
0.0
143
0.03937007874016
144
0.5
147
0.625
171
     3
172
     1
178
     4
179
     1
271
     2
272
     2
274
     3
283
     0
284
     8
288
     1
289
     0
340
55
341
4B2
342
4B2
1001
ACAD_DSTYLE_DIMARC_LENGTH_SYMBOL
1070
   379
1070
     2
1001
ACAD_DSTYLE_DIMEXT_LENGTH
1070
   378
1040
1.25
1001
ACAD_DSTYLE_DIMJOGGED_JOGANGLE_SYMBOL
1070
   384
1040
1.570796326794896
  0
DIMSTYLE
105
549
330
A
100
AcDbSymbolTableRecord
100
AcDbDimStyleTableRecord
  2
5：1
 70
     0
 41
2.5
 42
0.25
 43
0.2
 44
1.25
 73
     0
 74
     0
 77
     3
 78
     8
 79
     2
140
3.0
141
0.0
143
0.03937007874016
144
0.2
147
0.625
171
     3
172
     1
178
     4
179
     1
271
     2
272
     2
274
     3
283
     0
284
     8
288
     1
289
     0
340
55
341
4B2
342
4B2
1001
ACAD_DSTYLE_DIMARC_LENGTH_SYMBOL
1070
   379
1070
     2
1001
ACAD_DSTYLE_DIMEXT_LENGTH
1070
   378
1040
1.25
1001
ACAD_DSTYLE_DIMJOGGED_JOGANGLE_SYMBOL
1070
   384
1040
1.570796326794896
  0
DIMSTYLE
105
54A
330
A
100
AcDbSymbolTableRecord
100
AcDbDimStyleTableRecord
  2
10：1
 70
     0
 41
2.5
 42
0.25
 43
0.2
 44
1.25
 73
     0
 74
     0
 77
     3
 78
     8
 79
     2
140
3.0
141
0.0
143
0.03937007874016
144
0.1
147
0.625
171
     3
172
     1
178
     4
179
     1
271
     2
272
     2
274
     3
283
     0
284
     8
288
     1
289
     0
340
55
341
4B2
342
4B2
1001
ACAD_DSTYLE_DIMARC_LENGTH_SYMBOL
1070
   379
1070
     2
1001
ACAD_DSTYLE_DIMEXT_LENGTH
1070
   378
1040
1.25
1001
ACAD_DSTYLE_DIMJOGGED_JOGANGLE_SYMBOL
1070
   384
1040
1.570796326794896
  0
DIMSTYLE
105
54B
330
A
100
AcDbSymbolTableRecord
100
AcDbDimStyleTableRecord
  2
1／2
 70
     0
 41
2.5
 42
0.25
 43
0.2
 44
1.25
 73
     0
 74
     0
 77
     3
 78
     8
 79
     2
140
3.0
141
0.0
143
0.03937007874016
144
2.0
147
0.625
171
     3
172
     1
178
     4
179
     1
271
     2
272
     2
274
     3
283
     0
284
     8
288
     1
289
     0
340
55
341
4B2
342
4B2
1001
ACAD_DSTYLE_DIMARC_LENGTH_SYMBOL
1070
   379
1070
     2
1001
ACAD_DSTYLE_DIMEXT_LENGTH
1070
   378
1040
1.25
1001
ACAD_DSTYLE_DIMJOGGED_JOGANGLE_SYMBOL
1070
   384
1040
1.570796326794896
  0
DIMSTYLE
105
54C
330
A
100
AcDbSymbolTableRecord
100
AcDbDimStyleTableRecord
  2
1／5
 70
     0
 41
2.5
 42
0.25
 43
0.2
 44
1.25
 73
     0
 74
     0
 77
     3
 78
     8
 79
     2
140
3.0
141
0.0
143
0.03937007874016
144
5.0
147
0.625
171
     3
172
     1
178
     4
179
     1
271
     2
272
     2
274
     3
283
     0
284
     8
288
     1
289
     0
340
55
341
4B2
342
4B2
1001
ACAD_DSTYLE_DIMARC_LENGTH_SYMBOL
1070
   379
1070
     2
1001
ACAD_DSTYLE_DIMEXT_LENGTH
1070
   378
1040
1.25
1001
ACAD_DSTYLE_DIMJOGGED_JOGANGLE_SYMBOL
1070
   384
1040
1.570796326794896
  0
DIMSTYLE
105
54D
330
A
100
AcDbSymbolTableRecord
100
AcDbDimStyleTableRecord
  2
1／10
 70
     0
 41
2.5
 42
0.25
 43
0.2
 44
1.25
 73
     0
 74
     0
 77
     3
 78
     8
 79
     2
140
3.0
141
0.0
143
0.03937007874016
144
10.0
147
0.625
171
     3
172
     1
178
     4
179
     1
271
     2
272
     2
274
     3
283
     0
284
     8
288
     1
289
     0
340
55
341
4B2
342
4B2
1001
ACAD_DSTYLE_DIMARC_LENGTH_SYMBOL
1070
   379
1070
     2
1001
ACAD_DSTYLE_DIMEXT_LENGTH
1070
   378
1040
1.25
1001
ACAD_DSTYLE_DIMJOGGED_JOGANGLE_SYMBOL
1070
   384
1040
1.570796326794896
  0
DIMSTYLE
105
54E
330
A
100
AcDbSymbolTableRecord
100
AcDbDimStyleTableRecord
  2
1／4
 70
     0
 41
2.5
 42
0.25
 43
0.2
 44
1.25
 73
     0
 74
     0
 77
     3
 78
     8
 79
     2
140
3.0
141
0.0
143
0.03937007874016
144
4.0
147
0.625
171
     3
172
     1
178
     4
179
     1
271
     2
272
     2
274
     3
283
     0
284
     8
288
     1
289
     0
340
55
341
4B2
342
4B2
1001
ACAD_DSTYLE_DIMARC_LENGTH_SYMBOL
1070
   379
1070
     2
1001
ACAD_DSTYLE_DIMEXT_LENGTH
1070
   378
1040
1.25
1001
ACAD_DSTYLE_DIMJOGGED_JOGANGLE_SYMBOL
1070
   384
1040
1.570796326794896
  0
DIMSTYLE
105
54F
330
A
100
AcDbSymbolTableRecord
100
AcDbDimStyleTableRecord
  2
1／3
 70
     0
 41
2.5
 42
0.25
 43
0.2
 44
1.25
 73
     0
 74
     0
 77
     3
 78
     8
 79
     2
140
3.0
141
0.0
143
0.03937007874016
144
3.0
147
0.625
171
     3
172
     1
178
     4
179
     1
271
     2
272
     2
274
     3
283
     0
284
     8
288
     1
289
     0
340
55
341
4B2
342
4B2
1001
ACAD_DSTYLE_DIMARC_LENGTH_SYMBOL
1070
   379
1070
     2
1001
ACAD_DSTYLE_DIMEXT_LENGTH
1070
   378
1040
1.25
1001
ACAD_DSTYLE_DIMJOGGED_JOGANGLE_SYMBOL
1070
   384
1040
1.570796326794896
  0
DIMSTYLE
105
550
330
A
100
AcDbSymbolTableRecord
100
AcDbDimStyleTableRecord
  2
FREE
 70
     0
 41
2.5
 42
0.25
 43
0.2
 44
1.25
 73
     0
 74
     0
 77
     3
 78
     8
 79
     2
140
3.0
141
0.0
143
0.03937007874016
147
0.625
171
     3
172
     1
178
     4
179
     1
271
     2
272
     2
274
     3
283
     0
284
     8
288
     1
289
     0
340
55
341
4B2
342
4B2
1001
ACAD_DSTYLE_DIMBREAK
1070
   391
1040
3.75
1001
ACAD_DSTYLE_DIMJAG
1070
   388
1040
1.5
1001
ACAD_DSTYLE_DIMTALN
1070
   392
1070
     0
1001
ACAD_DSTYLE_DIMARC_LENGTH_SYMBOL
1070
   379
1070
     2
1001
ACAD_DSTYLE_DIMEXT_LENGTH
1070
   378
1040
1.25
1001
ACAD_DSTYLE_DIMJOGGED_JOGANGLE_SYMBOL
1070
   384
1040
1.570796326794896
  0
ENDTAB
  0
TABLE
  2
BLOCK_RECORD
  5
1
330
0
100
AcDbSymbolTable
 70
    18
  0
BLOCK_RECORD
  5
6B
102
{ACAD_XDICTIONARY
360
3D3
102
}
330
1
100
AcDbSymbolTableRecord
100
AcDbBlockTableRecord
  2
*Model_Space
340
6E
  0
BLOCK_RECORD
  5
67
330
1
100
AcDbSymbolTableRecord
100
AcDbBlockTableRecord
  2
*Paper_Space
340
6A
  0
BLOCK_RECORD
  5
4B2
330
1
100
AcDbSymbolTableRecord
100
AcDbBlockTableRecord
  2
_Open30
340
0
102
{BLKREFS
331
1457
331
1458
331
1462
331
1463
331
146D
331
146E
331
1478
331
1479
331
1483
331
1484
331
148E
331
148F
331
1499
331
149A
331
14A4
331
14A5
331
14AF
331
14B0
331
14B8
331
14B9
331
1588
331
1589
331
1591
331
1592
331
159A
331
159B
331
15A5
331
15A6
331
15AE
331
15AF
331
15B7
331
15B8
331
15C0
331
15C1
102
}
  0
BLOCK_RECORD
  5
C7A
330
1
100
AcDbSymbolTableRecord
100
AcDbBlockTableRecord
  2
*D1
340
0
  0
BLOCK_RECORD
  5
C86
330
1
100
AcDbSymbolTableRecord
100
AcDbBlockTableRecord
  2
*D2
340
0
  0
BLOCK_RECORD
  5
C92
330
1
100
AcDbSymbolTableRecord
100
AcDbBlockTableRecord
  2
*D3
340
0
  0
BLOCK_RECORD
  5
C9E
330
1
100
AcDbSymbolTableRecord
100
AcDbBlockTableRecord
  2
*D4
340
0
  0
BLOCK_RECORD
  5
CAC
330
1
100
AcDbSymbolTableRecord
100
AcDbBlockTableRecord
  2
*D5
340
0
  0
BLOCK_RECORD
  5
CB8
330
1
100
AcDbSymbolTableRecord
100
AcDbBlockTableRecord
  2
*D6
340
0
  0
BLOCK_RECORD
  5
DBE
330
1
100
AcDbSymbolTableRecord
100
AcDbBlockTableRecord
  2
*D7
340
0
  0
BLOCK_RECORD
  5
13C8
330
1
100
AcDbSymbolTableRecord
100
AcDbBlockTableRecord
  2
*D8
340
0
  0
BLOCK_RECORD
  5
13D6
330
1
100
AcDbSymbolTableRecord
100
AcDbBlockTableRecord
  2
*D9
340
0
  0
BLOCK_RECORD
  5
13E4
330
1
100
AcDbSymbolTableRecord
100
AcDbBlockTableRecord
  2
*D10
340
0
  0
BLOCK_RECORD
  5
13F2
330
1
100
AcDbSymbolTableRecord
100
AcDbBlockTableRecord
  2
*D11
340
0
  0
BLOCK_RECORD
  5
1400
330
1
100
AcDbSymbolTableRecord
100
AcDbBlockTableRecord
  2
*D12
340
0
  0
BLOCK_RECORD
  5
140E
330
1
100
AcDbSymbolTableRecord
100
AcDbBlockTableRecord
  2
*D13
340
0
  0
BLOCK_RECORD
  5
141C
330
1
100
AcDbSymbolTableRecord
100
AcDbBlockTableRecord
  2
*D14
340
0
  0
BLOCK_RECORD
  5
142A
330
1
100
AcDbSymbolTableRecord
100
AcDbBlockTableRecord
  2
*D15
340
0
  0
BLOCK_RECORD
  5
1438
330
1
100
AcDbSymbolTableRecord
100
AcDbBlockTableRecord
  2
*D16
340
0
  0
BLOCK_RECORD
  5
1446
330
1
100
AcDbSymbolTableRecord
100
AcDbBlockTableRecord
  2
*D17
340
0
  0
ENDTAB
  0
ENDSEC
  0
SECTION
  2
BLOCKS
  0
BLOCK
  5
6C
330
6B
100
AcDbEntity
  8
0
100
AcDbBlockBegin
  2
*Model_Space
 70
     0
 10
0.0
 20
0.0
 30
0.0
  3
*Model_Space
  1

  0
ENDBLK
  5
6D
330
6B
100
AcDbEntity
  8
0
100
AcDbBlockEnd
  0
BLOCK
  5
68
330
67
100
AcDbEntity
 67
     1
  8
0
100
AcDbBlockBegin
  2
*Paper_Space
 70
     0
 10
0.0
 20
0.0
 30
0.0
  3
*Paper_Space
  1

  0
ENDBLK
  5
69
330
67
100
AcDbEntity
 67
     1
  8
0
100
AcDbBlockEnd
  0
BLOCK
  5
4B3
330
4B2
100
AcDbEntity
  8
0
100
AcDbBlockBegin
  2
_Open30
 70
     0
 10
0.0
 20
0.0
 30
0.0
  3
_Open30
  1

  0
LINE
  5
4B4
330
4B2
100
AcDbEntity
  8
0
  6
ByBlock
 62
     0
370
    -2
100
AcDbLine
 10
-1.0
 20
0.267949
 30
0.0
 11
0.0
 21
0.0
 31
0.0
  0
LINE
  5
4B5
330
4B2
100
AcDbEntity
  8
0
  6
ByBlock
 62
     0
370
    -2
100
AcDbLine
 10
0.0
 20
0.0
 30
0.0
 11
-1.0
 21
-0.267949
 31
0.0
  0
LINE
  5
4B6
330
4B2
100
AcDbEntity
  8
0
  6
ByBlock
 62
     0
370
    -2
100
AcDbLine
 10
0.0
 20
0.0
 30
0.0
 11
-1.0
 21
0.0
 31
0.0
  0
ENDBLK
  5
4B7
330
4B2
100
AcDbEntity
  8
0
100
AcDbBlockEnd
  0
BLOCK
  5
C7B
330
C7A
100
AcDbEntity
  8
0
100
AcDbBlockBegin
  2
*D1
 70
     1
 10
0.0
 20
0.0
 30
0.0
  3
*D1
  1

  0
LINE
  5
1585
330
C7A
100
AcDbEntity
  8
0
 62
     0
370
    -2
100
AcDbLine
 10
786.5623593723877
 20
-309.9396202913854
 30
0.0
 11
786.5623593723877
 21
-330.2707421812854
 31
0.0
  0
LINE
  5
1586
330
C7A
100
AcDbEntity
  8
0
 62
     0
370
    -2
100
AcDbLine
 10
685.5623593723876
 20
-309.9396202913854
 30
0.0
 11
685.5623593723876
 21
-330.2707421812854
 31
0.0
  0
LINE
  5
1587
330
C7A
100
AcDbEntity
  8
0
 62
     0
370
    -2
100
AcDbLine
 10
784.0623593723877
 20
-329.0207421812854
 30
0.0
 11
688.0623593723876
 21
-329.0207421812854
 31
0.0
  0
INSERT
  5
1588
330
C7A
100
AcDbEntity
  8
0
 62
     0
370
    -2
100
AcDbBlockReference
  2
_Open30
 10
786.5623593723877
 20
-329.0207421812854
 30
0.0
 41
2.5
 42
2.5
 43
2.5
  0
INSERT
  5
1589
330
C7A
100
AcDbEntity
  8
0
 62
     0
370
    -2
100
AcDbBlockReference
  2
_Open30
 10
685.5623593723876
 20
-329.0207421812854
 30
0.0
 41
2.5
 42
2.5
 43
2.5
 50
180.0
  0
MTEXT
  5
158A
330
C7A
100
AcDbEntity
  8
0
 62
     4
100
AcDbMText
 10
734.0496223991285
 20
-326.8957421812853
 30
0.0
 40
3.0
 41
0.0
 71
     5
 72
     1
  1
202
 73
     1
 44
1.0
1001
ACAD
1000
MTEXTBEGIN
1070
    73
1070
     1
1070
    44
1040
1.0
1070
    74
1070
     0
1000
MTEXTEND
  0
POINT
  5
158B
330
C7A
100
AcDbEntity
  8
Defpoints
 62
     0
100
AcDbPoint
 10
786.5623593723877
 20
-309.6896202913854
 30
0.0
  0
POINT
  5
158C
330
C7A
100
AcDbEntity
  8
Defpoints
 62
     0
100
AcDbPoint
 10
685.5623593723876
 20
-309.6896202913854
 30
0.0
  0
POINT
  5
158D
330
C7A
100
AcDbEntity
  8
Defpoints
 62
     0
100
AcDbPoint
 10
685.5623593723876
 20
-329.0207421812854
 30
0.0
  0
ENDBLK
  5
C7C
330
C7A
100
AcDbEntity
  8
0
100
AcDbBlockEnd
  0
BLOCK
  5
C87
330
C86
100
AcDbEntity
  8
0
100
AcDbBlockBegin
  2
*D2
 70
     1
 10
0.0
 20
0.0
 30
0.0
  3
*D2
  1

  0
LINE
  5
158E
330
C86
100
AcDbEntity
  8
0
 62
     0
370
    -2
100
AcDbLine
 10
917.2389427524183
 20
-309.9396202913854
 30
0.0
 11
917.2389427524183
 21
-329.5279059949023
 31
0.0
  0
LINE
  5
158F
330
C86
100
AcDbEntity
  8
0
 62
     0
370
    -2
100
AcDbLine
 10
832.2389427524182
 20
-302.4396202913854
 30
0.0
 11
832.2389427524182
 21
-329.5279059949023
 31
0.0
  0
LINE
  5
1590
330
C86
100
AcDbEntity
  8
0
 62
     0
370
    -2
100
AcDbLine
 10
914.7389427524183
 20
-328.2779059949023
 30
0.0
 11
834.7389427524182
 21
-328.2779059949023
 31
0.0
  0
INSERT
  5
1591
330
C86
100
AcDbEntity
  8
0
 62
     0
370
    -2
100
AcDbBlockReference
  2
_Open30
 10
917.2389427524183
 20
-328.2779059949023
 30
0.0
 41
2.5
 42
2.5
 43
2.5
  0
INSERT
  5
1592
330
C86
100
AcDbEntity
  8
0
 62
     0
370
    -2
100
AcDbBlockReference
  2
_Open30
 10
832.2389427524182
 20
-328.2779059949023
 30
0.0
 41
2.5
 42
2.5
 43
2.5
 50
180.0
  0
MTEXT
  5
1593
330
C86
100
AcDbEntity
  8
0
 62
     4
100
AcDbMText
 10
875.9093439247713
 20
-326.1529059949023
 30
0.0
 40
3.0
 41
0.0
 71
     5
 72
     1
  1
170
 73
     1
 44
1.0
1001
ACAD
1000
MTEXTBEGIN
1070
    73
1070
     1
1070
    44
1040
1.0
1070
    74
1070
     0
1000
MTEXTEND
  0
POINT
  5
1594
330
C86
100
AcDbEntity
  8
Defpoints
 62
     0
100
AcDbPoint
 10
917.2389427524183
 20
-309.6896202913854
 30
0.0
  0
POINT
  5
1595
330
C86
100
AcDbEntity
  8
Defpoints
 62
     0
100
AcDbPoint
 10
832.2389427524182
 20
-302.1896202913854
 30
0.0
  0
POINT
  5
1596
330
C86
100
AcDbEntity
  8
Defpoints
 62
     0
100
AcDbPoint
 10
832.2389427524182
 20
-328.2779059949023
 30
0.0
  0
ENDBLK
  5
C88
330
C86
100
AcDbEntity
  8
0
100
AcDbBlockEnd
  0
BLOCK
  5
C93
330
C92
100
AcDbEntity
  8
0
100
AcDbBlockBegin
  2
*D3
 70
     1
 10
0.0
 20
0.0
 30
0.0
  3
*D3
  1

  0
LINE
  5
1597
330
C92
100
AcDbEntity
  8
0
 62
     0
370
    -2
100
AcDbLine
 10
922.9889427524183
 20
-259.7396202913854
 30
0.0
 11
922.9889427524183
 21
-222.9716607757028
 31
0.0
  0
LINE
  5
1598
330
C92
100
AcDbEntity
  8
0
 62
     0
370
    -2
100
AcDbLine
 10
832.2389427524182
 20
-245.9396202913854
 30
0.0
 11
832.2389427524182
 21
-222.9716607757028
 31
0.0
  0
LINE
  5
1599
330
C92
100
AcDbEntity
  8
0
 62
     0
370
    -2
100
AcDbLine
 10
920.4889427524182
 20
-224.2216607757028
 30
0.0
 11
834.7389427524182
 21
-224.2216607757028
 31
0.0
  0
INSERT
  5
159A
330
C92
100
AcDbEntity
  8
0
 62
     0
370
    -2
100
AcDbBlockReference
  2
_Open30
 10
922.9889427524183
 20
-224.2216607757028
 30
0.0
 41
2.5
 42
2.5
 43
2.5
  0
INSERT
  5
159B
330
C92
100
AcDbEntity
  8
0
 62
     0
370
    -2
100
AcDbBlockReference
  2
_Open30
 10
832.2389427524182
 20
-224.2216607757028
 30
0.0
 41
2.5
 42
2.5
 43
2.5
 50
180.0
  0
MTEXT
  5
159C
330
C92
100
AcDbEntity
  8
0
 62
     4
100
AcDbMText
 10
875.5411574621646
 20
-222.0966607757028
 30
0.0
 40
3.0
 41
0.0
 71
     5
 72
     1
  1
181.5
 73
     1
 44
1.0
1001
ACAD
1000
MTEXTBEGIN
1070
    73
1070
     1
1070
    44
1040
1.0
1070
    74
1070
     0
1000
MTEXTEND
  0
POINT
  5
159D
330
C92
100
AcDbEntity
  8
Defpoints
 62
     0
100
AcDbPoint
 10
922.9889427524183
 20
-259.9896202913854
 30
0.0
  0
POINT
  5
159E
330
C92
100
AcDbEntity
  8
Defpoints
 62
     0
100
AcDbPoint
 10
832.2389427524182
 20
-246.1896202913854
 30
0.0
  0
POINT
  5
159F
330
C92
100
AcDbEntity
  8
Defpoints
 62
     0
100
AcDbPoint
 10
832.2389427524182
 20
-224.2216607757028
 30
0.0
  0
ENDBLK
  5
C94
330
C92
100
AcDbEntity
  8
0
100
AcDbBlockEnd
  0
BLOCK
  5
C9F
330
C9E
100
AcDbEntity
  8
0
100
AcDbBlockBegin
  2
*D4
 70
     1
 10
0.0
 20
0.0
 30
0.0
  3
*D4
  1

  0
LINE
  5
15A0
330
C9E
100
AcDbEntity
  8
0
 62
     0
370
    -2
100
AcDbLine
 10
780.5623593723877
 20
-315.6896202913854
 30
0.0
 11
811.4845482279454
 21
-315.6896202913854
 31
0.0
  0
LINE
  5
15A1
330
C9E
100
AcDbEntity
  8
0
 62
     0
370
    -2
100
AcDbLine
 10
786.8123593723877
 20
-309.6896202913854
 30
0.0
 11
811.4845482279454
 21
-309.6896202913854
 31
0.0
  0
LINE
  5
15A2
330
C9E
100
AcDbEntity
  8
0
 62
     0
370
    -2
100
AcDbLine
 10
810.2345482279455
 20
-307.1896202913854
 30
0.0
 11
810.2345482279455
 21
-304.6896202913854
 31
0.0
  0
LINE
  5
15A3
330
C9E
100
AcDbEntity
  8
0
 62
     0
370
    -2
100
AcDbLine
 10
810.2345482279455
 20
-318.1896202913854
 30
0.0
 11
810.2345482279455
 21
-325.9396202913855
 31
0.0
  0
LINE
  5
15A4
330
C9E
100
AcDbEntity
  8
0
 62
     0
370
    -2
100
AcDbLine
 10
810.2345482279455
 20
-309.6896202913854
 30
0.0
 11
810.2345482279455
 21
-315.6896202913854
 31
0.0
  0
INSERT
  5
15A5
330
C9E
100
AcDbEntity
  8
0
 62
     0
370
    -2
100
AcDbBlockReference
  2
_Open30
 10
810.2345482279455
 20
-309.6896202913854
 30
0.0
 41
2.5
 42
2.5
 43
2.5
 50
270.0
  0
INSERT
  5
15A6
330
C9E
100
AcDbEntity
  8
0
 62
     0
370
    -2
100
AcDbBlockReference
  2
_Open30
 10
810.2345482279455
 20
-315.6896202913854
 30
0.0
 41
2.5
 42
2.5
 43
2.5
 50
90.0
  0
MTEXT
  5
15A7
330
C9E
100
AcDbEntity
  8
0
 62
     4
100
AcDbMText
 10
808.1095482279454
 20
-323.3146202913854
 30
0.0
 40
3.0
 41
0.0
 71
     5
 72
     1
  1
12
 11
0.0000000000000001
 21
1.0
 31
0.0
 73
     1
 44
1.0
1001
ACAD
1000
MTEXTBEGIN
1070
    73
1070
     1
1070
    44
1040
1.0
1070
    74
1070
     0
1000
MTEXTEND
  0
POINT
  5
15A8
330
C9E
100
AcDbEntity
  8
Defpoints
 62
     0
100
AcDbPoint
 10
780.3123593723877
 20
-315.6896202913854
 30
0.0
  0
POINT
  5
15A9
330
C9E
100
AcDbEntity
  8
Defpoints
 62
     0
100
AcDbPoint
 10
786.5623593723877
 20
-309.6896202913854
 30
0.0
  0
POINT
  5
15AA
330
C9E
100
AcDbEntity
  8
Defpoints
 62
     0
100
AcDbPoint
 10
810.2345482279455
 20
-309.6896202913854
 30
0.0
  0
ENDBLK
  5
CA0
330
C9E
100
AcDbEntity
  8
0
100
AcDbBlockEnd
  0
BLOCK
  5
CAD
330
CAC
100
AcDbEntity
  8
0
100
AcDbBlockBegin
  2
*D5
 70
     1
 10
0.0
 20
0.0
 30
0.0
  3
*D5
  1

  0
LINE
  5
15AB
330
CAC
100
AcDbEntity
  8
0
 62
     0
370
    -2
100
AcDbLine
 10
786.8123593723877
 20
-309.6896202913854
 30
0.0
 11
811.4845482279454
 21
-309.6896202913854
 31
0.0
  0
LINE
  5
15AC
330
CAC
100
AcDbEntity
  8
0
 62
     0
370
    -2
100
AcDbLine
 10
783.3123593723877
 20
-246.1896202913854
 30
0.0
 11
811.4845482279456
 21
-246.1896202913854
 31
0.0
  0
LINE
  5
15AD
330
CAC
100
AcDbEntity
  8
0
 62
     0
370
    -2
100
AcDbLine
 10
810.2345482279455
 20
-307.1896202913854
 30
0.0
 11
810.2345482279455
 21
-248.6896202913854
 31
0.0
  0
INSERT
  5
15AE
330
CAC
100
AcDbEntity
  8
0
 62
     0
370
    -2
100
AcDbBlockReference
  2
_Open30
 10
810.2345482279455
 20
-309.6896202913854
 30
0.0
 41
2.5
 42
2.5
 43
2.5
 50
270.0
  0
INSERT
  5
15AF
330
CAC
100
AcDbEntity
  8
0
 62
     0
370
    -2
100
AcDbBlockReference
  2
_Open30
 10
810.2345482279455
 20
-246.1896202913854
 30
0.0
 41
2.5
 42
2.5
 43
2.5
 50
90.0
  0
MTEXT
  5
15B0
330
CAC
100
AcDbEntity
  8
0
 62
     4
100
AcDbMText
 10
808.1095482279454
 20
-277.9396202913854
 30
0.0
 40
3.0
 41
0.0
 71
     5
 72
     1
  1
127
 11
0.0000000000000001
 21
1.0
 31
0.0
 73
     1
 44
1.0
1001
ACAD
1000
MTEXTBEGIN
1070
    73
1070
     1
1070
    44
1040
1.0
1070
    74
1070
     0
1000
MTEXTEND
  0
POINT
  5
15B1
330
CAC
100
AcDbEntity
  8
Defpoints
 62
     0
100
AcDbPoint
 10
786.5623593723877
 20
-309.6896202913854
 30
0.0
  0
POINT
  5
15B2
330
CAC
100
AcDbEntity
  8
Defpoints
 62
     0
100
AcDbPoint
 10
783.0623593723877
 20
-246.1896202913854
 30
0.0
  0
POINT
  5
15B3
330
CAC
100
AcDbEntity
  8
Defpoints
 62
     0
100
AcDbPoint
 10
810.2345482279455
 20
-246.1896202913854
 30
0.0
  0
ENDBLK
  5
CAE
330
CAC
100
AcDbEntity
  8
0
100
AcDbBlockEnd
  0
BLOCK
  5
CB9
330
CB8
100
AcDbEntity
  8
0
100
AcDbBlockBegin
  2
*D6
 70
     1
 10
0.0
 20
0.0
 30
0.0
  3
*D6
  1

  0
LINE
  5
15B4
330
CB8
100
AcDbEntity
  8
0
 62
     0
370
    -2
100
AcDbLine
 10
780.5623593723877
 20
-315.6896202913854
 30
0.0
 11
819.3502543793258
 21
-315.6896202913854
 31
0.0
  0
LINE
  5
15B5
330
CB8
100
AcDbEntity
  8
0
 62
     0
370
    -2
100
AcDbLine
 10
759.7672744005127
 20
-231.1896202913854
 30
0.0
 11
819.3502543793259
 21
-231.1896202913854
 31
0.0
  0
LINE
  5
15B6
330
CB8
100
AcDbEntity
  8
0
 62
     0
370
    -2
100
AcDbLine
 10
818.1002543793258
 20
-313.1896202913854
 30
0.0
 11
818.100254379326
 21
-233.6896202913854
 31
0.0
  0
INSERT
  5
15B7
330
CB8
100
AcDbEntity
  8
0
 62
     0
370
    -2
100
AcDbBlockReference
  2
_Open30
 10
818.1002543793258
 20
-315.6896202913854
 30
0.0
 41
2.5
 42
2.5
 43
2.5
 50
270.0
  0
INSERT
  5
15B8
330
CB8
100
AcDbEntity
  8
0
 62
     0
370
    -2
100
AcDbBlockReference
  2
_Open30
 10
818.100254379326
 20
-231.1896202913854
 30
0.0
 41
2.5
 42
2.5
 43
2.5
 50
90.0
  0
MTEXT
  5
15B9
330
CB8
100
AcDbEntity
  8
0
 62
     4
100
AcDbMText
 10
815.975254379326
 20
-274.9556643926685
 30
0.0
 40
3.0
 41
0.0
 71
     5
 72
     1
  1
169
 11
0.0000000000000001
 21
1.0
 31
0.0
 73
     1
 44
1.0
1001
ACAD
1000
MTEXTBEGIN
1070
    73
1070
     1
1070
    44
1040
1.0
1070
    74
1070
     0
1000
MTEXTEND
  0
POINT
  5
15BA
330
CB8
100
AcDbEntity
  8
Defpoints
 62
     0
100
AcDbPoint
 10
780.3123593723877
 20
-315.6896202913854
 30
0.0
  0
POINT
  5
15BB
330
CB8
100
AcDbEntity
  8
Defpoints
 62
     0
100
AcDbPoint
 10
759.5172744005127
 20
-231.1896202913854
 30
0.0
  0
POINT
  5
15BC
330
CB8
100
AcDbEntity
  8
Defpoints
 62
     0
100
AcDbPoint
 10
818.100254379326
 20
-231.1896202913854
 30
0.0
  0
ENDBLK
  5
CBA
330
CB8
100
AcDbEntity
  8
0
100
AcDbBlockEnd
  0
BLOCK
  5
DBF
330
DBE
100
AcDbEntity
  8
0
100
AcDbBlockBegin
  2
*D7
 70
     1
 10
0.0
 20
0.0
 30
0.0
  3
*D7
  1

  0
LINE
  5
15BD
330
DBE
100
AcDbEntity
  8
0
 62
     0
370
    -2
100
AcDbLine
 10
922.9889427524183
 20
-259.7396202913854
 30
0.0
 11
922.9889427524183
 21
-217.2434294659752
 31
0.0
  0
LINE
  5
15BE
330
DBE
100
AcDbEntity
  8
0
 62
     0
370
    -2
100
AcDbLine
 10
829.4889427524182
 20
-303.4396202913854
 30
0.0
 11
829.4889427524182
 21
-217.2434294659752
 31
0.0
  0
LINE
  5
15BF
330
DBE
100
AcDbEntity
  8
0
 62
     0
370
    -2
100
AcDbLine
 10
920.4889427524182
 20
-218.4934294659752
 30
0.0
 11
831.9889427524183
 21
-218.4934294659752
 31
0.0
  0
INSERT
  5
15C0
330
DBE
100
AcDbEntity
  8
0
 62
     0
370
    -2
100
AcDbBlockReference
  2
_Open30
 10
922.9889427524183
 20
-218.4934294659752
 30
0.0
 41
2.5
 42
2.5
 43
2.5
  0
INSERT
  5
15C1
330
DBE
100
AcDbEntity
  8
0
 62
     0
370
    -2
100
AcDbBlockReference
  2
_Open30
 10
829.4889427524182
 20
-218.4934294659752
 30
0.0
 41
2.5
 42
2.5
 43
2.5
 50
180.0
  0
MTEXT
  5
15C2
330
DBE
100
AcDbEntity
  8
0
 62
     4
100
AcDbMText
 10
876.1605188244887
 20
-216.3684294659752
 30
0.0
 40
3.0
 41
0.0
 71
     5
 72
     1
  1
187
 73
     1
 44
1.0
1001
ACAD
1000
MTEXTBEGIN
1070
    73
1070
     1
1070
    44
1040
1.0
1070
    74
1070
     0
1000
MTEXTEND
  0
POINT
  5
15C3
330
DBE
100
AcDbEntity
  8
Defpoints
 62
     0
100
AcDbPoint
 10
922.9889427524183
 20
-259.9896202913854
 30
0.0
  0
POINT
  5
15C4
330
DBE
100
AcDbEntity
  8
Defpoints
 62
     0
100
AcDbPoint
 10
829.4889427524182
 20
-303.6896202913854
 30
0.0
  0
POINT
  5
15C5
330
DBE
100
AcDbEntity
  8
Defpoints
 62
     0
100
AcDbPoint
 10
829.4889427524182
 20
-218.4934294659752
 30
0.0
  0
ENDBLK
  5
DC0
330
DBE
100
AcDbEntity
  8
0
100
AcDbBlockEnd
  0
BLOCK
  5
13C9
330
13C8
100
AcDbEntity
  8
0
100
AcDbBlockBegin
  2
*D8
 70
     1
 10
0.0
 20
0.0
 30
0.0
  3
*D8
  1

  0
LINE
  5
1452
330
13C8
100
AcDbEntity
  8
0
 62
     0
370
    -2
100
AcDbLine
 10
1523.144847114712
 20
-199.812288581763
 30
0.0
 11
1523.144847114712
 21
-202.7219200037718
 31
0.0
  0
LINE
  5
1453
330
13C8
100
AcDbEntity
  8
0
 62
     0
370
    -2
100
AcDbLine
 10
1520.687660060592
 20
-199.812288581763
 30
0.0
 11
1520.687660060592
 21
-202.7219200037718
 31
0.0
  0
LINE
  5
1454
330
13C8
100
AcDbEntity
  8
0
 62
     0
370
    -2
100
AcDbLine
 10
1525.644847114712
 20
-201.4719200037719
 30
0.0
 11
1528.144847114712
 21
-201.4719200037719
 31
0.0
  0
LINE
  5
1455
330
13C8
100
AcDbEntity
  8
0
 62
     0
370
    -2
100
AcDbLine
 10
1518.187660060592
 20
-201.4719200037719
 30
0.0
 11
1505.437660060592
 21
-201.4719200037719
 31
0.0
  0
LINE
  5
1456
330
13C8
100
AcDbEntity
  8
0
 62
     0
370
    -2
100
AcDbLine
 10
1523.144847114712
 20
-201.4719200037719
 30
0.0
 11
1520.687660060592
 21
-201.4719200037719
 31
0.0
  0
INSERT
  5
1457
330
13C8
100
AcDbEntity
  8
0
 62
     0
370
    -2
100
AcDbBlockReference
  2
_Open30
 10
1523.144847114712
 20
-201.4719200037719
 30
0.0
 41
2.5
 42
2.5
 43
2.5
 50
180.0
  0
INSERT
  5
1458
330
13C8
100
AcDbEntity
  8
0
 62
     0
370
    -2
100
AcDbBlockReference
  2
_Open30
 10
1520.687660060592
 20
-201.4719200037719
 30
0.0
 41
2.5
 42
2.5
 43
2.5
  0
MTEXT
  5
1459
330
13C8
100
AcDbEntity
  8
0
 62
     4
100
AcDbMText
 10
1510.562660060592
 20
-199.3469200037718
 30
0.0
 40
3.0
 41
0.0
 71
     5
 72
     1
  1
2.46
 73
     1
 44
1.0
1001
ACAD
1000
MTEXTBEGIN
1070
    73
1070
     1
1070
    44
1040
1.0
1070
    74
1070
     0
1000
MTEXTEND
  0
POINT
  5
145A
330
13C8
100
AcDbEntity
  8
Defpoints
 62
     0
100
AcDbPoint
 10
1523.144847114712
 20
-199.562288581763
 30
0.0
  0
POINT
  5
145B
330
13C8
100
AcDbEntity
  8
Defpoints
 62
     0
100
AcDbPoint
 10
1520.687660060592
 20
-199.562288581763
 30
0.0
  0
POINT
  5
145C
330
13C8
100
AcDbEntity
  8
Defpoints
 62
     0
100
AcDbPoint
 10
1520.687660060592
 20
-201.4719200037719
 30
0.0
  0
ENDBLK
  5
13CA
330
13C8
100
AcDbEntity
  8
0
100
AcDbBlockEnd
  0
BLOCK
  5
13D7
330
13D6
100
AcDbEntity
  8
0
100
AcDbBlockBegin
  2
*D9
 70
     1
 10
0.0
 20
0.0
 30
0.0
  3
*D9
  1

  0
LINE
  5
145D
330
13D6
100
AcDbEntity
  8
0
 62
     0
370
    -2
100
AcDbLine
 10
1524.782972020785
 20
-205.2683781545254
 30
0.0
 11
1524.782972020785
 21
-207.8142702239887
 31
0.0
  0
LINE
  5
145E
330
13D6
100
AcDbEntity
  8
0
 62
     0
370
    -2
100
AcDbLine
 10
1521.688736222643
 20
-205.2683781545254
 30
0.0
 11
1521.688736222643
 21
-207.8142702239887
 31
0.0
  0
LINE
  5
145F
330
13D6
100
AcDbEntity
  8
0
 62
     0
370
    -2
100
AcDbLine
 10
1527.282972020785
 20
-206.5642702239887
 30
0.0
 11
1529.782972020785
 21
-206.5642702239887
 31
0.0
  0
LINE
  5
1460
330
13D6
100
AcDbEntity
  8
0
 62
     0
370
    -2
100
AcDbLine
 10
1519.188736222642
 20
-206.5642702239887
 30
0.0
 11
1505.355402889309
 21
-206.5642702239887
 31
0.0
  0
LINE
  5
1461
330
13D6
100
AcDbEntity
  8
0
 62
     0
370
    -2
100
AcDbLine
 10
1524.782972020785
 20
-206.5642702239887
 30
0.0
 11
1521.688736222643
 21
-206.5642702239887
 31
0.0
  0
INSERT
  5
1462
330
13D6
100
AcDbEntity
  8
0
 62
     0
370
    -2
100
AcDbBlockReference
  2
_Open30
 10
1524.782972020785
 20
-206.5642702239887
 30
0.0
 41
2.5
 42
2.5
 43
2.5
 50
180.0
  0
INSERT
  5
1463
330
13D6
100
AcDbEntity
  8
0
 62
     0
370
    -2
100
AcDbBlockReference
  2
_Open30
 10
1521.688736222643
 20
-206.5642702239887
 30
0.0
 41
2.5
 42
2.5
 43
2.5
  0
MTEXT
  5
1464
330
13D6
100
AcDbEntity
  8
0
 62
     4
100
AcDbMText
 10
1510.563736222642
 20
-204.6892702239887
 30
0.0
 40
2.5
 41
0.0
 71
     5
 72
     1
  1
15.47
  7
高2.5
 73
     1
 44
1.0
1001
ACAD
1000
MTEXTBEGIN
1070
    73
1070
     1
1070
    44
1040
1.0
1070
    74
1070
     0
1000
MTEXTEND
  0
POINT
  5
1465
330
13D6
100
AcDbEntity
  8
Defpoints
 62
     0
100
AcDbPoint
 10
1524.782972020785
 20
-205.0183781545254
 30
0.0
  0
POINT
  5
1466
330
13D6
100
AcDbEntity
  8
Defpoints
 62
     0
100
AcDbPoint
 10
1521.688736222643
 20
-205.0183781545254
 30
0.0
  0
POINT
  5
1467
330
13D6
100
AcDbEntity
  8
Defpoints
 62
     0
100
AcDbPoint
 10
1521.688736222643
 20
-206.5642702239887
 30
0.0
  0
ENDBLK
  5
13D8
330
13D6
100
AcDbEntity
  8
0
100
AcDbBlockEnd
  0
BLOCK
  5
13E5
330
13E4
100
AcDbEntity
  8
0
100
AcDbBlockBegin
  2
*D10
 70
     1
 10
0.0
 20
0.0
 30
0.0
  3
*D10
  1

  0
LINE
  5
1468
330
13E4
100
AcDbEntity
  8
0
 62
     0
370
    -2
100
AcDbLine
 10
1526.512103628871
 20
-210.7244678703719
 30
0.0
 11
1526.512103628871
 21
-212.9975555327392
 31
0.0
  0
LINE
  5
1469
330
13E4
100
AcDbEntity
  8
0
 62
     0
370
    -2
100
AcDbLine
 10
1522.507798675679
 20
-210.7244678703719
 30
0.0
 11
1522.507798675679
 21
-212.9975555327392
 31
0.0
  0
LINE
  5
146A
330
13E4
100
AcDbEntity
  8
0
 62
     0
370
    -2
100
AcDbLine
 10
1529.012103628871
 20
-211.7475555327392
 30
0.0
 11
1531.512103628871
 21
-211.7475555327392
 31
0.0
  0
LINE
  5
146B
330
13E4
100
AcDbEntity
  8
0
 62
     0
370
    -2
100
AcDbLine
 10
1520.007798675679
 20
-211.7475555327392
 30
0.0
 11
1508.257798675679
 21
-211.7475555327392
 31
0.0
  0
LINE
  5
146C
330
13E4
100
AcDbEntity
  8
0
 62
     0
370
    -2
100
AcDbLine
 10
1526.512103628871
 20
-211.7475555327392
 30
0.0
 11
1522.507798675679
 21
-211.7475555327392
 31
0.0
  0
INSERT
  5
146D
330
13E4
100
AcDbEntity
  8
0
 62
     0
370
    -2
100
AcDbBlockReference
  2
_Open30
 10
1526.512103628871
 20
-211.7475555327392
 30
0.0
 41
2.5
 42
2.5
 43
2.5
 50
180.0
  0
INSERT
  5
146E
330
13E4
100
AcDbEntity
  8
0
 62
     0
370
    -2
100
AcDbBlockReference
  2
_Open30
 10
1522.507798675679
 20
-211.7475555327392
 30
0.0
 41
2.5
 42
2.5
 43
2.5
  0
MTEXT
  5
146F
330
13E4
100
AcDbEntity
  8
0
 62
     4
100
AcDbMText
 10
1512.882798675679
 20
-209.5225555327392
 30
0.0
 40
3.2
 41
0.0
 71
     5
 72
     1
  1
8.01
  7
高3.2
 73
     1
 44
1.0
1001
ACAD
1000
MTEXTBEGIN
1070
    73
1070
     1
1070
    44
1040
1.0
1070
    74
1070
     0
1000
MTEXTEND
  0
POINT
  5
1470
330
13E4
100
AcDbEntity
  8
Defpoints
 62
     0
100
AcDbPoint
 10
1526.512103628871
 20
-210.4744678703719
 30
0.0
  0
POINT
  5
1471
330
13E4
100
AcDbEntity
  8
Defpoints
 62
     0
100
AcDbPoint
 10
1522.507798675679
 20
-210.4744678703719
 30
0.0
  0
POINT
  5
1472
330
13E4
100
AcDbEntity
  8
Defpoints
 62
     0
100
AcDbPoint
 10
1522.507798675679
 20
-211.7475555327392
 30
0.0
  0
ENDBLK
  5
13E6
330
13E4
100
AcDbEntity
  8
0
100
AcDbBlockEnd
  0
BLOCK
  5
13F3
330
13F2
100
AcDbEntity
  8
0
100
AcDbBlockBegin
  2
*D11
 70
     1
 10
0.0
 20
0.0
 30
0.0
  3
*D11
  1

  0
LINE
  5
1473
330
13F2
100
AcDbEntity
  8
0
 62
     0
370
    -2
100
AcDbLine
 10
1526.421096926859
 20
-215.9986878384035
 30
0.0
 11
1526.421096926859
 21
-217.8171013458599
 31
0.0
  0
LINE
  5
1474
330
13F2
100
AcDbEntity
  8
0
 62
     0
370
    -2
100
AcDbLine
 10
1521.688736222643
 20
-215.9986878384035
 30
0.0
 11
1521.688736222643
 21
-217.8171013458599
 31
0.0
  0
LINE
  5
1475
330
13F2
100
AcDbEntity
  8
0
 62
     0
370
    -2
100
AcDbLine
 10
1528.921096926859
 20
-216.5671013458599
 30
0.0
 11
1531.421096926859
 21
-216.5671013458599
 31
0.0
  0
LINE
  5
1476
330
13F2
100
AcDbEntity
  8
0
 62
     0
370
    -2
100
AcDbLine
 10
1519.188736222642
 20
-216.5671013458599
 30
0.0
 11
1497.438736222642
 21
-216.5671013458599
 31
0.0
  0
LINE
  5
1477
330
13F2
100
AcDbEntity
  8
0
 62
     0
370
    -2
100
AcDbLine
 10
1526.421096926859
 20
-216.5671013458599
 30
0.0
 11
1521.688736222643
 21
-216.5671013458599
 31
0.0
  0
INSERT
  5
1478
330
13F2
100
AcDbEntity
  8
0
 62
     0
370
    -2
100
AcDbBlockReference
  2
_Open30
 10
1526.421096926859
 20
-216.5671013458599
 30
0.0
 41
2.5
 42
2.5
 43
2.5
 50
180.0
  0
INSERT
  5
1479
330
13F2
100
AcDbEntity
  8
0
 62
     0
370
    -2
100
AcDbBlockReference
  2
_Open30
 10
1521.688736222643
 20
-216.5671013458599
 30
0.0
 41
2.5
 42
2.5
 43
2.5
  0
MTEXT
  5
147A
330
13F2
100
AcDbEntity
  8
0
 62
     4
100
AcDbMText
 10
1507.063736222642
 20
-213.6921013458599
 30
0.0
 40
4.5
 41
0.0
 71
     5
 72
     1
  1
47.32
  7
高4.5
 73
     1
 44
1.0
1001
ACAD
1000
MTEXTBEGIN
1070
    73
1070
     1
1070
    44
1040
1.0
1070
    74
1070
     0
1000
MTEXTEND
  0
POINT
  5
147B
330
13F2
100
AcDbEntity
  8
Defpoints
 62
     0
100
AcDbPoint
 10
1526.421096926859
 20
-215.7486878384035
 30
0.0
  0
POINT
  5
147C
330
13F2
100
AcDbEntity
  8
Defpoints
 62
     0
100
AcDbPoint
 10
1521.688736222643
 20
-215.7486878384035
 30
0.0
  0
POINT
  5
147D
330
13F2
100
AcDbEntity
  8
Defpoints
 62
     0
100
AcDbPoint
 10
1521.688736222643
 20
-216.5671013458599
 30
0.0
  0
ENDBLK
  5
13F4
330
13F2
100
AcDbEntity
  8
0
100
AcDbBlockEnd
  0
BLOCK
  5
1401
330
1400
100
AcDbEntity
  8
0
100
AcDbBlockBegin
  2
*D12
 70
     1
 10
0.0
 20
0.0
 30
0.0
  3
*D12
  1

  0
LINE
  5
147E
330
1400
100
AcDbEntity
  8
0
 62
     0
370
    -2
100
AcDbLine
 10
1547.898733194866
 20
-199.812288581763
 30
0.0
 11
1547.898733194866
 21
-202.7219200037718
 31
0.0
  0
LINE
  5
147F
330
1400
100
AcDbEntity
  8
0
 62
     0
370
    -2
100
AcDbLine
 10
1545.441546140746
 20
-199.812288581763
 30
0.0
 11
1545.441546140746
 21
-202.7219200037718
 31
0.0
  0
LINE
  5
1480
330
1400
100
AcDbEntity
  8
0
 62
     0
370
    -2
100
AcDbLine
 10
1550.398733194866
 20
-201.4719200037719
 30
0.0
 11
1552.898733194866
 21
-201.4719200037719
 31
0.0
  0
LINE
  5
1481
330
1400
100
AcDbEntity
  8
0
 62
     0
370
    -2
100
AcDbLine
 10
1542.941546140746
 20
-201.4719200037719
 30
0.0
 11
1521.341546140746
 21
-201.4719200037719
 31
0.0
  0
LINE
  5
1482
330
1400
100
AcDbEntity
  8
0
 62
     0
370
    -2
100
AcDbLine
 10
1547.898733194866
 20
-201.4719200037719
 30
0.0
 11
1545.441546140746
 21
-201.4719200037719
 31
0.0
  0
INSERT
  5
1483
330
1400
100
AcDbEntity
  8
0
 62
     0
370
    -2
100
AcDbBlockReference
  2
_Open30
 10
1547.898733194866
 20
-201.4719200037719
 30
0.0
 41
2.5
 42
2.5
 43
2.5
 50
180.0
  0
INSERT
  5
1484
330
1400
100
AcDbEntity
  8
0
 62
     0
370
    -2
100
AcDbBlockReference
  2
_Open30
 10
1545.441546140746
 20
-201.4719200037719
 30
0.0
 41
2.5
 42
2.5
 43
2.5
  0
MTEXT
  5
1485
330
1400
100
AcDbEntity
  8
0
 62
     4
100
AcDbMText
 10
1530.891546140746
 20
-197.6969200037718
 30
0.0
 40
6.299999999999998
 41
0.0
 71
     5
 72
     1
  1
0.25
  7
高6.3
 73
     1
 44
1.0
1001
ACAD
1000
MTEXTBEGIN
1070
    73
1070
     1
1070
    44
1040
1.0
1070
    74
1070
     0
1000
MTEXTEND
  0
POINT
  5
1486
330
1400
100
AcDbEntity
  8
Defpoints
 62
     0
100
AcDbPoint
 10
1547.898733194866
 20
-199.562288581763
 30
0.0
  0
POINT
  5
1487
330
1400
100
AcDbEntity
  8
Defpoints
 62
     0
100
AcDbPoint
 10
1545.441546140746
 20
-199.562288581763
 30
0.0
  0
POINT
  5
1488
330
1400
100
AcDbEntity
  8
Defpoints
 62
     0
100
AcDbPoint
 10
1545.441546140746
 20
-201.4719200037719
 30
0.0
  0
ENDBLK
  5
1402
330
1400
100
AcDbEntity
  8
0
100
AcDbBlockEnd
  0
BLOCK
  5
140F
330
140E
100
AcDbEntity
  8
0
100
AcDbBlockBegin
  2
*D13
 70
     1
 10
0.0
 20
0.0
 30
0.0
  3
*D13
  1

  0
LINE
  5
1489
330
140E
100
AcDbEntity
  8
0
 62
     0
370
    -2
100
AcDbLine
 10
1549.536858100939
 20
-205.2683781545254
 30
0.0
 11
1549.536858100939
 21
-207.8142702239887
 31
0.0
  0
LINE
  5
148A
330
140E
100
AcDbEntity
  8
0
 62
     0
370
    -2
100
AcDbLine
 10
1546.442622302796
 20
-205.2683781545254
 30
0.0
 11
1546.442622302796
 21
-207.8142702239887
 31
0.0
  0
LINE
  5
148B
330
140E
100
AcDbEntity
  8
0
 62
     0
370
    -2
100
AcDbLine
 10
1552.036858100939
 20
-206.5642702239887
 30
0.0
 11
1554.536858100939
 21
-206.5642702239887
 31
0.0
  0
LINE
  5
148C
330
140E
100
AcDbEntity
  8
0
 62
     0
370
    -2
100
AcDbLine
 10
1543.942622302796
 20
-206.5642702239887
 30
0.0
 11
1531.942622302796
 21
-206.5642702239887
 31
0.0
  0
LINE
  5
148D
330
140E
100
AcDbEntity
  8
0
 62
     0
370
    -2
100
AcDbLine
 10
1549.536858100939
 20
-206.5642702239887
 30
0.0
 11
1546.442622302796
 21
-206.5642702239887
 31
0.0
  0
INSERT
  5
148E
330
140E
100
AcDbEntity
  8
0
 62
     0
370
    -2
100
AcDbBlockReference
  2
_Open30
 10
1549.536858100939
 20
-206.5642702239887
 30
0.0
 41
2.5
 42
2.5
 43
2.5
 50
180.0
  0
INSERT
  5
148F
330
140E
100
AcDbEntity
  8
0
 62
     0
370
    -2
100
AcDbBlockReference
  2
_Open30
 10
1546.442622302796
 20
-206.5642702239887
 30
0.0
 41
2.5
 42
2.5
 43
2.5
  0
MTEXT
  5
1490
330
140E
100
AcDbEntity
  8
0
 62
     4
100
AcDbMText
 10
1536.567622302796
 20
-204.4392702239887
 30
0.0
 40
3.0
 41
0.0
 71
     5
 72
     1
  1
1.55
 73
     1
 44
1.0
1001
ACAD
1000
MTEXTBEGIN
1070
    73
1070
     1
1070
    44
1040
1.0
1070
    74
1070
     0
1000
MTEXTEND
  0
POINT
  5
1491
330
140E
100
AcDbEntity
  8
Defpoints
 62
     0
100
AcDbPoint
 10
1549.536858100939
 20
-205.0183781545254
 30
0.0
  0
POINT
  5
1492
330
140E
100
AcDbEntity
  8
Defpoints
 62
     0
100
AcDbPoint
 10
1546.442622302796
 20
-205.0183781545254
 30
0.0
  0
POINT
  5
1493
330
140E
100
AcDbEntity
  8
Defpoints
 62
     0
100
AcDbPoint
 10
1546.442622302796
 20
-206.5642702239887
 30
0.0
  0
ENDBLK
  5
1410
330
140E
100
AcDbEntity
  8
0
100
AcDbBlockEnd
  0
BLOCK
  5
141D
330
141C
100
AcDbEntity
  8
0
100
AcDbBlockBegin
  2
*D14
 70
     1
 10
0.0
 20
0.0
 30
0.0
  3
*D14
  1

  0
LINE
  5
1494
330
141C
100
AcDbEntity
  8
0
 62
     0
370
    -2
100
AcDbLine
 10
1551.265989709025
 20
-210.7244678703719
 30
0.0
 11
1551.265989709025
 21
-212.9975555327392
 31
0.0
  0
LINE
  5
1495
330
141C
100
AcDbEntity
  8
0
 62
     0
370
    -2
100
AcDbLine
 10
1547.261684755833
 20
-210.7244678703719
 30
0.0
 11
1547.261684755833
 21
-212.9975555327392
 31
0.0
  0
LINE
  5
1496
330
141C
100
AcDbEntity
  8
0
 62
     0
370
    -2
100
AcDbLine
 10
1553.765989709025
 20
-211.7475555327392
 30
0.0
 11
1556.265989709024
 21
-211.7475555327392
 31
0.0
  0
LINE
  5
1497
330
141C
100
AcDbEntity
  8
0
 62
     0
370
    -2
100
AcDbLine
 10
1544.761684755833
 20
-211.7475555327392
 30
0.0
 11
1536.4283514225
 21
-211.7475555327392
 31
0.0
  0
LINE
  5
1498
330
141C
100
AcDbEntity
  8
0
 62
     0
370
    -2
100
AcDbLine
 10
1551.265989709025
 20
-211.7475555327392
 30
0.0
 11
1547.261684755833
 21
-211.7475555327392
 31
0.0
  0
INSERT
  5
1499
330
141C
100
AcDbEntity
  8
0
 62
     0
370
    -2
100
AcDbBlockReference
  2
_Open30
 10
1551.265989709025
 20
-211.7475555327392
 30
0.0
 41
2.5
 42
2.5
 43
2.5
 50
180.0
  0
INSERT
  5
149A
330
141C
100
AcDbEntity
  8
0
 62
     0
370
    -2
100
AcDbBlockReference
  2
_Open30
 10
1547.261684755833
 20
-211.7475555327392
 30
0.0
 41
2.5
 42
2.5
 43
2.5
  0
MTEXT
  5
149B
330
141C
100
AcDbEntity
  8
0
 62
     4
100
AcDbMText
 10
1538.886684755833
 20
-210.1225555327391
 30
0.0
 40
2.0
 41
0.0
 71
     5
 72
     1
  1
0.8
  7
高2
 73
     1
 44
1.0
1001
ACAD
1000
MTEXTBEGIN
1070
    73
1070
     1
1070
    44
1040
1.0
1070
    74
1070
     0
1000
MTEXTEND
  0
POINT
  5
149C
330
141C
100
AcDbEntity
  8
Defpoints
 62
     0
100
AcDbPoint
 10
1551.265989709025
 20
-210.4744678703719
 30
0.0
  0
POINT
  5
149D
330
141C
100
AcDbEntity
  8
Defpoints
 62
     0
100
AcDbPoint
 10
1547.261684755833
 20
-210.4744678703719
 30
0.0
  0
POINT
  5
149E
330
141C
100
AcDbEntity
  8
Defpoints
 62
     0
100
AcDbPoint
 10
1547.261684755833
 20
-211.7475555327392
 30
0.0
  0
ENDBLK
  5
141E
330
141C
100
AcDbEntity
  8
0
100
AcDbBlockEnd
  0
BLOCK
  5
142B
330
142A
100
AcDbEntity
  8
0
100
AcDbBlockBegin
  2
*D15
 70
     1
 10
0.0
 20
0.0
 30
0.0
  3
*D15
  1

  0
LINE
  5
149F
330
142A
100
AcDbEntity
  8
0
 62
     0
370
    -2
100
AcDbLine
 10
1551.174983007012
 20
-215.9986878384035
 30
0.0
 11
1551.174983007012
 21
-217.8171013458599
 31
0.0
  0
LINE
  5
14A0
330
142A
100
AcDbEntity
  8
0
 62
     0
370
    -2
100
AcDbLine
 10
1546.442622302796
 20
-215.9986878384035
 30
0.0
 11
1546.442622302796
 21
-217.8171013458599
 31
0.0
  0
LINE
  5
14A1
330
142A
100
AcDbEntity
  8
0
 62
     0
370
    -2
100
AcDbLine
 10
1553.674983007012
 20
-216.5671013458599
 30
0.0
 11
1556.174983007012
 21
-216.5671013458599
 31
0.0
  0
LINE
  5
14A2
330
142A
100
AcDbEntity
  8
0
 62
     0
370
    -2
100
AcDbLine
 10
1543.942622302796
 20
-216.5671013458599
 30
0.0
 11
1529.192622302796
 21
-216.5671013458599
 31
0.0
  0
LINE
  5
14A3
330
142A
100
AcDbEntity
  8
0
 62
     0
370
    -2
100
AcDbLine
 10
1551.174983007012
 20
-216.5671013458599
 30
0.0
 11
1546.442622302796
 21
-216.5671013458599
 31
0.0
  0
INSERT
  5
14A4
330
142A
100
AcDbEntity
  8
0
 62
     0
370
    -2
100
AcDbBlockReference
  2
_Open30
 10
1551.174983007012
 20
-216.5671013458599
 30
0.0
 41
2.5
 42
2.5
 43
2.5
 50
180.0
  0
INSERT
  5
14A5
330
142A
100
AcDbEntity
  8
0
 62
     0
370
    -2
100
AcDbBlockReference
  2
_Open30
 10
1546.442622302796
 20
-216.5671013458599
 30
0.0
 41
2.5
 42
2.5
 43
2.5
  0
MTEXT
  5
14A6
330
142A
100
AcDbEntity
  8
0
 62
     4
100
AcDbMText
 10
1535.317622302796
 20
-214.4421013458599
 30
0.0
 40
3.0
 41
0.0
 71
     5
 72
     1
  1
18.93
 73
     1
 44
1.0
1001
ACAD
1000
MTEXTBEGIN
1070
    73
1070
     1
1070
    44
1040
1.0
1070
    74
1070
     0
1000
MTEXTEND
  0
POINT
  5
14A7
330
142A
100
AcDbEntity
  8
Defpoints
 62
     0
100
AcDbPoint
 10
1551.174983007012
 20
-215.7486878384035
 30
0.0
  0
POINT
  5
14A8
330
142A
100
AcDbEntity
  8
Defpoints
 62
     0
100
AcDbPoint
 10
1546.442622302796
 20
-215.7486878384035
 30
0.0
  0
POINT
  5
14A9
330
142A
100
AcDbEntity
  8
Defpoints
 62
     0
100
AcDbPoint
 10
1546.442622302796
 20
-216.5671013458599
 30
0.0
  0
ENDBLK
  5
142C
330
142A
100
AcDbEntity
  8
0
100
AcDbBlockEnd
  0
BLOCK
  5
1439
330
1438
100
AcDbEntity
  8
0
100
AcDbBlockBegin
  2
*D16
 70
     1
 10
0.0
 20
0.0
 30
0.0
  3
*D16
  1

  0
LINE
  5
14AA
330
1438
100
AcDbEntity
  8
0
 62
     0
370
    -2
100
AcDbLine
 10
1548.370556155874
 20
-221.0545280449933
 30
0.0
 11
1548.370556155874
 21
-223.3644491218688
 31
0.0
  0
LINE
  5
14AB
330
1438
100
AcDbEntity
  8
0
 62
     0
370
    -2
100
AcDbLine
 10
1543.781880953726
 20
-221.0545280449933
 30
0.0
 11
1543.781880953726
 21
-223.3644491218688
 31
0.0
  0
LINE
  5
14AC
330
1438
100
AcDbEntity
  8
0
 62
     0
370
    -2
100
AcDbLine
 10
1550.870556155874
 20
-222.1144491218688
 30
0.0
 11
1553.370556155874
 21
-222.1144491218688
 31
0.0
  0
LINE
  5
14AD
330
1438
100
AcDbEntity
  8
0
 62
     0
370
    -2
100
AcDbLine
 10
1541.281880953726
 20
-222.1144491218688
 30
0.0
 11
1526.531880953726
 21
-222.1144491218688
 31
0.0
  0
LINE
  5
14AE
330
1438
100
AcDbEntity
  8
0
 62
     0
370
    -2
100
AcDbLine
 10
1548.370556155874
 20
-222.1144491218688
 30
0.0
 11
1543.781880953726
 21
-222.1144491218688
 31
0.0
  0
INSERT
  5
14AF
330
1438
100
AcDbEntity
  8
0
 62
     0
370
    -2
100
AcDbBlockReference
  2
_Open30
 10
1548.370556155874
 20
-222.1144491218688
 30
0.0
 41
2.5
 42
2.5
 43
2.5
 50
180.0
  0
INSERT
  5
14B0
330
1438
100
AcDbEntity
  8
0
 62
     0
370
    -2
100
AcDbBlockReference
  2
_Open30
 10
1543.781880953726
 20
-222.1144491218688
 30
0.0
 41
2.5
 42
2.5
 43
2.5
  0
MTEXT
  5
14B1
330
1438
100
AcDbEntity
  8
0
 62
     4
100
AcDbMText
 10
1532.656880953726
 20
-219.9894491218688
 30
0.0
 40
3.0
 41
0.0
 71
     5
 72
     1
  1
13.77
 73
     1
 44
1.0
1001
ACAD
1000
MTEXTBEGIN
1070
    73
1070
     1
1070
    44
1040
1.0
1070
    74
1070
     0
1000
MTEXTEND
  0
POINT
  5
14B2
330
1438
100
AcDbEntity
  8
Defpoints
 62
     0
100
AcDbPoint
 10
1548.370556155874
 20
-220.8045280449933
 30
0.0
  0
POINT
  5
14B3
330
1438
100
AcDbEntity
  8
Defpoints
 62
     0
100
AcDbPoint
 10
1543.781880953726
 20
-220.8045280449933
 30
0.0
  0
POINT
  5
14B4
330
1438
100
AcDbEntity
  8
Defpoints
 62
     0
100
AcDbPoint
 10
1543.781880953726
 20
-222.1144491218688
 30
0.0
  0
ENDBLK
  5
143A
330
1438
100
AcDbEntity
  8
0
100
AcDbBlockEnd
  0
BLOCK
  5
1447
330
1446
100
AcDbEntity
  8
0
100
AcDbBlockBegin
  2
*D17
 70
     1
 10
0.0
 20
0.0
 30
0.0
  3
*D17
  1

  0
LINE
  5
14B5
330
1446
100
AcDbEntity
  8
0
 62
     0
370
    -2
100
AcDbLine
 10
1541.274273322724
 20
-190.1250367267189
 30
0.0
 11
1541.274273322724
 21
-182.7285032487812
 31
0.0
  0
LINE
  5
14B6
330
1446
100
AcDbEntity
  8
0
 62
     0
370
    -2
100
AcDbLine
 10
1531.335798953234
 20
-190.1250367267189
 30
0.0
 11
1531.335798953234
 21
-182.7285032487812
 31
0.0
  0
LINE
  5
14B7
330
1446
100
AcDbEntity
  8
0
 62
     0
370
    -2
100
AcDbLine
 10
1538.774273322724
 20
-183.9785032487812
 30
0.0
 11
1533.835798953234
 21
-183.9785032487812
 31
0.0
  0
INSERT
  5
14B8
330
1446
100
AcDbEntity
  8
0
 62
     0
370
    -2
100
AcDbBlockReference
  2
_Open30
 10
1541.274273322724
 20
-183.9785032487812
 30
0.0
 41
2.5
 42
2.5
 43
2.5
  0
INSERT
  5
14B9
330
1446
100
AcDbEntity
  8
0
 62
     0
370
    -2
100
AcDbBlockReference
  2
_Open30
 10
1531.335798953234
 20
-183.9785032487812
 30
0.0
 41
2.5
 42
2.5
 43
2.5
 50
180.0
  0
MTEXT
  5
14BA
330
1446
100
AcDbEntity
  8
0
 62
     4
100
AcDbMText
 10
1536.305036137979
 20
-180.9035032487812
 30
0.0
 40
3.0
 41
0.0
 71
     5
 72
     1
  1
9.94\H0.7X;\S+0^ -0.02;
 73
     1
 44
1.0
1001
ACAD
1000
MTEXTBEGIN
1070
    73
1070
     1
1070
    44
1040
1.0
1070
    74
1070
     0
1000
MTEXTEND
  0
POINT
  5
14BB
330
1446
100
AcDbEntity
  8
Defpoints
 62
     0
100
AcDbPoint
 10
1541.274273322724
 20
-190.3750367267189
 30
0.0
  0
POINT
  5
14BC
330
1446
100
AcDbEntity
  8
Defpoints
 62
     0
100
AcDbPoint
 10
1531.335798953234
 20
-190.3750367267189
 30
0.0
  0
POINT
  5
14BD
330
1446
100
AcDbEntity
  8
Defpoints
 62
     0
100
AcDbPoint
 10
1531.335798953234
 20
-183.9785032487812
 30
0.0
  0
ENDBLK
  5
1448
330
1446
100
AcDbEntity
  8
0
100
AcDbBlockEnd
  0
ENDSEC
  0
SECTION
  2
ENTITIES
  0
LINE
  5
3D1
330
6B
100
AcDbEntity
  8
0
100
AcDbLine
 10
770.7997080272968
 20
-379.6241439906742
 30
0.0
 11
774.6035556045901
 21
-379.6241439906742
 31
0.0
  0
LINE
  5
3D6
330
6B
100
AcDbEntity
  8
0
  6
HIDDEN2
100
AcDbLine
 10
771.6035556045901
 20
-382.6241439906742
 30
0.0
 11
777.6035556045902
 21
-382.6241439906742
 31
0.0
  0
LINE
  5
3D7
330
6B
100
AcDbEntity
  8
0
100
AcDbLine
 10
770.7997080272968
 20
-385.6241439906742
 30
0.0
 11
774.6035556045901
 21
-385.6241439906742
 31
0.0
  0
LINE
  5
3D8
330
6B
100
AcDbEntity
  8
0
100
AcDbLine
 10
765.6035556045901
 20
-376.6241439906742
 30
0.0
 11
759.60355560459
 21
-376.6241439906742
 31
0.0
  0
LINE
  5
3D9
330
6B
100
AcDbEntity
  8
0
100
AcDbLine
 10
765.6035556045901
 20
-388.6241439906742
 30
0.0
 11
759.60355560459
 21
-388.6241439906742
 31
0.0
  0
ARC
  5
3DB
330
6B
100
AcDbEntity
  8
0
100
AcDbCircle
 10
765.6035556045901
 20
-382.6241439906742
 30
0.0
 40
6.0
100
AcDbArc
 50
270.0
 51
90.0
  0
LINE
  5
3DF
330
6B
100
AcDbEntity
  8
0
100
AcDbLine
 10
759.60355560459
 20
-376.6241439906742
 30
0.0
 11
759.60355560459
 21
-388.6241439906742
 31
0.0
  0
LINE
  5
3E1
330
6B
100
AcDbEntity
  8
0
100
AcDbLine
 10
753.6035556045901
 20
-378.8741439906742
 30
0.0
 11
753.6035556045901
 21
-380.3741439906742
 31
0.0
  0
LINE
  5
3E2
330
6B
100
AcDbEntity
  8
0
  6
HIDDEN2
100
AcDbLine
 10
750.6035556045901
 20
-381.8741439906742
 30
0.0
 11
750.6035556045901
 21
-383.3741439906742
 31
0.0
  0
LINE
  5
3EB
330
6B
100
AcDbEntity
  8
0
100
AcDbLine
 10
753.6035556045901
 20
-378.8741439906742
 30
0.0
 11
759.60355560459
 21
-378.8741439906742
 31
0.0
  0
LINE
  5
3EC
330
6B
100
AcDbEntity
  8
0
100
AcDbLine
 10
753.6035556045901
 20
-380.3741439906742
 30
0.0
 11
759.60355560459
 21
-380.3741439906742
 31
0.0
  0
LINE
  5
3ED
330
6B
100
AcDbEntity
  8
0
  6
HIDDEN2
100
AcDbLine
 10
750.6035556045901
 20
-381.8741439906742
 30
0.0
 11
759.60355560459
 21
-381.8741439906742
 31
0.0
  0
LINE
  5
3EE
330
6B
100
AcDbEntity
  8
0
  6
HIDDEN2
100
AcDbLine
 10
750.6035556045901
 20
-383.3741439906742
 30
0.0
 11
759.60355560459
 21
-383.3741439906742
 31
0.0
  0
LINE
  5
3EF
330
6B
100
AcDbEntity
  8
0
100
AcDbLine
 10
753.6035556045901
 20
-384.8741439906742
 30
0.0
 11
759.60355560459
 21
-384.8741439906742
 31
0.0
  0
LINE
  5
3F0
330
6B
100
AcDbEntity
  8
0
100
AcDbLine
 10
753.6035556045901
 20
-386.3741439906742
 30
0.0
 11
759.60355560459
 21
-386.3741439906742
 31
0.0
  0
LINE
  5
3F1
330
6B
100
AcDbEntity
  8
0
100
AcDbLine
 10
753.6035556045901
 20
-384.8741439906742
 30
0.0
 11
753.6035556045901
 21
-386.3741439906742
 31
0.0
  0
LINE
  5
3F2
330
6B
100
AcDbEntity
  8
0
100
AcDbLine
 10
774.6035556045901
 20
-385.6241439906742
 30
0.0
 11
774.6035556045901
 21
-390.1241439906742
 31
0.0
  0
LINE
  5
3F3
330
6B
100
AcDbEntity
  8
0
  6
HIDDEN2
100
AcDbLine
 10
777.6035556045902
 20
-382.6241439906742
 30
0.0
 11
777.6035556045902
 21
-397.6241439906742
 31
0.0
  0
LINE
  5
3F4
330
6B
100
AcDbEntity
  8
0
100
AcDbLine
 10
774.6035556045901
 20
-390.1241439906742
 30
0.0
 11
780.1035556045901
 21
-390.1241439906742
 31
0.0
  0
LINE
  5
3F6
330
6B
100
AcDbEntity
  8
0
100
AcDbLine
 10
774.6035556045901
 20
-379.6241439906742
 30
0.0
 11
774.6035556045901
 21
-375.1241439906742
 31
0.0
  0
CIRCLE
  5
3FA
330
6B
100
AcDbEntity
  8
0
100
AcDbCircle
 10
780.6035556045901
 20
-390.1241439906742
 30
0.0
 40
0.5
  0
CIRCLE
  5
3FB
330
6B
100
AcDbEntity
  8
0
100
AcDbCircle
 10
786.6035556045901
 20
-390.1241439906742
 30
0.0
 40
0.5
  0
LINE
  5
3FC
330
6B
100
AcDbEntity
  8
0
100
AcDbLine
 10
780.6035556045901
 20
-390.6241439906742
 30
0.0
 11
786.6035556045901
 21
-390.6241439906742
 31
0.0
  0
LINE
  5
3FE
330
6B
100
AcDbEntity
  8
0
100
AcDbLine
 10
784.3106623857768
 20
-389.9170372094877
 30
0.0
 11
782.8964488234035
 21
-391.3312507718607
 31
0.0
  0
LINE
  5
3FF
330
6B
100
AcDbEntity
  8
0
100
AcDbLine
 10
782.8964488234035
 20
-389.9170372094877
 30
0.0
 11
784.3106623857766
 21
-391.3312507718608
 31
0.0
  0
LINE
  5
401
330
6B
100
AcDbEntity
  8
0
100
AcDbLine
 10
792.6035556045901
 20
-360.1241439906742
 30
0.0
 11
792.6035556045901
 21
-390.6241439906742
 31
0.0
  0
LINE
  5
402
330
6B
100
AcDbEntity
  8
0
100
AcDbLine
 10
795.6035556045901
 20
-360.1241439906742
 30
0.0
 11
795.6035556045901
 21
-390.6241439906742
 31
0.0
  0
LINE
  5
40B
330
6B
100
AcDbEntity
  8
0
  6
HIDDEN2
100
AcDbLine
 10
831.6035556045902
 20
-375.1241439906742
 30
0.0
 11
834.6035556045901
 21
-375.1241439906742
 31
0.0
  0
LINE
  5
40C
330
6B
100
AcDbEntity
  8
0
  6
HIDDEN2
100
AcDbLine
 10
777.6035556045902
 20
-394.6241439906742
 30
0.0
 11
834.6035556045901
 21
-394.6241439906742
 31
0.0
  0
LINE
  5
40D
330
6B
100
AcDbEntity
  8
0
100
AcDbLine
 10
787.1035556045901
 20
-390.1241439906742
 30
0.0
 11
828.60355560459
 21
-390.1241439906742
 31
0.0
  0
ARC
  5
425
330
6B
100
AcDbEntity
  8
0
100
AcDbCircle
 10
801.6035556045901
 20
-377.6241439906742
 30
0.0
 40
2.5
100
AcDbArc
 50
90.0
 51
270.0
  0
ARC
  5
426
330
6B
100
AcDbEntity
  8
0
100
AcDbCircle
 10
801.6035556045901
 20
-382.6241439906742
 30
0.0
 40
2.5
100
AcDbArc
 50
90.0
 51
270.0
  0
ARC
  5
427
330
6B
100
AcDbEntity
  8
0
100
AcDbCircle
 10
801.6035556045901
 20
-387.6241439906742
 30
0.0
 40
2.5
100
AcDbArc
 50
90.0
 51
270.0
  0
ARC
  5
428
330
6B
100
AcDbEntity
  8
0
100
AcDbCircle
 10
801.6035556045901
 20
-362.6241439906742
 30
0.0
 40
2.5
100
AcDbArc
 50
90.0
 51
270.0
  0
ARC
  5
429
330
6B
100
AcDbEntity
  8
0
100
AcDbCircle
 10
801.6035556045901
 20
-367.6241439906742
 30
0.0
 40
2.5
100
AcDbArc
 50
90.0
 51
270.0
  0
ARC
  5
42A
330
6B
100
AcDbEntity
  8
0
100
AcDbCircle
 10
801.6035556045901
 20
-372.6241439906742
 30
0.0
 40
2.5
100
AcDbArc
 50
90.0
 51
270.0
  0
LINE
  5
42B
330
6B
100
AcDbEntity
  8
0
100
AcDbLine
 10
828.60355560459
 20
-360.1241439906742
 30
0.0
 11
801.6035556045901
 21
-360.1241439906742
 31
0.0
  0
LINE
  5
43C
330
6B
100
AcDbEntity
  8
0
100
AcDbLine
 10
819.6035556045901
 20
-370.1241439906742
 30
0.0
 11
801.6035556045901
 21
-370.1241439906742
 31
0.0
  0
LINE
  5
43F
330
6B
100
AcDbEntity
  8
0
100
AcDbLine
 10
810.6035556045901
 20
-375.1241439906742
 30
0.0
 11
810.6035556045901
 21
-380.1241439906742
 31
0.0
  0
LINE
  5
442
330
6B
100
AcDbEntity
  8
0
100
AcDbLine
 10
819.6035556045901
 20
-370.1241439906742
 30
0.0
 11
819.6035556045901
 21
-376.1241439906742
 31
0.0
  0
LINE
  5
445
330
6B
100
AcDbEntity
  8
0
100
AcDbLine
 10
828.60355560459
 20
-360.1241439906742
 30
0.0
 11
828.60355560459
 21
-371.1241439906742
 31
0.0
  0
CIRCLE
  5
44B
330
6B
100
AcDbEntity
  8
0
100
AcDbCircle
 10
828.60355560459
 20
-375.1241439906742
 30
0.0
 40
4.0
  0
CIRCLE
  5
44D
330
6B
100
AcDbEntity
  8
0
100
AcDbCircle
 10
810.6035556045901
 20
-382.6241439906742
 30
0.0
 40
2.5
  0
CIRCLE
  5
450
330
6B
100
AcDbEntity
  8
0
100
AcDbCircle
 10
819.6035556045901
 20
-380.1241439906742
 30
0.0
 40
4.0
  0
LINE
  5
451
330
6B
100
AcDbEntity
  8
0
  6
HIDDEN2
100
AcDbLine
 10
822.6035556045902
 20
-380.1241439906742
 30
0.0
 11
825.6035556045901
 21
-380.1241439906742
 31
0.0
  0
LINE
  5
452
330
6B
100
AcDbEntity
  8
0
  6
HIDDEN2
100
AcDbLine
 10
834.6035556045901
 20
-375.1241439906742
 30
0.0
 11
834.6035556045901
 21
-394.6241439906742
 31
0.0
  0
LINE
  5
454
330
6B
100
AcDbEntity
  8
0
  6
HIDDEN2
100
AcDbLine
 10
825.6035556045901
 20
-380.1241439906742
 30
0.0
 11
825.6035556045901
 21
-394.6241439906742
 31
0.0
  0
LINE
  5
45D
330
6B
100
AcDbEntity
  8
0
100
AcDbLine
 10
774.6035556045901
 20
-375.1241439906742
 30
0.0
 11
810.6035556045901
 21
-375.1241439906742
 31
0.0
  0
LINE
  5
463
330
6B
100
AcDbEntity
  8
0
100
AcDbLine
 10
774.6035556045901
 20
-397.6241439906742
 30
0.0
 11
780.6035556045901
 21
-397.6241439906742
 31
0.0
  0
LINE
  5
46F
330
6B
100
AcDbEntity
  8
0
100
AcDbLine
 10
774.6035556045901
 20
-399.2191724422241
 30
0.0
 11
776.19858405614
 21
-397.6241439906742
 31
0.0
1001
GradientColor1ACI
1070
     5
1001
GradientColor2ACI
1070
     2
1001
ACAD
1010
0.0
1020
0.0
1030
0.0
  0
LINE
  5
470
330
6B
100
AcDbEntity
  8
0
100
AcDbLine
 10
775.2592442279198
 20
-399.6241439906742
 30
0.0
 11
777.2592442279199
 21
-397.6241439906742
 31
0.0
1001
GradientColor1ACI
1070
     5
1001
GradientColor2ACI
1070
     2
1001
ACAD
1010
0.0
1020
0.0
1030
0.0
  0
LINE
  5
471
330
6B
100
AcDbEntity
  8
0
100
AcDbLine
 10
776.3199043996997
 20
-399.6241439906742
 30
0.0
 11
778.3199043996996
 21
-397.6241439906742
 31
0.0
1001
GradientColor1ACI
1070
     5
1001
GradientColor2ACI
1070
     2
1001
ACAD
1010
0.0
1020
0.0
1030
0.0
  0
LINE
  5
472
330
6B
100
AcDbEntity
  8
0
100
AcDbLine
 10
777.3805645714792
 20
-399.6241439906742
 30
0.0
 11
779.3805645714797
 21
-397.6241439906742
 31
0.0
1001
GradientColor1ACI
1070
     5
1001
GradientColor2ACI
1070
     2
1001
ACAD
1010
0.0
1020
0.0
1030
0.0
  0
LINE
  5
473
330
6B
100
AcDbEntity
  8
0
100
AcDbLine
 10
778.4412247432592
 20
-399.6241439906742
 30
0.0
 11
780.4412247432592
 21
-397.6241439906742
 31
0.0
1001
GradientColor1ACI
1070
     5
1001
GradientColor2ACI
1070
     2
1001
ACAD
1010
0.0
1020
0.0
1030
0.0
  0
LINE
  5
478
330
6B
100
AcDbEntity
  8
0
100
AcDbLine
 10
830.6035556045902
 20
-373.1241439906742
 30
0.0
 11
826.6035556045901
 21
-373.1241439906742
 31
0.0
  0
LINE
  5
479
330
6B
100
AcDbEntity
  8
0
100
AcDbLine
 10
830.6035556045902
 20
-377.1241439906742
 30
0.0
 11
826.6035556045901
 21
-377.1241439906742
 31
0.0
  0
LINE
  5
47B
330
6B
100
AcDbEntity
  8
0
100
AcDbLine
 10
826.6035556045901
 20
-374.1241439906742
 30
0.0
 11
830.6035556045902
 21
-374.1241439906742
 31
0.0
  0
LINE
  5
47C
330
6B
100
AcDbEntity
  8
0
100
AcDbLine
 10
830.6035556045902
 20
-376.1241439906742
 30
0.0
 11
826.6035556045901
 21
-376.1241439906742
 31
0.0
  0
LINE
  5
47E
330
6B
100
AcDbEntity
  8
0
100
AcDbLine
 10
830.6035556045902
 20
-373.1241439906742
 30
0.0
 11
830.6035556045902
 21
-374.1241439906742
 31
0.0
  0
LINE
  5
47F
330
6B
100
AcDbEntity
  8
0
100
AcDbLine
 10
826.6035556045901
 20
-373.1241439906742
 30
0.0
 11
826.6035556045901
 21
-374.1241439906742
 31
0.0
  0
LINE
  5
480
330
6B
100
AcDbEntity
  8
0
100
AcDbLine
 10
830.6035556045902
 20
-376.1241439906742
 30
0.0
 11
830.6035556045902
 21
-377.1241439906742
 31
0.0
  0
LINE
  5
481
330
6B
100
AcDbEntity
  8
0
100
AcDbLine
 10
826.6035556045901
 20
-376.1241439906742
 30
0.0
 11
826.6035556045901
 21
-377.1241439906742
 31
0.0
  0
LINE
  5
482
330
6B
100
AcDbEntity
  8
0
100
AcDbLine
 10
817.6035556045901
 20
-381.1241439906742
 30
0.0
 11
817.6035556045901
 21
-382.1241439906742
 31
0.0
  0
LINE
  5
483
330
6B
100
AcDbEntity
  8
0
100
AcDbLine
 10
821.6035556045902
 20
-381.1241439906742
 30
0.0
 11
821.6035556045902
 21
-382.1241439906742
 31
0.0
  0
LINE
  5
484
330
6B
100
AcDbEntity
  8
0
100
AcDbLine
 10
817.6035556045901
 20
-378.1241439906742
 30
0.0
 11
817.6035556045901
 21
-379.1241439906742
 31
0.0
  0
LINE
  5
485
330
6B
100
AcDbEntity
  8
0
100
AcDbLine
 10
821.6035556045902
 20
-378.1241439906742
 30
0.0
 11
821.6035556045902
 21
-379.1241439906742
 31
0.0
  0
LINE
  5
486
330
6B
100
AcDbEntity
  8
0
100
AcDbLine
 10
821.6035556045902
 20
-382.1241439906742
 30
0.0
 11
817.6035556045901
 21
-382.1241439906742
 31
0.0
  0
LINE
  5
487
330
6B
100
AcDbEntity
  8
0
100
AcDbLine
 10
821.6035556045902
 20
-381.1241439906742
 30
0.0
 11
817.6035556045901
 21
-381.1241439906742
 31
0.0
  0
LINE
  5
488
330
6B
100
AcDbEntity
  8
0
100
AcDbLine
 10
821.6035556045902
 20
-378.1241439906742
 30
0.0
 11
817.6035556045901
 21
-378.1241439906742
 31
0.0
  0
LINE
  5
489
330
6B
100
AcDbEntity
  8
0
100
AcDbLine
 10
817.6035556045901
 20
-379.1241439906742
 30
0.0
 11
821.6035556045902
 21
-379.1241439906742
 31
0.0
  0
TEXT
  5
48B
330
6B
100
AcDbEntity
  8
0
100
AcDbText
 10
809.3531023540062
 20
-383.5777969399979
 30
0.0
 40
2.5
  1
V
100
AcDbText
  0
TEXT
  5
48C
330
6B
100
AcDbEntity
  8
0
100
AcDbText
 10
809.3000163099002
 20
-385.4032419555222
 30
0.0
 40
2.5
  1
～
100
AcDbText
  0
LINE
  5
48D
330
6B
100
AcDbEntity
  8
0
100
AcDbLine
 10
810.6035556045901
 20
-385.1241439906742
 30
0.0
 11
810.6035556045901
 21
-390.1241439906742
 31
0.0
  0
LINE
  5
48E
330
6B
100
AcDbEntity
  8
0
100
AcDbLine
 10
819.6035556045901
 20
-384.1241439906742
 30
0.0
 11
819.6035556045901
 21
-390.1241439906742
 31
0.0
  0
LINE
  5
48F
330
6B
100
AcDbEntity
  8
0
100
AcDbLine
 10
828.60355560459
 20
-379.1241439906742
 30
0.0
 11
828.60355560459
 21
-390.1241439906742
 31
0.0
  0
CIRCLE
  5
491
102
{ACAD_REACTORS
330
496
102
}
330
6B
100
AcDbEntity
  8
0
100
AcDbCircle
 10
831.6035556045902
 20
-375.1241439906742
 30
0.0
 40
0.3
  0
HATCH
  5
496
330
6B
100
AcDbEntity
  8
0
100
AcDbHatch
 10
0.0
 20
0.0
 30
0.0
210
0.0
220
0.0
230
1.0
  2
SOLID
 70
     1
 71
     1
 91
        1
 92
        7
 72
     1
 73
     1
 93
        2
 10
831.90355560459
 20
-375.1241439906742
 42
1.0
 10
831.3035556045901
 20
-375.1241439906742
 42
1.0
 97
        1
330
491
 75
     1
 76
     1
 47
0.0130907714336746
 98
        1
 10
831.564695499919
 20
-375.3112472424013
1001
GradientColor1ACI
1070
     5
1001
GradientColor2ACI
1070
     2
1001
ACAD
1010
0.0
1020
0.0
1030
0.0
  0
HATCH
  5
497
330
6B
100
AcDbEntity
  8
0
100
AcDbHatch
 10
0.0
 20
0.0
 30
0.0
210
0.0
220
0.0
230
1.0
  2
SOLID
 70
     1
 71
     0
 91
        1
 92
        7
 72
     1
 73
     1
 93
        2
 10
822.90355560459
 20
-380.1241439906742
 42
1.0
 10
822.3035556045903
 20
-380.1241439906742
 42
1.0
 97
        0
 75
     1
 76
     1
 47
0.0130907714336746
 98
        1
 10
822.564695499919
 20
-380.3112472424014
1001
GradientColor1ACI
1070
     5
1001
GradientColor2ACI
1070
     2
1001
ACAD
1010
0.0
1020
0.0
1030
0.0
  0
CIRCLE
  5
498
330
6B
100
AcDbEntity
  8
0
100
AcDbCircle
 10
822.6035556045902
 20
-380.1241439906742
 30
0.0
 40
0.3
  0
HATCH
  5
499
330
6B
100
AcDbEntity
  8
0
100
AcDbHatch
 10
0.0
 20
0.0
 30
0.0
210
0.0
220
0.0
230
1.0
  2
SOLID
 70
     1
 71
     0
 91
        1
 92
        7
 72
     1
 73
     1
 93
        2
 10
825.9035556045901
 20
-394.6241439906742
 42
1.0
 10
825.3035556045901
 20
-394.6241439906742
 42
1.0
 97
        0
 75
     1
 76
     1
 47
0.0130907714336746
 98
        1
 10
825.5646954999187
 20
-394.8112472424014
1001
GradientColor1ACI
1070
     5
1001
GradientColor2ACI
1070
     2
1001
ACAD
1010
0.0
1020
0.0
1030
0.0
  0
CIRCLE
  5
49A
330
6B
100
AcDbEntity
  8
0
100
AcDbCircle
 10
825.6035556045901
 20
-394.6241439906742
 30
0.0
 40
0.3
  0
HATCH
  5
49B
330
6B
100
AcDbEntity
  8
0
100
AcDbHatch
 10
0.0
 20
0.0
 30
0.0
210
0.0
220
0.0
230
1.0
  2
SOLID
 70
     1
 71
     0
 91
        1
 92
        7
 72
     1
 73
     1
 93
        2
 10
777.9035556045903
 20
-394.6241439906742
 42
1.0
 10
777.3035556045901
 20
-394.6241439906742
 42
1.0
 97
        0
 75
     1
 76
     1
 47
0.0130907714336746
 98
        1
 10
777.564695499919
 20
-394.8112472424014
1001
GradientColor1ACI
1070
     5
1001
GradientColor2ACI
1070
     2
1001
ACAD
1010
0.0
1020
0.0
1030
0.0
  0
CIRCLE
  5
49C
330
6B
100
AcDbEntity
  8
0
100
AcDbCircle
 10
777.6035556045902
 20
-394.6241439906742
 30
0.0
 40
0.3
  0
HATCH
  5
49D
330
6B
100
AcDbEntity
  8
0
100
AcDbHatch
 10
0.0
 20
0.0
 30
0.0
210
0.0
220
0.0
230
1.0
  2
SOLID
 70
     1
 71
     0
 91
        1
 92
        7
 72
     1
 73
     1
 93
        2
 10
801.9035556045903
 20
-375.1241439906742
 42
1.0
 10
801.3035556045903
 20
-375.1241439906742
 42
1.0
 97
        0
 75
     1
 76
     1
 47
0.0130907714336746
 98
        1
 10
801.5646954999191
 20
-375.3112472424013
1001
GradientColor1ACI
1070
     5
1001
GradientColor2ACI
1070
     2
1001
ACAD
1010
0.0
1020
0.0
1030
0.0
  0
CIRCLE
  5
49E
330
6B
100
AcDbEntity
  8
0
100
AcDbCircle
 10
801.6035556045901
 20
-375.1241439906742
 30
0.0
 40
0.3
  0
HATCH
  5
49F
330
6B
100
AcDbEntity
  8
0
100
AcDbHatch
 10
0.0
 20
0.0
 30
0.0
210
0.0
220
0.0
230
1.0
  2
SOLID
 70
     1
 71
     0
 91
        1
 92
        7
 72
     1
 73
     1
 93
        2
 10
801.9035556045903
 20
-370.1241439906742
 42
1.0
 10
801.3035556045903
 20
-370.1241439906742
 42
1.0
 97
        0
 75
     1
 76
     1
 47
0.0130907714336746
 98
        1
 10
801.5646954999191
 20
-370.3112472424014
1001
GradientColor1ACI
1070
     5
1001
GradientColor2ACI
1070
     2
1001
ACAD
1010
0.0
1020
0.0
1030
0.0
  0
CIRCLE
  5
4A0
330
6B
100
AcDbEntity
  8
0
100
AcDbCircle
 10
801.6035556045901
 20
-370.1241439906742
 30
0.0
 40
0.3
  0
HATCH
  5
4A1
330
6B
100
AcDbEntity
  8
0
100
AcDbHatch
 10
0.0
 20
0.0
 30
0.0
210
0.0
220
0.0
230
1.0
  2
SOLID
 70
     1
 71
     0
 91
        1
 92
        7
 72
     1
 73
     1
 93
        2
 10
801.9035556045903
 20
-360.1241439906742
 42
1.0
 10
801.3035556045903
 20
-360.1241439906742
 42
1.0
 97
        0
 75
     1
 76
     1
 47
0.0130907714336746
 98
        1
 10
801.5646954999191
 20
-360.3112472424014
1001
GradientColor1ACI
1070
     5
1001
GradientColor2ACI
1070
     2
1001
ACAD
1010
0.0
1020
0.0
1030
0.0
  0
CIRCLE
  5
4A2
330
6B
100
AcDbEntity
  8
0
100
AcDbCircle
 10
801.6035556045901
 20
-360.1241439906742
 30
0.0
 40
0.3
  0
TEXT
  5
4AB
330
6B
100
AcDbEntity
  8
0
100
AcDbText
 10
831.2139994794321
 20
-370.0942410787588
 30
0.0
 40
2.5
  1
コンセント
  7
高2.5
100
AcDbText
  0
TEXT
  5
4AC
330
6B
100
AcDbEntity
  8
0
100
AcDbText
 10
817.8281947402549
 20
-359.0841681278674
 30
0.0
 40
2.5
  1
125V
  7
高2.5
100
AcDbText
  0
TEXT
  5
4AD
330
6B
100
AcDbEntity
  8
0
100
AcDbText
 10
809.4955065678474
 20
-369.0704061999733
 30
0.0
 40
2.5
  1
115V
  7
高2.5
100
AcDbText
  0
TEXT
  5
4AE
330
6B
100
AcDbEntity
  8
0
100
AcDbText
 10
802.2138004976479
 20
-374.511308189102
 30
0.0
 40
2.5
  1
100V
  7
高2.5
100
AcDbText
  0
TEXT
  5
4AF
330
6B
100
AcDbEntity
  8
0
100
AcDbText
 10
801.9809186860511
 20
-378.9915981374445
 30
0.0
 40
2.5
  1
電圧計
  7
高2.5
100
AcDbText
  0
TEXT
  5
4B0
330
6B
100
AcDbEntity
  8
0
100
AcDbText
 10
778.9256925057733
 20
-388.8249619738597
 30
0.0
 40
2.5
  1
ブレーカー
  7
高2.5
100
AcDbText
  0
TEXT
  5
4B1
330
6B
100
AcDbEntity
  8
0
100
AcDbText
 10
790.1622047384892
 20
-358.6848281115049
 30
0.0
 40
2.5
  1
トランス
  7
高2.5
100
AcDbText
  0
TEXT
  5
6BA
330
6B
100
AcDbEntity
  8
0
100
AcDbText
 10
781.3249402456711
 20
-400.1435112740436
 30
0.0
 40
2.5
  1
ケース アース
  7
高2.5
100
AcDbText
  0
LINE
  5
6C9
330
6B
100
AcDbEntity
  8
0
 62
     3
100
AcDbLine
 10
763.936426956213
 20
-350.9834383982413
 30
0.0
 11
848.2104797625106
 21
-350.9834383982413
 31
0.0
  0
LINE
  5
6CA
330
6B
100
AcDbEntity
  8
0
 62
     3
100
AcDbLine
 10
848.2104797625106
 20
-350.9834383982413
 30
0.0
 11
848.2104797625106
 21
-404.8657756265533
 31
0.0
  0
LINE
  5
6CB
330
6B
100
AcDbEntity
  8
0
 62
     3
100
AcDbLine
 10
848.2104797625106
 20
-404.8657756265533
 30
0.0
 11
744.8308176538177
 21
-404.8657756265533
 31
0.0
  0
LINE
  5
6CC
330
6B
100
AcDbEntity
  8
0
 62
     3
100
AcDbLine
 10
744.8308176538177
 20
-404.8657756265533
 30
0.0
 11
744.8308176538177
 21
-350.9834383982413
 31
0.0
  0
TEXT
  5
6CD
330
6B
100
AcDbEntity
  8
0
 62
     3
100
AcDbText
 10
747.1119106731983
 20
-352.9458084246581
 30
0.0
 40
4.5
  1
回路図
  7
高4.5
100
AcDbText
  0
LINE
  5
A08
330
6B
100
AcDbEntity
  8
0
 62
     3
100
AcDbLine
 10
927.1756317423076
 20
-350.7071029172055
 30
0.0
 11
927.1756317423076
 21
-385.7071029172053
 31
0.0
  0
LINE
  5
A09
330
6B
100
AcDbEntity
  8
0
 62
     3
100
AcDbLine
 10
854.0198264853891
 20
-350.7071029172055
 30
0.0
 11
927.1756317423076
 21
-350.7071029172055
 31
0.0
  0
LINE
  5
A0A
330
6B
100
AcDbEntity
  8
0
 62
     3
100
AcDbLine
 10
854.0198264853891
 20
-385.7071029172053
 30
0.0
 11
927.1756317423076
 21
-385.7071029172053
 31
0.0
  0
LINE
  5
A0B
330
6B
100
AcDbEntity
  8
0
100
AcDbLine
 10
876.2405884202133
 20
-385.7071029172052
 30
0.0
 11
876.2405884202133
 21
-350.7071029172055
 31
0.0
  0
LINE
  5
A0C
330
6B
100
AcDbEntity
  8
0
 62
     3
100
AcDbLine
 10
624.5351899093727
 20
-184.9848854318704
 30
0.0
 11
624.5351899093727
 21
-459.0402464318703
 31
0.0
  0
LINE
  5
A0D
330
6B
100
AcDbEntity
  8
0
 62
     3
100
AcDbLine
 10
624.5351899093727
 20
-184.9848854318704
 30
0.0
 11
1014.535189909373
 21
-184.9848854318704
 31
0.0
  0
LINE
  5
A0E
330
6B
100
AcDbEntity
  8
0
 62
     3
100
AcDbLine
 10
1014.535189909373
 20
-459.0402464318703
 30
0.0
 11
624.5351899093727
 21
-459.0402464318703
 31
0.0
  0
LINE
  5
A11
330
6B
100
AcDbEntity
  8
0
 62
     3
100
AcDbLine
 10
1014.535189909373
 20
-184.9848854318704
 30
0.0
 11
1014.535189909373
 21
-459.0402464318703
 31
0.0
  0
TEXT
  5
A12
330
6B
100
AcDbEntity
  8
0
 62
     3
100
AcDbText
 10
949.2012299093728
 20
-447.7116134318705
 30
0.0
 40
3.2
  1
1/2
  7
高3.2
100
AcDbText
  0
TEXT
  5
A13
330
6B
100
AcDbEntity
  8
0
 62
     3
100
AcDbText
 10
921.9820729093727
 20
-440.6424344318701
 30
0.0
 40
3.2
  1
別　掲
  7
高3.2
100
AcDbText
  0
TEXT
  5
A14
330
6B
100
AcDbEntity
  8
0
 62
     3
100
AcDbText
 10
977.9015719093727
 20
-447.8984174318703
 30
0.0
 40
3.2
  1
2006.2.20
  7
高3.2
100
AcDbText
  0
LINE
  5
A15
330
6B
100
AcDbEntity
  8
0
100
AcDbLine
 10
624.5351899093727
 20
-419.0402464318703
 30
0.0
 11
798.8960776384222
 21
-419.0402464318703
 31
0.0
  0
TEXT
  5
A16
330
6B
100
AcDbEntity
  8
0
 62
     3
100
AcDbText
 10
967.2580930947374
 20
-457.8941954318705
 30
0.0
 40
6.299999999999998
  1
M-E20
  7
高6.3
100
AcDbText
  0
LINE
  5
A17
330
6B
100
AcDbEntity
  8
0
100
AcDbLine
 10
868.1078236866643
 20
-349.1445216764317
 30
0.0
 11
905.5192212627463
 21
-349.1445216764317
 31
0.0
  0
LINE
  5
A1A
330
6B
100
AcDbEntity
  8
0
 62
     3
100
AcDbLine
 10
988.8358269093727
 20
-442.3745234318705
 30
0.0
 11
988.8358269093727
 21
-419.3745234318702
 31
0.0
  0
LINE
  5
A1C
330
6B
100
AcDbEntity
  8
0
 62
     3
100
AcDbLine
 10
935.7822169093726
 20
-449.3745234318705
 30
0.0
 11
935.7822169093726
 21
-435.3745234318703
 31
0.0
  0
TEXT
  5
A1E
330
6B
100
AcDbEntity
  8
0
 62
     3
100
AcDbText
 10
964.8461449093726
 20
-423.1694074318705
 30
0.0
 40
2.0
  1
A
 41
0.7
100
AcDbText
  0
TEXT
  5
A1F
330
6B
100
AcDbEntity
  8
0
 62
     3
100
AcDbText
 10
967.381430909373
 20
-423.1694074318705
 30
0.0
 40
2.0
  1
P
 41
0.7
100
AcDbText
  0
TEXT
  5
A20
330
6B
100
AcDbEntity
  8
0
 62
     3
100
AcDbText
 10
969.9167169093724
 20
-423.1694074318705
 30
0.0
 40
2.0
  1
P
 41
0.7
100
AcDbText
  0
TEXT
  5
A21
330
6B
100
AcDbEntity
  8
0
 62
     3
100
AcDbText
 10
972.4520029093726
 20
-423.1694074318705
 30
0.0
 40
2.0
  1
D
 41
0.7
100
AcDbText
  0
TEXT
  5
A22
330
6B
100
AcDbEntity
  8
0
 62
     3
100
AcDbText
 10
977.8206869093727
 20
-423.1694074318705
 30
0.0
 40
2.0
  1
C
 41
0.7
100
AcDbText
  0
TEXT
  5
A23
330
6B
100
AcDbEntity
  8
0
 62
     3
100
AcDbText
 10
980.3559729093727
 20
-423.1694074318705
 30
0.0
 40
2.0
  1
H
 41
0.7
100
AcDbText
  0
TEXT
  5
A24
330
6B
100
AcDbEntity
  8
0
 62
     3
100
AcDbText
 10
982.8912589093727
 20
-423.1694074318705
 30
0.0
 40
2.0
  1
C
 41
0.7
100
AcDbText
  0
TEXT
  5
A25
330
6B
100
AcDbEntity
  8
0
 62
     3
100
AcDbText
 10
985.4265449093727
 20
-423.1694074318705
 30
0.0
 40
2.0
  1
K
 41
0.7
100
AcDbText
  0
TEXT
  5
A26
330
6B
100
AcDbEntity
  8
0
 62
     3
100
AcDbText
 10
991.1005119093728
 20
-423.1694074318705
 30
0.0
 40
2.0
  1
DESN
 41
1.216762999999998
100
AcDbText
  0
TEXT
  5
A27
330
6B
100
AcDbEntity
  8
0
 62
     3
100
AcDbText
 10
906.094152909373
 20
-452.5159054318701
 30
0.0
 40
2.0
  1
NICHIDO IND.CO.LTD
 41
1.274876
100
AcDbText
  0
LINE
  5
A28
330
6B
100
AcDbEntity
  8
0
 62
     3
100
AcDbLine
 10
916.4771819093727
 20
-419.3745234318702
 30
0.0
 11
916.4771819093727
 21
-442.3745234318705
 31
0.0
  0
LINE
  5
A29
330
6B
100
AcDbEntity
  8
0
 62
     3
100
AcDbLine
 10
962.8358269093732
 20
-419.3745234318702
 30
0.0
 11
962.8358269093727
 21
-459.0402464318703
 31
0.0
  0
LINE
  5
A2D
330
6B
100
AcDbEntity
  8
0
 62
     3
100
AcDbLine
 10
975.8358269093728
 20
-419.3745234318702
 30
0.0
 11
975.8358269093728
 21
-449.3745234318705
 31
0.0
  0
TEXT
  5
A2E
330
6B
100
AcDbEntity
  8
0
 62
     3
100
AcDbText
 10
963.9482709093723
 20
-448.5098364318703
 30
0.0
 40
3.2
  1
作成日
 41
1.017225999999997
100
AcDbText
  0
LINE
  5
A2F
330
6B
100
AcDbEntity
  8
0
 62
     3
100
AcDbLine
 10
1014.535189909373
 20
-419.3745234318702
 30
0.0
 11
903.2317479093727
 21
-419.3745234318702
 31
0.0
  0
LINE
  5
A30
330
6B
100
AcDbEntity
  8
0
 62
     3
100
AcDbLine
 10
1001.835826909373
 20
-442.3745234318705
 30
0.0
 11
1001.835826909373
 21
-419.3745234318702
 31
0.0
  0
TEXT
  5
A31
330
6B
100
AcDbEntity
  8
0
 62
     3
100
AcDbText
 10
1005.159629909373
 20
-423.0835884318703
 30
0.0
 40
1.8
  1
D
 41
0.666667
100
AcDbText
  0
TEXT
  5
A32
330
6B
100
AcDbEntity
  8
0
 62
     3
100
AcDbText
 10
1007.976257909373
 20
-423.0835884318703
 30
0.0
 40
1.8
  1
E
 41
0.666667
100
AcDbText
  0
TEXT
  5
A33
330
6B
100
AcDbEntity
  8
0
 62
     3
100
AcDbText
 10
1010.792885909372
 20
-423.0835884318703
 30
0.0
 40
1.8
  1
F
 41
0.666667
100
AcDbText
  0
TEXT
  5
A34
330
6B
100
AcDbEntity
  8
0
 62
     3
100
AcDbText
 10
1005.159629909373
 20
-427.0761424318703
 30
0.0
 40
3.2
  1
製図
 41
1.076369
100
AcDbText
  0
LINE
  5
A35
330
6B
100
AcDbEntity
  8
0
 62
     3
100
AcDbLine
 10
903.2317479093727
 20
-419.3745234318702
 30
0.0
 11
903.2317479093727
 21
-459.0402464318703
 31
0.0
  0
TEXT
  5
A36
330
6B
100
AcDbEntity
  8
0
 62
     3
100
AcDbText
 10
904.6083999093726
 20
-458.7077804318703
 30
0.0
 40
5.0
  1
日動工業株式会社
 41
0.833333
100
AcDbText
  0
LINE
  5
A37
330
6B
100
AcDbEntity
  8
0
 62
     3
100
AcDbLine
 10
946.1141519093727
 20
-435.3745234318703
 30
0.0
 11
946.1141519093727
 21
-459.0402464318703
 31
0.0
  0
LINE
  5
A38
330
6B
100
AcDbEntity
  8
0
 62
     3
100
AcDbLine
 10
946.1141519093727
 20
-454.2073844318704
 30
0.0
 11
962.8358269093727
 21
-454.2073844318704
 31
0.0
  0
TEXT
  5
A39
330
6B
100
AcDbEntity
  8
0
 62
     3
100
AcDbText
 10
946.7007539093726
 20
-453.3909544318703
 30
0.0
 40
3.2
  1
出図コード
 41
0.8356860000000001
100
AcDbText
  0
LINE
  5
A3B
330
6B
100
AcDbEntity
  8
0
 62
     3
100
AcDbLine
 10
903.2317479093727
 20
-449.3745234318705
 30
0.0
 11
1014.535189909373
 21
-449.3745234318705
 31
0.0
  0
LINE
  5
A3D
330
6B
100
AcDbEntity
  8
0
 62
     3
100
AcDbLine
 10
903.2317479093727
 20
-428.3745234318705
 30
0.0
 11
1014.535189909373
 21
-428.3745234318705
 31
0.0
  0
LINE
  5
A43
330
6B
100
AcDbEntity
  8
0
 62
     3
100
AcDbLine
 10
903.2317479093727
 20
-435.3745234318703
 30
0.0
 11
962.8358269093727
 21
-435.3745234318703
 31
0.0
  0
LINE
  5
A49
330
6B
100
AcDbEntity
  8
0
 62
     3
100
AcDbLine
 10
903.2317479093727
 20
-442.3745234318705
 30
0.0
 11
1014.535189909373
 21
-442.3745234318705
 31
0.0
  0
TEXT
  5
A4A
330
6B
100
AcDbEntity
  8
0
 62
     3
100
AcDbText
 10
946.5682049093727
 20
-458.5046418328285
 30
0.0
 40
3.2
  1
ZK-A3X
 41
0.8112849999999999
100
AcDbText
  0
TEXT
  5
A4B
330
6B
100
AcDbEntity
  8
0
 62
     3
100
AcDbText
 10
905.0491449093724
 20
-423.2049974318703
 30
0.0
 40
2.0
  1
CONPONENTS
 41
0.5331600000000001
100
AcDbText
  0
TEXT
  5
A4C
330
6B
100
AcDbEntity
  8
0
 62
     3
100
AcDbText
 10
904.6994179093728
 20
-442.1371744318705
 30
0.0
 40
3.0
  1
材
 41
0.833333
100
AcDbText
  0
TEXT
  5
A4D
330
6B
100
AcDbEntity
  8
0
 62
     3
100
AcDbText
 10
912.2350609093727
 20
-442.1371744318705
 30
0.0
 40
3.0
  1
質
 41
0.833333
100
AcDbText
  0
TEXT
  5
A4E
330
6B
100
AcDbEntity
  8
0
 62
     3
100
AcDbText
 10
904.7874889093725
 20
-431.5126494318705
 30
0.0
 40
2.0
  1
MODEL
 41
1.031072999999999
100
AcDbText
  0
TEXT
  5
A4F
330
6B
100
AcDbEntity
  8
0
 62
     3
100
AcDbText
 10
904.6994179093728
 20
-438.4548664318701
 30
0.0
 40
2.0
  1
MATERIAL
 41
0.659278
100
AcDbText
  0
TEXT
  5
A50
330
6B
100
AcDbEntity
  8
0
 62
     3
100
AcDbText
 10
936.0066979093728
 20
-442.1371744318705
 30
0.0
 40
3.0
  1
備
 41
0.833333
100
AcDbText
  0
TEXT
  5
A51
330
6B
100
AcDbEntity
  8
0
 62
     3
100
AcDbText
 10
942.7396999093726
 20
-442.1371744318705
 30
0.0
 40
3.0
  1
考
 41
0.833333
100
AcDbText
  0
TEXT
  5
A52
330
6B
100
AcDbEntity
  8
0
 62
     3
100
AcDbText
 10
936.3073867474296
 20
-438.4548664318701
 30
0.0
 40
2.0
  1
REMARKS
 41
0.675794
100
AcDbText
  0
TEXT
  5
A53
330
6B
100
AcDbEntity
  8
0
 62
     3
100
AcDbText
 10
906.2891469093726
 20
-445.3749864318705
 30
0.0
 40
2.0
  1
3AD
 41
1.42614
100
AcDbText
  0
TEXT
  5
A54
330
6B
100
AcDbEntity
  8
0
 62
     3
100
AcDbText
 10
915.6001269093728
 20
-445.2092534318705
 30
0.0
 40
2.0
  1
ANGLE
 41
1.669883999999995
100
AcDbText
  0
TEXT
  5
A55
330
6B
100
AcDbEntity
  8
0
 62
     3
100
AcDbText
 10
936.534013909373
 20
-445.5860944318705
 30
0.0
 40
2.0
  1
SCALE
 41
0.7719630000000001
100
AcDbText
  0
TEXT
  5
A56
330
6B
100
AcDbEntity
  8
0
 62
     3
100
AcDbText
 10
905.975276909373
 20
-449.3745234318705
 30
0.0
 40
3.0
  1
第
 41
0.833333
100
AcDbText
  0
TEXT
  5
A57
330
6B
100
AcDbEntity
  8
0
 62
     3
100
AcDbText
 10
913.7621269093726
 20
-449.3745234318705
 30
0.0
 40
3.0
  1
三
 41
0.833333
100
AcDbText
  0
TEXT
  5
A58
330
6B
100
AcDbEntity
  8
0
 62
     3
100
AcDbText
 10
921.5489769093727
 20
-449.3745234318705
 30
0.0
 40
3.0
  1
角
 41
0.833333
100
AcDbText
  0
TEXT
  5
A59
330
6B
100
AcDbEntity
  8
0
 62
     3
100
AcDbText
 10
929.3358269093728
 20
-449.3745234318705
 30
0.0
 40
3.0
  1
法
 41
0.833333
100
AcDbText
  0
TEXT
  5
A5A
330
6B
100
AcDbEntity
  8
0
 62
     3
100
AcDbText
 10
936.3972189093727
 20
-449.0860944318703
 30
0.0
 40
3.0
  1
尺
 41
0.833333
100
AcDbText
  0
TEXT
  5
A5B
330
6B
100
AcDbEntity
  8
0
 62
     3
100
AcDbText
 10
943.130219909373
 20
-449.0860944318703
 30
0.0
 40
3.0
  1
度
 41
0.833333
100
AcDbText
  0
TEXT
  5
A5C
330
6B
100
AcDbEntity
  8
0
 62
     3
100
AcDbText
 10
965.7134909093727
 20
-426.9167944318703
 30
0.0
 40
3.0
  1
承認
 41
1.089472999999999
100
AcDbText
  0
TEXT
  5
A5D
330
6B
100
AcDbEntity
  8
0
 62
     3
100
AcDbText
 10
978.9563709093727
 20
-426.9745234318705
 30
0.0
 40
3.0
  1
検図
 41
0.931761
100
AcDbText
  0
TEXT
  5
A5E
330
6B
100
AcDbEntity
  8
0
 62
     3
100
AcDbText
 10
991.9567679093727
 20
-426.9745234318705
 30
0.0
 40
3.0
  1
設
 41
0.833333
100
AcDbText
  0
TEXT
  5
A5F
330
6B
100
AcDbEntity
  8
0
 62
     3
100
AcDbText
 10
996.4466359093727
 20
-426.9745234318705
 30
0.0
 40
3.0
  1
計
 41
0.833333
100
AcDbText
  0
TEXT
  5
A60
330
6B
100
AcDbEntity
  8
0
 62
     3
100
AcDbText
 10
905.1192509093727
 20
-426.8019714318703
 30
0.0
 40
3.0
  1
品
 41
0.833333
100
AcDbText
  0
TEXT
  5
A61
330
6B
100
AcDbEntity
  8
0
 62
     3
100
AcDbText
 10
912.6548929093727
 20
-426.8019714318703
 30
0.0
 40
3.0
  1
名
 41
0.833333
100
AcDbText
  0
TEXT
  5
A62
330
6B
100
AcDbEntity
  8
0
 62
     3
100
AcDbText
 10
904.7874889093725
 20
-435.0074743577017
 30
0.0
 40
3.0
  1
型
 41
0.833333
100
AcDbText
  0
TEXT
  5
A63
330
6B
100
AcDbEntity
  8
0
 62
     3
100
AcDbText
 10
912.3355789093727
 20
-435.0074743577017
 30
0.0
 40
3.0
  1
式
 41
0.833333
100
AcDbText
  0
LINE
  5
A64
330
6B
100
AcDbEntity
  8
0
 62
     3
100
AcDbLine
 10
612.1332659093727
 20
-318.5402464318705
 30
0.0
 11
609.5351899093729
 21
-320.0402464318705
 31
0.0
  0
LINE
  5
A65
330
6B
100
AcDbEntity
  8
0
 62
     3
100
AcDbLine
 10
612.1332659093727
 20
-318.5402464318705
 30
0.0
 11
609.5351899093729
 21
-317.0402464318704
 31
0.0
  0
LINE
  5
A66
330
6B
100
AcDbEntity
  8
0
 62
     3
100
AcDbLine
 10
609.5351899093729
 20
-320.0402464318705
 30
0.0
 11
609.5351899093729
 21
-317.0402464318704
 31
0.0
  0
LINE
  5
A67
330
6B
100
AcDbEntity
  8
0
 62
     3
100
AcDbLine
 10
798.8960776384222
 20
-459.0402464318703
 30
0.0
 11
798.8960776384222
 21
-414.0402464318703
 31
0.0
  0
LINE
  5
A68
330
6B
100
AcDbEntity
  8
0
 62
     3
100
AcDbLine
 10
854.0198264853891
 20
-350.7071029172055
 30
0.0
 11
854.0198264853891
 21
-385.7071029172053
 31
0.0
  0
TEXT
  5
A69
330
6B
100
AcDbEntity
  8
0
 62
     3
100
AcDbText
 10
927.4040219093727
 20
-426.2413334318702
 30
0.0
 40
4.5
  1
昇圧トランス
  7
高4.5
100
AcDbText
  0
TEXT
  5
A6A
330
6B
100
AcDbEntity
  8
0
 62
     3
100
AcDbText
 10
855.519826485389
 20
-355.2071029172053
 30
0.0
 40
3.2
  1
型　　式
  7
高3.2
100
AcDbText
  0
TEXT
  5
A6B
330
6B
100
AcDbEntity
  8
0
 62
     3
100
AcDbText
 10
855.519826485389
 20
-360.2071029172053
 30
0.0
 40
3.2
  1
入力電圧
  7
高3.2
100
AcDbText
  0
TEXT
  5
A6C
330
6B
100
AcDbEntity
  8
0
 62
     3
100
AcDbText
 10
855.519826485389
 20
-365.2071029172053
 30
0.0
 40
3.2
  1
出力電圧
  7
高3.2
100
AcDbText
  0
TEXT
  5
A6D
330
6B
100
AcDbEntity
  8
0
 62
     3
100
AcDbText
 10
855.519826485389
 20
-370.2071029172053
 30
0.0
 40
3.2
  1
容　　量
  7
高3.2
100
AcDbText
  0
TEXT
  5
A6E
330
6B
100
AcDbEntity
  8
0
 62
     3
100
AcDbText
 10
855.519826485389
 20
-380.2071029172052
 30
0.0
 40
3.2
  1
質　　量
  7
高3.2
100
AcDbText
  0
TEXT
  5
A6F
330
6B
100
AcDbEntity
  8
0
 62
     3
100
AcDbText
 10
855.519826485389
 20
-385.2071029172052
 30
0.0
 40
3.2
  1
絶縁種類
  7
高3.2
100
AcDbText
  0
TEXT
  5
A70
330
6B
100
AcDbEntity
  8
0
 62
     3
100
AcDbText
 10
868.1078236866643
 20
-348.2853129172055
 30
0.0
 40
4.5
  1
主　　仕　　様
  7
高4.5
100
AcDbText
  0
TEXT
  5
A71
330
6B
100
AcDbEntity
  8
0
 62
     3
100
AcDbText
 10
930.6065759093725
 20
-433.8987484318705
 30
0.0
 40
4.5
  1
M-E20
  7
高4.5
100
AcDbText
  0
TEXT
  5
A72
330
6B
100
AcDbEntity
  8
0
 62
     3
100
AcDbText
 10
729.113818769973
 20
-453.5402464318703
 30
0.0
 40
3.2
  1
1
 41
0.8
  7
高3.2
100
AcDbText
  0
TEXT
  5
A73
330
6B
100
AcDbEntity
  8
0
 62
     3
100
AcDbText
 10
729.113818769973
 20
-448.5402464318703
 30
0.0
 40
3.2
  1
1
 41
0.8
  7
高3.2
100
AcDbText
  0
TEXT
  5
A75
330
6B
100
AcDbEntity
  8
0
 62
     3
100
AcDbText
 10
729.113818769973
 20
-428.5402464318703
 30
0.0
 40
3.2
  1
1
 41
0.8
  7
高3.2
100
AcDbText
  0
TEXT
  5
A77
330
6B
100
AcDbEntity
  8
0
 62
     3
100
AcDbText
 10
729.113818769973
 20
-443.5402464318703
 30
0.0
 40
3.2
  1
4
 41
0.8
  7
高3.2
100
AcDbText
  0
TEXT
  5
A78
330
6B
100
AcDbEntity
  8
0
 62
     3
100
AcDbText
 10
729.113818769973
 20
-423.5402464318703
 30
0.0
 40
3.2
  1
1
 41
0.8
  7
高3.2
100
AcDbText
  0
LINE
  5
A79
330
6B
100
AcDbEntity
  8
0
100
AcDbLine
 10
624.5351899093727
 20
-449.0402464318703
 30
0.0
 11
798.8960776384222
 21
-449.0402464318703
 31
0.0
  0
LINE
  5
A7A
330
6B
100
AcDbEntity
  8
0
100
AcDbLine
 10
624.5351899093727
 20
-444.0402464318703
 30
0.0
 11
798.8960776384222
 21
-444.0402464318703
 31
0.0
  0
LINE
  5
A7B
330
6B
100
AcDbEntity
  8
0
100
AcDbLine
 10
624.5351899093727
 20
-439.0402464318703
 30
0.0
 11
798.8960776384222
 21
-439.0402464318703
 31
0.0
  0
LINE
  5
A7C
330
6B
100
AcDbEntity
  8
0
100
AcDbLine
 10
624.5351899093727
 20
-434.0402464318703
 30
0.0
 11
798.8960776384222
 21
-434.0402464318703
 31
0.0
  0
LINE
  5
A7D
330
6B
100
AcDbEntity
  8
0
100
AcDbLine
 10
624.5351899093727
 20
-429.0402464318703
 30
0.0
 11
798.8960776384222
 21
-429.0402464318703
 31
0.0
  0
LINE
  5
A7E
330
6B
100
AcDbEntity
  8
0
100
AcDbLine
 10
727.6138187699727
 20
-459.0402464318703
 30
0.0
 11
727.6138187699727
 21
-414.0402464318703
 31
0.0
  0
LINE
  5
A7F
330
6B
100
AcDbEntity
  8
0
100
AcDbLine
 10
624.5351899093727
 20
-424.0402464318703
 30
0.0
 11
798.8960776384222
 21
-424.0402464318703
 31
0.0
  0
TEXT
  5
A81
330
6B
100
AcDbEntity
  8
0
 62
     3
100
AcDbText
 10
632.8262150851712
 20
-453.5402464318703
 30
0.0
 40
3.2
  1
把手
 41
0.8
  7
高3.2
100
AcDbText
  0
TEXT
  5
A83
330
6B
100
AcDbEntity
  8
0
 62
     3
100
AcDbText
 10
665.5630646368527
 20
-448.5402464318703
 30
0.0
 40
3.2
  1
VCT
 41
0.8
  7
高3.2
100
AcDbText
  0
TEXT
  5
A84
330
6B
100
AcDbEntity
  8
0
 62
     3
100
AcDbText
 10
632.8262150851712
 20
-443.5402464318703
 30
0.0
 40
3.2
  1
ゴム脚
 41
0.8
  7
高3.2
100
AcDbText
  0
TEXT
  5
A85
330
6B
100
AcDbEntity
  8
0
 62
     3
100
AcDbText
 10
694.9470398902682
 20
-443.5402464318703
 30
0.0
 40
3.2
  1
-
 41
0.8
  7
高3.2
100
AcDbText
  0
TEXT
  5
A86
330
6B
100
AcDbEntity
  8
0
 62
     3
100
AcDbText
 10
665.5630646368527
 20
-438.5402464318703
 30
0.0
 40
3.2
  1
ABS樹脂、銅合金
 41
0.8
  7
高3.2
100
AcDbText
  0
TEXT
  5
A87
330
6B
100
AcDbEntity
  8
0
 62
     3
100
AcDbText
 10
632.8262150851712
 20
-428.5402464318703
 30
0.0
 40
3.2
  1
電圧計
 41
0.8
  7
高3.2
100
AcDbText
  0
TEXT
  5
A88
330
6B
100
AcDbEntity
  8
0
 62
     3
100
AcDbText
 10
665.5630646368527
 20
-453.5402464318703
 30
0.0
 40
3.2
  1
PA樹脂、真チュウ
 41
0.8
  7
高3.2
100
AcDbText
  0
TEXT
  5
A89
330
6B
100
AcDbEntity
  8
0
 62
     3
100
AcDbText
 10
694.9470398902682
 20
-428.5402464318703
 30
0.0
 40
3.2
  1
AC150V計（1次側）
 41
0.8
  7
高3.2
100
AcDbText
  0
TEXT
  5
A8A
330
6B
100
AcDbEntity
  8
0
 62
     3
100
AcDbText
 10
626.0351899093727
 20
-428.5402464318703
 30
0.0
 40
3.2
  1
6
 41
0.8
  7
高3.2
100
AcDbText
  0
TEXT
  5
A8B
330
6B
100
AcDbEntity
  8
0
 62
     3
100
AcDbText
 10
626.0351899093727
 20
-433.5402464318703
 30
0.0
 40
3.2
  1
5
 41
0.8
  7
高3.2
100
AcDbText
  0
TEXT
  5
A8C
330
6B
100
AcDbEntity
  8
0
 62
     3
100
AcDbText
 10
626.0351899093727
 20
-438.5402464318703
 30
0.0
 40
3.2
  1
4
 41
0.8
  7
高3.2
100
AcDbText
  0
TEXT
  5
A8D
330
6B
100
AcDbEntity
  8
0
 62
     3
100
AcDbText
 10
626.0351899093727
 20
-443.5402464318703
 30
0.0
 40
3.2
  1
3
 41
0.8
  7
高3.2
100
AcDbText
  0
TEXT
  5
A8E
330
6B
100
AcDbEntity
  8
0
 62
     3
100
AcDbText
 10
626.0351899093727
 20
-448.5402464318703
 30
0.0
 40
3.2
  1
2
 41
0.8
  7
高3.2
100
AcDbText
  0
TEXT
  5
A8F
330
6B
100
AcDbEntity
  8
0
 62
     3
100
AcDbText
 10
626.0351899093727
 20
-453.5402464318703
 30
0.0
 40
3.2
  1
1
 41
0.8
  7
高3.2
100
AcDbText
  0
TEXT
  5
A90
330
6B
100
AcDbEntity
  8
0
 62
     3
100
AcDbText
 10
694.9470398902682
 20
-438.5402464318703
 30
0.0
 40
3.2
  1
2P 15A 125V(白)
 41
0.8
  7
高3.2
100
AcDbText
  0
TEXT
  5
A91
330
6B
100
AcDbEntity
  8
0
 62
     3
100
AcDbText
 10
632.8262150851712
 20
-438.5402464318703
 30
0.0
 40
3.2
  1
2PWコンセント
 41
0.8
  7
高3.2
100
AcDbText
  0
TEXT
  5
A92
330
6B
100
AcDbEntity
  8
0
 62
     3
100
AcDbText
 10
665.5630646368527
 20
-443.5402464318703
 30
0.0
 40
3.2
  1
PVC樹脂
 41
0.8
  7
高3.2
100
AcDbText
  0
TEXT
  5
A93
330
6B
100
AcDbEntity
  8
0
 62
     3
100
AcDbText
 10
626.0351899093727
 20
-423.5402464318703
 30
0.0
 40
3.2
  1
7
 41
0.8
  7
高3.2
100
AcDbText
  0
TEXT
  5
A94
330
6B
100
AcDbEntity
  8
0
 62
     3
100
AcDbText
 10
632.8262150851712
 20
-423.5402464318703
 30
0.0
 40
3.2
  1
サーキットブレーカー
 41
0.8
  7
高3.2
100
AcDbText
  0
TEXT
  5
A95
330
6B
100
AcDbEntity
  8
0
 62
     3
100
AcDbText
 10
694.9470398902682
 20
-423.5402464318703
 30
0.0
 40
3.2
  1
25A
 41
0.8
  7
高3.2
100
AcDbText
  0
TEXT
  5
A96
330
6B
100
AcDbEntity
  8
0
 62
     3
100
AcDbText
 10
694.9470398902682
 20
-448.5402464318703
 30
0.0
 40
3.2
  1
2sqx3芯x1.8m
 41
0.8
  7
高3.2
100
AcDbText
  0
TEXT
  5
A97
330
6B
100
AcDbEntity
  8
0
 62
     3
100
AcDbText
 10
632.8262150851712
 20
-448.5402464318703
 30
0.0
 40
3.2
  1
電線　2Pプラグ付き
 41
0.8
  7
高3.2
100
AcDbText
  0
LINE
  5
A99
330
6B
100
AcDbEntity
  8
0
100
AcDbLine
 10
664.0630646368527
 20
-459.0402464318703
 30
0.0
 11
664.0630646368527
 21
-414.0402464318703
 31
0.0
  0
LINE
  5
A9A
330
6B
100
AcDbEntity
  8
0
100
AcDbLine
 10
631.3262150851715
 20
-459.0402464318703
 30
0.0
 11
631.3262150851715
 21
-414.0402464318703
 31
0.0
  0
LINE
  5
A9B
330
6B
100
AcDbEntity
  8
0
100
AcDbLine
 10
693.4470398902682
 20
-459.0402464318703
 30
0.0
 11
693.4470398902682
 21
-414.0402464318703
 31
0.0
  0
TEXT
  5
A9C
330
6B
100
AcDbEntity
  8
0
 62
     3
100
AcDbText
 10
729.113818769973
 20
-458.5402464318703
 30
0.0
 40
3.2
  1
個数
 41
0.8
  7
高3.2
100
AcDbText
  0
LINE
  5
A9D
330
6B
100
AcDbEntity
  8
0
 62
     3
100
AcDbLine
 10
624.5351899093727
 20
-454.0402464318703
 30
0.0
 11
798.8960776384222
 21
-454.0402464318703
 31
0.0
  0
TEXT
  5
A9E
330
6B
100
AcDbEntity
  8
0
 62
     3
100
AcDbText
 10
694.9470398902682
 20
-458.5402464318703
 30
0.0
 40
3.2
  1
備　　　　　考
 41
0.8
  7
高3.2
100
AcDbText
  0
TEXT
  5
A9F
330
6B
100
AcDbEntity
  8
0
 62
     3
100
AcDbText
 10
665.5630646368527
 20
-458.5402464318703
 30
0.0
 40
3.2
  1
材　　　質
 41
0.8
  7
高3.2
100
AcDbText
  0
TEXT
  5
AA0
330
6B
100
AcDbEntity
  8
0
 62
     3
100
AcDbText
 10
632.8262150851712
 20
-458.5402464318703
 30
0.0
 40
3.2
  1
部　　品　　名
 41
0.8
  7
高3.2
100
AcDbText
  0
TEXT
  5
AA1
330
6B
100
AcDbEntity
  8
0
 62
     3
100
AcDbText
 10
626.0351899093727
 20
-458.5402464318703
 30
0.0
 40
3.2
  1
No
 41
0.8
  7
高3.2
100
AcDbText
  0
LINE
  5
AA2
330
6B
100
AcDbEntity
  8
0
100
AcDbLine
 10
854.0198264853891
 20
-355.7071029172053
 30
0.0
 11
927.1756317423076
 21
-355.7071029172052
 31
0.0
  0
LINE
  5
AA3
330
6B
100
AcDbEntity
  8
0
100
AcDbLine
 10
854.0198264853891
 20
-360.7071029172055
 30
0.0
 11
927.1756317423076
 21
-360.7071029172055
 31
0.0
  0
LINE
  5
AA4
330
6B
100
AcDbEntity
  8
0
100
AcDbLine
 10
854.0198264853891
 20
-365.7071029172053
 30
0.0
 11
927.1756317423076
 21
-365.7071029172052
 31
0.0
  0
LINE
  5
AA5
330
6B
100
AcDbEntity
  8
0
100
AcDbLine
 10
854.0198264853891
 20
-370.7071029172052
 30
0.0
 11
927.1756317423076
 21
-370.7071029172052
 31
0.0
  0
LINE
  5
AA6
330
6B
100
AcDbEntity
  8
0
100
AcDbLine
 10
854.0198264853891
 20
-380.7071029172052
 30
0.0
 11
927.1756317423076
 21
-380.7071029172052
 31
0.0
  0
TEXT
  5
AA7
330
6B
100
AcDbEntity
  8
0
 62
     3
100
AcDbText
 10
877.7405884202135
 20
-360.2071029172053
 30
0.0
 40
3.2
  1
AC100V 50/60Hz
  7
高3.2
100
AcDbText
  0
TEXT
  5
AA8
330
6B
100
AcDbEntity
  8
0
 62
     3
100
AcDbText
 10
877.7405884202135
 20
-365.2071029172055
 30
0.0
 40
3.2
  1
AC115V AC125V
  7
高3.2
100
AcDbText
  0
TEXT
  5
AA9
330
6B
100
AcDbEntity
  8
0
 62
     3
100
AcDbText
 10
877.7405884202135
 20
-370.2071029172053
 30
0.0
 40
3.2
  1
2KVA　連続
  7
高3.2
100
AcDbText
  0
TEXT
  5
AAA
330
6B
100
AcDbEntity
  8
0
 62
     3
100
AcDbText
 10
877.7405884202135
 20
-380.2071029172052
 30
0.0
 40
3.2
  1
6.8kg
  7
高3.2
100
AcDbText
  0
TEXT
  5
AAB
330
6B
100
AcDbEntity
  8
0
 62
     3
100
AcDbText
 10
877.7405884202135
 20
-385.2071029172052
 30
0.0
 40
3.2
  1
F種絶縁
  7
高3.2
100
AcDbText
  0
TEXT
  5
AAC
330
6B
100
AcDbEntity
  8
0
 62
     3
100
AcDbText
 10
877.7405884202135
 20
-355.2071029172053
 30
0.0
 40
3.2
  1
M-E20
  7
高3.2
100
AcDbText
  0
LINE
  5
AAD
330
6B
100
AcDbEntity
  8
0
 62
     3
100
AcDbLine
 10
988.8358269093727
 20
-419.3745234318702
 30
0.0
 11
988.8358269093727
 21
-413.3745234318703
 31
0.0
  0
LINE
  5
AAE
330
6B
100
AcDbEntity
  8
0
 62
     3
100
AcDbLine
 10
962.8358269093727
 20
-419.3745234318702
 30
0.0
 11
962.8358269093727
 21
-413.3745234318703
 31
0.0
  0
LINE
  5
AAF
330
6B
100
AcDbEntity
  8
0
 62
     3
100
AcDbLine
 10
1014.535189909373
 20
-413.3745234318703
 30
0.0
 11
962.8358269093727
 21
-413.3745234318703
 31
0.0
  0
TEXT
  5
AB0
330
6B
100
AcDbEntity
  8
0
 62
     3
100
AcDbText
 10
968.8314249093727
 20
-418.5781744318703
 30
0.0
 40
4.5
  1
コード
  7
高4.5
100
AcDbText
  0
TEXT
  5
AB1
330
6B
100
AcDbEntity
  8
0
 62
     3
100
AcDbText
 10
993.2373179818933
 20
-418.7303864318703
 30
0.0
 40
4.5
  1
5720
  7
高4.5
100
AcDbText
  0
TEXT
  5
AB2
330
6B
100
AcDbEntity
  8
0
 62
     3
100
AcDbText
 10
1002.035189909373
 20
-194.4848854318704
 30
0.0
 40
3.2
  1
担　当
  7
高3.2
100
AcDbText
  0
TEXT
  5
AB3
330
6B
100
AcDbEntity
  8
0
 62
     3
100
AcDbText
 10
958.0351899093724
 20
-194.4848854318704
 30
0.0
 40
3.2
  1
変更・追記内容
  7
高3.2
100
AcDbText
  0
TEXT
  5
AB4
330
6B
100
AcDbEntity
  8
0
 62
     3
100
AcDbText
 10
933.148704909712
 20
-199.1554239417786
 30
0.0
 40
2.0
  1
1
  7
高2
100
AcDbText
  0
TEXT
  5
AB5
330
6B
100
AcDbEntity
  8
0
 62
     3
100
AcDbText
 10
932.840193432955
 20
-204.3252406540517
 30
0.0
 40
2.0
  1
2
  7
高2
100
AcDbText
  0
TEXT
  5
AB6
330
6B
100
AcDbEntity
  8
0
 62
     3
100
AcDbText
 10
940.0351899093726
 20
-194.4848854318704
 30
0.0
 40
3.2
  1
日　付
  7
高3.2
100
AcDbText
  0
TEXT
  5
AB7
330
6B
100
AcDbEntity
  8
0
 62
     3
100
AcDbText
 10
940.0351899093726
 20
-189.4848854318704
 30
0.0
 40
3.2
  1
図　　　　面　　　　略　　　　歴
  7
高3.2
100
AcDbText
  0
TEXT
  5
AB8
330
6B
100
AcDbEntity
  8
0
 62
     3
100
AcDbText
 10
930.0351899093724
 20
-194.4848854318704
 30
0.0
 40
3.2
  1
記号
  7
高3.2
100
AcDbText
  0
LINE
  5
AB9
330
6B
100
AcDbEntity
  8
0
100
AcDbLine
 10
933.5351899093724
 20
-201.1939894318703
 30
0.0
 11
931.635189909373
 21
-204.4848854318705
 31
0.0
  0
LINE
  5
ABA
330
6B
100
AcDbEntity
  8
0
100
AcDbLine
 10
933.5351899093724
 20
-201.1939894318703
 30
0.0
 11
935.4351899093725
 21
-204.4848854318705
 31
0.0
  0
LINE
  5
ABB
330
6B
100
AcDbEntity
  8
0
100
AcDbLine
 10
931.635189909373
 20
-204.4848854318705
 30
0.0
 11
935.4351899093725
 21
-204.4848854318705
 31
0.0
  0
LINE
  5
ABC
330
6B
100
AcDbEntity
  8
0
100
AcDbLine
 10
933.5351899093724
 20
-196.1939884318703
 30
0.0
 11
931.635189909373
 21
-199.4848854318704
 31
0.0
  0
LINE
  5
ABD
330
6B
100
AcDbEntity
  8
0
100
AcDbLine
 10
933.5351899093724
 20
-196.1939884318703
 30
0.0
 11
935.4351899093725
 21
-199.4848854318704
 31
0.0
  0
LINE
  5
ABE
330
6B
100
AcDbEntity
  8
0
100
AcDbLine
 10
931.635189909373
 20
-199.4848854318704
 30
0.0
 11
935.4351899093725
 21
-199.4848854318704
 31
0.0
  0
LINE
  5
ABF
330
6B
100
AcDbEntity
  8
0
 62
     3
100
AcDbLine
 10
928.5351899093726
 20
-189.9848854318704
 30
0.0
 11
1014.535189909373
 21
-189.9848854318704
 31
0.0
  0
LINE
  5
AC0
330
6B
100
AcDbEntity
  8
0
 62
     3
100
AcDbLine
 10
928.5351899093726
 20
-194.9848854318704
 30
0.0
 11
1014.535189909373
 21
-194.9848854318704
 31
0.0
  0
LINE
  5
AC1
330
6B
100
AcDbEntity
  8
0
 62
     7
100
AcDbLine
 10
928.5351899093726
 20
-199.9848854318704
 30
0.0
 11
1014.535189909373
 21
-199.9848854318704
 31
0.0
  0
LINE
  5
AC2
330
6B
100
AcDbEntity
  8
0
 62
     3
100
AcDbLine
 10
928.5351899093726
 20
-204.9848854318705
 30
0.0
 11
1014.535189909373
 21
-204.9848854318705
 31
0.0
  0
LINE
  5
AC3
330
6B
100
AcDbEntity
  8
0
 62
     7
100
AcDbLine
 10
1000.535189909373
 20
-204.9848854318705
 30
0.0
 11
1000.535189909373
 21
-189.9848854318704
 31
0.0
  0
LINE
  5
AC4
330
6B
100
AcDbEntity
  8
0
 62
     7
100
AcDbLine
 10
956.5351899093727
 20
-204.9848854318705
 30
0.0
 11
956.5351899093727
 21
-189.9848854318704
 31
0.0
  0
LINE
  5
AC5
330
6B
100
AcDbEntity
  8
0
 62
     7
100
AcDbLine
 10
938.5351899093727
 20
-204.9848854318705
 30
0.0
 11
938.5351899093727
 21
-189.9848854318704
 31
0.0
  0
LINE
  5
AC6
330
6B
100
AcDbEntity
  8
0
 62
     3
100
AcDbLine
 10
928.5351899093726
 20
-204.9848854318705
 30
0.0
 11
928.5351899093726
 21
-184.9848854318704
 31
0.0
  0
LINE
  5
AD6
330
6B
100
AcDbEntity
  8
0
100
AcDbLine
 10
685.5623593723876
 20
-274.1896202913854
 30
0.0
 11
685.0623593723875
 21
-274.1896202913854
 31
0.0
  0
LINE
  5
AD7
330
6B
100
AcDbEntity
  8
0
100
AcDbLine
 10
786.5623593723877
 20
-274.1896202913854
 30
0.0
 11
787.0623593723875
 21
-274.1896202913854
 31
0.0
  0
LINE
  5
AD8
330
6B
100
AcDbEntity
  8
0
100
AcDbLine
 10
685.5623593723876
 20
-269.6896202913854
 30
0.0
 11
685.0623593723875
 21
-269.6896202913854
 31
0.0
  0
LINE
  5
AD9
330
6B
100
AcDbEntity
  8
0
100
AcDbLine
 10
786.5623593723877
 20
-269.6896202913854
 30
0.0
 11
787.0623593723875
 21
-269.6896202913854
 31
0.0
  0
LINE
  5
ADA
330
6B
100
AcDbEntity
  8
0
100
AcDbLine
 10
685.5623593723876
 20
-308.4396202913854
 30
0.0
 11
685.0623593723875
 21
-308.4396202913854
 31
0.0
  0
LINE
  5
ADB
330
6B
100
AcDbEntity
  8
0
100
AcDbLine
 10
786.5623593723877
 20
-308.4396202913854
 30
0.0
 11
787.0623593723875
 21
-308.4396202913854
 31
0.0
  0
LINE
  5
ADC
330
6B
100
AcDbEntity
  8
0
100
AcDbLine
 10
685.5623593723876
 20
-303.9396202913854
 30
0.0
 11
685.0623593723875
 21
-303.9396202913854
 31
0.0
  0
LINE
  5
ADD
330
6B
100
AcDbEntity
  8
0
100
AcDbLine
 10
786.5623593723877
 20
-303.9396202913854
 30
0.0
 11
787.0623593723875
 21
-303.9396202913854
 31
0.0
  0
LINE
  5
ADE
330
6B
100
AcDbEntity
  8
0
 62
     3
100
AcDbLine
 10
753.8123593723875
 20
-235.6896202913854
 30
0.0
 11
718.3123593723877
 21
-235.6896202913854
 31
0.0
  0
LINE
  5
ADF
330
6B
100
AcDbEntity
  8
0
 62
     3
100
AcDbLine
 10
837.2389427524181
 20
-309.6896202913854
 30
0.0
 11
917.2389427524183
 21
-309.6896202913854
 31
0.0
  0
LINE
  5
AE0
330
6B
100
AcDbEntity
  8
0
100
AcDbLine
 10
917.2389427524183
 20
-304.6896202913854
 30
0.0
 11
918.2389427524183
 21
-304.6896202913854
 31
0.0
  0
LINE
  5
AE1
330
6B
100
AcDbEntity
  8
0
100
AcDbLine
 10
917.2389427524183
 20
-295.1896202913854
 30
0.0
 11
918.2389427524183
 21
-295.1896202913854
 31
0.0
  0
LINE
  5
AE2
330
6B
100
AcDbEntity
  8
0
100
AcDbLine
 10
685.5623593723876
 20
-302.1896202913854
 30
0.0
 11
686.0623593723876
 21
-302.1896202913854
 31
0.0
  0
LINE
  5
AE3
330
6B
100
AcDbEntity
  8
0
100
AcDbLine
 10
786.0623593723873
 20
-302.1896202913854
 30
0.0
 11
786.5623593723877
 21
-302.1896202913854
 31
0.0
  0
LINE
  5
AE4
330
6B
100
AcDbEntity
  8
0
 62
     3
100
AcDbLine
 10
783.0623593723877
 20
-246.1896202913854
 30
0.0
 11
689.0623593723877
 21
-246.1896202913854
 31
0.0
  0
LINE
  5
AE5
330
6B
100
AcDbEntity
  8
0
100
AcDbLine
 10
783.0623593723877
 20
-246.6896202913855
 30
0.0
 11
689.0623593723877
 21
-246.6896202913855
 31
0.0
  0
LINE
  5
AE6
330
6B
100
AcDbEntity
  8
0
 62
     3
100
AcDbLine
 10
685.5623593723876
 20
-249.6896202913854
 30
0.0
 11
685.5623593723876
 21
-309.6896202913854
 31
0.0
  0
LINE
  5
AE7
330
6B
100
AcDbEntity
  8
0
100
AcDbLine
 10
685.0623593723875
 20
-269.6896202913854
 30
0.0
 11
685.0623593723875
 21
-274.1896202913854
 31
0.0
  0
LINE
  5
AE8
330
6B
100
AcDbEntity
  8
0
100
AcDbLine
 10
685.0623593723875
 20
-303.9396202913854
 30
0.0
 11
685.0623593723875
 21
-308.4396202913854
 31
0.0
  0
LINE
  5
AE9
330
6B
100
AcDbEntity
  8
0
100
AcDbLine
 10
686.0623593723876
 20
-249.6896202913854
 30
0.0
 11
686.0623593723876
 21
-309.6896202913854
 31
0.0
  0
LINE
  5
AEA
330
6B
100
AcDbEntity
  8
0
 62
     3
100
AcDbLine
 10
786.5623593723877
 20
-249.6896202913854
 30
0.0
 11
786.5623593723877
 21
-309.6896202913854
 31
0.0
  0
LINE
  5
AEB
330
6B
100
AcDbEntity
  8
0
100
AcDbLine
 10
787.0623593723875
 20
-269.6896202913854
 30
0.0
 11
787.0623593723875
 21
-274.1896202913854
 31
0.0
  0
LINE
  5
AEC
330
6B
100
AcDbEntity
  8
0
100
AcDbLine
 10
787.0623593723875
 20
-303.9396202913854
 30
0.0
 11
787.0623593723875
 21
-308.4396202913854
 31
0.0
  0
LINE
  5
AED
330
6B
100
AcDbEntity
  8
0
100
AcDbLine
 10
786.0623593723873
 20
-249.6896202913854
 30
0.0
 11
786.0623593723873
 21
-309.6896202913854
 31
0.0
  0
LINE
  5
AEE
330
6B
100
AcDbEntity
  8
0
 62
     3
100
AcDbLine
 10
832.2389427524182
 20
-246.1896202913854
 30
0.0
 11
832.2389427524182
 21
-302.1896202913854
 31
0.0
  0
LINE
  5
AEF
330
6B
100
AcDbEntity
  8
0
 62
     3
100
AcDbLine
 10
917.2389427524183
 20
-246.1896202913854
 30
0.0
 11
917.2389427524183
 21
-309.6896202913854
 31
0.0
  0
LINE
  5
AF0
330
6B
100
AcDbEntity
  8
0
100
AcDbLine
 10
918.2389427524183
 20
-295.1896202913854
 30
0.0
 11
918.2389427524183
 21
-304.6896202913854
 31
0.0
  0
LINE
  5
AF1
330
6B
100
AcDbEntity
  8
0
 62
     3
100
AcDbLine
 10
922.9889427524183
 20
-259.9896202913854
 30
0.0
 11
922.9889427524183
 21
-263.8896202913854
 31
0.0
  0
LINE
  5
AF2
330
6B
100
AcDbEntity
  8
0
 62
     3
100
AcDbLine
 10
920.7389427524184
 20
-259.0646202913855
 30
0.0
 11
920.7389427524184
 21
-264.8146202913854
 31
0.0
  0
LINE
  5
AF3
330
6B
100
AcDbEntity
  8
0
100
AcDbLine
 10
918.4889427524183
 20
-258.1896202913855
 30
0.0
 11
918.4889427524183
 21
-265.6896202913854
 31
0.0
  0
LINE
  5
AF4
330
6B
100
AcDbEntity
  8
0
100
AcDbLine
 10
907.2389427524184
 20
-257.1896202913854
 30
0.0
 11
907.2389427524184
 21
-270.6896202913855
 31
0.0
  0
LINE
  5
AF5
330
6B
100
AcDbEntity
  8
0
100
AcDbLine
 10
905.7389427524183
 20
-257.1896202913854
 30
0.0
 11
905.7389427524183
 21
-270.6896202913855
 31
0.0
  0
ARC
  5
AF6
330
6B
100
AcDbEntity
  8
0
 62
     3
100
AcDbCircle
 10
783.0623593723877
 20
-249.6896202913854
 30
0.0
 40
3.5
100
AcDbArc
 50
0.0
 51
90.0
  0
ARC
  5
AF7
330
6B
100
AcDbEntity
  8
0
100
AcDbCircle
 10
783.0623593723877
 20
-249.6896202913854
 30
0.0
 40
3.0
100
AcDbArc
 50
0.0
 51
90.0
  0
ARC
  5
AF8
330
6B
100
AcDbEntity
  8
0
 62
     3
100
AcDbCircle
 10
689.0623593723877
 20
-249.6896202913854
 30
0.0
 40
3.5
100
AcDbArc
 50
90.0
 51
180.0
  0
ARC
  5
AF9
330
6B
100
AcDbEntity
  8
0
100
AcDbCircle
 10
689.0623593723877
 20
-249.6896202913854
 30
0.0
 40
3.0
100
AcDbArc
 50
90.0
 51
180.0
  0
LINE
  5
AFA
330
6B
100
AcDbEntity
  8
0
 62
     3
100
AcDbLine
 10
917.2389427524183
 20
-246.1896202913854
 30
0.0
 11
832.2389427524182
 21
-246.1896202913854
 31
0.0
  0
LINE
  5
AFB
330
6B
100
AcDbEntity
  8
0
100
AcDbLine
 10
918.4889427524183
 20
-258.1896202913855
 30
0.0
 11
917.2389427524183
 21
-258.1896202913855
 31
0.0
  0
LINE
  5
AFC
330
6B
100
AcDbEntity
  8
0
100
AcDbLine
 10
918.4889427524183
 20
-265.6896202913854
 30
0.0
 11
917.2389427524183
 21
-265.6896202913854
 31
0.0
  0
LINE
  5
AFD
330
6B
100
AcDbEntity
  8
0
 62
     3
100
AcDbLine
 10
832.2389427524182
 20
-302.1896202913854
 30
0.0
 11
837.2389427524181
 21
-309.6896202913854
 31
0.0
  0
LINE
  5
AFE
330
6B
100
AcDbEntity
  8
0
 62
     3
100
AcDbLine
 10
786.5623593723877
 20
-309.6896202913854
 30
0.0
 11
685.5623593723876
 21
-309.6896202913854
 31
0.0
  0
LINE
  5
AFF
330
6B
100
AcDbEntity
  8
0
 62
     3
100
AcDbLine
 10
771.0623593723877
 20
-309.6896202913854
 30
0.0
 11
771.8123593723877
 21
-315.6896202913854
 31
0.0
  0
LINE
  5
B00
330
6B
100
AcDbEntity
  8
0
 62
     3
100
AcDbLine
 10
771.8123593723877
 20
-315.6896202913854
 30
0.0
 11
780.3123593723877
 21
-315.6896202913854
 31
0.0
  0
LINE
  5
B01
330
6B
100
AcDbEntity
  8
0
 62
     3
100
AcDbLine
 10
781.0623593723875
 20
-309.6896202913854
 30
0.0
 11
780.3123593723877
 21
-315.6896202913854
 31
0.0
  0
LINE
  5
B02
330
6B
100
AcDbEntity
  8
0
 62
     3
100
AcDbLine
 10
691.0623593723877
 20
-309.6896202913854
 30
0.0
 11
691.8123593723877
 21
-315.6896202913854
 31
0.0
  0
LINE
  5
B03
330
6B
100
AcDbEntity
  8
0
 62
     3
100
AcDbLine
 10
691.8123593723877
 20
-315.6896202913854
 30
0.0
 11
700.3123593723877
 21
-315.6896202913854
 31
0.0
  0
LINE
  5
B04
330
6B
100
AcDbEntity
  8
0
 62
     3
100
AcDbLine
 10
701.0623593723877
 20
-309.6896202913854
 30
0.0
 11
700.3123593723877
 21
-315.6896202913854
 31
0.0
  0
LINE
  5
B05
330
6B
100
AcDbEntity
  8
0
 62
     3
100
AcDbLine
 10
847.2389427524182
 20
-309.6896202913854
 30
0.0
 11
847.9889427524181
 21
-315.6896202913854
 31
0.0
  0
LINE
  5
B06
330
6B
100
AcDbEntity
  8
0
 62
     3
100
AcDbLine
 10
847.9889427524181
 20
-315.6896202913854
 30
0.0
 11
856.4889427524184
 21
-315.6896202913854
 31
0.0
  0
LINE
  5
B07
330
6B
100
AcDbEntity
  8
0
 62
     3
100
AcDbLine
 10
857.2389427524184
 20
-309.6896202913854
 30
0.0
 11
856.4889427524184
 21
-315.6896202913854
 31
0.0
  0
LINE
  5
B08
330
6B
100
AcDbEntity
  8
0
 62
     3
100
AcDbLine
 10
902.2389427524183
 20
-309.6896202913854
 30
0.0
 11
902.9889427524183
 21
-315.6896202913854
 31
0.0
  0
LINE
  5
B09
330
6B
100
AcDbEntity
  8
0
 62
     3
100
AcDbLine
 10
902.9889427524183
 20
-315.6896202913854
 30
0.0
 11
911.4889427524182
 21
-315.6896202913854
 31
0.0
  0
LINE
  5
B0A
330
6B
100
AcDbEntity
  8
0
 62
     3
100
AcDbLine
 10
912.2389427524183
 20
-309.6896202913854
 30
0.0
 11
911.4889427524182
 21
-315.6896202913854
 31
0.0
  0
LINE
  5
B0B
330
6B
100
AcDbEntity
  8
0
 62
     3
100
AcDbLine
 10
699.318942882135
 20
-263.1896202913854
 30
0.0
 11
708.80577586264
 21
-263.1896202913854
 31
0.0
  0
LINE
  5
B0C
330
6B
100
AcDbEntity
  8
0
 62
     3
100
AcDbLine
 10
699.318942882135
 20
-276.6896202913855
 30
0.0
 11
708.80577586264
 21
-276.6896202913855
 31
0.0
  0
ARC
  5
B0D
330
6B
100
AcDbEntity
  8
0
 62
     3
100
AcDbCircle
 10
704.0623593723877
 20
-269.9396202913854
 30
0.0
 40
8.25
100
AcDbArc
 50
305.0968012275835
 51
54.90319877241653
  0
ARC
  5
B0E
330
6B
100
AcDbEntity
  8
0
 62
     3
100
AcDbCircle
 10
704.0623593723877
 20
-269.9396202913854
 30
0.0
 40
8.25
100
AcDbArc
 50
125.0968012275835
 51
234.9031987724165
  0
LINE
  5
B0F
330
6B
100
AcDbEntity
  8
0
 62
     3
100
AcDbLine
 10
699.318942882135
 20
-282.6896202913854
 30
0.0
 11
708.80577586264
 21
-282.6896202913854
 31
0.0
  0
LINE
  5
B10
330
6B
100
AcDbEntity
  8
0
 62
     3
100
AcDbLine
 10
700.3873593723875
 20
-285.4396202913854
 30
0.0
 11
700.3873593723875
 21
-289.9396202913854
 31
0.0
  0
LINE
  5
B11
330
6B
100
AcDbEntity
  8
0
 62
     3
100
AcDbLine
 10
701.3873593723875
 20
-285.4396202913854
 30
0.0
 11
701.3873593723875
 21
-289.9396202913854
 31
0.0
  0
LINE
  5
B12
330
6B
100
AcDbEntity
  8
0
 62
     3
100
AcDbLine
 10
706.7373593723877
 20
-285.9396202913854
 30
0.0
 11
706.7373593723877
 21
-289.4396202913854
 31
0.0
  0
LINE
  5
B13
330
6B
100
AcDbEntity
  8
0
 62
     3
100
AcDbLine
 10
707.7373593723875
 20
-285.9396202913854
 30
0.0
 11
707.7373593723875
 21
-289.4396202913854
 31
0.0
  0
LINE
  5
B14
330
6B
100
AcDbEntity
  8
0
 62
     3
100
AcDbLine
 10
699.318942882135
 20
-296.1896202913854
 30
0.0
 11
708.80577586264
 21
-296.1896202913854
 31
0.0
  0
LINE
  5
B15
330
6B
100
AcDbEntity
  8
0
 62
     3
100
AcDbLine
 10
706.7373593723877
 20
-289.4396202913854
 30
0.0
 11
707.7373593723875
 21
-289.4396202913854
 31
0.0
  0
LINE
  5
B16
330
6B
100
AcDbEntity
  8
0
 62
     3
100
AcDbLine
 10
700.3873593723875
 20
-289.9396202913854
 30
0.0
 11
701.3873593723875
 21
-289.9396202913854
 31
0.0
  0
LINE
  5
B17
330
6B
100
AcDbEntity
  8
0
 62
     3
100
AcDbLine
 10
706.7373593723877
 20
-285.9396202913854
 30
0.0
 11
707.7373593723875
 21
-285.9396202913854
 31
0.0
  0
LINE
  5
B18
330
6B
100
AcDbEntity
  8
0
 62
     3
100
AcDbLine
 10
700.3873593723875
 20
-285.4396202913854
 30
0.0
 11
701.3873593723875
 21
-285.4396202913854
 31
0.0
  0
ARC
  5
B19
330
6B
100
AcDbEntity
  8
0
 62
     3
100
AcDbCircle
 10
704.0623593723877
 20
-289.4396202913854
 30
0.0
 40
8.25
100
AcDbArc
 50
305.0968012275835
 51
54.90319877241653
  0
ARC
  5
B1A
330
6B
100
AcDbEntity
  8
0
 62
     3
100
AcDbCircle
 10
704.0623593723877
 20
-289.4396202913854
 30
0.0
 40
8.25
100
AcDbArc
 50
125.0968012275835
 51
234.9031987724165
  0
LINE
  5
B1B
330
6B
100
AcDbEntity
  8
0
100
AcDbLine
 10
703.8123593723875
 20
-299.5516269285939
 30
0.0
 11
703.8123593723875
 21
-300.1896202913854
 31
0.0
  0
LINE
  5
B1C
330
6B
100
AcDbEntity
  8
0
100
AcDbLine
 10
703.8123593723875
 20
-300.6896202913854
 30
0.0
 11
703.8123593723875
 21
-301.3276136541768
 31
0.0
  0
LINE
  5
B1D
330
6B
100
AcDbEntity
  8
0
100
AcDbLine
 10
704.3123593723877
 20
-299.5516269285939
 30
0.0
 11
704.3123593723877
 21
-300.1896202913854
 31
0.0
  0
LINE
  5
B1E
330
6B
100
AcDbEntity
  8
0
100
AcDbLine
 10
704.3123593723877
 20
-300.6896202913854
 30
0.0
 11
704.3123593723877
 21
-301.3276136541768
 31
0.0
  0
LINE
  5
B1F
330
6B
100
AcDbEntity
  8
0
100
AcDbLine
 10
703.1743660095961
 20
-300.6896202913854
 30
0.0
 11
703.8123593723875
 21
-300.6896202913854
 31
0.0
  0
LINE
  5
B20
330
6B
100
AcDbEntity
  8
0
100
AcDbLine
 10
704.3123593723877
 20
-300.6896202913854
 30
0.0
 11
704.9503527351786
 21
-300.6896202913854
 31
0.0
  0
LINE
  5
B21
330
6B
100
AcDbEntity
  8
0
100
AcDbLine
 10
703.1743660095961
 20
-300.1896202913854
 30
0.0
 11
703.8123593723875
 21
-300.1896202913854
 31
0.0
  0
LINE
  5
B22
330
6B
100
AcDbEntity
  8
0
100
AcDbLine
 10
704.3123593723877
 20
-300.1896202913854
 30
0.0
 11
704.9503527351786
 21
-300.1896202913854
 31
0.0
  0
CIRCLE
  5
B23
330
6B
100
AcDbEntity
  8
0
100
AcDbCircle
 10
704.0623593723877
 20
-300.4396202913854
 30
0.0
 40
1.625
  0
ARC
  5
B24
330
6B
100
AcDbEntity
  8
0
100
AcDbCircle
 10
704.0623593723877
 20
-300.4396202913854
 30
0.0
 40
0.9225140716334864
100
AcDbArc
 50
74.27630340948923
 51
105.7236965905107
  0
ARC
  5
B25
330
6B
100
AcDbEntity
  8
0
100
AcDbCircle
 10
704.0623593723877
 20
-300.4396202913854
 30
0.0
 40
0.9225140716334864
100
AcDbArc
 50
164.2763034094852
 51
195.7236965905148
  0
ARC
  5
B26
330
6B
100
AcDbEntity
  8
0
100
AcDbCircle
 10
704.0623593723877
 20
-300.4396202913854
 30
0.0
 40
0.9225140716334864
100
AcDbArc
 50
254.2763034094821
 51
285.7236965905106
  0
ARC
  5
B27
330
6B
100
AcDbEntity
  8
0
100
AcDbCircle
 10
704.0623593723877
 20
-300.4396202913854
 30
0.0
 40
0.9225140716334864
100
AcDbArc
 50
344.2763034094852
 51
15.72369659051478
  0
LINE
  5
B28
330
6B
100
AcDbEntity
  8
0
 62
     3
100
AcDbLine
 10
763.3189428821347
 20
-263.1896202913854
 30
0.0
 11
772.8057758626402
 21
-263.1896202913854
 31
0.0
  0
LINE
  5
B29
330
6B
100
AcDbEntity
  8
0
 62
     3
100
AcDbLine
 10
763.3189428821347
 20
-276.6896202913855
 30
0.0
 11
772.8057758626402
 21
-276.6896202913855
 31
0.0
  0
ARC
  5
B2A
330
6B
100
AcDbEntity
  8
0
 62
     3
100
AcDbCircle
 10
768.0623593723877
 20
-269.9396202913854
 30
0.0
 40
8.25
100
AcDbArc
 50
305.0968012275835
 51
54.90319877241653
  0
ARC
  5
B2B
330
6B
100
AcDbEntity
  8
0
 62
     3
100
AcDbCircle
 10
768.0623593723877
 20
-269.9396202913854
 30
0.0
 40
8.25
100
AcDbArc
 50
125.0968012275835
 51
234.9031987724165
  0
LINE
  5
B2C
330
6B
100
AcDbEntity
  8
0
 62
     3
100
AcDbLine
 10
763.3189428821347
 20
-282.6896202913854
 30
0.0
 11
772.8057758626402
 21
-282.6896202913854
 31
0.0
  0
LINE
  5
B2D
330
6B
100
AcDbEntity
  8
0
 62
     3
100
AcDbLine
 10
763.3189428821347
 20
-296.1896202913854
 30
0.0
 11
772.8057758626402
 21
-296.1896202913854
 31
0.0
  0
ARC
  5
B2E
330
6B
100
AcDbEntity
  8
0
 62
     3
100
AcDbCircle
 10
768.0623593723877
 20
-289.4396202913854
 30
0.0
 40
8.25
100
AcDbArc
 50
305.0968012275835
 51
54.90319877241653
  0
ARC
  5
B2F
330
6B
100
AcDbEntity
  8
0
 62
     3
100
AcDbCircle
 10
768.0623593723877
 20
-289.4396202913854
 30
0.0
 40
8.25
100
AcDbArc
 50
125.0968012275835
 51
234.9031987724165
  0
LINE
  5
B30
330
6B
100
AcDbEntity
  8
0
100
AcDbLine
 10
767.8123593723877
 20
-299.5516269285939
 30
0.0
 11
767.8123593723877
 21
-300.1896202913854
 31
0.0
  0
LINE
  5
B31
330
6B
100
AcDbEntity
  8
0
100
AcDbLine
 10
767.8123593723877
 20
-300.6896202913854
 30
0.0
 11
767.8123593723877
 21
-301.3276136541768
 31
0.0
  0
LINE
  5
B32
330
6B
100
AcDbEntity
  8
0
100
AcDbLine
 10
768.3123593723875
 20
-299.5516269285939
 30
0.0
 11
768.3123593723875
 21
-300.1896202913854
 31
0.0
  0
LINE
  5
B33
330
6B
100
AcDbEntity
  8
0
100
AcDbLine
 10
768.3123593723875
 20
-300.6896202913854
 30
0.0
 11
768.3123593723875
 21
-301.3276136541768
 31
0.0
  0
LINE
  5
B34
330
6B
100
AcDbEntity
  8
0
100
AcDbLine
 10
767.1743660095962
 20
-300.6896202913854
 30
0.0
 11
767.8123593723877
 21
-300.6896202913854
 31
0.0
  0
LINE
  5
B35
330
6B
100
AcDbEntity
  8
0
100
AcDbLine
 10
768.3123593723875
 20
-300.6896202913854
 30
0.0
 11
768.9503527351789
 21
-300.6896202913854
 31
0.0
  0
LINE
  5
B36
330
6B
100
AcDbEntity
  8
0
100
AcDbLine
 10
767.1743660095962
 20
-300.1896202913854
 30
0.0
 11
767.8123593723877
 21
-300.1896202913854
 31
0.0
  0
LINE
  5
B37
330
6B
100
AcDbEntity
  8
0
100
AcDbLine
 10
768.3123593723875
 20
-300.1896202913854
 30
0.0
 11
768.9503527351789
 21
-300.1896202913854
 31
0.0
  0
CIRCLE
  5
B38
330
6B
100
AcDbEntity
  8
0
100
AcDbCircle
 10
768.0623593723877
 20
-300.4396202913854
 30
0.0
 40
1.625
  0
ARC
  5
B39
330
6B
100
AcDbEntity
  8
0
100
AcDbCircle
 10
768.0623593723877
 20
-300.4396202913854
 30
0.0
 40
0.9225140716334864
100
AcDbArc
 50
74.27630340948923
 51
105.7236965905107
  0
ARC
  5
B3A
330
6B
100
AcDbEntity
  8
0
100
AcDbCircle
 10
768.0623593723877
 20
-300.4396202913854
 30
0.0
 40
0.9225140716334864
100
AcDbArc
 50
164.2763034094852
 51
195.7236965905148
  0
ARC
  5
B3B
330
6B
100
AcDbEntity
  8
0
100
AcDbCircle
 10
768.0623593723877
 20
-300.4396202913854
 30
0.0
 40
0.9225140716334864
100
AcDbArc
 50
254.2763034094821
 51
285.7236965905106
  0
ARC
  5
B3C
330
6B
100
AcDbEntity
  8
0
100
AcDbCircle
 10
768.0623593723877
 20
-300.4396202913854
 30
0.0
 40
0.9225140716334864
100
AcDbArc
 50
344.2763034094852
 51
15.72369659051478
  0
LINE
  5
B3D
330
6B
100
AcDbEntity
  8
0
100
AcDbLine
 10
703.8123593723875
 20
-258.051626928594
 30
0.0
 11
703.8123593723875
 21
-258.6896202913854
 31
0.0
  0
LINE
  5
B3E
330
6B
100
AcDbEntity
  8
0
100
AcDbLine
 10
703.8123593723875
 20
-259.1896202913854
 30
0.0
 11
703.8123593723875
 21
-259.8276136541769
 31
0.0
  0
LINE
  5
B3F
330
6B
100
AcDbEntity
  8
0
100
AcDbLine
 10
704.3123593723877
 20
-258.051626928594
 30
0.0
 11
704.3123593723877
 21
-258.6896202913854
 31
0.0
  0
LINE
  5
B40
330
6B
100
AcDbEntity
  8
0
100
AcDbLine
 10
704.3123593723877
 20
-259.1896202913854
 30
0.0
 11
704.3123593723877
 21
-259.8276136541769
 31
0.0
  0
LINE
  5
B41
330
6B
100
AcDbEntity
  8
0
100
AcDbLine
 10
703.1743660095961
 20
-259.1896202913854
 30
0.0
 11
703.8123593723875
 21
-259.1896202913854
 31
0.0
  0
LINE
  5
B42
330
6B
100
AcDbEntity
  8
0
100
AcDbLine
 10
704.3123593723877
 20
-259.1896202913854
 30
0.0
 11
704.9503527351786
 21
-259.1896202913854
 31
0.0
  0
LINE
  5
B43
330
6B
100
AcDbEntity
  8
0
100
AcDbLine
 10
703.1743660095961
 20
-258.6896202913854
 30
0.0
 11
703.8123593723875
 21
-258.6896202913854
 31
0.0
  0
LINE
  5
B44
330
6B
100
AcDbEntity
  8
0
100
AcDbLine
 10
704.3123593723877
 20
-258.6896202913854
 30
0.0
 11
704.9503527351786
 21
-258.6896202913854
 31
0.0
  0
CIRCLE
  5
B45
330
6B
100
AcDbEntity
  8
0
100
AcDbCircle
 10
704.0623593723877
 20
-258.9396202913854
 30
0.0
 40
1.625
  0
ARC
  5
B46
330
6B
100
AcDbEntity
  8
0
100
AcDbCircle
 10
704.0623593723877
 20
-258.9396202913854
 30
0.0
 40
0.9225140716334864
100
AcDbArc
 50
74.27630340948923
 51
105.7236965905107
  0
ARC
  5
B47
330
6B
100
AcDbEntity
  8
0
100
AcDbCircle
 10
704.0623593723877
 20
-258.9396202913854
 30
0.0
 40
0.9225140716334864
100
AcDbArc
 50
164.2763034094852
 51
195.7236965905148
  0
ARC
  5
B48
330
6B
100
AcDbEntity
  8
0
100
AcDbCircle
 10
704.0623593723877
 20
-258.9396202913854
 30
0.0
 40
0.9225140716334864
100
AcDbArc
 50
254.2763034094821
 51
285.7236965905106
  0
ARC
  5
B49
330
6B
100
AcDbEntity
  8
0
100
AcDbCircle
 10
704.0623593723877
 20
-258.9396202913854
 30
0.0
 40
0.9225140716334864
100
AcDbArc
 50
344.2763034094852
 51
15.72369659051478
  0
LINE
  5
B4A
330
6B
100
AcDbEntity
  8
0
100
AcDbLine
 10
767.8123593723877
 20
-258.051626928594
 30
0.0
 11
767.8123593723877
 21
-258.6896202913854
 31
0.0
  0
LINE
  5
B4B
330
6B
100
AcDbEntity
  8
0
100
AcDbLine
 10
767.8123593723877
 20
-259.1896202913854
 30
0.0
 11
767.8123593723877
 21
-259.8276136541769
 31
0.0
  0
LINE
  5
B4C
330
6B
100
AcDbEntity
  8
0
100
AcDbLine
 10
768.3123593723875
 20
-258.051626928594
 30
0.0
 11
768.3123593723875
 21
-258.6896202913854
 31
0.0
  0
LINE
  5
B4D
330
6B
100
AcDbEntity
  8
0
100
AcDbLine
 10
768.3123593723875
 20
-259.1896202913854
 30
0.0
 11
768.3123593723875
 21
-259.8276136541769
 31
0.0
  0
LINE
  5
B4E
330
6B
100
AcDbEntity
  8
0
100
AcDbLine
 10
767.1743660095962
 20
-259.1896202913854
 30
0.0
 11
767.8123593723877
 21
-259.1896202913854
 31
0.0
  0
LINE
  5
B4F
330
6B
100
AcDbEntity
  8
0
100
AcDbLine
 10
768.3123593723875
 20
-259.1896202913854
 30
0.0
 11
768.9503527351789
 21
-259.1896202913854
 31
0.0
  0
LINE
  5
B50
330
6B
100
AcDbEntity
  8
0
100
AcDbLine
 10
767.1743660095962
 20
-258.6896202913854
 30
0.0
 11
767.8123593723877
 21
-258.6896202913854
 31
0.0
  0
LINE
  5
B51
330
6B
100
AcDbEntity
  8
0
100
AcDbLine
 10
768.3123593723875
 20
-258.6896202913854
 30
0.0
 11
768.9503527351789
 21
-258.6896202913854
 31
0.0
  0
CIRCLE
  5
B52
330
6B
100
AcDbEntity
  8
0
100
AcDbCircle
 10
768.0623593723877
 20
-258.9396202913854
 30
0.0
 40
1.625
  0
ARC
  5
B53
330
6B
100
AcDbEntity
  8
0
100
AcDbCircle
 10
768.0623593723877
 20
-258.9396202913854
 30
0.0
 40
0.9225140716334864
100
AcDbArc
 50
74.27630340948923
 51
105.7236965905107
  0
ARC
  5
B54
330
6B
100
AcDbEntity
  8
0
100
AcDbCircle
 10
768.0623593723877
 20
-258.9396202913854
 30
0.0
 40
0.9225140716334864
100
AcDbArc
 50
164.2763034094852
 51
195.7236965905148
  0
ARC
  5
B55
330
6B
100
AcDbEntity
  8
0
100
AcDbCircle
 10
768.0623593723877
 20
-258.9396202913854
 30
0.0
 40
0.9225140716334864
100
AcDbArc
 50
254.2763034094821
 51
285.7236965905106
  0
ARC
  5
B56
330
6B
100
AcDbEntity
  8
0
100
AcDbCircle
 10
768.0623593723877
 20
-258.9396202913854
 30
0.0
 40
0.9225140716334864
100
AcDbArc
 50
344.2763034094852
 51
15.72369659051478
  0
LINE
  5
B57
330
6B
100
AcDbEntity
  8
0
 62
     3
100
AcDbLine
 10
725.0623593723877
 20
-255.6896202913854
 30
0.0
 11
725.0623593723877
 21
-278.1896202913854
 31
0.0
  0
LINE
  5
B58
330
6B
100
AcDbEntity
  8
0
 62
     3
100
AcDbLine
 10
725.0623593723877
 20
-278.1896202913854
 30
0.0
 11
747.0623593723877
 21
-278.1896202913854
 31
0.0
  0
LINE
  5
B59
330
6B
100
AcDbEntity
  8
0
 62
     3
100
AcDbLine
 10
747.0623593723877
 20
-278.1896202913854
 30
0.0
 11
747.0623593723877
 21
-255.6896202913854
 31
0.0
  0
LINE
  5
B5A
330
6B
100
AcDbEntity
  8
0
 62
     3
100
AcDbLine
 10
747.0623593723877
 20
-255.6896202913854
 30
0.0
 11
725.0623593723877
 21
-255.6896202913854
 31
0.0
  0
LINE
  5
B5B
330
6B
100
AcDbEntity
  8
0
 62
     3
100
AcDbLine
 10
725.0623593723877
 20
-268.980317965804
 30
0.0
 11
747.0623593723877
 21
-268.980317965804
 31
0.0
  0
ARC
  5
B5C
330
6B
100
AcDbEntity
  8
0
 62
     3
100
AcDbCircle
 10
736.0623593723877
 20
-268.980317965804
 30
0.0
 40
3.069767441860463
100
AcDbArc
 50
0.0
 51
180.0
  0
LINE
  5
B5D
330
6B
100
AcDbEntity
  8
0
 62
     3
100
AcDbLine
 10
727.1088710002945
 20
-263.0965970355714
 30
0.0
 11
727.3646849537827
 21
-263.0965970355714
 31
0.0
  0
LINE
  5
B5E
330
6B
100
AcDbEntity
  8
0
100
AcDbLine
 10
736.0623593723877
 20
-272.3058993611528
 30
0.0
 11
736.0623593723877
 21
-275.88729470999
 31
0.0
  0
CIRCLE
  5
B5F
330
6B
100
AcDbEntity
  8
0
100
AcDbCircle
 10
736.0623593723877
 20
-274.0965970355714
 30
0.0
 40
1.790697674418604
  0
LINE
  5
B60
330
6B
100
AcDbEntity
  8
0
100
AcDbLine
 10
727.3646849537827
 20
-263.0965970355714
 30
0.0
 11
736.3181733258755
 21
-268.980317965804
 31
0.0
  0
LINE
  5
B61
330
6B
100
AcDbEntity
  8
0
100
AcDbLine
 10
736.0623593723877
 20
-268.980317965804
 30
0.0
 11
727.1088710002945
 21
-263.0965970355714
 31
0.0
  0
TEXT
  5
B62
330
6B
100
AcDbEntity
  8
0
100
AcDbText
 10
744.2484058840155
 20
-261.0500854076645
 30
0.0
 40
1.023255813953487
  1
150
 50
319.9999910000022
 41
1.1808
100
AcDbText
  0
LINE
  5
B63
330
6B
100
AcDbEntity
  8
0
100
AcDbLine
 10
745.1058942561084
 20
-262.9860854076645
 30
0.0
 11
745.8733361165736
 21
-262.2186435471994
 31
0.0
  0
ARC
  5
B64
330
6B
100
AcDbEntity
  8
0
100
AcDbCircle
 10
736.8298012328527
 20
-274.6082249425481
 30
0.0
 40
14.32558139534884
100
AcDbArc
 50
50.85599999999552
 51
129.1440000000044
  0
TEXT
  5
B65
330
6B
100
AcDbEntity
  8
0
100
AcDbText
 10
726.2909826282016
 20
-262.3116073611527
 30
0.0
 40
0.8390697674418603
  1
0
 50
39.99999900000239
 41
1.440001
100
AcDbText
  0
LINE
  5
B66
330
6B
100
AcDbEntity
  8
0
100
AcDbLine
 10
727.1088710002945
 20
-263.0965970355714
 30
0.0
 11
726.5972430933177
 21
-262.3291551751063
 31
0.0
  0
TEXT
  5
B67
330
6B
100
AcDbEntity
  8
0
 62
     4
100
AcDbText
 10
701.6247252245175
 20
-253.4392204798884
 30
0.0
 40
2.25
  1
115V
  7
高4.5
100
AcDbText
  0
TEXT
  5
B68
330
6B
100
AcDbEntity
  8
0
 62
     4
100
AcDbText
 10
764.8673770696261
 20
-253.4392204798884
 30
0.0
 40
2.25
  1
125V
  7
高4.5
100
AcDbText
  0
TEXT
  5
B69
330
6B
100
AcDbEntity
  8
0
 62
     3
100
AcDbText
 10
717.1440578944873
 20
-289.5541339712691
 30
0.0
 40
3.149999999999999
  1
TORA PACK ハイパワー
 41
0.8
  7
高6.3
100
AcDbText
  0
TEXT
  5
B6A
330
6B
100
AcDbEntity
  8
0
 62
     3
100
AcDbText
 10
717.6163439748737
 20
-294.5094530028839
 30
0.0
 40
3.149999999999999
  1
M-E20 容量2KVA
  7
高6.3
100
AcDbText
  0
TEXT
  5
B6B
330
6B
100
AcDbEntity
  8
0
 62
     4
100
AcDbText
 10
698.8206134827342
 20
-280.9744520355271
 30
0.0
 40
2.25
  1
昇圧15%%%
  7
高4.5
100
AcDbText
  0
TEXT
  5
B6C
330
6B
100
AcDbEntity
  8
0
 62
     4
100
AcDbText
 10
762.9755766207887
 20
-280.9744520355271
 30
0.0
 40
2.25
  1
昇圧25%%%
  7
高4.5
100
AcDbText
  0
TEXT
  5
B6D
330
6B
100
AcDbEntity
  8
0
100
AcDbText
 10
725.4941487855212
 20
-298.2838657601909
 30
0.0
 40
1.25
  1
入力：AC100V　50/60Hz
  7
高2.5
100
AcDbText
  0
TEXT
  5
B6E
330
6B
100
AcDbEntity
  8
0
100
AcDbText
 10
725.4941487855212
 20
-300.7703307651855
 30
0.0
 40
1.25
  1
出力：AC115V・AC125V
  7
高2.5
100
AcDbText
  0
LINE
  5
B6F
330
6B
100
AcDbEntity
  8
0
 62
     3
100
AcDbLine
 10
703.5623593723877
 20
-246.1896202913854
 30
0.0
 11
710.3713763667624
 21
-232.5715863026355
 31
0.0
  0
ARC
  5
B70
330
6B
100
AcDbEntity
  8
0
 62
     3
100
AcDbCircle
 10
712.6074443442623
 20
-233.6896202913854
 30
0.0
 40
2.5
100
AcDbArc
 50
90.0
 51
153.4349488229249
  0
LINE
  5
B71
330
6B
100
AcDbEntity
  8
0
 62
     3
100
AcDbLine
 10
768.5623593723875
 20
-246.1896202913854
 30
0.0
 11
761.7533423780127
 21
-232.5715863026355
 31
0.0
  0
ARC
  5
B72
330
6B
100
AcDbEntity
  8
0
 62
     3
100
AcDbCircle
 10
759.5172744005127
 20
-233.6896202913854
 30
0.0
 40
2.5
100
AcDbArc
 50
26.56505117707508
 51
90.0
  0
LINE
  5
B73
330
6B
100
AcDbEntity
  8
0
 62
     3
100
AcDbLine
 10
759.5172744005127
 20
-231.1896202913854
 30
0.0
 11
712.6074443442623
 21
-231.1896202913854
 31
0.0
  0
ARC
  5
B74
330
6B
100
AcDbEntity
  8
0
 62
     3
100
AcDbCircle
 10
753.8123593723875
 20
-237.1896202913855
 30
0.0
 40
1.5
100
AcDbArc
 50
0.0
 51
89.99999999999348
  0
ARC
  5
B75
330
6B
100
AcDbEntity
  8
0
 62
     3
100
AcDbCircle
 10
718.3123593723877
 20
-237.1896202913854
 30
0.0
 40
1.5
100
AcDbArc
 50
90.0
 51
180.0
  0
LINE
  5
B76
330
6B
100
AcDbEntity
  8
0
 62
     3
100
AcDbLine
 10
871.9889427524181
 20
-246.1896202913854
 30
0.0
 11
872.9889427524183
 21
-231.1896202913854
 31
0.0
  0
LINE
  5
B77
330
6B
100
AcDbEntity
  8
0
 62
     3
100
AcDbLine
 10
872.9889427524183
 20
-231.1896202913854
 30
0.0
 11
877.9889427524182
 21
-231.1896202913854
 31
0.0
  0
LINE
  5
B78
330
6B
100
AcDbEntity
  8
0
 62
     3
100
AcDbLine
 10
877.9889427524182
 20
-231.1896202913854
 30
0.0
 11
878.9889427524181
 21
-246.1896202913854
 31
0.0
  0
LINE
  5
B79
330
6B
100
AcDbEntity
  8
0
100
AcDbLine
 10
912.4430888109413
 20
-272.1896202913854
 30
0.0
 11
913.4889427524184
 21
-272.1896202913854
 31
0.0
  0
LINE
  5
B7A
330
6B
100
AcDbEntity
  8
0
100
AcDbLine
 10
913.9889427524183
 20
-272.1896202913854
 30
0.0
 11
915.0347966938955
 21
-272.1896202913854
 31
0.0
  0
LINE
  5
B7B
330
6B
100
AcDbEntity
  8
0
100
AcDbLine
 10
912.4430888109413
 20
-271.6896202913854
 30
0.0
 11
913.4889427524184
 21
-271.6896202913854
 31
0.0
  0
LINE
  5
B7C
330
6B
100
AcDbEntity
  8
0
100
AcDbLine
 10
913.9889427524183
 20
-271.6896202913854
 30
0.0
 11
915.0347966938955
 21
-271.6896202913854
 31
0.0
  0
LINE
  5
B7D
330
6B
100
AcDbEntity
  8
0
100
AcDbLine
 10
913.4889427524184
 20
-270.6437663499083
 30
0.0
 11
913.4889427524184
 21
-271.6896202913854
 31
0.0
  0
LINE
  5
B7E
330
6B
100
AcDbEntity
  8
0
100
AcDbLine
 10
913.4889427524184
 20
-272.1896202913854
 30
0.0
 11
913.4889427524184
 21
-273.2354742328625
 31
0.0
  0
LINE
  5
B7F
330
6B
100
AcDbEntity
  8
0
100
AcDbLine
 10
913.9889427524183
 20
-270.6437663499083
 30
0.0
 11
913.9889427524183
 21
-271.6896202913854
 31
0.0
  0
LINE
  5
B80
330
6B
100
AcDbEntity
  8
0
100
AcDbLine
 10
913.9889427524183
 20
-272.1896202913854
 30
0.0
 11
913.9889427524183
 21
-273.2354742328625
 31
0.0
  0
CIRCLE
  5
B81
330
6B
100
AcDbEntity
  8
0
100
AcDbCircle
 10
913.7389427524183
 20
-271.9396202913854
 30
0.0
 40
2.25
  0
ARC
  5
B82
330
6B
100
AcDbEntity
  8
0
100
AcDbCircle
 10
913.7389427524183
 20
-271.9396202913854
 30
0.0
 40
1.319749005546779
100
AcDbArc
 50
79.08048086552426
 51
100.9195191344757
  0
ARC
  5
B83
330
6B
100
AcDbEntity
  8
0
100
AcDbCircle
 10
913.7389427524183
 20
-271.9396202913854
 30
0.0
 40
1.319749005546779
100
AcDbArc
 50
169.080480865528
 51
190.9195191344719
  0
ARC
  5
B84
330
6B
100
AcDbEntity
  8
0
100
AcDbCircle
 10
913.7389427524183
 20
-271.9396202913854
 30
0.0
 40
1.319749005546779
100
AcDbArc
 50
259.0804808655243
 51
280.9195191344756
  0
ARC
  5
B85
330
6B
100
AcDbEntity
  8
0
100
AcDbCircle
 10
913.7389427524183
 20
-271.9396202913854
 30
0.0
 40
1.319749005546779
100
AcDbArc
 50
349.0804808655281
 51
10.91951913447193
  0
LINE
  5
B86
330
6B
100
AcDbEntity
  8
0
100
AcDbLine
 10
839.9430888109412
 20
-272.1896202913854
 30
0.0
 11
840.9889427524182
 21
-272.1896202913854
 31
0.0
  0
LINE
  5
B87
330
6B
100
AcDbEntity
  8
0
100
AcDbLine
 10
841.4889427524181
 20
-272.1896202913854
 30
0.0
 11
842.5347966938954
 21
-272.1896202913854
 31
0.0
  0
LINE
  5
B88
330
6B
100
AcDbEntity
  8
0
100
AcDbLine
 10
839.9430888109412
 20
-271.6896202913854
 30
0.0
 11
840.9889427524182
 21
-271.6896202913854
 31
0.0
  0
LINE
  5
B89
330
6B
100
AcDbEntity
  8
0
100
AcDbLine
 10
841.4889427524181
 20
-271.6896202913854
 30
0.0
 11
842.5347966938954
 21
-271.6896202913854
 31
0.0
  0
LINE
  5
B8A
330
6B
100
AcDbEntity
  8
0
100
AcDbLine
 10
840.9889427524182
 20
-270.6437663499083
 30
0.0
 11
840.9889427524182
 21
-271.6896202913854
 31
0.0
  0
LINE
  5
B8B
330
6B
100
AcDbEntity
  8
0
100
AcDbLine
 10
840.9889427524182
 20
-272.1896202913854
 30
0.0
 11
840.9889427524182
 21
-273.2354742328625
 31
0.0
  0
LINE
  5
B8C
330
6B
100
AcDbEntity
  8
0
100
AcDbLine
 10
841.4889427524181
 20
-270.6437663499083
 30
0.0
 11
841.4889427524181
 21
-271.6896202913854
 31
0.0
  0
LINE
  5
B8D
330
6B
100
AcDbEntity
  8
0
100
AcDbLine
 10
841.4889427524181
 20
-272.1896202913854
 30
0.0
 11
841.4889427524181
 21
-273.2354742328625
 31
0.0
  0
CIRCLE
  5
B8E
330
6B
100
AcDbEntity
  8
0
100
AcDbCircle
 10
841.2389427524184
 20
-271.9396202913854
 30
0.0
 40
2.25
  0
ARC
  5
B8F
330
6B
100
AcDbEntity
  8
0
100
AcDbCircle
 10
841.2389427524184
 20
-271.9396202913854
 30
0.0
 40
1.319749005546779
100
AcDbArc
 50
79.08048086552426
 51
100.9195191344757
  0
ARC
  5
B90
330
6B
100
AcDbEntity
  8
0
100
AcDbCircle
 10
841.2389427524184
 20
-271.9396202913854
 30
0.0
 40
1.319749005546779
100
AcDbArc
 50
169.080480865528
 51
190.9195191344719
  0
ARC
  5
B91
330
6B
100
AcDbEntity
  8
0
100
AcDbCircle
 10
841.2389427524184
 20
-271.9396202913854
 30
0.0
 40
1.319749005546779
100
AcDbArc
 50
259.0804808655243
 51
280.9195191344756
  0
ARC
  5
B92
330
6B
100
AcDbEntity
  8
0
100
AcDbCircle
 10
841.2389427524184
 20
-271.9396202913854
 30
0.0
 40
1.319749005546779
100
AcDbArc
 50
349.0804808655281
 51
10.91951913447193
  0
LINE
  5
B93
330
6B
100
AcDbEntity
  8
0
100
AcDbLine
 10
848.4430888109411
 20
-306.4396202913854
 30
0.0
 11
849.4889427524181
 21
-306.4396202913854
 31
0.0
  0
LINE
  5
B94
330
6B
100
AcDbEntity
  8
0
100
AcDbLine
 10
849.9889427524182
 20
-306.4396202913854
 30
0.0
 11
851.0347966938956
 21
-306.4396202913854
 31
0.0
  0
LINE
  5
B95
330
6B
100
AcDbEntity
  8
0
100
AcDbLine
 10
848.4430888109411
 20
-305.9396202913854
 30
0.0
 11
849.4889427524181
 21
-305.9396202913854
 31
0.0
  0
LINE
  5
B96
330
6B
100
AcDbEntity
  8
0
100
AcDbLine
 10
849.9889427524182
 20
-305.9396202913854
 30
0.0
 11
851.0347966938956
 21
-305.9396202913854
 31
0.0
  0
LINE
  5
B97
330
6B
100
AcDbEntity
  8
0
100
AcDbLine
 10
849.4889427524181
 20
-304.8937663499083
 30
0.0
 11
849.4889427524181
 21
-305.9396202913854
 31
0.0
  0
LINE
  5
B98
330
6B
100
AcDbEntity
  8
0
100
AcDbLine
 10
849.4889427524181
 20
-306.4396202913854
 30
0.0
 11
849.4889427524181
 21
-307.4854742328625
 31
0.0
  0
LINE
  5
B99
330
6B
100
AcDbEntity
  8
0
100
AcDbLine
 10
849.9889427524182
 20
-304.8937663499083
 30
0.0
 11
849.9889427524182
 21
-305.9396202913854
 31
0.0
  0
LINE
  5
B9A
330
6B
100
AcDbEntity
  8
0
100
AcDbLine
 10
849.9889427524182
 20
-306.4396202913854
 30
0.0
 11
849.9889427524182
 21
-307.4854742328625
 31
0.0
  0
CIRCLE
  5
B9B
330
6B
100
AcDbEntity
  8
0
100
AcDbCircle
 10
849.7389427524181
 20
-306.1896202913854
 30
0.0
 40
2.25
  0
ARC
  5
B9C
330
6B
100
AcDbEntity
  8
0
100
AcDbCircle
 10
849.7389427524181
 20
-306.1896202913854
 30
0.0
 40
1.319749005546779
100
AcDbArc
 50
79.08048086552426
 51
100.9195191344757
  0
ARC
  5
B9D
330
6B
100
AcDbEntity
  8
0
100
AcDbCircle
 10
849.7389427524181
 20
-306.1896202913854
 30
0.0
 40
1.319749005546779
100
AcDbArc
 50
169.0804808655313
 51
190.9195191344687
  0
ARC
  5
B9E
330
6B
100
AcDbEntity
  8
0
100
AcDbCircle
 10
849.7389427524181
 20
-306.1896202913854
 30
0.0
 40
1.319749005546779
100
AcDbArc
 50
259.0804808655243
 51
280.9195191344756
  0
ARC
  5
B9F
330
6B
100
AcDbEntity
  8
0
100
AcDbCircle
 10
849.7389427524181
 20
-306.1896202913854
 30
0.0
 40
1.319749005546779
100
AcDbArc
 50
349.0804808655312
 51
10.91951913446873
  0
LINE
  5
BA0
330
6B
100
AcDbEntity
  8
0
100
AcDbLine
 10
903.4430888109412
 20
-306.4396202913854
 30
0.0
 11
904.4889427524182
 21
-306.4396202913854
 31
0.0
  0
LINE
  5
BA1
330
6B
100
AcDbEntity
  8
0
100
AcDbLine
 10
904.9889427524183
 20
-306.4396202913854
 30
0.0
 11
906.0347966938955
 21
-306.4396202913854
 31
0.0
  0
LINE
  5
BA2
330
6B
100
AcDbEntity
  8
0
100
AcDbLine
 10
903.4430888109412
 20
-305.9396202913854
 30
0.0
 11
904.4889427524182
 21
-305.9396202913854
 31
0.0
  0
LINE
  5
BA3
330
6B
100
AcDbEntity
  8
0
100
AcDbLine
 10
904.9889427524183
 20
-305.9396202913854
 30
0.0
 11
906.0347966938955
 21
-305.9396202913854
 31
0.0
  0
LINE
  5
BA4
330
6B
100
AcDbEntity
  8
0
100
AcDbLine
 10
904.4889427524182
 20
-304.8937663499083
 30
0.0
 11
904.4889427524182
 21
-305.9396202913854
 31
0.0
  0
LINE
  5
BA5
330
6B
100
AcDbEntity
  8
0
100
AcDbLine
 10
904.4889427524182
 20
-306.4396202913854
 30
0.0
 11
904.4889427524182
 21
-307.4854742328625
 31
0.0
  0
LINE
  5
BA6
330
6B
100
AcDbEntity
  8
0
100
AcDbLine
 10
904.9889427524183
 20
-304.8937663499083
 30
0.0
 11
904.9889427524183
 21
-305.9396202913854
 31
0.0
  0
LINE
  5
BA7
330
6B
100
AcDbEntity
  8
0
100
AcDbLine
 10
904.9889427524183
 20
-306.4396202913854
 30
0.0
 11
904.9889427524183
 21
-307.4854742328625
 31
0.0
  0
CIRCLE
  5
BA8
330
6B
100
AcDbEntity
  8
0
100
AcDbCircle
 10
904.7389427524183
 20
-306.1896202913854
 30
0.0
 40
2.25
  0
ARC
  5
BA9
330
6B
100
AcDbEntity
  8
0
100
AcDbCircle
 10
904.7389427524183
 20
-306.1896202913854
 30
0.0
 40
1.319749005546779
100
AcDbArc
 50
79.08048086552426
 51
100.9195191344757
  0
ARC
  5
BAA
330
6B
100
AcDbEntity
  8
0
100
AcDbCircle
 10
904.7389427524183
 20
-306.1896202913854
 30
0.0
 40
1.319749005546779
100
AcDbArc
 50
169.0804808655313
 51
190.9195191344687
  0
ARC
  5
BAB
330
6B
100
AcDbEntity
  8
0
100
AcDbCircle
 10
904.7389427524183
 20
-306.1896202913854
 30
0.0
 40
1.319749005546779
100
AcDbArc
 50
259.0804808655243
 51
280.9195191344756
  0
ARC
  5
BAC
330
6B
100
AcDbEntity
  8
0
100
AcDbCircle
 10
904.7389427524183
 20
-306.1896202913854
 30
0.0
 40
1.319749005546779
100
AcDbArc
 50
349.0804808655312
 51
10.91951913446873
  0
ARC
  5
BAD
330
6B
100
AcDbEntity
  8
0
100
AcDbCircle
 10
784.0623593723877
 20
-271.9396202913854
 30
0.0
 40
3.75
100
AcDbArc
 50
323.1301023541534
 51
36.86989764584664
  0
ARC
  5
BAE
330
6B
100
AcDbEntity
  8
0
100
AcDbCircle
 10
784.0623593723877
 20
-306.1896202913854
 30
0.0
 40
3.75
100
AcDbArc
 50
323.1301023541534
 51
36.86989764584664
  0
ARC
  5
BAF
330
6B
100
AcDbEntity
  8
0
100
AcDbCircle
 10
688.0623593723877
 20
-306.1896202913854
 30
0.0
 40
3.75
100
AcDbArc
 50
143.1301023541533
 51
216.8698976458466
  0
ARC
  5
BB0
330
6B
100
AcDbEntity
  8
0
100
AcDbCircle
 10
688.0623593723877
 20
-271.9396202913854
 30
0.0
 40
3.75
100
AcDbArc
 50
143.1301023541533
 51
216.8698976458466
  0
LINE
  5
BB1
330
6B
100
AcDbEntity
  8
0
 62
     3
100
AcDbLine
 10
755.3123593723872
 20
-246.1896202913854
 30
0.0
 11
755.3123593723872
 21
-237.1896202913855
 31
0.0
  0
LINE
  5
BB2
330
6B
100
AcDbEntity
  8
0
 62
     3
100
AcDbLine
 10
716.8123593723877
 20
-246.1896202913854
 30
0.0
 11
716.8123593723877
 21
-237.1896202913854
 31
0.0
  0
ARC
  5
BB3
330
6B
100
AcDbEntity
  8
0
100
AcDbCircle
 10
906.4889427524184
 20
-257.1896202913854
 30
0.0
 40
0.7499999999998856
100
AcDbArc
 50
0.0
 51
180.0
  0
ARC
  5
BB4
330
6B
100
AcDbEntity
  8
0
100
AcDbCircle
 10
906.4889427524184
 20
-270.6896202913855
 30
0.0
 40
0.75
100
AcDbArc
 50
180.0
 51
0.0
  0
LINE
  5
BB5
330
6B
100
AcDbEntity
  8
0
100
AcDbLine
 10
904.2389427524183
 20
-257.1896202913854
 30
0.0
 11
904.2389427524183
 21
-270.6896202913855
 31
0.0
  0
LINE
  5
BB6
330
6B
100
AcDbEntity
  8
0
100
AcDbLine
 10
902.7389427524182
 20
-257.1896202913854
 30
0.0
 11
902.7389427524182
 21
-270.6896202913855
 31
0.0
  0
ARC
  5
BB7
330
6B
100
AcDbEntity
  8
0
100
AcDbCircle
 10
903.4889427524186
 20
-257.1896202913854
 30
0.0
 40
0.7499999999998856
100
AcDbArc
 50
0.0
 51
180.0
  0
ARC
  5
BB8
330
6B
100
AcDbEntity
  8
0
100
AcDbCircle
 10
903.4889427524182
 20
-270.6896202913855
 30
0.0
 40
0.75
100
AcDbArc
 50
180.0
 51
0.0
  0
LINE
  5
BB9
330
6B
100
AcDbEntity
  8
0
100
AcDbLine
 10
901.2389427524183
 20
-257.1896202913854
 30
0.0
 11
901.2389427524183
 21
-270.6896202913855
 31
0.0
  0
LINE
  5
BBA
330
6B
100
AcDbEntity
  8
0
100
AcDbLine
 10
899.7389427524181
 20
-257.1896202913854
 30
0.0
 11
899.7389427524181
 21
-270.6896202913855
 31
0.0
  0
ARC
  5
BBB
330
6B
100
AcDbEntity
  8
0
100
AcDbCircle
 10
900.4889427524185
 20
-257.1896202913854
 30
0.0
 40
0.7499999999998856
100
AcDbArc
 50
0.0
 51
180.0
  0
ARC
  5
BBC
330
6B
100
AcDbEntity
  8
0
100
AcDbCircle
 10
900.4889427524181
 20
-270.6896202913855
 30
0.0
 40
0.75
100
AcDbArc
 50
180.0
 51
0.0
  0
LINE
  5
BBD
330
6B
100
AcDbEntity
  8
0
100
AcDbLine
 10
898.2389427524182
 20
-257.1896202913854
 30
0.0
 11
898.2389427524182
 21
-270.6896202913855
 31
0.0
  0
LINE
  5
BBE
330
6B
100
AcDbEntity
  8
0
100
AcDbLine
 10
896.7389427524182
 20
-257.1896202913854
 30
0.0
 11
896.7389427524182
 21
-270.6896202913855
 31
0.0
  0
ARC
  5
BBF
330
6B
100
AcDbEntity
  8
0
100
AcDbCircle
 10
897.4889427524185
 20
-257.1896202913854
 30
0.0
 40
0.7499999999998856
100
AcDbArc
 50
0.0
 51
180.0
  0
ARC
  5
BC0
330
6B
100
AcDbEntity
  8
0
100
AcDbCircle
 10
897.4889427524184
 20
-270.6896202913855
 30
0.0
 40
0.75
100
AcDbArc
 50
180.0
 51
0.0
  0
LINE
  5
BC1
330
6B
100
AcDbEntity
  8
0
100
AcDbLine
 10
895.2389427524181
 20
-257.1896202913854
 30
0.0
 11
895.2389427524181
 21
-270.6896202913855
 31
0.0
  0
LINE
  5
BC2
330
6B
100
AcDbEntity
  8
0
100
AcDbLine
 10
893.7389427524182
 20
-257.1896202913854
 30
0.0
 11
893.7389427524182
 21
-270.6896202913855
 31
0.0
  0
ARC
  5
BC3
330
6B
100
AcDbEntity
  8
0
100
AcDbCircle
 10
894.4889427524186
 20
-257.1896202913854
 30
0.0
 40
0.7499999999998856
100
AcDbArc
 50
0.0
 51
180.0
  0
ARC
  5
BC4
330
6B
100
AcDbEntity
  8
0
100
AcDbCircle
 10
894.4889427524183
 20
-270.6896202913855
 30
0.0
 40
0.75
100
AcDbArc
 50
180.0
 51
0.0
  0
LINE
  5
BC5
330
6B
100
AcDbEntity
  8
0
100
AcDbLine
 10
892.2389427524182
 20
-257.1896202913854
 30
0.0
 11
892.2389427524182
 21
-270.6896202913855
 31
0.0
  0
LINE
  5
BC6
330
6B
100
AcDbEntity
  8
0
100
AcDbLine
 10
890.7389427524181
 20
-257.1896202913854
 30
0.0
 11
890.7389427524181
 21
-270.6896202913855
 31
0.0
  0
ARC
  5
BC7
330
6B
100
AcDbEntity
  8
0
100
AcDbCircle
 10
891.4889427524185
 20
-257.1896202913854
 30
0.0
 40
0.7499999999998856
100
AcDbArc
 50
0.0
 51
180.0
  0
ARC
  5
BC8
330
6B
100
AcDbEntity
  8
0
100
AcDbCircle
 10
891.4889427524181
 20
-270.6896202913855
 30
0.0
 40
0.75
100
AcDbArc
 50
180.0
 51
0.0
  0
LINE
  5
BC9
330
6B
100
AcDbEntity
  8
0
100
AcDbLine
 10
889.2389427524182
 20
-257.1896202913854
 30
0.0
 11
889.2389427524182
 21
-270.6896202913855
 31
0.0
  0
LINE
  5
BCA
330
6B
100
AcDbEntity
  8
0
100
AcDbLine
 10
887.7389427524184
 20
-257.1896202913854
 30
0.0
 11
887.7389427524184
 21
-270.6896202913855
 31
0.0
  0
ARC
  5
BCB
330
6B
100
AcDbEntity
  8
0
100
AcDbCircle
 10
888.4889427524186
 20
-257.1896202913854
 30
0.0
 40
0.7499999999998856
100
AcDbArc
 50
0.0
 51
180.0
  0
ARC
  5
BCC
330
6B
100
AcDbEntity
  8
0
100
AcDbCircle
 10
888.4889427524184
 20
-270.6896202913855
 30
0.0
 40
0.75
100
AcDbArc
 50
180.0
 51
0.0
  0
LINE
  5
BCD
330
6B
100
AcDbEntity
  8
0
100
AcDbLine
 10
886.2389427524181
 20
-257.1896202913854
 30
0.0
 11
886.2389427524181
 21
-270.6896202913855
 31
0.0
  0
LINE
  5
BCE
330
6B
100
AcDbEntity
  8
0
100
AcDbLine
 10
884.7389427524182
 20
-257.1896202913854
 30
0.0
 11
884.7389427524182
 21
-270.6896202913855
 31
0.0
  0
ARC
  5
BCF
330
6B
100
AcDbEntity
  8
0
100
AcDbCircle
 10
885.4889427524183
 20
-257.1896202913854
 30
0.0
 40
0.7499999999998856
100
AcDbArc
 50
0.0
 51
180.0
  0
ARC
  5
BD0
330
6B
100
AcDbEntity
  8
0
100
AcDbCircle
 10
885.4889427524183
 20
-270.6896202913855
 30
0.0
 40
0.75
100
AcDbArc
 50
180.0
 51
0.0
  0
LINE
  5
BD1
330
6B
100
AcDbEntity
  8
0
100
AcDbLine
 10
883.2389427524184
 20
-257.1896202913854
 30
0.0
 11
883.2389427524184
 21
-270.6896202913855
 31
0.0
  0
LINE
  5
BD2
330
6B
100
AcDbEntity
  8
0
100
AcDbLine
 10
881.7389427524181
 20
-257.1896202913854
 30
0.0
 11
881.7389427524181
 21
-270.6896202913855
 31
0.0
  0
ARC
  5
BD3
330
6B
100
AcDbEntity
  8
0
100
AcDbCircle
 10
882.4889427524182
 20
-257.1896202913854
 30
0.0
 40
0.7499999999998856
100
AcDbArc
 50
0.0
 51
180.0
  0
ARC
  5
BD4
330
6B
100
AcDbEntity
  8
0
100
AcDbCircle
 10
882.4889427524182
 20
-270.6896202913855
 30
0.0
 40
0.75
100
AcDbArc
 50
180.0
 51
0.0
  0
LINE
  5
BD5
330
6B
100
AcDbEntity
  8
0
100
AcDbLine
 10
880.2389427524182
 20
-257.1896202913854
 30
0.0
 11
880.2389427524182
 21
-270.6896202913855
 31
0.0
  0
LINE
  5
BD6
330
6B
100
AcDbEntity
  8
0
100
AcDbLine
 10
878.7389427524184
 20
-257.1896202913854
 30
0.0
 11
878.7389427524184
 21
-270.6896202913855
 31
0.0
  0
ARC
  5
BD7
330
6B
100
AcDbEntity
  8
0
100
AcDbCircle
 10
879.4889427524182
 20
-257.1896202913854
 30
0.0
 40
0.7499999999998856
100
AcDbArc
 50
0.0
 51
180.0
  0
ARC
  5
BD8
330
6B
100
AcDbEntity
  8
0
100
AcDbCircle
 10
879.4889427524182
 20
-270.6896202913855
 30
0.0
 40
0.75
100
AcDbArc
 50
180.0
 51
0.0
  0
LINE
  5
BD9
330
6B
100
AcDbEntity
  8
0
100
AcDbLine
 10
877.2389427524181
 20
-257.1896202913854
 30
0.0
 11
877.2389427524181
 21
-270.6896202913855
 31
0.0
  0
LINE
  5
BDA
330
6B
100
AcDbEntity
  8
0
100
AcDbLine
 10
875.7389427524183
 20
-257.1896202913854
 30
0.0
 11
875.7389427524183
 21
-270.6896202913855
 31
0.0
  0
ARC
  5
BDB
330
6B
100
AcDbEntity
  8
0
100
AcDbCircle
 10
876.4889427524185
 20
-257.1896202913854
 30
0.0
 40
0.7499999999998856
100
AcDbArc
 50
0.0
 51
180.0
  0
ARC
  5
BDC
330
6B
100
AcDbEntity
  8
0
100
AcDbCircle
 10
876.4889427524181
 20
-270.6896202913855
 30
0.0
 40
0.75
100
AcDbArc
 50
180.0
 51
0.0
  0
LINE
  5
BDD
330
6B
100
AcDbEntity
  8
0
100
AcDbLine
 10
874.2389427524184
 20
-257.1896202913854
 30
0.0
 11
874.2389427524184
 21
-270.6896202913855
 31
0.0
  0
LINE
  5
BDE
330
6B
100
AcDbEntity
  8
0
100
AcDbLine
 10
872.7389427524181
 20
-257.1896202913854
 30
0.0
 11
872.7389427524181
 21
-270.6896202913855
 31
0.0
  0
ARC
  5
BDF
330
6B
100
AcDbEntity
  8
0
100
AcDbCircle
 10
873.4889427524182
 20
-257.1896202913854
 30
0.0
 40
0.7499999999998856
100
AcDbArc
 50
0.0
 51
180.0
  0
ARC
  5
BE0
330
6B
100
AcDbEntity
  8
0
100
AcDbCircle
 10
873.4889427524182
 20
-270.6896202913855
 30
0.0
 40
0.75
100
AcDbArc
 50
180.0
 51
0.0
  0
LINE
  5
BE1
330
6B
100
AcDbEntity
  8
0
100
AcDbLine
 10
871.2389427524183
 20
-257.1896202913854
 30
0.0
 11
871.2389427524183
 21
-270.6896202913855
 31
0.0
  0
LINE
  5
BE2
330
6B
100
AcDbEntity
  8
0
100
AcDbLine
 10
869.7389427524184
 20
-257.1896202913854
 30
0.0
 11
869.7389427524184
 21
-270.6896202913855
 31
0.0
  0
ARC
  5
BE3
330
6B
100
AcDbEntity
  8
0
100
AcDbCircle
 10
870.4889427524182
 20
-257.1896202913854
 30
0.0
 40
0.7499999999998856
100
AcDbArc
 50
0.0
 51
180.0
  0
ARC
  5
BE4
330
6B
100
AcDbEntity
  8
0
100
AcDbCircle
 10
870.4889427524182
 20
-270.6896202913855
 30
0.0
 40
0.75
100
AcDbArc
 50
180.0
 51
0.0
  0
LINE
  5
BE5
330
6B
100
AcDbEntity
  8
0
100
AcDbLine
 10
868.2389427524181
 20
-257.1896202913854
 30
0.0
 11
868.2389427524181
 21
-270.6896202913855
 31
0.0
  0
LINE
  5
BE6
330
6B
100
AcDbEntity
  8
0
100
AcDbLine
 10
866.7389427524183
 20
-257.1896202913854
 30
0.0
 11
866.7389427524183
 21
-270.6896202913855
 31
0.0
  0
ARC
  5
BE7
330
6B
100
AcDbEntity
  8
0
100
AcDbCircle
 10
867.4889427524185
 20
-257.1896202913854
 30
0.0
 40
0.7499999999998856
100
AcDbArc
 50
0.0
 51
180.0
  0
ARC
  5
BE8
330
6B
100
AcDbEntity
  8
0
100
AcDbCircle
 10
867.4889427524181
 20
-270.6896202913855
 30
0.0
 40
0.75
100
AcDbArc
 50
180.0
 51
0.0
  0
LINE
  5
BE9
330
6B
100
AcDbEntity
  8
0
100
AcDbLine
 10
865.2389427524182
 20
-257.1896202913854
 30
0.0
 11
865.2389427524182
 21
-270.6896202913855
 31
0.0
  0
LINE
  5
BEA
330
6B
100
AcDbEntity
  8
0
100
AcDbLine
 10
863.7389427524182
 20
-257.1896202913854
 30
0.0
 11
863.7389427524182
 21
-270.6896202913855
 31
0.0
  0
ARC
  5
BEB
330
6B
100
AcDbEntity
  8
0
100
AcDbCircle
 10
864.4889427524184
 20
-257.1896202913854
 30
0.0
 40
0.7499999999998856
100
AcDbArc
 50
0.0
 51
180.0
  0
ARC
  5
BEC
330
6B
100
AcDbEntity
  8
0
100
AcDbCircle
 10
864.4889427524184
 20
-270.6896202913855
 30
0.0
 40
0.75
100
AcDbArc
 50
180.0
 51
0.0
  0
LINE
  5
BED
330
6B
100
AcDbEntity
  8
0
100
AcDbLine
 10
862.2389427524181
 20
-257.1896202913854
 30
0.0
 11
862.2389427524181
 21
-270.6896202913855
 31
0.0
  0
LINE
  5
BEE
330
6B
100
AcDbEntity
  8
0
100
AcDbLine
 10
860.7389427524182
 20
-257.1896202913854
 30
0.0
 11
860.7389427524182
 21
-270.6896202913855
 31
0.0
  0
ARC
  5
BEF
330
6B
100
AcDbEntity
  8
0
100
AcDbCircle
 10
861.4889427524182
 20
-257.1896202913854
 30
0.0
 40
0.7499999999998856
100
AcDbArc
 50
0.0
 51
180.0
  0
ARC
  5
BF0
330
6B
100
AcDbEntity
  8
0
100
AcDbCircle
 10
861.4889427524182
 20
-270.6896202913855
 30
0.0
 40
0.75
100
AcDbArc
 50
180.0
 51
0.0
  0
LINE
  5
BF1
330
6B
100
AcDbEntity
  8
0
100
AcDbLine
 10
859.2389427524182
 20
-257.1896202913854
 30
0.0
 11
859.2389427524182
 21
-270.6896202913855
 31
0.0
  0
LINE
  5
BF2
330
6B
100
AcDbEntity
  8
0
100
AcDbLine
 10
857.7389427524181
 20
-257.1896202913854
 30
0.0
 11
857.7389427524181
 21
-270.6896202913855
 31
0.0
  0
ARC
  5
BF3
330
6B
100
AcDbEntity
  8
0
100
AcDbCircle
 10
858.4889427524181
 20
-257.1896202913854
 30
0.0
 40
0.7499999999998856
100
AcDbArc
 50
0.0
 51
180.0
  0
ARC
  5
BF4
330
6B
100
AcDbEntity
  8
0
100
AcDbCircle
 10
858.4889427524181
 20
-270.6896202913855
 30
0.0
 40
0.75
100
AcDbArc
 50
180.0
 51
0.0
  0
LINE
  5
BF5
330
6B
100
AcDbEntity
  8
0
100
AcDbLine
 10
918.4889427524183
 20
-261.9396202913854
 30
0.0
 11
917.2389427524183
 21
-261.9396202913854
 31
0.0
  0
LINE
  5
BF6
330
6B
100
AcDbEntity
  8
0
100
AcDbLine
 10
918.4889427524183
 20
-262.4396202913855
 30
0.0
 11
917.2389427524183
 21
-262.4396202913855
 31
0.0
  0
LINE
  5
BF7
330
6B
100
AcDbEntity
  8
0
100
AcDbLine
 10
918.4889427524183
 20
-262.9396202913854
 30
0.0
 11
917.2389427524183
 21
-262.9396202913854
 31
0.0
  0
LINE
  5
BF8
330
6B
100
AcDbEntity
  8
0
100
AcDbLine
 10
918.4889427524183
 20
-263.4396202913854
 30
0.0
 11
917.2389427524183
 21
-263.4396202913854
 31
0.0
  0
LINE
  5
BF9
330
6B
100
AcDbEntity
  8
0
100
AcDbLine
 10
918.4889427524183
 20
-263.9396202913854
 30
0.0
 11
917.2389427524183
 21
-263.9396202913854
 31
0.0
  0
LINE
  5
BFA
330
6B
100
AcDbEntity
  8
0
100
AcDbLine
 10
918.4889427524183
 20
-264.4396202913855
 30
0.0
 11
917.2389427524183
 21
-264.4396202913855
 31
0.0
  0
LINE
  5
BFB
330
6B
100
AcDbEntity
  8
0
100
AcDbLine
 10
918.4889427524183
 20
-264.9396202913854
 30
0.0
 11
917.2389427524183
 21
-264.9396202913854
 31
0.0
  0
LINE
  5
BFC
330
6B
100
AcDbEntity
  8
0
100
AcDbLine
 10
918.4889427524183
 20
-265.4396202913854
 30
0.0
 11
917.2389427524183
 21
-265.4396202913854
 31
0.0
  0
LINE
  5
BFD
330
6B
100
AcDbEntity
  8
0
100
AcDbLine
 10
918.4889427524183
 20
-261.4396202913854
 30
0.0
 11
917.2389427524183
 21
-261.4396202913854
 31
0.0
  0
LINE
  5
BFE
330
6B
100
AcDbEntity
  8
0
100
AcDbLine
 10
918.4889427524183
 20
-260.9396202913854
 30
0.0
 11
917.2389427524183
 21
-260.9396202913854
 31
0.0
  0
LINE
  5
BFF
330
6B
100
AcDbEntity
  8
0
100
AcDbLine
 10
918.4889427524183
 20
-260.4396202913854
 30
0.0
 11
917.2389427524183
 21
-260.4396202913854
 31
0.0
  0
LINE
  5
C00
330
6B
100
AcDbEntity
  8
0
100
AcDbLine
 10
918.4889427524183
 20
-259.9396202913855
 30
0.0
 11
917.2389427524183
 21
-259.9396202913855
 31
0.0
  0
LINE
  5
C01
330
6B
100
AcDbEntity
  8
0
100
AcDbLine
 10
918.4889427524183
 20
-259.4396202913854
 30
0.0
 11
917.2389427524183
 21
-259.4396202913854
 31
0.0
  0
LINE
  5
C02
330
6B
100
AcDbEntity
  8
0
100
AcDbLine
 10
918.4889427524183
 20
-258.9396202913854
 30
0.0
 11
917.2389427524183
 21
-258.9396202913854
 31
0.0
  0
LINE
  5
C03
330
6B
100
AcDbEntity
  8
0
100
AcDbLine
 10
918.4889427524183
 20
-258.4396202913854
 30
0.0
 11
917.2389427524183
 21
-258.4396202913854
 31
0.0
  0
LINE
  5
C04
330
6B
100
AcDbEntity
  8
0
 62
     3
100
AcDbLine
 10
922.9889427524183
 20
-263.8896202913854
 30
0.0
 11
920.7389427524184
 21
-263.8896202913854
 31
0.0
  0
LINE
  5
C05
330
6B
100
AcDbEntity
  8
0
 62
     3
100
AcDbLine
 10
922.9889427524183
 20
-259.9896202913854
 30
0.0
 11
920.7389427524184
 21
-259.9896202913854
 31
0.0
  0
LINE
  5
C06
330
6B
100
AcDbEntity
  8
0
 62
     3
100
AcDbLine
 10
920.7389427524184
 20
-264.8146202913854
 30
0.0
 11
918.4889427524183
 21
-264.8146202913854
 31
0.0
  0
LINE
  5
C07
330
6B
100
AcDbEntity
  8
0
 62
     3
100
AcDbLine
 10
920.7389427524184
 20
-259.0646202913855
 30
0.0
 11
918.4889427524183
 21
-259.0646202913855
 31
0.0
  0
ARC
  5
C30
330
6B
100
AcDbEntity
  8
0
100
AcDbCircle
 10
930.2694267654331
 20
-298.0223808829046
 30
0.0
 40
4.398755792651773
100
AcDbArc
 50
150.0857611883296
 51
210.1930884079019
  0
ARC
  5
C31
330
6B
100
AcDbEntity
  8
0
100
AcDbCircle
 10
922.4561274863127
 20
-302.3390950836272
 30
0.0
 40
4.529843558913587
100
AcDbArc
 50
332.3164392411752
 51
27.68356075882193
  0
ARC
  5
C32
330
6B
100
AcDbEntity
  8
0
100
AcDbCircle
 10
933.4424906606932
 20
-298.0223808829046
 30
0.0
 40
4.398755792651773
100
AcDbArc
 50
150.0857611883296
 51
210.1930884079019
  0
ARC
  5
C33
330
6B
100
AcDbEntity
  8
0
100
AcDbCircle
 10
925.6291913815726
 20
-302.3390950836272
 30
0.0
 40
4.529843558913587
100
AcDbArc
 50
332.3164392411752
 51
27.68356075882193
  0
TEXT
  5
C34
330
6B
100
AcDbEntity
  8
0
 62
     3
100
AcDbText
 10
855.519826485389
 20
-375.2071029172053
 30
0.0
 40
3.2
  1
保護回路
  7
高3.2
100
AcDbText
  0
LINE
  5
C35
330
6B
100
AcDbEntity
  8
0
100
AcDbLine
 10
854.0198264853891
 20
-375.7071029172053
 30
0.0
 11
927.1756317423076
 21
-375.7071029172053
 31
0.0
  0
TEXT
  5
C36
330
6B
100
AcDbEntity
  8
0
 62
     3
100
AcDbText
 10
877.7405884202135
 20
-375.2071029172053
 30
0.0
 40
3.2
  1
25Aサーキットブレーカー
  7
高3.2
100
AcDbText
  0
CIRCLE
  5
C3D
330
6B
100
AcDbEntity
  8
0
100
AcDbCircle
 10
668.400247687428
 20
-316.6250634738142
 30
0.0
 40
5.0
  0
TEXT
  5
C3E
330
6B
100
AcDbEntity
  8
0
 62
     4
100
AcDbText
 10
666.3092691284024
 20
-319.8888606009536
 30
0.0
 40
6.299999999999998
  1
3
  7
高6.3
100
AcDbText
  0
CIRCLE
  5
C3F
330
6B
100
AcDbEntity
  8
0
100
AcDbCircle
 10
668.8793846874282
 20
-260.4540780940313
 30
0.0
 40
5.0
  0
TEXT
  5
C40
330
6B
100
AcDbEntity
  8
0
 62
     4
100
AcDbText
 10
666.7884061284022
 20
-263.717875221171
 30
0.0
 40
6.299999999999998
  1
4
  7
高6.3
100
AcDbText
  0
CIRCLE
  5
C41
330
6B
100
AcDbEntity
  8
0
100
AcDbCircle
 10
668.8793846874282
 20
-237.7418230940313
 30
0.0
 40
5.0
  0
TEXT
  5
C42
330
6B
100
AcDbEntity
  8
0
 62
     4
100
AcDbText
 10
666.7884061284022
 20
-241.0056202211709
 30
0.0
 40
6.299999999999998
  1
6
  7
高6.3
100
AcDbText
  0
CIRCLE
  5
C43
330
6B
100
AcDbEntity
  8
0
100
AcDbCircle
 10
668.8793846874282
 20
-224.3233150940313
 30
0.0
 40
5.0
  0
TEXT
  5
C44
330
6B
100
AcDbEntity
  8
0
 62
     4
100
AcDbText
 10
667.8893145427835
 20
-227.5724473977103
 30
0.0
 40
6.299999999999998
  1
1
  7
高6.3
100
AcDbText
  0
CIRCLE
  5
C49
330
6B
100
AcDbEntity
  8
0
100
AcDbCircle
 10
938.2231445305267
 20
-283.8224258936989
 30
0.0
 40
5.0
  0
TEXT
  5
C4A
330
6B
100
AcDbEntity
  8
0
 62
     4
100
AcDbText
 10
936.1321659715013
 20
-287.0862230208386
 30
0.0
 40
6.299999999999998
  1
2
  7
高6.3
100
AcDbText
  0
CIRCLE
  5
C4B
330
6B
100
AcDbEntity
  8
0
100
AcDbCircle
 10
938.2208065305267
 20
-247.139671893699
 30
0.0
 40
5.0
  0
TEXT
  5
C4C
330
6B
100
AcDbEntity
  8
0
 62
     4
100
AcDbText
 10
936.1298279715013
 20
-250.4034700208386
 30
0.0
 40
6.299999999999998
  1
7
  7
高6.3
100
AcDbText
  0
LINE
  5
C52
330
6B
100
AcDbEntity
  8
0
 62
     3
100
AcDbLine
 10
705.4123593723876
 20
-295.1646202913853
 30
0.0
 11
702.7123593723875
 21
-295.1646202913853
 31
0.0
  0
LINE
  5
C53
330
6B
100
AcDbEntity
  8
0
 62
     3
100
AcDbLine
 10
702.7123593723875
 20
-295.1646202913853
 30
0.0
 11
702.7123593723875
 21
-293.8146202913853
 31
0.0
  0
LINE
  5
C54
330
6B
100
AcDbEntity
  8
0
 62
     3
100
AcDbLine
 10
705.4123593723876
 20
-295.1646202913853
 30
0.0
 11
705.4123593723876
 21
-293.8146202913853
 31
0.0
  0
ARC
  5
C55
330
6B
100
AcDbEntity
  8
0
 62
     3
100
AcDbCircle
 10
704.0623593723877
 20
-293.8146202913853
 30
0.0
 40
1.349999999999994
100
AcDbArc
 50
0.0
 51
180.0
  0
LINE
  5
C56
330
6B
100
AcDbEntity
  8
0
 62
     3
100
AcDbLine
 10
700.3873593723875
 20
-265.9396202913854
 30
0.0
 11
700.3873593723875
 21
-270.4396202913855
 31
0.0
  0
LINE
  5
C57
330
6B
100
AcDbEntity
  8
0
 62
     3
100
AcDbLine
 10
701.3873593723875
 20
-265.9396202913854
 30
0.0
 11
701.3873593723875
 21
-270.4396202913855
 31
0.0
  0
LINE
  5
C58
330
6B
100
AcDbEntity
  8
0
 62
     3
100
AcDbLine
 10
706.7373593723877
 20
-266.4396202913855
 30
0.0
 11
706.7373593723877
 21
-269.9396202913854
 31
0.0
  0
LINE
  5
C59
330
6B
100
AcDbEntity
  8
0
 62
     3
100
AcDbLine
 10
707.7373593723875
 20
-266.4396202913855
 30
0.0
 11
707.7373593723875
 21
-269.9396202913854
 31
0.0
  0
LINE
  5
C5A
330
6B
100
AcDbEntity
  8
0
 62
     3
100
AcDbLine
 10
706.7373593723877
 20
-269.9396202913854
 30
0.0
 11
707.7373593723875
 21
-269.9396202913854
 31
0.0
  0
LINE
  5
C5B
330
6B
100
AcDbEntity
  8
0
 62
     3
100
AcDbLine
 10
700.3873593723875
 20
-270.4396202913855
 30
0.0
 11
701.3873593723875
 21
-270.4396202913855
 31
0.0
  0
LINE
  5
C5C
330
6B
100
AcDbEntity
  8
0
 62
     3
100
AcDbLine
 10
706.7373593723877
 20
-266.4396202913855
 30
0.0
 11
707.7373593723875
 21
-266.4396202913855
 31
0.0
  0
LINE
  5
C5D
330
6B
100
AcDbEntity
  8
0
 62
     3
100
AcDbLine
 10
700.3873593723875
 20
-265.9396202913854
 30
0.0
 11
701.3873593723875
 21
-265.9396202913854
 31
0.0
  0
LINE
  5
C5E
330
6B
100
AcDbEntity
  8
0
 62
     3
100
AcDbLine
 10
705.4123593723876
 20
-275.6646202913854
 30
0.0
 11
702.7123593723875
 21
-275.6646202913854
 31
0.0
  0
LINE
  5
C5F
330
6B
100
AcDbEntity
  8
0
 62
     3
100
AcDbLine
 10
702.7123593723875
 20
-275.6646202913854
 30
0.0
 11
702.7123593723875
 21
-274.3146202913853
 31
0.0
  0
LINE
  5
C60
330
6B
100
AcDbEntity
  8
0
 62
     3
100
AcDbLine
 10
705.4123593723876
 20
-275.6646202913854
 30
0.0
 11
705.4123593723876
 21
-274.3146202913853
 31
0.0
  0
ARC
  5
C61
330
6B
100
AcDbEntity
  8
0
 62
     3
100
AcDbCircle
 10
704.0623593723877
 20
-274.3146202913853
 30
0.0
 40
1.349999999999994
100
AcDbArc
 50
0.0
 51
180.0
  0
LINE
  5
C62
330
6B
100
AcDbEntity
  8
0
 62
     3
100
AcDbLine
 10
764.3873593723874
 20
-265.9396202913854
 30
0.0
 11
764.3873593723874
 21
-270.4396202913855
 31
0.0
  0
LINE
  5
C63
330
6B
100
AcDbEntity
  8
0
 62
     3
100
AcDbLine
 10
765.3873593723874
 20
-265.9396202913854
 30
0.0
 11
765.3873593723874
 21
-270.4396202913855
 31
0.0
  0
LINE
  5
C64
330
6B
100
AcDbEntity
  8
0
 62
     3
100
AcDbLine
 10
770.7373593723872
 20
-266.4396202913855
 30
0.0
 11
770.7373593723872
 21
-269.9396202913854
 31
0.0
  0
LINE
  5
C65
330
6B
100
AcDbEntity
  8
0
 62
     3
100
AcDbLine
 10
771.7373593723872
 20
-266.4396202913855
 30
0.0
 11
771.7373593723872
 21
-269.9396202913854
 31
0.0
  0
LINE
  5
C66
330
6B
100
AcDbEntity
  8
0
 62
     3
100
AcDbLine
 10
770.7373593723872
 20
-269.9396202913854
 30
0.0
 11
771.7373593723872
 21
-269.9396202913854
 31
0.0
  0
LINE
  5
C67
330
6B
100
AcDbEntity
  8
0
 62
     3
100
AcDbLine
 10
764.3873593723874
 20
-270.4396202913855
 30
0.0
 11
765.3873593723874
 21
-270.4396202913855
 31
0.0
  0
LINE
  5
C68
330
6B
100
AcDbEntity
  8
0
 62
     3
100
AcDbLine
 10
770.7373593723872
 20
-266.4396202913855
 30
0.0
 11
771.7373593723872
 21
-266.4396202913855
 31
0.0
  0
LINE
  5
C69
330
6B
100
AcDbEntity
  8
0
 62
     3
100
AcDbLine
 10
764.3873593723874
 20
-265.9396202913854
 30
0.0
 11
765.3873593723874
 21
-265.9396202913854
 31
0.0
  0
LINE
  5
C6A
330
6B
100
AcDbEntity
  8
0
 62
     3
100
AcDbLine
 10
769.4123593723875
 20
-275.6646202913854
 30
0.0
 11
766.7123593723872
 21
-275.6646202913854
 31
0.0
  0
LINE
  5
C6B
330
6B
100
AcDbEntity
  8
0
 62
     3
100
AcDbLine
 10
766.7123593723872
 20
-275.6646202913854
 30
0.0
 11
766.7123593723872
 21
-274.3146202913853
 31
0.0
  0
LINE
  5
C6C
330
6B
100
AcDbEntity
  8
0
 62
     3
100
AcDbLine
 10
769.4123593723875
 20
-275.6646202913854
 30
0.0
 11
769.4123593723875
 21
-274.3146202913853
 31
0.0
  0
ARC
  5
C6D
330
6B
100
AcDbEntity
  8
0
 62
     3
100
AcDbCircle
 10
768.0623593723875
 20
-274.3146202913853
 30
0.0
 40
1.349999999999994
100
AcDbArc
 50
0.0
 51
180.0
  0
LINE
  5
C6E
330
6B
100
AcDbEntity
  8
0
 62
     3
100
AcDbLine
 10
764.3873593723874
 20
-285.4396202913854
 30
0.0
 11
764.3873593723874
 21
-289.9396202913854
 31
0.0
  0
LINE
  5
C6F
330
6B
100
AcDbEntity
  8
0
 62
     3
100
AcDbLine
 10
765.3873593723874
 20
-285.4396202913854
 30
0.0
 11
765.3873593723874
 21
-289.9396202913854
 31
0.0
  0
LINE
  5
C70
330
6B
100
AcDbEntity
  8
0
 62
     3
100
AcDbLine
 10
770.7373593723872
 20
-285.9396202913854
 30
0.0
 11
770.7373593723872
 21
-289.4396202913854
 31
0.0
  0
LINE
  5
C71
330
6B
100
AcDbEntity
  8
0
 62
     3
100
AcDbLine
 10
771.7373593723872
 20
-285.9396202913854
 30
0.0
 11
771.7373593723872
 21
-289.4396202913854
 31
0.0
  0
LINE
  5
C72
330
6B
100
AcDbEntity
  8
0
 62
     3
100
AcDbLine
 10
770.7373593723872
 20
-289.4396202913854
 30
0.0
 11
771.7373593723872
 21
-289.4396202913854
 31
0.0
  0
LINE
  5
C73
330
6B
100
AcDbEntity
  8
0
 62
     3
100
AcDbLine
 10
764.3873593723874
 20
-289.9396202913854
 30
0.0
 11
765.3873593723874
 21
-289.9396202913854
 31
0.0
  0
LINE
  5
C74
330
6B
100
AcDbEntity
  8
0
 62
     3
100
AcDbLine
 10
770.7373593723872
 20
-285.9396202913854
 30
0.0
 11
771.7373593723872
 21
-285.9396202913854
 31
0.0
  0
LINE
  5
C75
330
6B
100
AcDbEntity
  8
0
 62
     3
100
AcDbLine
 10
764.3873593723874
 20
-285.4396202913854
 30
0.0
 11
765.3873593723874
 21
-285.4396202913854
 31
0.0
  0
LINE
  5
C76
330
6B
100
AcDbEntity
  8
0
 62
     3
100
AcDbLine
 10
769.4123593723875
 20
-295.1646202913853
 30
0.0
 11
766.7123593723872
 21
-295.1646202913853
 31
0.0
  0
LINE
  5
C77
330
6B
100
AcDbEntity
  8
0
 62
     3
100
AcDbLine
 10
766.7123593723872
 20
-295.1646202913853
 30
0.0
 11
766.7123593723872
 21
-293.8146202913853
 31
0.0
  0
LINE
  5
C78
330
6B
100
AcDbEntity
  8
0
 62
     3
100
AcDbLine
 10
769.4123593723875
 20
-295.1646202913853
 30
0.0
 11
769.4123593723875
 21
-293.8146202913853
 31
0.0
  0
ARC
  5
C79
330
6B
100
AcDbEntity
  8
0
 62
     3
100
AcDbCircle
 10
768.0623593723875
 20
-293.8146202913853
 30
0.0
 40
1.349999999999994
100
AcDbArc
 50
0.0
 51
180.0
  0
LINE
  5
CFD
330
6B
100
AcDbEntity
  8
0
 62
     3
100
AcDbLine
 10
707.0623593723877
 20
-304.6896202913854
 30
0.0
 11
701.0623593723877
 21
-304.6896202913854
 31
0.0
  0
LINE
  5
CFF
330
6B
100
AcDbEntity
  8
0
 62
     3
100
AcDbLine
 10
707.0623593723877
 20
-303.6896202913854
 30
0.0
 11
701.0623593723877
 21
-303.6896202913854
 31
0.0
  0
LINE
  5
D00
330
6B
100
AcDbEntity
  8
0
 62
     3
100
AcDbLine
 10
707.0623593723877
 20
-296.1896202913854
 30
0.0
 11
707.0623593723877
 21
-304.6896202913854
 31
0.0
  0
LINE
  5
D01
330
6B
100
AcDbEntity
  8
0
 62
     3
100
AcDbLine
 10
701.0623593723877
 20
-296.1896202913854
 30
0.0
 11
701.0623593723877
 21
-304.6896202913854
 31
0.0
  0
LINE
  5
D02
330
6B
100
AcDbEntity
  8
0
 62
     3
100
AcDbLine
 10
771.0623593723877
 20
-304.6896202913854
 30
0.0
 11
765.0623593723877
 21
-304.6896202913854
 31
0.0
  0
LINE
  5
D03
330
6B
100
AcDbEntity
  8
0
 62
     3
100
AcDbLine
 10
771.0623593723877
 20
-303.6896202913854
 30
0.0
 11
765.0623593723877
 21
-303.6896202913854
 31
0.0
  0
LINE
  5
D04
330
6B
100
AcDbEntity
  8
0
 62
     3
100
AcDbLine
 10
765.0623593723877
 20
-296.1896202913854
 30
0.0
 11
765.0623593723877
 21
-304.6896202913854
 31
0.0
  0
LINE
  5
D05
330
6B
100
AcDbEntity
  8
0
 62
     3
100
AcDbLine
 10
771.0623593723877
 20
-296.1896202913854
 30
0.0
 11
771.0623593723877
 21
-304.6896202913854
 31
0.0
  0
LINE
  5
D06
330
6B
100
AcDbEntity
  8
0
 62
     3
100
AcDbLine
 10
829.4889427524182
 20
-303.6896202913854
 30
0.0
 11
833.2389427524184
 21
-303.6896202913854
 31
0.0
  0
LINE
  5
D07
330
6B
100
AcDbEntity
  8
0
 62
     3
100
AcDbLine
 10
829.4889427524182
 20
-304.6896202913854
 30
0.0
 11
833.905609419085
 21
-304.6896202913854
 31
0.0
  0
LINE
  5
D09
330
6B
100
AcDbEntity
  8
0
 62
     3
100
AcDbLine
 10
829.4889427524182
 20
-303.6896202913854
 30
0.0
 11
829.4889427524182
 21
-304.6896202913854
 31
0.0
  0
TEXT
  5
D10
330
6B
100
AcDbEntity
  8
0
 62
     4
100
AcDbText
 10
731.3387674363707
 20
-254.6229515841674
 30
0.0
 40
2.25
  1
入力電圧
  7
高4.5
100
AcDbText
  0
LINE
  5
D48
330
6B
100
AcDbEntity
  8
0
 62
     3
100
AcDbLine
 10
940.3948352668299
 20
-315.6896202913854
 30
0.0
 11
948.89483526683
 21
-315.6896202913854
 31
0.0
  0
LINE
  5
D49
330
6B
100
AcDbEntity
  8
0
 62
     3
100
AcDbLine
 10
936.1401812668301
 20
-347.1896202913853
 30
0.0
 11
936.1401812668301
 21
-347.6896202913853
 31
0.0
  0
ARC
  5
D4A
330
6B
100
AcDbEntity
  8
0
 62
     3
100
AcDbCircle
 10
936.4247932668304
 20
-345.9396202913853
 30
0.0
 40
1.279957999999999
100
AcDbArc
 50
102.420692000002
 51
257.579307999998
  0
ARC
  5
D4B
330
6B
100
AcDbEntity
  8
0
 62
     3
100
AcDbCircle
 10
949.0151812668299
 20
-326.0646202913854
 30
0.0
 40
0.375
100
AcDbArc
 50
0.0
 51
90.0
  0
LINE
  5
D4C
330
6B
100
AcDbEntity
  8
0
 62
     3
100
AcDbLine
 10
949.3901812668299
 20
-326.0646202913854
 30
0.0
 11
949.3901812668299
 21
-329.6499622913854
 31
0.0
  0
ARC
  5
D4D
330
6B
100
AcDbEntity
  8
0
 62
     3
100
AcDbCircle
 10
949.0151812668299
 20
-336.5646202913854
 30
0.0
 40
4.125
100
AcDbArc
 50
0.0
 51
56.94426899999827
  0
LINE
  5
D4E
330
6B
100
AcDbEntity
  8
0
 62
     3
100
AcDbLine
 10
953.1401812668301
 20
-336.5646202913854
 30
0.0
 11
953.1401812668301
 21
-344.6896202913853
 31
0.0
  0
ARC
  5
D4F
330
6B
100
AcDbEntity
  8
0
 62
     3
100
AcDbCircle
 10
952.8648772668301
 20
-345.9396202913853
 30
0.0
 40
1.279957999999999
100
AcDbArc
 50
282.4206920000019
 51
77.57930799999797
  0
ARC
  5
D50
330
6B
100
AcDbEntity
  8
0
 62
     3
100
AcDbCircle
 10
940.2651812668301
 20
-326.0646202913854
 30
0.0
 40
0.375
100
AcDbArc
 50
90.0
 51
180.0
  0
LINE
  5
D51
330
6B
100
AcDbEntity
  8
0
 62
     3
100
AcDbLine
 10
939.8901812668301
 20
-326.0646202913854
 30
0.0
 11
939.8901812668301
 21
-329.9269242913854
 31
0.0
  0
LINE
  5
D52
330
6B
100
AcDbEntity
  8
0
 62
     3
100
AcDbLine
 10
948.3948352668299
 20
-317.1896202913854
 30
0.0
 11
948.64483526683
 21
-325.6896202913854
 31
0.0
  0
LINE
  5
D53
330
6B
100
AcDbEntity
  8
0
 62
     3
100
AcDbLine
 10
940.8948352668303
 20
-317.1896202913854
 30
0.0
 11
940.64483526683
 21
-325.6896202913854
 31
0.0
  0
ARC
  5
D54
330
6B
100
AcDbEntity
  8
0
 62
     3
100
AcDbCircle
 10
948.89483526683
 20
-316.4396202913854
 30
0.0
 40
0.75
100
AcDbArc
 50
270.0
 51
90.0
  0
ARC
  5
D55
330
6B
100
AcDbEntity
  8
0
 62
     3
100
AcDbCircle
 10
940.3948352668299
 20
-316.4396202913854
 30
0.0
 40
0.75
100
AcDbArc
 50
90.0
 51
270.0
  0
LINE
  5
D56
330
6B
100
AcDbEntity
  8
0
 62
     3
100
AcDbLine
 10
936.14483526683
 20
-336.3687232913853
 30
0.0
 11
936.14483526683
 21
-344.6896202913853
 31
0.0
  0
LINE
  5
D57
330
6B
100
AcDbEntity
  8
0
 62
     3
100
AcDbLine
 10
936.16983526683
 20
-347.1896202913853
 30
0.0
 11
936.16983526683
 21
-347.6896202913853
 31
0.0
  0
LINE
  5
D58
330
6B
100
AcDbEntity
  8
0
 62
     3
100
AcDbLine
 10
953.16983526683
 20
-347.1692032913854
 30
0.0
 11
953.16983526683
 21
-347.6896202913853
 31
0.0
  0
ARC
  5
D59
330
6B
100
AcDbEntity
  8
0
 62
     3
100
AcDbCircle
 10
940.2651812668301
 20
-336.5646202913854
 30
0.0
 40
4.125
100
AcDbArc
 50
125.0110389999989
 51
180.0
  0
ARC
  5
D5A
330
6B
100
AcDbEntity
  8
0
 62
     3
100
AcDbCircle
 10
935.7744892668304
 20
-329.6499622913854
 30
0.0
 40
4.125
100
AcDbArc
 50
300.9919899999982
 51
0.0
  0
LINE
  5
D5B
330
6B
100
AcDbEntity
  8
0
 62
     3
100
AcDbLine
 10
969.1374612668299
 20
-323.6600822913854
 30
0.0
 11
966.6374612668299
 21
-323.6600822913854
 31
0.0
  0
LINE
  5
D5C
330
6B
100
AcDbEntity
  8
0
 62
     3
100
AcDbLine
 10
969.1374612668299
 20
-331.2159772913854
 30
0.0
 11
969.1374612668299
 21
-323.6600822913854
 31
0.0
  0
LINE
  5
D5D
330
6B
100
AcDbEntity
  8
0
 62
     3
100
AcDbLine
 10
966.6374612668299
 20
-331.2159772913854
 30
0.0
 11
966.6374612668299
 21
-323.6600822913854
 31
0.0
  0
LINE
  5
D5E
330
6B
100
AcDbEntity
  8
0
 62
     3
100
AcDbLine
 10
971.6374612668301
 20
-342.4350202913853
 30
0.0
 11
971.6374612668301
 21
-346.4100822913853
 31
0.0
  0
LINE
  5
D5F
330
6B
100
AcDbEntity
  8
0
 62
     3
100
AcDbLine
 10
964.13746126683
 20
-342.4350202913853
 30
0.0
 11
964.13746126683
 21
-346.4100822913853
 31
0.0
  0
ARC
  5
D60
330
6B
100
AcDbEntity
  8
0
 62
     3
100
AcDbCircle
 10
971.1374612668299
 20
-342.4350202913853
 30
0.0
 40
0.5
100
AcDbArc
 50
0.0
 51
5.710592999999986
  0
ARC
  5
D61
330
6B
100
AcDbEntity
  8
0
 62
     3
100
AcDbCircle
 10
964.6374612668299
 20
-342.4350202913853
 30
0.0
 40
0.5
100
AcDbArc
 50
174.289407
 51
180.0
  0
LINE
  5
D62
330
6B
100
AcDbEntity
  8
0
 62
     3
100
AcDbLine
 10
971.6374612668301
 20
-341.5108472913853
 30
0.0
 11
971.6374612668301
 21
-342.4100822913854
 31
0.0
  0
LINE
  5
D63
330
6B
100
AcDbEntity
  8
0
 62
     3
100
AcDbLine
 10
964.13746126683
 20
-341.5108472913853
 30
0.0
 11
964.13746126683
 21
-342.4350202913853
 31
0.0
  0
LINE
  5
D64
330
6B
100
AcDbEntity
  8
0
 62
     3
100
AcDbLine
 10
969.7736362668299
 20
-334.7257902913855
 30
0.0
 11
971.00128626683
 21
-338.0010352913853
 31
0.0
  0
LINE
  5
D65
330
6B
100
AcDbEntity
  8
0
 62
     3
100
AcDbLine
 10
966.0012862668299
 20
-334.7257902913855
 30
0.0
 11
964.7736362668302
 21
-338.0010352913853
 31
0.0
  0
ARC
  5
D66
330
6B
100
AcDbEntity
  8
0
 62
     3
100
AcDbCircle
 10
961.63746126683
 20
-341.5108472913853
 30
0.0
 40
10.0
100
AcDbArc
 50
0.0
 51
20.54734700000018
  0
ARC
  5
D67
330
6B
100
AcDbEntity
  8
0
 62
     3
100
AcDbCircle
 10
974.13746126683
 20
-341.5108472913853
 30
0.0
 40
10.0
100
AcDbArc
 50
159.4526529999998
 51
180.0
  0
ARC
  5
D6A
330
6B
100
AcDbEntity
  8
0
 62
     3
100
AcDbCircle
 10
979.1374612668299
 20
-331.2159772913854
 30
0.0
 40
10.0
100
AcDbArc
 50
180.0
 51
200.5473470000002
  0
ARC
  5
D6B
330
6B
100
AcDbEntity
  8
0
 62
     3
100
AcDbCircle
 10
956.6374612668299
 20
-331.2159772913854
 30
0.0
 40
10.0
100
AcDbArc
 50
339.4526529999998
 51
0.0
  0
LINE
  5
D6C
330
6B
100
AcDbEntity
  8
0
 62
     3
100
AcDbLine
 10
971.1374612668299
 20
-347.4100822913853
 30
0.0
 11
964.6374612668299
 21
-347.4100822913853
 31
0.0
  0
LINE
  5
D6D
330
6B
100
AcDbEntity
  8
0
100
AcDbLine
 10
968.8374612668299
 20
-347.4100822913853
 30
0.0
 11
968.8374612668299
 21
-348.4100822913853
 31
0.0
  0
LINE
  5
D6E
330
6B
100
AcDbEntity
  8
0
100
AcDbLine
 10
966.9374612668301
 20
-347.4100822913853
 30
0.0
 11
966.9374612668301
 21
-348.4100822913853
 31
0.0
  0
LINE
  5
D6F
330
6B
100
AcDbEntity
  8
0
100
AcDbLine
 10
966.6374612668299
 20
-348.4100822913853
 30
0.0
 11
966.6374612668299
 21
-347.4100822913853
 31
0.0
  0
LINE
  5
D70
330
6B
100
AcDbEntity
  8
0
100
AcDbLine
 10
969.1374612668299
 20
-348.4100822913853
 30
0.0
 11
969.1374612668299
 21
-347.4100822913853
 31
0.0
  0
LINE
  5
D71
330
6B
100
AcDbEntity
  8
0
100
AcDbLine
 10
967.3874612668299
 20
-349.1600822913853
 30
0.0
 11
968.3874612668299
 21
-349.1600822913853
 31
0.0
  0
LINE
  5
D72
330
6B
100
AcDbEntity
  8
0
100
AcDbLine
 10
967.3874612668299
 20
-348.8600822913854
 30
0.0
 11
968.3874612668299
 21
-348.8600822913854
 31
0.0
  0
ARC
  5
D73
330
6B
100
AcDbEntity
  8
0
100
AcDbCircle
 10
968.3874612668299
 20
-348.4100822913853
 30
0.0
 40
0.75
100
AcDbArc
 50
270.0
 51
0.0
  0
ARC
  5
D74
330
6B
100
AcDbEntity
  8
0
100
AcDbCircle
 10
967.3874612668299
 20
-348.4100822913853
 30
0.0
 40
0.75
100
AcDbArc
 50
180.0
 51
270.0
  0
ARC
  5
D75
330
6B
100
AcDbEntity
  8
0
100
AcDbCircle
 10
968.3874612668299
 20
-348.4100822913853
 30
0.0
 40
0.45
100
AcDbArc
 50
270.0
 51
0.0
  0
ARC
  5
D76
330
6B
100
AcDbEntity
  8
0
100
AcDbCircle
 10
967.3874612668299
 20
-348.4100822913853
 30
0.0
 40
0.45
100
AcDbArc
 50
180.0
 51
270.0
  0
LINE
  5
D7B
330
6B
100
AcDbEntity
  8
0
100
AcDbLine
 10
945.1401812668301
 20
-318.9396202913854
 30
0.0
 11
945.1401812668301
 21
-317.9396202913854
 31
0.0
  0
LINE
  5
D7C
330
6B
100
AcDbEntity
  8
0
100
AcDbLine
 10
945.1401812668301
 20
-324.1896202913854
 30
0.0
 11
945.1401812668301
 21
-323.1896202913854
 31
0.0
  0
LINE
  5
D7D
330
6B
100
AcDbEntity
  8
0
100
AcDbLine
 10
945.1401812668301
 20
-322.4396202913854
 30
0.0
 11
945.1401812668301
 21
-321.4396202913854
 31
0.0
  0
LINE
  5
D7E
330
6B
100
AcDbEntity
  8
0
100
AcDbLine
 10
945.1401812668301
 20
-320.6896202913854
 30
0.0
 11
945.1401812668301
 21
-319.6896202913854
 31
0.0
  0
LINE
  5
D7F
330
6B
100
AcDbEntity
  8
0
100
AcDbLine
 10
944.6448352668301
 20
-317.1896202913854
 30
0.0
 11
948.89483526683
 21
-317.1896202913854
 31
0.0
  0
LINE
  5
D80
330
6B
100
AcDbEntity
  8
0
100
AcDbLine
 10
945.1401812668301
 20
-324.1896202913854
 30
0.0
 11
948.6007172668299
 21
-324.1896202913854
 31
0.0
  0
LINE
  5
D81
330
6B
100
AcDbEntity
  8
0
100
AcDbLine
 10
945.1401812668301
 20
-322.4396202913854
 30
0.0
 11
948.5492472668299
 21
-322.4396202913854
 31
0.0
  0
LINE
  5
D82
330
6B
100
AcDbEntity
  8
0
100
AcDbLine
 10
945.1401812668301
 20
-320.6896202913854
 30
0.0
 11
948.49777626683
 21
-320.6896202913854
 31
0.0
  0
LINE
  5
D83
330
6B
100
AcDbEntity
  8
0
100
AcDbLine
 10
945.1401812668301
 20
-323.1896202913854
 30
0.0
 11
948.5713062668299
 21
-323.1896202913854
 31
0.0
  0
LINE
  5
D84
330
6B
100
AcDbEntity
  8
0
100
AcDbLine
 10
945.1401812668301
 20
-321.4396202913854
 30
0.0
 11
948.5198352668303
 21
-321.4396202913854
 31
0.0
  0
LINE
  5
D85
330
6B
100
AcDbEntity
  8
0
100
AcDbLine
 10
945.1401812668301
 20
-319.6896202913854
 30
0.0
 11
948.4683652668305
 21
-319.6896202913854
 31
0.0
  0
LINE
  5
D86
330
6B
100
AcDbEntity
  8
0
100
AcDbLine
 10
945.1401812668301
 20
-318.9396202913854
 30
0.0
 11
948.44630626683
 21
-318.9396202913854
 31
0.0
  0
LINE
  5
D87
330
6B
100
AcDbEntity
  8
0
100
AcDbLine
 10
945.1401812668301
 20
-317.9396202913854
 30
0.0
 11
948.4168942668301
 21
-317.9396202913854
 31
0.0
  0
LINE
  5
D88
330
6B
100
AcDbEntity
  8
0
100
AcDbLine
 10
944.1401812668301
 20
-324.1896202913854
 30
0.0
 11
944.1401812668301
 21
-323.1896202913854
 31
0.0
  0
LINE
  5
D89
330
6B
100
AcDbEntity
  8
0
100
AcDbLine
 10
944.1401812668301
 20
-322.4396202913854
 30
0.0
 11
944.1401812668301
 21
-321.4396202913854
 31
0.0
  0
LINE
  5
D8A
330
6B
100
AcDbEntity
  8
0
100
AcDbLine
 10
944.1401812668301
 20
-320.6896202913854
 30
0.0
 11
944.1401812668301
 21
-319.6896202913854
 31
0.0
  0
LINE
  5
D8B
330
6B
100
AcDbEntity
  8
0
100
AcDbLine
 10
944.1401812668301
 20
-318.9396202913854
 30
0.0
 11
944.1401812668301
 21
-317.9396202913854
 31
0.0
  0
LINE
  5
D8C
330
6B
100
AcDbEntity
  8
0
100
AcDbLine
 10
944.6448352668301
 20
-317.1896202913854
 30
0.0
 11
940.3948352668299
 21
-317.1896202913854
 31
0.0
  0
LINE
  5
D8D
330
6B
100
AcDbEntity
  8
0
100
AcDbLine
 10
940.68895326683
 20
-324.1896202913854
 30
0.0
 11
944.1401812668301
 21
-324.1896202913854
 31
0.0
  0
LINE
  5
D8E
330
6B
100
AcDbEntity
  8
0
100
AcDbLine
 10
940.7404232668302
 20
-322.4396202913854
 30
0.0
 11
944.1401812668301
 21
-322.4396202913854
 31
0.0
  0
LINE
  5
D8F
330
6B
100
AcDbEntity
  8
0
100
AcDbLine
 10
940.7918942668301
 20
-320.6896202913854
 30
0.0
 11
944.1401812668301
 21
-320.6896202913854
 31
0.0
  0
LINE
  5
D90
330
6B
100
AcDbEntity
  8
0
100
AcDbLine
 10
940.7183652668299
 20
-323.1896202913854
 30
0.0
 11
944.1401812668301
 21
-323.1896202913854
 31
0.0
  0
LINE
  5
D91
330
6B
100
AcDbEntity
  8
0
100
AcDbLine
 10
940.7698352668299
 20
-321.4396202913854
 30
0.0
 11
944.1401812668301
 21
-321.4396202913854
 31
0.0
  0
LINE
  5
D92
330
6B
100
AcDbEntity
  8
0
100
AcDbLine
 10
940.82130626683
 20
-319.6896202913854
 30
0.0
 11
944.1401812668301
 21
-319.6896202913854
 31
0.0
  0
LINE
  5
D93
330
6B
100
AcDbEntity
  8
0
100
AcDbLine
 10
944.1401812668301
 20
-318.9396202913854
 30
0.0
 11
940.8433652668305
 21
-318.9396202913854
 31
0.0
  0
LINE
  5
D94
330
6B
100
AcDbEntity
  8
0
100
AcDbLine
 10
944.1401812668301
 20
-317.9396202913854
 30
0.0
 11
940.87277626683
 21
-317.9396202913854
 31
0.0
  0
LINE
  5
D95
330
6B
100
AcDbEntity
  8
0
100
AcDbLine
 10
947.6151812668303
 20
-324.1896202913854
 30
0.0
 11
947.6151812668303
 21
-323.1896202913854
 31
0.0
  0
LINE
  5
D96
330
6B
100
AcDbEntity
  8
0
100
AcDbLine
 10
947.6151812668303
 20
-322.4396202913854
 30
0.0
 11
947.6151812668303
 21
-321.4396202913854
 31
0.0
  0
LINE
  5
D97
330
6B
100
AcDbEntity
  8
0
100
AcDbLine
 10
947.6151812668303
 20
-320.6896202913854
 30
0.0
 11
947.6151812668303
 21
-319.6896202913854
 31
0.0
  0
LINE
  5
D98
330
6B
100
AcDbEntity
  8
0
100
AcDbLine
 10
947.6151812668303
 20
-318.9396202913854
 30
0.0
 11
947.6151812668303
 21
-317.9396202913854
 31
0.0
  0
LINE
  5
D99
330
6B
100
AcDbEntity
  8
0
100
AcDbLine
 10
941.6651812668302
 20
-318.9396202913854
 30
0.0
 11
941.6651812668302
 21
-317.9396202913854
 31
0.0
  0
LINE
  5
D9A
330
6B
100
AcDbEntity
  8
0
100
AcDbLine
 10
941.6651812668302
 20
-320.6896202913854
 30
0.0
 11
941.6651812668302
 21
-319.6896202913854
 31
0.0
  0
LINE
  5
D9B
330
6B
100
AcDbEntity
  8
0
100
AcDbLine
 10
941.6651812668302
 20
-322.4396202913854
 30
0.0
 11
941.6651812668302
 21
-321.4396202913854
 31
0.0
  0
LINE
  5
D9C
330
6B
100
AcDbEntity
  8
0
100
AcDbLine
 10
941.6651812668302
 20
-324.1896202913854
 30
0.0
 11
941.6651812668302
 21
-323.1896202913854
 31
0.0
  0
LINE
  5
D9D
330
6B
100
AcDbEntity
  8
0
100
AcDbLine
 10
953.16983526683
 20
-347.1827182913854
 30
0.0
 11
936.16983526683
 21
-347.1827182913854
 31
0.0
  0
LINE
  5
D9E
330
6B
100
AcDbEntity
  8
0
100
AcDbLine
 10
953.2540012668299
 20
-344.7202452913854
 30
0.0
 11
936.0356702668299
 21
-344.7202452913854
 31
0.0
  0
LINE
  5
D9F
330
6B
100
AcDbEntity
  8
0
100
AcDbLine
 10
968.63625826683
 20
-321.1717832913854
 30
0.0
 11
968.63625826683
 21
-315.1082532913854
 31
0.0
  0
LINE
  5
DA0
330
6B
100
AcDbEntity
  8
0
100
AcDbLine
 10
968.63625826683
 20
-322.2147042913854
 30
0.0
 11
968.63625826683
 21
-323.6600822913854
 31
0.0
  0
LINE
  5
DA1
330
6B
100
AcDbEntity
  8
0
100
AcDbLine
 10
967.13611126683
 20
-321.0993382913854
 30
0.0
 11
967.13611126683
 21
-315.1718182913854
 31
0.0
  0
LINE
  5
DA2
330
6B
100
AcDbEntity
  8
0
100
AcDbLine
 10
967.1361842668302
 20
-321.0993472913854
 30
0.0
 11
967.1361842668302
 21
-309.1107074371231
 31
0.0
  0
LINE
  5
DA3
330
6B
100
AcDbEntity
  8
0
100
AcDbLine
 10
968.6361842668301
 20
-321.1717882913854
 30
0.0
 11
968.6361842668301
 21
-309.1107074371231
 31
0.0
  0
LINE
  5
DA4
330
6B
100
AcDbEntity
  8
0
100
AcDbLine
 10
968.6361842668301
 20
-322.2128252913853
 30
0.0
 11
968.6361842668301
 21
-323.6600822913854
 31
0.0
  0
LINE
  5
DA5
330
6B
100
AcDbEntity
  8
0
100
AcDbLine
 10
967.1361842668302
 20
-322.1422562913854
 30
0.0
 11
967.1361842668302
 21
-323.6600822913854
 31
0.0
  0
LINE
  5
DA6
330
6B
100
AcDbEntity
  8
0
100
AcDbLine
 10
959.5114519753543
 20
-333.0365080603926
 30
0.0
 11
959.5114519753543
 21
-309.1107074371231
 31
0.0
  0
LINE
  5
DA7
330
6B
100
AcDbEntity
  8
0
100
AcDbLine
 10
961.0114519753544
 20
-333.0365080603926
 30
0.0
 11
961.0114519753544
 21
-309.1107074371231
 31
0.0
  0
ARC
  5
DA8
330
6B
100
AcDbEntity
  8
0
100
AcDbCircle
 10
953.5151812668301
 20
-329.6499622913854
 30
0.0
 40
4.125
100
AcDbArc
 50
180.0
 51
236.9442689999983
  0
LINE
  5
DA9
330
6B
100
AcDbEntity
  8
0
 62
     3
100
AcDbLine
 10
953.16983526683
 20
-347.6896202913853
 30
0.0
 11
936.16983526683
 21
-347.6896202913853
 31
0.0
  0
LINE
  5
DAA
330
6B
100
AcDbEntity
  8
0
 62
     3
100
AcDbLine
 10
940.2651812668301
 20
-325.6896202913854
 30
0.0
 11
949.0151812668299
 21
-325.6896202913854
 31
0.0
  0
LINE
  5
DAB
330
6B
100
AcDbEntity
  8
0
 62
     7
100
AcDbLine
 10
941.6375292668302
 20
-357.2271202913853
 30
0.0
 11
941.6375292668302
 21
-347.6896202913853
 31
0.0
  0
LINE
  5
DAC
330
6B
100
AcDbEntity
  8
0
 62
     7
100
AcDbLine
 10
939.3125292668299
 20
-357.2271202913853
 30
0.0
 11
939.3125292668299
 21
-347.6896202913853
 31
0.0
  0
ARC
  5
DAD
330
6B
100
AcDbEntity
  8
0
 62
     7
100
AcDbCircle
 10
940.47502926683
 20
-357.2271202913853
 30
0.0
 40
1.1625
100
AcDbArc
 50
180.0
 51
0.0
  0
LINE
  5
DAE
330
6B
100
AcDbEntity
  8
0
 62
     7
100
AcDbLine
 10
947.7948352668299
 20
-347.6896202913853
 30
0.0
 11
947.7948352668299
 21
-355.4396202913853
 31
0.0
  0
ARC
  5
DAF
330
6B
100
AcDbEntity
  8
0
 62
     7
100
AcDbCircle
 10
946.2198352668302
 20
-354.1608702913853
 30
0.0
 40
2.02875
100
AcDbArc
 50
270.0
 51
320.9266900000005
  0
CIRCLE
  5
DB0
330
6B
100
AcDbEntity
  8
0
 62
     7
100
AcDbCircle
 10
946.2198352668302
 20
-353.5396202913854
 30
0.0
 40
0.75
  0
LINE
  5
DB1
330
6B
100
AcDbEntity
  8
0
 62
     7
100
AcDbLine
 10
944.6448352668301
 20
-347.6896202913853
 30
0.0
 11
944.6448352668301
 21
-355.4396202913853
 31
0.0
  0
ARC
  5
DB2
330
6B
100
AcDbEntity
  8
0
 62
     7
100
AcDbCircle
 10
946.2198352668302
 20
-354.1608702913853
 30
0.0
 40
2.02875
100
AcDbArc
 50
219.0733099999996
 51
270.0
  0
LINE
  5
DB3
330
6B
100
AcDbEntity
  8
0
 62
     7
100
AcDbLine
 10
946.2198352668302
 20
-355.4396202913853
 30
0.0
 11
944.6448352668301
 21
-355.4396202913853
 31
0.0
  0
LINE
  5
DB4
330
6B
100
AcDbEntity
  8
0
 62
     7
100
AcDbLine
 10
946.2198352668302
 20
-355.4396202913853
 30
0.0
 11
947.7948352668299
 21
-355.4396202913853
 31
0.0
  0
LINE
  5
DB5
330
6B
100
AcDbEntity
  8
0
 62
     3
100
AcDbLine
 10
949.3901812668299
 20
-327.8572912913854
 30
0.0
 11
953.836801506187
 21
-332.4849864981648
 31
0.0
  0
LINE
  5
DB6
330
6B
100
AcDbEntity
  8
0
 62
     3
100
AcDbLine
 10
953.836801506187
 20
-332.4849864981648
 30
0.0
 11
952.2521038016062
 21
-334.0076772916571
 31
0.0
  0
LINE
  5
DB7
330
6B
100
AcDbEntity
  8
0
100
AcDbLine
 10
955.368788906145
 20
-334.6771884217185
 30
0.0
 11
953.5595821639679
 21
-332.7513586516391
 31
0.0
  0
LINE
  5
DB8
330
6B
100
AcDbEntity
  8
0
100
AcDbLine
 10
954.275543406602
 20
-335.7042299387609
 30
0.0
 11
952.4779035957088
 21
-333.7907127143381
 31
0.0
  0
ARC
  5
DB9
330
6B
100
AcDbEntity
  8
0
100
AcDbCircle
 10
964.0738181210922
 20
-309.1107074371231
 30
0.0
 40
4.562366145737731
100
AcDbArc
 50
0.0
 51
180.0
  0
ARC
  5
DBA
330
6B
100
AcDbEntity
  8
0
100
AcDbCircle
 10
964.0738181210922
 20
-309.1107074371231
 30
0.0
 40
3.062366145737732
100
AcDbArc
 50
0.0
 51
180.0
  0
ARC
  5
DBB
330
6B
100
AcDbEntity
  8
0
100
AcDbCircle
 10
957.1152289394293
 20
-333.0365080603926
 30
0.0
 40
2.396223035925203
100
AcDbArc
 50
223.2115738316338
 51
0.0
  0
ARC
  5
DBC
330
6B
100
AcDbEntity
  8
0
100
AcDbCircle
 10
957.1152289394293
 20
-333.0365080603926
 30
0.0
 40
3.896223035925201
100
AcDbArc
 50
223.2115738316337
 51
0.0
  0
CIRCLE
  5
DD3
330
6B
100
AcDbEntity
  8
0
100
AcDbCircle
 10
669.202194123872
 20
-293.1983815284109
 30
0.0
 40
5.0
  0
TEXT
  5
DD4
330
6B
100
AcDbEntity
  8
0
 62
     4
100
AcDbText
 10
666.9471660674608
 20
-296.3378733031412
 30
0.0
 40
6.299999999999998
  1
8
  7
高6.3
100
AcDbText
  0
TEXT
  5
DDB
330
6B
100
AcDbEntity
  8
0
 62
     3
100
AcDbText
 10
729.113818769973
 20
-418.5402464318703
 30
0.0
 40
3.2
  1
2
 41
0.8
  7
高3.2
100
AcDbText
  0
TEXT
  5
DDC
330
6B
100
AcDbEntity
  8
0
 62
     3
100
AcDbText
 10
626.0351899093727
 20
-418.5402464318703
 30
0.0
 40
3.2
  1
8
 41
0.8
  7
高3.2
100
AcDbText
  0
TEXT
  5
DDD
330
6B
100
AcDbEntity
  8
0
 62
     3
100
AcDbText
 10
632.8262150851712
 20
-418.5402464318703
 30
0.0
 40
3.2
  1
アース端子
 41
0.8
  7
高3.2
100
AcDbText
  0
TEXT
  5
DDE
330
6B
100
AcDbEntity
  8
0
 62
     3
100
AcDbText
 10
694.9470398902682
 20
-418.5402464318703
 30
0.0
 40
3.2
  1
-
 41
0.8
  7
高3.2
100
AcDbText
  0
LINE
  5
DDF
330
6B
100
AcDbEntity
  8
0
 62
     3
100
AcDbLine
 10
624.5351899093727
 20
-414.0402464318703
 30
0.0
 11
798.8960776384222
 21
-414.0402464318703
 31
0.0
  0
TEXT
  5
DE0
330
6B
100
AcDbEntity
  8
0
 62
     3
100
AcDbText
 10
665.5630646368527
 20
-418.5402464318703
 30
0.0
 40
3.2
  1
SPCC
 41
0.8
  7
高3.2
100
AcDbText
  0
TEXT
  5
E76
330
6B
100
AcDbEntity
  8
0
100
AcDbText
 10
939.7559919076364
 20
-198.6544491497005
 30
0.0
 40
2.5
  1
11.07.11
  7
高2.5
100
AcDbText
  0
TEXT
  5
E77
330
6B
100
AcDbEntity
  8
0
100
AcDbText
 10
957.8662099076364
 20
-198.6544491497005
 30
0.0
 40
2.5
  1
回路図追加
  7
高2.5
100
AcDbText
  0
TEXT
  5
E78
330
6B
100
AcDbEntity
  8
0
100
AcDbText
 10
1001.653033907636
 20
-198.6544491497005
 30
0.0
 40
2.5
  1
今村
  7
高2.5
100
AcDbText
  0
LINE
  5
F80
330
6B
100
AcDbEntity
  8
0
 62
     3
100
AcDbLine
 10
925.9279837485919
 20
-297.2396202913854
 30
0.0
 11
918.2389427524183
 21
-297.2396202913854
 31
0.0
  0
LINE
  5
F81
330
6B
100
AcDbEntity
  8
0
 62
     3
100
AcDbLine
 10
926.9803535028698
 20
-302.6396202913854
 30
0.0
 11
918.2389427524183
 21
-302.6396202913854
 31
0.0
  0
LINE
  5
F82
330
6B
100
AcDbEntity
  8
0
 62
     3
100
AcDbLine
 10
934.6448352668303
 20
-302.6396202913854
 30
0.0
 11
930.1534173981302
 21
-302.6396202913854
 31
0.0
  0
LINE
  5
F83
330
6B
100
AcDbEntity
  8
0
 62
     3
100
AcDbLine
 10
934.6448352668303
 20
-297.2396202913854
 30
0.0
 11
929.101047643852
 21
-297.2396202913854
 31
0.0
  0
ARC
  5
F84
330
6B
100
AcDbEntity
  8
0
 62
     3
100
AcDbCircle
 10
934.6448352668303
 20
-309.9396202913854
 30
0.0
 40
12.7
100
AcDbArc
 50
0.0
 51
90.0
  0
ARC
  5
F85
330
6B
100
AcDbEntity
  8
0
 62
     3
100
AcDbCircle
 10
934.6448352668303
 20
-309.9396202913854
 30
0.0
 40
7.299999999999998
100
AcDbArc
 50
0.0
 51
90.0
  0
LINE
  5
F86
330
6B
100
AcDbEntity
  8
0
 62
     3
100
AcDbLine
 10
941.9448352668302
 20
-309.9396202913854
 30
0.0
 11
941.9448352668302
 21
-315.6896202913854
 31
0.0
  0
LINE
  5
F87
330
6B
100
AcDbEntity
  8
0
 62
     3
100
AcDbLine
 10
947.3448352668299
 20
-309.9396202913854
 30
0.0
 11
947.3448352668299
 21
-315.6896202913854
 31
0.0
  0
LINE
  5
104F
330
6B
100
AcDbEntity
  8
0
100
AcDbLine
 10
716.0623593723877
 20
-285.1574510570758
 30
0.0
 11
756.0623593723877
 21
-285.1574510570758
 31
0.0
  0
LINE
  5
1050
330
6B
100
AcDbEntity
  8
0
100
AcDbLine
 10
716.0623593723877
 20
-295.6607484518281
 30
0.0
 11
756.0623593723877
 21
-295.6607484518281
 31
0.0
  0
LINE
  5
1051
330
6B
100
AcDbEntity
  8
0
100
AcDbLine
 10
716.0623593723877
 20
-301.9769203041343
 30
0.0
 11
756.0623593723877
 21
-301.9769203041343
 31
0.0
  0
LINE
  5
1053
330
6B
100
AcDbEntity
  8
0
100
AcDbLine
 10
756.0623593723877
 20
-301.9769203041343
 30
0.0
 11
756.0623593723877
 21
-285.1574510570758
 31
0.0
  0
LINE
  5
1054
330
6B
100
AcDbEntity
  8
0
100
AcDbLine
 10
716.0623593723877
 20
-285.1574510570758
 30
0.0
 11
716.0623593723877
 21
-301.9769203041343
 31
0.0
  0
CIRCLE
  5
1138
330
6B
100
AcDbEntity
  8
0
100
AcDbCircle
 10
799.6157023428065
 20
-260.4540780940313
 30
0.0
 40
5.0
  0
TEXT
  5
1139
330
6B
100
AcDbEntity
  8
0
 62
     4
100
AcDbText
 10
797.5247237837804
 20
-263.717875221171
 30
0.0
 40
6.299999999999998
  1
5
  7
高6.3
100
AcDbText
  0
TEXT
  5
113D
330
6B
100
AcDbEntity
  8
0
 62
     3
100
AcDbText
 10
665.5630646368527
 20
-433.5402464318703
 30
0.0
 40
3.2
  1
ABS樹脂、銅合金
 41
0.8
  7
高3.2
100
AcDbText
  0
TEXT
  5
113E
330
6B
100
AcDbEntity
  8
0
 62
     3
100
AcDbText
 10
694.9470398902682
 20
-433.5402464318703
 30
0.0
 40
3.2
  1
2P 15A 125V(赤)
 41
0.8
  7
高3.2
100
AcDbText
  0
TEXT
  5
113F
330
6B
100
AcDbEntity
  8
0
 62
     3
100
AcDbText
 10
632.8262150851712
 20
-433.5402464318703
 30
0.0
 40
3.2
  1
2PWコンセント
 41
0.8
  7
高3.2
100
AcDbText
  0
TEXT
  5
1142
330
6B
100
AcDbEntity
  8
0
 62
     3
100
AcDbText
 10
729.113818769973
 20
-433.5402464318703
 30
0.0
 40
3.2
  1
1
 41
0.8
  7
高3.2
100
AcDbText
  0
TEXT
  5
1143
330
6B
100
AcDbEntity
  8
0
 62
     3
100
AcDbText
 10
729.113818769973
 20
-438.5402464318703
 30
0.0
 40
3.2
  1
1
 41
0.8
  7
高3.2
100
AcDbText
  0
TEXT
  5
1216
330
6B
100
AcDbEntity
  8
0
 62
     3
100
AcDbText
 10
737.4591161259741
 20
-453.5402464318703
 30
0.0
 40
3.2
  1
54945
 41
0.8
  7
高3.2
100
AcDbText
  0
TEXT
  5
1217
330
6B
100
AcDbEntity
  8
0
 62
     3
100
AcDbText
 10
737.4591161259741
 20
-448.5402464318703
 30
0.0
 40
3.2
  1
51115
 41
0.8
  7
高3.2
100
AcDbText
  0
TEXT
  5
1218
330
6B
100
AcDbEntity
  8
0
 62
     3
100
AcDbText
 10
737.4591161259741
 20
-428.5402464318703
 30
0.0
 40
3.2
  1
53584
 41
0.8
  7
高3.2
100
AcDbText
  0
TEXT
  5
1219
330
6B
100
AcDbEntity
  8
0
 62
     3
100
AcDbText
 10
737.4591161259741
 20
-443.5402464318703
 30
0.0
 40
3.2
  1
53813
 41
0.8
  7
高3.2
100
AcDbText
  0
TEXT
  5
121A
330
6B
100
AcDbEntity
  8
0
 62
     3
100
AcDbText
 10
737.4591161259741
 20
-423.5402464318703
 30
0.0
 40
3.2
  1
53812
 41
0.8
  7
高3.2
100
AcDbText
  0
LINE
  5
121B
330
6B
100
AcDbEntity
  8
0
100
AcDbLine
 10
735.9591161259741
 20
-459.0402464318703
 30
0.0
 11
735.9591161259741
 21
-414.0402464318703
 31
0.0
  0
TEXT
  5
121C
330
6B
100
AcDbEntity
  8
0
 62
     3
100
AcDbText
 10
737.4591161259741
 20
-458.5402464318703
 30
0.0
 40
3.2
  1
コード
 41
0.8
  7
高3.2
100
AcDbText
  0
TEXT
  5
121D
330
6B
100
AcDbEntity
  8
0
 62
     3
100
AcDbText
 10
737.4591161259741
 20
-418.5402464318703
 30
0.0
 40
3.2
  1
50091
 41
0.8
  7
高3.2
100
AcDbText
  0
TEXT
  5
121E
330
6B
100
AcDbEntity
  8
0
 62
     3
100
AcDbText
 10
737.4591161259741
 20
-433.5402464318703
 30
0.0
 40
3.2
  1
51357
 41
0.8
  7
高3.2
100
AcDbText
  0
TEXT
  5
121F
330
6B
100
AcDbEntity
  8
0
 62
     3
100
AcDbText
 10
737.4591161259741
 20
-438.5402464318703
 30
0.0
 40
3.2
  1
51356
 41
0.8
  7
高3.2
100
AcDbText
  0
TEXT
  5
1220
330
6B
100
AcDbEntity
  8
0
 62
     3
100
AcDbText
 10
752.0772042666147
 20
-453.5402464318703
 30
0.0
 40
3.2
  1
M-E20用　取手
 41
0.6
  7
高3.2
100
AcDbText
  0
TEXT
  5
1221
330
6B
100
AcDbEntity
  8
0
 62
     3
100
AcDbText
 10
752.0772042666147
 20
-448.5402464318703
 30
0.0
 40
3.2
  1
VCT2x3x1.8M　ポッキン付
 41
0.6
  7
高3.2
100
AcDbText
  0
TEXT
  5
1222
330
6B
100
AcDbEntity
  8
0
 62
     3
100
AcDbText
 10
752.0772042666147
 20
-428.5402464318703
 30
0.0
 40
3.2
  1
新150V電圧メーター
 41
0.6
  7
高3.2
100
AcDbText
  0
TEXT
  5
1223
330
6B
100
AcDbEntity
  8
0
 62
     3
100
AcDbText
 10
752.0772042666147
 20
-443.5402464318703
 30
0.0
 40
3.2
  1
M-E20用　脚ゴム(1/4)
 41
0.6
  7
高3.2
100
AcDbText
  0
TEXT
  5
1224
330
6B
100
AcDbEntity
  8
0
 62
     3
100
AcDbText
 10
752.0772042666147
 20
-423.5402464318703
 30
0.0
 40
3.2
  1
M-E20用　サーキットブレーカー(25A)
 41
0.6
  7
高3.2
100
AcDbText
  0
LINE
  5
1225
330
6B
100
AcDbEntity
  8
0
100
AcDbLine
 10
750.5772042666146
 20
-459.0402464318703
 30
0.0
 11
750.5772042666146
 21
-414.0402464318703
 31
0.0
  0
TEXT
  5
1226
330
6B
100
AcDbEntity
  8
0
 62
     3
100
AcDbText
 10
752.0772042666147
 20
-458.5402464318703
 30
0.0
 40
3.2
  1
コード番号名称
 41
0.6
  7
高3.2
100
AcDbText
  0
TEXT
  5
1227
330
6B
100
AcDbEntity
  8
0
 62
     3
100
AcDbText
 10
752.0772042666147
 20
-418.5402464318703
 30
0.0
 40
3.2
  1
アース金具黒メッキ
 41
0.6
  7
高3.2
100
AcDbText
  0
TEXT
  5
1228
330
6B
100
AcDbEntity
  8
0
 62
     3
100
AcDbText
 10
752.0772042666147
 20
-433.5402464318703
 30
0.0
 40
3.2
  1
2PE-R(アース付コンセント赤)
 41
0.6
  7
高3.2
100
AcDbText
  0
TEXT
  5
1229
330
6B
100
AcDbEntity
  8
0
 62
     3
100
AcDbText
 10
752.0772042666147
 20
-438.5402464318703
 30
0.0
 40
3.2
  1
2PE-W(アース付コンセント白)
 41
0.6
  7
高3.2
100
AcDbText
  0
LINE
  5
160C
330
6B
100
AcDbEntity
  8
0
100
AcDbLine
 10
922.9889427524183
 20
-259.7396202913854
 30
0.0
 11
922.9889427524183
 21
-217.2434294659752
 31
0.0
  0
LINE
  5
160D
330
6B
100
AcDbEntity
  8
0
100
AcDbLine
 10
829.4889427524182
 20
-303.4396202913854
 30
0.0
 11
829.4889427524182
 21
-217.2434294659752
 31
0.0
  0
LINE
  5
160E
330
6B
100
AcDbEntity
  8
0
100
AcDbLine
 10
920.4889427524182
 20
-218.4934294659752
 30
0.0
 11
831.9889427524183
 21
-218.4934294659752
 31
0.0
  0
LINE
  5
1612
330
6B
100
AcDbEntity
  8
0
100
AcDbLine
 10
968.63625826683
 20
-322.2147052913854
 30
0.0
 11
968.6262402668299
 21
-322.0837542913853
 31
0.0
  0
LINE
  5
1613
330
6B
100
AcDbEntity
  8
0
100
AcDbLine
 10
968.6262402668299
 20
-322.0837542913853
 30
0.0
 11
968.58804826683
 21
-321.9702892913854
 31
0.0
  0
LINE
  5
1614
330
6B
100
AcDbEntity
  8
0
100
AcDbLine
 10
968.58804826683
 20
-321.9702892913854
 30
0.0
 11
968.44217226683
 21
-321.8582032913854
 31
0.0
  0
LINE
  5
1615
330
6B
100
AcDbEntity
  8
0
100
AcDbLine
 10
968.44217226683
 20
-321.8582032913854
 30
0.0
 11
968.2434532668299
 21
-321.8136552913854
 31
0.0
  0
LINE
  5
1616
330
6B
100
AcDbEntity
  8
0
100
AcDbLine
 10
968.2434532668299
 20
-321.8136552913854
 30
0.0
 11
968.13124626683
 21
-321.8135842913854
 31
0.0
  0
LINE
  5
1617
330
6B
100
AcDbEntity
  8
0
100
AcDbLine
 10
968.13124626683
 20
-321.8135842913854
 30
0.0
 11
968.0241662668299
 21
-321.8293192913853
 31
0.0
  0
LINE
  5
1618
330
6B
100
AcDbEntity
  8
0
100
AcDbLine
 10
968.0241662668299
 20
-321.8293192913853
 30
0.0
 11
967.85046326683
 21
-321.8827352913854
 31
0.0
  0
LINE
  5
1619
330
6B
100
AcDbEntity
  8
0
100
AcDbLine
 10
967.85046326683
 20
-321.8827352913854
 30
0.0
 11
967.6795722668302
 21
-321.9546262913854
 31
0.0
  0
LINE
  5
161A
330
6B
100
AcDbEntity
  8
0
100
AcDbLine
 10
967.13611126683
 20
-321.0993382913854
 30
0.0
 11
967.1461292668301
 21
-321.2302902913854
 31
0.0
  0
LINE
  5
161B
330
6B
100
AcDbEntity
  8
0
100
AcDbLine
 10
967.1461292668301
 20
-321.2302902913854
 30
0.0
 11
967.1843212668299
 21
-321.3437542913853
 31
0.0
  0
LINE
  5
161C
330
6B
100
AcDbEntity
  8
0
100
AcDbLine
 10
967.1843212668299
 20
-321.3437542913853
 30
0.0
 11
967.33019726683
 21
-321.4558412913854
 31
0.0
  0
LINE
  5
161D
330
6B
100
AcDbEntity
  8
0
100
AcDbLine
 10
967.33019726683
 20
-321.4558412913854
 30
0.0
 11
967.5289162668301
 21
-321.5003882913854
 31
0.0
  0
LINE
  5
161E
330
6B
100
AcDbEntity
  8
0
100
AcDbLine
 10
967.5289162668301
 20
-321.5003882913854
 30
0.0
 11
967.6411232668302
 21
-321.5004592913853
 31
0.0
  0
LINE
  5
161F
330
6B
100
AcDbEntity
  8
0
100
AcDbLine
 10
967.6411232668302
 20
-321.5004592913853
 30
0.0
 11
967.7482032668299
 21
-321.4847252913854
 31
0.0
  0
LINE
  5
1620
330
6B
100
AcDbEntity
  8
0
100
AcDbLine
 10
967.7482032668299
 20
-321.4847252913854
 30
0.0
 11
967.92190626683
 21
-321.4313082913853
 31
0.0
  0
LINE
  5
1621
330
6B
100
AcDbEntity
  8
0
100
AcDbLine
 10
967.92190626683
 20
-321.4313082913853
 30
0.0
 11
968.0927972668298
 21
-321.3594182913853
 31
0.0
  0
LINE
  5
1622
330
6B
100
AcDbEntity
  8
0
100
AcDbLine
 10
967.1361842668302
 20
-322.1422562913854
 30
0.0
 11
967.4048722668301
 21
-322.0026942913853
 31
0.0
  0
LINE
  5
1623
330
6B
100
AcDbEntity
  8
0
100
AcDbLine
 10
967.4048722668301
 20
-322.0026942913853
 30
0.0
 11
967.6795722668302
 21
-321.9546262913854
 31
0.0
  0
LINE
  5
1624
330
6B
100
AcDbEntity
  8
0
100
AcDbLine
 10
967.6795722668302
 20
-321.9546262913854
 30
0.0
 11
967.7998752668299
 21
-321.9820102913853
 31
0.0
  0
LINE
  5
1625
330
6B
100
AcDbEntity
  8
0
100
AcDbLine
 10
967.7998752668299
 20
-321.9820102913853
 30
0.0
 11
967.9145222668299
 21
-322.0329432913854
 31
0.0
  0
LINE
  5
1626
330
6B
100
AcDbEntity
  8
0
100
AcDbLine
 10
967.9145222668299
 20
-322.0329432913854
 30
0.0
 11
968.0497182668302
 21
-322.1205942913853
 31
0.0
  0
LINE
  5
1627
330
6B
100
AcDbEntity
  8
0
100
AcDbLine
 10
968.0497182668302
 20
-322.1205942913853
 30
0.0
 11
968.1808002668301
 21
-322.2209032913854
 31
0.0
  0
LINE
  5
1628
330
6B
100
AcDbEntity
  8
0
100
AcDbLine
 10
968.1808002668301
 20
-322.2209032913854
 30
0.0
 11
968.2648982668302
 21
-322.2795242913854
 31
0.0
  0
LINE
  5
1629
330
6B
100
AcDbEntity
  8
0
100
AcDbLine
 10
968.2648982668302
 20
-322.2795242913854
 30
0.0
 11
968.35309726683
 21
-322.3148832913854
 31
0.0
  0
LINE
  5
162A
330
6B
100
AcDbEntity
  8
0
100
AcDbLine
 10
968.35309726683
 20
-322.3148832913854
 30
0.0
 11
968.4930732668302
 21
-322.2925632913854
 31
0.0
  0
LINE
  5
162B
330
6B
100
AcDbEntity
  8
0
100
AcDbLine
 10
968.4930732668302
 20
-322.2925632913854
 30
0.0
 11
968.6361842668301
 21
-322.2146972913854
 31
0.0
  0
LINE
  5
162C
330
6B
100
AcDbEntity
  8
0
100
AcDbLine
 10
968.6361842668301
 20
-321.1717882913854
 30
0.0
 11
968.3674972668299
 21
-321.3113492913854
 31
0.0
  0
LINE
  5
162D
330
6B
100
AcDbEntity
  8
0
100
AcDbLine
 10
968.3674972668299
 20
-321.3113492913854
 30
0.0
 11
968.0927972668298
 21
-321.3594182913853
 31
0.0
  0
LINE
  5
162E
330
6B
100
AcDbEntity
  8
0
100
AcDbLine
 10
968.0927972668298
 20
-321.3594182913853
 30
0.0
 11
967.97249426683
 21
-321.3320332913854
 31
0.0
  0
LINE
  5
162F
330
6B
100
AcDbEntity
  8
0
100
AcDbLine
 10
967.97249426683
 20
-321.3320332913854
 30
0.0
 11
967.8578472668302
 21
-321.2811012913854
 31
0.0
  0
LINE
  5
1630
330
6B
100
AcDbEntity
  8
0
100
AcDbLine
 10
967.8578472668302
 20
-321.2811012913854
 30
0.0
 11
967.7226512668299
 21
-321.1934502913854
 31
0.0
  0
LINE
  5
1631
330
6B
100
AcDbEntity
  8
0
100
AcDbLine
 10
967.7226512668299
 20
-321.1934502913854
 30
0.0
 11
967.5915692668299
 21
-321.0931402913855
 31
0.0
  0
LINE
  5
1632
330
6B
100
AcDbEntity
  8
0
100
AcDbLine
 10
967.5915692668299
 20
-321.0931402913855
 30
0.0
 11
967.5074712668299
 21
-321.0345192913853
 31
0.0
  0
LINE
  5
1633
330
6B
100
AcDbEntity
  8
0
100
AcDbLine
 10
967.5074712668299
 20
-321.0345192913853
 30
0.0
 11
967.4192722668299
 21
-320.9991602913853
 31
0.0
  0
LINE
  5
1634
330
6B
100
AcDbEntity
  8
0
100
AcDbLine
 10
967.4192722668299
 20
-320.9991602913853
 30
0.0
 11
967.27929626683
 21
-321.0214802913854
 31
0.0
  0
LINE
  5
1635
330
6B
100
AcDbEntity
  8
0
100
AcDbLine
 10
967.27929626683
 20
-321.0214802913854
 30
0.0
 11
967.1361842668302
 21
-321.0993472913854
 31
0.0
  0
LINE
  5
1636
330
6B
100
AcDbEntity
  8
0
 62
     3
100
AcDbLine
 10
964.6374612668299
 20
-347.4100822913853
 30
0.0
 11
964.4270032668302
 21
-347.1710102913854
 31
0.0
  0
LINE
  5
1637
330
6B
100
AcDbEntity
  8
0
 62
     3
100
AcDbLine
 10
964.4270032668302
 20
-347.1710102913854
 30
0.0
 11
964.2624612668299
 21
-346.9100822913853
 31
0.0
  0
LINE
  5
1638
330
6B
100
AcDbEntity
  8
0
 62
     3
100
AcDbLine
 10
964.2624612668299
 20
-346.9100822913853
 30
0.0
 11
964.1843492668302
 21
-346.6675132913853
 31
0.0
  0
LINE
  5
1639
330
6B
100
AcDbEntity
  8
0
 62
     3
100
AcDbLine
 10
964.1843492668302
 20
-346.6675132913853
 30
0.0
 11
964.13746126683
 21
-346.4100822913853
 31
0.0
  0
LINE
  5
163A
330
6B
100
AcDbEntity
  8
0
 62
     3
100
AcDbLine
 10
971.6374612668301
 20
-346.4100822913853
 30
0.0
 11
971.5905732668304
 21
-346.6675132913853
 31
0.0
  0
LINE
  5
163B
330
6B
100
AcDbEntity
  8
0
 62
     3
100
AcDbLine
 10
971.5905732668304
 20
-346.6675132913853
 30
0.0
 11
971.5124612668299
 21
-346.9100822913853
 31
0.0
  0
LINE
  5
163C
330
6B
100
AcDbEntity
  8
0
 62
     3
100
AcDbLine
 10
971.5124612668299
 20
-346.9100822913853
 30
0.0
 11
971.3479202668299
 21
-347.1710102913854
 31
0.0
  0
LINE
  5
163D
330
6B
100
AcDbEntity
  8
0
 62
     3
100
AcDbLine
 10
971.3479202668299
 20
-347.1710102913854
 30
0.0
 11
971.1374612668299
 21
-347.4100822913853
 31
0.0
  0
LINE
  5
164A
330
6B
100
AcDbEntity
  8
0
100
AcDbLine
 10
780.5623593723877
 20
-315.6896202913854
 30
0.0
 11
819.3502543793258
 21
-315.6896202913854
 31
0.0
  0
LINE
  5
164B
330
6B
100
AcDbEntity
  8
0
100
AcDbLine
 10
759.7672744005127
 20
-231.1896202913854
 30
0.0
 11
819.3502543793259
 21
-231.1896202913854
 31
0.0
  0
LINE
  5
164C
330
6B
100
AcDbEntity
  8
0
100
AcDbLine
 10
818.1002543793258
 20
-313.1896202913854
 30
0.0
 11
818.100254379326
 21
-233.6896202913854
 31
0.0
  0
LINE
  5
1650
330
6B
100
AcDbEntity
  8
0
100
AcDbLine
 10
786.8123593723877
 20
-309.6896202913854
 30
0.0
 11
811.4845482279454
 21
-309.6896202913854
 31
0.0
  0
LINE
  5
1651
330
6B
100
AcDbEntity
  8
0
100
AcDbLine
 10
783.3123593723877
 20
-246.1896202913854
 30
0.0
 11
811.4845482279456
 21
-246.1896202913854
 31
0.0
  0
LINE
  5
1652
330
6B
100
AcDbEntity
  8
0
100
AcDbLine
 10
810.2345482279455
 20
-307.1896202913854
 30
0.0
 11
810.2345482279455
 21
-248.6896202913854
 31
0.0
  0
LINE
  5
1656
330
6B
100
AcDbEntity
  8
0
100
AcDbLine
 10
780.5623593723877
 20
-315.6896202913854
 30
0.0
 11
811.4845482279454
 21
-315.6896202913854
 31
0.0
  0
LINE
  5
1657
330
6B
100
AcDbEntity
  8
0
100
AcDbLine
 10
786.8123593723877
 20
-309.6896202913854
 30
0.0
 11
811.4845482279454
 21
-309.6896202913854
 31
0.0
  0
LINE
  5
1658
330
6B
100
AcDbEntity
  8
0
100
AcDbLine
 10
810.2345482279455
 20
-307.1896202913854
 30
0.0
 11
810.2345482279455
 21
-304.6896202913854
 31
0.0
  0
LINE
  5
1659
330
6B
100
AcDbEntity
  8
0
100
AcDbLine
 10
810.2345482279455
 20
-318.1896202913854
 30
0.0
 11
810.2345482279455
 21
-325.9396202913855
 31
0.0
  0
LINE
  5
165A
330
6B
100
AcDbEntity
  8
0
100
AcDbLine
 10
810.2345482279455
 20
-309.6896202913854
 30
0.0
 11
810.2345482279455
 21
-315.6896202913854
 31
0.0
  0
LINE
  5
165E
330
6B
100
AcDbEntity
  8
0
100
AcDbLine
 10
922.9889427524183
 20
-259.7396202913854
 30
0.0
 11
922.9889427524183
 21
-222.9716607757028
 31
0.0
  0
LINE
  5
165F
330
6B
100
AcDbEntity
  8
0
100
AcDbLine
 10
832.2389427524182
 20
-245.9396202913854
 30
0.0
 11
832.2389427524182
 21
-222.9716607757028
 31
0.0
  0
LINE
  5
1660
330
6B
100
AcDbEntity
  8
0
100
AcDbLine
 10
920.4889427524182
 20
-224.2216607757028
 30
0.0
 11
834.7389427524182
 21
-224.2216607757028
 31
0.0
  0
LINE
  5
1664
330
6B
100
AcDbEntity
  8
0
100
AcDbLine
 10
917.2389427524183
 20
-309.9396202913854
 30
0.0
 11
917.2389427524183
 21
-329.5279059949023
 31
0.0
  0
LINE
  5
1665
330
6B
100
AcDbEntity
  8
0
100
AcDbLine
 10
832.2389427524182
 20
-302.4396202913854
 30
0.0
 11
832.2389427524182
 21
-329.5279059949023
 31
0.0
  0
LINE
  5
1666
330
6B
100
AcDbEntity
  8
0
100
AcDbLine
 10
914.7389427524183
 20
-328.2779059949023
 30
0.0
 11
834.7389427524182
 21
-328.2779059949023
 31
0.0
  0
LINE
  5
166A
330
6B
100
AcDbEntity
  8
0
100
AcDbLine
 10
786.5623593723877
 20
-309.9396202913854
 30
0.0
 11
786.5623593723877
 21
-330.2707421812854
 31
0.0
  0
LINE
  5
166B
330
6B
100
AcDbEntity
  8
0
100
AcDbLine
 10
685.5623593723876
 20
-309.9396202913854
 30
0.0
 11
685.5623593723876
 21
-330.2707421812854
 31
0.0
  0
LINE
  5
166C
330
6B
100
AcDbEntity
  8
0
100
AcDbLine
 10
784.0623593723877
 20
-329.0207421812854
 30
0.0
 11
688.0623593723876
 21
-329.0207421812854
 31
0.0
  0
LINE
  5
1670
330
6B
100
AcDbEntity
  8
0
100
AcDbLine
 10
778.357235671267
 20
-266.8447823326592
 30
0.0
 11
794.8273877851883
 21
-261.8935376097179
 31
0.0
1001
ACAD
1000
DSTYLE
1002
{
1070
   147
1040
0.625
1070
    77
1070
     0
1002
}
  0
LINE
  5
1671
330
6B
100
AcDbEntity
  8
0
  6
ByBlock
 62
     0
370
    -2
100
AcDbLine
 10
778.5500865401513
 20
-267.4862943813588
 30
0.0
 11
775.9630783924579
 21
-267.5645120905025
 31
0.0
  0
LINE
  5
1672
330
6B
100
AcDbEntity
  8
0
  6
ByBlock
 62
     0
370
    -2
100
AcDbLine
 10
775.9630783924579
 20
-267.5645120905025
 30
0.0
 11
778.1643848023827
 21
-266.2032702839596
 31
0.0
  0
LINE
  5
1673
330
6B
100
AcDbEntity
  8
0
  6
ByBlock
 62
     0
370
    -2
100
AcDbLine
 10
775.9630783924579
 20
-267.5645120905025
 30
0.0
 11
778.357235671267
 21
-266.8447823326592
 31
0.0
  0
LINE
  5
1674
330
6B
100
AcDbEntity
  8
0
100
AcDbLine
 10
698.6245320634179
 20
-299.8855462786032
 30
0.0
 11
674.0778487418118
 21
-294.3065295539754
 31
0.0
1001
ACAD
1000
DSTYLE
1002
{
1070
   147
1040
0.625
1070
    77
1070
     0
1002
}
  0
LINE
  5
1675
330
6B
100
AcDbEntity
  8
0
  6
ByBlock
 62
     0
370
    -2
100
AcDbLine
 10
698.7729956410689
 20
-299.232332888992
 30
0.0
 11
701.0623593723877
 21
-300.4396202913854
 31
0.0
  0
LINE
  5
1676
330
6B
100
AcDbEntity
  8
0
  6
ByBlock
 62
     0
370
    -2
100
AcDbLine
 10
701.0623593723877
 20
-300.4396202913854
 30
0.0
 11
698.4760684857668
 21
-300.5387596682143
 31
0.0
  0
LINE
  5
1677
330
6B
100
AcDbEntity
  8
0
  6
ByBlock
 62
     0
370
    -2
100
AcDbLine
 10
701.0623593723877
 20
-300.4396202913854
 30
0.0
 11
698.6245320634179
 21
-299.8855462786032
 31
0.0
  0
TEXT
  5
1678
330
6B
100
AcDbEntity
  8
0
 62
     4
100
AcDbText
 10
872.6605188244887
 20
-217.8684294659752
 30
0.0
 40
3.0
  1
187
100
AcDbText
  0
LINE
  5
1679
330
6B
100
AcDbEntity
  8
0
  6
ByBlock
 62
     0
370
    -2
100
AcDbLine
 10
831.9889427524183
 20
-219.1633019659752
 30
0.0
 11
829.4889427524182
 21
-218.4934294659752
 31
0.0
  0
LINE
  5
167A
330
6B
100
AcDbEntity
  8
0
  6
ByBlock
 62
     0
370
    -2
100
AcDbLine
 10
829.4889427524182
 20
-218.4934294659752
 30
0.0
 11
831.9889427524183
 21
-217.8235569659752
 31
0.0
  0
LINE
  5
167B
330
6B
100
AcDbEntity
  8
0
  6
ByBlock
 62
     0
370
    -2
100
AcDbLine
 10
829.4889427524182
 20
-218.4934294659752
 30
0.0
 11
831.9889427524183
 21
-218.4934294659752
 31
0.0
  0
LINE
  5
167C
330
6B
100
AcDbEntity
  8
0
  6
ByBlock
 62
     0
370
    -2
100
AcDbLine
 10
920.4889427524182
 20
-217.8235569659752
 30
0.0
 11
922.9889427524183
 21
-218.4934294659752
 31
0.0
  0
LINE
  5
167D
330
6B
100
AcDbEntity
  8
0
  6
ByBlock
 62
     0
370
    -2
100
AcDbLine
 10
922.9889427524183
 20
-218.4934294659752
 30
0.0
 11
920.4889427524182
 21
-219.1633019659752
 31
0.0
  0
LINE
  5
167E
330
6B
100
AcDbEntity
  8
0
  6
ByBlock
 62
     0
370
    -2
100
AcDbLine
 10
922.9889427524183
 20
-218.4934294659752
 30
0.0
 11
920.4889427524182
 21
-218.4934294659752
 31
0.0
  0
LINE
  5
167F
330
6B
100
AcDbEntity
  8
0
100
AcDbLine
 10
935.2857124372105
 20
-294.8981608043495
 30
0.0
 11
936.9413901897663
 21
-288.6553448677707
 31
0.0
1001
ACAD
1000
DSTYLE
1002
{
1070
   147
1040
0.625
1070
    77
1070
     0
1002
}
  0
LINE
  5
1680
330
6B
100
AcDbEntity
  8
0
  6
ByBlock
 62
     0
370
    -2
100
AcDbLine
 10
935.9332003403023
 20
-295.0698832012757
 30
0.0
 11
934.6448352668303
 21
-297.3146202913854
 31
0.0
  0
LINE
  5
1681
330
6B
100
AcDbEntity
  8
0
  6
ByBlock
 62
     0
370
    -2
100
AcDbLine
 10
934.6448352668303
 20
-297.3146202913854
 30
0.0
 11
934.6382245341187
 21
-294.7264384074234
 31
0.0
  0
LINE
  5
1682
330
6B
100
AcDbEntity
  8
0
  6
ByBlock
 62
     0
370
    -2
100
AcDbLine
 10
934.6448352668303
 20
-297.3146202913854
 30
0.0
 11
935.2857124372105
 21
-294.8981608043495
 31
0.0
  0
LINE
  5
1683
330
6B
100
AcDbEntity
  8
0
100
AcDbLine
 10
924.7819481806812
 20
-260.1974574016935
 30
0.0
 11
934.6347956740006
 21
-250.6239976730828
 31
0.0
1001
ACAD
1000
DSTYLE
1002
{
1070
   147
1040
0.625
1070
    77
1070
     0
1002
}
  0
LINE
  5
1684
330
6B
100
AcDbEntity
  8
0
  6
ByBlock
 62
     0
370
    -2
100
AcDbLine
 10
925.2487589848113
 20
-260.6778914131911
 30
0.0
 11
922.9889427524183
 21
-261.9396202913854
 31
0.0
  0
LINE
  5
1685
330
6B
100
AcDbEntity
  8
0
  6
ByBlock
 62
     0
370
    -2
100
AcDbLine
 10
922.9889427524183
 20
-261.9396202913854
 30
0.0
 11
924.3151373765511
 21
-259.7170233901959
 31
0.0
  0
LINE
  5
1686
330
6B
100
AcDbEntity
  8
0
  6
ByBlock
 62
     0
370
    -2
100
AcDbLine
 10
922.9889427524183
 20
-261.9396202913854
 30
0.0
 11
924.7819481806812
 21
-260.1974574016935
 31
0.0
  0
LINE
  5
1687
330
6B
100
AcDbEntity
  8
0
100
AcDbLine
 10
688.9730587414314
 20
-313.1105982008636
 30
0.0
 11
673.3288489493405
 21
-315.7831076548575
 31
0.0
1001
ACAD
1000
DSTYLE
1002
{
1070
   147
1040
0.625
1070
    77
1070
     0
1002
}
  0
LINE
  5
1688
330
6B
100
AcDbEntity
  8
0
  6
ByBlock
 62
     0
370
    -2
100
AcDbLine
 10
688.8602581315646
 20
-312.4502913110995
 30
0.0
 11
691.4373593723877
 21
-312.6896202913854
 31
0.0
  0
LINE
  5
1689
330
6B
100
AcDbEntity
  8
0
  6
ByBlock
 62
     0
370
    -2
100
AcDbLine
 10
691.4373593723877
 20
-312.6896202913854
 30
0.0
 11
689.0858593512982
 21
-313.7709050906277
 31
0.0
  0
LINE
  5
168A
330
6B
100
AcDbEntity
  8
0
  6
ByBlock
 62
     0
370
    -2
100
AcDbLine
 10
691.4373593723877
 20
-312.6896202913854
 30
0.0
 11
688.9730587414314
 21
-313.1105982008636
 31
0.0
  0
LINE
  5
168B
330
6B
100
AcDbEntity
  8
0
100
AcDbLine
 10
693.4543286391561
 20
-269.1091438852566
 30
0.0
 11
673.5954461538907
 21
-262.1150309062889
 31
0.0
1001
ACAD
1000
DSTYLE
1002
{
1070
   147
1040
0.625
1070
    77
1070
     0
1002
}
  0
LINE
  5
168C
330
6B
100
AcDbEntity
  8
0
  6
ByBlock
 62
     0
370
    -2
100
AcDbLine
 10
693.676853961702
 20
-268.477311908318
 30
0.0
 11
695.8123593723875
 21
-269.9396202913854
 31
0.0
  0
LINE
  5
168D
330
6B
100
AcDbEntity
  8
0
  6
ByBlock
 62
     0
370
    -2
100
AcDbLine
 10
695.8123593723875
 20
-269.9396202913854
 30
0.0
 11
693.2318033166104
 21
-269.7409758621952
 31
0.0
  0
LINE
  5
168E
330
6B
100
AcDbEntity
  8
0
  6
ByBlock
 62
     0
370
    -2
100
AcDbLine
 10
695.8123593723875
 20
-269.9396202913854
 30
0.0
 11
693.4543286391561
 21
-269.1091438852566
 31
0.0
  0
LINE
  5
168F
330
6B
100
AcDbEntity
  8
0
100
AcDbLine
 10
722.6809208929713
 20
-254.9288635833932
 30
0.0
 11
673.6422616462609
 21
-239.2633365100156
 31
0.0
1001
ACAD
1000
DSTYLE
1002
{
1070
   147
1040
0.625
1070
    77
1070
     0
1002
}
  0
LINE
  5
1690
330
6B
100
AcDbEntity
  8
0
  6
ByBlock
 62
     0
370
    -2
100
AcDbLine
 10
722.8847648921211
 20
-254.290759524272
 30
0.0
 11
725.0623593723877
 21
-255.6896202913854
 31
0.0
  0
LINE
  5
1691
330
6B
100
AcDbEntity
  8
0
  6
ByBlock
 62
     0
370
    -2
100
AcDbLine
 10
725.0623593723877
 20
-255.6896202913854
 30
0.0
 11
722.4770768938216
 21
-255.5669676425143
 31
0.0
  0
LINE
  5
1692
330
6B
100
AcDbEntity
  8
0
  6
ByBlock
 62
     0
370
    -2
100
AcDbLine
 10
725.0623593723877
 20
-255.6896202913854
 30
0.0
 11
722.6809208929713
 21
-254.9288635833932
 31
0.0
  0
LINE
  5
1693
330
6B
100
AcDbEntity
  8
0
100
AcDbLine
 10
707.9193566547274
 20
-232.0841446837802
 30
0.0
 11
673.7834241114981
 21
-225.298198331742
 31
0.0
1001
ACAD
1000
DSTYLE
1002
{
1070
   147
1040
0.625
1070
    77
1070
     0
1002
}
  0
LINE
  5
1694
330
6B
100
AcDbEntity
  8
0
  6
ByBlock
 62
     0
370
    -2
100
AcDbLine
 10
708.0499661490582
 20
-231.4271284539601
 30
0.0
 11
710.3713763667624
 21
-232.5715863026355
 31
0.0
  0
LINE
  5
1695
330
6B
100
AcDbEntity
  8
0
  6
ByBlock
 62
     0
370
    -2
100
AcDbLine
 10
710.3713763667624
 20
-232.5715863026355
 30
0.0
 11
707.7887471603968
 21
-232.7411609136002
 31
0.0
  0
LINE
  5
1696
330
6B
100
AcDbEntity
  8
0
  6
ByBlock
 62
     0
370
    -2
100
AcDbLine
 10
710.3713763667624
 20
-232.5715863026355
 30
0.0
 11
707.9193566547274
 21
-232.0841446837802
 31
0.0
  0
TEXT
  5
1697
330
6B
100
AcDbEntity
  8
0
 62
     4
100
AcDbText
 10
817.4752543793259
 20
-278.4556643926685
 30
0.0
 40
3.0
  1
169
 50
90.0
100
AcDbText
  0
LINE
  5
1698
330
6B
100
AcDbEntity
  8
0
  6
ByBlock
 62
     0
370
    -2
100
AcDbLine
 10
817.4303818793259
 20
-233.6896202913854
 30
0.0
 11
818.100254379326
 21
-231.1896202913854
 31
0.0
  0
LINE
  5
1699
330
6B
100
AcDbEntity
  8
0
  6
ByBlock
 62
     0
370
    -2
100
AcDbLine
 10
818.100254379326
 20
-231.1896202913854
 30
0.0
 11
818.770126879326
 21
-233.6896202913854
 31
0.0
  0
LINE
  5
169A
330
6B
100
AcDbEntity
  8
0
  6
ByBlock
 62
     0
370
    -2
100
AcDbLine
 10
818.100254379326
 20
-231.1896202913854
 30
0.0
 11
818.100254379326
 21
-233.6896202913854
 31
0.0
  0
LINE
  5
169B
330
6B
100
AcDbEntity
  8
0
  6
ByBlock
 62
     0
370
    -2
100
AcDbLine
 10
818.7701268793258
 20
-313.1896202913854
 30
0.0
 11
818.1002543793258
 21
-315.6896202913854
 31
0.0
  0
LINE
  5
169C
330
6B
100
AcDbEntity
  8
0
  6
ByBlock
 62
     0
370
    -2
100
AcDbLine
 10
818.1002543793258
 20
-315.6896202913854
 30
0.0
 11
817.4303818793259
 21
-313.1896202913854
 31
0.0
  0
LINE
  5
169D
330
6B
100
AcDbEntity
  8
0
  6
ByBlock
 62
     0
370
    -2
100
AcDbLine
 10
818.1002543793258
 20
-315.6896202913854
 30
0.0
 11
818.1002543793258
 21
-313.1896202913854
 31
0.0
  0
TEXT
  5
169E
330
6B
100
AcDbEntity
  8
0
 62
     4
100
AcDbText
 10
809.6095482279455
 20
-281.4396202913854
 30
0.0
 40
3.0
  1
127
 50
90.0
100
AcDbText
  0
LINE
  5
169F
330
6B
100
AcDbEntity
  8
0
  6
ByBlock
 62
     0
370
    -2
100
AcDbLine
 10
809.5646757279455
 20
-248.6896202913854
 30
0.0
 11
810.2345482279455
 21
-246.1896202913854
 31
0.0
  0
LINE
  5
16A0
330
6B
100
AcDbEntity
  8
0
  6
ByBlock
 62
     0
370
    -2
100
AcDbLine
 10
810.2345482279455
 20
-246.1896202913854
 30
0.0
 11
810.9044207279454
 21
-248.6896202913854
 31
0.0
  0
LINE
  5
16A1
330
6B
100
AcDbEntity
  8
0
  6
ByBlock
 62
     0
370
    -2
100
AcDbLine
 10
810.2345482279455
 20
-246.1896202913854
 30
0.0
 11
810.2345482279455
 21
-248.6896202913854
 31
0.0
  0
LINE
  5
16A2
330
6B
100
AcDbEntity
  8
0
  6
ByBlock
 62
     0
370
    -2
100
AcDbLine
 10
810.9044207279454
 20
-307.1896202913854
 30
0.0
 11
810.2345482279455
 21
-309.6896202913854
 31
0.0
  0
LINE
  5
16A3
330
6B
100
AcDbEntity
  8
0
  6
ByBlock
 62
     0
370
    -2
100
AcDbLine
 10
810.2345482279455
 20
-309.6896202913854
 30
0.0
 11
809.5646757279453
 21
-307.1896202913854
 31
0.0
  0
LINE
  5
16A4
330
6B
100
AcDbEntity
  8
0
  6
ByBlock
 62
     0
370
    -2
100
AcDbLine
 10
810.2345482279455
 20
-309.6896202913854
 30
0.0
 11
810.2345482279455
 21
-307.1896202913854
 31
0.0
  0
TEXT
  5
16A5
330
6B
100
AcDbEntity
  8
0
 62
     4
100
AcDbText
 10
809.6095482279455
 20
-325.3146202913854
 30
0.0
 40
3.0
  1
12
 50
90.0
100
AcDbText
  0
LINE
  5
16A6
330
6B
100
AcDbEntity
  8
0
  6
ByBlock
 62
     0
370
    -2
100
AcDbLine
 10
809.5646757279453
 20
-318.1896202913854
 30
0.0
 11
810.2345482279455
 21
-315.6896202913854
 31
0.0
  0
LINE
  5
16A7
330
6B
100
AcDbEntity
  8
0
  6
ByBlock
 62
     0
370
    -2
100
AcDbLine
 10
810.2345482279455
 20
-315.6896202913854
 30
0.0
 11
810.9044207279454
 21
-318.1896202913854
 31
0.0
  0
LINE
  5
16A8
330
6B
100
AcDbEntity
  8
0
  6
ByBlock
 62
     0
370
    -2
100
AcDbLine
 10
810.2345482279455
 20
-315.6896202913854
 30
0.0
 11
810.2345482279455
 21
-318.1896202913854
 31
0.0
  0
LINE
  5
16A9
330
6B
100
AcDbEntity
  8
0
  6
ByBlock
 62
     0
370
    -2
100
AcDbLine
 10
810.9044207279454
 20
-307.1896202913854
 30
0.0
 11
810.2345482279455
 21
-309.6896202913854
 31
0.0
  0
LINE
  5
16AA
330
6B
100
AcDbEntity
  8
0
  6
ByBlock
 62
     0
370
    -2
100
AcDbLine
 10
810.2345482279455
 20
-309.6896202913854
 30
0.0
 11
809.5646757279453
 21
-307.1896202913854
 31
0.0
  0
LINE
  5
16AB
330
6B
100
AcDbEntity
  8
0
  6
ByBlock
 62
     0
370
    -2
100
AcDbLine
 10
810.2345482279455
 20
-309.6896202913854
 30
0.0
 11
810.2345482279455
 21
-307.1896202913854
 31
0.0
  0
TEXT
  5
16AC
330
6B
100
AcDbEntity
  8
0
 62
     4
100
AcDbText
 10
870.5411574621646
 20
-223.5966607757028
 30
0.0
 40
3.0
  1
181.5
100
AcDbText
  0
LINE
  5
16AD
330
6B
100
AcDbEntity
  8
0
  6
ByBlock
 62
     0
370
    -2
100
AcDbLine
 10
834.7389427524182
 20
-224.8915332757028
 30
0.0
 11
832.2389427524182
 21
-224.2216607757028
 31
0.0
  0
LINE
  5
16AE
330
6B
100
AcDbEntity
  8
0
  6
ByBlock
 62
     0
370
    -2
100
AcDbLine
 10
832.2389427524182
 20
-224.2216607757028
 30
0.0
 11
834.7389427524182
 21
-223.5517882757028
 31
0.0
  0
LINE
  5
16AF
330
6B
100
AcDbEntity
  8
0
  6
ByBlock
 62
     0
370
    -2
100
AcDbLine
 10
832.2389427524182
 20
-224.2216607757028
 30
0.0
 11
834.7389427524182
 21
-224.2216607757028
 31
0.0
  0
LINE
  5
16B0
330
6B
100
AcDbEntity
  8
0
  6
ByBlock
 62
     0
370
    -2
100
AcDbLine
 10
920.4889427524182
 20
-223.5517882757028
 30
0.0
 11
922.9889427524183
 21
-224.2216607757028
 31
0.0
  0
LINE
  5
16B1
330
6B
100
AcDbEntity
  8
0
  6
ByBlock
 62
     0
370
    -2
100
AcDbLine
 10
922.9889427524183
 20
-224.2216607757028
 30
0.0
 11
920.4889427524182
 21
-224.8915332757028
 31
0.0
  0
LINE
  5
16B2
330
6B
100
AcDbEntity
  8
0
  6
ByBlock
 62
     0
370
    -2
100
AcDbLine
 10
922.9889427524183
 20
-224.2216607757028
 30
0.0
 11
920.4889427524182
 21
-224.2216607757028
 31
0.0
  0
TEXT
  5
16B3
330
6B
100
AcDbEntity
  8
0
 62
     4
100
AcDbText
 10
872.6593439247713
 20
-327.6529059949023
 30
0.0
 40
3.0
  1
170
100
AcDbText
  0
LINE
  5
16B4
330
6B
100
AcDbEntity
  8
0
  6
ByBlock
 62
     0
370
    -2
100
AcDbLine
 10
834.7389427524182
 20
-328.9477784949023
 30
0.0
 11
832.2389427524182
 21
-328.2779059949023
 31
0.0
  0
LINE
  5
16B5
330
6B
100
AcDbEntity
  8
0
  6
ByBlock
 62
     0
370
    -2
100
AcDbLine
 10
832.2389427524182
 20
-328.2779059949023
 30
0.0
 11
834.7389427524182
 21
-327.6080334949023
 31
0.0
  0
LINE
  5
16B6
330
6B
100
AcDbEntity
  8
0
  6
ByBlock
 62
     0
370
    -2
100
AcDbLine
 10
832.2389427524182
 20
-328.2779059949023
 30
0.0
 11
834.7389427524182
 21
-328.2779059949023
 31
0.0
  0
LINE
  5
16B7
330
6B
100
AcDbEntity
  8
0
  6
ByBlock
 62
     0
370
    -2
100
AcDbLine
 10
914.7389427524183
 20
-327.6080334949023
 30
0.0
 11
917.2389427524183
 21
-328.2779059949023
 31
0.0
  0
LINE
  5
16B8
330
6B
100
AcDbEntity
  8
0
  6
ByBlock
 62
     0
370
    -2
100
AcDbLine
 10
917.2389427524183
 20
-328.2779059949023
 30
0.0
 11
914.7389427524183
 21
-328.9477784949023
 31
0.0
  0
LINE
  5
16B9
330
6B
100
AcDbEntity
  8
0
  6
ByBlock
 62
     0
370
    -2
100
AcDbLine
 10
917.2389427524183
 20
-328.2779059949023
 30
0.0
 11
914.7389427524183
 21
-328.2779059949023
 31
0.0
  0
TEXT
  5
16BA
330
6B
100
AcDbEntity
  8
0
 62
     4
100
AcDbText
 10
730.2996223991286
 20
-328.3957421812853
 30
0.0
 40
3.0
  1
202
100
AcDbText
  0
LINE
  5
16BB
330
6B
100
AcDbEntity
  8
0
  6
ByBlock
 62
     0
370
    -2
100
AcDbLine
 10
688.0623593723876
 20
-329.6906146812854
 30
0.0
 11
685.5623593723876
 21
-329.0207421812854
 31
0.0
  0
LINE
  5
16BC
330
6B
100
AcDbEntity
  8
0
  6
ByBlock
 62
     0
370
    -2
100
AcDbLine
 10
685.5623593723876
 20
-329.0207421812854
 30
0.0
 11
688.0623593723876
 21
-328.3508696812853
 31
0.0
  0
LINE
  5
16BD
330
6B
100
AcDbEntity
  8
0
  6
ByBlock
 62
     0
370
    -2
100
AcDbLine
 10
685.5623593723876
 20
-329.0207421812854
 30
0.0
 11
688.0623593723876
 21
-329.0207421812854
 31
0.0
  0
LINE
  5
16BE
330
6B
100
AcDbEntity
  8
0
  6
ByBlock
 62
     0
370
    -2
100
AcDbLine
 10
784.0623593723877
 20
-328.3508696812853
 30
0.0
 11
786.5623593723877
 21
-329.0207421812854
 31
0.0
  0
LINE
  5
16BF
330
6B
100
AcDbEntity
  8
0
  6
ByBlock
 62
     0
370
    -2
100
AcDbLine
 10
786.5623593723877
 20
-329.0207421812854
 30
0.0
 11
784.0623593723877
 21
-329.6906146812854
 31
0.0
  0
LINE
  5
16C0
330
6B
100
AcDbEntity
  8
0
  6
ByBlock
 62
     0
370
    -2
100
AcDbLine
 10
786.5623593723877
 20
-329.0207421812854
 30
0.0
 11
784.0623593723877
 21
-329.0207421812854
 31
0.0
  0
ENDSEC
  0
SECTION
  2
OBJECTS
  0
DICTIONARY
  5
C
330
0
100
AcDbDictionary
281
     1
  3
ACAD_2007HEADERVARS_RT
350
16C4
  3
ACAD_COLOR
350
62
  3
ACAD_GROUP
350
D
  3
ACAD_LAYOUT
350
61
  3
ACAD_MATERIAL
350
10
  3
ACAD_MLEADERSTYLE
350
65
  3
ACAD_MLINESTYLE
350
5E
  3
ACAD_PLOTSETTINGS
350
60
  3
ACAD_PLOTSTYLENAME
350
E
  3
ACAD_SCALELIST
350
42
  3
ACAD_TABLESTYLE
350
63
  3
ACAD_VISUALSTYLE
350
29
  3
ACDB_RECOMPOSE_DATA
350
16C2
  3
AcDbVariableDictionary
350
6D9
  3
DWGPROPS
350
16C3
  0
DICTIONARY
  5
556
330
2
100
AcDbDictionary
280
     1
281
     1
  3
ACAD_LAYERSTATES
360
557
  0
DICTIONARY
  5
6BB
330
54
100
AcDbDictionary
280
     1
281
     1
  3
ADSK_XREC_LAYER_RECONCILED
360
6BC
  0
DICTIONARY
  5
3D3
330
6B
100
AcDbDictionary
280
     1
281
     1
  3
ACAD_SORTENTS
360
3D4
  0
DICTIONARY
  5
16C4
102
{ACAD_REACTORS
330
C
102
}
330
C
100
AcDbDictionary
281
     1
  3
DIMARCSYM
350
16C6
  3
DIMFXL
350
16C5
  3
DIMJOGANG
350
16C7
  0
DICTIONARY
  5
62
102
{ACAD_REACTORS
330
C
102
}
330
C
100
AcDbDictionary
281
     1
  0
DICTIONARY
  5
D
102
{ACAD_REACTORS
330
C
102
}
330
C
100
AcDbDictionary
281
     1
  0
DICTIONARY
  5
61
102
{ACAD_REACTORS
330
C
102
}
330
C
100
AcDbDictionary
281
     1
  3
Model
350
6E
  3
レイアウト1
350
6A
  0
DICTIONARY
  5
10
102
{ACAD_REACTORS
330
C
102
}
330
C
100
AcDbDictionary
281
     1
  3
ByBlock
350
19
  3
ByLayer
350
11
  3
Global
350
21
  0
DICTIONARY
  5
65
102
{ACAD_REACTORS
330
C
102
}
330
C
100
AcDbDictionary
281
     1
  3
Standard
350
66
  0
DICTIONARY
  5
5E
102
{ACAD_REACTORS
330
C
102
}
330
C
100
AcDbDictionary
281
     1
  3
Standard
350
5F
  0
DICTIONARY
  5
60
102
{ACAD_REACTORS
330
C
102
}
330
C
100
AcDbDictionary
281
     1
  0
ACDBDICTIONARYWDFLT
  5
E
102
{ACAD_REACTORS
330
C
102
}
330
C
100
AcDbDictionary
281
     1
  3
Normal
350
F
100
AcDbDictionaryWithDefault
340
F
  0
DICTIONARY
  5
42
102
{ACAD_REACTORS
330
C
102
}
330
C
100
AcDbDictionary
281
     1
  3
A0
350
43
  3
A1
350
44
  3
A2
350
45
  3
A3
350
46
  3
A4
350
47
  3
A5
350
48
  3
A6
350
49
  3
A7
350
4A
  3
A8
350
4B
  3
A9
350
4C
  3
B0
350
4D
  3
B1
350
4E
  3
B2
350
4F
  3
B3
350
50
  3
B4
350
51
  3
B5
350
52
  3
B6
350
53
  0
DICTIONARY
  5
63
102
{ACAD_REACTORS
330
C
102
}
330
C
100
AcDbDictionary
281
     1
  3
Standard
350
64
  0
DICTIONARY
  5
29
102
{ACAD_REACTORS
330
C
102
}
330
C
100
AcDbDictionary
281
     1
  3
2dWireframe
350
2F
  3
3dWireframe
350
555
  3
Basic
350
2E
  3
Brighten
350
35
  3
ColorChange
350
39
  3
Conceptual
350
32
  3
Dim
350
34
  3
EdgeColorOff
350
41
  3
Facepattern
350
38
  3
Flat
350
2A
  3
FlatWithEdges
350
2B
  3
Gouraud
350
2C
  3
GouraudWithEdges
350
2D
  3
Hidden
350
31
  3
JitterOff
350
3F
  3
Linepattern
350
37
  3
OverhangOff
350
40
  3
Realistic
350
33
  3
Shaded
350
3E
  3
Shaded with edges
350
3D
  3
Shades of Gray
350
3A
  3
Sketchy
350
3B
  3
Thicken
350
36
  3
Wireframe
350
30
  3
X-Ray
350
3C
  0
XRECORD
  5
16C2
102
{ACAD_REACTORS
330
C
102
}
330
C
100
AcDbXrecord
280
     1
 90
        1
330
64
  0
DICTIONARY
  5
6D9
102
{ACAD_REACTORS
330
C
102
}
330
C
100
AcDbDictionary
281
     1
  3
CANNOSCALE
350
6DC
  3
CMLEADERSTYLE
350
6DB
  3
CTABLESTYLE
350
6DA
  3
DIMASSOC
350
6DF
  3
INDEXCTL
350
6DE
  3
SORTENTS
350
6DD
  3
XCLIPFRAME
350
15C9
  0
XRECORD
  5
16C3
102
{ACAD_REACTORS
330
C
102
}
330
C
100
AcDbXrecord
280
     1
  1
DWGPROPS COOKIE
  2

  3

  4

  6

  7

  8
imamura
  9

300
=
301
=
302
=
303
=
304
=
305
=
306
=
307
=
308
=
309
=
 40
0.0914805208333334
 41
2455754.74896522
 42
2459893.498353113
  1

 90
        0
  0
DICTIONARY
  5
557
102
{ACAD_REACTORS
330
556
102
}
330
556
100
AcDbDictionary
281
     1
  0
XRECORD
  5
6BC
102
{ACAD_REACTORS
330
6BB
102
}
330
6BB
100
AcDbXrecord
280
     1
290
     1
  0
SORTENTSTABLE
  5
3D4
102
{ACAD_REACTORS
330
3D3
102
}
330
3D3
100
AcDbSortentsTable
330
6B
331
487
  5
48E
331
A0E
  5
A0E
331
483
  5
489
331
A0A
  5
A0A
331
3E1
  5
464
331
47F
  5
460
331
6CA
  5
6CA
331
43C
  5
47D
331
47B
  5
487
331
3D9
  5
447
331
D85
  5
164A
331
D81
  5
1646
331
113E
  5
16A9
331
DD3
  5
168E
331
D54
  5
1139
331
C65
  5
DAC
331
16AD
  5
D02
331
DB7
  5
167E
331
D50
  5
1051
331
C61
  5
DA8
331
16A9
  5
D54
331
166A
  5
C4A
331
BB7
  5
BBC
331
BF6
  5
BFB
331
C34
  5
C41
331
DB3
  5
167A
331
D4C
  5
F86
331
C5D
  5
DA4
331
16A5
  5
D5A
331
1666
  5
C68
331
BB3
  5
BB8
331
BF2
  5
BF7
331
1635
  5
1620
331
ABF
  5
ABF
331
B06
  5
B0B
331
B3D
  5
B42
331
B7C
  5
B81
331
C30
  5
C3D
331
D48
  5
F82
331
C59
  5
DA0
331
16A1
  5
D63
331
1631
  5
161C
331
B78
  5
B7D
331
BAF
  5
BB4
331
BEE
  5
BF3
331
A84
  5
A84
331
ABB
  5
ABB
331
B02
  5
B07
331
B39
  5
B3E
331
BEA
  5
BEF
331
162D
  5
1618
331
B35
  5
B3A
331
B74
  5
B79
331
BAB
  5
BB0
331
AB7
  5
AB7
331
AFE
  5
B01
331
1629
  5
1628
331
AFA
  5
AFC
331
B31
  5
B36
331
B70
  5
B75
331
A3D
  5
A3D
331
A7C
  5
A7C
331
AB3
  5
AB3
331
A39
  5
A39
331
A78
  5
A78
331
4AE
  5
4B0
331
A35
  5
A35
331
428
  5
476
331
4A2
  5
4AC
331
A31
  5
A31
331
473
  5
442
331
DAC
  5
1673
331
DA8
  5
166F
331
169D
  5
D6A
331
D7F
  5
1642
331
D10
  5
F81
331
1699
  5
D6C
331
BE6
  5
BEB
331
F86
  5
C36
331
1229
  5
16C0
331
D7B
  5
163B
331
1695
  5
D7A
331
BE2
  5
BE7
331
F82
  5
C0E
331
1625
  5
1624
331
AF6
  5
AF8
331
B6C
  5
B71
331
C55
  5
D9C
331
1691
  5
D7E
331
4B0
  5
566
331
1621
  5
1632
331
B68
  5
B6D
331
BA7
  5
BAC
331
AF2
  5
AF4
331
BDE
  5
BE3
331
161D
  5
162E
331
B2D
  5
B32
331
B64
  5
B69
331
BA3
  5
BA8
331
A70
  5
A70
331
AAF
  5
AAF
331
AEE
  5
AEE
331
BDA
  5
BDF
331
1658
  5
D51
331
1619
  5
163A
331
AEA
  5
AEA
331
B29
  5
B2E
331
B60
  5
B65
331
A6C
  5
A6C
331
AAB
  5
AAB
331
A68
  5
A68
331
49E
  5
4A0
331
A2D
  5
A2D
331
40C
  5
424
331
463
  5
443
331
49A
  5
49C
331
A29
  5
A29
331
A25
  5
A25
331
496
  5
497
331
A21
  5
A21
331
3FC
  5
41E
331
DA4
  5
166B
331
DA0
  5
1667
331
1225
  5
16BC
331
D9C
  5
1663
331
1221
  5
16B8
331
D98
  5
165F
331
D73
  5
1613
331
D04
  5
DE0
331
168D
  5
D86
331
121D
  5
16B4
331
E76
  5
169A
331
D6F
  5
160F
331
D00
  5
DDC
331
1689
  5
D8A
331
BD6
  5
BDB
331
B9F
  5
BA4
331
401
  5
44B
331
1219
  5
16B0
331
D6B
  5
160B
331
1685
  5
D92
331
C49
  5
D8D
331
3D7
  5
3FA
331
B9B
  5
BA0
331
BD2
  5
BD7
331
1615
  5
1636
331
AE6
  5
AE6
331
B25
  5
B2A
331
B5C
  5
B61
331
AA7
  5
AA7
331
1681
  5
D96
331
16C0
  5
C56
331
1650
  5
D5B
331
B58
  5
B5D
331
B97
  5
B9C
331
BCE
  5
BD3
331
AA3
  5
AA3
331
AE2
  5
AE2
331
B21
  5
B26
331
A64
  5
A64
331
C41
  5
D75
331
164C
  5
D67
331
160D
  5
1685
331
B1D
  5
B22
331
B54
  5
B59
331
B93
  5
B98
331
A60
  5
A60
331
A9F
  5
A9F
331
ADE
  5
ADE
331
BCA
  5
BCF
331
B19
  5
B1E
331
B50
  5
B55
331
A5C
  5
A5C
331
A9B
  5
A9B
331
ADA
  5
ADA
331
A58
  5
A58
331
3F4
  5
3FB
331
A15
  5
A15
331
3F0
  5
445
331
48E
  5
452
331
A11
  5
A11
331
3EC
  5
3F0
331
44B
  5
47E
331
D94
  5
165B
331
D90
  5
1657
331
D8C
  5
1651
331
D67
  5
1223
331
D88
  5
164D
331
D63
  5
121F
331
C74
  5
DBB
331
167D
  5
1688
331
16BC
  5
C60
331
DDE
  5
1697
331
D5F
  5
121B
331
C70
  5
DB7
331
1679
  5
168A
331
16B8
  5
C6D
331
DBB
  5
1682
331
BC6
  5
BCB
331
B8F
  5
B94
331
C05
  5
C0A
331
D5B
  5
1217
331
C6C
  5
DB3
331
1675
  5
1690
331
16B4
  5
C6F
331
C3F
  5
D73
331
B8B
  5
B90
331
BC2
  5
BC7
331
C01
  5
C06
331
AD6
  5
AD6
331
B15
  5
B1A
331
B4C
  5
B51
331
A97
  5
A97
331
C68
  5
DAF
331
1671
  5
16A4
331
16B0
  5
CFE
331
B48
  5
B4D
331
B87
  5
B8C
331
BBE
  5
BC3
331
A93
  5
A93
331
B11
  5
B16
331
A54
  5
A54
331
BFD
  5
C02
331
BF9
  5
BFE
331
163C
  5
1226
331
B44
  5
B49
331
B83
  5
B88
331
BBA
  5
BBF
331
A50
  5
A50
331
A8F
  5
A8F
331
AC6
  5
AC6
331
B0D
  5
B12
331
1638
  5
1608
331
B09
  5
B0E
331
B40
  5
B45
331
A4C
  5
A4C
331
A8B
  5
A8B
331
AC2
  5
AC2
331
486
  5
48D
331
A0D
  5
A0D
331
482
  5
488
331
A09
  5
A09
331
6CD
  5
6CD
331
43F
  5
44D
331
47E
  5
461
331
6C9
  5
6C9
331
3D8
  5
3F2
331
D84
  5
1649
331
D80
  5
1645
331
113D
  5
16A8
331
D57
  5
113F
331
1139
  5
16A3
331
D53
  5
1138
331
C64
  5
DAB
331
16AC
  5
D4A
331
DB6
  5
167D
331
C79
  5
DD5
331
D4F
  5
1050
331
C60
  5
DA7
331
16A8
  5
D59
331
BB6
  5
BBB
331
BF5
  5
BFA
331
B7F
  5
B84
331
C33
  5
C40
331
1051
  5
169F
331
DB2
  5
1679
331
D4B
  5
F85
331
C5C
  5
DA3
331
16A4
  5
D60
331
1665
  5
C67
331
1634
  5
161F
331
B7B
  5
B80
331
BB2
  5
BB7
331
BF1
  5
BF6
331
ABE
  5
ABE
331
B05
  5
B0A
331
B3C
  5
B41
331
A87
  5
A87
331
C58
  5
D9F
331
16A0
  5
D62
331
1630
  5
161B
331
B77
  5
B7C
331
BAE
  5
BB3
331
BED
  5
BF2
331
A83
  5
A83
331
ABA
  5
ABA
331
B01
  5
B06
331
B38
  5
B3D
331
BE9
  5
BEE
331
162C
  5
1617
331
B34
  5
B39
331
B73
  5
B78
331
BAA
  5
BAF
331
A7F
  5
A7F
331
AB6
  5
AB6
331
AFD
  5
B00
331
1628
  5
1627
331
AF9
  5
AFB
331
B30
  5
B35
331
A7B
  5
A7B
331
AB2
  5
AB2
331
A38
  5
A38
331
4AD
  5
4AF
331
42B
  5
47B
331
A34
  5
A34
331
427
  5
475
331
4A1
  5
4AB
331
A30
  5
A30
331
472
  5
441
331
DAF
  5
1676
331
DAB
  5
1672
331
169C
  5
D69
331
D7E
  5
1641
331
1698
  5
D6B
331
BE5
  5
BEA
331
F85
  5
C3A
331
B6F
  5
B74
331
1228
  5
16BF
331
1694
  5
D79
331
BE1
  5
BE6
331
F81
  5
C10
331
1624
  5
1623
331
AF5
  5
AF7
331
A77
  5
A77
331
B6B
  5
B70
331
C54
  5
D9B
331
1690
  5
D7D
331
165F
  5
CFC
331
1620
  5
1631
331
B67
  5
B6C
331
BA6
  5
BAB
331
A73
  5
A73
331
AF1
  5
AF3
331
BDD
  5
BE2
331
BD9
  5
BDE
331
161C
  5
162D
331
B2C
  5
B31
331
B63
  5
B68
331
BA2
  5
BA7
331
A6F
  5
A6F
331
AAE
  5
AAE
331
AED
  5
AED
331
1618
  5
1639
331
AE9
  5
AE9
331
B28
  5
B2D
331
A6B
  5
A6B
331
AAA
  5
AAA
331
49D
  5
49F
331
40B
  5
3EF
331
499
  5
49B
331
A28
  5
A28
331
A24
  5
A24
331
3FF
  5
472
331
491
  5
498
331
A20
  5
A20
331
3FB
  5
470
331
DA7
  5
166E
331
DA3
  5
166A
331
D9F
  5
1666
331
1224
  5
16BB
331
D9B
  5
1662
331
D76
  5
1616
331
D07
  5
F80
331
1220
  5
16B7
331
D72
  5
1612
331
D03
  5
DDE
331
168C
  5
D85
331
121C
  5
16B3
331
D6E
  5
160E
331
C4C
  5
D90
331
1688
  5
D89
331
CFF
  5
B03
331
BD5
  5
BDA
331
1657
  5
D4C
331
B5F
  5
B64
331
B9E
  5
BA3
331
1218
  5
16AF
331
D6A
  5
160A
331
1684
  5
D91
331
3D6
  5
3F3
331
B9A
  5
B9F
331
BD1
  5
BD6
331
1614
  5
1635
331
AA6
  5
AA6
331
AE5
  5
AE5
331
B24
  5
B29
331
A67
  5
A67
331
B5B
  5
B60
331
1680
  5
D95
331
C44
  5
D78
331
B57
  5
B5C
331
B96
  5
B9B
331
BCD
  5
BD2
331
AA2
  5
AA2
331
AE1
  5
AE1
331
B20
  5
B25
331
A63
  5
A63
331
C40
  5
D74
331
164B
  5
D66
331
160C
  5
1684
331
B1C
  5
B21
331
B53
  5
B58
331
B92
  5
B97
331
A5F
  5
A5F
331
A9E
  5
A9E
331
ADD
  5
ADD
331
BC9
  5
BCE
331
AD9
  5
AD9
331
B18
  5
B1D
331
A5B
  5
A5B
331
A9A
  5
A9A
331
A1C
  5
A1C
331
3F3
  5
44A
331
452
  5
462
331
A14
  5
A14
331
3EF
  5
446
331
48D
  5
450
331
489
  5
491
331
3EB
  5
3F1
331
D97
  5
165E
331
D93
  5
165A
331
D8F
  5
1654
331
D8B
  5
1650
331
D66
  5
1222
331
C77
  5
DD3
331
16BF
  5
C51
331
D62
  5
121E
331
C73
  5
DBA
331
167C
  5
1687
331
16BB
  5
C5F
331
DDD
  5
1696
331
D5E
  5
121A
331
C6F
  5
DB6
331
1678
  5
168D
331
16B7
  5
C69
331
DBA
  5
1681
331
BC5
  5
BCA
331
B4F
  5
B54
331
B8E
  5
B93
331
C04
  5
C09
331
D5A
  5
1216
331
C6B
  5
DB2
331
1674
  5
1693
331
16B3
  5
C75
331
C3E
  5
D72
331
B8A
  5
B8F
331
BC1
  5
BC6
331
C00
  5
C05
331
B14
  5
B19
331
B4B
  5
B50
331
A57
  5
A57
331
A96
  5
A96
331
1670
  5
16A7
331
B47
  5
B4C
331
B86
  5
B8B
331
BBD
  5
BC2
331
A92
  5
A92
331
B10
  5
B15
331
A53
  5
A53
331
BFC
  5
C01
331
BF8
  5
BFD
331
163B
  5
1225
331
B0C
  5
B11
331
B43
  5
B48
331
B82
  5
B87
331
A4F
  5
A4F
331
A8E
  5
A8E
331
AC5
  5
AC5
331
BB9
  5
BBE
331
B08
  5
B0D
331
A4B
  5
A4B
331
A8A
  5
A8A
331
AC1
  5
AC1
331
485
  5
48C
331
A0C
  5
A0C
331
442
  5
451
331
481
  5
45E
331
A08
  5
A08
331
6CC
  5
6CC
331
3DF
  5
463
331
479
  5
484
331
3DB
  5
46E
331
D87
  5
164C
331
D83
  5
1648
331
D56
  5
113E
331
C67
  5
DAE
331
16AF
  5
D49
331
1138
  5
16A2
331
D52
  5
1054
331
C63
  5
DAA
331
16AB
  5
D56
331
166C
  5
C4C
331
C36
  5
C43
331
1054
  5
16A0
331
C78
  5
DD4
331
DB5
  5
167C
331
D4E
  5
104F
331
C5F
  5
DA6
331
16A7
  5
D58
331
BB5
  5
BBA
331
BF4
  5
BF9
331
1637
  5
1229
331
B3F
  5
B44
331
B7E
  5
B83
331
C32
  5
C3F
331
1050
  5
169E
331
DB1
  5
1678
331
D4A
  5
F84
331
C5B
  5
DA2
331
16A3
  5
D5F
331
1664
  5
C66
331
1633
  5
161E
331
B7A
  5
B7F
331
BB1
  5
BB6
331
BF0
  5
BF5
331
ABD
  5
ABD
331
B04
  5
B09
331
B3B
  5
B40
331
A86
  5
A86
331
1660
  5
CFD
331
162F
  5
161A
331
B37
  5
B3C
331
B76
  5
B7B
331
BAD
  5
BB2
331
AB9
  5
AB9
331
B00
  5
B05
331
A43
  5
A43
331
BEC
  5
BF1
331
BE8
  5
BED
331
162B
  5
162A
331
B33
  5
B38
331
B72
  5
B77
331
BA9
  5
BAE
331
A7E
  5
A7E
331
AB5
  5
AB5
331
AFC
  5
AFE
331
AF8
  5
AFA
331
A3B
  5
A3B
331
A7A
  5
A7A
331
AB1
  5
AB1
331
4AC
  5
4AE
331
A37
  5
A37
331
42A
  5
47A
331
A33
  5
A33
331
426
  5
474
331
4A0
  5
4A2
331
471
  5
440
331
DAE
  5
1675
331
DAA
  5
1671
331
169F
  5
D61
331
169B
  5
D68
331
D7D
  5
163D
331
1697
  5
D6E
331
BE4
  5
BE9
331
46F
  5
428
331
F84
  5
C3C
331
1627
  5
1626
331
B6E
  5
B73
331
C57
  5
D9E
331
1693
  5
D7C
331
1623
  5
1622
331
B6A
  5
B6F
331
AF4
  5
AF6
331
BE0
  5
BE5
331
F80
  5
C2E
331
C53
  5
D9A
331
165E
  5
C79
331
161F
  5
1630
331
B66
  5
B6B
331
BA5
  5
BAA
331
BDC
  5
BE1
331
A72
  5
A72
331
AF0
  5
AF2
331
B2F
  5
B34
331
BD8
  5
BDD
331
165A
  5
D53
331
161B
  5
162C
331
B2B
  5
B30
331
B62
  5
B67
331
BA1
  5
BA6
331
A6E
  5
A6E
331
AAD
  5
AAD
331
AEC
  5
AEC
331
AE8
  5
AE8
331
A6A
  5
A6A
331
AA9
  5
AA9
331
A2F
  5
A2F
331
49C
  5
49E
331
A27
  5
A27
331
498
  5
49A
331
A23
  5
A23
331
3FE
  5
471
331
45D
  5
483
331
3FA
  5
46F
331
DA6
  5
166D
331
DA2
  5
1669
331
1227
  5
16BE
331
D9E
  5
1665
331
1223
  5
16BA
331
D9A
  5
1661
331
D75
  5
1615
331
D06
  5
E78
331
168F
  5
D84
331
121F
  5
16B6
331
E78
  5
169C
331
D71
  5
1611
331
D02
  5
DDD
331
168B
  5
D88
331
121B
  5
16B2
331
D6D
  5
160D
331
C4B
  5
D8F
331
1687
  5
D8C
331
1656
  5
D4B
331
B9D
  5
BA2
331
BD4
  5
BD9
331
1617
  5
1638
331
B27
  5
B2C
331
B5E
  5
B63
331
1683
  5
D94
331
1652
  5
D5D
331
B99
  5
B9E
331
BD0
  5
BD5
331
1613
  5
1634
331
AA5
  5
AA5
331
AE4
  5
AE4
331
B23
  5
B28
331
A66
  5
A66
331
B5A
  5
B5F
331
C43
  5
D77
331
3D1
  5
3E8
331
B56
  5
B5B
331
B95
  5
B9A
331
BCC
  5
BD1
331
A62
  5
A62
331
AA1
  5
AA1
331
AE0
  5
AE0
331
B1F
  5
B24
331
BC8
  5
BCD
331
164A
  5
D65
331
B1B
  5
B20
331
B52
  5
B57
331
B91
  5
B96
331
A5E
  5
A5E
331
A9D
  5
A9D
331
ADC
  5
ADC
331
AD8
  5
AD8
331
A5A
  5
A5A
331
A99
  5
A99
331
A1F
  5
A1F
331
3F6
  5
449
331
3F2
  5
448
331
451
  5
482
331
A17
  5
A17
331
A13
  5
A13
331
3EE
  5
3F5
331
44D
  5
47F
331
48C
  5
493
331
488
  5
48F
331
D96
  5
165D
331
D92
  5
1659
331
1217
  5
16AE
331
D8E
  5
1653
331
D8A
  5
164F
331
D65
  5
1221
331
C76
  5
DBD
331
167F
  5
D98
331
16BE
  5
C50
331
DE0
  5
1699
331
D61
  5
121D
331
C72
  5
DB9
331
167B
  5
168C
331
16BA
  5
C65
331
C07
  5
C0C
331
1143
  5
16AC
331
DDC
  5
1695
331
D5D
  5
1219
331
C6E
  5
DB5
331
1677
  5
1692
331
16B6
  5
C74
331
DB9
  5
1680
331
BC4
  5
BC9
331
B17
  5
B1C
331
B4E
  5
B53
331
B8D
  5
B92
331
C03
  5
C08
331
D59
  5
1143
331
C6A
  5
DB1
331
1673
  5
16A6
331
16B2
  5
D00
331
C3D
  5
D6F
331
B89
  5
B8E
331
BC0
  5
BC5
331
BFF
  5
C04
331
A95
  5
A95
331
B13
  5
B18
331
A56
  5
A56
331
B4A
  5
B4F
331
BFB
  5
C00
331
B46
  5
B4B
331
B85
  5
B8A
331
BBC
  5
BC1
331
A91
  5
A91
331
B0F
  5
B14
331
A52
  5
A52
331
163A
  5
1224
331
B0B
  5
B10
331
B42
  5
B47
331
B81
  5
B86
331
A4E
  5
A4E
331
A8D
  5
A8D
331
AC4
  5
AC4
331
BB8
  5
BBD
331
AC0
  5
AC0
331
A4A
  5
A4A
331
A89
  5
A89
331
445
  5
454
331
484
  5
48B
331
A0B
  5
A0B
331
3E2
  5
466
331
480
  5
45F
331
6CB
  5
6CB
331
47C
  5
485
331
478
  5
486
331
D86
  5
164B
331
D82
  5
1647
331
113F
  5
16AA
331
DD4
  5
168F
331
D55
  5
113D
331
C66
  5
DAD
331
16AE
  5
D03
331
D51
  5
1053
331
C62
  5
DA9
331
16AA
  5
D55
331
166B
  5
C4B
331
BF7
  5
BFC
331
C35
  5
C42
331
1053
  5
16A1
331
DB4
  5
167B
331
D4D
  5
F87
331
C5E
  5
DA5
331
16A6
  5
D57
331
BB4
  5
BB9
331
BF3
  5
BF8
331
1636
  5
1228
331
B07
  5
B0C
331
B3E
  5
B43
331
B7D
  5
B82
331
C31
  5
C3E
331
DB0
  5
1677
331
D49
  5
F83
331
C5A
  5
DA1
331
16A2
  5
D5E
331
1632
  5
161D
331
B79
  5
B7E
331
BB0
  5
BB5
331
BEF
  5
BF4
331
ABC
  5
ABC
331
B03
  5
B08
331
B3A
  5
B3F
331
A85
  5
A85
331
162E
  5
1619
331
B36
  5
B3B
331
B75
  5
B7A
331
BAC
  5
BB1
331
A81
  5
A81
331
AB8
  5
AB8
331
AFF
  5
B04
331
BEB
  5
BF0
331
162A
  5
1629
331
AFB
  5
AFD
331
B32
  5
B37
331
B71
  5
B76
331
A7D
  5
A7D
331
AB4
  5
AB4
331
BA8
  5
BAD
331
A79
  5
A79
331
AB0
  5
AB0
331
4AF
  5
4B1
331
4AB
  5
4AD
331
A36
  5
A36
331
429
  5
477
331
A32
  5
A32
331
425
  5
473
331
470
  5
42A
331
104F
  5
169D
331
DAD
  5
1674
331
DA9
  5
1670
331
169E
  5
D64
331
169A
  5
D6D
331
BE7
  5
BEC
331
F87
  5
C38
331
D7C
  5
163C
331
1696
  5
D7B
331
BE3
  5
BE8
331
F83
  5
C28
331
1626
  5
1625
331
AF7
  5
AF9
331
B6D
  5
B72
331
4B1
  5
567
331
C56
  5
D9D
331
1692
  5
D83
331
D09
  5
AF0
331
1622
  5
1621
331
B69
  5
B6E
331
AF3
  5
AF5
331
A75
  5
A75
331
BDF
  5
BE4
331
C52
  5
D99
331
161E
  5
162F
331
B2E
  5
B33
331
B65
  5
B6A
331
BA4
  5
BA9
331
A71
  5
A71
331
AEF
  5
AF1
331
BDB
  5
BE0
331
1659
  5
D52
331
161A
  5
162B
331
B2A
  5
B2F
331
B61
  5
B66
331
BA0
  5
BA5
331
A6D
  5
A6D
331
AAC
  5
AAC
331
AEB
  5
AEB
331
A69
  5
A69
331
AA8
  5
AA8
331
49F
  5
4A1
331
A2E
  5
A2E
331
49B
  5
49D
331
40D
  5
40C
331
A26
  5
A26
331
497
  5
499
331
A22
  5
A22
331
DA5
  5
166C
331
DA1
  5
1668
331
1226
  5
16BD
331
D9D
  5
1664
331
1222
  5
16B9
331
D99
  5
1660
331
D74
  5
1614
331
D05
  5
E76
331
168E
  5
D87
331
121E
  5
16B5
331
E77
  5
169B
331
D70
  5
1610
331
D01
  5
DDB
331
168A
  5
D8B
331
BD7
  5
BDC
331
402
  5
44C
331
121A
  5
16B1
331
D6C
  5
160C
331
1686
  5
D93
331
C4A
  5
D8E
331
CFD
  5
B02
331
B9C
  5
BA1
331
BD3
  5
BD8
331
1616
  5
1637
331
AE7
  5
AE7
331
B26
  5
B2B
331
B5D
  5
B62
331
1682
  5
D97
331
1651
  5
D5C
331
1612
  5
1633
331
B59
  5
B5E
331
B98
  5
B9D
331
BCF
  5
BD4
331
AA4
  5
AA4
331
AE3
  5
AE3
331
B22
  5
B27
331
A65
  5
A65
331
C42
  5
D76
331
160E
  5
1686
331
B55
  5
B5A
331
B94
  5
B99
331
BCB
  5
BD0
331
A61
  5
A61
331
AA0
  5
AA0
331
ADF
  5
ADF
331
B1E
  5
B23
331
B1A
  5
B1F
331
B51
  5
B56
331
B90
  5
B95
331
A5D
  5
A5D
331
A9C
  5
A9C
331
ADB
  5
ADB
331
A59
  5
A59
331
A1E
  5
A1E
331
454
  5
453
331
A1A
  5
A1A
331
A16
  5
A16
331
3F1
  5
465
331
450
  5
480
331
48F
  5
45D
331
A12
  5
A12
331
3ED
  5
3F7
331
48B
  5
492
331
D95
  5
165C
331
D91
  5
1658
331
1216
  5
16AD
331
D8D
  5
1652
331
D89
  5
164E
331
D64
  5
1220
331
C75
  5
DBC
331
167E
  5
1689
331
16BD
  5
C61
331
DDF
  5
1698
331
D60
  5
121C
331
C71
  5
DB8
331
167A
  5
168B
331
16B9
  5
C6E
331
DBC
  5
1683
331
BC7
  5
BCC
331
C06
  5
C0B
331
1142
  5
16AB
331
DDB
  5
1694
331
D5C
  5
1218
331
C6D
  5
DB4
331
1676
  5
1691
331
16B5
  5
C73
331
DB8
  5
167F
331
B8C
  5
B91
331
BC3
  5
BC8
331
C02
  5
C07
331
AD7
  5
AD7
331
B16
  5
B1B
331
B4D
  5
B52
331
D58
  5
1142
331
C69
  5
DB0
331
16B1
  5
CFF
331
1672
  5
16A5
331
B88
  5
B8D
331
BBF
  5
BC4
331
BFE
  5
C03
331
6BA
  5
6BA
331
A94
  5
A94
331
B12
  5
B17
331
A55
  5
A55
331
B49
  5
B4E
331
BFA
  5
BFF
331
163D
  5
1227
331
B45
  5
B4A
331
B84
  5
B89
331
BBB
  5
BC0
331
A51
  5
A51
331
A90
  5
A90
331
B0E
  5
B13
331
1639
  5
1609
331
B0A
  5
B0F
331
B41
  5
B46
331
B80
  5
B85
331
A4D
  5
A4D
331
A8C
  5
A8C
331
AC3
  5
AC3
331
A49
  5
A49
331
A88
  5
A88
  0
XRECORD
  5
16C6
102
{ACAD_REACTORS
330
16C4
102
}
330
16C4
100
AcDbXrecord
280
     1
 70
     2
  0
XRECORD
  5
16C5
102
{ACAD_REACTORS
330
16C4
102
}
330
16C4
100
AcDbXrecord
280
     1
 40
1.25
  0
XRECORD
  5
16C7
102
{ACAD_REACTORS
330
16C4
102
}
330
16C4
100
AcDbXrecord
280
     1
 40
1.570796326794896
  0
LAYOUT
  5
6E
102
{ACAD_XDICTIONARY
360
16FB
102
}
102
{ACAD_REACTORS
330
61
102
}
330
61
100
AcDbPlotSettings
  1

  2
none_device
  4
Letter_(8.50_x_11.00_Inches)
  6

 40
6.349999904632567
 41
6.349999904632567
 42
6.350006103515625
 43
6.350006103515625
 44
215.8999938964844
 45
279.3999938964844
 46
0.0
 47
0.0
 48
0.0
 49
0.0
140
0.0
141
0.0
142
1.0
143
69.88593791208365
 70
 11952
 72
     0
 73
     1
 74
     0
  7

 75
     0
147
0.0143090302552425
148
5059.627129892666
149
13703.28290901505
100
AcDbLayout
  1
Model
 70
     1
 71
     0
 10
0.0
 20
0.0
 11
12.0
 21
9.0
 12
0.0
 22
0.0
 32
0.0
 14
0.0
 24
0.0
 34
0.0
 15
0.0
 25
0.0
 35
0.0
146
0.0
 13
0.0
 23
0.0
 33
0.0
 16
1.0
 26
0.0
 36
0.0
 17
0.0
 27
1.0
 37
0.0
 76
     0
330
6B
331
8B
1001
ACAD_PSEXT
1000
なし
1000
なし
1000
適切ではありません
1000
新しいプロッタ環境設定名を選択しない限り、レイアウトは印刷されません。
1070
     0
  0
LAYOUT
  5
6A
102
{ACAD_XDICTIONARY
360
16F9
102
}
102
{ACAD_REACTORS
330
61
102
}
330
61
100
AcDbPlotSettings
  1

  2
FX DP 205
  4

  6

 40
0.0
 41
0.0
 42
0.0
 43
0.0
 44
0.0
 45
0.0
 46
0.0
 47
0.0
 48
0.0
 49
0.0
140
0.0
141
0.0
142
1.0
143
1.0
 70
   688
 72
     0
 73
     0
 74
     5
  7

 75
    16
147
1.0
148
0.0
149
0.0
100
AcDbLayout
  1
レイアウト1
 70
     1
 71
     1
 10
0.0
 20
0.0
 11
12.0
 21
9.0
 12
0.0
 22
0.0
 32
0.0
 14
1.000000000000000E+20
 24
1.000000000000000E+20
 34
1.000000000000000E+20
 15
-1.000000000000000E+20
 25
-1.000000000000000E+20
 35
-1.000000000000000E+20
146
0.0
 13
0.0
 23
0.0
 33
0.0
 16
1.0
 26
0.0
 36
0.0
 17
0.0
 27
1.0
 37
0.0
 76
     0
330
67
  0
MATERIAL
  5
19
102
{ACAD_XDICTIONARY
360
1A
102
}
102
{ACAD_REACTORS
330
10
102
}
330
10
100
AcDbMaterial
  1
ByBlock
 72
     0
 43
0.0208333333333333
 43
0.0
 43
0.0
 43
0.0
 43
0.0
 43
0.0208333333333333
 43
0.0
 43
0.0
 43
0.0
 43
0.0
 43
1.0
 43
0.0
 43
0.0
 43
0.0
 43
0.0
 43
1.0
 77
     0
 47
0.0208333333333333
 47
0.0
 47
0.0
 47
0.0
 47
0.0
 47
0.0208333333333333
 47
0.0
 47
0.0
 47
0.0
 47
0.0
 47
1.0
 47
0.0
 47
0.0
 47
0.0
 47
0.0
 47
1.0
171
     0
 49
0.0208333333333333
 49
0.0
 49
0.0
 49
0.0
 49
0.0
 49
0.0208333333333333
 49
0.0
 49
0.0
 49
0.0
 49
0.0
 49
1.0
 49
0.0
 49
0.0
 49
0.0
 49
0.0
 49
1.0
175
     0
142
0.0208333333333333
142
0.0
142
0.0
142
0.0
142
0.0
142
0.0208333333333333
142
0.0
142
0.0
142
0.0
142
0.0
142
1.0
142
0.0
142
0.0
142
0.0
142
0.0
142
1.0
179
     0
144
0.0208333333333333
144
0.0
144
0.0
144
0.0
144
0.0
144
0.0208333333333333
144
0.0
144
0.0
144
0.0
144
0.0
144
1.0
144
0.0
144
0.0
144
0.0
144
0.0
144
1.0
147
0.0208333333333333
147
0.0
147
0.0
147
0.0
147
0.0
147
0.0208333333333333
147
0.0
147
0.0
147
0.0
147
0.0
147
1.0
147
0.0
147
0.0
147
0.0
147
0.0
147
1.0
  0
MATERIAL
  5
11
102
{ACAD_XDICTIONARY
360
12
102
}
102
{ACAD_REACTORS
330
10
102
}
330
10
100
AcDbMaterial
  1
ByLayer
 72
     0
 43
0.0208333333333333
 43
0.0
 43
0.0
 43
0.0
 43
0.0
 43
0.0208333333333333
 43
0.0
 43
0.0
 43
0.0
 43
0.0
 43
1.0
 43
0.0
 43
0.0
 43
0.0
 43
0.0
 43
1.0
 77
     0
 47
0.0208333333333333
 47
0.0
 47
0.0
 47
0.0
 47
0.0
 47
0.0208333333333333
 47
0.0
 47
0.0
 47
0.0
 47
0.0
 47
1.0
 47
0.0
 47
0.0
 47
0.0
 47
0.0
 47
1.0
171
     0
 49
0.0208333333333333
 49
0.0
 49
0.0
 49
0.0
 49
0.0
 49
0.0208333333333333
 49
0.0
 49
0.0
 49
0.0
 49
0.0
 49
1.0
 49
0.0
 49
0.0
 49
0.0
 49
0.0
 49
1.0
175
     0
142
0.0208333333333333
142
0.0
142
0.0
142
0.0
142
0.0
142
0.0208333333333333
142
0.0
142
0.0
142
0.0
142
0.0
142
1.0
142
0.0
142
0.0
142
0.0
142
0.0
142
1.0
179
     0
144
0.0208333333333333
144
0.0
144
0.0
144
0.0
144
0.0
144
0.0208333333333333
144
0.0
144
0.0
144
0.0
144
0.0
144
1.0
144
0.0
144
0.0
144
0.0
144
0.0
144
1.0
147
0.0208333333333333
147
0.0
147
0.0
147
0.0
147
0.0
147
0.0208333333333333
147
0.0
147
0.0
147
0.0
147
0.0
147
1.0
147
0.0
147
0.0
147
0.0
147
0.0
147
1.0
  0
MATERIAL
  5
21
102
{ACAD_XDICTIONARY
360
22
102
}
102
{ACAD_REACTORS
330
10
102
}
330
10
100
AcDbMaterial
  1
Global
 72
     0
 43
0.0208333333333333
 43
0.0
 43
0.0
 43
0.0
 43
0.0
 43
0.0208333333333333
 43
0.0
 43
0.0
 43
0.0
 43
0.0
 43
1.0
 43
0.0
 43
0.0
 43
0.0
 43
0.0
 43
1.0
 77
     0
 47
0.0208333333333333
 47
0.0
 47
0.0
 47
0.0
 47
0.0
 47
0.0208333333333333
 47
0.0
 47
0.0
 47
0.0
 47
0.0
 47
1.0
 47
0.0
 47
0.0
 47
0.0
 47
0.0
 47
1.0
171
     0
 49
0.0208333333333333
 49
0.0
 49
0.0
 49
0.0
 49
0.0
 49
0.0208333333333333
 49
0.0
 49
0.0
 49
0.0
 49
0.0
 49
1.0
 49
0.0
 49
0.0
 49
0.0
 49
0.0
 49
1.0
175
     0
142
0.0208333333333333
142
0.0
142
0.0
142
0.0
142
0.0
142
0.0208333333333333
142
0.0
142
0.0
142
0.0
142
0.0
142
1.0
142
0.0
142
0.0
142
0.0
142
0.0
142
1.0
179
     0
144
0.0208333333333333
144
0.0
144
0.0
144
0.0
144
0.0
144
0.0208333333333333
144
0.0
144
0.0
144
0.0
144
0.0
144
1.0
144
0.0
144
0.0
144
0.0
144
0.0
144
1.0
147
0.0208333333333333
147
0.0
147
0.0
147
0.0
147
0.0
147
0.0208333333333333
147
0.0
147
0.0
147
0.0
147
0.0
147
1.0
147
0.0
147
0.0
147
0.0
147
0.0
147
1.0
  0
MLEADERSTYLE
  5
66
102
{ACAD_REACTORS
330
65
102
}
330
65
100
AcDbMLeaderStyle
170
     2
171
     1
172
     0
 90
        2
 40
0.0
 41
0.0
173
     1
 91
-1056964608
340
5A
 92
       -2
290
     1
 42
0.09
291
     1
 43
0.36
  3
Standard
 44
0.18
300

342
55
174
     1
178
     6
175
     1
176
     0
 93
-1056964608
 45
0.18
292
     0
297
     0
 46
0.18
 94
-1056964608
 47
1.0
 49
1.0
140
1.0
293
     1
141
0.0
294
     1
177
     0
142
1.0
295
     0
296
     0
143
0.125
1001
ACAD_MLEADERVER
1070
     2
  0
MLINESTYLE
  5
5F
102
{ACAD_REACTORS
330
5E
102
}
330
5E
100
AcDbMlineStyle
  2
STANDARD
 70
     0
  3

 62
   256
 51
90.0
 52
90.0
 71
     2
 49
0.5
 62
   256
  6
BYLAYER
 49
-0.5
 62
   256
  6
BYLAYER
  0
ACDBPLACEHOLDER
  5
F
102
{ACAD_REACTORS
330
E
102
}
330
E
  0
SCALE
  5
43
102
{ACAD_REACTORS
330
42
102
}
330
42
100
AcDbScale
 70
     0
300
1:1
140
1.0
141
1.0
290
     1
  0
SCALE
  5
44
102
{ACAD_REACTORS
330
42
102
}
330
42
100
AcDbScale
 70
     0
300
1/128" = 1'-0"
140
0.0078125
141
12.0
290
     0
  0
SCALE
  5
45
102
{ACAD_REACTORS
330
42
102
}
330
42
100
AcDbScale
 70
     0
300
1/64" = 1'-0"
140
0.015625
141
12.0
290
     0
  0
SCALE
  5
46
102
{ACAD_REACTORS
330
42
102
}
330
42
100
AcDbScale
 70
     0
300
1/32" = 1'-0"
140
0.03125
141
12.0
290
     0
  0
SCALE
  5
47
102
{ACAD_REACTORS
330
42
102
}
330
42
100
AcDbScale
 70
     0
300
1/16" = 1'-0"
140
0.0625
141
12.0
290
     0
  0
SCALE
  5
48
102
{ACAD_REACTORS
330
42
102
}
330
42
100
AcDbScale
 70
     0
300
3/32" = 1'-0"
140
0.09375
141
12.0
290
     0
  0
SCALE
  5
49
102
{ACAD_REACTORS
330
42
102
}
330
42
100
AcDbScale
 70
     0
300
1/8" = 1'-0"
140
0.125
141
12.0
290
     0
  0
SCALE
  5
4A
102
{ACAD_REACTORS
330
42
102
}
330
42
100
AcDbScale
 70
     0
300
3/16" = 1'-0"
140
0.1875
141
12.0
290
     0
  0
SCALE
  5
4B
102
{ACAD_REACTORS
330
42
102
}
330
42
100
AcDbScale
 70
     0
300
1/4" = 1'-0"
140
0.25
141
12.0
290
     0
  0
SCALE
  5
4C
102
{ACAD_REACTORS
330
42
102
}
330
42
100
AcDbScale
 70
     0
300
3/8" = 1'-0"
140
0.375
141
12.0
290
     0
  0
SCALE
  5
4D
102
{ACAD_REACTORS
330
42
102
}
330
42
100
AcDbScale
 70
     0
300
1/2" = 1'-0"
140
0.5
141
12.0
290
     0
  0
SCALE
  5
4E
102
{ACAD_REACTORS
330
42
102
}
330
42
100
AcDbScale
 70
     0
300
3/4" = 1'-0"
140
0.75
141
12.0
290
     0
  0
SCALE
  5
4F
102
{ACAD_REACTORS
330
42
102
}
330
42
100
AcDbScale
 70
     0
300
1" = 1'-0"
140
1.0
141
12.0
290
     0
  0
SCALE
  5
50
102
{ACAD_REACTORS
330
42
102
}
330
42
100
AcDbScale
 70
     0
300
1-1/2" = 1'-0"
140
1.5
141
12.0
290
     0
  0
SCALE
  5
51
102
{ACAD_REACTORS
330
42
102
}
330
42
100
AcDbScale
 70
     0
300
3" = 1'-0"
140
3.0
141
12.0
290
     0
  0
SCALE
  5
52
102
{ACAD_REACTORS
330
42
102
}
330
42
100
AcDbScale
 70
     0
300
6" = 1'-0"
140
6.0
141
12.0
290
     0
  0
SCALE
  5
53
102
{ACAD_REACTORS
330
42
102
}
330
42
100
AcDbScale
 70
     0
300
1'-0" = 1'-0"
140
12.0
141
12.0
290
     0
  0
TABLESTYLE
  5
64
102
{ACAD_XDICTIONARY
360
6E1
102
}
102
{ACAD_REACTORS
330
63
102
}
330
63
100
AcDbTableStyle
  3
Standard
 70
     0
 71
     0
 40
0.06
 41
0.06
280
     0
281
     0
  7
STANDARD
140
0.18
170
     2
 62
     0
 63
     7
283
     0
274
    -2
284
     1
 64
     0
275
    -2
285
     1
 65
     0
276
    -2
286
     1
 66
     0
277
    -2
287
     1
 67
     0
278
    -2
288
     1
 68
     0
279
    -2
289
     1
 69
     0
  7
STANDARD
140
0.25
170
     5
 62
     0
 63
     7
283
     0
274
    -2
284
     1
 64
     0
275
    -2
285
     1
 65
     0
276
    -2
286
     1
 66
     0
277
    -2
287
     1
 67
     0
278
    -2
288
     1
 68
     0
279
    -2
289
     1
 69
     0
  7
STANDARD
140
0.18
170
     5
 62
     0
 63
     7
283
     0
274
    -2
284
     1
 64
     0
275
    -2
285
     1
 65
     0
276
    -2
286
     1
 66
     0
277
    -2
287
     1
 67
     0
278
    -2
288
     1
 68
     0
279
    -2
289
     1
 69
     0
  0
VISUALSTYLE
  5
2F
102
{ACAD_XDICTIONARY
360
16D2
102
}
102
{ACAD_REACTORS
330
29
102
}
330
29
100
AcDbVisualStyle
  2

 70
     4
 71
     0
 72
     2
 73
     0
 90
        0
 40
-0.6
 41
-30.0
 62
     5
 63
     7
 74
     1
 91
        4
 64
     7
 65
   257
 75
     1
175
     1
 42
1.0
 92
        0
 66
   257
 43
1.0
 76
     1
 77
     6
 78
     2
 67
     7
 79
     5
170
     0
171
     0
290
     0
174
     0
 93
        1
 44
0.0
173
     0
291
     0
 45
0.0
1001
ACAD
1000
AcDbSavedByObjectVersion
1070
     0
  0
VISUALSTYLE
  5
555
102
{ACAD_XDICTIONARY
360
16FD
102
}
102
{ACAD_REACTORS
330
29
102
}
330
29
100
AcDbVisualStyle
  2

 70
     5
 71
     0
 72
     2
 73
     1
 90
        0
 40
-0.6
 41
-30.0
 62
     5
 63
     7
 74
     1
 91
        4
 64
     7
 65
   257
 75
     1
175
     1
 42
1.0
 92
        0
 66
   257
 43
1.0
 76
     1
 77
     6
 78
     2
 67
     7
 79
     5
170
     0
171
     0
290
     0
174
     0
 93
        1
 44
0.0
173
     0
291
     0
 45
0.0
1001
ACAD
1000
AcDbSavedByObjectVersion
1070
     0
  0
VISUALSTYLE
  5
2E
102
{ACAD_XDICTIONARY
360
16D0
102
}
102
{ACAD_REACTORS
330
29
102
}
330
29
100
AcDbVisualStyle
  2

 70
     7
 71
     1
 72
     0
 73
     1
 90
        0
 40
-0.6
 41
-30.0
 62
     5
 63
     7
 74
     0
 91
        4
 64
     7
 65
   257
 75
     1
175
     1
 42
1.0
 92
        8
 66
     7
 43
1.0
 76
     1
 77
     6
 78
     2
 67
     7
 79
     5
170
     0
171
     0
290
     0
174
     0
 93
        1
 44
0.0
173
     0
291
     1
 45
0.0
1001
ACAD
1000
AcDbSavedByObjectVersion
1070
     0
  0
VISUALSTYLE
  5
35
102
{ACAD_XDICTIONARY
360
16DE
102
}
102
{ACAD_REACTORS
330
29
102
}
330
29
100
AcDbVisualStyle
  2

 70
    12
 71
     2
 72
     2
 73
     0
 90
        0
 40
-0.6
 41
-30.0
 62
     5
 63
     7
 74
     1
 91
        4
 64
     7
 65
   257
 75
     1
175
     1
 42
1.0
 92
        8
 66
     7
 43
1.0
 76
     1
 77
     6
 78
     2
 67
     7
 79
     5
170
     0
171
     0
290
     0
174
     0
 93
        1
 44
50.0
173
     0
291
     1
 45
0.0
1001
ACAD
1000
AcDbSavedByObjectVersion
1070
     0
  0
VISUALSTYLE
  5
39
102
{ACAD_XDICTIONARY
360
16E6
102
}
102
{ACAD_REACTORS
330
29
102
}
330
29
100
AcDbVisualStyle
  2

 70
    16
 71
     2
 72
     2
 73
     3
 90
        0
 40
-0.6
 41
-30.0
 62
     5
 63
     8
 74
     1
 91
        4
 64
     7
 65
   257
 75
     1
175
     1
 42
1.0
 92
        8
 66
     8
 43
1.0
 76
     1
 77
     6
 78
     2
 67
     7
 79
     5
170
     0
171
     0
290
     0
174
     0
 93
        1
 44
0.0
173
     0
291
     1
 45
0.0
1001
ACAD
1000
AcDbSavedByObjectVersion
1070
     0
  0
VISUALSTYLE
  5
32
102
{ACAD_XDICTIONARY
360
16D8
102
}
102
{ACAD_REACTORS
330
29
102
}
330
29
100
AcDbVisualStyle
  2

 70
     9
 71
     3
 72
     2
 73
     0
 90
        0
 40
-0.6
 41
-30.0
 62
     5
 63
     7
 74
     2
 91
        2
 64
     7
 65
   257
 75
     1
175
     1
 42
179.0
 92
        8
 66
     7
 43
1.0
 76
     1
 77
     6
 78
     2
 67
     7
 79
     3
170
     0
171
     0
290
     0
174
     0
 93
        1
 44
0.0
173
     0
291
     0
 45
0.0
1001
ACAD
1000
AcDbSavedByObjectVersion
1070
     0
  0
VISUALSTYLE
  5
34
102
{ACAD_XDICTIONARY
360
16DC
102
}
102
{ACAD_REACTORS
330
29
102
}
330
29
100
AcDbVisualStyle
  2

 70
    11
 71
     2
 72
     2
 73
     0
 90
        0
 40
-0.6
 41
-30.0
 62
     5
 63
     7
 74
     1
 91
        4
 64
     7
 65
   257
 75
     1
175
     1
 42
1.0
 92
        8
 66
     7
 43
1.0
 76
     1
 77
     6
 78
     2
 67
     7
 79
     5
170
     0
171
     0
290
     0
174
     0
 93
        1
 44
-50.0
173
     0
291
     1
 45
0.0
1001
ACAD
1000
AcDbSavedByObjectVersion
1070
     0
  0
VISUALSTYLE
  5
41
102
{ACAD_XDICTIONARY
360
16F6
102
}
102
{ACAD_REACTORS
330
29
102
}
330
29
100
AcDbVisualStyle
  2

 70
    22
 71
     2
 72
     2
 73
     0
 90
        0
 40
-0.6
 41
-30.0
 62
     5
 63
     7
 74
     1
 91
        4
 64
     7
 65
   257
 75
     1
175
     1
 42
1.0
 92
        8
 66
     7
 43
1.0
 76
     1
 77
     6
 78
     2
 67
     7
 79
     5
170
     0
171
     0
290
     0
174
     0
 93
        1
 44
0.0
173
     0
291
     1
 45
0.0
1001
ACAD
1000
AcDbSavedByObjectVersion
1070
     0
  0
VISUALSTYLE
  5
38
102
{ACAD_XDICTIONARY
360
16E4
102
}
102
{ACAD_REACTORS
330
29
102
}
330
29
100
AcDbVisualStyle
  2

 70
    15
 71
     2
 72
     2
 73
     0
 90
        0
 40
-0.6
 41
-30.0
 62
     5
 63
     7
 74
     1
 91
        4
 64
     7
 65
   257
 75
     1
175
     1
 42
1.0
 92
        8
 66
     7
 43
1.0
 76
     1
 77
     6
 78
     2
 67
     7
 79
     5
170
     0
171
     0
290
     0
174
     0
 93
        1
 44
0.0
173
     0
291
     1
 45
0.0
1001
ACAD
1000
AcDbSavedByObjectVersion
1070
     0
  0
VISUALSTYLE
  5
2A
102
{ACAD_XDICTIONARY
360
16C8
102
}
102
{ACAD_REACTORS
330
29
102
}
330
29
100
AcDbVisualStyle
  2

 70
     0
 71
     2
 72
     1
 73
     1
 90
        2
 40
-0.6
 41
30.0
 62
     5
 63
     7
 74
     0
 91
        0
 64
     7
 65
   257
 75
     1
175
     1
 42
1.0
 92
        8
 66
     7
 43
1.0
 76
     1
 77
     6
 78
     2
 67
     7
 79
     5
170
     0
171
     0
290
     0
174
     0
 93
       13
 44
0.0
173
     0
291
     1
 45
0.0
1001
ACAD
1000
AcDbSavedByObjectVersion
1070
     0
  0
VISUALSTYLE
  5
2B
102
{ACAD_XDICTIONARY
360
16CA
102
}
102
{ACAD_REACTORS
330
29
102
}
330
29
100
AcDbVisualStyle
  2

 70
     1
 71
     2
 72
     1
 73
     1
 90
        2
 40
-0.6
 41
30.0
 62
     5
 63
     7
 74
     1
 91
        0
 64
     7
 65
   257
 75
     1
175
     1
 42
1.0
 92
        0
 66
   257
 43
1.0
 76
     1
 77
     6
 78
     2
 67
     7
 79
     5
170
     0
171
     0
290
     0
174
     0
 93
       13
 44
0.0
173
     0
291
     1
 45
0.0
1001
ACAD
1000
AcDbSavedByObjectVersion
1070
     0
  0
VISUALSTYLE
  5
2C
102
{ACAD_XDICTIONARY
360
16CC
102
}
102
{ACAD_REACTORS
330
29
102
}
330
29
100
AcDbVisualStyle
  2

 70
     2
 71
     2
 72
     2
 73
     1
 90
        2
 40
-0.6
 41
30.0
 62
     5
 63
     7
 74
     0
 91
        0
 64
     7
 65
   257
 75
     1
175
     1
 42
1.0
 92
        0
 66
     7
 43
1.0
 76
     1
 77
     6
 78
     2
 67
     7
 79
     5
170
     0
171
     0
290
     0
174
     0
 93
       13
 44
0.0
173
     0
291
     1
 45
0.0
1001
ACAD
1000
AcDbSavedByObjectVersion
1070
     0
  0
VISUALSTYLE
  5
2D
102
{ACAD_XDICTIONARY
360
16CE
102
}
102
{ACAD_REACTORS
330
29
102
}
330
29
100
AcDbVisualStyle
  2

 70
     3
 71
     2
 72
     2
 73
     1
 90
        2
 40
-0.6
 41
30.0
 62
     5
 63
     7
 74
     1
 91
        0
 64
     7
 65
   257
 75
     1
175
     1
 42
1.0
 92
        0
 66
   257
 43
1.0
 76
     1
 77
     6
 78
     2
 67
     7
 79
     5
170
     0
171
     0
290
     0
174
     0
 93
       13
 44
0.0
173
     0
291
     1
 45
0.0
1001
ACAD
1000
AcDbSavedByObjectVersion
1070
     0
  0
VISUALSTYLE
  5
31
102
{ACAD_XDICTIONARY
360
16D6
102
}
102
{ACAD_REACTORS
330
29
102
}
330
29
100
AcDbVisualStyle
  2

 70
     6
 71
     1
 72
     2
 73
     2
 90
        0
 40
-0.6
 41
-30.0
 62
     5
 63
     7
 74
     2
 91
        2
 64
     7
 65
   257
 75
     2
175
     1
 42
40.0
 92
        0
 66
   257
 43
1.0
 76
     1
 77
     6
 78
     2
 67
     7
 79
     3
170
     0
171
     0
290
     0
174
     0
 93
        1
 44
0.0
173
     0
291
     0
 45
0.0
1001
ACAD
1000
AcDbSavedByObjectVersion
1070
     0
  0
VISUALSTYLE
  5
3F
102
{ACAD_XDICTIONARY
360
16F2
102
}
102
{ACAD_REACTORS
330
29
102
}
330
29
100
AcDbVisualStyle
  2

 70
    20
 71
     2
 72
     2
 73
     0
 90
        0
 40
-0.6
 41
-30.0
 62
     5
 63
     7
 74
     1
 91
        4
 64
     7
 65
   257
 75
     1
175
     1
 42
1.0
 92
       10
 66
     7
 43
1.0
 76
     1
 77
     6
 78
     2
 67
     7
 79
     5
170
     0
171
     0
290
     0
174
     0
 93
        1
 44
0.0
173
     0
291
     1
 45
0.0
1001
ACAD
1000
AcDbSavedByObjectVersion
1070
     0
  0
VISUALSTYLE
  5
37
102
{ACAD_XDICTIONARY
360
16E2
102
}
102
{ACAD_REACTORS
330
29
102
}
330
29
100
AcDbVisualStyle
  2

 70
    14
 71
     2
 72
     2
 73
     0
 90
        0
 40
-0.6
 41
-30.0
 62
     5
 63
     7
 74
     1
 91
        4
 64
     7
 65
   257
 75
     7
175
     7
 42
1.0
 92
        8
 66
     7
 43
1.0
 76
     1
 77
     6
 78
     2
 67
     7
 79
     5
170
     0
171
     0
290
     0
174
     0
 93
        1
 44
0.0
173
     0
291
     1
 45
0.0
1001
ACAD
1000
AcDbSavedByObjectVersion
1070
     0
  0
VISUALSTYLE
  5
40
102
{ACAD_XDICTIONARY
360
16F4
102
}
102
{ACAD_REACTORS
330
29
102
}
330
29
100
AcDbVisualStyle
  2

 70
    21
 71
     2
 72
     2
 73
     0
 90
        0
 40
-0.6
 41
-30.0
 62
     5
 63
     7
 74
     1
 91
        4
 64
     7
 65
   257
 75
     1
175
     1
 42
1.0
 92
        9
 66
     7
 43
1.0
 76
     1
 77
     6
 78
     2
 67
     7
 79
     5
170
     0
171
     0
290
     0
174
     0
 93
        1
 44
0.0
173
     0
291
     1
 45
0.0
1001
ACAD
1000
AcDbSavedByObjectVersion
1070
     0
  0
VISUALSTYLE
  5
33
102
{ACAD_XDICTIONARY
360
16DA
102
}
102
{ACAD_REACTORS
330
29
102
}
330
29
100
AcDbVisualStyle
  2

 70
     8
 71
     2
 72
     3
 73
     0
 90
        2
 40
-0.6
 41
30.0
 62
     5
 63
     7
 74
     0
 91
        0
 64
     7
 65
   257
 75
     1
175
     1
 42
1.0
 92
        8
 66
   257
 43
1.0
 76
     1
 77
     6
 78
     2
 67
     7
 79
     3
170
     0
171
     0
290
     0
174
     0
 93
       13
 44
0.0
173
     0
291
     0
 45
0.0
1001
ACAD
1000
AcDbSavedByObjectVersion
1070
     0
  0
VISUALSTYLE
  5
3E
102
{ACAD_XDICTIONARY
360
16F0
102
}
102
{ACAD_REACTORS
330
29
102
}
330
29
100
AcDbVisualStyle
  2

 70
    27
 71
     2
 72
     2
 73
     1
 90
        2
 40
-0.6
 41
30.0
 62
     5
 63
     7
 74
     0
 91
        4
 64
     7
 65
   257
 75
     1
175
     1
 42
1.0
 92
        8
 66
   257
 43
1.0
 76
     1
 77
     6
 78
     2
 67
     8
 79
     3
170
     0
171
     0
290
     0
174
     0
 93
        5
 44
0.0
173
     0
291
     0
 45
0.0
1001
ACAD
1000
AcDbSavedByObjectVersion
1070
     0
  0
VISUALSTYLE
  5
3D
102
{ACAD_XDICTIONARY
360
16EE
102
}
102
{ACAD_REACTORS
330
29
102
}
330
29
100
AcDbVisualStyle
  2

 70
    26
 71
     2
 72
     2
 73
     1
 90
        2
 40
-0.6
 41
30.0
 62
     5
 63
     7
 74
     1
 91
       10
 64
     7
 65
   257
 75
     2
175
     1
 42
1.0
 92
        8
 66
   257
 43
1.0
 76
     1
 77
     6
 78
     2
 67
     7
 79
     3
170
     0
171
     0
290
     0
174
     0
 93
        5
 44
0.0
173
     0
291
     0
 45
0.0
1001
ACAD
1000
AcDbSavedByObjectVersion
1070
     0
  0
VISUALSTYLE
  5
3A
102
{ACAD_XDICTIONARY
360
16E8
102
}
102
{ACAD_REACTORS
330
29
102
}
330
29
100
AcDbVisualStyle
  2

 70
    23
 71
     2
 72
     2
 73
     3
 90
        0
 40
-0.6
 41
-30.0
 62
     5
 63
     7
 74
     2
 91
        2
 64
     7
 65
     7
 75
     1
175
     1
 42
40.0
 92
        8
 66
     7
 43
1.0
 76
     1
 77
     6
 78
     2
 67
     7
 79
     3
170
     0
171
     0
290
     0
174
     0
 93
        1
 44
0.0
173
     0
291
     0
 45
0.0
1001
ACAD
1000
AcDbSavedByObjectVersion
1070
     0
  0
VISUALSTYLE
  5
3B
102
{ACAD_XDICTIONARY
360
16EA
102
}
102
{ACAD_REACTORS
330
29
102
}
330
29
100
AcDbVisualStyle
  2

 70
    24
 71
     1
 72
     2
 73
     2
 90
        0
 40
-0.6
 41
-30.0
 62
     5
 63
     7
 74
     2
 91
        2
 64
     7
 65
     7
 75
     1
175
     1
 42
40.0
 92
       11
 66
     7
 43
1.0
 76
     1
 77
     6
 78
     2
 67
     7
 79
     6
170
     0
171
     0
290
     0
174
     0
 93
        1
 44
0.0
173
     0
291
     0
 45
0.0
1001
ACAD
1000
AcDbSavedByObjectVersion
1070
     0
  0
VISUALSTYLE
  5
36
102
{ACAD_XDICTIONARY
360
16E0
102
}
102
{ACAD_REACTORS
330
29
102
}
330
29
100
AcDbVisualStyle
  2

 70
    13
 71
     2
 72
     2
 73
     0
 90
        0
 40
-0.6
 41
-30.0
 62
     5
 63
     7
 74
     1
 91
        4
 64
     7
 65
   257
 75
     1
175
     1
 42
1.0
 92
       12
 66
     7
 43
1.0
 76
     1
 77
     6
 78
     2
 67
     7
 79
     5
170
     0
171
     0
290
     0
174
     0
 93
        1
 44
0.0
173
     0
291
     1
 45
0.0
1001
ACAD
1000
AcDbSavedByObjectVersion
1070
     0
  0
VISUALSTYLE
  5
30
102
{ACAD_XDICTIONARY
360
16D4
102
}
102
{ACAD_REACTORS
330
29
102
}
330
29
100
AcDbVisualStyle
  2

 70
     5
 71
     0
 72
     2
 73
     0
 90
        0
 40
-0.6
 41
-30.0
 62
     5
 63
     7
 74
     1
 91
        4
 64
     7
 65
   257
 75
     1
175
     1
 42
1.0
 92
        0
 66
   257
 43
1.0
 76
     1
 77
     6
 78
     2
 67
     7
 79
     3
170
     0
171
     0
290
     0
174
     0
 93
        1
 44
0.0
173
     0
291
     0
 45
0.0
1001
ACAD
1000
AcDbSavedByObjectVersion
1070
     0
  0
VISUALSTYLE
  5
3C
102
{ACAD_XDICTIONARY
360
16EC
102
}
102
{ACAD_REACTORS
330
29
102
}
330
29
100
AcDbVisualStyle
  2

 70
    25
 71
     2
 72
     2
 73
     1
 90
        1
 40
0.5
 41
-30.0
 62
     5
 63
     7
 74
     1
 91
        0
 64
     7
 65
   257
 75
     1
175
     1
 42
1.0
 92
        8
 66
     7
 43
1.0
 76
     1
 77
     6
 78
     2
 67
     7
 79
     3
170
     0
171
     0
290
     0
174
     0
 93
       13
 44
0.0
173
     0
291
     0
 45
0.0
1001
ACAD
1000
AcDbSavedByObjectVersion
1070
     0
  0
DICTIONARYVAR
  5
6DC
102
{ACAD_REACTORS
330
6D9
102
}
330
6D9
100
DictionaryVariables
280
     0
  1
1:1
  0
DICTIONARYVAR
  5
6DB
102
{ACAD_REACTORS
330
6D9
102
}
330
6D9
100
DictionaryVariables
280
     0
  1
STANDARD
  0
DICTIONARYVAR
  5
6DA
102
{ACAD_REACTORS
330
6D9
102
}
330
6D9
100
DictionaryVariables
280
     0
  1
STANDARD
  0
DICTIONARYVAR
  5
6DF
102
{ACAD_REACTORS
330
6D9
102
}
330
6D9
100
DictionaryVariables
280
     0
  1
1
  0
DICTIONARYVAR
  5
6DE
102
{ACAD_REACTORS
330
6D9
102
}
330
6D9
100
DictionaryVariables
280
     0
  1
0
  0
DICTIONARYVAR
  5
6DD
102
{ACAD_REACTORS
330
6D9
102
}
330
6D9
100
DictionaryVariables
280
     0
  1
127
  0
DICTIONARYVAR
  5
15C9
102
{ACAD_REACTORS
330
6D9
102
}
330
6D9
100
DictionaryVariables
280
     0
  1
2
  0
DICTIONARY
  5
16FB
330
6E
100
AcDbDictionary
280
     1
281
     1
  3
ACAD_XREC_ROUNDTRIP
360
16FC
  0
DICTIONARY
  5
16F9
330
6A
100
AcDbDictionary
280
     1
281
     1
  3
ACAD_XREC_ROUNDTRIP
360
16FA
  0
DICTIONARY
  5
1A
330
19
100
AcDbDictionary
280
     1
281
     1
  3
ACAD_XREC_ROUNDTRIP
360
6EA
  3
BUMPTILE
360
1C
  3
DIFFUSETILE
360
1B
  3
OPACITYTILE
360
1F
  3
REFLECTIONTILE
360
1E
  3
REFRACTIONTILE
360
20
  3
SPECULARTILE
360
1D
  0
DICTIONARY
  5
12
330
11
100
AcDbDictionary
280
     1
281
     1
  3
ACAD_XREC_ROUNDTRIP
360
6E9
  3
BUMPTILE
360
14
  3
DIFFUSETILE
360
13
  3
OPACITYTILE
360
17
  3
REFLECTIONTILE
360
16
  3
REFRACTIONTILE
360
18
  3
SPECULARTILE
360
15
  0
DICTIONARY
  5
22
330
21
100
AcDbDictionary
280
     1
281
     1
  3
ACAD_XREC_ROUNDTRIP
360
6EB
  3
BUMPTILE
360
24
  3
DIFFUSETILE
360
23
  3
OPACITYTILE
360
27
  3
REFLECTIONTILE
360
26
  3
REFRACTIONTILE
360
28
  3
SPECULARTILE
360
25
  0
DICTIONARY
  5
6E1
330
64
100
AcDbDictionary
280
     1
281
     1
  3
ACAD_ROUNDTRIP_2008_TABLESTYLE_CELLSTYLEMAP
360
16C1
  3
ACAD_XREC_ROUNDTRIP
360
16F8
  0
DICTIONARY
  5
16D2
330
2F
100
AcDbDictionary
280
     1
281
     1
  3
ACAD_XREC_ROUNDTRIP
360
16D3
  0
DICTIONARY
  5
16FD
330
555
100
AcDbDictionary
280
     1
281
     1
  3
ACAD_XREC_ROUNDTRIP
360
16FE
  0
DICTIONARY
  5
16D0
330
2E
100
AcDbDictionary
280
     1
281
     1
  3
ACAD_XREC_ROUNDTRIP
360
16D1
  0
DICTIONARY
  5
16DE
330
35
100
AcDbDictionary
280
     1
281
     1
  3
ACAD_XREC_ROUNDTRIP
360
16DF
  0
DICTIONARY
  5
16E6
330
39
100
AcDbDictionary
280
     1
281
     1
  3
ACAD_XREC_ROUNDTRIP
360
16E7
  0
DICTIONARY
  5
16D8
330
32
100
AcDbDictionary
280
     1
281
     1
  3
ACAD_XREC_ROUNDTRIP
360
16D9
  0
DICTIONARY
  5
16DC
330
34
100
AcDbDictionary
280
     1
281
     1
  3
ACAD_XREC_ROUNDTRIP
360
16DD
  0
DICTIONARY
  5
16F6
330
41
100
AcDbDictionary
280
     1
281
     1
  3
ACAD_XREC_ROUNDTRIP
360
16F7
  0
DICTIONARY
  5
16E4
330
38
100
AcDbDictionary
280
     1
281
     1
  3
ACAD_XREC_ROUNDTRIP
360
16E5
  0
DICTIONARY
  5
16C8
330
2A
100
AcDbDictionary
280
     1
281
     1
  3
ACAD_XREC_ROUNDTRIP
360
16C9
  0
DICTIONARY
  5
16CA
330
2B
100
AcDbDictionary
280
     1
281
     1
  3
ACAD_XREC_ROUNDTRIP
360
16CB
  0
DICTIONARY
  5
16CC
330
2C
100
AcDbDictionary
280
     1
281
     1
  3
ACAD_XREC_ROUNDTRIP
360
16CD
  0
DICTIONARY
  5
16CE
330
2D
100
AcDbDictionary
280
     1
281
     1
  3
ACAD_XREC_ROUNDTRIP
360
16CF
  0
DICTIONARY
  5
16D6
330
31
100
AcDbDictionary
280
     1
281
     1
  3
ACAD_XREC_ROUNDTRIP
360
16D7
  0
DICTIONARY
  5
16F2
330
3F
100
AcDbDictionary
280
     1
281
     1
  3
ACAD_XREC_ROUNDTRIP
360
16F3
  0
DICTIONARY
  5
16E2
330
37
100
AcDbDictionary
280
     1
281
     1
  3
ACAD_XREC_ROUNDTRIP
360
16E3
  0
DICTIONARY
  5
16F4
330
40
100
AcDbDictionary
280
     1
281
     1
  3
ACAD_XREC_ROUNDTRIP
360
16F5
  0
DICTIONARY
  5
16DA
330
33
100
AcDbDictionary
280
     1
281
     1
  3
ACAD_XREC_ROUNDTRIP
360
16DB
  0
DICTIONARY
  5
16F0
330
3E
100
AcDbDictionary
280
     1
281
     1
  3
ACAD_XREC_ROUNDTRIP
360
16F1
  0
DICTIONARY
  5
16EE
330
3D
100
AcDbDictionary
280
     1
281
     1
  3
ACAD_XREC_ROUNDTRIP
360
16EF
  0
DICTIONARY
  5
16E8
330
3A
100
AcDbDictionary
280
     1
281
     1
  3
ACAD_XREC_ROUNDTRIP
360
16E9
  0
DICTIONARY
  5
16EA
330
3B
100
AcDbDictionary
280
     1
281
     1
  3
ACAD_XREC_ROUNDTRIP
360
16EB
  0
DICTIONARY
  5
16E0
330
36
100
AcDbDictionary
280
     1
281
     1
  3
ACAD_XREC_ROUNDTRIP
360
16E1
  0
DICTIONARY
  5
16D4
330
30
100
AcDbDictionary
280
     1
281
     1
  3
ACAD_XREC_ROUNDTRIP
360
16D5
  0
DICTIONARY
  5
16EC
330
3C
100
AcDbDictionary
280
     1
281
     1
  3
ACAD_XREC_ROUNDTRIP
360
16ED
  0
XRECORD
  5
16FC
102
{ACAD_REACTORS
330
16FB
102
}
330
16FB
100
AcDbXrecord
280
     1
102
SHADEPLOT
 70
     0
102
SHADEPLOTRESLEVEL
 70
     2
102
SHADEPLOTCUSTOMDPI
 70
   300
  0
XRECORD
  5
16FA
102
{ACAD_REACTORS
330
16F9
102
}
330
16F9
100
AcDbXrecord
280
     1
102
SHADEPLOT
 70
     0
102
SHADEPLOTRESLEVEL
 70
     2
102
SHADEPLOTCUSTOMDPI
 70
   300
  0
XRECORD
  5
6EA
102
{ACAD_REACTORS
330
1A
102
}
330
1A
100
AcDbXrecord
280
     1
102
MATERIAL
148
0.0
149
0.0
149
0.0
 93
        0
 94
      127
282
     0
 72
     0
 77
     0
171
     0
175
     0
179
     0
273
     0
  0
XRECORD
  5
1C
102
{ACAD_REACTORS
330
1A
102
}
330
1A
100
AcDbXrecord
280
     1
270
     1
271
     1
  0
XRECORD
  5
1B
102
{ACAD_REACTORS
330
1A
102
}
330
1A
100
AcDbXrecord
280
     1
270
     1
271
     1
  0
XRECORD
  5
1F
102
{ACAD_REACTORS
330
1A
102
}
330
1A
100
AcDbXrecord
280
     1
270
     1
271
     1
  0
XRECORD
  5
1E
102
{ACAD_REACTORS
330
1A
102
}
330
1A
100
AcDbXrecord
280
     1
270
     1
271
     1
  0
XRECORD
  5
20
102
{ACAD_REACTORS
330
1A
102
}
330
1A
100
AcDbXrecord
280
     1
270
     1
271
     1
  0
XRECORD
  5
1D
102
{ACAD_REACTORS
330
1A
102
}
330
1A
100
AcDbXrecord
280
     1
270
     1
271
     1
  0
XRECORD
  5
6E9
102
{ACAD_REACTORS
330
12
102
}
330
12
100
AcDbXrecord
280
     1
102
MATERIAL
148
0.0
149
0.0
149
0.0
 93
        0
 94
      127
282
     0
 72
     0
 77
     0
171
     0
175
     0
179
     0
273
     0
  0
XRECORD
  5
14
102
{ACAD_REACTORS
330
12
102
}
330
12
100
AcDbXrecord
280
     1
270
     1
271
     1
  0
XRECORD
  5
13
102
{ACAD_REACTORS
330
12
102
}
330
12
100
AcDbXrecord
280
     1
270
     1
271
     1
  0
XRECORD
  5
17
102
{ACAD_REACTORS
330
12
102
}
330
12
100
AcDbXrecord
280
     1
270
     1
271
     1
  0
XRECORD
  5
16
102
{ACAD_REACTORS
330
12
102
}
330
12
100
AcDbXrecord
280
     1
270
     1
271
     1
  0
XRECORD
  5
18
102
{ACAD_REACTORS
330
12
102
}
330
12
100
AcDbXrecord
280
     1
270
     1
271
     1
  0
XRECORD
  5
15
102
{ACAD_REACTORS
330
12
102
}
330
12
100
AcDbXrecord
280
     1
270
     1
271
     1
  0
XRECORD
  5
6EB
102
{ACAD_REACTORS
330
22
102
}
330
22
100
AcDbXrecord
280
     1
102
MATERIAL
148
0.0
149
0.0
149
0.0
 93
        0
 94
      127
282
     0
 72
     0
 77
     0
171
     0
175
     0
179
     0
273
     0
  0
XRECORD
  5
24
102
{ACAD_REACTORS
330
22
102
}
330
22
100
AcDbXrecord
280
     1
270
     1
271
     1
  0
XRECORD
  5
23
102
{ACAD_REACTORS
330
22
102
}
330
22
100
AcDbXrecord
280
     1
270
     1
271
     1
  0
XRECORD
  5
27
102
{ACAD_REACTORS
330
22
102
}
330
22
100
AcDbXrecord
280
     1
270
     1
271
     1
  0
XRECORD
  5
26
102
{ACAD_REACTORS
330
22
102
}
330
22
100
AcDbXrecord
280
     1
270
     1
271
     1
  0
XRECORD
  5
28
102
{ACAD_REACTORS
330
22
102
}
330
22
100
AcDbXrecord
280
     1
270
     1
271
     1
  0
XRECORD
  5
25
102
{ACAD_REACTORS
330
22
102
}
330
22
100
AcDbXrecord
280
     1
270
     1
271
     1
  0
CELLSTYLEMAP
  5
16C1
102
{ACAD_REACTORS
330
6E1
102
}
330
6E1
100
AcDbCellStyleMap
 90
        3
300
CELLSTYLE
  1
TABLEFORMAT_BEGIN
 90
        5
170
     1
 91
        0
 92
    32768
 62
   257
 93
        1
300
CONTENTFORMAT
  1
CONTENTFORMAT_BEGIN
 90
        0
 91
        0
 92
      512
 93
        0
300

 40
0.0
140
1.0
 94
        5
 62
     0
340
55
144
0.25
309
CONTENTFORMAT_END
171
     1
301
MARGIN
  1
CELLMARGIN_BEGIN
 40
0.06
 40
0.06
 40
0.06
 40
0.06
 40
0.18
 40
0.18
309
CELLMARGIN_END
 94
        6
 95
        1
302
GRIDFORMAT
  1
GRIDFORMAT_BEGIN
 90
        0
 91
        1
 62
     0
 92
       -2
340
0
 93
        0
 40
0.045
309
GRIDFORMAT_END
 95
        2
302
GRIDFORMAT
  1
GRIDFORMAT_BEGIN
 90
        0
 91
        1
 62
     0
 92
       -2
340
0
 93
        0
 40
0.045
309
GRIDFORMAT_END
 95
        4
302
GRIDFORMAT
  1
GRIDFORMAT_BEGIN
 90
        0
 91
        1
 62
     0
 92
       -2
340
0
 93
        0
 40
0.045
309
GRIDFORMAT_END
 95
        8
302
GRIDFORMAT
  1
GRIDFORMAT_BEGIN
 90
        0
 91
        1
 62
     0
 92
       -2
340
0
 93
        0
 40
0.045
309
GRIDFORMAT_END
 95
       16
302
GRIDFORMAT
  1
GRIDFORMAT_BEGIN
 90
        0
 91
        1
 62
     0
 92
       -2
340
0
 93
        0
 40
0.045
309
GRIDFORMAT_END
 95
       32
302
GRIDFORMAT
  1
GRIDFORMAT_BEGIN
 90
        0
 91
        1
 62
     0
 92
       -2
340
0
 93
        0
 40
0.045
309
GRIDFORMAT_END
309
TABLEFORMAT_END
  1
CELLSTYLE_BEGIN
 90
        1
 91
        1
300
_TITLE
309
CELLSTYLE_END
300
CELLSTYLE
  1
TABLEFORMAT_BEGIN
 90
        5
170
     1
 91
        0
 92
        0
 62
   257
 93
        1
300
CONTENTFORMAT
  1
CONTENTFORMAT_BEGIN
 90
        0
 91
        0
 92
      512
 93
        0
300

 40
0.0
140
1.0
 94
        5
 62
     0
340
55
144
0.18
309
CONTENTFORMAT_END
171
     1
301
MARGIN
  1
CELLMARGIN_BEGIN
 40
0.06
 40
0.06
 40
0.06
 40
0.06
 40
0.18
 40
0.18
309
CELLMARGIN_END
 94
        6
 95
        1
302
GRIDFORMAT
  1
GRIDFORMAT_BEGIN
 90
        0
 91
        1
 62
     0
 92
       -2
340
0
 93
        0
 40
0.045
309
GRIDFORMAT_END
 95
        2
302
GRIDFORMAT
  1
GRIDFORMAT_BEGIN
 90
        0
 91
        1
 62
     0
 92
       -2
340
0
 93
        0
 40
0.045
309
GRIDFORMAT_END
 95
        4
302
GRIDFORMAT
  1
GRIDFORMAT_BEGIN
 90
        0
 91
        1
 62
     0
 92
       -2
340
0
 93
        0
 40
0.045
309
GRIDFORMAT_END
 95
        8
302
GRIDFORMAT
  1
GRIDFORMAT_BEGIN
 90
        0
 91
        1
 62
     0
 92
       -2
340
0
 93
        0
 40
0.045
309
GRIDFORMAT_END
 95
       16
302
GRIDFORMAT
  1
GRIDFORMAT_BEGIN
 90
        0
 91
        1
 62
     0
 92
       -2
340
0
 93
        0
 40
0.045
309
GRIDFORMAT_END
 95
       32
302
GRIDFORMAT
  1
GRIDFORMAT_BEGIN
 90
        0
 91
        1
 62
     0
 92
       -2
340
0
 93
        0
 40
0.045
309
GRIDFORMAT_END
309
TABLEFORMAT_END
  1
CELLSTYLE_BEGIN
 90
        2
 91
        1
300
_HEADER
309
CELLSTYLE_END
300
CELLSTYLE
  1
TABLEFORMAT_BEGIN
 90
        5
170
     1
 91
        0
 92
        0
 62
   257
 93
        1
300
CONTENTFORMAT
  1
CONTENTFORMAT_BEGIN
 90
        0
 91
        0
 92
      512
 93
        0
300

 40
0.0
140
1.0
 94
        2
 62
     0
340
55
144
0.18
309
CONTENTFORMAT_END
171
     1
301
MARGIN
  1
CELLMARGIN_BEGIN
 40
0.06
 40
0.06
 40
0.06
 40
0.06
 40
0.18
 40
0.18
309
CELLMARGIN_END
 94
        6
 95
        1
302
GRIDFORMAT
  1
GRIDFORMAT_BEGIN
 90
        0
 91
        1
 62
     0
 92
       -2
340
0
 93
        0
 40
0.045
309
GRIDFORMAT_END
 95
        2
302
GRIDFORMAT
  1
GRIDFORMAT_BEGIN
 90
        0
 91
        1
 62
     0
 92
       -2
340
0
 93
        0
 40
0.045
309
GRIDFORMAT_END
 95
        4
302
GRIDFORMAT
  1
GRIDFORMAT_BEGIN
 90
        0
 91
        1
 62
     0
 92
       -2
340
0
 93
        0
 40
0.045
309
GRIDFORMAT_END
 95
        8
302
GRIDFORMAT
  1
GRIDFORMAT_BEGIN
 90
        0
 91
        1
 62
     0
 92
       -2
340
0
 93
        0
 40
0.045
309
GRIDFORMAT_END
 95
       16
302
GRIDFORMAT
  1
GRIDFORMAT_BEGIN
 90
        0
 91
        1
 62
     0
 92
       -2
340
0
 93
        0
 40
0.045
309
GRIDFORMAT_END
 95
       32
302
GRIDFORMAT
  1
GRIDFORMAT_BEGIN
 90
        0
 91
        1
 62
     0
 92
       -2
340
0
 93
        0
 40
0.045
309
GRIDFORMAT_END
309
TABLEFORMAT_END
  1
CELLSTYLE_BEGIN
 90
        3
 91
        2
300
_DATA
309
CELLSTYLE_END
  0
XRECORD
  5
16F8
102
{ACAD_REACTORS
330
6E1
102
}
330
6E1
100
AcDbXrecord
280
     1
102
ACAD_ROUNDTRIP_PRE2007_TABLESTYLE
 90
      512
 91
        0
  1

 92
      512
 93
        0
  2

 94
      512
 95
        0
  3

  0
XRECORD
  5
16D3
102
{ACAD_REACTORS
330
16D2
102
}
330
16D2
100
AcDbXrecord
280
     1
102
RTVSPropertyOp0
 70
     1
102
RTVSPropertyOp1
 70
     1
102
RTVSPropertyOp2
 70
     1
102
RTVSPropertyOp3
 70
     1
102
RTVSPropertyOp4
 70
     1
102
RTVSPropertyOp5
 70
     1
102
RTVSPropertyOp6
 70
     1
102
RTVSPropertyOp7
 70
     1
102
RTVSPropertyOp8
 70
     1
102
RTVSPropertyOp9
 70
     1
102
RTVSPropertyOp10
 70
     1
102
RTVSPropertyOp11
 70
     1
102
RTVSPropertyOp12
 70
     1
102
RTVSPropertyOp13
 70
     1
102
RTVSPropertyOp14
 70
     1
102
RTVSPropertyOp15
 70
     1
102
RTVSPropertyOp16
 70
     1
102
RTVSPropertyOp17
 70
     1
102
RTVSPropertyOp18
 70
     1
102
RTVSPropertyOp19
 70
     1
102
RTVSPropertyOp20
 70
     1
102
RTVSPropertyOp21
 70
     1
102
RTVSPropertyOp22
 70
     1
102
RTVSPropertyOp23
 70
     1
102
RTVSPropertyOp24
 70
     1
102
RTVSPropertyOp25
 70
     1
102
RTVSPropertyOp26
 70
     1
102
RTVSPropertyOp27
 70
     1
102
RTVSPropertyOp28
 70
     1
102
RTVSPropertyOp29
 70
     1
102
RTVSPropertyOp30
 70
     1
102
RTVSPropertyOp31
 70
     1
102
RTVSPropertyOp32
 70
     1
  0
XRECORD
  5
16FE
102
{ACAD_REACTORS
330
16FD
102
}
330
16FD
100
AcDbXrecord
280
     1
102
RTVSPropertyOp0
 70
     1
102
RTVSPropertyOp1
 70
     1
102
RTVSPropertyOp2
 70
     1
102
RTVSPropertyOp3
 70
     1
102
RTVSPropertyOp4
 70
     1
102
RTVSPropertyOp5
 70
     1
102
RTVSPropertyOp6
 70
     1
102
RTVSPropertyOp7
 70
     1
102
RTVSPropertyOp8
 70
     1
102
RTVSPropertyOp9
 70
     1
102
RTVSPropertyOp10
 70
     1
102
RTVSPropertyOp11
 70
     1
102
RTVSPropertyOp12
 70
     1
102
RTVSPropertyOp13
 70
     1
102
RTVSPropertyOp14
 70
     1
102
RTVSPropertyOp15
 70
     1
102
RTVSPropertyOp16
 70
     1
102
RTVSPropertyOp17
 70
     1
102
RTVSPropertyOp18
 70
     1
102
RTVSPropertyOp19
 70
     1
102
RTVSPropertyOp20
 70
     1
102
RTVSPropertyOp21
 70
     1
102
RTVSPropertyOp22
 70
     1
102
RTVSPropertyOp23
 70
     1
102
RTVSPropertyOp24
 70
     1
102
RTVSPropertyOp25
 70
     1
102
RTVSPropertyOp26
 70
     1
102
RTVSPropertyOp27
 70
     1
102
RTVSPropertyOp28
 70
     1
102
RTVSPropertyOp29
 70
     1
102
RTVSPropertyOp30
 70
     1
102
RTVSPropertyOp31
 70
     1
102
RTVSPropertyOp32
 70
     1
  0
XRECORD
  5
16D1
102
{ACAD_REACTORS
330
16D0
102
}
330
16D0
100
AcDbXrecord
280
     1
102
RTVSPropertyOp0
 70
     1
102
RTVSPropertyOp1
 70
     1
102
RTVSPropertyOp2
 70
     1
102
RTVSPropertyOp3
 70
     1
102
RTVSPropertyOp4
 70
     1
102
RTVSPropertyOp5
 70
     1
102
RTVSPropertyOp6
 70
     1
102
RTVSPropertyOp7
 70
     1
102
RTVSPropertyOp8
 70
     1
102
RTVSPropertyOp9
 70
     1
102
RTVSPropertyOp10
 70
     1
102
RTVSPropertyOp11
 70
     1
102
RTVSPropertyOp12
 70
     1
102
RTVSPropertyOp13
 70
     1
102
RTVSPropertyOp14
 70
     1
102
RTVSPropertyOp15
 70
     1
102
RTVSPropertyOp16
 70
     1
102
RTVSPropertyOp17
 70
     1
102
RTVSPropertyOp18
 70
     1
102
RTVSPropertyOp19
 70
     1
102
RTVSPropertyOp20
 70
     1
102
RTVSPropertyOp21
 70
     1
102
RTVSPropertyOp22
 70
     1
102
RTVSPropertyOp23
 70
     1
102
RTVSPropertyOp24
 70
     1
102
RTVSPropertyOp25
 70
     1
102
RTVSPropertyOp26
 70
     1
102
RTVSPropertyOp27
 70
     1
102
RTVSPropertyOp28
 70
     1
102
RTVSPropertyOp29
 70
     1
102
RTVSPropertyOp30
 70
     1
102
RTVSPropertyOp31
 70
     1
102
RTVSPropertyOp32
 70
     1
  0
XRECORD
  5
16DF
102
{ACAD_REACTORS
330
16DE
102
}
330
16DE
100
AcDbXrecord
280
     1
102
RTVSPropertyOp0
 70
     1
102
RTVSPropertyOp1
 70
     1
102
RTVSPropertyOp2
 70
     1
102
RTVSPropertyOp3
 70
     1
102
RTVSPropertyOp4
 70
     1
102
RTVSPropertyOp5
 70
     1
102
RTVSPropertyOp6
 70
     1
102
RTVSPropertyOp7
 70
     1
102
RTVSPropertyOp8
 70
     1
102
RTVSPropertyOp9
 70
     1
102
RTVSPropertyOp10
 70
     1
102
RTVSPropertyOp11
 70
     1
102
RTVSPropertyOp12
 70
     1
102
RTVSPropertyOp13
 70
     1
102
RTVSPropertyOp14
 70
     1
102
RTVSPropertyOp15
 70
     1
102
RTVSPropertyOp16
 70
     1
102
RTVSPropertyOp17
 70
     1
102
RTVSPropertyOp18
 70
     1
102
RTVSPropertyOp19
 70
     1
102
RTVSPropertyOp20
 70
     1
102
RTVSPropertyOp21
 70
     1
102
RTVSPropertyOp22
 70
     1
102
RTVSPropertyOp23
 70
     1
102
RTVSPropertyOp24
 70
     1
102
RTVSPropertyOp25
 70
     1
102
RTVSPropertyOp26
 70
     1
102
RTVSPropertyOp27
 70
     1
102
RTVSPropertyOp28
 70
     1
102
RTVSPropertyOp29
 70
     1
102
RTVSPropertyOp30
 70
     1
102
RTVSPropertyOp31
 70
     1
102
RTVSPropertyOp32
 70
     1
  0
XRECORD
  5
16E7
102
{ACAD_REACTORS
330
16E6
102
}
330
16E6
100
AcDbXrecord
280
     1
102
RTVSPropertyOp0
 70
     1
102
RTVSPropertyOp1
 70
     1
102
RTVSPropertyOp2
 70
     1
102
RTVSPropertyOp3
 70
     1
102
RTVSPropertyOp4
 70
     1
102
RTVSPropertyOp5
 70
     1
102
RTVSPropertyOp6
 70
     1
102
RTVSPropertyOp7
 70
     1
102
RTVSPropertyOp8
 70
     1
102
RTVSPropertyOp9
 70
     1
102
RTVSPropertyOp10
 70
     1
102
RTVSPropertyOp11
 70
     1
102
RTVSPropertyOp12
 70
     1
102
RTVSPropertyOp13
 70
     1
102
RTVSPropertyOp14
 70
     1
102
RTVSPropertyOp15
 70
     1
102
RTVSPropertyOp16
 70
     1
102
RTVSPropertyOp17
 70
     1
102
RTVSPropertyOp18
 70
     1
102
RTVSPropertyOp19
 70
     1
102
RTVSPropertyOp20
 70
     1
102
RTVSPropertyOp21
 70
     1
102
RTVSPropertyOp22
 70
     1
102
RTVSPropertyOp23
 70
     1
102
RTVSPropertyOp24
 70
     1
102
RTVSPropertyOp25
 70
     1
102
RTVSPropertyOp26
 70
     1
102
RTVSPropertyOp27
 70
     1
102
RTVSPropertyOp28
 70
     1
102
RTVSPropertyOp29
 70
     1
102
RTVSPropertyOp30
 70
     1
102
RTVSPropertyOp31
 70
     1
102
RTVSPropertyOp32
 70
     1
  0
XRECORD
  5
16D9
102
{ACAD_REACTORS
330
16D8
102
}
330
16D8
100
AcDbXrecord
280
     1
102
RTVSPropertyOp0
 70
     1
102
RTVSPropertyOp1
 70
     1
102
RTVSPropertyOp2
 70
     1
102
RTVSPropertyOp3
 70
     1
102
RTVSPropertyOp4
 70
     1
102
RTVSPropertyOp5
 70
     1
102
RTVSPropertyOp6
 70
     1
102
RTVSPropertyOp7
 70
     1
102
RTVSPropertyOp8
 70
     1
102
RTVSPropertyOp9
 70
     1
102
RTVSPropertyOp10
 70
     1
102
RTVSPropertyOp11
 70
     1
102
RTVSPropertyOp12
 70
     1
102
RTVSPropertyOp13
 70
     1
102
RTVSPropertyOp14
 70
     1
102
RTVSPropertyOp15
 70
     1
102
RTVSPropertyOp16
 70
     1
102
RTVSPropertyOp17
 70
     1
102
RTVSPropertyOp18
 70
     1
102
RTVSPropertyOp19
 70
     1
102
RTVSPropertyOp20
 70
     1
102
RTVSPropertyOp21
 70
     1
102
RTVSPropertyOp22
 70
     1
102
RTVSPropertyOp23
 70
     1
102
RTVSPropertyOp24
 70
     1
102
RTVSPropertyOp25
 70
     1
102
RTVSPropertyOp26
 70
     1
102
RTVSPropertyOp27
 70
     1
102
RTVSPropertyOp28
 70
     1
102
RTVSPropertyOp29
 70
     1
102
RTVSPropertyOp30
 70
     1
102
RTVSPropertyOp31
 70
     1
102
RTVSPropertyOp32
 70
     1
  0
XRECORD
  5
16DD
102
{ACAD_REACTORS
330
16DC
102
}
330
16DC
100
AcDbXrecord
280
     1
102
RTVSPropertyOp0
 70
     1
102
RTVSPropertyOp1
 70
     1
102
RTVSPropertyOp2
 70
     1
102
RTVSPropertyOp3
 70
     1
102
RTVSPropertyOp4
 70
     1
102
RTVSPropertyOp5
 70
     1
102
RTVSPropertyOp6
 70
     1
102
RTVSPropertyOp7
 70
     1
102
RTVSPropertyOp8
 70
     1
102
RTVSPropertyOp9
 70
     1
102
RTVSPropertyOp10
 70
     1
102
RTVSPropertyOp11
 70
     1
102
RTVSPropertyOp12
 70
     1
102
RTVSPropertyOp13
 70
     1
102
RTVSPropertyOp14
 70
     1
102
RTVSPropertyOp15
 70
     1
102
RTVSPropertyOp16
 70
     1
102
RTVSPropertyOp17
 70
     1
102
RTVSPropertyOp18
 70
     1
102
RTVSPropertyOp19
 70
     1
102
RTVSPropertyOp20
 70
     1
102
RTVSPropertyOp21
 70
     1
102
RTVSPropertyOp22
 70
     1
102
RTVSPropertyOp23
 70
     1
102
RTVSPropertyOp24
 70
     1
102
RTVSPropertyOp25
 70
     1
102
RTVSPropertyOp26
 70
     1
102
RTVSPropertyOp27
 70
     1
102
RTVSPropertyOp28
 70
     1
102
RTVSPropertyOp29
 70
     1
102
RTVSPropertyOp30
 70
     1
102
RTVSPropertyOp31
 70
     1
102
RTVSPropertyOp32
 70
     1
  0
XRECORD
  5
16F7
102
{ACAD_REACTORS
330
16F6
102
}
330
16F6
100
AcDbXrecord
280
     1
102
RTVSPropertyOp0
 70
     0
102
RTVSPropertyOp1
 70
     0
102
RTVSPropertyOp2
 70
     0
102
RTVSPropertyOp3
 70
     0
102
RTVSPropertyOp4
 70
     0
102
RTVSPropertyOp5
 70
     0
102
RTVSPropertyOp6
 70
     0
102
RTVSPropertyOp7
 70
     0
102
RTVSPropertyOp8
 70
     0
102
RTVSPropertyOp9
 70
     0
102
RTVSPropertyOp10
 70
     0
102
RTVSPropertyOp11
 70
     0
102
RTVSPropertyOp12
 70
     0
102
RTVSPropertyOp13
 70
     0
102
RTVSPropertyOp14
 70
     2
102
RTVSPropertyOp15
 70
     0
102
RTVSPropertyOp16
 70
     0
102
RTVSPropertyOp17
 70
     0
102
RTVSPropertyOp18
 70
     0
102
RTVSPropertyOp19
 70
     0
102
RTVSPropertyOp20
 70
     0
102
RTVSPropertyOp21
 70
     0
102
RTVSPropertyOp22
 70
     0
102
RTVSPropertyOp23
 70
     0
102
RTVSPropertyOp24
 70
     0
102
RTVSPropertyOp25
 70
     0
102
RTVSPropertyOp26
 70
     0
102
RTVSPropertyOp27
 70
     0
102
RTVSPropertyOp28
 70
     0
102
RTVSPropertyOp29
 70
     0
102
RTVSPropertyOp30
 70
     0
102
RTVSPropertyOp31
 70
     0
102
RTVSPropertyOp32
 70
     0
  0
XRECORD
  5
16E5
102
{ACAD_REACTORS
330
16E4
102
}
330
16E4
100
AcDbXrecord
280
     1
102
RTVSPropertyOp0
 70
     1
102
RTVSPropertyOp1
 70
     1
102
RTVSPropertyOp2
 70
     1
102
RTVSPropertyOp3
 70
     1
102
RTVSPropertyOp4
 70
     1
102
RTVSPropertyOp5
 70
     1
102
RTVSPropertyOp6
 70
     1
102
RTVSPropertyOp7
 70
     1
102
RTVSPropertyOp8
 70
     1
102
RTVSPropertyOp9
 70
     1
102
RTVSPropertyOp10
 70
     1
102
RTVSPropertyOp11
 70
     1
102
RTVSPropertyOp12
 70
     1
102
RTVSPropertyOp13
 70
     1
102
RTVSPropertyOp14
 70
     1
102
RTVSPropertyOp15
 70
     1
102
RTVSPropertyOp16
 70
     1
102
RTVSPropertyOp17
 70
     1
102
RTVSPropertyOp18
 70
     1
102
RTVSPropertyOp19
 70
     1
102
RTVSPropertyOp20
 70
     1
102
RTVSPropertyOp21
 70
     1
102
RTVSPropertyOp22
 70
     1
102
RTVSPropertyOp23
 70
     1
102
RTVSPropertyOp24
 70
     1
102
RTVSPropertyOp25
 70
     1
102
RTVSPropertyOp26
 70
     1
102
RTVSPropertyOp27
 70
     1
102
RTVSPropertyOp28
 70
     1
102
RTVSPropertyOp29
 70
     1
102
RTVSPropertyOp30
 70
     1
102
RTVSPropertyOp31
 70
     1
102
RTVSPropertyOp32
 70
     1
  0
XRECORD
  5
16C9
102
{ACAD_REACTORS
330
16C8
102
}
330
16C8
100
AcDbXrecord
280
     1
102
RTVSPropertyOp0
 70
     1
102
RTVSPropertyOp1
 70
     1
102
RTVSPropertyOp2
 70
     1
102
RTVSPropertyOp3
 70
     1
102
RTVSPropertyOp4
 70
     1
102
RTVSPropertyOp5
 70
     1
102
RTVSPropertyOp6
 70
     1
102
RTVSPropertyOp7
 70
     1
102
RTVSPropertyOp8
 70
     1
102
RTVSPropertyOp9
 70
     1
102
RTVSPropertyOp10
 70
     1
102
RTVSPropertyOp11
 70
     1
102
RTVSPropertyOp12
 70
     1
102
RTVSPropertyOp13
 70
     1
102
RTVSPropertyOp14
 70
     1
102
RTVSPropertyOp15
 70
     1
102
RTVSPropertyOp16
 70
     1
102
RTVSPropertyOp17
 70
     1
102
RTVSPropertyOp18
 70
     1
102
RTVSPropertyOp19
 70
     1
102
RTVSPropertyOp20
 70
     1
102
RTVSPropertyOp21
 70
     1
102
RTVSPropertyOp22
 70
     1
102
RTVSPropertyOp23
 70
     1
102
RTVSPropertyOp24
 70
     1
102
RTVSPropertyOp25
 70
     1
102
RTVSPropertyOp26
 70
     1
102
RTVSPropertyOp27
 70
     1
102
RTVSPropertyOp28
 70
     1
102
RTVSPropertyOp29
 70
     1
102
RTVSPropertyOp30
 70
     1
102
RTVSPropertyOp31
 70
     1
102
RTVSPropertyOp32
 70
     1
  0
XRECORD
  5
16CB
102
{ACAD_REACTORS
330
16CA
102
}
330
16CA
100
AcDbXrecord
280
     1
102
RTVSPropertyOp0
 70
     1
102
RTVSPropertyOp1
 70
     1
102
RTVSPropertyOp2
 70
     1
102
RTVSPropertyOp3
 70
     1
102
RTVSPropertyOp4
 70
     1
102
RTVSPropertyOp5
 70
     1
102
RTVSPropertyOp6
 70
     1
102
RTVSPropertyOp7
 70
     1
102
RTVSPropertyOp8
 70
     1
102
RTVSPropertyOp9
 70
     1
102
RTVSPropertyOp10
 70
     1
102
RTVSPropertyOp11
 70
     1
102
RTVSPropertyOp12
 70
     1
102
RTVSPropertyOp13
 70
     1
102
RTVSPropertyOp14
 70
     1
102
RTVSPropertyOp15
 70
     1
102
RTVSPropertyOp16
 70
     1
102
RTVSPropertyOp17
 70
     1
102
RTVSPropertyOp18
 70
     1
102
RTVSPropertyOp19
 70
     1
102
RTVSPropertyOp20
 70
     1
102
RTVSPropertyOp21
 70
     1
102
RTVSPropertyOp22
 70
     1
102
RTVSPropertyOp23
 70
     1
102
RTVSPropertyOp24
 70
     1
102
RTVSPropertyOp25
 70
     1
102
RTVSPropertyOp26
 70
     1
102
RTVSPropertyOp27
 70
     1
102
RTVSPropertyOp28
 70
     1
102
RTVSPropertyOp29
 70
     1
102
RTVSPropertyOp30
 70
     1
102
RTVSPropertyOp31
 70
     1
102
RTVSPropertyOp32
 70
     1
  0
XRECORD
  5
16CD
102
{ACAD_REACTORS
330
16CC
102
}
330
16CC
100
AcDbXrecord
280
     1
102
RTVSPropertyOp0
 70
     1
102
RTVSPropertyOp1
 70
     1
102
RTVSPropertyOp2
 70
     1
102
RTVSPropertyOp3
 70
     1
102
RTVSPropertyOp4
 70
     1
102
RTVSPropertyOp5
 70
     1
102
RTVSPropertyOp6
 70
     1
102
RTVSPropertyOp7
 70
     1
102
RTVSPropertyOp8
 70
     1
102
RTVSPropertyOp9
 70
     1
102
RTVSPropertyOp10
 70
     1
102
RTVSPropertyOp11
 70
     1
102
RTVSPropertyOp12
 70
     1
102
RTVSPropertyOp13
 70
     1
102
RTVSPropertyOp14
 70
     1
102
RTVSPropertyOp15
 70
     1
102
RTVSPropertyOp16
 70
     1
102
RTVSPropertyOp17
 70
     1
102
RTVSPropertyOp18
 70
     1
102
RTVSPropertyOp19
 70
     1
102
RTVSPropertyOp20
 70
     1
102
RTVSPropertyOp21
 70
     1
102
RTVSPropertyOp22
 70
     1
102
RTVSPropertyOp23
 70
     1
102
RTVSPropertyOp24
 70
     1
102
RTVSPropertyOp25
 70
     1
102
RTVSPropertyOp26
 70
     1
102
RTVSPropertyOp27
 70
     1
102
RTVSPropertyOp28
 70
     1
102
RTVSPropertyOp29
 70
     1
102
RTVSPropertyOp30
 70
     1
102
RTVSPropertyOp31
 70
     1
102
RTVSPropertyOp32
 70
     1
  0
XRECORD
  5
16CF
102
{ACAD_REACTORS
330
16CE
102
}
330
16CE
100
AcDbXrecord
280
     1
102
RTVSPropertyOp0
 70
     1
102
RTVSPropertyOp1
 70
     1
102
RTVSPropertyOp2
 70
     1
102
RTVSPropertyOp3
 70
     1
102
RTVSPropertyOp4
 70
     1
102
RTVSPropertyOp5
 70
     1
102
RTVSPropertyOp6
 70
     1
102
RTVSPropertyOp7
 70
     1
102
RTVSPropertyOp8
 70
     1
102
RTVSPropertyOp9
 70
     1
102
RTVSPropertyOp10
 70
     1
102
RTVSPropertyOp11
 70
     1
102
RTVSPropertyOp12
 70
     1
102
RTVSPropertyOp13
 70
     1
102
RTVSPropertyOp14
 70
     1
102
RTVSPropertyOp15
 70
     1
102
RTVSPropertyOp16
 70
     1
102
RTVSPropertyOp17
 70
     1
102
RTVSPropertyOp18
 70
     1
102
RTVSPropertyOp19
 70
     1
102
RTVSPropertyOp20
 70
     1
102
RTVSPropertyOp21
 70
     1
102
RTVSPropertyOp22
 70
     1
102
RTVSPropertyOp23
 70
     1
102
RTVSPropertyOp24
 70
     1
102
RTVSPropertyOp25
 70
     1
102
RTVSPropertyOp26
 70
     1
102
RTVSPropertyOp27
 70
     1
102
RTVSPropertyOp28
 70
     1
102
RTVSPropertyOp29
 70
     1
102
RTVSPropertyOp30
 70
     1
102
RTVSPropertyOp31
 70
     1
102
RTVSPropertyOp32
 70
     1
  0
XRECORD
  5
16D7
102
{ACAD_REACTORS
330
16D6
102
}
330
16D6
100
AcDbXrecord
280
     1
102
RTVSPropertyOp0
 70
     1
102
RTVSPropertyOp1
 70
     1
102
RTVSPropertyOp2
 70
     1
102
RTVSPropertyOp3
 70
     1
102
RTVSPropertyOp4
 70
     1
102
RTVSPropertyOp5
 70
     1
102
RTVSPropertyOp6
 70
     1
102
RTVSPropertyOp7
 70
     1
102
RTVSPropertyOp8
 70
     1
102
RTVSPropertyOp9
 70
     1
102
RTVSPropertyOp10
 70
     1
102
RTVSPropertyOp11
 70
     1
102
RTVSPropertyOp12
 70
     1
102
RTVSPropertyOp13
 70
     1
102
RTVSPropertyOp14
 70
     1
102
RTVSPropertyOp15
 70
     1
102
RTVSPropertyOp16
 70
     1
102
RTVSPropertyOp17
 70
     1
102
RTVSPropertyOp18
 70
     1
102
RTVSPropertyOp19
 70
     1
102
RTVSPropertyOp20
 70
     1
102
RTVSPropertyOp21
 70
     1
102
RTVSPropertyOp22
 70
     1
102
RTVSPropertyOp23
 70
     1
102
RTVSPropertyOp24
 70
     1
102
RTVSPropertyOp25
 70
     1
102
RTVSPropertyOp26
 70
     1
102
RTVSPropertyOp27
 70
     1
102
RTVSPropertyOp28
 70
     1
102
RTVSPropertyOp29
 70
     1
102
RTVSPropertyOp30
 70
     1
102
RTVSPropertyOp31
 70
     1
102
RTVSPropertyOp32
 70
     1
  0
XRECORD
  5
16F3
102
{ACAD_REACTORS
330
16F2
102
}
330
16F2
100
AcDbXrecord
280
     1
102
RTVSPropertyOp0
 70
     0
102
RTVSPropertyOp1
 70
     0
102
RTVSPropertyOp2
 70
     0
102
RTVSPropertyOp3
 70
     0
102
RTVSPropertyOp4
 70
     0
102
RTVSPropertyOp5
 70
     0
102
RTVSPropertyOp6
 70
     0
102
RTVSPropertyOp7
 70
     0
102
RTVSPropertyOp8
 70
     0
102
RTVSPropertyOp9
 70
     0
102
RTVSPropertyOp10
 70
     0
102
RTVSPropertyOp11
 70
     0
102
RTVSPropertyOp12
 70
     0
102
RTVSPropertyOp13
 70
     0
102
RTVSPropertyOp14
 70
     2
102
RTVSPropertyOp15
 70
     0
102
RTVSPropertyOp16
 70
     0
102
RTVSPropertyOp17
 70
     0
102
RTVSPropertyOp18
 70
     0
102
RTVSPropertyOp19
 70
     0
102
RTVSPropertyOp20
 70
     0
102
RTVSPropertyOp21
 70
     0
102
RTVSPropertyOp22
 70
     0
102
RTVSPropertyOp23
 70
     0
102
RTVSPropertyOp24
 70
     0
102
RTVSPropertyOp25
 70
     0
102
RTVSPropertyOp26
 70
     0
102
RTVSPropertyOp27
 70
     0
102
RTVSPropertyOp28
 70
     0
102
RTVSPropertyOp29
 70
     0
102
RTVSPropertyOp30
 70
     0
102
RTVSPropertyOp31
 70
     0
102
RTVSPropertyOp32
 70
     0
  0
XRECORD
  5
16E3
102
{ACAD_REACTORS
330
16E2
102
}
330
16E2
100
AcDbXrecord
280
     1
102
RTVSPropertyOp0
 70
     1
102
RTVSPropertyOp1
 70
     1
102
RTVSPropertyOp2
 70
     1
102
RTVSPropertyOp3
 70
     1
102
RTVSPropertyOp4
 70
     1
102
RTVSPropertyOp5
 70
     1
102
RTVSPropertyOp6
 70
     1
102
RTVSPropertyOp7
 70
     1
102
RTVSPropertyOp8
 70
     1
102
RTVSPropertyOp9
 70
     1
102
RTVSPropertyOp10
 70
     1
102
RTVSPropertyOp11
 70
     1
102
RTVSPropertyOp12
 70
     1
102
RTVSPropertyOp13
 70
     1
102
RTVSPropertyOp14
 70
     1
102
RTVSPropertyOp15
 70
     1
102
RTVSPropertyOp16
 70
     1
102
RTVSPropertyOp17
 70
     1
102
RTVSPropertyOp18
 70
     1
102
RTVSPropertyOp19
 70
     1
102
RTVSPropertyOp20
 70
     1
102
RTVSPropertyOp21
 70
     1
102
RTVSPropertyOp22
 70
     1
102
RTVSPropertyOp23
 70
     1
102
RTVSPropertyOp24
 70
     1
102
RTVSPropertyOp25
 70
     1
102
RTVSPropertyOp26
 70
     1
102
RTVSPropertyOp27
 70
     1
102
RTVSPropertyOp28
 70
     1
102
RTVSPropertyOp29
 70
     1
102
RTVSPropertyOp30
 70
     1
102
RTVSPropertyOp31
 70
     1
102
RTVSPropertyOp32
 70
     1
  0
XRECORD
  5
16F5
102
{ACAD_REACTORS
330
16F4
102
}
330
16F4
100
AcDbXrecord
280
     1
102
RTVSPropertyOp0
 70
     0
102
RTVSPropertyOp1
 70
     0
102
RTVSPropertyOp2
 70
     0
102
RTVSPropertyOp3
 70
     0
102
RTVSPropertyOp4
 70
     0
102
RTVSPropertyOp5
 70
     0
102
RTVSPropertyOp6
 70
     0
102
RTVSPropertyOp7
 70
     0
102
RTVSPropertyOp8
 70
     0
102
RTVSPropertyOp9
 70
     0
102
RTVSPropertyOp10
 70
     0
102
RTVSPropertyOp11
 70
     0
102
RTVSPropertyOp12
 70
     0
102
RTVSPropertyOp13
 70
     0
102
RTVSPropertyOp14
 70
     2
102
RTVSPropertyOp15
 70
     0
102
RTVSPropertyOp16
 70
     0
102
RTVSPropertyOp17
 70
     0
102
RTVSPropertyOp18
 70
     0
102
RTVSPropertyOp19
 70
     0
102
RTVSPropertyOp20
 70
     0
102
RTVSPropertyOp21
 70
     0
102
RTVSPropertyOp22
 70
     0
102
RTVSPropertyOp23
 70
     0
102
RTVSPropertyOp24
 70
     0
102
RTVSPropertyOp25
 70
     0
102
RTVSPropertyOp26
 70
     0
102
RTVSPropertyOp27
 70
     0
102
RTVSPropertyOp28
 70
     0
102
RTVSPropertyOp29
 70
     0
102
RTVSPropertyOp30
 70
     0
102
RTVSPropertyOp31
 70
     0
102
RTVSPropertyOp32
 70
     0
  0
XRECORD
  5
16DB
102
{ACAD_REACTORS
330
16DA
102
}
330
16DA
100
AcDbXrecord
280
     1
102
RTVSPropertyOp0
 70
     1
102
RTVSPropertyOp1
 70
     1
102
RTVSPropertyOp2
 70
     1
102
RTVSPropertyOp3
 70
     1
102
RTVSPropertyOp4
 70
     1
102
RTVSPropertyOp5
 70
     1
102
RTVSPropertyOp6
 70
     1
102
RTVSPropertyOp7
 70
     1
102
RTVSPropertyOp8
 70
     1
102
RTVSPropertyOp9
 70
     1
102
RTVSPropertyOp10
 70
     1
102
RTVSPropertyOp11
 70
     1
102
RTVSPropertyOp12
 70
     1
102
RTVSPropertyOp13
 70
     1
102
RTVSPropertyOp14
 70
     1
102
RTVSPropertyOp15
 70
     1
102
RTVSPropertyOp16
 70
     1
102
RTVSPropertyOp17
 70
     1
102
RTVSPropertyOp18
 70
     1
102
RTVSPropertyOp19
 70
     1
102
RTVSPropertyOp20
 70
     1
102
RTVSPropertyOp21
 70
     1
102
RTVSPropertyOp22
 70
     1
102
RTVSPropertyOp23
 70
     1
102
RTVSPropertyOp24
 70
     1
102
RTVSPropertyOp25
 70
     1
102
RTVSPropertyOp26
 70
     1
102
RTVSPropertyOp27
 70
     1
102
RTVSPropertyOp28
 70
     1
102
RTVSPropertyOp29
 70
     1
102
RTVSPropertyOp30
 70
     1
102
RTVSPropertyOp31
 70
     1
102
RTVSPropertyOp32
 70
     1
  0
XRECORD
  5
16F1
102
{ACAD_REACTORS
330
16F0
102
}
330
16F0
100
AcDbXrecord
280
     1
102
RTVSPropertyOp0
 70
     1
102
RTVSPropertyOp1
 70
     1
102
RTVSPropertyOp2
 70
     1
102
RTVSPropertyOp3
 70
     1
102
RTVSPropertyOp4
 70
     1
102
RTVSPropertyOp5
 70
     1
102
RTVSPropertyOp6
 70
     1
102
RTVSPropertyOp7
 70
     1
102
RTVSPropertyOp8
 70
     1
102
RTVSPropertyOp9
 70
     1
102
RTVSPropertyOp10
 70
     1
102
RTVSPropertyOp11
 70
     1
102
RTVSPropertyOp12
 70
     1
102
RTVSPropertyOp13
 70
     1
102
RTVSPropertyOp14
 70
     1
102
RTVSPropertyOp15
 70
     1
102
RTVSPropertyOp16
 70
     1
102
RTVSPropertyOp17
 70
     1
102
RTVSPropertyOp18
 70
     1
102
RTVSPropertyOp19
 70
     1
102
RTVSPropertyOp20
 70
     1
102
RTVSPropertyOp21
 70
     1
102
RTVSPropertyOp22
 70
     1
102
RTVSPropertyOp23
 70
     1
102
RTVSPropertyOp24
 70
     1
102
RTVSPropertyOp25
 70
     1
102
RTVSPropertyOp26
 70
     1
102
RTVSPropertyOp27
 70
     1
102
RTVSPropertyOp28
 70
     1
102
RTVSPropertyOp29
 70
     1
102
RTVSPropertyOp30
 70
     1
102
RTVSPropertyOp31
 70
     1
102
RTVSPropertyOp32
 70
     1
  0
XRECORD
  5
16EF
102
{ACAD_REACTORS
330
16EE
102
}
330
16EE
100
AcDbXrecord
280
     1
102
RTVSPropertyOp0
 70
     1
102
RTVSPropertyOp1
 70
     1
102
RTVSPropertyOp2
 70
     1
102
RTVSPropertyOp3
 70
     1
102
RTVSPropertyOp4
 70
     1
102
RTVSPropertyOp5
 70
     1
102
RTVSPropertyOp6
 70
     1
102
RTVSPropertyOp7
 70
     1
102
RTVSPropertyOp8
 70
     1
102
RTVSPropertyOp9
 70
     1
102
RTVSPropertyOp10
 70
     1
102
RTVSPropertyOp11
 70
     1
102
RTVSPropertyOp12
 70
     1
102
RTVSPropertyOp13
 70
     1
102
RTVSPropertyOp14
 70
     1
102
RTVSPropertyOp15
 70
     1
102
RTVSPropertyOp16
 70
     1
102
RTVSPropertyOp17
 70
     1
102
RTVSPropertyOp18
 70
     1
102
RTVSPropertyOp19
 70
     1
102
RTVSPropertyOp20
 70
     1
102
RTVSPropertyOp21
 70
     1
102
RTVSPropertyOp22
 70
     1
102
RTVSPropertyOp23
 70
     1
102
RTVSPropertyOp24
 70
     1
102
RTVSPropertyOp25
 70
     1
102
RTVSPropertyOp26
 70
     1
102
RTVSPropertyOp27
 70
     1
102
RTVSPropertyOp28
 70
     1
102
RTVSPropertyOp29
 70
     1
102
RTVSPropertyOp30
 70
     1
102
RTVSPropertyOp31
 70
     1
102
RTVSPropertyOp32
 70
     1
  0
XRECORD
  5
16E9
102
{ACAD_REACTORS
330
16E8
102
}
330
16E8
100
AcDbXrecord
280
     1
102
RTVSPropertyOp0
 70
     1
102
RTVSPropertyOp1
 70
     1
102
RTVSPropertyOp2
 70
     1
102
RTVSPropertyOp3
 70
     1
102
RTVSPropertyOp4
 70
     1
102
RTVSPropertyOp5
 70
     1
102
RTVSPropertyOp6
 70
     1
102
RTVSPropertyOp7
 70
     1
102
RTVSPropertyOp8
 70
     1
102
RTVSPropertyOp9
 70
     1
102
RTVSPropertyOp10
 70
     1
102
RTVSPropertyOp11
 70
     1
102
RTVSPropertyOp12
 70
     1
102
RTVSPropertyOp13
 70
     1
102
RTVSPropertyOp14
 70
     1
102
RTVSPropertyOp15
 70
     1
102
RTVSPropertyOp16
 70
     1
102
RTVSPropertyOp17
 70
     1
102
RTVSPropertyOp18
 70
     1
102
RTVSPropertyOp19
 70
     1
102
RTVSPropertyOp20
 70
     1
102
RTVSPropertyOp21
 70
     1
102
RTVSPropertyOp22
 70
     1
102
RTVSPropertyOp23
 70
     1
102
RTVSPropertyOp24
 70
     1
102
RTVSPropertyOp25
 70
     1
102
RTVSPropertyOp26
 70
     1
102
RTVSPropertyOp27
 70
     1
102
RTVSPropertyOp28
 70
     1
102
RTVSPropertyOp29
 70
     1
102
RTVSPropertyOp30
 70
     1
102
RTVSPropertyOp31
 70
     1
102
RTVSPropertyOp32
 70
     1
  0
XRECORD
  5
16EB
102
{ACAD_REACTORS
330
16EA
102
}
330
16EA
100
AcDbXrecord
280
     1
102
RTVSPropertyOp0
 70
     1
102
RTVSPropertyOp1
 70
     1
102
RTVSPropertyOp2
 70
     1
102
RTVSPropertyOp3
 70
     1
102
RTVSPropertyOp4
 70
     1
102
RTVSPropertyOp5
 70
     1
102
RTVSPropertyOp6
 70
     1
102
RTVSPropertyOp7
 70
     1
102
RTVSPropertyOp8
 70
     1
102
RTVSPropertyOp9
 70
     1
102
RTVSPropertyOp10
 70
     1
102
RTVSPropertyOp11
 70
     1
102
RTVSPropertyOp12
 70
     1
102
RTVSPropertyOp13
 70
     1
102
RTVSPropertyOp14
 70
     1
102
RTVSPropertyOp15
 70
     1
102
RTVSPropertyOp16
 70
     1
102
RTVSPropertyOp17
 70
     1
102
RTVSPropertyOp18
 70
     1
102
RTVSPropertyOp19
 70
     1
102
RTVSPropertyOp20
 70
     1
102
RTVSPropertyOp21
 70
     1
102
RTVSPropertyOp22
 70
     1
102
RTVSPropertyOp23
 70
     1
102
RTVSPropertyOp24
 70
     1
102
RTVSPropertyOp25
 70
     1
102
RTVSPropertyOp26
 70
     1
102
RTVSPropertyOp27
 70
     1
102
RTVSPropertyOp28
 70
     1
102
RTVSPropertyOp29
 70
     1
102
RTVSPropertyOp30
 70
     1
102
RTVSPropertyOp31
 70
     1
102
RTVSPropertyOp32
 70
     1
  0
XRECORD
  5
16E1
102
{ACAD_REACTORS
330
16E0
102
}
330
16E0
100
AcDbXrecord
280
     1
102
RTVSPropertyOp0
 70
     1
102
RTVSPropertyOp1
 70
     1
102
RTVSPropertyOp2
 70
     1
102
RTVSPropertyOp3
 70
     1
102
RTVSPropertyOp4
 70
     1
102
RTVSPropertyOp5
 70
     1
102
RTVSPropertyOp6
 70
     1
102
RTVSPropertyOp7
 70
     1
102
RTVSPropertyOp8
 70
     1
102
RTVSPropertyOp9
 70
     1
102
RTVSPropertyOp10
 70
     1
102
RTVSPropertyOp11
 70
     1
102
RTVSPropertyOp12
 70
     1
102
RTVSPropertyOp13
 70
     1
102
RTVSPropertyOp14
 70
     1
102
RTVSPropertyOp15
 70
     1
102
RTVSPropertyOp16
 70
     1
102
RTVSPropertyOp17
 70
     1
102
RTVSPropertyOp18
 70
     1
102
RTVSPropertyOp19
 70
     1
102
RTVSPropertyOp20
 70
     1
102
RTVSPropertyOp21
 70
     1
102
RTVSPropertyOp22
 70
     1
102
RTVSPropertyOp23
 70
     1
102
RTVSPropertyOp24
 70
     1
102
RTVSPropertyOp25
 70
     1
102
RTVSPropertyOp26
 70
     1
102
RTVSPropertyOp27
 70
     1
102
RTVSPropertyOp28
 70
     1
102
RTVSPropertyOp29
 70
     1
102
RTVSPropertyOp30
 70
     1
102
RTVSPropertyOp31
 70
     1
102
RTVSPropertyOp32
 70
     1
  0
XRECORD
  5
16D5
102
{ACAD_REACTORS
330
16D4
102
}
330
16D4
100
AcDbXrecord
280
     1
102
RTVSPropertyOp0
 70
     1
102
RTVSPropertyOp1
 70
     1
102
RTVSPropertyOp2
 70
     1
102
RTVSPropertyOp3
 70
     1
102
RTVSPropertyOp4
 70
     1
102
RTVSPropertyOp5
 70
     1
102
RTVSPropertyOp6
 70
     1
102
RTVSPropertyOp7
 70
     1
102
RTVSPropertyOp8
 70
     1
102
RTVSPropertyOp9
 70
     1
102
RTVSPropertyOp10
 70
     1
102
RTVSPropertyOp11
 70
     1
102
RTVSPropertyOp12
 70
     1
102
RTVSPropertyOp13
 70
     1
102
RTVSPropertyOp14
 70
     1
102
RTVSPropertyOp15
 70
     1
102
RTVSPropertyOp16
 70
     1
102
RTVSPropertyOp17
 70
     1
102
RTVSPropertyOp18
 70
     1
102
RTVSPropertyOp19
 70
     1
102
RTVSPropertyOp20
 70
     1
102
RTVSPropertyOp21
 70
     1
102
RTVSPropertyOp22
 70
     1
102
RTVSPropertyOp23
 70
     1
102
RTVSPropertyOp24
 70
     1
102
RTVSPropertyOp25
 70
     1
102
RTVSPropertyOp26
 70
     1
102
RTVSPropertyOp27
 70
     1
102
RTVSPropertyOp28
 70
     1
102
RTVSPropertyOp29
 70
     1
102
RTVSPropertyOp30
 70
     1
102
RTVSPropertyOp31
 70
     1
102
RTVSPropertyOp32
 70
     1
  0
XRECORD
  5
16ED
102
{ACAD_REACTORS
330
16EC
102
}
330
16EC
100
AcDbXrecord
280
     1
102
RTVSPropertyOp0
 70
     1
102
RTVSPropertyOp1
 70
     1
102
RTVSPropertyOp2
 70
     1
102
RTVSPropertyOp3
 70
     1
102
RTVSPropertyOp4
 70
     1
102
RTVSPropertyOp5
 70
     1
102
RTVSPropertyOp6
 70
     1
102
RTVSPropertyOp7
 70
     1
102
RTVSPropertyOp8
 70
     1
102
RTVSPropertyOp9
 70
     1
102
RTVSPropertyOp10
 70
     1
102
RTVSPropertyOp11
 70
     1
102
RTVSPropertyOp12
 70
     1
102
RTVSPropertyOp13
 70
     1
102
RTVSPropertyOp14
 70
     1
102
RTVSPropertyOp15
 70
     1
102
RTVSPropertyOp16
 70
     1
102
RTVSPropertyOp17
 70
     1
102
RTVSPropertyOp18
 70
     1
102
RTVSPropertyOp19
 70
     1
102
RTVSPropertyOp20
 70
     1
102
RTVSPropertyOp21
 70
     1
102
RTVSPropertyOp22
 70
     1
102
RTVSPropertyOp23
 70
     1
102
RTVSPropertyOp24
 70
     1
102
RTVSPropertyOp25
 70
     1
102
RTVSPropertyOp26
 70
     1
102
RTVSPropertyOp27
 70
     1
102
RTVSPropertyOp28
 70
     1
102
RTVSPropertyOp29
 70
     1
102
RTVSPropertyOp30
 70
     1
102
RTVSPropertyOp31
 70
     1
102
RTVSPropertyOp32
 70
     1
  0
ENDSEC
  0
EOF
