  0
SECTION
  2
HEADER
  9
$ACADVER
  1
AC1015
  9
$ACADMAINTVER
 70
    20
  9
$DWGCODEPAGE
  3
ANSI_932
  9
$INSBASE
 10
0.0
 20
0.0
 30
0.0
  9
$EXTMIN
 10
5.318935999999998
 20
-457.9647709999998
 30
0.0
  9
$EXTMAX
 10
410.318936
 20
-183.90941
 30
0.0
  9
$LIMMIN
 10
5.317936
 20
-457.965783
  9
$LIMMAX
 10
410.3457879999998
 20
-183.908409
  9
$ORTHOMODE
 70
     1
  9
$REGENMODE
 70
     1
  9
$FILLMODE
 70
     1
  9
$QTEXTMODE
 70
     0
  9
$MIRRTEXT
 70
     0
  9
$LTSCALE
 40
6.750430999999997
  9
$ATTMODE
 70
     1
  9
$TEXTSIZE
 40
3.2
  9
$TRACEWID
 40
0.05
  9
$TEXTSTYLE
  7
高3.2
  9
$CLAYER
  8
0
  9
$CELTYPE
  6
ByLayer
  9
$CECOLOR
 62
   256
  9
$CELTSCALE
 40
1.0
  9
$DISPSILH
 70
     0
  9
$DIMSCALE
 40
1.0
  9
$DIMASZ
 40
2.5
  9
$DIMEXO
 40
0.25
  9
$DIMDLI
 40
0.2
  9
$DIMRND
 40
0.0
  9
$DIMDLE
 40
0.0
  9
$DIMEXE
 40
1.25
  9
$DIMTP
 40
0.0
  9
$DIMTM
 40
0.0
  9
$DIMTXT
 40
3.0
  9
$DIMCEN
 40
0.0
  9
$DIMTSZ
 40
0.0
  9
$DIMTOL
 70
     0
  9
$DIMLIM
 70
     0
  9
$DIMTIH
 70
     0
  9
$DIMTOH
 70
     0
  9
$DIMSE1
 70
     0
  9
$DIMSE2
 70
     0
  9
$DIMTAD
 70
     3
  9
$DIMZIN
 70
     8
  9
$DIMBLK
  1
Open30
  9
$DIMASO
 70
     1
  9
$DIMSHO
 70
     1
  9
$DIMPOST
  1

  9
$DIMAPOST
  1

  9
$DIMALT
 70
     0
  9
$DIMALTD
 70
     3
  9
$DIMALTF
 40
0.03937007874016
  9
$DIMLFAC
 40
2.0
  9
$DIMTOFL
 70
     1
  9
$DIMTVP
 40
0.0
  9
$DIMTIX
 70
     0
  9
$DIMSOXD
 70
     0
  9
$DIMSAH
 70
     0
  9
$DIMBLK1
  1

  9
$DIMBLK2
  1

  9
$DIMSTYLE
  2
1／2
  9
$DIMCLRD
 70
     0
  9
$DIMCLRE
 70
     0
  9
$DIMCLRT
 70
     4
  9
$DIMTFAC
 40
1.0
  9
$DIMGAP
 40
0.625
  9
$DIMJUST
 70
     0
  9
$DIMSD1
 70
     0
  9
$DIMSD2
 70
     0
  9
$DIMTOLJ
 70
     0
  9
$DIMTZIN
 70
     8
  9
$DIMALTZ
 70
     0
  9
$DIMALTTZ
 70
     0
  9
$DIMUPT
 70
     1
  9
$DIMDEC
 70
     2
  9
$DIMTDEC
 70
     2
  9
$DIMALTU
 70
     2
  9
$DIMALTTD
 70
     3
  9
$DIMTXSTY
  7
STANDARD
  9
$DIMAUNIT
 70
     0
  9
$DIMADEC
 70
     1
  9
$DIMALTRND
 40
0.0
  9
$DIMAZIN
 70
     2
  9
$DIMDSEP
 70
    46
  9
$DIMATFIT
 70
     0
  9
$DIMFRAC
 70
     0
  9
$DIMLDRBLK
  1
Open30
  9
$DIMLUNIT
 70
     2
  9
$DIMLWD
 70
    -2
  9
$DIMLWE
 70
    -2
  9
$DIMTMOVE
 70
     0
  9
$LUNITS
 70
     2
  9
$LUPREC
 70
     4
  9
$SKETCHINC
 40
0.1
  9
$FILLETRAD
 40
0.0
  9
$AUNITS
 70
     0
  9
$AUPREC
 70
     0
  9
$MENU
  1
.
  9
$ELEVATION
 40
0.0
  9
$PELEVATION
 40
0.0
  9
$THICKNESS
 40
0.0
  9
$LIMCHECK
 70
     0
  9
$CHAMFERA
 40
0.0
  9
$CHAMFERB
 40
0.0
  9
$CHAMFERC
 40
0.0
  9
$CHAMFERD
 40
0.0
  9
$SKPOLY
 70
     0
  9
$TDCREATE
 40
2456214.611801378
  9
$TDUCREATE
 40
2456214.236801378
  9
$TDUPDATE
 40
2459893.498894630
  9
$TDUUPDATE
 40
2459893.123894630
  9
$TDINDWG
 40
0.0773860880
  9
$TDUSRTIMER
 40
0.0773855556
  9
$USRTIMER
 70
     1
  9
$ANGBASE
 50
0.0
  9
$ANGDIR
 70
     0
  9
$PDMODE
 70
     0
  9
$PDSIZE
 40
0.0
  9
$PLINEWID
 40
0.0
  9
$SPLFRAME
 70
     0
  9
$SPLINETYPE
 70
     6
  9
$SPLINESEGS
 70
     8
  9
$HANDSEED
  5
1669
  9
$SURFTAB1
 70
     6
  9
$SURFTAB2
 70
     6
  9
$SURFTYPE
 70
     6
  9
$SURFU
 70
     6
  9
$SURFV
 70
     6
  9
$UCSBASE
  2

  9
$UCSNAME
  2

  9
$UCSORG
 10
0.0
 20
0.0
 30
0.0
  9
$UCSXDIR
 10
1.0
 20
0.0
 30
0.0
  9
$UCSYDIR
 10
0.0
 20
1.0
 30
0.0
  9
$UCSORTHOREF
  2

  9
$UCSORTHOVIEW
 70
     0
  9
$UCSORGTOP
 10
0.0
 20
0.0
 30
0.0
  9
$UCSORGBOTTOM
 10
0.0
 20
0.0
 30
0.0
  9
$UCSORGLEFT
 10
0.0
 20
0.0
 30
0.0
  9
$UCSORGRIGHT
 10
0.0
 20
0.0
 30
0.0
  9
$UCSORGFRONT
 10
0.0
 20
0.0
 30
0.0
  9
$UCSORGBACK
 10
0.0
 20
0.0
 30
0.0
  9
$PUCSBASE
  2

  9
$PUCSNAME
  2

  9
$PUCSORG
 10
0.0
 20
0.0
 30
0.0
  9
$PUCSXDIR
 10
1.0
 20
0.0
 30
0.0
  9
$PUCSYDIR
 10
0.0
 20
1.0
 30
0.0
  9
$PUCSORTHOREF
  2

  9
$PUCSORTHOVIEW
 70
     0
  9
$PUCSORGTOP
 10
0.0
 20
0.0
 30
0.0
  9
$PUCSORGBOTTOM
 10
0.0
 20
0.0
 30
0.0
  9
$PUCSORGLEFT
 10
0.0
 20
0.0
 30
0.0
  9
$PUCSORGRIGHT
 10
0.0
 20
0.0
 30
0.0
  9
$PUCSORGFRONT
 10
0.0
 20
0.0
 30
0.0
  9
$PUCSORGBACK
 10
0.0
 20
0.0
 30
0.0
  9
$USERI1
 70
     0
  9
$USERI2
 70
     0
  9
$USERI3
 70
     0
  9
$USERI4
 70
     0
  9
$USERI5
 70
     0
  9
$USERR1
 40
0.0
  9
$USERR2
 40
0.0
  9
$USERR3
 40
0.0
  9
$USERR4
 40
0.0
  9
$USERR5
 40
0.0
  9
$WORLDVIEW
 70
     1
  9
$SHADEDGE
 70
     3
  9
$SHADEDIF
 70
    70
  9
$TILEMODE
 70
     1
  9
$MAXACTVP
 70
    64
  9
$PINSBASE
 10
0.0
 20
0.0
 30
0.0
  9
$PLIMCHECK
 70
     0
  9
$PEXTMIN
 10
1.000000000000000E+20
 20
1.000000000000000E+20
 30
1.000000000000000E+20
  9
$PEXTMAX
 10
-1.000000000000000E+20
 20
-1.000000000000000E+20
 30
-1.000000000000000E+20
  9
$PLIMMIN
 10
0.0
 20
0.0
  9
$PLIMMAX
 10
12.0
 20
9.0
  9
$UNITMODE
 70
     0
  9
$VISRETAIN
 70
     1
  9
$PLINEGEN
 70
     0
  9
$PSLTSCALE
 70
     1
  9
$TREEDEPTH
 70
  3020
  9
$CMLSTYLE
  2
Standard
  9
$CMLJUST
 70
     0
  9
$CMLSCALE
 40
1.0
  9
$PROXYGRAPHICS
 70
     1
  9
$MEASUREMENT
 70
     0
  9
$CELWEIGHT
370
    -1
  9
$ENDCAPS
280
     0
  9
$JOINSTYLE
280
     0
  9
$LWDISPLAY
290
     0
  9
$INSUNITS
 70
     0
  9
$HYPERLINKBASE
  1

  9
$STYLESHEET
  1

  9
$XEDIT
290
     1
  9
$CEPSNTYPE
380
     0
  9
$PSTYLEMODE
290
     1
  9
$FINGERPRINTGUID
  2
{C2E89311-4BCD-4795-A8CA-EE4B357DC034}
  9
$VERSIONGUID
  2
{C8146AB9-BEE6-4605-981A-FF814B0DEC24}
  9
$EXTNAMES
290
     1
  9
$PSVPSCALE
 40
0.0
  9
$OLESTARTUP
290
     0
  0
ENDSEC
  0
SECTION
  2
CLASSES
  0
CLASS
  1
ACDBDICTIONARYWDFLT
  2
AcDbDictionaryWithDefault
  3
ObjectDBX Classes
 90
        0
280
     0
281
     0
  0
CLASS
  1
MATERIAL
  2
AcDbMaterial
  3
ObjectDBX Classes
 90
     1153
280
     0
281
     0
  0
CLASS
  1
VISUALSTYLE
  2
AcDbVisualStyle
  3
ObjectDBX Classes
 90
     4095
280
     0
281
     0
  0
CLASS
  1
SCALE
  2
AcDbScale
  3
ObjectDBX Classes
 90
     1153
280
     0
281
     0
  0
CLASS
  1
TABLESTYLE
  2
AcDbTableStyle
  3
ObjectDBX Classes
 90
     4095
280
     0
281
     0
  0
CLASS
  1
MLEADERSTYLE
  2
AcDbMLeaderStyle
  3
ACDB_MLEADERSTYLE_CLASS
 90
     4095
280
     0
281
     0
  0
CLASS
  1
SORTENTSTABLE
  2
AcDbSortentsTable
  3
ObjectDBX Classes
 90
        0
280
     0
281
     0
  0
CLASS
  1
DICTIONARYVAR
  2
AcDbDictionaryVar
  3
ObjectDBX Classes
 90
        0
280
     0
281
     0
  0
CLASS
  1
CELLSTYLEMAP
  2
AcDbCellStyleMap
  3
ObjectDBX Classes
 90
     1152
280
     0
281
     0
  0
CLASS
  1
ACDBPLACEHOLDER
  2
AcDbPlaceHolder
  3
ObjectDBX Classes
 90
        0
280
     0
281
     0
  0
CLASS
  1
LAYOUT
  2
AcDbLayout
  3
ObjectDBX Classes
 90
        0
280
     0
281
     0
  0
ENDSEC
  0
SECTION
  2
TABLES
  0
TABLE
  2
VPORT
  5
8
330
0
100
AcDbSymbolTable
 70
     1
  0
VPORT
  5
8B
330
8
100
AcDbSymbolTableRecord
100
AcDbViewportTableRecord
  2
*Active
 70
     0
 10
0.0
 20
0.0
 11
1.0
 21
1.0
 12
231.6641883718984
 22
-332.3567156362487
 13
0.0
 23
0.0
 14
1.0
 24
1.0
 15
0.0
 25
0.0
 16
0.0
 26
0.0
 36
1.0
 17
0.0
 27
0.0
 37
0.0
 40
681.1326361067082
 41
1.238292011019283
 42
50.0
 43
0.0
 44
0.0
 50
0.0
 51
0.0
 71
     0
 72
   100
 73
     1
 74
     1
 75
     0
 76
     0
 77
     0
 78
     0
281
     0
 65
     1
110
0.0
120
0.0
130
0.0
111
1.0
121
0.0
131
0.0
112
0.0
122
1.0
132
0.0
 79
     0
146
0.0
  0
ENDTAB
  0
TABLE
  2
LTYPE
  5
5
330
0
100
AcDbSymbolTable
 70
     2
  0
LTYPE
  5
5A
330
5
100
AcDbSymbolTableRecord
100
AcDbLinetypeTableRecord
  2
ByBlock
 70
     0
  3

 72
    65
 73
     0
 40
0.0
  0
LTYPE
  5
5B
330
5
100
AcDbSymbolTableRecord
100
AcDbLinetypeTableRecord
  2
ByLayer
 70
     0
  3

 72
    65
 73
     0
 40
0.0
  0
LTYPE
  5
5C
330
5
100
AcDbSymbolTableRecord
100
AcDbLinetypeTableRecord
  2
CONTINUOUS
 70
     0
  3
Solid-line
 72
    65
 73
     0
 40
0.0
  0
ENDTAB
  0
TABLE
  2
LAYER
  5
2
102
{ACAD_XDICTIONARY
360
3C2
102
}
330
0
100
AcDbSymbolTable
 70
     2
  0
LAYER
  5
54
102
{ACAD_XDICTIONARY
360
56E
102
}
330
2
100
AcDbSymbolTableRecord
100
AcDbLayerTableRecord
  2
0
 70
     0
 62
     7
  6
CONTINUOUS
370
    -3
390
F
  0
LAYER
  5
3AD
330
2
100
AcDbSymbolTableRecord
100
AcDbLayerTableRecord
  2
Defpoints
 70
     0
 62
     7
  6
CONTINUOUS
290
     0
370
    -3
390
F
  0
ENDTAB
  0
TABLE
  2
STYLE
  5
3
330
0
100
AcDbSymbolTable
 70
     6
  0
STYLE
  5
55
330
3
100
AcDbSymbolTableRecord
100
AcDbTextStyleTableRecord
  2
STANDARD
 70
     0
 40
0.0
 41
1.0
 50
0.0
 71
     0
 42
0.2
  3
TXT
  4
BIGFONT
  0
STYLE
  5
3AE
330
3
100
AcDbSymbolTableRecord
100
AcDbTextStyleTableRecord
  2
高3.2
 70
     0
 40
3.2
 41
1.0
 50
0.0
 71
     0
 42
3.2
  3
txt.shx
  4
bigfont.shx
  0
STYLE
  5
3AF
330
3
100
AcDbSymbolTableRecord
100
AcDbTextStyleTableRecord
  2
高6.3
 70
     0
 40
6.299999999999998
 41
1.0
 50
0.0
 71
     0
 42
6.299999999999998
  3
txt.shx
  4
bigfont.shx
  0
STYLE
  5
3B0
330
3
100
AcDbSymbolTableRecord
100
AcDbTextStyleTableRecord
  2
高2.5
 70
     0
 40
2.5
 41
1.0
 50
0.0
 71
     0
 42
0.2
  3
txt.shx
  4
bigfont.shx
  0
STYLE
  5
3B1
330
3
100
AcDbSymbolTableRecord
100
AcDbTextStyleTableRecord
  2
高4.5
 70
     0
 40
4.5
 41
1.0
 50
0.0
 71
     0
 42
6.299999999999998
  3
txt.shx
  4
bigfont.shx
  0
STYLE
  5
3B2
330
3
100
AcDbSymbolTableRecord
100
AcDbTextStyleTableRecord
  2
高2
 70
     0
 40
2.0
 41
1.0
 50
0.0
 71
     0
 42
2.0
  3
txt.shx
  4
bigfont.shx
  0
ENDTAB
  0
TABLE
  2
VIEW
  5
6
330
0
100
AcDbSymbolTable
 70
     0
  0
ENDTAB
  0
TABLE
  2
UCS
  5
7
330
0
100
AcDbSymbolTable
 70
     0
  0
ENDTAB
  0
TABLE
  2
APPID
  5
9
330
0
100
AcDbSymbolTable
 70
    12
  0
APPID
  5
56
330
9
100
AcDbSymbolTableRecord
100
AcDbRegAppTableRecord
  2
ACAD
 70
     0
  0
APPID
  5
5D
330
9
100
AcDbSymbolTableRecord
100
AcDbRegAppTableRecord
  2
AcadAnnotative
 70
     0
  0
APPID
  5
3BD
330
9
100
AcDbSymbolTableRecord
100
AcDbRegAppTableRecord
  2
ACAD_DSTYLE_DIMJOGGED_JOGANGLE_SYMBOL
 70
     0
  0
APPID
  5
3BE
330
9
100
AcDbSymbolTableRecord
100
AcDbRegAppTableRecord
  2
ACAD_DSTYLE_DIMJAG
 70
     0
  0
APPID
  5
3BF
330
9
100
AcDbSymbolTableRecord
100
AcDbRegAppTableRecord
  2
ACAD_DSTYLE_DIMBREAK
 70
     0
  0
APPID
  5
3C0
330
9
100
AcDbSymbolTableRecord
100
AcDbRegAppTableRecord
  2
ACAD_DSTYLE_DIMTALN
 70
     0
  0
APPID
  5
502
330
9
100
AcDbSymbolTableRecord
100
AcDbRegAppTableRecord
  2
ACAD_EXEMPT_FROM_CAD_STANDARDS
 70
     0
  0
APPID
  5
5B6
330
9
100
AcDbSymbolTableRecord
100
AcDbRegAppTableRecord
  2
ACAD_MLEADERVER
 70
     0
  0
APPID
  5
5BB
330
9
100
AcDbSymbolTableRecord
100
AcDbRegAppTableRecord
  2
ACAD_DSTYLE_DIMARC_LENGTH_SYMBOL
 70
     0
  0
APPID
  5
5BC
330
9
100
AcDbSymbolTableRecord
100
AcDbRegAppTableRecord
  2
ACAD_DSTYLE_DIMEXT_LENGTH
 70
     0
  0
APPID
  5
664
330
9
100
AcDbSymbolTableRecord
100
AcDbRegAppTableRecord
  2
ACAD_PSEXT
 70
     0
  0
APPID
  5
EA9
330
9
100
AcDbSymbolTableRecord
100
AcDbRegAppTableRecord
  2
ACAD_DSTYLE_DIMRADIAL_EXTENSION
 70
     0
  0
ENDTAB
  0
TABLE
  2
DIMSTYLE
  5
A
330
0
100
AcDbSymbolTable
 70
     2
100
AcDbDimStyleTable
 71
     2
340
3B7
340
57
  0
DIMSTYLE
105
57
330
A
100
AcDbSymbolTableRecord
100
AcDbDimStyleTableRecord
  2
Standard
 70
     0
340
55
  0
DIMSTYLE
105
3B7
330
A
100
AcDbSymbolTableRecord
100
AcDbDimStyleTableRecord
  2
1／2
 70
     0
 41
2.5
 42
0.25
 43
0.2
 44
1.25
 73
     0
 74
     0
 77
     3
 78
     8
 79
     2
140
3.0
141
0.0
143
0.03937007874016
144
2.0
147
0.625
171
     3
172
     1
178
     4
179
     1
271
     2
272
     2
274
     3
283
     0
284
     8
288
     1
289
     0
340
55
341
31D
342
31D
1001
ACAD_DSTYLE_DIMARC_LENGTH_SYMBOL
1070
   379
1070
     2
1001
ACAD_DSTYLE_DIMEXT_LENGTH
1070
   378
1040
1.25
1001
ACAD_DSTYLE_DIMJOGGED_JOGANGLE_SYMBOL
1070
   384
1040
1.570796326794896
  0
ENDTAB
  0
TABLE
  2
BLOCK_RECORD
  5
1
330
0
100
AcDbSymbolTable
 70
     7
  0
BLOCK_RECORD
  5
6B
102
{ACAD_XDICTIONARY
360
55D
102
}
330
1
100
AcDbSymbolTableRecord
100
AcDbBlockTableRecord
  2
*Model_Space
340
6E
  0
BLOCK_RECORD
  5
67
330
1
100
AcDbSymbolTableRecord
100
AcDbBlockTableRecord
  2
*Paper_Space
340
6A
  0
BLOCK_RECORD
  5
31D
330
1
100
AcDbSymbolTableRecord
100
AcDbBlockTableRecord
  2
_Open30
340
0
102
{BLKREFS
331
14FF
331
1500
331
1508
331
1509
331
1511
331
1512
331
151C
331
151D
331
1525
331
1526
331
152E
331
152F
102
}
  0
BLOCK_RECORD
  5
FFD
330
1
100
AcDbSymbolTableRecord
100
AcDbBlockTableRecord
  2
*D1
340
0
  0
BLOCK_RECORD
  5
100A
330
1
100
AcDbSymbolTableRecord
100
AcDbBlockTableRecord
  2
*D2
340
0
  0
BLOCK_RECORD
  5
1017
330
1
100
AcDbSymbolTableRecord
100
AcDbBlockTableRecord
  2
*D3
340
0
  0
BLOCK_RECORD
  5
1024
330
1
100
AcDbSymbolTableRecord
100
AcDbBlockTableRecord
  2
*D4
340
0
  0
BLOCK_RECORD
  5
1033
330
1
100
AcDbSymbolTableRecord
100
AcDbBlockTableRecord
  2
*D5
340
0
  0
BLOCK_RECORD
  5
1052
330
1
100
AcDbSymbolTableRecord
100
AcDbBlockTableRecord
  2
*D6
340
0
  0
ENDTAB
  0
ENDSEC
  0
SECTION
  2
BLOCKS
  0
BLOCK
  5
6C
330
6B
100
AcDbEntity
  8
0
100
AcDbBlockBegin
  2
*Model_Space
 70
     0
 10
0.0
 20
0.0
 30
0.0
  3
*Model_Space
  1

  0
ENDBLK
  5
6D
330
6B
100
AcDbEntity
  8
0
100
AcDbBlockEnd
  0
BLOCK
  5
68
330
67
100
AcDbEntity
 67
     1
  8
0
100
AcDbBlockBegin
  2
*Paper_Space
 70
     0
 10
0.0
 20
0.0
 30
0.0
  3
*Paper_Space
  1

  0
ENDBLK
  5
69
330
67
100
AcDbEntity
 67
     1
  8
0
100
AcDbBlockEnd
  0
BLOCK
  5
31E
330
31D
100
AcDbEntity
  8
0
100
AcDbBlockBegin
  2
_Open30
 70
     0
 10
0.0
 20
0.0
 30
0.0
  3
_Open30
  1

  0
LINE
  5
31F
330
31D
100
AcDbEntity
  8
0
  6
ByBlock
 62
     0
370
    -2
100
AcDbLine
 10
-1.0
 20
0.267949
 30
0.0
 11
0.0
 21
0.0
 31
0.0
  0
LINE
  5
320
330
31D
100
AcDbEntity
  8
0
  6
ByBlock
 62
     0
370
    -2
100
AcDbLine
 10
0.0
 20
0.0
 30
0.0
 11
-1.0
 21
-0.267949
 31
0.0
  0
LINE
  5
321
330
31D
100
AcDbEntity
  8
0
  6
ByBlock
 62
     0
370
    -2
100
AcDbLine
 10
0.0
 20
0.0
 30
0.0
 11
-1.0
 21
0.0
 31
0.0
  0
ENDBLK
  5
322
330
31D
100
AcDbEntity
  8
0
100
AcDbBlockEnd
  0
BLOCK
  5
FFE
330
FFD
100
AcDbEntity
  8
0
100
AcDbBlockBegin
  2
*D1
 70
     1
 10
0.0
 20
0.0
 30
0.0
  3
*D1
  1

  0
LINE
  5
14FC
330
FFD
100
AcDbEntity
  8
0
 62
     0
370
    -2
100
AcDbLine
 10
182.3461054630147
 20
-308.8641448595149
 30
0.0
 11
182.3461054630147
 21
-329.1952667494149
 31
0.0
  0
LINE
  5
14FD
330
FFD
100
AcDbEntity
  8
0
 62
     0
370
    -2
100
AcDbLine
 10
81.34610546301473
 20
-308.8641448595149
 30
0.0
 11
81.34610546301473
 21
-329.1952667494149
 31
0.0
  0
LINE
  5
14FE
330
FFD
100
AcDbEntity
  8
0
 62
     0
370
    -2
100
AcDbLine
 10
179.8461054630147
 20
-327.9452667494149
 30
0.0
 11
83.84610546301473
 21
-327.9452667494149
 31
0.0
  0
INSERT
  5
14FF
330
FFD
100
AcDbEntity
  8
0
 62
     0
370
    -2
100
AcDbBlockReference
  2
_Open30
 10
182.3461054630147
 20
-327.9452667494149
 30
0.0
 41
2.5
 42
2.5
 43
2.5
  0
INSERT
  5
1500
330
FFD
100
AcDbEntity
  8
0
 62
     0
370
    -2
100
AcDbBlockReference
  2
_Open30
 10
81.34610546301473
 20
-327.9452667494149
 30
0.0
 41
2.5
 42
2.5
 43
2.5
 50
180.0
  0
MTEXT
  5
1501
330
FFD
100
AcDbEntity
  8
0
 62
     4
100
AcDbMText
 10
129.8333684897557
 20
-325.8202667494149
 30
0.0
 40
3.0
 41
0.0
 71
     5
 72
     1
  1
202
 73
     1
 44
1.0
1001
ACAD
1000
MTEXTBEGIN
1070
    73
1070
     1
1070
    44
1040
1.0
1070
    74
1070
     0
1000
MTEXTEND
  0
POINT
  5
1502
330
FFD
100
AcDbEntity
  8
Defpoints
 62
     0
100
AcDbPoint
 10
182.3461054630147
 20
-308.6141448595149
 30
0.0
  0
POINT
  5
1503
330
FFD
100
AcDbEntity
  8
Defpoints
 62
     0
100
AcDbPoint
 10
81.34610546301473
 20
-308.6141448595149
 30
0.0
  0
POINT
  5
1504
330
FFD
100
AcDbEntity
  8
Defpoints
 62
     0
100
AcDbPoint
 10
81.34610546301473
 20
-327.9452667494149
 30
0.0
  0
ENDBLK
  5
FFF
330
FFD
100
AcDbEntity
  8
0
100
AcDbBlockEnd
  0
BLOCK
  5
100B
330
100A
100
AcDbEntity
  8
0
100
AcDbBlockBegin
  2
*D2
 70
     1
 10
0.0
 20
0.0
 30
0.0
  3
*D2
  1

  0
LINE
  5
1505
330
100A
100
AcDbEntity
  8
0
 62
     0
370
    -2
100
AcDbLine
 10
313.0226888430454
 20
-308.8641448595149
 30
0.0
 11
313.0226888430454
 21
-328.4524305630318
 31
0.0
  0
LINE
  5
1506
330
100A
100
AcDbEntity
  8
0
 62
     0
370
    -2
100
AcDbLine
 10
228.0226888430454
 20
-301.3641448595149
 30
0.0
 11
228.0226888430454
 21
-328.4524305630318
 31
0.0
  0
LINE
  5
1507
330
100A
100
AcDbEntity
  8
0
 62
     0
370
    -2
100
AcDbLine
 10
310.5226888430454
 20
-327.2024305630318
 30
0.0
 11
230.5226888430454
 21
-327.2024305630318
 31
0.0
  0
INSERT
  5
1508
330
100A
100
AcDbEntity
  8
0
 62
     0
370
    -2
100
AcDbBlockReference
  2
_Open30
 10
313.0226888430454
 20
-327.2024305630318
 30
0.0
 41
2.5
 42
2.5
 43
2.5
  0
INSERT
  5
1509
330
100A
100
AcDbEntity
  8
0
 62
     0
370
    -2
100
AcDbBlockReference
  2
_Open30
 10
228.0226888430454
 20
-327.2024305630318
 30
0.0
 41
2.5
 42
2.5
 43
2.5
 50
180.0
  0
MTEXT
  5
150A
330
100A
100
AcDbEntity
  8
0
 62
     4
100
AcDbMText
 10
271.6930900153984
 20
-325.0774305630318
 30
0.0
 40
3.0
 41
0.0
 71
     5
 72
     1
  1
170
 73
     1
 44
1.0
1001
ACAD
1000
MTEXTBEGIN
1070
    73
1070
     1
1070
    44
1040
1.0
1070
    74
1070
     0
1000
MTEXTEND
  0
POINT
  5
150B
330
100A
100
AcDbEntity
  8
Defpoints
 62
     0
100
AcDbPoint
 10
313.0226888430454
 20
-308.6141448595149
 30
0.0
  0
POINT
  5
150C
330
100A
100
AcDbEntity
  8
Defpoints
 62
     0
100
AcDbPoint
 10
228.0226888430454
 20
-301.1141448595149
 30
0.0
  0
POINT
  5
150D
330
100A
100
AcDbEntity
  8
Defpoints
 62
     0
100
AcDbPoint
 10
228.0226888430454
 20
-327.2024305630318
 30
0.0
  0
ENDBLK
  5
100C
330
100A
100
AcDbEntity
  8
0
100
AcDbBlockEnd
  0
BLOCK
  5
1018
330
1017
100
AcDbEntity
  8
0
100
AcDbBlockBegin
  2
*D3
 70
     1
 10
0.0
 20
0.0
 30
0.0
  3
*D3
  1

  0
LINE
  5
150E
330
1017
100
AcDbEntity
  8
0
 62
     0
370
    -2
100
AcDbLine
 10
318.7726888430455
 20
-258.6641448595149
 30
0.0
 11
318.7726888430455
 21
-221.8961853438323
 31
0.0
  0
LINE
  5
150F
330
1017
100
AcDbEntity
  8
0
 62
     0
370
    -2
100
AcDbLine
 10
228.0226888430454
 20
-244.8641448595149
 30
0.0
 11
228.0226888430454
 21
-221.8961853438323
 31
0.0
  0
LINE
  5
1510
330
1017
100
AcDbEntity
  8
0
 62
     0
370
    -2
100
AcDbLine
 10
316.2726888430455
 20
-223.1461853438323
 30
0.0
 11
230.5226888430454
 21
-223.1461853438323
 31
0.0
  0
INSERT
  5
1511
330
1017
100
AcDbEntity
  8
0
 62
     0
370
    -2
100
AcDbBlockReference
  2
_Open30
 10
318.7726888430455
 20
-223.1461853438323
 30
0.0
 41
2.5
 42
2.5
 43
2.5
  0
INSERT
  5
1512
330
1017
100
AcDbEntity
  8
0
 62
     0
370
    -2
100
AcDbBlockReference
  2
_Open30
 10
228.0226888430454
 20
-223.1461853438323
 30
0.0
 41
2.5
 42
2.5
 43
2.5
 50
180.0
  0
MTEXT
  5
1513
330
1017
100
AcDbEntity
  8
0
 62
     4
100
AcDbMText
 10
271.3249035527919
 20
-221.0211853438323
 30
0.0
 40
3.0
 41
0.0
 71
     5
 72
     1
  1
181.5
 73
     1
 44
1.0
1001
ACAD
1000
MTEXTBEGIN
1070
    73
1070
     1
1070
    44
1040
1.0
1070
    74
1070
     0
1000
MTEXTEND
  0
POINT
  5
1514
330
1017
100
AcDbEntity
  8
Defpoints
 62
     0
100
AcDbPoint
 10
318.7726888430455
 20
-258.9141448595149
 30
0.0
  0
POINT
  5
1515
330
1017
100
AcDbEntity
  8
Defpoints
 62
     0
100
AcDbPoint
 10
228.0226888430454
 20
-245.1141448595149
 30
0.0
  0
POINT
  5
1516
330
1017
100
AcDbEntity
  8
Defpoints
 62
     0
100
AcDbPoint
 10
228.0226888430454
 20
-223.1461853438323
 30
0.0
  0
ENDBLK
  5
1019
330
1017
100
AcDbEntity
  8
0
100
AcDbBlockEnd
  0
BLOCK
  5
1025
330
1024
100
AcDbEntity
  8
0
100
AcDbBlockBegin
  2
*D4
 70
     1
 10
0.0
 20
0.0
 30
0.0
  3
*D4
  1

  0
LINE
  5
1517
330
1024
100
AcDbEntity
  8
0
 62
     0
370
    -2
100
AcDbLine
 10
176.3461054630147
 20
-314.6141448595149
 30
0.0
 11
204.6237232177152
 21
-314.6141448595149
 31
0.0
  0
LINE
  5
1518
330
1024
100
AcDbEntity
  8
0
 62
     0
370
    -2
100
AcDbLine
 10
182.5961054630147
 20
-308.6141448595149
 30
0.0
 11
204.6237232177152
 21
-308.6141448595149
 31
0.0
  0
LINE
  5
1519
330
1024
100
AcDbEntity
  8
0
 62
     0
370
    -2
100
AcDbLine
 10
203.3737232177152
 20
-306.1141448595149
 30
0.0
 11
203.3737232177152
 21
-303.6141448595149
 31
0.0
  0
LINE
  5
151A
330
1024
100
AcDbEntity
  8
0
 62
     0
370
    -2
100
AcDbLine
 10
203.3737232177152
 20
-317.1141448595149
 30
0.0
 11
203.3737232177152
 21
-324.864144859515
 31
0.0
  0
LINE
  5
151B
330
1024
100
AcDbEntity
  8
0
 62
     0
370
    -2
100
AcDbLine
 10
203.3737232177152
 20
-308.6141448595149
 30
0.0
 11
203.3737232177152
 21
-314.6141448595149
 31
0.0
  0
INSERT
  5
151C
330
1024
100
AcDbEntity
  8
0
 62
     0
370
    -2
100
AcDbBlockReference
  2
_Open30
 10
203.3737232177152
 20
-308.6141448595149
 30
0.0
 41
2.5
 42
2.5
 43
2.5
 50
270.0
  0
INSERT
  5
151D
330
1024
100
AcDbEntity
  8
0
 62
     0
370
    -2
100
AcDbBlockReference
  2
_Open30
 10
203.3737232177152
 20
-314.6141448595149
 30
0.0
 41
2.5
 42
2.5
 43
2.5
 50
90.0
  0
MTEXT
  5
151E
330
1024
100
AcDbEntity
  8
0
 62
     4
100
AcDbMText
 10
201.2487232177152
 20
-322.2391448595149
 30
0.0
 40
3.0
 41
0.0
 71
     5
 72
     1
  1
12
 11
0.0000000000000001
 21
1.0
 31
0.0
 73
     1
 44
1.0
1001
ACAD
1000
MTEXTBEGIN
1070
    73
1070
     1
1070
    44
1040
1.0
1070
    74
1070
     0
1000
MTEXTEND
  0
POINT
  5
151F
330
1024
100
AcDbEntity
  8
Defpoints
 62
     0
100
AcDbPoint
 10
176.0961054630147
 20
-314.6141448595149
 30
0.0
  0
POINT
  5
1520
330
1024
100
AcDbEntity
  8
Defpoints
 62
     0
100
AcDbPoint
 10
182.3461054630147
 20
-308.6141448595149
 30
0.0
  0
POINT
  5
1521
330
1024
100
AcDbEntity
  8
Defpoints
 62
     0
100
AcDbPoint
 10
203.3737232177152
 20
-308.6141448595149
 30
0.0
  0
ENDBLK
  5
1026
330
1024
100
AcDbEntity
  8
0
100
AcDbBlockEnd
  0
BLOCK
  5
1034
330
1033
100
AcDbEntity
  8
0
100
AcDbBlockBegin
  2
*D5
 70
     1
 10
0.0
 20
0.0
 30
0.0
  3
*D5
  1

  0
LINE
  5
1522
330
1033
100
AcDbEntity
  8
0
 62
     0
370
    -2
100
AcDbLine
 10
182.5961054630147
 20
-308.6141448595149
 30
0.0
 11
204.623723217715
 21
-308.6141448595149
 31
0.0
  0
LINE
  5
1523
330
1033
100
AcDbEntity
  8
0
 62
     0
370
    -2
100
AcDbLine
 10
179.0961054630147
 20
-245.1141448595149
 30
0.0
 11
204.623723217715
 21
-245.114144859515
 31
0.0
  0
LINE
  5
1524
330
1033
100
AcDbEntity
  8
0
 62
     0
370
    -2
100
AcDbLine
 10
203.373723217715
 20
-306.1141448595149
 30
0.0
 11
203.373723217715
 21
-247.614144859515
 31
0.0
  0
INSERT
  5
1525
330
1033
100
AcDbEntity
  8
0
 62
     0
370
    -2
100
AcDbBlockReference
  2
_Open30
 10
203.373723217715
 20
-308.6141448595149
 30
0.0
 41
2.5
 42
2.5
 43
2.5
 50
270.0
  0
INSERT
  5
1526
330
1033
100
AcDbEntity
  8
0
 62
     0
370
    -2
100
AcDbBlockReference
  2
_Open30
 10
203.373723217715
 20
-245.114144859515
 30
0.0
 41
2.5
 42
2.5
 43
2.5
 50
90.0
  0
MTEXT
  5
1527
330
1033
100
AcDbEntity
  8
0
 62
     4
100
AcDbMText
 10
201.248723217715
 20
-276.8641448595149
 30
0.0
 40
3.0
 41
0.0
 71
     5
 72
     1
  1
127
 11
0.0000000000000001
 21
1.0
 31
0.0
 73
     1
 44
1.0
1001
ACAD
1000
MTEXTBEGIN
1070
    73
1070
     1
1070
    44
1040
1.0
1070
    74
1070
     0
1000
MTEXTEND
  0
POINT
  5
1528
330
1033
100
AcDbEntity
  8
Defpoints
 62
     0
100
AcDbPoint
 10
182.3461054630147
 20
-308.6141448595149
 30
0.0
  0
POINT
  5
1529
330
1033
100
AcDbEntity
  8
Defpoints
 62
     0
100
AcDbPoint
 10
178.8461054630147
 20
-245.1141448595149
 30
0.0
  0
POINT
  5
152A
330
1033
100
AcDbEntity
  8
Defpoints
 62
     0
100
AcDbPoint
 10
203.373723217715
 20
-245.114144859515
 30
0.0
  0
ENDBLK
  5
1035
330
1033
100
AcDbEntity
  8
0
100
AcDbBlockEnd
  0
BLOCK
  5
1053
330
1052
100
AcDbEntity
  8
0
100
AcDbBlockBegin
  2
*D6
 70
     1
 10
0.0
 20
0.0
 30
0.0
  3
*D6
  1

  0
LINE
  5
152B
330
1052
100
AcDbEntity
  8
0
 62
     0
370
    -2
100
AcDbLine
 10
176.3461054630147
 20
-314.6141448595149
 30
0.0
 11
213.8653771735808
 21
-314.6141448595149
 31
0.0
  0
LINE
  5
152C
330
1052
100
AcDbEntity
  8
0
 62
     0
370
    -2
100
AcDbLine
 10
155.5510204911399
 20
-230.1141448595149
 30
0.0
 11
213.8653771735808
 21
-230.114144859515
 31
0.0
  0
LINE
  5
152D
330
1052
100
AcDbEntity
  8
0
 62
     0
370
    -2
100
AcDbLine
 10
212.6153771735808
 20
-312.1141448595149
 30
0.0
 11
212.6153771735808
 21
-232.614144859515
 31
0.0
  0
INSERT
  5
152E
330
1052
100
AcDbEntity
  8
0
 62
     0
370
    -2
100
AcDbBlockReference
  2
_Open30
 10
212.6153771735808
 20
-314.6141448595149
 30
0.0
 41
2.5
 42
2.5
 43
2.5
 50
270.0
  0
INSERT
  5
152F
330
1052
100
AcDbEntity
  8
0
 62
     0
370
    -2
100
AcDbBlockReference
  2
_Open30
 10
212.6153771735808
 20
-230.114144859515
 30
0.0
 41
2.5
 42
2.5
 43
2.5
 50
90.0
  0
MTEXT
  5
1530
330
1052
100
AcDbEntity
  8
0
 62
     4
100
AcDbMText
 10
210.4903771735808
 20
-273.880188960798
 30
0.0
 40
3.0
 41
0.0
 71
     5
 72
     1
  1
169
 11
0.0000000000000001
 21
1.0
 31
0.0
 73
     1
 44
1.0
1001
ACAD
1000
MTEXTBEGIN
1070
    73
1070
     1
1070
    44
1040
1.0
1070
    74
1070
     0
1000
MTEXTEND
  0
POINT
  5
1531
330
1052
100
AcDbEntity
  8
Defpoints
 62
     0
100
AcDbPoint
 10
176.0961054630147
 20
-314.6141448595149
 30
0.0
  0
POINT
  5
1532
330
1052
100
AcDbEntity
  8
Defpoints
 62
     0
100
AcDbPoint
 10
155.30102049114
 20
-230.1141448595149
 30
0.0
  0
POINT
  5
1533
330
1052
100
AcDbEntity
  8
Defpoints
 62
     0
100
AcDbPoint
 10
212.6153771735808
 20
-230.114144859515
 30
0.0
  0
ENDBLK
  5
1054
330
1052
100
AcDbEntity
  8
0
100
AcDbBlockEnd
  0
ENDSEC
  0
SECTION
  2
ENTITIES
  0
LINE
  5
C9
330
6B
100
AcDbEntity
  8
0
 62
     3
100
AcDbLine
 10
322.9593778329349
 20
-349.631627485335
 30
0.0
 11
322.9593778329349
 21
-384.6316274853348
 31
0.0
  0
LINE
  5
CA
330
6B
100
AcDbEntity
  8
0
 62
     3
100
AcDbLine
 10
249.8035725760162
 20
-349.631627485335
 30
0.0
 11
322.9593778329349
 21
-349.631627485335
 31
0.0
  0
LINE
  5
CB
330
6B
100
AcDbEntity
  8
0
 62
     3
100
AcDbLine
 10
249.8035725760162
 20
-384.6316274853348
 30
0.0
 11
322.9593778329349
 21
-384.6316274853348
 31
0.0
  0
LINE
  5
CC
330
6B
100
AcDbEntity
  8
0
100
AcDbLine
 10
272.0243345108406
 20
-384.6316274853347
 30
0.0
 11
272.0243345108406
 21
-349.631627485335
 31
0.0
  0
LINE
  5
E0
330
6B
100
AcDbEntity
  8
0
 62
     3
100
AcDbLine
 10
20.318936
 20
-183.90941
 30
0.0
 11
20.318936
 21
-457.9647709999998
 31
0.0
  0
LINE
  5
E1
330
6B
100
AcDbEntity
  8
0
 62
     3
100
AcDbLine
 10
20.318936
 20
-183.90941
 30
0.0
 11
410.318936
 21
-183.90941
 31
0.0
  0
LINE
  5
E2
330
6B
100
AcDbEntity
  8
0
 62
     3
100
AcDbLine
 10
410.318936
 20
-457.9647709999998
 30
0.0
 11
20.318936
 21
-457.9647709999998
 31
0.0
  0
LINE
  5
E5
330
6B
100
AcDbEntity
  8
0
 62
     3
100
AcDbLine
 10
410.318936
 20
-183.90941
 30
0.0
 11
410.318936
 21
-457.9647709999997
 31
0.0
  0
TEXT
  5
EC
330
6B
100
AcDbEntity
  8
0
 62
     3
100
AcDbText
 10
344.984976
 20
-446.636138
 30
0.0
 40
3.2
  1
1/2
  7
高3.2
100
AcDbText
  0
TEXT
  5
ED
330
6B
100
AcDbEntity
  8
0
 62
     3
100
AcDbText
 10
317.765819
 20
-439.5669589999998
 30
0.0
 40
3.2
  1
別　掲
  7
高3.2
100
AcDbText
  0
TEXT
  5
16F
330
6B
100
AcDbEntity
  8
0
 62
     3
100
AcDbText
 10
373.685318
 20
-446.822942
 30
0.0
 40
3.2
  1
2000.8.31
  7
高3.2
100
AcDbText
  0
LINE
  5
174
330
6B
100
AcDbEntity
  8
0
 62
     3
100
AcDbLine
 10
20.318936
 20
-417.9647709999998
 30
0.0
 11
199.7891798678709
 21
-417.9647709999998
 31
0.0
  0
TEXT
  5
195
330
6B
100
AcDbEntity
  8
0
 62
     3
100
AcDbText
 10
363.0418391853646
 20
-456.81872
 30
0.0
 40
6.299999999999998
  1
M-20
  7
高6.3
100
AcDbText
  0
LINE
  5
1FE
330
6B
100
AcDbEntity
  8
0
100
AcDbLine
 10
263.8915697772914
 20
-348.0690462445612
 30
0.0
 11
301.3029673533733
 21
-348.0690462445612
 31
0.0
  0
LINE
  5
208
330
6B
100
AcDbEntity
  8
0
 62
     3
100
AcDbLine
 10
384.619573
 20
-441.299048
 30
0.0
 11
384.619573
 21
-418.2990479999999
 31
0.0
  0
LINE
  5
20A
330
6B
100
AcDbEntity
  8
0
 62
     3
100
AcDbLine
 10
331.565963
 20
-448.299048
 30
0.0
 11
331.565963
 21
-434.299048
 31
0.0
  0
TEXT
  5
20C
330
6B
100
AcDbEntity
  8
0
 62
     3
100
AcDbText
 10
360.629891
 20
-422.093932
 30
0.0
 40
2.0
  1
A
 41
0.7
100
AcDbText
  0
TEXT
  5
20D
330
6B
100
AcDbEntity
  8
0
 62
     3
100
AcDbText
 10
363.165177
 20
-422.093932
 30
0.0
 40
2.0
  1
P
 41
0.7
100
AcDbText
  0
TEXT
  5
20E
330
6B
100
AcDbEntity
  8
0
 62
     3
100
AcDbText
 10
365.700463
 20
-422.093932
 30
0.0
 40
2.0
  1
P
 41
0.7
100
AcDbText
  0
TEXT
  5
20F
330
6B
100
AcDbEntity
  8
0
 62
     3
100
AcDbText
 10
368.235749
 20
-422.093932
 30
0.0
 40
2.0
  1
D
 41
0.7
100
AcDbText
  0
TEXT
  5
210
330
6B
100
AcDbEntity
  8
0
 62
     3
100
AcDbText
 10
373.604433
 20
-422.093932
 30
0.0
 40
2.0
  1
C
 41
0.7
100
AcDbText
  0
TEXT
  5
211
330
6B
100
AcDbEntity
  8
0
 62
     3
100
AcDbText
 10
376.139719
 20
-422.093932
 30
0.0
 40
2.0
  1
H
 41
0.7
100
AcDbText
  0
TEXT
  5
212
330
6B
100
AcDbEntity
  8
0
 62
     3
100
AcDbText
 10
378.675005
 20
-422.093932
 30
0.0
 40
2.0
  1
C
 41
0.7
100
AcDbText
  0
TEXT
  5
213
330
6B
100
AcDbEntity
  8
0
 62
     3
100
AcDbText
 10
381.2102910000001
 20
-422.093932
 30
0.0
 40
2.0
  1
K
 41
0.7
100
AcDbText
  0
TEXT
  5
214
330
6B
100
AcDbEntity
  8
0
 62
     3
100
AcDbText
 10
386.884258
 20
-422.093932
 30
0.0
 40
2.0
  1
DESN
 41
1.216762999999998
100
AcDbText
  0
TEXT
  5
215
330
6B
100
AcDbEntity
  8
0
 62
     3
100
AcDbText
 10
301.877899
 20
-451.4404299999998
 30
0.0
 40
2.0
  1
NICHIDO IND.CO.LTD
 41
1.274876
100
AcDbText
  0
LINE
  5
216
330
6B
100
AcDbEntity
  8
0
 62
     3
100
AcDbLine
 10
312.260928
 20
-418.2990479999999
 30
0.0
 11
312.260928
 21
-441.299048
 31
0.0
  0
LINE
  5
217
330
6B
100
AcDbEntity
  8
0
 62
     3
100
AcDbLine
 10
358.6195730000002
 20
-418.2990479999999
 30
0.0
 11
358.619573
 21
-457.9647709999998
 31
0.0
  0
LINE
  5
21C
330
6B
100
AcDbEntity
  8
0
 62
     3
100
AcDbLine
 10
371.619573
 20
-418.2990479999999
 30
0.0
 11
371.619573
 21
-448.299048
 31
0.0
  0
TEXT
  5
21D
330
6B
100
AcDbEntity
  8
0
 62
     3
100
AcDbText
 10
359.732017
 20
-447.434361
 30
0.0
 40
3.2
  1
作成日
 41
1.017225999999997
100
AcDbText
  0
LINE
  5
21E
330
6B
100
AcDbEntity
  8
0
 62
     3
100
AcDbLine
 10
410.318936
 20
-418.2990479999999
 30
0.0
 11
299.015494
 21
-418.2990479999999
 31
0.0
  0
LINE
  5
21F
330
6B
100
AcDbEntity
  8
0
 62
     3
100
AcDbLine
 10
397.619573
 20
-441.299048
 30
0.0
 11
397.619573
 21
-418.2990479999999
 31
0.0
  0
TEXT
  5
220
330
6B
100
AcDbEntity
  8
0
 62
     3
100
AcDbText
 10
400.943376
 20
-422.0081129999998
 30
0.0
 40
1.8
  1
D
 41
0.666667
100
AcDbText
  0
TEXT
  5
221
330
6B
100
AcDbEntity
  8
0
 62
     3
100
AcDbText
 10
403.760004
 20
-422.0081129999998
 30
0.0
 40
1.8
  1
E
 41
0.666667
100
AcDbText
  0
TEXT
  5
222
330
6B
100
AcDbEntity
  8
0
 62
     3
100
AcDbText
 10
406.5766319999998
 20
-422.0081129999998
 30
0.0
 40
1.8
  1
F
 41
0.666667
100
AcDbText
  0
TEXT
  5
223
330
6B
100
AcDbEntity
  8
0
 62
     3
100
AcDbText
 10
400.943376
 20
-426.000667
 30
0.0
 40
3.2
  1
製図
 41
1.076369
100
AcDbText
  0
LINE
  5
224
330
6B
100
AcDbEntity
  8
0
 62
     3
100
AcDbLine
 10
299.015494
 20
-418.2990479999999
 30
0.0
 11
299.015494
 21
-457.9647709999998
 31
0.0
  0
TEXT
  5
225
330
6B
100
AcDbEntity
  8
0
 62
     3
100
AcDbText
 10
300.392146
 20
-457.632305
 30
0.0
 40
5.0
  1
日動工業株式会社
 41
0.833333
100
AcDbText
  0
LINE
  5
226
330
6B
100
AcDbEntity
  8
0
 62
     3
100
AcDbLine
 10
341.8978980000001
 20
-434.2990480000001
 30
0.0
 11
341.897898
 21
-457.9647709999998
 31
0.0
  0
LINE
  5
227
330
6B
100
AcDbEntity
  8
0
 62
     3
100
AcDbLine
 10
341.897898
 20
-453.131909
 30
0.0
 11
358.619573
 21
-453.131909
 31
0.0
  0
TEXT
  5
228
330
6B
100
AcDbEntity
  8
0
 62
     3
100
AcDbText
 10
342.4845
 20
-452.3154789999998
 30
0.0
 40
3.2
  1
出図コード
 41
0.8356860000000001
100
AcDbText
  0
LINE
  5
22A
330
6B
100
AcDbEntity
  8
0
 62
     3
100
AcDbLine
 10
299.015494
 20
-448.299048
 30
0.0
 11
410.318936
 21
-448.299048
 31
0.0
  0
LINE
  5
22C
330
6B
100
AcDbEntity
  8
0
 62
     3
100
AcDbLine
 10
299.015494
 20
-427.299048
 30
0.0
 11
410.318936
 21
-427.299048
 31
0.0
  0
LINE
  5
232
330
6B
100
AcDbEntity
  8
0
 62
     3
100
AcDbLine
 10
299.015494
 20
-434.299048
 30
0.0
 11
358.619573
 21
-434.299048
 31
0.0
  0
LINE
  5
238
330
6B
100
AcDbEntity
  8
0
 62
     3
100
AcDbLine
 10
299.015494
 20
-441.299048
 30
0.0
 11
410.318936
 21
-441.299048
 31
0.0
  0
TEXT
  5
239
330
6B
100
AcDbEntity
  8
0
 62
     3
100
AcDbText
 10
342.351951
 20
-457.4291664009582
 30
0.0
 40
3.2
  1
ZK-A3X
 41
0.8112849999999999
100
AcDbText
  0
TEXT
  5
23A
330
6B
100
AcDbEntity
  8
0
 62
     3
100
AcDbText
 10
300.832891
 20
-422.129522
 30
0.0
 40
2.0
  1
CONPONENTS
 41
0.5331600000000001
100
AcDbText
  0
TEXT
  5
23B
330
6B
100
AcDbEntity
  8
0
 62
     3
100
AcDbText
 10
300.483164
 20
-441.061699
 30
0.0
 40
3.0
  1
材
 41
0.833333
100
AcDbText
  0
TEXT
  5
23C
330
6B
100
AcDbEntity
  8
0
 62
     3
100
AcDbText
 10
308.018807
 20
-441.061699
 30
0.0
 40
3.0
  1
質
 41
0.833333
100
AcDbText
  0
TEXT
  5
23D
330
6B
100
AcDbEntity
  8
0
 62
     3
100
AcDbText
 10
300.571235
 20
-430.437174
 30
0.0
 40
2.0
  1
MODEL
 41
1.031072999999999
100
AcDbText
  0
TEXT
  5
23E
330
6B
100
AcDbEntity
  8
0
 62
     3
100
AcDbText
 10
300.483164
 20
-437.3793909999998
 30
0.0
 40
2.0
  1
MATERIAL
 41
0.659278
100
AcDbText
  0
TEXT
  5
23F
330
6B
100
AcDbEntity
  8
0
 62
     3
100
AcDbText
 10
331.790444
 20
-441.061699
 30
0.0
 40
3.0
  1
備
 41
0.833333
100
AcDbText
  0
TEXT
  5
240
330
6B
100
AcDbEntity
  8
0
 62
     3
100
AcDbText
 10
338.523446
 20
-441.061699
 30
0.0
 40
3.0
  1
考
 41
0.833333
100
AcDbText
  0
TEXT
  5
241
330
6B
100
AcDbEntity
  8
0
 62
     3
100
AcDbText
 10
332.0911328380566
 20
-437.3793909999998
 30
0.0
 40
2.0
  1
REMARKS
 41
0.675794
100
AcDbText
  0
TEXT
  5
242
330
6B
100
AcDbEntity
  8
0
 62
     3
100
AcDbText
 10
302.072893
 20
-444.299511
 30
0.0
 40
2.0
  1
3AD
 41
1.42614
100
AcDbText
  0
TEXT
  5
243
330
6B
100
AcDbEntity
  8
0
 62
     3
100
AcDbText
 10
311.383873
 20
-444.133778
 30
0.0
 40
2.0
  1
ANGLE
 41
1.669883999999995
100
AcDbText
  0
TEXT
  5
244
330
6B
100
AcDbEntity
  8
0
 62
     3
100
AcDbText
 10
332.31776
 20
-444.510619
 30
0.0
 40
2.0
  1
SCALE
 41
0.7719630000000001
100
AcDbText
  0
TEXT
  5
245
330
6B
100
AcDbEntity
  8
0
 62
     3
100
AcDbText
 10
301.759023
 20
-448.299048
 30
0.0
 40
3.0
  1
第
 41
0.833333
100
AcDbText
  0
TEXT
  5
246
330
6B
100
AcDbEntity
  8
0
 62
     3
100
AcDbText
 10
309.545873
 20
-448.299048
 30
0.0
 40
3.0
  1
三
 41
0.833333
100
AcDbText
  0
TEXT
  5
247
330
6B
100
AcDbEntity
  8
0
 62
     3
100
AcDbText
 10
317.332723
 20
-448.299048
 30
0.0
 40
3.0
  1
角
 41
0.833333
100
AcDbText
  0
TEXT
  5
248
330
6B
100
AcDbEntity
  8
0
 62
     3
100
AcDbText
 10
325.119573
 20
-448.299048
 30
0.0
 40
3.0
  1
法
 41
0.833333
100
AcDbText
  0
TEXT
  5
249
330
6B
100
AcDbEntity
  8
0
 62
     3
100
AcDbText
 10
332.180965
 20
-448.0106189999998
 30
0.0
 40
3.0
  1
尺
 41
0.833333
100
AcDbText
  0
TEXT
  5
24A
330
6B
100
AcDbEntity
  8
0
 62
     3
100
AcDbText
 10
338.913966
 20
-448.0106189999998
 30
0.0
 40
3.0
  1
度
 41
0.833333
100
AcDbText
  0
TEXT
  5
24B
330
6B
100
AcDbEntity
  8
0
 62
     3
100
AcDbText
 10
361.497237
 20
-425.841319
 30
0.0
 40
3.0
  1
承認
 41
1.089472999999999
100
AcDbText
  0
TEXT
  5
24C
330
6B
100
AcDbEntity
  8
0
 62
     3
100
AcDbText
 10
374.740117
 20
-425.899048
 30
0.0
 40
3.0
  1
検図
 41
0.931761
100
AcDbText
  0
TEXT
  5
24D
330
6B
100
AcDbEntity
  8
0
 62
     3
100
AcDbText
 10
387.740514
 20
-425.899048
 30
0.0
 40
3.0
  1
設
 41
0.833333
100
AcDbText
  0
TEXT
  5
24E
330
6B
100
AcDbEntity
  8
0
 62
     3
100
AcDbText
 10
392.230382
 20
-425.899048
 30
0.0
 40
3.0
  1
計
 41
0.833333
100
AcDbText
  0
TEXT
  5
24F
330
6B
100
AcDbEntity
  8
0
 62
     3
100
AcDbText
 10
300.902997
 20
-425.7264959999998
 30
0.0
 40
3.0
  1
品
 41
0.833333
100
AcDbText
  0
TEXT
  5
250
330
6B
100
AcDbEntity
  8
0
 62
     3
100
AcDbText
 10
308.438639
 20
-425.7264959999998
 30
0.0
 40
3.0
  1
名
 41
0.833333
100
AcDbText
  0
TEXT
  5
251
330
6B
100
AcDbEntity
  8
0
 62
     3
100
AcDbText
 10
300.571235
 20
-433.9319989258313
 30
0.0
 40
3.0
  1
型
 41
0.833333
100
AcDbText
  0
TEXT
  5
252
330
6B
100
AcDbEntity
  8
0
 62
     3
100
AcDbText
 10
308.119325
 20
-433.9319989258313
 30
0.0
 40
3.0
  1
式
 41
0.833333
100
AcDbText
  0
LINE
  5
253
330
6B
100
AcDbEntity
  8
0
 62
     3
100
AcDbLine
 10
7.917011999999997
 20
-317.464771
 30
0.0
 11
5.318935999999998
 21
-318.964771
 31
0.0
  0
LINE
  5
254
330
6B
100
AcDbEntity
  8
0
 62
     3
100
AcDbLine
 10
7.917011999999997
 20
-317.464771
 30
0.0
 11
5.318935999999998
 21
-315.964771
 31
0.0
  0
LINE
  5
255
330
6B
100
AcDbEntity
  8
0
 62
     3
100
AcDbLine
 10
5.318935999999998
 20
-318.964771
 30
0.0
 11
5.318935999999998
 21
-315.964771
 31
0.0
  0
LINE
  5
2CC
330
6B
100
AcDbEntity
  8
0
 62
     3
100
AcDbLine
 10
199.7891798678709
 20
-457.9647709999998
 30
0.0
 11
199.7891798678709
 21
-417.9647709999998
 31
0.0
  0
LINE
  5
2CE
330
6B
100
AcDbEntity
  8
0
 62
     3
100
AcDbLine
 10
249.8035725760162
 20
-349.631627485335
 30
0.0
 11
249.8035725760162
 21
-384.6316274853348
 31
0.0
  0
TEXT
  5
2CF
330
6B
100
AcDbEntity
  8
0
 62
     3
100
AcDbText
 10
323.187768
 20
-425.1658579999998
 30
0.0
 40
4.5
  1
昇圧トランス
  7
高4.5
100
AcDbText
  0
TEXT
  5
2D0
330
6B
100
AcDbEntity
  8
0
 62
     3
100
AcDbText
 10
251.3035725760162
 20
-354.1316274853348
 30
0.0
 40
3.2
  1
型　　式
  7
高3.2
100
AcDbText
  0
TEXT
  5
2D1
330
6B
100
AcDbEntity
  8
0
 62
     3
100
AcDbText
 10
251.3035725760162
 20
-359.1316274853348
 30
0.0
 40
3.2
  1
入力電圧
  7
高3.2
100
AcDbText
  0
TEXT
  5
2D2
330
6B
100
AcDbEntity
  8
0
 62
     3
100
AcDbText
 10
251.3035725760162
 20
-364.1316274853348
 30
0.0
 40
3.2
  1
出力電圧
  7
高3.2
100
AcDbText
  0
TEXT
  5
2D3
330
6B
100
AcDbEntity
  8
0
 62
     3
100
AcDbText
 10
251.3035725760162
 20
-369.1316274853349
 30
0.0
 40
3.2
  1
容　　量
  7
高3.2
100
AcDbText
  0
TEXT
  5
2D4
330
6B
100
AcDbEntity
  8
0
 62
     3
100
AcDbText
 10
251.3035725760162
 20
-379.1316274853348
 30
0.0
 40
3.2
  1
質　　量
  7
高3.2
100
AcDbText
  0
TEXT
  5
2D5
330
6B
100
AcDbEntity
  8
0
 62
     3
100
AcDbText
 10
251.3035725760162
 20
-384.1316274853348
 30
0.0
 40
3.2
  1
絶縁種類
  7
高3.2
100
AcDbText
  0
TEXT
  5
2D6
330
6B
100
AcDbEntity
  8
0
 62
     3
100
AcDbText
 10
263.8915697772914
 20
-347.209837485335
 30
0.0
 40
4.5
  1
主　　仕　　様
  7
高4.5
100
AcDbText
  0
TEXT
  5
2D7
330
6B
100
AcDbEntity
  8
0
 62
     3
100
AcDbText
 10
326.390322
 20
-432.823273
 30
0.0
 40
4.5
  1
M-20
  7
高4.5
100
AcDbText
  0
TEXT
  5
2D8
330
6B
100
AcDbEntity
  8
0
 62
     3
100
AcDbText
 10
126.0499841627978
 20
-452.4647709999999
 30
0.0
 40
3.2
  1
1
 41
0.8
  7
高3.2
100
AcDbText
  0
TEXT
  5
2D9
330
6B
100
AcDbEntity
  8
0
 62
     3
100
AcDbText
 10
126.0499841627978
 20
-447.4647709999998
 30
0.0
 40
3.2
  1
1
 41
0.8
  7
高3.2
100
AcDbText
  0
TEXT
  5
2DB
330
6B
100
AcDbEntity
  8
0
 62
     3
100
AcDbText
 10
126.0499841627977
 20
-427.4647709999999
 30
0.0
 40
3.2
  1
1
 41
0.8
  7
高3.2
100
AcDbText
  0
TEXT
  5
2DD
330
6B
100
AcDbEntity
  8
0
 62
     3
100
AcDbText
 10
126.0499841627977
 20
-442.4647709999998
 30
0.0
 40
3.2
  1
4
 41
0.8
  7
高3.2
100
AcDbText
  0
TEXT
  5
2DE
330
6B
100
AcDbEntity
  8
0
 62
     3
100
AcDbText
 10
126.0499841627977
 20
-422.4647709999998
 30
0.0
 40
3.2
  1
1
 41
0.8
  7
高3.2
100
AcDbText
  0
LINE
  5
2DF
330
6B
100
AcDbEntity
  8
0
100
AcDbLine
 10
20.318936
 20
-447.9647709999999
 30
0.0
 11
199.7891798678709
 21
-447.9647709999999
 31
0.0
  0
LINE
  5
2E0
330
6B
100
AcDbEntity
  8
0
100
AcDbLine
 10
20.318936
 20
-442.9647709999998
 30
0.0
 11
199.7891798678709
 21
-442.9647709999998
 31
0.0
  0
LINE
  5
2E1
330
6B
100
AcDbEntity
  8
0
100
AcDbLine
 10
20.318936
 20
-437.9647709999998
 30
0.0
 11
199.7891798678709
 21
-437.9647709999998
 31
0.0
  0
LINE
  5
2E2
330
6B
100
AcDbEntity
  8
0
100
AcDbLine
 10
20.318936
 20
-432.9647709999998
 30
0.0
 11
199.7891798678709
 21
-432.9647709999998
 31
0.0
  0
LINE
  5
2E3
330
6B
100
AcDbEntity
  8
0
100
AcDbLine
 10
20.318936
 20
-427.9647709999998
 30
0.0
 11
199.7891798678709
 21
-427.9647709999998
 31
0.0
  0
LINE
  5
2E4
330
6B
100
AcDbEntity
  8
0
100
AcDbLine
 10
124.5499841627978
 20
-457.9647709999998
 30
0.0
 11
124.5499841627977
 21
-417.9647709999998
 31
0.0
  0
LINE
  5
2E6
330
6B
100
AcDbEntity
  8
0
100
AcDbLine
 10
20.318936
 20
-422.9647709999999
 30
0.0
 11
199.7891798678709
 21
-422.9647709999999
 31
0.0
  0
TEXT
  5
2E8
330
6B
100
AcDbEntity
  8
0
 62
     3
100
AcDbText
 10
28.31520337097246
 20
-452.4647709999999
 30
0.0
 40
3.2
  1
把手
 41
0.8
  7
高3.2
100
AcDbText
  0
TEXT
  5
2EA
330
6B
100
AcDbEntity
  8
0
 62
     3
100
AcDbText
 10
61.05205292265389
 20
-447.4647709999998
 30
0.0
 40
3.2
  1
VCT
 41
0.8
  7
高3.2
100
AcDbText
  0
TEXT
  5
2EB
330
6B
100
AcDbEntity
  8
0
 62
     3
100
AcDbText
 10
28.31520337097246
 20
-442.4647709999998
 30
0.0
 40
3.2
  1
ゴム脚
 41
0.8
  7
高3.2
100
AcDbText
  0
TEXT
  5
2EC
330
6B
100
AcDbEntity
  8
0
 62
     3
100
AcDbText
 10
90.19573596992298
 20
-442.4647709999998
 30
0.0
 40
3.2
  1
-
 41
0.8
  7
高3.2
100
AcDbText
  0
TEXT
  5
2ED
330
6B
100
AcDbEntity
  8
0
 62
     3
100
AcDbText
 10
61.05205292265388
 20
-437.4647709999996
 30
0.0
 40
3.2
  1
ABS樹脂、銅合金
 41
0.8
  7
高3.2
100
AcDbText
  0
TEXT
  5
2EE
330
6B
100
AcDbEntity
  8
0
 62
     3
100
AcDbText
 10
28.31520337097245
 20
-427.4647709999999
 30
0.0
 40
3.2
  1
電圧計
 41
0.8
  7
高3.2
100
AcDbText
  0
TEXT
  5
2EF
330
6B
100
AcDbEntity
  8
0
 62
     3
100
AcDbText
 10
61.05205292265388
 20
-452.4647709999999
 30
0.0
 40
3.2
  1
PA樹脂、真チュウ
 41
0.8
  7
高3.2
100
AcDbText
  0
TEXT
  5
2F0
330
6B
100
AcDbEntity
  8
0
 62
     3
100
AcDbText
 10
90.19573596992296
 20
-427.4647709999999
 30
0.0
 40
3.2
  1
AC150V計（1次側）
 41
0.8
  7
高3.2
100
AcDbText
  0
TEXT
  5
2F1
330
6B
100
AcDbEntity
  8
0
 62
     3
100
AcDbText
 10
21.818936
 20
-427.4647709999999
 30
0.0
 40
3.2
  1
6
 41
0.8
  7
高3.2
100
AcDbText
  0
TEXT
  5
2F2
330
6B
100
AcDbEntity
  8
0
 62
     3
100
AcDbText
 10
21.818936
 20
-432.4647709999998
 30
0.0
 40
3.2
  1
5
 41
0.8
  7
高3.2
100
AcDbText
  0
TEXT
  5
2F3
330
6B
100
AcDbEntity
  8
0
 62
     3
100
AcDbText
 10
21.818936
 20
-437.4647709999998
 30
0.0
 40
3.2
  1
4
 41
0.8
  7
高3.2
100
AcDbText
  0
TEXT
  5
2F4
330
6B
100
AcDbEntity
  8
0
 62
     3
100
AcDbText
 10
21.818936
 20
-442.4647709999998
 30
0.0
 40
3.2
  1
3
 41
0.8
  7
高3.2
100
AcDbText
  0
TEXT
  5
2F5
330
6B
100
AcDbEntity
  8
0
 62
     3
100
AcDbText
 10
21.818936
 20
-447.4647709999998
 30
0.0
 40
3.2
  1
2
 41
0.8
  7
高3.2
100
AcDbText
  0
TEXT
  5
2F6
330
6B
100
AcDbEntity
  8
0
 62
     3
100
AcDbText
 10
21.818936
 20
-452.4647709999999
 30
0.0
 40
3.2
  1
1
 41
0.8
  7
高3.2
100
AcDbText
  0
TEXT
  5
2F7
330
6B
100
AcDbEntity
  8
0
 62
     3
100
AcDbText
 10
90.19573596992298
 20
-437.4647709999998
 30
0.0
 40
3.2
  1
2P 15A 125V(白)
 41
0.8
  7
高3.2
100
AcDbText
  0
TEXT
  5
2F8
330
6B
100
AcDbEntity
  8
0
 62
     3
100
AcDbText
 10
28.31520337097246
 20
-437.4647709999998
 30
0.0
 40
3.2
  1
2PWコンセント
 41
0.8
  7
高3.2
100
AcDbText
  0
TEXT
  5
2F9
330
6B
100
AcDbEntity
  8
0
 62
     3
100
AcDbText
 10
61.05205292265389
 20
-442.4647709999998
 30
0.0
 40
3.2
  1
PVC樹脂
 41
0.8
  7
高3.2
100
AcDbText
  0
TEXT
  5
2FA
330
6B
100
AcDbEntity
  8
0
 62
     3
100
AcDbText
 10
21.818936
 20
-422.4647709999998
 30
0.0
 40
3.2
  1
7
 41
0.8
  7
高3.2
100
AcDbText
  0
TEXT
  5
2FB
330
6B
100
AcDbEntity
  8
0
 62
     3
100
AcDbText
 10
28.31520337097245
 20
-422.4647709999998
 30
0.0
 40
3.2
  1
サーキットブレーカー
 41
0.8
  7
高3.2
100
AcDbText
  0
TEXT
  5
2FC
330
6B
100
AcDbEntity
  8
0
 62
     3
100
AcDbText
 10
90.19573596992296
 20
-422.4647709999998
 30
0.0
 40
3.2
  1
25A
 41
0.8
  7
高3.2
100
AcDbText
  0
TEXT
  5
2FD
330
6B
100
AcDbEntity
  8
0
 62
     3
100
AcDbText
 10
90.19573596992298
 20
-447.4647709999998
 30
0.0
 40
3.2
  1
2sqx2芯x1.8m
 41
0.8
  7
高3.2
100
AcDbText
  0
TEXT
  5
2FE
330
6B
100
AcDbEntity
  8
0
 62
     3
100
AcDbText
 10
28.31520337097246
 20
-447.4647709999998
 30
0.0
 40
3.2
  1
電線　2Pプラグ付き
 41
0.8
  7
高3.2
100
AcDbText
  0
LINE
  5
300
330
6B
100
AcDbEntity
  8
0
100
AcDbLine
 10
59.55205292265389
 20
-457.9647709999998
 30
0.0
 11
59.55205292265389
 21
-417.9647709999998
 31
0.0
  0
LINE
  5
301
330
6B
100
AcDbEntity
  8
0
100
AcDbLine
 10
26.81520337097246
 20
-457.9647709999998
 30
0.0
 11
26.81520337097246
 21
-417.9647709999998
 31
0.0
  0
LINE
  5
302
330
6B
100
AcDbEntity
  8
0
100
AcDbLine
 10
88.69573596992298
 20
-457.9647709999998
 30
0.0
 11
88.69573596992296
 21
-417.9647709999998
 31
0.0
  0
TEXT
  5
306
330
6B
100
AcDbEntity
  8
0
 62
     3
100
AcDbText
 10
126.0499841627978
 20
-457.4647709999998
 30
0.0
 40
3.2
  1
個数
 41
0.8
  7
高3.2
100
AcDbText
  0
LINE
  5
307
330
6B
100
AcDbEntity
  8
0
 62
     3
100
AcDbLine
 10
20.318936
 20
-452.9647709999998
 30
0.0
 11
199.7891798678709
 21
-452.9647709999998
 31
0.0
  0
TEXT
  5
308
330
6B
100
AcDbEntity
  8
0
 62
     3
100
AcDbText
 10
90.19573596992298
 20
-457.4647709999998
 30
0.0
 40
3.2
  1
備　　　　　考
 41
0.8
  7
高3.2
100
AcDbText
  0
TEXT
  5
309
330
6B
100
AcDbEntity
  8
0
 62
     3
100
AcDbText
 10
61.05205292265389
 20
-457.4647709999998
 30
0.0
 40
3.2
  1
材　　　質
 41
0.8
  7
高3.2
100
AcDbText
  0
TEXT
  5
30A
330
6B
100
AcDbEntity
  8
0
 62
     3
100
AcDbText
 10
28.31520337097246
 20
-457.4647709999998
 30
0.0
 40
3.2
  1
部　　品　　名
 41
0.8
  7
高3.2
100
AcDbText
  0
TEXT
  5
30B
330
6B
100
AcDbEntity
  8
0
 62
     3
100
AcDbText
 10
21.81893600000001
 20
-457.4647709999998
 30
0.0
 40
3.2
  1
No
 41
0.8
  7
高3.2
100
AcDbText
  0
LINE
  5
30C
330
6B
100
AcDbEntity
  8
0
100
AcDbLine
 10
249.8035725760162
 20
-354.6316274853348
 30
0.0
 11
322.9593778329349
 21
-354.6316274853348
 31
0.0
  0
LINE
  5
30D
330
6B
100
AcDbEntity
  8
0
100
AcDbLine
 10
249.8035725760162
 20
-359.631627485335
 30
0.0
 11
322.9593778329349
 21
-359.631627485335
 31
0.0
  0
LINE
  5
30E
330
6B
100
AcDbEntity
  8
0
100
AcDbLine
 10
249.8035725760162
 20
-364.6316274853348
 30
0.0
 11
322.9593778329349
 21
-364.6316274853348
 31
0.0
  0
LINE
  5
30F
330
6B
100
AcDbEntity
  8
0
100
AcDbLine
 10
249.8035725760162
 20
-369.6316274853348
 30
0.0
 11
322.9593778329349
 21
-369.6316274853348
 31
0.0
  0
LINE
  5
310
330
6B
100
AcDbEntity
  8
0
100
AcDbLine
 10
249.8035725760162
 20
-379.6316274853347
 30
0.0
 11
322.9593778329349
 21
-379.6316274853347
 31
0.0
  0
TEXT
  5
311
330
6B
100
AcDbEntity
  8
0
 62
     3
100
AcDbText
 10
273.5243345108406
 20
-359.1316274853348
 30
0.0
 40
3.2
  1
AC100V 50/60Hz
  7
高3.2
100
AcDbText
  0
TEXT
  5
312
330
6B
100
AcDbEntity
  8
0
 62
     3
100
AcDbText
 10
273.5243345108406
 20
-364.131627485335
 30
0.0
 40
3.2
  1
AC115V AC125V
  7
高3.2
100
AcDbText
  0
TEXT
  5
313
330
6B
100
AcDbEntity
  8
0
 62
     3
100
AcDbText
 10
273.5243345108406
 20
-369.1316274853349
 30
0.0
 40
3.2
  1
2KVA　連続
  7
高3.2
100
AcDbText
  0
TEXT
  5
314
330
6B
100
AcDbEntity
  8
0
 62
     3
100
AcDbText
 10
273.5243345108406
 20
-379.1316274853348
 30
0.0
 40
3.2
  1
6.6kg
  7
高3.2
100
AcDbText
  0
TEXT
  5
315
330
6B
100
AcDbEntity
  8
0
 62
     3
100
AcDbText
 10
273.5243345108406
 20
-384.1316274853348
 30
0.0
 40
3.2
  1
F種絶縁
  7
高3.2
100
AcDbText
  0
TEXT
  5
316
330
6B
100
AcDbEntity
  8
0
 62
     3
100
AcDbText
 10
273.5243345108406
 20
-354.1316274853348
 30
0.0
 40
3.2
  1
M-20
  7
高3.2
100
AcDbText
  0
LINE
  5
317
330
6B
100
AcDbEntity
  8
0
 62
     3
100
AcDbLine
 10
384.619573
 20
-418.2990479999999
 30
0.0
 11
384.619573
 21
-412.2990479999998
 31
0.0
  0
LINE
  5
318
330
6B
100
AcDbEntity
  8
0
 62
     3
100
AcDbLine
 10
358.619573
 20
-418.2990479999999
 30
0.0
 11
358.619573
 21
-412.2990479999998
 31
0.0
  0
LINE
  5
319
330
6B
100
AcDbEntity
  8
0
 62
     3
100
AcDbLine
 10
410.318936
 20
-412.2990479999998
 30
0.0
 11
358.619573
 21
-412.2990479999998
 31
0.0
  0
TEXT
  5
31A
330
6B
100
AcDbEntity
  8
0
 62
     3
100
AcDbText
 10
364.615171
 20
-417.502699
 30
0.0
 40
4.5
  1
コード
  7
高4.5
100
AcDbText
  0
TEXT
  5
31B
330
6B
100
AcDbEntity
  8
0
 62
     3
100
AcDbText
 10
389.0210640725204
 20
-417.6549109999998
 30
0.0
 40
4.5
  1
5715
  7
高4.5
100
AcDbText
  0
TEXT
  5
3F7
330
6B
100
AcDbEntity
  8
0
 62
     3
100
AcDbText
 10
397.818936
 20
-193.40941
 30
0.0
 40
3.2
  1
担　当
  7
高3.2
100
AcDbText
  0
TEXT
  5
3F8
330
6B
100
AcDbEntity
  8
0
 62
     3
100
AcDbText
 10
353.818936
 20
-193.40941
 30
0.0
 40
3.2
  1
変更・追記内容
  7
高3.2
100
AcDbText
  0
TEXT
  5
3F9
330
6B
100
AcDbEntity
  8
0
 62
     3
100
AcDbText
 10
328.9324510003392
 20
-198.0799485099083
 30
0.0
 40
2.0
  1
1
  7
高2
100
AcDbText
  0
TEXT
  5
3FA
330
6B
100
AcDbEntity
  8
0
 62
     3
100
AcDbText
 10
328.623939523582
 20
-203.2497652221812
 30
0.0
 40
2.0
  1
2
  7
高2
100
AcDbText
  0
TEXT
  5
3FB
330
6B
100
AcDbEntity
  8
0
 62
     3
100
AcDbText
 10
335.818936
 20
-193.40941
 30
0.0
 40
3.2
  1
日　付
  7
高3.2
100
AcDbText
  0
TEXT
  5
3FC
330
6B
100
AcDbEntity
  8
0
 62
     3
100
AcDbText
 10
335.818936
 20
-188.40941
 30
0.0
 40
3.2
  1
図　　　　面　　　　略　　　　歴
  7
高3.2
100
AcDbText
  0
TEXT
  5
3FD
330
6B
100
AcDbEntity
  8
0
 62
     3
100
AcDbText
 10
325.818936
 20
-193.40941
 30
0.0
 40
3.2
  1
記号
  7
高3.2
100
AcDbText
  0
LINE
  5
3FE
330
6B
100
AcDbEntity
  8
0
100
AcDbLine
 10
329.318936
 20
-200.1185139999999
 30
0.0
 11
327.418936
 21
-203.40941
 31
0.0
  0
LINE
  5
3FF
330
6B
100
AcDbEntity
  8
0
100
AcDbLine
 10
329.318936
 20
-200.1185139999999
 30
0.0
 11
331.218936
 21
-203.40941
 31
0.0
  0
LINE
  5
400
330
6B
100
AcDbEntity
  8
0
100
AcDbLine
 10
327.418936
 20
-203.40941
 30
0.0
 11
331.218936
 21
-203.40941
 31
0.0
  0
LINE
  5
401
330
6B
100
AcDbEntity
  8
0
100
AcDbLine
 10
329.318936
 20
-195.1185129999999
 30
0.0
 11
327.418936
 21
-198.40941
 31
0.0
  0
LINE
  5
402
330
6B
100
AcDbEntity
  8
0
100
AcDbLine
 10
329.318936
 20
-195.1185129999999
 30
0.0
 11
331.218936
 21
-198.40941
 31
0.0
  0
LINE
  5
403
330
6B
100
AcDbEntity
  8
0
100
AcDbLine
 10
327.418936
 20
-198.40941
 30
0.0
 11
331.218936
 21
-198.40941
 31
0.0
  0
LINE
  5
404
330
6B
100
AcDbEntity
  8
0
 62
     3
100
AcDbLine
 10
324.318936
 20
-188.90941
 30
0.0
 11
410.318936
 21
-188.90941
 31
0.0
  0
LINE
  5
405
330
6B
100
AcDbEntity
  8
0
 62
     3
100
AcDbLine
 10
324.318936
 20
-193.90941
 30
0.0
 11
410.318936
 21
-193.90941
 31
0.0
  0
LINE
  5
406
330
6B
100
AcDbEntity
  8
0
 62
     7
100
AcDbLine
 10
324.318936
 20
-198.90941
 30
0.0
 11
410.318936
 21
-198.90941
 31
0.0
  0
LINE
  5
407
330
6B
100
AcDbEntity
  8
0
 62
     3
100
AcDbLine
 10
324.318936
 20
-203.90941
 30
0.0
 11
410.318936
 21
-203.90941
 31
0.0
  0
LINE
  5
408
330
6B
100
AcDbEntity
  8
0
 62
     7
100
AcDbLine
 10
396.3189359999999
 20
-203.90941
 30
0.0
 11
396.318936
 21
-188.90941
 31
0.0
  0
LINE
  5
409
330
6B
100
AcDbEntity
  8
0
 62
     7
100
AcDbLine
 10
352.318936
 20
-203.90941
 30
0.0
 11
352.318936
 21
-188.90941
 31
0.0
  0
LINE
  5
40A
330
6B
100
AcDbEntity
  8
0
 62
     7
100
AcDbLine
 10
334.318936
 20
-203.90941
 30
0.0
 11
334.318936
 21
-188.90941
 31
0.0
  0
LINE
  5
40B
330
6B
100
AcDbEntity
  8
0
 62
     3
100
AcDbLine
 10
324.318936
 20
-203.90941
 30
0.0
 11
324.318936
 21
-183.90941
 31
0.0
  0
LINE
  5
5E8
330
6B
100
AcDbEntity
  8
0
 62
     3
100
AcDbLine
 10
343.9285813574572
 20
-314.6141448595149
 30
0.0
 11
336.9285813574572
 21
-314.6141448595149
 31
0.0
  0
LINE
  5
5EA
330
6B
100
AcDbEntity
  8
0
 62
     3
100
AcDbLine
 10
182.3461054630147
 20
-248.6141448595149
 30
0.0
 11
182.3461054630147
 21
-308.6141448595149
 31
0.0
  0
LINE
  5
5EB
330
6B
100
AcDbEntity
  8
0
 62
     3
100
AcDbLine
 10
81.34610546301473
 20
-248.6141448595149
 30
0.0
 11
81.34610546301473
 21
-308.6141448595149
 31
0.0
  0
LINE
  5
5EC
330
6B
100
AcDbEntity
  8
0
 62
     3
100
AcDbLine
 10
178.8461054630147
 20
-245.1141448595149
 30
0.0
 11
84.84610546301473
 21
-245.1141448595149
 31
0.0
  0
LINE
  5
5ED
330
6B
100
AcDbEntity
  8
0
 62
     3
100
AcDbLine
 10
233.0226888430455
 20
-308.6141448595149
 30
0.0
 11
313.0226888430454
 21
-308.6141448595149
 31
0.0
  0
LINE
  5
5EE
330
6B
100
AcDbEntity
  8
0
 62
     3
100
AcDbLine
 10
228.0226888430454
 20
-245.1141448595149
 30
0.0
 11
228.0226888430454
 21
-301.1141448595149
 31
0.0
  0
LINE
  5
5EF
330
6B
100
AcDbEntity
  8
0
 62
     3
100
AcDbLine
 10
313.0226888430454
 20
-245.1141448595149
 30
0.0
 11
313.0226888430454
 21
-308.6141448595149
 31
0.0
  0
ARC
  5
5F0
330
6B
100
AcDbEntity
  8
0
 62
     3
100
AcDbCircle
 10
178.8461054630147
 20
-248.6141448595149
 30
0.0
 40
3.5
100
AcDbArc
 50
0.0
 51
90.0
  0
ARC
  5
5F1
330
6B
100
AcDbEntity
  8
0
 62
     3
100
AcDbCircle
 10
84.84610546301473
 20
-248.6141448595149
 30
0.0
 40
3.5
100
AcDbArc
 50
90.0
 51
180.0
  0
LINE
  5
5F2
330
6B
100
AcDbEntity
  8
0
 62
     3
100
AcDbLine
 10
313.0226888430454
 20
-245.1141448595149
 30
0.0
 11
228.0226888430454
 21
-245.1141448595149
 31
0.0
  0
LINE
  5
5F3
330
6B
100
AcDbEntity
  8
0
100
AcDbLine
 10
81.34610546301473
 20
-301.1141448595149
 30
0.0
 11
81.84610546301474
 21
-301.1141448595149
 31
0.0
  0
LINE
  5
5F5
330
6B
100
AcDbEntity
  8
0
 62
     3
100
AcDbLine
 10
228.0226888430454
 20
-301.1141448595149
 30
0.0
 11
233.0226888430455
 21
-308.6141448595149
 31
0.0
  0
LINE
  5
5F6
330
6B
100
AcDbEntity
  8
0
 62
     3
100
AcDbLine
 10
182.3461054630147
 20
-308.6141448595149
 30
0.0
 11
81.34610546301473
 21
-308.6141448595149
 31
0.0
  0
LINE
  5
5F7
330
6B
100
AcDbEntity
  8
0
100
AcDbLine
 10
181.8461054630146
 20
-248.6141448595149
 30
0.0
 11
181.8461054630146
 21
-308.6141448595149
 31
0.0
  0
ARC
  5
5F8
330
6B
100
AcDbEntity
  8
0
100
AcDbCircle
 10
178.8461054630147
 20
-248.6141448595149
 30
0.0
 40
3.0
100
AcDbArc
 50
0.0
 51
90.0
  0
LINE
  5
5F9
330
6B
100
AcDbEntity
  8
0
100
AcDbLine
 10
178.8461054630147
 20
-245.614144859515
 30
0.0
 11
84.84610546301473
 21
-245.614144859515
 31
0.0
  0
ARC
  5
5FA
330
6B
100
AcDbEntity
  8
0
100
AcDbCircle
 10
84.84610546301473
 20
-248.6141448595149
 30
0.0
 40
3.0
100
AcDbArc
 50
90.0
 51
180.0
  0
LINE
  5
5FB
330
6B
100
AcDbEntity
  8
0
100
AcDbLine
 10
81.84610546301474
 20
-248.6141448595149
 30
0.0
 11
81.84610546301474
 21
-308.6141448595149
 31
0.0
  0
LINE
  5
604
330
6B
100
AcDbEntity
  8
0
 62
     3
100
AcDbLine
 10
166.8461054630147
 20
-308.6141448595149
 30
0.0
 11
167.5961054630147
 21
-314.6141448595149
 31
0.0
  0
LINE
  5
605
330
6B
100
AcDbEntity
  8
0
 62
     3
100
AcDbLine
 10
167.5961054630147
 20
-314.6141448595149
 30
0.0
 11
176.0961054630147
 21
-314.6141448595149
 31
0.0
  0
LINE
  5
60C
330
6B
100
AcDbEntity
  8
0
 62
     3
100
AcDbLine
 10
176.8461054630147
 20
-308.6141448595149
 30
0.0
 11
176.0961054630147
 21
-314.6141448595149
 31
0.0
  0
LINE
  5
60D
330
6B
100
AcDbEntity
  8
0
 62
     3
100
AcDbLine
 10
86.84610546301474
 20
-308.6141448595149
 30
0.0
 11
87.59610546301473
 21
-314.6141448595149
 31
0.0
  0
LINE
  5
60E
330
6B
100
AcDbEntity
  8
0
 62
     3
100
AcDbLine
 10
87.59610546301473
 20
-314.6141448595149
 30
0.0
 11
96.09610546301478
 21
-314.6141448595149
 31
0.0
  0
LINE
  5
60F
330
6B
100
AcDbEntity
  8
0
 62
     3
100
AcDbLine
 10
96.84610546301474
 20
-308.6141448595149
 30
0.0
 11
96.09610546301478
 21
-314.6141448595149
 31
0.0
  0
LINE
  5
610
330
6B
100
AcDbEntity
  8
0
 62
     3
100
AcDbLine
 10
243.0226888430454
 20
-308.6141448595149
 30
0.0
 11
243.7726888430455
 21
-314.6141448595149
 31
0.0
  0
LINE
  5
611
330
6B
100
AcDbEntity
  8
0
 62
     3
100
AcDbLine
 10
243.7726888430455
 20
-314.6141448595149
 30
0.0
 11
252.2726888430455
 21
-314.6141448595149
 31
0.0
  0
LINE
  5
612
330
6B
100
AcDbEntity
  8
0
 62
     3
100
AcDbLine
 10
253.0226888430454
 20
-308.6141448595149
 30
0.0
 11
252.2726888430455
 21
-314.6141448595149
 31
0.0
  0
LINE
  5
613
330
6B
100
AcDbEntity
  8
0
 62
     3
100
AcDbLine
 10
298.0226888430454
 20
-308.6141448595149
 30
0.0
 11
298.7726888430454
 21
-314.6141448595149
 31
0.0
  0
LINE
  5
614
330
6B
100
AcDbEntity
  8
0
 62
     3
100
AcDbLine
 10
298.7726888430454
 20
-314.6141448595149
 30
0.0
 11
307.2726888430454
 21
-314.6141448595149
 31
0.0
  0
LINE
  5
615
330
6B
100
AcDbEntity
  8
0
 62
     3
100
AcDbLine
 10
308.0226888430455
 20
-308.6141448595149
 30
0.0
 11
307.2726888430454
 21
-314.6141448595149
 31
0.0
  0
LINE
  5
616
330
6B
100
AcDbEntity
  8
0
100
AcDbLine
 10
181.8461054630146
 20
-301.1141448595149
 30
0.0
 11
182.3461054630147
 21
-301.1141448595149
 31
0.0
  0
LINE
  5
DFC
330
6B
100
AcDbEntity
  8
0
 62
     3
100
AcDbLine
 10
95.10268897276217
 20
-262.1141448595149
 30
0.0
 11
104.5895219532673
 21
-262.1141448595149
 31
0.0
  0
LINE
  5
DFD
330
6B
100
AcDbEntity
  8
0
 62
     3
100
AcDbLine
 10
96.17110546301468
 20
-266.6141448595149
 30
0.0
 11
96.17110546301468
 21
-271.1141448595149
 31
0.0
  0
LINE
  5
DFE
330
6B
100
AcDbEntity
  8
0
 62
     3
100
AcDbLine
 10
97.17110546301469
 20
-266.6141448595149
 30
0.0
 11
97.17110546301469
 21
-271.1141448595149
 31
0.0
  0
LINE
  5
DFF
330
6B
100
AcDbEntity
  8
0
 62
     3
100
AcDbLine
 10
102.5211054630147
 20
-267.1141448595149
 30
0.0
 11
102.5211054630147
 21
-270.6141448595149
 31
0.0
  0
LINE
  5
E00
330
6B
100
AcDbEntity
  8
0
 62
     3
100
AcDbLine
 10
103.5211054630147
 20
-267.1141448595149
 30
0.0
 11
103.5211054630147
 21
-270.6141448595149
 31
0.0
  0
LINE
  5
E01
330
6B
100
AcDbEntity
  8
0
 62
     3
100
AcDbLine
 10
95.10268897276217
 20
-275.6141448595149
 30
0.0
 11
104.5895219532673
 21
-275.6141448595149
 31
0.0
  0
LINE
  5
E02
330
6B
100
AcDbEntity
  8
0
 62
     3
100
AcDbLine
 10
102.5211054630147
 20
-270.6141448595149
 30
0.0
 11
103.5211054630147
 21
-270.6141448595149
 31
0.0
  0
LINE
  5
E03
330
6B
100
AcDbEntity
  8
0
 62
     3
100
AcDbLine
 10
96.17110546301468
 20
-271.1141448595149
 30
0.0
 11
97.17110546301469
 21
-271.1141448595149
 31
0.0
  0
LINE
  5
E04
330
6B
100
AcDbEntity
  8
0
 62
     3
100
AcDbLine
 10
102.5211054630147
 20
-267.1141448595149
 30
0.0
 11
103.5211054630147
 21
-267.1141448595149
 31
0.0
  0
LINE
  5
E05
330
6B
100
AcDbEntity
  8
0
 62
     3
100
AcDbLine
 10
96.17110546301468
 20
-266.6141448595149
 30
0.0
 11
97.17110546301469
 21
-266.6141448595149
 31
0.0
  0
ARC
  5
E06
330
6B
100
AcDbEntity
  8
0
 62
     3
100
AcDbCircle
 10
99.84610546301478
 20
-268.8641448595149
 30
0.0
 40
8.25
100
AcDbArc
 50
305.096801227583
 51
54.90319877241699
  0
ARC
  5
E07
330
6B
100
AcDbEntity
  8
0
 62
     3
100
AcDbCircle
 10
99.84610546301478
 20
-268.8641448595149
 30
0.0
 40
8.25
100
AcDbArc
 50
125.096801227583
 51
234.903198772417
  0
LINE
  5
E08
330
6B
100
AcDbEntity
  8
0
 62
     3
100
AcDbLine
 10
95.10268897276217
 20
-281.6141448595149
 30
0.0
 11
104.5895219532673
 21
-281.6141448595149
 31
0.0
  0
LINE
  5
E09
330
6B
100
AcDbEntity
  8
0
 62
     3
100
AcDbLine
 10
96.17110546301468
 20
-286.1141448595149
 30
0.0
 11
96.17110546301468
 21
-290.6141448595149
 31
0.0
  0
LINE
  5
E0A
330
6B
100
AcDbEntity
  8
0
 62
     3
100
AcDbLine
 10
97.17110546301469
 20
-286.1141448595149
 30
0.0
 11
97.17110546301469
 21
-290.6141448595149
 31
0.0
  0
LINE
  5
E0B
330
6B
100
AcDbEntity
  8
0
 62
     3
100
AcDbLine
 10
102.5211054630147
 20
-286.6141448595149
 30
0.0
 11
102.5211054630147
 21
-290.1141448595149
 31
0.0
  0
LINE
  5
E0C
330
6B
100
AcDbEntity
  8
0
 62
     3
100
AcDbLine
 10
103.5211054630147
 20
-286.6141448595149
 30
0.0
 11
103.5211054630147
 21
-290.1141448595149
 31
0.0
  0
LINE
  5
E0D
330
6B
100
AcDbEntity
  8
0
 62
     3
100
AcDbLine
 10
95.10268897276217
 20
-295.1141448595149
 30
0.0
 11
104.5895219532673
 21
-295.1141448595149
 31
0.0
  0
LINE
  5
E0E
330
6B
100
AcDbEntity
  8
0
 62
     3
100
AcDbLine
 10
102.5211054630147
 20
-290.1141448595149
 30
0.0
 11
103.5211054630147
 21
-290.1141448595149
 31
0.0
  0
LINE
  5
E0F
330
6B
100
AcDbEntity
  8
0
 62
     3
100
AcDbLine
 10
96.17110546301468
 20
-290.6141448595149
 30
0.0
 11
97.17110546301469
 21
-290.6141448595149
 31
0.0
  0
LINE
  5
E10
330
6B
100
AcDbEntity
  8
0
 62
     3
100
AcDbLine
 10
102.5211054630147
 20
-286.6141448595149
 30
0.0
 11
103.5211054630147
 21
-286.6141448595149
 31
0.0
  0
LINE
  5
E11
330
6B
100
AcDbEntity
  8
0
 62
     3
100
AcDbLine
 10
96.17110546301468
 20
-286.1141448595149
 30
0.0
 11
97.17110546301469
 21
-286.1141448595149
 31
0.0
  0
ARC
  5
E12
330
6B
100
AcDbEntity
  8
0
 62
     3
100
AcDbCircle
 10
99.84610546301478
 20
-288.3641448595149
 30
0.0
 40
8.25
100
AcDbArc
 50
305.096801227583
 51
54.90319877241699
  0
ARC
  5
E13
330
6B
100
AcDbEntity
  8
0
 62
     3
100
AcDbCircle
 10
99.84610546301478
 20
-288.3641448595149
 30
0.0
 40
8.25
100
AcDbArc
 50
125.096801227583
 51
234.903198772417
  0
LINE
  5
E14
330
6B
100
AcDbEntity
  8
0
100
AcDbLine
 10
99.59610546301474
 20
-298.4761514967234
 30
0.0
 11
99.59610546301474
 21
-299.1141448595149
 31
0.0
  0
LINE
  5
E15
330
6B
100
AcDbEntity
  8
0
100
AcDbLine
 10
99.59610546301474
 20
-299.6141448595149
 30
0.0
 11
99.59610546301474
 21
-300.2521382223064
 31
0.0
  0
LINE
  5
E16
330
6B
100
AcDbEntity
  8
0
100
AcDbLine
 10
100.0961054630147
 20
-298.4761514967234
 30
0.0
 11
100.0961054630147
 21
-299.1141448595149
 31
0.0
  0
LINE
  5
E17
330
6B
100
AcDbEntity
  8
0
100
AcDbLine
 10
100.0961054630147
 20
-299.6141448595149
 30
0.0
 11
100.0961054630147
 21
-300.2521382223064
 31
0.0
  0
LINE
  5
E18
330
6B
100
AcDbEntity
  8
0
100
AcDbLine
 10
98.95811210022328
 20
-299.6141448595149
 30
0.0
 11
99.59610546301474
 21
-299.6141448595149
 31
0.0
  0
LINE
  5
E19
330
6B
100
AcDbEntity
  8
0
100
AcDbLine
 10
100.0961054630147
 20
-299.6141448595149
 30
0.0
 11
100.7340988258061
 21
-299.6141448595149
 31
0.0
  0
LINE
  5
E1A
330
6B
100
AcDbEntity
  8
0
100
AcDbLine
 10
98.95811210022328
 20
-299.1141448595149
 30
0.0
 11
99.59610546301474
 21
-299.1141448595149
 31
0.0
  0
LINE
  5
E1B
330
6B
100
AcDbEntity
  8
0
100
AcDbLine
 10
100.0961054630147
 20
-299.1141448595149
 30
0.0
 11
100.7340988258061
 21
-299.1141448595149
 31
0.0
  0
CIRCLE
  5
E1C
330
6B
100
AcDbEntity
  8
0
100
AcDbCircle
 10
99.84610546301478
 20
-299.3641448595149
 30
0.0
 40
1.625
  0
ARC
  5
E1D
330
6B
100
AcDbEntity
  8
0
100
AcDbCircle
 10
99.84610546301478
 20
-299.3641448595149
 30
0.0
 40
0.9225140716334864
100
AcDbArc
 50
74.276303409489
 51
105.723696590511
  0
ARC
  5
E1E
330
6B
100
AcDbEntity
  8
0
100
AcDbCircle
 10
99.84610546301478
 20
-299.3641448595149
 30
0.0
 40
0.9225140716334864
100
AcDbArc
 50
164.2763034094844
 51
195.7236965905148
  0
ARC
  5
E1F
330
6B
100
AcDbEntity
  8
0
100
AcDbCircle
 10
99.84610546301478
 20
-299.3641448595149
 30
0.0
 40
0.9225140716334864
100
AcDbArc
 50
254.2763034094823
 51
285.723696590511
  0
ARC
  5
E20
330
6B
100
AcDbEntity
  8
0
100
AcDbCircle
 10
99.84610546301478
 20
-299.3641448595149
 30
0.0
 40
0.9225140716334864
100
AcDbArc
 50
344.2763034094844
 51
15.72369659051478
  0
LINE
  5
E21
330
6B
100
AcDbEntity
  8
0
 62
     3
100
AcDbLine
 10
159.102688972762
 20
-262.1141448595149
 30
0.0
 11
168.5895219532673
 21
-262.1141448595149
 31
0.0
  0
LINE
  5
E22
330
6B
100
AcDbEntity
  8
0
 62
     3
100
AcDbLine
 10
160.1711054630146
 20
-266.6141448595149
 30
0.0
 11
160.1711054630146
 21
-271.1141448595149
 31
0.0
  0
LINE
  5
E23
330
6B
100
AcDbEntity
  8
0
 62
     3
100
AcDbLine
 10
161.1711054630147
 20
-266.6141448595149
 30
0.0
 11
161.1711054630147
 21
-271.1141448595149
 31
0.0
  0
LINE
  5
E24
330
6B
100
AcDbEntity
  8
0
 62
     3
100
AcDbLine
 10
166.5211054630147
 20
-267.1141448595149
 30
0.0
 11
166.5211054630147
 21
-270.6141448595149
 31
0.0
  0
LINE
  5
E25
330
6B
100
AcDbEntity
  8
0
 62
     3
100
AcDbLine
 10
167.5211054630147
 20
-267.1141448595149
 30
0.0
 11
167.5211054630147
 21
-270.6141448595149
 31
0.0
  0
LINE
  5
E26
330
6B
100
AcDbEntity
  8
0
 62
     3
100
AcDbLine
 10
159.102688972762
 20
-275.6141448595149
 30
0.0
 11
168.5895219532673
 21
-275.6141448595149
 31
0.0
  0
LINE
  5
E27
330
6B
100
AcDbEntity
  8
0
 62
     3
100
AcDbLine
 10
166.5211054630147
 20
-270.6141448595149
 30
0.0
 11
167.5211054630147
 21
-270.6141448595149
 31
0.0
  0
LINE
  5
E28
330
6B
100
AcDbEntity
  8
0
 62
     3
100
AcDbLine
 10
160.1711054630146
 20
-271.1141448595149
 30
0.0
 11
161.1711054630147
 21
-271.1141448595149
 31
0.0
  0
LINE
  5
E29
330
6B
100
AcDbEntity
  8
0
 62
     3
100
AcDbLine
 10
166.5211054630147
 20
-267.1141448595149
 30
0.0
 11
167.5211054630147
 21
-267.1141448595149
 31
0.0
  0
LINE
  5
E2A
330
6B
100
AcDbEntity
  8
0
 62
     3
100
AcDbLine
 10
160.1711054630146
 20
-266.6141448595149
 30
0.0
 11
161.1711054630147
 21
-266.6141448595149
 31
0.0
  0
ARC
  5
E2B
330
6B
100
AcDbEntity
  8
0
 62
     3
100
AcDbCircle
 10
163.8461054630147
 20
-268.8641448595149
 30
0.0
 40
8.25
100
AcDbArc
 50
305.096801227583
 51
54.90319877241699
  0
ARC
  5
E2C
330
6B
100
AcDbEntity
  8
0
 62
     3
100
AcDbCircle
 10
163.8461054630147
 20
-268.8641448595149
 30
0.0
 40
8.25
100
AcDbArc
 50
125.096801227583
 51
234.903198772417
  0
LINE
  5
E2D
330
6B
100
AcDbEntity
  8
0
 62
     3
100
AcDbLine
 10
159.102688972762
 20
-281.6141448595149
 30
0.0
 11
168.5895219532673
 21
-281.6141448595149
 31
0.0
  0
LINE
  5
E2E
330
6B
100
AcDbEntity
  8
0
 62
     3
100
AcDbLine
 10
160.1711054630146
 20
-286.1141448595149
 30
0.0
 11
160.1711054630146
 21
-290.6141448595149
 31
0.0
  0
LINE
  5
E2F
330
6B
100
AcDbEntity
  8
0
 62
     3
100
AcDbLine
 10
161.1711054630147
 20
-286.1141448595149
 30
0.0
 11
161.1711054630147
 21
-290.6141448595149
 31
0.0
  0
LINE
  5
E30
330
6B
100
AcDbEntity
  8
0
 62
     3
100
AcDbLine
 10
166.5211054630147
 20
-286.6141448595149
 30
0.0
 11
166.5211054630147
 21
-290.1141448595149
 31
0.0
  0
LINE
  5
E31
330
6B
100
AcDbEntity
  8
0
 62
     3
100
AcDbLine
 10
167.5211054630147
 20
-286.6141448595149
 30
0.0
 11
167.5211054630147
 21
-290.1141448595149
 31
0.0
  0
LINE
  5
E32
330
6B
100
AcDbEntity
  8
0
 62
     3
100
AcDbLine
 10
159.102688972762
 20
-295.1141448595149
 30
0.0
 11
168.5895219532673
 21
-295.1141448595149
 31
0.0
  0
LINE
  5
E33
330
6B
100
AcDbEntity
  8
0
 62
     3
100
AcDbLine
 10
166.5211054630147
 20
-290.1141448595149
 30
0.0
 11
167.5211054630147
 21
-290.1141448595149
 31
0.0
  0
LINE
  5
E34
330
6B
100
AcDbEntity
  8
0
 62
     3
100
AcDbLine
 10
160.1711054630146
 20
-290.6141448595149
 30
0.0
 11
161.1711054630147
 21
-290.6141448595149
 31
0.0
  0
LINE
  5
E35
330
6B
100
AcDbEntity
  8
0
 62
     3
100
AcDbLine
 10
166.5211054630147
 20
-286.6141448595149
 30
0.0
 11
167.5211054630147
 21
-286.6141448595149
 31
0.0
  0
LINE
  5
E36
330
6B
100
AcDbEntity
  8
0
 62
     3
100
AcDbLine
 10
160.1711054630146
 20
-286.1141448595149
 30
0.0
 11
161.1711054630147
 21
-286.1141448595149
 31
0.0
  0
ARC
  5
E37
330
6B
100
AcDbEntity
  8
0
 62
     3
100
AcDbCircle
 10
163.8461054630147
 20
-288.3641448595149
 30
0.0
 40
8.25
100
AcDbArc
 50
305.096801227583
 51
54.90319877241699
  0
ARC
  5
E38
330
6B
100
AcDbEntity
  8
0
 62
     3
100
AcDbCircle
 10
163.8461054630147
 20
-288.3641448595149
 30
0.0
 40
8.25
100
AcDbArc
 50
125.096801227583
 51
234.903198772417
  0
LINE
  5
E39
330
6B
100
AcDbEntity
  8
0
100
AcDbLine
 10
163.5961054630147
 20
-298.4761514967234
 30
0.0
 11
163.5961054630147
 21
-299.1141448595149
 31
0.0
  0
LINE
  5
E3A
330
6B
100
AcDbEntity
  8
0
100
AcDbLine
 10
163.5961054630147
 20
-299.6141448595149
 30
0.0
 11
163.5961054630147
 21
-300.2521382223064
 31
0.0
  0
LINE
  5
E3B
330
6B
100
AcDbEntity
  8
0
100
AcDbLine
 10
164.0961054630146
 20
-298.4761514967234
 30
0.0
 11
164.0961054630146
 21
-299.1141448595149
 31
0.0
  0
LINE
  5
E3C
330
6B
100
AcDbEntity
  8
0
100
AcDbLine
 10
164.0961054630146
 20
-299.6141448595149
 30
0.0
 11
164.0961054630146
 21
-300.2521382223064
 31
0.0
  0
LINE
  5
E3D
330
6B
100
AcDbEntity
  8
0
100
AcDbLine
 10
162.9581121002233
 20
-299.6141448595149
 30
0.0
 11
163.5961054630147
 21
-299.6141448595149
 31
0.0
  0
LINE
  5
E3E
330
6B
100
AcDbEntity
  8
0
100
AcDbLine
 10
164.0961054630146
 20
-299.6141448595149
 30
0.0
 11
164.7340988258061
 21
-299.6141448595149
 31
0.0
  0
LINE
  5
E3F
330
6B
100
AcDbEntity
  8
0
100
AcDbLine
 10
162.9581121002233
 20
-299.1141448595149
 30
0.0
 11
163.5961054630147
 21
-299.1141448595149
 31
0.0
  0
LINE
  5
E40
330
6B
100
AcDbEntity
  8
0
100
AcDbLine
 10
164.0961054630146
 20
-299.1141448595149
 30
0.0
 11
164.7340988258061
 21
-299.1141448595149
 31
0.0
  0
CIRCLE
  5
E41
330
6B
100
AcDbEntity
  8
0
100
AcDbCircle
 10
163.8461054630147
 20
-299.3641448595149
 30
0.0
 40
1.625
  0
ARC
  5
E42
330
6B
100
AcDbEntity
  8
0
100
AcDbCircle
 10
163.8461054630147
 20
-299.3641448595149
 30
0.0
 40
0.9225140716334864
100
AcDbArc
 50
74.276303409489
 51
105.723696590511
  0
ARC
  5
E43
330
6B
100
AcDbEntity
  8
0
100
AcDbCircle
 10
163.8461054630147
 20
-299.3641448595149
 30
0.0
 40
0.9225140716334864
100
AcDbArc
 50
164.2763034094844
 51
195.7236965905148
  0
ARC
  5
E44
330
6B
100
AcDbEntity
  8
0
100
AcDbCircle
 10
163.8461054630147
 20
-299.3641448595149
 30
0.0
 40
0.9225140716334864
100
AcDbArc
 50
254.2763034094823
 51
285.723696590511
  0
ARC
  5
E45
330
6B
100
AcDbEntity
  8
0
100
AcDbCircle
 10
163.8461054630147
 20
-299.3641448595149
 30
0.0
 40
0.9225140716334864
100
AcDbArc
 50
344.2763034094844
 51
15.72369659051478
  0
LINE
  5
E53
330
6B
100
AcDbEntity
  8
0
100
AcDbLine
 10
99.59610546301474
 20
-256.9761514967235
 30
0.0
 11
99.59610546301474
 21
-257.6141448595149
 31
0.0
  0
LINE
  5
E54
330
6B
100
AcDbEntity
  8
0
100
AcDbLine
 10
99.59610546301474
 20
-258.1141448595149
 30
0.0
 11
99.59610546301474
 21
-258.7521382223064
 31
0.0
  0
LINE
  5
E55
330
6B
100
AcDbEntity
  8
0
100
AcDbLine
 10
100.0961054630147
 20
-256.9761514967235
 30
0.0
 11
100.0961054630147
 21
-257.6141448595149
 31
0.0
  0
LINE
  5
E56
330
6B
100
AcDbEntity
  8
0
100
AcDbLine
 10
100.0961054630147
 20
-258.1141448595149
 30
0.0
 11
100.0961054630147
 21
-258.7521382223064
 31
0.0
  0
LINE
  5
E57
330
6B
100
AcDbEntity
  8
0
100
AcDbLine
 10
98.95811210022328
 20
-258.1141448595149
 30
0.0
 11
99.59610546301474
 21
-258.1141448595149
 31
0.0
  0
LINE
  5
E58
330
6B
100
AcDbEntity
  8
0
100
AcDbLine
 10
100.0961054630147
 20
-258.1141448595149
 30
0.0
 11
100.7340988258061
 21
-258.1141448595149
 31
0.0
  0
LINE
  5
E59
330
6B
100
AcDbEntity
  8
0
100
AcDbLine
 10
98.95811210022328
 20
-257.6141448595149
 30
0.0
 11
99.59610546301474
 21
-257.6141448595149
 31
0.0
  0
LINE
  5
E5A
330
6B
100
AcDbEntity
  8
0
100
AcDbLine
 10
100.0961054630147
 20
-257.6141448595149
 30
0.0
 11
100.7340988258061
 21
-257.6141448595149
 31
0.0
  0
CIRCLE
  5
E5B
330
6B
100
AcDbEntity
  8
0
100
AcDbCircle
 10
99.84610546301478
 20
-257.8641448595149
 30
0.0
 40
1.625
  0
ARC
  5
E5C
330
6B
100
AcDbEntity
  8
0
100
AcDbCircle
 10
99.84610546301478
 20
-257.8641448595149
 30
0.0
 40
0.9225140716334864
100
AcDbArc
 50
74.276303409489
 51
105.723696590511
  0
ARC
  5
E5D
330
6B
100
AcDbEntity
  8
0
100
AcDbCircle
 10
99.84610546301478
 20
-257.8641448595149
 30
0.0
 40
0.9225140716334864
100
AcDbArc
 50
164.2763034094844
 51
195.7236965905148
  0
ARC
  5
E5E
330
6B
100
AcDbEntity
  8
0
100
AcDbCircle
 10
99.84610546301478
 20
-257.8641448595149
 30
0.0
 40
0.9225140716334864
100
AcDbArc
 50
254.2763034094823
 51
285.723696590511
  0
ARC
  5
E5F
330
6B
100
AcDbEntity
  8
0
100
AcDbCircle
 10
99.84610546301478
 20
-257.8641448595149
 30
0.0
 40
0.9225140716334864
100
AcDbArc
 50
344.2763034094844
 51
15.72369659051478
  0
LINE
  5
E60
330
6B
100
AcDbEntity
  8
0
100
AcDbLine
 10
163.5961054630147
 20
-256.9761514967235
 30
0.0
 11
163.5961054630147
 21
-257.6141448595149
 31
0.0
  0
LINE
  5
E61
330
6B
100
AcDbEntity
  8
0
100
AcDbLine
 10
163.5961054630147
 20
-258.1141448595149
 30
0.0
 11
163.5961054630147
 21
-258.7521382223064
 31
0.0
  0
LINE
  5
E62
330
6B
100
AcDbEntity
  8
0
100
AcDbLine
 10
164.0961054630146
 20
-256.9761514967235
 30
0.0
 11
164.0961054630146
 21
-257.6141448595149
 31
0.0
  0
LINE
  5
E63
330
6B
100
AcDbEntity
  8
0
100
AcDbLine
 10
164.0961054630146
 20
-258.1141448595149
 30
0.0
 11
164.0961054630146
 21
-258.7521382223064
 31
0.0
  0
LINE
  5
E64
330
6B
100
AcDbEntity
  8
0
100
AcDbLine
 10
162.9581121002233
 20
-258.1141448595149
 30
0.0
 11
163.5961054630147
 21
-258.1141448595149
 31
0.0
  0
LINE
  5
E65
330
6B
100
AcDbEntity
  8
0
100
AcDbLine
 10
164.0961054630146
 20
-258.1141448595149
 30
0.0
 11
164.7340988258061
 21
-258.1141448595149
 31
0.0
  0
LINE
  5
E66
330
6B
100
AcDbEntity
  8
0
100
AcDbLine
 10
162.9581121002233
 20
-257.6141448595149
 30
0.0
 11
163.5961054630147
 21
-257.6141448595149
 31
0.0
  0
LINE
  5
E67
330
6B
100
AcDbEntity
  8
0
100
AcDbLine
 10
164.0961054630146
 20
-257.6141448595149
 30
0.0
 11
164.7340988258061
 21
-257.6141448595149
 31
0.0
  0
CIRCLE
  5
E68
330
6B
100
AcDbEntity
  8
0
100
AcDbCircle
 10
163.8461054630147
 20
-257.8641448595149
 30
0.0
 40
1.625
  0
ARC
  5
E69
330
6B
100
AcDbEntity
  8
0
100
AcDbCircle
 10
163.8461054630147
 20
-257.8641448595149
 30
0.0
 40
0.9225140716334864
100
AcDbArc
 50
74.276303409489
 51
105.723696590511
  0
ARC
  5
E6A
330
6B
100
AcDbEntity
  8
0
100
AcDbCircle
 10
163.8461054630147
 20
-257.8641448595149
 30
0.0
 40
0.9225140716334864
100
AcDbArc
 50
164.2763034094844
 51
195.7236965905148
  0
ARC
  5
E6B
330
6B
100
AcDbEntity
  8
0
100
AcDbCircle
 10
163.8461054630147
 20
-257.8641448595149
 30
0.0
 40
0.9225140716334864
100
AcDbArc
 50
254.2763034094823
 51
285.723696590511
  0
ARC
  5
E6C
330
6B
100
AcDbEntity
  8
0
100
AcDbCircle
 10
163.8461054630147
 20
-257.8641448595149
 30
0.0
 40
0.9225140716334864
100
AcDbArc
 50
344.2763034094844
 51
15.72369659051478
  0
LINE
  5
E71
330
6B
100
AcDbEntity
  8
0
 62
     3
100
AcDbLine
 10
120.8461054630147
 20
-254.6141448595149
 30
0.0
 11
120.8461054630147
 21
-277.1141448595149
 31
0.0
  0
LINE
  5
E72
330
6B
100
AcDbEntity
  8
0
 62
     3
100
AcDbLine
 10
120.8461054630147
 20
-277.1141448595149
 30
0.0
 11
142.8461054630147
 21
-277.1141448595149
 31
0.0
  0
LINE
  5
E73
330
6B
100
AcDbEntity
  8
0
 62
     3
100
AcDbLine
 10
142.8461054630147
 20
-277.1141448595149
 30
0.0
 11
142.8461054630147
 21
-254.6141448595149
 31
0.0
  0
LINE
  5
E74
330
6B
100
AcDbEntity
  8
0
 62
     3
100
AcDbLine
 10
142.8461054630147
 20
-254.6141448595149
 30
0.0
 11
120.8461054630147
 21
-254.6141448595149
 31
0.0
  0
LINE
  5
E75
330
6B
100
AcDbEntity
  8
0
 62
     3
100
AcDbLine
 10
120.8461054630147
 20
-267.9048425339335
 30
0.0
 11
142.8461054630147
 21
-267.9048425339335
 31
0.0
  0
ARC
  5
E76
330
6B
100
AcDbEntity
  8
0
 62
     3
100
AcDbCircle
 10
131.8461054630147
 20
-267.9048425339335
 30
0.0
 40
3.069767441860463
100
AcDbArc
 50
0.0
 51
180.0
  0
LINE
  5
E77
330
6B
100
AcDbEntity
  8
0
 62
     3
100
AcDbLine
 10
122.8926170909217
 20
-262.0211216037009
 30
0.0
 11
123.14843104441
 21
-262.0211216037009
 31
0.0
  0
LINE
  5
E78
330
6B
100
AcDbEntity
  8
0
100
AcDbLine
 10
131.8461054630147
 20
-271.2304239292823
 30
0.0
 11
131.8461054630147
 21
-274.8118192781196
 31
0.0
  0
CIRCLE
  5
E79
330
6B
100
AcDbEntity
  8
0
100
AcDbCircle
 10
131.8461054630147
 20
-273.0211216037009
 30
0.0
 40
1.790697674418604
  0
LINE
  5
E7A
330
6B
100
AcDbEntity
  8
0
100
AcDbLine
 10
123.14843104441
 20
-262.0211216037009
 30
0.0
 11
132.101919416503
 21
-267.9048425339335
 31
0.0
  0
LINE
  5
E7B
330
6B
100
AcDbEntity
  8
0
100
AcDbLine
 10
131.8461054630147
 20
-267.9048425339335
 30
0.0
 11
122.8926170909217
 21
-262.0211216037009
 31
0.0
  0
TEXT
  5
E7C
330
6B
100
AcDbEntity
  8
0
100
AcDbText
 10
140.0321519746426
 20
-259.974609975794
 30
0.0
 40
1.023255813953487
  1
150
 50
319.9999910000022
 41
1.1808
100
AcDbText
  0
LINE
  5
E7D
330
6B
100
AcDbEntity
  8
0
100
AcDbLine
 10
140.8896403467356
 20
-261.910609975794
 30
0.0
 11
141.6570822072008
 21
-261.1431681153288
 31
0.0
  0
ARC
  5
E7E
330
6B
100
AcDbEntity
  8
0
100
AcDbCircle
 10
132.6135473234799
 20
-273.5327495106777
 30
0.0
 40
14.32558139534884
100
AcDbArc
 50
50.85599999999654
 51
129.1440000000034
  0
TEXT
  5
E7F
330
6B
100
AcDbEntity
  8
0
100
AcDbText
 10
122.0747287188287
 20
-261.2361319292823
 30
0.0
 40
0.8390697674418603
  1
0
 50
39.99999900000239
 41
1.440001
100
AcDbText
  0
LINE
  5
E80
330
6B
100
AcDbEntity
  8
0
100
AcDbLine
 10
122.8926170909217
 20
-262.0211216037009
 30
0.0
 11
122.3809891839451
 21
-261.2536797432358
 31
0.0
  0
TEXT
  5
E85
330
6B
100
AcDbEntity
  8
0
 62
     4
100
AcDbText
 10
97.40847131514463
 20
-252.3637450480179
 30
0.0
 40
2.25
  1
115V
  7
高4.5
100
AcDbText
  0
TEXT
  5
E86
330
6B
100
AcDbEntity
  8
0
 62
     4
100
AcDbText
 10
160.6511231602533
 20
-252.3637450480179
 30
0.0
 40
2.25
  1
125V
  7
高4.5
100
AcDbText
  0
TEXT
  5
E87
330
6B
100
AcDbEntity
  8
0
 62
     3
100
AcDbText
 10
114.2107866620108
 20
-282.9805989044531
 30
0.0
 40
3.149999999999999
  1
TORA PACK ハイパワー
 41
0.8
  7
高6.3
100
AcDbText
  0
TEXT
  5
E88
330
6B
100
AcDbEntity
  8
0
 62
     3
100
AcDbText
 10
115.9857382501611
 20
-287.9359179360679
 30
0.0
 40
3.149999999999999
  1
M-20 容量2KVA
  7
高6.3
100
AcDbText
  0
TEXT
  5
E8B
330
6B
100
AcDbEntity
  8
0
 62
     4
100
AcDbText
 10
94.6043595733613
 20
-279.8989766036566
 30
0.0
 40
2.25
  1
昇圧15%%%
  7
高4.5
100
AcDbText
  0
TEXT
  5
E8C
330
6B
100
AcDbEntity
  8
0
 62
     4
100
AcDbText
 10
158.7593227114159
 20
-279.8989766036566
 30
0.0
 40
2.25
  1
昇圧25%%%
  7
高4.5
100
AcDbText
  0
TEXT
  5
E8F
330
6B
100
AcDbEntity
  8
0
100
AcDbText
 10
122.0638026123524
 20
-291.7103306933749
 30
0.0
 40
1.25
  1
入力：AC100V　50/60Hz
  7
高2.5
100
AcDbText
  0
TEXT
  5
E90
330
6B
100
AcDbEntity
  8
0
100
AcDbText
 10
122.0638026123524
 20
-294.1967956983695
 30
0.0
 40
1.25
  1
出力：AC115V・AC125V
  7
高2.5
100
AcDbText
  0
LINE
  5
E97
330
6B
100
AcDbEntity
  8
0
 62
     3
100
AcDbLine
 10
99.34610546301474
 20
-245.1141448595149
 30
0.0
 11
106.1551224573896
 21
-231.496110870765
 31
0.0
  0
LINE
  5
E98
330
6B
100
AcDbEntity
  8
0
 62
     3
100
AcDbLine
 10
164.3461054630147
 20
-245.1141448595149
 30
0.0
 11
157.5370884686398
 21
-231.4961108707651
 31
0.0
  0
LINE
  5
E99
330
6B
100
AcDbEntity
  8
0
 62
     3
100
AcDbLine
 10
155.30102049114
 20
-230.1141448595149
 30
0.0
 11
108.3911904348895
 21
-230.1141448595149
 31
0.0
  0
LINE
  5
E9C
330
6B
100
AcDbEntity
  8
0
 62
     3
100
AcDbLine
 10
149.5961054630147
 20
-234.6141448595149
 30
0.0
 11
114.0961054630147
 21
-234.6141448595149
 31
0.0
  0
ARC
  5
E9D
330
6B
100
AcDbEntity
  8
0
 62
     3
100
AcDbCircle
 10
149.5961054630146
 20
-236.114144859515
 30
0.0
 40
1.5
100
AcDbArc
 50
0.0
 51
89.99999999999348
  0
ARC
  5
E9E
330
6B
100
AcDbEntity
  8
0
 62
     3
100
AcDbCircle
 10
114.0961054630147
 20
-236.1141448595149
 30
0.0
 40
1.5
100
AcDbArc
 50
90.0
 51
180.0
  0
ARC
  5
E9F
330
6B
100
AcDbEntity
  8
0
 62
     3
100
AcDbCircle
 10
155.30102049114
 20
-232.6141448595149
 30
0.0
 40
2.5
100
AcDbArc
 50
26.56505117707799
 51
90.0
  0
ARC
  5
EA0
330
6B
100
AcDbEntity
  8
0
 62
     3
100
AcDbCircle
 10
108.3911904348895
 20
-232.6141448595149
 30
0.0
 40
2.5
100
AcDbArc
 50
90.0
 51
153.434948822922
  0
LINE
  5
EA6
330
6B
100
AcDbEntity
  8
0
 62
     3
100
AcDbLine
 10
267.7726888430454
 20
-245.1141448595149
 30
0.0
 11
268.7726888430455
 21
-230.1141448595149
 31
0.0
  0
LINE
  5
EA7
330
6B
100
AcDbEntity
  8
0
 62
     3
100
AcDbLine
 10
268.7726888430455
 20
-230.1141448595149
 30
0.0
 11
273.7726888430454
 21
-230.1141448595149
 31
0.0
  0
LINE
  5
EA8
330
6B
100
AcDbEntity
  8
0
 62
     3
100
AcDbLine
 10
273.7726888430454
 20
-230.1141448595149
 30
0.0
 11
274.7726888430455
 21
-245.1141448595149
 31
0.0
  0
LINE
  5
EB4
330
6B
100
AcDbEntity
  8
0
100
AcDbLine
 10
308.2268349015683
 20
-271.1141448595149
 30
0.0
 11
309.2726888430454
 21
-271.1141448595149
 31
0.0
  0
LINE
  5
EB5
330
6B
100
AcDbEntity
  8
0
100
AcDbLine
 10
309.7726888430454
 20
-271.1141448595149
 30
0.0
 11
310.8185427845226
 21
-271.1141448595149
 31
0.0
  0
LINE
  5
EB6
330
6B
100
AcDbEntity
  8
0
100
AcDbLine
 10
308.2268349015683
 20
-270.6141448595149
 30
0.0
 11
309.2726888430454
 21
-270.6141448595149
 31
0.0
  0
LINE
  5
EB7
330
6B
100
AcDbEntity
  8
0
100
AcDbLine
 10
309.7726888430454
 20
-270.6141448595149
 30
0.0
 11
310.8185427845226
 21
-270.6141448595149
 31
0.0
  0
LINE
  5
EB8
330
6B
100
AcDbEntity
  8
0
100
AcDbLine
 10
309.2726888430454
 20
-269.5682909180378
 30
0.0
 11
309.2726888430454
 21
-270.6141448595149
 31
0.0
  0
LINE
  5
EB9
330
6B
100
AcDbEntity
  8
0
100
AcDbLine
 10
309.2726888430454
 20
-271.1141448595149
 30
0.0
 11
309.2726888430454
 21
-272.159998800992
 31
0.0
  0
LINE
  5
EBA
330
6B
100
AcDbEntity
  8
0
100
AcDbLine
 10
309.7726888430454
 20
-269.5682909180378
 30
0.0
 11
309.7726888430454
 21
-270.6141448595149
 31
0.0
  0
LINE
  5
EBB
330
6B
100
AcDbEntity
  8
0
100
AcDbLine
 10
309.7726888430454
 20
-271.1141448595149
 30
0.0
 11
309.7726888430454
 21
-272.159998800992
 31
0.0
  0
CIRCLE
  5
EBC
330
6B
100
AcDbEntity
  8
0
100
AcDbCircle
 10
309.5226888430454
 20
-270.8641448595149
 30
0.0
 40
2.25
  0
ARC
  5
EBD
330
6B
100
AcDbEntity
  8
0
100
AcDbCircle
 10
309.5226888430454
 20
-270.8641448595149
 30
0.0
 40
1.319749005546779
100
AcDbArc
 50
79.08048086552442
 51
100.9195191344755
  0
ARC
  5
EBE
330
6B
100
AcDbEntity
  8
0
100
AcDbCircle
 10
309.5226888430454
 20
-270.8641448595149
 30
0.0
 40
1.319749005546779
100
AcDbArc
 50
169.080480865528
 51
190.9195191344719
  0
ARC
  5
EBF
330
6B
100
AcDbEntity
  8
0
100
AcDbCircle
 10
309.5226888430454
 20
-270.8641448595149
 30
0.0
 40
1.319749005546779
100
AcDbArc
 50
259.0804808655244
 51
280.9195191344756
  0
ARC
  5
EC0
330
6B
100
AcDbEntity
  8
0
100
AcDbCircle
 10
309.5226888430454
 20
-270.8641448595149
 30
0.0
 40
1.319749005546779
100
AcDbArc
 50
349.0804808655281
 51
10.91951913447193
  0
LINE
  5
EC1
330
6B
100
AcDbEntity
  8
0
100
AcDbLine
 10
235.7268349015683
 20
-271.1141448595149
 30
0.0
 11
236.7726888430454
 21
-271.1141448595149
 31
0.0
  0
LINE
  5
EC2
330
6B
100
AcDbEntity
  8
0
100
AcDbLine
 10
237.2726888430455
 20
-271.1141448595149
 30
0.0
 11
238.3185427845226
 21
-271.1141448595149
 31
0.0
  0
LINE
  5
EC3
330
6B
100
AcDbEntity
  8
0
100
AcDbLine
 10
235.7268349015683
 20
-270.6141448595149
 30
0.0
 11
236.7726888430454
 21
-270.6141448595149
 31
0.0
  0
LINE
  5
EC4
330
6B
100
AcDbEntity
  8
0
100
AcDbLine
 10
237.2726888430455
 20
-270.6141448595149
 30
0.0
 11
238.3185427845226
 21
-270.6141448595149
 31
0.0
  0
LINE
  5
EC5
330
6B
100
AcDbEntity
  8
0
100
AcDbLine
 10
236.7726888430454
 20
-269.5682909180378
 30
0.0
 11
236.7726888430454
 21
-270.6141448595149
 31
0.0
  0
LINE
  5
EC6
330
6B
100
AcDbEntity
  8
0
100
AcDbLine
 10
236.7726888430454
 20
-271.1141448595149
 30
0.0
 11
236.7726888430454
 21
-272.159998800992
 31
0.0
  0
LINE
  5
EC7
330
6B
100
AcDbEntity
  8
0
100
AcDbLine
 10
237.2726888430455
 20
-269.5682909180378
 30
0.0
 11
237.2726888430455
 21
-270.6141448595149
 31
0.0
  0
LINE
  5
EC8
330
6B
100
AcDbEntity
  8
0
100
AcDbLine
 10
237.2726888430455
 20
-271.1141448595149
 30
0.0
 11
237.2726888430455
 21
-272.159998800992
 31
0.0
  0
CIRCLE
  5
EC9
330
6B
100
AcDbEntity
  8
0
100
AcDbCircle
 10
237.0226888430455
 20
-270.8641448595149
 30
0.0
 40
2.25
  0
ARC
  5
ECA
330
6B
100
AcDbEntity
  8
0
100
AcDbCircle
 10
237.0226888430455
 20
-270.8641448595149
 30
0.0
 40
1.319749005546779
100
AcDbArc
 50
79.08048086552442
 51
100.9195191344755
  0
ARC
  5
ECB
330
6B
100
AcDbEntity
  8
0
100
AcDbCircle
 10
237.0226888430455
 20
-270.8641448595149
 30
0.0
 40
1.319749005546779
100
AcDbArc
 50
169.080480865528
 51
190.9195191344719
  0
ARC
  5
ECC
330
6B
100
AcDbEntity
  8
0
100
AcDbCircle
 10
237.0226888430455
 20
-270.8641448595149
 30
0.0
 40
1.319749005546779
100
AcDbArc
 50
259.0804808655244
 51
280.9195191344756
  0
ARC
  5
ECD
330
6B
100
AcDbEntity
  8
0
100
AcDbCircle
 10
237.0226888430455
 20
-270.8641448595149
 30
0.0
 40
1.319749005546779
100
AcDbArc
 50
349.0804808655281
 51
10.91951913447193
  0
LINE
  5
ECE
330
6B
100
AcDbEntity
  8
0
100
AcDbLine
 10
244.2268349015683
 20
-305.3641448595149
 30
0.0
 11
245.2726888430454
 21
-305.3641448595149
 31
0.0
  0
LINE
  5
ECF
330
6B
100
AcDbEntity
  8
0
100
AcDbLine
 10
245.7726888430455
 20
-305.3641448595149
 30
0.0
 11
246.8185427845226
 21
-305.3641448595149
 31
0.0
  0
LINE
  5
ED0
330
6B
100
AcDbEntity
  8
0
100
AcDbLine
 10
244.2268349015683
 20
-304.8641448595149
 30
0.0
 11
245.2726888430454
 21
-304.8641448595149
 31
0.0
  0
LINE
  5
ED1
330
6B
100
AcDbEntity
  8
0
100
AcDbLine
 10
245.7726888430455
 20
-304.8641448595149
 30
0.0
 11
246.8185427845226
 21
-304.8641448595149
 31
0.0
  0
LINE
  5
ED2
330
6B
100
AcDbEntity
  8
0
100
AcDbLine
 10
245.2726888430454
 20
-303.8182909180378
 30
0.0
 11
245.2726888430454
 21
-304.8641448595149
 31
0.0
  0
LINE
  5
ED3
330
6B
100
AcDbEntity
  8
0
100
AcDbLine
 10
245.2726888430454
 20
-305.3641448595149
 30
0.0
 11
245.2726888430454
 21
-306.409998800992
 31
0.0
  0
LINE
  5
ED4
330
6B
100
AcDbEntity
  8
0
100
AcDbLine
 10
245.7726888430455
 20
-303.8182909180378
 30
0.0
 11
245.7726888430455
 21
-304.8641448595149
 31
0.0
  0
LINE
  5
ED5
330
6B
100
AcDbEntity
  8
0
100
AcDbLine
 10
245.7726888430455
 20
-305.3641448595149
 30
0.0
 11
245.7726888430455
 21
-306.409998800992
 31
0.0
  0
CIRCLE
  5
ED6
330
6B
100
AcDbEntity
  8
0
100
AcDbCircle
 10
245.5226888430455
 20
-305.1141448595149
 30
0.0
 40
2.25
  0
ARC
  5
ED7
330
6B
100
AcDbEntity
  8
0
100
AcDbCircle
 10
245.5226888430455
 20
-305.1141448595149
 30
0.0
 40
1.319749005546779
100
AcDbArc
 50
79.08048086552442
 51
100.9195191344755
  0
ARC
  5
ED8
330
6B
100
AcDbEntity
  8
0
100
AcDbCircle
 10
245.5226888430455
 20
-305.1141448595149
 30
0.0
 40
1.319749005546779
100
AcDbArc
 50
169.0804808655313
 51
190.9195191344687
  0
ARC
  5
ED9
330
6B
100
AcDbEntity
  8
0
100
AcDbCircle
 10
245.5226888430455
 20
-305.1141448595149
 30
0.0
 40
1.319749005546779
100
AcDbArc
 50
259.0804808655244
 51
280.9195191344756
  0
ARC
  5
EDA
330
6B
100
AcDbEntity
  8
0
100
AcDbCircle
 10
245.5226888430455
 20
-305.1141448595149
 30
0.0
 40
1.319749005546779
100
AcDbArc
 50
349.0804808655312
 51
10.91951913446873
  0
LINE
  5
EDB
330
6B
100
AcDbEntity
  8
0
100
AcDbLine
 10
299.2268349015683
 20
-305.3641448595149
 30
0.0
 11
300.2726888430454
 21
-305.3641448595149
 31
0.0
  0
LINE
  5
EDC
330
6B
100
AcDbEntity
  8
0
100
AcDbLine
 10
300.7726888430454
 20
-305.3641448595149
 30
0.0
 11
301.8185427845226
 21
-305.3641448595149
 31
0.0
  0
LINE
  5
EDD
330
6B
100
AcDbEntity
  8
0
100
AcDbLine
 10
299.2268349015683
 20
-304.8641448595149
 30
0.0
 11
300.2726888430454
 21
-304.8641448595149
 31
0.0
  0
LINE
  5
EDE
330
6B
100
AcDbEntity
  8
0
100
AcDbLine
 10
300.7726888430454
 20
-304.8641448595149
 30
0.0
 11
301.8185427845226
 21
-304.8641448595149
 31
0.0
  0
LINE
  5
EDF
330
6B
100
AcDbEntity
  8
0
100
AcDbLine
 10
300.2726888430454
 20
-303.8182909180378
 30
0.0
 11
300.2726888430454
 21
-304.8641448595149
 31
0.0
  0
LINE
  5
EE0
330
6B
100
AcDbEntity
  8
0
100
AcDbLine
 10
300.2726888430454
 20
-305.3641448595149
 30
0.0
 11
300.2726888430454
 21
-306.409998800992
 31
0.0
  0
LINE
  5
EE1
330
6B
100
AcDbEntity
  8
0
100
AcDbLine
 10
300.7726888430454
 20
-303.8182909180378
 30
0.0
 11
300.7726888430454
 21
-304.8641448595149
 31
0.0
  0
LINE
  5
EE2
330
6B
100
AcDbEntity
  8
0
100
AcDbLine
 10
300.7726888430454
 20
-305.3641448595149
 30
0.0
 11
300.7726888430454
 21
-306.409998800992
 31
0.0
  0
CIRCLE
  5
EE3
330
6B
100
AcDbEntity
  8
0
100
AcDbCircle
 10
300.5226888430454
 20
-305.1141448595149
 30
0.0
 40
2.25
  0
ARC
  5
EE4
330
6B
100
AcDbEntity
  8
0
100
AcDbCircle
 10
300.5226888430454
 20
-305.1141448595149
 30
0.0
 40
1.319749005546779
100
AcDbArc
 50
79.08048086552442
 51
100.9195191344755
  0
ARC
  5
EE5
330
6B
100
AcDbEntity
  8
0
100
AcDbCircle
 10
300.5226888430454
 20
-305.1141448595149
 30
0.0
 40
1.319749005546779
100
AcDbArc
 50
169.0804808655313
 51
190.9195191344687
  0
ARC
  5
EE6
330
6B
100
AcDbEntity
  8
0
100
AcDbCircle
 10
300.5226888430454
 20
-305.1141448595149
 30
0.0
 40
1.319749005546779
100
AcDbArc
 50
259.0804808655244
 51
280.9195191344756
  0
ARC
  5
EE7
330
6B
100
AcDbEntity
  8
0
100
AcDbCircle
 10
300.5226888430454
 20
-305.1141448595149
 30
0.0
 40
1.319749005546779
100
AcDbArc
 50
349.0804808655312
 51
10.91951913446873
  0
LINE
  5
EE9
330
6B
100
AcDbEntity
  8
0
100
AcDbLine
 10
81.34610546301473
 20
-268.6141448595149
 30
0.0
 11
80.84610546301474
 21
-268.6141448595149
 31
0.0
  0
LINE
  5
EEA
330
6B
100
AcDbEntity
  8
0
100
AcDbLine
 10
81.34610546301473
 20
-273.1141448595149
 30
0.0
 11
80.84610546301474
 21
-273.1141448595149
 31
0.0
  0
LINE
  5
EEB
330
6B
100
AcDbEntity
  8
0
100
AcDbLine
 10
81.34610546301473
 20
-302.8641448595149
 30
0.0
 11
80.84610546301474
 21
-302.8641448595149
 31
0.0
  0
LINE
  5
EEC
330
6B
100
AcDbEntity
  8
0
100
AcDbLine
 10
81.34610546301473
 20
-307.3641448595149
 30
0.0
 11
80.84610546301474
 21
-307.3641448595149
 31
0.0
  0
LINE
  5
EEF
330
6B
100
AcDbEntity
  8
0
100
AcDbLine
 10
182.8461054630146
 20
-268.6141448595149
 30
0.0
 11
182.8461054630146
 21
-273.1141448595149
 31
0.0
  0
LINE
  5
EF0
330
6B
100
AcDbEntity
  8
0
100
AcDbLine
 10
80.84610546301474
 20
-268.6141448595149
 30
0.0
 11
80.84610546301474
 21
-273.1141448595149
 31
0.0
  0
ARC
  5
EF1
330
6B
100
AcDbEntity
  8
0
100
AcDbCircle
 10
179.8461054630147
 20
-270.8641448595149
 30
0.0
 40
3.75
100
AcDbArc
 50
323.1301023541527
 51
36.86989764584728
  0
ARC
  5
EF2
330
6B
100
AcDbEntity
  8
0
100
AcDbCircle
 10
179.8461054630147
 20
-305.1141448595149
 30
0.0
 40
3.75
100
AcDbArc
 50
323.1301023541527
 51
36.86989764584728
  0
ARC
  5
EF3
330
6B
100
AcDbEntity
  8
0
100
AcDbCircle
 10
83.84610546301473
 20
-305.1141448595149
 30
0.0
 40
3.75
100
AcDbArc
 50
143.1301023541527
 51
216.8698976458473
  0
ARC
  5
EF4
330
6B
100
AcDbEntity
  8
0
100
AcDbCircle
 10
83.84610546301473
 20
-270.8641448595149
 30
0.0
 40
3.75
100
AcDbArc
 50
143.1301023541527
 51
216.8698976458473
  0
LINE
  5
EF5
330
6B
100
AcDbEntity
  8
0
100
AcDbLine
 10
182.3461054630147
 20
-307.3641448595149
 30
0.0
 11
182.8461054630146
 21
-307.3641448595149
 31
0.0
  0
LINE
  5
EF6
330
6B
100
AcDbEntity
  8
0
100
AcDbLine
 10
182.3461054630147
 20
-302.8641448595149
 30
0.0
 11
182.8461054630146
 21
-302.8641448595149
 31
0.0
  0
LINE
  5
EF7
330
6B
100
AcDbEntity
  8
0
100
AcDbLine
 10
182.8461054630146
 20
-302.8641448595149
 30
0.0
 11
182.8461054630146
 21
-307.3641448595149
 31
0.0
  0
LINE
  5
EF8
330
6B
100
AcDbEntity
  8
0
100
AcDbLine
 10
182.3461054630147
 20
-273.1141448595149
 30
0.0
 11
182.8461054630146
 21
-273.1141448595149
 31
0.0
  0
LINE
  5
EF9
330
6B
100
AcDbEntity
  8
0
100
AcDbLine
 10
182.3461054630147
 20
-268.6141448595149
 30
0.0
 11
182.8461054630146
 21
-268.6141448595149
 31
0.0
  0
LINE
  5
EFA
330
6B
100
AcDbEntity
  8
0
100
AcDbLine
 10
80.84610546301474
 20
-302.8641448595149
 30
0.0
 11
80.84610546301474
 21
-307.3641448595149
 31
0.0
  0
LINE
  5
EFB
330
6B
100
AcDbEntity
  8
0
 62
     3
100
AcDbLine
 10
151.0961054630146
 20
-245.1141448595149
 30
0.0
 11
151.0961054630146
 21
-236.114144859515
 31
0.0
  0
LINE
  5
EFC
330
6B
100
AcDbEntity
  8
0
 62
     3
100
AcDbLine
 10
112.5961054630147
 20
-245.1141448595149
 30
0.0
 11
112.5961054630147
 21
-236.1141448595149
 31
0.0
  0
LINE
  5
EFD
330
6B
100
AcDbEntity
  8
0
100
AcDbLine
 10
303.0226888430454
 20
-256.1141448595149
 30
0.0
 11
303.0226888430454
 21
-269.6141448595149
 31
0.0
  0
LINE
  5
F02
330
6B
100
AcDbEntity
  8
0
100
AcDbLine
 10
301.5226888430455
 20
-256.1141448595149
 30
0.0
 11
301.5226888430455
 21
-269.6141448595149
 31
0.0
  0
ARC
  5
F23
330
6B
100
AcDbEntity
  8
0
100
AcDbCircle
 10
302.2726888430455
 20
-256.1141448595149
 30
0.0
 40
0.7499999999998856
100
AcDbArc
 50
0.0
 51
180.0
  0
ARC
  5
F24
330
6B
100
AcDbEntity
  8
0
100
AcDbCircle
 10
302.2726888430455
 20
-269.6141448595149
 30
0.0
 40
0.75
100
AcDbArc
 50
180.0
 51
0.0
  0
LINE
  5
F25
330
6B
100
AcDbEntity
  8
0
100
AcDbLine
 10
300.0226888430455
 20
-256.1141448595149
 30
0.0
 11
300.0226888430455
 21
-269.6141448595149
 31
0.0
  0
LINE
  5
F26
330
6B
100
AcDbEntity
  8
0
100
AcDbLine
 10
298.5226888430455
 20
-256.1141448595149
 30
0.0
 11
298.5226888430455
 21
-269.6141448595149
 31
0.0
  0
ARC
  5
F27
330
6B
100
AcDbEntity
  8
0
100
AcDbCircle
 10
299.2726888430456
 20
-256.1141448595149
 30
0.0
 40
0.7499999999998856
100
AcDbArc
 50
0.0
 51
180.0
  0
ARC
  5
F28
330
6B
100
AcDbEntity
  8
0
100
AcDbCircle
 10
299.2726888430454
 20
-269.6141448595149
 30
0.0
 40
0.75
100
AcDbArc
 50
180.0
 51
0.0
  0
LINE
  5
F29
330
6B
100
AcDbEntity
  8
0
100
AcDbLine
 10
297.0226888430454
 20
-256.1141448595149
 30
0.0
 11
297.0226888430454
 21
-269.6141448595149
 31
0.0
  0
LINE
  5
F2A
330
6B
100
AcDbEntity
  8
0
100
AcDbLine
 10
295.5226888430455
 20
-256.1141448595149
 30
0.0
 11
295.5226888430455
 21
-269.6141448595149
 31
0.0
  0
ARC
  5
F2B
330
6B
100
AcDbEntity
  8
0
100
AcDbCircle
 10
296.2726888430456
 20
-256.1141448595149
 30
0.0
 40
0.7499999999998856
100
AcDbArc
 50
0.0
 51
180.0
  0
ARC
  5
F2C
330
6B
100
AcDbEntity
  8
0
100
AcDbCircle
 10
296.2726888430454
 20
-269.6141448595149
 30
0.0
 40
0.75
100
AcDbArc
 50
180.0
 51
0.0
  0
LINE
  5
F2D
330
6B
100
AcDbEntity
  8
0
100
AcDbLine
 10
294.0226888430455
 20
-256.1141448595149
 30
0.0
 11
294.0226888430455
 21
-269.6141448595149
 31
0.0
  0
LINE
  5
F2E
330
6B
100
AcDbEntity
  8
0
100
AcDbLine
 10
292.5226888430454
 20
-256.1141448595149
 30
0.0
 11
292.5226888430454
 21
-269.6141448595149
 31
0.0
  0
ARC
  5
F2F
330
6B
100
AcDbEntity
  8
0
100
AcDbCircle
 10
293.2726888430456
 20
-256.1141448595149
 30
0.0
 40
0.7499999999998856
100
AcDbArc
 50
0.0
 51
180.0
  0
ARC
  5
F30
330
6B
100
AcDbEntity
  8
0
100
AcDbCircle
 10
293.2726888430455
 20
-269.6141448595149
 30
0.0
 40
0.75
100
AcDbArc
 50
180.0
 51
0.0
  0
LINE
  5
F31
330
6B
100
AcDbEntity
  8
0
100
AcDbLine
 10
291.0226888430454
 20
-256.1141448595149
 30
0.0
 11
291.0226888430454
 21
-269.6141448595149
 31
0.0
  0
LINE
  5
F32
330
6B
100
AcDbEntity
  8
0
100
AcDbLine
 10
289.5226888430455
 20
-256.1141448595149
 30
0.0
 11
289.5226888430455
 21
-269.6141448595149
 31
0.0
  0
ARC
  5
F33
330
6B
100
AcDbEntity
  8
0
100
AcDbCircle
 10
290.2726888430456
 20
-256.1141448595149
 30
0.0
 40
0.7499999999998856
100
AcDbArc
 50
0.0
 51
180.0
  0
ARC
  5
F34
330
6B
100
AcDbEntity
  8
0
100
AcDbCircle
 10
290.2726888430454
 20
-269.6141448595149
 30
0.0
 40
0.75
100
AcDbArc
 50
180.0
 51
0.0
  0
LINE
  5
F35
330
6B
100
AcDbEntity
  8
0
100
AcDbLine
 10
288.0226888430454
 20
-256.1141448595149
 30
0.0
 11
288.0226888430454
 21
-269.6141448595149
 31
0.0
  0
LINE
  5
F36
330
6B
100
AcDbEntity
  8
0
100
AcDbLine
 10
286.5226888430454
 20
-256.1141448595149
 30
0.0
 11
286.5226888430454
 21
-269.6141448595149
 31
0.0
  0
ARC
  5
F37
330
6B
100
AcDbEntity
  8
0
100
AcDbCircle
 10
287.2726888430456
 20
-256.1141448595149
 30
0.0
 40
0.7499999999998856
100
AcDbArc
 50
0.0
 51
180.0
  0
ARC
  5
F38
330
6B
100
AcDbEntity
  8
0
100
AcDbCircle
 10
287.2726888430455
 20
-269.6141448595149
 30
0.0
 40
0.75
100
AcDbArc
 50
180.0
 51
0.0
  0
LINE
  5
F39
330
6B
100
AcDbEntity
  8
0
100
AcDbLine
 10
285.0226888430455
 20
-256.1141448595149
 30
0.0
 11
285.0226888430455
 21
-269.6141448595149
 31
0.0
  0
LINE
  5
F3A
330
6B
100
AcDbEntity
  8
0
100
AcDbLine
 10
283.5226888430455
 20
-256.1141448595149
 30
0.0
 11
283.5226888430455
 21
-269.6141448595149
 31
0.0
  0
ARC
  5
F3B
330
6B
100
AcDbEntity
  8
0
100
AcDbCircle
 10
284.2726888430456
 20
-256.1141448595149
 30
0.0
 40
0.7499999999998856
100
AcDbArc
 50
0.0
 51
180.0
  0
ARC
  5
F3C
330
6B
100
AcDbEntity
  8
0
100
AcDbCircle
 10
284.2726888430454
 20
-269.6141448595149
 30
0.0
 40
0.75
100
AcDbArc
 50
180.0
 51
0.0
  0
LINE
  5
F3D
330
6B
100
AcDbEntity
  8
0
100
AcDbLine
 10
282.0226888430454
 20
-256.1141448595149
 30
0.0
 11
282.0226888430454
 21
-269.6141448595149
 31
0.0
  0
LINE
  5
F3E
330
6B
100
AcDbEntity
  8
0
100
AcDbLine
 10
280.5226888430454
 20
-256.1141448595149
 30
0.0
 11
280.5226888430454
 21
-269.6141448595149
 31
0.0
  0
ARC
  5
F3F
330
6B
100
AcDbEntity
  8
0
100
AcDbCircle
 10
281.2726888430455
 20
-256.1141448595149
 30
0.0
 40
0.7499999999998856
100
AcDbArc
 50
0.0
 51
180.0
  0
ARC
  5
F40
330
6B
100
AcDbEntity
  8
0
100
AcDbCircle
 10
281.2726888430455
 20
-269.6141448595149
 30
0.0
 40
0.75
100
AcDbArc
 50
180.0
 51
0.0
  0
LINE
  5
F41
330
6B
100
AcDbEntity
  8
0
100
AcDbLine
 10
279.0226888430455
 20
-256.1141448595149
 30
0.0
 11
279.0226888430455
 21
-269.6141448595149
 31
0.0
  0
LINE
  5
F42
330
6B
100
AcDbEntity
  8
0
100
AcDbLine
 10
277.5226888430454
 20
-256.1141448595149
 30
0.0
 11
277.5226888430454
 21
-269.6141448595149
 31
0.0
  0
ARC
  5
F43
330
6B
100
AcDbEntity
  8
0
100
AcDbCircle
 10
278.2726888430456
 20
-256.1141448595149
 30
0.0
 40
0.7499999999998856
100
AcDbArc
 50
0.0
 51
180.0
  0
ARC
  5
F44
330
6B
100
AcDbEntity
  8
0
100
AcDbCircle
 10
278.2726888430454
 20
-269.6141448595149
 30
0.0
 40
0.75
100
AcDbArc
 50
180.0
 51
0.0
  0
LINE
  5
F45
330
6B
100
AcDbEntity
  8
0
100
AcDbLine
 10
276.0226888430454
 20
-256.1141448595149
 30
0.0
 11
276.0226888430454
 21
-269.6141448595149
 31
0.0
  0
LINE
  5
F46
330
6B
100
AcDbEntity
  8
0
100
AcDbLine
 10
274.5226888430455
 20
-256.1141448595149
 30
0.0
 11
274.5226888430455
 21
-269.6141448595149
 31
0.0
  0
ARC
  5
F47
330
6B
100
AcDbEntity
  8
0
100
AcDbCircle
 10
275.2726888430455
 20
-256.1141448595149
 30
0.0
 40
0.7499999999998856
100
AcDbArc
 50
0.0
 51
180.0
  0
ARC
  5
F48
330
6B
100
AcDbEntity
  8
0
100
AcDbCircle
 10
275.2726888430454
 20
-269.6141448595149
 30
0.0
 40
0.75
100
AcDbArc
 50
180.0
 51
0.0
  0
LINE
  5
F49
330
6B
100
AcDbEntity
  8
0
100
AcDbLine
 10
273.0226888430455
 20
-256.1141448595149
 30
0.0
 11
273.0226888430455
 21
-269.6141448595149
 31
0.0
  0
LINE
  5
F4A
330
6B
100
AcDbEntity
  8
0
100
AcDbLine
 10
271.5226888430454
 20
-256.1141448595149
 30
0.0
 11
271.5226888430454
 21
-269.6141448595149
 31
0.0
  0
ARC
  5
F4B
330
6B
100
AcDbEntity
  8
0
100
AcDbCircle
 10
272.2726888430456
 20
-256.1141448595149
 30
0.0
 40
0.7499999999998856
100
AcDbArc
 50
0.0
 51
180.0
  0
ARC
  5
F4C
330
6B
100
AcDbEntity
  8
0
100
AcDbCircle
 10
272.2726888430454
 20
-269.6141448595149
 30
0.0
 40
0.75
100
AcDbArc
 50
180.0
 51
0.0
  0
LINE
  5
F4D
330
6B
100
AcDbEntity
  8
0
100
AcDbLine
 10
270.0226888430454
 20
-256.1141448595149
 30
0.0
 11
270.0226888430454
 21
-269.6141448595149
 31
0.0
  0
LINE
  5
F4E
330
6B
100
AcDbEntity
  8
0
100
AcDbLine
 10
268.5226888430455
 20
-256.1141448595149
 30
0.0
 11
268.5226888430455
 21
-269.6141448595149
 31
0.0
  0
ARC
  5
F4F
330
6B
100
AcDbEntity
  8
0
100
AcDbCircle
 10
269.2726888430456
 20
-256.1141448595149
 30
0.0
 40
0.7499999999998856
100
AcDbArc
 50
0.0
 51
180.0
  0
ARC
  5
F50
330
6B
100
AcDbEntity
  8
0
100
AcDbCircle
 10
269.2726888430454
 20
-269.6141448595149
 30
0.0
 40
0.75
100
AcDbArc
 50
180.0
 51
0.0
  0
LINE
  5
F51
330
6B
100
AcDbEntity
  8
0
100
AcDbLine
 10
267.0226888430454
 20
-256.1141448595149
 30
0.0
 11
267.0226888430454
 21
-269.6141448595149
 31
0.0
  0
LINE
  5
F52
330
6B
100
AcDbEntity
  8
0
100
AcDbLine
 10
265.5226888430454
 20
-256.1141448595149
 30
0.0
 11
265.5226888430454
 21
-269.6141448595149
 31
0.0
  0
ARC
  5
F53
330
6B
100
AcDbEntity
  8
0
100
AcDbCircle
 10
266.2726888430456
 20
-256.1141448595149
 30
0.0
 40
0.7499999999998856
100
AcDbArc
 50
0.0
 51
180.0
  0
ARC
  5
F54
330
6B
100
AcDbEntity
  8
0
100
AcDbCircle
 10
266.2726888430455
 20
-269.6141448595149
 30
0.0
 40
0.75
100
AcDbArc
 50
180.0
 51
0.0
  0
LINE
  5
F55
330
6B
100
AcDbEntity
  8
0
100
AcDbLine
 10
264.0226888430454
 20
-256.1141448595149
 30
0.0
 11
264.0226888430454
 21
-269.6141448595149
 31
0.0
  0
LINE
  5
F56
330
6B
100
AcDbEntity
  8
0
100
AcDbLine
 10
262.5226888430455
 20
-256.1141448595149
 30
0.0
 11
262.5226888430455
 21
-269.6141448595149
 31
0.0
  0
ARC
  5
F57
330
6B
100
AcDbEntity
  8
0
100
AcDbCircle
 10
263.2726888430456
 20
-256.1141448595149
 30
0.0
 40
0.7499999999998856
100
AcDbArc
 50
0.0
 51
180.0
  0
ARC
  5
F58
330
6B
100
AcDbEntity
  8
0
100
AcDbCircle
 10
263.2726888430454
 20
-269.6141448595149
 30
0.0
 40
0.75
100
AcDbArc
 50
180.0
 51
0.0
  0
LINE
  5
F59
330
6B
100
AcDbEntity
  8
0
100
AcDbLine
 10
261.0226888430454
 20
-256.1141448595149
 30
0.0
 11
261.0226888430454
 21
-269.6141448595149
 31
0.0
  0
LINE
  5
F5A
330
6B
100
AcDbEntity
  8
0
100
AcDbLine
 10
259.5226888430454
 20
-256.1141448595149
 30
0.0
 11
259.5226888430454
 21
-269.6141448595149
 31
0.0
  0
ARC
  5
F5B
330
6B
100
AcDbEntity
  8
0
100
AcDbCircle
 10
260.2726888430455
 20
-256.1141448595149
 30
0.0
 40
0.7499999999998856
100
AcDbArc
 50
0.0
 51
180.0
  0
ARC
  5
F5C
330
6B
100
AcDbEntity
  8
0
100
AcDbCircle
 10
260.2726888430455
 20
-269.6141448595149
 30
0.0
 40
0.75
100
AcDbArc
 50
180.0
 51
0.0
  0
LINE
  5
F5D
330
6B
100
AcDbEntity
  8
0
100
AcDbLine
 10
258.0226888430455
 20
-256.1141448595149
 30
0.0
 11
258.0226888430455
 21
-269.6141448595149
 31
0.0
  0
LINE
  5
F5E
330
6B
100
AcDbEntity
  8
0
100
AcDbLine
 10
256.5226888430454
 20
-256.1141448595149
 30
0.0
 11
256.5226888430454
 21
-269.6141448595149
 31
0.0
  0
ARC
  5
F5F
330
6B
100
AcDbEntity
  8
0
100
AcDbCircle
 10
257.2726888430456
 20
-256.1141448595149
 30
0.0
 40
0.7499999999998856
100
AcDbArc
 50
0.0
 51
180.0
  0
ARC
  5
F60
330
6B
100
AcDbEntity
  8
0
100
AcDbCircle
 10
257.2726888430454
 20
-269.6141448595149
 30
0.0
 40
0.75
100
AcDbArc
 50
180.0
 51
0.0
  0
LINE
  5
F61
330
6B
100
AcDbEntity
  8
0
100
AcDbLine
 10
255.0226888430454
 20
-256.1141448595149
 30
0.0
 11
255.0226888430454
 21
-269.6141448595149
 31
0.0
  0
LINE
  5
F62
330
6B
100
AcDbEntity
  8
0
100
AcDbLine
 10
253.5226888430454
 20
-256.1141448595149
 30
0.0
 11
253.5226888430454
 21
-269.6141448595149
 31
0.0
  0
ARC
  5
F63
330
6B
100
AcDbEntity
  8
0
100
AcDbCircle
 10
254.2726888430455
 20
-256.1141448595149
 30
0.0
 40
0.7499999999998856
100
AcDbArc
 50
0.0
 51
180.0
  0
ARC
  5
F64
330
6B
100
AcDbEntity
  8
0
100
AcDbCircle
 10
254.2726888430455
 20
-269.6141448595149
 30
0.0
 40
0.75
100
AcDbArc
 50
180.0
 51
0.0
  0
LINE
  5
F65
330
6B
100
AcDbEntity
  8
0
100
AcDbLine
 10
313.0226888430454
 20
-303.6141448595149
 30
0.0
 11
314.0226888430455
 21
-303.6141448595149
 31
0.0
  0
LINE
  5
F67
330
6B
100
AcDbEntity
  8
0
100
AcDbLine
 10
314.2726888430455
 20
-257.1141448595149
 30
0.0
 11
313.0226888430454
 21
-257.1141448595149
 31
0.0
  0
LINE
  5
F68
330
6B
100
AcDbEntity
  8
0
100
AcDbLine
 10
314.2726888430455
 20
-264.6141448595149
 30
0.0
 11
313.0226888430454
 21
-264.6141448595149
 31
0.0
  0
LINE
  5
F69
330
6B
100
AcDbEntity
  8
0
100
AcDbLine
 10
314.2726888430455
 20
-257.1141448595149
 30
0.0
 11
314.2726888430455
 21
-264.6141448595149
 31
0.0
  0
LINE
  5
F6A
330
6B
100
AcDbEntity
  8
0
100
AcDbLine
 10
314.2726888430455
 20
-260.8641448595149
 30
0.0
 11
313.0226888430454
 21
-260.8641448595149
 31
0.0
  0
LINE
  5
F6B
330
6B
100
AcDbEntity
  8
0
 62
     3
100
AcDbLine
 10
316.5226888430455
 20
-257.9891448595149
 30
0.0
 11
314.2726888430455
 21
-257.9891448595149
 31
0.0
  0
LINE
  5
F6C
330
6B
100
AcDbEntity
  8
0
 62
     3
100
AcDbLine
 10
316.5226888430455
 20
-263.7391448595149
 30
0.0
 11
314.2726888430455
 21
-263.7391448595149
 31
0.0
  0
LINE
  5
F6D
330
6B
100
AcDbEntity
  8
0
 62
     3
100
AcDbLine
 10
316.5226888430455
 20
-257.9891448595149
 30
0.0
 11
316.5226888430455
 21
-263.7391448595149
 31
0.0
  0
LINE
  5
F6E
330
6B
100
AcDbEntity
  8
0
 62
     3
100
AcDbLine
 10
318.7726888430455
 20
-258.9141448595149
 30
0.0
 11
318.7726888430455
 21
-262.8141448595149
 31
0.0
  0
LINE
  5
F6F
330
6B
100
AcDbEntity
  8
0
 62
     3
100
AcDbLine
 10
318.7726888430455
 20
-258.9141448595149
 30
0.0
 11
316.5226888430455
 21
-258.9141448595149
 31
0.0
  0
LINE
  5
F70
330
6B
100
AcDbEntity
  8
0
 62
     3
100
AcDbLine
 10
318.7726888430455
 20
-262.8141448595149
 30
0.0
 11
316.5226888430455
 21
-262.8141448595149
 31
0.0
  0
LINE
  5
F77
330
6B
100
AcDbEntity
  8
0
100
AcDbLine
 10
314.2726888430455
 20
-260.3641448595149
 30
0.0
 11
313.0226888430454
 21
-260.3641448595149
 31
0.0
  0
LINE
  5
F78
330
6B
100
AcDbEntity
  8
0
100
AcDbLine
 10
314.2726888430455
 20
-259.8641448595149
 30
0.0
 11
313.0226888430454
 21
-259.8641448595149
 31
0.0
  0
LINE
  5
F79
330
6B
100
AcDbEntity
  8
0
100
AcDbLine
 10
314.2726888430455
 20
-259.3641448595149
 30
0.0
 11
313.0226888430454
 21
-259.3641448595149
 31
0.0
  0
LINE
  5
F7A
330
6B
100
AcDbEntity
  8
0
100
AcDbLine
 10
314.2726888430455
 20
-258.8641448595149
 30
0.0
 11
313.0226888430454
 21
-258.8641448595149
 31
0.0
  0
LINE
  5
F7B
330
6B
100
AcDbEntity
  8
0
100
AcDbLine
 10
314.2726888430455
 20
-258.3641448595149
 30
0.0
 11
313.0226888430454
 21
-258.3641448595149
 31
0.0
  0
LINE
  5
F7C
330
6B
100
AcDbEntity
  8
0
100
AcDbLine
 10
314.2726888430455
 20
-257.8641448595149
 30
0.0
 11
313.0226888430454
 21
-257.8641448595149
 31
0.0
  0
LINE
  5
F7D
330
6B
100
AcDbEntity
  8
0
100
AcDbLine
 10
314.2726888430455
 20
-257.3641448595149
 30
0.0
 11
313.0226888430454
 21
-257.3641448595149
 31
0.0
  0
LINE
  5
F7E
330
6B
100
AcDbEntity
  8
0
100
AcDbLine
 10
314.2726888430455
 20
-261.3641448595149
 30
0.0
 11
313.0226888430454
 21
-261.3641448595149
 31
0.0
  0
LINE
  5
F7F
330
6B
100
AcDbEntity
  8
0
100
AcDbLine
 10
314.2726888430455
 20
-261.8641448595149
 30
0.0
 11
313.0226888430454
 21
-261.8641448595149
 31
0.0
  0
LINE
  5
F80
330
6B
100
AcDbEntity
  8
0
100
AcDbLine
 10
314.2726888430455
 20
-262.3641448595149
 30
0.0
 11
313.0226888430454
 21
-262.3641448595149
 31
0.0
  0
LINE
  5
F81
330
6B
100
AcDbEntity
  8
0
100
AcDbLine
 10
314.2726888430455
 20
-262.8641448595149
 30
0.0
 11
313.0226888430454
 21
-262.8641448595149
 31
0.0
  0
LINE
  5
F82
330
6B
100
AcDbEntity
  8
0
100
AcDbLine
 10
314.2726888430455
 20
-263.3641448595149
 30
0.0
 11
313.0226888430454
 21
-263.3641448595149
 31
0.0
  0
LINE
  5
F83
330
6B
100
AcDbEntity
  8
0
100
AcDbLine
 10
314.2726888430455
 20
-263.8641448595149
 30
0.0
 11
313.0226888430454
 21
-263.8641448595149
 31
0.0
  0
LINE
  5
F84
330
6B
100
AcDbEntity
  8
0
100
AcDbLine
 10
314.2726888430455
 20
-264.3641448595149
 30
0.0
 11
313.0226888430454
 21
-264.3641448595149
 31
0.0
  0
LINE
  5
F85
330
6B
100
AcDbEntity
  8
0
100
AcDbLine
 10
314.0226888430455
 20
-294.1141448595149
 30
0.0
 11
314.0226888430455
 21
-303.6141448595149
 31
0.0
  0
LINE
  5
F86
330
6B
100
AcDbEntity
  8
0
100
AcDbLine
 10
313.0226888430454
 20
-294.1141448595149
 30
0.0
 11
314.0226888430455
 21
-294.1141448595149
 31
0.0
  0
LINE
  5
F8B
330
6B
100
AcDbEntity
  8
0
 62
     3
100
AcDbLine
 10
330.4285813574572
 20
-296.2391448595149
 30
0.0
 11
324.8847937344792
 21
-296.2391448595149
 31
0.0
  0
ARC
  5
F8C
330
6B
100
AcDbEntity
  8
0
 62
     3
100
AcDbCircle
 10
330.4285813574572
 20
-308.8641448595149
 30
0.0
 40
12.625
100
AcDbArc
 50
0.0
 51
90.0
  0
LINE
  5
F8D
330
6B
100
AcDbEntity
  8
0
 62
     3
100
AcDbLine
 10
343.0535813574572
 20
-308.8641448595149
 30
0.0
 11
343.0535813574572
 21
-314.6141448595149
 31
0.0
  0
LINE
  5
F8E
330
6B
100
AcDbEntity
  8
0
 62
     3
100
AcDbLine
 10
330.4285813574572
 20
-301.4891448595149
 30
0.0
 11
325.9371634887573
 21
-301.4891448595149
 31
0.0
  0
ARC
  5
F8F
330
6B
100
AcDbEntity
  8
0
 62
     3
100
AcDbCircle
 10
330.4285813574572
 20
-308.8641448595149
 30
0.0
 40
7.375
100
AcDbArc
 50
0.0
 51
90.0
  0
LINE
  5
F90
330
6B
100
AcDbEntity
  8
0
 62
     3
100
AcDbLine
 10
337.8035813574572
 20
-308.8641448595149
 30
0.0
 11
337.8035813574572
 21
-314.6141448595149
 31
0.0
  0
LINE
  5
F91
330
6B
100
AcDbEntity
  8
0
 62
     3
100
AcDbLine
 10
334.9285813574572
 20
-324.6141448595149
 30
0.0
 11
345.9285813574572
 21
-324.6141448595149
 31
0.0
  0
LINE
  5
F92
330
6B
100
AcDbEntity
  8
0
 62
     3
100
AcDbLine
 10
346.8035813574573
 20
-341.6141448595149
 30
0.0
 11
334.0535813574572
 21
-341.6141448595149
 31
0.0
  0
LINE
  5
F93
330
6B
100
AcDbEntity
  8
0
100
AcDbLine
 10
343.9785813574572
 20
-350.1141448595149
 30
0.0
 11
343.2285813574572
 21
-350.1141448595149
 31
0.0
  0
LINE
  5
F98
330
6B
100
AcDbEntity
  8
0
 62
     3
100
AcDbLine
 10
336.4285813574572
 20
-324.6141448595149
 30
0.0
 11
336.9285813574572
 21
-314.6141448595149
 31
0.0
  0
LINE
  5
F9A
330
6B
100
AcDbEntity
  8
0
 62
     3
100
AcDbLine
 10
343.9285813574572
 20
-314.6141448595149
 30
0.0
 11
344.4285813574572
 21
-324.6141448595149
 31
0.0
  0
LINE
  5
F9B
330
6B
100
AcDbEntity
  8
0
100
AcDbLine
 10
336.8035813574572
 20
-317.1141448595149
 30
0.0
 11
344.0535813574572
 21
-317.1141448595149
 31
0.0
  0
LINE
  5
F9C
330
6B
100
AcDbEntity
  8
0
100
AcDbLine
 10
336.7585813574573
 20
-318.0141448595149
 30
0.0
 11
344.0985813574573
 21
-318.0141448595149
 31
0.0
  0
LINE
  5
F9D
330
6B
100
AcDbEntity
  8
0
100
AcDbLine
 10
336.7135813574572
 20
-318.9141448595149
 30
0.0
 11
344.1435813574571
 21
-318.9141448595149
 31
0.0
  0
LINE
  5
F9E
330
6B
100
AcDbEntity
  8
0
100
AcDbLine
 10
336.6685813574572
 20
-319.814144859515
 30
0.0
 11
344.1885813574572
 21
-319.814144859515
 31
0.0
  0
LINE
  5
F9F
330
6B
100
AcDbEntity
  8
0
100
AcDbLine
 10
336.6235813574572
 20
-320.7141448595149
 30
0.0
 11
344.2335813574573
 21
-320.7141448595149
 31
0.0
  0
LINE
  5
FA0
330
6B
100
AcDbEntity
  8
0
100
AcDbLine
 10
336.5785813574572
 20
-321.6141448595149
 30
0.0
 11
344.2785813574573
 21
-321.6141448595149
 31
0.0
  0
LINE
  5
FA1
330
6B
100
AcDbEntity
  8
0
100
AcDbLine
 10
336.5335813574573
 20
-322.5141448595149
 30
0.0
 11
344.3235813574572
 21
-322.5141448595149
 31
0.0
  0
LINE
  5
FA2
330
6B
100
AcDbEntity
  8
0
100
AcDbLine
 10
336.4885813574572
 20
-323.414144859515
 30
0.0
 11
344.3685813574573
 21
-323.414144859515
 31
0.0
  0
LINE
  5
FA3
330
6B
100
AcDbEntity
  8
0
100
AcDbLine
 10
340.8785813574573
 20
-317.1141448595149
 30
0.0
 11
340.8785813574573
 21
-318.0141448595149
 31
0.0
  0
LINE
  5
FA4
330
6B
100
AcDbEntity
  8
0
100
AcDbLine
 10
339.9785813574572
 20
-317.1141448595149
 30
0.0
 11
339.9785813574572
 21
-318.0141448595149
 31
0.0
  0
LINE
  5
FA5
330
6B
100
AcDbEntity
  8
0
100
AcDbLine
 10
340.8785813574573
 20
-318.9141448595149
 30
0.0
 11
340.8785813574573
 21
-319.814144859515
 31
0.0
  0
LINE
  5
FA6
330
6B
100
AcDbEntity
  8
0
100
AcDbLine
 10
339.9785813574572
 20
-318.9141448595149
 30
0.0
 11
339.9785813574572
 21
-319.814144859515
 31
0.0
  0
LINE
  5
FA7
330
6B
100
AcDbEntity
  8
0
100
AcDbLine
 10
339.9785813574572
 20
-320.7141448595149
 30
0.0
 11
339.9785813574572
 21
-321.6141448595149
 31
0.0
  0
LINE
  5
FA8
330
6B
100
AcDbEntity
  8
0
100
AcDbLine
 10
340.8785813574573
 20
-320.7141448595149
 30
0.0
 11
340.8785813574573
 21
-321.6141448595149
 31
0.0
  0
LINE
  5
FA9
330
6B
100
AcDbEntity
  8
0
100
AcDbLine
 10
339.9785813574572
 20
-322.5141448595149
 30
0.0
 11
339.9785813574572
 21
-323.414144859515
 31
0.0
  0
LINE
  5
FAA
330
6B
100
AcDbEntity
  8
0
100
AcDbLine
 10
340.8785813574573
 20
-322.5141448595149
 30
0.0
 11
340.8785813574573
 21
-323.414144859515
 31
0.0
  0
LINE
  5
FAB
330
6B
100
AcDbEntity
  8
0
100
AcDbLine
 10
343.0535813574572
 20
-317.1141448595149
 30
0.0
 11
343.0535813574572
 21
-318.0141448595149
 31
0.0
  0
LINE
  5
FAC
330
6B
100
AcDbEntity
  8
0
100
AcDbLine
 10
337.8035813574572
 20
-317.1141448595149
 30
0.0
 11
337.8035813574572
 21
-318.0141448595149
 31
0.0
  0
LINE
  5
FAD
330
6B
100
AcDbEntity
  8
0
100
AcDbLine
 10
337.8035813574572
 20
-318.9141448595149
 30
0.0
 11
337.8035813574572
 21
-319.814144859515
 31
0.0
  0
LINE
  5
FAE
330
6B
100
AcDbEntity
  8
0
100
AcDbLine
 10
343.0535813574572
 20
-318.9141448595149
 30
0.0
 11
343.0535813574572
 21
-319.814144859515
 31
0.0
  0
LINE
  5
FAF
330
6B
100
AcDbEntity
  8
0
100
AcDbLine
 10
343.0535813574572
 20
-320.7141448595149
 30
0.0
 11
343.0535813574572
 21
-321.6141448595149
 31
0.0
  0
LINE
  5
FB0
330
6B
100
AcDbEntity
  8
0
100
AcDbLine
 10
337.8035813574572
 20
-320.7141448595149
 30
0.0
 11
337.8035813574572
 21
-321.6141448595149
 31
0.0
  0
LINE
  5
FB1
330
6B
100
AcDbEntity
  8
0
100
AcDbLine
 10
337.8035813574572
 20
-322.5141448595149
 30
0.0
 11
337.8035813574572
 21
-323.414144859515
 31
0.0
  0
LINE
  5
FB2
330
6B
100
AcDbEntity
  8
0
100
AcDbLine
 10
343.0535813574572
 20
-322.5141448595149
 30
0.0
 11
343.0535813574572
 21
-323.414144859515
 31
0.0
  0
LINE
  5
FB3
330
6B
100
AcDbEntity
  8
0
 62
     3
100
AcDbLine
 10
345.9285813574572
 20
-324.6141448595149
 30
0.0
 11
345.9285813574572
 21
-325.8641448595149
 31
0.0
  0
LINE
  5
FB4
330
6B
100
AcDbEntity
  8
0
 62
     3
100
AcDbLine
 10
334.9285813574572
 20
-324.6141448595149
 30
0.0
 11
334.9285813574572
 21
-325.8641448595149
 31
0.0
  0
LINE
  5
FB5
330
6B
100
AcDbEntity
  8
0
100
AcDbLine
 10
334.9285813574572
 20
-325.8641448595149
 30
0.0
 11
345.9285813574572
 21
-325.8641448595149
 31
0.0
  0
LINE
  5
FB9
330
6B
100
AcDbEntity
  8
0
 62
     3
100
AcDbLine
 10
346.8035813574573
 20
-340.1141448595149
 30
0.0
 11
334.0535813574572
 21
-340.1141448595149
 31
0.0
  0
LINE
  5
FBE
330
6B
100
AcDbEntity
  8
0
 62
     3
100
AcDbLine
 10
346.8035813574573
 20
-340.1141448595149
 30
0.0
 11
346.8035813574573
 21
-341.6141448595149
 31
0.0
  0
LINE
  5
FBF
330
6B
100
AcDbEntity
  8
0
 62
     3
100
AcDbLine
 10
334.0535813574572
 20
-340.1141448595149
 30
0.0
 11
334.0535813574572
 21
-341.6141448595149
 31
0.0
  0
LINE
  5
FC0
330
6B
100
AcDbEntity
  8
0
 62
     3
100
AcDbLine
 10
346.4285813574572
 20
-333.9926901559983
 30
0.0
 11
346.4285813574572
 21
-340.1141448595149
 31
0.0
  0
LINE
  5
FC1
330
6B
100
AcDbEntity
  8
0
 62
     3
100
AcDbLine
 10
334.4285813574572
 20
-333.9926901559983
 30
0.0
 11
334.4285813574572
 21
-340.1141448595149
 31
0.0
  0
ARC
  5
FC3
330
6B
100
AcDbEntity
  8
0
 62
     3
100
AcDbCircle
 10
340.4285813574572
 20
-333.9926901559983
 30
0.0
 40
6.0
100
AcDbArc
 50
0.0
 51
33.40782311759761
  0
ARC
  5
FC4
330
6B
100
AcDbEntity
  8
0
 62
     3
100
AcDbCircle
 10
348.6385174372929
 20
-328.5776262358339
 30
0.0
 40
3.834936079835636
100
AcDbArc
 50
134.9625456645514
 51
213.4078231175976
  0
ARC
  5
FC6
330
6B
100
AcDbEntity
  8
0
 62
     3
100
AcDbCircle
 10
332.2186452776216
 20
-328.5776262358339
 30
0.0
 40
3.834936079835636
100
AcDbArc
 50
326.5921768824024
 51
45.03745433544859
  0
ARC
  5
FC7
330
6B
100
AcDbEntity
  8
0
 62
     3
100
AcDbCircle
 10
340.4285813574572
 20
-333.9926901559983
 30
0.0
 40
6.0
100
AcDbArc
 50
146.5921768824024
 51
180.0
  0
LINE
  5
FCA
330
6B
100
AcDbEntity
  8
0
100
AcDbLine
 10
343.9785813574572
 20
-341.6141448595149
 30
0.0
 11
343.9785813574572
 21
-350.1141448595149
 31
0.0
  0
LINE
  5
FCB
330
6B
100
AcDbEntity
  8
0
100
AcDbLine
 10
343.2285813574572
 20
-341.6141448595149
 30
0.0
 11
343.2285813574572
 21
-350.1141448595149
 31
0.0
  0
LINE
  5
FCC
330
6B
100
AcDbEntity
  8
0
100
AcDbLine
 10
337.6285813574573
 20
-341.6141448595149
 30
0.0
 11
337.6285813574573
 21
-350.1141448595149
 31
0.0
  0
LINE
  5
FCD
330
6B
100
AcDbEntity
  8
0
100
AcDbLine
 10
336.8785813574573
 20
-341.6141448595149
 30
0.0
 11
336.8785813574573
 21
-350.1141448595149
 31
0.0
  0
LINE
  5
FCE
330
6B
100
AcDbEntity
  8
0
100
AcDbLine
 10
337.6285813574573
 20
-350.1141448595149
 30
0.0
 11
336.8785813574573
 21
-350.1141448595149
 31
0.0
  0
ARC
  5
FCF
330
6B
100
AcDbEntity
  8
0
100
AcDbCircle
 10
326.0531728560604
 20
-296.9469054510341
 30
0.0
 40
4.398755792651773
100
AcDbArc
 50
150.085761188329
 51
210.1930884079026
  0
ARC
  5
FD0
330
6B
100
AcDbEntity
  8
0
100
AcDbCircle
 10
318.2398735769398
 20
-301.2636196517567
 30
0.0
 40
4.529843558913587
100
AcDbArc
 50
332.3164392411744
 51
27.68356075882193
  0
ARC
  5
FD1
330
6B
100
AcDbEntity
  8
0
100
AcDbCircle
 10
329.2262367513203
 20
-296.9469054510341
 30
0.0
 40
4.398755792651773
100
AcDbArc
 50
150.085761188329
 51
210.1930884079026
  0
ARC
  5
FD2
330
6B
100
AcDbEntity
  8
0
100
AcDbCircle
 10
321.4129374721996
 20
-301.2636196517567
 30
0.0
 40
4.529843558913587
100
AcDbArc
 50
332.3164392411744
 51
27.68356075882193
  0
LINE
  5
FD3
330
6B
100
AcDbEntity
  8
0
 62
     3
100
AcDbLine
 10
321.7117298392192
 20
-296.2391448595149
 30
0.0
 11
314.0226888430455
 21
-296.2391448595149
 31
0.0
  0
LINE
  5
FD4
330
6B
100
AcDbEntity
  8
0
 62
     3
100
AcDbLine
 10
322.7640995934974
 20
-301.4891448595149
 30
0.0
 11
314.0226888430455
 21
-301.4891448595149
 31
0.0
  0
TEXT
  5
FD5
330
6B
100
AcDbEntity
  8
0
 62
     3
100
AcDbText
 10
251.3035725760162
 20
-374.1316274853348
 30
0.0
 40
3.2
  1
保護回路
  7
高3.2
100
AcDbText
  0
LINE
  5
FD6
330
6B
100
AcDbEntity
  8
0
100
AcDbLine
 10
249.8035725760162
 20
-374.6316274853348
 30
0.0
 11
322.9593778329349
 21
-374.6316274853348
 31
0.0
  0
TEXT
  5
FD7
330
6B
100
AcDbEntity
  8
0
 62
     3
100
AcDbText
 10
273.5243345108406
 20
-374.1316274853348
 30
0.0
 40
3.2
  1
25Aサーキットブレーカー
  7
高3.2
100
AcDbText
  0
CIRCLE
  5
105E
330
6B
100
AcDbEntity
  8
0
100
AcDbCircle
 10
64.18399377805537
 20
-315.5495880419437
 30
0.0
 40
5.0
  0
TEXT
  5
105F
330
6B
100
AcDbEntity
  8
0
 62
     4
100
AcDbText
 10
62.09301521902972
 20
-318.8133851690832
 30
0.0
 40
6.299999999999998
  1
3
  7
高6.3
100
AcDbText
  0
CIRCLE
  5
1060
330
6B
100
AcDbEntity
  8
0
100
AcDbCircle
 10
64.66313077805541
 20
-259.3786026621608
 30
0.0
 40
5.0
  0
TEXT
  5
1061
330
6B
100
AcDbEntity
  8
0
 62
     4
100
AcDbText
 10
62.57215221902976
 20
-262.6423997893005
 30
0.0
 40
6.299999999999998
  1
4
  7
高6.3
100
AcDbText
  0
CIRCLE
  5
1062
330
6B
100
AcDbEntity
  8
0
100
AcDbCircle
 10
64.66313077805541
 20
-236.6663476621608
 30
0.0
 40
5.0
  0
TEXT
  5
1063
330
6B
100
AcDbEntity
  8
0
 62
     4
100
AcDbText
 10
62.57215221902976
 20
-239.9301447893004
 30
0.0
 40
6.299999999999998
  1
6
  7
高6.3
100
AcDbText
  0
CIRCLE
  5
1064
330
6B
100
AcDbEntity
  8
0
100
AcDbCircle
 10
64.66313077805541
 20
-223.2478396621608
 30
0.0
 40
5.0
  0
TEXT
  5
1065
330
6B
100
AcDbEntity
  8
0
 62
     4
100
AcDbText
 10
63.67306063341056
 20
-226.4969719658398
 30
0.0
 40
6.299999999999998
  1
1
  7
高6.3
100
AcDbText
  0
CIRCLE
  5
106E
330
6B
100
AcDbEntity
  8
0
100
AcDbCircle
 10
334.0068906211538
 20
-282.7469504618285
 30
0.0
 40
5.0
  0
TEXT
  5
106F
330
6B
100
AcDbEntity
  8
0
 62
     4
100
AcDbText
 10
331.9159120621282
 20
-286.0107475889681
 30
0.0
 40
6.299999999999998
  1
2
  7
高6.3
100
AcDbText
  0
CIRCLE
  5
1070
330
6B
100
AcDbEntity
  8
0
100
AcDbCircle
 10
334.0045526211538
 20
-246.0641964618285
 30
0.0
 40
5.0
  0
TEXT
  5
1071
330
6B
100
AcDbEntity
  8
0
 62
     4
100
AcDbText
 10
331.9135740621282
 20
-249.3279945889681
 30
0.0
 40
6.299999999999998
  1
7
  7
高6.3
100
AcDbText
  0
CIRCLE
  5
12B1
330
6B
100
AcDbEntity
  8
0
100
AcDbCircle
 10
192.7000541804418
 20
-259.3786026621608
 30
0.0
 40
5.0
  0
TEXT
  5
12B2
330
6B
100
AcDbEntity
  8
0
 62
     4
100
AcDbText
 10
190.6090756214162
 20
-262.6423997893005
 30
0.0
 40
6.299999999999998
  1
5
  7
高6.3
100
AcDbText
  0
TEXT
  5
12B7
330
6B
100
AcDbEntity
  8
0
 62
     3
100
AcDbText
 10
61.05205292265388
 20
-432.4647709999998
 30
0.0
 40
3.2
  1
ABS樹脂、銅合金
 41
0.8
  7
高3.2
100
AcDbText
  0
TEXT
  5
12B8
330
6B
100
AcDbEntity
  8
0
 62
     3
100
AcDbText
 10
90.19573596992296
 20
-432.4647709999998
 30
0.0
 40
3.2
  1
2P 15A 125V(赤)
 41
0.8
  7
高3.2
100
AcDbText
  0
TEXT
  5
12B9
330
6B
100
AcDbEntity
  8
0
 62
     3
100
AcDbText
 10
28.31520337097245
 20
-432.4647709999998
 30
0.0
 40
3.2
  1
2PWコンセント
 41
0.8
  7
高3.2
100
AcDbText
  0
TEXT
  5
12BB
330
6B
100
AcDbEntity
  8
0
 62
     3
100
AcDbText
 10
126.0499841627977
 20
-432.4647709999998
 30
0.0
 40
3.2
  1
1
 41
0.8
  7
高3.2
100
AcDbText
  0
TEXT
  5
12BC
330
6B
100
AcDbEntity
  8
0
 62
     3
100
AcDbText
 10
126.0499841627977
 20
-437.4647709999998
 30
0.0
 40
3.2
  1
1
 41
0.8
  7
高3.2
100
AcDbText
  0
TEXT
  5
137D
330
6B
100
AcDbEntity
  8
0
 62
     3
100
AcDbText
 10
134.2139921858707
 20
-452.4647709999999
 30
0.0
 40
3.2
  1
54945
 41
0.8
  7
高3.2
100
AcDbText
  0
TEXT
  5
137E
330
6B
100
AcDbEntity
  8
0
 62
     3
100
AcDbText
 10
134.2139921858707
 20
-447.4647709999998
 30
0.0
 40
3.2
  1
51119
 41
0.8
  7
高3.2
100
AcDbText
  0
TEXT
  5
137F
330
6B
100
AcDbEntity
  8
0
 62
     3
100
AcDbText
 10
134.2139921858706
 20
-427.4647709999999
 30
0.0
 40
3.2
  1
53584
 41
0.8
  7
高3.2
100
AcDbText
  0
TEXT
  5
1380
330
6B
100
AcDbEntity
  8
0
 62
     3
100
AcDbText
 10
134.2139921858707
 20
-442.4647709999998
 30
0.0
 40
3.2
  1
53813
 41
0.8
  7
高3.2
100
AcDbText
  0
TEXT
  5
1381
330
6B
100
AcDbEntity
  8
0
 62
     3
100
AcDbText
 10
134.2139921858706
 20
-422.4647709999998
 30
0.0
 40
3.2
  1
53812
 41
0.8
  7
高3.2
100
AcDbText
  0
LINE
  5
1382
330
6B
100
AcDbEntity
  8
0
100
AcDbLine
 10
132.7139921858707
 20
-457.9647709999998
 30
0.0
 11
132.7139921858706
 21
-417.9647709999998
 31
0.0
  0
TEXT
  5
1383
330
6B
100
AcDbEntity
  8
0
 62
     3
100
AcDbText
 10
134.2139921858707
 20
-457.4647709999998
 30
0.0
 40
3.2
  1
コード
 41
0.8
  7
高3.2
100
AcDbText
  0
TEXT
  5
1384
330
6B
100
AcDbEntity
  8
0
 62
     3
100
AcDbText
 10
134.2139921858706
 20
-432.4647709999998
 30
0.0
 40
3.2
  1
51421
 41
0.8
  7
高3.2
100
AcDbText
  0
TEXT
  5
1385
330
6B
100
AcDbEntity
  8
0
 62
     3
100
AcDbText
 10
134.2139921858706
 20
-437.4647709999998
 30
0.0
 40
3.2
  1
51430
 41
0.8
  7
高3.2
100
AcDbText
  0
TEXT
  5
1386
330
6B
100
AcDbEntity
  8
0
 62
     3
100
AcDbText
 10
148.8360957753271
 20
-452.4647709999999
 30
0.0
 40
3.2
  1
M-E20用　取手
 41
0.6
  7
高3.2
100
AcDbText
  0
TEXT
  5
1387
330
6B
100
AcDbEntity
  8
0
 62
     3
100
AcDbText
 10
148.8360957753271
 20
-447.4647709999998
 30
0.0
 40
3.2
  1
VCT2x2x1.8M　P付
 41
0.6
  7
高3.2
100
AcDbText
  0
TEXT
  5
1388
330
6B
100
AcDbEntity
  8
0
 62
     3
100
AcDbText
 10
148.836095775327
 20
-427.4647709999999
 30
0.0
 40
3.2
  1
新150V電圧メーター
 41
0.6
  7
高3.2
100
AcDbText
  0
TEXT
  5
1389
330
6B
100
AcDbEntity
  8
0
 62
     3
100
AcDbText
 10
148.8360957753271
 20
-442.4647709999998
 30
0.0
 40
3.2
  1
M-E20用　脚ゴム(1/4)
 41
0.6
  7
高3.2
100
AcDbText
  0
TEXT
  5
138A
330
6B
100
AcDbEntity
  8
0
 62
     3
100
AcDbText
 10
148.836095775327
 20
-422.4647709999998
 30
0.0
 40
3.2
  1
M-E20用　サーキットブレーカー(25A)
 41
0.6
  7
高3.2
100
AcDbText
  0
LINE
  5
138B
330
6B
100
AcDbEntity
  8
0
100
AcDbLine
 10
147.3360957753271
 20
-457.9647709999998
 30
0.0
 11
147.336095775327
 21
-417.9647709999998
 31
0.0
  0
TEXT
  5
138C
330
6B
100
AcDbEntity
  8
0
 62
     3
100
AcDbText
 10
148.8360957753271
 20
-457.4647709999998
 30
0.0
 40
3.2
  1
コード番号名称
 41
0.6
  7
高3.2
100
AcDbText
  0
TEXT
  5
138D
330
6B
100
AcDbEntity
  8
0
 62
     3
100
AcDbText
 10
148.836095775327
 20
-432.4647709999998
 30
0.0
 40
3.2
  1
2PN-RB(2Pコンセント赤色　トラパック用)
 41
0.6
  7
高3.2
100
AcDbText
  0
TEXT
  5
138E
330
6B
100
AcDbEntity
  8
0
 62
     3
100
AcDbText
 10
148.836095775327
 20
-437.4647709999998
 30
0.0
 40
3.2
  1
2PN-WB(2P15Aコンセント)
 41
0.6
  7
高3.2
100
AcDbText
  0
LINE
  5
15BF
330
6B
100
AcDbEntity
  8
0
100
AcDbLine
 10
176.3461054630147
 20
-314.6141448595149
 30
0.0
 11
213.8653771735808
 21
-314.6141448595149
 31
0.0
  0
LINE
  5
15C0
330
6B
100
AcDbEntity
  8
0
100
AcDbLine
 10
155.5510204911399
 20
-230.1141448595149
 30
0.0
 11
213.8653771735808
 21
-230.114144859515
 31
0.0
  0
LINE
  5
15C1
330
6B
100
AcDbEntity
  8
0
100
AcDbLine
 10
212.6153771735808
 20
-312.1141448595149
 30
0.0
 11
212.6153771735808
 21
-232.614144859515
 31
0.0
  0
LINE
  5
15C5
330
6B
100
AcDbEntity
  8
0
100
AcDbLine
 10
182.5961054630147
 20
-308.6141448595149
 30
0.0
 11
204.623723217715
 21
-308.6141448595149
 31
0.0
  0
LINE
  5
15C6
330
6B
100
AcDbEntity
  8
0
100
AcDbLine
 10
179.0961054630147
 20
-245.1141448595149
 30
0.0
 11
204.623723217715
 21
-245.114144859515
 31
0.0
  0
LINE
  5
15C7
330
6B
100
AcDbEntity
  8
0
100
AcDbLine
 10
203.373723217715
 20
-306.1141448595149
 30
0.0
 11
203.373723217715
 21
-247.614144859515
 31
0.0
  0
LINE
  5
15CB
330
6B
100
AcDbEntity
  8
0
100
AcDbLine
 10
176.3461054630147
 20
-314.6141448595149
 30
0.0
 11
204.6237232177152
 21
-314.6141448595149
 31
0.0
  0
LINE
  5
15CC
330
6B
100
AcDbEntity
  8
0
100
AcDbLine
 10
182.5961054630147
 20
-308.6141448595149
 30
0.0
 11
204.6237232177152
 21
-308.6141448595149
 31
0.0
  0
LINE
  5
15CD
330
6B
100
AcDbEntity
  8
0
100
AcDbLine
 10
203.3737232177152
 20
-306.1141448595149
 30
0.0
 11
203.3737232177152
 21
-303.6141448595149
 31
0.0
  0
LINE
  5
15CE
330
6B
100
AcDbEntity
  8
0
100
AcDbLine
 10
203.3737232177152
 20
-317.1141448595149
 30
0.0
 11
203.3737232177152
 21
-324.864144859515
 31
0.0
  0
LINE
  5
15CF
330
6B
100
AcDbEntity
  8
0
100
AcDbLine
 10
203.3737232177152
 20
-308.6141448595149
 30
0.0
 11
203.3737232177152
 21
-314.6141448595149
 31
0.0
  0
LINE
  5
15D3
330
6B
100
AcDbEntity
  8
0
100
AcDbLine
 10
318.7726888430455
 20
-258.6641448595149
 30
0.0
 11
318.7726888430455
 21
-221.8961853438323
 31
0.0
  0
LINE
  5
15D4
330
6B
100
AcDbEntity
  8
0
100
AcDbLine
 10
228.0226888430454
 20
-244.8641448595149
 30
0.0
 11
228.0226888430454
 21
-221.8961853438323
 31
0.0
  0
LINE
  5
15D5
330
6B
100
AcDbEntity
  8
0
100
AcDbLine
 10
316.2726888430455
 20
-223.1461853438323
 30
0.0
 11
230.5226888430454
 21
-223.1461853438323
 31
0.0
  0
LINE
  5
15D9
330
6B
100
AcDbEntity
  8
0
100
AcDbLine
 10
313.0226888430454
 20
-308.8641448595149
 30
0.0
 11
313.0226888430454
 21
-328.4524305630318
 31
0.0
  0
LINE
  5
15DA
330
6B
100
AcDbEntity
  8
0
100
AcDbLine
 10
228.0226888430454
 20
-301.3641448595149
 30
0.0
 11
228.0226888430454
 21
-328.4524305630318
 31
0.0
  0
LINE
  5
15DB
330
6B
100
AcDbEntity
  8
0
100
AcDbLine
 10
310.5226888430454
 20
-327.2024305630318
 30
0.0
 11
230.5226888430454
 21
-327.2024305630318
 31
0.0
  0
LINE
  5
15DF
330
6B
100
AcDbEntity
  8
0
100
AcDbLine
 10
182.3461054630147
 20
-308.8641448595149
 30
0.0
 11
182.3461054630147
 21
-329.1952667494149
 31
0.0
  0
LINE
  5
15E0
330
6B
100
AcDbEntity
  8
0
100
AcDbLine
 10
81.34610546301473
 20
-308.8641448595149
 30
0.0
 11
81.34610546301473
 21
-329.1952667494149
 31
0.0
  0
LINE
  5
15E1
330
6B
100
AcDbEntity
  8
0
100
AcDbLine
 10
179.8461054630147
 20
-327.9452667494149
 30
0.0
 11
83.84610546301473
 21
-327.9452667494149
 31
0.0
  0
LINE
  5
15E5
330
6B
100
AcDbEntity
  8
0
100
AcDbLine
 10
174.0584261390525
 20
-265.5069129030112
 30
0.0
 11
187.9501375869359
 21
-260.940105897744
 31
0.0
1001
ACAD
1000
DSTYLE
1002
{
1070
   147
1040
0.625
1070
    77
1070
     0
1002
}
  0
LINE
  5
15E6
330
6B
100
AcDbEntity
  8
0
  6
ByBlock
 62
     0
370
    -2
100
AcDbLine
 10
174.2676277542881
 20
-266.1432806036678
 30
0.0
 11
171.6834678422995
 21
-266.2876645208027
 31
0.0
  0
LINE
  5
15E7
330
6B
100
AcDbEntity
  8
0
  6
ByBlock
 62
     0
370
    -2
100
AcDbLine
 10
171.6834678422995
 20
-266.2876645208027
 30
0.0
 11
173.8492245238168
 21
-264.8705452023544
 31
0.0
  0
LINE
  5
15E8
330
6B
100
AcDbEntity
  8
0
  6
ByBlock
 62
     0
370
    -2
100
AcDbLine
 10
171.6834678422995
 20
-266.2876645208027
 30
0.0
 11
174.0584261390525
 21
-265.5069129030112
 31
0.0
  0
LINE
  5
15E9
330
6B
100
AcDbEntity
  8
0
100
AcDbLine
 10
331.0694585278374
 20
-293.822685372479
 30
0.0
 11
332.7251362803937
 21
-287.5798694359002
 31
0.0
1001
ACAD
1000
DSTYLE
1002
{
1070
   147
1040
0.625
1070
    77
1070
     0
1002
}
  0
LINE
  5
15EA
330
6B
100
AcDbEntity
  8
0
  6
ByBlock
 62
     0
370
    -2
100
AcDbLine
 10
331.7169464309291
 20
-293.9944077694052
 30
0.0
 11
330.4285813574572
 21
-296.2391448595149
 31
0.0
  0
LINE
  5
15EB
330
6B
100
AcDbEntity
  8
0
  6
ByBlock
 62
     0
370
    -2
100
AcDbLine
 10
330.4285813574572
 20
-296.2391448595149
 30
0.0
 11
330.4219706247456
 21
-293.6509629755529
 31
0.0
  0
LINE
  5
15EC
330
6B
100
AcDbEntity
  8
0
  6
ByBlock
 62
     0
370
    -2
100
AcDbLine
 10
330.4285813574572
 20
-296.2391448595149
 30
0.0
 11
331.0694585278374
 21
-293.822685372479
 31
0.0
  0
LINE
  5
15ED
330
6B
100
AcDbEntity
  8
0
100
AcDbLine
 10
320.5656942713084
 20
-259.121981969823
 30
0.0
 11
330.418541764628
 21
-249.5485222412123
 31
0.0
1001
ACAD
1000
DSTYLE
1002
{
1070
   147
1040
0.625
1070
    77
1070
     0
1002
}
  0
LINE
  5
15EE
330
6B
100
AcDbEntity
  8
0
  6
ByBlock
 62
     0
370
    -2
100
AcDbLine
 10
321.0325050754385
 20
-259.6024159813206
 30
0.0
 11
318.7726888430455
 21
-260.8641448595149
 31
0.0
  0
LINE
  5
15EF
330
6B
100
AcDbEntity
  8
0
  6
ByBlock
 62
     0
370
    -2
100
AcDbLine
 10
318.7726888430455
 20
-260.8641448595149
 30
0.0
 11
320.0988834671784
 21
-258.6415479583254
 31
0.0
  0
LINE
  5
15F0
330
6B
100
AcDbEntity
  8
0
  6
ByBlock
 62
     0
370
    -2
100
AcDbLine
 10
318.7726888430455
 20
-260.8641448595149
 30
0.0
 11
320.5656942713084
 21
-259.121981969823
 31
0.0
  0
LINE
  5
15F1
330
6B
100
AcDbEntity
  8
0
100
AcDbLine
 10
84.75680483205849
 20
-312.0351227689932
 30
0.0
 11
69.11259503996785
 21
-314.707632222987
 31
0.0
1001
ACAD
1000
DSTYLE
1002
{
1070
   147
1040
0.625
1070
    77
1070
     0
1002
}
  0
LINE
  5
15F2
330
6B
100
AcDbEntity
  8
0
  6
ByBlock
 62
     0
370
    -2
100
AcDbLine
 10
84.64400422219171
 20
-311.3748158792291
 30
0.0
 11
87.22110546301474
 21
-311.6141448595149
 31
0.0
  0
LINE
  5
15F3
330
6B
100
AcDbEntity
  8
0
  6
ByBlock
 62
     0
370
    -2
100
AcDbLine
 10
87.22110546301474
 20
-311.6141448595149
 30
0.0
 11
84.86960544192529
 21
-312.6954296587572
 31
0.0
  0
LINE
  5
15F4
330
6B
100
AcDbEntity
  8
0
  6
ByBlock
 62
     0
370
    -2
100
AcDbLine
 10
87.22110546301474
 20
-311.6141448595149
 30
0.0
 11
84.75680483205849
 21
-312.0351227689932
 31
0.0
  0
LINE
  5
15F5
330
6B
100
AcDbEntity
  8
0
100
AcDbLine
 10
89.23807472978344
 20
-268.0336684533861
 30
0.0
 11
69.37919224451801
 21
-261.0395554744184
 31
0.0
1001
ACAD
1000
DSTYLE
1002
{
1070
   147
1040
0.625
1070
    77
1070
     0
1002
}
  0
LINE
  5
15F6
330
6B
100
AcDbEntity
  8
0
  6
ByBlock
 62
     0
370
    -2
100
AcDbLine
 10
89.46060005232924
 20
-267.4018364764475
 30
0.0
 11
91.59610546301474
 21
-268.8641448595149
 31
0.0
  0
LINE
  5
15F7
330
6B
100
AcDbEntity
  8
0
  6
ByBlock
 62
     0
370
    -2
100
AcDbLine
 10
91.59610546301474
 20
-268.8641448595149
 30
0.0
 11
89.01554940723762
 21
-268.6655004303247
 31
0.0
  0
LINE
  5
15F8
330
6B
100
AcDbEntity
  8
0
  6
ByBlock
 62
     0
370
    -2
100
AcDbLine
 10
91.59610546301474
 20
-268.8641448595149
 30
0.0
 11
89.23807472978344
 21
-268.0336684533861
 31
0.0
  0
LINE
  5
15F9
330
6B
100
AcDbEntity
  8
0
100
AcDbLine
 10
118.4646669835983
 20
-253.8533881515227
 30
0.0
 11
69.42600773688809
 21
-238.1878610781452
 31
0.0
1001
ACAD
1000
DSTYLE
1002
{
1070
   147
1040
0.625
1070
    77
1070
     0
1002
}
  0
LINE
  5
15FA
330
6B
100
AcDbEntity
  8
0
  6
ByBlock
 62
     0
370
    -2
100
AcDbLine
 10
118.6685109827481
 20
-253.2152840924016
 30
0.0
 11
120.8461054630147
 21
-254.6141448595149
 31
0.0
  0
LINE
  5
15FB
330
6B
100
AcDbEntity
  8
0
  6
ByBlock
 62
     0
370
    -2
100
AcDbLine
 10
120.8461054630147
 20
-254.6141448595149
 30
0.0
 11
118.2608229844485
 21
-254.4914922106439
 31
0.0
  0
LINE
  5
15FC
330
6B
100
AcDbEntity
  8
0
  6
ByBlock
 62
     0
370
    -2
100
AcDbLine
 10
120.8461054630147
 20
-254.6141448595149
 30
0.0
 11
118.4646669835983
 21
-253.8533881515227
 31
0.0
  0
LINE
  5
15FD
330
6B
100
AcDbEntity
  8
0
100
AcDbLine
 10
103.7031027453547
 20
-231.0086692519096
 30
0.0
 11
69.56717020212519
 21
-224.2227228998715
 31
0.0
1001
ACAD
1000
DSTYLE
1002
{
1070
   147
1040
0.625
1070
    77
1070
     0
1002
}
  0
LINE
  5
15FE
330
6B
100
AcDbEntity
  8
0
  6
ByBlock
 62
     0
370
    -2
100
AcDbLine
 10
103.8337122396854
 20
-230.3516530220896
 30
0.0
 11
106.1551224573896
 21
-231.496110870765
 31
0.0
  0
LINE
  5
15FF
330
6B
100
AcDbEntity
  8
0
  6
ByBlock
 62
     0
370
    -2
100
AcDbLine
 10
106.1551224573896
 20
-231.496110870765
 30
0.0
 11
103.572493251024
 21
-231.6656854817296
 31
0.0
  0
LINE
  5
1600
330
6B
100
AcDbEntity
  8
0
  6
ByBlock
 62
     0
370
    -2
100
AcDbLine
 10
106.1551224573896
 20
-231.496110870765
 30
0.0
 11
103.7031027453547
 21
-231.0086692519096
 31
0.0
  0
TEXT
  5
1601
330
6B
100
AcDbEntity
  8
0
 62
     4
100
AcDbText
 10
211.9903771735808
 20
-277.380188960798
 30
0.0
 40
3.0
  1
169
 50
90.0
100
AcDbText
  0
LINE
  5
1602
330
6B
100
AcDbEntity
  8
0
  6
ByBlock
 62
     0
370
    -2
100
AcDbLine
 10
211.9455046735808
 20
-232.614144859515
 30
0.0
 11
212.6153771735808
 21
-230.114144859515
 31
0.0
  0
LINE
  5
1603
330
6B
100
AcDbEntity
  8
0
  6
ByBlock
 62
     0
370
    -2
100
AcDbLine
 10
212.6153771735808
 20
-230.114144859515
 30
0.0
 11
213.2852496735808
 21
-232.614144859515
 31
0.0
  0
LINE
  5
1604
330
6B
100
AcDbEntity
  8
0
  6
ByBlock
 62
     0
370
    -2
100
AcDbLine
 10
212.6153771735808
 20
-230.114144859515
 30
0.0
 11
212.6153771735808
 21
-232.614144859515
 31
0.0
  0
LINE
  5
1605
330
6B
100
AcDbEntity
  8
0
  6
ByBlock
 62
     0
370
    -2
100
AcDbLine
 10
213.2852496735808
 20
-312.1141448595149
 30
0.0
 11
212.6153771735808
 21
-314.6141448595149
 31
0.0
  0
LINE
  5
1606
330
6B
100
AcDbEntity
  8
0
  6
ByBlock
 62
     0
370
    -2
100
AcDbLine
 10
212.6153771735808
 20
-314.6141448595149
 30
0.0
 11
211.9455046735808
 21
-312.1141448595149
 31
0.0
  0
LINE
  5
1607
330
6B
100
AcDbEntity
  8
0
  6
ByBlock
 62
     0
370
    -2
100
AcDbLine
 10
212.6153771735808
 20
-314.6141448595149
 30
0.0
 11
212.6153771735808
 21
-312.1141448595149
 31
0.0
  0
TEXT
  5
1608
330
6B
100
AcDbEntity
  8
0
 62
     4
100
AcDbText
 10
202.748723217715
 20
-280.3641448595149
 30
0.0
 40
3.0
  1
127
 50
90.0
100
AcDbText
  0
LINE
  5
1609
330
6B
100
AcDbEntity
  8
0
  6
ByBlock
 62
     0
370
    -2
100
AcDbLine
 10
202.703850717715
 20
-247.614144859515
 30
0.0
 11
203.373723217715
 21
-245.114144859515
 31
0.0
  0
LINE
  5
160A
330
6B
100
AcDbEntity
  8
0
  6
ByBlock
 62
     0
370
    -2
100
AcDbLine
 10
203.373723217715
 20
-245.114144859515
 30
0.0
 11
204.0435957177149
 21
-247.614144859515
 31
0.0
  0
LINE
  5
160B
330
6B
100
AcDbEntity
  8
0
  6
ByBlock
 62
     0
370
    -2
100
AcDbLine
 10
203.373723217715
 20
-245.114144859515
 30
0.0
 11
203.373723217715
 21
-247.614144859515
 31
0.0
  0
LINE
  5
160C
330
6B
100
AcDbEntity
  8
0
  6
ByBlock
 62
     0
370
    -2
100
AcDbLine
 10
204.0435957177149
 20
-306.1141448595149
 30
0.0
 11
203.373723217715
 21
-308.6141448595149
 31
0.0
  0
LINE
  5
160D
330
6B
100
AcDbEntity
  8
0
  6
ByBlock
 62
     0
370
    -2
100
AcDbLine
 10
203.373723217715
 20
-308.6141448595149
 30
0.0
 11
202.703850717715
 21
-306.1141448595149
 31
0.0
  0
LINE
  5
160E
330
6B
100
AcDbEntity
  8
0
  6
ByBlock
 62
     0
370
    -2
100
AcDbLine
 10
203.373723217715
 20
-308.6141448595149
 30
0.0
 11
203.373723217715
 21
-306.1141448595149
 31
0.0
  0
TEXT
  5
160F
330
6B
100
AcDbEntity
  8
0
 62
     4
100
AcDbText
 10
202.7487232177152
 20
-324.2391448595149
 30
0.0
 40
3.0
  1
12
 50
90.0
100
AcDbText
  0
LINE
  5
1610
330
6B
100
AcDbEntity
  8
0
  6
ByBlock
 62
     0
370
    -2
100
AcDbLine
 10
202.7038507177152
 20
-317.1141448595149
 30
0.0
 11
203.3737232177152
 21
-314.6141448595149
 31
0.0
  0
LINE
  5
1611
330
6B
100
AcDbEntity
  8
0
  6
ByBlock
 62
     0
370
    -2
100
AcDbLine
 10
203.3737232177152
 20
-314.6141448595149
 30
0.0
 11
204.0435957177152
 21
-317.1141448595149
 31
0.0
  0
LINE
  5
1612
330
6B
100
AcDbEntity
  8
0
  6
ByBlock
 62
     0
370
    -2
100
AcDbLine
 10
203.3737232177152
 20
-314.6141448595149
 30
0.0
 11
203.3737232177152
 21
-317.1141448595149
 31
0.0
  0
LINE
  5
1613
330
6B
100
AcDbEntity
  8
0
  6
ByBlock
 62
     0
370
    -2
100
AcDbLine
 10
204.0435957177152
 20
-306.1141448595149
 30
0.0
 11
203.3737232177152
 21
-308.6141448595149
 31
0.0
  0
LINE
  5
1614
330
6B
100
AcDbEntity
  8
0
  6
ByBlock
 62
     0
370
    -2
100
AcDbLine
 10
203.3737232177152
 20
-308.6141448595149
 30
0.0
 11
202.7038507177152
 21
-306.1141448595149
 31
0.0
  0
LINE
  5
1615
330
6B
100
AcDbEntity
  8
0
  6
ByBlock
 62
     0
370
    -2
100
AcDbLine
 10
203.3737232177152
 20
-308.6141448595149
 30
0.0
 11
203.3737232177152
 21
-306.1141448595149
 31
0.0
  0
TEXT
  5
1616
330
6B
100
AcDbEntity
  8
0
 62
     4
100
AcDbText
 10
266.3249035527919
 20
-222.5211853438323
 30
0.0
 40
3.0
  1
181.5
100
AcDbText
  0
LINE
  5
1617
330
6B
100
AcDbEntity
  8
0
  6
ByBlock
 62
     0
370
    -2
100
AcDbLine
 10
230.5226888430454
 20
-223.8160578438323
 30
0.0
 11
228.0226888430454
 21
-223.1461853438323
 31
0.0
  0
LINE
  5
1618
330
6B
100
AcDbEntity
  8
0
  6
ByBlock
 62
     0
370
    -2
100
AcDbLine
 10
228.0226888430454
 20
-223.1461853438323
 30
0.0
 11
230.5226888430454
 21
-222.4763128438323
 31
0.0
  0
LINE
  5
1619
330
6B
100
AcDbEntity
  8
0
  6
ByBlock
 62
     0
370
    -2
100
AcDbLine
 10
228.0226888430454
 20
-223.1461853438323
 30
0.0
 11
230.5226888430454
 21
-223.1461853438323
 31
0.0
  0
LINE
  5
161A
330
6B
100
AcDbEntity
  8
0
  6
ByBlock
 62
     0
370
    -2
100
AcDbLine
 10
316.2726888430455
 20
-222.4763128438323
 30
0.0
 11
318.7726888430455
 21
-223.1461853438323
 31
0.0
  0
LINE
  5
161B
330
6B
100
AcDbEntity
  8
0
  6
ByBlock
 62
     0
370
    -2
100
AcDbLine
 10
318.7726888430455
 20
-223.1461853438323
 30
0.0
 11
316.2726888430455
 21
-223.8160578438323
 31
0.0
  0
LINE
  5
161C
330
6B
100
AcDbEntity
  8
0
  6
ByBlock
 62
     0
370
    -2
100
AcDbLine
 10
318.7726888430455
 20
-223.1461853438323
 30
0.0
 11
316.2726888430455
 21
-223.1461853438323
 31
0.0
  0
TEXT
  5
161D
330
6B
100
AcDbEntity
  8
0
 62
     4
100
AcDbText
 10
268.4430900153984
 20
-326.5774305630318
 30
0.0
 40
3.0
  1
170
100
AcDbText
  0
LINE
  5
161E
330
6B
100
AcDbEntity
  8
0
  6
ByBlock
 62
     0
370
    -2
100
AcDbLine
 10
230.5226888430454
 20
-327.8723030630318
 30
0.0
 11
228.0226888430454
 21
-327.2024305630318
 31
0.0
  0
LINE
  5
161F
330
6B
100
AcDbEntity
  8
0
  6
ByBlock
 62
     0
370
    -2
100
AcDbLine
 10
228.0226888430454
 20
-327.2024305630318
 30
0.0
 11
230.5226888430454
 21
-326.5325580630318
 31
0.0
  0
LINE
  5
1620
330
6B
100
AcDbEntity
  8
0
  6
ByBlock
 62
     0
370
    -2
100
AcDbLine
 10
228.0226888430454
 20
-327.2024305630318
 30
0.0
 11
230.5226888430454
 21
-327.2024305630318
 31
0.0
  0
LINE
  5
1621
330
6B
100
AcDbEntity
  8
0
  6
ByBlock
 62
     0
370
    -2
100
AcDbLine
 10
310.5226888430454
 20
-326.5325580630318
 30
0.0
 11
313.0226888430454
 21
-327.2024305630318
 31
0.0
  0
LINE
  5
1622
330
6B
100
AcDbEntity
  8
0
  6
ByBlock
 62
     0
370
    -2
100
AcDbLine
 10
313.0226888430454
 20
-327.2024305630318
 30
0.0
 11
310.5226888430454
 21
-327.8723030630318
 31
0.0
  0
LINE
  5
1623
330
6B
100
AcDbEntity
  8
0
  6
ByBlock
 62
     0
370
    -2
100
AcDbLine
 10
313.0226888430454
 20
-327.2024305630318
 30
0.0
 11
310.5226888430454
 21
-327.2024305630318
 31
0.0
  0
TEXT
  5
1624
330
6B
100
AcDbEntity
  8
0
 62
     4
100
AcDbText
 10
126.0833684897557
 20
-327.3202667494149
 30
0.0
 40
3.0
  1
202
100
AcDbText
  0
LINE
  5
1625
330
6B
100
AcDbEntity
  8
0
  6
ByBlock
 62
     0
370
    -2
100
AcDbLine
 10
83.84610546301473
 20
-328.6151392494149
 30
0.0
 11
81.34610546301473
 21
-327.9452667494149
 31
0.0
  0
LINE
  5
1626
330
6B
100
AcDbEntity
  8
0
  6
ByBlock
 62
     0
370
    -2
100
AcDbLine
 10
81.34610546301473
 20
-327.9452667494149
 30
0.0
 11
83.84610546301473
 21
-327.2753942494149
 31
0.0
  0
LINE
  5
1627
330
6B
100
AcDbEntity
  8
0
  6
ByBlock
 62
     0
370
    -2
100
AcDbLine
 10
81.34610546301473
 20
-327.9452667494149
 30
0.0
 11
83.84610546301473
 21
-327.9452667494149
 31
0.0
  0
LINE
  5
1628
330
6B
100
AcDbEntity
  8
0
  6
ByBlock
 62
     0
370
    -2
100
AcDbLine
 10
179.8461054630147
 20
-327.2753942494149
 30
0.0
 11
182.3461054630147
 21
-327.9452667494149
 31
0.0
  0
LINE
  5
1629
330
6B
100
AcDbEntity
  8
0
  6
ByBlock
 62
     0
370
    -2
100
AcDbLine
 10
182.3461054630147
 20
-327.9452667494149
 30
0.0
 11
179.8461054630147
 21
-328.6151392494149
 31
0.0
  0
LINE
  5
162A
330
6B
100
AcDbEntity
  8
0
  6
ByBlock
 62
     0
370
    -2
100
AcDbLine
 10
182.3461054630147
 20
-327.9452667494149
 30
0.0
 11
179.8461054630147
 21
-327.9452667494149
 31
0.0
  0
ENDSEC
  0
SECTION
  2
OBJECTS
  0
DICTIONARY
  5
C
330
0
100
AcDbDictionary
281
     1
  3
ACAD_2007HEADERVARS_RT
350
162E
  3
ACAD_COLOR
350
62
  3
ACAD_GROUP
350
D
  3
ACAD_LAYOUT
350
61
  3
ACAD_MATERIAL
350
10
  3
ACAD_MLEADERSTYLE
350
65
  3
ACAD_MLINESTYLE
350
5E
  3
ACAD_PLOTSETTINGS
350
60
  3
ACAD_PLOTSTYLENAME
350
E
  3
ACAD_SCALELIST
350
42
  3
ACAD_TABLESTYLE
350
63
  3
ACAD_VISUALSTYLE
350
29
  3
ACDB_RECOMPOSE_DATA
350
162C
  3
AcDbVariableDictionary
350
572
  3
DWGPROPS
350
162D
  0
DICTIONARY
  5
3C2
330
2
100
AcDbDictionary
280
     1
281
     1
  3
ACAD_LAYERSTATES
360
3C3
  0
DICTIONARY
  5
56E
330
54
100
AcDbDictionary
280
     1
281
     1
  3
ADSK_XREC_LAYER_RECONCILED
360
56F
  0
DICTIONARY
  5
55D
330
6B
100
AcDbDictionary
280
     1
281
     1
  3
ACAD_SORTENTS
360
55E
  0
DICTIONARY
  5
162E
102
{ACAD_REACTORS
330
C
102
}
330
C
100
AcDbDictionary
281
     1
  3
DIMARCSYM
350
1630
  3
DIMFXL
350
162F
  3
DIMJOGANG
350
1631
  0
DICTIONARY
  5
62
102
{ACAD_REACTORS
330
C
102
}
330
C
100
AcDbDictionary
281
     1
  0
DICTIONARY
  5
D
102
{ACAD_REACTORS
330
C
102
}
330
C
100
AcDbDictionary
281
     1
  0
DICTIONARY
  5
61
102
{ACAD_REACTORS
330
C
102
}
330
C
100
AcDbDictionary
281
     1
  3
Model
350
6E
  3
レイアウト1
350
6A
  0
DICTIONARY
  5
10
102
{ACAD_REACTORS
330
C
102
}
330
C
100
AcDbDictionary
281
     1
  3
ByBlock
350
19
  3
ByLayer
350
11
  3
Global
350
21
  0
DICTIONARY
  5
65
102
{ACAD_REACTORS
330
C
102
}
330
C
100
AcDbDictionary
281
     1
  3
Standard
350
66
  0
DICTIONARY
  5
5E
102
{ACAD_REACTORS
330
C
102
}
330
C
100
AcDbDictionary
281
     1
  3
Standard
350
5F
  0
DICTIONARY
  5
60
102
{ACAD_REACTORS
330
C
102
}
330
C
100
AcDbDictionary
281
     1
  0
ACDBDICTIONARYWDFLT
  5
E
102
{ACAD_REACTORS
330
C
102
}
330
C
100
AcDbDictionary
281
     1
  3
Normal
350
F
100
AcDbDictionaryWithDefault
340
F
  0
DICTIONARY
  5
42
102
{ACAD_REACTORS
330
C
102
}
330
C
100
AcDbDictionary
281
     1
  3
A0
350
43
  3
A1
350
44
  3
A2
350
45
  3
A3
350
46
  3
A4
350
47
  3
A5
350
48
  3
A6
350
49
  3
A7
350
4A
  3
A8
350
4B
  3
A9
350
4C
  3
B0
350
4D
  3
B1
350
4E
  3
B2
350
4F
  3
B3
350
50
  3
B4
350
51
  3
B5
350
52
  3
B6
350
53
  0
DICTIONARY
  5
63
102
{ACAD_REACTORS
330
C
102
}
330
C
100
AcDbDictionary
281
     1
  3
Standard
350
64
  0
DICTIONARY
  5
29
102
{ACAD_REACTORS
330
C
102
}
330
C
100
AcDbDictionary
281
     1
  3
2dWireframe
350
2F
  3
3dWireframe
350
3C1
  3
Basic
350
2E
  3
Brighten
350
35
  3
ColorChange
350
39
  3
Conceptual
350
32
  3
Dim
350
34
  3
EdgeColorOff
350
41
  3
Facepattern
350
38
  3
Flat
350
2A
  3
FlatWithEdges
350
2B
  3
Gouraud
350
2C
  3
GouraudWithEdges
350
2D
  3
Hidden
350
31
  3
JitterOff
350
3F
  3
Linepattern
350
37
  3
OverhangOff
350
40
  3
Realistic
350
33
  3
Shaded
350
3E
  3
Shaded with edges
350
3D
  3
Shades of Gray
350
3A
  3
Sketchy
350
3B
  3
Thicken
350
36
  3
Wireframe
350
30
  3
X-Ray
350
3C
  0
XRECORD
  5
162C
102
{ACAD_REACTORS
330
C
102
}
330
C
100
AcDbXrecord
280
     1
 90
        1
330
64
  0
DICTIONARY
  5
572
102
{ACAD_REACTORS
330
C
102
}
330
C
100
AcDbDictionary
281
     1
  3
CANNOSCALE
350
575
  3
CMLEADERSTYLE
350
574
  3
CTABLESTYLE
350
573
  3
DIMASSOC
350
578
  3
INDEXCTL
350
577
  3
SORTENTS
350
576
  3
XCLIPFRAME
350
1534
  0
XRECORD
  5
162D
102
{ACAD_REACTORS
330
C
102
}
330
C
100
AcDbXrecord
280
     1
  1
DWGPROPS COOKIE
  2

  3

  4

  6

  7

  8
imamura
  9

300
=
301
=
302
=
303
=
304
=
305
=
306
=
307
=
308
=
309
=
 40
0.0773859953703704
 41
2456214.611801378
 42
2459893.49889463
  1

 90
        0
  0
DICTIONARY
  5
3C3
102
{ACAD_REACTORS
330
3C2
102
}
330
3C2
100
AcDbDictionary
281
     1
  0
XRECORD
  5
56F
102
{ACAD_REACTORS
330
56E
102
}
330
56E
100
AcDbXrecord
280
     1
290
     1
  0
SORTENTSTABLE
  5
55E
102
{ACAD_REACTORS
330
55D
102
}
330
55D
100
AcDbSortentsTable
330
6B
331
F7F
  5
F86
331
1071
  5
1605
331
F3C
  5
F55
331
F7B
  5
F95
331
FB2
  5
FC8
331
F38
  5
F51
331
EA6
  5
EFF
331
F77
  5
F8D
331
FAE
  5
FC4
331
FAA
  5
FB8
331
EE9
  5
8FD
331
E24
  5
E9B
331
E6B
  5
EDE
331
F34
  5
F4D
331
217
  5
21A
331
24E
  5
250
331
2FD
  5
2FF
331
E9E
  5
EFE
331
EE5
  5
F33
331
2F9
  5
2FB
331
E20
  5
E97
331
E67
  5
EDA
331
F30
  5
F49
331
213
  5
215
331
24A
  5
24C
331
E63
  5
ED6
331
EE1
  5
F2F
331
246
  5
248
331
2F5
  5
2F7
331
E1C
  5
E93
331
E0
  5
E1
331
20F
  5
211
331
242
  5
244
331
2F1
  5
2F3
331
CC
  5
E0
331
E18
  5
E8F
331
60C
  5
948
331
604
  5
946
331
1614
  5
15D0
331
15D5
  5
15B4
331
1610
  5
15D2
331
160C
  5
15D9
331
15CD
  5
15CA
331
1608
  5
15DF
331
1065
  5
15F1
331
F6F
  5
F9A
331
1061
  5
15ED
331
F6B
  5
F9C
331
138C
  5
1628
331
F67
  5
942
331
E5F
  5
ED2
331
EDD
  5
F2B
331
FA6
  5
FB2
331
1388
  5
1624
331
FA2
  5
616
331
ED9
  5
F27
331
E5B
  5
ECE
331
F63
  5
F82
331
2ED
  5
2EF
331
ED5
  5
F23
331
F2C
  5
F45
331
E57
  5
ECA
331
ED1
  5
F1F
331
F28
  5
F41
331
23E
  5
240
331
3FC
  5
3FE
331
E53
  5
EC6
331
23A
  5
23C
331
2E1
  5
2E3
331
3F8
  5
3FA
331
5F8
  5
93E
331
E17
  5
E8C
331
E13
  5
E86
331
1604
  5
15E8
331
5F0
  5
93D
331
1600
  5
15F4
331
15C7
  5
15D8
331
31A
  5
3EB
331
15FC
  5
15F8
331
15F8
  5
15FC
331
1384
  5
1620
331
F5F
  5
F7E
331
F9E
  5
60F
331
FD5
  5
FD5
331
1380
  5
161C
331
F5B
  5
F7A
331
F9A
  5
FCC
331
FD1
  5
FD3
331
FCD
  5
FA7
331
F24
  5
F3D
331
F57
  5
F76
331
ECD
  5
F1B
331
F92
  5
8F4
331
EC9
  5
F17
331
E43
  5
EC3
331
F53
  5
F6C
331
2DD
  5
2DF
331
EC5
  5
F13
331
2D9
  5
2DB
331
E3F
  5
EBF
331
232
  5
234
331
E86
  5
EF1
331
EC1
  5
F0F
331
2D5
  5
2D7
331
314
  5
316
331
16F
  5
171
331
E3B
  5
EBB
331
22A
  5
22C
331
2D1
  5
2D3
331
310
  5
312
331
E0F
  5
E7E
331
5EC
  5
92B
331
E0B
  5
E7A
331
5E8
  5
5E8
331
E07
  5
E76
331
15BF
  5
15E0
331
E03
  5
E72
331
15F4
  5
1600
331
408
  5
40A
331
15F0
  5
1608
331
15EC
  5
160C
331
15E8
  5
1612
331
12BC
  5
1618
331
F4F
  5
F68
331
F8E
  5
F9E
331
12B8
  5
1615
331
F4B
  5
F64
331
FC1
  5
FAB
331
EFC
  5
F3B
331
F47
  5
F60
331
E37
  5
EB7
331
E7E
  5
EED
331
EBD
  5
F0B
331
F86
  5
928
331
F82
  5
F8A
331
FB9
  5
8F5
331
EF8
  5
8FB
331
F43
  5
F5C
331
30C
  5
30E
331
E33
  5
EB2
331
226
  5
228
331
E7A
  5
EE9
331
EB9
  5
F07
331
EB5
  5
F03
331
EF4
  5
F39
331
308
  5
30A
331
E2F
  5
EAE
331
222
  5
224
331
E76
  5
EE5
331
E72
  5
EE1
331
EF0
  5
92E
331
255
  5
257
331
E2B
  5
EA2
331
21E
  5
220
331
251
  5
253
331
300
  5
302
331
DFF
  5
E6E
331
404
  5
406
331
400
  5
402
331
1627
  5
12B7
331
613
  5
94F
331
1623
  5
1385
331
161F
  5
138A
331
15E0
  5
105F
331
161B
  5
15B6
331
F7E
  5
F85
331
FB5
  5
8F2
331
F3F
  5
F58
331
1070
  5
1604
331
F3B
  5
F54
331
F7A
  5
F94
331
FB1
  5
FC1
331
FAD
  5
FBF
331
F37
  5
F50
331
E27
  5
E9E
331
EEC
  5
8FF
331
FA9
  5
FB4
331
2FC
  5
2FE
331
E23
  5
E9A
331
E6A
  5
EDD
331
F33
  5
F4C
331
216
  5
218
331
24D
  5
24F
331
E9D
  5
EFD
331
EE4
  5
F32
331
2F8
  5
2FA
331
E1F
  5
E96
331
E66
  5
ED9
331
212
  5
214
331
249
  5
24B
331
E62
  5
ED5
331
E99
  5
EFC
331
EE0
  5
F2E
331
245
  5
247
331
2F4
  5
2F6
331
E1B
  5
E92
331
20E
  5
210
331
20A
  5
20C
331
241
  5
243
331
2F0
  5
2F2
331
CB
  5
CC
331
60F
  5
94B
331
1617
  5
15B8
331
1613
  5
15CF
331
15D4
  5
15B3
331
160F
  5
15D5
331
160B
  5
15DE
331
15CC
  5
15C5
331
1064
  5
15F0
331
F6E
  5
938
331
1060
  5
15EC
331
F6A
  5
F84
331
138B
  5
1627
331
E5E
  5
ED1
331
EDC
  5
F2A
331
FA5
  5
FB6
331
FA1
  5
615
331
ED8
  5
F26
331
F2F
  5
F48
331
E5A
  5
ECD
331
F62
  5
F81
331
1FE
  5
200
331
2EC
  5
2EE
331
ED4
  5
F22
331
F2B
  5
F44
331
2E8
  5
2EA
331
3FF
  5
401
331
E56
  5
EC9
331
ED0
  5
F1E
331
23D
  5
23F
331
2E4
  5
2E6
331
3FB
  5
3FD
331
239
  5
23B
331
2E0
  5
2E2
331
5FB
  5
930
331
5F7
  5
934
331
E16
  5
E8B
331
E12
  5
E85
331
1607
  5
15E5
331
5F3
  5
929
331
1603
  5
15E7
331
15FF
  5
15F3
331
15C6
  5
15D7
331
319
  5
31B
331
15FB
  5
15F7
331
1387
  5
1623
331
1383
  5
161F
331
F5E
  5
F7D
331
F9D
  5
60E
331
FD4
  5
F9F
331
137F
  5
161B
331
F5A
  5
F79
331
F27
  5
F40
331
FD0
  5
FD2
331
FCC
  5
FA8
331
F23
  5
F3C
331
F56
  5
F75
331
ECC
  5
F1A
331
3F7
  5
3F9
331
F91
  5
617
331
EC8
  5
F16
331
E42
  5
EC2
331
F52
  5
F6B
331
E85
  5
EF0
331
EC4
  5
F12
331
2D8
  5
2DA
331
317
  5
319
331
E3E
  5
EBE
331
EC0
  5
F0E
331
2D4
  5
2D6
331
313
  5
315
331
E3A
  5
EBA
331
2D0
  5
2D2
331
5EF
  5
936
331
E0E
  5
E7D
331
5EB
  5
92D
331
E0A
  5
E79
331
E06
  5
E75
331
E02
  5
E71
331
15F7
  5
15FB
331
40B
  5
565
331
15F3
  5
15FF
331
15EF
  5
1607
331
15EB
  5
160B
331
162A
  5
106E
331
12BB
  5
1617
331
F4E
  5
F67
331
F8D
  5
FC2
331
FC4
  5
FCF
331
12B7
  5
1614
331
F4A
  5
F63
331
FC0
  5
FAC
331
EFB
  5
F3A
331
F46
  5
F5F
331
E36
  5
EB6
331
E7D
  5
EEC
331
EBC
  5
F0A
331
F85
  5
937
331
30F
  5
311
331
F81
  5
F89
331
EB8
  5
F06
331
EF7
  5
933
331
30B
  5
30D
331
E32
  5
EB1
331
E79
  5
EE8
331
F42
  5
F5B
331
225
  5
227
331
2CC
  5
2CE
331
EB4
  5
F02
331
EF3
  5
F38
331
307
  5
309
331
E2E
  5
EA8
331
221
  5
223
331
E75
  5
EE4
331
E71
  5
EE0
331
21D
  5
21F
331
254
  5
256
331
E2A
  5
EA1
331
250
  5
252
331
407
  5
409
331
DFE
  5
E6D
331
403
  5
405
331
616
  5
92A
331
15E7
  5
1611
331
1626
  5
12B2
331
612
  5
94E
331
1622
  5
1384
331
161E
  5
1386
331
15DF
  5
105E
331
161A
  5
15B5
331
15DB
  5
137F
331
F3E
  5
F57
331
F7D
  5
F97
331
FB4
  5
FAF
331
106F
  5
1603
331
F3A
  5
F53
331
F79
  5
F93
331
EEF
  5
932
331
FB0
  5
FC0
331
FAC
  5
FBE
331
EEB
  5
901
331
E26
  5
E9D
331
F36
  5
F4F
331
FA8
  5
FB7
331
EE7
  5
F35
331
F32
  5
F4B
331
2FB
  5
2FD
331
E22
  5
E99
331
E69
  5
EDC
331
215
  5
217
331
24C
  5
24E
331
EA0
  5
EF9
331
E9C
  5
904
331
EE3
  5
F31
331
248
  5
24A
331
2F7
  5
2F9
331
E1E
  5
E95
331
E2
  5
E3
331
211
  5
213
331
E65
  5
ED8
331
E61
  5
ED4
331
E98
  5
EFA
331
244
  5
246
331
2F3
  5
2F5
331
E1A
  5
E91
331
20D
  5
20F
331
240
  5
242
331
CA
  5
CA
331
60E
  5
94A
331
1616
  5
15C3
331
1612
  5
15D4
331
15D3
  5
15B2
331
160E
  5
15DB
331
15CF
  5
15CE
331
160A
  5
15DD
331
15CB
  5
15C4
331
1063
  5
15EF
331
F6D
  5
939
331
138E
  5
162A
331
105F
  5
15EB
331
F69
  5
93A
331
EDF
  5
F2D
331
138A
  5
1626
331
FA4
  5
FB1
331
F65
  5
927
331
E5D
  5
ED0
331
2EF
  5
2F1
331
EDB
  5
F29
331
FA0
  5
612
331
ED7
  5
F25
331
F2E
  5
F47
331
2EB
  5
2ED
331
E59
  5
ECC
331
F61
  5
F80
331
ED3
  5
F21
331
F2A
  5
F43
331
3FE
  5
400
331
E55
  5
EC8
331
E90
  5
EF7
331
23C
  5
23E
331
2E3
  5
2E5
331
3FA
  5
3FC
331
195
  5
197
331
238
  5
23A
331
5FA
  5
940
331
5F6
  5
945
331
E15
  5
E88
331
E11
  5
E80
331
1606
  5
15E4
331
5F2
  5
941
331
1602
  5
15E6
331
15FE
  5
15F2
331
15C5
  5
15D6
331
318
  5
31A
331
15FA
  5
15F6
331
15C1
  5
15E2
331
1386
  5
1622
331
FD7
  5
FD7
331
1382
  5
161E
331
F5D
  5
F7C
331
F9C
  5
5FF
331
FD3
  5
FA3
331
137E
  5
161A
331
FCF
  5
FD1
331
F59
  5
F78
331
F98
  5
FCB
331
ECF
  5
F1D
331
F26
  5
F3F
331
FCB
  5
FA9
331
F55
  5
F6F
331
E45
  5
EC5
331
E8C
  5
EF5
331
2DF
  5
2E1
331
ECB
  5
F19
331
F90
  5
FB9
331
EC7
  5
F15
331
E41
  5
EC1
331
E88
  5
EF3
331
F51
  5
F6A
331
2DB
  5
2DD
331
EC3
  5
F11
331
F02
  5
93C
331
2D7
  5
2D9
331
316
  5
318
331
E3D
  5
EBD
331
E39
  5
EB9
331
E80
  5
EEF
331
22C
  5
22E
331
2D3
  5
2D5
331
312
  5
314
331
228
  5
22A
331
5EE
  5
935
331
E0D
  5
E7C
331
5EA
  5
931
331
E09
  5
E78
331
E05
  5
E74
331
E01
  5
E70
331
15F6
  5
15FA
331
40A
  5
55C
331
15F2
  5
15FE
331
15EE
  5
1606
331
15EA
  5
160A
331
1629
  5
1065
331
FC7
  5
FCE
331
F4D
  5
F66
331
F8C
  5
FCA
331
FC3
  5
FCD
331
F49
  5
F62
331
EBF
  5
F0D
331
FBF
  5
FAD
331
12B2
  5
160F
331
EFA
  5
92F
331
F45
  5
F5E
331
E35
  5
EB5
331
E7C
  5
EEB
331
EBB
  5
F09
331
F84
  5
F8C
331
2CF
  5
2D1
331
30E
  5
310
331
F80
  5
F87
331
EB7
  5
F05
331
EF6
  5
902
331
30A
  5
30C
331
E31
  5
EB0
331
224
  5
226
331
E78
  5
EE7
331
F41
  5
F5A
331
E74
  5
EE3
331
EF2
  5
F37
331
306
  5
308
331
E2D
  5
EA7
331
220
  5
222
331
21C
  5
21E
331
253
  5
255
331
302
  5
304
331
ED
  5
EF
331
E29
  5
EA0
331
406
  5
408
331
DFD
  5
E6C
331
402
  5
404
331
615
  5
951
331
15E6
  5
1610
331
1625
  5
12B1
331
611
  5
94D
331
1621
  5
1380
331
161D
  5
138C
331
1619
  5
15C2
331
15DA
  5
137E
331
F3D
  5
F56
331
F7C
  5
F96
331
FB3
  5
FB0
331
106E
  5
1602
331
F39
  5
F52
331
EA7
  5
F00
331
F78
  5
F8E
331
FAF
  5
FC7
331
FAB
  5
FC3
331
EEA
  5
8FA
331
E25
  5
E9C
331
E6C
  5
EDF
331
F35
  5
F4E
331
24F
  5
251
331
2FE
  5
300
331
F70
  5
F98
331
E9F
  5
EFB
331
EE6
  5
F34
331
2FA
  5
2FC
331
E21
  5
E98
331
E68
  5
EDB
331
F31
  5
F4A
331
E5
  5
ED
331
214
  5
216
331
24B
  5
24D
331
EE2
  5
F30
331
247
  5
249
331
2F6
  5
2F8
331
E1D
  5
E94
331
E1
  5
E2
331
210
  5
212
331
E64
  5
ED7
331
E60
  5
ED3
331
20C
  5
20E
331
243
  5
245
331
2F2
  5
2F4
331
E19
  5
E90
331
208
  5
20A
331
C9
  5
C9
331
60D
  5
949
331
605
  5
947
331
1615
  5
15D1
331
1611
  5
15D3
331
160D
  5
15DA
331
15CE
  5
15CB
331
1609
  5
15DC
331
1062
  5
15EE
331
F6C
  5
F9B
331
138D
  5
1629
331
105E
  5
15EA
331
F68
  5
943
331
EDE
  5
F2C
331
FA7
  5
FB3
331
1389
  5
1625
331
FA3
  5
FB5
331
EDA
  5
F28
331
E5C
  5
ECF
331
F64
  5
F83
331
2EE
  5
2F0
331
F60
  5
F7F
331
ED6
  5
F24
331
F2D
  5
F46
331
2EA
  5
2EC
331
E58
  5
ECB
331
E97
  5
EF8
331
ED2
  5
F20
331
F29
  5
F42
331
23F
  5
241
331
2E6
  5
2E8
331
3FD
  5
3FF
331
E54
  5
EC7
331
23B
  5
23D
331
2E2
  5
2E4
331
3F9
  5
3FB
331
5F9
  5
92C
331
E14
  5
E87
331
5F5
  5
944
331
E10
  5
E7F
331
1605
  5
15E3
331
5F1
  5
93F
331
1601
  5
15E9
331
31B
  5
3EC
331
15FD
  5
15F5
331
15C0
  5
15E1
331
1385
  5
1621
331
F9F
  5
610
331
FD6
  5
FD6
331
1381
  5
161D
331
F5C
  5
F7B
331
F9B
  5
5F6
331
FD2
  5
FD4
331
137D
  5
1619
331
FCE
  5
8F9
331
F25
  5
F3E
331
F58
  5
F77
331
E8F
  5
EF6
331
ECE
  5
F1C
331
F93
  5
8F8
331
FCA
  5
FAA
331
F54
  5
F6D
331
E44
  5
EC4
331
E8B
  5
EF4
331
2DE
  5
2E0
331
ECA
  5
F18
331
EC6
  5
F14
331
174
  5
176
331
E40
  5
EC0
331
E87
  5
EF2
331
F50
  5
F69
331
EC2
  5
F10
331
2D6
  5
2D8
331
315
  5
317
331
E3C
  5
EBC
331
E38
  5
EB8
331
2D2
  5
2D4
331
311
  5
313
331
5ED
  5
926
331
E0C
  5
E7B
331
E08
  5
E77
331
E04
  5
E73
331
E00
  5
E6F
331
15F5
  5
15FD
331
409
  5
40B
331
15F1
  5
1601
331
15ED
  5
1609
331
15E9
  5
160D
331
1628
  5
1064
331
F8F
  5
FC9
331
FC6
  5
FD0
331
12B9
  5
1616
331
F4C
  5
F65
331
F8B
  5
FA2
331
FBE
  5
FAE
331
F48
  5
F61
331
E7F
  5
EEE
331
EBE
  5
F0C
331
EFD
  5
93B
331
12B1
  5
160E
331
EF9
  5
8FE
331
F44
  5
F5D
331
30D
  5
30F
331
E34
  5
EB4
331
E7B
  5
EEA
331
227
  5
229
331
2CE
  5
2D0
331
EBA
  5
F08
331
F83
  5
F8B
331
EB6
  5
F04
331
EF5
  5
900
331
309
  5
30B
331
E30
  5
EAF
331
223
  5
225
331
E77
  5
EE6
331
F40
  5
F59
331
E73
  5
EE2
331
EF1
  5
F36
331
E2C
  5
EA6
331
21F
  5
221
331
E28
  5
E9F
331
252
  5
254
331
301
  5
303
331
EC
  5
EE
331
405
  5
407
331
DFC
  5
E6B
331
401
  5
403
331
614
  5
950
331
15E5
  5
1613
331
1624
  5
12BC
331
610
  5
94C
331
1620
  5
138B
331
15E1
  5
1060
331
EA8
  5
F01
331
161C
  5
15B7
331
1618
  5
15B9
331
15D9
  5
137D
  0
XRECORD
  5
1630
102
{ACAD_REACTORS
330
162E
102
}
330
162E
100
AcDbXrecord
280
     1
 70
     2
  0
XRECORD
  5
162F
102
{ACAD_REACTORS
330
162E
102
}
330
162E
100
AcDbXrecord
280
     1
 40
1.25
  0
XRECORD
  5
1631
102
{ACAD_REACTORS
330
162E
102
}
330
162E
100
AcDbXrecord
280
     1
 40
1.570796326794896
  0
LAYOUT
  5
6E
102
{ACAD_XDICTIONARY
360
1665
102
}
102
{ACAD_REACTORS
330
61
102
}
330
61
100
AcDbPlotSettings
  1

  2
FX DP 205
  4

  6

 40
0.0
 41
0.0
 42
0.0
 43
0.0
 44
0.0
 45
0.0
 46
0.0
 47
0.0
 48
0.0
 49
0.0
140
0.0
141
0.0
142
1.0
143
1.0
 70
  1712
 72
     0
 73
     0
 74
     0
  7

 75
     0
147
1.0
148
0.0
149
0.0
100
AcDbLayout
  1
Model
 70
     1
 71
     0
 10
0.0
 20
0.0
 11
12.0
 21
9.0
 12
0.0
 22
0.0
 32
0.0
 14
0.0
 24
0.0
 34
0.0
 15
0.0
 25
0.0
 35
0.0
146
0.0
 13
0.0
 23
0.0
 33
0.0
 16
1.0
 26
0.0
 36
0.0
 17
0.0
 27
1.0
 37
0.0
 76
     0
330
6B
331
8B
  0
LAYOUT
  5
6A
102
{ACAD_XDICTIONARY
360
1663
102
}
102
{ACAD_REACTORS
330
61
102
}
330
61
100
AcDbPlotSettings
  1

  2
FX DP 205
  4

  6

 40
0.0
 41
0.0
 42
0.0
 43
0.0
 44
0.0
 45
0.0
 46
0.0
 47
0.0
 48
0.0
 49
0.0
140
0.0
141
0.0
142
1.0
143
1.0
 70
   688
 72
     0
 73
     0
 74
     5
  7

 75
    16
147
1.0
148
0.0
149
0.0
100
AcDbLayout
  1
レイアウト1
 70
     1
 71
     1
 10
0.0
 20
0.0
 11
12.0
 21
9.0
 12
0.0
 22
0.0
 32
0.0
 14
1.000000000000000E+20
 24
1.000000000000000E+20
 34
1.000000000000000E+20
 15
-1.000000000000000E+20
 25
-1.000000000000000E+20
 35
-1.000000000000000E+20
146
0.0
 13
0.0
 23
0.0
 33
0.0
 16
1.0
 26
0.0
 36
0.0
 17
0.0
 27
1.0
 37
0.0
 76
     0
330
67
  0
MATERIAL
  5
19
102
{ACAD_XDICTIONARY
360
1A
102
}
102
{ACAD_REACTORS
330
10
102
}
330
10
100
AcDbMaterial
  1
ByBlock
 72
     0
 43
0.0208333333333333
 43
0.0
 43
0.0
 43
0.0
 43
0.0
 43
0.0208333333333333
 43
0.0
 43
0.0
 43
0.0
 43
0.0
 43
1.0
 43
0.0
 43
0.0
 43
0.0
 43
0.0
 43
1.0
 77
     0
 47
0.0208333333333333
 47
0.0
 47
0.0
 47
0.0
 47
0.0
 47
0.0208333333333333
 47
0.0
 47
0.0
 47
0.0
 47
0.0
 47
1.0
 47
0.0
 47
0.0
 47
0.0
 47
0.0
 47
1.0
171
     0
 49
0.0208333333333333
 49
0.0
 49
0.0
 49
0.0
 49
0.0
 49
0.0208333333333333
 49
0.0
 49
0.0
 49
0.0
 49
0.0
 49
1.0
 49
0.0
 49
0.0
 49
0.0
 49
0.0
 49
1.0
175
     0
142
0.0208333333333333
142
0.0
142
0.0
142
0.0
142
0.0
142
0.0208333333333333
142
0.0
142
0.0
142
0.0
142
0.0
142
1.0
142
0.0
142
0.0
142
0.0
142
0.0
142
1.0
179
     0
144
0.0208333333333333
144
0.0
144
0.0
144
0.0
144
0.0
144
0.0208333333333333
144
0.0
144
0.0
144
0.0
144
0.0
144
1.0
144
0.0
144
0.0
144
0.0
144
0.0
144
1.0
147
0.0208333333333333
147
0.0
147
0.0
147
0.0
147
0.0
147
0.0208333333333333
147
0.0
147
0.0
147
0.0
147
0.0
147
1.0
147
0.0
147
0.0
147
0.0
147
0.0
147
1.0
  0
MATERIAL
  5
11
102
{ACAD_XDICTIONARY
360
12
102
}
102
{ACAD_REACTORS
330
10
102
}
330
10
100
AcDbMaterial
  1
ByLayer
 72
     0
 43
0.0208333333333333
 43
0.0
 43
0.0
 43
0.0
 43
0.0
 43
0.0208333333333333
 43
0.0
 43
0.0
 43
0.0
 43
0.0
 43
1.0
 43
0.0
 43
0.0
 43
0.0
 43
0.0
 43
1.0
 77
     0
 47
0.0208333333333333
 47
0.0
 47
0.0
 47
0.0
 47
0.0
 47
0.0208333333333333
 47
0.0
 47
0.0
 47
0.0
 47
0.0
 47
1.0
 47
0.0
 47
0.0
 47
0.0
 47
0.0
 47
1.0
171
     0
 49
0.0208333333333333
 49
0.0
 49
0.0
 49
0.0
 49
0.0
 49
0.0208333333333333
 49
0.0
 49
0.0
 49
0.0
 49
0.0
 49
1.0
 49
0.0
 49
0.0
 49
0.0
 49
0.0
 49
1.0
175
     0
142
0.0208333333333333
142
0.0
142
0.0
142
0.0
142
0.0
142
0.0208333333333333
142
0.0
142
0.0
142
0.0
142
0.0
142
1.0
142
0.0
142
0.0
142
0.0
142
0.0
142
1.0
179
     0
144
0.0208333333333333
144
0.0
144
0.0
144
0.0
144
0.0
144
0.0208333333333333
144
0.0
144
0.0
144
0.0
144
0.0
144
1.0
144
0.0
144
0.0
144
0.0
144
0.0
144
1.0
147
0.0208333333333333
147
0.0
147
0.0
147
0.0
147
0.0
147
0.0208333333333333
147
0.0
147
0.0
147
0.0
147
0.0
147
1.0
147
0.0
147
0.0
147
0.0
147
0.0
147
1.0
  0
MATERIAL
  5
21
102
{ACAD_XDICTIONARY
360
22
102
}
102
{ACAD_REACTORS
330
10
102
}
330
10
100
AcDbMaterial
  1
Global
 72
     0
 43
0.0208333333333333
 43
0.0
 43
0.0
 43
0.0
 43
0.0
 43
0.0208333333333333
 43
0.0
 43
0.0
 43
0.0
 43
0.0
 43
1.0
 43
0.0
 43
0.0
 43
0.0
 43
0.0
 43
1.0
 77
     0
 47
0.0208333333333333
 47
0.0
 47
0.0
 47
0.0
 47
0.0
 47
0.0208333333333333
 47
0.0
 47
0.0
 47
0.0
 47
0.0
 47
1.0
 47
0.0
 47
0.0
 47
0.0
 47
0.0
 47
1.0
171
     0
 49
0.0208333333333333
 49
0.0
 49
0.0
 49
0.0
 49
0.0
 49
0.0208333333333333
 49
0.0
 49
0.0
 49
0.0
 49
0.0
 49
1.0
 49
0.0
 49
0.0
 49
0.0
 49
0.0
 49
1.0
175
     0
142
0.0208333333333333
142
0.0
142
0.0
142
0.0
142
0.0
142
0.0208333333333333
142
0.0
142
0.0
142
0.0
142
0.0
142
1.0
142
0.0
142
0.0
142
0.0
142
0.0
142
1.0
179
     0
144
0.0208333333333333
144
0.0
144
0.0
144
0.0
144
0.0
144
0.0208333333333333
144
0.0
144
0.0
144
0.0
144
0.0
144
1.0
144
0.0
144
0.0
144
0.0
144
0.0
144
1.0
147
0.0208333333333333
147
0.0
147
0.0
147
0.0
147
0.0
147
0.0208333333333333
147
0.0
147
0.0
147
0.0
147
0.0
147
1.0
147
0.0
147
0.0
147
0.0
147
0.0
147
1.0
  0
MLEADERSTYLE
  5
66
102
{ACAD_REACTORS
330
65
102
}
330
65
100
AcDbMLeaderStyle
170
     2
171
     1
172
     0
 90
        2
 40
0.0
 41
0.0
173
     1
 91
-1056964608
340
5A
 92
       -2
290
     1
 42
0.09
291
     1
 43
0.36
  3
Standard
 44
0.18
300

342
55
174
     1
178
     6
175
     1
176
     0
 93
-1056964608
 45
0.18
292
     0
297
     0
 46
0.18
 94
-1056964608
 47
1.0
 49
1.0
140
1.0
293
     1
141
0.0
294
     1
177
     0
142
1.0
295
     0
296
     0
143
0.125
1001
ACAD_MLEADERVER
1070
     2
  0
MLINESTYLE
  5
5F
102
{ACAD_REACTORS
330
5E
102
}
330
5E
100
AcDbMlineStyle
  2
STANDARD
 70
     0
  3

 62
   256
 51
90.0
 52
90.0
 71
     2
 49
0.5
 62
   256
  6
BYLAYER
 49
-0.5
 62
   256
  6
BYLAYER
  0
ACDBPLACEHOLDER
  5
F
102
{ACAD_REACTORS
330
E
102
}
330
E
  0
SCALE
  5
43
102
{ACAD_REACTORS
330
42
102
}
330
42
100
AcDbScale
 70
     0
300
1:1
140
1.0
141
1.0
290
     1
  0
SCALE
  5
44
102
{ACAD_REACTORS
330
42
102
}
330
42
100
AcDbScale
 70
     0
300
1/128" = 1'-0"
140
0.0078125
141
12.0
290
     0
  0
SCALE
  5
45
102
{ACAD_REACTORS
330
42
102
}
330
42
100
AcDbScale
 70
     0
300
1/64" = 1'-0"
140
0.015625
141
12.0
290
     0
  0
SCALE
  5
46
102
{ACAD_REACTORS
330
42
102
}
330
42
100
AcDbScale
 70
     0
300
1/32" = 1'-0"
140
0.03125
141
12.0
290
     0
  0
SCALE
  5
47
102
{ACAD_REACTORS
330
42
102
}
330
42
100
AcDbScale
 70
     0
300
1/16" = 1'-0"
140
0.0625
141
12.0
290
     0
  0
SCALE
  5
48
102
{ACAD_REACTORS
330
42
102
}
330
42
100
AcDbScale
 70
     0
300
3/32" = 1'-0"
140
0.09375
141
12.0
290
     0
  0
SCALE
  5
49
102
{ACAD_REACTORS
330
42
102
}
330
42
100
AcDbScale
 70
     0
300
1/8" = 1'-0"
140
0.125
141
12.0
290
     0
  0
SCALE
  5
4A
102
{ACAD_REACTORS
330
42
102
}
330
42
100
AcDbScale
 70
     0
300
3/16" = 1'-0"
140
0.1875
141
12.0
290
     0
  0
SCALE
  5
4B
102
{ACAD_REACTORS
330
42
102
}
330
42
100
AcDbScale
 70
     0
300
1/4" = 1'-0"
140
0.25
141
12.0
290
     0
  0
SCALE
  5
4C
102
{ACAD_REACTORS
330
42
102
}
330
42
100
AcDbScale
 70
     0
300
3/8" = 1'-0"
140
0.375
141
12.0
290
     0
  0
SCALE
  5
4D
102
{ACAD_REACTORS
330
42
102
}
330
42
100
AcDbScale
 70
     0
300
1/2" = 1'-0"
140
0.5
141
12.0
290
     0
  0
SCALE
  5
4E
102
{ACAD_REACTORS
330
42
102
}
330
42
100
AcDbScale
 70
     0
300
3/4" = 1'-0"
140
0.75
141
12.0
290
     0
  0
SCALE
  5
4F
102
{ACAD_REACTORS
330
42
102
}
330
42
100
AcDbScale
 70
     0
300
1" = 1'-0"
140
1.0
141
12.0
290
     0
  0
SCALE
  5
50
102
{ACAD_REACTORS
330
42
102
}
330
42
100
AcDbScale
 70
     0
300
1-1/2" = 1'-0"
140
1.5
141
12.0
290
     0
  0
SCALE
  5
51
102
{ACAD_REACTORS
330
42
102
}
330
42
100
AcDbScale
 70
     0
300
3" = 1'-0"
140
3.0
141
12.0
290
     0
  0
SCALE
  5
52
102
{ACAD_REACTORS
330
42
102
}
330
42
100
AcDbScale
 70
     0
300
6" = 1'-0"
140
6.0
141
12.0
290
     0
  0
SCALE
  5
53
102
{ACAD_REACTORS
330
42
102
}
330
42
100
AcDbScale
 70
     0
300
1'-0" = 1'-0"
140
12.0
141
12.0
290
     0
  0
TABLESTYLE
  5
64
102
{ACAD_XDICTIONARY
360
57A
102
}
102
{ACAD_REACTORS
330
63
102
}
330
63
100
AcDbTableStyle
  3
Standard
 70
     0
 71
     0
 40
0.06
 41
0.06
280
     0
281
     0
  7
STANDARD
140
0.18
170
     2
 62
     0
 63
     7
283
     0
274
    -2
284
     1
 64
     0
275
    -2
285
     1
 65
     0
276
    -2
286
     1
 66
     0
277
    -2
287
     1
 67
     0
278
    -2
288
     1
 68
     0
279
    -2
289
     1
 69
     0
  7
STANDARD
140
0.25
170
     5
 62
     0
 63
     7
283
     0
274
    -2
284
     1
 64
     0
275
    -2
285
     1
 65
     0
276
    -2
286
     1
 66
     0
277
    -2
287
     1
 67
     0
278
    -2
288
     1
 68
     0
279
    -2
289
     1
 69
     0
  7
STANDARD
140
0.18
170
     5
 62
     0
 63
     7
283
     0
274
    -2
284
     1
 64
     0
275
    -2
285
     1
 65
     0
276
    -2
286
     1
 66
     0
277
    -2
287
     1
 67
     0
278
    -2
288
     1
 68
     0
279
    -2
289
     1
 69
     0
  0
VISUALSTYLE
  5
2F
102
{ACAD_XDICTIONARY
360
163C
102
}
102
{ACAD_REACTORS
330
29
102
}
330
29
100
AcDbVisualStyle
  2

 70
     4
 71
     0
 72
     2
 73
     0
 90
        0
 40
-0.6
 41
-30.0
 62
     5
 63
     7
 74
     1
 91
        4
 64
     7
 65
   257
 75
     1
175
     1
 42
1.0
 92
        0
 66
   257
 43
1.0
 76
     1
 77
     6
 78
     2
 67
     7
 79
     5
170
     0
171
     0
290
     0
174
     0
 93
        1
 44
0.0
173
     0
291
     0
 45
0.0
1001
ACAD
1000
AcDbSavedByObjectVersion
1070
     0
  0
VISUALSTYLE
  5
3C1
102
{ACAD_XDICTIONARY
360
1667
102
}
102
{ACAD_REACTORS
330
29
102
}
330
29
100
AcDbVisualStyle
  2

 70
     5
 71
     0
 72
     2
 73
     1
 90
        0
 40
-0.6
 41
-30.0
 62
     5
 63
     7
 74
     1
 91
        4
 64
     7
 65
   257
 75
     1
175
     1
 42
1.0
 92
        0
 66
   257
 43
1.0
 76
     1
 77
     6
 78
     2
 67
     7
 79
     5
170
     0
171
     0
290
     0
174
     0
 93
        1
 44
0.0
173
     0
291
     0
 45
0.0
1001
ACAD
1000
AcDbSavedByObjectVersion
1070
     0
  0
VISUALSTYLE
  5
2E
102
{ACAD_XDICTIONARY
360
163A
102
}
102
{ACAD_REACTORS
330
29
102
}
330
29
100
AcDbVisualStyle
  2

 70
     7
 71
     1
 72
     0
 73
     1
 90
        0
 40
-0.6
 41
-30.0
 62
     5
 63
     7
 74
     0
 91
        4
 64
     7
 65
   257
 75
     1
175
     1
 42
1.0
 92
        8
 66
     7
 43
1.0
 76
     1
 77
     6
 78
     2
 67
     7
 79
     5
170
     0
171
     0
290
     0
174
     0
 93
        1
 44
0.0
173
     0
291
     1
 45
0.0
1001
ACAD
1000
AcDbSavedByObjectVersion
1070
     0
  0
VISUALSTYLE
  5
35
102
{ACAD_XDICTIONARY
360
1648
102
}
102
{ACAD_REACTORS
330
29
102
}
330
29
100
AcDbVisualStyle
  2

 70
    12
 71
     2
 72
     2
 73
     0
 90
        0
 40
-0.6
 41
-30.0
 62
     5
 63
     7
 74
     1
 91
        4
 64
     7
 65
   257
 75
     1
175
     1
 42
1.0
 92
        8
 66
     7
 43
1.0
 76
     1
 77
     6
 78
     2
 67
     7
 79
     5
170
     0
171
     0
290
     0
174
     0
 93
        1
 44
50.0
173
     0
291
     1
 45
0.0
1001
ACAD
1000
AcDbSavedByObjectVersion
1070
     0
  0
VISUALSTYLE
  5
39
102
{ACAD_XDICTIONARY
360
1650
102
}
102
{ACAD_REACTORS
330
29
102
}
330
29
100
AcDbVisualStyle
  2

 70
    16
 71
     2
 72
     2
 73
     3
 90
        0
 40
-0.6
 41
-30.0
 62
     5
 63
     8
 74
     1
 91
        4
 64
     7
 65
   257
 75
     1
175
     1
 42
1.0
 92
        8
 66
     8
 43
1.0
 76
     1
 77
     6
 78
     2
 67
     7
 79
     5
170
     0
171
     0
290
     0
174
     0
 93
        1
 44
0.0
173
     0
291
     1
 45
0.0
1001
ACAD
1000
AcDbSavedByObjectVersion
1070
     0
  0
VISUALSTYLE
  5
32
102
{ACAD_XDICTIONARY
360
1642
102
}
102
{ACAD_REACTORS
330
29
102
}
330
29
100
AcDbVisualStyle
  2

 70
     9
 71
     3
 72
     2
 73
     0
 90
        0
 40
-0.6
 41
-30.0
 62
     5
 63
     7
 74
     2
 91
        2
 64
     7
 65
   257
 75
     1
175
     1
 42
179.0
 92
        8
 66
     7
 43
1.0
 76
     1
 77
     6
 78
     2
 67
     7
 79
     3
170
     0
171
     0
290
     0
174
     0
 93
        1
 44
0.0
173
     0
291
     0
 45
0.0
1001
ACAD
1000
AcDbSavedByObjectVersion
1070
     0
  0
VISUALSTYLE
  5
34
102
{ACAD_XDICTIONARY
360
1646
102
}
102
{ACAD_REACTORS
330
29
102
}
330
29
100
AcDbVisualStyle
  2

 70
    11
 71
     2
 72
     2
 73
     0
 90
        0
 40
-0.6
 41
-30.0
 62
     5
 63
     7
 74
     1
 91
        4
 64
     7
 65
   257
 75
     1
175
     1
 42
1.0
 92
        8
 66
     7
 43
1.0
 76
     1
 77
     6
 78
     2
 67
     7
 79
     5
170
     0
171
     0
290
     0
174
     0
 93
        1
 44
-50.0
173
     0
291
     1
 45
0.0
1001
ACAD
1000
AcDbSavedByObjectVersion
1070
     0
  0
VISUALSTYLE
  5
41
102
{ACAD_XDICTIONARY
360
1660
102
}
102
{ACAD_REACTORS
330
29
102
}
330
29
100
AcDbVisualStyle
  2

 70
    22
 71
     2
 72
     2
 73
     0
 90
        0
 40
-0.6
 41
-30.0
 62
     5
 63
     7
 74
     1
 91
        4
 64
     7
 65
   257
 75
     1
175
     1
 42
1.0
 92
        8
 66
     7
 43
1.0
 76
     1
 77
     6
 78
     2
 67
     7
 79
     5
170
     0
171
     0
290
     0
174
     0
 93
        1
 44
0.0
173
     0
291
     1
 45
0.0
1001
ACAD
1000
AcDbSavedByObjectVersion
1070
     0
  0
VISUALSTYLE
  5
38
102
{ACAD_XDICTIONARY
360
164E
102
}
102
{ACAD_REACTORS
330
29
102
}
330
29
100
AcDbVisualStyle
  2

 70
    15
 71
     2
 72
     2
 73
     0
 90
        0
 40
-0.6
 41
-30.0
 62
     5
 63
     7
 74
     1
 91
        4
 64
     7
 65
   257
 75
     1
175
     1
 42
1.0
 92
        8
 66
     7
 43
1.0
 76
     1
 77
     6
 78
     2
 67
     7
 79
     5
170
     0
171
     0
290
     0
174
     0
 93
        1
 44
0.0
173
     0
291
     1
 45
0.0
1001
ACAD
1000
AcDbSavedByObjectVersion
1070
     0
  0
VISUALSTYLE
  5
2A
102
{ACAD_XDICTIONARY
360
1632
102
}
102
{ACAD_REACTORS
330
29
102
}
330
29
100
AcDbVisualStyle
  2

 70
     0
 71
     2
 72
     1
 73
     1
 90
        2
 40
-0.6
 41
30.0
 62
     5
 63
     7
 74
     0
 91
        0
 64
     7
 65
   257
 75
     1
175
     1
 42
1.0
 92
        8
 66
     7
 43
1.0
 76
     1
 77
     6
 78
     2
 67
     7
 79
     5
170
     0
171
     0
290
     0
174
     0
 93
       13
 44
0.0
173
     0
291
     1
 45
0.0
1001
ACAD
1000
AcDbSavedByObjectVersion
1070
     0
  0
VISUALSTYLE
  5
2B
102
{ACAD_XDICTIONARY
360
1634
102
}
102
{ACAD_REACTORS
330
29
102
}
330
29
100
AcDbVisualStyle
  2

 70
     1
 71
     2
 72
     1
 73
     1
 90
        2
 40
-0.6
 41
30.0
 62
     5
 63
     7
 74
     1
 91
        0
 64
     7
 65
   257
 75
     1
175
     1
 42
1.0
 92
        0
 66
   257
 43
1.0
 76
     1
 77
     6
 78
     2
 67
     7
 79
     5
170
     0
171
     0
290
     0
174
     0
 93
       13
 44
0.0
173
     0
291
     1
 45
0.0
1001
ACAD
1000
AcDbSavedByObjectVersion
1070
     0
  0
VISUALSTYLE
  5
2C
102
{ACAD_XDICTIONARY
360
1636
102
}
102
{ACAD_REACTORS
330
29
102
}
330
29
100
AcDbVisualStyle
  2

 70
     2
 71
     2
 72
     2
 73
     1
 90
        2
 40
-0.6
 41
30.0
 62
     5
 63
     7
 74
     0
 91
        0
 64
     7
 65
   257
 75
     1
175
     1
 42
1.0
 92
        0
 66
     7
 43
1.0
 76
     1
 77
     6
 78
     2
 67
     7
 79
     5
170
     0
171
     0
290
     0
174
     0
 93
       13
 44
0.0
173
     0
291
     1
 45
0.0
1001
ACAD
1000
AcDbSavedByObjectVersion
1070
     0
  0
VISUALSTYLE
  5
2D
102
{ACAD_XDICTIONARY
360
1638
102
}
102
{ACAD_REACTORS
330
29
102
}
330
29
100
AcDbVisualStyle
  2

 70
     3
 71
     2
 72
     2
 73
     1
 90
        2
 40
-0.6
 41
30.0
 62
     5
 63
     7
 74
     1
 91
        0
 64
     7
 65
   257
 75
     1
175
     1
 42
1.0
 92
        0
 66
   257
 43
1.0
 76
     1
 77
     6
 78
     2
 67
     7
 79
     5
170
     0
171
     0
290
     0
174
     0
 93
       13
 44
0.0
173
     0
291
     1
 45
0.0
1001
ACAD
1000
AcDbSavedByObjectVersion
1070
     0
  0
VISUALSTYLE
  5
31
102
{ACAD_XDICTIONARY
360
1640
102
}
102
{ACAD_REACTORS
330
29
102
}
330
29
100
AcDbVisualStyle
  2

 70
     6
 71
     1
 72
     2
 73
     2
 90
        0
 40
-0.6
 41
-30.0
 62
     5
 63
     7
 74
     2
 91
        2
 64
     7
 65
   257
 75
     2
175
     1
 42
40.0
 92
        0
 66
   257
 43
1.0
 76
     1
 77
     6
 78
     2
 67
     7
 79
     3
170
     0
171
     0
290
     0
174
     0
 93
        1
 44
0.0
173
     0
291
     0
 45
0.0
1001
ACAD
1000
AcDbSavedByObjectVersion
1070
     0
  0
VISUALSTYLE
  5
3F
102
{ACAD_XDICTIONARY
360
165C
102
}
102
{ACAD_REACTORS
330
29
102
}
330
29
100
AcDbVisualStyle
  2

 70
    20
 71
     2
 72
     2
 73
     0
 90
        0
 40
-0.6
 41
-30.0
 62
     5
 63
     7
 74
     1
 91
        4
 64
     7
 65
   257
 75
     1
175
     1
 42
1.0
 92
       10
 66
     7
 43
1.0
 76
     1
 77
     6
 78
     2
 67
     7
 79
     5
170
     0
171
     0
290
     0
174
     0
 93
        1
 44
0.0
173
     0
291
     1
 45
0.0
1001
ACAD
1000
AcDbSavedByObjectVersion
1070
     0
  0
VISUALSTYLE
  5
37
102
{ACAD_XDICTIONARY
360
164C
102
}
102
{ACAD_REACTORS
330
29
102
}
330
29
100
AcDbVisualStyle
  2

 70
    14
 71
     2
 72
     2
 73
     0
 90
        0
 40
-0.6
 41
-30.0
 62
     5
 63
     7
 74
     1
 91
        4
 64
     7
 65
   257
 75
     7
175
     7
 42
1.0
 92
        8
 66
     7
 43
1.0
 76
     1
 77
     6
 78
     2
 67
     7
 79
     5
170
     0
171
     0
290
     0
174
     0
 93
        1
 44
0.0
173
     0
291
     1
 45
0.0
1001
ACAD
1000
AcDbSavedByObjectVersion
1070
     0
  0
VISUALSTYLE
  5
40
102
{ACAD_XDICTIONARY
360
165E
102
}
102
{ACAD_REACTORS
330
29
102
}
330
29
100
AcDbVisualStyle
  2

 70
    21
 71
     2
 72
     2
 73
     0
 90
        0
 40
-0.6
 41
-30.0
 62
     5
 63
     7
 74
     1
 91
        4
 64
     7
 65
   257
 75
     1
175
     1
 42
1.0
 92
        9
 66
     7
 43
1.0
 76
     1
 77
     6
 78
     2
 67
     7
 79
     5
170
     0
171
     0
290
     0
174
     0
 93
        1
 44
0.0
173
     0
291
     1
 45
0.0
1001
ACAD
1000
AcDbSavedByObjectVersion
1070
     0
  0
VISUALSTYLE
  5
33
102
{ACAD_XDICTIONARY
360
1644
102
}
102
{ACAD_REACTORS
330
29
102
}
330
29
100
AcDbVisualStyle
  2

 70
     8
 71
     2
 72
     3
 73
     0
 90
        2
 40
-0.6
 41
30.0
 62
     5
 63
     7
 74
     0
 91
        0
 64
     7
 65
   257
 75
     1
175
     1
 42
1.0
 92
        8
 66
   257
 43
1.0
 76
     1
 77
     6
 78
     2
 67
     7
 79
     3
170
     0
171
     0
290
     0
174
     0
 93
       13
 44
0.0
173
     0
291
     0
 45
0.0
1001
ACAD
1000
AcDbSavedByObjectVersion
1070
     0
  0
VISUALSTYLE
  5
3E
102
{ACAD_XDICTIONARY
360
165A
102
}
102
{ACAD_REACTORS
330
29
102
}
330
29
100
AcDbVisualStyle
  2

 70
    27
 71
     2
 72
     2
 73
     1
 90
        2
 40
-0.6
 41
30.0
 62
     5
 63
     7
 74
     0
 91
        4
 64
     7
 65
   257
 75
     1
175
     1
 42
1.0
 92
        8
 66
   257
 43
1.0
 76
     1
 77
     6
 78
     2
 67
     8
 79
     3
170
     0
171
     0
290
     0
174
     0
 93
        5
 44
0.0
173
     0
291
     0
 45
0.0
1001
ACAD
1000
AcDbSavedByObjectVersion
1070
     0
  0
VISUALSTYLE
  5
3D
102
{ACAD_XDICTIONARY
360
1658
102
}
102
{ACAD_REACTORS
330
29
102
}
330
29
100
AcDbVisualStyle
  2

 70
    26
 71
     2
 72
     2
 73
     1
 90
        2
 40
-0.6
 41
30.0
 62
     5
 63
     7
 74
     1
 91
       10
 64
     7
 65
   257
 75
     2
175
     1
 42
1.0
 92
        8
 66
   257
 43
1.0
 76
     1
 77
     6
 78
     2
 67
     7
 79
     3
170
     0
171
     0
290
     0
174
     0
 93
        5
 44
0.0
173
     0
291
     0
 45
0.0
1001
ACAD
1000
AcDbSavedByObjectVersion
1070
     0
  0
VISUALSTYLE
  5
3A
102
{ACAD_XDICTIONARY
360
1652
102
}
102
{ACAD_REACTORS
330
29
102
}
330
29
100
AcDbVisualStyle
  2

 70
    23
 71
     2
 72
     2
 73
     3
 90
        0
 40
-0.6
 41
-30.0
 62
     5
 63
     7
 74
     2
 91
        2
 64
     7
 65
     7
 75
     1
175
     1
 42
40.0
 92
        8
 66
     7
 43
1.0
 76
     1
 77
     6
 78
     2
 67
     7
 79
     3
170
     0
171
     0
290
     0
174
     0
 93
        1
 44
0.0
173
     0
291
     0
 45
0.0
1001
ACAD
1000
AcDbSavedByObjectVersion
1070
     0
  0
VISUALSTYLE
  5
3B
102
{ACAD_XDICTIONARY
360
1654
102
}
102
{ACAD_REACTORS
330
29
102
}
330
29
100
AcDbVisualStyle
  2

 70
    24
 71
     1
 72
     2
 73
     2
 90
        0
 40
-0.6
 41
-30.0
 62
     5
 63
     7
 74
     2
 91
        2
 64
     7
 65
     7
 75
     1
175
     1
 42
40.0
 92
       11
 66
     7
 43
1.0
 76
     1
 77
     6
 78
     2
 67
     7
 79
     6
170
     0
171
     0
290
     0
174
     0
 93
        1
 44
0.0
173
     0
291
     0
 45
0.0
1001
ACAD
1000
AcDbSavedByObjectVersion
1070
     0
  0
VISUALSTYLE
  5
36
102
{ACAD_XDICTIONARY
360
164A
102
}
102
{ACAD_REACTORS
330
29
102
}
330
29
100
AcDbVisualStyle
  2

 70
    13
 71
     2
 72
     2
 73
     0
 90
        0
 40
-0.6
 41
-30.0
 62
     5
 63
     7
 74
     1
 91
        4
 64
     7
 65
   257
 75
     1
175
     1
 42
1.0
 92
       12
 66
     7
 43
1.0
 76
     1
 77
     6
 78
     2
 67
     7
 79
     5
170
     0
171
     0
290
     0
174
     0
 93
        1
 44
0.0
173
     0
291
     1
 45
0.0
1001
ACAD
1000
AcDbSavedByObjectVersion
1070
     0
  0
VISUALSTYLE
  5
30
102
{ACAD_XDICTIONARY
360
163E
102
}
102
{ACAD_REACTORS
330
29
102
}
330
29
100
AcDbVisualStyle
  2

 70
     5
 71
     0
 72
     2
 73
     0
 90
        0
 40
-0.6
 41
-30.0
 62
     5
 63
     7
 74
     1
 91
        4
 64
     7
 65
   257
 75
     1
175
     1
 42
1.0
 92
        0
 66
   257
 43
1.0
 76
     1
 77
     6
 78
     2
 67
     7
 79
     3
170
     0
171
     0
290
     0
174
     0
 93
        1
 44
0.0
173
     0
291
     0
 45
0.0
1001
ACAD
1000
AcDbSavedByObjectVersion
1070
     0
  0
VISUALSTYLE
  5
3C
102
{ACAD_XDICTIONARY
360
1656
102
}
102
{ACAD_REACTORS
330
29
102
}
330
29
100
AcDbVisualStyle
  2

 70
    25
 71
     2
 72
     2
 73
     1
 90
        1
 40
0.5
 41
-30.0
 62
     5
 63
     7
 74
     1
 91
        0
 64
     7
 65
   257
 75
     1
175
     1
 42
1.0
 92
        8
 66
     7
 43
1.0
 76
     1
 77
     6
 78
     2
 67
     7
 79
     3
170
     0
171
     0
290
     0
174
     0
 93
       13
 44
0.0
173
     0
291
     0
 45
0.0
1001
ACAD
1000
AcDbSavedByObjectVersion
1070
     0
  0
DICTIONARYVAR
  5
575
102
{ACAD_REACTORS
330
572
102
}
330
572
100
DictionaryVariables
280
     0
  1
1:1
  0
DICTIONARYVAR
  5
574
102
{ACAD_REACTORS
330
572
102
}
330
572
100
DictionaryVariables
280
     0
  1
STANDARD
  0
DICTIONARYVAR
  5
573
102
{ACAD_REACTORS
330
572
102
}
330
572
100
DictionaryVariables
280
     0
  1
STANDARD
  0
DICTIONARYVAR
  5
578
102
{ACAD_REACTORS
330
572
102
}
330
572
100
DictionaryVariables
280
     0
  1
1
  0
DICTIONARYVAR
  5
577
102
{ACAD_REACTORS
330
572
102
}
330
572
100
DictionaryVariables
280
     0
  1
0
  0
DICTIONARYVAR
  5
576
102
{ACAD_REACTORS
330
572
102
}
330
572
100
DictionaryVariables
280
     0
  1
127
  0
DICTIONARYVAR
  5
1534
102
{ACAD_REACTORS
330
572
102
}
330
572
100
DictionaryVariables
280
     0
  1
2
  0
DICTIONARY
  5
1665
330
6E
100
AcDbDictionary
280
     1
281
     1
  3
ACAD_XREC_ROUNDTRIP
360
1666
  0
DICTIONARY
  5
1663
330
6A
100
AcDbDictionary
280
     1
281
     1
  3
ACAD_XREC_ROUNDTRIP
360
1664
  0
DICTIONARY
  5
1A
330
19
100
AcDbDictionary
280
     1
281
     1
  3
ACAD_XREC_ROUNDTRIP
360
583
  3
BUMPTILE
360
1C
  3
DIFFUSETILE
360
1B
  3
OPACITYTILE
360
1F
  3
REFLECTIONTILE
360
1E
  3
REFRACTIONTILE
360
20
  3
SPECULARTILE
360
1D
  0
DICTIONARY
  5
12
330
11
100
AcDbDictionary
280
     1
281
     1
  3
ACAD_XREC_ROUNDTRIP
360
582
  3
BUMPTILE
360
14
  3
DIFFUSETILE
360
13
  3
OPACITYTILE
360
17
  3
REFLECTIONTILE
360
16
  3
REFRACTIONTILE
360
18
  3
SPECULARTILE
360
15
  0
DICTIONARY
  5
22
330
21
100
AcDbDictionary
280
     1
281
     1
  3
ACAD_XREC_ROUNDTRIP
360
584
  3
BUMPTILE
360
24
  3
DIFFUSETILE
360
23
  3
OPACITYTILE
360
27
  3
REFLECTIONTILE
360
26
  3
REFRACTIONTILE
360
28
  3
SPECULARTILE
360
25
  0
DICTIONARY
  5
57A
330
64
100
AcDbDictionary
280
     1
281
     1
  3
ACAD_ROUNDTRIP_2008_TABLESTYLE_CELLSTYLEMAP
360
162B
  3
ACAD_XREC_ROUNDTRIP
360
1662
  0
DICTIONARY
  5
163C
330
2F
100
AcDbDictionary
280
     1
281
     1
  3
ACAD_XREC_ROUNDTRIP
360
163D
  0
DICTIONARY
  5
1667
330
3C1
100
AcDbDictionary
280
     1
281
     1
  3
ACAD_XREC_ROUNDTRIP
360
1668
  0
DICTIONARY
  5
163A
330
2E
100
AcDbDictionary
280
     1
281
     1
  3
ACAD_XREC_ROUNDTRIP
360
163B
  0
DICTIONARY
  5
1648
330
35
100
AcDbDictionary
280
     1
281
     1
  3
ACAD_XREC_ROUNDTRIP
360
1649
  0
DICTIONARY
  5
1650
330
39
100
AcDbDictionary
280
     1
281
     1
  3
ACAD_XREC_ROUNDTRIP
360
1651
  0
DICTIONARY
  5
1642
330
32
100
AcDbDictionary
280
     1
281
     1
  3
ACAD_XREC_ROUNDTRIP
360
1643
  0
DICTIONARY
  5
1646
330
34
100
AcDbDictionary
280
     1
281
     1
  3
ACAD_XREC_ROUNDTRIP
360
1647
  0
DICTIONARY
  5
1660
330
41
100
AcDbDictionary
280
     1
281
     1
  3
ACAD_XREC_ROUNDTRIP
360
1661
  0
DICTIONARY
  5
164E
330
38
100
AcDbDictionary
280
     1
281
     1
  3
ACAD_XREC_ROUNDTRIP
360
164F
  0
DICTIONARY
  5
1632
330
2A
100
AcDbDictionary
280
     1
281
     1
  3
ACAD_XREC_ROUNDTRIP
360
1633
  0
DICTIONARY
  5
1634
330
2B
100
AcDbDictionary
280
     1
281
     1
  3
ACAD_XREC_ROUNDTRIP
360
1635
  0
DICTIONARY
  5
1636
330
2C
100
AcDbDictionary
280
     1
281
     1
  3
ACAD_XREC_ROUNDTRIP
360
1637
  0
DICTIONARY
  5
1638
330
2D
100
AcDbDictionary
280
     1
281
     1
  3
ACAD_XREC_ROUNDTRIP
360
1639
  0
DICTIONARY
  5
1640
330
31
100
AcDbDictionary
280
     1
281
     1
  3
ACAD_XREC_ROUNDTRIP
360
1641
  0
DICTIONARY
  5
165C
330
3F
100
AcDbDictionary
280
     1
281
     1
  3
ACAD_XREC_ROUNDTRIP
360
165D
  0
DICTIONARY
  5
164C
330
37
100
AcDbDictionary
280
     1
281
     1
  3
ACAD_XREC_ROUNDTRIP
360
164D
  0
DICTIONARY
  5
165E
330
40
100
AcDbDictionary
280
     1
281
     1
  3
ACAD_XREC_ROUNDTRIP
360
165F
  0
DICTIONARY
  5
1644
330
33
100
AcDbDictionary
280
     1
281
     1
  3
ACAD_XREC_ROUNDTRIP
360
1645
  0
DICTIONARY
  5
165A
330
3E
100
AcDbDictionary
280
     1
281
     1
  3
ACAD_XREC_ROUNDTRIP
360
165B
  0
DICTIONARY
  5
1658
330
3D
100
AcDbDictionary
280
     1
281
     1
  3
ACAD_XREC_ROUNDTRIP
360
1659
  0
DICTIONARY
  5
1652
330
3A
100
AcDbDictionary
280
     1
281
     1
  3
ACAD_XREC_ROUNDTRIP
360
1653
  0
DICTIONARY
  5
1654
330
3B
100
AcDbDictionary
280
     1
281
     1
  3
ACAD_XREC_ROUNDTRIP
360
1655
  0
DICTIONARY
  5
164A
330
36
100
AcDbDictionary
280
     1
281
     1
  3
ACAD_XREC_ROUNDTRIP
360
164B
  0
DICTIONARY
  5
163E
330
30
100
AcDbDictionary
280
     1
281
     1
  3
ACAD_XREC_ROUNDTRIP
360
163F
  0
DICTIONARY
  5
1656
330
3C
100
AcDbDictionary
280
     1
281
     1
  3
ACAD_XREC_ROUNDTRIP
360
1657
  0
XRECORD
  5
1666
102
{ACAD_REACTORS
330
1665
102
}
330
1665
100
AcDbXrecord
280
     1
102
SHADEPLOT
 70
     0
102
SHADEPLOTRESLEVEL
 70
     2
102
SHADEPLOTCUSTOMDPI
 70
   300
  0
XRECORD
  5
1664
102
{ACAD_REACTORS
330
1663
102
}
330
1663
100
AcDbXrecord
280
     1
102
SHADEPLOT
 70
     0
102
SHADEPLOTRESLEVEL
 70
     2
102
SHADEPLOTCUSTOMDPI
 70
   300
  0
XRECORD
  5
583
102
{ACAD_REACTORS
330
1A
102
}
330
1A
100
AcDbXrecord
280
     1
102
MATERIAL
148
0.0
149
0.0
149
0.0
 93
        0
 94
      127
282
     0
 72
     0
 77
     0
171
     0
175
     0
179
     0
273
     0
  0
XRECORD
  5
1C
102
{ACAD_REACTORS
330
1A
102
}
330
1A
100
AcDbXrecord
280
     1
270
     1
271
     1
  0
XRECORD
  5
1B
102
{ACAD_REACTORS
330
1A
102
}
330
1A
100
AcDbXrecord
280
     1
270
     1
271
     1
  0
XRECORD
  5
1F
102
{ACAD_REACTORS
330
1A
102
}
330
1A
100
AcDbXrecord
280
     1
270
     1
271
     1
  0
XRECORD
  5
1E
102
{ACAD_REACTORS
330
1A
102
}
330
1A
100
AcDbXrecord
280
     1
270
     1
271
     1
  0
XRECORD
  5
20
102
{ACAD_REACTORS
330
1A
102
}
330
1A
100
AcDbXrecord
280
     1
270
     1
271
     1
  0
XRECORD
  5
1D
102
{ACAD_REACTORS
330
1A
102
}
330
1A
100
AcDbXrecord
280
     1
270
     1
271
     1
  0
XRECORD
  5
582
102
{ACAD_REACTORS
330
12
102
}
330
12
100
AcDbXrecord
280
     1
102
MATERIAL
148
0.0
149
0.0
149
0.0
 93
        0
 94
      127
282
     0
 72
     0
 77
     0
171
     0
175
     0
179
     0
273
     0
  0
XRECORD
  5
14
102
{ACAD_REACTORS
330
12
102
}
330
12
100
AcDbXrecord
280
     1
270
     1
271
     1
  0
XRECORD
  5
13
102
{ACAD_REACTORS
330
12
102
}
330
12
100
AcDbXrecord
280
     1
270
     1
271
     1
  0
XRECORD
  5
17
102
{ACAD_REACTORS
330
12
102
}
330
12
100
AcDbXrecord
280
     1
270
     1
271
     1
  0
XRECORD
  5
16
102
{ACAD_REACTORS
330
12
102
}
330
12
100
AcDbXrecord
280
     1
270
     1
271
     1
  0
XRECORD
  5
18
102
{ACAD_REACTORS
330
12
102
}
330
12
100
AcDbXrecord
280
     1
270
     1
271
     1
  0
XRECORD
  5
15
102
{ACAD_REACTORS
330
12
102
}
330
12
100
AcDbXrecord
280
     1
270
     1
271
     1
  0
XRECORD
  5
584
102
{ACAD_REACTORS
330
22
102
}
330
22
100
AcDbXrecord
280
     1
102
MATERIAL
148
0.0
149
0.0
149
0.0
 93
        0
 94
      127
282
     0
 72
     0
 77
     0
171
     0
175
     0
179
     0
273
     0
  0
XRECORD
  5
24
102
{ACAD_REACTORS
330
22
102
}
330
22
100
AcDbXrecord
280
     1
270
     1
271
     1
  0
XRECORD
  5
23
102
{ACAD_REACTORS
330
22
102
}
330
22
100
AcDbXrecord
280
     1
270
     1
271
     1
  0
XRECORD
  5
27
102
{ACAD_REACTORS
330
22
102
}
330
22
100
AcDbXrecord
280
     1
270
     1
271
     1
  0
XRECORD
  5
26
102
{ACAD_REACTORS
330
22
102
}
330
22
100
AcDbXrecord
280
     1
270
     1
271
     1
  0
XRECORD
  5
28
102
{ACAD_REACTORS
330
22
102
}
330
22
100
AcDbXrecord
280
     1
270
     1
271
     1
  0
XRECORD
  5
25
102
{ACAD_REACTORS
330
22
102
}
330
22
100
AcDbXrecord
280
     1
270
     1
271
     1
  0
CELLSTYLEMAP
  5
162B
102
{ACAD_REACTORS
330
57A
102
}
330
57A
100
AcDbCellStyleMap
 90
        3
300
CELLSTYLE
  1
TABLEFORMAT_BEGIN
 90
        5
170
     1
 91
        0
 92
    32768
 62
   257
 93
        1
300
CONTENTFORMAT
  1
CONTENTFORMAT_BEGIN
 90
        0
 91
        0
 92
      512
 93
        0
300

 40
0.0
140
1.0
 94
        5
 62
     0
340
55
144
0.25
309
CONTENTFORMAT_END
171
     1
301
MARGIN
  1
CELLMARGIN_BEGIN
 40
0.06
 40
0.06
 40
0.06
 40
0.06
 40
0.18
 40
0.18
309
CELLMARGIN_END
 94
        6
 95
        1
302
GRIDFORMAT
  1
GRIDFORMAT_BEGIN
 90
        0
 91
        1
 62
     0
 92
       -2
340
0
 93
        0
 40
0.045
309
GRIDFORMAT_END
 95
        2
302
GRIDFORMAT
  1
GRIDFORMAT_BEGIN
 90
        0
 91
        1
 62
     0
 92
       -2
340
0
 93
        0
 40
0.045
309
GRIDFORMAT_END
 95
        4
302
GRIDFORMAT
  1
GRIDFORMAT_BEGIN
 90
        0
 91
        1
 62
     0
 92
       -2
340
0
 93
        0
 40
0.045
309
GRIDFORMAT_END
 95
        8
302
GRIDFORMAT
  1
GRIDFORMAT_BEGIN
 90
        0
 91
        1
 62
     0
 92
       -2
340
0
 93
        0
 40
0.045
309
GRIDFORMAT_END
 95
       16
302
GRIDFORMAT
  1
GRIDFORMAT_BEGIN
 90
        0
 91
        1
 62
     0
 92
       -2
340
0
 93
        0
 40
0.045
309
GRIDFORMAT_END
 95
       32
302
GRIDFORMAT
  1
GRIDFORMAT_BEGIN
 90
        0
 91
        1
 62
     0
 92
       -2
340
0
 93
        0
 40
0.045
309
GRIDFORMAT_END
309
TABLEFORMAT_END
  1
CELLSTYLE_BEGIN
 90
        1
 91
        1
300
_TITLE
309
CELLSTYLE_END
300
CELLSTYLE
  1
TABLEFORMAT_BEGIN
 90
        5
170
     1
 91
        0
 92
        0
 62
   257
 93
        1
300
CONTENTFORMAT
  1
CONTENTFORMAT_BEGIN
 90
        0
 91
        0
 92
      512
 93
        0
300

 40
0.0
140
1.0
 94
        5
 62
     0
340
55
144
0.18
309
CONTENTFORMAT_END
171
     1
301
MARGIN
  1
CELLMARGIN_BEGIN
 40
0.06
 40
0.06
 40
0.06
 40
0.06
 40
0.18
 40
0.18
309
CELLMARGIN_END
 94
        6
 95
        1
302
GRIDFORMAT
  1
GRIDFORMAT_BEGIN
 90
        0
 91
        1
 62
     0
 92
       -2
340
0
 93
        0
 40
0.045
309
GRIDFORMAT_END
 95
        2
302
GRIDFORMAT
  1
GRIDFORMAT_BEGIN
 90
        0
 91
        1
 62
     0
 92
       -2
340
0
 93
        0
 40
0.045
309
GRIDFORMAT_END
 95
        4
302
GRIDFORMAT
  1
GRIDFORMAT_BEGIN
 90
        0
 91
        1
 62
     0
 92
       -2
340
0
 93
        0
 40
0.045
309
GRIDFORMAT_END
 95
        8
302
GRIDFORMAT
  1
GRIDFORMAT_BEGIN
 90
        0
 91
        1
 62
     0
 92
       -2
340
0
 93
        0
 40
0.045
309
GRIDFORMAT_END
 95
       16
302
GRIDFORMAT
  1
GRIDFORMAT_BEGIN
 90
        0
 91
        1
 62
     0
 92
       -2
340
0
 93
        0
 40
0.045
309
GRIDFORMAT_END
 95
       32
302
GRIDFORMAT
  1
GRIDFORMAT_BEGIN
 90
        0
 91
        1
 62
     0
 92
       -2
340
0
 93
        0
 40
0.045
309
GRIDFORMAT_END
309
TABLEFORMAT_END
  1
CELLSTYLE_BEGIN
 90
        2
 91
        1
300
_HEADER
309
CELLSTYLE_END
300
CELLSTYLE
  1
TABLEFORMAT_BEGIN
 90
        5
170
     1
 91
        0
 92
        0
 62
   257
 93
        1
300
CONTENTFORMAT
  1
CONTENTFORMAT_BEGIN
 90
        0
 91
        0
 92
      512
 93
        0
300

 40
0.0
140
1.0
 94
        2
 62
     0
340
55
144
0.18
309
CONTENTFORMAT_END
171
     1
301
MARGIN
  1
CELLMARGIN_BEGIN
 40
0.06
 40
0.06
 40
0.06
 40
0.06
 40
0.18
 40
0.18
309
CELLMARGIN_END
 94
        6
 95
        1
302
GRIDFORMAT
  1
GRIDFORMAT_BEGIN
 90
        0
 91
        1
 62
     0
 92
       -2
340
0
 93
        0
 40
0.045
309
GRIDFORMAT_END
 95
        2
302
GRIDFORMAT
  1
GRIDFORMAT_BEGIN
 90
        0
 91
        1
 62
     0
 92
       -2
340
0
 93
        0
 40
0.045
309
GRIDFORMAT_END
 95
        4
302
GRIDFORMAT
  1
GRIDFORMAT_BEGIN
 90
        0
 91
        1
 62
     0
 92
       -2
340
0
 93
        0
 40
0.045
309
GRIDFORMAT_END
 95
        8
302
GRIDFORMAT
  1
GRIDFORMAT_BEGIN
 90
        0
 91
        1
 62
     0
 92
       -2
340
0
 93
        0
 40
0.045
309
GRIDFORMAT_END
 95
       16
302
GRIDFORMAT
  1
GRIDFORMAT_BEGIN
 90
        0
 91
        1
 62
     0
 92
       -2
340
0
 93
        0
 40
0.045
309
GRIDFORMAT_END
 95
       32
302
GRIDFORMAT
  1
GRIDFORMAT_BEGIN
 90
        0
 91
        1
 62
     0
 92
       -2
340
0
 93
        0
 40
0.045
309
GRIDFORMAT_END
309
TABLEFORMAT_END
  1
CELLSTYLE_BEGIN
 90
        3
 91
        2
300
_DATA
309
CELLSTYLE_END
  0
XRECORD
  5
1662
102
{ACAD_REACTORS
330
57A
102
}
330
57A
100
AcDbXrecord
280
     1
102
ACAD_ROUNDTRIP_PRE2007_TABLESTYLE
 90
      512
 91
        0
  1

 92
      512
 93
        0
  2

 94
      512
 95
        0
  3

  0
XRECORD
  5
163D
102
{ACAD_REACTORS
330
163C
102
}
330
163C
100
AcDbXrecord
280
     1
102
RTVSPropertyOp0
 70
     1
102
RTVSPropertyOp1
 70
     1
102
RTVSPropertyOp2
 70
     1
102
RTVSPropertyOp3
 70
     1
102
RTVSPropertyOp4
 70
     1
102
RTVSPropertyOp5
 70
     1
102
RTVSPropertyOp6
 70
     1
102
RTVSPropertyOp7
 70
     1
102
RTVSPropertyOp8
 70
     1
102
RTVSPropertyOp9
 70
     1
102
RTVSPropertyOp10
 70
     1
102
RTVSPropertyOp11
 70
     1
102
RTVSPropertyOp12
 70
     1
102
RTVSPropertyOp13
 70
     1
102
RTVSPropertyOp14
 70
     1
102
RTVSPropertyOp15
 70
     1
102
RTVSPropertyOp16
 70
     1
102
RTVSPropertyOp17
 70
     1
102
RTVSPropertyOp18
 70
     1
102
RTVSPropertyOp19
 70
     1
102
RTVSPropertyOp20
 70
     1
102
RTVSPropertyOp21
 70
     1
102
RTVSPropertyOp22
 70
     1
102
RTVSPropertyOp23
 70
     1
102
RTVSPropertyOp24
 70
     1
102
RTVSPropertyOp25
 70
     1
102
RTVSPropertyOp26
 70
     1
102
RTVSPropertyOp27
 70
     1
102
RTVSPropertyOp28
 70
     1
102
RTVSPropertyOp29
 70
     1
102
RTVSPropertyOp30
 70
     1
102
RTVSPropertyOp31
 70
     1
102
RTVSPropertyOp32
 70
     1
  0
XRECORD
  5
1668
102
{ACAD_REACTORS
330
1667
102
}
330
1667
100
AcDbXrecord
280
     1
102
RTVSPropertyOp0
 70
     1
102
RTVSPropertyOp1
 70
     1
102
RTVSPropertyOp2
 70
     1
102
RTVSPropertyOp3
 70
     1
102
RTVSPropertyOp4
 70
     1
102
RTVSPropertyOp5
 70
     1
102
RTVSPropertyOp6
 70
     1
102
RTVSPropertyOp7
 70
     1
102
RTVSPropertyOp8
 70
     1
102
RTVSPropertyOp9
 70
     1
102
RTVSPropertyOp10
 70
     1
102
RTVSPropertyOp11
 70
     1
102
RTVSPropertyOp12
 70
     1
102
RTVSPropertyOp13
 70
     1
102
RTVSPropertyOp14
 70
     1
102
RTVSPropertyOp15
 70
     1
102
RTVSPropertyOp16
 70
     1
102
RTVSPropertyOp17
 70
     1
102
RTVSPropertyOp18
 70
     1
102
RTVSPropertyOp19
 70
     1
102
RTVSPropertyOp20
 70
     1
102
RTVSPropertyOp21
 70
     1
102
RTVSPropertyOp22
 70
     1
102
RTVSPropertyOp23
 70
     1
102
RTVSPropertyOp24
 70
     1
102
RTVSPropertyOp25
 70
     1
102
RTVSPropertyOp26
 70
     1
102
RTVSPropertyOp27
 70
     1
102
RTVSPropertyOp28
 70
     1
102
RTVSPropertyOp29
 70
     1
102
RTVSPropertyOp30
 70
     1
102
RTVSPropertyOp31
 70
     1
102
RTVSPropertyOp32
 70
     1
  0
XRECORD
  5
163B
102
{ACAD_REACTORS
330
163A
102
}
330
163A
100
AcDbXrecord
280
     1
102
RTVSPropertyOp0
 70
     1
102
RTVSPropertyOp1
 70
     1
102
RTVSPropertyOp2
 70
     1
102
RTVSPropertyOp3
 70
     1
102
RTVSPropertyOp4
 70
     1
102
RTVSPropertyOp5
 70
     1
102
RTVSPropertyOp6
 70
     1
102
RTVSPropertyOp7
 70
     1
102
RTVSPropertyOp8
 70
     1
102
RTVSPropertyOp9
 70
     1
102
RTVSPropertyOp10
 70
     1
102
RTVSPropertyOp11
 70
     1
102
RTVSPropertyOp12
 70
     1
102
RTVSPropertyOp13
 70
     1
102
RTVSPropertyOp14
 70
     1
102
RTVSPropertyOp15
 70
     1
102
RTVSPropertyOp16
 70
     1
102
RTVSPropertyOp17
 70
     1
102
RTVSPropertyOp18
 70
     1
102
RTVSPropertyOp19
 70
     1
102
RTVSPropertyOp20
 70
     1
102
RTVSPropertyOp21
 70
     1
102
RTVSPropertyOp22
 70
     1
102
RTVSPropertyOp23
 70
     1
102
RTVSPropertyOp24
 70
     1
102
RTVSPropertyOp25
 70
     1
102
RTVSPropertyOp26
 70
     1
102
RTVSPropertyOp27
 70
     1
102
RTVSPropertyOp28
 70
     1
102
RTVSPropertyOp29
 70
     1
102
RTVSPropertyOp30
 70
     1
102
RTVSPropertyOp31
 70
     1
102
RTVSPropertyOp32
 70
     1
  0
XRECORD
  5
1649
102
{ACAD_REACTORS
330
1648
102
}
330
1648
100
AcDbXrecord
280
     1
102
RTVSPropertyOp0
 70
     1
102
RTVSPropertyOp1
 70
     1
102
RTVSPropertyOp2
 70
     1
102
RTVSPropertyOp3
 70
     1
102
RTVSPropertyOp4
 70
     1
102
RTVSPropertyOp5
 70
     1
102
RTVSPropertyOp6
 70
     1
102
RTVSPropertyOp7
 70
     1
102
RTVSPropertyOp8
 70
     1
102
RTVSPropertyOp9
 70
     1
102
RTVSPropertyOp10
 70
     1
102
RTVSPropertyOp11
 70
     1
102
RTVSPropertyOp12
 70
     1
102
RTVSPropertyOp13
 70
     1
102
RTVSPropertyOp14
 70
     1
102
RTVSPropertyOp15
 70
     1
102
RTVSPropertyOp16
 70
     1
102
RTVSPropertyOp17
 70
     1
102
RTVSPropertyOp18
 70
     1
102
RTVSPropertyOp19
 70
     1
102
RTVSPropertyOp20
 70
     1
102
RTVSPropertyOp21
 70
     1
102
RTVSPropertyOp22
 70
     1
102
RTVSPropertyOp23
 70
     1
102
RTVSPropertyOp24
 70
     1
102
RTVSPropertyOp25
 70
     1
102
RTVSPropertyOp26
 70
     1
102
RTVSPropertyOp27
 70
     1
102
RTVSPropertyOp28
 70
     1
102
RTVSPropertyOp29
 70
     1
102
RTVSPropertyOp30
 70
     1
102
RTVSPropertyOp31
 70
     1
102
RTVSPropertyOp32
 70
     1
  0
XRECORD
  5
1651
102
{ACAD_REACTORS
330
1650
102
}
330
1650
100
AcDbXrecord
280
     1
102
RTVSPropertyOp0
 70
     1
102
RTVSPropertyOp1
 70
     1
102
RTVSPropertyOp2
 70
     1
102
RTVSPropertyOp3
 70
     1
102
RTVSPropertyOp4
 70
     1
102
RTVSPropertyOp5
 70
     1
102
RTVSPropertyOp6
 70
     1
102
RTVSPropertyOp7
 70
     1
102
RTVSPropertyOp8
 70
     1
102
RTVSPropertyOp9
 70
     1
102
RTVSPropertyOp10
 70
     1
102
RTVSPropertyOp11
 70
     1
102
RTVSPropertyOp12
 70
     1
102
RTVSPropertyOp13
 70
     1
102
RTVSPropertyOp14
 70
     1
102
RTVSPropertyOp15
 70
     1
102
RTVSPropertyOp16
 70
     1
102
RTVSPropertyOp17
 70
     1
102
RTVSPropertyOp18
 70
     1
102
RTVSPropertyOp19
 70
     1
102
RTVSPropertyOp20
 70
     1
102
RTVSPropertyOp21
 70
     1
102
RTVSPropertyOp22
 70
     1
102
RTVSPropertyOp23
 70
     1
102
RTVSPropertyOp24
 70
     1
102
RTVSPropertyOp25
 70
     1
102
RTVSPropertyOp26
 70
     1
102
RTVSPropertyOp27
 70
     1
102
RTVSPropertyOp28
 70
     1
102
RTVSPropertyOp29
 70
     1
102
RTVSPropertyOp30
 70
     1
102
RTVSPropertyOp31
 70
     1
102
RTVSPropertyOp32
 70
     1
  0
XRECORD
  5
1643
102
{ACAD_REACTORS
330
1642
102
}
330
1642
100
AcDbXrecord
280
     1
102
RTVSPropertyOp0
 70
     1
102
RTVSPropertyOp1
 70
     1
102
RTVSPropertyOp2
 70
     1
102
RTVSPropertyOp3
 70
     1
102
RTVSPropertyOp4
 70
     1
102
RTVSPropertyOp5
 70
     1
102
RTVSPropertyOp6
 70
     1
102
RTVSPropertyOp7
 70
     1
102
RTVSPropertyOp8
 70
     1
102
RTVSPropertyOp9
 70
     1
102
RTVSPropertyOp10
 70
     1
102
RTVSPropertyOp11
 70
     1
102
RTVSPropertyOp12
 70
     1
102
RTVSPropertyOp13
 70
     1
102
RTVSPropertyOp14
 70
     1
102
RTVSPropertyOp15
 70
     1
102
RTVSPropertyOp16
 70
     1
102
RTVSPropertyOp17
 70
     1
102
RTVSPropertyOp18
 70
     1
102
RTVSPropertyOp19
 70
     1
102
RTVSPropertyOp20
 70
     1
102
RTVSPropertyOp21
 70
     1
102
RTVSPropertyOp22
 70
     1
102
RTVSPropertyOp23
 70
     1
102
RTVSPropertyOp24
 70
     1
102
RTVSPropertyOp25
 70
     1
102
RTVSPropertyOp26
 70
     1
102
RTVSPropertyOp27
 70
     1
102
RTVSPropertyOp28
 70
     1
102
RTVSPropertyOp29
 70
     1
102
RTVSPropertyOp30
 70
     1
102
RTVSPropertyOp31
 70
     1
102
RTVSPropertyOp32
 70
     1
  0
XRECORD
  5
1647
102
{ACAD_REACTORS
330
1646
102
}
330
1646
100
AcDbXrecord
280
     1
102
RTVSPropertyOp0
 70
     1
102
RTVSPropertyOp1
 70
     1
102
RTVSPropertyOp2
 70
     1
102
RTVSPropertyOp3
 70
     1
102
RTVSPropertyOp4
 70
     1
102
RTVSPropertyOp5
 70
     1
102
RTVSPropertyOp6
 70
     1
102
RTVSPropertyOp7
 70
     1
102
RTVSPropertyOp8
 70
     1
102
RTVSPropertyOp9
 70
     1
102
RTVSPropertyOp10
 70
     1
102
RTVSPropertyOp11
 70
     1
102
RTVSPropertyOp12
 70
     1
102
RTVSPropertyOp13
 70
     1
102
RTVSPropertyOp14
 70
     1
102
RTVSPropertyOp15
 70
     1
102
RTVSPropertyOp16
 70
     1
102
RTVSPropertyOp17
 70
     1
102
RTVSPropertyOp18
 70
     1
102
RTVSPropertyOp19
 70
     1
102
RTVSPropertyOp20
 70
     1
102
RTVSPropertyOp21
 70
     1
102
RTVSPropertyOp22
 70
     1
102
RTVSPropertyOp23
 70
     1
102
RTVSPropertyOp24
 70
     1
102
RTVSPropertyOp25
 70
     1
102
RTVSPropertyOp26
 70
     1
102
RTVSPropertyOp27
 70
     1
102
RTVSPropertyOp28
 70
     1
102
RTVSPropertyOp29
 70
     1
102
RTVSPropertyOp30
 70
     1
102
RTVSPropertyOp31
 70
     1
102
RTVSPropertyOp32
 70
     1
  0
XRECORD
  5
1661
102
{ACAD_REACTORS
330
1660
102
}
330
1660
100
AcDbXrecord
280
     1
102
RTVSPropertyOp0
 70
     0
102
RTVSPropertyOp1
 70
     0
102
RTVSPropertyOp2
 70
     0
102
RTVSPropertyOp3
 70
     0
102
RTVSPropertyOp4
 70
     0
102
RTVSPropertyOp5
 70
     0
102
RTVSPropertyOp6
 70
     0
102
RTVSPropertyOp7
 70
     0
102
RTVSPropertyOp8
 70
     0
102
RTVSPropertyOp9
 70
     0
102
RTVSPropertyOp10
 70
     0
102
RTVSPropertyOp11
 70
     0
102
RTVSPropertyOp12
 70
     0
102
RTVSPropertyOp13
 70
     0
102
RTVSPropertyOp14
 70
     2
102
RTVSPropertyOp15
 70
     0
102
RTVSPropertyOp16
 70
     0
102
RTVSPropertyOp17
 70
     0
102
RTVSPropertyOp18
 70
     0
102
RTVSPropertyOp19
 70
     0
102
RTVSPropertyOp20
 70
     0
102
RTVSPropertyOp21
 70
     0
102
RTVSPropertyOp22
 70
     0
102
RTVSPropertyOp23
 70
     0
102
RTVSPropertyOp24
 70
     0
102
RTVSPropertyOp25
 70
     0
102
RTVSPropertyOp26
 70
     0
102
RTVSPropertyOp27
 70
     0
102
RTVSPropertyOp28
 70
     0
102
RTVSPropertyOp29
 70
     0
102
RTVSPropertyOp30
 70
     0
102
RTVSPropertyOp31
 70
     0
102
RTVSPropertyOp32
 70
     0
  0
XRECORD
  5
164F
102
{ACAD_REACTORS
330
164E
102
}
330
164E
100
AcDbXrecord
280
     1
102
RTVSPropertyOp0
 70
     1
102
RTVSPropertyOp1
 70
     1
102
RTVSPropertyOp2
 70
     1
102
RTVSPropertyOp3
 70
     1
102
RTVSPropertyOp4
 70
     1
102
RTVSPropertyOp5
 70
     1
102
RTVSPropertyOp6
 70
     1
102
RTVSPropertyOp7
 70
     1
102
RTVSPropertyOp8
 70
     1
102
RTVSPropertyOp9
 70
     1
102
RTVSPropertyOp10
 70
     1
102
RTVSPropertyOp11
 70
     1
102
RTVSPropertyOp12
 70
     1
102
RTVSPropertyOp13
 70
     1
102
RTVSPropertyOp14
 70
     1
102
RTVSPropertyOp15
 70
     1
102
RTVSPropertyOp16
 70
     1
102
RTVSPropertyOp17
 70
     1
102
RTVSPropertyOp18
 70
     1
102
RTVSPropertyOp19
 70
     1
102
RTVSPropertyOp20
 70
     1
102
RTVSPropertyOp21
 70
     1
102
RTVSPropertyOp22
 70
     1
102
RTVSPropertyOp23
 70
     1
102
RTVSPropertyOp24
 70
     1
102
RTVSPropertyOp25
 70
     1
102
RTVSPropertyOp26
 70
     1
102
RTVSPropertyOp27
 70
     1
102
RTVSPropertyOp28
 70
     1
102
RTVSPropertyOp29
 70
     1
102
RTVSPropertyOp30
 70
     1
102
RTVSPropertyOp31
 70
     1
102
RTVSPropertyOp32
 70
     1
  0
XRECORD
  5
1633
102
{ACAD_REACTORS
330
1632
102
}
330
1632
100
AcDbXrecord
280
     1
102
RTVSPropertyOp0
 70
     1
102
RTVSPropertyOp1
 70
     1
102
RTVSPropertyOp2
 70
     1
102
RTVSPropertyOp3
 70
     1
102
RTVSPropertyOp4
 70
     1
102
RTVSPropertyOp5
 70
     1
102
RTVSPropertyOp6
 70
     1
102
RTVSPropertyOp7
 70
     1
102
RTVSPropertyOp8
 70
     1
102
RTVSPropertyOp9
 70
     1
102
RTVSPropertyOp10
 70
     1
102
RTVSPropertyOp11
 70
     1
102
RTVSPropertyOp12
 70
     1
102
RTVSPropertyOp13
 70
     1
102
RTVSPropertyOp14
 70
     1
102
RTVSPropertyOp15
 70
     1
102
RTVSPropertyOp16
 70
     1
102
RTVSPropertyOp17
 70
     1
102
RTVSPropertyOp18
 70
     1
102
RTVSPropertyOp19
 70
     1
102
RTVSPropertyOp20
 70
     1
102
RTVSPropertyOp21
 70
     1
102
RTVSPropertyOp22
 70
     1
102
RTVSPropertyOp23
 70
     1
102
RTVSPropertyOp24
 70
     1
102
RTVSPropertyOp25
 70
     1
102
RTVSPropertyOp26
 70
     1
102
RTVSPropertyOp27
 70
     1
102
RTVSPropertyOp28
 70
     1
102
RTVSPropertyOp29
 70
     1
102
RTVSPropertyOp30
 70
     1
102
RTVSPropertyOp31
 70
     1
102
RTVSPropertyOp32
 70
     1
  0
XRECORD
  5
1635
102
{ACAD_REACTORS
330
1634
102
}
330
1634
100
AcDbXrecord
280
     1
102
RTVSPropertyOp0
 70
     1
102
RTVSPropertyOp1
 70
     1
102
RTVSPropertyOp2
 70
     1
102
RTVSPropertyOp3
 70
     1
102
RTVSPropertyOp4
 70
     1
102
RTVSPropertyOp5
 70
     1
102
RTVSPropertyOp6
 70
     1
102
RTVSPropertyOp7
 70
     1
102
RTVSPropertyOp8
 70
     1
102
RTVSPropertyOp9
 70
     1
102
RTVSPropertyOp10
 70
     1
102
RTVSPropertyOp11
 70
     1
102
RTVSPropertyOp12
 70
     1
102
RTVSPropertyOp13
 70
     1
102
RTVSPropertyOp14
 70
     1
102
RTVSPropertyOp15
 70
     1
102
RTVSPropertyOp16
 70
     1
102
RTVSPropertyOp17
 70
     1
102
RTVSPropertyOp18
 70
     1
102
RTVSPropertyOp19
 70
     1
102
RTVSPropertyOp20
 70
     1
102
RTVSPropertyOp21
 70
     1
102
RTVSPropertyOp22
 70
     1
102
RTVSPropertyOp23
 70
     1
102
RTVSPropertyOp24
 70
     1
102
RTVSPropertyOp25
 70
     1
102
RTVSPropertyOp26
 70
     1
102
RTVSPropertyOp27
 70
     1
102
RTVSPropertyOp28
 70
     1
102
RTVSPropertyOp29
 70
     1
102
RTVSPropertyOp30
 70
     1
102
RTVSPropertyOp31
 70
     1
102
RTVSPropertyOp32
 70
     1
  0
XRECORD
  5
1637
102
{ACAD_REACTORS
330
1636
102
}
330
1636
100
AcDbXrecord
280
     1
102
RTVSPropertyOp0
 70
     1
102
RTVSPropertyOp1
 70
     1
102
RTVSPropertyOp2
 70
     1
102
RTVSPropertyOp3
 70
     1
102
RTVSPropertyOp4
 70
     1
102
RTVSPropertyOp5
 70
     1
102
RTVSPropertyOp6
 70
     1
102
RTVSPropertyOp7
 70
     1
102
RTVSPropertyOp8
 70
     1
102
RTVSPropertyOp9
 70
     1
102
RTVSPropertyOp10
 70
     1
102
RTVSPropertyOp11
 70
     1
102
RTVSPropertyOp12
 70
     1
102
RTVSPropertyOp13
 70
     1
102
RTVSPropertyOp14
 70
     1
102
RTVSPropertyOp15
 70
     1
102
RTVSPropertyOp16
 70
     1
102
RTVSPropertyOp17
 70
     1
102
RTVSPropertyOp18
 70
     1
102
RTVSPropertyOp19
 70
     1
102
RTVSPropertyOp20
 70
     1
102
RTVSPropertyOp21
 70
     1
102
RTVSPropertyOp22
 70
     1
102
RTVSPropertyOp23
 70
     1
102
RTVSPropertyOp24
 70
     1
102
RTVSPropertyOp25
 70
     1
102
RTVSPropertyOp26
 70
     1
102
RTVSPropertyOp27
 70
     1
102
RTVSPropertyOp28
 70
     1
102
RTVSPropertyOp29
 70
     1
102
RTVSPropertyOp30
 70
     1
102
RTVSPropertyOp31
 70
     1
102
RTVSPropertyOp32
 70
     1
  0
XRECORD
  5
1639
102
{ACAD_REACTORS
330
1638
102
}
330
1638
100
AcDbXrecord
280
     1
102
RTVSPropertyOp0
 70
     1
102
RTVSPropertyOp1
 70
     1
102
RTVSPropertyOp2
 70
     1
102
RTVSPropertyOp3
 70
     1
102
RTVSPropertyOp4
 70
     1
102
RTVSPropertyOp5
 70
     1
102
RTVSPropertyOp6
 70
     1
102
RTVSPropertyOp7
 70
     1
102
RTVSPropertyOp8
 70
     1
102
RTVSPropertyOp9
 70
     1
102
RTVSPropertyOp10
 70
     1
102
RTVSPropertyOp11
 70
     1
102
RTVSPropertyOp12
 70
     1
102
RTVSPropertyOp13
 70
     1
102
RTVSPropertyOp14
 70
     1
102
RTVSPropertyOp15
 70
     1
102
RTVSPropertyOp16
 70
     1
102
RTVSPropertyOp17
 70
     1
102
RTVSPropertyOp18
 70
     1
102
RTVSPropertyOp19
 70
     1
102
RTVSPropertyOp20
 70
     1
102
RTVSPropertyOp21
 70
     1
102
RTVSPropertyOp22
 70
     1
102
RTVSPropertyOp23
 70
     1
102
RTVSPropertyOp24
 70
     1
102
RTVSPropertyOp25
 70
     1
102
RTVSPropertyOp26
 70
     1
102
RTVSPropertyOp27
 70
     1
102
RTVSPropertyOp28
 70
     1
102
RTVSPropertyOp29
 70
     1
102
RTVSPropertyOp30
 70
     1
102
RTVSPropertyOp31
 70
     1
102
RTVSPropertyOp32
 70
     1
  0
XRECORD
  5
1641
102
{ACAD_REACTORS
330
1640
102
}
330
1640
100
AcDbXrecord
280
     1
102
RTVSPropertyOp0
 70
     1
102
RTVSPropertyOp1
 70
     1
102
RTVSPropertyOp2
 70
     1
102
RTVSPropertyOp3
 70
     1
102
RTVSPropertyOp4
 70
     1
102
RTVSPropertyOp5
 70
     1
102
RTVSPropertyOp6
 70
     1
102
RTVSPropertyOp7
 70
     1
102
RTVSPropertyOp8
 70
     1
102
RTVSPropertyOp9
 70
     1
102
RTVSPropertyOp10
 70
     1
102
RTVSPropertyOp11
 70
     1
102
RTVSPropertyOp12
 70
     1
102
RTVSPropertyOp13
 70
     1
102
RTVSPropertyOp14
 70
     1
102
RTVSPropertyOp15
 70
     1
102
RTVSPropertyOp16
 70
     1
102
RTVSPropertyOp17
 70
     1
102
RTVSPropertyOp18
 70
     1
102
RTVSPropertyOp19
 70
     1
102
RTVSPropertyOp20
 70
     1
102
RTVSPropertyOp21
 70
     1
102
RTVSPropertyOp22
 70
     1
102
RTVSPropertyOp23
 70
     1
102
RTVSPropertyOp24
 70
     1
102
RTVSPropertyOp25
 70
     1
102
RTVSPropertyOp26
 70
     1
102
RTVSPropertyOp27
 70
     1
102
RTVSPropertyOp28
 70
     1
102
RTVSPropertyOp29
 70
     1
102
RTVSPropertyOp30
 70
     1
102
RTVSPropertyOp31
 70
     1
102
RTVSPropertyOp32
 70
     1
  0
XRECORD
  5
165D
102
{ACAD_REACTORS
330
165C
102
}
330
165C
100
AcDbXrecord
280
     1
102
RTVSPropertyOp0
 70
     0
102
RTVSPropertyOp1
 70
     0
102
RTVSPropertyOp2
 70
     0
102
RTVSPropertyOp3
 70
     0
102
RTVSPropertyOp4
 70
     0
102
RTVSPropertyOp5
 70
     0
102
RTVSPropertyOp6
 70
     0
102
RTVSPropertyOp7
 70
     0
102
RTVSPropertyOp8
 70
     0
102
RTVSPropertyOp9
 70
     0
102
RTVSPropertyOp10
 70
     0
102
RTVSPropertyOp11
 70
     0
102
RTVSPropertyOp12
 70
     0
102
RTVSPropertyOp13
 70
     0
102
RTVSPropertyOp14
 70
     2
102
RTVSPropertyOp15
 70
     0
102
RTVSPropertyOp16
 70
     0
102
RTVSPropertyOp17
 70
     0
102
RTVSPropertyOp18
 70
     0
102
RTVSPropertyOp19
 70
     0
102
RTVSPropertyOp20
 70
     0
102
RTVSPropertyOp21
 70
     0
102
RTVSPropertyOp22
 70
     0
102
RTVSPropertyOp23
 70
     0
102
RTVSPropertyOp24
 70
     0
102
RTVSPropertyOp25
 70
     0
102
RTVSPropertyOp26
 70
     0
102
RTVSPropertyOp27
 70
     0
102
RTVSPropertyOp28
 70
     0
102
RTVSPropertyOp29
 70
     0
102
RTVSPropertyOp30
 70
     0
102
RTVSPropertyOp31
 70
     0
102
RTVSPropertyOp32
 70
     0
  0
XRECORD
  5
164D
102
{ACAD_REACTORS
330
164C
102
}
330
164C
100
AcDbXrecord
280
     1
102
RTVSPropertyOp0
 70
     1
102
RTVSPropertyOp1
 70
     1
102
RTVSPropertyOp2
 70
     1
102
RTVSPropertyOp3
 70
     1
102
RTVSPropertyOp4
 70
     1
102
RTVSPropertyOp5
 70
     1
102
RTVSPropertyOp6
 70
     1
102
RTVSPropertyOp7
 70
     1
102
RTVSPropertyOp8
 70
     1
102
RTVSPropertyOp9
 70
     1
102
RTVSPropertyOp10
 70
     1
102
RTVSPropertyOp11
 70
     1
102
RTVSPropertyOp12
 70
     1
102
RTVSPropertyOp13
 70
     1
102
RTVSPropertyOp14
 70
     1
102
RTVSPropertyOp15
 70
     1
102
RTVSPropertyOp16
 70
     1
102
RTVSPropertyOp17
 70
     1
102
RTVSPropertyOp18
 70
     1
102
RTVSPropertyOp19
 70
     1
102
RTVSPropertyOp20
 70
     1
102
RTVSPropertyOp21
 70
     1
102
RTVSPropertyOp22
 70
     1
102
RTVSPropertyOp23
 70
     1
102
RTVSPropertyOp24
 70
     1
102
RTVSPropertyOp25
 70
     1
102
RTVSPropertyOp26
 70
     1
102
RTVSPropertyOp27
 70
     1
102
RTVSPropertyOp28
 70
     1
102
RTVSPropertyOp29
 70
     1
102
RTVSPropertyOp30
 70
     1
102
RTVSPropertyOp31
 70
     1
102
RTVSPropertyOp32
 70
     1
  0
XRECORD
  5
165F
102
{ACAD_REACTORS
330
165E
102
}
330
165E
100
AcDbXrecord
280
     1
102
RTVSPropertyOp0
 70
     0
102
RTVSPropertyOp1
 70
     0
102
RTVSPropertyOp2
 70
     0
102
RTVSPropertyOp3
 70
     0
102
RTVSPropertyOp4
 70
     0
102
RTVSPropertyOp5
 70
     0
102
RTVSPropertyOp6
 70
     0
102
RTVSPropertyOp7
 70
     0
102
RTVSPropertyOp8
 70
     0
102
RTVSPropertyOp9
 70
     0
102
RTVSPropertyOp10
 70
     0
102
RTVSPropertyOp11
 70
     0
102
RTVSPropertyOp12
 70
     0
102
RTVSPropertyOp13
 70
     0
102
RTVSPropertyOp14
 70
     2
102
RTVSPropertyOp15
 70
     0
102
RTVSPropertyOp16
 70
     0
102
RTVSPropertyOp17
 70
     0
102
RTVSPropertyOp18
 70
     0
102
RTVSPropertyOp19
 70
     0
102
RTVSPropertyOp20
 70
     0
102
RTVSPropertyOp21
 70
     0
102
RTVSPropertyOp22
 70
     0
102
RTVSPropertyOp23
 70
     0
102
RTVSPropertyOp24
 70
     0
102
RTVSPropertyOp25
 70
     0
102
RTVSPropertyOp26
 70
     0
102
RTVSPropertyOp27
 70
     0
102
RTVSPropertyOp28
 70
     0
102
RTVSPropertyOp29
 70
     0
102
RTVSPropertyOp30
 70
     0
102
RTVSPropertyOp31
 70
     0
102
RTVSPropertyOp32
 70
     0
  0
XRECORD
  5
1645
102
{ACAD_REACTORS
330
1644
102
}
330
1644
100
AcDbXrecord
280
     1
102
RTVSPropertyOp0
 70
     1
102
RTVSPropertyOp1
 70
     1
102
RTVSPropertyOp2
 70
     1
102
RTVSPropertyOp3
 70
     1
102
RTVSPropertyOp4
 70
     1
102
RTVSPropertyOp5
 70
     1
102
RTVSPropertyOp6
 70
     1
102
RTVSPropertyOp7
 70
     1
102
RTVSPropertyOp8
 70
     1
102
RTVSPropertyOp9
 70
     1
102
RTVSPropertyOp10
 70
     1
102
RTVSPropertyOp11
 70
     1
102
RTVSPropertyOp12
 70
     1
102
RTVSPropertyOp13
 70
     1
102
RTVSPropertyOp14
 70
     1
102
RTVSPropertyOp15
 70
     1
102
RTVSPropertyOp16
 70
     1
102
RTVSPropertyOp17
 70
     1
102
RTVSPropertyOp18
 70
     1
102
RTVSPropertyOp19
 70
     1
102
RTVSPropertyOp20
 70
     1
102
RTVSPropertyOp21
 70
     1
102
RTVSPropertyOp22
 70
     1
102
RTVSPropertyOp23
 70
     1
102
RTVSPropertyOp24
 70
     1
102
RTVSPropertyOp25
 70
     1
102
RTVSPropertyOp26
 70
     1
102
RTVSPropertyOp27
 70
     1
102
RTVSPropertyOp28
 70
     1
102
RTVSPropertyOp29
 70
     1
102
RTVSPropertyOp30
 70
     1
102
RTVSPropertyOp31
 70
     1
102
RTVSPropertyOp32
 70
     1
  0
XRECORD
  5
165B
102
{ACAD_REACTORS
330
165A
102
}
330
165A
100
AcDbXrecord
280
     1
102
RTVSPropertyOp0
 70
     1
102
RTVSPropertyOp1
 70
     1
102
RTVSPropertyOp2
 70
     1
102
RTVSPropertyOp3
 70
     1
102
RTVSPropertyOp4
 70
     1
102
RTVSPropertyOp5
 70
     1
102
RTVSPropertyOp6
 70
     1
102
RTVSPropertyOp7
 70
     1
102
RTVSPropertyOp8
 70
     1
102
RTVSPropertyOp9
 70
     1
102
RTVSPropertyOp10
 70
     1
102
RTVSPropertyOp11
 70
     1
102
RTVSPropertyOp12
 70
     1
102
RTVSPropertyOp13
 70
     1
102
RTVSPropertyOp14
 70
     1
102
RTVSPropertyOp15
 70
     1
102
RTVSPropertyOp16
 70
     1
102
RTVSPropertyOp17
 70
     1
102
RTVSPropertyOp18
 70
     1
102
RTVSPropertyOp19
 70
     1
102
RTVSPropertyOp20
 70
     1
102
RTVSPropertyOp21
 70
     1
102
RTVSPropertyOp22
 70
     1
102
RTVSPropertyOp23
 70
     1
102
RTVSPropertyOp24
 70
     1
102
RTVSPropertyOp25
 70
     1
102
RTVSPropertyOp26
 70
     1
102
RTVSPropertyOp27
 70
     1
102
RTVSPropertyOp28
 70
     1
102
RTVSPropertyOp29
 70
     1
102
RTVSPropertyOp30
 70
     1
102
RTVSPropertyOp31
 70
     1
102
RTVSPropertyOp32
 70
     1
  0
XRECORD
  5
1659
102
{ACAD_REACTORS
330
1658
102
}
330
1658
100
AcDbXrecord
280
     1
102
RTVSPropertyOp0
 70
     1
102
RTVSPropertyOp1
 70
     1
102
RTVSPropertyOp2
 70
     1
102
RTVSPropertyOp3
 70
     1
102
RTVSPropertyOp4
 70
     1
102
RTVSPropertyOp5
 70
     1
102
RTVSPropertyOp6
 70
     1
102
RTVSPropertyOp7
 70
     1
102
RTVSPropertyOp8
 70
     1
102
RTVSPropertyOp9
 70
     1
102
RTVSPropertyOp10
 70
     1
102
RTVSPropertyOp11
 70
     1
102
RTVSPropertyOp12
 70
     1
102
RTVSPropertyOp13
 70
     1
102
RTVSPropertyOp14
 70
     1
102
RTVSPropertyOp15
 70
     1
102
RTVSPropertyOp16
 70
     1
102
RTVSPropertyOp17
 70
     1
102
RTVSPropertyOp18
 70
     1
102
RTVSPropertyOp19
 70
     1
102
RTVSPropertyOp20
 70
     1
102
RTVSPropertyOp21
 70
     1
102
RTVSPropertyOp22
 70
     1
102
RTVSPropertyOp23
 70
     1
102
RTVSPropertyOp24
 70
     1
102
RTVSPropertyOp25
 70
     1
102
RTVSPropertyOp26
 70
     1
102
RTVSPropertyOp27
 70
     1
102
RTVSPropertyOp28
 70
     1
102
RTVSPropertyOp29
 70
     1
102
RTVSPropertyOp30
 70
     1
102
RTVSPropertyOp31
 70
     1
102
RTVSPropertyOp32
 70
     1
  0
XRECORD
  5
1653
102
{ACAD_REACTORS
330
1652
102
}
330
1652
100
AcDbXrecord
280
     1
102
RTVSPropertyOp0
 70
     1
102
RTVSPropertyOp1
 70
     1
102
RTVSPropertyOp2
 70
     1
102
RTVSPropertyOp3
 70
     1
102
RTVSPropertyOp4
 70
     1
102
RTVSPropertyOp5
 70
     1
102
RTVSPropertyOp6
 70
     1
102
RTVSPropertyOp7
 70
     1
102
RTVSPropertyOp8
 70
     1
102
RTVSPropertyOp9
 70
     1
102
RTVSPropertyOp10
 70
     1
102
RTVSPropertyOp11
 70
     1
102
RTVSPropertyOp12
 70
     1
102
RTVSPropertyOp13
 70
     1
102
RTVSPropertyOp14
 70
     1
102
RTVSPropertyOp15
 70
     1
102
RTVSPropertyOp16
 70
     1
102
RTVSPropertyOp17
 70
     1
102
RTVSPropertyOp18
 70
     1
102
RTVSPropertyOp19
 70
     1
102
RTVSPropertyOp20
 70
     1
102
RTVSPropertyOp21
 70
     1
102
RTVSPropertyOp22
 70
     1
102
RTVSPropertyOp23
 70
     1
102
RTVSPropertyOp24
 70
     1
102
RTVSPropertyOp25
 70
     1
102
RTVSPropertyOp26
 70
     1
102
RTVSPropertyOp27
 70
     1
102
RTVSPropertyOp28
 70
     1
102
RTVSPropertyOp29
 70
     1
102
RTVSPropertyOp30
 70
     1
102
RTVSPropertyOp31
 70
     1
102
RTVSPropertyOp32
 70
     1
  0
XRECORD
  5
1655
102
{ACAD_REACTORS
330
1654
102
}
330
1654
100
AcDbXrecord
280
     1
102
RTVSPropertyOp0
 70
     1
102
RTVSPropertyOp1
 70
     1
102
RTVSPropertyOp2
 70
     1
102
RTVSPropertyOp3
 70
     1
102
RTVSPropertyOp4
 70
     1
102
RTVSPropertyOp5
 70
     1
102
RTVSPropertyOp6
 70
     1
102
RTVSPropertyOp7
 70
     1
102
RTVSPropertyOp8
 70
     1
102
RTVSPropertyOp9
 70
     1
102
RTVSPropertyOp10
 70
     1
102
RTVSPropertyOp11
 70
     1
102
RTVSPropertyOp12
 70
     1
102
RTVSPropertyOp13
 70
     1
102
RTVSPropertyOp14
 70
     1
102
RTVSPropertyOp15
 70
     1
102
RTVSPropertyOp16
 70
     1
102
RTVSPropertyOp17
 70
     1
102
RTVSPropertyOp18
 70
     1
102
RTVSPropertyOp19
 70
     1
102
RTVSPropertyOp20
 70
     1
102
RTVSPropertyOp21
 70
     1
102
RTVSPropertyOp22
 70
     1
102
RTVSPropertyOp23
 70
     1
102
RTVSPropertyOp24
 70
     1
102
RTVSPropertyOp25
 70
     1
102
RTVSPropertyOp26
 70
     1
102
RTVSPropertyOp27
 70
     1
102
RTVSPropertyOp28
 70
     1
102
RTVSPropertyOp29
 70
     1
102
RTVSPropertyOp30
 70
     1
102
RTVSPropertyOp31
 70
     1
102
RTVSPropertyOp32
 70
     1
  0
XRECORD
  5
164B
102
{ACAD_REACTORS
330
164A
102
}
330
164A
100
AcDbXrecord
280
     1
102
RTVSPropertyOp0
 70
     1
102
RTVSPropertyOp1
 70
     1
102
RTVSPropertyOp2
 70
     1
102
RTVSPropertyOp3
 70
     1
102
RTVSPropertyOp4
 70
     1
102
RTVSPropertyOp5
 70
     1
102
RTVSPropertyOp6
 70
     1
102
RTVSPropertyOp7
 70
     1
102
RTVSPropertyOp8
 70
     1
102
RTVSPropertyOp9
 70
     1
102
RTVSPropertyOp10
 70
     1
102
RTVSPropertyOp11
 70
     1
102
RTVSPropertyOp12
 70
     1
102
RTVSPropertyOp13
 70
     1
102
RTVSPropertyOp14
 70
     1
102
RTVSPropertyOp15
 70
     1
102
RTVSPropertyOp16
 70
     1
102
RTVSPropertyOp17
 70
     1
102
RTVSPropertyOp18
 70
     1
102
RTVSPropertyOp19
 70
     1
102
RTVSPropertyOp20
 70
     1
102
RTVSPropertyOp21
 70
     1
102
RTVSPropertyOp22
 70
     1
102
RTVSPropertyOp23
 70
     1
102
RTVSPropertyOp24
 70
     1
102
RTVSPropertyOp25
 70
     1
102
RTVSPropertyOp26
 70
     1
102
RTVSPropertyOp27
 70
     1
102
RTVSPropertyOp28
 70
     1
102
RTVSPropertyOp29
 70
     1
102
RTVSPropertyOp30
 70
     1
102
RTVSPropertyOp31
 70
     1
102
RTVSPropertyOp32
 70
     1
  0
XRECORD
  5
163F
102
{ACAD_REACTORS
330
163E
102
}
330
163E
100
AcDbXrecord
280
     1
102
RTVSPropertyOp0
 70
     1
102
RTVSPropertyOp1
 70
     1
102
RTVSPropertyOp2
 70
     1
102
RTVSPropertyOp3
 70
     1
102
RTVSPropertyOp4
 70
     1
102
RTVSPropertyOp5
 70
     1
102
RTVSPropertyOp6
 70
     1
102
RTVSPropertyOp7
 70
     1
102
RTVSPropertyOp8
 70
     1
102
RTVSPropertyOp9
 70
     1
102
RTVSPropertyOp10
 70
     1
102
RTVSPropertyOp11
 70
     1
102
RTVSPropertyOp12
 70
     1
102
RTVSPropertyOp13
 70
     1
102
RTVSPropertyOp14
 70
     1
102
RTVSPropertyOp15
 70
     1
102
RTVSPropertyOp16
 70
     1
102
RTVSPropertyOp17
 70
     1
102
RTVSPropertyOp18
 70
     1
102
RTVSPropertyOp19
 70
     1
102
RTVSPropertyOp20
 70
     1
102
RTVSPropertyOp21
 70
     1
102
RTVSPropertyOp22
 70
     1
102
RTVSPropertyOp23
 70
     1
102
RTVSPropertyOp24
 70
     1
102
RTVSPropertyOp25
 70
     1
102
RTVSPropertyOp26
 70
     1
102
RTVSPropertyOp27
 70
     1
102
RTVSPropertyOp28
 70
     1
102
RTVSPropertyOp29
 70
     1
102
RTVSPropertyOp30
 70
     1
102
RTVSPropertyOp31
 70
     1
102
RTVSPropertyOp32
 70
     1
  0
XRECORD
  5
1657
102
{ACAD_REACTORS
330
1656
102
}
330
1656
100
AcDbXrecord
280
     1
102
RTVSPropertyOp0
 70
     1
102
RTVSPropertyOp1
 70
     1
102
RTVSPropertyOp2
 70
     1
102
RTVSPropertyOp3
 70
     1
102
RTVSPropertyOp4
 70
     1
102
RTVSPropertyOp5
 70
     1
102
RTVSPropertyOp6
 70
     1
102
RTVSPropertyOp7
 70
     1
102
RTVSPropertyOp8
 70
     1
102
RTVSPropertyOp9
 70
     1
102
RTVSPropertyOp10
 70
     1
102
RTVSPropertyOp11
 70
     1
102
RTVSPropertyOp12
 70
     1
102
RTVSPropertyOp13
 70
     1
102
RTVSPropertyOp14
 70
     1
102
RTVSPropertyOp15
 70
     1
102
RTVSPropertyOp16
 70
     1
102
RTVSPropertyOp17
 70
     1
102
RTVSPropertyOp18
 70
     1
102
RTVSPropertyOp19
 70
     1
102
RTVSPropertyOp20
 70
     1
102
RTVSPropertyOp21
 70
     1
102
RTVSPropertyOp22
 70
     1
102
RTVSPropertyOp23
 70
     1
102
RTVSPropertyOp24
 70
     1
102
RTVSPropertyOp25
 70
     1
102
RTVSPropertyOp26
 70
     1
102
RTVSPropertyOp27
 70
     1
102
RTVSPropertyOp28
 70
     1
102
RTVSPropertyOp29
 70
     1
102
RTVSPropertyOp30
 70
     1
102
RTVSPropertyOp31
 70
     1
102
RTVSPropertyOp32
 70
     1
  0
ENDSEC
  0
EOF
