  0
SECTION
  2
HEADER
  9
$ACADVER
  1
AC1015
  9
$ACADMAINTVER
 70
    20
  9
$DWGCODEPAGE
  3
ANSI_932
  9
$INSBASE
 10
0.0
 20
0.0
 30
0.0
  9
$EXTMIN
 10
5.318935999999998
 20
-457.9647709999998
 30
0.0
  9
$EXTMAX
 10
410.318936
 20
-183.90941
 30
0.0
  9
$LIMMIN
 10
5.317936
 20
-457.965783
  9
$LIMMAX
 10
410.3457879999998
 20
-183.908409
  9
$ORTHOMODE
 70
     1
  9
$REGENMODE
 70
     1
  9
$FILLMODE
 70
     1
  9
$QTEXTMODE
 70
     0
  9
$MIRRTEXT
 70
     0
  9
$LTSCALE
 40
6.750430999999997
  9
$ATTMODE
 70
     1
  9
$TEXTSIZE
 40
3.2
  9
$TRACEWID
 40
0.05
  9
$TEXTSTYLE
  7
高3.2
  9
$CLAYER
  8
0
  9
$CELTYPE
  6
CONTINUOUS
  9
$CECOLOR
 62
   256
  9
$CELTSCALE
 40
1.0
  9
$DISPSILH
 70
     0
  9
$DIMSCALE
 40
1.0
  9
$DIMASZ
 40
2.5
  9
$DIMEXO
 40
0.25
  9
$DIMDLI
 40
0.2
  9
$DIMRND
 40
0.0
  9
$DIMDLE
 40
0.0
  9
$DIMEXE
 40
1.25
  9
$DIMTP
 40
0.0
  9
$DIMTM
 40
0.0
  9
$DIMTXT
 40
3.0
  9
$DIMCEN
 40
0.0
  9
$DIMTSZ
 40
0.0
  9
$DIMTOL
 70
     0
  9
$DIMLIM
 70
     0
  9
$DIMTIH
 70
     0
  9
$DIMTOH
 70
     0
  9
$DIMSE1
 70
     0
  9
$DIMSE2
 70
     0
  9
$DIMTAD
 70
     3
  9
$DIMZIN
 70
     8
  9
$DIMBLK
  1
Open30
  9
$DIMASO
 70
     1
  9
$DIMSHO
 70
     1
  9
$DIMPOST
  1

  9
$DIMAPOST
  1

  9
$DIMALT
 70
     0
  9
$DIMALTD
 70
     3
  9
$DIMALTF
 40
0.03937007874016
  9
$DIMLFAC
 40
2.0
  9
$DIMTOFL
 70
     1
  9
$DIMTVP
 40
0.0
  9
$DIMTIX
 70
     0
  9
$DIMSOXD
 70
     0
  9
$DIMSAH
 70
     0
  9
$DIMBLK1
  1

  9
$DIMBLK2
  1

  9
$DIMSTYLE
  2
1／2
  9
$DIMCLRD
 70
     0
  9
$DIMCLRE
 70
     0
  9
$DIMCLRT
 70
     4
  9
$DIMTFAC
 40
1.0
  9
$DIMGAP
 40
0.625
  9
$DIMJUST
 70
     0
  9
$DIMSD1
 70
     0
  9
$DIMSD2
 70
     0
  9
$DIMTOLJ
 70
     0
  9
$DIMTZIN
 70
     8
  9
$DIMALTZ
 70
     0
  9
$DIMALTTZ
 70
     0
  9
$DIMUPT
 70
     1
  9
$DIMDEC
 70
     2
  9
$DIMTDEC
 70
     2
  9
$DIMALTU
 70
     2
  9
$DIMALTTD
 70
     3
  9
$DIMTXSTY
  7
STANDARD
  9
$DIMAUNIT
 70
     0
  9
$DIMADEC
 70
     1
  9
$DIMALTRND
 40
0.0
  9
$DIMAZIN
 70
     2
  9
$DIMDSEP
 70
    46
  9
$DIMATFIT
 70
     0
  9
$DIMFRAC
 70
     0
  9
$DIMLDRBLK
  1
Open30
  9
$DIMLUNIT
 70
     2
  9
$DIMLWD
 70
    -2
  9
$DIMLWE
 70
    -2
  9
$DIMTMOVE
 70
     0
  9
$LUNITS
 70
     2
  9
$LUPREC
 70
     4
  9
$SKETCHINC
 40
0.1
  9
$FILLETRAD
 40
0.0
  9
$AUNITS
 70
     0
  9
$AUPREC
 70
     0
  9
$MENU
  1
.
  9
$ELEVATION
 40
0.0
  9
$PELEVATION
 40
0.0
  9
$THICKNESS
 40
0.0
  9
$LIMCHECK
 70
     0
  9
$CHAMFERA
 40
0.0
  9
$CHAMFERB
 40
0.0
  9
$CHAMFERC
 40
0.0
  9
$CHAMFERD
 40
0.0
  9
$SKPOLY
 70
     0
  9
$TDCREATE
 40
2456214.620833657
  9
$TDUCREATE
 40
2456214.245833657
  9
$TDUPDATE
 40
2458393.577180834
  9
$TDUUPDATE
 40
2458393.202180834
  9
$TDINDWG
 40
0.0688938426
  9
$TDUSRTIMER
 40
0.0688936574
  9
$USRTIMER
 70
     1
  9
$ANGBASE
 50
0.0
  9
$ANGDIR
 70
     0
  9
$PDMODE
 70
     0
  9
$PDSIZE
 40
0.0
  9
$PLINEWID
 40
0.0
  9
$SPLFRAME
 70
     0
  9
$SPLINETYPE
 70
     6
  9
$SPLINESEGS
 70
     8
  9
$HANDSEED
  5
150C
  9
$SURFTAB1
 70
     6
  9
$SURFTAB2
 70
     6
  9
$SURFTYPE
 70
     6
  9
$SURFU
 70
     6
  9
$SURFV
 70
     6
  9
$UCSBASE
  2

  9
$UCSNAME
  2

  9
$UCSORG
 10
0.0
 20
0.0
 30
0.0
  9
$UCSXDIR
 10
1.0
 20
0.0
 30
0.0
  9
$UCSYDIR
 10
0.0
 20
1.0
 30
0.0
  9
$UCSORTHOREF
  2

  9
$UCSORTHOVIEW
 70
     0
  9
$UCSORGTOP
 10
0.0
 20
0.0
 30
0.0
  9
$UCSORGBOTTOM
 10
0.0
 20
0.0
 30
0.0
  9
$UCSORGLEFT
 10
0.0
 20
0.0
 30
0.0
  9
$UCSORGRIGHT
 10
0.0
 20
0.0
 30
0.0
  9
$UCSORGFRONT
 10
0.0
 20
0.0
 30
0.0
  9
$UCSORGBACK
 10
0.0
 20
0.0
 30
0.0
  9
$PUCSBASE
  2

  9
$PUCSNAME
  2

  9
$PUCSORG
 10
0.0
 20
0.0
 30
0.0
  9
$PUCSXDIR
 10
1.0
 20
0.0
 30
0.0
  9
$PUCSYDIR
 10
0.0
 20
1.0
 30
0.0
  9
$PUCSORTHOREF
  2

  9
$PUCSORTHOVIEW
 70
     0
  9
$PUCSORGTOP
 10
0.0
 20
0.0
 30
0.0
  9
$PUCSORGBOTTOM
 10
0.0
 20
0.0
 30
0.0
  9
$PUCSORGLEFT
 10
0.0
 20
0.0
 30
0.0
  9
$PUCSORGRIGHT
 10
0.0
 20
0.0
 30
0.0
  9
$PUCSORGFRONT
 10
0.0
 20
0.0
 30
0.0
  9
$PUCSORGBACK
 10
0.0
 20
0.0
 30
0.0
  9
$USERI1
 70
     0
  9
$USERI2
 70
     0
  9
$USERI3
 70
     0
  9
$USERI4
 70
     0
  9
$USERI5
 70
     0
  9
$USERR1
 40
0.0
  9
$USERR2
 40
0.0
  9
$USERR3
 40
0.0
  9
$USERR4
 40
0.0
  9
$USERR5
 40
0.0
  9
$WORLDVIEW
 70
     1
  9
$SHADEDGE
 70
     3
  9
$SHADEDIF
 70
    70
  9
$TILEMODE
 70
     1
  9
$MAXACTVP
 70
    64
  9
$PINSBASE
 10
0.0
 20
0.0
 30
0.0
  9
$PLIMCHECK
 70
     0
  9
$PEXTMIN
 10
1.000000000000000E+20
 20
1.000000000000000E+20
 30
1.000000000000000E+20
  9
$PEXTMAX
 10
-1.000000000000000E+20
 20
-1.000000000000000E+20
 30
-1.000000000000000E+20
  9
$PLIMMIN
 10
0.0
 20
0.0
  9
$PLIMMAX
 10
12.0
 20
9.0
  9
$UNITMODE
 70
     0
  9
$VISRETAIN
 70
     1
  9
$PLINEGEN
 70
     0
  9
$PSLTSCALE
 70
     1
  9
$TREEDEPTH
 70
  3020
  9
$CMLSTYLE
  2
Standard
  9
$CMLJUST
 70
     0
  9
$CMLSCALE
 40
1.0
  9
$PROXYGRAPHICS
 70
     1
  9
$MEASUREMENT
 70
     0
  9
$CELWEIGHT
370
    -1
  9
$ENDCAPS
280
     0
  9
$JOINSTYLE
280
     0
  9
$LWDISPLAY
290
     0
  9
$INSUNITS
 70
     0
  9
$HYPERLINKBASE
  1

  9
$STYLESHEET
  1

  9
$XEDIT
290
     1
  9
$CEPSNTYPE
380
     0
  9
$PSTYLEMODE
290
     1
  9
$FINGERPRINTGUID
  2
{A41FC6B1-58AD-402A-BBF6-96C765587209}
  9
$VERSIONGUID
  2
{93200ABE-2F05-44F5-B99B-4834CAF1DFAF}
  9
$EXTNAMES
290
     1
  9
$PSVPSCALE
 40
0.0
  9
$OLESTARTUP
290
     0
  0
ENDSEC
  0
SECTION
  2
CLASSES
  0
CLASS
  1
ACDBDICTIONARYWDFLT
  2
AcDbDictionaryWithDefault
  3
ObjectDBX Classes
 90
        0
280
     0
281
     0
  0
CLASS
  1
MATERIAL
  2
AcDbMaterial
  3
ObjectDBX Classes
 90
     1153
280
     0
281
     0
  0
CLASS
  1
VISUALSTYLE
  2
AcDbVisualStyle
  3
ObjectDBX Classes
 90
     4095
280
     0
281
     0
  0
CLASS
  1
SCALE
  2
AcDbScale
  3
ObjectDBX Classes
 90
     1153
280
     0
281
     0
  0
CLASS
  1
TABLESTYLE
  2
AcDbTableStyle
  3
ObjectDBX Classes
 90
     4095
280
     0
281
     0
  0
CLASS
  1
MLEADERSTYLE
  2
AcDbMLeaderStyle
  3
ACDB_MLEADERSTYLE_CLASS
 90
     4095
280
     0
281
     0
  0
CLASS
  1
SORTENTSTABLE
  2
AcDbSortentsTable
  3
ObjectDBX Classes
 90
        0
280
     0
281
     0
  0
CLASS
  1
DICTIONARYVAR
  2
AcDbDictionaryVar
  3
ObjectDBX Classes
 90
        0
280
     0
281
     0
  0
CLASS
  1
CELLSTYLEMAP
  2
AcDbCellStyleMap
  3
ObjectDBX Classes
 90
     1152
280
     0
281
     0
  0
CLASS
  1
ACDBPLACEHOLDER
  2
AcDbPlaceHolder
  3
ObjectDBX Classes
 90
        0
280
     0
281
     0
  0
CLASS
  1
LAYOUT
  2
AcDbLayout
  3
ObjectDBX Classes
 90
        0
280
     0
281
     0
  0
CLASS
  1
AEC_REFEDIT_STATUS_TRACKER
  2
AecDbRefEditStatusTracker
  3
AecArchBase60|Product Desc: Autodesk Architectural Desktop 2007 |Company: Autodesk,Inc. |WEB Address: www.autodesk.com
 90
      129
280
     0
281
     0
  0
CLASS
  1
NPOCOLLECTION
  2
AcDbImpNonPersistentObjectsCollection
  3
ObjectDBX Classes
 90
     1153
280
     0
281
     0
  0
ENDSEC
  0
SECTION
  2
TABLES
  0
TABLE
  2
VPORT
  5
8
330
0
100
AcDbSymbolTable
 70
     1
  0
VPORT
  5
8B
330
8
100
AcDbSymbolTableRecord
100
AcDbViewportTableRecord
  2
*Active
 70
     0
 10
0.0
 20
0.0
 11
1.0
 21
1.0
 12
261.1455297295972
 22
-311.2695748947925
 13
0.0
 23
0.0
 14
1.0
 24
1.0
 15
0.0
 25
0.0
 16
0.0
 26
0.0
 36
1.0
 17
0.0
 27
0.0
 37
0.0
 40
714.2643153769044
 41
1.411504424778761
 42
50.0
 43
0.0
 44
0.0
 50
0.0
 51
0.0
 71
     0
 72
   100
 73
     1
 74
     1
 75
     0
 76
     0
 77
     0
 78
     0
281
     0
 65
     1
110
0.0
120
0.0
130
0.0
111
1.0
121
0.0
131
0.0
112
0.0
122
1.0
132
0.0
 79
     0
146
0.0
  0
ENDTAB
  0
TABLE
  2
LTYPE
  5
5
330
0
100
AcDbSymbolTable
 70
     2
  0
LTYPE
  5
5A
330
5
100
AcDbSymbolTableRecord
100
AcDbLinetypeTableRecord
  2
ByBlock
 70
     0
  3

 72
    65
 73
     0
 40
0.0
  0
LTYPE
  5
5B
330
5
100
AcDbSymbolTableRecord
100
AcDbLinetypeTableRecord
  2
ByLayer
 70
     0
  3

 72
    65
 73
     0
 40
0.0
  0
LTYPE
  5
5C
330
5
100
AcDbSymbolTableRecord
100
AcDbLinetypeTableRecord
  2
CONTINUOUS
 70
     0
  3
Solid-line
 72
    65
 73
     0
 40
0.0
  0
ENDTAB
  0
TABLE
  2
LAYER
  5
2
102
{ACAD_XDICTIONARY
360
3C7
102
}
330
0
100
AcDbSymbolTable
 70
     2
  0
LAYER
  5
54
102
{ACAD_XDICTIONARY
360
578
102
}
330
2
100
AcDbSymbolTableRecord
100
AcDbLayerTableRecord
  2
0
 70
     0
 62
     7
  6
CONTINUOUS
370
    -3
390
F
  0
LAYER
  5
3B2
330
2
100
AcDbSymbolTableRecord
100
AcDbLayerTableRecord
  2
Defpoints
 70
     0
 62
     7
  6
CONTINUOUS
290
     0
370
    -3
390
F
  0
ENDTAB
  0
TABLE
  2
STYLE
  5
3
330
0
100
AcDbSymbolTable
 70
     6
  0
STYLE
  5
55
330
3
100
AcDbSymbolTableRecord
100
AcDbTextStyleTableRecord
  2
STANDARD
 70
     0
 40
0.0
 41
1.0
 50
0.0
 71
     0
 42
0.2
  3
TXT
  4
BIGFONT
  0
STYLE
  5
3B3
330
3
100
AcDbSymbolTableRecord
100
AcDbTextStyleTableRecord
  2
高3.2
 70
     0
 40
3.2
 41
1.0
 50
0.0
 71
     0
 42
3.2
  3
txt.shx
  4
bigfont.shx
  0
STYLE
  5
3B4
330
3
100
AcDbSymbolTableRecord
100
AcDbTextStyleTableRecord
  2
高6.3
 70
     0
 40
6.299999999999998
 41
1.0
 50
0.0
 71
     0
 42
6.299999999999998
  3
txt.shx
  4
bigfont.shx
  0
STYLE
  5
3B5
330
3
100
AcDbSymbolTableRecord
100
AcDbTextStyleTableRecord
  2
高2.5
 70
     0
 40
2.5
 41
1.0
 50
0.0
 71
     0
 42
0.2
  3
txt.shx
  4
bigfont.shx
  0
STYLE
  5
3B6
330
3
100
AcDbSymbolTableRecord
100
AcDbTextStyleTableRecord
  2
高4.5
 70
     0
 40
4.5
 41
1.0
 50
0.0
 71
     0
 42
6.299999999999998
  3
txt.shx
  4
bigfont.shx
  0
STYLE
  5
3B7
330
3
100
AcDbSymbolTableRecord
100
AcDbTextStyleTableRecord
  2
高2
 70
     0
 40
2.0
 41
1.0
 50
0.0
 71
     0
 42
2.0
  3
txt.shx
  4
bigfont.shx
  0
ENDTAB
  0
TABLE
  2
VIEW
  5
6
330
0
100
AcDbSymbolTable
 70
     0
  0
ENDTAB
  0
TABLE
  2
UCS
  5
7
330
0
100
AcDbSymbolTable
 70
     0
  0
ENDTAB
  0
TABLE
  2
APPID
  5
9
330
0
100
AcDbSymbolTable
 70
    12
  0
APPID
  5
56
330
9
100
AcDbSymbolTableRecord
100
AcDbRegAppTableRecord
  2
ACAD
 70
     0
  0
APPID
  5
5D
330
9
100
AcDbSymbolTableRecord
100
AcDbRegAppTableRecord
  2
AcadAnnotative
 70
     0
  0
APPID
  5
3C2
330
9
100
AcDbSymbolTableRecord
100
AcDbRegAppTableRecord
  2
ACAD_DSTYLE_DIMJOGGED_JOGANGLE_SYMBOL
 70
     0
  0
APPID
  5
3C3
330
9
100
AcDbSymbolTableRecord
100
AcDbRegAppTableRecord
  2
ACAD_DSTYLE_DIMJAG
 70
     0
  0
APPID
  5
3C4
330
9
100
AcDbSymbolTableRecord
100
AcDbRegAppTableRecord
  2
ACAD_DSTYLE_DIMBREAK
 70
     0
  0
APPID
  5
3C5
330
9
100
AcDbSymbolTableRecord
100
AcDbRegAppTableRecord
  2
ACAD_DSTYLE_DIMTALN
 70
     0
  0
APPID
  5
507
330
9
100
AcDbSymbolTableRecord
100
AcDbRegAppTableRecord
  2
ACAD_EXEMPT_FROM_CAD_STANDARDS
 70
     0
  0
APPID
  5
57C
330
9
100
AcDbSymbolTableRecord
100
AcDbRegAppTableRecord
  2
ACAD_PSEXT
 70
     0
  0
APPID
  5
5C9
330
9
100
AcDbSymbolTableRecord
100
AcDbRegAppTableRecord
  2
ACAD_MLEADERVER
 70
     0
  0
APPID
  5
5CE
330
9
100
AcDbSymbolTableRecord
100
AcDbRegAppTableRecord
  2
ACAD_DSTYLE_DIMARC_LENGTH_SYMBOL
 70
     0
  0
APPID
  5
5CF
330
9
100
AcDbSymbolTableRecord
100
AcDbRegAppTableRecord
  2
ACAD_DSTYLE_DIMEXT_LENGTH
 70
     0
  0
APPID
  5
C26
330
9
100
AcDbSymbolTableRecord
100
AcDbRegAppTableRecord
  2
ACAD_DSTYLE_DIMRADIAL_EXTENSION
 70
     0
  0
ENDTAB
  0
TABLE
  2
DIMSTYLE
  5
A
330
0
100
AcDbSymbolTable
 70
    11
100
AcDbDimStyleTable
 71
     2
340
3BC
340
3C1
  0
DIMSTYLE
105
57
330
A
100
AcDbSymbolTableRecord
100
AcDbDimStyleTableRecord
  2
Standard
 70
     0
340
55
  0
DIMSTYLE
105
3B8
330
A
100
AcDbSymbolTableRecord
100
AcDbDimStyleTableRecord
  2
1：1
 70
     0
 41
2.5
 42
0.25
 43
0.2
 44
1.25
 73
     0
 74
     0
 77
     3
 78
     8
 79
     2
140
3.0
141
0.0
143
0.03937007874016
147
0.625
171
     3
172
     1
178
     4
179
     1
271
     2
272
     2
274
     3
283
     0
284
     8
288
     1
289
     0
340
55
341
322
342
322
1001
ACAD_DSTYLE_DIMARC_LENGTH_SYMBOL
1070
   379
1070
     2
1001
ACAD_DSTYLE_DIMEXT_LENGTH
1070
   378
1040
1.25
1001
ACAD_DSTYLE_DIMJOGGED_JOGANGLE_SYMBOL
1070
   384
1040
1.570796326794896
  0
DIMSTYLE
105
3B9
330
A
100
AcDbSymbolTableRecord
100
AcDbDimStyleTableRecord
  2
2：1
 70
     0
 41
2.5
 42
0.25
 43
0.2
 44
1.25
 73
     0
 74
     0
 77
     3
 78
     8
 79
     2
140
3.0
141
0.0
143
0.03937007874016
144
0.5
147
0.625
171
     3
172
     1
178
     4
179
     1
271
     2
272
     2
274
     3
283
     0
284
     8
288
     1
289
     0
340
55
341
322
342
322
1001
ACAD_DSTYLE_DIMARC_LENGTH_SYMBOL
1070
   379
1070
     2
1001
ACAD_DSTYLE_DIMEXT_LENGTH
1070
   378
1040
1.25
1001
ACAD_DSTYLE_DIMJOGGED_JOGANGLE_SYMBOL
1070
   384
1040
1.570796326794896
  0
DIMSTYLE
105
3BA
330
A
100
AcDbSymbolTableRecord
100
AcDbDimStyleTableRecord
  2
5：1
 70
     0
 41
2.5
 42
0.25
 43
0.2
 44
1.25
 73
     0
 74
     0
 77
     3
 78
     8
 79
     2
140
3.0
141
0.0
143
0.03937007874016
144
0.2
147
0.625
171
     3
172
     1
178
     4
179
     1
271
     2
272
     2
274
     3
283
     0
284
     8
288
     1
289
     0
340
55
341
322
342
322
1001
ACAD_DSTYLE_DIMARC_LENGTH_SYMBOL
1070
   379
1070
     2
1001
ACAD_DSTYLE_DIMEXT_LENGTH
1070
   378
1040
1.25
1001
ACAD_DSTYLE_DIMJOGGED_JOGANGLE_SYMBOL
1070
   384
1040
1.570796326794896
  0
DIMSTYLE
105
3BB
330
A
100
AcDbSymbolTableRecord
100
AcDbDimStyleTableRecord
  2
10：1
 70
     0
 41
2.5
 42
0.25
 43
0.2
 44
1.25
 73
     0
 74
     0
 77
     3
 78
     8
 79
     2
140
3.0
141
0.0
143
0.03937007874016
144
0.1
147
0.625
171
     3
172
     1
178
     4
179
     1
271
     2
272
     2
274
     3
283
     0
284
     8
288
     1
289
     0
340
55
341
322
342
322
1001
ACAD_DSTYLE_DIMARC_LENGTH_SYMBOL
1070
   379
1070
     2
1001
ACAD_DSTYLE_DIMEXT_LENGTH
1070
   378
1040
1.25
1001
ACAD_DSTYLE_DIMJOGGED_JOGANGLE_SYMBOL
1070
   384
1040
1.570796326794896
  0
DIMSTYLE
105
3BC
330
A
100
AcDbSymbolTableRecord
100
AcDbDimStyleTableRecord
  2
1／2
 70
     0
 41
2.5
 42
0.25
 43
0.2
 44
1.25
 73
     0
 74
     0
 77
     3
 78
     8
 79
     2
140
3.0
141
0.0
143
0.03937007874016
144
2.0
147
0.625
171
     3
172
     1
178
     4
179
     1
271
     2
272
     2
274
     3
283
     0
284
     8
288
     1
289
     0
340
55
341
322
342
322
1001
ACAD_DSTYLE_DIMARC_LENGTH_SYMBOL
1070
   379
1070
     2
1001
ACAD_DSTYLE_DIMEXT_LENGTH
1070
   378
1040
1.25
1001
ACAD_DSTYLE_DIMJOGGED_JOGANGLE_SYMBOL
1070
   384
1040
1.570796326794896
  0
DIMSTYLE
105
3BD
330
A
100
AcDbSymbolTableRecord
100
AcDbDimStyleTableRecord
  2
1／5
 70
     0
 41
2.5
 42
0.25
 43
0.2
 44
1.25
 73
     0
 74
     0
 77
     3
 78
     8
 79
     2
140
3.0
141
0.0
143
0.03937007874016
144
5.0
147
0.625
171
     3
172
     1
178
     4
179
     1
271
     2
272
     2
274
     3
283
     0
284
     8
288
     1
289
     0
340
55
341
322
342
322
1001
ACAD_DSTYLE_DIMARC_LENGTH_SYMBOL
1070
   379
1070
     2
1001
ACAD_DSTYLE_DIMEXT_LENGTH
1070
   378
1040
1.25
1001
ACAD_DSTYLE_DIMJOGGED_JOGANGLE_SYMBOL
1070
   384
1040
1.570796326794896
  0
DIMSTYLE
105
3BE
330
A
100
AcDbSymbolTableRecord
100
AcDbDimStyleTableRecord
  2
1／10
 70
     0
 41
2.5
 42
0.25
 43
0.2
 44
1.25
 73
     0
 74
     0
 77
     3
 78
     8
 79
     2
140
3.0
141
0.0
143
0.03937007874016
144
10.0
147
0.625
171
     3
172
     1
178
     4
179
     1
271
     2
272
     2
274
     3
283
     0
284
     8
288
     1
289
     0
340
55
341
322
342
322
1001
ACAD_DSTYLE_DIMARC_LENGTH_SYMBOL
1070
   379
1070
     2
1001
ACAD_DSTYLE_DIMEXT_LENGTH
1070
   378
1040
1.25
1001
ACAD_DSTYLE_DIMJOGGED_JOGANGLE_SYMBOL
1070
   384
1040
1.570796326794896
  0
DIMSTYLE
105
3BF
330
A
100
AcDbSymbolTableRecord
100
AcDbDimStyleTableRecord
  2
1／4
 70
     0
 41
2.5
 42
0.25
 43
0.2
 44
1.25
 73
     0
 74
     0
 77
     3
 78
     8
 79
     2
140
3.0
141
0.0
143
0.03937007874016
144
4.0
147
0.625
171
     3
172
     1
178
     4
179
     1
271
     2
272
     2
274
     3
283
     0
284
     8
288
     1
289
     0
340
55
341
322
342
322
1001
ACAD_DSTYLE_DIMARC_LENGTH_SYMBOL
1070
   379
1070
     2
1001
ACAD_DSTYLE_DIMEXT_LENGTH
1070
   378
1040
1.25
1001
ACAD_DSTYLE_DIMJOGGED_JOGANGLE_SYMBOL
1070
   384
1040
1.570796326794896
  0
DIMSTYLE
105
3C0
330
A
100
AcDbSymbolTableRecord
100
AcDbDimStyleTableRecord
  2
1／3
 70
     0
 41
2.5
 42
0.25
 43
0.2
 44
1.25
 73
     0
 74
     0
 77
     3
 78
     8
 79
     2
140
3.0
141
0.0
143
0.03937007874016
144
3.0
147
0.625
171
     3
172
     1
178
     4
179
     1
271
     2
272
     2
274
     3
283
     0
284
     8
288
     1
289
     0
340
55
341
322
342
322
1001
ACAD_DSTYLE_DIMARC_LENGTH_SYMBOL
1070
   379
1070
     2
1001
ACAD_DSTYLE_DIMEXT_LENGTH
1070
   378
1040
1.25
1001
ACAD_DSTYLE_DIMJOGGED_JOGANGLE_SYMBOL
1070
   384
1040
1.570796326794896
  0
DIMSTYLE
105
3C1
330
A
100
AcDbSymbolTableRecord
100
AcDbDimStyleTableRecord
  2
FREE
 70
     0
 41
2.5
 42
0.25
 43
0.2
 44
1.25
 73
     0
 74
     0
 77
     3
 78
     8
 79
     2
140
3.0
141
0.0
143
0.03937007874016
147
0.625
171
     3
172
     1
178
     4
179
     1
271
     2
272
     2
274
     3
283
     0
284
     8
288
     1
289
     0
340
55
341
322
342
322
1001
ACAD_DSTYLE_DIMBREAK
1070
   391
1040
3.75
1001
ACAD_DSTYLE_DIMJAG
1070
   388
1040
1.5
1001
ACAD_DSTYLE_DIMTALN
1070
   392
1070
     0
1001
ACAD_DSTYLE_DIMARC_LENGTH_SYMBOL
1070
   379
1070
     2
1001
ACAD_DSTYLE_DIMEXT_LENGTH
1070
   378
1040
1.25
1001
ACAD_DSTYLE_DIMJOGGED_JOGANGLE_SYMBOL
1070
   384
1040
1.570796326794896
  0
ENDTAB
  0
TABLE
  2
BLOCK_RECORD
  5
1
330
0
100
AcDbSymbolTable
 70
    17
  0
BLOCK_RECORD
  5
6B
102
{ACAD_XDICTIONARY
360
54C
102
}
330
1
100
AcDbSymbolTableRecord
100
AcDbBlockTableRecord
  2
*Model_Space
340
6E
  0
BLOCK_RECORD
  5
67
330
1
100
AcDbSymbolTableRecord
100
AcDbBlockTableRecord
  2
*Paper_Space
340
6A
  0
BLOCK_RECORD
  5
322
330
1
100
AcDbSymbolTableRecord
100
AcDbBlockTableRecord
  2
_Open30
340
0
102
{BLKREFS
331
123C
331
123D
331
1247
331
1248
331
1252
331
1253
331
125D
331
125E
331
1268
331
1269
331
1273
331
1274
331
127E
331
127F
331
1289
331
128A
331
1294
331
1295
331
129D
331
129E
331
13D6
331
13D7
331
13E1
331
13E2
331
13EA
331
13EB
331
13F3
331
13F4
331
13FC
331
13FD
331
1405
331
1406
102
}
  0
BLOCK_RECORD
  5
D05
330
1
100
AcDbSymbolTableRecord
100
AcDbBlockTableRecord
  2
*D1
340
0
  0
BLOCK_RECORD
  5
D1B
330
1
100
AcDbSymbolTableRecord
100
AcDbBlockTableRecord
  2
*D2
340
0
  0
BLOCK_RECORD
  5
D35
330
1
100
AcDbSymbolTableRecord
100
AcDbBlockTableRecord
  2
*D3
340
0
  0
BLOCK_RECORD
  5
D42
330
1
100
AcDbSymbolTableRecord
100
AcDbBlockTableRecord
  2
*D4
340
0
  0
BLOCK_RECORD
  5
D4F
330
1
100
AcDbSymbolTableRecord
100
AcDbBlockTableRecord
  2
*D5
340
0
  0
BLOCK_RECORD
  5
D91
330
1
100
AcDbSymbolTableRecord
100
AcDbBlockTableRecord
  2
*D6
340
0
  0
BLOCK_RECORD
  5
11AD
330
1
100
AcDbSymbolTableRecord
100
AcDbBlockTableRecord
  2
*D7
340
0
  0
BLOCK_RECORD
  5
11BB
330
1
100
AcDbSymbolTableRecord
100
AcDbBlockTableRecord
  2
*D8
340
0
  0
BLOCK_RECORD
  5
11C9
330
1
100
AcDbSymbolTableRecord
100
AcDbBlockTableRecord
  2
*D9
340
0
  0
BLOCK_RECORD
  5
11D7
330
1
100
AcDbSymbolTableRecord
100
AcDbBlockTableRecord
  2
*D10
340
0
  0
BLOCK_RECORD
  5
11E5
330
1
100
AcDbSymbolTableRecord
100
AcDbBlockTableRecord
  2
*D11
340
0
  0
BLOCK_RECORD
  5
11F3
330
1
100
AcDbSymbolTableRecord
100
AcDbBlockTableRecord
  2
*D12
340
0
  0
BLOCK_RECORD
  5
1201
330
1
100
AcDbSymbolTableRecord
100
AcDbBlockTableRecord
  2
*D13
340
0
  0
BLOCK_RECORD
  5
120F
330
1
100
AcDbSymbolTableRecord
100
AcDbBlockTableRecord
  2
*D14
340
0
  0
BLOCK_RECORD
  5
121D
330
1
100
AcDbSymbolTableRecord
100
AcDbBlockTableRecord
  2
*D15
340
0
  0
BLOCK_RECORD
  5
122B
330
1
100
AcDbSymbolTableRecord
100
AcDbBlockTableRecord
  2
*D16
340
0
  0
ENDTAB
  0
ENDSEC
  0
SECTION
  2
BLOCKS
  0
BLOCK
  5
6C
330
6B
100
AcDbEntity
  8
0
100
AcDbBlockBegin
  2
*Model_Space
 70
     0
 10
0.0
 20
0.0
 30
0.0
  3
*Model_Space
  1

  0
ENDBLK
  5
6D
330
6B
100
AcDbEntity
  8
0
100
AcDbBlockEnd
  0
BLOCK
  5
68
330
67
100
AcDbEntity
 67
     1
  8
0
100
AcDbBlockBegin
  2
*Paper_Space
 70
     0
 10
0.0
 20
0.0
 30
0.0
  3
*Paper_Space
  1

  0
ENDBLK
  5
69
330
67
100
AcDbEntity
 67
     1
  8
0
100
AcDbBlockEnd
  0
BLOCK
  5
323
330
322
100
AcDbEntity
  8
0
100
AcDbBlockBegin
  2
_Open30
 70
     0
 10
0.0
 20
0.0
 30
0.0
  3
_Open30
  1

  0
LINE
  5
324
330
322
100
AcDbEntity
  8
0
  6
ByBlock
 62
     0
370
    -2
100
AcDbLine
 10
-1.0
 20
0.267949
 30
0.0
 11
0.0
 21
0.0
 31
0.0
  0
LINE
  5
325
330
322
100
AcDbEntity
  8
0
  6
ByBlock
 62
     0
370
    -2
100
AcDbLine
 10
0.0
 20
0.0
 30
0.0
 11
-1.0
 21
-0.267949
 31
0.0
  0
LINE
  5
326
330
322
100
AcDbEntity
  8
0
  6
ByBlock
 62
     0
370
    -2
100
AcDbLine
 10
0.0
 20
0.0
 30
0.0
 11
-1.0
 21
0.0
 31
0.0
  0
ENDBLK
  5
327
330
322
100
AcDbEntity
  8
0
100
AcDbBlockEnd
  0
BLOCK
  5
D06
330
D05
100
AcDbEntity
  8
0
100
AcDbBlockBegin
  2
*D1
 70
     1
 10
0.0
 20
0.0
 30
0.0
  3
*D1
  1

  0
LINE
  5
13D3
330
D05
100
AcDbEntity
  8
0
  6
Continuous
 62
     0
370
    -2
100
AcDbLine
 10
164.4333576173865
 20
-314.4446291239833
 30
0.0
 11
184.2912114904811
 21
-314.4446291239833
 31
0.0
  0
LINE
  5
13D4
330
D05
100
AcDbEntity
  8
0
  6
Continuous
 62
     0
370
    -2
100
AcDbLine
 10
160.9333576173867
 20
-251.4446291239832
 30
0.0
 11
184.2912114904811
 21
-251.4446291239832
 31
0.0
  0
LINE
  5
13D5
330
D05
100
AcDbEntity
  8
0
  6
Continuous
 62
     0
370
    -2
100
AcDbLine
 10
183.0412114904811
 20
-311.9446291239833
 30
0.0
 11
183.0412114904811
 21
-253.9446291239832
 31
0.0
  0
INSERT
  5
13D6
330
D05
100
AcDbEntity
  8
0
  6
Continuous
 62
     0
370
    -2
100
AcDbBlockReference
  2
_Open30
 10
183.0412114904811
 20
-314.4446291239833
 30
0.0
 41
2.5
 42
2.5
 43
2.5
 50
270.0
  0
INSERT
  5
13D7
330
D05
100
AcDbEntity
  8
0
  6
Continuous
 62
     0
370
    -2
100
AcDbBlockReference
  2
_Open30
 10
183.0412114904811
 20
-251.4446291239832
 30
0.0
 41
2.5
 42
2.5
 43
2.5
 50
90.0
  0
MTEXT
  5
13D8
330
D05
100
AcDbEntity
  8
0
  6
Continuous
 62
     4
100
AcDbMText
 10
180.9162114904811
 20
-282.9446291239833
 30
0.0
 40
3.0
 41
0.0
 71
     5
 72
     1
  1
126
 11
0.0000000000000001
 21
1.0
 31
0.0
 73
     1
 44
1.0
1001
ACAD
1000
MTEXTBEGIN
1070
    73
1070
     1
1070
    44
1040
1.0
1070
    74
1070
     0
1000
MTEXTEND
  0
POINT
  5
13D9
330
D05
100
AcDbEntity
  8
Defpoints
  6
Continuous
 62
     0
100
AcDbPoint
 10
164.1833576173866
 20
-314.4446291239833
 30
0.0
  0
POINT
  5
13DA
330
D05
100
AcDbEntity
  8
Defpoints
  6
Continuous
 62
     0
100
AcDbPoint
 10
160.6833576173867
 20
-251.4446291239832
 30
0.0
  0
POINT
  5
13DB
330
D05
100
AcDbEntity
  8
Defpoints
  6
Continuous
 62
     0
100
AcDbPoint
 10
183.0412114904811
 20
-251.4446291239832
 30
0.0
  0
ENDBLK
  5
D07
330
D05
100
AcDbEntity
  8
0
100
AcDbBlockEnd
  0
BLOCK
  5
D1C
330
D1B
100
AcDbEntity
  8
0
100
AcDbBlockBegin
  2
*D2
 70
     1
 10
0.0
 20
0.0
 30
0.0
  3
*D2
  1

  0
LINE
  5
13DC
330
D1B
100
AcDbEntity
  8
0
  6
Continuous
 62
     0
370
    -2
100
AcDbLine
 10
152.9333576173866
 20
-315.9446291239833
 30
0.0
 11
184.2912114904811
 21
-315.9446291239833
 31
0.0
  0
LINE
  5
13DD
330
D1B
100
AcDbEntity
  8
0
  6
Continuous
 62
     0
370
    -2
100
AcDbLine
 10
164.4333576173865
 20
-314.4446291239833
 30
0.0
 11
184.2912114904811
 21
-314.4446291239833
 31
0.0
  0
LINE
  5
13DE
330
D1B
100
AcDbEntity
  8
0
  6
Continuous
 62
     0
370
    -2
100
AcDbLine
 10
183.0412114904811
 20
-311.9446291239833
 30
0.0
 11
183.0412114904811
 21
-309.4446291239833
 31
0.0
  0
LINE
  5
13DF
330
D1B
100
AcDbEntity
  8
0
  6
Continuous
 62
     0
370
    -2
100
AcDbLine
 10
183.0412114904811
 20
-318.4446291239833
 30
0.0
 11
183.041211490481
 21
-324.1946291239833
 31
0.0
  0
LINE
  5
13E0
330
D1B
100
AcDbEntity
  8
0
  6
Continuous
 62
     0
370
    -2
100
AcDbLine
 10
183.0412114904811
 20
-314.4446291239833
 30
0.0
 11
183.0412114904811
 21
-315.9446291239833
 31
0.0
  0
INSERT
  5
13E1
330
D1B
100
AcDbEntity
  8
0
  6
Continuous
 62
     0
370
    -2
100
AcDbBlockReference
  2
_Open30
 10
183.0412114904811
 20
-314.4446291239833
 30
0.0
 41
2.5
 42
2.5
 43
2.5
 50
270.0
  0
INSERT
  5
13E2
330
D1B
100
AcDbEntity
  8
0
  6
Continuous
 62
     0
370
    -2
100
AcDbBlockReference
  2
_Open30
 10
183.0412114904811
 20
-315.9446291239833
 30
0.0
 41
2.5
 42
2.5
 43
2.5
 50
90.0
  0
MTEXT
  5
13E3
330
D1B
100
AcDbEntity
  8
0
  6
Continuous
 62
     4
100
AcDbMText
 10
180.9162114904811
 20
-322.5696291239832
 30
0.0
 40
3.0
 41
0.0
 71
     5
 72
     1
  1
3
 11
0.0000000000000001
 21
1.0
 31
0.0
 73
     1
 44
1.0
1001
ACAD
1000
MTEXTBEGIN
1070
    73
1070
     1
1070
    44
1040
1.0
1070
    74
1070
     0
1000
MTEXTEND
  0
POINT
  5
13E4
330
D1B
100
AcDbEntity
  8
Defpoints
  6
Continuous
 62
     0
100
AcDbPoint
 10
152.6833576173866
 20
-315.9446291239833
 30
0.0
  0
POINT
  5
13E5
330
D1B
100
AcDbEntity
  8
Defpoints
  6
Continuous
 62
     0
100
AcDbPoint
 10
164.1833576173866
 20
-314.4446291239833
 30
0.0
  0
POINT
  5
13E6
330
D1B
100
AcDbEntity
  8
Defpoints
  6
Continuous
 62
     0
100
AcDbPoint
 10
183.0412114904811
 20
-314.4446291239833
 30
0.0
  0
ENDBLK
  5
D1D
330
D1B
100
AcDbEntity
  8
0
100
AcDbBlockEnd
  0
BLOCK
  5
D36
330
D35
100
AcDbEntity
  8
0
100
AcDbBlockBegin
  2
*D3
 70
     1
 10
0.0
 20
0.0
 30
0.0
  3
*D3
  1

  0
LINE
  5
13E7
330
D35
100
AcDbEntity
  8
0
  6
Continuous
 62
     0
370
    -2
100
AcDbLine
 10
152.9333576173866
 20
-315.9446291239833
 30
0.0
 11
198.1693230940565
 21
-315.9446291239833
 31
0.0
  0
LINE
  5
13E8
330
D35
100
AcDbEntity
  8
0
  6
Continuous
 62
     0
370
    -2
100
AcDbLine
 10
131.0583576173866
 20
-235.9446291239833
 30
0.0
 11
198.1693230940565
 21
-235.9446291239833
 31
0.0
  0
LINE
  5
13E9
330
D35
100
AcDbEntity
  8
0
  6
Continuous
 62
     0
370
    -2
100
AcDbLine
 10
196.9193230940565
 20
-313.4446291239833
 30
0.0
 11
196.9193230940565
 21
-238.4446291239833
 31
0.0
  0
INSERT
  5
13EA
330
D35
100
AcDbEntity
  8
0
  6
Continuous
 62
     0
370
    -2
100
AcDbBlockReference
  2
_Open30
 10
196.9193230940565
 20
-315.9446291239833
 30
0.0
 41
2.5
 42
2.5
 43
2.5
 50
270.0
  0
INSERT
  5
13EB
330
D35
100
AcDbEntity
  8
0
  6
Continuous
 62
     0
370
    -2
100
AcDbBlockReference
  2
_Open30
 10
196.9193230940565
 20
-235.9446291239833
 30
0.0
 41
2.5
 42
2.5
 43
2.5
 50
90.0
  0
MTEXT
  5
13EC
330
D35
100
AcDbEntity
  8
0
  6
Continuous
 62
     4
100
AcDbMText
 10
194.7943230940565
 20
-276.6585711532932
 30
0.0
 40
3.0
 41
0.0
 71
     5
 72
     1
  1
160
 11
0.0000000000000001
 21
1.0
 31
0.0
 73
     1
 44
1.0
1001
ACAD
1000
MTEXTBEGIN
1070
    73
1070
     1
1070
    44
1040
1.0
1070
    74
1070
     0
1000
MTEXTEND
  0
POINT
  5
13ED
330
D35
100
AcDbEntity
  8
Defpoints
  6
Continuous
 62
     0
100
AcDbPoint
 10
152.6833576173866
 20
-315.9446291239833
 30
0.0
  0
POINT
  5
13EE
330
D35
100
AcDbEntity
  8
Defpoints
  6
Continuous
 62
     0
100
AcDbPoint
 10
130.8083576173866
 20
-235.9446291239833
 30
0.0
  0
POINT
  5
13EF
330
D35
100
AcDbEntity
  8
Defpoints
  6
Continuous
 62
     0
100
AcDbPoint
 10
196.9193230940565
 20
-235.9446291239833
 30
0.0
  0
ENDBLK
  5
D37
330
D35
100
AcDbEntity
  8
0
100
AcDbBlockEnd
  0
BLOCK
  5
D43
330
D42
100
AcDbEntity
  8
0
100
AcDbBlockBegin
  2
*D4
 70
     1
 10
0.0
 20
0.0
 30
0.0
  3
*D4
  1

  0
LINE
  5
13F0
330
D42
100
AcDbEntity
  8
0
  6
Continuous
 62
     0
370
    -2
100
AcDbLine
 10
164.1833576173866
 20
-314.6946291239833
 30
0.0
 11
164.1833576173866
 21
-334.4781923159668
 31
0.0
  0
LINE
  5
13F1
330
D42
100
AcDbEntity
  8
0
  6
Continuous
 62
     0
370
    -2
100
AcDbLine
 10
91.68335761738658
 20
-314.6946291239833
 30
0.0
 11
91.68335761738658
 21
-334.4781923159668
 31
0.0
  0
LINE
  5
13F2
330
D42
100
AcDbEntity
  8
0
  6
Continuous
 62
     0
370
    -2
100
AcDbLine
 10
161.6833576173865
 20
-333.2281923159668
 30
0.0
 11
94.18335761738658
 21
-333.2281923159668
 31
0.0
  0
INSERT
  5
13F3
330
D42
100
AcDbEntity
  8
0
  6
Continuous
 62
     0
370
    -2
100
AcDbBlockReference
  2
_Open30
 10
164.1833576173866
 20
-333.2281923159668
 30
0.0
 41
2.5
 42
2.5
 43
2.5
  0
INSERT
  5
13F4
330
D42
100
AcDbEntity
  8
0
  6
Continuous
 62
     0
370
    -2
100
AcDbBlockReference
  2
_Open30
 10
91.68335761738658
 20
-333.2281923159668
 30
0.0
 41
2.5
 42
2.5
 43
2.5
 50
180.0
  0
MTEXT
  5
13F5
330
D42
100
AcDbEntity
  8
0
  6
Continuous
 62
     4
100
AcDbMText
 10
129.1730658556441
 20
-331.1031923159668
 30
0.0
 40
3.0
 41
0.0
 71
     5
 72
     1
  1
145
 73
     1
 44
1.0
1001
ACAD
1000
MTEXTBEGIN
1070
    73
1070
     1
1070
    44
1040
1.0
1070
    74
1070
     0
1000
MTEXTEND
  0
POINT
  5
13F6
330
D42
100
AcDbEntity
  8
Defpoints
  6
Continuous
 62
     0
100
AcDbPoint
 10
164.1833576173866
 20
-314.4446291239833
 30
0.0
  0
POINT
  5
13F7
330
D42
100
AcDbEntity
  8
Defpoints
  6
Continuous
 62
     0
100
AcDbPoint
 10
91.68335761738658
 20
-314.4446291239833
 30
0.0
  0
POINT
  5
13F8
330
D42
100
AcDbEntity
  8
Defpoints
  6
Continuous
 62
     0
100
AcDbPoint
 10
91.68335761738658
 20
-333.2281923159668
 30
0.0
  0
ENDBLK
  5
D44
330
D42
100
AcDbEntity
  8
0
100
AcDbBlockEnd
  0
BLOCK
  5
D50
330
D4F
100
AcDbEntity
  8
0
100
AcDbBlockBegin
  2
*D5
 70
     1
 10
0.0
 20
0.0
 30
0.0
  3
*D5
  1

  0
LINE
  5
13F9
330
D4F
100
AcDbEntity
  8
0
  6
Continuous
 62
     0
370
    -2
100
AcDbLine
 10
301.7543512081879
 20
-314.6946291239833
 30
0.0
 11
301.7543512081879
 21
-334.2823004362615
 31
0.0
  0
LINE
  5
13FA
330
D4F
100
AcDbEntity
  8
0
  6
Continuous
 62
     0
370
    -2
100
AcDbLine
 10
221.7543512081879
 20
-307.1946291239833
 30
0.0
 11
221.7543512081879
 21
-334.2823004362615
 31
0.0
  0
LINE
  5
13FB
330
D4F
100
AcDbEntity
  8
0
  6
Continuous
 62
     0
370
    -2
100
AcDbLine
 10
299.2543512081878
 20
-333.0323004362615
 30
0.0
 11
224.2543512081879
 21
-333.0323004362615
 31
0.0
  0
INSERT
  5
13FC
330
D4F
100
AcDbEntity
  8
0
  6
Continuous
 62
     0
370
    -2
100
AcDbBlockReference
  2
_Open30
 10
301.7543512081879
 20
-333.0323004362615
 30
0.0
 41
2.5
 42
2.5
 43
2.5
  0
INSERT
  5
13FD
330
D4F
100
AcDbEntity
  8
0
  6
Continuous
 62
     0
370
    -2
100
AcDbBlockReference
  2
_Open30
 10
221.7543512081879
 20
-333.0323004362615
 30
0.0
 41
2.5
 42
2.5
 43
2.5
 50
180.0
  0
MTEXT
  5
13FE
330
D4F
100
AcDbEntity
  8
0
  6
Continuous
 62
     4
100
AcDbMText
 10
257.5344796198156
 20
-330.9073004362615
 30
0.0
 40
3.0
 41
0.0
 71
     5
 72
     1
  1
160
 73
     1
 44
1.0
1001
ACAD
1000
MTEXTBEGIN
1070
    73
1070
     1
1070
    44
1040
1.0
1070
    74
1070
     0
1000
MTEXTEND
  0
POINT
  5
13FF
330
D4F
100
AcDbEntity
  8
Defpoints
  6
Continuous
 62
     0
100
AcDbPoint
 10
301.7543512081879
 20
-314.4446291239833
 30
0.0
  0
POINT
  5
1400
330
D4F
100
AcDbEntity
  8
Defpoints
  6
Continuous
 62
     0
100
AcDbPoint
 10
221.7543512081879
 20
-306.9446291239833
 30
0.0
  0
POINT
  5
1401
330
D4F
100
AcDbEntity
  8
Defpoints
  6
Continuous
 62
     0
100
AcDbPoint
 10
221.7543512081879
 20
-333.0323004362615
 30
0.0
  0
ENDBLK
  5
D51
330
D4F
100
AcDbEntity
  8
0
100
AcDbBlockEnd
  0
BLOCK
  5
D92
330
D91
100
AcDbEntity
  8
0
100
AcDbBlockBegin
  2
*D6
 70
     1
 10
0.0
 20
0.0
 30
0.0
  3
*D6
  1

  0
LINE
  5
1402
330
D91
100
AcDbEntity
  8
0
  6
Continuous
 62
     0
370
    -2
100
AcDbLine
 10
131.5583576173865
 20
-247.9342661529015
 30
0.0
 11
191.170158093399
 21
-247.9342661529015
 31
0.0
  0
LINE
  5
1403
330
D91
100
AcDbEntity
  8
0
  6
Continuous
 62
     0
370
    -2
100
AcDbLine
 10
164.4333576173865
 20
-315.9446291239833
 30
0.0
 11
191.170158093399
 21
-315.9446291239833
 31
0.0
  0
LINE
  5
1404
330
D91
100
AcDbEntity
  8
0
  6
Continuous
 62
     0
370
    -2
100
AcDbLine
 10
189.920158093399
 20
-250.4342661529015
 30
0.0
 11
189.920158093399
 21
-313.4446291239833
 31
0.0
  0
INSERT
  5
1405
330
D91
100
AcDbEntity
  8
0
  6
Continuous
 62
     0
370
    -2
100
AcDbBlockReference
  2
_Open30
 10
189.920158093399
 20
-247.9342661529015
 30
0.0
 41
2.5
 42
2.5
 43
2.5
 50
90.0
  0
INSERT
  5
1406
330
D91
100
AcDbEntity
  8
0
  6
Continuous
 62
     0
370
    -2
100
AcDbBlockReference
  2
_Open30
 10
189.920158093399
 20
-315.9446291239833
 30
0.0
 41
2.5
 42
2.5
 43
2.5
 50
270.0
  0
MTEXT
  5
1407
330
D91
100
AcDbEntity
  8
0
  6
Continuous
 62
     4
100
AcDbMText
 10
187.795158093399
 20
-281.9394476384424
 30
0.0
 40
3.0
 41
0.0
 71
     5
 72
     1
  1
136
 11
0.0000000000000001
 21
1.0
 31
0.0
 73
     1
 44
1.0
1001
ACAD
1000
MTEXTBEGIN
1070
    73
1070
     1
1070
    44
1040
1.0
1070
    74
1070
     0
1000
MTEXTEND
  0
POINT
  5
1408
330
D91
100
AcDbEntity
  8
Defpoints
  6
Continuous
 62
     0
100
AcDbPoint
 10
131.3083576173865
 20
-247.9342661529015
 30
0.0
  0
POINT
  5
1409
330
D91
100
AcDbEntity
  8
Defpoints
  6
Continuous
 62
     0
100
AcDbPoint
 10
164.1833576173866
 20
-315.9446291239833
 30
0.0
  0
POINT
  5
140A
330
D91
100
AcDbEntity
  8
Defpoints
  6
Continuous
 62
     0
100
AcDbPoint
 10
189.920158093399
 20
-315.9446291239833
 30
0.0
  0
ENDBLK
  5
D93
330
D91
100
AcDbEntity
  8
0
100
AcDbBlockEnd
  0
BLOCK
  5
11AE
330
11AD
100
AcDbEntity
  8
0
100
AcDbBlockBegin
  2
*D7
 70
     1
 10
0.0
 20
0.0
 30
0.0
  3
*D7
  1

  0
LINE
  5
1237
330
11AD
100
AcDbEntity
  8
0
 62
     0
370
    -2
100
AcDbLine
 10
957.0110865424393
 20
-199.1949741705201
 30
0.0
 11
957.0110865424393
 21
-202.104605592529
 31
0.0
  0
LINE
  5
1238
330
11AD
100
AcDbEntity
  8
0
 62
     0
370
    -2
100
AcDbLine
 10
954.5538994883187
 20
-199.1949741705201
 30
0.0
 11
954.5538994883187
 21
-202.104605592529
 31
0.0
  0
LINE
  5
1239
330
11AD
100
AcDbEntity
  8
0
 62
     0
370
    -2
100
AcDbLine
 10
959.5110865424391
 20
-200.854605592529
 30
0.0
 11
962.0110865424392
 21
-200.854605592529
 31
0.0
  0
LINE
  5
123A
330
11AD
100
AcDbEntity
  8
0
 62
     0
370
    -2
100
AcDbLine
 10
952.0538994883187
 20
-200.854605592529
 30
0.0
 11
939.3038994883188
 21
-200.854605592529
 31
0.0
  0
LINE
  5
123B
330
11AD
100
AcDbEntity
  8
0
 62
     0
370
    -2
100
AcDbLine
 10
957.0110865424393
 20
-200.854605592529
 30
0.0
 11
954.5538994883187
 21
-200.854605592529
 31
0.0
  0
INSERT
  5
123C
330
11AD
100
AcDbEntity
  8
0
 62
     0
370
    -2
100
AcDbBlockReference
  2
_Open30
 10
957.0110865424393
 20
-200.854605592529
 30
0.0
 41
2.5
 42
2.5
 43
2.5
 50
180.0
  0
INSERT
  5
123D
330
11AD
100
AcDbEntity
  8
0
 62
     0
370
    -2
100
AcDbBlockReference
  2
_Open30
 10
954.5538994883187
 20
-200.854605592529
 30
0.0
 41
2.5
 42
2.5
 43
2.5
  0
MTEXT
  5
123E
330
11AD
100
AcDbEntity
  8
0
 62
     4
100
AcDbMText
 10
944.4288994883187
 20
-198.7296055925289
 30
0.0
 40
3.0
 41
0.0
 71
     5
 72
     1
  1
2.46
 73
     1
 44
1.0
1001
ACAD
1000
MTEXTBEGIN
1070
    73
1070
     1
1070
    44
1040
1.0
1070
    74
1070
     0
1000
MTEXTEND
  0
POINT
  5
123F
330
11AD
100
AcDbEntity
  8
Defpoints
 62
     0
100
AcDbPoint
 10
957.0110865424393
 20
-198.9449741705201
 30
0.0
  0
POINT
  5
1240
330
11AD
100
AcDbEntity
  8
Defpoints
 62
     0
100
AcDbPoint
 10
954.5538994883187
 20
-198.9449741705201
 30
0.0
  0
POINT
  5
1241
330
11AD
100
AcDbEntity
  8
Defpoints
 62
     0
100
AcDbPoint
 10
954.5538994883187
 20
-200.854605592529
 30
0.0
  0
ENDBLK
  5
11AF
330
11AD
100
AcDbEntity
  8
0
100
AcDbBlockEnd
  0
BLOCK
  5
11BC
330
11BB
100
AcDbEntity
  8
0
100
AcDbBlockBegin
  2
*D8
 70
     1
 10
0.0
 20
0.0
 30
0.0
  3
*D8
  1

  0
LINE
  5
1242
330
11BB
100
AcDbEntity
  8
0
 62
     0
370
    -2
100
AcDbLine
 10
958.6492114485125
 20
-204.6510637432825
 30
0.0
 11
958.6492114485125
 21
-207.1969558127459
 31
0.0
  0
LINE
  5
1243
330
11BB
100
AcDbEntity
  8
0
 62
     0
370
    -2
100
AcDbLine
 10
955.5549756503696
 20
-204.6510637432825
 30
0.0
 11
955.5549756503696
 21
-207.1969558127459
 31
0.0
  0
LINE
  5
1244
330
11BB
100
AcDbEntity
  8
0
 62
     0
370
    -2
100
AcDbLine
 10
961.1492114485125
 20
-205.9469558127458
 30
0.0
 11
963.6492114485124
 21
-205.9469558127458
 31
0.0
  0
LINE
  5
1245
330
11BB
100
AcDbEntity
  8
0
 62
     0
370
    -2
100
AcDbLine
 10
953.0549756503695
 20
-205.9469558127458
 30
0.0
 11
939.2216423170363
 21
-205.9469558127458
 31
0.0
  0
LINE
  5
1246
330
11BB
100
AcDbEntity
  8
0
 62
     0
370
    -2
100
AcDbLine
 10
958.6492114485125
 20
-205.9469558127458
 30
0.0
 11
955.5549756503696
 21
-205.9469558127458
 31
0.0
  0
INSERT
  5
1247
330
11BB
100
AcDbEntity
  8
0
 62
     0
370
    -2
100
AcDbBlockReference
  2
_Open30
 10
958.6492114485125
 20
-205.9469558127458
 30
0.0
 41
2.5
 42
2.5
 43
2.5
 50
180.0
  0
INSERT
  5
1248
330
11BB
100
AcDbEntity
  8
0
 62
     0
370
    -2
100
AcDbBlockReference
  2
_Open30
 10
955.5549756503696
 20
-205.9469558127458
 30
0.0
 41
2.5
 42
2.5
 43
2.5
  0
MTEXT
  5
1249
330
11BB
100
AcDbEntity
  8
0
 62
     4
100
AcDbMText
 10
944.4299756503696
 20
-204.0719558127459
 30
0.0
 40
2.5
 41
0.0
 71
     5
 72
     1
  1
15.47
  7
高2.5
 73
     1
 44
1.0
1001
ACAD
1000
MTEXTBEGIN
1070
    73
1070
     1
1070
    44
1040
1.0
1070
    74
1070
     0
1000
MTEXTEND
  0
POINT
  5
124A
330
11BB
100
AcDbEntity
  8
Defpoints
 62
     0
100
AcDbPoint
 10
958.6492114485125
 20
-204.4010637432825
 30
0.0
  0
POINT
  5
124B
330
11BB
100
AcDbEntity
  8
Defpoints
 62
     0
100
AcDbPoint
 10
955.5549756503696
 20
-204.4010637432825
 30
0.0
  0
POINT
  5
124C
330
11BB
100
AcDbEntity
  8
Defpoints
 62
     0
100
AcDbPoint
 10
955.5549756503696
 20
-205.9469558127458
 30
0.0
  0
ENDBLK
  5
11BD
330
11BB
100
AcDbEntity
  8
0
100
AcDbBlockEnd
  0
BLOCK
  5
11CA
330
11C9
100
AcDbEntity
  8
0
100
AcDbBlockBegin
  2
*D9
 70
     1
 10
0.0
 20
0.0
 30
0.0
  3
*D9
  1

  0
LINE
  5
124D
330
11C9
100
AcDbEntity
  8
0
 62
     0
370
    -2
100
AcDbLine
 10
960.3783430565981
 20
-210.107153459129
 30
0.0
 11
960.3783430565981
 21
-212.3802411214963
 31
0.0
  0
LINE
  5
124E
330
11C9
100
AcDbEntity
  8
0
 62
     0
370
    -2
100
AcDbLine
 10
956.374038103406
 20
-210.107153459129
 30
0.0
 11
956.374038103406
 21
-212.3802411214963
 31
0.0
  0
LINE
  5
124F
330
11C9
100
AcDbEntity
  8
0
 62
     0
370
    -2
100
AcDbLine
 10
962.8783430565981
 20
-211.1302411214963
 30
0.0
 11
965.3783430565979
 21
-211.1302411214963
 31
0.0
  0
LINE
  5
1250
330
11C9
100
AcDbEntity
  8
0
 62
     0
370
    -2
100
AcDbLine
 10
953.874038103406
 20
-211.1302411214963
 30
0.0
 11
942.124038103406
 21
-211.1302411214963
 31
0.0
  0
LINE
  5
1251
330
11C9
100
AcDbEntity
  8
0
 62
     0
370
    -2
100
AcDbLine
 10
960.3783430565981
 20
-211.1302411214963
 30
0.0
 11
956.374038103406
 21
-211.1302411214963
 31
0.0
  0
INSERT
  5
1252
330
11C9
100
AcDbEntity
  8
0
 62
     0
370
    -2
100
AcDbBlockReference
  2
_Open30
 10
960.3783430565981
 20
-211.1302411214963
 30
0.0
 41
2.5
 42
2.5
 43
2.5
 50
180.0
  0
INSERT
  5
1253
330
11C9
100
AcDbEntity
  8
0
 62
     0
370
    -2
100
AcDbBlockReference
  2
_Open30
 10
956.374038103406
 20
-211.1302411214963
 30
0.0
 41
2.5
 42
2.5
 43
2.5
  0
MTEXT
  5
1254
330
11C9
100
AcDbEntity
  8
0
 62
     4
100
AcDbMText
 10
946.749038103406
 20
-208.9052411214963
 30
0.0
 40
3.2
 41
0.0
 71
     5
 72
     1
  1
8.01
  7
高3.2
 73
     1
 44
1.0
1001
ACAD
1000
MTEXTBEGIN
1070
    73
1070
     1
1070
    44
1040
1.0
1070
    74
1070
     0
1000
MTEXTEND
  0
POINT
  5
1255
330
11C9
100
AcDbEntity
  8
Defpoints
 62
     0
100
AcDbPoint
 10
960.3783430565981
 20
-209.857153459129
 30
0.0
  0
POINT
  5
1256
330
11C9
100
AcDbEntity
  8
Defpoints
 62
     0
100
AcDbPoint
 10
956.374038103406
 20
-209.857153459129
 30
0.0
  0
POINT
  5
1257
330
11C9
100
AcDbEntity
  8
Defpoints
 62
     0
100
AcDbPoint
 10
956.374038103406
 20
-211.1302411214963
 30
0.0
  0
ENDBLK
  5
11CB
330
11C9
100
AcDbEntity
  8
0
100
AcDbBlockEnd
  0
BLOCK
  5
11D8
330
11D7
100
AcDbEntity
  8
0
100
AcDbBlockBegin
  2
*D10
 70
     1
 10
0.0
 20
0.0
 30
0.0
  3
*D10
  1

  0
LINE
  5
1258
330
11D7
100
AcDbEntity
  8
0
 62
     0
370
    -2
100
AcDbLine
 10
960.2873363545855
 20
-215.3813734271606
 30
0.0
 11
960.2873363545855
 21
-217.199786934617
 31
0.0
  0
LINE
  5
1259
330
11D7
100
AcDbEntity
  8
0
 62
     0
370
    -2
100
AcDbLine
 10
955.5549756503696
 20
-215.3813734271606
 30
0.0
 11
955.5549756503696
 21
-217.199786934617
 31
0.0
  0
LINE
  5
125A
330
11D7
100
AcDbEntity
  8
0
 62
     0
370
    -2
100
AcDbLine
 10
962.7873363545855
 20
-215.949786934617
 30
0.0
 11
965.2873363545856
 21
-215.949786934617
 31
0.0
  0
LINE
  5
125B
330
11D7
100
AcDbEntity
  8
0
 62
     0
370
    -2
100
AcDbLine
 10
953.0549756503695
 20
-215.949786934617
 30
0.0
 11
931.3049756503696
 21
-215.949786934617
 31
0.0
  0
LINE
  5
125C
330
11D7
100
AcDbEntity
  8
0
 62
     0
370
    -2
100
AcDbLine
 10
960.2873363545855
 20
-215.949786934617
 30
0.0
 11
955.5549756503696
 21
-215.949786934617
 31
0.0
  0
INSERT
  5
125D
330
11D7
100
AcDbEntity
  8
0
 62
     0
370
    -2
100
AcDbBlockReference
  2
_Open30
 10
960.2873363545855
 20
-215.949786934617
 30
0.0
 41
2.5
 42
2.5
 43
2.5
 50
180.0
  0
INSERT
  5
125E
330
11D7
100
AcDbEntity
  8
0
 62
     0
370
    -2
100
AcDbBlockReference
  2
_Open30
 10
955.5549756503696
 20
-215.949786934617
 30
0.0
 41
2.5
 42
2.5
 43
2.5
  0
MTEXT
  5
125F
330
11D7
100
AcDbEntity
  8
0
 62
     4
100
AcDbMText
 10
940.9299756503695
 20
-213.074786934617
 30
0.0
 40
4.5
 41
0.0
 71
     5
 72
     1
  1
47.32
  7
高4.5
 73
     1
 44
1.0
1001
ACAD
1000
MTEXTBEGIN
1070
    73
1070
     1
1070
    44
1040
1.0
1070
    74
1070
     0
1000
MTEXTEND
  0
POINT
  5
1260
330
11D7
100
AcDbEntity
  8
Defpoints
 62
     0
100
AcDbPoint
 10
960.2873363545855
 20
-215.1313734271606
 30
0.0
  0
POINT
  5
1261
330
11D7
100
AcDbEntity
  8
Defpoints
 62
     0
100
AcDbPoint
 10
955.5549756503696
 20
-215.1313734271606
 30
0.0
  0
POINT
  5
1262
330
11D7
100
AcDbEntity
  8
Defpoints
 62
     0
100
AcDbPoint
 10
955.5549756503696
 20
-215.949786934617
 30
0.0
  0
ENDBLK
  5
11D9
330
11D7
100
AcDbEntity
  8
0
100
AcDbBlockEnd
  0
BLOCK
  5
11E6
330
11E5
100
AcDbEntity
  8
0
100
AcDbBlockBegin
  2
*D11
 70
     1
 10
0.0
 20
0.0
 30
0.0
  3
*D11
  1

  0
LINE
  5
1263
330
11E5
100
AcDbEntity
  8
0
 62
     0
370
    -2
100
AcDbLine
 10
981.7649726225932
 20
-199.1949741705201
 30
0.0
 11
981.7649726225932
 21
-202.104605592529
 31
0.0
  0
LINE
  5
1264
330
11E5
100
AcDbEntity
  8
0
 62
     0
370
    -2
100
AcDbLine
 10
979.3077855684726
 20
-199.1949741705201
 30
0.0
 11
979.3077855684726
 21
-202.104605592529
 31
0.0
  0
LINE
  5
1265
330
11E5
100
AcDbEntity
  8
0
 62
     0
370
    -2
100
AcDbLine
 10
984.2649726225932
 20
-200.854605592529
 30
0.0
 11
986.7649726225932
 21
-200.854605592529
 31
0.0
  0
LINE
  5
1266
330
11E5
100
AcDbEntity
  8
0
 62
     0
370
    -2
100
AcDbLine
 10
976.8077855684726
 20
-200.854605592529
 30
0.0
 11
955.2077855684727
 21
-200.854605592529
 31
0.0
  0
LINE
  5
1267
330
11E5
100
AcDbEntity
  8
0
 62
     0
370
    -2
100
AcDbLine
 10
981.7649726225932
 20
-200.854605592529
 30
0.0
 11
979.3077855684726
 21
-200.854605592529
 31
0.0
  0
INSERT
  5
1268
330
11E5
100
AcDbEntity
  8
0
 62
     0
370
    -2
100
AcDbBlockReference
  2
_Open30
 10
981.7649726225932
 20
-200.854605592529
 30
0.0
 41
2.5
 42
2.5
 43
2.5
 50
180.0
  0
INSERT
  5
1269
330
11E5
100
AcDbEntity
  8
0
 62
     0
370
    -2
100
AcDbBlockReference
  2
_Open30
 10
979.3077855684726
 20
-200.854605592529
 30
0.0
 41
2.5
 42
2.5
 43
2.5
  0
MTEXT
  5
126A
330
11E5
100
AcDbEntity
  8
0
 62
     4
100
AcDbMText
 10
964.7577855684728
 20
-197.0796055925289
 30
0.0
 40
6.299999999999998
 41
0.0
 71
     5
 72
     1
  1
0.25
  7
高6.3
 73
     1
 44
1.0
1001
ACAD
1000
MTEXTBEGIN
1070
    73
1070
     1
1070
    44
1040
1.0
1070
    74
1070
     0
1000
MTEXTEND
  0
POINT
  5
126B
330
11E5
100
AcDbEntity
  8
Defpoints
 62
     0
100
AcDbPoint
 10
981.7649726225932
 20
-198.9449741705201
 30
0.0
  0
POINT
  5
126C
330
11E5
100
AcDbEntity
  8
Defpoints
 62
     0
100
AcDbPoint
 10
979.3077855684726
 20
-198.9449741705201
 30
0.0
  0
POINT
  5
126D
330
11E5
100
AcDbEntity
  8
Defpoints
 62
     0
100
AcDbPoint
 10
979.3077855684726
 20
-200.854605592529
 30
0.0
  0
ENDBLK
  5
11E7
330
11E5
100
AcDbEntity
  8
0
100
AcDbBlockEnd
  0
BLOCK
  5
11F4
330
11F3
100
AcDbEntity
  8
0
100
AcDbBlockBegin
  2
*D12
 70
     1
 10
0.0
 20
0.0
 30
0.0
  3
*D12
  1

  0
LINE
  5
126E
330
11F3
100
AcDbEntity
  8
0
 62
     0
370
    -2
100
AcDbLine
 10
983.4030975286664
 20
-204.6510637432825
 30
0.0
 11
983.4030975286664
 21
-207.1969558127459
 31
0.0
  0
LINE
  5
126F
330
11F3
100
AcDbEntity
  8
0
 62
     0
370
    -2
100
AcDbLine
 10
980.3088617305231
 20
-204.6510637432825
 30
0.0
 11
980.3088617305231
 21
-207.1969558127459
 31
0.0
  0
LINE
  5
1270
330
11F3
100
AcDbEntity
  8
0
 62
     0
370
    -2
100
AcDbLine
 10
985.9030975286662
 20
-205.9469558127458
 30
0.0
 11
988.4030975286664
 21
-205.9469558127458
 31
0.0
  0
LINE
  5
1271
330
11F3
100
AcDbEntity
  8
0
 62
     0
370
    -2
100
AcDbLine
 10
977.8088617305234
 20
-205.9469558127458
 30
0.0
 11
965.8088617305232
 21
-205.9469558127458
 31
0.0
  0
LINE
  5
1272
330
11F3
100
AcDbEntity
  8
0
 62
     0
370
    -2
100
AcDbLine
 10
983.4030975286664
 20
-205.9469558127458
 30
0.0
 11
980.3088617305231
 21
-205.9469558127458
 31
0.0
  0
INSERT
  5
1273
330
11F3
100
AcDbEntity
  8
0
 62
     0
370
    -2
100
AcDbBlockReference
  2
_Open30
 10
983.4030975286664
 20
-205.9469558127458
 30
0.0
 41
2.5
 42
2.5
 43
2.5
 50
180.0
  0
INSERT
  5
1274
330
11F3
100
AcDbEntity
  8
0
 62
     0
370
    -2
100
AcDbBlockReference
  2
_Open30
 10
980.3088617305231
 20
-205.9469558127458
 30
0.0
 41
2.5
 42
2.5
 43
2.5
  0
MTEXT
  5
1275
330
11F3
100
AcDbEntity
  8
0
 62
     4
100
AcDbMText
 10
970.4338617305234
 20
-203.8219558127458
 30
0.0
 40
3.0
 41
0.0
 71
     5
 72
     1
  1
1.55
 73
     1
 44
1.0
1001
ACAD
1000
MTEXTBEGIN
1070
    73
1070
     1
1070
    44
1040
1.0
1070
    74
1070
     0
1000
MTEXTEND
  0
POINT
  5
1276
330
11F3
100
AcDbEntity
  8
Defpoints
 62
     0
100
AcDbPoint
 10
983.4030975286664
 20
-204.4010637432825
 30
0.0
  0
POINT
  5
1277
330
11F3
100
AcDbEntity
  8
Defpoints
 62
     0
100
AcDbPoint
 10
980.3088617305231
 20
-204.4010637432825
 30
0.0
  0
POINT
  5
1278
330
11F3
100
AcDbEntity
  8
Defpoints
 62
     0
100
AcDbPoint
 10
980.3088617305231
 20
-205.9469558127458
 30
0.0
  0
ENDBLK
  5
11F5
330
11F3
100
AcDbEntity
  8
0
100
AcDbBlockEnd
  0
BLOCK
  5
1202
330
1201
100
AcDbEntity
  8
0
100
AcDbBlockBegin
  2
*D13
 70
     1
 10
0.0
 20
0.0
 30
0.0
  3
*D13
  1

  0
LINE
  5
1279
330
1201
100
AcDbEntity
  8
0
 62
     0
370
    -2
100
AcDbLine
 10
985.1322291367516
 20
-210.107153459129
 30
0.0
 11
985.1322291367516
 21
-212.3802411214963
 31
0.0
  0
LINE
  5
127A
330
1201
100
AcDbEntity
  8
0
 62
     0
370
    -2
100
AcDbLine
 10
981.1279241835601
 20
-210.107153459129
 30
0.0
 11
981.1279241835601
 21
-212.3802411214963
 31
0.0
  0
LINE
  5
127B
330
1201
100
AcDbEntity
  8
0
 62
     0
370
    -2
100
AcDbLine
 10
987.6322291367515
 20
-211.1302411214963
 30
0.0
 11
990.1322291367515
 21
-211.1302411214963
 31
0.0
  0
LINE
  5
127C
330
1201
100
AcDbEntity
  8
0
 62
     0
370
    -2
100
AcDbLine
 10
978.62792418356
 20
-211.1302411214963
 30
0.0
 11
970.2945908502268
 21
-211.1302411214963
 31
0.0
  0
LINE
  5
127D
330
1201
100
AcDbEntity
  8
0
 62
     0
370
    -2
100
AcDbLine
 10
985.1322291367516
 20
-211.1302411214963
 30
0.0
 11
981.1279241835601
 21
-211.1302411214963
 31
0.0
  0
INSERT
  5
127E
330
1201
100
AcDbEntity
  8
0
 62
     0
370
    -2
100
AcDbBlockReference
  2
_Open30
 10
985.1322291367516
 20
-211.1302411214963
 30
0.0
 41
2.5
 42
2.5
 43
2.5
 50
180.0
  0
INSERT
  5
127F
330
1201
100
AcDbEntity
  8
0
 62
     0
370
    -2
100
AcDbBlockReference
  2
_Open30
 10
981.1279241835601
 20
-211.1302411214963
 30
0.0
 41
2.5
 42
2.5
 43
2.5
  0
MTEXT
  5
1280
330
1201
100
AcDbEntity
  8
0
 62
     4
100
AcDbMText
 10
972.75292418356
 20
-209.5052411214963
 30
0.0
 40
2.0
 41
0.0
 71
     5
 72
     1
  1
0.8
  7
高2
 73
     1
 44
1.0
1001
ACAD
1000
MTEXTBEGIN
1070
    73
1070
     1
1070
    44
1040
1.0
1070
    74
1070
     0
1000
MTEXTEND
  0
POINT
  5
1281
330
1201
100
AcDbEntity
  8
Defpoints
 62
     0
100
AcDbPoint
 10
985.1322291367516
 20
-209.857153459129
 30
0.0
  0
POINT
  5
1282
330
1201
100
AcDbEntity
  8
Defpoints
 62
     0
100
AcDbPoint
 10
981.1279241835601
 20
-209.857153459129
 30
0.0
  0
POINT
  5
1283
330
1201
100
AcDbEntity
  8
Defpoints
 62
     0
100
AcDbPoint
 10
981.1279241835601
 20
-211.1302411214963
 30
0.0
  0
ENDBLK
  5
1203
330
1201
100
AcDbEntity
  8
0
100
AcDbBlockEnd
  0
BLOCK
  5
1210
330
120F
100
AcDbEntity
  8
0
100
AcDbBlockBegin
  2
*D14
 70
     1
 10
0.0
 20
0.0
 30
0.0
  3
*D14
  1

  0
LINE
  5
1284
330
120F
100
AcDbEntity
  8
0
 62
     0
370
    -2
100
AcDbLine
 10
985.0412224347392
 20
-215.3813734271606
 30
0.0
 11
985.0412224347392
 21
-217.199786934617
 31
0.0
  0
LINE
  5
1285
330
120F
100
AcDbEntity
  8
0
 62
     0
370
    -2
100
AcDbLine
 10
980.3088617305231
 20
-215.3813734271606
 30
0.0
 11
980.3088617305231
 21
-217.199786934617
 31
0.0
  0
LINE
  5
1286
330
120F
100
AcDbEntity
  8
0
 62
     0
370
    -2
100
AcDbLine
 10
987.5412224347392
 20
-215.949786934617
 30
0.0
 11
990.0412224347396
 21
-215.949786934617
 31
0.0
  0
LINE
  5
1287
330
120F
100
AcDbEntity
  8
0
 62
     0
370
    -2
100
AcDbLine
 10
977.8088617305234
 20
-215.949786934617
 30
0.0
 11
963.0588617305232
 21
-215.949786934617
 31
0.0
  0
LINE
  5
1288
330
120F
100
AcDbEntity
  8
0
 62
     0
370
    -2
100
AcDbLine
 10
985.0412224347392
 20
-215.949786934617
 30
0.0
 11
980.3088617305231
 21
-215.949786934617
 31
0.0
  0
INSERT
  5
1289
330
120F
100
AcDbEntity
  8
0
 62
     0
370
    -2
100
AcDbBlockReference
  2
_Open30
 10
985.0412224347392
 20
-215.949786934617
 30
0.0
 41
2.5
 42
2.5
 43
2.5
 50
180.0
  0
INSERT
  5
128A
330
120F
100
AcDbEntity
  8
0
 62
     0
370
    -2
100
AcDbBlockReference
  2
_Open30
 10
980.3088617305231
 20
-215.949786934617
 30
0.0
 41
2.5
 42
2.5
 43
2.5
  0
MTEXT
  5
128B
330
120F
100
AcDbEntity
  8
0
 62
     4
100
AcDbMText
 10
969.1838617305236
 20
-213.824786934617
 30
0.0
 40
3.0
 41
0.0
 71
     5
 72
     1
  1
18.93
 73
     1
 44
1.0
1001
ACAD
1000
MTEXTBEGIN
1070
    73
1070
     1
1070
    44
1040
1.0
1070
    74
1070
     0
1000
MTEXTEND
  0
POINT
  5
128C
330
120F
100
AcDbEntity
  8
Defpoints
 62
     0
100
AcDbPoint
 10
985.0412224347392
 20
-215.1313734271606
 30
0.0
  0
POINT
  5
128D
330
120F
100
AcDbEntity
  8
Defpoints
 62
     0
100
AcDbPoint
 10
980.3088617305231
 20
-215.1313734271606
 30
0.0
  0
POINT
  5
128E
330
120F
100
AcDbEntity
  8
Defpoints
 62
     0
100
AcDbPoint
 10
980.3088617305231
 20
-215.949786934617
 30
0.0
  0
ENDBLK
  5
1211
330
120F
100
AcDbEntity
  8
0
100
AcDbBlockEnd
  0
BLOCK
  5
121E
330
121D
100
AcDbEntity
  8
0
100
AcDbBlockBegin
  2
*D15
 70
     1
 10
0.0
 20
0.0
 30
0.0
  3
*D15
  1

  0
LINE
  5
128F
330
121D
100
AcDbEntity
  8
0
 62
     0
370
    -2
100
AcDbLine
 10
982.2367955836012
 20
-220.4372136337504
 30
0.0
 11
982.2367955836012
 21
-222.7471347106259
 31
0.0
  0
LINE
  5
1290
330
121D
100
AcDbEntity
  8
0
 62
     0
370
    -2
100
AcDbLine
 10
977.6481203814533
 20
-220.4372136337504
 30
0.0
 11
977.6481203814533
 21
-222.7471347106259
 31
0.0
  0
LINE
  5
1291
330
121D
100
AcDbEntity
  8
0
 62
     0
370
    -2
100
AcDbLine
 10
984.7367955836011
 20
-221.4971347106259
 30
0.0
 11
987.2367955836011
 21
-221.4971347106259
 31
0.0
  0
LINE
  5
1292
330
121D
100
AcDbEntity
  8
0
 62
     0
370
    -2
100
AcDbLine
 10
975.1481203814533
 20
-221.4971347106259
 30
0.0
 11
960.3981203814532
 21
-221.4971347106259
 31
0.0
  0
LINE
  5
1293
330
121D
100
AcDbEntity
  8
0
 62
     0
370
    -2
100
AcDbLine
 10
982.2367955836012
 20
-221.4971347106259
 30
0.0
 11
977.6481203814533
 21
-221.4971347106259
 31
0.0
  0
INSERT
  5
1294
330
121D
100
AcDbEntity
  8
0
 62
     0
370
    -2
100
AcDbBlockReference
  2
_Open30
 10
982.2367955836012
 20
-221.4971347106259
 30
0.0
 41
2.5
 42
2.5
 43
2.5
 50
180.0
  0
INSERT
  5
1295
330
121D
100
AcDbEntity
  8
0
 62
     0
370
    -2
100
AcDbBlockReference
  2
_Open30
 10
977.6481203814533
 20
-221.4971347106259
 30
0.0
 41
2.5
 42
2.5
 43
2.5
  0
MTEXT
  5
1296
330
121D
100
AcDbEntity
  8
0
 62
     4
100
AcDbMText
 10
966.5231203814533
 20
-219.3721347106259
 30
0.0
 40
3.0
 41
0.0
 71
     5
 72
     1
  1
13.77
 73
     1
 44
1.0
1001
ACAD
1000
MTEXTBEGIN
1070
    73
1070
     1
1070
    44
1040
1.0
1070
    74
1070
     0
1000
MTEXTEND
  0
POINT
  5
1297
330
121D
100
AcDbEntity
  8
Defpoints
 62
     0
100
AcDbPoint
 10
982.2367955836012
 20
-220.1872136337504
 30
0.0
  0
POINT
  5
1298
330
121D
100
AcDbEntity
  8
Defpoints
 62
     0
100
AcDbPoint
 10
977.6481203814533
 20
-220.1872136337504
 30
0.0
  0
POINT
  5
1299
330
121D
100
AcDbEntity
  8
Defpoints
 62
     0
100
AcDbPoint
 10
977.6481203814533
 20
-221.4971347106259
 30
0.0
  0
ENDBLK
  5
121F
330
121D
100
AcDbEntity
  8
0
100
AcDbBlockEnd
  0
BLOCK
  5
122C
330
122B
100
AcDbEntity
  8
0
100
AcDbBlockBegin
  2
*D16
 70
     1
 10
0.0
 20
0.0
 30
0.0
  3
*D16
  1

  0
LINE
  5
129A
330
122B
100
AcDbEntity
  8
0
 62
     0
370
    -2
100
AcDbLine
 10
975.1405127504508
 20
-189.507722315476
 30
0.0
 11
975.1405127504508
 21
-182.1111888375383
 31
0.0
  0
LINE
  5
129B
330
122B
100
AcDbEntity
  8
0
 62
     0
370
    -2
100
AcDbLine
 10
965.2020383809608
 20
-189.507722315476
 30
0.0
 11
965.2020383809608
 21
-182.1111888375383
 31
0.0
  0
LINE
  5
129C
330
122B
100
AcDbEntity
  8
0
 62
     0
370
    -2
100
AcDbLine
 10
972.6405127504508
 20
-183.3611888375383
 30
0.0
 11
967.7020383809606
 21
-183.3611888375383
 31
0.0
  0
INSERT
  5
129D
330
122B
100
AcDbEntity
  8
0
 62
     0
370
    -2
100
AcDbBlockReference
  2
_Open30
 10
975.1405127504508
 20
-183.3611888375383
 30
0.0
 41
2.5
 42
2.5
 43
2.5
  0
INSERT
  5
129E
330
122B
100
AcDbEntity
  8
0
 62
     0
370
    -2
100
AcDbBlockReference
  2
_Open30
 10
965.2020383809608
 20
-183.3611888375383
 30
0.0
 41
2.5
 42
2.5
 43
2.5
 50
180.0
  0
MTEXT
  5
129F
330
122B
100
AcDbEntity
  8
0
 62
     4
100
AcDbMText
 10
970.1712755657059
 20
-180.2861888375383
 30
0.0
 40
3.0
 41
0.0
 71
     5
 72
     1
  1
9.94\H0.7X;\S+0^ -0.02;
 73
     1
 44
1.0
1001
ACAD
1000
MTEXTBEGIN
1070
    73
1070
     1
1070
    44
1040
1.0
1070
    74
1070
     0
1000
MTEXTEND
  0
POINT
  5
12A0
330
122B
100
AcDbEntity
  8
Defpoints
 62
     0
100
AcDbPoint
 10
975.1405127504508
 20
-189.757722315476
 30
0.0
  0
POINT
  5
12A1
330
122B
100
AcDbEntity
  8
Defpoints
 62
     0
100
AcDbPoint
 10
965.2020383809608
 20
-189.757722315476
 30
0.0
  0
POINT
  5
12A2
330
122B
100
AcDbEntity
  8
Defpoints
 62
     0
100
AcDbPoint
 10
965.2020383809608
 20
-183.3611888375383
 30
0.0
  0
ENDBLK
  5
122D
330
122B
100
AcDbEntity
  8
0
100
AcDbBlockEnd
  0
ENDSEC
  0
SECTION
  2
ENTITIES
  0
LINE
  5
D3
330
6B
100
AcDbEntity
  8
0
 62
     3
100
AcDbLine
 10
20.318936
 20
-183.90941
 30
0.0
 11
20.318936
 21
-457.9647709999998
 31
0.0
  0
LINE
  5
D4
330
6B
100
AcDbEntity
  8
0
 62
     3
100
AcDbLine
 10
20.318936
 20
-183.90941
 30
0.0
 11
410.318936
 21
-183.90941
 31
0.0
  0
LINE
  5
D5
330
6B
100
AcDbEntity
  8
0
 62
     3
100
AcDbLine
 10
410.318936
 20
-457.9647709999998
 30
0.0
 11
20.318936
 21
-457.9647709999998
 31
0.0
  0
LINE
  5
D8
330
6B
100
AcDbEntity
  8
0
 62
     3
100
AcDbLine
 10
410.318936
 20
-183.90941
 30
0.0
 11
410.318936
 21
-457.9647709999997
 31
0.0
  0
TEXT
  5
DF
330
6B
100
AcDbEntity
  8
0
 62
     3
100
AcDbText
 10
345.415289
 20
-446.885302
 30
0.0
 40
3.2
  1
1/2
  7
高3.2
100
AcDbText
  0
TEXT
  5
E0
330
6B
100
AcDbEntity
  8
0
 62
     3
100
AcDbText
 10
316.77081
 20
-439.668694
 30
0.0
 40
3.2
  1
別　掲
  7
高3.2
100
AcDbText
  0
TEXT
  5
150
330
6B
100
AcDbEntity
  8
0
 62
     3
100
AcDbText
 10
374.625577
 20
-446.9615339999998
 30
0.0
 40
3.2
  1
2000.8.31
  7
高3.2
100
AcDbText
  0
CIRCLE
  5
18D
330
6B
100
AcDbEntity
  8
0
100
AcDbCircle
 10
109.2117137015172
 20
-226.4188504766377
 30
0.0
 40
5.0
  0
TEXT
  5
18E
330
6B
100
AcDbEntity
  8
0
 62
     4
100
AcDbText
 10
108.184104736181
 20
-229.4182519351656
 30
0.0
 40
6.299999999999998
  1
1
  7
高6.3
100
AcDbText
  0
TEXT
  5
199
330
6B
100
AcDbEntity
  8
0
 62
     3
100
AcDbText
 10
362.26821
 20
-456.8017509999998
 30
0.0
 40
6.299999999999998
  1
M-20S
  7
高6.3
100
AcDbText
  0
LINE
  5
19A
330
6B
100
AcDbEntity
  8
0
 62
     3
100
AcDbLine
 10
7.917011999999997
 20
-317.464771
 30
0.0
 11
5.318935999999998
 21
-318.964771
 31
0.0
  0
LINE
  5
19B
330
6B
100
AcDbEntity
  8
0
 62
     3
100
AcDbLine
 10
7.917011999999997
 20
-317.464771
 30
0.0
 11
5.318935999999998
 21
-315.964771
 31
0.0
  0
LINE
  5
19C
330
6B
100
AcDbEntity
  8
0
 62
     3
100
AcDbLine
 10
5.318935999999998
 20
-318.964771
 30
0.0
 11
5.318935999999998
 21
-315.964771
 31
0.0
  0
LINE
  5
1AF
330
6B
100
AcDbEntity
  8
0
 62
     3
100
AcDbLine
 10
183.0208843492321
 20
-457.9647709999998
 30
0.0
 11
183.0208843492321
 21
-412.9647725558163
 31
0.0
  0
TEXT
  5
1B2
330
6B
100
AcDbEntity
  8
0
 62
     3
100
AcDbText
 10
321.1089465410505
 20
-426.0007009999998
 30
0.0
 40
4.5
  1
昇圧トランス
  7
高4.5
100
AcDbText
  0
TEXT
  5
1B9
330
6B
100
AcDbEntity
  8
0
 62
     3
100
AcDbText
 10
325.0782529999999
 20
-433.3423509999998
 30
0.0
 40
4.5
  1
M-20S
  7
高4.5
100
AcDbText
  0
LINE
  5
28A
330
6B
100
AcDbEntity
  8
0
 62
     3
100
AcDbLine
 10
384.619573
 20
-441.299048
 30
0.0
 11
384.619573
 21
-418.2990479999999
 31
0.0
  0
LINE
  5
28C
330
6B
100
AcDbEntity
  8
0
 62
     3
100
AcDbLine
 10
331.565963
 20
-448.299048
 30
0.0
 11
331.565963
 21
-434.299048
 31
0.0
  0
TEXT
  5
28E
330
6B
100
AcDbEntity
  8
0
 62
     3
100
AcDbText
 10
360.629891
 20
-422.093932
 30
0.0
 40
2.0
  1
A
 41
0.7
100
AcDbText
  0
TEXT
  5
28F
330
6B
100
AcDbEntity
  8
0
 62
     3
100
AcDbText
 10
363.165177
 20
-422.093932
 30
0.0
 40
2.0
  1
P
 41
0.7
100
AcDbText
  0
TEXT
  5
290
330
6B
100
AcDbEntity
  8
0
 62
     3
100
AcDbText
 10
365.700463
 20
-422.093932
 30
0.0
 40
2.0
  1
P
 41
0.7
100
AcDbText
  0
TEXT
  5
291
330
6B
100
AcDbEntity
  8
0
 62
     3
100
AcDbText
 10
368.235749
 20
-422.093932
 30
0.0
 40
2.0
  1
D
 41
0.7
100
AcDbText
  0
TEXT
  5
292
330
6B
100
AcDbEntity
  8
0
 62
     3
100
AcDbText
 10
373.604433
 20
-422.093932
 30
0.0
 40
2.0
  1
C
 41
0.7
100
AcDbText
  0
TEXT
  5
293
330
6B
100
AcDbEntity
  8
0
 62
     3
100
AcDbText
 10
376.139719
 20
-422.093932
 30
0.0
 40
2.0
  1
H
 41
0.7
100
AcDbText
  0
TEXT
  5
294
330
6B
100
AcDbEntity
  8
0
 62
     3
100
AcDbText
 10
378.675005
 20
-422.093932
 30
0.0
 40
2.0
  1
C
 41
0.7
100
AcDbText
  0
TEXT
  5
295
330
6B
100
AcDbEntity
  8
0
 62
     3
100
AcDbText
 10
381.2102910000001
 20
-422.093932
 30
0.0
 40
2.0
  1
K
 41
0.7
100
AcDbText
  0
TEXT
  5
296
330
6B
100
AcDbEntity
  8
0
 62
     3
100
AcDbText
 10
386.884258
 20
-422.093932
 30
0.0
 40
2.0
  1
DESN
 41
1.216762999999998
100
AcDbText
  0
TEXT
  5
297
330
6B
100
AcDbEntity
  8
0
 62
     3
100
AcDbText
 10
301.877899
 20
-451.4404299999998
 30
0.0
 40
2.0
  1
NICHIDO IND.CO.LTD
 41
1.274876
100
AcDbText
  0
LINE
  5
298
330
6B
100
AcDbEntity
  8
0
 62
     3
100
AcDbLine
 10
312.260928
 20
-418.2990479999999
 30
0.0
 11
312.260928
 21
-441.299048
 31
0.0
  0
LINE
  5
299
330
6B
100
AcDbEntity
  8
0
 62
     3
100
AcDbLine
 10
358.6195730000002
 20
-418.2990479999999
 30
0.0
 11
358.619573
 21
-457.9647709999998
 31
0.0
  0
LINE
  5
29E
330
6B
100
AcDbEntity
  8
0
 62
     3
100
AcDbLine
 10
371.619573
 20
-418.2990479999999
 30
0.0
 11
371.619573
 21
-448.299048
 31
0.0
  0
TEXT
  5
29F
330
6B
100
AcDbEntity
  8
0
 62
     3
100
AcDbText
 10
359.732017
 20
-447.434361
 30
0.0
 40
3.2
  1
作成日
 41
1.017225999999997
100
AcDbText
  0
LINE
  5
2A0
330
6B
100
AcDbEntity
  8
0
 62
     3
100
AcDbLine
 10
410.318936
 20
-418.2990479999999
 30
0.0
 11
299.015494
 21
-418.2990479999999
 31
0.0
  0
LINE
  5
2A1
330
6B
100
AcDbEntity
  8
0
 62
     3
100
AcDbLine
 10
397.619573
 20
-441.299048
 30
0.0
 11
397.619573
 21
-418.2990479999999
 31
0.0
  0
TEXT
  5
2A2
330
6B
100
AcDbEntity
  8
0
 62
     3
100
AcDbText
 10
400.943376
 20
-422.0081129999998
 30
0.0
 40
1.8
  1
D
 41
0.666667
100
AcDbText
  0
TEXT
  5
2A3
330
6B
100
AcDbEntity
  8
0
 62
     3
100
AcDbText
 10
403.760004
 20
-422.0081129999998
 30
0.0
 40
1.8
  1
E
 41
0.666667
100
AcDbText
  0
TEXT
  5
2A4
330
6B
100
AcDbEntity
  8
0
 62
     3
100
AcDbText
 10
406.5766319999998
 20
-422.0081129999998
 30
0.0
 40
1.8
  1
F
 41
0.666667
100
AcDbText
  0
TEXT
  5
2A5
330
6B
100
AcDbEntity
  8
0
 62
     3
100
AcDbText
 10
400.943376
 20
-426.000667
 30
0.0
 40
3.2
  1
製図
 41
1.076369
100
AcDbText
  0
LINE
  5
2A6
330
6B
100
AcDbEntity
  8
0
 62
     3
100
AcDbLine
 10
299.015494
 20
-418.2990479999999
 30
0.0
 11
299.015494
 21
-457.9647709999998
 31
0.0
  0
TEXT
  5
2A7
330
6B
100
AcDbEntity
  8
0
 62
     3
100
AcDbText
 10
300.392146
 20
-457.632305
 30
0.0
 40
5.0
  1
日動工業株式会社
 41
0.833333
100
AcDbText
  0
LINE
  5
2A8
330
6B
100
AcDbEntity
  8
0
 62
     3
100
AcDbLine
 10
341.8978980000001
 20
-434.2990480000001
 30
0.0
 11
341.897898
 21
-457.9647709999998
 31
0.0
  0
LINE
  5
2A9
330
6B
100
AcDbEntity
  8
0
 62
     3
100
AcDbLine
 10
341.897898
 20
-453.131909
 30
0.0
 11
358.619573
 21
-453.131909
 31
0.0
  0
TEXT
  5
2AA
330
6B
100
AcDbEntity
  8
0
 62
     3
100
AcDbText
 10
342.4845
 20
-452.3154789999998
 30
0.0
 40
3.2
  1
出図コード
 41
0.8356860000000001
100
AcDbText
  0
LINE
  5
2AC
330
6B
100
AcDbEntity
  8
0
 62
     3
100
AcDbLine
 10
299.015494
 20
-448.299048
 30
0.0
 11
410.318936
 21
-448.299048
 31
0.0
  0
LINE
  5
2AE
330
6B
100
AcDbEntity
  8
0
 62
     3
100
AcDbLine
 10
299.015494
 20
-427.299048
 30
0.0
 11
410.318936
 21
-427.299048
 31
0.0
  0
LINE
  5
2B4
330
6B
100
AcDbEntity
  8
0
 62
     3
100
AcDbLine
 10
299.015494
 20
-434.299048
 30
0.0
 11
358.619573
 21
-434.299048
 31
0.0
  0
LINE
  5
2BA
330
6B
100
AcDbEntity
  8
0
 62
     3
100
AcDbLine
 10
299.015494
 20
-441.299048
 30
0.0
 11
410.318936
 21
-441.299048
 31
0.0
  0
TEXT
  5
2BB
330
6B
100
AcDbEntity
  8
0
 62
     3
100
AcDbText
 10
342.351951
 20
-457.5548847153299
 30
0.0
 40
3.2
  1
ZK-A3X
 41
0.8112849999999999
100
AcDbText
  0
TEXT
  5
2BC
330
6B
100
AcDbEntity
  8
0
 62
     3
100
AcDbText
 10
300.832891
 20
-422.129522
 30
0.0
 40
2.0
  1
CONPONENTS
 41
0.5331600000000001
100
AcDbText
  0
TEXT
  5
2BD
330
6B
100
AcDbEntity
  8
0
 62
     3
100
AcDbText
 10
300.483164
 20
-441.061699
 30
0.0
 40
3.0
  1
材
 41
0.833333
100
AcDbText
  0
TEXT
  5
2BE
330
6B
100
AcDbEntity
  8
0
 62
     3
100
AcDbText
 10
308.018807
 20
-441.061699
 30
0.0
 40
3.0
  1
質
 41
0.833333
100
AcDbText
  0
TEXT
  5
2BF
330
6B
100
AcDbEntity
  8
0
 62
     3
100
AcDbText
 10
300.571235
 20
-430.437174
 30
0.0
 40
2.0
  1
MODEL
 41
1.031072999999999
100
AcDbText
  0
TEXT
  5
2C0
330
6B
100
AcDbEntity
  8
0
 62
     3
100
AcDbText
 10
300.483164
 20
-437.3793909999998
 30
0.0
 40
2.0
  1
MATERIAL
 41
0.659278
100
AcDbText
  0
TEXT
  5
2C1
330
6B
100
AcDbEntity
  8
0
 62
     3
100
AcDbText
 10
331.790444
 20
-441.061699
 30
0.0
 40
3.0
  1
備
 41
0.833333
100
AcDbText
  0
TEXT
  5
2C2
330
6B
100
AcDbEntity
  8
0
 62
     3
100
AcDbText
 10
338.523446
 20
-441.061699
 30
0.0
 40
3.0
  1
考
 41
0.833333
100
AcDbText
  0
TEXT
  5
2C3
330
6B
100
AcDbEntity
  8
0
 62
     3
100
AcDbText
 10
332.2423728466292
 20
-437.3793909999998
 30
0.0
 40
2.0
  1
REMARKS
 41
0.675794
100
AcDbText
  0
TEXT
  5
2C4
330
6B
100
AcDbEntity
  8
0
 62
     3
100
AcDbText
 10
302.072893
 20
-444.299511
 30
0.0
 40
2.0
  1
3AD
 41
1.42614
100
AcDbText
  0
TEXT
  5
2C5
330
6B
100
AcDbEntity
  8
0
 62
     3
100
AcDbText
 10
311.383873
 20
-444.133778
 30
0.0
 40
2.0
  1
ANGLE
 41
1.669883999999995
100
AcDbText
  0
TEXT
  5
2C6
330
6B
100
AcDbEntity
  8
0
 62
     3
100
AcDbText
 10
332.31776
 20
-444.510619
 30
0.0
 40
2.0
  1
SCALE
 41
0.7719630000000001
100
AcDbText
  0
TEXT
  5
2C7
330
6B
100
AcDbEntity
  8
0
 62
     3
100
AcDbText
 10
301.759023
 20
-448.299048
 30
0.0
 40
3.0
  1
第
 41
0.833333
100
AcDbText
  0
TEXT
  5
2C8
330
6B
100
AcDbEntity
  8
0
 62
     3
100
AcDbText
 10
309.545873
 20
-448.299048
 30
0.0
 40
3.0
  1
三
 41
0.833333
100
AcDbText
  0
TEXT
  5
2C9
330
6B
100
AcDbEntity
  8
0
 62
     3
100
AcDbText
 10
317.332723
 20
-448.299048
 30
0.0
 40
3.0
  1
角
 41
0.833333
100
AcDbText
  0
TEXT
  5
2CA
330
6B
100
AcDbEntity
  8
0
 62
     3
100
AcDbText
 10
325.119573
 20
-448.299048
 30
0.0
 40
3.0
  1
法
 41
0.833333
100
AcDbText
  0
TEXT
  5
2CB
330
6B
100
AcDbEntity
  8
0
 62
     3
100
AcDbText
 10
332.180965
 20
-448.0106189999998
 30
0.0
 40
3.0
  1
尺
 41
0.833333
100
AcDbText
  0
TEXT
  5
2CC
330
6B
100
AcDbEntity
  8
0
 62
     3
100
AcDbText
 10
338.913966
 20
-448.0106189999998
 30
0.0
 40
3.0
  1
度
 41
0.833333
100
AcDbText
  0
TEXT
  5
2CD
330
6B
100
AcDbEntity
  8
0
 62
     3
100
AcDbText
 10
361.497237
 20
-425.841319
 30
0.0
 40
3.0
  1
承認
 41
1.089472999999999
100
AcDbText
  0
TEXT
  5
2CE
330
6B
100
AcDbEntity
  8
0
 62
     3
100
AcDbText
 10
374.740117
 20
-425.899048
 30
0.0
 40
3.0
  1
検図
 41
0.931761
100
AcDbText
  0
TEXT
  5
2CF
330
6B
100
AcDbEntity
  8
0
 62
     3
100
AcDbText
 10
387.740514
 20
-425.899048
 30
0.0
 40
3.0
  1
設
 41
0.833333
100
AcDbText
  0
TEXT
  5
2D0
330
6B
100
AcDbEntity
  8
0
 62
     3
100
AcDbText
 10
392.230382
 20
-425.899048
 30
0.0
 40
3.0
  1
計
 41
0.833333
100
AcDbText
  0
TEXT
  5
2D1
330
6B
100
AcDbEntity
  8
0
 62
     3
100
AcDbText
 10
300.902997
 20
-425.7264959999998
 30
0.0
 40
3.0
  1
品
 41
0.833333
100
AcDbText
  0
TEXT
  5
2D2
330
6B
100
AcDbEntity
  8
0
 62
     3
100
AcDbText
 10
308.438639
 20
-425.7264959999998
 30
0.0
 40
3.0
  1
名
 41
0.833333
100
AcDbText
  0
TEXT
  5
2D3
330
6B
100
AcDbEntity
  8
0
 62
     3
100
AcDbText
 10
300.571235
 20
-433.9742380875904
 30
0.0
 40
3.0
  1
型
 41
0.833333
100
AcDbText
  0
TEXT
  5
2D4
330
6B
100
AcDbEntity
  8
0
 62
     3
100
AcDbText
 10
308.119325
 20
-433.9742380875904
 30
0.0
 40
3.0
  1
式
 41
0.833333
100
AcDbText
  0
TEXT
  5
2D5
330
6B
100
AcDbEntity
  8
0
 62
     3
100
AcDbText
 10
133.8619042626953
 20
-457.4647709999998
 30
0.0
 40
3.2
  1
個数
 41
0.8
  7
高3.2
100
AcDbText
  0
LINE
  5
2D6
330
6B
100
AcDbEntity
  8
0
 62
     3
100
AcDbLine
 10
20.318936
 20
-452.9647709999998
 30
0.0
 11
183.0208843492321
 21
-452.9647709999998
 31
0.0
  0
TEXT
  5
2D7
330
6B
100
AcDbEntity
  8
0
 62
     3
100
AcDbText
 10
97.14213492835863
 20
-457.4647709999998
 30
0.0
 40
3.2
  1
備　　　　　考
 41
0.8
  7
高3.2
100
AcDbText
  0
TEXT
  5
2D8
330
6B
100
AcDbEntity
  8
0
 62
     3
100
AcDbText
 10
61.49890645280232
 20
-457.4647709999998
 30
0.0
 40
3.2
  1
材　　　質
 41
0.8
  7
高3.2
100
AcDbText
  0
TEXT
  5
2D9
330
6B
100
AcDbEntity
  8
0
 62
     3
100
AcDbText
 10
27.24434843147407
 20
-457.4647709999998
 30
0.0
 40
3.2
  1
部　　品　　名
 41
0.8
  7
高3.2
100
AcDbText
  0
TEXT
  5
2DA
330
6B
100
AcDbEntity
  8
0
 62
     3
100
AcDbText
 10
21.81893600000001
 20
-457.4647709999998
 30
0.0
 40
3.2
  1
No
 41
0.8
  7
高3.2
100
AcDbText
  0
TEXT
  5
2DB
330
6B
100
AcDbEntity
  8
0
 62
     3
100
AcDbText
 10
97.14213492835863
 20
-417.4647725558166
 30
0.0
 40
3.2
  1
AC150V計（1次側）
 41
0.8
  7
高3.2
100
AcDbText
  0
TEXT
  5
2DC
330
6B
100
AcDbEntity
  8
0
 62
     3
100
AcDbText
 10
97.14213492835863
 20
-437.464771777908
 30
0.0
 40
3.2
  1
2P 15A 125V(白)
 41
0.8
  7
高3.2
100
AcDbText
  0
TEXT
  5
2DD
330
6B
100
AcDbEntity
  8
0
 62
     3
100
AcDbText
 10
97.14213492835863
 20
-447.4647709999998
 30
0.0
 40
3.2
  1
外カバー、パネルベース
 41
0.8
  7
高3.2
100
AcDbText
  0
TEXT
  5
2DE
330
6B
100
AcDbEntity
  8
0
 62
     3
100
AcDbText
 10
133.8619042626953
 20
-452.4647709999999
 30
0.0
 40
3.2
  1
1
 41
0.8
  7
高3.2
100
AcDbText
  0
TEXT
  5
2DF
330
6B
100
AcDbEntity
  8
0
 62
     3
100
AcDbText
 10
133.8619042626953
 20
-442.4647717779084
 30
0.0
 40
3.2
  1
1
 41
0.8
  7
高3.2
100
AcDbText
  0
TEXT
  5
2E1
330
6B
100
AcDbEntity
  8
0
 62
     3
100
AcDbText
 10
133.8619042626953
 20
-417.4647725558166
 30
0.0
 40
3.2
  1
1
 41
0.8
  7
高3.2
100
AcDbText
  0
TEXT
  5
2E2
330
6B
100
AcDbEntity
  8
0
 62
     3
100
AcDbText
 10
133.8619042626953
 20
-447.4647709999998
 30
0.0
 40
3.2
  1
1式
 41
0.8
  7
高3.2
100
AcDbText
  0
TEXT
  5
2E4
330
6B
100
AcDbEntity
  8
0
 62
     3
100
AcDbText
 10
133.8619042626953
 20
-427.4647725558166
 30
0.0
 40
3.2
  1
1
 41
0.8
  7
高3.2
100
AcDbText
  0
TEXT
  5
2E5
330
6B
100
AcDbEntity
  8
0
 62
     3
100
AcDbText
 10
97.14213492835863
 20
-442.4647717779083
 30
0.0
 40
3.2
  1
1.25sqx2芯x1.3m
 41
0.8
  7
高3.2
100
AcDbText
  0
TEXT
  5
2E6
330
6B
100
AcDbEntity
  8
0
 62
     3
100
AcDbText
 10
133.8619042626953
 20
-422.4647725558166
 30
0.0
 40
3.2
  1
1
 41
0.8
  7
高3.2
100
AcDbText
  0
LINE
  5
2E7
330
6B
100
AcDbEntity
  8
0
100
AcDbLine
 10
20.318936
 20
-447.9647709999999
 30
0.0
 11
183.0208843492321
 21
-447.9647709999999
 31
0.0
  0
LINE
  5
2E8
330
6B
100
AcDbEntity
  8
0
100
AcDbLine
 10
20.318936
 20
-442.9647717779083
 30
0.0
 11
183.0208843492321
 21
-442.9647717779084
 31
0.0
  0
LINE
  5
2E9
330
6B
100
AcDbEntity
  8
0
100
AcDbLine
 10
20.318936
 20
-437.964771777908
 30
0.0
 11
183.0208843492321
 21
-437.964771777908
 31
0.0
  0
LINE
  5
2EA
330
6B
100
AcDbEntity
  8
0
100
AcDbLine
 10
20.318936
 20
-432.9647717779081
 30
0.0
 11
183.0208843492321
 21
-432.9647717779081
 31
0.0
  0
LINE
  5
2EB
330
6B
100
AcDbEntity
  8
0
100
AcDbLine
 10
20.318936
 20
-427.9647725558166
 30
0.0
 11
183.0208843492321
 21
-427.9647725558166
 31
0.0
  0
LINE
  5
2EC
330
6B
100
AcDbEntity
  8
0
100
AcDbLine
 10
132.3619042626953
 20
-457.9647709999998
 30
0.0
 11
132.3619042626953
 21
-412.9647725558163
 31
0.0
  0
LINE
  5
2EE
330
6B
100
AcDbEntity
  8
0
100
AcDbLine
 10
20.318936
 20
-422.9647725558166
 30
0.0
 11
183.0208843492321
 21
-422.9647725558166
 31
0.0
  0
LINE
  5
2F0
330
6B
100
AcDbEntity
  8
0
100
AcDbLine
 10
20.318936
 20
-417.9647725558166
 30
0.0
 11
183.0208843492321
 21
-417.9647725558166
 31
0.0
  0
TEXT
  5
2F1
330
6B
100
AcDbEntity
  8
0
 62
     3
100
AcDbText
 10
61.49890645280232
 20
-447.4647709999998
 30
0.0
 40
3.2
  1
SPCC
 41
0.8
  7
高3.2
100
AcDbText
  0
TEXT
  5
2F2
330
6B
100
AcDbEntity
  8
0
 62
     3
100
AcDbText
 10
27.24434843147407
 20
-452.4647709999999
 30
0.0
 40
3.2
  1
把手
 41
0.8
  7
高3.2
100
AcDbText
  0
TEXT
  5
2F3
330
6B
100
AcDbEntity
  8
0
 62
     3
100
AcDbText
 10
27.24434843147407
 20
-447.4647709999998
 30
0.0
 40
3.2
  1
ケース
 41
0.8
  7
高3.2
100
AcDbText
  0
TEXT
  5
2F6
330
6B
100
AcDbEntity
  8
0
 62
     3
100
AcDbText
 10
61.49890645280232
 20
-437.464771777908
 30
0.0
 40
3.2
  1
ABS樹脂、銅合金
 41
0.8
  7
高3.2
100
AcDbText
  0
TEXT
  5
2F7
330
6B
100
AcDbEntity
  8
0
 62
     3
100
AcDbText
 10
27.24434843147407
 20
-417.4647725558166
 30
0.0
 40
3.2
  1
電圧計
 41
0.8
  7
高3.2
100
AcDbText
  0
TEXT
  5
2F8
330
6B
100
AcDbEntity
  8
0
 62
     3
100
AcDbText
 10
61.49890645280232
 20
-452.4647709999999
 30
0.0
 40
3.2
  1
PA樹脂、真チュウ
 41
0.8
  7
高3.2
100
AcDbText
  0
TEXT
  5
2F9
330
6B
100
AcDbEntity
  8
0
 62
     3
100
AcDbText
 10
21.818936
 20
-427.4647725558166
 30
0.0
 40
3.2
  1
6
 41
0.8
  7
高3.2
100
AcDbText
  0
TEXT
  5
2FA
330
6B
100
AcDbEntity
  8
0
 62
     3
100
AcDbText
 10
21.818936
 20
-432.4647717779081
 30
0.0
 40
3.2
  1
5
 41
0.8
  7
高3.2
100
AcDbText
  0
TEXT
  5
2FB
330
6B
100
AcDbEntity
  8
0
 62
     3
100
AcDbText
 10
21.818936
 20
-437.464771777908
 30
0.0
 40
3.2
  1
4
 41
0.8
  7
高3.2
100
AcDbText
  0
TEXT
  5
2FC
330
6B
100
AcDbEntity
  8
0
 62
     3
100
AcDbText
 10
21.818936
 20
-442.4647717779083
 30
0.0
 40
3.2
  1
3
 41
0.8
  7
高3.2
100
AcDbText
  0
TEXT
  5
2FD
330
6B
100
AcDbEntity
  8
0
 62
     3
100
AcDbText
 10
21.818936
 20
-447.4647709999998
 30
0.0
 40
3.2
  1
2
 41
0.8
  7
高3.2
100
AcDbText
  0
TEXT
  5
2FE
330
6B
100
AcDbEntity
  8
0
 62
     3
100
AcDbText
 10
21.818936
 20
-452.4647709999999
 30
0.0
 40
3.2
  1
1
 41
0.8
  7
高3.2
100
AcDbText
  0
TEXT
  5
2FF
330
6B
100
AcDbEntity
  8
0
 62
     3
100
AcDbText
 10
27.24434843147407
 20
-437.464771777908
 30
0.0
 40
3.2
  1
2PWコンセント
 41
0.8
  7
高3.2
100
AcDbText
  0
TEXT
  5
301
330
6B
100
AcDbEntity
  8
0
 62
     3
100
AcDbText
 10
27.24434843147407
 20
-427.4647725558166
 30
0.0
 40
3.2
  1
サーキットブレーカー
 41
0.8
  7
高3.2
100
AcDbText
  0
TEXT
  5
302
330
6B
100
AcDbEntity
  8
0
 62
     3
100
AcDbText
 10
97.14213492835863
 20
-427.4647725558166
 30
0.0
 40
3.2
  1
6A
 41
0.8
  7
高3.2
100
AcDbText
  0
TEXT
  5
303
330
6B
100
AcDbEntity
  8
0
 62
     3
100
AcDbText
 10
27.24434843147407
 20
-442.4647717779083
 30
0.0
 40
3.2
  1
電線　2Pプラグ付き
 41
0.8
  7
高3.2
100
AcDbText
  0
TEXT
  5
304
330
6B
100
AcDbEntity
  8
0
 62
     3
100
AcDbText
 10
61.49890645280232
 20
-442.4647717779083
 30
0.0
 40
3.2
  1
VFF
 41
0.8
  7
高3.2
100
AcDbText
  0
TEXT
  5
305
330
6B
100
AcDbEntity
  8
0
 62
     3
100
AcDbText
 10
27.24434843147407
 20
-422.4647725558166
 30
0.0
 40
3.2
  1
電源ランプ
 41
0.8
  7
高3.2
100
AcDbText
  0
TEXT
  5
307
330
6B
100
AcDbEntity
  8
0
 62
     3
100
AcDbText
 10
21.818936
 20
-422.4647725558166
 30
0.0
 40
3.2
  1
7
 41
0.8
  7
高3.2
100
AcDbText
  0
LINE
  5
308
330
6B
100
AcDbEntity
  8
0
100
AcDbLine
 10
59.99890645280232
 20
-457.9647709999998
 30
0.0
 11
59.99890645280236
 21
-412.9647725558163
 31
0.0
  0
LINE
  5
309
330
6B
100
AcDbEntity
  8
0
100
AcDbLine
 10
25.74434843147407
 20
-457.9647709999998
 30
0.0
 11
25.74434843147407
 21
-412.9647725558163
 31
0.0
  0
LINE
  5
30A
330
6B
100
AcDbEntity
  8
0
100
AcDbLine
 10
95.64213492835863
 20
-457.9647709999998
 30
0.0
 11
95.64213492835863
 21
-412.9647725558163
 31
0.0
  0
LINE
  5
31C
330
6B
100
AcDbEntity
  8
0
 62
     3
100
AcDbLine
 10
384.619573
 20
-418.2990479999999
 30
0.0
 11
384.619573
 21
-412.2990479999998
 31
0.0
  0
LINE
  5
31D
330
6B
100
AcDbEntity
  8
0
 62
     3
100
AcDbLine
 10
358.619573
 20
-418.2990479999999
 30
0.0
 11
358.619573
 21
-412.2990479999998
 31
0.0
  0
LINE
  5
31E
330
6B
100
AcDbEntity
  8
0
 62
     3
100
AcDbLine
 10
410.318936
 20
-412.2990479999998
 30
0.0
 11
358.619573
 21
-412.2990479999998
 31
0.0
  0
TEXT
  5
31F
330
6B
100
AcDbEntity
  8
0
 62
     3
100
AcDbText
 10
364.615171
 20
-417.502699
 30
0.0
 40
4.5
  1
コード
  7
高4.5
100
AcDbText
  0
TEXT
  5
320
330
6B
100
AcDbEntity
  8
0
 62
     3
100
AcDbText
 10
389.2968306534758
 20
-417.6549109999998
 30
0.0
 40
4.5
  1
5701
  7
高4.5
100
AcDbText
  0
TEXT
  5
3FC
330
6B
100
AcDbEntity
  8
0
 62
     3
100
AcDbText
 10
397.818936
 20
-193.40941
 30
0.0
 40
3.2
  1
担　当
  7
高3.2
100
AcDbText
  0
TEXT
  5
3FD
330
6B
100
AcDbEntity
  8
0
 62
     3
100
AcDbText
 10
353.818936
 20
-193.40941
 30
0.0
 40
3.2
  1
変更・追記内容
  7
高3.2
100
AcDbText
  0
TEXT
  5
3FE
330
6B
100
AcDbEntity
  8
0
 62
     3
100
AcDbText
 10
328.9324510003392
 20
-198.0799485099083
 30
0.0
 40
2.0
  1
1
  7
高2
100
AcDbText
  0
TEXT
  5
3FF
330
6B
100
AcDbEntity
  8
0
 62
     3
100
AcDbText
 10
328.623939523582
 20
-203.2497652221812
 30
0.0
 40
2.0
  1
2
  7
高2
100
AcDbText
  0
TEXT
  5
400
330
6B
100
AcDbEntity
  8
0
 62
     3
100
AcDbText
 10
335.818936
 20
-193.40941
 30
0.0
 40
3.2
  1
日　付
  7
高3.2
100
AcDbText
  0
TEXT
  5
401
330
6B
100
AcDbEntity
  8
0
 62
     3
100
AcDbText
 10
335.818936
 20
-188.40941
 30
0.0
 40
3.2
  1
図　　　　面　　　　略　　　　歴
  7
高3.2
100
AcDbText
  0
TEXT
  5
402
330
6B
100
AcDbEntity
  8
0
 62
     3
100
AcDbText
 10
325.818936
 20
-193.40941
 30
0.0
 40
3.2
  1
記号
  7
高3.2
100
AcDbText
  0
LINE
  5
403
330
6B
100
AcDbEntity
  8
0
100
AcDbLine
 10
329.318936
 20
-200.1185139999999
 30
0.0
 11
327.418936
 21
-203.40941
 31
0.0
  0
LINE
  5
404
330
6B
100
AcDbEntity
  8
0
100
AcDbLine
 10
329.318936
 20
-200.1185139999999
 30
0.0
 11
331.218936
 21
-203.40941
 31
0.0
  0
LINE
  5
405
330
6B
100
AcDbEntity
  8
0
100
AcDbLine
 10
327.418936
 20
-203.40941
 30
0.0
 11
331.218936
 21
-203.40941
 31
0.0
  0
LINE
  5
406
330
6B
100
AcDbEntity
  8
0
100
AcDbLine
 10
329.318936
 20
-195.1185129999999
 30
0.0
 11
327.418936
 21
-198.40941
 31
0.0
  0
LINE
  5
407
330
6B
100
AcDbEntity
  8
0
100
AcDbLine
 10
329.318936
 20
-195.1185129999999
 30
0.0
 11
331.218936
 21
-198.40941
 31
0.0
  0
LINE
  5
408
330
6B
100
AcDbEntity
  8
0
100
AcDbLine
 10
327.418936
 20
-198.40941
 30
0.0
 11
331.218936
 21
-198.40941
 31
0.0
  0
LINE
  5
409
330
6B
100
AcDbEntity
  8
0
 62
     3
100
AcDbLine
 10
324.318936
 20
-188.90941
 30
0.0
 11
410.318936
 21
-188.90941
 31
0.0
  0
LINE
  5
40A
330
6B
100
AcDbEntity
  8
0
 62
     3
100
AcDbLine
 10
324.318936
 20
-193.90941
 30
0.0
 11
410.318936
 21
-193.90941
 31
0.0
  0
LINE
  5
40B
330
6B
100
AcDbEntity
  8
0
 62
     7
100
AcDbLine
 10
324.318936
 20
-198.90941
 30
0.0
 11
410.318936
 21
-198.90941
 31
0.0
  0
LINE
  5
40C
330
6B
100
AcDbEntity
  8
0
 62
     3
100
AcDbLine
 10
324.318936
 20
-203.90941
 30
0.0
 11
410.318936
 21
-203.90941
 31
0.0
  0
LINE
  5
40D
330
6B
100
AcDbEntity
  8
0
 62
     7
100
AcDbLine
 10
396.3189359999999
 20
-203.90941
 30
0.0
 11
396.318936
 21
-188.90941
 31
0.0
  0
LINE
  5
40E
330
6B
100
AcDbEntity
  8
0
 62
     7
100
AcDbLine
 10
352.318936
 20
-203.90941
 30
0.0
 11
352.318936
 21
-188.90941
 31
0.0
  0
LINE
  5
40F
330
6B
100
AcDbEntity
  8
0
 62
     7
100
AcDbLine
 10
334.318936
 20
-203.90941
 30
0.0
 11
334.318936
 21
-188.90941
 31
0.0
  0
LINE
  5
410
330
6B
100
AcDbEntity
  8
0
 62
     3
100
AcDbLine
 10
324.318936
 20
-203.90941
 30
0.0
 11
324.318936
 21
-183.90941
 31
0.0
  0
LINE
  5
5F4
330
6B
100
AcDbEntity
  8
0
  6
Continuous
 62
     3
100
AcDbLine
 10
160.6833576173866
 20
-251.4446291239833
 30
0.0
 11
95.1833576173866
 21
-251.4446291239833
 31
0.0
  0
LINE
  5
5F5
330
6B
100
AcDbEntity
  8
0
  6
Continuous
 62
     3
100
AcDbLine
 10
164.1833576173866
 20
-254.9446291239833
 30
0.0
 11
164.1833576173866
 21
-314.4446291239833
 31
0.0
  0
LINE
  5
5F6
330
6B
100
AcDbEntity
  8
0
  6
Continuous
 62
     3
100
AcDbLine
 10
91.68335761738658
 20
-254.9446291239833
 30
0.0
 11
91.68335761738658
 21
-314.4446291239833
 31
0.0
  0
LINE
  5
5F7
330
6B
100
AcDbEntity
  8
0
  6
Continuous
 62
     3
100
AcDbLine
 10
221.7543512081879
 20
-306.9446291239833
 30
0.0
 11
221.7543512081879
 21
-251.4446291239832
 31
0.0
  0
LINE
  5
5F8
330
6B
100
AcDbEntity
  8
0
  6
Continuous
 62
     3
100
AcDbLine
 10
301.7543512081879
 20
-251.4446291239832
 30
0.0
 11
301.7543512081879
 21
-314.4446291239833
 31
0.0
  0
ARC
  5
AF4
330
6B
100
AcDbEntity
  8
0
  6
Continuous
 62
     3
100
AcDbCircle
 10
160.6833576173867
 20
-254.9446291239832
 30
0.0
 40
3.5
100
AcDbArc
 50
0.0
 51
90.0
  0
ARC
  5
AF5
330
6B
100
AcDbEntity
  8
0
  6
Continuous
 62
     3
100
AcDbCircle
 10
95.1833576173866
 20
-254.9446291239833
 30
0.0
 40
3.5
100
AcDbArc
 50
90.0
 51
180.0
  0
LINE
  5
AF6
330
6B
100
AcDbEntity
  8
0
  6
Continuous
100
AcDbLine
 10
160.6833576173866
 20
-251.9446291239833
 30
0.0
 11
95.1833576173866
 21
-251.9446291239833
 31
0.0
  0
ARC
  5
AF7
330
6B
100
AcDbEntity
  8
0
  6
Continuous
100
AcDbCircle
 10
160.6833576173867
 20
-254.9446291239832
 30
0.0
 40
3.0
100
AcDbArc
 50
0.0
 51
90.0
  0
LINE
  5
AF8
330
6B
100
AcDbEntity
  8
0
  6
Continuous
100
AcDbLine
 10
163.6833576173865
 20
-254.9446291239833
 30
0.0
 11
163.6833576173865
 21
-314.4446291239833
 31
0.0
  0
ARC
  5
AF9
330
6B
100
AcDbEntity
  8
0
  6
Continuous
100
AcDbCircle
 10
95.1833576173866
 20
-254.9446291239833
 30
0.0
 40
3.0
100
AcDbArc
 50
90.0
 51
180.0
  0
LINE
  5
AFA
330
6B
100
AcDbEntity
  8
0
  6
Continuous
100
AcDbLine
 10
92.18335761738659
 20
-254.9446291239833
 30
0.0
 11
92.18335761738659
 21
-314.4446291239833
 31
0.0
  0
LINE
  5
AFF
330
6B
100
AcDbEntity
  8
0
  6
Continuous
 62
     3
100
AcDbLine
 10
91.68335761738658
 20
-314.4446291239833
 30
0.0
 11
164.1833576173866
 21
-314.4446291239833
 31
0.0
  0
LINE
  5
B06
330
6B
100
AcDbEntity
  8
0
  6
Continuous
 62
     3
100
AcDbLine
 10
226.7543512081879
 20
-314.4446291239833
 30
0.0
 11
301.7543512081879
 21
-314.4446291239833
 31
0.0
  0
LINE
  5
B07
330
6B
100
AcDbEntity
  8
0
  6
Continuous
 62
     3
100
AcDbLine
 10
221.7543512081879
 20
-251.4446291239832
 30
0.0
 11
301.7543512081879
 21
-251.4446291239832
 31
0.0
  0
LINE
  5
B08
330
6B
100
AcDbEntity
  8
0
  6
Continuous
100
AcDbLine
 10
91.68335761738658
 20
-306.9446291239833
 30
0.0
 11
92.18335761738659
 21
-306.9446291239833
 31
0.0
  0
LINE
  5
B0A
330
6B
100
AcDbEntity
  8
0
  6
Continuous
 62
     3
100
AcDbLine
 10
221.7543512081879
 20
-306.9446291239833
 30
0.0
 11
226.7543512081879
 21
-314.4446291239833
 31
0.0
  0
LINE
  5
B0B
330
6B
100
AcDbEntity
  8
0
  6
Continuous
100
AcDbLine
 10
163.6833576173865
 20
-306.9446291239833
 30
0.0
 11
164.1833576173866
 21
-306.9446291239833
 31
0.0
  0
LINE
  5
B0C
330
6B
100
AcDbEntity
  8
0
  6
Continuous
 62
     3
100
AcDbLine
 10
241.004351208188
 20
-315.9446291239833
 30
0.0
 11
237.504351208188
 21
-315.9446291239833
 31
0.0
  0
ARC
  5
B0D
330
6B
100
AcDbEntity
  8
0
  6
Continuous
 62
     3
100
AcDbCircle
 10
238.7161412847371
 20
-312.7600407013428
 30
0.0
 40
3.407350673358755
100
AcDbArc
 50
209.6300821999593
 51
249.1673285100351
  0
ARC
  5
B0E
330
6B
100
AcDbEntity
  8
0
  6
Continuous
 62
     3
100
AcDbCircle
 10
239.792561131639
 20
-312.7600407013428
 30
0.0
 40
3.407350673358758
100
AcDbArc
 50
290.8326714899649
 51
330.3699178000407
  0
LINE
  5
B0F
330
6B
100
AcDbEntity
  8
0
  6
Continuous
 62
     3
100
AcDbLine
 10
296.0043512081879
 20
-315.9446291239833
 30
0.0
 11
292.5043512081881
 21
-315.9446291239833
 31
0.0
  0
ARC
  5
B10
330
6B
100
AcDbEntity
  8
0
  6
Continuous
 62
     3
100
AcDbCircle
 10
293.716141284737
 20
-312.7600407013428
 30
0.0
 40
3.407350673358755
100
AcDbArc
 50
209.6300821999593
 51
249.1673285100351
  0
ARC
  5
B11
330
6B
100
AcDbEntity
  8
0
  6
Continuous
 62
     3
100
AcDbCircle
 10
294.7925611316389
 20
-312.7600407013428
 30
0.0
 40
3.407350673358758
100
AcDbArc
 50
290.8326714899649
 51
330.3699178000407
  0
LINE
  5
B15
330
6B
100
AcDbEntity
  8
0
  6
Continuous
 62
     3
100
AcDbLine
 10
152.6833576173866
 20
-315.9446291239833
 30
0.0
 11
149.1833576173865
 21
-315.9446291239833
 31
0.0
  0
ARC
  5
B16
330
6B
100
AcDbEntity
  8
0
  6
Continuous
 62
     3
100
AcDbCircle
 10
150.3951476939356
 20
-312.7600407013428
 30
0.0
 40
3.407350673358755
100
AcDbArc
 50
209.6300821999593
 51
249.1673285100351
  0
ARC
  5
B17
330
6B
100
AcDbEntity
  8
0
  6
Continuous
 62
     3
100
AcDbCircle
 10
151.4715675408375
 20
-312.7600407013428
 30
0.0
 40
3.407350673358758
100
AcDbArc
 50
290.8326714899649
 51
330.3699178000407
  0
LINE
  5
B18
330
6B
100
AcDbEntity
  8
0
  6
Continuous
 62
     3
100
AcDbLine
 10
106.6833576173866
 20
-315.9446291239833
 30
0.0
 11
103.1833576173866
 21
-315.9446291239833
 31
0.0
  0
ARC
  5
B19
330
6B
100
AcDbEntity
  8
0
  6
Continuous
 62
     3
100
AcDbCircle
 10
104.3951476939356
 20
-312.7600407013428
 30
0.0
 40
3.407350673358755
100
AcDbArc
 50
209.6300821999593
 51
249.1673285100351
  0
ARC
  5
B1A
330
6B
100
AcDbEntity
  8
0
  6
Continuous
 62
     3
100
AcDbCircle
 10
105.4715675408375
 20
-312.7600407013428
 30
0.0
 40
3.407350673358758
100
AcDbArc
 50
290.8326714899649
 51
330.3699178000407
  0
LINE
  5
B1B
330
6B
100
AcDbEntity
  8
0
  6
Continuous
 62
     3
100
AcDbLine
 10
299.7543512081879
 20
-251.4446291239832
 30
0.0
 11
299.7543512081879
 21
-248.9446291239834
 31
0.0
  0
LINE
  5
B1C
330
6B
100
AcDbEntity
  8
0
  6
Continuous
 62
     3
100
AcDbLine
 10
228.7543512081879
 20
-251.4446291239833
 30
0.0
 11
228.7543512081879
 21
-248.9446291239835
 31
0.0
  0
LINE
  5
B1D
330
6B
100
AcDbEntity
  8
0
  6
Continuous
 62
     3
100
AcDbLine
 10
286.754351208188
 20
-251.4446291239832
 30
0.0
 11
286.754351208188
 21
-248.9446291239834
 31
0.0
  0
LINE
  5
B1E
330
6B
100
AcDbEntity
  8
0
  6
Continuous
100
AcDbLine
 10
289.6293512081879
 20
-248.944629123983
 30
0.0
 11
289.6293512081879
 21
-248.7946291239831
 31
0.0
  0
LINE
  5
B1F
330
6B
100
AcDbEntity
  8
0
  6
Continuous
100
AcDbLine
 10
292.8793512081879
 20
-248.944629123983
 30
0.0
 11
292.8793512081879
 21
-248.7946291239831
 31
0.0
  0
LINE
  5
B20
330
6B
100
AcDbEntity
  8
0
  6
Continuous
 62
     3
100
AcDbLine
 10
286.754351208188
 20
-248.9446291239834
 30
0.0
 11
299.7543512081879
 21
-248.9446291239834
 31
0.0
  0
LINE
  5
B21
330
6B
100
AcDbEntity
  8
0
  6
Continuous
100
AcDbLine
 10
286.6203766119726
 20
-249.4446291239832
 30
0.0
 11
286.754351208188
 21
-249.4446291239832
 31
0.0
  0
LINE
  5
B22
330
6B
100
AcDbEntity
  8
0
  6
Continuous
100
AcDbLine
 10
285.0043512081878
 20
-247.9342661529014
 30
0.0
 11
286.754351208188
 21
-248.9446291239834
 31
0.0
  0
LINE
  5
B23
330
6B
100
AcDbEntity
  8
0
  6
Continuous
100
AcDbLine
 10
284.7543512081879
 20
-248.3672788547936
 30
0.0
 11
286.6203766119726
 21
-249.4446291239833
 31
0.0
  0
LINE
  5
B24
330
6B
100
AcDbEntity
  8
0
  6
Continuous
100
AcDbLine
 10
284.7543512081879
 20
-248.3672788547936
 30
0.0
 11
285.0043512081878
 21
-247.9342661529014
 31
0.0
  0
LINE
  5
B25
330
6B
100
AcDbEntity
  8
0
  6
Continuous
 62
     3
100
AcDbLine
 10
228.7543512081879
 20
-251.4446291239833
 30
0.0
 11
228.7543512081879
 21
-248.9446291239835
 31
0.0
  0
LINE
  5
B26
330
6B
100
AcDbEntity
  8
0
  6
Continuous
 62
     3
100
AcDbLine
 10
241.7543512081879
 20
-251.4446291239833
 30
0.0
 11
241.7543512081879
 21
-248.9446291239835
 31
0.0
  0
LINE
  5
B27
330
6B
100
AcDbEntity
  8
0
  6
Continuous
 62
     3
100
AcDbLine
 10
241.7543512081879
 20
-248.9446291239835
 30
0.0
 11
228.7543512081879
 21
-248.9446291239835
 31
0.0
  0
LINE
  5
B28
330
6B
100
AcDbEntity
  8
0
  6
Continuous
100
AcDbLine
 10
241.8883258044035
 20
-249.4446291239833
 30
0.0
 11
241.7543512081879
 21
-249.4446291239833
 31
0.0
  0
LINE
  5
B29
330
6B
100
AcDbEntity
  8
0
  6
Continuous
100
AcDbLine
 10
243.5043512081879
 20
-247.9342661529015
 30
0.0
 11
241.7543512081879
 21
-248.9446291239835
 31
0.0
  0
LINE
  5
B2A
330
6B
100
AcDbEntity
  8
0
  6
Continuous
100
AcDbLine
 10
243.7543512081879
 20
-248.3672788547937
 30
0.0
 11
241.8883258044035
 21
-249.4446291239833
 31
0.0
  0
LINE
  5
B2B
330
6B
100
AcDbEntity
  8
0
  6
Continuous
100
AcDbLine
 10
243.7543512081879
 20
-248.3672788547937
 30
0.0
 11
243.5043512081879
 21
-247.9342661529015
 31
0.0
  0
ARC
  5
B2C
330
6B
100
AcDbEntity
  8
0
  6
Continuous
100
AcDbCircle
 10
291.2543512081878
 20
-251.1852541239832
 30
0.0
 40
2.890624999999951
100
AcDbArc
 50
55.79454206189511
 51
124.2054579381049
  0
LINE
  5
B2D
330
6B
100
AcDbEntity
  8
0
  6
Continuous
100
AcDbLine
 10
235.6293512081879
 20
-248.9446291239831
 30
0.0
 11
235.6293512081879
 21
-248.7946291239832
 31
0.0
  0
LINE
  5
B2E
330
6B
100
AcDbEntity
  8
0
  6
Continuous
100
AcDbLine
 10
238.8793512081879
 20
-248.9446291239831
 30
0.0
 11
238.8793512081879
 21
-248.7946291239832
 31
0.0
  0
ARC
  5
B2F
330
6B
100
AcDbEntity
  8
0
  6
Continuous
100
AcDbCircle
 10
237.2543512081879
 20
-251.1852541239833
 30
0.0
 40
2.890624999999951
100
AcDbArc
 50
55.79454206189511
 51
124.2054579381049
  0
ARC
  5
B39
330
6B
100
AcDbEntity
  8
0
  6
Continuous
100
AcDbCircle
 10
264.2543512081879
 20
-243.6946291239832
 30
0.0
 40
7.749999999999957
100
AcDbArc
 50
0.0
 51
180.0
  0
ARC
  5
B3A
330
6B
100
AcDbEntity
  8
0
  6
Continuous
100
AcDbCircle
 10
264.2543512081879
 20
-243.6946291239832
 30
0.0
 40
6.249999999999957
100
AcDbArc
 50
0.0
 51
180.0
  0
ARC
  5
B3C
330
6B
100
AcDbEntity
  8
0
  6
Continuous
100
AcDbCircle
 10
278.2543512081878
 20
-243.6946291239832
 30
0.0
 40
6.249999999999957
100
AcDbArc
 50
180.0
 51
270.0
  0
ARC
  5
B3D
330
6B
100
AcDbEntity
  8
0
  6
Continuous
100
AcDbCircle
 10
278.2543512081878
 20
-243.6946291239832
 30
0.0
 40
7.749999999999957
100
AcDbArc
 50
180.0
 51
270.0
  0
ARC
  5
B3F
330
6B
100
AcDbEntity
  8
0
  6
Continuous
100
AcDbCircle
 10
250.2543512081881
 20
-243.6946291239832
 30
0.0
 40
6.249999999999957
100
AcDbArc
 50
270.0
 51
0.0
  0
ARC
  5
B40
330
6B
100
AcDbEntity
  8
0
  6
Continuous
100
AcDbCircle
 10
250.2543512081881
 20
-243.6946291239832
 30
0.0
 40
7.749999999999957
100
AcDbArc
 50
270.0
 51
0.0
  0
LINE
  5
B41
330
6B
100
AcDbEntity
  8
0
  6
Continuous
100
AcDbLine
 10
241.7543512081879
 20
-249.9446291239832
 30
0.0
 11
250.2543512081881
 21
-249.9446291239832
 31
0.0
  0
LINE
  5
B42
330
6B
100
AcDbEntity
  8
0
  6
Continuous
100
AcDbLine
 10
278.2543512081878
 20
-249.9446291239832
 30
0.0
 11
286.754351208188
 21
-249.9446291239832
 31
0.0
  0
LINE
  5
B43
330
6B
100
AcDbEntity
  8
0
  6
Continuous
 62
     3
100
AcDbLine
 10
124.3083576173866
 20
-236.6946291239835
 30
0.0
 11
124.3083576173866
 21
-247.9660203163495
 31
0.0
  0
LINE
  5
B44
330
6B
100
AcDbEntity
  8
0
  6
Continuous
 62
     3
100
AcDbLine
 10
131.5583576173866
 20
-236.6946291239835
 30
0.0
 11
131.5583576173866
 21
-247.9660203163495
 31
0.0
  0
LINE
  5
B45
330
6B
100
AcDbEntity
  8
0
  6
Continuous
 62
     3
100
AcDbLine
 10
123.5583576173866
 20
-251.4446291239833
 30
0.0
 11
123.5583576173866
 21
-248.9342661529014
 31
0.0
  0
LINE
  5
B46
330
6B
100
AcDbEntity
  8
0
  6
Continuous
 62
     3
100
AcDbLine
 10
132.3083576173865
 20
-251.4446291239833
 30
0.0
 11
132.3083576173865
 21
-248.9342661529014
 31
0.0
  0
LINE
  5
B47
330
6B
100
AcDbEntity
  8
0
  6
Continuous
 62
     3
100
AcDbLine
 10
130.8083576173866
 20
-235.9446291239833
 30
0.0
 11
125.0583576173866
 21
-235.9446291239833
 31
0.0
  0
LINE
  5
B48
330
6B
100
AcDbEntity
  8
0
  6
Continuous
 62
     3
100
AcDbLine
 10
132.3083576173865
 20
-248.9446291239835
 30
0.0
 11
123.5583576173866
 21
-248.9446291239835
 31
0.0
  0
LINE
  5
B49
330
6B
100
AcDbEntity
  8
0
  6
Continuous
100
AcDbLine
 10
126.3083576173866
 20
-248.9446291239831
 30
0.0
 11
126.3083576173866
 21
-248.7946291239832
 31
0.0
  0
LINE
  5
B4A
330
6B
100
AcDbEntity
  8
0
  6
Continuous
100
AcDbLine
 10
129.5583576173866
 20
-248.9446291239831
 30
0.0
 11
129.5583576173866
 21
-248.7946291239832
 31
0.0
  0
ARC
  5
B4B
330
6B
100
AcDbEntity
  8
0
  6
Continuous
100
AcDbCircle
 10
127.9333576173865
 20
-251.1852541239833
 30
0.0
 40
2.890624999999951
100
AcDbArc
 50
55.79454206189513
 51
124.2054579381048
  0
LINE
  5
B4C
330
6B
100
AcDbEntity
  8
0
  6
Continuous
100
AcDbLine
 10
131.3083576173865
 20
-247.9342661529015
 30
0.0
 11
124.5583576173866
 21
-247.9342661529015
 31
0.0
  0
ARC
  5
B4D
330
6B
100
AcDbEntity
  8
0
  6
Continuous
100
AcDbCircle
 10
131.3083576173865
 20
-248.9342661529014
 30
0.0
 40
1.0
100
AcDbArc
 50
0.0
 51
89.99999999999348
  0
ARC
  5
B4E
330
6B
100
AcDbEntity
  8
0
  6
Continuous
100
AcDbCircle
 10
124.5583576173866
 20
-248.9342661529013
 30
0.0
 40
1.0
100
AcDbArc
 50
90.0
 51
180.0
  0
ARC
  5
B4F
330
6B
100
AcDbEntity
  8
0
  6
Continuous
 62
     3
100
AcDbCircle
 10
130.8083576173865
 20
-236.6946291239835
 30
0.0
 40
0.75
100
AcDbArc
 50
0.0000000000130276
 51
89.99999999998697
  0
ARC
  5
B50
330
6B
100
AcDbEntity
  8
0
  6
Continuous
 62
     3
100
AcDbCircle
 10
125.0583576173867
 20
-236.6946291239835
 30
0.0
 40
0.75
100
AcDbArc
 50
90.00000000000651
 51
179.999999999987
  0
LINE
  5
B51
330
6B
100
AcDbEntity
  8
0
  6
Continuous
100
AcDbLine
 10
114.4333576173866
 20
-310.4446291239833
 30
0.0
 11
141.4333576173866
 21
-310.4446291239833
 31
0.0
  0
LINE
  5
B52
330
6B
100
AcDbEntity
  8
0
  6
Continuous
100
AcDbLine
 10
114.4333576173866
 20
-308.4446291239833
 30
0.0
 11
141.4333576173866
 21
-308.4446291239833
 31
0.0
  0
ARC
  5
B55
330
6B
100
AcDbEntity
  8
0
  6
Continuous
100
AcDbCircle
 10
114.4333576173866
 20
-309.4446291239833
 30
0.0
 40
1.0
100
AcDbArc
 50
90.0
 51
270.0
  0
ARC
  5
B56
330
6B
100
AcDbEntity
  8
0
  6
Continuous
100
AcDbCircle
 10
141.4333576173866
 20
-309.4446291239833
 30
0.0
 40
1.0
100
AcDbArc
 50
270.0
 51
90.0
  0
LINE
  5
B5D
330
6B
100
AcDbEntity
  8
0
  6
Continuous
 62
     3
100
AcDbLine
 10
102.439941127134
 20
-272.4446291239833
 30
0.0
 11
111.9267741076392
 21
-272.4446291239833
 31
0.0
  0
LINE
  5
B5E
330
6B
100
AcDbEntity
  8
0
  6
Continuous
 62
     3
100
AcDbLine
 10
102.439941127134
 20
-285.9446291239833
 30
0.0
 11
111.9267741076392
 21
-285.9446291239833
 31
0.0
  0
ARC
  5
B60
330
6B
100
AcDbEntity
  8
0
  6
Continuous
 62
     3
100
AcDbCircle
 10
107.1833576173866
 20
-279.1946291239833
 30
0.0
 40
8.25
100
AcDbArc
 50
305.0968012275829
 51
54.90319877241706
  0
LINE
  5
B63
330
6B
100
AcDbEntity
  8
0
  6
Continuous
 62
     3
100
AcDbLine
 10
109.8583576173866
 20
-277.4446291239833
 30
0.0
 11
110.8583576173866
 21
-277.4446291239833
 31
0.0
  0
LINE
  5
B64
330
6B
100
AcDbEntity
  8
0
  6
Continuous
 62
     3
100
AcDbLine
 10
109.8583576173866
 20
-280.9446291239833
 30
0.0
 11
110.8583576173866
 21
-280.9446291239833
 31
0.0
  0
LINE
  5
B65
330
6B
100
AcDbEntity
  8
0
  6
Continuous
 62
     3
100
AcDbLine
 10
110.8583576173866
 20
-277.4446291239833
 30
0.0
 11
110.8583576173866
 21
-280.9446291239833
 31
0.0
  0
LINE
  5
B66
330
6B
100
AcDbEntity
  8
0
  6
Continuous
 62
     3
100
AcDbLine
 10
109.8583576173866
 20
-277.4446291239833
 30
0.0
 11
109.8583576173866
 21
-280.9446291239833
 31
0.0
  0
LINE
  5
B67
330
6B
100
AcDbEntity
  8
0
  6
Continuous
 62
     3
100
AcDbLine
 10
103.5083576173865
 20
-276.9446291239833
 30
0.0
 11
104.5083576173865
 21
-276.9446291239833
 31
0.0
  0
LINE
  5
B68
330
6B
100
AcDbEntity
  8
0
  6
Continuous
 62
     3
100
AcDbLine
 10
103.5083576173865
 20
-281.4446291239833
 30
0.0
 11
104.5083576173866
 21
-281.4446291239833
 31
0.0
  0
LINE
  5
B69
330
6B
100
AcDbEntity
  8
0
  6
Continuous
 62
     3
100
AcDbLine
 10
104.5083576173865
 20
-276.9446291239833
 30
0.0
 11
104.5083576173865
 21
-281.4446291239833
 31
0.0
  0
LINE
  5
B6A
330
6B
100
AcDbEntity
  8
0
  6
Continuous
 62
     3
100
AcDbLine
 10
103.5083576173865
 20
-276.9446291239833
 30
0.0
 11
103.5083576173865
 21
-281.4446291239833
 31
0.0
  0
ARC
  5
B6F
330
6B
100
AcDbEntity
  8
0
  6
Continuous
 62
     3
100
AcDbCircle
 10
107.1833576173866
 20
-279.1946291239833
 30
0.0
 40
8.25
100
AcDbArc
 50
125.0968012275829
 51
234.903198772417
  0
LINE
  5
B70
330
6B
100
AcDbEntity
  8
0
  6
Continuous
 62
     3
100
AcDbLine
 10
102.439941127134
 20
-291.9446291239833
 30
0.0
 11
111.9267741076392
 21
-291.9446291239833
 31
0.0
  0
LINE
  5
B71
330
6B
100
AcDbEntity
  8
0
  6
Continuous
 62
     3
100
AcDbLine
 10
103.5083576173865
 20
-296.4446291239833
 30
0.0
 11
103.5083576173865
 21
-300.9446291239833
 31
0.0
  0
LINE
  5
B72
330
6B
100
AcDbEntity
  8
0
  6
Continuous
 62
     3
100
AcDbLine
 10
104.5083576173865
 20
-296.4446291239833
 30
0.0
 11
104.5083576173865
 21
-300.9446291239833
 31
0.0
  0
LINE
  5
B73
330
6B
100
AcDbEntity
  8
0
  6
Continuous
 62
     3
100
AcDbLine
 10
109.8583576173866
 20
-296.9446291239833
 30
0.0
 11
109.8583576173866
 21
-300.4446291239833
 31
0.0
  0
LINE
  5
B74
330
6B
100
AcDbEntity
  8
0
  6
Continuous
 62
     3
100
AcDbLine
 10
110.8583576173866
 20
-296.9446291239833
 30
0.0
 11
110.8583576173866
 21
-300.4446291239833
 31
0.0
  0
LINE
  5
B75
330
6B
100
AcDbEntity
  8
0
  6
Continuous
 62
     3
100
AcDbLine
 10
102.439941127134
 20
-305.4446291239833
 30
0.0
 11
111.9267741076392
 21
-305.4446291239833
 31
0.0
  0
LINE
  5
B76
330
6B
100
AcDbEntity
  8
0
  6
Continuous
 62
     3
100
AcDbLine
 10
109.8583576173866
 20
-300.4446291239833
 30
0.0
 11
110.8583576173866
 21
-300.4446291239833
 31
0.0
  0
LINE
  5
B77
330
6B
100
AcDbEntity
  8
0
  6
Continuous
 62
     3
100
AcDbLine
 10
103.5083576173865
 20
-300.9446291239833
 30
0.0
 11
104.5083576173866
 21
-300.9446291239833
 31
0.0
  0
LINE
  5
B78
330
6B
100
AcDbEntity
  8
0
  6
Continuous
 62
     3
100
AcDbLine
 10
109.8583576173866
 20
-296.9446291239833
 30
0.0
 11
110.8583576173866
 21
-296.9446291239833
 31
0.0
  0
LINE
  5
B79
330
6B
100
AcDbEntity
  8
0
  6
Continuous
 62
     3
100
AcDbLine
 10
103.5083576173865
 20
-296.4446291239833
 30
0.0
 11
104.5083576173865
 21
-296.4446291239833
 31
0.0
  0
ARC
  5
B7A
330
6B
100
AcDbEntity
  8
0
  6
Continuous
 62
     3
100
AcDbCircle
 10
107.1833576173866
 20
-298.6946291239833
 30
0.0
 40
8.25
100
AcDbArc
 50
305.0968012275829
 51
54.90319877241706
  0
ARC
  5
B7B
330
6B
100
AcDbEntity
  8
0
  6
Continuous
 62
     3
100
AcDbCircle
 10
107.1833576173866
 20
-298.6946291239833
 30
0.0
 40
8.25
100
AcDbArc
 50
125.0968012275829
 51
234.903198772417
  0
LINE
  5
B7C
330
6B
100
AcDbEntity
  8
0
  6
Continuous
 62
     3
100
AcDbLine
 10
143.939941127134
 20
-272.4446291239833
 30
0.0
 11
153.4267741076392
 21
-272.4446291239833
 31
0.0
  0
LINE
  5
B7D
330
6B
100
AcDbEntity
  8
0
  6
Continuous
 62
     3
100
AcDbLine
 10
145.0083576173865
 20
-276.9446291239833
 30
0.0
 11
145.0083576173865
 21
-281.4446291239833
 31
0.0
  0
LINE
  5
B7E
330
6B
100
AcDbEntity
  8
0
  6
Continuous
 62
     3
100
AcDbLine
 10
146.0083576173865
 20
-276.9446291239833
 30
0.0
 11
146.0083576173865
 21
-281.4446291239833
 31
0.0
  0
LINE
  5
B7F
330
6B
100
AcDbEntity
  8
0
  6
Continuous
 62
     3
100
AcDbLine
 10
151.3583576173866
 20
-277.4446291239833
 30
0.0
 11
151.3583576173866
 21
-280.9446291239833
 31
0.0
  0
LINE
  5
B80
330
6B
100
AcDbEntity
  8
0
  6
Continuous
 62
     3
100
AcDbLine
 10
152.3583576173867
 20
-277.4446291239833
 30
0.0
 11
152.3583576173867
 21
-280.9446291239833
 31
0.0
  0
LINE
  5
B81
330
6B
100
AcDbEntity
  8
0
  6
Continuous
 62
     3
100
AcDbLine
 10
143.939941127134
 20
-285.9446291239833
 30
0.0
 11
153.4267741076392
 21
-285.9446291239833
 31
0.0
  0
LINE
  5
B82
330
6B
100
AcDbEntity
  8
0
  6
Continuous
 62
     3
100
AcDbLine
 10
151.3583576173866
 20
-280.9446291239833
 30
0.0
 11
152.3583576173867
 21
-280.9446291239833
 31
0.0
  0
LINE
  5
B83
330
6B
100
AcDbEntity
  8
0
  6
Continuous
 62
     3
100
AcDbLine
 10
145.0083576173865
 20
-281.4446291239833
 30
0.0
 11
146.0083576173866
 21
-281.4446291239833
 31
0.0
  0
LINE
  5
B84
330
6B
100
AcDbEntity
  8
0
  6
Continuous
 62
     3
100
AcDbLine
 10
151.3583576173866
 20
-277.4446291239833
 30
0.0
 11
152.3583576173867
 21
-277.4446291239833
 31
0.0
  0
LINE
  5
B85
330
6B
100
AcDbEntity
  8
0
  6
Continuous
 62
     3
100
AcDbLine
 10
145.0083576173865
 20
-276.9446291239833
 30
0.0
 11
146.0083576173865
 21
-276.9446291239833
 31
0.0
  0
ARC
  5
B86
330
6B
100
AcDbEntity
  8
0
  6
Continuous
 62
     3
100
AcDbCircle
 10
148.6833576173865
 20
-279.1946291239833
 30
0.0
 40
8.25
100
AcDbArc
 50
305.0968012275829
 51
54.90319877241706
  0
ARC
  5
B87
330
6B
100
AcDbEntity
  8
0
  6
Continuous
 62
     3
100
AcDbCircle
 10
148.6833576173865
 20
-279.1946291239833
 30
0.0
 40
8.25
100
AcDbArc
 50
125.0968012275829
 51
234.903198772417
  0
LINE
  5
B88
330
6B
100
AcDbEntity
  8
0
  6
Continuous
 62
     3
100
AcDbLine
 10
143.939941127134
 20
-291.9446291239833
 30
0.0
 11
153.4267741076392
 21
-291.9446291239833
 31
0.0
  0
LINE
  5
B89
330
6B
100
AcDbEntity
  8
0
  6
Continuous
 62
     3
100
AcDbLine
 10
145.0083576173865
 20
-296.4446291239833
 30
0.0
 11
145.0083576173865
 21
-300.9446291239833
 31
0.0
  0
LINE
  5
B8A
330
6B
100
AcDbEntity
  8
0
  6
Continuous
 62
     3
100
AcDbLine
 10
146.0083576173865
 20
-296.4446291239833
 30
0.0
 11
146.0083576173865
 21
-300.9446291239833
 31
0.0
  0
LINE
  5
B8B
330
6B
100
AcDbEntity
  8
0
  6
Continuous
 62
     3
100
AcDbLine
 10
151.3583576173866
 20
-296.9446291239833
 30
0.0
 11
151.3583576173866
 21
-300.4446291239833
 31
0.0
  0
LINE
  5
B8C
330
6B
100
AcDbEntity
  8
0
  6
Continuous
 62
     3
100
AcDbLine
 10
152.3583576173867
 20
-296.9446291239833
 30
0.0
 11
152.3583576173867
 21
-300.4446291239833
 31
0.0
  0
LINE
  5
B8D
330
6B
100
AcDbEntity
  8
0
  6
Continuous
 62
     3
100
AcDbLine
 10
143.939941127134
 20
-305.4446291239833
 30
0.0
 11
153.4267741076392
 21
-305.4446291239833
 31
0.0
  0
LINE
  5
B8E
330
6B
100
AcDbEntity
  8
0
  6
Continuous
 62
     3
100
AcDbLine
 10
151.3583576173866
 20
-300.4446291239833
 30
0.0
 11
152.3583576173867
 21
-300.4446291239833
 31
0.0
  0
LINE
  5
B8F
330
6B
100
AcDbEntity
  8
0
  6
Continuous
 62
     3
100
AcDbLine
 10
145.0083576173865
 20
-300.9446291239833
 30
0.0
 11
146.0083576173866
 21
-300.9446291239833
 31
0.0
  0
LINE
  5
B90
330
6B
100
AcDbEntity
  8
0
  6
Continuous
 62
     3
100
AcDbLine
 10
151.3583576173866
 20
-296.9446291239833
 30
0.0
 11
152.3583576173867
 21
-296.9446291239833
 31
0.0
  0
LINE
  5
B91
330
6B
100
AcDbEntity
  8
0
  6
Continuous
 62
     3
100
AcDbLine
 10
145.0083576173865
 20
-296.4446291239833
 30
0.0
 11
146.0083576173865
 21
-296.4446291239833
 31
0.0
  0
ARC
  5
B92
330
6B
100
AcDbEntity
  8
0
  6
Continuous
 62
     3
100
AcDbCircle
 10
148.6833576173865
 20
-298.6946291239833
 30
0.0
 40
8.25
100
AcDbArc
 50
305.0968012275829
 51
54.90319877241706
  0
ARC
  5
B93
330
6B
100
AcDbEntity
  8
0
  6
Continuous
 62
     3
100
AcDbCircle
 10
148.6833576173865
 20
-298.6946291239833
 30
0.0
 40
8.25
100
AcDbArc
 50
125.0968012275829
 51
234.903198772417
  0
CIRCLE
  5
B98
330
6B
100
AcDbEntity
  8
0
  6
Continuous
100
AcDbCircle
 10
148.6833576173865
 20
-268.1946291239833
 30
0.0
 40
1.625
  0
LINE
  5
B99
330
6B
100
AcDbEntity
  8
0
  6
Continuous
100
AcDbLine
 10
148.9333576173866
 20
-267.3066357611919
 30
0.0
 11
148.9333576173866
 21
-267.9446291239833
 31
0.0
  0
LINE
  5
B9A
330
6B
100
AcDbEntity
  8
0
  6
Continuous
100
AcDbLine
 10
148.4333576173866
 20
-267.3066357611919
 30
0.0
 11
148.4333576173866
 21
-267.9446291239833
 31
0.0
  0
LINE
  5
B9B
330
6B
100
AcDbEntity
  8
0
  6
Continuous
100
AcDbLine
 10
147.7953642545951
 20
-267.9446291239833
 30
0.0
 11
148.4333576173866
 21
-267.9446291239833
 31
0.0
  0
LINE
  5
B9C
330
6B
100
AcDbEntity
  8
0
  6
Continuous
100
AcDbLine
 10
147.7953642545951
 20
-268.4446291239833
 30
0.0
 11
148.4333576173866
 21
-268.4446291239833
 31
0.0
  0
ARC
  5
B9D
330
6B
100
AcDbEntity
  8
0
  6
Continuous
100
AcDbCircle
 10
148.6833576173865
 20
-268.1946291239833
 30
0.0
 40
0.9225140716334864
100
AcDbArc
 50
74.27630340948899
 51
105.723696590511
  0
ARC
  5
B9F
330
6B
100
AcDbEntity
  8
0
  6
Continuous
100
AcDbCircle
 10
148.6833576173865
 20
-268.1946291239833
 30
0.0
 40
0.9225140716334864
100
AcDbArc
 50
164.2763034094848
 51
195.7236965905151
  0
ARC
  5
BA0
330
6B
100
AcDbEntity
  8
0
  6
Continuous
100
AcDbCircle
 10
148.6833576173865
 20
-268.1946291239833
 30
0.0
 40
0.9225140716334864
100
AcDbArc
 50
254.2763034094889
 51
285.723696590511
  0
ARC
  5
BA1
330
6B
100
AcDbEntity
  8
0
  6
Continuous
100
AcDbCircle
 10
148.6833576173865
 20
-268.1946291239833
 30
0.0
 40
0.9225140716334864
100
AcDbArc
 50
344.2763034094848
 51
15.72369659051518
  0
LINE
  5
BA2
330
6B
100
AcDbEntity
  8
0
  6
Continuous
100
AcDbLine
 10
148.9333576173866
 20
-268.4446291239833
 30
0.0
 11
149.5713509801779
 21
-268.4446291239833
 31
0.0
  0
LINE
  5
BA3
330
6B
100
AcDbEntity
  8
0
  6
Continuous
100
AcDbLine
 10
148.4333576173866
 20
-268.4446291239833
 30
0.0
 11
148.4333576173866
 21
-269.0826224867748
 31
0.0
  0
LINE
  5
BA4
330
6B
100
AcDbEntity
  8
0
  6
Continuous
100
AcDbLine
 10
148.9333576173866
 20
-267.9446291239833
 30
0.0
 11
149.5713509801779
 21
-267.9446291239833
 31
0.0
  0
LINE
  5
BA5
330
6B
100
AcDbEntity
  8
0
  6
Continuous
100
AcDbLine
 10
148.9333576173866
 20
-268.4446291239833
 30
0.0
 11
148.9333576173866
 21
-269.0826224867748
 31
0.0
  0
LINE
  5
BA6
330
6B
100
AcDbEntity
  8
0
  6
Continuous
100
AcDbLine
 10
106.9333576173866
 20
-267.3066357611919
 30
0.0
 11
106.9333576173866
 21
-267.9446291239833
 31
0.0
  0
LINE
  5
BA7
330
6B
100
AcDbEntity
  8
0
  6
Continuous
100
AcDbLine
 10
106.9333576173866
 20
-268.4446291239833
 30
0.0
 11
106.9333576173866
 21
-269.0826224867748
 31
0.0
  0
LINE
  5
BA8
330
6B
100
AcDbEntity
  8
0
  6
Continuous
100
AcDbLine
 10
107.4333576173866
 20
-267.3066357611919
 30
0.0
 11
107.4333576173866
 21
-267.9446291239833
 31
0.0
  0
LINE
  5
BA9
330
6B
100
AcDbEntity
  8
0
  6
Continuous
100
AcDbLine
 10
107.4333576173866
 20
-268.4446291239833
 30
0.0
 11
107.4333576173866
 21
-269.0826224867748
 31
0.0
  0
LINE
  5
BAA
330
6B
100
AcDbEntity
  8
0
  6
Continuous
100
AcDbLine
 10
106.2953642545951
 20
-268.4446291239833
 30
0.0
 11
106.9333576173866
 21
-268.4446291239833
 31
0.0
  0
LINE
  5
BAB
330
6B
100
AcDbEntity
  8
0
  6
Continuous
100
AcDbLine
 10
107.4333576173866
 20
-268.4446291239833
 30
0.0
 11
108.071350980178
 21
-268.4446291239833
 31
0.0
  0
LINE
  5
BAC
330
6B
100
AcDbEntity
  8
0
  6
Continuous
100
AcDbLine
 10
106.2953642545951
 20
-267.9446291239833
 30
0.0
 11
106.9333576173866
 21
-267.9446291239833
 31
0.0
  0
LINE
  5
BAD
330
6B
100
AcDbEntity
  8
0
  6
Continuous
100
AcDbLine
 10
107.4333576173866
 20
-267.9446291239833
 30
0.0
 11
108.071350980178
 21
-267.9446291239833
 31
0.0
  0
CIRCLE
  5
BAE
330
6B
100
AcDbEntity
  8
0
  6
Continuous
100
AcDbCircle
 10
107.1833576173866
 20
-268.1946291239833
 30
0.0
 40
1.625
  0
ARC
  5
BAF
330
6B
100
AcDbEntity
  8
0
  6
Continuous
100
AcDbCircle
 10
107.1833576173866
 20
-268.1946291239833
 30
0.0
 40
0.9225140716334864
100
AcDbArc
 50
74.27630340948899
 51
105.723696590511
  0
ARC
  5
BB0
330
6B
100
AcDbEntity
  8
0
  6
Continuous
100
AcDbCircle
 10
107.1833576173866
 20
-268.1946291239833
 30
0.0
 40
0.9225140716334864
100
AcDbArc
 50
164.2763034094848
 51
195.7236965905151
  0
ARC
  5
BB1
330
6B
100
AcDbEntity
  8
0
  6
Continuous
100
AcDbCircle
 10
107.1833576173866
 20
-268.1946291239833
 30
0.0
 40
0.9225140716334864
100
AcDbArc
 50
254.2763034094822
 51
285.723696590511
  0
ARC
  5
BB2
330
6B
100
AcDbEntity
  8
0
  6
Continuous
100
AcDbCircle
 10
107.1833576173866
 20
-268.1946291239833
 30
0.0
 40
0.9225140716334864
100
AcDbArc
 50
344.2763034094848
 51
15.72369659051518
  0
LINE
  5
BB3
330
6B
100
AcDbEntity
  8
0
  6
Continuous
100
AcDbLine
 10
106.9333576173866
 20
-308.8066357611918
 30
0.0
 11
106.9333576173866
 21
-309.4446291239833
 31
0.0
  0
LINE
  5
BB4
330
6B
100
AcDbEntity
  8
0
  6
Continuous
100
AcDbLine
 10
106.9333576173866
 20
-309.9446291239833
 30
0.0
 11
106.9333576173866
 21
-310.5826224867748
 31
0.0
  0
LINE
  5
BB5
330
6B
100
AcDbEntity
  8
0
  6
Continuous
100
AcDbLine
 10
107.4333576173866
 20
-308.8066357611918
 30
0.0
 11
107.4333576173866
 21
-309.4446291239833
 31
0.0
  0
LINE
  5
BB6
330
6B
100
AcDbEntity
  8
0
  6
Continuous
100
AcDbLine
 10
107.4333576173866
 20
-309.9446291239833
 30
0.0
 11
107.4333576173866
 21
-310.5826224867748
 31
0.0
  0
LINE
  5
BB7
330
6B
100
AcDbEntity
  8
0
  6
Continuous
100
AcDbLine
 10
106.2953642545951
 20
-309.9446291239833
 30
0.0
 11
106.9333576173866
 21
-309.9446291239833
 31
0.0
  0
LINE
  5
BB8
330
6B
100
AcDbEntity
  8
0
  6
Continuous
100
AcDbLine
 10
107.4333576173866
 20
-309.9446291239833
 30
0.0
 11
108.071350980178
 21
-309.9446291239833
 31
0.0
  0
LINE
  5
BB9
330
6B
100
AcDbEntity
  8
0
  6
Continuous
100
AcDbLine
 10
106.2953642545951
 20
-309.4446291239833
 30
0.0
 11
106.9333576173866
 21
-309.4446291239833
 31
0.0
  0
LINE
  5
BBA
330
6B
100
AcDbEntity
  8
0
  6
Continuous
100
AcDbLine
 10
107.4333576173866
 20
-309.4446291239833
 30
0.0
 11
108.071350980178
 21
-309.4446291239833
 31
0.0
  0
CIRCLE
  5
BBB
330
6B
100
AcDbEntity
  8
0
  6
Continuous
100
AcDbCircle
 10
107.1833576173866
 20
-309.6946291239833
 30
0.0
 40
1.625
  0
ARC
  5
BBC
330
6B
100
AcDbEntity
  8
0
  6
Continuous
100
AcDbCircle
 10
107.1833576173866
 20
-309.6946291239833
 30
0.0
 40
0.9225140716334864
100
AcDbArc
 50
74.27630340948899
 51
105.723696590511
  0
ARC
  5
BBD
330
6B
100
AcDbEntity
  8
0
  6
Continuous
100
AcDbCircle
 10
107.1833576173866
 20
-309.6946291239833
 30
0.0
 40
0.9225140716334864
100
AcDbArc
 50
164.2763034094848
 51
195.7236965905151
  0
ARC
  5
BBE
330
6B
100
AcDbEntity
  8
0
  6
Continuous
100
AcDbCircle
 10
107.1833576173866
 20
-309.6946291239833
 30
0.0
 40
0.9225140716334864
100
AcDbArc
 50
254.2763034094822
 51
285.723696590511
  0
ARC
  5
BBF
330
6B
100
AcDbEntity
  8
0
  6
Continuous
100
AcDbCircle
 10
107.1833576173866
 20
-309.6946291239833
 30
0.0
 40
0.9225140716334864
100
AcDbArc
 50
344.2763034094848
 51
15.72369659051518
  0
LINE
  5
BC0
330
6B
100
AcDbEntity
  8
0
  6
Continuous
100
AcDbLine
 10
148.4333576173866
 20
-308.8066357611918
 30
0.0
 11
148.4333576173866
 21
-309.4446291239833
 31
0.0
  0
LINE
  5
BC1
330
6B
100
AcDbEntity
  8
0
  6
Continuous
100
AcDbLine
 10
148.4333576173866
 20
-309.9446291239833
 30
0.0
 11
148.4333576173866
 21
-310.5826224867748
 31
0.0
  0
LINE
  5
BC2
330
6B
100
AcDbEntity
  8
0
  6
Continuous
100
AcDbLine
 10
148.9333576173866
 20
-308.8066357611918
 30
0.0
 11
148.9333576173866
 21
-309.4446291239833
 31
0.0
  0
LINE
  5
BC3
330
6B
100
AcDbEntity
  8
0
  6
Continuous
100
AcDbLine
 10
148.9333576173866
 20
-309.9446291239833
 30
0.0
 11
148.9333576173866
 21
-310.5826224867748
 31
0.0
  0
LINE
  5
BC4
330
6B
100
AcDbEntity
  8
0
  6
Continuous
100
AcDbLine
 10
147.7953642545951
 20
-309.9446291239833
 30
0.0
 11
148.4333576173866
 21
-309.9446291239833
 31
0.0
  0
LINE
  5
BC5
330
6B
100
AcDbEntity
  8
0
  6
Continuous
100
AcDbLine
 10
148.9333576173866
 20
-309.9446291239833
 30
0.0
 11
149.5713509801779
 21
-309.9446291239833
 31
0.0
  0
LINE
  5
BC6
330
6B
100
AcDbEntity
  8
0
  6
Continuous
100
AcDbLine
 10
147.7953642545951
 20
-309.4446291239833
 30
0.0
 11
148.4333576173866
 21
-309.4446291239833
 31
0.0
  0
LINE
  5
BC7
330
6B
100
AcDbEntity
  8
0
  6
Continuous
100
AcDbLine
 10
148.9333576173866
 20
-309.4446291239833
 30
0.0
 11
149.5713509801779
 21
-309.4446291239833
 31
0.0
  0
CIRCLE
  5
BC8
330
6B
100
AcDbEntity
  8
0
  6
Continuous
100
AcDbCircle
 10
148.6833576173865
 20
-309.6946291239833
 30
0.0
 40
1.625
  0
ARC
  5
BC9
330
6B
100
AcDbEntity
  8
0
  6
Continuous
100
AcDbCircle
 10
148.6833576173865
 20
-309.6946291239833
 30
0.0
 40
0.9225140716334864
100
AcDbArc
 50
74.27630340948899
 51
105.723696590511
  0
ARC
  5
BCA
330
6B
100
AcDbEntity
  8
0
  6
Continuous
100
AcDbCircle
 10
148.6833576173865
 20
-309.6946291239833
 30
0.0
 40
0.9225140716334864
100
AcDbArc
 50
164.2763034094848
 51
195.7236965905151
  0
ARC
  5
BCB
330
6B
100
AcDbEntity
  8
0
  6
Continuous
100
AcDbCircle
 10
148.6833576173865
 20
-309.6946291239833
 30
0.0
 40
0.9225140716334864
100
AcDbArc
 50
254.2763034094889
 51
285.723696590511
  0
ARC
  5
BCC
330
6B
100
AcDbEntity
  8
0
  6
Continuous
100
AcDbCircle
 10
148.6833576173865
 20
-309.6946291239833
 30
0.0
 40
0.9225140716334864
100
AcDbArc
 50
344.2763034094848
 51
15.72369659051518
  0
LINE
  5
BCD
330
6B
100
AcDbEntity
  8
0
  6
Continuous
100
AcDbLine
 10
156.9333576173866
 20
-269.6946291239833
 30
0.0
 11
149.3083576173866
 21
-269.6946291239833
 31
0.0
  0
LINE
  5
BCE
330
6B
100
AcDbEntity
  8
0
  6
Continuous
100
AcDbLine
 10
140.4333576173866
 20
-308.1946291239833
 30
0.0
 11
148.0583576173865
 21
-308.1946291239833
 31
0.0
  0
LINE
  5
BCF
330
6B
100
AcDbEntity
  8
0
  6
Continuous
100
AcDbLine
 10
157.9333576173866
 20
-270.6946291239833
 30
0.0
 11
157.9333576173866
 21
-307.1946291239833
 31
0.0
  0
LINE
  5
BD0
330
6B
100
AcDbEntity
  8
0
  6
Continuous
100
AcDbLine
 10
139.4333576173865
 20
-270.6946291239833
 30
0.0
 11
139.4333576173865
 21
-307.1946291239833
 31
0.0
  0
ARC
  5
BD3
330
6B
100
AcDbEntity
  8
0
  6
Continuous
100
AcDbCircle
 10
156.9333576173867
 20
-270.6946291239832
 30
0.0
 40
1.0
100
AcDbArc
 50
359.9999999999968
 51
90.0
  0
ARC
  5
BD4
330
6B
100
AcDbEntity
  8
0
  6
Continuous
100
AcDbCircle
 10
140.4333576173865
 20
-270.6946291239833
 30
0.0
 40
1.0
100
AcDbArc
 50
89.99999999999348
 51
180.0
  0
ARC
  5
BD5
330
6B
100
AcDbEntity
  8
0
  6
Continuous
100
AcDbCircle
 10
140.4333576173865
 20
-307.1946291239834
 30
0.0
 40
1.0
100
AcDbArc
 50
179.9999999999966
 51
270.0
  0
ARC
  5
BD6
330
6B
100
AcDbEntity
  8
0
  6
Continuous
100
AcDbCircle
 10
156.9333576173867
 20
-307.1946291239834
 30
0.0
 40
1.0
100
AcDbArc
 50
269.9999999999935
 51
0.0000000000032569
  0
LINE
  5
BD7
330
6B
100
AcDbEntity
  8
0
  6
Continuous
100
AcDbLine
 10
148.0583576173865
 20
-269.6946291239833
 30
0.0
 11
140.4333576173866
 21
-269.6946291239833
 31
0.0
  0
LINE
  5
BD8
330
6B
100
AcDbEntity
  8
0
  6
Continuous
100
AcDbLine
 10
149.3083576173866
 20
-308.1946291239833
 30
0.0
 11
156.9333576173866
 21
-308.1946291239833
 31
0.0
  0
LINE
  5
BD9
330
6B
100
AcDbEntity
  8
0
  6
Continuous
100
AcDbLine
 10
97.9333576173866
 20
-270.6946291239833
 30
0.0
 11
97.9333576173866
 21
-307.1946291239833
 31
0.0
  0
LINE
  5
BDA
330
6B
100
AcDbEntity
  8
0
  6
Continuous
100
AcDbLine
 10
116.4333576173866
 20
-270.6946291239833
 30
0.0
 11
116.4333576173866
 21
-307.1946291239833
 31
0.0
  0
LINE
  5
BDB
330
6B
100
AcDbEntity
  8
0
  6
Continuous
100
AcDbLine
 10
98.9333576173866
 20
-308.1946291239833
 30
0.0
 11
106.5583576173866
 21
-308.1946291239833
 31
0.0
  0
LINE
  5
BDC
330
6B
100
AcDbEntity
  8
0
  6
Continuous
100
AcDbLine
 10
107.8083576173866
 20
-308.1946291239833
 30
0.0
 11
115.4333576173866
 21
-308.1946291239833
 31
0.0
  0
LINE
  5
BDD
330
6B
100
AcDbEntity
  8
0
  6
Continuous
100
AcDbLine
 10
115.4333576173866
 20
-269.6946291239833
 30
0.0
 11
107.8083576173866
 21
-269.6946291239833
 31
0.0
  0
LINE
  5
BDE
330
6B
100
AcDbEntity
  8
0
  6
Continuous
100
AcDbLine
 10
106.5583576173866
 20
-269.6946291239833
 30
0.0
 11
98.9333576173866
 21
-269.6946291239833
 31
0.0
  0
ARC
  5
BDF
330
6B
100
AcDbEntity
  8
0
  6
Continuous
100
AcDbCircle
 10
115.4333576173867
 20
-270.6946291239832
 30
0.0
 40
1.0
100
AcDbArc
 50
359.9999999999968
 51
90.0
  0
ARC
  5
BE0
330
6B
100
AcDbEntity
  8
0
  6
Continuous
100
AcDbCircle
 10
98.93335761738649
 20
-270.6946291239833
 30
0.0
 40
1.0
100
AcDbArc
 50
89.99999999999348
 51
180.0
  0
ARC
  5
BE1
330
6B
100
AcDbEntity
  8
0
  6
Continuous
100
AcDbCircle
 10
98.93335761738649
 20
-307.1946291239834
 30
0.0
 40
1.0
100
AcDbArc
 50
179.9999999999966
 51
270.0
  0
ARC
  5
BE2
330
6B
100
AcDbEntity
  8
0
  6
Continuous
100
AcDbCircle
 10
115.4333576173867
 20
-307.1946291239834
 30
0.0
 40
1.0
100
AcDbArc
 50
269.9999999999935
 51
0.0000000000032569
  0
CIRCLE
  5
BE4
330
6B
100
AcDbEntity
  8
0
  6
Continuous
 62
     3
100
AcDbCircle
 10
107.1833576173866
 20
-260.4446291239833
 30
0.0
 40
2.5
  0
LINE
  5
BE5
330
6B
100
AcDbEntity
  8
0
  6
Continuous
100
AcDbLine
 10
151.6833576173867
 20
-258.7125783164144
 30
0.0
 11
151.6833576173867
 21
-262.1766799315521
 31
0.0
  0
CIRCLE
  5
BE6
330
6B
100
AcDbEntity
  8
0
  6
Continuous
 62
     3
100
AcDbCircle
 10
148.6833576173865
 20
-260.4446291239833
 30
0.0
 40
2.25
  0
CIRCLE
  5
BE7
330
6B
100
AcDbEntity
  8
0
  6
Continuous
 62
     3
100
AcDbCircle
 10
148.6833576173865
 20
-260.4446291239833
 30
0.0
 40
0.75
  0
LINE
  5
BE8
330
6B
100
AcDbEntity
  8
0
  6
Continuous
100
AcDbLine
 10
148.6833576173865
 20
-256.9805275088456
 30
0.0
 11
151.6833576173867
 21
-258.7125783164144
 31
0.0
  0
LINE
  5
BE9
330
6B
100
AcDbEntity
  8
0
  6
Continuous
100
AcDbLine
 10
145.6833576173867
 20
-258.7125783164144
 30
0.0
 11
148.6833576173865
 21
-256.9805275088456
 31
0.0
  0
LINE
  5
BEA
330
6B
100
AcDbEntity
  8
0
  6
Continuous
100
AcDbLine
 10
145.6833576173867
 20
-262.1766799315521
 30
0.0
 11
145.6833576173867
 21
-258.7125783164144
 31
0.0
  0
LINE
  5
BEB
330
6B
100
AcDbEntity
  8
0
  6
Continuous
100
AcDbLine
 10
148.6833576173867
 20
-263.9087307391211
 30
0.0
 11
145.6833576173867
 21
-262.1766799315521
 31
0.0
  0
LINE
  5
BEC
330
6B
100
AcDbEntity
  8
0
  6
Continuous
100
AcDbLine
 10
151.6833576173867
 20
-262.1766799315521
 30
0.0
 11
148.6833576173867
 21
-263.9087307391211
 31
0.0
  0
LINE
  5
BED
330
6B
100
AcDbEntity
  8
0
  6
Continuous
 62
     3
100
AcDbLine
 10
136.9333576173866
 20
-254.9446291239833
 30
0.0
 11
118.9333576173866
 21
-254.9446291239833
 31
0.0
  0
LINE
  5
BEE
330
6B
100
AcDbEntity
  8
0
  6
Continuous
 62
     3
100
AcDbLine
 10
136.9333576173866
 20
-265.4446291239833
 30
0.0
 11
118.9333576173866
 21
-265.4446291239833
 31
0.0
  0
LINE
  5
BEF
330
6B
100
AcDbEntity
  8
0
  6
Continuous
 62
     3
100
AcDbLine
 10
136.9333576173866
 20
-265.4446291239833
 30
0.0
 11
136.9333576173866
 21
-254.9446291239833
 31
0.0
  0
LINE
  5
BF0
330
6B
100
AcDbEntity
  8
0
  6
Continuous
 62
     3
100
AcDbLine
 10
118.9333576173866
 20
-254.9446291239833
 30
0.0
 11
118.9333576173866
 21
-265.4446291239833
 31
0.0
  0
LINE
  5
BF1
330
6B
100
AcDbEntity
  8
0
  6
Continuous
100
AcDbLine
 10
136.0854088109255
 20
-256.1929982001621
 30
0.0
 11
135.4061635279066
 21
-257.1929982001621
 31
0.0
  0
LINE
  5
BF2
330
6B
100
AcDbEntity
  8
0
  6
Continuous
100
AcDbLine
 10
119.7813064238477
 20
-256.1929982001621
 30
0.0
 11
120.4605517068666
 21
-257.1929982001621
 31
0.0
  0
LINE
  5
BF3
330
6B
100
AcDbEntity
  8
0
  6
Continuous
100
AcDbLine
 10
120.1209290653571
 20
-256.6929982001621
 30
0.0
 11
135.7457861694161
 21
-256.6929982001621
 31
0.0
  0
LINE
  5
BF6
330
6B
100
AcDbEntity
  8
0
  6
Continuous
100
AcDbLine
 10
121.1397969898854
 20
-258.1929982001621
 30
0.0
 11
134.7269182448878
 21
-258.1929982001621
 31
0.0
  0
LINE
  5
BF7
330
6B
100
AcDbEntity
  8
0
  6
Continuous
100
AcDbLine
 10
122.1586649144137
 20
-259.6929982001621
 30
0.0
 11
133.7080503203594
 21
-259.6929982001621
 31
0.0
  0
LINE
  5
BFE
330
6B
100
AcDbEntity
  8
0
  6
Continuous
100
AcDbLine
 10
120.800174348376
 20
-257.6929982001621
 30
0.0
 11
121.4794196313949
 21
-258.6929982001621
 31
0.0
  0
LINE
  5
BFF
330
6B
100
AcDbEntity
  8
0
  6
Continuous
100
AcDbLine
 10
135.0665408863972
 20
-257.6929982001621
 30
0.0
 11
134.3872956033783
 21
-258.6929982001621
 31
0.0
  0
LINE
  5
C00
330
6B
100
AcDbEntity
  8
0
  6
Continuous
100
AcDbLine
 10
134.0476729618689
 20
-259.1929982001621
 30
0.0
 11
133.36842767885
 21
-260.1929982001621
 31
0.0
  0
LINE
  5
C01
330
6B
100
AcDbEntity
  8
0
  6
Continuous
100
AcDbLine
 10
121.8190422729043
 20
-259.1929982001621
 30
0.0
 11
122.4982875559232
 21
-260.1929982001621
 31
0.0
  0
LINE
  5
C02
330
6B
100
AcDbEntity
  8
0
  6
Continuous
 62
     3
100
AcDbLine
 10
120.1209290653571
 20
-256.6929982001621
 30
0.0
 11
126.0654330890847
 21
-265.4446291239833
 31
0.0
  0
LINE
  5
C03
330
6B
100
AcDbEntity
  8
0
  6
Continuous
100
AcDbLine
 10
117.4333576173866
 20
-295.4446291239833
 30
0.0
 11
138.4333576173865
 21
-295.4446291239833
 31
0.0
  0
LINE
  5
C04
330
6B
100
AcDbEntity
  8
0
  6
Continuous
100
AcDbLine
 10
117.4333576173866
 20
-294.6946291239833
 30
0.0
 11
138.4333576173865
 21
-294.6946291239833
 31
0.0
  0
LINE
  5
C05
330
6B
100
AcDbEntity
  8
0
  6
Continuous
100
AcDbLine
 10
117.4333576173866
 20
-285.4446291239833
 30
0.0
 11
138.4333576173865
 21
-285.4446291239833
 31
0.0
  0
LINE
  5
C06
330
6B
100
AcDbEntity
  8
0
  6
Continuous
100
AcDbLine
 10
117.4333576173866
 20
-286.1946291239833
 30
0.0
 11
138.4333576173865
 21
-286.1946291239833
 31
0.0
  0
LINE
  5
C09
330
6B
100
AcDbEntity
  8
0
  6
Continuous
100
AcDbLine
 10
133.1833576173865
 20
-269.4446291239833
 30
0.0
 11
122.6833576173866
 21
-269.4446291239833
 31
0.0
  0
LINE
  5
C0A
330
6B
100
AcDbEntity
  8
0
  6
Continuous
100
AcDbLine
 10
133.1833576173865
 20
-273.6946291239833
 30
0.0
 11
122.6833576173866
 21
-273.6946291239833
 31
0.0
  0
LINE
  5
C0B
330
6B
100
AcDbEntity
  8
0
  6
Continuous
100
AcDbLine
 10
134.1833576173866
 20
-270.4446291239833
 30
0.0
 11
134.1833576173866
 21
-272.6946291239833
 31
0.0
  0
LINE
  5
C0C
330
6B
100
AcDbEntity
  8
0
  6
Continuous
100
AcDbLine
 10
121.6833576173866
 20
-270.4446291239833
 30
0.0
 11
121.6833576173866
 21
-272.6946291239833
 31
0.0
  0
ARC
  5
C0D
330
6B
100
AcDbEntity
  8
0
  6
Continuous
100
AcDbCircle
 10
133.1833576173867
 20
-270.4446291239832
 30
0.0
 40
1.0
100
AcDbArc
 50
359.9999999999935
 51
90.0
  0
ARC
  5
C0E
330
6B
100
AcDbEntity
  8
0
  6
Continuous
100
AcDbCircle
 10
122.6833576173865
 20
-270.4446291239833
 30
0.0
 40
1.0
100
AcDbArc
 50
89.99999999999348
 51
180.0
  0
ARC
  5
C0F
330
6B
100
AcDbEntity
  8
0
  6
Continuous
100
AcDbCircle
 10
122.6833576173866
 20
-272.6946291239833
 30
0.0
 40
1.0
100
AcDbArc
 50
180.0
 51
270.0
  0
ARC
  5
C10
330
6B
100
AcDbEntity
  8
0
  6
Continuous
100
AcDbCircle
 10
133.1833576173867
 20
-272.6946291239833
 30
0.0
 40
1.0
100
AcDbArc
 50
269.9999999999935
 51
0.0000000000032569
  0
TEXT
  5
C15
330
6B
100
AcDbEntity
  8
0
  6
Continuous
 62
     4
100
AcDbText
 10
122.9462790960566
 20
-273.0502773431464
 30
0.0
 40
3.0
  1
昇圧器
  7
高3.2
100
AcDbText
  0
TEXT
  5
C16
330
6B
100
AcDbEntity
  8
0
  6
Continuous
 62
     4
100
AcDbText
 10
117.7082619332685
 20
-291.8091540536313
 30
0.0
 40
2.25
  1
M-20S 1KVA
  7
高4.5
100
AcDbText
  0
TEXT
  5
C17
330
6B
100
AcDbEntity
  8
0
  6
Continuous
100
AcDbText
 10
120.4947612267287
 20
-293.9529427707721
 30
0.0
 40
1.25
  1
MAX.20A (2000W)
  7
高2.5
100
AcDbText
  0
TEXT
  5
C18
330
6B
100
AcDbEntity
  8
0
  6
Continuous
100
AcDbText
 10
117.6208299829224
 20
-288.2474340855869
 30
0.0
 40
1.25
  1
STEPUP TRANSFORMER
 41
0.95
  7
高2.5
100
AcDbText
  0
TEXT
  5
C1A
330
6B
100
AcDbEntity
  8
0
  6
Continuous
100
AcDbText
 10
115.0534123022678
 20
-310.1830852968912
 30
0.0
 40
1.25
  1
INPUT 入力　AC-100V　50/60Hz
 41
0.9
  7
高2.5
100
AcDbText
  0
TEXT
  5
C1B
330
6B
100
AcDbEntity
  8
0
  6
Continuous
100
AcDbText
 10
142.1837076437715
 20
-288.470564039316
 30
0.0
 40
1.25
  1
OUTPUT 出力
 41
1.199999999999999
  7
高2.5
100
AcDbText
  0
TEXT
  5
C1C
330
6B
100
AcDbEntity
  8
0
  6
Continuous
100
AcDbText
 10
145.2349934055398
 20
-290.705078581928
 30
0.0
 40
1.25
  1
25%%%UP
 41
1.199999999999999
  7
高2.5
100
AcDbText
  0
TEXT
  5
C1D
330
6B
100
AcDbEntity
  8
0
  6
Continuous
100
AcDbText
 10
100.6837076437715
 20
-288.470564039316
 30
0.0
 40
1.25
  1
OUTPUT 出力
 41
1.199999999999999
  7
高2.5
100
AcDbText
  0
TEXT
  5
C1E
330
6B
100
AcDbEntity
  8
0
  6
Continuous
100
AcDbText
 10
103.7349934055397
 20
-290.705078581928
 30
0.0
 40
1.25
  1
15%%%UP
 41
1.199999999999999
  7
高2.5
100
AcDbText
  0
TEXT
  5
C1F
330
6B
100
AcDbEntity
  8
0
  6
Continuous
 62
     4
100
AcDbText
 10
104.5084374961576
 20
-271.7434633360897
 30
0.0
 40
1.6
  1
115V
  7
高3.2
100
AcDbText
  0
TEXT
  5
C20
330
6B
100
AcDbEntity
  8
0
  6
Continuous
 62
     4
100
AcDbText
 10
146.0084374961576
 20
-271.7434633360897
 30
0.0
 40
1.6
  1
125V
  7
高3.2
100
AcDbText
  0
LINE
  5
C27
330
6B
100
AcDbEntity
  8
0
  6
Continuous
 62
     3
100
AcDbLine
 10
301.7543512081879
 20
-310.4446291239833
 30
0.0
 11
304.2543512081879
 21
-310.4446291239833
 31
0.0
  0
LINE
  5
C28
330
6B
100
AcDbEntity
  8
0
  6
Continuous
 62
     3
100
AcDbLine
 10
301.7543512081879
 20
-303.4446291239833
 30
0.0
 11
304.2543512081879
 21
-303.4446291239833
 31
0.0
  0
LINE
  5
C29
330
6B
100
AcDbEntity
  8
0
  6
Continuous
 62
     3
100
AcDbLine
 10
304.2543512081879
 20
-310.4446291239833
 30
0.0
 11
304.2543512081879
 21
-303.4446291239833
 31
0.0
  0
LINE
  5
C2A
330
6B
100
AcDbEntity
  8
0
  6
Continuous
 62
     3
100
AcDbLine
 10
314.1569429757662
 20
-307.7446291239827
 30
0.0
 11
311.181531451334
 21
-307.7446291239827
 31
0.0
  0
LINE
  5
C2B
330
6B
100
AcDbEntity
  8
0
  6
Continuous
 62
     3
100
AcDbLine
 10
309.9498703963917
 20
-307.7446291239827
 30
0.0
 11
304.2543512081879
 21
-307.7446291239827
 31
0.0
  0
LINE
  5
C2C
330
6B
100
AcDbEntity
  8
0
  6
Continuous
 62
     3
100
AcDbLine
 10
315.7569429757664
 20
-306.1446291239832
 30
0.0
 11
310.6173967681408
 21
-306.1446291239832
 31
0.0
  0
LINE
  5
C2D
330
6B
100
AcDbEntity
  8
0
  6
Continuous
 62
     3
100
AcDbLine
 10
309.3857357131985
 20
-306.1446291239832
 30
0.0
 11
304.2543512081879
 21
-306.1446291239832
 31
0.0
  0
LINE
  5
C2E
330
6B
100
AcDbEntity
  8
0
  6
Continuous
 62
     3
100
AcDbLine
 10
324.1569429757664
 20
-316.1446291239832
 30
0.0
 11
324.1569429757664
 21
-317.5595479711402
 31
0.0
  0
LINE
  5
C2F
330
6B
100
AcDbEntity
  8
0
  6
Continuous
100
AcDbLine
 10
320.6069429757663
 20
-338.8095479711402
 30
0.0
 11
320.6069429757663
 21
-347.3095479711402
 31
0.0
  0
LINE
  5
C30
330
6B
100
AcDbEntity
  8
0
  6
Continuous
100
AcDbLine
 10
321.3569429757663
 20
-338.8095479711402
 30
0.0
 11
321.3569429757663
 21
-347.3095479711402
 31
0.0
  0
LINE
  5
C31
330
6B
100
AcDbEntity
  8
0
  6
Continuous
100
AcDbLine
 10
326.9569429757662
 20
-338.8095479711402
 30
0.0
 11
326.9569429757662
 21
-347.3095479711402
 31
0.0
  0
LINE
  5
C32
330
6B
100
AcDbEntity
  8
0
  6
Continuous
100
AcDbLine
 10
327.7069429757662
 20
-338.8095479711402
 30
0.0
 11
327.7069429757662
 21
-347.3095479711402
 31
0.0
  0
LINE
  5
C33
330
6B
100
AcDbEntity
  8
0
  6
Continuous
 62
     3
100
AcDbLine
 10
319.2819429757662
 20
-325.5595479711402
 30
0.0
 11
319.2819429757662
 21
-330.5595479711401
 31
0.0
  0
LINE
  5
C34
330
6B
100
AcDbEntity
  8
0
  6
Continuous
 62
     3
100
AcDbLine
 10
329.0319429757663
 20
-325.5595479711402
 30
0.0
 11
329.0319429757663
 21
-330.5595479711401
 31
0.0
  0
LINE
  5
C35
330
6B
100
AcDbEntity
  8
0
  6
Continuous
100
AcDbLine
 10
323.7819429757662
 20
-318.4095479711402
 30
0.0
 11
323.7819429757662
 21
-319.2595479711402
 31
0.0
  0
LINE
  5
C36
330
6B
100
AcDbEntity
  8
0
  6
Continuous
100
AcDbLine
 10
323.7819429757662
 20
-320.1095479711403
 30
0.0
 11
323.7819429757662
 21
-320.9595479711402
 31
0.0
  0
LINE
  5
C37
330
6B
100
AcDbEntity
  8
0
  6
Continuous
100
AcDbLine
 10
323.7819429757662
 20
-321.8095479711402
 30
0.0
 11
323.7819429757662
 21
-322.6595479711402
 31
0.0
  0
LINE
  5
C38
330
6B
100
AcDbEntity
  8
0
  6
Continuous
100
AcDbLine
 10
323.7819429757662
 20
-323.5095479711402
 30
0.0
 11
323.7819429757662
 21
-324.3595479711403
 31
0.0
  0
LINE
  5
C39
330
6B
100
AcDbEntity
  8
0
  6
Continuous
100
AcDbLine
 10
324.5319429757663
 20
-318.4095479711402
 30
0.0
 11
324.5319429757663
 21
-319.2595479711402
 31
0.0
  0
LINE
  5
C3A
330
6B
100
AcDbEntity
  8
0
  6
Continuous
100
AcDbLine
 10
324.5319429757663
 20
-320.1095479711403
 30
0.0
 11
324.5319429757663
 21
-320.9595479711402
 31
0.0
  0
LINE
  5
C3B
330
6B
100
AcDbEntity
  8
0
  6
Continuous
100
AcDbLine
 10
324.5319429757663
 20
-321.8095479711402
 30
0.0
 11
324.5319429757663
 21
-322.6595479711402
 31
0.0
  0
LINE
  5
C3C
330
6B
100
AcDbEntity
  8
0
  6
Continuous
100
AcDbLine
 10
324.5319429757663
 20
-323.5095479711402
 30
0.0
 11
324.5319429757663
 21
-324.3595479711403
 31
0.0
  0
LINE
  5
C3D
330
6B
100
AcDbEntity
  8
0
  6
Continuous
 62
     3
100
AcDbLine
 10
325.7569429757664
 20
-316.1446291239832
 30
0.0
 11
325.7569429757664
 21
-317.5595479711402
 31
0.0
  0
LINE
  5
C3E
330
6B
100
AcDbEntity
  8
0
  6
Continuous
100
AcDbLine
 10
325.7569429757664
 20
-318.4095479711402
 30
0.0
 11
325.7569429757664
 21
-319.2595479711402
 31
0.0
  0
LINE
  5
C3F
330
6B
100
AcDbEntity
  8
0
  6
Continuous
100
AcDbLine
 10
325.7569429757664
 20
-320.1095479711403
 30
0.0
 11
325.7569429757664
 21
-320.9595479711402
 31
0.0
  0
LINE
  5
C40
330
6B
100
AcDbEntity
  8
0
  6
Continuous
100
AcDbLine
 10
325.7569429757664
 20
-321.8095479711402
 30
0.0
 11
325.7569429757664
 21
-322.6595479711402
 31
0.0
  0
LINE
  5
C41
330
6B
100
AcDbEntity
  8
0
  6
Continuous
100
AcDbLine
 10
325.7569429757664
 20
-323.5095479711402
 30
0.0
 11
325.7569429757664
 21
-324.3595479711403
 31
0.0
  0
LINE
  5
C42
330
6B
100
AcDbEntity
  8
0
  6
Continuous
 62
     3
100
AcDbLine
 10
322.5569429757666
 20
-316.1446291239832
 30
0.0
 11
322.5569429757666
 21
-317.5595479711402
 31
0.0
  0
LINE
  5
C43
330
6B
100
AcDbEntity
  8
0
  6
Continuous
100
AcDbLine
 10
322.5569429757666
 20
-318.4095479711402
 30
0.0
 11
322.5569429757666
 21
-319.2595479711402
 31
0.0
  0
LINE
  5
C44
330
6B
100
AcDbEntity
  8
0
  6
Continuous
100
AcDbLine
 10
322.5569429757666
 20
-320.1095479711403
 30
0.0
 11
322.5569429757666
 21
-320.9595479711402
 31
0.0
  0
LINE
  5
C45
330
6B
100
AcDbEntity
  8
0
  6
Continuous
100
AcDbLine
 10
322.5569429757666
 20
-321.8095479711402
 30
0.0
 11
322.5569429757666
 21
-322.6595479711402
 31
0.0
  0
LINE
  5
C46
330
6B
100
AcDbEntity
  8
0
  6
Continuous
100
AcDbLine
 10
322.5569429757666
 20
-323.5095479711402
 30
0.0
 11
322.5569429757666
 21
-324.3595479711403
 31
0.0
  0
ARC
  5
C47
330
6B
100
AcDbEntity
  8
0
  6
Continuous
 62
     3
100
AcDbCircle
 10
314.1569429757665
 20
-316.1446291239832
 30
0.0
 40
10.0
100
AcDbArc
 50
0.0
 51
90.0
  0
ARC
  5
C48
330
6B
100
AcDbEntity
  8
0
  6
Continuous
 62
     3
100
AcDbCircle
 10
314.1569429757665
 20
-316.1446291239832
 30
0.0
 40
8.4
100
AcDbArc
 50
0.0
 51
90.0
  0
ARC
  5
C49
330
6B
100
AcDbEntity
  8
0
  6
Continuous
 62
     3
100
AcDbCircle
 10
315.7569429757667
 20
-316.1446291239827
 30
0.0
 40
10.0
100
AcDbArc
 50
0.0
 51
90.0
  0
ARC
  5
C4A
330
6B
100
AcDbEntity
  8
0
  6
Continuous
100
AcDbCircle
 10
311.7277422636828
 20
-306.1409093466093
 30
0.0
 40
1.110351726352581
100
AcDbArc
 50
134.6009029003693
 51
226.5031970700341
  0
ARC
  5
C4B
330
6B
100
AcDbEntity
  8
0
  6
Continuous
100
AcDbCircle
 10
309.9768740708985
 20
-307.6447937474758
 30
0.0
 40
1.208787204862932
100
AcDbArc
 50
321.9754828047809
 51
35.29501511653658
  0
ARC
  5
C4C
330
6B
100
AcDbEntity
  8
0
  6
Continuous
100
AcDbCircle
 10
310.4960812087404
 20
-306.1409093466093
 30
0.0
 40
1.110351726352581
100
AcDbArc
 50
134.6009029003693
 51
226.5031970700341
  0
ARC
  5
C4D
330
6B
100
AcDbEntity
  8
0
  6
Continuous
100
AcDbCircle
 10
308.7452130159561
 20
-307.6447937474758
 30
0.0
 40
1.208787204862932
100
AcDbArc
 50
321.9754828047809
 51
35.29501511653658
  0
LINE
  5
C4E
330
6B
100
AcDbEntity
  8
0
  6
Continuous
 62
     3
100
AcDbLine
 10
321.6569429757663
 20
-317.5595479711402
 30
0.0
 11
326.6569429757662
 21
-317.5595479711402
 31
0.0
  0
LINE
  5
C4F
330
6B
100
AcDbEntity
  8
0
  6
Continuous
100
AcDbLine
 10
321.6303804757663
 20
-318.4095479711402
 30
0.0
 11
326.6835054757662
 21
-318.4095479711402
 31
0.0
  0
LINE
  5
C50
330
6B
100
AcDbEntity
  8
0
  6
Continuous
100
AcDbLine
 10
321.6038179757664
 20
-319.2595479711402
 30
0.0
 11
326.7100679757664
 21
-319.2595479711402
 31
0.0
  0
LINE
  5
C51
330
6B
100
AcDbEntity
  8
0
  6
Continuous
100
AcDbLine
 10
321.5772554757664
 20
-320.1095479711403
 30
0.0
 11
326.7366304757663
 21
-320.1095479711403
 31
0.0
  0
LINE
  5
C52
330
6B
100
AcDbEntity
  8
0
  6
Continuous
100
AcDbLine
 10
321.5506929757662
 20
-320.9595479711402
 30
0.0
 11
326.7631929757663
 21
-320.9595479711402
 31
0.0
  0
LINE
  5
C53
330
6B
100
AcDbEntity
  8
0
  6
Continuous
100
AcDbLine
 10
321.5241304757664
 20
-321.8095479711402
 30
0.0
 11
326.7897554757663
 21
-321.8095479711402
 31
0.0
  0
LINE
  5
C54
330
6B
100
AcDbEntity
  8
0
  6
Continuous
100
AcDbLine
 10
321.4975679757663
 20
-322.6595479711402
 30
0.0
 11
326.8163179757662
 21
-322.6595479711402
 31
0.0
  0
LINE
  5
C55
330
6B
100
AcDbEntity
  8
0
  6
Continuous
100
AcDbLine
 10
321.4710054757663
 20
-323.5095479711402
 30
0.0
 11
326.8428804757664
 21
-323.5095479711402
 31
0.0
  0
LINE
  5
C56
330
6B
100
AcDbEntity
  8
0
  6
Continuous
100
AcDbLine
 10
321.4444429757664
 20
-324.3595479711403
 30
0.0
 11
326.8694429757663
 21
-324.3595479711403
 31
0.0
  0
LINE
  5
C57
330
6B
100
AcDbEntity
  8
0
  6
Continuous
 62
     3
100
AcDbLine
 10
319.2819429757662
 20
-325.5595479711402
 30
0.0
 11
329.0319429757663
 21
-325.5595479711402
 31
0.0
  0
LINE
  5
C58
330
6B
100
AcDbEntity
  8
0
  6
Continuous
 62
     3
100
AcDbLine
 10
319.6239241078418
 20
-330.5595479711401
 30
0.0
 11
319.2819429757662
 21
-330.5595479711401
 31
0.0
  0
LINE
  5
C59
330
6B
100
AcDbEntity
  8
0
  6
Continuous
 62
     3
100
AcDbLine
 10
328.6899618436909
 20
-330.5595479711401
 30
0.0
 11
329.0319429757663
 21
-330.5595479711401
 31
0.0
  0
LINE
  5
C5A
330
6B
100
AcDbEntity
  8
0
  6
Continuous
 62
     3
100
AcDbLine
 10
319.1569429757664
 20
-338.8095479711402
 30
0.0
 11
329.1569429757662
 21
-338.8095479711402
 31
0.0
  0
LINE
  5
C5B
330
6B
100
AcDbEntity
  8
0
  6
Continuous
100
AcDbLine
 10
320.9069429757662
 20
-335.3095479711401
 30
0.0
 11
327.4069429757664
 21
-335.3095479711401
 31
0.0
  0
LINE
  5
C5C
330
6B
100
AcDbEntity
  8
0
  6
Continuous
100
AcDbLine
 10
327.7069429757662
 20
-347.3095479711402
 30
0.0
 11
326.9569429757662
 21
-347.3095479711402
 31
0.0
  0
LINE
  5
C5D
330
6B
100
AcDbEntity
  8
0
  6
Continuous
100
AcDbLine
 10
321.3569429757663
 20
-347.3095479711402
 30
0.0
 11
320.6069429757663
 21
-347.3095479711402
 31
0.0
  0
LINE
  5
C5E
330
6B
100
AcDbEntity
  8
0
  6
Continuous
 62
     3
100
AcDbLine
 10
321.4069429757663
 20
-325.5595479711402
 30
0.0
 11
321.6569429757663
 21
-317.5595479711402
 31
0.0
  0
LINE
  5
C5F
330
6B
100
AcDbEntity
  8
0
  6
Continuous
 62
     3
100
AcDbLine
 10
326.6569429757662
 20
-317.5595479711402
 30
0.0
 11
326.9069429757662
 21
-325.5595479711402
 31
0.0
  0
LINE
  5
C60
330
6B
100
AcDbEntity
  8
0
  6
Continuous
 62
     3
100
AcDbLine
 10
319.9069429757664
 20
-325.5595479711402
 30
0.0
 11
319.1569429757664
 21
-338.8095479711402
 31
0.0
  0
LINE
  5
C61
330
6B
100
AcDbEntity
  8
0
  6
Continuous
 62
     3
100
AcDbLine
 10
329.1569429757662
 20
-338.8095479711402
 30
0.0
 11
328.4069429757664
 21
-325.5595479711402
 31
0.0
  0
LINE
  5
C62
330
6B
100
AcDbEntity
  8
0
  6
Continuous
100
AcDbLine
 10
320.9069429757662
 20
-335.3095479711401
 30
0.0
 11
321.4069429757663
 21
-326.3095479711402
 31
0.0
  0
LINE
  5
C63
330
6B
100
AcDbEntity
  8
0
  6
Continuous
100
AcDbLine
 10
321.4069429757663
 20
-326.3095479711402
 30
0.0
 11
326.9069429757662
 21
-326.3095479711402
 31
0.0
  0
LINE
  5
C64
330
6B
100
AcDbEntity
  8
0
  6
Continuous
100
AcDbLine
 10
326.9069429757662
 20
-326.3095479711402
 30
0.0
 11
327.4069429757664
 21
-335.3095479711401
 31
0.0
  0
LINE
  5
C67
330
6B
100
AcDbEntity
  8
0
  6
Continuous
100
AcDbLine
 10
287.5043512081879
 20
-276.1946291239832
 30
0.0
 11
287.5043512081879
 21
-262.6946291239834
 31
0.0
  0
LINE
  5
C68
330
6B
100
AcDbEntity
  8
0
  6
Continuous
100
AcDbLine
 10
286.0043512081879
 20
-276.1946291239832
 30
0.0
 11
286.0043512081879
 21
-262.6946291239834
 31
0.0
  0
ARC
  5
C69
330
6B
100
AcDbEntity
  8
0
  6
Continuous
100
AcDbCircle
 10
286.7543512081878
 20
-262.6946291239834
 30
0.0
 40
0.7500000000000771
100
AcDbArc
 50
0.0
 51
180.0
  0
ARC
  5
C6A
330
6B
100
AcDbEntity
  8
0
  6
Continuous
100
AcDbCircle
 10
286.754351208188
 20
-276.1946291239832
 30
0.0
 40
0.75
100
AcDbArc
 50
180.0
 51
0.0
  0
LINE
  5
C6B
330
6B
100
AcDbEntity
  8
0
  6
Continuous
100
AcDbLine
 10
284.5043512081878
 20
-276.1946291239832
 30
0.0
 11
284.5043512081879
 21
-262.6946291239834
 31
0.0
  0
LINE
  5
C6C
330
6B
100
AcDbEntity
  8
0
  6
Continuous
100
AcDbLine
 10
283.0043512081878
 20
-276.1946291239832
 30
0.0
 11
283.0043512081878
 21
-262.6946291239834
 31
0.0
  0
ARC
  5
C6D
330
6B
100
AcDbEntity
  8
0
  6
Continuous
100
AcDbCircle
 10
283.7543512081877
 20
-262.6946291239834
 30
0.0
 40
0.7500000000000771
100
AcDbArc
 50
0.0
 51
180.0
  0
ARC
  5
C6E
330
6B
100
AcDbEntity
  8
0
  6
Continuous
100
AcDbCircle
 10
283.7543512081878
 20
-276.1946291239832
 30
0.0
 40
0.75
100
AcDbArc
 50
180.0
 51
0.0
  0
LINE
  5
C6F
330
6B
100
AcDbEntity
  8
0
  6
Continuous
100
AcDbLine
 10
281.5043512081878
 20
-276.1946291239832
 30
0.0
 11
281.5043512081878
 21
-262.6946291239834
 31
0.0
  0
LINE
  5
C70
330
6B
100
AcDbEntity
  8
0
  6
Continuous
100
AcDbLine
 10
280.0043512081877
 20
-276.1946291239832
 30
0.0
 11
280.0043512081877
 21
-262.6946291239834
 31
0.0
  0
ARC
  5
C71
330
6B
100
AcDbEntity
  8
0
  6
Continuous
100
AcDbCircle
 10
280.7543512081877
 20
-262.6946291239834
 30
0.0
 40
0.7500000000000771
100
AcDbArc
 50
0.0
 51
180.0
  0
ARC
  5
C72
330
6B
100
AcDbEntity
  8
0
  6
Continuous
100
AcDbCircle
 10
280.7543512081878
 20
-276.1946291239832
 30
0.0
 40
0.75
100
AcDbArc
 50
180.0
 51
0.0
  0
LINE
  5
C73
330
6B
100
AcDbEntity
  8
0
  6
Continuous
100
AcDbLine
 10
278.5043512081878
 20
-276.1946291239832
 30
0.0
 11
278.504351208188
 21
-262.6946291239834
 31
0.0
  0
LINE
  5
C74
330
6B
100
AcDbEntity
  8
0
  6
Continuous
100
AcDbLine
 10
277.0043512081878
 20
-276.1946291239832
 30
0.0
 11
277.0043512081878
 21
-262.6946291239834
 31
0.0
  0
ARC
  5
C75
330
6B
100
AcDbEntity
  8
0
  6
Continuous
100
AcDbCircle
 10
277.7543512081877
 20
-262.6946291239834
 30
0.0
 40
0.7500000000000771
100
AcDbArc
 50
0.0
 51
180.0
  0
ARC
  5
C76
330
6B
100
AcDbEntity
  8
0
  6
Continuous
100
AcDbCircle
 10
277.7543512081878
 20
-276.1946291239832
 30
0.0
 40
0.75
100
AcDbArc
 50
180.0
 51
0.0
  0
LINE
  5
C77
330
6B
100
AcDbEntity
  8
0
  6
Continuous
100
AcDbLine
 10
275.5043512081878
 20
-276.1946291239832
 30
0.0
 11
275.5043512081878
 21
-262.6946291239834
 31
0.0
  0
LINE
  5
C78
330
6B
100
AcDbEntity
  8
0
  6
Continuous
100
AcDbLine
 10
274.0043512081878
 20
-276.1946291239832
 30
0.0
 11
274.0043512081878
 21
-262.6946291239834
 31
0.0
  0
ARC
  5
C79
330
6B
100
AcDbEntity
  8
0
  6
Continuous
100
AcDbCircle
 10
274.7543512081877
 20
-262.6946291239834
 30
0.0
 40
0.7500000000000771
100
AcDbArc
 50
0.0
 51
180.0
  0
ARC
  5
C7A
330
6B
100
AcDbEntity
  8
0
  6
Continuous
100
AcDbCircle
 10
274.7543512081878
 20
-276.1946291239832
 30
0.0
 40
0.75
100
AcDbArc
 50
180.0
 51
0.0
  0
LINE
  5
C7B
330
6B
100
AcDbEntity
  8
0
  6
Continuous
100
AcDbLine
 10
272.5043512081878
 20
-276.1946291239832
 30
0.0
 11
272.504351208188
 21
-262.6946291239834
 31
0.0
  0
LINE
  5
C7C
330
6B
100
AcDbEntity
  8
0
  6
Continuous
100
AcDbLine
 10
271.0043512081878
 20
-276.1946291239832
 30
0.0
 11
271.0043512081878
 21
-262.6946291239834
 31
0.0
  0
ARC
  5
C7D
330
6B
100
AcDbEntity
  8
0
  6
Continuous
100
AcDbCircle
 10
271.7543512081877
 20
-262.6946291239834
 30
0.0
 40
0.7500000000000771
100
AcDbArc
 50
0.0
 51
180.0
  0
ARC
  5
C7E
330
6B
100
AcDbEntity
  8
0
  6
Continuous
100
AcDbCircle
 10
271.7543512081878
 20
-276.1946291239832
 30
0.0
 40
0.75
100
AcDbArc
 50
180.0
 51
0.0
  0
LINE
  5
C7F
330
6B
100
AcDbEntity
  8
0
  6
Continuous
100
AcDbLine
 10
269.5043512081877
 20
-276.1946291239832
 30
0.0
 11
269.5043512081878
 21
-262.6946291239834
 31
0.0
  0
LINE
  5
C80
330
6B
100
AcDbEntity
  8
0
  6
Continuous
100
AcDbLine
 10
268.0043512081878
 20
-276.1946291239832
 30
0.0
 11
268.0043512081878
 21
-262.6946291239834
 31
0.0
  0
ARC
  5
C81
330
6B
100
AcDbEntity
  8
0
  6
Continuous
100
AcDbCircle
 10
268.7543512081877
 20
-262.6946291239834
 30
0.0
 40
0.7500000000000771
100
AcDbArc
 50
0.0
 51
180.0
  0
ARC
  5
C82
330
6B
100
AcDbEntity
  8
0
  6
Continuous
100
AcDbCircle
 10
268.7543512081878
 20
-276.1946291239832
 30
0.0
 40
0.75
100
AcDbArc
 50
180.0
 51
0.0
  0
LINE
  5
C83
330
6B
100
AcDbEntity
  8
0
  6
Continuous
100
AcDbLine
 10
266.5043512081878
 20
-276.1946291239832
 30
0.0
 11
266.5043512081879
 21
-262.6946291239834
 31
0.0
  0
LINE
  5
C84
330
6B
100
AcDbEntity
  8
0
  6
Continuous
100
AcDbLine
 10
265.0043512081878
 20
-276.1946291239832
 30
0.0
 11
265.0043512081878
 21
-262.6946291239834
 31
0.0
  0
ARC
  5
C85
330
6B
100
AcDbEntity
  8
0
  6
Continuous
100
AcDbCircle
 10
265.7543512081877
 20
-262.6946291239834
 30
0.0
 40
0.7500000000000771
100
AcDbArc
 50
0.0
 51
180.0
  0
ARC
  5
C86
330
6B
100
AcDbEntity
  8
0
  6
Continuous
100
AcDbCircle
 10
265.7543512081878
 20
-276.1946291239832
 30
0.0
 40
0.75
100
AcDbArc
 50
180.0
 51
0.0
  0
LINE
  5
C87
330
6B
100
AcDbEntity
  8
0
  6
Continuous
100
AcDbLine
 10
263.5043512081878
 20
-276.1946291239832
 30
0.0
 11
263.5043512081878
 21
-262.6946291239834
 31
0.0
  0
LINE
  5
C88
330
6B
100
AcDbEntity
  8
0
  6
Continuous
100
AcDbLine
 10
262.0043512081878
 20
-276.1946291239832
 30
0.0
 11
262.0043512081878
 21
-262.6946291239834
 31
0.0
  0
ARC
  5
C89
330
6B
100
AcDbEntity
  8
0
  6
Continuous
100
AcDbCircle
 10
262.7543512081877
 20
-262.6946291239834
 30
0.0
 40
0.7500000000000771
100
AcDbArc
 50
0.0
 51
180.0
  0
ARC
  5
C8A
330
6B
100
AcDbEntity
  8
0
  6
Continuous
100
AcDbCircle
 10
262.7543512081878
 20
-276.1946291239832
 30
0.0
 40
0.75
100
AcDbArc
 50
180.0
 51
0.0
  0
LINE
  5
C8B
330
6B
100
AcDbEntity
  8
0
  6
Continuous
100
AcDbLine
 10
260.5043512081878
 20
-276.1946291239832
 30
0.0
 11
260.5043512081878
 21
-262.6946291239834
 31
0.0
  0
LINE
  5
C8C
330
6B
100
AcDbEntity
  8
0
  6
Continuous
100
AcDbLine
 10
259.0043512081878
 20
-276.1946291239832
 30
0.0
 11
259.0043512081878
 21
-262.6946291239834
 31
0.0
  0
ARC
  5
C8D
330
6B
100
AcDbEntity
  8
0
  6
Continuous
100
AcDbCircle
 10
259.7543512081876
 20
-262.6946291239834
 30
0.0
 40
0.7500000000000771
100
AcDbArc
 50
0.0
 51
180.0
  0
ARC
  5
C8E
330
6B
100
AcDbEntity
  8
0
  6
Continuous
100
AcDbCircle
 10
259.7543512081878
 20
-276.1946291239832
 30
0.0
 40
0.75
100
AcDbArc
 50
180.0
 51
0.0
  0
LINE
  5
C8F
330
6B
100
AcDbEntity
  8
0
  6
Continuous
100
AcDbLine
 10
257.5043512081878
 20
-276.1946291239832
 30
0.0
 11
257.504351208188
 21
-262.6946291239834
 31
0.0
  0
LINE
  5
C90
330
6B
100
AcDbEntity
  8
0
  6
Continuous
100
AcDbLine
 10
256.0043512081878
 20
-276.1946291239832
 30
0.0
 11
256.0043512081878
 21
-262.6946291239834
 31
0.0
  0
ARC
  5
C91
330
6B
100
AcDbEntity
  8
0
  6
Continuous
100
AcDbCircle
 10
256.7543512081877
 20
-262.6946291239834
 30
0.0
 40
0.7500000000000771
100
AcDbArc
 50
0.0
 51
180.0
  0
ARC
  5
C92
330
6B
100
AcDbEntity
  8
0
  6
Continuous
100
AcDbCircle
 10
256.7543512081878
 20
-276.1946291239832
 30
0.0
 40
0.75
100
AcDbArc
 50
180.0
 51
0.0
  0
LINE
  5
C93
330
6B
100
AcDbEntity
  8
0
  6
Continuous
100
AcDbLine
 10
254.5043512081878
 20
-276.1946291239832
 30
0.0
 11
254.5043512081878
 21
-262.6946291239834
 31
0.0
  0
LINE
  5
C94
330
6B
100
AcDbEntity
  8
0
  6
Continuous
100
AcDbLine
 10
253.0043512081878
 20
-276.1946291239832
 30
0.0
 11
253.0043512081878
 21
-262.6946291239834
 31
0.0
  0
ARC
  5
C95
330
6B
100
AcDbEntity
  8
0
  6
Continuous
100
AcDbCircle
 10
253.7543512081877
 20
-262.6946291239834
 30
0.0
 40
0.7500000000000771
100
AcDbArc
 50
0.0
 51
180.0
  0
ARC
  5
C96
330
6B
100
AcDbEntity
  8
0
  6
Continuous
100
AcDbCircle
 10
253.7543512081879
 20
-276.1946291239832
 30
0.0
 40
0.75
100
AcDbArc
 50
180.0
 51
0.0
  0
LINE
  5
C97
330
6B
100
AcDbEntity
  8
0
  6
Continuous
100
AcDbLine
 10
251.5043512081879
 20
-276.1946291239832
 30
0.0
 11
251.504351208188
 21
-262.6946291239834
 31
0.0
  0
LINE
  5
C98
330
6B
100
AcDbEntity
  8
0
  6
Continuous
100
AcDbLine
 10
250.0043512081878
 20
-276.1946291239832
 30
0.0
 11
250.0043512081878
 21
-262.6946291239834
 31
0.0
  0
ARC
  5
C99
330
6B
100
AcDbEntity
  8
0
  6
Continuous
100
AcDbCircle
 10
250.7543512081877
 20
-262.6946291239834
 30
0.0
 40
0.7500000000000771
100
AcDbArc
 50
0.0
 51
180.0
  0
ARC
  5
C9A
330
6B
100
AcDbEntity
  8
0
  6
Continuous
100
AcDbCircle
 10
250.7543512081877
 20
-276.1946291239832
 30
0.0
 40
0.75
100
AcDbArc
 50
180.0
 51
0.0
  0
LINE
  5
C9B
330
6B
100
AcDbEntity
  8
0
  6
Continuous
100
AcDbLine
 10
248.5043512081878
 20
-276.1946291239832
 30
0.0
 11
248.5043512081878
 21
-262.6946291239834
 31
0.0
  0
LINE
  5
C9C
330
6B
100
AcDbEntity
  8
0
  6
Continuous
100
AcDbLine
 10
247.0043512081879
 20
-276.1946291239832
 30
0.0
 11
247.0043512081879
 21
-262.6946291239834
 31
0.0
  0
ARC
  5
C9D
330
6B
100
AcDbEntity
  8
0
  6
Continuous
100
AcDbCircle
 10
247.7543512081877
 20
-262.6946291239834
 30
0.0
 40
0.7500000000000771
100
AcDbArc
 50
0.0
 51
180.0
  0
ARC
  5
C9E
330
6B
100
AcDbEntity
  8
0
  6
Continuous
100
AcDbCircle
 10
247.7543512081878
 20
-276.1946291239832
 30
0.0
 40
0.75
100
AcDbArc
 50
180.0
 51
0.0
  0
LINE
  5
C9F
330
6B
100
AcDbEntity
  8
0
  6
Continuous
100
AcDbLine
 10
245.5043512081878
 20
-276.1946291239832
 30
0.0
 11
245.5043512081878
 21
-262.6946291239834
 31
0.0
  0
LINE
  5
CA0
330
6B
100
AcDbEntity
  8
0
  6
Continuous
100
AcDbLine
 10
244.0043512081878
 20
-276.1946291239832
 30
0.0
 11
244.0043512081878
 21
-262.6946291239834
 31
0.0
  0
ARC
  5
CA1
330
6B
100
AcDbEntity
  8
0
  6
Continuous
100
AcDbCircle
 10
244.7543512081877
 20
-262.6946291239834
 30
0.0
 40
0.7500000000000771
100
AcDbArc
 50
0.0
 51
180.0
  0
ARC
  5
CA2
330
6B
100
AcDbEntity
  8
0
  6
Continuous
100
AcDbCircle
 10
244.7543512081878
 20
-276.1946291239832
 30
0.0
 40
0.75
100
AcDbArc
 50
180.0
 51
0.0
  0
LINE
  5
CA3
330
6B
100
AcDbEntity
  8
0
  6
Continuous
100
AcDbLine
 10
242.5043512081877
 20
-276.1946291239832
 30
0.0
 11
242.5043512081878
 21
-262.6946291239834
 31
0.0
  0
LINE
  5
CA4
330
6B
100
AcDbEntity
  8
0
  6
Continuous
100
AcDbLine
 10
241.0043512081879
 20
-276.1946291239832
 30
0.0
 11
241.0043512081879
 21
-262.6946291239834
 31
0.0
  0
ARC
  5
CA5
330
6B
100
AcDbEntity
  8
0
  6
Continuous
100
AcDbCircle
 10
241.7543512081877
 20
-262.6946291239834
 30
0.0
 40
0.7500000000000771
100
AcDbArc
 50
0.0
 51
180.0
  0
ARC
  5
CA6
330
6B
100
AcDbEntity
  8
0
  6
Continuous
100
AcDbCircle
 10
241.7543512081878
 20
-276.1946291239832
 30
0.0
 40
0.75
100
AcDbArc
 50
180.0
 51
0.0
  0
LINE
  5
CAF
330
6B
100
AcDbEntity
  8
0
  6
Continuous
100
AcDbLine
 10
164.9333576173867
 20
-274.6946291239833
 30
0.0
 11
164.9333576173867
 21
-279.1946291239833
 31
0.0
  0
LINE
  5
CB2
330
6B
100
AcDbEntity
  8
0
  6
Continuous
100
AcDbLine
 10
90.93335761738659
 20
-274.6946291239833
 30
0.0
 11
91.68335761738658
 21
-274.6946291239833
 31
0.0
  0
LINE
  5
CB3
330
6B
100
AcDbEntity
  8
0
  6
Continuous
100
AcDbLine
 10
90.93335761738659
 20
-279.1946291239833
 30
0.0
 11
91.68335761738658
 21
-279.1946291239833
 31
0.0
  0
LINE
  5
CB4
330
6B
100
AcDbEntity
  8
0
  6
Continuous
100
AcDbLine
 10
90.93335761738659
 20
-309.6946291239833
 30
0.0
 11
91.68335761738658
 21
-309.6946291239833
 31
0.0
  0
LINE
  5
CB5
330
6B
100
AcDbEntity
  8
0
  6
Continuous
100
AcDbLine
 10
90.93335761738659
 20
-314.1946291239833
 30
0.0
 11
91.68335761738658
 21
-314.1946291239833
 31
0.0
  0
ARC
  5
CB6
330
6B
100
AcDbEntity
  8
0
  6
Continuous
100
AcDbCircle
 10
160.1208576173867
 20
-311.9446291239833
 30
0.0
 40
5.312499999999948
100
AcDbArc
 50
334.9423845816951
 51
25.05761541830481
  0
ARC
  5
CB7
330
6B
100
AcDbEntity
  8
0
  6
Continuous
100
AcDbCircle
 10
160.1208576173865
 20
-276.9446291239833
 30
0.0
 40
5.312500000000047
100
AcDbArc
 50
334.9423845816951
 51
25.05761541830481
  0
ARC
  5
CB9
330
6B
100
AcDbEntity
  8
0
  6
Continuous
100
AcDbCircle
 10
95.76369648668935
 20
-276.9446291239833
 30
0.0
 40
5.328665273058251
100
AcDbArc
 50
155.0236218359605
 51
204.9763781640394
  0
LINE
  5
CBA
330
6B
100
AcDbEntity
  8
0
  6
Continuous
 62
     7
100
AcDbLine
 10
90.93335761738659
 20
-274.6946291239833
 30
0.0
 11
90.93335761738659
 21
-279.1946291239833
 31
0.0
  0
ARC
  5
CBB
330
6B
100
AcDbEntity
  8
0
  6
Continuous
100
AcDbCircle
 10
95.74585761738626
 20
-311.9446291239833
 30
0.0
 40
5.312499999999741
100
AcDbArc
 50
154.9423845816952
 51
205.0576154183048
  0
LINE
  5
CBC
330
6B
100
AcDbEntity
  8
0
  6
Continuous
100
AcDbLine
 10
164.1833576173867
 20
-274.6946291239833
 30
0.0
 11
164.9333576173867
 21
-274.6946291239833
 31
0.0
  0
LINE
  5
CBD
330
6B
100
AcDbEntity
  8
0
  6
Continuous
100
AcDbLine
 10
164.1833576173867
 20
-279.1946291239833
 30
0.0
 11
164.9333576173867
 21
-279.1946291239833
 31
0.0
  0
LINE
  5
CBE
330
6B
100
AcDbEntity
  8
0
  6
Continuous
100
AcDbLine
 10
164.1833576173867
 20
-309.6946291239833
 30
0.0
 11
164.9333576173867
 21
-309.6946291239833
 31
0.0
  0
LINE
  5
CBF
330
6B
100
AcDbEntity
  8
0
  6
Continuous
100
AcDbLine
 10
164.1833576173867
 20
-314.1946291239833
 30
0.0
 11
164.9333576173867
 21
-314.1946291239833
 31
0.0
  0
LINE
  5
CC0
330
6B
100
AcDbEntity
  8
0
  6
Continuous
100
AcDbLine
 10
164.9333576173867
 20
-309.6946291239833
 30
0.0
 11
164.9333576173866
 21
-314.1946291239833
 31
0.0
  0
LINE
  5
CC1
330
6B
100
AcDbEntity
  8
0
  6
Continuous
 62
     7
100
AcDbLine
 10
90.93335761738659
 20
-309.6946291239833
 30
0.0
 11
90.93335761738659
 21
-314.1946291239833
 31
0.0
  0
CIRCLE
  5
CC2
330
6B
100
AcDbEntity
  8
0
  6
Continuous
100
AcDbCircle
 10
299.254351208188
 20
-276.9446291239833
 30
0.0
 40
2.25
  0
LINE
  5
CC3
330
6B
100
AcDbEntity
  8
0
  6
Continuous
100
AcDbLine
 10
299.5043512081879
 20
-275.6487751825062
 30
0.0
 11
299.5043512081879
 21
-276.6946291239833
 31
0.0
  0
LINE
  5
CC4
330
6B
100
AcDbEntity
  8
0
  6
Continuous
100
AcDbLine
 10
299.0043512081879
 20
-275.6487751825062
 30
0.0
 11
299.0043512081879
 21
-276.6946291239833
 31
0.0
  0
LINE
  5
CC5
330
6B
100
AcDbEntity
  8
0
  6
Continuous
100
AcDbLine
 10
297.9584972667108
 20
-276.6946291239833
 30
0.0
 11
299.0043512081879
 21
-276.6946291239833
 31
0.0
  0
LINE
  5
CC6
330
6B
100
AcDbEntity
  8
0
  6
Continuous
100
AcDbLine
 10
297.9584972667108
 20
-277.1946291239833
 30
0.0
 11
299.0043512081879
 21
-277.1946291239833
 31
0.0
  0
ARC
  5
CC7
330
6B
100
AcDbEntity
  8
0
  6
Continuous
100
AcDbCircle
 10
299.254351208188
 20
-276.9446291239833
 30
0.0
 40
1.319749005546779
100
AcDbArc
 50
79.08048086552451
 51
100.9195191344755
  0
ARC
  5
CC8
330
6B
100
AcDbEntity
  8
0
  6
Continuous
100
AcDbCircle
 10
299.254351208188
 20
-276.9446291239833
 30
0.0
 40
1.319749005546779
100
AcDbArc
 50
169.0804808655283
 51
190.9195191344716
  0
ARC
  5
CC9
330
6B
100
AcDbEntity
  8
0
  6
Continuous
100
AcDbCircle
 10
299.254351208188
 20
-276.9446291239833
 30
0.0
 40
1.319749005546779
100
AcDbArc
 50
259.0804808655245
 51
280.9195191344755
  0
ARC
  5
CCA
330
6B
100
AcDbEntity
  8
0
  6
Continuous
100
AcDbCircle
 10
299.254351208188
 20
-276.9446291239833
 30
0.0
 40
1.319749005546779
100
AcDbArc
 50
349.0804808655283
 51
10.91951913447167
  0
LINE
  5
CCB
330
6B
100
AcDbEntity
  8
0
  6
Continuous
100
AcDbLine
 10
299.5043512081879
 20
-277.1946291239833
 30
0.0
 11
300.5502051496651
 21
-277.1946291239833
 31
0.0
  0
LINE
  5
CCC
330
6B
100
AcDbEntity
  8
0
  6
Continuous
100
AcDbLine
 10
299.5043512081879
 20
-277.1946291239833
 30
0.0
 11
299.5043512081879
 21
-278.2404830654604
 31
0.0
  0
LINE
  5
CCD
330
6B
100
AcDbEntity
  8
0
  6
Continuous
100
AcDbLine
 10
299.5043512081879
 20
-276.6946291239833
 30
0.0
 11
300.5502051496651
 21
-276.6946291239833
 31
0.0
  0
LINE
  5
CCE
330
6B
100
AcDbEntity
  8
0
  6
Continuous
100
AcDbLine
 10
299.0043512081879
 20
-277.1946291239833
 30
0.0
 11
299.0043512081879
 21
-278.2404830654604
 31
0.0
  0
LINE
  5
CCF
330
6B
100
AcDbEntity
  8
0
  6
Continuous
100
AcDbLine
 10
227.9584972667108
 20
-277.1946291239833
 30
0.0
 11
229.0043512081879
 21
-277.1946291239833
 31
0.0
  0
LINE
  5
CD0
330
6B
100
AcDbEntity
  8
0
  6
Continuous
100
AcDbLine
 10
229.5043512081879
 20
-277.1946291239833
 30
0.0
 11
230.5502051496651
 21
-277.1946291239833
 31
0.0
  0
LINE
  5
CD1
330
6B
100
AcDbEntity
  8
0
  6
Continuous
100
AcDbLine
 10
227.9584972667108
 20
-276.6946291239833
 30
0.0
 11
229.0043512081879
 21
-276.6946291239833
 31
0.0
  0
LINE
  5
CD2
330
6B
100
AcDbEntity
  8
0
  6
Continuous
100
AcDbLine
 10
229.5043512081879
 20
-276.6946291239833
 30
0.0
 11
230.5502051496651
 21
-276.6946291239833
 31
0.0
  0
LINE
  5
CD3
330
6B
100
AcDbEntity
  8
0
  6
Continuous
100
AcDbLine
 10
229.0043512081879
 20
-275.6487751825062
 30
0.0
 11
229.0043512081879
 21
-276.6946291239833
 31
0.0
  0
LINE
  5
CD4
330
6B
100
AcDbEntity
  8
0
  6
Continuous
100
AcDbLine
 10
229.0043512081879
 20
-277.1946291239833
 30
0.0
 11
229.0043512081879
 21
-278.2404830654604
 31
0.0
  0
LINE
  5
CD5
330
6B
100
AcDbEntity
  8
0
  6
Continuous
100
AcDbLine
 10
229.5043512081879
 20
-275.6487751825062
 30
0.0
 11
229.5043512081879
 21
-276.6946291239833
 31
0.0
  0
LINE
  5
CD6
330
6B
100
AcDbEntity
  8
0
  6
Continuous
100
AcDbLine
 10
229.5043512081879
 20
-277.1946291239833
 30
0.0
 11
229.5043512081879
 21
-278.2404830654604
 31
0.0
  0
CIRCLE
  5
CD7
330
6B
100
AcDbEntity
  8
0
  6
Continuous
100
AcDbCircle
 10
229.2543512081879
 20
-276.9446291239833
 30
0.0
 40
2.25
  0
ARC
  5
CD8
330
6B
100
AcDbEntity
  8
0
  6
Continuous
100
AcDbCircle
 10
229.2543512081879
 20
-276.9446291239833
 30
0.0
 40
1.319749005546779
100
AcDbArc
 50
79.08048086552451
 51
100.9195191344755
  0
ARC
  5
CD9
330
6B
100
AcDbEntity
  8
0
  6
Continuous
100
AcDbCircle
 10
229.2543512081879
 20
-276.9446291239833
 30
0.0
 40
1.319749005546779
100
AcDbArc
 50
169.0804808655283
 51
190.9195191344716
  0
ARC
  5
CDA
330
6B
100
AcDbEntity
  8
0
  6
Continuous
100
AcDbCircle
 10
229.2543512081879
 20
-276.9446291239833
 30
0.0
 40
1.319749005546779
100
AcDbArc
 50
259.0804808655245
 51
280.9195191344755
  0
ARC
  5
CDB
330
6B
100
AcDbEntity
  8
0
  6
Continuous
100
AcDbCircle
 10
229.2543512081879
 20
-276.9446291239833
 30
0.0
 40
1.319749005546779
100
AcDbArc
 50
349.0804808655283
 51
10.91951913447167
  0
LINE
  5
CDC
330
6B
100
AcDbEntity
  8
0
  6
Continuous
100
AcDbLine
 10
262.9584972667108
 20
-312.1946291239833
 30
0.0
 11
264.0043512081879
 21
-312.1946291239833
 31
0.0
  0
LINE
  5
CDD
330
6B
100
AcDbEntity
  8
0
  6
Continuous
100
AcDbLine
 10
264.5043512081879
 20
-312.1946291239833
 30
0.0
 11
265.5502051496651
 21
-312.1946291239833
 31
0.0
  0
LINE
  5
CDE
330
6B
100
AcDbEntity
  8
0
  6
Continuous
100
AcDbLine
 10
262.9584972667108
 20
-311.6946291239833
 30
0.0
 11
264.0043512081879
 21
-311.6946291239833
 31
0.0
  0
LINE
  5
CDF
330
6B
100
AcDbEntity
  8
0
  6
Continuous
100
AcDbLine
 10
264.5043512081879
 20
-311.6946291239833
 30
0.0
 11
265.5502051496651
 21
-311.6946291239833
 31
0.0
  0
LINE
  5
CE0
330
6B
100
AcDbEntity
  8
0
  6
Continuous
100
AcDbLine
 10
264.0043512081879
 20
-310.6487751825062
 30
0.0
 11
264.0043512081879
 21
-311.6946291239833
 31
0.0
  0
LINE
  5
CE1
330
6B
100
AcDbEntity
  8
0
  6
Continuous
100
AcDbLine
 10
264.0043512081879
 20
-312.1946291239833
 30
0.0
 11
264.0043512081879
 21
-313.2404830654603
 31
0.0
  0
LINE
  5
CE2
330
6B
100
AcDbEntity
  8
0
  6
Continuous
100
AcDbLine
 10
264.5043512081879
 20
-310.6487751825062
 30
0.0
 11
264.5043512081879
 21
-311.6946291239833
 31
0.0
  0
LINE
  5
CE3
330
6B
100
AcDbEntity
  8
0
  6
Continuous
100
AcDbLine
 10
264.5043512081879
 20
-312.1946291239833
 30
0.0
 11
264.5043512081879
 21
-313.2404830654603
 31
0.0
  0
CIRCLE
  5
CE4
330
6B
100
AcDbEntity
  8
0
  6
Continuous
100
AcDbCircle
 10
264.2543512081879
 20
-311.9446291239833
 30
0.0
 40
2.25
  0
ARC
  5
CE5
330
6B
100
AcDbEntity
  8
0
  6
Continuous
100
AcDbCircle
 10
264.2543512081879
 20
-311.9446291239833
 30
0.0
 40
1.319749005546779
100
AcDbArc
 50
79.08048086552451
 51
100.9195191344755
  0
ARC
  5
CE6
330
6B
100
AcDbEntity
  8
0
  6
Continuous
100
AcDbCircle
 10
264.2543512081879
 20
-311.9446291239833
 30
0.0
 40
1.319749005546779
100
AcDbArc
 50
169.0804808655283
 51
190.9195191344716
  0
ARC
  5
CE7
330
6B
100
AcDbEntity
  8
0
  6
Continuous
100
AcDbCircle
 10
264.2543512081879
 20
-311.9446291239833
 30
0.0
 40
1.319749005546779
100
AcDbArc
 50
259.0804808655245
 51
280.9195191344755
  0
ARC
  5
CE8
330
6B
100
AcDbEntity
  8
0
  6
Continuous
100
AcDbCircle
 10
264.2543512081879
 20
-311.9446291239833
 30
0.0
 40
1.319749005546779
100
AcDbArc
 50
349.0804808655247
 51
10.91951913447167
  0
CIRCLE
  5
D5B
330
6B
100
AcDbEntity
  8
0
100
AcDbCircle
 10
97.70515609739073
 20
-225.9396987492392
 30
0.0
 40
5.0
  0
TEXT
  5
D5C
330
6B
100
AcDbEntity
  8
0
 62
     4
100
AcDbText
 10
95.71560453271443
 20
-229.2470114545058
 30
0.0
 40
6.299999999999998
  1
7
  7
高6.3
100
AcDbText
  0
CIRCLE
  5
D5D
330
6B
100
AcDbEntity
  8
0
100
AcDbCircle
 10
150.3427578583457
 20
-226.3652250675964
 30
0.0
 40
5.0
  0
TEXT
  5
D5E
330
6B
100
AcDbEntity
  8
0
 62
     4
100
AcDbText
 10
148.3532062936695
 20
-229.672537772863
 30
0.0
 40
6.299999999999998
  1
6
  7
高6.3
100
AcDbText
  0
CIRCLE
  5
D5F
330
6B
100
AcDbEntity
  8
0
100
AcDbCircle
 10
322.6382203634957
 20
-292.8297827172422
 30
0.0
 40
5.0
  0
TEXT
  5
D60
330
6B
100
AcDbEntity
  8
0
 62
     4
100
AcDbText
 10
320.6486687988194
 20
-296.1370954225088
 30
0.0
 40
6.299999999999998
  1
3
  7
高6.3
100
AcDbText
  0
CIRCLE
  5
D61
330
6B
100
AcDbEntity
  8
0
100
AcDbCircle
 10
322.3474303634958
 20
-262.5561317172422
 30
0.0
 40
5.0
  0
TEXT
  5
D62
330
6B
100
AcDbEntity
  8
0
 62
     4
100
AcDbText
 10
320.3578787988194
 20
-265.8634444225087
 30
0.0
 40
6.299999999999998
  1
2
  7
高6.3
100
AcDbText
  0
CIRCLE
  5
D63
330
6B
100
AcDbEntity
  8
0
100
AcDbCircle
 10
77.01223174240476
 20
-289.8353472667306
 30
0.0
 40
5.0
  0
TEXT
  5
D64
330
6B
100
AcDbEntity
  8
0
 62
     4
100
AcDbText
 10
75.02268017772848
 20
-293.142659971997
 30
0.0
 40
6.299999999999998
  1
4
  7
高6.3
100
AcDbText
  0
CIRCLE
  5
D6B
330
6B
100
AcDbEntity
  8
0
100
AcDbCircle
 10
139.1045917570379
 20
-226.3176158277628
 30
0.0
 40
5.0
  0
TEXT
  5
D6C
330
6B
100
AcDbEntity
  8
0
 62
     4
100
AcDbText
 10
137.1150401923616
 20
-229.6249285330294
 30
0.0
 40
6.299999999999998
  1
8
  7
高6.3
100
AcDbText
  0
TEXT
  5
D73
330
6B
100
AcDbEntity
  8
0
 62
     3
100
AcDbText
 10
272.9512729041019
 20
-357.3923213388932
 30
0.0
 40
4.5
  1
主　　仕　　様
  7
高4.5
100
AcDbText
  0
TEXT
  5
D74
330
6B
100
AcDbEntity
  8
0
 62
     3
100
AcDbText
 10
252.9119289041018
 20
-369.8360143388932
 30
0.0
 40
3.2
  1
入力電圧
  7
高3.2
100
AcDbText
  0
TEXT
  5
D75
330
6B
100
AcDbEntity
  8
0
 62
     3
100
AcDbText
 10
252.9119289041018
 20
-374.8360143388932
 30
0.0
 40
3.2
  1
出力電圧
  7
高3.2
100
AcDbText
  0
TEXT
  5
D76
330
6B
100
AcDbEntity
  8
0
 62
     3
100
AcDbText
 10
252.9119289041018
 20
-384.8360143388932
 30
0.0
 40
3.2
  1
出力電流
  7
高3.2
100
AcDbText
  0
LINE
  5
D77
330
6B
100
AcDbEntity
  8
0
 62
     3
100
AcDbLine
 10
276.1851821369512
 20
-360.3360143388932
 30
0.0
 11
276.1851821369512
 21
-400.3360143388928
 31
0.0
  0
TEXT
  5
D78
330
6B
100
AcDbEntity
  8
0
 62
     3
100
AcDbText
 10
252.9119289041018
 20
-389.8360143388932
 30
0.0
 40
3.2
  1
容　　量
  7
高3.2
100
AcDbText
  0
TEXT
  5
D79
330
6B
100
AcDbEntity
  8
0
 62
     3
100
AcDbText
 10
252.9119289041018
 20
-394.8360143388932
 30
0.0
 40
3.2
  1
保護回路
  7
高3.2
100
AcDbText
  0
TEXT
  5
D7A
330
6B
100
AcDbEntity
  8
0
 62
     3
100
AcDbText
 10
252.9119289041018
 20
-399.8360143388932
 30
0.0
 40
3.2
  1
質　　量
  7
高3.2
100
AcDbText
  0
LINE
  5
D7B
330
6B
100
AcDbEntity
  8
0
 62
     3
100
AcDbLine
 10
326.1851821369512
 20
-400.3360143388928
 30
0.0
 11
326.1851821369512
 21
-360.3360143388932
 31
0.0
  0
LINE
  5
D7C
330
6B
100
AcDbEntity
  8
0
 62
     3
100
AcDbLine
 10
326.1851821369512
 20
-360.3360143388932
 30
0.0
 11
251.4119289041021
 21
-360.3360143388932
 31
0.0
  0
LINE
  5
D7D
330
6B
100
AcDbEntity
  8
0
 62
     3
100
AcDbLine
 10
251.4119289041021
 20
-360.3360143388932
 30
0.0
 11
251.4119289041021
 21
-400.3360143388928
 31
0.0
  0
LINE
  5
D7E
330
6B
100
AcDbEntity
  8
0
 62
     3
100
AcDbLine
 10
251.4119289041021
 20
-400.3360143388928
 30
0.0
 11
326.1851821369512
 21
-400.3360143388928
 31
0.0
  0
TEXT
  5
D7F
330
6B
100
AcDbEntity
  8
0
 62
     3
100
AcDbText
 10
252.9119289041018
 20
-364.8360143388932
 30
0.0
 40
3.2
  1
型　　式
  7
高3.2
100
AcDbText
  0
LINE
  5
D80
330
6B
100
AcDbEntity
  8
0
100
AcDbLine
 10
251.4119289041021
 20
-370.3360143388932
 30
0.0
 11
326.1851821369512
 21
-370.3360143388932
 31
0.0
  0
LINE
  5
D81
330
6B
100
AcDbEntity
  8
0
100
AcDbLine
 10
251.4119289041021
 20
-375.3360143388932
 30
0.0
 11
326.1851821369512
 21
-375.3360143388932
 31
0.0
  0
LINE
  5
D82
330
6B
100
AcDbEntity
  8
0
100
AcDbLine
 10
251.4119289041021
 20
-385.3360143388932
 30
0.0
 11
326.1851821369512
 21
-385.3360143388932
 31
0.0
  0
LINE
  5
D83
330
6B
100
AcDbEntity
  8
0
100
AcDbLine
 10
251.4119289041021
 20
-390.3360143388932
 30
0.0
 11
326.1851821369512
 21
-390.3360143388932
 31
0.0
  0
LINE
  5
D84
330
6B
100
AcDbEntity
  8
0
100
AcDbLine
 10
251.4119289041021
 20
-395.3360143388932
 30
0.0
 11
326.1851821369512
 21
-395.3360143388932
 31
0.0
  0
LINE
  5
D85
330
6B
100
AcDbEntity
  8
0
100
AcDbLine
 10
276.1851821369512
 20
-380.3360143388932
 30
0.0
 11
326.1851821369512
 21
-380.3360143388932
 31
0.0
  0
TEXT
  5
D86
330
6B
100
AcDbEntity
  8
0
 62
     3
100
AcDbText
 10
277.6851821369512
 20
-389.8360143388932
 30
0.0
 40
3.2
  1
2KVA
  7
高3.2
100
AcDbText
  0
TEXT
  5
D87
330
6B
100
AcDbEntity
  8
0
 62
     3
100
AcDbText
 10
277.6851821369512
 20
-394.8360143388932
 30
0.0
 40
3.2
  1
6Aサーキットブレ－カ－
  7
高3.2
100
AcDbText
  0
TEXT
  5
D88
330
6B
100
AcDbEntity
  8
0
 62
     3
100
AcDbText
 10
277.6851821369512
 20
-399.8360143388932
 30
0.0
 40
3.2
  1
5.4kg
  7
高3.2
100
AcDbText
  0
TEXT
  5
D89
330
6B
100
AcDbEntity
  8
0
 62
     3
100
AcDbText
 10
277.6851821369512
 20
-374.8360143388932
 30
0.0
 40
3.2
  1
115V 125V
  7
高3.2
100
AcDbText
  0
TEXT
  5
D8A
330
6B
100
AcDbEntity
  8
0
 62
     3
100
AcDbText
 10
277.6851821369512
 20
-379.8360143388932
 30
0.0
 40
3.2
  1
2時間　20A
  7
高3.2
100
AcDbText
  0
TEXT
  5
D8B
330
6B
100
AcDbEntity
  8
0
 62
     3
100
AcDbText
 10
277.6851821369512
 20
-384.8360143388932
 30
0.0
 40
3.2
  1
連　続　14A
  7
高3.2
100
AcDbText
  0
TEXT
  5
D8C
330
6B
100
AcDbEntity
  8
0
 62
     3
100
AcDbText
 10
277.6851821369512
 20
-364.8360143388932
 30
0.0
 40
3.2
  1
M-20S
  7
高3.2
100
AcDbText
  0
LINE
  5
D8D
330
6B
100
AcDbEntity
  8
0
100
AcDbLine
 10
251.4119289041021
 20
-365.3360143388932
 30
0.0
 11
326.1851821369512
 21
-365.3360143388932
 31
0.0
  0
TEXT
  5
D8E
330
6B
100
AcDbEntity
  8
0
 62
     3
100
AcDbText
 10
277.6851821369512
 20
-369.8360143388932
 30
0.0
 40
3.2
  1
AC100V 50/60Hz
  7
高3.2
100
AcDbText
  0
LINE
  5
D8F
330
6B
100
AcDbEntity
  8
0
100
AcDbLine
 10
273.0715727217258
 20
-358.1619994170781
 30
0.0
 11
309.8119021151687
 21
-358.1619994170781
 31
0.0
  0
CIRCLE
  5
F4F
330
6B
100
AcDbEntity
  8
0
100
AcDbCircle
 10
173.2152789028336
 20
-289.8353472667306
 30
0.0
 40
5.0
  0
TEXT
  5
F50
330
6B
100
AcDbEntity
  8
0
 62
     4
100
AcDbText
 10
171.2257273381574
 20
-293.142659971997
 30
0.0
 40
6.299999999999998
  1
5
  7
高6.3
100
AcDbText
  0
TEXT
  5
F53
330
6B
100
AcDbEntity
  8
0
 62
     3
100
AcDbText
 10
97.14213492835863
 20
-432.4647717779081
 30
0.0
 40
3.2
  1
2P 15A 125V(赤)
 41
0.8
  7
高3.2
100
AcDbText
  0
LINE
  5
F55
330
6B
100
AcDbEntity
  8
0
 62
     3
100
AcDbLine
 10
20.318936
 20
-412.9647725558163
 30
0.0
 11
183.0208843492321
 21
-412.9647725558163
 31
0.0
  0
TEXT
  5
F56
330
6B
100
AcDbEntity
  8
0
 62
     3
100
AcDbText
 10
61.49890645280234
 20
-432.4647717779081
 30
0.0
 40
3.2
  1
ABS樹脂、銅合金
 41
0.8
  7
高3.2
100
AcDbText
  0
TEXT
  5
F57
330
6B
100
AcDbEntity
  8
0
 62
     3
100
AcDbText
 10
27.24434843147407
 20
-432.4647717779081
 30
0.0
 40
3.2
  1
2PWコンセント
 41
0.8
  7
高3.2
100
AcDbText
  0
TEXT
  5
F58
330
6B
100
AcDbEntity
  8
0
 62
     3
100
AcDbText
 10
21.818936
 20
-417.4647725558166
 30
0.0
 40
3.2
  1
8
 41
0.8
  7
高3.2
100
AcDbText
  0
TEXT
  5
F59
330
6B
100
AcDbEntity
  8
0
 62
     3
100
AcDbText
 10
133.8619042626953
 20
-432.4647717779081
 30
0.0
 40
3.2
  1
1
 41
0.8
  7
高3.2
100
AcDbText
  0
TEXT
  5
F5A
330
6B
100
AcDbEntity
  8
0
 62
     3
100
AcDbText
 10
133.8619042626953
 20
-437.464771777908
 30
0.0
 40
3.2
  1
1
 41
0.8
  7
高3.2
100
AcDbText
  0
TEXT
  5
100F
330
6B
100
AcDbEntity
  8
0
 62
     3
100
AcDbText
 10
142.3690283421207
 20
-457.4647709999998
 30
0.0
 40
3.2
  1
コード
 41
0.8
  7
高3.2
100
AcDbText
  0
TEXT
  5
1010
330
6B
100
AcDbEntity
  8
0
 62
     3
100
AcDbText
 10
142.3690283421207
 20
-452.4647709999999
 30
0.0
 40
3.2
  1
-
 41
0.8
  7
高3.2
100
AcDbText
  0
TEXT
  5
1011
330
6B
100
AcDbEntity
  8
0
 62
     3
100
AcDbText
 10
142.3690283421207
 20
-442.4647717779084
 30
0.0
 40
3.2
  1
-
 41
0.8
  7
高3.2
100
AcDbText
  0
TEXT
  5
1012
330
6B
100
AcDbEntity
  8
0
 62
     3
100
AcDbText
 10
142.3690283421207
 20
-417.4647725558166
 30
0.0
 40
3.2
  1
55596
 41
0.8
  7
高3.2
100
AcDbText
  0
TEXT
  5
1013
330
6B
100
AcDbEntity
  8
0
 62
     3
100
AcDbText
 10
142.3690283421207
 20
-447.4647709999998
 30
0.0
 40
3.2
  1
-
 41
0.8
  7
高3.2
100
AcDbText
  0
TEXT
  5
1014
330
6B
100
AcDbEntity
  8
0
 62
     3
100
AcDbText
 10
142.3690283421207
 20
-427.4647725558166
 30
0.0
 40
3.2
  1
56364
 41
0.8
  7
高3.2
100
AcDbText
  0
TEXT
  5
1015
330
6B
100
AcDbEntity
  8
0
 62
     3
100
AcDbText
 10
142.3690283421207
 20
-422.4647725558166
 30
0.0
 40
3.2
  1
-
 41
0.8
  7
高3.2
100
AcDbText
  0
LINE
  5
1016
330
6B
100
AcDbEntity
  8
0
100
AcDbLine
 10
140.8690283421208
 20
-457.9647709999998
 30
0.0
 11
140.8690283421208
 21
-412.9647725558163
 31
0.0
  0
TEXT
  5
1017
330
6B
100
AcDbEntity
  8
0
 62
     3
100
AcDbText
 10
142.3690283421207
 20
-432.4647717779081
 30
0.0
 40
3.2
  1
51421
 41
0.8
  7
高3.2
100
AcDbText
  0
TEXT
  5
1018
330
6B
100
AcDbEntity
  8
0
 62
     3
100
AcDbText
 10
142.3690283421207
 20
-437.464771777908
 30
0.0
 40
3.2
  1
51430
 41
0.8
  7
高3.2
100
AcDbText
  0
TEXT
  5
101A
330
6B
100
AcDbEntity
  8
0
 62
     3
100
AcDbText
 10
157.9654193264306
 20
-457.4647709999998
 30
0.0
 40
3.2
  1
コード番号名称
 41
0.6
  7
高3.2
100
AcDbText
  0
TEXT
  5
101B
330
6B
100
AcDbEntity
  8
0
 62
     3
100
AcDbText
 10
157.9654193264306
 20
-452.4647709999999
 30
0.0
 40
3.2
  1
-
 41
0.6
  7
高3.2
100
AcDbText
  0
TEXT
  5
101C
330
6B
100
AcDbEntity
  8
0
 62
     3
100
AcDbText
 10
157.9654193264306
 20
-442.4647717779084
 30
0.0
 40
3.2
  1
-
 41
0.6
  7
高3.2
100
AcDbText
  0
TEXT
  5
101D
330
6B
100
AcDbEntity
  8
0
 62
     3
100
AcDbText
 10
157.9654193264306
 20
-417.4647725558166
 30
0.0
 40
3.2
  1
M-20S用　電圧計
 41
0.6
  7
高3.2
100
AcDbText
  0
TEXT
  5
101E
330
6B
100
AcDbEntity
  8
0
 62
     3
100
AcDbText
 10
157.9654193264306
 20
-447.4647709999998
 30
0.0
 40
3.2
  1
-
 41
0.6
  7
高3.2
100
AcDbText
  0
TEXT
  5
101F
330
6B
100
AcDbEntity
  8
0
 62
     3
100
AcDbText
 10
157.9654193264306
 20
-427.4647725558166
 30
0.0
 40
3.2
  1
-
 41
0.6
  7
高3.2
100
AcDbText
  0
TEXT
  5
1020
330
6B
100
AcDbEntity
  8
0
 62
     3
100
AcDbText
 10
157.9654193264306
 20
-422.4647725558166
 30
0.0
 40
3.2
  1
-
 41
0.6
  7
高3.2
100
AcDbText
  0
LINE
  5
1021
330
6B
100
AcDbEntity
  8
0
100
AcDbLine
 10
156.4654193264306
 20
-457.9647709999998
 30
0.0
 11
156.4654193264306
 21
-412.9647725558163
 31
0.0
  0
TEXT
  5
1022
330
6B
100
AcDbEntity
  8
0
 62
     3
100
AcDbText
 10
157.9654193264306
 20
-432.4647717779081
 30
0.0
 40
3.2
  1
2PN-RB
 41
0.6
  7
高3.2
100
AcDbText
  0
TEXT
  5
1023
330
6B
100
AcDbEntity
  8
0
 62
     3
100
AcDbText
 10
157.9654193264306
 20
-437.464771777908
 30
0.0
 40
3.2
  1
2PN-WB
 41
0.6
  7
高3.2
100
AcDbText
  0
LINE
  5
1450
330
6B
100
AcDbEntity
  8
0
  6
Continuous
100
AcDbLine
 10
131.5583576173865
 20
-247.9342661529015
 30
0.0
 11
191.170158093399
 21
-247.9342661529015
 31
0.0
  0
LINE
  5
1451
330
6B
100
AcDbEntity
  8
0
  6
Continuous
100
AcDbLine
 10
164.4333576173865
 20
-315.9446291239833
 30
0.0
 11
191.170158093399
 21
-315.9446291239833
 31
0.0
  0
LINE
  5
1452
330
6B
100
AcDbEntity
  8
0
  6
Continuous
100
AcDbLine
 10
189.920158093399
 20
-250.4342661529015
 30
0.0
 11
189.920158093399
 21
-313.4446291239833
 31
0.0
  0
LINE
  5
1464
330
6B
100
AcDbEntity
  8
0
  6
Continuous
100
AcDbLine
 10
301.7543512081879
 20
-314.6946291239833
 30
0.0
 11
301.7543512081879
 21
-334.2823004362615
 31
0.0
  0
LINE
  5
1465
330
6B
100
AcDbEntity
  8
0
  6
Continuous
100
AcDbLine
 10
221.7543512081879
 20
-307.1946291239833
 30
0.0
 11
221.7543512081879
 21
-334.2823004362615
 31
0.0
  0
LINE
  5
1466
330
6B
100
AcDbEntity
  8
0
  6
Continuous
100
AcDbLine
 10
299.2543512081878
 20
-333.0323004362615
 30
0.0
 11
224.2543512081879
 21
-333.0323004362615
 31
0.0
  0
LINE
  5
146A
330
6B
100
AcDbEntity
  8
0
  6
Continuous
100
AcDbLine
 10
164.1833576173866
 20
-314.6946291239833
 30
0.0
 11
164.1833576173866
 21
-334.4781923159668
 31
0.0
  0
LINE
  5
146B
330
6B
100
AcDbEntity
  8
0
  6
Continuous
100
AcDbLine
 10
91.68335761738658
 20
-314.6946291239833
 30
0.0
 11
91.68335761738658
 21
-334.4781923159668
 31
0.0
  0
LINE
  5
146C
330
6B
100
AcDbEntity
  8
0
  6
Continuous
100
AcDbLine
 10
161.6833576173865
 20
-333.2281923159668
 30
0.0
 11
94.18335761738658
 21
-333.2281923159668
 31
0.0
  0
LINE
  5
1470
330
6B
100
AcDbEntity
  8
0
  6
Continuous
100
AcDbLine
 10
152.9333576173866
 20
-315.9446291239833
 30
0.0
 11
198.1693230940565
 21
-315.9446291239833
 31
0.0
  0
LINE
  5
1471
330
6B
100
AcDbEntity
  8
0
  6
Continuous
100
AcDbLine
 10
131.0583576173866
 20
-235.9446291239833
 30
0.0
 11
198.1693230940565
 21
-235.9446291239833
 31
0.0
  0
LINE
  5
1472
330
6B
100
AcDbEntity
  8
0
  6
Continuous
100
AcDbLine
 10
196.9193230940565
 20
-313.4446291239833
 30
0.0
 11
196.9193230940565
 21
-238.4446291239833
 31
0.0
  0
LINE
  5
1476
330
6B
100
AcDbEntity
  8
0
  6
Continuous
100
AcDbLine
 10
152.9333576173866
 20
-315.9446291239833
 30
0.0
 11
184.2912114904811
 21
-315.9446291239833
 31
0.0
  0
LINE
  5
1477
330
6B
100
AcDbEntity
  8
0
  6
Continuous
100
AcDbLine
 10
164.4333576173865
 20
-314.4446291239833
 30
0.0
 11
184.2912114904811
 21
-314.4446291239833
 31
0.0
  0
LINE
  5
1478
330
6B
100
AcDbEntity
  8
0
  6
Continuous
100
AcDbLine
 10
183.0412114904811
 20
-311.9446291239833
 30
0.0
 11
183.0412114904811
 21
-309.4446291239833
 31
0.0
  0
LINE
  5
1479
330
6B
100
AcDbEntity
  8
0
  6
Continuous
100
AcDbLine
 10
183.0412114904811
 20
-318.4446291239833
 30
0.0
 11
183.041211490481
 21
-324.1946291239833
 31
0.0
  0
LINE
  5
147A
330
6B
100
AcDbEntity
  8
0
  6
Continuous
100
AcDbLine
 10
183.0412114904811
 20
-314.4446291239833
 30
0.0
 11
183.0412114904811
 21
-315.9446291239833
 31
0.0
  0
LINE
  5
147E
330
6B
100
AcDbEntity
  8
0
  6
Continuous
100
AcDbLine
 10
164.4333576173865
 20
-314.4446291239833
 30
0.0
 11
184.2912114904811
 21
-314.4446291239833
 31
0.0
  0
LINE
  5
147F
330
6B
100
AcDbEntity
  8
0
  6
Continuous
100
AcDbLine
 10
160.9333576173867
 20
-251.4446291239832
 30
0.0
 11
184.2912114904811
 21
-251.4446291239832
 31
0.0
  0
LINE
  5
1480
330
6B
100
AcDbEntity
  8
0
  6
Continuous
100
AcDbLine
 10
183.0412114904811
 20
-311.9446291239833
 30
0.0
 11
183.0412114904811
 21
-253.9446291239832
 31
0.0
  0
LINE
  5
1484
330
6B
100
AcDbEntity
  8
0
  6
Continuous
100
AcDbLine
 10
158.7942419257783
 20
-295.0432569843191
 30
0.0
 11
168.5125420152096
 21
-291.5336598898302
 31
0.0
1001
ACAD
1000
DSTYLE
1002
{
1070
   147
1040
0.625
1070
    77
1070
     0
1002
}
  0
LINE
  5
1485
330
6B
100
AcDbEntity
  8
0
  6
ByBlock
 62
     0
370
    -2
100
AcDbLine
 10
159.0217725103018
 20
-295.67330380747
 30
0.0
 11
156.4428734819663
 21
-295.8924132958689
 31
0.0
  0
LINE
  5
1486
330
6B
100
AcDbEntity
  8
0
  6
ByBlock
 62
     0
370
    -2
100
AcDbLine
 10
156.4428734819663
 20
-295.8924132958689
 30
0.0
 11
158.5667113412549
 21
-294.4132101611681
 31
0.0
  0
LINE
  5
1487
330
6B
100
AcDbEntity
  8
0
  6
ByBlock
 62
     0
370
    -2
100
AcDbLine
 10
156.4428734819663
 20
-295.8924132958689
 30
0.0
 11
158.7942419257783
 21
-295.0432569843191
 31
0.0
  0
TEXT
  5
1488
330
6B
100
AcDbEntity
  8
0
  6
Continuous
 62
     4
100
AcDbText
 10
189.295158093399
 20
-285.4394476384424
 30
0.0
 40
3.0
  1
136
 50
90.0
100
AcDbText
  0
LINE
  5
1489
330
6B
100
AcDbEntity
  8
0
  6
ByBlock
 62
     0
370
    -2
100
AcDbLine
 10
190.590030593399
 20
-313.4446291239833
 30
0.0
 11
189.920158093399
 21
-315.9446291239833
 31
0.0
  0
LINE
  5
148A
330
6B
100
AcDbEntity
  8
0
  6
ByBlock
 62
     0
370
    -2
100
AcDbLine
 10
189.920158093399
 20
-315.9446291239833
 30
0.0
 11
189.2502855933989
 21
-313.4446291239833
 31
0.0
  0
LINE
  5
148B
330
6B
100
AcDbEntity
  8
0
  6
ByBlock
 62
     0
370
    -2
100
AcDbLine
 10
189.920158093399
 20
-315.9446291239833
 30
0.0
 11
189.920158093399
 21
-313.4446291239833
 31
0.0
  0
LINE
  5
148C
330
6B
100
AcDbEntity
  8
0
  6
ByBlock
 62
     0
370
    -2
100
AcDbLine
 10
189.2502855933989
 20
-250.4342661529015
 30
0.0
 11
189.920158093399
 21
-247.9342661529015
 31
0.0
  0
LINE
  5
148D
330
6B
100
AcDbEntity
  8
0
  6
ByBlock
 62
     0
370
    -2
100
AcDbLine
 10
189.920158093399
 20
-247.9342661529015
 30
0.0
 11
190.590030593399
 21
-250.4342661529015
 31
0.0
  0
LINE
  5
148E
330
6B
100
AcDbEntity
  8
0
  6
ByBlock
 62
     0
370
    -2
100
AcDbLine
 10
189.920158093399
 20
-247.9342661529015
 30
0.0
 11
189.920158093399
 21
-250.4342661529015
 31
0.0
  0
LINE
  5
148F
330
6B
100
AcDbEntity
  8
0
  6
Continuous
100
AcDbLine
 10
133.9746017948475
 20
-252.491307476455
 30
0.0
 11
138.1428997194935
 21
-231.2242591228194
 31
0.0
1001
ACAD
1000
DSTYLE
1002
{
1070
   147
1040
0.625
1070
    77
1070
     0
1002
}
  0
LINE
  5
1490
330
6B
100
AcDbEntity
  8
0
  6
ByBlock
 62
     0
370
    -2
100
AcDbLine
 10
134.631966876981
 20
-252.620149686339
 30
0.0
 11
133.4937557760753
 21
-254.9446291239833
 31
0.0
  0
LINE
  5
1491
330
6B
100
AcDbEntity
  8
0
  6
ByBlock
 62
     0
370
    -2
100
AcDbLine
 10
133.4937557760753
 20
-254.9446291239833
 30
0.0
 11
133.3172367127139
 21
-252.362465266571
 31
0.0
  0
LINE
  5
1492
330
6B
100
AcDbEntity
  8
0
  6
ByBlock
 62
     0
370
    -2
100
AcDbLine
 10
133.4937557760753
 20
-254.9446291239833
 30
0.0
 11
133.9746017948475
 21
-252.491307476455
 31
0.0
  0
LINE
  5
1493
330
6B
100
AcDbEntity
  8
0
  6
Continuous
100
AcDbLine
 10
316.9047485213267
 20
-303.9236963403124
 30
0.0
 11
320.3426092723757
 21
-297.2716482845829
 31
0.0
1001
ACAD
1000
DSTYLE
1002
{
1070
   147
1040
0.625
1070
    77
1070
     0
1002
}
  0
LINE
  5
1494
330
6B
100
AcDbEntity
  8
0
  6
ByBlock
 62
     0
370
    -2
100
AcDbLine
 10
317.4998452397784
 20
-304.2312496884397
 30
0.0
 11
315.7569429757667
 21
-306.1446291239827
 31
0.0
  0
LINE
  5
1495
330
6B
100
AcDbEntity
  8
0
  6
ByBlock
 62
     0
370
    -2
100
AcDbLine
 10
315.7569429757667
 20
-306.1446291239827
 30
0.0
 11
316.309651802875
 21
-303.6161429921851
 31
0.0
  0
LINE
  5
1496
330
6B
100
AcDbEntity
  8
0
  6
ByBlock
 62
     0
370
    -2
100
AcDbLine
 10
315.7569429757667
 20
-306.1446291239827
 30
0.0
 11
316.9047485213267
 21
-303.9236963403124
 31
0.0
  0
LINE
  5
1497
330
6B
100
AcDbEntity
  8
0
  6
Continuous
100
AcDbLine
 10
304.2144861980009
 20
-265.8337024588476
 30
0.0
 11
317.4271603838696
 21
-263.445481663883
 31
0.0
1001
ACAD
1000
DSTYLE
1002
{
1070
   147
1040
0.625
1070
    77
1070
     0
1002
}
  0
LINE
  5
1498
330
6B
100
AcDbEntity
  8
0
  6
ByBlock
 62
     0
370
    -2
100
AcDbLine
 10
304.3336364124272
 20
-266.492893169233
 30
0.0
 11
301.7543512081879
 21
-266.2783774321679
 31
0.0
  0
LINE
  5
1499
330
6B
100
AcDbEntity
  8
0
  6
ByBlock
 62
     0
370
    -2
100
AcDbLine
 10
301.7543512081879
 20
-266.2783774321679
 30
0.0
 11
304.0953359835747
 21
-265.1745117484621
 31
0.0
  0
LINE
  5
149A
330
6B
100
AcDbEntity
  8
0
  6
ByBlock
 62
     0
370
    -2
100
AcDbLine
 10
301.7543512081879
 20
-266.2783774321679
 30
0.0
 11
304.2144861980009
 21
-265.8337024588476
 31
0.0
  0
LINE
  5
149B
330
6B
100
AcDbEntity
  8
0
  6
Continuous
100
AcDbLine
 10
96.86883032863054
 20
-295.6659286089923
 30
0.0
 11
81.80968629531456
 21
-291.2440451806798
 31
0.0
1001
ACAD
1000
DSTYLE
1002
{
1070
   147
1040
0.625
1070
    77
1070
     0
1002
}
  0
LINE
  5
149C
330
6B
100
AcDbEntity
  8
0
  6
ByBlock
 62
     0
370
    -2
100
AcDbLine
 10
97.05755992730294
 20
-295.0231920339935
 30
0.0
 11
99.26755760508543
 21
-296.370277565967
 31
0.0
  0
LINE
  5
149D
330
6B
100
AcDbEntity
  8
0
  6
ByBlock
 62
     0
370
    -2
100
AcDbLine
 10
99.26755760508543
 20
-296.370277565967
 30
0.0
 11
96.68010072995812
 21
-296.3086651839912
 31
0.0
  0
LINE
  5
149E
330
6B
100
AcDbEntity
  8
0
  6
ByBlock
 62
     0
370
    -2
100
AcDbLine
 10
99.26755760508543
 20
-296.370277565967
 30
0.0
 11
96.86883032863054
 21
-295.6659286089923
 31
0.0
  0
LINE
  5
149F
330
6B
100
AcDbEntity
  8
0
  6
Continuous
100
AcDbLine
 10
105.8589593269148
 20
-255.6232217393917
 30
0.0
 11
99.02955438786243
 21
-230.761106133831
 31
0.0
1001
ACAD
1000
DSTYLE
1002
{
1070
   147
1040
0.625
1070
    77
1070
     0
1002
}
  0
LINE
  5
14A0
330
6B
100
AcDbEntity
  8
0
  6
ByBlock
 62
     0
370
    -2
100
AcDbLine
 10
106.5049049705618
 20
-255.4457861406248
 30
0.0
 11
106.5211584721507
 21
-258.0339254316875
 31
0.0
  0
LINE
  5
14A1
330
6B
100
AcDbEntity
  8
0
  6
ByBlock
 62
     0
370
    -2
100
AcDbLine
 10
106.5211584721507
 20
-258.0339254316875
 30
0.0
 11
105.2130136832678
 21
-255.8006573381585
 31
0.0
  0
LINE
  5
14A2
330
6B
100
AcDbEntity
  8
0
  6
ByBlock
 62
     0
370
    -2
100
AcDbLine
 10
106.5211584721507
 20
-258.0339254316875
 30
0.0
 11
105.8589593269148
 21
-255.6232217393917
 31
0.0
  0
LINE
  5
14A3
330
6B
100
AcDbEntity
  8
0
  6
Continuous
100
AcDbLine
 10
148.914371742778
 20
-255.7002500841226
 30
0.0
 11
150.0995850947758
 21
-231.3593082674497
 31
0.0
1001
ACAD
1000
DSTYLE
1002
{
1070
   147
1040
0.625
1070
    77
1070
     0
1002
}
  0
LINE
  5
14A4
330
6B
100
AcDbEntity
  8
0
  6
ByBlock
 62
     0
370
    -2
100
AcDbLine
 10
149.5834515424368
 20
-255.7328290335355
 30
0.0
 11
148.7927853609931
 21
-258.1972916840493
 31
0.0
  0
LINE
  5
14A5
330
6B
100
AcDbEntity
  8
0
  6
ByBlock
 62
     0
370
    -2
100
AcDbLine
 10
148.7927853609931
 20
-258.1972916840493
 30
0.0
 11
148.2452919431192
 21
-255.6676711347097
 31
0.0
  0
LINE
  5
14A6
330
6B
100
AcDbEntity
  8
0
  6
ByBlock
 62
     0
370
    -2
100
AcDbLine
 10
148.7927853609931
 20
-258.1972916840493
 30
0.0
 11
148.914371742778
 21
-255.7002500841226
 31
0.0
  0
LINE
  5
14A7
330
6B
100
AcDbEntity
  8
0
  6
Continuous
100
AcDbLine
 10
122.5876379904249
 20
-240.5167305082798
 30
0.0
 11
112.6531529554406
 21
-230.046038900411
 31
0.0
1001
ACAD
1000
DSTYLE
1002
{
1070
   147
1040
0.625
1070
    77
1070
     0
1002
}
  0
LINE
  5
14A8
330
6B
100
AcDbEntity
  8
0
  6
ByBlock
 62
     0
370
    -2
100
AcDbLine
 10
123.0735887459057
 20
-240.0556654049551
 30
0.0
 11
124.3083576173866
 21
-242.3303247201665
 31
0.0
  0
LINE
  5
14A9
330
6B
100
AcDbEntity
  8
0
  6
ByBlock
 62
     0
370
    -2
100
AcDbLine
 10
124.3083576173866
 20
-242.3303247201665
 30
0.0
 11
122.1016872349441
 21
-240.9777956116045
 31
0.0
  0
LINE
  5
14AA
330
6B
100
AcDbEntity
  8
0
  6
ByBlock
 62
     0
370
    -2
100
AcDbLine
 10
124.3083576173866
 20
-242.3303247201665
 30
0.0
 11
122.5876379904249
 21
-240.5167305082798
 31
0.0
  0
TEXT
  5
14AB
330
6B
100
AcDbEntity
  8
0
  6
Continuous
 62
     4
100
AcDbText
 10
254.2844796198156
 20
-332.4073004362615
 30
0.0
 40
3.0
  1
160
100
AcDbText
  0
LINE
  5
14AC
330
6B
100
AcDbEntity
  8
0
  6
ByBlock
 62
     0
370
    -2
100
AcDbLine
 10
224.2543512081879
 20
-333.7021729362615
 30
0.0
 11
221.7543512081879
 21
-333.0323004362615
 31
0.0
  0
LINE
  5
14AD
330
6B
100
AcDbEntity
  8
0
  6
ByBlock
 62
     0
370
    -2
100
AcDbLine
 10
221.7543512081879
 20
-333.0323004362615
 30
0.0
 11
224.2543512081879
 21
-332.3624279362615
 31
0.0
  0
LINE
  5
14AE
330
6B
100
AcDbEntity
  8
0
  6
ByBlock
 62
     0
370
    -2
100
AcDbLine
 10
221.7543512081879
 20
-333.0323004362615
 30
0.0
 11
224.2543512081879
 21
-333.0323004362615
 31
0.0
  0
LINE
  5
14AF
330
6B
100
AcDbEntity
  8
0
  6
ByBlock
 62
     0
370
    -2
100
AcDbLine
 10
299.2543512081878
 20
-332.3624279362615
 30
0.0
 11
301.7543512081879
 21
-333.0323004362615
 31
0.0
  0
LINE
  5
14B0
330
6B
100
AcDbEntity
  8
0
  6
ByBlock
 62
     0
370
    -2
100
AcDbLine
 10
301.7543512081879
 20
-333.0323004362615
 30
0.0
 11
299.2543512081878
 21
-333.7021729362615
 31
0.0
  0
LINE
  5
14B1
330
6B
100
AcDbEntity
  8
0
  6
ByBlock
 62
     0
370
    -2
100
AcDbLine
 10
301.7543512081879
 20
-333.0323004362615
 30
0.0
 11
299.2543512081878
 21
-333.0323004362615
 31
0.0
  0
TEXT
  5
14B2
330
6B
100
AcDbEntity
  8
0
  6
Continuous
 62
     4
100
AcDbText
 10
125.6730658556441
 20
-332.6031923159668
 30
0.0
 40
3.0
  1
145
100
AcDbText
  0
LINE
  5
14B3
330
6B
100
AcDbEntity
  8
0
  6
ByBlock
 62
     0
370
    -2
100
AcDbLine
 10
94.18335761738658
 20
-333.8980648159668
 30
0.0
 11
91.68335761738658
 21
-333.2281923159668
 31
0.0
  0
LINE
  5
14B4
330
6B
100
AcDbEntity
  8
0
  6
ByBlock
 62
     0
370
    -2
100
AcDbLine
 10
91.68335761738658
 20
-333.2281923159668
 30
0.0
 11
94.18335761738658
 21
-332.5583198159668
 31
0.0
  0
LINE
  5
14B5
330
6B
100
AcDbEntity
  8
0
  6
ByBlock
 62
     0
370
    -2
100
AcDbLine
 10
91.68335761738658
 20
-333.2281923159668
 30
0.0
 11
94.18335761738658
 21
-333.2281923159668
 31
0.0
  0
LINE
  5
14B6
330
6B
100
AcDbEntity
  8
0
  6
ByBlock
 62
     0
370
    -2
100
AcDbLine
 10
161.6833576173865
 20
-332.5583198159668
 30
0.0
 11
164.1833576173866
 21
-333.2281923159668
 31
0.0
  0
LINE
  5
14B7
330
6B
100
AcDbEntity
  8
0
  6
ByBlock
 62
     0
370
    -2
100
AcDbLine
 10
164.1833576173866
 20
-333.2281923159668
 30
0.0
 11
161.6833576173865
 21
-333.8980648159668
 31
0.0
  0
LINE
  5
14B8
330
6B
100
AcDbEntity
  8
0
  6
ByBlock
 62
     0
370
    -2
100
AcDbLine
 10
164.1833576173866
 20
-333.2281923159668
 30
0.0
 11
161.6833576173865
 21
-333.2281923159668
 31
0.0
  0
TEXT
  5
14B9
330
6B
100
AcDbEntity
  8
0
  6
Continuous
 62
     4
100
AcDbText
 10
196.2943230940565
 20
-279.9085711532931
 30
0.0
 40
3.0
  1
160
 50
90.0
100
AcDbText
  0
LINE
  5
14BA
330
6B
100
AcDbEntity
  8
0
  6
ByBlock
 62
     0
370
    -2
100
AcDbLine
 10
196.2494505940565
 20
-238.4446291239833
 30
0.0
 11
196.9193230940565
 21
-235.9446291239833
 31
0.0
  0
LINE
  5
14BB
330
6B
100
AcDbEntity
  8
0
  6
ByBlock
 62
     0
370
    -2
100
AcDbLine
 10
196.9193230940565
 20
-235.9446291239833
 30
0.0
 11
197.5891955940565
 21
-238.4446291239833
 31
0.0
  0
LINE
  5
14BC
330
6B
100
AcDbEntity
  8
0
  6
ByBlock
 62
     0
370
    -2
100
AcDbLine
 10
196.9193230940565
 20
-235.9446291239833
 30
0.0
 11
196.9193230940565
 21
-238.4446291239833
 31
0.0
  0
LINE
  5
14BD
330
6B
100
AcDbEntity
  8
0
  6
ByBlock
 62
     0
370
    -2
100
AcDbLine
 10
197.5891955940565
 20
-313.4446291239833
 30
0.0
 11
196.9193230940565
 21
-315.9446291239833
 31
0.0
  0
LINE
  5
14BE
330
6B
100
AcDbEntity
  8
0
  6
ByBlock
 62
     0
370
    -2
100
AcDbLine
 10
196.9193230940565
 20
-315.9446291239833
 30
0.0
 11
196.2494505940565
 21
-313.4446291239833
 31
0.0
  0
LINE
  5
14BF
330
6B
100
AcDbEntity
  8
0
  6
ByBlock
 62
     0
370
    -2
100
AcDbLine
 10
196.9193230940565
 20
-315.9446291239833
 30
0.0
 11
196.9193230940565
 21
-313.4446291239833
 31
0.0
  0
TEXT
  5
14C0
330
6B
100
AcDbEntity
  8
0
  6
Continuous
 62
     4
100
AcDbText
 10
182.4162114904811
 20
-323.5696291239833
 30
0.0
 40
3.0
  1
3
 50
90.0
100
AcDbText
  0
LINE
  5
14C1
330
6B
100
AcDbEntity
  8
0
  6
ByBlock
 62
     0
370
    -2
100
AcDbLine
 10
182.3713389904811
 20
-318.4446291239833
 30
0.0
 11
183.0412114904811
 21
-315.9446291239833
 31
0.0
  0
LINE
  5
14C2
330
6B
100
AcDbEntity
  8
0
  6
ByBlock
 62
     0
370
    -2
100
AcDbLine
 10
183.0412114904811
 20
-315.9446291239833
 30
0.0
 11
183.7110839904811
 21
-318.4446291239833
 31
0.0
  0
LINE
  5
14C3
330
6B
100
AcDbEntity
  8
0
  6
ByBlock
 62
     0
370
    -2
100
AcDbLine
 10
183.0412114904811
 20
-315.9446291239833
 30
0.0
 11
183.0412114904811
 21
-318.4446291239833
 31
0.0
  0
LINE
  5
14C4
330
6B
100
AcDbEntity
  8
0
  6
ByBlock
 62
     0
370
    -2
100
AcDbLine
 10
183.7110839904811
 20
-311.9446291239833
 30
0.0
 11
183.0412114904811
 21
-314.4446291239833
 31
0.0
  0
LINE
  5
14C5
330
6B
100
AcDbEntity
  8
0
  6
ByBlock
 62
     0
370
    -2
100
AcDbLine
 10
183.0412114904811
 20
-314.4446291239833
 30
0.0
 11
182.3713389904811
 21
-311.9446291239833
 31
0.0
  0
LINE
  5
14C6
330
6B
100
AcDbEntity
  8
0
  6
ByBlock
 62
     0
370
    -2
100
AcDbLine
 10
183.0412114904811
 20
-314.4446291239833
 30
0.0
 11
183.0412114904811
 21
-311.9446291239833
 31
0.0
  0
TEXT
  5
14C7
330
6B
100
AcDbEntity
  8
0
  6
Continuous
 62
     4
100
AcDbText
 10
182.4162114904811
 20
-286.4446291239833
 30
0.0
 40
3.0
  1
126
 50
90.0
100
AcDbText
  0
LINE
  5
14C8
330
6B
100
AcDbEntity
  8
0
  6
ByBlock
 62
     0
370
    -2
100
AcDbLine
 10
182.3713389904811
 20
-253.9446291239832
 30
0.0
 11
183.0412114904811
 21
-251.4446291239832
 31
0.0
  0
LINE
  5
14C9
330
6B
100
AcDbEntity
  8
0
  6
ByBlock
 62
     0
370
    -2
100
AcDbLine
 10
183.0412114904811
 20
-251.4446291239832
 30
0.0
 11
183.7110839904811
 21
-253.9446291239832
 31
0.0
  0
LINE
  5
14CA
330
6B
100
AcDbEntity
  8
0
  6
ByBlock
 62
     0
370
    -2
100
AcDbLine
 10
183.0412114904811
 20
-251.4446291239832
 30
0.0
 11
183.0412114904811
 21
-253.9446291239832
 31
0.0
  0
LINE
  5
14CB
330
6B
100
AcDbEntity
  8
0
  6
ByBlock
 62
     0
370
    -2
100
AcDbLine
 10
183.7110839904811
 20
-311.9446291239833
 30
0.0
 11
183.0412114904811
 21
-314.4446291239833
 31
0.0
  0
LINE
  5
14CC
330
6B
100
AcDbEntity
  8
0
  6
ByBlock
 62
     0
370
    -2
100
AcDbLine
 10
183.0412114904811
 20
-314.4446291239833
 30
0.0
 11
182.3713389904811
 21
-311.9446291239833
 31
0.0
  0
LINE
  5
14CD
330
6B
100
AcDbEntity
  8
0
  6
ByBlock
 62
     0
370
    -2
100
AcDbLine
 10
183.0412114904811
 20
-314.4446291239833
 30
0.0
 11
183.0412114904811
 21
-311.9446291239833
 31
0.0
  0
ENDSEC
  0
SECTION
  2
OBJECTS
  0
DICTIONARY
  5
C
330
0
100
AcDbDictionary
281
     1
  3
ACAD_2007HEADERVARS_RT
350
14D1
  3
ACAD_COLOR
350
62
  3
ACAD_GROUP
350
D
  3
ACAD_LAYOUT
350
61
  3
ACAD_MATERIAL
350
10
  3
ACAD_MLEADERSTYLE
350
65
  3
ACAD_MLINESTYLE
350
5E
  3
ACAD_PLOTSETTINGS
350
60
  3
ACAD_PLOTSTYLENAME
350
E
  3
ACAD_SCALELIST
350
42
  3
ACAD_TABLESTYLE
350
63
  3
ACAD_VISUALSTYLE
350
29
  3
AcadDim
350
D6D
  3
ACDB_RECOMPOSE_DATA
350
14CF
  3
AcDbVariableDictionary
350
585
  3
DWGPROPS
350
14D0
  0
DICTIONARY
  5
3C7
330
2
100
AcDbDictionary
280
     1
281
     1
  3
ACAD_LAYERSTATES
360
3C8
  0
DICTIONARY
  5
578
330
54
100
AcDbDictionary
280
     1
281
     1
  3
ADSK_XREC_LAYER_RECONCILED
360
579
  0
DICTIONARY
  5
54C
330
6B
100
AcDbDictionary
280
     1
281
     1
  3
ACAD_SORTENTS
360
54D
  0
DICTIONARY
  5
14D1
102
{ACAD_REACTORS
330
C
102
}
330
C
100
AcDbDictionary
281
     1
  3
DIMARCSYM
350
14D3
  3
DIMFXL
350
14D2
  3
DIMJOGANG
350
14D4
  0
DICTIONARY
  5
62
102
{ACAD_REACTORS
330
C
102
}
330
C
100
AcDbDictionary
281
     1
  0
DICTIONARY
  5
D
102
{ACAD_REACTORS
330
C
102
}
330
C
100
AcDbDictionary
281
     1
  0
DICTIONARY
  5
61
102
{ACAD_REACTORS
330
C
102
}
330
C
100
AcDbDictionary
281
     1
  3
Model
350
6E
  3
レイアウト1
350
6A
  0
DICTIONARY
  5
10
102
{ACAD_REACTORS
330
C
102
}
330
C
100
AcDbDictionary
281
     1
  3
ByBlock
350
19
  3
ByLayer
350
11
  3
Global
350
21
  0
DICTIONARY
  5
65
102
{ACAD_REACTORS
330
C
102
}
330
C
100
AcDbDictionary
281
     1
  3
Standard
350
66
  0
DICTIONARY
  5
5E
102
{ACAD_REACTORS
330
C
102
}
330
C
100
AcDbDictionary
281
     1
  3
Standard
350
5F
  0
DICTIONARY
  5
60
102
{ACAD_REACTORS
330
C
102
}
330
C
100
AcDbDictionary
281
     1
  0
ACDBDICTIONARYWDFLT
  5
E
102
{ACAD_REACTORS
330
C
102
}
330
C
100
AcDbDictionary
281
     1
  3
Normal
350
F
100
AcDbDictionaryWithDefault
340
F
  0
DICTIONARY
  5
42
102
{ACAD_REACTORS
330
C
102
}
330
C
100
AcDbDictionary
281
     1
  3
A0
350
43
  3
A1
350
44
  3
A2
350
45
  3
A3
350
46
  3
A4
350
47
  3
A5
350
48
  3
A6
350
49
  3
A7
350
4A
  3
A8
350
4B
  3
A9
350
4C
  3
B0
350
4D
  3
B1
350
4E
  3
B2
350
4F
  3
B3
350
50
  3
B4
350
51
  3
B5
350
52
  3
B6
350
53
  0
DICTIONARY
  5
63
102
{ACAD_REACTORS
330
C
102
}
330
C
100
AcDbDictionary
281
     1
  3
Standard
350
64
  0
DICTIONARY
  5
29
102
{ACAD_REACTORS
330
C
102
}
330
C
100
AcDbDictionary
281
     1
  3
2dWireframe
350
2F
  3
3dWireframe
350
3C6
  3
Basic
350
2E
  3
Brighten
350
35
  3
ColorChange
350
39
  3
Conceptual
350
32
  3
Dim
350
34
  3
EdgeColorOff
350
41
  3
Facepattern
350
38
  3
Flat
350
2A
  3
FlatWithEdges
350
2B
  3
Gouraud
350
2C
  3
GouraudWithEdges
350
2D
  3
Hidden
350
31
  3
JitterOff
350
3F
  3
Linepattern
350
37
  3
OverhangOff
350
40
  3
Realistic
350
33
  3
Shaded
350
3E
  3
Shaded with edges
350
3D
  3
Shades of Gray
350
3A
  3
Sketchy
350
3B
  3
Thicken
350
36
  3
Wireframe
350
30
  3
X-Ray
350
3C
  0
XRECORD
  5
D6D
102
{ACAD_REACTORS
330
C
102
}
330
C
100
AcDbXrecord
280
     1
 90
   990106
  3

 60
     0
 61
     0
 62
     1
 63
     3
 64
     0
 65
     0
 66
     0
 67
     3
 68
     1
 69
     0
 70
     0
 71
     0
 72
     0
 40
0.0
170
     0
  0
XRECORD
  5
14CF
102
{ACAD_REACTORS
330
C
102
}
330
C
100
AcDbXrecord
280
     1
 90
        1
330
64
  0
DICTIONARY
  5
585
102
{ACAD_REACTORS
330
C
102
}
330
C
100
AcDbDictionary
281
     1
  3
CANNOSCALE
350
588
  3
CMLEADERSTYLE
350
587
  3
CTABLESTYLE
350
586
  3
DIMASSOC
350
58B
  3
INDEXCTL
350
58A
  3
SORTENTS
350
589
  3
XCLIPFRAME
350
140D
  0
XRECORD
  5
14D0
102
{ACAD_REACTORS
330
C
102
}
330
C
100
AcDbXrecord
280
     1
  1
DWGPROPS COOKIE
  2

  3

  4

  6

  7

  8
kaiha
  9

300
=
301
=
302
=
303
=
304
=
305
=
306
=
307
=
308
=
309
=
 40
0.0688937268518519
 41
2456214.620833657
 42
2458393.577180834
  1

 90
        0
  0
DICTIONARY
  5
3C8
102
{ACAD_REACTORS
330
3C7
102
}
330
3C7
100
AcDbDictionary
281
     1
  0
XRECORD
  5
579
102
{ACAD_REACTORS
330
578
102
}
330
578
100
AcDbXrecord
280
     1
290
     1
  0
SORTENTSTABLE
  5
54D
102
{ACAD_REACTORS
330
54C
102
}
330
54C
100
AcDbSortentsTable
330
6B
331
14AC
  5
1455
331
14A8
  5
1466
331
14A4
  5
146C
331
1465
  5
1450
331
14A0
  5
1470
331
14CD
  5
D64
331
14C9
  5
D6C
331
5F6
  5
89F
331
B25
  5
B7C
331
307
  5
30A
331
B21
  5
B78
331
2C4
  5
2C7
331
303
  5
306
331
2FF
  5
303
331
B1D
  5
B73
331
2C0
  5
2C3
331
B19
  5
B6F
331
2BC
  5
2BF
331
2FB
  5
2FE
331
BA6
  5
BDB
331
BDD
  5
C17
331
C1C
  5
C3C
331
B67
  5
BA3
331
B63
  5
BA2
331
BA2
  5
BD2
331
BD9
  5
C0F
331
C18
  5
C39
331
BD5
  5
C0D
331
C10
  5
C35
331
28F
  5
292
331
B9A
  5
89A
331
101D
  5
14C7
331
D7F
  5
1492
331
D7B
  5
148E
331
D8
  5
E0
331
C9D
  5
CBD
331
CD4
  5
CD5
331
C5E
  5
C78
331
1015
  5
14C0
331
D77
  5
148A
331
C5A
  5
C74
331
C99
  5
CB9
331
CD0
  5
CD1
331
D4
  5
D5
331
1011
  5
14BC
331
D73
  5
1486
331
C56
  5
C70
331
C95
  5
CB5
331
CCC
  5
B53
331
CC8
  5
CCD
331
C52
  5
C6C
331
C91
  5
CB1
331
149C
  5
1474
331
1498
  5
1478
331
1494
  5
147C
331
1490
  5
1482
331
B15
  5
B67
331
2F7
  5
2FA
331
B11
  5
B66
331
2F3
  5
2F8
331
40E
  5
54B
331
B0D
  5
B60
331
B50
  5
B9C
331
2EB
  5
2EF
331
40A
  5
40D
331
C0C
  5
88A
331
C4F
  5
C69
331
B92
  5
BCA
331
C04
  5
87C
331
C4B
  5
C65
331
B8E
  5
BC6
331
BCD
  5
BCF
331
BC9
  5
C07
331
C00
  5
C2A
331
B8A
  5
BC2
331
D6B
  5
1480
331
C8D
  5
CA5
331
1AF
  5
1B4
331
C89
  5
CA1
331
F5A
  5
14B9
331
D63
  5
1461
331
C85
  5
C9D
331
CC4
  5
8AB
331
CC0
  5
8A6
331
C81
  5
C99
331
148C
  5
14A6
331
1488
  5
14AC
331
14C7
  5
D77
331
1484
  5
14B2
331
14C3
  5
D8B
331
1480
  5
D5E
331
B4C
  5
B98
331
2E7
  5
2EA
331
406
  5
409
331
402
  5
405
331
B48
  5
B93
331
2DF
  5
2E3
331
3FE
  5
401
331
B44
  5
B8F
331
B40
  5
B8D
331
2DB
  5
2DE
331
C47
  5
C61
331
AF9
  5
B57
331
BC5
  5
C03
331
C43
  5
C5D
331
B86
  5
BBE
331
C3F
  5
C59
331
B82
  5
BBA
331
BC1
  5
BF9
331
C3B
  5
C55
331
B7E
  5
BB6
331
BBD
  5
BF3
331
BF0
  5
88C
331
2AE
  5
2B6
331
B7A
  5
BB0
331
BB9
  5
BEF
331
F56
  5
14B5
331
D5F
  5
145D
331
19B
  5
19E
331
2AA
  5
2AE
331
D5B
  5
1459
331
2A6
  5
2A9
331
C7D
  5
C95
331
CBC
  5
878
331
C79
  5
C91
331
2A2
  5
2A5
331
C75
  5
C8D
331
CB4
  5
869
331
C71
  5
C89
331
14BF
  5
1014
331
14BB
  5
1018
331
14B7
  5
1020
331
1478
  5
D7D
331
14B3
  5
1022
331
1470
  5
D8D
331
AF5
  5
B56
331
B3C
  5
B8A
331
2D7
  5
2DA
331
31E
  5
3F0
331
2D3
  5
2D6
331
2CF
  5
2D2
331
B2C
  5
B83
331
B28
  5
B7F
331
2CB
  5
2CE
331
C37
  5
C51
331
30A
  5
31E
331
BB5
  5
BEB
331
BEC
  5
C27
331
C33
  5
C4D
331
B76
  5
BAC
331
C2F
  5
C49
331
B72
  5
BA8
331
BB1
  5
BE7
331
BE8
  5
C22
331
C2B
  5
C45
331
BAD
  5
BE2
331
BE4
  5
C1E
331
BE0
  5
C1B
331
29E
  5
2A1
331
B6A
  5
88F
331
BA9
  5
BDE
331
D8E
  5
14A1
331
CE7
  5
CE8
331
D8A
  5
149D
331
296
  5
299
331
C6D
  5
C85
331
CE3
  5
CE4
331
D86
  5
1499
331
292
  5
295
331
C69
  5
C81
331
CDF
  5
CE0
331
1020
  5
14CA
331
D82
  5
1495
331
CDB
  5
CDC
331
CA4
  5
CC4
331
CA0
  5
CC0
331
C61
  5
C7B
331
14AF
  5
1452
331
14AB
  5
1458
331
146C
  5
101E
331
14A7
  5
146B
331
14A3
  5
146F
331
1464
  5
144F
331
14CC
  5
D63
331
14C8
  5
D65
331
5F5
  5
8A3
331
B24
  5
B7B
331
2C7
  5
2CA
331
302
  5
305
331
B20
  5
B76
331
2C3
  5
2C6
331
2FE
  5
301
331
B1C
  5
B72
331
2BF
  5
2C2
331
B18
  5
B6A
331
2BB
  5
2BE
331
C1F
  5
C3F
331
2FA
  5
2FD
331
BA5
  5
89D
331
BDC
  5
C16
331
C1B
  5
C3B
331
B66
  5
891
331
BA1
  5
BDA
331
BD8
  5
BCE
331
C17
  5
C38
331
B5E
  5
B9F
331
B9D
  5
BD6
331
BD4
  5
C0C
331
BD0
  5
897
331
DF
  5
E2
331
28E
  5
291
331
B99
  5
89C
331
101C
  5
14C6
331
D7E
  5
1491
331
CD7
  5
CD8
331
28A
  5
28D
331
1018
  5
14C3
331
D7A
  5
148D
331
C9C
  5
CBC
331
CD3
  5
CD4
331
C5D
  5
C77
331
1014
  5
14BF
331
D76
  5
1489
331
C59
  5
C73
331
C98
  5
CB8
331
CCF
  5
CD0
331
D3
  5
D4
331
1010
  5
14BB
331
CCB
  5
871
331
C55
  5
C6F
331
C94
  5
CB4
331
C51
  5
C6B
331
C90
  5
CB0
331
149F
  5
1473
331
149B
  5
1477
331
1497
  5
147B
331
1493
  5
147F
331
2F6
  5
2F9
331
B10
  5
B65
331
2F2
  5
2F5
331
2EE
  5
2F2
331
40D
  5
410
331
B0C
  5
B5F
331
B08
  5
B59
331
C0F
  5
C34
331
2EA
  5
2ED
331
409
  5
40C
331
C0B
  5
88B
331
C4E
  5
C68
331
B91
  5
BC9
331
C03
  5
879
331
C4A
  5
C64
331
B8D
  5
BC5
331
BCC
  5
C0A
331
BC8
  5
C06
331
B89
  5
BC1
331
1B2
  5
1BB
331
C8C
  5
CA4
331
C88
  5
CA0
331
CC7
  5
CCC
331
F59
  5
14B8
331
D62
  5
1460
331
C84
  5
C9C
331
CC3
  5
8AD
331
C80
  5
C98
331
148F
  5
1485
331
148B
  5
14AB
331
1487
  5
14B1
331
14C6
  5
D88
331
14C2
  5
D8A
331
B4F
  5
B9B
331
B4B
  5
B97
331
2E6
  5
2E9
331
405
  5
408
331
401
  5
404
331
B47
  5
B92
331
2E2
  5
2E6
331
B43
  5
B8E
331
2DE
  5
2E1
331
3FD
  5
400
331
2DA
  5
2DD
331
BFF
  5
C29
331
C46
  5
C60
331
AF8
  5
8A4
331
1452
  5
14A5
331
B85
  5
BBD
331
BC4
  5
C02
331
C42
  5
C5C
331
C3E
  5
C58
331
B81
  5
BB9
331
BC0
  5
BF8
331
BF7
  5
C30
331
BF3
  5
C2E
331
C3A
  5
C54
331
B7D
  5
BB5
331
BBC
  5
BF2
331
BB8
  5
BEE
331
B79
  5
BAF
331
F55
  5
14B4
331
D5E
  5
145C
331
19A
  5
19D
331
CBF
  5
868
331
2A9
  5
2AC
331
2A5
  5
2A8
331
C7C
  5
C94
331
CBB
  5
CCA
331
18E
  5
19B
331
2A1
  5
2A4
331
C78
  5
C90
331
CB7
  5
CC8
331
C74
  5
C8C
331
CB3
  5
875
331
C70
  5
C88
331
14BE
  5
F50
331
147F
  5
D5D
331
14BA
  5
1015
331
14B6
  5
101F
331
1477
  5
D7C
331
14B2
  5
144C
331
B3F
  5
B8C
331
AF4
  5
B54
331
2D6
  5
2D9
331
31D
  5
320
331
B2F
  5
B87
331
2D2
  5
2D5
331
2CE
  5
2D1
331
B2B
  5
B82
331
2CA
  5
2CD
331
BEF
  5
88E
331
C36
  5
C50
331
309
  5
312
331
5F8
  5
8AA
331
BB4
  5
BEA
331
BEB
  5
C25
331
C32
  5
C4C
331
B75
  5
BAB
331
C2E
  5
C48
331
B71
  5
BA7
331
BB0
  5
BE6
331
BE7
  5
C21
331
C2A
  5
C44
331
BAC
  5
BE1
331
B69
  5
890
331
BA8
  5
BDD
331
D8D
  5
14A0
331
CAF
  5
8A5
331
CE6
  5
CE7
331
299
  5
29D
331
D89
  5
149C
331
295
  5
298
331
C6C
  5
C84
331
CE2
  5
CE3
331
1023
  5
14CD
331
D85
  5
1498
331
291
  5
294
331
C68
  5
C80
331
CDE
  5
CDF
331
D81
  5
1494
331
CDA
  5
CDB
331
C64
  5
C7E
331
CA3
  5
CC3
331
320
  5
3FE
331
C60
  5
C7A
331
14AE
  5
1457
331
14AA
  5
146A
331
146B
  5
101D
331
14A6
  5
146E
331
14A2
  5
1472
331
14CB
  5
D62
331
B27
  5
B7E
331
5F4
  5
883
331
B23
  5
B7A
331
2C6
  5
2C9
331
305
  5
309
331
301
  5
304
331
B1F
  5
B75
331
2C2
  5
2C5
331
2BE
  5
2C1
331
2FD
  5
300
331
B1B
  5
B71
331
2BA
  5
2BD
331
BDF
  5
C1A
331
C1E
  5
C3E
331
2F9
  5
2FC
331
410
  5
5F7
331
BA4
  5
BD4
331
BDB
  5
C15
331
C1A
  5
C3A
331
B65
  5
895
331
C16
  5
C37
331
BA0
  5
BD8
331
BD7
  5
BD0
331
B5D
  5
87E
331
B9C
  5
BD1
331
BD3
  5
C0B
331
101F
  5
14C9
331
B98
  5
BD5
331
101B
  5
14C5
331
D7D
  5
1490
331
C9F
  5
CBF
331
CD6
  5
CD7
331
1017
  5
14C2
331
D79
  5
148C
331
C5C
  5
C76
331
C9B
  5
CBB
331
CD2
  5
CD3
331
1013
  5
14BE
331
D75
  5
1488
331
1B9
  5
28A
331
C58
  5
C72
331
C97
  5
CB7
331
CCE
  5
8AC
331
CCA
  5
CCF
331
C54
  5
C6E
331
C93
  5
CB3
331
C50
  5
C6A
331
149E
  5
1476
331
149A
  5
147A
331
1496
  5
147E
331
1492
  5
1484
331
B17
  5
B69
331
2F1
  5
2F4
331
B0F
  5
B62
331
B56
  5
B9E
331
B52
  5
882
331
40C
  5
40F
331
B0B
  5
B5A
331
C0E
  5
C33
331
2E9
  5
2EC
331
408
  5
40B
331
C0A
  5
886
331
C4D
  5
C67
331
B90
  5
BC8
331
BCF
  5
898
331
C06
  5
87B
331
C02
  5
C31
331
C49
  5
C63
331
B8C
  5
BC4
331
BCB
  5
C09
331
100F
  5
14BA
331
B88
  5
BC0
331
C8F
  5
CAF
331
2B4
  5
2BC
331
C8B
  5
CA3
331
C87
  5
C9F
331
CC6
  5
870
331
F58
  5
14B7
331
D61
  5
145F
331
CC2
  5
CCB
331
C83
  5
C9B
331
C20
  5
C40
331
148E
  5
14A8
331
148A
  5
14AA
331
1486
  5
14B0
331
14C5
  5
D84
331
14C1
  5
D89
331
B07
  5
B5B
331
B4E
  5
B9A
331
404
  5
407
331
B4A
  5
B96
331
2E5
  5
2E8
331
400
  5
403
331
AFF
  5
87D
331
B46
  5
B91
331
2E1
  5
2E4
331
B42
  5
B5D
331
2DD
  5
2E0
331
3FC
  5
3FF
331
2D9
  5
2DC
331
BC7
  5
C05
331
BFE
  5
C2C
331
C45
  5
C5F
331
1451
  5
14A4
331
B84
  5
BBC
331
BC3
  5
BFF
331
C41
  5
C5B
331
C3D
  5
C57
331
B80
  5
BB8
331
BBF
  5
BF7
331
BF6
  5
C2F
331
BF2
  5
C2B
331
C39
  5
C53
331
B7C
  5
BB4
331
BBB
  5
BF1
331
2AC
  5
2B0
331
B78
  5
BAE
331
2A8
  5
2AB
331
D5D
  5
145B
331
CBE
  5
86C
331
199
  5
19C
331
C7F
  5
C97
331
2A4
  5
2A7
331
F50
  5
14AE
331
C7B
  5
C93
331
CBA
  5
8A0
331
18D
  5
194
331
2A0
  5
2A3
331
C77
  5
C8F
331
CB6
  5
CC7
331
C73
  5
C8B
331
CB2
  5
877
331
14BD
  5
D90
331
147E
  5
D5C
331
14B9
  5
101B
331
147A
  5
D82
331
14B5
  5
10D8
331
1476
  5
D78
331
14B1
  5
1454
331
1472
  5
D8F
331
AF7
  5
B55
331
B3A
  5
B88
331
2D5
  5
2D8
331
31C
  5
31F
331
B2E
  5
B85
331
2D1
  5
2D4
331
B2A
  5
B81
331
2CD
  5
2D0
331
2C9
  5
2CC
331
BB7
  5
BED
331
BEE
  5
889
331
C35
  5
C4F
331
308
  5
30B
331
B74
  5
BAA
331
BB3
  5
BE9
331
BEA
  5
C24
331
C31
  5
C4B
331
C2D
  5
C47
331
B70
  5
BA6
331
BAF
  5
BE4
331
BE6
  5
C20
331
BE2
  5
C1D
331
C29
  5
C43
331
BAB
  5
BE0
331
B68
  5
BA1
331
D8C
  5
149F
331
CE5
  5
CE6
331
C6F
  5
C87
331
298
  5
29C
331
D88
  5
149B
331
294
  5
297
331
C6B
  5
C83
331
CE1
  5
CE2
331
1022
  5
14CC
331
D84
  5
1497
331
290
  5
293
331
C67
  5
C7F
331
CA6
  5
CC6
331
CDD
  5
CDE
331
D80
  5
1493
331
CD9
  5
CDA
331
C63
  5
C7D
331
CA2
  5
CC2
331
14AD
  5
1456
331
14A9
  5
1469
331
146A
  5
101C
331
14A5
  5
146D
331
1466
  5
1451
331
14A1
  5
1471
331
14CA
  5
D76
331
B26
  5
B7D
331
5F7
  5
8A7
331
B22
  5
B79
331
2C5
  5
2C8
331
304
  5
307
331
B1E
  5
B74
331
2C1
  5
2C4
331
2BD
  5
2C0
331
2FC
  5
2FF
331
B1A
  5
B70
331
BA7
  5
BDC
331
BDE
  5
C18
331
C1D
  5
C3D
331
2F8
  5
2FB
331
BA3
  5
89B
331
BDA
  5
C10
331
B64
  5
BA0
331
C15
  5
C36
331
B60
  5
BA4
331
B9F
  5
BD7
331
BD6
  5
C0E
331
B9B
  5
BD3
331
101E
  5
14C8
331
28C
  5
28F
331
101A
  5
14C4
331
D7C
  5
148F
331
C9E
  5
CBE
331
CD5
  5
CD6
331
C5F
  5
C79
331
1016
  5
14C1
331
D78
  5
148B
331
D5
  5
D6
331
C5B
  5
C75
331
C9A
  5
CBA
331
CD1
  5
CD2
331
1012
  5
14BD
331
D74
  5
1487
331
C57
  5
C71
331
C96
  5
CB6
331
CCD
  5
874
331
CC9
  5
CCE
331
C53
  5
C6D
331
C92
  5
CB2
331
149D
  5
1475
331
1499
  5
1479
331
1495
  5
147D
331
1491
  5
1483
331
B16
  5
B68
331
2F0
  5
2F3
331
40F
  5
56F
331
B0E
  5
B61
331
B55
  5
B9D
331
B51
  5
87F
331
2EC
  5
2F1
331
40B
  5
40E
331
B0A
  5
B5E
331
C0D
  5
C32
331
2E8
  5
2EB
331
B93
  5
BCC
331
C09
  5
885
331
C05
  5
87A
331
C4C
  5
C66
331
B8F
  5
BC7
331
BCE
  5
BCD
331
C01
  5
C2D
331
C48
  5
C62
331
B8B
  5
BC3
331
BCA
  5
C08
331
D6C
  5
1481
331
C8E
  5
CA6
331
C8A
  5
CA2
331
D64
  5
1465
331
C86
  5
C9E
331
C27
  5
C41
331
CC5
  5
873
331
D60
  5
145E
331
CC1
  5
8A1
331
C82
  5
C9A
331
148D
  5
14A7
331
1489
  5
14A9
331
1485
  5
14AF
331
14C4
  5
D83
331
14C0
  5
D8C
331
B06
  5
B58
331
B4D
  5
B99
331
407
  5
40A
331
403
  5
406
331
B49
  5
B95
331
2E4
  5
2E7
331
3FF
  5
402
331
B45
  5
B90
331
B41
  5
B5C
331
2DC
  5
2DF
331
AFA
  5
8A2
331
2D8
  5
2DB
331
BC6
  5
C04
331
C44
  5
C5E
331
B87
  5
BBF
331
1450
  5
14A3
331
C40
  5
C5A
331
B83
  5
BBB
331
BC2
  5
BFC
331
C3C
  5
C56
331
B7F
  5
BB7
331
BBE
  5
BF6
331
BF1
  5
C28
331
C38
  5
C52
331
B7B
  5
BB3
331
BBA
  5
BF0
331
F57
  5
14B6
331
19C
  5
1B1
331
F53
  5
14B3
331
D5C
  5
145A
331
2A7
  5
2AA
331
C7E
  5
C96
331
CBD
  5
876
331
F4F
  5
14AD
331
2A3
  5
2A6
331
C7A
  5
C92
331
CB9
  5
CC9
331
C76
  5
C8E
331
CB5
  5
865
331
CE8
  5
D04
331
C72
  5
C8A
331
14BC
  5
101A
331
14B8
  5
1021
331
1479
  5
D7E
331
14B4
  5
1023
331
14B0
  5
1453
331
1471
  5
D8E
331
AF6
  5
884
331
B3D
  5
B8B
331
31F
  5
3F1
331
B39
  5
B89
331
2D4
  5
2D7
331
B2D
  5
B84
331
2D0
  5
2D3
331
B29
  5
B80
331
2CC
  5
2CF
331
2C8
  5
2CB
331
BB6
  5
BEC
331
BED
  5
887
331
C34
  5
C4E
331
B77
  5
BAD
331
B73
  5
BA9
331
BB2
  5
BE8
331
BE9
  5
C23
331
C30
  5
C4A
331
C2C
  5
C46
331
B6F
  5
BA5
331
BAE
  5
BE3
331
BE5
  5
C1F
331
BE1
  5
C1C
331
C28
  5
C42
331
29F
  5
2A2
331
BAA
  5
BDF
331
D8F
  5
14A2
331
297
  5
29A
331
D8B
  5
149E
331
150
  5
18F
331
CE4
  5
CE5
331
C6E
  5
C86
331
D87
  5
149A
331
293
  5
296
331
C6A
  5
C82
331
CE0
  5
CE1
331
1021
  5
14CB
331
D83
  5
1496
331
E0
  5
152
331
CA5
  5
CC5
331
CDC
  5
CDD
331
CD8
  5
CD9
331
C62
  5
C7C
331
CA1
  5
CC1
  0
XRECORD
  5
14D3
102
{ACAD_REACTORS
330
14D1
102
}
330
14D1
100
AcDbXrecord
280
     1
 70
     2
  0
XRECORD
  5
14D2
102
{ACAD_REACTORS
330
14D1
102
}
330
14D1
100
AcDbXrecord
280
     1
 40
1.25
  0
XRECORD
  5
14D4
102
{ACAD_REACTORS
330
14D1
102
}
330
14D1
100
AcDbXrecord
280
     1
 40
1.570796326794896
  0
LAYOUT
  5
6E
102
{ACAD_XDICTIONARY
360
1508
102
}
102
{ACAD_REACTORS
330
61
102
}
330
61
100
AcDbPlotSettings
  1

  2
none_device
  4
Letter_(8.50_x_11.00_Inches)
  6

 40
6.349999904632567
 41
6.349999904632567
 42
6.350006103515625
 43
6.350006103515625
 44
215.8999938964844
 45
279.3999938964844
 46
0.0
 47
0.0
 48
0.0
 49
0.0
140
0.0
141
0.0
142
1.0
143
49.34196965706346
 70
 11952
 72
     0
 73
     1
 74
     0
  7

 75
     0
147
0.0202667223653656
148
55.79299008942053
149
12277.00561864974
100
AcDbLayout
  1
Model
 70
     1
 71
     0
 10
0.0
 20
0.0
 11
12.0
 21
9.0
 12
0.0
 22
0.0
 32
0.0
 14
0.0
 24
0.0
 34
0.0
 15
0.0
 25
0.0
 35
0.0
146
0.0
 13
0.0
 23
0.0
 33
0.0
 16
1.0
 26
0.0
 36
0.0
 17
0.0
 27
1.0
 37
0.0
 76
     0
330
6B
331
8B
1001
ACAD_PSEXT
1000
なし
1000
なし
1000
適切ではありません
1000
新しいプロッタ環境設定名を選択しない限り、レイアウトは印刷されません。
1070
     0
  0
LAYOUT
  5
6A
102
{ACAD_XDICTIONARY
360
1506
102
}
102
{ACAD_REACTORS
330
61
102
}
330
61
100
AcDbPlotSettings
  1

  2
FX DP 205
  4

  6

 40
0.0
 41
0.0
 42
0.0
 43
0.0
 44
0.0
 45
0.0
 46
0.0
 47
0.0
 48
0.0
 49
0.0
140
0.0
141
0.0
142
1.0
143
1.0
 70
   688
 72
     0
 73
     0
 74
     5
  7

 75
    16
147
1.0
148
0.0
149
0.0
100
AcDbLayout
  1
レイアウト1
 70
     1
 71
     1
 10
0.0
 20
0.0
 11
12.0
 21
9.0
 12
0.0
 22
0.0
 32
0.0
 14
1.000000000000000E+20
 24
1.000000000000000E+20
 34
1.000000000000000E+20
 15
-1.000000000000000E+20
 25
-1.000000000000000E+20
 35
-1.000000000000000E+20
146
0.0
 13
0.0
 23
0.0
 33
0.0
 16
1.0
 26
0.0
 36
0.0
 17
0.0
 27
1.0
 37
0.0
 76
     0
330
67
  0
MATERIAL
  5
19
102
{ACAD_XDICTIONARY
360
1A
102
}
102
{ACAD_REACTORS
330
10
102
}
330
10
100
AcDbMaterial
  1
ByBlock
 72
     0
 43
0.0208333333333333
 43
0.0
 43
0.0
 43
0.0
 43
0.0
 43
0.0208333333333333
 43
0.0
 43
0.0
 43
0.0
 43
0.0
 43
1.0
 43
0.0
 43
0.0
 43
0.0
 43
0.0
 43
1.0
 77
     0
 47
0.0208333333333333
 47
0.0
 47
0.0
 47
0.0
 47
0.0
 47
0.0208333333333333
 47
0.0
 47
0.0
 47
0.0
 47
0.0
 47
1.0
 47
0.0
 47
0.0
 47
0.0
 47
0.0
 47
1.0
171
     0
 49
0.0208333333333333
 49
0.0
 49
0.0
 49
0.0
 49
0.0
 49
0.0208333333333333
 49
0.0
 49
0.0
 49
0.0
 49
0.0
 49
1.0
 49
0.0
 49
0.0
 49
0.0
 49
0.0
 49
1.0
175
     0
142
0.0208333333333333
142
0.0
142
0.0
142
0.0
142
0.0
142
0.0208333333333333
142
0.0
142
0.0
142
0.0
142
0.0
142
1.0
142
0.0
142
0.0
142
0.0
142
0.0
142
1.0
179
     0
144
0.0208333333333333
144
0.0
144
0.0
144
0.0
144
0.0
144
0.0208333333333333
144
0.0
144
0.0
144
0.0
144
0.0
144
1.0
144
0.0
144
0.0
144
0.0
144
0.0
144
1.0
147
0.0208333333333333
147
0.0
147
0.0
147
0.0
147
0.0
147
0.0208333333333333
147
0.0
147
0.0
147
0.0
147
0.0
147
1.0
147
0.0
147
0.0
147
0.0
147
0.0
147
1.0
  0
MATERIAL
  5
11
102
{ACAD_XDICTIONARY
360
12
102
}
102
{ACAD_REACTORS
330
10
102
}
330
10
100
AcDbMaterial
  1
ByLayer
 72
     0
 43
0.0208333333333333
 43
0.0
 43
0.0
 43
0.0
 43
0.0
 43
0.0208333333333333
 43
0.0
 43
0.0
 43
0.0
 43
0.0
 43
1.0
 43
0.0
 43
0.0
 43
0.0
 43
0.0
 43
1.0
 77
     0
 47
0.0208333333333333
 47
0.0
 47
0.0
 47
0.0
 47
0.0
 47
0.0208333333333333
 47
0.0
 47
0.0
 47
0.0
 47
0.0
 47
1.0
 47
0.0
 47
0.0
 47
0.0
 47
0.0
 47
1.0
171
     0
 49
0.0208333333333333
 49
0.0
 49
0.0
 49
0.0
 49
0.0
 49
0.0208333333333333
 49
0.0
 49
0.0
 49
0.0
 49
0.0
 49
1.0
 49
0.0
 49
0.0
 49
0.0
 49
0.0
 49
1.0
175
     0
142
0.0208333333333333
142
0.0
142
0.0
142
0.0
142
0.0
142
0.0208333333333333
142
0.0
142
0.0
142
0.0
142
0.0
142
1.0
142
0.0
142
0.0
142
0.0
142
0.0
142
1.0
179
     0
144
0.0208333333333333
144
0.0
144
0.0
144
0.0
144
0.0
144
0.0208333333333333
144
0.0
144
0.0
144
0.0
144
0.0
144
1.0
144
0.0
144
0.0
144
0.0
144
0.0
144
1.0
147
0.0208333333333333
147
0.0
147
0.0
147
0.0
147
0.0
147
0.0208333333333333
147
0.0
147
0.0
147
0.0
147
0.0
147
1.0
147
0.0
147
0.0
147
0.0
147
0.0
147
1.0
  0
MATERIAL
  5
21
102
{ACAD_XDICTIONARY
360
22
102
}
102
{ACAD_REACTORS
330
10
102
}
330
10
100
AcDbMaterial
  1
Global
 72
     0
 43
0.0208333333333333
 43
0.0
 43
0.0
 43
0.0
 43
0.0
 43
0.0208333333333333
 43
0.0
 43
0.0
 43
0.0
 43
0.0
 43
1.0
 43
0.0
 43
0.0
 43
0.0
 43
0.0
 43
1.0
 77
     0
 47
0.0208333333333333
 47
0.0
 47
0.0
 47
0.0
 47
0.0
 47
0.0208333333333333
 47
0.0
 47
0.0
 47
0.0
 47
0.0
 47
1.0
 47
0.0
 47
0.0
 47
0.0
 47
0.0
 47
1.0
171
     0
 49
0.0208333333333333
 49
0.0
 49
0.0
 49
0.0
 49
0.0
 49
0.0208333333333333
 49
0.0
 49
0.0
 49
0.0
 49
0.0
 49
1.0
 49
0.0
 49
0.0
 49
0.0
 49
0.0
 49
1.0
175
     0
142
0.0208333333333333
142
0.0
142
0.0
142
0.0
142
0.0
142
0.0208333333333333
142
0.0
142
0.0
142
0.0
142
0.0
142
1.0
142
0.0
142
0.0
142
0.0
142
0.0
142
1.0
179
     0
144
0.0208333333333333
144
0.0
144
0.0
144
0.0
144
0.0
144
0.0208333333333333
144
0.0
144
0.0
144
0.0
144
0.0
144
1.0
144
0.0
144
0.0
144
0.0
144
0.0
144
1.0
147
0.0208333333333333
147
0.0
147
0.0
147
0.0
147
0.0
147
0.0208333333333333
147
0.0
147
0.0
147
0.0
147
0.0
147
1.0
147
0.0
147
0.0
147
0.0
147
0.0
147
1.0
  0
MLEADERSTYLE
  5
66
102
{ACAD_REACTORS
330
65
102
}
330
65
100
AcDbMLeaderStyle
170
     2
171
     1
172
     0
 90
        2
 40
0.0
 41
0.0
173
     1
 91
-1056964608
340
5A
 92
       -2
290
     1
 42
0.09
291
     1
 43
0.36
  3
Standard
 44
0.18
300

342
55
174
     1
178
     6
175
     1
176
     0
 93
-1056964608
 45
0.18
292
     0
297
     0
 46
0.18
 94
-1056964608
 47
1.0
 49
1.0
140
1.0
293
     1
141
0.0
294
     1
177
     0
142
1.0
295
     0
296
     0
143
0.125
1001
ACAD_MLEADERVER
1070
     2
  0
MLINESTYLE
  5
5F
102
{ACAD_REACTORS
330
5E
102
}
330
5E
100
AcDbMlineStyle
  2
STANDARD
 70
     0
  3

 62
   256
 51
90.0
 52
90.0
 71
     2
 49
0.5
 62
   256
  6
BYLAYER
 49
-0.5
 62
   256
  6
BYLAYER
  0
ACDBPLACEHOLDER
  5
F
102
{ACAD_REACTORS
330
E
102
}
330
E
  0
SCALE
  5
43
102
{ACAD_REACTORS
330
42
102
}
330
42
100
AcDbScale
 70
     0
300
1:1
140
1.0
141
1.0
290
     1
  0
SCALE
  5
44
102
{ACAD_REACTORS
330
42
102
}
330
42
100
AcDbScale
 70
     0
300
1/128" = 1'-0"
140
0.0078125
141
12.0
290
     0
  0
SCALE
  5
45
102
{ACAD_REACTORS
330
42
102
}
330
42
100
AcDbScale
 70
     0
300
1/64" = 1'-0"
140
0.015625
141
12.0
290
     0
  0
SCALE
  5
46
102
{ACAD_REACTORS
330
42
102
}
330
42
100
AcDbScale
 70
     0
300
1/32" = 1'-0"
140
0.03125
141
12.0
290
     0
  0
SCALE
  5
47
102
{ACAD_REACTORS
330
42
102
}
330
42
100
AcDbScale
 70
     0
300
1/16" = 1'-0"
140
0.0625
141
12.0
290
     0
  0
SCALE
  5
48
102
{ACAD_REACTORS
330
42
102
}
330
42
100
AcDbScale
 70
     0
300
3/32" = 1'-0"
140
0.09375
141
12.0
290
     0
  0
SCALE
  5
49
102
{ACAD_REACTORS
330
42
102
}
330
42
100
AcDbScale
 70
     0
300
1/8" = 1'-0"
140
0.125
141
12.0
290
     0
  0
SCALE
  5
4A
102
{ACAD_REACTORS
330
42
102
}
330
42
100
AcDbScale
 70
     0
300
3/16" = 1'-0"
140
0.1875
141
12.0
290
     0
  0
SCALE
  5
4B
102
{ACAD_REACTORS
330
42
102
}
330
42
100
AcDbScale
 70
     0
300
1/4" = 1'-0"
140
0.25
141
12.0
290
     0
  0
SCALE
  5
4C
102
{ACAD_REACTORS
330
42
102
}
330
42
100
AcDbScale
 70
     0
300
3/8" = 1'-0"
140
0.375
141
12.0
290
     0
  0
SCALE
  5
4D
102
{ACAD_REACTORS
330
42
102
}
330
42
100
AcDbScale
 70
     0
300
1/2" = 1'-0"
140
0.5
141
12.0
290
     0
  0
SCALE
  5
4E
102
{ACAD_REACTORS
330
42
102
}
330
42
100
AcDbScale
 70
     0
300
3/4" = 1'-0"
140
0.75
141
12.0
290
     0
  0
SCALE
  5
4F
102
{ACAD_REACTORS
330
42
102
}
330
42
100
AcDbScale
 70
     0
300
1" = 1'-0"
140
1.0
141
12.0
290
     0
  0
SCALE
  5
50
102
{ACAD_REACTORS
330
42
102
}
330
42
100
AcDbScale
 70
     0
300
1-1/2" = 1'-0"
140
1.5
141
12.0
290
     0
  0
SCALE
  5
51
102
{ACAD_REACTORS
330
42
102
}
330
42
100
AcDbScale
 70
     0
300
3" = 1'-0"
140
3.0
141
12.0
290
     0
  0
SCALE
  5
52
102
{ACAD_REACTORS
330
42
102
}
330
42
100
AcDbScale
 70
     0
300
6" = 1'-0"
140
6.0
141
12.0
290
     0
  0
SCALE
  5
53
102
{ACAD_REACTORS
330
42
102
}
330
42
100
AcDbScale
 70
     0
300
1'-0" = 1'-0"
140
12.0
141
12.0
290
     0
  0
TABLESTYLE
  5
64
102
{ACAD_XDICTIONARY
360
58D
102
}
102
{ACAD_REACTORS
330
63
102
}
330
63
100
AcDbTableStyle
  3
Standard
 70
     0
 71
     0
 40
0.06
 41
0.06
280
     0
281
     0
  7
STANDARD
140
0.18
170
     2
 62
     0
 63
     7
283
     0
274
    -2
284
     1
 64
     0
275
    -2
285
     1
 65
     0
276
    -2
286
     1
 66
     0
277
    -2
287
     1
 67
     0
278
    -2
288
     1
 68
     0
279
    -2
289
     1
 69
     0
  7
STANDARD
140
0.25
170
     5
 62
     0
 63
     7
283
     0
274
    -2
284
     1
 64
     0
275
    -2
285
     1
 65
     0
276
    -2
286
     1
 66
     0
277
    -2
287
     1
 67
     0
278
    -2
288
     1
 68
     0
279
    -2
289
     1
 69
     0
  7
STANDARD
140
0.18
170
     5
 62
     0
 63
     7
283
     0
274
    -2
284
     1
 64
     0
275
    -2
285
     1
 65
     0
276
    -2
286
     1
 66
     0
277
    -2
287
     1
 67
     0
278
    -2
288
     1
 68
     0
279
    -2
289
     1
 69
     0
  0
VISUALSTYLE
  5
2F
102
{ACAD_XDICTIONARY
360
14DF
102
}
102
{ACAD_REACTORS
330
29
102
}
330
29
100
AcDbVisualStyle
  2

 70
     4
 71
     0
 72
     2
 73
     0
 90
        0
 40
-0.6
 41
-30.0
 62
     5
 63
     7
 74
     1
 91
        4
 64
     7
 65
   257
 75
     1
175
     1
 42
1.0
 92
        0
 66
   257
 43
1.0
 76
     1
 77
     6
 78
     2
 67
     7
 79
     5
170
     0
171
     0
290
     0
174
     0
 93
        1
 44
0.0
173
     0
291
     0
 45
0.0
1001
ACAD
1000
AcDbSavedByObjectVersion
1070
     0
  0
VISUALSTYLE
  5
3C6
102
{ACAD_XDICTIONARY
360
150A
102
}
102
{ACAD_REACTORS
330
29
102
}
330
29
100
AcDbVisualStyle
  2

 70
     5
 71
     0
 72
     2
 73
     1
 90
        0
 40
-0.6
 41
-30.0
 62
     5
 63
     7
 74
     1
 91
        4
 64
     7
 65
   257
 75
     1
175
     1
 42
1.0
 92
        0
 66
   257
 43
1.0
 76
     1
 77
     6
 78
     2
 67
     7
 79
     5
170
     0
171
     0
290
     0
174
     0
 93
        1
 44
0.0
173
     0
291
     0
 45
0.0
1001
ACAD
1000
AcDbSavedByObjectVersion
1070
     0
  0
VISUALSTYLE
  5
2E
102
{ACAD_XDICTIONARY
360
14DD
102
}
102
{ACAD_REACTORS
330
29
102
}
330
29
100
AcDbVisualStyle
  2

 70
     7
 71
     1
 72
     0
 73
     1
 90
        0
 40
-0.6
 41
-30.0
 62
     5
 63
     7
 74
     0
 91
        4
 64
     7
 65
   257
 75
     1
175
     1
 42
1.0
 92
        8
 66
     7
 43
1.0
 76
     1
 77
     6
 78
     2
 67
     7
 79
     5
170
     0
171
     0
290
     0
174
     0
 93
        1
 44
0.0
173
     0
291
     1
 45
0.0
1001
ACAD
1000
AcDbSavedByObjectVersion
1070
     0
  0
VISUALSTYLE
  5
35
102
{ACAD_XDICTIONARY
360
14EB
102
}
102
{ACAD_REACTORS
330
29
102
}
330
29
100
AcDbVisualStyle
  2

 70
    12
 71
     2
 72
     2
 73
     0
 90
        0
 40
-0.6
 41
-30.0
 62
     5
 63
     7
 74
     1
 91
        4
 64
     7
 65
   257
 75
     1
175
     1
 42
1.0
 92
        8
 66
     7
 43
1.0
 76
     1
 77
     6
 78
     2
 67
     7
 79
     5
170
     0
171
     0
290
     0
174
     0
 93
        1
 44
50.0
173
     0
291
     1
 45
0.0
1001
ACAD
1000
AcDbSavedByObjectVersion
1070
     0
  0
VISUALSTYLE
  5
39
102
{ACAD_XDICTIONARY
360
14F3
102
}
102
{ACAD_REACTORS
330
29
102
}
330
29
100
AcDbVisualStyle
  2

 70
    16
 71
     2
 72
     2
 73
     3
 90
        0
 40
-0.6
 41
-30.0
 62
     5
 63
     8
 74
     1
 91
        4
 64
     7
 65
   257
 75
     1
175
     1
 42
1.0
 92
        8
 66
     8
 43
1.0
 76
     1
 77
     6
 78
     2
 67
     7
 79
     5
170
     0
171
     0
290
     0
174
     0
 93
        1
 44
0.0
173
     0
291
     1
 45
0.0
1001
ACAD
1000
AcDbSavedByObjectVersion
1070
     0
  0
VISUALSTYLE
  5
32
102
{ACAD_XDICTIONARY
360
14E5
102
}
102
{ACAD_REACTORS
330
29
102
}
330
29
100
AcDbVisualStyle
  2

 70
     9
 71
     3
 72
     2
 73
     0
 90
        0
 40
-0.6
 41
-30.0
 62
     5
 63
     7
 74
     2
 91
        2
 64
     7
 65
   257
 75
     1
175
     1
 42
179.0
 92
        8
 66
     7
 43
1.0
 76
     1
 77
     6
 78
     2
 67
     7
 79
     3
170
     0
171
     0
290
     0
174
     0
 93
        1
 44
0.0
173
     0
291
     0
 45
0.0
1001
ACAD
1000
AcDbSavedByObjectVersion
1070
     0
  0
VISUALSTYLE
  5
34
102
{ACAD_XDICTIONARY
360
14E9
102
}
102
{ACAD_REACTORS
330
29
102
}
330
29
100
AcDbVisualStyle
  2

 70
    11
 71
     2
 72
     2
 73
     0
 90
        0
 40
-0.6
 41
-30.0
 62
     5
 63
     7
 74
     1
 91
        4
 64
     7
 65
   257
 75
     1
175
     1
 42
1.0
 92
        8
 66
     7
 43
1.0
 76
     1
 77
     6
 78
     2
 67
     7
 79
     5
170
     0
171
     0
290
     0
174
     0
 93
        1
 44
-50.0
173
     0
291
     1
 45
0.0
1001
ACAD
1000
AcDbSavedByObjectVersion
1070
     0
  0
VISUALSTYLE
  5
41
102
{ACAD_XDICTIONARY
360
1503
102
}
102
{ACAD_REACTORS
330
29
102
}
330
29
100
AcDbVisualStyle
  2

 70
    22
 71
     2
 72
     2
 73
     0
 90
        0
 40
-0.6
 41
-30.0
 62
     5
 63
     7
 74
     1
 91
        4
 64
     7
 65
   257
 75
     1
175
     1
 42
1.0
 92
        8
 66
     7
 43
1.0
 76
     1
 77
     6
 78
     2
 67
     7
 79
     5
170
     0
171
     0
290
     0
174
     0
 93
        1
 44
0.0
173
     0
291
     1
 45
0.0
1001
ACAD
1000
AcDbSavedByObjectVersion
1070
     0
  0
VISUALSTYLE
  5
38
102
{ACAD_XDICTIONARY
360
14F1
102
}
102
{ACAD_REACTORS
330
29
102
}
330
29
100
AcDbVisualStyle
  2

 70
    15
 71
     2
 72
     2
 73
     0
 90
        0
 40
-0.6
 41
-30.0
 62
     5
 63
     7
 74
     1
 91
        4
 64
     7
 65
   257
 75
     1
175
     1
 42
1.0
 92
        8
 66
     7
 43
1.0
 76
     1
 77
     6
 78
     2
 67
     7
 79
     5
170
     0
171
     0
290
     0
174
     0
 93
        1
 44
0.0
173
     0
291
     1
 45
0.0
1001
ACAD
1000
AcDbSavedByObjectVersion
1070
     0
  0
VISUALSTYLE
  5
2A
102
{ACAD_XDICTIONARY
360
14D5
102
}
102
{ACAD_REACTORS
330
29
102
}
330
29
100
AcDbVisualStyle
  2

 70
     0
 71
     2
 72
     1
 73
     1
 90
        2
 40
-0.6
 41
30.0
 62
     5
 63
     7
 74
     0
 91
        0
 64
     7
 65
   257
 75
     1
175
     1
 42
1.0
 92
        8
 66
     7
 43
1.0
 76
     1
 77
     6
 78
     2
 67
     7
 79
     5
170
     0
171
     0
290
     0
174
     0
 93
       13
 44
0.0
173
     0
291
     1
 45
0.0
1001
ACAD
1000
AcDbSavedByObjectVersion
1070
     0
  0
VISUALSTYLE
  5
2B
102
{ACAD_XDICTIONARY
360
14D7
102
}
102
{ACAD_REACTORS
330
29
102
}
330
29
100
AcDbVisualStyle
  2

 70
     1
 71
     2
 72
     1
 73
     1
 90
        2
 40
-0.6
 41
30.0
 62
     5
 63
     7
 74
     1
 91
        0
 64
     7
 65
   257
 75
     1
175
     1
 42
1.0
 92
        0
 66
   257
 43
1.0
 76
     1
 77
     6
 78
     2
 67
     7
 79
     5
170
     0
171
     0
290
     0
174
     0
 93
       13
 44
0.0
173
     0
291
     1
 45
0.0
1001
ACAD
1000
AcDbSavedByObjectVersion
1070
     0
  0
VISUALSTYLE
  5
2C
102
{ACAD_XDICTIONARY
360
14D9
102
}
102
{ACAD_REACTORS
330
29
102
}
330
29
100
AcDbVisualStyle
  2

 70
     2
 71
     2
 72
     2
 73
     1
 90
        2
 40
-0.6
 41
30.0
 62
     5
 63
     7
 74
     0
 91
        0
 64
     7
 65
   257
 75
     1
175
     1
 42
1.0
 92
        0
 66
     7
 43
1.0
 76
     1
 77
     6
 78
     2
 67
     7
 79
     5
170
     0
171
     0
290
     0
174
     0
 93
       13
 44
0.0
173
     0
291
     1
 45
0.0
1001
ACAD
1000
AcDbSavedByObjectVersion
1070
     0
  0
VISUALSTYLE
  5
2D
102
{ACAD_XDICTIONARY
360
14DB
102
}
102
{ACAD_REACTORS
330
29
102
}
330
29
100
AcDbVisualStyle
  2

 70
     3
 71
     2
 72
     2
 73
     1
 90
        2
 40
-0.6
 41
30.0
 62
     5
 63
     7
 74
     1
 91
        0
 64
     7
 65
   257
 75
     1
175
     1
 42
1.0
 92
        0
 66
   257
 43
1.0
 76
     1
 77
     6
 78
     2
 67
     7
 79
     5
170
     0
171
     0
290
     0
174
     0
 93
       13
 44
0.0
173
     0
291
     1
 45
0.0
1001
ACAD
1000
AcDbSavedByObjectVersion
1070
     0
  0
VISUALSTYLE
  5
31
102
{ACAD_XDICTIONARY
360
14E3
102
}
102
{ACAD_REACTORS
330
29
102
}
330
29
100
AcDbVisualStyle
  2

 70
     6
 71
     1
 72
     2
 73
     2
 90
        0
 40
-0.6
 41
-30.0
 62
     5
 63
     7
 74
     2
 91
        2
 64
     7
 65
   257
 75
     2
175
     1
 42
40.0
 92
        0
 66
   257
 43
1.0
 76
     1
 77
     6
 78
     2
 67
     7
 79
     3
170
     0
171
     0
290
     0
174
     0
 93
        1
 44
0.0
173
     0
291
     0
 45
0.0
1001
ACAD
1000
AcDbSavedByObjectVersion
1070
     0
  0
VISUALSTYLE
  5
3F
102
{ACAD_XDICTIONARY
360
14FF
102
}
102
{ACAD_REACTORS
330
29
102
}
330
29
100
AcDbVisualStyle
  2

 70
    20
 71
     2
 72
     2
 73
     0
 90
        0
 40
-0.6
 41
-30.0
 62
     5
 63
     7
 74
     1
 91
        4
 64
     7
 65
   257
 75
     1
175
     1
 42
1.0
 92
       10
 66
     7
 43
1.0
 76
     1
 77
     6
 78
     2
 67
     7
 79
     5
170
     0
171
     0
290
     0
174
     0
 93
        1
 44
0.0
173
     0
291
     1
 45
0.0
1001
ACAD
1000
AcDbSavedByObjectVersion
1070
     0
  0
VISUALSTYLE
  5
37
102
{ACAD_XDICTIONARY
360
14EF
102
}
102
{ACAD_REACTORS
330
29
102
}
330
29
100
AcDbVisualStyle
  2

 70
    14
 71
     2
 72
     2
 73
     0
 90
        0
 40
-0.6
 41
-30.0
 62
     5
 63
     7
 74
     1
 91
        4
 64
     7
 65
   257
 75
     7
175
     7
 42
1.0
 92
        8
 66
     7
 43
1.0
 76
     1
 77
     6
 78
     2
 67
     7
 79
     5
170
     0
171
     0
290
     0
174
     0
 93
        1
 44
0.0
173
     0
291
     1
 45
0.0
1001
ACAD
1000
AcDbSavedByObjectVersion
1070
     0
  0
VISUALSTYLE
  5
40
102
{ACAD_XDICTIONARY
360
1501
102
}
102
{ACAD_REACTORS
330
29
102
}
330
29
100
AcDbVisualStyle
  2

 70
    21
 71
     2
 72
     2
 73
     0
 90
        0
 40
-0.6
 41
-30.0
 62
     5
 63
     7
 74
     1
 91
        4
 64
     7
 65
   257
 75
     1
175
     1
 42
1.0
 92
        9
 66
     7
 43
1.0
 76
     1
 77
     6
 78
     2
 67
     7
 79
     5
170
     0
171
     0
290
     0
174
     0
 93
        1
 44
0.0
173
     0
291
     1
 45
0.0
1001
ACAD
1000
AcDbSavedByObjectVersion
1070
     0
  0
VISUALSTYLE
  5
33
102
{ACAD_XDICTIONARY
360
14E7
102
}
102
{ACAD_REACTORS
330
29
102
}
330
29
100
AcDbVisualStyle
  2

 70
     8
 71
     2
 72
     3
 73
     0
 90
        2
 40
-0.6
 41
30.0
 62
     5
 63
     7
 74
     0
 91
        0
 64
     7
 65
   257
 75
     1
175
     1
 42
1.0
 92
        8
 66
   257
 43
1.0
 76
     1
 77
     6
 78
     2
 67
     7
 79
     3
170
     0
171
     0
290
     0
174
     0
 93
       13
 44
0.0
173
     0
291
     0
 45
0.0
1001
ACAD
1000
AcDbSavedByObjectVersion
1070
     0
  0
VISUALSTYLE
  5
3E
102
{ACAD_XDICTIONARY
360
14FD
102
}
102
{ACAD_REACTORS
330
29
102
}
330
29
100
AcDbVisualStyle
  2

 70
    27
 71
     2
 72
     2
 73
     1
 90
        2
 40
-0.6
 41
30.0
 62
     5
 63
     7
 74
     0
 91
        4
 64
     7
 65
   257
 75
     1
175
     1
 42
1.0
 92
        8
 66
   257
 43
1.0
 76
     1
 77
     6
 78
     2
 67
     8
 79
     3
170
     0
171
     0
290
     0
174
     0
 93
        5
 44
0.0
173
     0
291
     0
 45
0.0
1001
ACAD
1000
AcDbSavedByObjectVersion
1070
     0
  0
VISUALSTYLE
  5
3D
102
{ACAD_XDICTIONARY
360
14FB
102
}
102
{ACAD_REACTORS
330
29
102
}
330
29
100
AcDbVisualStyle
  2

 70
    26
 71
     2
 72
     2
 73
     1
 90
        2
 40
-0.6
 41
30.0
 62
     5
 63
     7
 74
     1
 91
       10
 64
     7
 65
   257
 75
     2
175
     1
 42
1.0
 92
        8
 66
   257
 43
1.0
 76
     1
 77
     6
 78
     2
 67
     7
 79
     3
170
     0
171
     0
290
     0
174
     0
 93
        5
 44
0.0
173
     0
291
     0
 45
0.0
1001
ACAD
1000
AcDbSavedByObjectVersion
1070
     0
  0
VISUALSTYLE
  5
3A
102
{ACAD_XDICTIONARY
360
14F5
102
}
102
{ACAD_REACTORS
330
29
102
}
330
29
100
AcDbVisualStyle
  2

 70
    23
 71
     2
 72
     2
 73
     3
 90
        0
 40
-0.6
 41
-30.0
 62
     5
 63
     7
 74
     2
 91
        2
 64
     7
 65
     7
 75
     1
175
     1
 42
40.0
 92
        8
 66
     7
 43
1.0
 76
     1
 77
     6
 78
     2
 67
     7
 79
     3
170
     0
171
     0
290
     0
174
     0
 93
        1
 44
0.0
173
     0
291
     0
 45
0.0
1001
ACAD
1000
AcDbSavedByObjectVersion
1070
     0
  0
VISUALSTYLE
  5
3B
102
{ACAD_XDICTIONARY
360
14F7
102
}
102
{ACAD_REACTORS
330
29
102
}
330
29
100
AcDbVisualStyle
  2

 70
    24
 71
     1
 72
     2
 73
     2
 90
        0
 40
-0.6
 41
-30.0
 62
     5
 63
     7
 74
     2
 91
        2
 64
     7
 65
     7
 75
     1
175
     1
 42
40.0
 92
       11
 66
     7
 43
1.0
 76
     1
 77
     6
 78
     2
 67
     7
 79
     6
170
     0
171
     0
290
     0
174
     0
 93
        1
 44
0.0
173
     0
291
     0
 45
0.0
1001
ACAD
1000
AcDbSavedByObjectVersion
1070
     0
  0
VISUALSTYLE
  5
36
102
{ACAD_XDICTIONARY
360
14ED
102
}
102
{ACAD_REACTORS
330
29
102
}
330
29
100
AcDbVisualStyle
  2

 70
    13
 71
     2
 72
     2
 73
     0
 90
        0
 40
-0.6
 41
-30.0
 62
     5
 63
     7
 74
     1
 91
        4
 64
     7
 65
   257
 75
     1
175
     1
 42
1.0
 92
       12
 66
     7
 43
1.0
 76
     1
 77
     6
 78
     2
 67
     7
 79
     5
170
     0
171
     0
290
     0
174
     0
 93
        1
 44
0.0
173
     0
291
     1
 45
0.0
1001
ACAD
1000
AcDbSavedByObjectVersion
1070
     0
  0
VISUALSTYLE
  5
30
102
{ACAD_XDICTIONARY
360
14E1
102
}
102
{ACAD_REACTORS
330
29
102
}
330
29
100
AcDbVisualStyle
  2

 70
     5
 71
     0
 72
     2
 73
     0
 90
        0
 40
-0.6
 41
-30.0
 62
     5
 63
     7
 74
     1
 91
        4
 64
     7
 65
   257
 75
     1
175
     1
 42
1.0
 92
        0
 66
   257
 43
1.0
 76
     1
 77
     6
 78
     2
 67
     7
 79
     3
170
     0
171
     0
290
     0
174
     0
 93
        1
 44
0.0
173
     0
291
     0
 45
0.0
1001
ACAD
1000
AcDbSavedByObjectVersion
1070
     0
  0
VISUALSTYLE
  5
3C
102
{ACAD_XDICTIONARY
360
14F9
102
}
102
{ACAD_REACTORS
330
29
102
}
330
29
100
AcDbVisualStyle
  2

 70
    25
 71
     2
 72
     2
 73
     1
 90
        1
 40
0.5
 41
-30.0
 62
     5
 63
     7
 74
     1
 91
        0
 64
     7
 65
   257
 75
     1
175
     1
 42
1.0
 92
        8
 66
     7
 43
1.0
 76
     1
 77
     6
 78
     2
 67
     7
 79
     3
170
     0
171
     0
290
     0
174
     0
 93
       13
 44
0.0
173
     0
291
     0
 45
0.0
1001
ACAD
1000
AcDbSavedByObjectVersion
1070
     0
  0
DICTIONARYVAR
  5
588
102
{ACAD_REACTORS
330
585
102
}
330
585
100
DictionaryVariables
280
     0
  1
1:1
  0
DICTIONARYVAR
  5
587
102
{ACAD_REACTORS
330
585
102
}
330
585
100
DictionaryVariables
280
     0
  1
STANDARD
  0
DICTIONARYVAR
  5
586
102
{ACAD_REACTORS
330
585
102
}
330
585
100
DictionaryVariables
280
     0
  1
STANDARD
  0
DICTIONARYVAR
  5
58B
102
{ACAD_REACTORS
330
585
102
}
330
585
100
DictionaryVariables
280
     0
  1
1
  0
DICTIONARYVAR
  5
58A
102
{ACAD_REACTORS
330
585
102
}
330
585
100
DictionaryVariables
280
     0
  1
0
  0
DICTIONARYVAR
  5
589
102
{ACAD_REACTORS
330
585
102
}
330
585
100
DictionaryVariables
280
     0
  1
127
  0
DICTIONARYVAR
  5
140D
102
{ACAD_REACTORS
330
585
102
}
330
585
100
DictionaryVariables
280
     0
  1
2
  0
DICTIONARY
  5
1508
330
6E
100
AcDbDictionary
280
     1
281
     1
  3
ACAD_XREC_ROUNDTRIP
360
1509
  0
DICTIONARY
  5
1506
330
6A
100
AcDbDictionary
280
     1
281
     1
  3
ACAD_XREC_ROUNDTRIP
360
1507
  0
DICTIONARY
  5
1A
330
19
100
AcDbDictionary
280
     1
281
     1
  3
ACAD_XREC_ROUNDTRIP
360
596
  3
BUMPTILE
360
1C
  3
DIFFUSETILE
360
1B
  3
OPACITYTILE
360
1F
  3
REFLECTIONTILE
360
1E
  3
REFRACTIONTILE
360
20
  3
SPECULARTILE
360
1D
  0
DICTIONARY
  5
12
330
11
100
AcDbDictionary
280
     1
281
     1
  3
ACAD_XREC_ROUNDTRIP
360
595
  3
BUMPTILE
360
14
  3
DIFFUSETILE
360
13
  3
OPACITYTILE
360
17
  3
REFLECTIONTILE
360
16
  3
REFRACTIONTILE
360
18
  3
SPECULARTILE
360
15
  0
DICTIONARY
  5
22
330
21
100
AcDbDictionary
280
     1
281
     1
  3
ACAD_XREC_ROUNDTRIP
360
597
  3
BUMPTILE
360
24
  3
DIFFUSETILE
360
23
  3
OPACITYTILE
360
27
  3
REFLECTIONTILE
360
26
  3
REFRACTIONTILE
360
28
  3
SPECULARTILE
360
25
  0
DICTIONARY
  5
58D
330
64
100
AcDbDictionary
280
     1
281
     1
  3
ACAD_ROUNDTRIP_2008_TABLESTYLE_CELLSTYLEMAP
360
14CE
  3
ACAD_XREC_ROUNDTRIP
360
1505
  0
DICTIONARY
  5
14DF
330
2F
100
AcDbDictionary
280
     1
281
     1
  3
ACAD_XREC_ROUNDTRIP
360
14E0
  0
DICTIONARY
  5
150A
330
3C6
100
AcDbDictionary
280
     1
281
     1
  3
ACAD_XREC_ROUNDTRIP
360
150B
  0
DICTIONARY
  5
14DD
330
2E
100
AcDbDictionary
280
     1
281
     1
  3
ACAD_XREC_ROUNDTRIP
360
14DE
  0
DICTIONARY
  5
14EB
330
35
100
AcDbDictionary
280
     1
281
     1
  3
ACAD_XREC_ROUNDTRIP
360
14EC
  0
DICTIONARY
  5
14F3
330
39
100
AcDbDictionary
280
     1
281
     1
  3
ACAD_XREC_ROUNDTRIP
360
14F4
  0
DICTIONARY
  5
14E5
330
32
100
AcDbDictionary
280
     1
281
     1
  3
ACAD_XREC_ROUNDTRIP
360
14E6
  0
DICTIONARY
  5
14E9
330
34
100
AcDbDictionary
280
     1
281
     1
  3
ACAD_XREC_ROUNDTRIP
360
14EA
  0
DICTIONARY
  5
1503
330
41
100
AcDbDictionary
280
     1
281
     1
  3
ACAD_XREC_ROUNDTRIP
360
1504
  0
DICTIONARY
  5
14F1
330
38
100
AcDbDictionary
280
     1
281
     1
  3
ACAD_XREC_ROUNDTRIP
360
14F2
  0
DICTIONARY
  5
14D5
330
2A
100
AcDbDictionary
280
     1
281
     1
  3
ACAD_XREC_ROUNDTRIP
360
14D6
  0
DICTIONARY
  5
14D7
330
2B
100
AcDbDictionary
280
     1
281
     1
  3
ACAD_XREC_ROUNDTRIP
360
14D8
  0
DICTIONARY
  5
14D9
330
2C
100
AcDbDictionary
280
     1
281
     1
  3
ACAD_XREC_ROUNDTRIP
360
14DA
  0
DICTIONARY
  5
14DB
330
2D
100
AcDbDictionary
280
     1
281
     1
  3
ACAD_XREC_ROUNDTRIP
360
14DC
  0
DICTIONARY
  5
14E3
330
31
100
AcDbDictionary
280
     1
281
     1
  3
ACAD_XREC_ROUNDTRIP
360
14E4
  0
DICTIONARY
  5
14FF
330
3F
100
AcDbDictionary
280
     1
281
     1
  3
ACAD_XREC_ROUNDTRIP
360
1500
  0
DICTIONARY
  5
14EF
330
37
100
AcDbDictionary
280
     1
281
     1
  3
ACAD_XREC_ROUNDTRIP
360
14F0
  0
DICTIONARY
  5
1501
330
40
100
AcDbDictionary
280
     1
281
     1
  3
ACAD_XREC_ROUNDTRIP
360
1502
  0
DICTIONARY
  5
14E7
330
33
100
AcDbDictionary
280
     1
281
     1
  3
ACAD_XREC_ROUNDTRIP
360
14E8
  0
DICTIONARY
  5
14FD
330
3E
100
AcDbDictionary
280
     1
281
     1
  3
ACAD_XREC_ROUNDTRIP
360
14FE
  0
DICTIONARY
  5
14FB
330
3D
100
AcDbDictionary
280
     1
281
     1
  3
ACAD_XREC_ROUNDTRIP
360
14FC
  0
DICTIONARY
  5
14F5
330
3A
100
AcDbDictionary
280
     1
281
     1
  3
ACAD_XREC_ROUNDTRIP
360
14F6
  0
DICTIONARY
  5
14F7
330
3B
100
AcDbDictionary
280
     1
281
     1
  3
ACAD_XREC_ROUNDTRIP
360
14F8
  0
DICTIONARY
  5
14ED
330
36
100
AcDbDictionary
280
     1
281
     1
  3
ACAD_XREC_ROUNDTRIP
360
14EE
  0
DICTIONARY
  5
14E1
330
30
100
AcDbDictionary
280
     1
281
     1
  3
ACAD_XREC_ROUNDTRIP
360
14E2
  0
DICTIONARY
  5
14F9
330
3C
100
AcDbDictionary
280
     1
281
     1
  3
ACAD_XREC_ROUNDTRIP
360
14FA
  0
XRECORD
  5
1509
102
{ACAD_REACTORS
330
1508
102
}
330
1508
100
AcDbXrecord
280
     1
102
SHADEPLOT
 70
     0
102
SHADEPLOTRESLEVEL
 70
     2
102
SHADEPLOTCUSTOMDPI
 70
   300
  0
XRECORD
  5
1507
102
{ACAD_REACTORS
330
1506
102
}
330
1506
100
AcDbXrecord
280
     1
102
SHADEPLOT
 70
     0
102
SHADEPLOTRESLEVEL
 70
     2
102
SHADEPLOTCUSTOMDPI
 70
   300
  0
XRECORD
  5
596
102
{ACAD_REACTORS
330
1A
102
}
330
1A
100
AcDbXrecord
280
     1
102
MATERIAL
148
0.0
149
0.0
149
0.0
 93
        0
 94
      127
282
     0
 72
     0
 77
     0
171
     0
175
     0
179
     0
273
     0
  0
XRECORD
  5
1C
102
{ACAD_REACTORS
330
1A
102
}
330
1A
100
AcDbXrecord
280
     1
270
     1
271
     1
  0
XRECORD
  5
1B
102
{ACAD_REACTORS
330
1A
102
}
330
1A
100
AcDbXrecord
280
     1
270
     1
271
     1
  0
XRECORD
  5
1F
102
{ACAD_REACTORS
330
1A
102
}
330
1A
100
AcDbXrecord
280
     1
270
     1
271
     1
  0
XRECORD
  5
1E
102
{ACAD_REACTORS
330
1A
102
}
330
1A
100
AcDbXrecord
280
     1
270
     1
271
     1
  0
XRECORD
  5
20
102
{ACAD_REACTORS
330
1A
102
}
330
1A
100
AcDbXrecord
280
     1
270
     1
271
     1
  0
XRECORD
  5
1D
102
{ACAD_REACTORS
330
1A
102
}
330
1A
100
AcDbXrecord
280
     1
270
     1
271
     1
  0
XRECORD
  5
595
102
{ACAD_REACTORS
330
12
102
}
330
12
100
AcDbXrecord
280
     1
102
MATERIAL
148
0.0
149
0.0
149
0.0
 93
        0
 94
      127
282
     0
 72
     0
 77
     0
171
     0
175
     0
179
     0
273
     0
  0
XRECORD
  5
14
102
{ACAD_REACTORS
330
12
102
}
330
12
100
AcDbXrecord
280
     1
270
     1
271
     1
  0
XRECORD
  5
13
102
{ACAD_REACTORS
330
12
102
}
330
12
100
AcDbXrecord
280
     1
270
     1
271
     1
  0
XRECORD
  5
17
102
{ACAD_REACTORS
330
12
102
}
330
12
100
AcDbXrecord
280
     1
270
     1
271
     1
  0
XRECORD
  5
16
102
{ACAD_REACTORS
330
12
102
}
330
12
100
AcDbXrecord
280
     1
270
     1
271
     1
  0
XRECORD
  5
18
102
{ACAD_REACTORS
330
12
102
}
330
12
100
AcDbXrecord
280
     1
270
     1
271
     1
  0
XRECORD
  5
15
102
{ACAD_REACTORS
330
12
102
}
330
12
100
AcDbXrecord
280
     1
270
     1
271
     1
  0
XRECORD
  5
597
102
{ACAD_REACTORS
330
22
102
}
330
22
100
AcDbXrecord
280
     1
102
MATERIAL
148
0.0
149
0.0
149
0.0
 93
        0
 94
      127
282
     0
 72
     0
 77
     0
171
     0
175
     0
179
     0
273
     0
  0
XRECORD
  5
24
102
{ACAD_REACTORS
330
22
102
}
330
22
100
AcDbXrecord
280
     1
270
     1
271
     1
  0
XRECORD
  5
23
102
{ACAD_REACTORS
330
22
102
}
330
22
100
AcDbXrecord
280
     1
270
     1
271
     1
  0
XRECORD
  5
27
102
{ACAD_REACTORS
330
22
102
}
330
22
100
AcDbXrecord
280
     1
270
     1
271
     1
  0
XRECORD
  5
26
102
{ACAD_REACTORS
330
22
102
}
330
22
100
AcDbXrecord
280
     1
270
     1
271
     1
  0
XRECORD
  5
28
102
{ACAD_REACTORS
330
22
102
}
330
22
100
AcDbXrecord
280
     1
270
     1
271
     1
  0
XRECORD
  5
25
102
{ACAD_REACTORS
330
22
102
}
330
22
100
AcDbXrecord
280
     1
270
     1
271
     1
  0
CELLSTYLEMAP
  5
14CE
102
{ACAD_REACTORS
330
58D
102
}
330
58D
100
AcDbCellStyleMap
 90
        3
300
CELLSTYLE
  1
TABLEFORMAT_BEGIN
 90
        5
170
     1
 91
        0
 92
    32768
 62
   257
 93
        1
300
CONTENTFORMAT
  1
CONTENTFORMAT_BEGIN
 90
        0
 91
        0
 92
      512
 93
        0
300

 40
0.0
140
1.0
 94
        5
 62
     0
340
55
144
0.25
309
CONTENTFORMAT_END
171
     1
301
MARGIN
  1
CELLMARGIN_BEGIN
 40
0.06
 40
0.06
 40
0.06
 40
0.06
 40
0.18
 40
0.18
309
CELLMARGIN_END
 94
        6
 95
        1
302
GRIDFORMAT
  1
GRIDFORMAT_BEGIN
 90
        0
 91
        1
 62
     0
 92
       -2
340
0
 93
        0
 40
0.045
309
GRIDFORMAT_END
 95
        2
302
GRIDFORMAT
  1
GRIDFORMAT_BEGIN
 90
        0
 91
        1
 62
     0
 92
       -2
340
0
 93
        0
 40
0.045
309
GRIDFORMAT_END
 95
        4
302
GRIDFORMAT
  1
GRIDFORMAT_BEGIN
 90
        0
 91
        1
 62
     0
 92
       -2
340
0
 93
        0
 40
0.045
309
GRIDFORMAT_END
 95
        8
302
GRIDFORMAT
  1
GRIDFORMAT_BEGIN
 90
        0
 91
        1
 62
     0
 92
       -2
340
0
 93
        0
 40
0.045
309
GRIDFORMAT_END
 95
       16
302
GRIDFORMAT
  1
GRIDFORMAT_BEGIN
 90
        0
 91
        1
 62
     0
 92
       -2
340
0
 93
        0
 40
0.045
309
GRIDFORMAT_END
 95
       32
302
GRIDFORMAT
  1
GRIDFORMAT_BEGIN
 90
        0
 91
        1
 62
     0
 92
       -2
340
0
 93
        0
 40
0.045
309
GRIDFORMAT_END
309
TABLEFORMAT_END
  1
CELLSTYLE_BEGIN
 90
        1
 91
        1
300
_TITLE
309
CELLSTYLE_END
300
CELLSTYLE
  1
TABLEFORMAT_BEGIN
 90
        5
170
     1
 91
        0
 92
        0
 62
   257
 93
        1
300
CONTENTFORMAT
  1
CONTENTFORMAT_BEGIN
 90
        0
 91
        0
 92
      512
 93
        0
300

 40
0.0
140
1.0
 94
        5
 62
     0
340
55
144
0.18
309
CONTENTFORMAT_END
171
     1
301
MARGIN
  1
CELLMARGIN_BEGIN
 40
0.06
 40
0.06
 40
0.06
 40
0.06
 40
0.18
 40
0.18
309
CELLMARGIN_END
 94
        6
 95
        1
302
GRIDFORMAT
  1
GRIDFORMAT_BEGIN
 90
        0
 91
        1
 62
     0
 92
       -2
340
0
 93
        0
 40
0.045
309
GRIDFORMAT_END
 95
        2
302
GRIDFORMAT
  1
GRIDFORMAT_BEGIN
 90
        0
 91
        1
 62
     0
 92
       -2
340
0
 93
        0
 40
0.045
309
GRIDFORMAT_END
 95
        4
302
GRIDFORMAT
  1
GRIDFORMAT_BEGIN
 90
        0
 91
        1
 62
     0
 92
       -2
340
0
 93
        0
 40
0.045
309
GRIDFORMAT_END
 95
        8
302
GRIDFORMAT
  1
GRIDFORMAT_BEGIN
 90
        0
 91
        1
 62
     0
 92
       -2
340
0
 93
        0
 40
0.045
309
GRIDFORMAT_END
 95
       16
302
GRIDFORMAT
  1
GRIDFORMAT_BEGIN
 90
        0
 91
        1
 62
     0
 92
       -2
340
0
 93
        0
 40
0.045
309
GRIDFORMAT_END
 95
       32
302
GRIDFORMAT
  1
GRIDFORMAT_BEGIN
 90
        0
 91
        1
 62
     0
 92
       -2
340
0
 93
        0
 40
0.045
309
GRIDFORMAT_END
309
TABLEFORMAT_END
  1
CELLSTYLE_BEGIN
 90
        2
 91
        1
300
_HEADER
309
CELLSTYLE_END
300
CELLSTYLE
  1
TABLEFORMAT_BEGIN
 90
        5
170
     1
 91
        0
 92
        0
 62
   257
 93
        1
300
CONTENTFORMAT
  1
CONTENTFORMAT_BEGIN
 90
        0
 91
        0
 92
      512
 93
        0
300

 40
0.0
140
1.0
 94
        2
 62
     0
340
55
144
0.18
309
CONTENTFORMAT_END
171
     1
301
MARGIN
  1
CELLMARGIN_BEGIN
 40
0.06
 40
0.06
 40
0.06
 40
0.06
 40
0.18
 40
0.18
309
CELLMARGIN_END
 94
        6
 95
        1
302
GRIDFORMAT
  1
GRIDFORMAT_BEGIN
 90
        0
 91
        1
 62
     0
 92
       -2
340
0
 93
        0
 40
0.045
309
GRIDFORMAT_END
 95
        2
302
GRIDFORMAT
  1
GRIDFORMAT_BEGIN
 90
        0
 91
        1
 62
     0
 92
       -2
340
0
 93
        0
 40
0.045
309
GRIDFORMAT_END
 95
        4
302
GRIDFORMAT
  1
GRIDFORMAT_BEGIN
 90
        0
 91
        1
 62
     0
 92
       -2
340
0
 93
        0
 40
0.045
309
GRIDFORMAT_END
 95
        8
302
GRIDFORMAT
  1
GRIDFORMAT_BEGIN
 90
        0
 91
        1
 62
     0
 92
       -2
340
0
 93
        0
 40
0.045
309
GRIDFORMAT_END
 95
       16
302
GRIDFORMAT
  1
GRIDFORMAT_BEGIN
 90
        0
 91
        1
 62
     0
 92
       -2
340
0
 93
        0
 40
0.045
309
GRIDFORMAT_END
 95
       32
302
GRIDFORMAT
  1
GRIDFORMAT_BEGIN
 90
        0
 91
        1
 62
     0
 92
       -2
340
0
 93
        0
 40
0.045
309
GRIDFORMAT_END
309
TABLEFORMAT_END
  1
CELLSTYLE_BEGIN
 90
        3
 91
        2
300
_DATA
309
CELLSTYLE_END
  0
XRECORD
  5
1505
102
{ACAD_REACTORS
330
58D
102
}
330
58D
100
AcDbXrecord
280
     1
102
ACAD_ROUNDTRIP_PRE2007_TABLESTYLE
 90
      512
 91
        0
  1

 92
      512
 93
        0
  2

 94
      512
 95
        0
  3

  0
XRECORD
  5
14E0
102
{ACAD_REACTORS
330
14DF
102
}
330
14DF
100
AcDbXrecord
280
     1
102
RTVSPropertyOp0
 70
     1
102
RTVSPropertyOp1
 70
     1
102
RTVSPropertyOp2
 70
     1
102
RTVSPropertyOp3
 70
     1
102
RTVSPropertyOp4
 70
     1
102
RTVSPropertyOp5
 70
     1
102
RTVSPropertyOp6
 70
     1
102
RTVSPropertyOp7
 70
     1
102
RTVSPropertyOp8
 70
     1
102
RTVSPropertyOp9
 70
     1
102
RTVSPropertyOp10
 70
     1
102
RTVSPropertyOp11
 70
     1
102
RTVSPropertyOp12
 70
     1
102
RTVSPropertyOp13
 70
     1
102
RTVSPropertyOp14
 70
     1
102
RTVSPropertyOp15
 70
     1
102
RTVSPropertyOp16
 70
     1
102
RTVSPropertyOp17
 70
     1
102
RTVSPropertyOp18
 70
     1
102
RTVSPropertyOp19
 70
     1
102
RTVSPropertyOp20
 70
     1
102
RTVSPropertyOp21
 70
     1
102
RTVSPropertyOp22
 70
     1
102
RTVSPropertyOp23
 70
     1
102
RTVSPropertyOp24
 70
     1
102
RTVSPropertyOp25
 70
     1
102
RTVSPropertyOp26
 70
     1
102
RTVSPropertyOp27
 70
     1
102
RTVSPropertyOp28
 70
     1
102
RTVSPropertyOp29
 70
     1
102
RTVSPropertyOp30
 70
     1
102
RTVSPropertyOp31
 70
     1
102
RTVSPropertyOp32
 70
     1
  0
XRECORD
  5
150B
102
{ACAD_REACTORS
330
150A
102
}
330
150A
100
AcDbXrecord
280
     1
102
RTVSPropertyOp0
 70
     1
102
RTVSPropertyOp1
 70
     1
102
RTVSPropertyOp2
 70
     1
102
RTVSPropertyOp3
 70
     1
102
RTVSPropertyOp4
 70
     1
102
RTVSPropertyOp5
 70
     1
102
RTVSPropertyOp6
 70
     1
102
RTVSPropertyOp7
 70
     1
102
RTVSPropertyOp8
 70
     1
102
RTVSPropertyOp9
 70
     1
102
RTVSPropertyOp10
 70
     1
102
RTVSPropertyOp11
 70
     1
102
RTVSPropertyOp12
 70
     1
102
RTVSPropertyOp13
 70
     1
102
RTVSPropertyOp14
 70
     1
102
RTVSPropertyOp15
 70
     1
102
RTVSPropertyOp16
 70
     1
102
RTVSPropertyOp17
 70
     1
102
RTVSPropertyOp18
 70
     1
102
RTVSPropertyOp19
 70
     1
102
RTVSPropertyOp20
 70
     1
102
RTVSPropertyOp21
 70
     1
102
RTVSPropertyOp22
 70
     1
102
RTVSPropertyOp23
 70
     1
102
RTVSPropertyOp24
 70
     1
102
RTVSPropertyOp25
 70
     1
102
RTVSPropertyOp26
 70
     1
102
RTVSPropertyOp27
 70
     1
102
RTVSPropertyOp28
 70
     1
102
RTVSPropertyOp29
 70
     1
102
RTVSPropertyOp30
 70
     1
102
RTVSPropertyOp31
 70
     1
102
RTVSPropertyOp32
 70
     1
  0
XRECORD
  5
14DE
102
{ACAD_REACTORS
330
14DD
102
}
330
14DD
100
AcDbXrecord
280
     1
102
RTVSPropertyOp0
 70
     1
102
RTVSPropertyOp1
 70
     1
102
RTVSPropertyOp2
 70
     1
102
RTVSPropertyOp3
 70
     1
102
RTVSPropertyOp4
 70
     1
102
RTVSPropertyOp5
 70
     1
102
RTVSPropertyOp6
 70
     1
102
RTVSPropertyOp7
 70
     1
102
RTVSPropertyOp8
 70
     1
102
RTVSPropertyOp9
 70
     1
102
RTVSPropertyOp10
 70
     1
102
RTVSPropertyOp11
 70
     1
102
RTVSPropertyOp12
 70
     1
102
RTVSPropertyOp13
 70
     1
102
RTVSPropertyOp14
 70
     1
102
RTVSPropertyOp15
 70
     1
102
RTVSPropertyOp16
 70
     1
102
RTVSPropertyOp17
 70
     1
102
RTVSPropertyOp18
 70
     1
102
RTVSPropertyOp19
 70
     1
102
RTVSPropertyOp20
 70
     1
102
RTVSPropertyOp21
 70
     1
102
RTVSPropertyOp22
 70
     1
102
RTVSPropertyOp23
 70
     1
102
RTVSPropertyOp24
 70
     1
102
RTVSPropertyOp25
 70
     1
102
RTVSPropertyOp26
 70
     1
102
RTVSPropertyOp27
 70
     1
102
RTVSPropertyOp28
 70
     1
102
RTVSPropertyOp29
 70
     1
102
RTVSPropertyOp30
 70
     1
102
RTVSPropertyOp31
 70
     1
102
RTVSPropertyOp32
 70
     1
  0
XRECORD
  5
14EC
102
{ACAD_REACTORS
330
14EB
102
}
330
14EB
100
AcDbXrecord
280
     1
102
RTVSPropertyOp0
 70
     1
102
RTVSPropertyOp1
 70
     1
102
RTVSPropertyOp2
 70
     1
102
RTVSPropertyOp3
 70
     1
102
RTVSPropertyOp4
 70
     1
102
RTVSPropertyOp5
 70
     1
102
RTVSPropertyOp6
 70
     1
102
RTVSPropertyOp7
 70
     1
102
RTVSPropertyOp8
 70
     1
102
RTVSPropertyOp9
 70
     1
102
RTVSPropertyOp10
 70
     1
102
RTVSPropertyOp11
 70
     1
102
RTVSPropertyOp12
 70
     1
102
RTVSPropertyOp13
 70
     1
102
RTVSPropertyOp14
 70
     1
102
RTVSPropertyOp15
 70
     1
102
RTVSPropertyOp16
 70
     1
102
RTVSPropertyOp17
 70
     1
102
RTVSPropertyOp18
 70
     1
102
RTVSPropertyOp19
 70
     1
102
RTVSPropertyOp20
 70
     1
102
RTVSPropertyOp21
 70
     1
102
RTVSPropertyOp22
 70
     1
102
RTVSPropertyOp23
 70
     1
102
RTVSPropertyOp24
 70
     1
102
RTVSPropertyOp25
 70
     1
102
RTVSPropertyOp26
 70
     1
102
RTVSPropertyOp27
 70
     1
102
RTVSPropertyOp28
 70
     1
102
RTVSPropertyOp29
 70
     1
102
RTVSPropertyOp30
 70
     1
102
RTVSPropertyOp31
 70
     1
102
RTVSPropertyOp32
 70
     1
  0
XRECORD
  5
14F4
102
{ACAD_REACTORS
330
14F3
102
}
330
14F3
100
AcDbXrecord
280
     1
102
RTVSPropertyOp0
 70
     1
102
RTVSPropertyOp1
 70
     1
102
RTVSPropertyOp2
 70
     1
102
RTVSPropertyOp3
 70
     1
102
RTVSPropertyOp4
 70
     1
102
RTVSPropertyOp5
 70
     1
102
RTVSPropertyOp6
 70
     1
102
RTVSPropertyOp7
 70
     1
102
RTVSPropertyOp8
 70
     1
102
RTVSPropertyOp9
 70
     1
102
RTVSPropertyOp10
 70
     1
102
RTVSPropertyOp11
 70
     1
102
RTVSPropertyOp12
 70
     1
102
RTVSPropertyOp13
 70
     1
102
RTVSPropertyOp14
 70
     1
102
RTVSPropertyOp15
 70
     1
102
RTVSPropertyOp16
 70
     1
102
RTVSPropertyOp17
 70
     1
102
RTVSPropertyOp18
 70
     1
102
RTVSPropertyOp19
 70
     1
102
RTVSPropertyOp20
 70
     1
102
RTVSPropertyOp21
 70
     1
102
RTVSPropertyOp22
 70
     1
102
RTVSPropertyOp23
 70
     1
102
RTVSPropertyOp24
 70
     1
102
RTVSPropertyOp25
 70
     1
102
RTVSPropertyOp26
 70
     1
102
RTVSPropertyOp27
 70
     1
102
RTVSPropertyOp28
 70
     1
102
RTVSPropertyOp29
 70
     1
102
RTVSPropertyOp30
 70
     1
102
RTVSPropertyOp31
 70
     1
102
RTVSPropertyOp32
 70
     1
  0
XRECORD
  5
14E6
102
{ACAD_REACTORS
330
14E5
102
}
330
14E5
100
AcDbXrecord
280
     1
102
RTVSPropertyOp0
 70
     1
102
RTVSPropertyOp1
 70
     1
102
RTVSPropertyOp2
 70
     1
102
RTVSPropertyOp3
 70
     1
102
RTVSPropertyOp4
 70
     1
102
RTVSPropertyOp5
 70
     1
102
RTVSPropertyOp6
 70
     1
102
RTVSPropertyOp7
 70
     1
102
RTVSPropertyOp8
 70
     1
102
RTVSPropertyOp9
 70
     1
102
RTVSPropertyOp10
 70
     1
102
RTVSPropertyOp11
 70
     1
102
RTVSPropertyOp12
 70
     1
102
RTVSPropertyOp13
 70
     1
102
RTVSPropertyOp14
 70
     1
102
RTVSPropertyOp15
 70
     1
102
RTVSPropertyOp16
 70
     1
102
RTVSPropertyOp17
 70
     1
102
RTVSPropertyOp18
 70
     1
102
RTVSPropertyOp19
 70
     1
102
RTVSPropertyOp20
 70
     1
102
RTVSPropertyOp21
 70
     1
102
RTVSPropertyOp22
 70
     1
102
RTVSPropertyOp23
 70
     1
102
RTVSPropertyOp24
 70
     1
102
RTVSPropertyOp25
 70
     1
102
RTVSPropertyOp26
 70
     1
102
RTVSPropertyOp27
 70
     1
102
RTVSPropertyOp28
 70
     1
102
RTVSPropertyOp29
 70
     1
102
RTVSPropertyOp30
 70
     1
102
RTVSPropertyOp31
 70
     1
102
RTVSPropertyOp32
 70
     1
  0
XRECORD
  5
14EA
102
{ACAD_REACTORS
330
14E9
102
}
330
14E9
100
AcDbXrecord
280
     1
102
RTVSPropertyOp0
 70
     1
102
RTVSPropertyOp1
 70
     1
102
RTVSPropertyOp2
 70
     1
102
RTVSPropertyOp3
 70
     1
102
RTVSPropertyOp4
 70
     1
102
RTVSPropertyOp5
 70
     1
102
RTVSPropertyOp6
 70
     1
102
RTVSPropertyOp7
 70
     1
102
RTVSPropertyOp8
 70
     1
102
RTVSPropertyOp9
 70
     1
102
RTVSPropertyOp10
 70
     1
102
RTVSPropertyOp11
 70
     1
102
RTVSPropertyOp12
 70
     1
102
RTVSPropertyOp13
 70
     1
102
RTVSPropertyOp14
 70
     1
102
RTVSPropertyOp15
 70
     1
102
RTVSPropertyOp16
 70
     1
102
RTVSPropertyOp17
 70
     1
102
RTVSPropertyOp18
 70
     1
102
RTVSPropertyOp19
 70
     1
102
RTVSPropertyOp20
 70
     1
102
RTVSPropertyOp21
 70
     1
102
RTVSPropertyOp22
 70
     1
102
RTVSPropertyOp23
 70
     1
102
RTVSPropertyOp24
 70
     1
102
RTVSPropertyOp25
 70
     1
102
RTVSPropertyOp26
 70
     1
102
RTVSPropertyOp27
 70
     1
102
RTVSPropertyOp28
 70
     1
102
RTVSPropertyOp29
 70
     1
102
RTVSPropertyOp30
 70
     1
102
RTVSPropertyOp31
 70
     1
102
RTVSPropertyOp32
 70
     1
  0
XRECORD
  5
1504
102
{ACAD_REACTORS
330
1503
102
}
330
1503
100
AcDbXrecord
280
     1
102
RTVSPropertyOp0
 70
     0
102
RTVSPropertyOp1
 70
     0
102
RTVSPropertyOp2
 70
     0
102
RTVSPropertyOp3
 70
     0
102
RTVSPropertyOp4
 70
     0
102
RTVSPropertyOp5
 70
     0
102
RTVSPropertyOp6
 70
     0
102
RTVSPropertyOp7
 70
     0
102
RTVSPropertyOp8
 70
     0
102
RTVSPropertyOp9
 70
     0
102
RTVSPropertyOp10
 70
     0
102
RTVSPropertyOp11
 70
     0
102
RTVSPropertyOp12
 70
     0
102
RTVSPropertyOp13
 70
     0
102
RTVSPropertyOp14
 70
     2
102
RTVSPropertyOp15
 70
     0
102
RTVSPropertyOp16
 70
     0
102
RTVSPropertyOp17
 70
     0
102
RTVSPropertyOp18
 70
     0
102
RTVSPropertyOp19
 70
     0
102
RTVSPropertyOp20
 70
     0
102
RTVSPropertyOp21
 70
     0
102
RTVSPropertyOp22
 70
     0
102
RTVSPropertyOp23
 70
     0
102
RTVSPropertyOp24
 70
     0
102
RTVSPropertyOp25
 70
     0
102
RTVSPropertyOp26
 70
     0
102
RTVSPropertyOp27
 70
     0
102
RTVSPropertyOp28
 70
     0
102
RTVSPropertyOp29
 70
     0
102
RTVSPropertyOp30
 70
     0
102
RTVSPropertyOp31
 70
     0
102
RTVSPropertyOp32
 70
     0
  0
XRECORD
  5
14F2
102
{ACAD_REACTORS
330
14F1
102
}
330
14F1
100
AcDbXrecord
280
     1
102
RTVSPropertyOp0
 70
     1
102
RTVSPropertyOp1
 70
     1
102
RTVSPropertyOp2
 70
     1
102
RTVSPropertyOp3
 70
     1
102
RTVSPropertyOp4
 70
     1
102
RTVSPropertyOp5
 70
     1
102
RTVSPropertyOp6
 70
     1
102
RTVSPropertyOp7
 70
     1
102
RTVSPropertyOp8
 70
     1
102
RTVSPropertyOp9
 70
     1
102
RTVSPropertyOp10
 70
     1
102
RTVSPropertyOp11
 70
     1
102
RTVSPropertyOp12
 70
     1
102
RTVSPropertyOp13
 70
     1
102
RTVSPropertyOp14
 70
     1
102
RTVSPropertyOp15
 70
     1
102
RTVSPropertyOp16
 70
     1
102
RTVSPropertyOp17
 70
     1
102
RTVSPropertyOp18
 70
     1
102
RTVSPropertyOp19
 70
     1
102
RTVSPropertyOp20
 70
     1
102
RTVSPropertyOp21
 70
     1
102
RTVSPropertyOp22
 70
     1
102
RTVSPropertyOp23
 70
     1
102
RTVSPropertyOp24
 70
     1
102
RTVSPropertyOp25
 70
     1
102
RTVSPropertyOp26
 70
     1
102
RTVSPropertyOp27
 70
     1
102
RTVSPropertyOp28
 70
     1
102
RTVSPropertyOp29
 70
     1
102
RTVSPropertyOp30
 70
     1
102
RTVSPropertyOp31
 70
     1
102
RTVSPropertyOp32
 70
     1
  0
XRECORD
  5
14D6
102
{ACAD_REACTORS
330
14D5
102
}
330
14D5
100
AcDbXrecord
280
     1
102
RTVSPropertyOp0
 70
     1
102
RTVSPropertyOp1
 70
     1
102
RTVSPropertyOp2
 70
     1
102
RTVSPropertyOp3
 70
     1
102
RTVSPropertyOp4
 70
     1
102
RTVSPropertyOp5
 70
     1
102
RTVSPropertyOp6
 70
     1
102
RTVSPropertyOp7
 70
     1
102
RTVSPropertyOp8
 70
     1
102
RTVSPropertyOp9
 70
     1
102
RTVSPropertyOp10
 70
     1
102
RTVSPropertyOp11
 70
     1
102
RTVSPropertyOp12
 70
     1
102
RTVSPropertyOp13
 70
     1
102
RTVSPropertyOp14
 70
     1
102
RTVSPropertyOp15
 70
     1
102
RTVSPropertyOp16
 70
     1
102
RTVSPropertyOp17
 70
     1
102
RTVSPropertyOp18
 70
     1
102
RTVSPropertyOp19
 70
     1
102
RTVSPropertyOp20
 70
     1
102
RTVSPropertyOp21
 70
     1
102
RTVSPropertyOp22
 70
     1
102
RTVSPropertyOp23
 70
     1
102
RTVSPropertyOp24
 70
     1
102
RTVSPropertyOp25
 70
     1
102
RTVSPropertyOp26
 70
     1
102
RTVSPropertyOp27
 70
     1
102
RTVSPropertyOp28
 70
     1
102
RTVSPropertyOp29
 70
     1
102
RTVSPropertyOp30
 70
     1
102
RTVSPropertyOp31
 70
     1
102
RTVSPropertyOp32
 70
     1
  0
XRECORD
  5
14D8
102
{ACAD_REACTORS
330
14D7
102
}
330
14D7
100
AcDbXrecord
280
     1
102
RTVSPropertyOp0
 70
     1
102
RTVSPropertyOp1
 70
     1
102
RTVSPropertyOp2
 70
     1
102
RTVSPropertyOp3
 70
     1
102
RTVSPropertyOp4
 70
     1
102
RTVSPropertyOp5
 70
     1
102
RTVSPropertyOp6
 70
     1
102
RTVSPropertyOp7
 70
     1
102
RTVSPropertyOp8
 70
     1
102
RTVSPropertyOp9
 70
     1
102
RTVSPropertyOp10
 70
     1
102
RTVSPropertyOp11
 70
     1
102
RTVSPropertyOp12
 70
     1
102
RTVSPropertyOp13
 70
     1
102
RTVSPropertyOp14
 70
     1
102
RTVSPropertyOp15
 70
     1
102
RTVSPropertyOp16
 70
     1
102
RTVSPropertyOp17
 70
     1
102
RTVSPropertyOp18
 70
     1
102
RTVSPropertyOp19
 70
     1
102
RTVSPropertyOp20
 70
     1
102
RTVSPropertyOp21
 70
     1
102
RTVSPropertyOp22
 70
     1
102
RTVSPropertyOp23
 70
     1
102
RTVSPropertyOp24
 70
     1
102
RTVSPropertyOp25
 70
     1
102
RTVSPropertyOp26
 70
     1
102
RTVSPropertyOp27
 70
     1
102
RTVSPropertyOp28
 70
     1
102
RTVSPropertyOp29
 70
     1
102
RTVSPropertyOp30
 70
     1
102
RTVSPropertyOp31
 70
     1
102
RTVSPropertyOp32
 70
     1
  0
XRECORD
  5
14DA
102
{ACAD_REACTORS
330
14D9
102
}
330
14D9
100
AcDbXrecord
280
     1
102
RTVSPropertyOp0
 70
     1
102
RTVSPropertyOp1
 70
     1
102
RTVSPropertyOp2
 70
     1
102
RTVSPropertyOp3
 70
     1
102
RTVSPropertyOp4
 70
     1
102
RTVSPropertyOp5
 70
     1
102
RTVSPropertyOp6
 70
     1
102
RTVSPropertyOp7
 70
     1
102
RTVSPropertyOp8
 70
     1
102
RTVSPropertyOp9
 70
     1
102
RTVSPropertyOp10
 70
     1
102
RTVSPropertyOp11
 70
     1
102
RTVSPropertyOp12
 70
     1
102
RTVSPropertyOp13
 70
     1
102
RTVSPropertyOp14
 70
     1
102
RTVSPropertyOp15
 70
     1
102
RTVSPropertyOp16
 70
     1
102
RTVSPropertyOp17
 70
     1
102
RTVSPropertyOp18
 70
     1
102
RTVSPropertyOp19
 70
     1
102
RTVSPropertyOp20
 70
     1
102
RTVSPropertyOp21
 70
     1
102
RTVSPropertyOp22
 70
     1
102
RTVSPropertyOp23
 70
     1
102
RTVSPropertyOp24
 70
     1
102
RTVSPropertyOp25
 70
     1
102
RTVSPropertyOp26
 70
     1
102
RTVSPropertyOp27
 70
     1
102
RTVSPropertyOp28
 70
     1
102
RTVSPropertyOp29
 70
     1
102
RTVSPropertyOp30
 70
     1
102
RTVSPropertyOp31
 70
     1
102
RTVSPropertyOp32
 70
     1
  0
XRECORD
  5
14DC
102
{ACAD_REACTORS
330
14DB
102
}
330
14DB
100
AcDbXrecord
280
     1
102
RTVSPropertyOp0
 70
     1
102
RTVSPropertyOp1
 70
     1
102
RTVSPropertyOp2
 70
     1
102
RTVSPropertyOp3
 70
     1
102
RTVSPropertyOp4
 70
     1
102
RTVSPropertyOp5
 70
     1
102
RTVSPropertyOp6
 70
     1
102
RTVSPropertyOp7
 70
     1
102
RTVSPropertyOp8
 70
     1
102
RTVSPropertyOp9
 70
     1
102
RTVSPropertyOp10
 70
     1
102
RTVSPropertyOp11
 70
     1
102
RTVSPropertyOp12
 70
     1
102
RTVSPropertyOp13
 70
     1
102
RTVSPropertyOp14
 70
     1
102
RTVSPropertyOp15
 70
     1
102
RTVSPropertyOp16
 70
     1
102
RTVSPropertyOp17
 70
     1
102
RTVSPropertyOp18
 70
     1
102
RTVSPropertyOp19
 70
     1
102
RTVSPropertyOp20
 70
     1
102
RTVSPropertyOp21
 70
     1
102
RTVSPropertyOp22
 70
     1
102
RTVSPropertyOp23
 70
     1
102
RTVSPropertyOp24
 70
     1
102
RTVSPropertyOp25
 70
     1
102
RTVSPropertyOp26
 70
     1
102
RTVSPropertyOp27
 70
     1
102
RTVSPropertyOp28
 70
     1
102
RTVSPropertyOp29
 70
     1
102
RTVSPropertyOp30
 70
     1
102
RTVSPropertyOp31
 70
     1
102
RTVSPropertyOp32
 70
     1
  0
XRECORD
  5
14E4
102
{ACAD_REACTORS
330
14E3
102
}
330
14E3
100
AcDbXrecord
280
     1
102
RTVSPropertyOp0
 70
     1
102
RTVSPropertyOp1
 70
     1
102
RTVSPropertyOp2
 70
     1
102
RTVSPropertyOp3
 70
     1
102
RTVSPropertyOp4
 70
     1
102
RTVSPropertyOp5
 70
     1
102
RTVSPropertyOp6
 70
     1
102
RTVSPropertyOp7
 70
     1
102
RTVSPropertyOp8
 70
     1
102
RTVSPropertyOp9
 70
     1
102
RTVSPropertyOp10
 70
     1
102
RTVSPropertyOp11
 70
     1
102
RTVSPropertyOp12
 70
     1
102
RTVSPropertyOp13
 70
     1
102
RTVSPropertyOp14
 70
     1
102
RTVSPropertyOp15
 70
     1
102
RTVSPropertyOp16
 70
     1
102
RTVSPropertyOp17
 70
     1
102
RTVSPropertyOp18
 70
     1
102
RTVSPropertyOp19
 70
     1
102
RTVSPropertyOp20
 70
     1
102
RTVSPropertyOp21
 70
     1
102
RTVSPropertyOp22
 70
     1
102
RTVSPropertyOp23
 70
     1
102
RTVSPropertyOp24
 70
     1
102
RTVSPropertyOp25
 70
     1
102
RTVSPropertyOp26
 70
     1
102
RTVSPropertyOp27
 70
     1
102
RTVSPropertyOp28
 70
     1
102
RTVSPropertyOp29
 70
     1
102
RTVSPropertyOp30
 70
     1
102
RTVSPropertyOp31
 70
     1
102
RTVSPropertyOp32
 70
     1
  0
XRECORD
  5
1500
102
{ACAD_REACTORS
330
14FF
102
}
330
14FF
100
AcDbXrecord
280
     1
102
RTVSPropertyOp0
 70
     0
102
RTVSPropertyOp1
 70
     0
102
RTVSPropertyOp2
 70
     0
102
RTVSPropertyOp3
 70
     0
102
RTVSPropertyOp4
 70
     0
102
RTVSPropertyOp5
 70
     0
102
RTVSPropertyOp6
 70
     0
102
RTVSPropertyOp7
 70
     0
102
RTVSPropertyOp8
 70
     0
102
RTVSPropertyOp9
 70
     0
102
RTVSPropertyOp10
 70
     0
102
RTVSPropertyOp11
 70
     0
102
RTVSPropertyOp12
 70
     0
102
RTVSPropertyOp13
 70
     0
102
RTVSPropertyOp14
 70
     2
102
RTVSPropertyOp15
 70
     0
102
RTVSPropertyOp16
 70
     0
102
RTVSPropertyOp17
 70
     0
102
RTVSPropertyOp18
 70
     0
102
RTVSPropertyOp19
 70
     0
102
RTVSPropertyOp20
 70
     0
102
RTVSPropertyOp21
 70
     0
102
RTVSPropertyOp22
 70
     0
102
RTVSPropertyOp23
 70
     0
102
RTVSPropertyOp24
 70
     0
102
RTVSPropertyOp25
 70
     0
102
RTVSPropertyOp26
 70
     0
102
RTVSPropertyOp27
 70
     0
102
RTVSPropertyOp28
 70
     0
102
RTVSPropertyOp29
 70
     0
102
RTVSPropertyOp30
 70
     0
102
RTVSPropertyOp31
 70
     0
102
RTVSPropertyOp32
 70
     0
  0
XRECORD
  5
14F0
102
{ACAD_REACTORS
330
14EF
102
}
330
14EF
100
AcDbXrecord
280
     1
102
RTVSPropertyOp0
 70
     1
102
RTVSPropertyOp1
 70
     1
102
RTVSPropertyOp2
 70
     1
102
RTVSPropertyOp3
 70
     1
102
RTVSPropertyOp4
 70
     1
102
RTVSPropertyOp5
 70
     1
102
RTVSPropertyOp6
 70
     1
102
RTVSPropertyOp7
 70
     1
102
RTVSPropertyOp8
 70
     1
102
RTVSPropertyOp9
 70
     1
102
RTVSPropertyOp10
 70
     1
102
RTVSPropertyOp11
 70
     1
102
RTVSPropertyOp12
 70
     1
102
RTVSPropertyOp13
 70
     1
102
RTVSPropertyOp14
 70
     1
102
RTVSPropertyOp15
 70
     1
102
RTVSPropertyOp16
 70
     1
102
RTVSPropertyOp17
 70
     1
102
RTVSPropertyOp18
 70
     1
102
RTVSPropertyOp19
 70
     1
102
RTVSPropertyOp20
 70
     1
102
RTVSPropertyOp21
 70
     1
102
RTVSPropertyOp22
 70
     1
102
RTVSPropertyOp23
 70
     1
102
RTVSPropertyOp24
 70
     1
102
RTVSPropertyOp25
 70
     1
102
RTVSPropertyOp26
 70
     1
102
RTVSPropertyOp27
 70
     1
102
RTVSPropertyOp28
 70
     1
102
RTVSPropertyOp29
 70
     1
102
RTVSPropertyOp30
 70
     1
102
RTVSPropertyOp31
 70
     1
102
RTVSPropertyOp32
 70
     1
  0
XRECORD
  5
1502
102
{ACAD_REACTORS
330
1501
102
}
330
1501
100
AcDbXrecord
280
     1
102
RTVSPropertyOp0
 70
     0
102
RTVSPropertyOp1
 70
     0
102
RTVSPropertyOp2
 70
     0
102
RTVSPropertyOp3
 70
     0
102
RTVSPropertyOp4
 70
     0
102
RTVSPropertyOp5
 70
     0
102
RTVSPropertyOp6
 70
     0
102
RTVSPropertyOp7
 70
     0
102
RTVSPropertyOp8
 70
     0
102
RTVSPropertyOp9
 70
     0
102
RTVSPropertyOp10
 70
     0
102
RTVSPropertyOp11
 70
     0
102
RTVSPropertyOp12
 70
     0
102
RTVSPropertyOp13
 70
     0
102
RTVSPropertyOp14
 70
     2
102
RTVSPropertyOp15
 70
     0
102
RTVSPropertyOp16
 70
     0
102
RTVSPropertyOp17
 70
     0
102
RTVSPropertyOp18
 70
     0
102
RTVSPropertyOp19
 70
     0
102
RTVSPropertyOp20
 70
     0
102
RTVSPropertyOp21
 70
     0
102
RTVSPropertyOp22
 70
     0
102
RTVSPropertyOp23
 70
     0
102
RTVSPropertyOp24
 70
     0
102
RTVSPropertyOp25
 70
     0
102
RTVSPropertyOp26
 70
     0
102
RTVSPropertyOp27
 70
     0
102
RTVSPropertyOp28
 70
     0
102
RTVSPropertyOp29
 70
     0
102
RTVSPropertyOp30
 70
     0
102
RTVSPropertyOp31
 70
     0
102
RTVSPropertyOp32
 70
     0
  0
XRECORD
  5
14E8
102
{ACAD_REACTORS
330
14E7
102
}
330
14E7
100
AcDbXrecord
280
     1
102
RTVSPropertyOp0
 70
     1
102
RTVSPropertyOp1
 70
     1
102
RTVSPropertyOp2
 70
     1
102
RTVSPropertyOp3
 70
     1
102
RTVSPropertyOp4
 70
     1
102
RTVSPropertyOp5
 70
     1
102
RTVSPropertyOp6
 70
     1
102
RTVSPropertyOp7
 70
     1
102
RTVSPropertyOp8
 70
     1
102
RTVSPropertyOp9
 70
     1
102
RTVSPropertyOp10
 70
     1
102
RTVSPropertyOp11
 70
     1
102
RTVSPropertyOp12
 70
     1
102
RTVSPropertyOp13
 70
     1
102
RTVSPropertyOp14
 70
     1
102
RTVSPropertyOp15
 70
     1
102
RTVSPropertyOp16
 70
     1
102
RTVSPropertyOp17
 70
     1
102
RTVSPropertyOp18
 70
     1
102
RTVSPropertyOp19
 70
     1
102
RTVSPropertyOp20
 70
     1
102
RTVSPropertyOp21
 70
     1
102
RTVSPropertyOp22
 70
     1
102
RTVSPropertyOp23
 70
     1
102
RTVSPropertyOp24
 70
     1
102
RTVSPropertyOp25
 70
     1
102
RTVSPropertyOp26
 70
     1
102
RTVSPropertyOp27
 70
     1
102
RTVSPropertyOp28
 70
     1
102
RTVSPropertyOp29
 70
     1
102
RTVSPropertyOp30
 70
     1
102
RTVSPropertyOp31
 70
     1
102
RTVSPropertyOp32
 70
     1
  0
XRECORD
  5
14FE
102
{ACAD_REACTORS
330
14FD
102
}
330
14FD
100
AcDbXrecord
280
     1
102
RTVSPropertyOp0
 70
     1
102
RTVSPropertyOp1
 70
     1
102
RTVSPropertyOp2
 70
     1
102
RTVSPropertyOp3
 70
     1
102
RTVSPropertyOp4
 70
     1
102
RTVSPropertyOp5
 70
     1
102
RTVSPropertyOp6
 70
     1
102
RTVSPropertyOp7
 70
     1
102
RTVSPropertyOp8
 70
     1
102
RTVSPropertyOp9
 70
     1
102
RTVSPropertyOp10
 70
     1
102
RTVSPropertyOp11
 70
     1
102
RTVSPropertyOp12
 70
     1
102
RTVSPropertyOp13
 70
     1
102
RTVSPropertyOp14
 70
     1
102
RTVSPropertyOp15
 70
     1
102
RTVSPropertyOp16
 70
     1
102
RTVSPropertyOp17
 70
     1
102
RTVSPropertyOp18
 70
     1
102
RTVSPropertyOp19
 70
     1
102
RTVSPropertyOp20
 70
     1
102
RTVSPropertyOp21
 70
     1
102
RTVSPropertyOp22
 70
     1
102
RTVSPropertyOp23
 70
     1
102
RTVSPropertyOp24
 70
     1
102
RTVSPropertyOp25
 70
     1
102
RTVSPropertyOp26
 70
     1
102
RTVSPropertyOp27
 70
     1
102
RTVSPropertyOp28
 70
     1
102
RTVSPropertyOp29
 70
     1
102
RTVSPropertyOp30
 70
     1
102
RTVSPropertyOp31
 70
     1
102
RTVSPropertyOp32
 70
     1
  0
XRECORD
  5
14FC
102
{ACAD_REACTORS
330
14FB
102
}
330
14FB
100
AcDbXrecord
280
     1
102
RTVSPropertyOp0
 70
     1
102
RTVSPropertyOp1
 70
     1
102
RTVSPropertyOp2
 70
     1
102
RTVSPropertyOp3
 70
     1
102
RTVSPropertyOp4
 70
     1
102
RTVSPropertyOp5
 70
     1
102
RTVSPropertyOp6
 70
     1
102
RTVSPropertyOp7
 70
     1
102
RTVSPropertyOp8
 70
     1
102
RTVSPropertyOp9
 70
     1
102
RTVSPropertyOp10
 70
     1
102
RTVSPropertyOp11
 70
     1
102
RTVSPropertyOp12
 70
     1
102
RTVSPropertyOp13
 70
     1
102
RTVSPropertyOp14
 70
     1
102
RTVSPropertyOp15
 70
     1
102
RTVSPropertyOp16
 70
     1
102
RTVSPropertyOp17
 70
     1
102
RTVSPropertyOp18
 70
     1
102
RTVSPropertyOp19
 70
     1
102
RTVSPropertyOp20
 70
     1
102
RTVSPropertyOp21
 70
     1
102
RTVSPropertyOp22
 70
     1
102
RTVSPropertyOp23
 70
     1
102
RTVSPropertyOp24
 70
     1
102
RTVSPropertyOp25
 70
     1
102
RTVSPropertyOp26
 70
     1
102
RTVSPropertyOp27
 70
     1
102
RTVSPropertyOp28
 70
     1
102
RTVSPropertyOp29
 70
     1
102
RTVSPropertyOp30
 70
     1
102
RTVSPropertyOp31
 70
     1
102
RTVSPropertyOp32
 70
     1
  0
XRECORD
  5
14F6
102
{ACAD_REACTORS
330
14F5
102
}
330
14F5
100
AcDbXrecord
280
     1
102
RTVSPropertyOp0
 70
     1
102
RTVSPropertyOp1
 70
     1
102
RTVSPropertyOp2
 70
     1
102
RTVSPropertyOp3
 70
     1
102
RTVSPropertyOp4
 70
     1
102
RTVSPropertyOp5
 70
     1
102
RTVSPropertyOp6
 70
     1
102
RTVSPropertyOp7
 70
     1
102
RTVSPropertyOp8
 70
     1
102
RTVSPropertyOp9
 70
     1
102
RTVSPropertyOp10
 70
     1
102
RTVSPropertyOp11
 70
     1
102
RTVSPropertyOp12
 70
     1
102
RTVSPropertyOp13
 70
     1
102
RTVSPropertyOp14
 70
     1
102
RTVSPropertyOp15
 70
     1
102
RTVSPropertyOp16
 70
     1
102
RTVSPropertyOp17
 70
     1
102
RTVSPropertyOp18
 70
     1
102
RTVSPropertyOp19
 70
     1
102
RTVSPropertyOp20
 70
     1
102
RTVSPropertyOp21
 70
     1
102
RTVSPropertyOp22
 70
     1
102
RTVSPropertyOp23
 70
     1
102
RTVSPropertyOp24
 70
     1
102
RTVSPropertyOp25
 70
     1
102
RTVSPropertyOp26
 70
     1
102
RTVSPropertyOp27
 70
     1
102
RTVSPropertyOp28
 70
     1
102
RTVSPropertyOp29
 70
     1
102
RTVSPropertyOp30
 70
     1
102
RTVSPropertyOp31
 70
     1
102
RTVSPropertyOp32
 70
     1
  0
XRECORD
  5
14F8
102
{ACAD_REACTORS
330
14F7
102
}
330
14F7
100
AcDbXrecord
280
     1
102
RTVSPropertyOp0
 70
     1
102
RTVSPropertyOp1
 70
     1
102
RTVSPropertyOp2
 70
     1
102
RTVSPropertyOp3
 70
     1
102
RTVSPropertyOp4
 70
     1
102
RTVSPropertyOp5
 70
     1
102
RTVSPropertyOp6
 70
     1
102
RTVSPropertyOp7
 70
     1
102
RTVSPropertyOp8
 70
     1
102
RTVSPropertyOp9
 70
     1
102
RTVSPropertyOp10
 70
     1
102
RTVSPropertyOp11
 70
     1
102
RTVSPropertyOp12
 70
     1
102
RTVSPropertyOp13
 70
     1
102
RTVSPropertyOp14
 70
     1
102
RTVSPropertyOp15
 70
     1
102
RTVSPropertyOp16
 70
     1
102
RTVSPropertyOp17
 70
     1
102
RTVSPropertyOp18
 70
     1
102
RTVSPropertyOp19
 70
     1
102
RTVSPropertyOp20
 70
     1
102
RTVSPropertyOp21
 70
     1
102
RTVSPropertyOp22
 70
     1
102
RTVSPropertyOp23
 70
     1
102
RTVSPropertyOp24
 70
     1
102
RTVSPropertyOp25
 70
     1
102
RTVSPropertyOp26
 70
     1
102
RTVSPropertyOp27
 70
     1
102
RTVSPropertyOp28
 70
     1
102
RTVSPropertyOp29
 70
     1
102
RTVSPropertyOp30
 70
     1
102
RTVSPropertyOp31
 70
     1
102
RTVSPropertyOp32
 70
     1
  0
XRECORD
  5
14EE
102
{ACAD_REACTORS
330
14ED
102
}
330
14ED
100
AcDbXrecord
280
     1
102
RTVSPropertyOp0
 70
     1
102
RTVSPropertyOp1
 70
     1
102
RTVSPropertyOp2
 70
     1
102
RTVSPropertyOp3
 70
     1
102
RTVSPropertyOp4
 70
     1
102
RTVSPropertyOp5
 70
     1
102
RTVSPropertyOp6
 70
     1
102
RTVSPropertyOp7
 70
     1
102
RTVSPropertyOp8
 70
     1
102
RTVSPropertyOp9
 70
     1
102
RTVSPropertyOp10
 70
     1
102
RTVSPropertyOp11
 70
     1
102
RTVSPropertyOp12
 70
     1
102
RTVSPropertyOp13
 70
     1
102
RTVSPropertyOp14
 70
     1
102
RTVSPropertyOp15
 70
     1
102
RTVSPropertyOp16
 70
     1
102
RTVSPropertyOp17
 70
     1
102
RTVSPropertyOp18
 70
     1
102
RTVSPropertyOp19
 70
     1
102
RTVSPropertyOp20
 70
     1
102
RTVSPropertyOp21
 70
     1
102
RTVSPropertyOp22
 70
     1
102
RTVSPropertyOp23
 70
     1
102
RTVSPropertyOp24
 70
     1
102
RTVSPropertyOp25
 70
     1
102
RTVSPropertyOp26
 70
     1
102
RTVSPropertyOp27
 70
     1
102
RTVSPropertyOp28
 70
     1
102
RTVSPropertyOp29
 70
     1
102
RTVSPropertyOp30
 70
     1
102
RTVSPropertyOp31
 70
     1
102
RTVSPropertyOp32
 70
     1
  0
XRECORD
  5
14E2
102
{ACAD_REACTORS
330
14E1
102
}
330
14E1
100
AcDbXrecord
280
     1
102
RTVSPropertyOp0
 70
     1
102
RTVSPropertyOp1
 70
     1
102
RTVSPropertyOp2
 70
     1
102
RTVSPropertyOp3
 70
     1
102
RTVSPropertyOp4
 70
     1
102
RTVSPropertyOp5
 70
     1
102
RTVSPropertyOp6
 70
     1
102
RTVSPropertyOp7
 70
     1
102
RTVSPropertyOp8
 70
     1
102
RTVSPropertyOp9
 70
     1
102
RTVSPropertyOp10
 70
     1
102
RTVSPropertyOp11
 70
     1
102
RTVSPropertyOp12
 70
     1
102
RTVSPropertyOp13
 70
     1
102
RTVSPropertyOp14
 70
     1
102
RTVSPropertyOp15
 70
     1
102
RTVSPropertyOp16
 70
     1
102
RTVSPropertyOp17
 70
     1
102
RTVSPropertyOp18
 70
     1
102
RTVSPropertyOp19
 70
     1
102
RTVSPropertyOp20
 70
     1
102
RTVSPropertyOp21
 70
     1
102
RTVSPropertyOp22
 70
     1
102
RTVSPropertyOp23
 70
     1
102
RTVSPropertyOp24
 70
     1
102
RTVSPropertyOp25
 70
     1
102
RTVSPropertyOp26
 70
     1
102
RTVSPropertyOp27
 70
     1
102
RTVSPropertyOp28
 70
     1
102
RTVSPropertyOp29
 70
     1
102
RTVSPropertyOp30
 70
     1
102
RTVSPropertyOp31
 70
     1
102
RTVSPropertyOp32
 70
     1
  0
XRECORD
  5
14FA
102
{ACAD_REACTORS
330
14F9
102
}
330
14F9
100
AcDbXrecord
280
     1
102
RTVSPropertyOp0
 70
     1
102
RTVSPropertyOp1
 70
     1
102
RTVSPropertyOp2
 70
     1
102
RTVSPropertyOp3
 70
     1
102
RTVSPropertyOp4
 70
     1
102
RTVSPropertyOp5
 70
     1
102
RTVSPropertyOp6
 70
     1
102
RTVSPropertyOp7
 70
     1
102
RTVSPropertyOp8
 70
     1
102
RTVSPropertyOp9
 70
     1
102
RTVSPropertyOp10
 70
     1
102
RTVSPropertyOp11
 70
     1
102
RTVSPropertyOp12
 70
     1
102
RTVSPropertyOp13
 70
     1
102
RTVSPropertyOp14
 70
     1
102
RTVSPropertyOp15
 70
     1
102
RTVSPropertyOp16
 70
     1
102
RTVSPropertyOp17
 70
     1
102
RTVSPropertyOp18
 70
     1
102
RTVSPropertyOp19
 70
     1
102
RTVSPropertyOp20
 70
     1
102
RTVSPropertyOp21
 70
     1
102
RTVSPropertyOp22
 70
     1
102
RTVSPropertyOp23
 70
     1
102
RTVSPropertyOp24
 70
     1
102
RTVSPropertyOp25
 70
     1
102
RTVSPropertyOp26
 70
     1
102
RTVSPropertyOp27
 70
     1
102
RTVSPropertyOp28
 70
     1
102
RTVSPropertyOp29
 70
     1
102
RTVSPropertyOp30
 70
     1
102
RTVSPropertyOp31
 70
     1
102
RTVSPropertyOp32
 70
     1
  0
ENDSEC
  0
EOF
