  0
SECTION
  2
HEADER
  9
$ACADVER
  1
AC1015
  9
$ACADMAINTVER
 70
    20
  9
$DWGCODEPAGE
  3
ANSI_932
  9
$INSBASE
 10
0.0
 20
0.0
 30
0.0
  9
$EXTMIN
 10
1900.206583626199
 20
50.1380739540848
 30
0.0
  9
$EXTMAX
 10
2092.206583626199
 20
331.2602029540849
 30
0.0
  9
$LIMMIN
 10
0.0
 20
0.0
  9
$LIMMAX
 10
12.0
 20
9.0
  9
$ORTHOMODE
 70
     0
  9
$REGENMODE
 70
     1
  9
$FILLMODE
 70
     1
  9
$QTEXTMODE
 70
     0
  9
$MIRRTEXT
 70
     0
  9
$LTSCALE
 40
0.2
  9
$ATTMODE
 70
     1
  9
$TEXTSIZE
 40
3.2
  9
$TRACEWID
 40
0.05
  9
$TEXTSTYLE
  7
高3.2
  9
$CLAYER
  8
0
  9
$CELTYPE
  6
ByLayer
  9
$CECOLOR
 62
   256
  9
$CELTSCALE
 40
1.0
  9
$DISPSILH
 70
     0
  9
$DIMSCALE
 40
1.0
  9
$DIMASZ
 40
2.5
  9
$DIMEXO
 40
0.25
  9
$DIMDLI
 40
0.2
  9
$DIMRND
 40
0.0
  9
$DIMDLE
 40
0.0
  9
$DIMEXE
 40
1.25
  9
$DIMTP
 40
0.0
  9
$DIMTM
 40
0.0
  9
$DIMTXT
 40
3.0
  9
$DIMCEN
 40
0.0
  9
$DIMTSZ
 40
0.0
  9
$DIMTOL
 70
     0
  9
$DIMLIM
 70
     0
  9
$DIMTIH
 70
     0
  9
$DIMTOH
 70
     0
  9
$DIMSE1
 70
     0
  9
$DIMSE2
 70
     0
  9
$DIMTAD
 70
     3
  9
$DIMZIN
 70
     8
  9
$DIMBLK
  1
Open30
  9
$DIMASO
 70
     1
  9
$DIMSHO
 70
     1
  9
$DIMPOST
  1

  9
$DIMAPOST
  1

  9
$DIMALT
 70
     0
  9
$DIMALTD
 70
     3
  9
$DIMALTF
 40
0.03937007874016
  9
$DIMLFAC
 40
1.0
  9
$DIMTOFL
 70
     1
  9
$DIMTVP
 40
0.0
  9
$DIMTIX
 70
     0
  9
$DIMSOXD
 70
     0
  9
$DIMSAH
 70
     0
  9
$DIMBLK1
  1

  9
$DIMBLK2
  1

  9
$DIMSTYLE
  2
1：1
  9
$DIMCLRD
 70
     0
  9
$DIMCLRE
 70
     0
  9
$DIMCLRT
 70
     4
  9
$DIMTFAC
 40
1.0
  9
$DIMGAP
 40
0.625
  9
$DIMJUST
 70
     0
  9
$DIMSD1
 70
     0
  9
$DIMSD2
 70
     0
  9
$DIMTOLJ
 70
     0
  9
$DIMTZIN
 70
     8
  9
$DIMALTZ
 70
     0
  9
$DIMALTTZ
 70
     0
  9
$DIMUPT
 70
     1
  9
$DIMDEC
 70
     2
  9
$DIMTDEC
 70
     2
  9
$DIMALTU
 70
     2
  9
$DIMALTTD
 70
     3
  9
$DIMTXSTY
  7
Standard
  9
$DIMAUNIT
 70
     0
  9
$DIMADEC
 70
     1
  9
$DIMALTRND
 40
0.0
  9
$DIMAZIN
 70
     2
  9
$DIMDSEP
 70
    46
  9
$DIMATFIT
 70
     0
  9
$DIMFRAC
 70
     0
  9
$DIMLDRBLK
  1
Open30
  9
$DIMLUNIT
 70
     2
  9
$DIMLWD
 70
    -2
  9
$DIMLWE
 70
    -2
  9
$DIMTMOVE
 70
     0
  9
$LUNITS
 70
     2
  9
$LUPREC
 70
     4
  9
$SKETCHINC
 40
0.1
  9
$FILLETRAD
 40
0.0
  9
$AUNITS
 70
     0
  9
$AUPREC
 70
     0
  9
$MENU
  1
.
  9
$ELEVATION
 40
0.0
  9
$PELEVATION
 40
0.0
  9
$THICKNESS
 40
0.0
  9
$LIMCHECK
 70
     0
  9
$CHAMFERA
 40
0.0
  9
$CHAMFERB
 40
0.0
  9
$CHAMFERC
 40
0.0
  9
$CHAMFERD
 40
0.0
  9
$SKPOLY
 70
     0
  9
$TDCREATE
 40
2457217.420839051
  9
$TDUCREATE
 40
2457217.045839051
  9
$TDUPDATE
 40
2457352.470659560
  9
$TDUUPDATE
 40
2457352.095659560
  9
$TDINDWG
 40
0.2778266898
  9
$TDUSRTIMER
 40
0.2778264815
  9
$USRTIMER
 70
     1
  9
$ANGBASE
 50
0.0
  9
$ANGDIR
 70
     0
  9
$PDMODE
 70
     0
  9
$PDSIZE
 40
0.0
  9
$PLINEWID
 40
0.0
  9
$SPLFRAME
 70
     0
  9
$SPLINETYPE
 70
     6
  9
$SPLINESEGS
 70
     8
  9
$HANDSEED
  5
1CFE
  9
$SURFTAB1
 70
     6
  9
$SURFTAB2
 70
     6
  9
$SURFTYPE
 70
     6
  9
$SURFU
 70
     6
  9
$SURFV
 70
     6
  9
$UCSBASE
  2

  9
$UCSNAME
  2

  9
$UCSORG
 10
0.0
 20
0.0
 30
0.0
  9
$UCSXDIR
 10
1.0
 20
0.0
 30
0.0
  9
$UCSYDIR
 10
0.0
 20
1.0
 30
0.0
  9
$UCSORTHOREF
  2

  9
$UCSORTHOVIEW
 70
     0
  9
$UCSORGTOP
 10
0.0
 20
0.0
 30
0.0
  9
$UCSORGBOTTOM
 10
0.0
 20
0.0
 30
0.0
  9
$UCSORGLEFT
 10
0.0
 20
0.0
 30
0.0
  9
$UCSORGRIGHT
 10
0.0
 20
0.0
 30
0.0
  9
$UCSORGFRONT
 10
0.0
 20
0.0
 30
0.0
  9
$UCSORGBACK
 10
0.0
 20
0.0
 30
0.0
  9
$PUCSBASE
  2

  9
$PUCSNAME
  2

  9
$PUCSORG
 10
0.0
 20
0.0
 30
0.0
  9
$PUCSXDIR
 10
1.0
 20
0.0
 30
0.0
  9
$PUCSYDIR
 10
0.0
 20
1.0
 30
0.0
  9
$PUCSORTHOREF
  2

  9
$PUCSORTHOVIEW
 70
     0
  9
$PUCSORGTOP
 10
0.0
 20
0.0
 30
0.0
  9
$PUCSORGBOTTOM
 10
0.0
 20
0.0
 30
0.0
  9
$PUCSORGLEFT
 10
0.0
 20
0.0
 30
0.0
  9
$PUCSORGRIGHT
 10
0.0
 20
0.0
 30
0.0
  9
$PUCSORGFRONT
 10
0.0
 20
0.0
 30
0.0
  9
$PUCSORGBACK
 10
0.0
 20
0.0
 30
0.0
  9
$USERI1
 70
     0
  9
$USERI2
 70
     0
  9
$USERI3
 70
     0
  9
$USERI4
 70
     0
  9
$USERI5
 70
     0
  9
$USERR1
 40
0.0
  9
$USERR2
 40
0.0
  9
$USERR3
 40
0.0
  9
$USERR4
 40
0.0
  9
$USERR5
 40
0.0
  9
$WORLDVIEW
 70
     1
  9
$SHADEDGE
 70
     3
  9
$SHADEDIF
 70
    70
  9
$TILEMODE
 70
     1
  9
$MAXACTVP
 70
    64
  9
$PINSBASE
 10
0.0
 20
0.0
 30
0.0
  9
$PLIMCHECK
 70
     0
  9
$PEXTMIN
 10
0.0
 20
0.0
 30
0.0
  9
$PEXTMAX
 10
0.0
 20
0.0
 30
0.0
  9
$PLIMMIN
 10
0.0
 20
0.0
  9
$PLIMMAX
 10
12.0
 20
9.0
  9
$UNITMODE
 70
     0
  9
$VISRETAIN
 70
     1
  9
$PLINEGEN
 70
     0
  9
$PSLTSCALE
 70
     1
  9
$TREEDEPTH
 70
  3020
  9
$CMLSTYLE
  2
Standard
  9
$CMLJUST
 70
     0
  9
$CMLSCALE
 40
1.0
  9
$PROXYGRAPHICS
 70
     1
  9
$MEASUREMENT
 70
     1
  9
$CELWEIGHT
370
    -1
  9
$ENDCAPS
280
     0
  9
$JOINSTYLE
280
     0
  9
$LWDISPLAY
290
     0
  9
$INSUNITS
 70
     1
  9
$HYPERLINKBASE
  1

  9
$STYLESHEET
  1

  9
$XEDIT
290
     1
  9
$CEPSNTYPE
380
     0
  9
$PSTYLEMODE
290
     1
  9
$FINGERPRINTGUID
  2
{FF678B12-7C0B-4A3C-A49A-85B7B56D9AAC}
  9
$VERSIONGUID
  2
{7F465025-FDC4-4F58-A150-91673496A360}
  9
$EXTNAMES
290
     1
  9
$PSVPSCALE
 40
0.0
  9
$OLESTARTUP
290
     0
  0
ENDSEC
  0
SECTION
  2
CLASSES
  0
CLASS
  1
ACDBDICTIONARYWDFLT
  2
AcDbDictionaryWithDefault
  3
ObjectDBX Classes
 90
        0
280
     0
281
     0
  0
CLASS
  1
ACDBPLACEHOLDER
  2
AcDbPlaceHolder
  3
ObjectDBX Classes
 90
        0
280
     0
281
     0
  0
CLASS
  1
LAYOUT
  2
AcDbLayout
  3
ObjectDBX Classes
 90
        0
280
     0
281
     0
  0
CLASS
  1
DICTIONARYVAR
  2
AcDbDictionaryVar
  3
ObjectDBX Classes
 90
        0
280
     0
281
     0
  0
CLASS
  1
TABLESTYLE
  2
AcDbTableStyle
  3
ObjectDBX Classes
 90
     4095
280
     0
281
     0
  0
CLASS
  1
MATERIAL
  2
AcDbMaterial
  3
ObjectDBX Classes
 90
     1153
280
     0
281
     0
  0
CLASS
  1
VISUALSTYLE
  2
AcDbVisualStyle
  3
ObjectDBX Classes
 90
     4095
280
     0
281
     0
  0
CLASS
  1
SORTENTSTABLE
  2
AcDbSortentsTable
  3
ObjectDBX Classes
 90
        0
280
     0
281
     0
  0
CLASS
  1
DIMASSOC
  2
AcDbDimAssoc
  3
"AcDbDimAssoc|Product Desc:     AcDim ARX App For Dimension|Company:          Autodesk, Inc.|WEB Address:      www.autodesk.com"
 90
        0
280
     0
281
     0
  0
CLASS
  1
SCALE
  2
AcDbScale
  3
ObjectDBX Classes
 90
     1153
280
     0
281
     0
  0
CLASS
  1
MLEADERSTYLE
  2
AcDbMLeaderStyle
  3
ACDB_MLEADERSTYLE_CLASS
 90
     4095
280
     0
281
     0
  0
CLASS
  1
CELLSTYLEMAP
  2
AcDbCellStyleMap
  3
ObjectDBX Classes
 90
     1152
280
     0
281
     0
  0
CLASS
  1
AEC_REFEDIT_STATUS_TRACKER
  2
AecDbRefEditStatusTracker
  3
AecArchBase60|Product Desc: Autodesk Architectural Desktop 2007 |Company: Autodesk,Inc. |WEB Address: www.autodesk.com
 90
    32897
280
     0
281
     0
  0
CLASS
  1
NPOCOLLECTION
  2
AcDbImpNonPersistentObjectsCollection
  3
ObjectDBX Classes
 90
    33921
280
     0
281
     0
  0
ENDSEC
  0
SECTION
  2
TABLES
  0
TABLE
  2
VPORT
  5
8
330
0
100
AcDbSymbolTable
 70
     1
  0
VPORT
  5
94
330
8
100
AcDbSymbolTableRecord
100
AcDbViewportTableRecord
  2
*Active
 70
     0
 10
0.0
 20
0.0
 11
1.0
 21
1.0
 12
2077.391624007733
 22
186.4200805111142
 13
0.0
 23
0.0
 14
0.5
 24
0.5
 15
0.5
 25
0.5
 16
0.0
 26
0.0
 36
1.0
 17
0.0
 27
0.0
 37
0.0
 40
543.8258642261497
 41
1.932998324958123
 42
50.0
 43
0.0
 44
0.0
 50
0.0
 51
0.0
 71
     0
 72
  1000
 73
     1
 74
     2
 75
     0
 76
     0
 77
     0
 78
     0
281
     0
 65
     1
110
0.0
120
0.0
130
0.0
111
1.0
121
0.0
131
0.0
112
0.0
122
1.0
132
0.0
 79
     0
146
0.0
  0
ENDTAB
  0
TABLE
  2
LTYPE
  5
5
330
0
100
AcDbSymbolTable
 70
     5
  0
LTYPE
  5
14
330
5
100
AcDbSymbolTableRecord
100
AcDbLinetypeTableRecord
  2
ByBlock
 70
     0
  3

 72
    65
 73
     0
 40
0.0
  0
LTYPE
  5
15
330
5
100
AcDbSymbolTableRecord
100
AcDbLinetypeTableRecord
  2
ByLayer
 70
     0
  3

 72
    65
 73
     0
 40
0.0
  0
LTYPE
  5
16
330
5
100
AcDbSymbolTableRecord
100
AcDbLinetypeTableRecord
  2
Continuous
 70
     0
  3
Solid line
 72
    65
 73
     0
 40
0.0
  0
LTYPE
  5
119D
330
5
100
AcDbSymbolTableRecord
100
AcDbLinetypeTableRecord
  2
CENTER
 70
     0
  3
Center ____ _ ____ _ ____ _ ____ _ ____ _ ____
 72
    65
 73
     4
 40
50.8
 49
31.75
 74
     0
 49
-6.349999999999997
 74
     0
 49
6.349999999999997
 74
     0
 49
-6.349999999999997
 74
     0
  0
LTYPE
  5
119E
330
5
100
AcDbSymbolTableRecord
100
AcDbLinetypeTableRecord
  2
HIDDEN
 70
     0
  3
Hidden __ __ __ __ __ __ __ __ __ __ __ __ __ _
 72
    65
 73
     2
 40
9.524999999999996
 49
6.349999999999997
 74
     0
 49
-3.174999999999998
 74
     0
  0
LTYPE
  5
119F
330
5
100
AcDbSymbolTableRecord
100
AcDbLinetypeTableRecord
  2
PHANTOM
 70
     0
  3
Phantom ______  __  __  ______  __  __  ______
 72
    65
 73
     6
 40
63.5
 49
31.75
 74
     0
 49
-6.349999999999997
 74
     0
 49
6.349999999999997
 74
     0
 49
-6.349999999999997
 74
     0
 49
6.349999999999997
 74
     0
 49
-6.349999999999997
 74
     0
  0
ENDTAB
  0
TABLE
  2
LAYER
  5
2
102
{ACAD_XDICTIONARY
360
DD
102
}
330
0
100
AcDbSymbolTable
 70
     2
  0
LAYER
  5
10
102
{ACAD_XDICTIONARY
360
8E9
102
}
330
2
100
AcDbSymbolTableRecord
100
AcDbLayerTableRecord
  2
0
 70
     0
 62
     7
  6
Continuous
370
    -3
390
F
  0
LAYER
  5
D8
330
2
100
AcDbSymbolTableRecord
100
AcDbLayerTableRecord
  2
Defpoints
 70
     0
 62
     7
  6
Continuous
290
     0
370
    -3
390
F
  0
ENDTAB
  0
TABLE
  2
STYLE
  5
3
330
0
100
AcDbSymbolTable
 70
     7
  0
STYLE
  5
11
330
3
100
AcDbSymbolTableRecord
100
AcDbTextStyleTableRecord
  2
Standard
 70
     0
 40
0.0
 41
1.0
 50
0.0
 71
     0
 42
0.2
  3
txt.shx
  4
bigfont.shx
  0
STYLE
  5
11D
330
3
100
AcDbSymbolTableRecord
100
AcDbTextStyleTableRecord
  2
高3.2
 70
     0
 40
3.2
 41
1.0
 50
0.0
 71
     0
 42
3.2
  3
txt.shx
  4
bigfont.shx
  0
STYLE
  5
11E
330
3
100
AcDbSymbolTableRecord
100
AcDbTextStyleTableRecord
  2
高6.3
 70
     0
 40
6.299999999999998
 41
1.0
 50
0.0
 71
     0
 42
6.299999999999998
  3
txt.shx
  4
bigfont.shx
  0
STYLE
  5
11F
330
3
100
AcDbSymbolTableRecord
100
AcDbTextStyleTableRecord
  2
高2.5
 70
     0
 40
2.5
 41
1.0
 50
0.0
 71
     0
 42
0.2
  3
txt.shx
  4
bigfont.shx
  0
STYLE
  5
146
330
3
100
AcDbSymbolTableRecord
100
AcDbTextStyleTableRecord
  2
高4.5
 70
     0
 40
4.5
 41
1.0
 50
0.0
 71
     0
 42
6.299999999999998
  3
txt.shx
  4
bigfont.shx
  0
STYLE
  5
171
330
3
100
AcDbSymbolTableRecord
100
AcDbTextStyleTableRecord
  2
高2
 70
     0
 40
2.0
 41
1.0
 50
0.0
 71
     0
 42
6.299999999999998
  3
txt.shx
  4
bigfont.shx
  0
STYLE
  5
119C
330
3
100
AcDbSymbolTableRecord
100
AcDbTextStyleTableRecord
  2

 70
     1
 40
0.0
 41
1.0
 50
0.0
 71
     0
 42
6.299999999999998
  3
ltypeshp.shx
  4

  0
ENDTAB
  0
TABLE
  2
VIEW
  5
6
330
0
100
AcDbSymbolTable
 70
     0
  0
ENDTAB
  0
TABLE
  2
UCS
  5
7
330
0
100
AcDbSymbolTable
 70
     0
  0
ENDTAB
  0
TABLE
  2
APPID
  5
9
330
0
100
AcDbSymbolTable
 70
    10
  0
APPID
  5
12
330
9
100
AcDbSymbolTableRecord
100
AcDbRegAppTableRecord
  2
ACAD
 70
     0
  0
APPID
  5
DC
330
9
100
AcDbSymbolTableRecord
100
AcDbRegAppTableRecord
  2
ACAD_DSTYLE_DIMJOGGED_JOGANGLE_SYMBOL
 70
     0
  0
APPID
  5
3A5
330
9
100
AcDbSymbolTableRecord
100
AcDbRegAppTableRecord
  2
ACAD_EXEMPT_FROM_CAD_STANDARDS
 70
     0
  0
APPID
  5
70D
330
9
100
AcDbSymbolTableRecord
100
AcDbRegAppTableRecord
  2
ACAD_DSTYLE_DIMJAG
 70
     0
  0
APPID
  5
70E
330
9
100
AcDbSymbolTableRecord
100
AcDbRegAppTableRecord
  2
ACAD_DSTYLE_DIMBREAK
 70
     0
  0
APPID
  5
70F
330
9
100
AcDbSymbolTableRecord
100
AcDbRegAppTableRecord
  2
ACAD_DSTYLE_DIMTALN
 70
     0
  0
APPID
  5
11D7
330
9
100
AcDbSymbolTableRecord
100
AcDbRegAppTableRecord
  2
ACAD_PSEXT
 70
     0
  0
APPID
  5
1930
330
9
100
AcDbSymbolTableRecord
100
AcDbRegAppTableRecord
  2
ACAD_DSTYLE_DIMARC_LENGTH_SYMBOL
 70
     0
  0
APPID
  5
1931
330
9
100
AcDbSymbolTableRecord
100
AcDbRegAppTableRecord
  2
ACAD_DSTYLE_DIMEXT_LENGTH
 70
     0
  0
APPID
  5
1946
330
9
100
AcDbSymbolTableRecord
100
AcDbRegAppTableRecord
  2
ACAD_MLEADERVER
 70
     0
  0
ENDTAB
  0
TABLE
  2
DIMSTYLE
  5
A
330
0
100
AcDbSymbolTable
 70
    11
100
AcDbDimStyleTable
 71
     1
340
D9
  0
DIMSTYLE
105
D9
330
A
100
AcDbSymbolTableRecord
100
AcDbDimStyleTableRecord
  2
1：1
 70
     0
 41
2.5
 42
0.25
 43
0.2
 44
1.25
 73
     0
 74
     0
 77
     3
 78
     8
 79
     2
140
3.0
141
0.0
143
0.03937007874016
147
0.625
171
     3
172
     1
178
     4
179
     1
271
     2
272
     2
274
     3
283
     0
284
     8
288
     1
289
     0
340
11
341
C6
342
C6
1001
ACAD_DSTYLE_DIMARC_LENGTH_SYMBOL
1070
   379
1070
     2
1001
ACAD_DSTYLE_DIMEXT_LENGTH
1070
   378
1040
1.25
1001
ACAD_DSTYLE_DIMJOGGED_JOGANGLE_SYMBOL
1070
   384
1040
1.570796326794896
  0
DIMSTYLE
105
C3C
330
A
100
AcDbSymbolTableRecord
100
AcDbDimStyleTableRecord
  2
2：1
 70
     0
 41
2.5
 42
0.25
 43
0.2
 44
1.25
 73
     0
 74
     0
 77
     3
 78
     8
 79
     2
140
3.0
141
0.0
143
0.03937007874016
144
0.5
147
0.625
171
     3
172
     1
178
     4
179
     1
271
     2
272
     2
274
     3
283
     0
284
     8
288
     1
289
     0
340
11
341
C6
342
C6
1001
ACAD_DSTYLE_DIMARC_LENGTH_SYMBOL
1070
   379
1070
     2
1001
ACAD_DSTYLE_DIMEXT_LENGTH
1070
   378
1040
1.25
1001
ACAD_DSTYLE_DIMJOGGED_JOGANGLE_SYMBOL
1070
   384
1040
1.570796326794896
  0
DIMSTYLE
105
C3D
330
A
100
AcDbSymbolTableRecord
100
AcDbDimStyleTableRecord
  2
5：1
 70
     0
 41
2.5
 42
0.25
 43
0.2
 44
1.25
 73
     0
 74
     0
 77
     3
 78
     8
 79
     2
140
3.0
141
0.0
143
0.03937007874016
144
0.2
147
0.625
171
     3
172
     1
178
     4
179
     1
271
     2
272
     2
274
     3
283
     0
284
     8
288
     1
289
     0
340
11
341
C6
342
C6
1001
ACAD_DSTYLE_DIMARC_LENGTH_SYMBOL
1070
   379
1070
     2
1001
ACAD_DSTYLE_DIMEXT_LENGTH
1070
   378
1040
1.25
1001
ACAD_DSTYLE_DIMJOGGED_JOGANGLE_SYMBOL
1070
   384
1040
1.570796326794896
  0
DIMSTYLE
105
C3E
330
A
100
AcDbSymbolTableRecord
100
AcDbDimStyleTableRecord
  2
10：1
 70
     0
 41
2.5
 42
0.25
 43
0.2
 44
1.25
 73
     0
 74
     0
 77
     3
 78
     8
 79
     2
140
3.0
141
0.0
143
0.03937007874016
144
0.1
147
0.625
171
     3
172
     1
178
     4
179
     1
271
     2
272
     2
274
     3
283
     0
284
     8
288
     1
289
     0
340
11
341
C6
342
C6
1001
ACAD_DSTYLE_DIMARC_LENGTH_SYMBOL
1070
   379
1070
     2
1001
ACAD_DSTYLE_DIMEXT_LENGTH
1070
   378
1040
1.25
1001
ACAD_DSTYLE_DIMJOGGED_JOGANGLE_SYMBOL
1070
   384
1040
1.570796326794896
  0
DIMSTYLE
105
C3F
330
A
100
AcDbSymbolTableRecord
100
AcDbDimStyleTableRecord
  2
1／2
 70
     0
 41
2.5
 42
0.25
 43
0.2
 44
1.25
 73
     0
 74
     0
 77
     3
 78
     8
 79
     2
140
3.0
141
0.0
143
0.03937007874016
144
2.0
147
0.625
171
     3
172
     1
178
     4
179
     1
271
     2
272
     2
274
     3
283
     0
284
     8
288
     1
289
     0
340
11
341
C6
342
C6
1001
ACAD_DSTYLE_DIMARC_LENGTH_SYMBOL
1070
   379
1070
     2
1001
ACAD_DSTYLE_DIMEXT_LENGTH
1070
   378
1040
1.25
1001
ACAD_DSTYLE_DIMJOGGED_JOGANGLE_SYMBOL
1070
   384
1040
1.570796326794896
  0
DIMSTYLE
105
C40
330
A
100
AcDbSymbolTableRecord
100
AcDbDimStyleTableRecord
  2
1／5
 70
     0
 41
2.5
 42
0.25
 43
0.2
 44
1.25
 73
     0
 74
     0
 77
     3
 78
     8
 79
     2
140
3.0
141
0.0
143
0.03937007874016
144
5.0
147
0.625
171
     3
172
     1
178
     4
179
     1
271
     2
272
     2
274
     3
283
     0
284
     8
288
     1
289
     0
340
11
341
C6
342
C6
1001
ACAD_DSTYLE_DIMARC_LENGTH_SYMBOL
1070
   379
1070
     2
1001
ACAD_DSTYLE_DIMEXT_LENGTH
1070
   378
1040
1.25
1001
ACAD_DSTYLE_DIMJOGGED_JOGANGLE_SYMBOL
1070
   384
1040
1.570796326794896
  0
DIMSTYLE
105
C41
330
A
100
AcDbSymbolTableRecord
100
AcDbDimStyleTableRecord
  2
1／10
 70
     0
 41
2.5
 42
0.25
 43
0.2
 44
1.25
 73
     0
 74
     0
 77
     3
 78
     8
 79
     2
140
3.0
141
0.0
143
0.03937007874016
144
10.0
147
0.625
171
     3
172
     1
178
     4
179
     1
271
     2
272
     2
274
     3
283
     0
284
     8
288
     1
289
     0
340
11
341
C6
342
C6
1001
ACAD_DSTYLE_DIMARC_LENGTH_SYMBOL
1070
   379
1070
     2
1001
ACAD_DSTYLE_DIMEXT_LENGTH
1070
   378
1040
1.25
1001
ACAD_DSTYLE_DIMJOGGED_JOGANGLE_SYMBOL
1070
   384
1040
1.570796326794896
  0
DIMSTYLE
105
C42
330
A
100
AcDbSymbolTableRecord
100
AcDbDimStyleTableRecord
  2
1／4
 70
     0
 41
2.5
 42
0.25
 43
0.2
 44
1.25
 73
     0
 74
     0
 77
     3
 78
     8
 79
     2
140
3.0
141
0.0
143
0.03937007874016
144
4.0
147
0.625
171
     3
172
     1
178
     4
179
     1
271
     2
272
     2
274
     3
283
     0
284
     8
288
     1
289
     0
340
11
341
C6
342
C6
1001
ACAD_DSTYLE_DIMARC_LENGTH_SYMBOL
1070
   379
1070
     2
1001
ACAD_DSTYLE_DIMEXT_LENGTH
1070
   378
1040
1.25
1001
ACAD_DSTYLE_DIMJOGGED_JOGANGLE_SYMBOL
1070
   384
1040
1.570796326794896
  0
DIMSTYLE
105
C43
330
A
100
AcDbSymbolTableRecord
100
AcDbDimStyleTableRecord
  2
1／3
 70
     0
 41
2.5
 42
0.25
 43
0.2
 44
1.25
 73
     0
 74
     0
 77
     3
 78
     8
 79
     2
140
3.0
141
0.0
143
0.03937007874016
144
3.0
147
0.625
171
     3
172
     1
178
     4
179
     1
271
     2
272
     2
274
     3
283
     0
284
     8
288
     1
289
     0
340
11
341
C6
342
C6
1001
ACAD_DSTYLE_DIMARC_LENGTH_SYMBOL
1070
   379
1070
     2
1001
ACAD_DSTYLE_DIMEXT_LENGTH
1070
   378
1040
1.25
1001
ACAD_DSTYLE_DIMJOGGED_JOGANGLE_SYMBOL
1070
   384
1040
1.570796326794896
  0
DIMSTYLE
105
C44
330
A
100
AcDbSymbolTableRecord
100
AcDbDimStyleTableRecord
  2
FREE
 70
     0
 41
2.5
 42
0.25
 43
0.2
 44
1.25
 73
     0
 74
     0
 77
     3
 78
     8
 79
     2
140
3.0
141
0.0
143
0.03937007874016
147
0.625
171
     3
172
     1
178
     4
179
     1
271
     2
272
     2
274
     3
283
     0
284
     8
288
     1
289
     0
340
11
341
C6
342
C6
1001
ACAD_DSTYLE_DIMBREAK
1070
   391
1040
3.75
1001
ACAD_DSTYLE_DIMJAG
1070
   388
1040
1.5
1001
ACAD_DSTYLE_DIMTALN
1070
   392
1070
     0
1001
ACAD_DSTYLE_DIMARC_LENGTH_SYMBOL
1070
   379
1070
     2
1001
ACAD_DSTYLE_DIMEXT_LENGTH
1070
   378
1040
1.25
1001
ACAD_DSTYLE_DIMJOGGED_JOGANGLE_SYMBOL
1070
   384
1040
1.570796326794896
  0
DIMSTYLE
105
11D6
330
A
100
AcDbSymbolTableRecord
100
AcDbDimStyleTableRecord
  2
Standard
 70
     0
340
11
  0
ENDTAB
  0
TABLE
  2
BLOCK_RECORD
  5
1
330
0
100
AcDbSymbolTable
 70
    16
  0
BLOCK_RECORD
  5
1F
102
{ACAD_XDICTIONARY
360
324
102
}
330
1
100
AcDbSymbolTableRecord
100
AcDbBlockTableRecord
  2
*Model_Space
340
22
  0
BLOCK_RECORD
  5
58
330
1
100
AcDbSymbolTableRecord
100
AcDbBlockTableRecord
  2
*Paper_Space
340
59
  0
BLOCK_RECORD
  5
5D
330
1
100
AcDbSymbolTableRecord
100
AcDbBlockTableRecord
  2
*Paper_Space0
340
5E
  0
BLOCK_RECORD
  5
C6
330
1
100
AcDbSymbolTableRecord
100
AcDbBlockTableRecord
  2
_Open30
340
0
102
{BLKREFS
331
11B7
331
11B8
331
11C3
331
11C4
331
11CF
331
11D0
331
11AB
331
11AC
331
1531
331
1532
331
153A
331
153B
331
1543
331
1544
331
154C
331
154D
331
1B82
331
1B83
331
1B8B
331
1B8C
331
1B94
331
1B95
331
1B9D
331
1B9E
102
}
  0
BLOCK_RECORD
  5
D57
102
{ACAD_XDICTIONARY
360
E25
102
}
330
1
100
AcDbSymbolTableRecord
100
AcDbBlockTableRecord
  2
A$C7A1143B0
340
0
1001
ACAD
1000
DesignCenter Data
1002
{
1070
     1
1070
     1
1002
}
  0
BLOCK_RECORD
  5
10C4
102
{ACAD_XDICTIONARY
360
1191
102
}
330
1
100
AcDbSymbolTableRecord
100
AcDbBlockTableRecord
  2
A$C478E5F75
340
0
1001
ACAD
1000
DesignCenter Data
1002
{
1070
     1
1070
     1
1002
}
  0
BLOCK_RECORD
  5
11A6
330
1
100
AcDbSymbolTableRecord
100
AcDbBlockTableRecord
  2
*D4
340
0
  0
BLOCK_RECORD
  5
11B2
330
1
100
AcDbSymbolTableRecord
100
AcDbBlockTableRecord
  2
*D5
340
0
  0
BLOCK_RECORD
  5
11BE
330
1
100
AcDbSymbolTableRecord
100
AcDbBlockTableRecord
  2
*D6
340
0
  0
BLOCK_RECORD
  5
11CA
330
1
100
AcDbSymbolTableRecord
100
AcDbBlockTableRecord
  2
*D7
340
0
  0
BLOCK_RECORD
  5
14FE
330
1
100
AcDbSymbolTableRecord
100
AcDbBlockTableRecord
  2
*D8
340
0
  0
BLOCK_RECORD
  5
150A
330
1
100
AcDbSymbolTableRecord
100
AcDbBlockTableRecord
  2
*D9
340
0
  0
BLOCK_RECORD
  5
1516
330
1
100
AcDbSymbolTableRecord
100
AcDbBlockTableRecord
  2
*D10
340
0
  0
BLOCK_RECORD
  5
1522
330
1
100
AcDbSymbolTableRecord
100
AcDbBlockTableRecord
  2
*D11
340
0
  0
BLOCK_RECORD
  5
15AD
330
1
100
AcDbSymbolTableRecord
100
AcDbBlockTableRecord
  2
*D12
340
0
  0
BLOCK_RECORD
  5
15B9
330
1
100
AcDbSymbolTableRecord
100
AcDbBlockTableRecord
  2
*D13
340
0
  0
BLOCK_RECORD
  5
15C5
330
1
100
AcDbSymbolTableRecord
100
AcDbBlockTableRecord
  2
*D14
340
0
  0
BLOCK_RECORD
  5
15D1
330
1
100
AcDbSymbolTableRecord
100
AcDbBlockTableRecord
  2
*D15
340
0
  0
ENDTAB
  0
ENDSEC
  0
SECTION
  2
BLOCKS
  0
BLOCK
  5
20
330
1F
100
AcDbEntity
  8
0
100
AcDbBlockBegin
  2
*Model_Space
 70
     0
 10
0.0
 20
0.0
 30
0.0
  3
*Model_Space
  1

  0
ENDBLK
  5
21
330
1F
100
AcDbEntity
  8
0
100
AcDbBlockEnd
  0
BLOCK
  5
5A
330
58
100
AcDbEntity
 67
     1
  8
0
100
AcDbBlockBegin
  2
*Paper_Space
 70
     0
 10
0.0
 20
0.0
 30
0.0
  3
*Paper_Space
  1

  0
ENDBLK
  5
5B
330
58
100
AcDbEntity
 67
     1
  8
0
100
AcDbBlockEnd
  0
BLOCK
  5
5F
330
5D
100
AcDbEntity
 67
     1
  8
0
100
AcDbBlockBegin
  2
*Paper_Space0
 70
     0
 10
0.0
 20
0.0
 30
0.0
  3
*Paper_Space0
  1

  0
ENDBLK
  5
60
330
5D
100
AcDbEntity
 67
     1
  8
0
100
AcDbBlockEnd
  0
BLOCK
  5
C7
330
C6
100
AcDbEntity
  8
0
100
AcDbBlockBegin
  2
_Open30
 70
     0
 10
0.0
 20
0.0
 30
0.0
  3
_Open30
  1

  0
LINE
  5
C8
330
C6
100
AcDbEntity
  8
0
  6
ByBlock
 62
     0
370
    -2
100
AcDbLine
 10
-1.0
 20
0.267949
 30
0.0
 11
0.0
 21
0.0
 31
0.0
  0
LINE
  5
C9
330
C6
100
AcDbEntity
  8
0
  6
ByBlock
 62
     0
370
    -2
100
AcDbLine
 10
0.0
 20
0.0
 30
0.0
 11
-1.0
 21
-0.267949
 31
0.0
  0
LINE
  5
CA
330
C6
100
AcDbEntity
  8
0
  6
ByBlock
 62
     0
370
    -2
100
AcDbLine
 10
0.0
 20
0.0
 30
0.0
 11
-1.0
 21
0.0
 31
0.0
  0
ENDBLK
  5
CB
330
C6
100
AcDbEntity
  8
0
100
AcDbBlockEnd
  0
BLOCK
  5
E27
330
D57
100
AcDbEntity
  8
0
100
AcDbBlockBegin
  2
A$C7A1143B0
 70
     0
 10
0.0
 20
0.0
 30
0.0
  3
A$C7A1143B0
  1

  0
LINE
  5
D58
330
D57
100
AcDbEntity
  8
0
 62
     3
100
AcDbLine
 10
20.00000057328668
 20
283.9999999862201
 30
0.0
 11
20.00000057328668
 21
9.99999998622016
 31
0.0
  0
LINE
  5
D59
330
D57
100
AcDbEntity
  8
0
 62
     3
100
AcDbLine
 10
410.0000005732868
 20
9.99999998622016
 30
0.0
 11
410.0000005732868
 21
283.9999999862201
 31
0.0
  0
LINE
  5
D5A
330
D57
100
AcDbEntity
  8
0
 62
     3
100
AcDbLine
 10
20.00000057328668
 20
9.99999998622016
 30
0.0
 11
410.0000005732868
 21
9.99999998622016
 31
0.0
  0
LINE
  5
D5B
330
D57
100
AcDbEntity
  8
0
 62
     3
100
AcDbLine
 10
197.7748900432866
 20
286.4400021262202
 30
0.0
 11
198.3973870532866
 21
286.1150476462201
 31
0.0
  0
LINE
  5
D5C
330
D57
100
AcDbEntity
  8
0
 62
     3
100
AcDbLine
 10
197.7748900432866
 20
281.1105300262201
 30
0.0
 11
198.3973870532866
 21
281.4354845062202
 31
0.0
  0
LINE
  5
D5D
330
D57
100
AcDbEntity
  8
0
 62
     3
100
AcDbLine
 10
198.3973870532866
 20
286.1150476462201
 30
0.0
 11
198.3973870532866
 21
281.4354845062202
 31
0.0
  0
LINE
  5
D5E
330
D57
100
AcDbEntity
  8
0
 62
     3
100
AcDbLine
 10
199.9738405132866
 20
281.1105300262201
 30
0.0
 11
199.3513435032865
 21
281.4354845062202
 31
0.0
  0
LINE
  5
D5F
330
D57
100
AcDbEntity
  8
0
 62
     3
100
AcDbLine
 10
199.3513435032865
 20
284.2881399562201
 30
0.0
 11
199.3513435032865
 21
281.4354845062202
 31
0.0
  0
LINE
  5
D60
330
D57
100
AcDbEntity
  8
0
 62
     3
100
AcDbLine
 10
203.6050730532868
 20
286.4400021262202
 30
0.0
 11
202.9825760532867
 21
286.1150476462201
 31
0.0
  0
LINE
  5
D61
330
D57
100
AcDbEntity
  8
0
 62
     3
100
AcDbLine
 10
201.4061225832868
 20
286.4400021262202
 30
0.0
 11
202.0286195932868
 21
286.1150476462201
 31
0.0
  0
LINE
  5
D62
330
D57
100
AcDbEntity
  8
0
 62
     3
100
AcDbLine
 10
202.0286195932868
 20
286.1150476462201
 30
0.0
 11
202.0286195932868
 21
284.0545661262201
 31
0.0
  0
LINE
  5
D63
330
D57
100
AcDbEntity
  8
0
 62
     3
100
AcDbLine
 10
202.9825760532867
 20
286.1150476462201
 30
0.0
 11
202.9825760532867
 21
280.8082998162202
 31
0.0
  0
LINE
  5
D64
330
D57
100
AcDbEntity
  8
0
 62
     3
100
AcDbLine
 10
203.9126404932868
 20
286.4399983762202
 30
0.0
 11
204.5351352532866
 21
286.1150396062202
 31
0.0
  0
LINE
  5
D65
330
D57
100
AcDbEntity
  8
0
 62
     3
100
AcDbLine
 10
203.9125291032867
 20
281.1106014162201
 30
0.0
 11
204.5350374532866
 21
281.4355341662201
 31
0.0
  0
LINE
  5
D66
330
D57
100
AcDbEntity
  8
0
 62
     3
100
AcDbLine
 10
204.5351352532866
 20
286.1150396062202
 30
0.0
 11
204.5351352532866
 21
281.4355341662201
 31
0.0
  0
LINE
  5
D67
330
D57
100
AcDbEntity
  8
0
 62
     3
100
AcDbLine
 10
206.6691210532868
 20
286.4399645562201
 30
0.0
 11
206.0466194932867
 21
286.1150187962202
 31
0.0
  0
LINE
  5
D68
330
D57
100
AcDbEntity
  8
0
 62
     3
100
AcDbLine
 10
206.0466194932867
 20
286.1150187962202
 30
0.0
 11
206.0466194932867
 21
281.4355133562201
 31
0.0
  0
LINE
  5
D69
330
D57
100
AcDbEntity
  8
0
 62
     3
100
AcDbLine
 10
206.6691210532868
 20
281.1105675962201
 30
0.0
 11
206.0466194932867
 21
281.4355133562201
 31
0.0
  0
LINE
  5
D6A
330
D57
100
AcDbEntity
  8
0
 62
     3
100
AcDbLine
 10
211.9409116832867
 20
286.4399059862202
 30
0.0
 11
212.5634075632868
 21
286.1149493662201
 31
0.0
  0
LINE
  5
D6B
330
D57
100
AcDbEntity
  8
0
 62
     3
100
AcDbLine
 10
212.5634075632868
 20
286.1149493662201
 30
0.0
 11
212.5633258932867
 21
281.4354439162201
 31
0.0
  0
LINE
  5
D6C
330
D57
100
AcDbEntity
  8
0
 62
     3
100
AcDbLine
 10
211.9408186632866
 20
281.1105090262202
 30
0.0
 11
212.5633258932867
 21
281.4354439162201
 31
0.0
  0
LINE
  5
D6D
330
D57
100
AcDbEntity
  8
0
 62
     3
100
AcDbLine
 10
214.7298559232865
 20
286.4399059862202
 30
0.0
 11
214.1073600332868
 21
286.1149493662201
 31
0.0
  0
LINE
  5
D6E
330
D57
100
AcDbEntity
  8
0
 62
     3
100
AcDbLine
 10
214.7299489332866
 20
281.1105090262202
 30
0.0
 11
214.1074417032867
 21
281.4354439162201
 31
0.0
  0
LINE
  5
D6F
330
D57
100
AcDbEntity
  8
0
 62
     3
100
AcDbLine
 10
215.0208957232867
 20
286.4399059862202
 30
0.0
 11
215.6433916032868
 21
286.1149493662201
 31
0.0
  0
LINE
  5
D70
330
D57
100
AcDbEntity
  8
0
 62
     3
100
AcDbLine
 10
215.0208027032866
 20
281.1105090262202
 30
0.0
 11
215.6433099332867
 21
281.4354439162201
 31
0.0
  0
LINE
  5
D71
330
D57
100
AcDbEntity
  8
0
 62
     3
100
AcDbLine
 10
217.8098399532867
 20
286.4399059862202
 30
0.0
 11
217.1873440732868
 21
286.1149493662201
 31
0.0
  0
LINE
  5
D72
330
D57
100
AcDbEntity
  8
0
 62
     3
100
AcDbLine
 10
217.1873440732868
 20
286.1149493662201
 30
0.0
 11
217.1874257432867
 21
281.4354439162201
 31
0.0
  0
LINE
  5
D73
330
D57
100
AcDbEntity
  8
0
 62
     3
100
AcDbLine
 10
217.8099329732865
 20
281.1105090262202
 30
0.0
 11
217.1874257432867
 21
281.4354439162201
 31
0.0
  0
LINE
  5
D74
330
D57
100
AcDbEntity
  8
0
 62
     3
100
AcDbLine
 10
215.6433560232867
 20
284.0761877662202
 30
0.0
 11
214.1073956132866
 21
284.0761877662202
 31
0.0
  0
LINE
  5
D75
330
D57
100
AcDbEntity
  8
0
 62
     3
100
AcDbLine
 10
215.6433455232866
 20
283.4743443862201
 30
0.0
 11
214.1074061132867
 21
283.4743443862201
 31
0.0
  0
LINE
  5
D76
330
D57
100
AcDbEntity
  8
0
 62
     3
100
AcDbLine
 10
215.6433916032868
 20
286.1149493662201
 30
0.0
 11
215.6433560232867
 21
284.0761877662202
 31
0.0
  0
LINE
  5
D77
330
D57
100
AcDbEntity
  8
0
 62
     3
100
AcDbLine
 10
215.6433455232866
 20
283.4743443862201
 30
0.0
 11
215.6433099332867
 21
281.4354439162201
 31
0.0
  0
LINE
  5
D78
330
D57
100
AcDbEntity
  8
0
 62
     3
100
AcDbLine
 10
214.1073600332868
 20
286.1149493662201
 30
0.0
 11
214.1073956132866
 21
284.0761877662202
 31
0.0
  0
LINE
  5
D79
330
D57
100
AcDbEntity
  8
0
 62
     3
100
AcDbLine
 10
214.1074061132867
 20
283.4743443862201
 30
0.0
 11
214.1074417032867
 21
281.4354439162201
 31
0.0
  0
LINE
  5
D7A
330
D57
100
AcDbEntity
  8
0
 62
     3
100
AcDbLine
 10
218.1054958432867
 20
286.4399059862202
 30
0.0
 11
218.7279917332867
 21
286.1149493662201
 31
0.0
  0
LINE
  5
D7B
330
D57
100
AcDbEntity
  8
0
 62
     3
100
AcDbLine
 10
218.7279917332867
 20
286.1149493662201
 30
0.0
 11
218.7279100532867
 21
281.4354439162201
 31
0.0
  0
LINE
  5
D7C
330
D57
100
AcDbEntity
  8
0
 62
     3
100
AcDbLine
 10
218.1054028232868
 20
281.1105090262202
 30
0.0
 11
218.7279100532867
 21
281.4354439162201
 31
0.0
  0
LINE
  5
D7D
330
D57
100
AcDbEntity
  8
0
 62
     3
100
AcDbLine
 10
220.8619390832867
 20
286.4399059862202
 30
0.0
 11
220.2394431932867
 21
286.1149493662201
 31
0.0
  0
LINE
  5
D7E
330
D57
100
AcDbEntity
  8
0
 62
     3
100
AcDbLine
 10
220.2394431932867
 20
286.1149493662201
 30
0.0
 11
220.2395248732866
 21
281.4354439162201
 31
0.0
  0
LINE
  5
D7F
330
D57
100
AcDbEntity
  8
0
 62
     3
100
AcDbLine
 10
220.8620321032865
 20
281.1105090262202
 30
0.0
 11
220.2395248732866
 21
281.4354439162201
 31
0.0
  0
LINE
  5
D80
330
D57
100
AcDbEntity
  8
0
 62
     3
100
AcDbLine
 10
221.1681670332867
 20
286.4399059862202
 30
0.0
 11
221.7906629232866
 21
286.1149493662201
 31
0.0
  0
LINE
  5
D81
330
D57
100
AcDbEntity
  8
0
 62
     3
100
AcDbLine
 10
221.7906629232866
 20
286.1149493662201
 30
0.0
 11
221.7905812532869
 21
281.4354439162201
 31
0.0
  0
LINE
  5
D82
330
D57
100
AcDbEntity
  8
0
 62
     3
100
AcDbLine
 10
221.1680740232866
 20
281.1105090262202
 30
0.0
 11
221.7905812532869
 21
281.4354439162201
 31
0.0
  0
ARC
  5
D83
330
D57
100
AcDbEntity
  8
0
 62
     3
100
AcDbCircle
 10
209.9524670132867
 20
283.7886800162202
 30
0.0
 40
2.98040844
100
AcDbArc
 50
97.70152351000378
 51
270.0
  0
ARC
  5
D84
330
D57
100
AcDbEntity
  8
0
 62
     3
100
AcDbCircle
 10
228.3533253532866
 20
283.7587419762201
 30
0.0
 40
3.012776259999998
100
AcDbArc
 50
0.3142502699992948
 51
69.00558244999621
  0
ARC
  5
D85
330
D57
100
AcDbEntity
  8
0
 62
     3
100
AcDbCircle
 10
229.0114329632868
 20
283.7587419762201
 30
0.0
 40
3.012776259999998
100
AcDbArc
 50
110.9944175500038
 51
148.1166110200028
  0
ARC
  5
D86
330
D57
100
AcDbEntity
  8
0
 62
     3
100
AcDbCircle
 10
228.3533253532866
 20
283.7917901762202
 30
0.0
 40
3.012776259999998
100
AcDbArc
 50
290.9944175500038
 51
359.6857497300007
  0
ARC
  5
D87
330
D57
100
AcDbEntity
  8
0
 62
     3
100
AcDbCircle
 10
229.0114329632868
 20
283.7917901762202
 30
0.0
 40
3.012776259999998
100
AcDbArc
 50
211.8833889799972
 51
249.0055824499962
  0
ARC
  5
D88
330
D57
100
AcDbEntity
  8
0
 62
     3
100
AcDbCircle
 10
228.6823791632867
 20
285.0078452062202
 30
0.0
 40
1.73438712
100
AcDbArc
 50
64.3651718999996
 51
115.6348281000004
  0
ARC
  5
D89
330
D57
100
AcDbEntity
  8
0
 62
     3
100
AcDbCircle
 10
228.6823791632867
 20
282.5426869462202
 30
0.0
 40
1.73438712
100
AcDbArc
 50
244.3651718999996
 51
295.6348281000004
  0
ARC
  5
D8A
330
D57
100
AcDbEntity
  8
0
 62
     3
100
AcDbCircle
 10
228.6823791632867
 20
285.0407904662201
 30
0.0
 40
0.85122233
100
AcDbArc
 50
19.48660554000209
 51
160.5133944599979
  0
ARC
  5
D8B
330
D57
100
AcDbEntity
  8
0
 62
     3
100
AcDbCircle
 10
228.6823791632867
 20
282.5426869462202
 30
0.0
 40
1.73438712
100
AcDbArc
 50
244.3651718999996
 51
295.6348281000004
  0
ARC
  5
D8C
330
D57
100
AcDbEntity
  8
0
 62
     3
100
AcDbCircle
 10
228.6823791632867
 20
282.5097416862202
 30
0.0
 40
0.85122233
100
AcDbArc
 50
199.4866055400021
 51
340.5133944599979
  0
ARC
  5
D8D
330
D57
100
AcDbEntity
  8
0
 62
     3
100
AcDbCircle
 10
221.9074184432868
 20
252.0208948762201
 30
0.0
 40
37.20000000000001
100
AcDbArc
 50
69.50571480000154
 51
81.68998807000397
  0
ARC
  5
D8E
330
D57
100
AcDbEntity
  8
0
 62
     3
100
AcDbCircle
 10
221.9074184432868
 20
315.5296372762201
 30
0.0
 40
37.20000000000001
100
AcDbArc
 50
278.3100119299961
 51
290.4942851999985
  0
ARC
  5
D8F
330
D57
100
AcDbEntity
  8
0
 62
     3
100
AcDbCircle
 10
233.7762814832865
 20
283.7752660762201
 30
0.0
 40
3.299999999999998
100
AcDbArc
 50
290.4942851999985
 51
69.50571480000154
  0
ARC
  5
D90
330
D57
100
AcDbEntity
  8
0
 62
     3
100
AcDbCircle
 10
194.7762814832865
 20
283.7752660762201
 30
0.0
 40
3.299999999999998
100
AcDbArc
 50
110.4942851999985
 51
249.5057148000015
  0
ARC
  5
D91
330
D57
100
AcDbEntity
  8
0
 62
     3
100
AcDbCircle
 10
206.6451445132868
 20
252.0208948762201
 30
0.0
 40
37.20000000000001
100
AcDbArc
 50
98.31001192999607
 51
110.4942851999985
  0
ARC
  5
D92
330
D57
100
AcDbEntity
  8
0
 62
     3
100
AcDbCircle
 10
206.6451445132868
 20
315.5296372762201
 30
0.0
 40
37.20000000000001
100
AcDbArc
 50
249.5057148000015
 51
261.6899880699973
  0
ARC
  5
D93
330
D57
100
AcDbEntity
  8
0
 62
     3
100
AcDbCircle
 10
214.2762814832865
 20
199.7752660762201
 30
0.0
 40
89.99999981
100
AcDbArc
 50
81.68998807000397
 51
98.31001192999607
  0
ARC
  5
D94
330
D57
100
AcDbEntity
  8
0
 62
     3
100
AcDbCircle
 10
214.2762814832865
 20
367.7752660762201
 30
0.0
 40
89.99999981
100
AcDbArc
 50
261.6899880699973
 51
278.3100119299961
  0
ARC
  5
D95
330
D57
100
AcDbEntity
  8
0
 62
     3
100
AcDbCircle
 10
214.2762814832865
 20
199.7752660762201
 30
0.0
 40
89.09999981
100
AcDbArc
 50
81.68998807000397
 51
98.31001192999607
  0
ARC
  5
D96
330
D57
100
AcDbEntity
  8
0
 62
     3
100
AcDbCircle
 10
214.2762814832865
 20
367.7752660762201
 30
0.0
 40
89.09999981
100
AcDbArc
 50
261.6899880699973
 51
278.3100119299961
  0
ARC
  5
D97
330
D57
100
AcDbEntity
  8
0
 62
     3
100
AcDbCircle
 10
221.9074184432868
 20
315.5296372762201
 30
0.0
 40
36.3
100
AcDbArc
 50
278.3100119299961
 51
290.4942851999985
  0
ARC
  5
D98
330
D57
100
AcDbEntity
  8
0
 62
     3
100
AcDbCircle
 10
221.9074184432868
 20
252.0208948762201
 30
0.0
 40
36.3
100
AcDbArc
 50
69.50571480000154
 51
81.68998807000397
  0
ARC
  5
D99
330
D57
100
AcDbEntity
  8
0
 62
     3
100
AcDbCircle
 10
233.7762814832865
 20
283.7752660762201
 30
0.0
 40
2.399999999999999
100
AcDbArc
 50
290.4942851999985
 51
69.50571480000154
  0
ARC
  5
D9A
330
D57
100
AcDbEntity
  8
0
 62
     3
100
AcDbCircle
 10
194.7762814832865
 20
283.7752660762201
 30
0.0
 40
2.399999999999999
100
AcDbArc
 50
110.4942851999985
 51
249.5057148000015
  0
ARC
  5
D9B
330
D57
100
AcDbEntity
  8
0
 62
     3
100
AcDbCircle
 10
206.6451445132868
 20
252.0208948762201
 30
0.0
 40
36.3
100
AcDbArc
 50
98.31001192999607
 51
110.4942851999985
  0
ARC
  5
D9C
330
D57
100
AcDbEntity
  8
0
 62
     3
100
AcDbCircle
 10
206.6451445132868
 20
315.5296372762201
 30
0.0
 40
36.3
100
AcDbArc
 50
249.5057148000015
 51
261.6899880699973
  0
LINE
  5
D9D
330
D57
100
AcDbEntity
  8
0
 62
     3
100
AcDbLine
 10
220.8619402032866
 20
280.8082998162202
 30
0.0
 11
218.1054947232867
 21
280.8082998162202
 31
0.0
  0
LINE
  5
D9E
330
D57
100
AcDbEntity
  8
0
 62
     3
100
AcDbLine
 10
220.8619402032866
 20
281.1105300262201
 30
0.0
 11
220.8619402032866
 21
280.8082998162202
 31
0.0
  0
LINE
  5
D9F
330
D57
100
AcDbEntity
  8
0
 62
     3
100
AcDbLine
 10
217.8098410732866
 20
286.7420913062201
 30
0.0
 11
215.0208946032867
 21
286.7420913062201
 31
0.0
  0
LINE
  5
DA0
330
D57
100
AcDbEntity
  8
0
 62
     3
100
AcDbLine
 10
217.8098410732866
 20
286.7420913062201
 30
0.0
 11
217.8098410732866
 21
286.4400021262202
 31
0.0
  0
LINE
  5
DA1
330
D57
100
AcDbEntity
  8
0
 62
     3
100
AcDbLine
 10
217.8098410732866
 20
281.1105300262201
 30
0.0
 11
217.8098410732866
 21
280.8081587962202
 31
0.0
  0
LINE
  5
DA2
330
D57
100
AcDbEntity
  8
0
 62
     3
100
AcDbLine
 10
217.8098410732866
 20
280.8081587962202
 30
0.0
 11
215.0208946032867
 21
280.8081587962202
 31
0.0
  0
LINE
  5
DA3
330
D57
100
AcDbEntity
  8
0
 62
     3
100
AcDbLine
 10
220.8619402032866
 20
286.7422323362201
 30
0.0
 11
220.8619402032866
 21
286.4400021262202
 31
0.0
  0
LINE
  5
DA4
330
D57
100
AcDbEntity
  8
0
 62
     3
100
AcDbLine
 10
220.8619402032866
 20
286.7422323362201
 30
0.0
 11
218.1054947232867
 21
286.7422323362201
 31
0.0
  0
LINE
  5
DA5
330
D57
100
AcDbEntity
  8
0
 62
     3
100
AcDbLine
 10
218.1054947232867
 20
286.7422323362201
 30
0.0
 11
218.1054947232867
 21
286.4400021262202
 31
0.0
  0
LINE
  5
DA6
330
D57
100
AcDbEntity
  8
0
 62
     3
100
AcDbLine
 10
221.1681659132866
 20
281.1105300262201
 30
0.0
 11
221.1681659132866
 21
280.8082998162202
 31
0.0
  0
LINE
  5
DA7
330
D57
100
AcDbEntity
  8
0
 62
     3
100
AcDbLine
 10
224.0028810032866
 20
280.8082998162202
 30
0.0
 11
221.1681659132866
 21
280.8082998162202
 31
0.0
  0
LINE
  5
DA8
330
D57
100
AcDbEntity
  8
0
 62
     3
100
AcDbLine
 10
223.3021143932867
 20
285.7882758762201
 30
0.0
 11
223.3021143932867
 21
281.7622562762201
 31
0.0
  0
LINE
  5
DA9
330
D57
100
AcDbEntity
  8
0
 62
     3
100
AcDbLine
 10
223.3021143932867
 20
281.7622562762201
 30
0.0
 11
223.5736129132868
 21
281.7622562762201
 31
0.0
  0
ARC
  5
DAA
330
D57
100
AcDbEntity
  8
0
 62
     3
100
AcDbCircle
 10
222.1853475732867
 20
283.7752660762201
 30
0.0
 40
2.44529939
100
AcDbArc
 50
304.5919552699948
 51
55.40804473000515
  0
LINE
  5
DAB
330
D57
100
AcDbEntity
  8
0
 62
     3
100
AcDbLine
 10
224.0028810032866
 20
286.7422323362201
 30
0.0
 11
221.1681659132866
 21
286.7422323362201
 31
0.0
  0
LINE
  5
DAC
330
D57
100
AcDbEntity
  8
0
 62
     3
100
AcDbLine
 10
221.1681659132866
 20
286.7422323362201
 30
0.0
 11
221.1681659132866
 21
286.4400021262202
 31
0.0
  0
LINE
  5
DAD
330
D57
100
AcDbEntity
  8
0
 62
     3
100
AcDbLine
 10
218.1054947232867
 20
281.1105300262201
 30
0.0
 11
218.1054947232867
 21
280.8082998162202
 31
0.0
  0
LINE
  5
DAE
330
D57
100
AcDbEntity
  8
0
 62
     3
100
AcDbLine
 10
223.3021143932867
 20
285.7882758762201
 30
0.0
 11
223.5736129132868
 21
285.7882758762201
 31
0.0
  0
LINE
  5
DAF
330
D57
100
AcDbEntity
  8
0
 62
     3
100
AcDbLine
 10
206.6690291532866
 20
281.1105300262201
 30
0.0
 11
206.6690238832866
 21
280.8082715762201
 31
0.0
  0
LINE
  5
DB0
330
D57
100
AcDbEntity
  8
0
 62
     3
100
AcDbLine
 10
203.9125784032867
 20
280.8083280662202
 30
0.0
 11
206.6690238832866
 21
280.8082799562201
 31
0.0
  0
LINE
  5
DB1
330
D57
100
AcDbEntity
  8
0
 62
     3
100
AcDbLine
 10
197.7748900432866
 20
280.8082998162202
 30
0.0
 11
199.9738405132866
 21
280.8082998162202
 31
0.0
  0
ARC
  5
DB2
330
D57
100
AcDbEntity
  8
0
 62
     3
100
AcDbCircle
 10
190.6578290732866
 20
283.8451326862202
 30
0.0
 40
21.01937947
100
AcDbArc
 50
353.8660061899995
 51
357.6940342600001
  0
LINE
  5
DB3
330
D57
100
AcDbEntity
  8
0
 62
     3
100
AcDbLine
 10
210.2529431632868
 20
283.0046074662202
 30
0.0
 11
211.6601872832866
 21
282.9994004962201
 31
0.0
  0
LWPOLYLINE
  5
DB4
330
D57
100
AcDbEntity
  8
0
 62
     3
100
AcDbPolyline
 90
       64
 70
     0
 43
0.0
 10
210.2586266132866
 20
284.5406285262201
 10
210.2320158632867
 20
284.7110110462202
 10
210.2000570332868
 20
284.8741607362201
 10
210.1629971332866
 20
285.0288165362201
 10
210.1211226332866
 20
285.1737830362201
 10
210.0747572032867
 20
285.3079397262202
 10
210.0242592132866
 20
285.4302496262201
 10
209.9700189932867
 20
285.5397673662201
 10
209.9124557932867
 20
285.6356464162201
 10
209.8520145432867
 20
285.71714568622
 10
209.7891624232868
 20
285.7836352262201
 10
209.7243852432866
 20
285.8346011062201
 10
209.6581837132867
 20
285.8696493862201
 10
209.5910695232867
 20
285.8885091562202
 10
209.5235614332866
 20
285.8910346562201
 10
209.4561812432867
 20
285.8772063462201
 10
209.3894497732867
 20
285.8471311162201
 10
209.3238828332867
 20
285.8010414462201
 10
209.2599871932866
 20
285.7392935662201
 10
209.1982567632868
 20
285.6623647762202
 10
209.1391686732866
 20
285.5708496762202
 10
209.0831796432867
 20
285.4654556462201
 10
209.0307224432865
 20
285.3469973162201
 10
208.9822025432866
 20
285.2163903062201
 10
208.9379949632867
 20
285.0746441562201
 10
208.8984414232866
 20
284.9228544862201
 10
208.8638476432868
 20
284.7621945462202
 10
208.8344810132867
 20
284.5939061562201
 10
208.8105685232867
 20
284.4192900962202
 10
208.7922950132868
 20
284.2396960662202
 10
208.7798017132866
 20
284.0565122262201
 10
208.7731852032866
 20
283.8711545062201
 10
208.7724966132867
 20
283.6850556062202
 10
208.7777412732866
 20
283.4996539962201
 10
208.7888786432866
 20
283.3163827262201
 10
208.8058226432865
 20
283.1366583862201
 10
208.8284422932868
 20
282.9618701562201
 10
208.8565627632868
 20
282.7933690562202
 10
208.8899666932866
 20
282.6324575162201
 10
208.9283958932867
 20
282.4803792962201
 10
208.9715533132867
 20
282.3383098862201
 10
209.0191053832866
 20
282.2073474062202
 10
209.0706845332868
 20
282.0885041262202
 10
209.1258921032866
 20
281.9826986562201
 10
209.1843013532866
 20
281.8907487962201
 10
209.2454608132866
 20
281.8133652962201
 10
209.3088977532868
 20
281.7511462762201
 10
209.3741218332868
 20
281.7045726662201
 10
209.4406289132867
 20
281.6740044362201
 10
209.5079049232865
 20
281.6596778862201
 10
209.5754298532868
 20
281.6617037462202
 10
209.6426817732865
 20
281.6800663462201
 10
209.7091408532867
 20
281.7146237662202
 10
209.7742934132866
 20
281.7651088962201
 10
209.8376358432868
 20
281.8311314962201
 10
209.8986785432867
 20
281.9121812562201
 10
209.9569496832867
 20
282.0076317062202
 10
210.0119988632866
 20
282.1167450662201
 10
210.0634005832867
 20
282.2386779262201
 10
210.1107575232866
 20
282.3724878362201
 10
210.1537036432867
 20
282.5171404862201
 10
210.1919069932867
 20
282.6715178062201
 10
210.2250722832866
 20
282.8344265362201
 10
210.2529431632868
 20
283.0046074662202
  0
LINE
  5
DB5
330
D57
100
AcDbEntity
  8
0
 62
     3
100
AcDbLine
 10
210.2586266132866
 20
284.5406285262201
 30
0.0
 11
211.6658707332867
 21
284.5354215562202
 31
0.0
  0
ARC
  5
DB6
330
D57
100
AcDbEntity
  8
0
 62
     3
100
AcDbCircle
 10
190.6578290732866
 20
283.8451326862202
 30
0.0
 40
21.01937947
100
AcDbArc
 50
1.881965739999571
 51
5.709993809999575
  0
LINE
  5
DB7
330
D57
100
AcDbEntity
  8
0
 62
     3
100
AcDbLine
 10
206.6691274432867
 20
286.7422040862201
 30
0.0
 11
206.6691221732867
 21
286.4400021262202
 31
0.0
  0
LINE
  5
DB8
330
D57
100
AcDbEntity
  8
0
 62
     3
100
AcDbLine
 10
203.9126819632868
 20
286.7422605762201
 30
0.0
 11
206.6691274432867
 21
286.7422124662202
 31
0.0
  0
LINE
  5
DB9
330
D57
100
AcDbEntity
  8
0
 62
     3
100
AcDbLine
 10
203.9125836732867
 20
281.1105300262201
 30
0.0
 11
203.9125784032867
 21
280.8083280662202
 31
0.0
  0
LINE
  5
DBA
330
D57
100
AcDbEntity
  8
0
 62
     3
100
AcDbLine
 10
203.9126819632868
 20
286.7422605762201
 30
0.0
 11
203.9126766932866
 21
286.4400021262202
 31
0.0
  0
LINE
  5
DBB
330
D57
100
AcDbEntity
  8
0
 62
     3
100
AcDbLine
 10
199.9738405132866
 20
281.1105300262201
 30
0.0
 11
199.9738405132866
 21
280.8082998162202
 31
0.0
  0
LINE
  5
DBC
330
D57
100
AcDbEntity
  8
0
 62
     3
100
AcDbLine
 10
199.3513435032865
 20
284.2881399562201
 30
0.0
 11
201.5262435832867
 21
280.8082998162202
 31
0.0
  0
LINE
  5
DBD
330
D57
100
AcDbEntity
  8
0
 62
     3
100
AcDbLine
 10
201.5262435832867
 20
280.8082998162202
 30
0.0
 11
202.9825760532867
 21
280.8082998162202
 31
0.0
  0
LINE
  5
DBE
330
D57
100
AcDbEntity
  8
0
 62
     3
100
AcDbLine
 10
203.6050730532868
 20
286.7422323362201
 30
0.0
 11
203.6050730532868
 21
286.4400021262202
 31
0.0
  0
LINE
  5
DBF
330
D57
100
AcDbEntity
  8
0
 62
     3
100
AcDbLine
 10
201.4061225832868
 20
286.7422323362201
 30
0.0
 11
203.6050730532868
 21
286.7422323362201
 31
0.0
  0
LINE
  5
DC0
330
D57
100
AcDbEntity
  8
0
 62
     3
100
AcDbLine
 10
201.4061225832868
 20
286.7422323362201
 30
0.0
 11
201.4061225832868
 21
286.4400021262202
 31
0.0
  0
LINE
  5
DC1
330
D57
100
AcDbEntity
  8
0
 62
     3
100
AcDbLine
 10
202.0286195932868
 20
284.0545661262201
 30
0.0
 11
200.2648386532867
 21
286.7422323362201
 31
0.0
  0
LINE
  5
DC2
330
D57
100
AcDbEntity
  8
0
 62
     3
100
AcDbLine
 10
197.7748900432866
 20
286.7422323362201
 30
0.0
 11
200.2648386532867
 21
286.7422323362201
 31
0.0
  0
LINE
  5
DC3
330
D57
100
AcDbEntity
  8
0
 62
     3
100
AcDbLine
 10
211.9409105632867
 20
286.7420913062201
 30
0.0
 11
214.7298570432865
 21
286.7420913062201
 31
0.0
  0
LINE
  5
DC4
330
D57
100
AcDbEntity
  8
0
 62
     3
100
AcDbLine
 10
211.9409105632867
 20
286.4400021262202
 30
0.0
 11
211.9409105632867
 21
286.7420913062201
 31
0.0
  0
LINE
  5
DC5
330
D57
100
AcDbEntity
  8
0
 62
     3
100
AcDbLine
 10
211.9409105632867
 20
280.8081587962202
 30
0.0
 11
211.9409105632867
 21
281.1105300262201
 31
0.0
  0
LINE
  5
DC6
330
D57
100
AcDbEntity
  8
0
 62
     3
100
AcDbLine
 10
211.9409105632867
 20
280.8081587962202
 30
0.0
 11
214.7298570432865
 21
280.8081587962202
 31
0.0
  0
LINE
  5
DC7
330
D57
100
AcDbEntity
  8
0
 62
     3
100
AcDbLine
 10
215.0208946032867
 20
281.1105300262201
 30
0.0
 11
215.0208946032867
 21
280.8081587962202
 31
0.0
  0
LINE
  5
DC8
330
D57
100
AcDbEntity
  8
0
 62
     3
100
AcDbLine
 10
214.7298570432865
 20
281.1105300262201
 30
0.0
 11
214.7298570432865
 21
280.8081587962202
 31
0.0
  0
LINE
  5
DC9
330
D57
100
AcDbEntity
  8
0
 62
     3
100
AcDbLine
 10
214.7298570432865
 20
286.4400021262202
 30
0.0
 11
214.7298570432865
 21
286.7420913062201
 31
0.0
  0
LINE
  5
DCA
330
D57
100
AcDbEntity
  8
0
 62
     3
100
AcDbLine
 10
215.0208946032867
 20
286.4400021262202
 30
0.0
 11
215.0208946032867
 21
286.7420913062201
 31
0.0
  0
LINE
  5
DCB
330
D57
100
AcDbEntity
  8
0
 62
     3
100
AcDbLine
 10
197.7748900432866
 20
281.1105300262201
 30
0.0
 11
197.7748900432866
 21
280.8082998162202
 31
0.0
  0
LINE
  5
DCC
330
D57
100
AcDbEntity
  8
0
 62
     3
100
AcDbLine
 10
197.7748900432866
 20
286.7422323362201
 30
0.0
 11
197.7748900432866
 21
286.4400021262202
 31
0.0
  0
ARC
  5
DCD
330
D57
100
AcDbEntity
  8
0
 62
     3
100
AcDbCircle
 10
224.3028810032868
 20
284.3977630862202
 30
0.0
 40
2.344469249999999
100
AcDbArc
 50
17.30874897999993
 51
23.76507095999782
  0
ARC
  5
DCE
330
D57
100
AcDbEntity
  8
0
 62
     3
100
AcDbCircle
 10
222.3053475732866
 20
283.7752660762201
 30
0.0
 40
4.43675086
100
AcDbArc
 50
342.6912510200001
 51
17.30856644000161
  0
ARC
  5
DCF
330
D57
100
AcDbEntity
  8
0
 62
     3
100
AcDbCircle
 10
224.3028810032868
 20
283.1527690662201
 30
0.0
 40
2.344469249999999
100
AcDbArc
 50
336.2349290399969
 51
342.6912510200001
  0
ARC
  5
DD0
330
D57
100
AcDbEntity
  8
0
 62
     3
100
AcDbCircle
 10
224.0028810032866
 20
284.3977630862202
 30
0.0
 40
2.344469249999999
100
AcDbArc
 50
17.30874897999993
 51
90.0
  0
ARC
  5
DD1
330
D57
100
AcDbEntity
  8
0
 62
     3
100
AcDbCircle
 10
222.0053475732868
 20
283.7752660762201
 30
0.0
 40
4.43675086
100
AcDbArc
 50
342.6912510200001
 51
17.30856644000161
  0
ARC
  5
DD2
330
D57
100
AcDbEntity
  8
0
 62
     3
100
AcDbCircle
 10
224.0028810032866
 20
283.1527690662201
 30
0.0
 40
2.344469249999999
100
AcDbArc
 50
270.0
 51
342.6912510200001
  0
ARC
  5
DD3
330
D57
100
AcDbEntity
  8
0
 62
     3
100
AcDbCircle
 10
209.5401090332866
 20
283.7752660762201
 30
0.0
 40
2.966966259999998
100
AcDbArc
 50
46.75287961000123
 51
89.74999828999569
  0
ARC
  5
DD4
330
D57
100
AcDbEntity
  8
0
 62
     3
100
AcDbCircle
 10
209.5401090332866
 20
283.7752660762201
 30
0.0
 40
2.966966259999998
100
AcDbArc
 50
273.976333149997
 51
312.8231203899988
  0
ARC
  5
DD5
330
D57
100
AcDbEntity
  8
0
 62
     3
100
AcDbCircle
 10
225.8855489632868
 20
283.7294638962202
 30
0.0
 40
3.936984289999998
100
AcDbArc
 50
0.6665840599997753
 51
23.90392827000137
  0
ARC
  5
DD6
330
D57
100
AcDbEntity
  8
0
 62
     3
100
AcDbCircle
 10
231.4792093532867
 20
283.7294638962202
 30
0.0
 40
3.936984289999998
100
AcDbArc
 50
156.0960717299986
 51
179.3334159400002
  0
ARC
  5
DD7
330
D57
100
AcDbEntity
  8
0
 62
     3
100
AcDbCircle
 10
225.8855489632868
 20
283.8210682562202
 30
0.0
 40
3.936984289999998
100
AcDbArc
 50
336.0960717299986
 51
359.3334159400003
  0
ARC
  5
DD8
330
D57
100
AcDbEntity
  8
0
 62
     3
100
AcDbCircle
 10
231.4792093532867
 20
283.8210682562202
 30
0.0
 40
3.936984289999998
100
AcDbArc
 50
180.6665840599997
 51
203.9039282700014
  0
LINE
  5
DD9
330
D57
100
AcDbEntity
  8
0
 62
     3
100
AcDbLine
 10
238.6567257532868
 20
283.9999999862201
 30
0.0
 11
410.0000005732865
 21
283.9999999862201
 31
0.0
  0
LINE
  5
DDA
330
D57
100
AcDbEntity
  8
0
 62
     3
100
AcDbLine
 10
190.1026910832868
 20
283.9999999862201
 30
0.0
 11
20.00000057328668
 21
283.9999999862201
 31
0.0
  0
LINE
  5
DDB
330
D57
100
AcDbEntity
  8
0
 62
     3
100
AcDbLine
 10
7.598076783286612
 20
150.4446389362201
 30
0.0
 11
5.000000573286683
 21
148.9446389362201
 31
0.0
  0
LINE
  5
DDC
330
D57
100
AcDbEntity
  8
0
 62
     3
100
AcDbLine
 10
7.598076783286612
 20
150.4446389362201
 30
0.0
 11
5.000000573286683
 21
151.9446389362201
 31
0.0
  0
LINE
  5
DDD
330
D57
100
AcDbEntity
  8
0
 62
     3
100
AcDbLine
 10
5.000000573286683
 20
148.9446389362201
 30
0.0
 11
5.000000573286683
 21
151.9446389362201
 31
0.0
  0
LINE
  5
DDE
330
D57
100
AcDbEntity
  8
0
 62
   254
370
     0
100
AcDbLine
 10
0.0000005732867976
 20
-0.0000000137798395
 30
0.0
 11
0.0000005732867976
 21
291.9999999862201
 31
0.0
  0
LINE
  5
DDF
330
D57
100
AcDbEntity
  8
0
 62
   254
370
     0
100
AcDbLine
 10
0.0000005732867976
 20
291.9999999862201
 30
0.0
 11
420.0000005732865
 21
291.9999999862201
 31
0.0
  0
LINE
  5
DE0
330
D57
100
AcDbEntity
  8
0
 62
     3
100
AcDbLine
 10
358.0000005732868
 20
9.99999998622016
 30
0.0
 11
358.0000005732868
 21
49.99999998622016
 31
0.0
  0
LINE
  5
DE1
330
D57
100
AcDbEntity
  8
0
 62
     3
100
AcDbLine
 10
371.0000005732868
 20
19.99999998622016
 30
0.0
 11
371.0000005732868
 21
47.99999998622015
 31
0.0
  0
LINE
  5
DE2
330
D57
100
AcDbEntity
  8
0
 62
     3
100
AcDbLine
 10
331.0000005732868
 20
19.99999998622016
 30
0.0
 11
331.0000005732868
 21
33.99999998622016
 31
0.0
  0
LINE
  5
DE3
330
D57
100
AcDbEntity
  8
0
 62
     3
100
AcDbLine
 10
341.0000005732868
 20
33.99999998622016
 30
0.0
 11
341.0000005732868
 21
9.99999998622016
 31
0.0
  0
LINE
  5
DE4
330
D57
100
AcDbEntity
  8
0
 62
     3
100
AcDbLine
 10
312.0000005732868
 20
49.99999998622016
 30
0.0
 11
312.0000005732868
 21
26.99999998622016
 31
0.0
  0
LINE
  5
DE5
330
D57
100
AcDbEntity
  8
0
 62
     3
100
AcDbLine
 10
371.0000005732868
 20
47.99999998622015
 30
0.0
 11
371.0000005732868
 21
49.99999998622016
 31
0.0
  0
LINE
  5
DE6
330
D57
100
AcDbEntity
  8
0
 62
     3
100
AcDbLine
 10
384.0000005732868
 20
26.99999998622016
 30
0.0
 11
384.0000005732868
 21
49.99999998622016
 31
0.0
  0
LINE
  5
DE7
330
D57
100
AcDbEntity
  8
0
 62
     3
100
AcDbLine
 10
410.0000005732868
 20
49.99999998622016
 30
0.0
 11
298.7545659332868
 21
49.99999998622016
 31
0.0
  0
LINE
  5
DE8
330
D57
100
AcDbEntity
  8
0
 62
     3
100
AcDbLine
 10
410.0000005732868
 20
40.99999998622015
 30
0.0
 11
298.7545659332868
 21
40.99999998622015
 31
0.0
  0
LINE
  5
DE9
330
D57
100
AcDbEntity
  8
0
 62
     3
100
AcDbLine
 10
410.0000005732868
 20
26.99999998622016
 30
0.0
 11
298.7545659332868
 21
26.99999998622016
 31
0.0
  0
LINE
  5
DEA
330
D57
100
AcDbEntity
  8
0
 62
     3
100
AcDbLine
 10
410.0000005732868
 20
19.99999998622016
 30
0.0
 11
298.6965580732867
 21
19.99999998622016
 31
0.0
  0
LINE
  5
DEB
330
D57
100
AcDbEntity
  8
0
 62
     3
100
AcDbLine
 10
397.0000005732868
 20
26.99999998622016
 30
0.0
 11
397.0000005732868
 21
49.99999998622016
 31
0.0
  0
LINE
  5
DEC
330
D57
100
AcDbEntity
  8
0
 62
     3
100
AcDbLine
 10
298.7545659332868
 20
49.99999998622016
 30
0.0
 11
298.7545659332868
 21
9.99999998622016
 31
0.0
  0
LINE
  5
DED
330
D57
100
AcDbEntity
  8
0
 62
     3
100
AcDbLine
 10
358.0000005732868
 20
33.99999998622016
 30
0.0
 11
298.7545659332868
 21
33.99999998622015
 31
0.0
  0
LINE
  5
DEE
330
D57
100
AcDbEntity
  8
0
 62
     3
100
AcDbLine
 10
341.2783255032866
 20
14.83286124622015
 30
0.0
 11
358.0000005732868
 21
14.83286124622015
 31
0.0
  0
LINE
  5
DEF
330
D57
100
AcDbEntity
  8
0
 62
     3
100
AcDbLine
 10
345.0000005732868
 20
40.99999998622015
 30
0.0
 11
353.0000005732868
 21
40.99999998622015
 31
0.0
  0
TEXT
  5
DF0
330
D57
100
AcDbEntity
  8
0
 62
     3
100
AcDbText
 10
342.1643259866026
 20
29.0730968395855
 30
0.0
 40
2.5
  1
******
  7
高2.5
100
AcDbText
  0
TEXT
  5
DF1
330
D57
100
AcDbEntity
  8
0
 62
     3
100
AcDbText
 10
313.196369268539
 20
29.29781439120407
 30
0.0
 40
2.5
  1
*****
  7
高2.5
100
AcDbText
  0
TEXT
  5
DF2
330
D57
100
AcDbEntity
  8
0
 62
     3
100
AcDbText
 10
313.4612770232363
 20
42.31224950997805
 30
0.0
 40
4.5
  1
**********
  7
高4.5
100
AcDbText
1001
ACAD
1000
ACAD_MTEXT_DEFINED_HEIGHT_BEGIN
1070
    46
1040
0.0
1000
ACAD_MTEXT_DEFINED_HEIGHT_END
  0
TEXT
  5
DF3
330
D57
100
AcDbEntity
  8
0
 62
     3
100
AcDbText
 10
400.0655896667607
 20
46.51369208492375
 30
0.0
 40
2.0
  1
DEF
  7
高2
100
AcDbText
  0
TEXT
  5
DF4
330
D57
100
AcDbEntity
  8
0
 62
     3
100
AcDbText
 10
386.1264913130526
 20
46.51369208492366
 30
0.0
 40
2.0
  1
DESN
  7
高2
100
AcDbText
  0
TEXT
  5
DF5
330
D57
100
AcDbEntity
  8
0
 62
     3
100
AcDbText
 10
359.8721243730524
 20
46.51369208492375
 30
0.0
 40
2.0
  1
APPD
  7
高2
100
AcDbText
  0
TEXT
  5
DF6
330
D57
100
AcDbEntity
  8
0
 62
     3
100
AcDbText
 10
372.9848604732867
 20
46.51369208492377
 30
0.0
 40
2.0
  1
CHCK
  7
高2
100
AcDbText
  0
TEXT
  5
DF7
330
D57
100
AcDbEntity
  8
0
 62
     3
100
AcDbText
 10
331.9271662124395
 20
24.16839880945088
 30
0.0
 40
2.0
  1
SCALE
 41
0.8
  7
高2
100
AcDbText
  0
TEXT
  5
DF8
330
D57
100
AcDbEntity
  8
0
 62
     3
100
AcDbText
 10
300.4391446363329
 20
24.16839880945089
 30
0.0
 40
2.0
  1
3AD　ANGLE
 41
1.5
  7
高2
100
AcDbText
  0
TEXT
  5
DF9
330
D57
100
AcDbEntity
  8
0
 62
     3
100
AcDbText
 10
331.1965719032883
 20
30.91993687840798
 30
0.0
 40
2.0
  1
REMARKS
 41
0.7
  7
高2
100
AcDbText
  0
TEXT
  5
DFA
330
D57
100
AcDbEntity
  8
0
 62
     3
100
AcDbText
 10
300.2222362832867
 20
30.99999998622016
 30
0.0
 40
2.0
  1
MATERIAL
 41
0.7
  7
高2
100
AcDbText
  0
TEXT
  5
DFB
330
D57
100
AcDbEntity
  8
0
 62
     3
100
AcDbText
 10
300.7987234860409
 20
37.99999998622015
 30
0.0
 40
2.0
  1
MODEL
  7
高2
100
AcDbText
  0
TEXT
  5
DFC
330
D57
100
AcDbEntity
  8
0
 62
     3
100
AcDbText
 10
300.4356443673721
 20
46.70702133681915
 30
0.0
 40
2.0
  1
CONPONENTS
 41
0.5
  7
高2
100
AcDbText
  0
TEXT
  5
DFD
330
D57
100
AcDbEntity
  8
0
 62
     3
100
AcDbText
 10
313.142759838539
 20
35.0874811140321
 30
0.0
 40
4.5
  1
********
  7
高4.5
100
AcDbText
  0
TEXT
  5
DFE
330
D57
100
AcDbEntity
  8
0
 62
     3
100
AcDbText
 10
361.0650463039053
 20
12.03846138158574
 30
0.0
 40
6.299999999999998
  1
*-********
 41
0.6
  7
高6.3
100
AcDbText
1001
ACAD
1000
ACAD_MTEXT_DEFINED_HEIGHT_BEGIN
1070
    46
1040
0.0
1000
ACAD_MTEXT_DEFINED_HEIGHT_END
  0
TEXT
  5
DFF
330
D57
100
AcDbEntity
  8
0
 62
     3
100
AcDbText
 10
374.5635103236164
 20
21.10088914445316
 30
0.0
 40
3.2
  1
******
  7
高3.2
100
AcDbText
1001
ACAD
1000
ACAD_MTEXT_DEFINED_HEIGHT_BEGIN
1070
    46
1040
0.0
1000
ACAD_MTEXT_DEFINED_HEIGHT_END
  0
TEXT
  5
E00
330
D57
100
AcDbEntity
  8
0
 62
     3
100
AcDbText
 10
344.7875984679331
 20
21.10091698878803
 30
0.0
 40
3.2
  1
1/1
  7
高3.2
100
AcDbText
  0
TEXT
  5
E01
330
D57
100
AcDbEntity
  8
0
 62
     3
100
AcDbText
 10
341.8649274432866
 20
10.81687815935612
 30
0.0
 40
3.2
  1
ZK-A3X
 41
0.8
  7
高3.2
100
AcDbText
  0
TEXT
  5
E02
330
D57
100
AcDbEntity
  8
0
 62
     3
100
AcDbText
 10
299.5852669732867
 20
16.52462040840798
 30
0.0
 40
2.0
  1
NICHIDO IND.CO.LTD
 41
1.3
  7
高2
100
AcDbText
  0
TEXT
  5
E03
330
D57
100
AcDbEntity
  8
0
 62
     3
100
AcDbText
 10
300.7667902382439
 20
42.14052819410508
 30
0.0
 40
3.2
  1
品 名
  7
高3.2
100
AcDbText
1001
ACAD
1000
ACAD_MTEXT_DEFINED_HEIGHT_BEGIN
1070
    46
1040
0.0
1000
ACAD_MTEXT_DEFINED_HEIGHT_END
  0
TEXT
  5
E04
330
D57
100
AcDbEntity
  8
0
 62
     3
100
AcDbText
 10
300.7667902382439
 20
34.49999998622015
 30
0.0
 40
3.2
  1
型 式
  7
高3.2
100
AcDbText
1001
ACAD
1000
ACAD_MTEXT_DEFINED_HEIGHT_BEGIN
1070
    46
1040
3.064735913775952
1000
ACAD_MTEXT_DEFINED_HEIGHT_END
  0
TEXT
  5
E05
330
D57
100
AcDbEntity
  8
0
 62
     3
100
AcDbText
 10
300.7667902382439
 20
27.49999998622016
 30
0.0
 40
3.2
  1
材 質
  7
高3.2
100
AcDbText
1001
ACAD
1000
ACAD_MTEXT_DEFINED_HEIGHT_BEGIN
1070
    46
1040
0.0
1000
ACAD_MTEXT_DEFINED_HEIGHT_END
  0
TEXT
  5
E06
330
D57
100
AcDbEntity
  8
0
 62
     3
100
AcDbText
 10
300.4617552882439
 20
20.4674399784664
 30
0.0
 40
3.2
  1
第 三 角 法
  7
高3.2
100
AcDbText
1001
ACAD
1000
ACAD_MTEXT_DEFINED_HEIGHT_BEGIN
1070
    46
1040
0.0
1000
ACAD_MTEXT_DEFINED_HEIGHT_END
  0
TEXT
  5
E07
330
D57
100
AcDbEntity
  8
0
 62
     3
100
AcDbText
 10
298.8682878957727
 20
11.14052819410509
 30
0.0
 40
3.2
  1
日動工業株式会社
 41
1.199999999999999
  7
高3.2
100
AcDbText
1001
ACAD
1000
ACAD_MTEXT_DEFINED_HEIGHT_BEGIN
1070
    46
1040
0.0
1000
ACAD_MTEXT_DEFINED_HEIGHT_END
  0
TEXT
  5
E08
330
D57
100
AcDbEntity
  8
0
 62
     3
100
AcDbText
 10
332.5039120952514
 20
27.38457851938772
 30
0.0
 40
3.2
  1
備考
  7
高3.2
100
AcDbText
1001
ACAD
1000
ACAD_MTEXT_DEFINED_HEIGHT_BEGIN
1070
    46
1040
0.0
1000
ACAD_MTEXT_DEFINED_HEIGHT_END
  0
TEXT
  5
E09
330
D57
100
AcDbEntity
  8
0
 62
     3
100
AcDbText
 10
342.1529695422866
 20
16.14623001179045
 30
0.0
 40
2.5
  1
出図コード
  7
高2.5
100
AcDbText
1001
ACAD
1000
ACAD_MTEXT_DEFINED_HEIGHT_BEGIN
1070
    46
1040
0.0
1000
ACAD_MTEXT_DEFINED_HEIGHT_END
  0
TEXT
  5
E0A
330
D57
100
AcDbEntity
  8
0
 62
     3
100
AcDbText
 10
332.3451459771638
 20
20.45323489663308
 30
0.0
 40
3.2
  1
尺度
  7
高3.2
100
AcDbText
1001
ACAD
1000
ACAD_MTEXT_DEFINED_HEIGHT_BEGIN
1070
    46
1040
0.0
1000
ACAD_MTEXT_DEFINED_HEIGHT_END
  0
TEXT
  5
E0B
330
D57
100
AcDbEntity
  8
0
 62
     3
100
AcDbText
 10
359.4914074589427
 20
21.58471334475057
 30
0.0
 40
3.2
  1
作成日
  7
高3.2
100
AcDbText
1001
ACAD
1000
ACAD_MTEXT_DEFINED_HEIGHT_BEGIN
1070
    46
1040
0.0
1000
ACAD_MTEXT_DEFINED_HEIGHT_END
  0
TEXT
  5
E0C
330
D57
100
AcDbEntity
  8
0
 62
     3
100
AcDbText
 10
359.3858814658065
 20
42.14052819410508
 30
0.0
 40
3.2
  1
承 認
  7
高3.2
100
AcDbText
1001
ACAD
1000
ACAD_MTEXT_DEFINED_HEIGHT_BEGIN
1070
    46
1040
0.0
1000
ACAD_MTEXT_DEFINED_HEIGHT_END
  0
TEXT
  5
E0D
330
D57
100
AcDbEntity
  8
0
 62
     3
100
AcDbText
 10
372.3858814658065
 20
42.14052819410508
 30
0.0
 40
3.2
  1
検 図
  7
高3.2
100
AcDbText
1001
ACAD
1000
ACAD_MTEXT_DEFINED_HEIGHT_BEGIN
1070
    46
1040
0.0
1000
ACAD_MTEXT_DEFINED_HEIGHT_END
  0
TEXT
  5
E0E
330
D57
100
AcDbEntity
  8
0
 62
     3
100
AcDbText
 10
385.3858814658065
 20
42.14052819410508
 30
0.0
 40
3.2
  1
設 計
  7
高3.2
100
AcDbText
1001
ACAD
1000
ACAD_MTEXT_DEFINED_HEIGHT_BEGIN
1070
    46
1040
0.0
1000
ACAD_MTEXT_DEFINED_HEIGHT_END
  0
TEXT
  5
E0F
330
D57
100
AcDbEntity
  8
0
 62
     3
100
AcDbText
 10
398.6865179858063
 20
42.14052819410508
 30
0.0
 40
3.2
  1
製 図
  7
高3.2
100
AcDbText
1001
ACAD
1000
ACAD_MTEXT_DEFINED_HEIGHT_BEGIN
1070
    46
1040
0.0
1000
ACAD_MTEXT_DEFINED_HEIGHT_END
  0
TEXT
  5
E10
330
D57
100
AcDbEntity
  8
0
 62
     3
100
AcDbText
 10
397.5000005732866
 20
274.4999999862201
 30
0.0
 40
3.2
  1
担　当
  7
高3.2
100
AcDbText
  0
TEXT
  5
E11
330
D57
100
AcDbEntity
  8
0
 62
     3
100
AcDbText
 10
353.5000005732866
 20
274.4999999862201
 30
0.0
 40
3.2
  1
変更・追記内容
  7
高3.2
100
AcDbText
  0
TEXT
  5
E12
330
D57
100
AcDbEntity
  8
0
 62
     3
100
AcDbText
 10
328.6135155736258
 20
269.8294614763118
 30
0.0
 40
2.0
  1
1
  7
高2
100
AcDbText
  0
TEXT
  5
E13
330
D57
100
AcDbEntity
  8
0
 62
     3
100
AcDbText
 10
328.3050040968685
 20
264.6596447640389
 30
0.0
 40
2.0
  1
2
  7
高2
100
AcDbText
  0
TEXT
  5
E14
330
D57
100
AcDbEntity
  8
0
 62
     3
100
AcDbText
 10
335.5000005732866
 20
274.4999999862201
 30
0.0
 40
3.2
  1
日　付
  7
高3.2
100
AcDbText
  0
TEXT
  5
E15
330
D57
100
AcDbEntity
  8
0
 62
     3
100
AcDbText
 10
335.5000005732866
 20
279.4999999862201
 30
0.0
 40
3.2
  1
図　　　　面　　　　略　　　　歴
  7
高3.2
100
AcDbText
  0
TEXT
  5
E16
330
D57
100
AcDbEntity
  8
0
 62
     3
100
AcDbText
 10
325.5000005732866
 20
274.4999999862201
 30
0.0
 40
3.2
  1
記号
  7
高3.2
100
AcDbText
  0
LINE
  5
E17
330
D57
100
AcDbEntity
  8
0
 62
     7
100
AcDbLine
 10
329.0000005732866
 20
267.7908959862202
 30
0.0
 11
327.1000005732867
 21
264.4999999862201
 31
0.0
  0
LINE
  5
E18
330
D57
100
AcDbEntity
  8
0
 62
     7
100
AcDbLine
 10
329.0000005732866
 20
267.7908959862202
 30
0.0
 11
330.9000005732867
 21
264.4999999862201
 31
0.0
  0
LINE
  5
E19
330
D57
100
AcDbEntity
  8
0
 62
     7
100
AcDbLine
 10
327.1000005732867
 20
264.4999999862201
 30
0.0
 11
330.9000005732867
 21
264.4999999862201
 31
0.0
  0
LINE
  5
E1A
330
D57
100
AcDbEntity
  8
0
 62
     7
100
AcDbLine
 10
329.0000005732866
 20
272.7908969862202
 30
0.0
 11
327.1000005732867
 21
269.4999999862201
 31
0.0
  0
LINE
  5
E1B
330
D57
100
AcDbEntity
  8
0
 62
     7
100
AcDbLine
 10
329.0000005732866
 20
272.7908969862202
 30
0.0
 11
330.9000005732867
 21
269.4999999862201
 31
0.0
  0
LINE
  5
E1C
330
D57
100
AcDbEntity
  8
0
 62
     7
100
AcDbLine
 10
327.1000005732867
 20
269.4999999862201
 30
0.0
 11
330.9000005732867
 21
269.4999999862201
 31
0.0
  0
LINE
  5
E1D
330
D57
100
AcDbEntity
  8
0
 62
     3
100
AcDbLine
 10
324.0000005732866
 20
278.9999999862201
 30
0.0
 11
410.0000005732865
 21
278.9999999862201
 31
0.0
  0
LINE
  5
E1E
330
D57
100
AcDbEntity
  8
0
 62
     3
100
AcDbLine
 10
324.0000005732866
 20
273.9999999862201
 30
0.0
 11
410.0000005732865
 21
273.9999999862201
 31
0.0
  0
LINE
  5
E1F
330
D57
100
AcDbEntity
  8
0
 62
     7
100
AcDbLine
 10
324.0000005732866
 20
268.9999999862201
 30
0.0
 11
410.0000005732865
 21
268.9999999862201
 31
0.0
  0
LINE
  5
E20
330
D57
100
AcDbEntity
  8
0
 62
     3
100
AcDbLine
 10
324.0000005732866
 20
263.9999999862201
 30
0.0
 11
410.0000005732865
 21
263.9999999862201
 31
0.0
  0
LINE
  5
E21
330
D57
100
AcDbEntity
  8
0
 62
     7
100
AcDbLine
 10
396.0000005732866
 20
263.9999999862201
 30
0.0
 11
396.0000005732866
 21
278.9999999862201
 31
0.0
  0
LINE
  5
E22
330
D57
100
AcDbEntity
  8
0
 62
     7
100
AcDbLine
 10
352.0000005732866
 20
263.9999999862201
 30
0.0
 11
352.0000005732866
 21
278.9999999862201
 31
0.0
  0
LINE
  5
E23
330
D57
100
AcDbEntity
  8
0
 62
     7
100
AcDbLine
 10
334.0000005732866
 20
263.9999999862201
 30
0.0
 11
334.0000005732866
 21
278.9999999862201
 31
0.0
  0
LINE
  5
E24
330
D57
100
AcDbEntity
  8
0
 62
     3
100
AcDbLine
 10
324.0000005732866
 20
263.9999999862201
 30
0.0
 11
324.0000005732866
 21
283.9999999862201
 31
0.0
  0
ENDBLK
  5
E28
330
D57
100
AcDbEntity
  8
0
100
AcDbBlockEnd
  0
BLOCK
  5
1193
330
10C4
100
AcDbEntity
  8
0
100
AcDbBlockBegin
  2
A$C478E5F75
 70
     0
 10
0.0
 20
0.0
 30
0.0
  3
A$C478E5F75
  1

  0
LINE
  5
10C5
330
10C4
100
AcDbEntity
  8
0
 62
     3
100
AcDbLine
 10
19.99999956930423
 20
283.9999999780495
 30
0.0
 11
19.99999956930423
 21
9.999999978049487
 31
0.0
  0
LINE
  5
10C6
330
10C4
100
AcDbEntity
  8
0
 62
     3
100
AcDbLine
 10
409.9999995693043
 20
9.999999978049487
 30
0.0
 11
409.9999995693043
 21
283.9999999780495
 31
0.0
  0
LINE
  5
10C7
330
10C4
100
AcDbEntity
  8
0
 62
     3
100
AcDbLine
 10
19.99999956930423
 20
9.999999978049487
 30
0.0
 11
409.9999995693043
 21
9.999999978049487
 31
0.0
  0
LINE
  5
10C8
330
10C4
100
AcDbEntity
  8
0
 62
     3
100
AcDbLine
 10
197.7748890393043
 20
286.4400021180495
 30
0.0
 11
198.3973860493042
 21
286.1150476380494
 31
0.0
  0
LINE
  5
10C9
330
10C4
100
AcDbEntity
  8
0
 62
     3
100
AcDbLine
 10
197.7748890393043
 20
281.1105300180494
 30
0.0
 11
198.3973860493042
 21
281.4354844980495
 31
0.0
  0
LINE
  5
10CA
330
10C4
100
AcDbEntity
  8
0
 62
     3
100
AcDbLine
 10
198.3973860493042
 20
286.1150476380494
 30
0.0
 11
198.3973860493042
 21
281.4354844980495
 31
0.0
  0
LINE
  5
10CB
330
10C4
100
AcDbEntity
  8
0
 62
     3
100
AcDbLine
 10
199.9738395093043
 20
281.1105300180494
 30
0.0
 11
199.3513424993043
 21
281.4354844980495
 31
0.0
  0
LINE
  5
10CC
330
10C4
100
AcDbEntity
  8
0
 62
     3
100
AcDbLine
 10
199.3513424993043
 20
284.2881399480494
 30
0.0
 11
199.3513424993043
 21
281.4354844980495
 31
0.0
  0
LINE
  5
10CD
330
10C4
100
AcDbEntity
  8
0
 62
     3
100
AcDbLine
 10
203.6050720493045
 20
286.4400021180495
 30
0.0
 11
202.9825750493044
 21
286.1150476380494
 31
0.0
  0
LINE
  5
10CE
330
10C4
100
AcDbEntity
  8
0
 62
     3
100
AcDbLine
 10
201.4061215793045
 20
286.4400021180495
 30
0.0
 11
202.0286185893044
 21
286.1150476380494
 31
0.0
  0
LINE
  5
10CF
330
10C4
100
AcDbEntity
  8
0
 62
     3
100
AcDbLine
 10
202.0286185893044
 20
286.1150476380494
 30
0.0
 11
202.0286185893044
 21
284.0545661180495
 31
0.0
  0
LINE
  5
10D0
330
10C4
100
AcDbEntity
  8
0
 62
     3
100
AcDbLine
 10
202.9825750493044
 20
286.1150476380494
 30
0.0
 11
202.9825750493044
 21
280.8082998080495
 31
0.0
  0
LINE
  5
10D1
330
10C4
100
AcDbEntity
  8
0
 62
     3
100
AcDbLine
 10
203.9126394893044
 20
286.4399983680495
 30
0.0
 11
204.5351342493043
 21
286.1150395980494
 31
0.0
  0
LINE
  5
10D2
330
10C4
100
AcDbEntity
  8
0
 62
     3
100
AcDbLine
 10
203.9125280993044
 20
281.1106014080494
 30
0.0
 11
204.5350364493042
 21
281.4355341580494
 31
0.0
  0
LINE
  5
10D3
330
10C4
100
AcDbEntity
  8
0
 62
     3
100
AcDbLine
 10
204.5351342493043
 20
286.1150395980494
 30
0.0
 11
204.5351342493043
 21
281.4355341580494
 31
0.0
  0
LINE
  5
10D4
330
10C4
100
AcDbEntity
  8
0
 62
     3
100
AcDbLine
 10
206.6691200493044
 20
286.4399645480495
 30
0.0
 11
206.0466184893044
 21
286.1150187880495
 31
0.0
  0
LINE
  5
10D5
330
10C4
100
AcDbEntity
  8
0
 62
     3
100
AcDbLine
 10
206.0466184893044
 20
286.1150187880495
 30
0.0
 11
206.0466184893044
 21
281.4355133480494
 31
0.0
  0
LINE
  5
10D6
330
10C4
100
AcDbEntity
  8
0
 62
     3
100
AcDbLine
 10
206.6691200493044
 20
281.1105675880494
 30
0.0
 11
206.0466184893044
 21
281.4355133480494
 31
0.0
  0
LINE
  5
10D7
330
10C4
100
AcDbEntity
  8
0
 62
     3
100
AcDbLine
 10
211.9409106793043
 20
286.4399059780494
 30
0.0
 11
212.5634065593045
 21
286.1149493580494
 31
0.0
  0
LINE
  5
10D8
330
10C4
100
AcDbEntity
  8
0
 62
     3
100
AcDbLine
 10
212.5634065593045
 20
286.1149493580494
 30
0.0
 11
212.5633248893044
 21
281.4354439080495
 31
0.0
  0
LINE
  5
10D9
330
10C4
100
AcDbEntity
  8
0
 62
     3
100
AcDbLine
 10
211.9408176593042
 20
281.1105090180495
 30
0.0
 11
212.5633248893044
 21
281.4354439080495
 31
0.0
  0
LINE
  5
10DA
330
10C4
100
AcDbEntity
  8
0
 62
     3
100
AcDbLine
 10
214.7298549193042
 20
286.4399059780494
 30
0.0
 11
214.1073590293045
 21
286.1149493580494
 31
0.0
  0
LINE
  5
10DB
330
10C4
100
AcDbEntity
  8
0
 62
     3
100
AcDbLine
 10
214.7299479293042
 20
281.1105090180495
 30
0.0
 11
214.1074406993043
 21
281.4354439080495
 31
0.0
  0
LINE
  5
10DC
330
10C4
100
AcDbEntity
  8
0
 62
     3
100
AcDbLine
 10
215.0208947193044
 20
286.4399059780494
 30
0.0
 11
215.6433905993044
 21
286.1149493580494
 31
0.0
  0
LINE
  5
10DD
330
10C4
100
AcDbEntity
  8
0
 62
     3
100
AcDbLine
 10
215.0208016993042
 20
281.1105090180495
 30
0.0
 11
215.6433089293043
 21
281.4354439080495
 31
0.0
  0
LINE
  5
10DE
330
10C4
100
AcDbEntity
  8
0
 62
     3
100
AcDbLine
 10
217.8098389493043
 20
286.4399059780494
 30
0.0
 11
217.1873430693044
 21
286.1149493580494
 31
0.0
  0
LINE
  5
10DF
330
10C4
100
AcDbEntity
  8
0
 62
     3
100
AcDbLine
 10
217.1873430693044
 20
286.1149493580494
 30
0.0
 11
217.1874247393043
 21
281.4354439080495
 31
0.0
  0
LINE
  5
10E0
330
10C4
100
AcDbEntity
  8
0
 62
     3
100
AcDbLine
 10
217.8099319693042
 20
281.1105090180495
 30
0.0
 11
217.1874247393043
 21
281.4354439080495
 31
0.0
  0
LINE
  5
10E1
330
10C4
100
AcDbEntity
  8
0
 62
     3
100
AcDbLine
 10
215.6433550193044
 20
284.0761877580495
 30
0.0
 11
214.1073946093043
 21
284.0761877580495
 31
0.0
  0
LINE
  5
10E2
330
10C4
100
AcDbEntity
  8
0
 62
     3
100
AcDbLine
 10
215.6433445193043
 20
283.4743443780494
 30
0.0
 11
214.1074051093044
 21
283.4743443780494
 31
0.0
  0
LINE
  5
10E3
330
10C4
100
AcDbEntity
  8
0
 62
     3
100
AcDbLine
 10
215.6433905993044
 20
286.1149493580494
 30
0.0
 11
215.6433550193044
 21
284.0761877580495
 31
0.0
  0
LINE
  5
10E4
330
10C4
100
AcDbEntity
  8
0
 62
     3
100
AcDbLine
 10
215.6433445193043
 20
283.4743443780494
 30
0.0
 11
215.6433089293043
 21
281.4354439080495
 31
0.0
  0
LINE
  5
10E5
330
10C4
100
AcDbEntity
  8
0
 62
     3
100
AcDbLine
 10
214.1073590293045
 20
286.1149493580494
 30
0.0
 11
214.1073946093043
 21
284.0761877580495
 31
0.0
  0
LINE
  5
10E6
330
10C4
100
AcDbEntity
  8
0
 62
     3
100
AcDbLine
 10
214.1074051093044
 20
283.4743443780494
 30
0.0
 11
214.1074406993043
 21
281.4354439080495
 31
0.0
  0
LINE
  5
10E7
330
10C4
100
AcDbEntity
  8
0
 62
     3
100
AcDbLine
 10
218.1054948393044
 20
286.4399059780494
 30
0.0
 11
218.7279907293044
 21
286.1149493580494
 31
0.0
  0
LINE
  5
10E8
330
10C4
100
AcDbEntity
  8
0
 62
     3
100
AcDbLine
 10
218.7279907293044
 20
286.1149493580494
 30
0.0
 11
218.7279090493043
 21
281.4354439080495
 31
0.0
  0
LINE
  5
10E9
330
10C4
100
AcDbEntity
  8
0
 62
     3
100
AcDbLine
 10
218.1054018193044
 20
281.1105090180495
 30
0.0
 11
218.7279090493043
 21
281.4354439080495
 31
0.0
  0
LINE
  5
10EA
330
10C4
100
AcDbEntity
  8
0
 62
     3
100
AcDbLine
 10
220.8619380793043
 20
286.4399059780494
 30
0.0
 11
220.2394421893043
 21
286.1149493580494
 31
0.0
  0
LINE
  5
10EB
330
10C4
100
AcDbEntity
  8
0
 62
     3
100
AcDbLine
 10
220.2394421893043
 20
286.1149493580494
 30
0.0
 11
220.2395238693043
 21
281.4354439080495
 31
0.0
  0
LINE
  5
10EC
330
10C4
100
AcDbEntity
  8
0
 62
     3
100
AcDbLine
 10
220.8620310993042
 20
281.1105090180495
 30
0.0
 11
220.2395238693043
 21
281.4354439080495
 31
0.0
  0
LINE
  5
10ED
330
10C4
100
AcDbEntity
  8
0
 62
     3
100
AcDbLine
 10
221.1681660293043
 20
286.4399059780494
 30
0.0
 11
221.7906619193043
 21
286.1149493580494
 31
0.0
  0
LINE
  5
10EE
330
10C4
100
AcDbEntity
  8
0
 62
     3
100
AcDbLine
 10
221.7906619193043
 20
286.1149493580494
 30
0.0
 11
221.7905802493044
 21
281.4354439080495
 31
0.0
  0
LINE
  5
10EF
330
10C4
100
AcDbEntity
  8
0
 62
     3
100
AcDbLine
 10
221.1680730193043
 20
281.1105090180495
 30
0.0
 11
221.7905802493044
 21
281.4354439080495
 31
0.0
  0
ARC
  5
10F0
330
10C4
100
AcDbEntity
  8
0
 62
     3
100
AcDbCircle
 10
209.9524660093043
 20
283.7886800080495
 30
0.0
 40
2.98040844
100
AcDbArc
 50
97.70152350999723
 51
270.0
  0
ARC
  5
10F1
330
10C4
100
AcDbEntity
  8
0
 62
     3
100
AcDbCircle
 10
228.3533243493043
 20
283.7587419680494
 30
0.0
 40
3.012776259999998
100
AcDbArc
 50
0.314250269999259
 51
69.00558245000303
  0
ARC
  5
10F2
330
10C4
100
AcDbEntity
  8
0
 62
     3
100
AcDbCircle
 10
229.0114319593044
 20
283.7587419680494
 30
0.0
 40
3.012776259999998
100
AcDbArc
 50
110.9944175499969
 51
148.1166110200042
  0
ARC
  5
10F3
330
10C4
100
AcDbEntity
  8
0
 62
     3
100
AcDbCircle
 10
228.3533243493043
 20
283.7917901680495
 30
0.0
 40
3.012776259999998
100
AcDbArc
 50
290.9944175499969
 51
359.6857497300007
  0
ARC
  5
10F4
330
10C4
100
AcDbEntity
  8
0
 62
     3
100
AcDbCircle
 10
229.0114319593044
 20
283.7917901680495
 30
0.0
 40
3.012776259999998
100
AcDbArc
 50
211.8833889799958
 51
249.005582450003
  0
ARC
  5
10F5
330
10C4
100
AcDbEntity
  8
0
 62
     3
100
AcDbCircle
 10
228.6823781593043
 20
285.0078451980495
 30
0.0
 40
1.73438712
100
AcDbArc
 50
64.3651718999996
 51
115.6348281000004
  0
ARC
  5
10F6
330
10C4
100
AcDbEntity
  8
0
 62
     3
100
AcDbCircle
 10
228.6823781593043
 20
282.5426869380494
 30
0.0
 40
1.73438712
100
AcDbArc
 50
244.3651718999996
 51
295.6348281000004
  0
ARC
  5
10F7
330
10C4
100
AcDbEntity
  8
0
 62
     3
100
AcDbCircle
 10
228.6823781593043
 20
285.0407904580494
 30
0.0
 40
0.85122233
100
AcDbArc
 50
19.48660554000363
 51
160.5133944599963
  0
ARC
  5
10F8
330
10C4
100
AcDbEntity
  8
0
 62
     3
100
AcDbCircle
 10
228.6823781593043
 20
282.5426869380494
 30
0.0
 40
1.73438712
100
AcDbArc
 50
244.3651718999996
 51
295.6348281000004
  0
ARC
  5
10F9
330
10C4
100
AcDbEntity
  8
0
 62
     3
100
AcDbCircle
 10
228.6823781593043
 20
282.5097416780494
 30
0.0
 40
0.85122233
100
AcDbArc
 50
199.4866055400036
 51
340.5133944599964
  0
ARC
  5
10FA
330
10C4
100
AcDbEntity
  8
0
 62
     3
100
AcDbCircle
 10
221.9074174393045
 20
252.0208948680495
 30
0.0
 40
37.20000000000001
100
AcDbArc
 50
69.50571480000832
 51
81.68998807001051
  0
ARC
  5
10FB
330
10C4
100
AcDbEntity
  8
0
 62
     3
100
AcDbCircle
 10
221.9074174393045
 20
315.5296372680494
 30
0.0
 40
37.20000000000001
100
AcDbArc
 50
278.3100119299894
 51
290.4942851999917
  0
ARC
  5
10FC
330
10C4
100
AcDbEntity
  8
0
 62
     3
100
AcDbCircle
 10
233.7762804793042
 20
283.7752660680494
 30
0.0
 40
3.299999999999998
100
AcDbArc
 50
290.4942851999917
 51
69.50571480000832
  0
ARC
  5
10FD
330
10C4
100
AcDbEntity
  8
0
 62
     3
100
AcDbCircle
 10
194.7762804793042
 20
283.7752660680494
 30
0.0
 40
3.299999999999998
100
AcDbArc
 50
110.4942851999916
 51
249.5057148000083
  0
ARC
  5
10FE
330
10C4
100
AcDbEntity
  8
0
 62
     3
100
AcDbCircle
 10
206.6451435093045
 20
252.0208948680495
 30
0.0
 40
37.20000000000001
100
AcDbArc
 50
98.31001192998948
 51
110.4942851999916
  0
ARC
  5
10FF
330
10C4
100
AcDbEntity
  8
0
 62
     3
100
AcDbCircle
 10
206.6451435093045
 20
315.5296372680494
 30
0.0
 40
37.20000000000001
100
AcDbArc
 50
249.5057148000083
 51
261.6899880699973
  0
ARC
  5
1100
330
10C4
100
AcDbEntity
  8
0
 62
     3
100
AcDbCircle
 10
214.2762804793042
 20
199.7752660680494
 30
0.0
 40
89.99999981
100
AcDbArc
 50
81.68998807001051
 51
98.31001192998948
  0
ARC
  5
1101
330
10C4
100
AcDbEntity
  8
0
 62
     3
100
AcDbCircle
 10
214.2762804793042
 20
367.7752660680494
 30
0.0
 40
89.99999981
100
AcDbArc
 50
261.6899880699973
 51
278.3100119299894
  0
ARC
  5
1102
330
10C4
100
AcDbEntity
  8
0
 62
     3
100
AcDbCircle
 10
214.2762804793042
 20
199.7752660680494
 30
0.0
 40
89.09999981
100
AcDbArc
 50
81.68998807001051
 51
98.31001192998948
  0
ARC
  5
1103
330
10C4
100
AcDbEntity
  8
0
 62
     3
100
AcDbCircle
 10
214.2762804793042
 20
367.7752660680494
 30
0.0
 40
89.09999981
100
AcDbArc
 50
261.6899880699973
 51
278.3100119299894
  0
ARC
  5
1104
330
10C4
100
AcDbEntity
  8
0
 62
     3
100
AcDbCircle
 10
221.9074174393045
 20
315.5296372680494
 30
0.0
 40
36.3
100
AcDbArc
 50
278.3100119299894
 51
290.4942851999917
  0
ARC
  5
1105
330
10C4
100
AcDbEntity
  8
0
 62
     3
100
AcDbCircle
 10
221.9074174393045
 20
252.0208948680495
 30
0.0
 40
36.3
100
AcDbArc
 50
69.50571480000832
 51
81.68998807001051
  0
ARC
  5
1106
330
10C4
100
AcDbEntity
  8
0
 62
     3
100
AcDbCircle
 10
233.7762804793042
 20
283.7752660680494
 30
0.0
 40
2.399999999999999
100
AcDbArc
 50
290.4942851999917
 51
69.50571480000832
  0
ARC
  5
1107
330
10C4
100
AcDbEntity
  8
0
 62
     3
100
AcDbCircle
 10
194.7762804793042
 20
283.7752660680494
 30
0.0
 40
2.399999999999999
100
AcDbArc
 50
110.4942851999916
 51
249.5057148000083
  0
ARC
  5
1108
330
10C4
100
AcDbEntity
  8
0
 62
     3
100
AcDbCircle
 10
206.6451435093045
 20
252.0208948680495
 30
0.0
 40
36.3
100
AcDbArc
 50
98.31001192998948
 51
110.4942851999916
  0
ARC
  5
1109
330
10C4
100
AcDbEntity
  8
0
 62
     3
100
AcDbCircle
 10
206.6451435093045
 20
315.5296372680494
 30
0.0
 40
36.3
100
AcDbArc
 50
249.5057148000083
 51
261.6899880699973
  0
LINE
  5
110A
330
10C4
100
AcDbEntity
  8
0
 62
     3
100
AcDbLine
 10
220.8619391993043
 20
280.8082998080495
 30
0.0
 11
218.1054937193044
 21
280.8082998080495
 31
0.0
  0
LINE
  5
110B
330
10C4
100
AcDbEntity
  8
0
 62
     3
100
AcDbLine
 10
220.8619391993043
 20
281.1105300180494
 30
0.0
 11
220.8619391993043
 21
280.8082998080495
 31
0.0
  0
LINE
  5
110C
330
10C4
100
AcDbEntity
  8
0
 62
     3
100
AcDbLine
 10
217.8098400693043
 20
286.7420912980494
 30
0.0
 11
215.0208935993044
 21
286.7420912980494
 31
0.0
  0
LINE
  5
110D
330
10C4
100
AcDbEntity
  8
0
 62
     3
100
AcDbLine
 10
217.8098400693043
 20
286.7420912980494
 30
0.0
 11
217.8098400693043
 21
286.4400021180495
 31
0.0
  0
LINE
  5
110E
330
10C4
100
AcDbEntity
  8
0
 62
     3
100
AcDbLine
 10
217.8098400693043
 20
281.1105300180494
 30
0.0
 11
217.8098400693043
 21
280.8081587880495
 31
0.0
  0
LINE
  5
110F
330
10C4
100
AcDbEntity
  8
0
 62
     3
100
AcDbLine
 10
217.8098400693043
 20
280.8081587880495
 30
0.0
 11
215.0208935993044
 21
280.8081587880495
 31
0.0
  0
LINE
  5
1110
330
10C4
100
AcDbEntity
  8
0
 62
     3
100
AcDbLine
 10
220.8619391993043
 20
286.7422323280495
 30
0.0
 11
220.8619391993043
 21
286.4400021180495
 31
0.0
  0
LINE
  5
1111
330
10C4
100
AcDbEntity
  8
0
 62
     3
100
AcDbLine
 10
220.8619391993043
 20
286.7422323280495
 30
0.0
 11
218.1054937193044
 21
286.7422323280495
 31
0.0
  0
LINE
  5
1112
330
10C4
100
AcDbEntity
  8
0
 62
     3
100
AcDbLine
 10
218.1054937193044
 20
286.7422323280495
 30
0.0
 11
218.1054937193044
 21
286.4400021180495
 31
0.0
  0
LINE
  5
1113
330
10C4
100
AcDbEntity
  8
0
 62
     3
100
AcDbLine
 10
221.1681649093043
 20
281.1105300180494
 30
0.0
 11
221.1681649093043
 21
280.8082998080495
 31
0.0
  0
LINE
  5
1114
330
10C4
100
AcDbEntity
  8
0
 62
     3
100
AcDbLine
 10
224.0028799993043
 20
280.8082998080495
 30
0.0
 11
221.1681649093043
 21
280.8082998080495
 31
0.0
  0
LINE
  5
1115
330
10C4
100
AcDbEntity
  8
0
 62
     3
100
AcDbLine
 10
223.3021133893044
 20
285.7882758680495
 30
0.0
 11
223.3021133893044
 21
281.7622562680494
 31
0.0
  0
LINE
  5
1116
330
10C4
100
AcDbEntity
  8
0
 62
     3
100
AcDbLine
 10
223.3021133893044
 20
281.7622562680494
 30
0.0
 11
223.5736119093044
 21
281.7622562680494
 31
0.0
  0
ARC
  5
1117
330
10C4
100
AcDbEntity
  8
0
 62
     3
100
AcDbCircle
 10
222.1853465693043
 20
283.7752660680494
 30
0.0
 40
2.44529939
100
AcDbArc
 50
304.5919552700016
 51
55.40804472999841
  0
LINE
  5
1118
330
10C4
100
AcDbEntity
  8
0
 62
     3
100
AcDbLine
 10
224.0028799993043
 20
286.7422323280495
 30
0.0
 11
221.1681649093043
 21
286.7422323280495
 31
0.0
  0
LINE
  5
1119
330
10C4
100
AcDbEntity
  8
0
 62
     3
100
AcDbLine
 10
221.1681649093043
 20
286.7422323280495
 30
0.0
 11
221.1681649093043
 21
286.4400021180495
 31
0.0
  0
LINE
  5
111A
330
10C4
100
AcDbEntity
  8
0
 62
     3
100
AcDbLine
 10
218.1054937193044
 20
281.1105300180494
 30
0.0
 11
218.1054937193044
 21
280.8082998080495
 31
0.0
  0
LINE
  5
111B
330
10C4
100
AcDbEntity
  8
0
 62
     3
100
AcDbLine
 10
223.3021133893044
 20
285.7882758680495
 30
0.0
 11
223.5736119093044
 21
285.7882758680495
 31
0.0
  0
LINE
  5
111C
330
10C4
100
AcDbEntity
  8
0
 62
     3
100
AcDbLine
 10
206.6690281493043
 20
281.1105300180494
 30
0.0
 11
206.6690228793043
 21
280.8082715680495
 31
0.0
  0
LINE
  5
111D
330
10C4
100
AcDbEntity
  8
0
 62
     3
100
AcDbLine
 10
203.9125773993044
 20
280.8083280580495
 30
0.0
 11
206.6690228793043
 21
280.8082799480494
 31
0.0
  0
LINE
  5
111E
330
10C4
100
AcDbEntity
  8
0
 62
     3
100
AcDbLine
 10
197.7748890393043
 20
280.8082998080495
 30
0.0
 11
199.9738395093043
 21
280.8082998080495
 31
0.0
  0
ARC
  5
111F
330
10C4
100
AcDbEntity
  8
0
 62
     3
100
AcDbCircle
 10
190.6578280693043
 20
283.8451326780495
 30
0.0
 40
21.01937947
100
AcDbArc
 50
353.8660061899987
 51
357.6940342600001
  0
LINE
  5
1120
330
10C4
100
AcDbEntity
  8
0
 62
     3
100
AcDbLine
 10
210.2529421593045
 20
283.0046074580494
 30
0.0
 11
211.6601862793043
 21
282.9994004880494
 31
0.0
  0
LWPOLYLINE
  5
1121
330
10C4
100
AcDbEntity
  8
0
 62
     3
100
AcDbPolyline
 90
       64
 70
     0
 43
0.0
 10
210.2586256093043
 20
284.5406285180494
 10
210.2320148593044
 20
284.7110110380495
 10
210.2000560293045
 20
284.8741607280494
 10
210.1629961293042
 20
285.0288165280495
 10
210.1211216293043
 20
285.1737830280494
 10
210.0747561993044
 20
285.3079397180495
 10
210.0242582093042
 20
285.4302496180494
 10
209.9700179893043
 20
285.5397673580494
 10
209.9124547893043
 20
285.6356464080494
 10
209.8520135393044
 20
285.7171456780494
 10
209.7891614193045
 20
285.7836352180494
 10
209.7243842393043
 20
285.8346010980495
 10
209.6581827093043
 20
285.8696493780494
 10
209.5910685193044
 20
285.8885091480495
 10
209.5235604293043
 20
285.8910346480494
 10
209.4561802393043
 20
285.8772063380494
 10
209.3894487693044
 20
285.8471311080494
 10
209.3238818293043
 20
285.8010414380494
 10
209.2599861893043
 20
285.7392935580494
 10
209.1982557593044
 20
285.6623647680494
 10
209.1391676693042
 20
285.5708496680495
 10
209.0831786393044
 20
285.4654556380495
 10
209.0307214393042
 20
285.3469973080495
 10
208.9822015393042
 20
285.2163902980494
 10
208.9379939593043
 20
285.0746441480494
 10
208.8984404193043
 20
284.9228544780494
 10
208.8638466393045
 20
284.7621945380495
 10
208.8344800093044
 20
284.5939061480494
 10
208.8105675193044
 20
284.4192900880495
 10
208.7922940093045
 20
284.2396960580495
 10
208.7798007093042
 20
284.0565122180494
 10
208.7731841993043
 20
283.8711544980494
 10
208.7724956093043
 20
283.6850555980494
 10
208.7777402693043
 20
283.4996539880494
 10
208.7888776393043
 20
283.3163827180495
 10
208.8058216393042
 20
283.1366583780495
 10
208.8284412893045
 20
282.9618701480494
 10
208.8565617593044
 20
282.7933690480495
 10
208.8899656893043
 20
282.6324575080495
 10
208.9283948893044
 20
282.4803792880494
 10
208.9715523093043
 20
282.3383098780496
 10
209.0191043793043
 20
282.2073473980495
 10
209.0706835293044
 20
282.0885041180495
 10
209.1258910993042
 20
281.9826986480494
 10
209.1843003493043
 20
281.8907487880494
 10
209.2454598093043
 20
281.8133652880494
 10
209.3088967493045
 20
281.7511462680494
 10
209.3741208293045
 20
281.7045726580494
 10
209.4406279093043
 20
281.6740044280495
 10
209.5079039193042
 20
281.6596778780495
 10
209.5754288493044
 20
281.6617037380495
 10
209.6426807693042
 20
281.6800663380494
 10
209.7091398493044
 20
281.7146237580494
 10
209.7742924093043
 20
281.7651088880495
 10
209.8376348393044
 20
281.8311314880494
 10
209.8986775393044
 20
281.9121812480495
 10
209.9569486793043
 20
282.0076316980494
 10
210.0119978593043
 20
282.1167450580495
 10
210.0633995793044
 20
282.2386779180495
 10
210.1107565193042
 20
282.3724878280494
 10
210.1537026393044
 20
282.5171404780494
 10
210.1919059893043
 20
282.6715177980494
 10
210.2250712793043
 20
282.8344265280494
 10
210.2529421593045
 20
283.0046074580494
  0
LINE
  5
1122
330
10C4
100
AcDbEntity
  8
0
 62
     3
100
AcDbLine
 10
210.2586256093043
 20
284.5406285180494
 30
0.0
 11
211.6658697293044
 21
284.5354215480495
 31
0.0
  0
ARC
  5
1123
330
10C4
100
AcDbEntity
  8
0
 62
     3
100
AcDbCircle
 10
190.6578280693043
 20
283.8451326780495
 30
0.0
 40
21.01937947
100
AcDbArc
 50
1.881965739999571
 51
5.709993809998523
  0
LINE
  5
1124
330
10C4
100
AcDbEntity
  8
0
 62
     3
100
AcDbLine
 10
206.6691264393043
 20
286.7422040780494
 30
0.0
 11
206.6691211693044
 21
286.4400021180495
 31
0.0
  0
LINE
  5
1125
330
10C4
100
AcDbEntity
  8
0
 62
     3
100
AcDbLine
 10
203.9126809593045
 20
286.7422605680495
 30
0.0
 11
206.6691264393043
 21
286.7422124580495
 31
0.0
  0
LINE
  5
1126
330
10C4
100
AcDbEntity
  8
0
 62
     3
100
AcDbLine
 10
203.9125826693044
 20
281.1105300180494
 30
0.0
 11
203.9125773993044
 21
280.8083280580495
 31
0.0
  0
LINE
  5
1127
330
10C4
100
AcDbEntity
  8
0
 62
     3
100
AcDbLine
 10
203.9126809593045
 20
286.7422605680495
 30
0.0
 11
203.9126756893042
 21
286.4400021180495
 31
0.0
  0
LINE
  5
1128
330
10C4
100
AcDbEntity
  8
0
 62
     3
100
AcDbLine
 10
199.9738395093043
 20
281.1105300180494
 30
0.0
 11
199.9738395093043
 21
280.8082998080495
 31
0.0
  0
LINE
  5
1129
330
10C4
100
AcDbEntity
  8
0
 62
     3
100
AcDbLine
 10
199.3513424993043
 20
284.2881399480494
 30
0.0
 11
201.5262425793044
 21
280.8082998080495
 31
0.0
  0
LINE
  5
112A
330
10C4
100
AcDbEntity
  8
0
 62
     3
100
AcDbLine
 10
201.5262425793044
 20
280.8082998080495
 30
0.0
 11
202.9825750493044
 21
280.8082998080495
 31
0.0
  0
LINE
  5
112B
330
10C4
100
AcDbEntity
  8
0
 62
     3
100
AcDbLine
 10
203.6050720493045
 20
286.7422323280495
 30
0.0
 11
203.6050720493045
 21
286.4400021180495
 31
0.0
  0
LINE
  5
112C
330
10C4
100
AcDbEntity
  8
0
 62
     3
100
AcDbLine
 10
201.4061215793045
 20
286.7422323280495
 30
0.0
 11
203.6050720493045
 21
286.7422323280495
 31
0.0
  0
LINE
  5
112D
330
10C4
100
AcDbEntity
  8
0
 62
     3
100
AcDbLine
 10
201.4061215793045
 20
286.7422323280495
 30
0.0
 11
201.4061215793045
 21
286.4400021180495
 31
0.0
  0
LINE
  5
112E
330
10C4
100
AcDbEntity
  8
0
 62
     3
100
AcDbLine
 10
202.0286185893044
 20
284.0545661180495
 30
0.0
 11
200.2648376493044
 21
286.7422323280495
 31
0.0
  0
LINE
  5
112F
330
10C4
100
AcDbEntity
  8
0
 62
     3
100
AcDbLine
 10
197.7748890393043
 20
286.7422323280495
 30
0.0
 11
200.2648376493044
 21
286.7422323280495
 31
0.0
  0
LINE
  5
1130
330
10C4
100
AcDbEntity
  8
0
 62
     3
100
AcDbLine
 10
211.9409095593044
 20
286.7420912980494
 30
0.0
 11
214.7298560393042
 21
286.7420912980494
 31
0.0
  0
LINE
  5
1131
330
10C4
100
AcDbEntity
  8
0
 62
     3
100
AcDbLine
 10
211.9409095593044
 20
286.4400021180495
 30
0.0
 11
211.9409095593044
 21
286.7420912980494
 31
0.0
  0
LINE
  5
1132
330
10C4
100
AcDbEntity
  8
0
 62
     3
100
AcDbLine
 10
211.9409095593044
 20
280.8081587880495
 30
0.0
 11
211.9409095593044
 21
281.1105300180494
 31
0.0
  0
LINE
  5
1133
330
10C4
100
AcDbEntity
  8
0
 62
     3
100
AcDbLine
 10
211.9409095593044
 20
280.8081587880495
 30
0.0
 11
214.7298560393042
 21
280.8081587880495
 31
0.0
  0
LINE
  5
1134
330
10C4
100
AcDbEntity
  8
0
 62
     3
100
AcDbLine
 10
215.0208935993044
 20
281.1105300180494
 30
0.0
 11
215.0208935993044
 21
280.8081587880495
 31
0.0
  0
LINE
  5
1135
330
10C4
100
AcDbEntity
  8
0
 62
     3
100
AcDbLine
 10
214.7298560393042
 20
281.1105300180494
 30
0.0
 11
214.7298560393042
 21
280.8081587880495
 31
0.0
  0
LINE
  5
1136
330
10C4
100
AcDbEntity
  8
0
 62
     3
100
AcDbLine
 10
214.7298560393042
 20
286.4400021180495
 30
0.0
 11
214.7298560393042
 21
286.7420912980494
 31
0.0
  0
LINE
  5
1137
330
10C4
100
AcDbEntity
  8
0
 62
     3
100
AcDbLine
 10
215.0208935993044
 20
286.4400021180495
 30
0.0
 11
215.0208935993044
 21
286.7420912980494
 31
0.0
  0
LINE
  5
1138
330
10C4
100
AcDbEntity
  8
0
 62
     3
100
AcDbLine
 10
197.7748890393043
 20
281.1105300180494
 30
0.0
 11
197.7748890393043
 21
280.8082998080495
 31
0.0
  0
LINE
  5
1139
330
10C4
100
AcDbEntity
  8
0
 62
     3
100
AcDbLine
 10
197.7748890393043
 20
286.7422323280495
 30
0.0
 11
197.7748890393043
 21
286.4400021180495
 31
0.0
  0
ARC
  5
113A
330
10C4
100
AcDbEntity
  8
0
 62
     3
100
AcDbCircle
 10
224.3028799993044
 20
284.3977630780495
 30
0.0
 40
2.344469249999999
100
AcDbArc
 50
17.30874897999644
 51
23.76507095999633
  0
ARC
  5
113B
330
10C4
100
AcDbEntity
  8
0
 62
     3
100
AcDbCircle
 10
222.3053465693042
 20
283.7752660680494
 30
0.0
 40
4.43675086
100
AcDbArc
 50
342.6912510200036
 51
17.30856643999929
  0
ARC
  5
113C
330
10C4
100
AcDbEntity
  8
0
 62
     3
100
AcDbCircle
 10
224.3028799993044
 20
283.1527690580495
 30
0.0
 40
2.344469249999999
100
AcDbArc
 50
336.2349290400003
 51
342.6912510200036
  0
ARC
  5
113D
330
10C4
100
AcDbEntity
  8
0
 62
     3
100
AcDbCircle
 10
224.0028799993043
 20
284.3977630780495
 30
0.0
 40
2.344469249999999
100
AcDbArc
 50
17.30874897999644
 51
90.0
  0
ARC
  5
113E
330
10C4
100
AcDbEntity
  8
0
 62
     3
100
AcDbCircle
 10
222.0053465693045
 20
283.7752660680494
 30
0.0
 40
4.43675086
100
AcDbArc
 50
342.6912510200036
 51
17.30856643999929
  0
ARC
  5
113F
330
10C4
100
AcDbEntity
  8
0
 62
     3
100
AcDbCircle
 10
224.0028799993043
 20
283.1527690580495
 30
0.0
 40
2.344469249999999
100
AcDbArc
 50
270.0
 51
342.6912510200036
  0
ARC
  5
1140
330
10C4
100
AcDbEntity
  8
0
 62
     3
100
AcDbCircle
 10
209.5401080293043
 20
283.7752660680494
 30
0.0
 40
2.966966259999998
100
AcDbArc
 50
46.75287960999425
 51
89.74999828999569
  0
ARC
  5
1141
330
10C4
100
AcDbEntity
  8
0
 62
     3
100
AcDbCircle
 10
209.5401080293043
 20
283.7752660680494
 30
0.0
 40
2.966966259999998
100
AcDbArc
 50
273.976333149997
 51
312.8231203899988
  0
ARC
  5
1142
330
10C4
100
AcDbEntity
  8
0
 62
     3
100
AcDbCircle
 10
225.8855479593044
 20
283.7294638880495
 30
0.0
 40
3.936984289999998
100
AcDbArc
 50
0.6665840599997753
 51
23.90392827000137
  0
ARC
  5
1143
330
10C4
100
AcDbEntity
  8
0
 62
     3
100
AcDbCircle
 10
231.4792083493044
 20
283.7294638880495
 30
0.0
 40
3.936984289999998
100
AcDbArc
 50
156.0960717299986
 51
179.3334159400002
  0
ARC
  5
1144
330
10C4
100
AcDbEntity
  8
0
 62
     3
100
AcDbCircle
 10
225.8855479593044
 20
283.8210682480494
 30
0.0
 40
3.936984289999998
100
AcDbArc
 50
336.0960717299986
 51
359.3334159400003
  0
ARC
  5
1145
330
10C4
100
AcDbEntity
  8
0
 62
     3
100
AcDbCircle
 10
231.4792083493044
 20
283.8210682480494
 30
0.0
 40
3.936984289999998
100
AcDbArc
 50
180.6665840599997
 51
203.9039282700014
  0
LINE
  5
1146
330
10C4
100
AcDbEntity
  8
0
 62
     3
100
AcDbLine
 10
238.6567247493044
 20
283.9999999780495
 30
0.0
 11
409.9999995693042
 21
283.9999999780495
 31
0.0
  0
LINE
  5
1147
330
10C4
100
AcDbEntity
  8
0
 62
     3
100
AcDbLine
 10
190.1026900793045
 20
283.9999999780495
 30
0.0
 11
19.99999956930423
 21
283.9999999780495
 31
0.0
  0
LINE
  5
1148
330
10C4
100
AcDbEntity
  8
0
 62
     3
100
AcDbLine
 10
7.598075779304281
 20
150.4446389280494
 30
0.0
 11
4.999999569304236
 21
148.9446389280494
 31
0.0
  0
LINE
  5
1149
330
10C4
100
AcDbEntity
  8
0
 62
     3
100
AcDbLine
 10
7.598075779304281
 20
150.4446389280494
 30
0.0
 11
4.999999569304236
 21
151.9446389280494
 31
0.0
  0
LINE
  5
114A
330
10C4
100
AcDbEntity
  8
0
 62
     3
100
AcDbLine
 10
4.999999569304236
 20
148.9446389280494
 30
0.0
 11
4.999999569304236
 21
151.9446389280494
 31
0.0
  0
LINE
  5
114B
330
10C4
100
AcDbEntity
  8
0
 62
   254
370
     0
100
AcDbLine
 10
-0.0000004306955361
 20
-0.0000000219505125
 30
0.0
 11
-0.0000004306955361
 21
291.9999999780495
 31
0.0
  0
LINE
  5
114C
330
10C4
100
AcDbEntity
  8
0
 62
   254
370
     0
100
AcDbLine
 10
-0.0000004306955361
 20
291.9999999780495
 30
0.0
 11
419.999999569304
 21
291.9999999780495
 31
0.0
  0
LINE
  5
114D
330
10C4
100
AcDbEntity
  8
0
 62
     3
100
AcDbLine
 10
357.9999995693045
 20
9.999999978049487
 30
0.0
 11
357.9999995693045
 21
49.99999997804948
 31
0.0
  0
LINE
  5
114E
330
10C4
100
AcDbEntity
  8
0
 62
     3
100
AcDbLine
 10
370.9999995693045
 20
19.99999997804948
 30
0.0
 11
370.9999995693045
 21
47.99999997804948
 31
0.0
  0
LINE
  5
114F
330
10C4
100
AcDbEntity
  8
0
 62
     3
100
AcDbLine
 10
330.9999995693045
 20
19.99999997804948
 30
0.0
 11
330.9999995693045
 21
33.99999997804949
 31
0.0
  0
LINE
  5
1150
330
10C4
100
AcDbEntity
  8
0
 62
     3
100
AcDbLine
 10
340.9999995693045
 20
33.99999997804949
 30
0.0
 11
340.9999995693045
 21
9.999999978049487
 31
0.0
  0
LINE
  5
1151
330
10C4
100
AcDbEntity
  8
0
 62
     3
100
AcDbLine
 10
311.9999995693045
 20
49.99999997804948
 30
0.0
 11
311.9999995693045
 21
26.99999997804949
 31
0.0
  0
LINE
  5
1152
330
10C4
100
AcDbEntity
  8
0
 62
     3
100
AcDbLine
 10
370.9999995693045
 20
47.99999997804948
 30
0.0
 11
370.9999995693045
 21
49.99999997804948
 31
0.0
  0
LINE
  5
1153
330
10C4
100
AcDbEntity
  8
0
 62
     3
100
AcDbLine
 10
383.9999995693045
 20
26.99999997804949
 30
0.0
 11
383.9999995693045
 21
49.99999997804948
 31
0.0
  0
LINE
  5
1154
330
10C4
100
AcDbEntity
  8
0
 62
     3
100
AcDbLine
 10
409.9999995693043
 20
49.99999997804948
 30
0.0
 11
298.7545649293045
 21
49.99999997804948
 31
0.0
  0
LINE
  5
1155
330
10C4
100
AcDbEntity
  8
0
 62
     3
100
AcDbLine
 10
409.9999995693043
 20
40.99999997804949
 30
0.0
 11
298.7545649293045
 21
40.99999997804949
 31
0.0
  0
LINE
  5
1156
330
10C4
100
AcDbEntity
  8
0
 62
     3
100
AcDbLine
 10
409.9999995693043
 20
26.99999997804949
 30
0.0
 11
298.7545649293045
 21
26.99999997804949
 31
0.0
  0
LINE
  5
1157
330
10C4
100
AcDbEntity
  8
0
 62
     3
100
AcDbLine
 10
409.9999995693043
 20
19.99999997804948
 30
0.0
 11
298.6965570693044
 21
19.99999997804948
 31
0.0
  0
LINE
  5
1158
330
10C4
100
AcDbEntity
  8
0
 62
     3
100
AcDbLine
 10
396.9999995693044
 20
26.99999997804949
 30
0.0
 11
396.9999995693044
 21
49.99999997804948
 31
0.0
  0
LINE
  5
1159
330
10C4
100
AcDbEntity
  8
0
 62
     3
100
AcDbLine
 10
298.7545649293045
 20
49.99999997804948
 30
0.0
 11
298.7545649293045
 21
9.999999978049487
 31
0.0
  0
LINE
  5
115A
330
10C4
100
AcDbEntity
  8
0
 62
     3
100
AcDbLine
 10
357.9999995693045
 20
33.99999997804949
 30
0.0
 11
298.7545649293045
 21
33.99999997804947
 31
0.0
  0
LINE
  5
115B
330
10C4
100
AcDbEntity
  8
0
 62
     3
100
AcDbLine
 10
341.2783244993043
 20
14.83286123804947
 30
0.0
 11
357.9999995693045
 21
14.83286123804947
 31
0.0
  0
TEXT
  5
115C
330
10C4
100
AcDbEntity
  8
0
 62
     3
100
AcDbText
 10
342.1643249826202
 20
29.07309683141483
 30
0.0
 40
2.5
  1
******
  7
高2.5
100
AcDbText
  0
TEXT
  5
115D
330
10C4
100
AcDbEntity
  8
0
 62
     3
100
AcDbText
 10
313.1963682645567
 20
29.2978143830334
 30
0.0
 40
2.5
  1
*****
  7
高2.5
100
AcDbText
  0
TEXT
  5
115E
330
10C4
100
AcDbEntity
  8
0
 62
     3
100
AcDbText
 10
313.461276019254
 20
42.31224950180735
 30
0.0
 40
4.5
  1
**********
  7
高4.5
100
AcDbText
1001
ACAD
1000
ACAD_MTEXT_DEFINED_HEIGHT_BEGIN
1070
    46
1040
0.0
1000
ACAD_MTEXT_DEFINED_HEIGHT_END
  0
TEXT
  5
115F
330
10C4
100
AcDbEntity
  8
0
 62
     3
100
AcDbText
 10
400.0655886627783
 20
46.51369207675307
 30
0.0
 40
2.0
  1
DEF
  7
高2
100
AcDbText
  0
TEXT
  5
1160
330
10C4
100
AcDbEntity
  8
0
 62
     3
100
AcDbText
 10
386.1264903090703
 20
46.51369207675299
 30
0.0
 40
2.0
  1
DESN
  7
高2
100
AcDbText
  0
TEXT
  5
1161
330
10C4
100
AcDbEntity
  8
0
 62
     3
100
AcDbText
 10
359.8721233690702
 20
46.51369207675307
 30
0.0
 40
2.0
  1
APPD
  7
高2
100
AcDbText
  0
TEXT
  5
1162
330
10C4
100
AcDbEntity
  8
0
 62
     3
100
AcDbText
 10
372.9848594693044
 20
46.5136920767531
 30
0.0
 40
2.0
  1
CHCK
  7
高2
100
AcDbText
  0
TEXT
  5
1163
330
10C4
100
AcDbEntity
  8
0
 62
     3
100
AcDbText
 10
331.9271652084572
 20
24.16839880128021
 30
0.0
 40
2.0
  1
SCALE
 41
0.8
  7
高2
100
AcDbText
  0
TEXT
  5
1164
330
10C4
100
AcDbEntity
  8
0
 62
     3
100
AcDbText
 10
300.4391436323506
 20
24.16839880128022
 30
0.0
 40
2.0
  1
3AD　ANGLE
 41
1.5
  7
高2
100
AcDbText
  0
TEXT
  5
1165
330
10C4
100
AcDbEntity
  8
0
 62
     3
100
AcDbText
 10
331.1965708993059
 20
30.91993687023731
 30
0.0
 40
2.0
  1
REMARKS
 41
0.7
  7
高2
100
AcDbText
  0
TEXT
  5
1166
330
10C4
100
AcDbEntity
  8
0
 62
     3
100
AcDbText
 10
300.2222352793044
 20
30.99999997804949
 30
0.0
 40
2.0
  1
MATERIAL
 41
0.7
  7
高2
100
AcDbText
  0
TEXT
  5
1167
330
10C4
100
AcDbEntity
  8
0
 62
     3
100
AcDbText
 10
300.7987224820586
 20
37.99999997804948
 30
0.0
 40
2.0
  1
MODEL
  7
高2
100
AcDbText
  0
TEXT
  5
1168
330
10C4
100
AcDbEntity
  8
0
 62
     3
100
AcDbText
 10
300.4356433633898
 20
46.70702132864849
 30
0.0
 40
2.0
  1
CONPONENTS
 41
0.5
  7
高2
100
AcDbText
  0
TEXT
  5
1169
330
10C4
100
AcDbEntity
  8
0
 62
     3
100
AcDbText
 10
313.1427588345566
 20
35.08748110586143
 30
0.0
 40
4.5
  1
********
  7
高4.5
100
AcDbText
  0
TEXT
  5
116A
330
10C4
100
AcDbEntity
  8
0
 62
     3
100
AcDbText
 10
361.0650452999231
 20
12.03846137341507
 30
0.0
 40
6.299999999999998
  1
*-********
 41
0.6
  7
高6.3
100
AcDbText
1001
ACAD
1000
ACAD_MTEXT_DEFINED_HEIGHT_BEGIN
1070
    46
1040
0.0
1000
ACAD_MTEXT_DEFINED_HEIGHT_END
  0
TEXT
  5
116B
330
10C4
100
AcDbEntity
  8
0
 62
     3
100
AcDbText
 10
374.563509319634
 20
21.10088913628249
 30
0.0
 40
3.2
  1
******
  7
高3.2
100
AcDbText
1001
ACAD
1000
ACAD_MTEXT_DEFINED_HEIGHT_BEGIN
1070
    46
1040
0.0
1000
ACAD_MTEXT_DEFINED_HEIGHT_END
  0
TEXT
  5
116C
330
10C4
100
AcDbEntity
  8
0
 62
     3
100
AcDbText
 10
344.7875974639508
 20
21.10091698061736
 30
0.0
 40
3.2
  1
1/1
  7
高3.2
100
AcDbText
  0
TEXT
  5
116D
330
10C4
100
AcDbEntity
  8
0
 62
     3
100
AcDbText
 10
341.8649264393043
 20
10.81687815118545
 30
0.0
 40
3.2
  1
ZK-A3X
 41
0.8
  7
高3.2
100
AcDbText
  0
TEXT
  5
116E
330
10C4
100
AcDbEntity
  8
0
 62
     3
100
AcDbText
 10
299.5852659693044
 20
16.52462040023731
 30
0.0
 40
2.0
  1
NICHIDO IND.CO.LTD
 41
1.3
  7
高2
100
AcDbText
  0
TEXT
  5
116F
330
10C4
100
AcDbEntity
  8
0
 62
     3
100
AcDbText
 10
300.7667892342615
 20
42.14052818593439
 30
0.0
 40
3.2
  1
品 名
  7
高3.2
100
AcDbText
1001
ACAD
1000
ACAD_MTEXT_DEFINED_HEIGHT_BEGIN
1070
    46
1040
0.0
1000
ACAD_MTEXT_DEFINED_HEIGHT_END
  0
TEXT
  5
1170
330
10C4
100
AcDbEntity
  8
0
 62
     3
100
AcDbText
 10
300.7667892342615
 20
34.49999997804948
 30
0.0
 40
3.2
  1
型 式
  7
高3.2
100
AcDbText
1001
ACAD
1000
ACAD_MTEXT_DEFINED_HEIGHT_BEGIN
1070
    46
1040
3.064735913775952
1000
ACAD_MTEXT_DEFINED_HEIGHT_END
  0
TEXT
  5
1171
330
10C4
100
AcDbEntity
  8
0
 62
     3
100
AcDbText
 10
300.7667892342615
 20
27.49999997804949
 30
0.0
 40
3.2
  1
材 質
  7
高3.2
100
AcDbText
1001
ACAD
1000
ACAD_MTEXT_DEFINED_HEIGHT_BEGIN
1070
    46
1040
0.0
1000
ACAD_MTEXT_DEFINED_HEIGHT_END
  0
TEXT
  5
1172
330
10C4
100
AcDbEntity
  8
0
 62
     3
100
AcDbText
 10
300.4617542842617
 20
20.46743997029573
 30
0.0
 40
3.2
  1
第 三 角 法
  7
高3.2
100
AcDbText
1001
ACAD
1000
ACAD_MTEXT_DEFINED_HEIGHT_BEGIN
1070
    46
1040
0.0
1000
ACAD_MTEXT_DEFINED_HEIGHT_END
  0
TEXT
  5
1173
330
10C4
100
AcDbEntity
  8
0
 62
     3
100
AcDbText
 10
298.8682868917904
 20
11.14052818593441
 30
0.0
 40
3.2
  1
日動工業株式会社
 41
1.199999999999999
  7
高3.2
100
AcDbText
1001
ACAD
1000
ACAD_MTEXT_DEFINED_HEIGHT_BEGIN
1070
    46
1040
0.0
1000
ACAD_MTEXT_DEFINED_HEIGHT_END
  0
TEXT
  5
1174
330
10C4
100
AcDbEntity
  8
0
 62
     3
100
AcDbText
 10
332.5039110912689
 20
27.38457851121705
 30
0.0
 40
3.2
  1
備考
  7
高3.2
100
AcDbText
1001
ACAD
1000
ACAD_MTEXT_DEFINED_HEIGHT_BEGIN
1070
    46
1040
0.0
1000
ACAD_MTEXT_DEFINED_HEIGHT_END
  0
TEXT
  5
1175
330
10C4
100
AcDbEntity
  8
0
 62
     3
100
AcDbText
 10
342.1529685383043
 20
16.14623000361978
 30
0.0
 40
2.5
  1
出図コード
  7
高2.5
100
AcDbText
1001
ACAD
1000
ACAD_MTEXT_DEFINED_HEIGHT_BEGIN
1070
    46
1040
0.0
1000
ACAD_MTEXT_DEFINED_HEIGHT_END
  0
TEXT
  5
1176
330
10C4
100
AcDbEntity
  8
0
 62
     3
100
AcDbText
 10
332.3451449731815
 20
20.45323488846241
 30
0.0
 40
3.2
  1
尺度
  7
高3.2
100
AcDbText
1001
ACAD
1000
ACAD_MTEXT_DEFINED_HEIGHT_BEGIN
1070
    46
1040
0.0
1000
ACAD_MTEXT_DEFINED_HEIGHT_END
  0
TEXT
  5
1177
330
10C4
100
AcDbEntity
  8
0
 62
     3
100
AcDbText
 10
359.4914064549603
 20
21.5847133365799
 30
0.0
 40
3.2
  1
作成日
  7
高3.2
100
AcDbText
1001
ACAD
1000
ACAD_MTEXT_DEFINED_HEIGHT_BEGIN
1070
    46
1040
0.0
1000
ACAD_MTEXT_DEFINED_HEIGHT_END
  0
TEXT
  5
1178
330
10C4
100
AcDbEntity
  8
0
 62
     3
100
AcDbText
 10
359.3858804618242
 20
42.14052818593439
 30
0.0
 40
3.2
  1
承 認
  7
高3.2
100
AcDbText
1001
ACAD
1000
ACAD_MTEXT_DEFINED_HEIGHT_BEGIN
1070
    46
1040
0.0
1000
ACAD_MTEXT_DEFINED_HEIGHT_END
  0
TEXT
  5
1179
330
10C4
100
AcDbEntity
  8
0
 62
     3
100
AcDbText
 10
372.3858804618242
 20
42.14052818593439
 30
0.0
 40
3.2
  1
検 図
  7
高3.2
100
AcDbText
1001
ACAD
1000
ACAD_MTEXT_DEFINED_HEIGHT_BEGIN
1070
    46
1040
0.0
1000
ACAD_MTEXT_DEFINED_HEIGHT_END
  0
TEXT
  5
117A
330
10C4
100
AcDbEntity
  8
0
 62
     3
100
AcDbText
 10
385.3858804618242
 20
42.14052818593439
 30
0.0
 40
3.2
  1
設 計
  7
高3.2
100
AcDbText
1001
ACAD
1000
ACAD_MTEXT_DEFINED_HEIGHT_BEGIN
1070
    46
1040
0.0
1000
ACAD_MTEXT_DEFINED_HEIGHT_END
  0
TEXT
  5
117B
330
10C4
100
AcDbEntity
  8
0
 62
     3
100
AcDbText
 10
398.6865169818242
 20
42.14052818593439
 30
0.0
 40
3.2
  1
製 図
  7
高3.2
100
AcDbText
1001
ACAD
1000
ACAD_MTEXT_DEFINED_HEIGHT_BEGIN
1070
    46
1040
0.0
1000
ACAD_MTEXT_DEFINED_HEIGHT_END
  0
TEXT
  5
117C
330
10C4
100
AcDbEntity
  8
0
 62
     3
100
AcDbText
 10
397.4999995693043
 20
274.4999999780495
 30
0.0
 40
3.2
  1
担　当
  7
高3.2
100
AcDbText
  0
TEXT
  5
117D
330
10C4
100
AcDbEntity
  8
0
 62
     3
100
AcDbText
 10
353.4999995693042
 20
274.4999999780495
 30
0.0
 40
3.2
  1
変更・追記内容
  7
高3.2
100
AcDbText
  0
TEXT
  5
117E
330
10C4
100
AcDbEntity
  8
0
 62
     3
100
AcDbText
 10
328.6135145696436
 20
269.8294614681412
 30
0.0
 40
2.0
  1
1
  7
高2
100
AcDbText
  0
TEXT
  5
117F
330
10C4
100
AcDbEntity
  8
0
 62
     3
100
AcDbText
 10
328.3050030928862
 20
264.6596447558683
 30
0.0
 40
2.0
  1
2
  7
高2
100
AcDbText
  0
TEXT
  5
1180
330
10C4
100
AcDbEntity
  8
0
 62
     3
100
AcDbText
 10
335.4999995693042
 20
274.4999999780495
 30
0.0
 40
3.2
  1
日　付
  7
高3.2
100
AcDbText
  0
TEXT
  5
1181
330
10C4
100
AcDbEntity
  8
0
 62
     3
100
AcDbText
 10
335.4999995693042
 20
279.4999999780495
 30
0.0
 40
3.2
  1
図　　　　面　　　　略　　　　歴
  7
高3.2
100
AcDbText
  0
TEXT
  5
1182
330
10C4
100
AcDbEntity
  8
0
 62
     3
100
AcDbText
 10
325.4999995693042
 20
274.4999999780495
 30
0.0
 40
3.2
  1
記号
  7
高3.2
100
AcDbText
  0
LINE
  5
1183
330
10C4
100
AcDbEntity
  8
0
 62
     7
100
AcDbLine
 10
328.9999995693043
 20
267.7908959780495
 30
0.0
 11
327.0999995693044
 21
264.4999999780495
 31
0.0
  0
LINE
  5
1184
330
10C4
100
AcDbEntity
  8
0
 62
     7
100
AcDbLine
 10
328.9999995693043
 20
267.7908959780495
 30
0.0
 11
330.8999995693043
 21
264.4999999780495
 31
0.0
  0
LINE
  5
1185
330
10C4
100
AcDbEntity
  8
0
 62
     7
100
AcDbLine
 10
327.0999995693044
 20
264.4999999780495
 30
0.0
 11
330.8999995693043
 21
264.4999999780495
 31
0.0
  0
LINE
  5
1186
330
10C4
100
AcDbEntity
  8
0
 62
     7
100
AcDbLine
 10
328.9999995693043
 20
272.7908969780496
 30
0.0
 11
327.0999995693044
 21
269.4999999780494
 31
0.0
  0
LINE
  5
1187
330
10C4
100
AcDbEntity
  8
0
 62
     7
100
AcDbLine
 10
328.9999995693043
 20
272.7908969780496
 30
0.0
 11
330.8999995693043
 21
269.4999999780494
 31
0.0
  0
LINE
  5
1188
330
10C4
100
AcDbEntity
  8
0
 62
     7
100
AcDbLine
 10
327.0999995693044
 20
269.4999999780494
 30
0.0
 11
330.8999995693043
 21
269.4999999780494
 31
0.0
  0
LINE
  5
1189
330
10C4
100
AcDbEntity
  8
0
 62
     3
100
AcDbLine
 10
323.9999995693042
 20
278.9999999780495
 30
0.0
 11
409.9999995693042
 21
278.9999999780495
 31
0.0
  0
LINE
  5
118A
330
10C4
100
AcDbEntity
  8
0
 62
     3
100
AcDbLine
 10
323.9999995693042
 20
273.9999999780494
 30
0.0
 11
409.9999995693042
 21
273.9999999780494
 31
0.0
  0
LINE
  5
118B
330
10C4
100
AcDbEntity
  8
0
 62
     7
100
AcDbLine
 10
323.9999995693042
 20
268.9999999780495
 30
0.0
 11
409.9999995693042
 21
268.9999999780495
 31
0.0
  0
LINE
  5
118C
330
10C4
100
AcDbEntity
  8
0
 62
     3
100
AcDbLine
 10
323.9999995693042
 20
263.9999999780495
 30
0.0
 11
409.9999995693042
 21
263.9999999780495
 31
0.0
  0
LINE
  5
118D
330
10C4
100
AcDbEntity
  8
0
 62
     7
100
AcDbLine
 10
395.9999995693042
 20
263.9999999780495
 30
0.0
 11
395.9999995693042
 21
278.9999999780495
 31
0.0
  0
LINE
  5
118E
330
10C4
100
AcDbEntity
  8
0
 62
     7
100
AcDbLine
 10
351.9999995693043
 20
263.9999999780495
 30
0.0
 11
351.9999995693043
 21
278.9999999780495
 31
0.0
  0
LINE
  5
118F
330
10C4
100
AcDbEntity
  8
0
 62
     7
100
AcDbLine
 10
333.9999995693042
 20
263.9999999780495
 30
0.0
 11
333.9999995693042
 21
278.9999999780495
 31
0.0
  0
LINE
  5
1190
330
10C4
100
AcDbEntity
  8
0
 62
     3
100
AcDbLine
 10
323.9999995693042
 20
263.9999999780495
 30
0.0
 11
323.9999995693042
 21
283.9999999780495
 31
0.0
  0
ENDBLK
  5
1194
330
10C4
100
AcDbEntity
  8
0
100
AcDbBlockEnd
  0
BLOCK
  5
11A7
330
11A6
100
AcDbEntity
  8
0
 62
     3
100
AcDbBlockBegin
  2
*D4
 70
     1
 10
0.0
 20
0.0
 30
0.0
  3
*D4
  1

  0
LINE
  5
11A8
330
11A6
100
AcDbEntity
  8
0
  6
Continuous
 62
     0
370
    -2
100
AcDbLine
 10
-31.48361152411622
 20
-39.50543895641347
 30
0.0
 11
-60.149688184188
 21
-39.50543895641347
 31
0.0
  0
LINE
  5
11A9
330
11A6
100
AcDbEntity
  8
0
  6
Continuous
 62
     0
370
    -2
100
AcDbLine
 10
-48.48361152411619
 20
6.494561043586537
 30
0.0
 11
-60.14968818418799
 21
6.49456104358654
 31
0.0
  0
LINE
  5
11AA
330
11A6
100
AcDbEntity
  8
0
  6
Continuous
 62
     0
370
    -2
100
AcDbLine
 10
-58.899688184188
 20
-37.00543895641347
 30
0.0
 11
-58.89968818418799
 21
3.99456104358654
 31
0.0
  0
INSERT
  5
11AB
330
11A6
100
AcDbEntity
  8
0
  6
Continuous
 62
     0
370
    -2
100
AcDbBlockReference
  2
_Open30
 10
-58.899688184188
 20
-39.50543895641347
 30
0.0
 41
2.5
 42
2.5
 43
2.5
 50
270.0
  0
INSERT
  5
11AC
330
11A6
100
AcDbEntity
  8
0
  6
Continuous
 62
     0
370
    -2
100
AcDbBlockReference
  2
_Open30
 10
-58.89968818418799
 20
6.49456104358654
 30
0.0
 41
2.5
 42
2.5
 43
2.5
 50
90.0
  0
MTEXT
  5
11AD
330
11A6
100
AcDbEntity
  8
0
  6
Continuous
 62
     4
100
AcDbMText
 10
-61.02468818418799
 20
-14.19278405116108
 30
0.0
 40
3.0
 41
0.0
 71
     5
 72
     1
  1
92
 11
0.0000000000000001
 21
1.0
 31
0.0
 73
     1
 44
1.0
1001
ACAD
1000
MTEXTBEGIN
1070
    73
1070
     1
1070
    44
1040
1.0
1070
    74
1070
     0
1000
MTEXTEND
  0
POINT
  5
11AE
330
11A6
100
AcDbEntity
  8
Defpoints
  6
Continuous
 62
     0
100
AcDbPoint
 10
-31.23361152411622
 20
-39.50543895641347
 30
0.0
  0
POINT
  5
11AF
330
11A6
100
AcDbEntity
  8
Defpoints
  6
Continuous
 62
     0
100
AcDbPoint
 10
-48.23361152411618
 20
6.494561043586537
 30
0.0
  0
POINT
  5
11B0
330
11A6
100
AcDbEntity
  8
Defpoints
  6
Continuous
 62
     0
100
AcDbPoint
 10
-58.89968818418799
 20
6.49456104358654
 30
0.0
  0
ENDBLK
  5
11B1
330
11A6
100
AcDbEntity
  8
0
 62
     3
100
AcDbBlockEnd
  0
BLOCK
  5
11B3
330
11B2
100
AcDbEntity
  8
0
 62
     3
100
AcDbBlockBegin
  2
*D5
 70
     1
 10
0.0
 20
0.0
 30
0.0
  3
*D5
  1

  0
LINE
  5
11B4
330
11B2
100
AcDbEntity
  8
0
  6
Continuous
 62
     0
370
    -2
100
AcDbLine
 10
-31.48361152411622
 20
70.49456104358654
 30
0.0
 11
-68.84252348258882
 21
70.49456104358656
 31
0.0
  0
LINE
  5
11B5
330
11B2
100
AcDbEntity
  8
0
  6
Continuous
 62
     0
370
    -2
100
AcDbLine
 10
-31.48361152411622
 20
-39.50543895641347
 30
0.0
 11
-68.84252348258884
 21
-39.50543895641347
 31
0.0
  0
LINE
  5
11B6
330
11B2
100
AcDbEntity
  8
0
  6
Continuous
 62
     0
370
    -2
100
AcDbLine
 10
-67.59252348258882
 20
67.99456104358656
 30
0.0
 11
-67.59252348258884
 21
-37.00543895641347
 31
0.0
  0
INSERT
  5
11B7
330
11B2
100
AcDbEntity
  8
0
  6
Continuous
 62
     0
370
    -2
100
AcDbBlockReference
  2
_Open30
 10
-67.59252348258882
 20
70.49456104358656
 30
0.0
 41
2.5
 42
2.5
 43
2.5
 50
90.0
  0
INSERT
  5
11B8
330
11B2
100
AcDbEntity
  8
0
  6
Continuous
 62
     0
370
    -2
100
AcDbBlockReference
  2
_Open30
 10
-67.59252348258884
 20
-39.50543895641347
 30
0.0
 41
2.5
 42
2.5
 43
2.5
 50
270.0
  0
MTEXT
  5
11B9
330
11B2
100
AcDbEntity
  8
0
  6
Continuous
 62
     4
100
AcDbMText
 10
-69.71752348258883
 20
14.05447567965068
 30
0.0
 40
3.0
 41
0.0
 71
     5
 72
     1
  1
220
 11
0.0000000000000001
 21
1.0
 31
0.0
 73
     1
 44
1.0
1001
ACAD
1000
MTEXTBEGIN
1070
    73
1070
     1
1070
    44
1040
1.0
1070
    74
1070
     0
1000
MTEXTEND
  0
POINT
  5
11BA
330
11B2
100
AcDbEntity
  8
Defpoints
  6
Continuous
 62
     0
100
AcDbPoint
 10
-31.23361152411622
 20
70.49456104358654
 30
0.0
  0
POINT
  5
11BB
330
11B2
100
AcDbEntity
  8
Defpoints
  6
Continuous
 62
     0
100
AcDbPoint
 10
-31.23361152411622
 20
-39.50543895641347
 30
0.0
  0
POINT
  5
11BC
330
11B2
100
AcDbEntity
  8
Defpoints
  6
Continuous
 62
     0
100
AcDbPoint
 10
-67.59252348258884
 20
-39.50543895641347
 30
0.0
  0
ENDBLK
  5
11BD
330
11B2
100
AcDbEntity
  8
0
 62
     3
100
AcDbBlockEnd
  0
BLOCK
  5
11BF
330
11BE
100
AcDbEntity
  8
0
 62
     3
100
AcDbBlockBegin
  2
*D6
 70
     1
 10
0.0
 20
0.0
 30
0.0
  3
*D6
  1

  0
LINE
  5
11C0
330
11BE
100
AcDbEntity
  8
0
  6
Continuous
 62
     0
370
    -2
100
AcDbLine
 10
-12.98361152411621
 20
0.2445610435865397
 30
0.0
 11
-12.9836115241162
 21
83.37371337949511
 31
0.0
  0
LINE
  5
11C1
330
11BE
100
AcDbEntity
  8
0
  6
Continuous
 62
     0
370
    -2
100
AcDbLine
 10
-49.48361152411621
 20
0.2445610435865433
 30
0.0
 11
-49.48361152411621
 21
83.37371337949511
 31
0.0
  0
LINE
  5
11C2
330
11BE
100
AcDbEntity
  8
0
  6
Continuous
 62
     0
370
    -2
100
AcDbLine
 10
-15.4836115241162
 20
82.12371337949511
 30
0.0
 11
-46.9836115241162
 21
82.12371337949511
 31
0.0
  0
INSERT
  5
11C3
330
11BE
100
AcDbEntity
  8
0
  6
Continuous
 62
     0
370
    -2
100
AcDbBlockReference
  2
_Open30
 10
-12.9836115241162
 20
82.12371337949511
 30
0.0
 41
2.5
 42
2.5
 43
2.5
  0
INSERT
  5
11C4
330
11BE
100
AcDbEntity
  8
0
  6
Continuous
 62
     0
370
    -2
100
AcDbBlockReference
  2
_Open30
 10
-49.48361152411621
 20
82.12371337949511
 30
0.0
 41
2.5
 42
2.5
 43
2.5
 50
180.0
  0
MTEXT
  5
11C5
330
11BE
100
AcDbEntity
  8
0
  6
Continuous
 62
     4
100
AcDbMText
 10
-30.64131907654314
 20
84.24871337949509
 30
0.0
 40
3.0
 41
0.0
 71
     5
 72
     1
  1
%%C73
 73
     1
 44
1.0
1001
ACAD
1000
MTEXTBEGIN
1070
    73
1070
     1
1070
    44
1040
1.0
1070
    74
1070
     0
1000
MTEXTEND
  0
POINT
  5
11C6
330
11BE
100
AcDbEntity
  8
Defpoints
  6
Continuous
 62
     0
100
AcDbPoint
 10
-12.98361152411621
 20
-0.0054389564134603
 30
0.0
  0
POINT
  5
11C7
330
11BE
100
AcDbEntity
  8
Defpoints
  6
Continuous
 62
     0
100
AcDbPoint
 10
-49.48361152411621
 20
-0.0054389564134567
 30
0.0
  0
POINT
  5
11C8
330
11BE
100
AcDbEntity
  8
Defpoints
  6
Continuous
 62
     0
100
AcDbPoint
 10
-49.48361152411621
 20
82.12371337949511
 30
0.0
  0
ENDBLK
  5
11C9
330
11BE
100
AcDbEntity
  8
0
 62
     3
100
AcDbBlockEnd
  0
BLOCK
  5
11CB
330
11CA
100
AcDbEntity
  8
0
 62
     3
100
AcDbBlockBegin
  2
*D7
 70
     1
 10
0.0
 20
0.0
 30
0.0
  3
*D7
  1

  0
LINE
  5
11CC
330
11CA
100
AcDbEntity
  8
0
  6
Continuous
 62
     0
370
    -2
100
AcDbLine
 10
-37.7336108571385
 20
-33.54440087288567
 30
0.0
 11
-37.7336108571385
 21
-51.76214695304345
 31
0.0
  0
LINE
  5
11CD
330
11CA
100
AcDbEntity
  8
0
  6
Continuous
 62
     0
370
    -2
100
AcDbLine
 10
-24.73499973798528
 20
-32.84693316664204
 30
0.0
 11
-24.73499973798528
 21
-51.76214695304345
 31
0.0
  0
LINE
  5
11CE
330
11CA
100
AcDbEntity
  8
0
  6
Continuous
 62
     0
370
    -2
100
AcDbLine
 10
-35.2336108571385
 20
-50.51214695304345
 30
0.0
 11
-27.23499973798528
 21
-50.51214695304345
 31
0.0
  0
INSERT
  5
11CF
330
11CA
100
AcDbEntity
  8
0
  6
Continuous
 62
     0
370
    -2
100
AcDbBlockReference
  2
_Open30
 10
-37.7336108571385
 20
-50.51214695304345
 30
0.0
 41
2.5
 42
2.5
 43
2.5
 50
180.0
  0
INSERT
  5
11D0
330
11CA
100
AcDbEntity
  8
0
  6
Continuous
 62
     0
370
    -2
100
AcDbBlockReference
  2
_Open30
 10
-24.73499973798528
 20
-50.51214695304345
 30
0.0
 41
2.5
 42
2.5
 43
2.5
  0
MTEXT
  5
11D1
330
11CA
100
AcDbEntity
  8
0
  6
Continuous
 62
     4
100
AcDbMText
 10
-30.90688000033356
 20
-48.38714695304345
 30
0.0
 40
3.0
 41
0.0
 71
     5
 72
     1
  1
E26
 73
     1
 44
1.0
1001
ACAD
1000
MTEXTBEGIN
1070
    73
1070
     1
1070
    44
1040
1.0
1070
    74
1070
     0
1000
MTEXTEND
  0
POINT
  5
11D2
330
11CA
100
AcDbEntity
  8
Defpoints
  6
Continuous
 62
     0
100
AcDbPoint
 10
-37.7336108571385
 20
-33.29440087288567
 30
0.0
  0
POINT
  5
11D3
330
11CA
100
AcDbEntity
  8
Defpoints
  6
Continuous
 62
     0
100
AcDbPoint
 10
-24.73499973798528
 20
-32.59693316664204
 30
0.0
  0
POINT
  5
11D4
330
11CA
100
AcDbEntity
  8
Defpoints
  6
Continuous
 62
     0
100
AcDbPoint
 10
-24.73499973798528
 20
-50.51214695304345
 30
0.0
  0
ENDBLK
  5
11D5
330
11CA
100
AcDbEntity
  8
0
 62
     3
100
AcDbBlockEnd
  0
BLOCK
  5
14FF
330
14FE
100
AcDbEntity
  8
0
100
AcDbBlockBegin
  2
*D8
 70
     1
 10
0.0
 20
0.0
 30
0.0
  3
*D8
  1

  0
LINE
  5
152E
330
14FE
100
AcDbEntity
  8
0
  6
Continuous
 62
     0
370
    -2
100
AcDbLine
 10
1970.722972102083
 20
259.1326349976713
 30
0.0
 11
1933.36406014361
 21
259.1326349976713
 31
0.0
  0
LINE
  5
152F
330
14FE
100
AcDbEntity
  8
0
  6
Continuous
 62
     0
370
    -2
100
AcDbLine
 10
1970.722972102083
 20
149.1326349976713
 30
0.0
 11
1933.36406014361
 21
149.1326349976713
 31
0.0
  0
LINE
  5
1530
330
14FE
100
AcDbEntity
  8
0
  6
Continuous
 62
     0
370
    -2
100
AcDbLine
 10
1934.61406014361
 20
256.6326349976713
 30
0.0
 11
1934.61406014361
 21
151.6326349976713
 31
0.0
  0
INSERT
  5
1531
330
14FE
100
AcDbEntity
  8
0
  6
Continuous
 62
     0
370
    -2
100
AcDbBlockReference
  2
_Open30
 10
1934.61406014361
 20
259.1326349976713
 30
0.0
 41
2.5
 42
2.5
 43
2.5
 50
90.0
  0
INSERT
  5
1532
330
14FE
100
AcDbEntity
  8
0
  6
Continuous
 62
     0
370
    -2
100
AcDbBlockReference
  2
_Open30
 10
1934.61406014361
 20
149.1326349976713
 30
0.0
 41
2.5
 42
2.5
 43
2.5
 50
270.0
  0
MTEXT
  5
1533
330
14FE
100
AcDbEntity
  8
0
  6
Continuous
 62
     4
100
AcDbMText
 10
1932.48906014361
 20
202.6925496337355
 30
0.0
 40
3.0
 41
0.0
 71
     5
 72
     1
  1
220
 11
0.0000000000000001
 21
1.0
 31
0.0
 73
     1
 44
1.0
1001
ACAD
1000
MTEXTBEGIN
1070
    73
1070
     1
1070
    44
1040
1.0
1070
    74
1070
     0
1000
MTEXTEND
  0
POINT
  5
1534
330
14FE
100
AcDbEntity
  8
Defpoints
  6
Continuous
 62
     0
100
AcDbPoint
 10
1970.972972102083
 20
259.1326349976713
 30
0.0
  0
POINT
  5
1535
330
14FE
100
AcDbEntity
  8
Defpoints
  6
Continuous
 62
     0
100
AcDbPoint
 10
1970.972972102083
 20
149.1326349976713
 30
0.0
  0
POINT
  5
1536
330
14FE
100
AcDbEntity
  8
Defpoints
  6
Continuous
 62
     0
100
AcDbPoint
 10
1934.61406014361
 20
149.1326349976713
 30
0.0
  0
ENDBLK
  5
1500
330
14FE
100
AcDbEntity
  8
0
100
AcDbBlockEnd
  0
BLOCK
  5
150B
330
150A
100
AcDbEntity
  8
0
100
AcDbBlockBegin
  2
*D9
 70
     1
 10
0.0
 20
0.0
 30
0.0
  3
*D9
  1

  0
LINE
  5
1537
330
150A
100
AcDbEntity
  8
0
  6
Continuous
 62
     0
370
    -2
100
AcDbLine
 10
1989.222972102083
 20
188.8826349976713
 30
0.0
 11
1989.222972102083
 21
272.0117873335799
 31
0.0
  0
LINE
  5
1538
330
150A
100
AcDbEntity
  8
0
  6
Continuous
 62
     0
370
    -2
100
AcDbLine
 10
1952.722972102083
 20
188.8826349976713
 30
0.0
 11
1952.722972102083
 21
272.0117873335799
 31
0.0
  0
LINE
  5
1539
330
150A
100
AcDbEntity
  8
0
  6
Continuous
 62
     0
370
    -2
100
AcDbLine
 10
1986.722972102083
 20
270.7617873335799
 30
0.0
 11
1955.222972102083
 21
270.7617873335799
 31
0.0
  0
INSERT
  5
153A
330
150A
100
AcDbEntity
  8
0
  6
Continuous
 62
     0
370
    -2
100
AcDbBlockReference
  2
_Open30
 10
1989.222972102083
 20
270.7617873335799
 30
0.0
 41
2.5
 42
2.5
 43
2.5
  0
INSERT
  5
153B
330
150A
100
AcDbEntity
  8
0
  6
Continuous
 62
     0
370
    -2
100
AcDbBlockReference
  2
_Open30
 10
1952.722972102083
 20
270.7617873335799
 30
0.0
 41
2.5
 42
2.5
 43
2.5
 50
180.0
  0
MTEXT
  5
153C
330
150A
100
AcDbEntity
  8
0
  6
Continuous
 62
     4
100
AcDbMText
 10
1971.565264549656
 20
272.8867873335799
 30
0.0
 40
3.0
 41
0.0
 71
     5
 72
     1
  1
%%C73
 73
     1
 44
1.0
1001
ACAD
1000
MTEXTBEGIN
1070
    73
1070
     1
1070
    44
1040
1.0
1070
    74
1070
     0
1000
MTEXTEND
  0
POINT
  5
153D
330
150A
100
AcDbEntity
  8
Defpoints
  6
Continuous
 62
     0
100
AcDbPoint
 10
1989.222972102083
 20
188.6326349976713
 30
0.0
  0
POINT
  5
153E
330
150A
100
AcDbEntity
  8
Defpoints
  6
Continuous
 62
     0
100
AcDbPoint
 10
1952.722972102083
 20
188.6326349976713
 30
0.0
  0
POINT
  5
153F
330
150A
100
AcDbEntity
  8
Defpoints
  6
Continuous
 62
     0
100
AcDbPoint
 10
1952.722972102083
 20
270.7617873335799
 30
0.0
  0
ENDBLK
  5
150C
330
150A
100
AcDbEntity
  8
0
100
AcDbBlockEnd
  0
BLOCK
  5
1517
330
1516
100
AcDbEntity
  8
0
100
AcDbBlockBegin
  2
*D10
 70
     1
 10
0.0
 20
0.0
 30
0.0
  3
*D10
  1

  0
LINE
  5
1540
330
1516
100
AcDbEntity
  8
0
  6
Continuous
 62
     0
370
    -2
100
AcDbLine
 10
1964.47297276906
 20
155.0936730811991
 30
0.0
 11
1964.47297276906
 21
136.8759270010413
 31
0.0
  0
LINE
  5
1541
330
1516
100
AcDbEntity
  8
0
  6
Continuous
 62
     0
370
    -2
100
AcDbLine
 10
1977.471583888214
 20
155.7911407874428
 30
0.0
 11
1977.471583888214
 21
136.8759270010413
 31
0.0
  0
LINE
  5
1542
330
1516
100
AcDbEntity
  8
0
  6
Continuous
 62
     0
370
    -2
100
AcDbLine
 10
1966.97297276906
 20
138.1259270010413
 30
0.0
 11
1974.971583888214
 21
138.1259270010413
 31
0.0
  0
INSERT
  5
1543
330
1516
100
AcDbEntity
  8
0
  6
Continuous
 62
     0
370
    -2
100
AcDbBlockReference
  2
_Open30
 10
1964.47297276906
 20
138.1259270010413
 30
0.0
 41
2.5
 42
2.5
 43
2.5
 50
180.0
  0
INSERT
  5
1544
330
1516
100
AcDbEntity
  8
0
  6
Continuous
 62
     0
370
    -2
100
AcDbBlockReference
  2
_Open30
 10
1977.471583888214
 20
138.1259270010413
 30
0.0
 41
2.5
 42
2.5
 43
2.5
  0
MTEXT
  5
1545
330
1516
100
AcDbEntity
  8
0
  6
Continuous
 62
     4
100
AcDbMText
 10
1971.299703625865
 20
140.2509270010413
 30
0.0
 40
3.0
 41
0.0
 71
     5
 72
     1
  1
E26
 73
     1
 44
1.0
1001
ACAD
1000
MTEXTBEGIN
1070
    73
1070
     1
1070
    44
1040
1.0
1070
    74
1070
     0
1000
MTEXTEND
  0
POINT
  5
1546
330
1516
100
AcDbEntity
  8
Defpoints
  6
Continuous
 62
     0
100
AcDbPoint
 10
1964.47297276906
 20
155.3436730811991
 30
0.0
  0
POINT
  5
1547
330
1516
100
AcDbEntity
  8
Defpoints
  6
Continuous
 62
     0
100
AcDbPoint
 10
1977.471583888214
 20
156.0411407874427
 30
0.0
  0
POINT
  5
1548
330
1516
100
AcDbEntity
  8
Defpoints
  6
Continuous
 62
     0
100
AcDbPoint
 10
1977.471583888214
 20
138.1259270010413
 30
0.0
  0
ENDBLK
  5
1518
330
1516
100
AcDbEntity
  8
0
100
AcDbBlockEnd
  0
BLOCK
  5
1523
330
1522
100
AcDbEntity
  8
0
100
AcDbBlockBegin
  2
*D11
 70
     1
 10
0.0
 20
0.0
 30
0.0
  3
*D11
  1

  0
LINE
  5
1549
330
1522
100
AcDbEntity
  8
0
  6
Continuous
 62
     0
370
    -2
100
AcDbLine
 10
1970.722972102083
 20
149.1326349976713
 30
0.0
 11
1942.056895442011
 21
149.1326349976713
 31
0.0
  0
LINE
  5
154A
330
1522
100
AcDbEntity
  8
0
  6
Continuous
 62
     0
370
    -2
100
AcDbLine
 10
1953.722972102083
 20
195.1326349976713
 30
0.0
 11
1942.056895442011
 21
195.1326349976713
 31
0.0
  0
LINE
  5
154B
330
1522
100
AcDbEntity
  8
0
  6
Continuous
 62
     0
370
    -2
100
AcDbLine
 10
1943.306895442011
 20
151.6326349976713
 30
0.0
 11
1943.306895442011
 21
192.6326349976713
 31
0.0
  0
INSERT
  5
154C
330
1522
100
AcDbEntity
  8
0
  6
Continuous
 62
     0
370
    -2
100
AcDbBlockReference
  2
_Open30
 10
1943.306895442011
 20
149.1326349976713
 30
0.0
 41
2.5
 42
2.5
 43
2.5
 50
270.0
  0
INSERT
  5
154D
330
1522
100
AcDbEntity
  8
0
  6
Continuous
 62
     0
370
    -2
100
AcDbBlockReference
  2
_Open30
 10
1943.306895442011
 20
195.1326349976713
 30
0.0
 41
2.5
 42
2.5
 43
2.5
 50
90.0
  0
MTEXT
  5
154E
330
1522
100
AcDbEntity
  8
0
  6
Continuous
 62
     4
100
AcDbMText
 10
1941.181895442011
 20
174.4452899029237
 30
0.0
 40
3.0
 41
0.0
 71
     5
 72
     1
  1
92
 11
0.0000000000000001
 21
1.0
 31
0.0
 73
     1
 44
1.0
1001
ACAD
1000
MTEXTBEGIN
1070
    73
1070
     1
1070
    44
1040
1.0
1070
    74
1070
     0
1000
MTEXTEND
  0
POINT
  5
154F
330
1522
100
AcDbEntity
  8
Defpoints
  6
Continuous
 62
     0
100
AcDbPoint
 10
1970.972972102083
 20
149.1326349976713
 30
0.0
  0
POINT
  5
1550
330
1522
100
AcDbEntity
  8
Defpoints
  6
Continuous
 62
     0
100
AcDbPoint
 10
1953.972972102083
 20
195.1326349976713
 30
0.0
  0
POINT
  5
1551
330
1522
100
AcDbEntity
  8
Defpoints
  6
Continuous
 62
     0
100
AcDbPoint
 10
1943.306895442011
 20
195.1326349976713
 30
0.0
  0
ENDBLK
  5
1524
330
1522
100
AcDbEntity
  8
0
100
AcDbBlockEnd
  0
BLOCK
  5
15AE
330
15AD
100
AcDbEntity
  8
0
100
AcDbBlockBegin
  2
*D12
 70
     1
 10
0.0
 20
0.0
 30
0.0
  3
*D12
  1

  0
LINE
  5
1B7F
330
15AD
100
AcDbEntity
  8
0
  6
Continuous
 62
     0
370
    -2
100
AcDbLine
 10
1969.71119268693
 20
273.0664991705705
 30
0.0
 11
1926.896659981231
 21
273.0664991705705
 31
0.0
  0
LINE
  5
1B80
330
15AD
100
AcDbEntity
  8
0
  6
Continuous
 62
     0
370
    -2
100
AcDbLine
 10
1969.71119268693
 20
134.0664991705704
 30
0.0
 11
1926.896659981231
 21
134.0664991705704
 31
0.0
  0
LINE
  5
1B81
330
15AD
100
AcDbEntity
  8
0
  6
Continuous
 62
     0
370
    -2
100
AcDbLine
 10
1928.146659981231
 20
270.5664991705705
 30
0.0
 11
1928.146659981231
 21
136.5664991705704
 31
0.0
  0
INSERT
  5
1B82
330
15AD
100
AcDbEntity
  8
0
  6
Continuous
 62
     0
370
    -2
100
AcDbBlockReference
  2
_Open30
 10
1928.146659981231
 20
273.0664991705705
 30
0.0
 41
2.5
 42
2.5
 43
2.5
 50
90.0
  0
INSERT
  5
1B83
330
15AD
100
AcDbEntity
  8
0
  6
Continuous
 62
     0
370
    -2
100
AcDbBlockReference
  2
_Open30
 10
1928.146659981231
 20
134.0664991705704
 30
0.0
 41
2.5
 42
2.5
 43
2.5
 50
270.0
  0
MTEXT
  5
1B84
330
15AD
100
AcDbEntity
  8
0
  6
Continuous
 62
     4
100
AcDbMText
 10
1926.021659981231
 20
203.5664991705705
 30
0.0
 40
3.0
 41
0.0
 71
     5
 72
     1
  1
139
 11
0.0000000000000001
 21
1.0
 31
0.0
 73
     1
 44
1.0
1001
ACAD
1000
MTEXTBEGIN
1070
    73
1070
     1
1070
    44
1040
1.0
1070
    74
1070
     0
1000
MTEXTEND
  0
POINT
  5
1B85
330
15AD
100
AcDbEntity
  8
Defpoints
  6
Continuous
 62
     0
100
AcDbPoint
 10
1969.96119268693
 20
273.0664991705705
 30
0.0
  0
POINT
  5
1B86
330
15AD
100
AcDbEntity
  8
Defpoints
  6
Continuous
 62
     0
100
AcDbPoint
 10
1969.96119268693
 20
134.0664991705704
 30
0.0
  0
POINT
  5
1B87
330
15AD
100
AcDbEntity
  8
Defpoints
  6
Continuous
 62
     0
100
AcDbPoint
 10
1928.146659981231
 20
134.0664991705704
 30
0.0
  0
ENDBLK
  5
15AF
330
15AD
100
AcDbEntity
  8
0
100
AcDbBlockEnd
  0
BLOCK
  5
15BA
330
15B9
100
AcDbEntity
  8
0
100
AcDbBlockBegin
  2
*D13
 70
     1
 10
0.0
 20
0.0
 30
0.0
  3
*D13
  1

  0
LINE
  5
1B88
330
15B9
100
AcDbEntity
  8
0
  6
Continuous
 62
     0
370
    -2
100
AcDbLine
 10
1990.761192686931
 20
194.3164991705704
 30
0.0
 11
1990.761192686931
 21
284.3982405919615
 31
0.0
  0
LINE
  5
1B89
330
15B9
100
AcDbEntity
  8
0
  6
Continuous
 62
     0
370
    -2
100
AcDbLine
 10
1949.161192686931
 20
194.3164991705704
 30
0.0
 11
1949.161192686931
 21
284.3982405919615
 31
0.0
  0
LINE
  5
1B8A
330
15B9
100
AcDbEntity
  8
0
  6
Continuous
 62
     0
370
    -2
100
AcDbLine
 10
1988.261192686931
 20
283.1482405919615
 30
0.0
 11
1951.661192686931
 21
283.1482405919615
 31
0.0
  0
INSERT
  5
1B8B
330
15B9
100
AcDbEntity
  8
0
  6
Continuous
 62
     0
370
    -2
100
AcDbBlockReference
  2
_Open30
 10
1990.761192686931
 20
283.1482405919615
 30
0.0
 41
2.5
 42
2.5
 43
2.5
  0
INSERT
  5
1B8C
330
15B9
100
AcDbEntity
  8
0
  6
Continuous
 62
     0
370
    -2
100
AcDbBlockReference
  2
_Open30
 10
1949.161192686931
 20
283.1482405919615
 30
0.0
 41
2.5
 42
2.5
 43
2.5
 50
180.0
  0
MTEXT
  5
1B8D
330
15B9
100
AcDbEntity
  8
0
  6
Continuous
 62
     4
100
AcDbMText
 10
1969.96119268693
 20
285.2732405919615
 30
0.0
 40
3.0
 41
0.0
 71
     5
 72
     1
  1
%%C41.6
 73
     1
 44
1.0
1001
ACAD
1000
MTEXTBEGIN
1070
    73
1070
     1
1070
    44
1040
1.0
1070
    74
1070
     0
1000
MTEXTEND
  0
POINT
  5
1B8E
330
15B9
100
AcDbEntity
  8
Defpoints
  6
Continuous
 62
     0
100
AcDbPoint
 10
1990.761192686931
 20
194.0664991705704
 30
0.0
  0
POINT
  5
1B8F
330
15B9
100
AcDbEntity
  8
Defpoints
  6
Continuous
 62
     0
100
AcDbPoint
 10
1949.161192686931
 20
194.0664991705704
 30
0.0
  0
POINT
  5
1B90
330
15B9
100
AcDbEntity
  8
Defpoints
  6
Continuous
 62
     0
100
AcDbPoint
 10
1949.161192686931
 20
283.1482405919615
 30
0.0
  0
ENDBLK
  5
15BB
330
15B9
100
AcDbEntity
  8
0
100
AcDbBlockEnd
  0
BLOCK
  5
15C6
330
15C5
100
AcDbEntity
  8
0
100
AcDbBlockBegin
  2
*D14
 70
     1
 10
0.0
 20
0.0
 30
0.0
  3
*D14
  1

  0
LINE
  5
1B91
330
15C5
100
AcDbEntity
  8
0
  6
Continuous
 62
     0
370
    -2
100
AcDbLine
 10
1956.961194020886
 20
146.238575337626
 30
0.0
 11
1956.961194020886
 21
121.8853004252607
 31
0.0
  0
LINE
  5
1B92
330
15C5
100
AcDbEntity
  8
0
  6
Continuous
 62
     0
370
    -2
100
AcDbLine
 10
1982.958416259193
 20
147.6335107501133
 30
0.0
 11
1982.958416259193
 21
121.8853004252607
 31
0.0
  0
LINE
  5
1B93
330
15C5
100
AcDbEntity
  8
0
  6
Continuous
 62
     0
370
    -2
100
AcDbLine
 10
1959.461194020886
 20
123.1353004252607
 30
0.0
 11
1980.458416259193
 21
123.1353004252607
 31
0.0
  0
INSERT
  5
1B94
330
15C5
100
AcDbEntity
  8
0
  6
Continuous
 62
     0
370
    -2
100
AcDbBlockReference
  2
_Open30
 10
1956.961194020886
 20
123.1353004252607
 30
0.0
 41
2.5
 42
2.5
 43
2.5
 50
180.0
  0
INSERT
  5
1B95
330
15C5
100
AcDbEntity
  8
0
  6
Continuous
 62
     0
370
    -2
100
AcDbBlockReference
  2
_Open30
 10
1982.958416259193
 20
123.1353004252607
 30
0.0
 41
2.5
 42
2.5
 43
2.5
  0
MTEXT
  5
1B96
330
15C5
100
AcDbEntity
  8
0
  6
Continuous
 62
     4
100
AcDbMText
 10
1970.614655734496
 20
125.2603004252607
 30
0.0
 40
3.0
 41
0.0
 71
     5
 72
     1
  1
E26
 73
     1
 44
1.0
1001
ACAD
1000
MTEXTBEGIN
1070
    73
1070
     1
1070
    44
1040
1.0
1070
    74
1070
     0
1000
MTEXTEND
  0
POINT
  5
1B97
330
15C5
100
AcDbEntity
  8
Defpoints
  6
Continuous
 62
     0
100
AcDbPoint
 10
1956.961194020886
 20
146.488575337626
 30
0.0
  0
POINT
  5
1B98
330
15C5
100
AcDbEntity
  8
Defpoints
  6
Continuous
 62
     0
100
AcDbPoint
 10
1982.958416259193
 20
147.8835107501133
 30
0.0
  0
POINT
  5
1B99
330
15C5
100
AcDbEntity
  8
Defpoints
  6
Continuous
 62
     0
100
AcDbPoint
 10
1982.958416259193
 20
123.1353004252607
 30
0.0
  0
ENDBLK
  5
15C7
330
15C5
100
AcDbEntity
  8
0
100
AcDbBlockEnd
  0
BLOCK
  5
15D2
330
15D1
100
AcDbEntity
  8
0
100
AcDbBlockBegin
  2
*D15
 70
     1
 10
0.0
 20
0.0
 30
0.0
  3
*D15
  1

  0
LINE
  5
1B9A
330
15D1
100
AcDbEntity
  8
0
  6
Continuous
 62
     0
370
    -2
100
AcDbLine
 10
1969.71119268693
 20
134.0664991705704
 30
0.0
 11
1937.452571523735
 21
134.0664991705704
 31
0.0
  0
LINE
  5
1B9B
330
15D1
100
AcDbEntity
  8
0
  6
Continuous
 62
     0
370
    -2
100
AcDbLine
 10
1949.911192686931
 20
195.0664991705704
 30
0.0
 11
1937.452571523735
 21
195.0664991705704
 31
0.0
  0
LINE
  5
1B9C
330
15D1
100
AcDbEntity
  8
0
  6
Continuous
 62
     0
370
    -2
100
AcDbLine
 10
1938.702571523735
 20
136.5664991705704
 30
0.0
 11
1938.702571523735
 21
192.5664991705704
 31
0.0
  0
INSERT
  5
1B9D
330
15D1
100
AcDbEntity
  8
0
  6
Continuous
 62
     0
370
    -2
100
AcDbBlockReference
  2
_Open30
 10
1938.702571523735
 20
134.0664991705704
 30
0.0
 41
2.5
 42
2.5
 43
2.5
 50
270.0
  0
INSERT
  5
1B9E
330
15D1
100
AcDbEntity
  8
0
  6
Continuous
 62
     0
370
    -2
100
AcDbBlockReference
  2
_Open30
 10
1938.702571523735
 20
195.0664991705704
 30
0.0
 41
2.5
 42
2.5
 43
2.5
 50
90.0
  0
MTEXT
  5
1B9F
330
15D1
100
AcDbEntity
  8
0
  6
Continuous
 62
     4
100
AcDbMText
 10
1936.577571523735
 20
164.5664991705705
 30
0.0
 40
3.0
 41
0.0
 71
     5
 72
     1
  1
61
 11
0.0000000000000001
 21
1.0
 31
0.0
 73
     1
 44
1.0
1001
ACAD
1000
MTEXTBEGIN
1070
    73
1070
     1
1070
    44
1040
1.0
1070
    74
1070
     0
1000
MTEXTEND
  0
POINT
  5
1BA0
330
15D1
100
AcDbEntity
  8
Defpoints
  6
Continuous
 62
     0
100
AcDbPoint
 10
1969.96119268693
 20
134.0664991705704
 30
0.0
  0
POINT
  5
1BA1
330
15D1
100
AcDbEntity
  8
Defpoints
  6
Continuous
 62
     0
100
AcDbPoint
 10
1950.161192686931
 20
195.0664991705704
 30
0.0
  0
POINT
  5
1BA2
330
15D1
100
AcDbEntity
  8
Defpoints
  6
Continuous
 62
     0
100
AcDbPoint
 10
1938.702571523735
 20
195.0664991705704
 30
0.0
  0
ENDBLK
  5
15D3
330
15D1
100
AcDbEntity
  8
0
100
AcDbBlockEnd
  0
ENDSEC
  0
SECTION
  2
ENTITIES
  0
LINE
  5
136E
330
1F
100
AcDbEntity
  8
0
 62
     3
100
AcDbLine
 10
1900.694510626199
 20
188.6380739540848
 30
0.0
 11
1900.206583626199
 21
188.6380739540848
 31
0.0
  0
LINE
  5
136F
330
1F
100
AcDbEntity
  8
0
 62
     3
100
AcDbLine
 10
2008.606583626199
 20
322.6326849540848
 30
0.0
 11
2092.206583626199
 21
322.6326849540848
 31
0.0
  0
TEXT
  5
1370
330
1F
100
AcDbEntity
  8
0
 62
     3
100
AcDbText
 10
2081.481583626199
 20
318.4876849540848
 30
0.0
 40
3.2
  1
担
  7
高3.2
100
AcDbText
  0
TEXT
  5
1371
330
1F
100
AcDbEntity
  8
0
 62
     3
100
AcDbText
 10
2088.369083626199
 20
318.4876849540848
 30
0.0
 40
3.2
  1
当
  7
高3.2
100
AcDbText
  0
TEXT
  5
1372
330
1F
100
AcDbEntity
  8
0
 62
     3
100
AcDbText
 10
2041.285806626199
 20
318.4705229540848
 30
0.0
 40
3.2
  1
変更・追記内容
  7
高3.2
100
AcDbText
  0
LINE
  5
1373
330
1F
100
AcDbEntity
  8
0
 62
     3
100
AcDbLine
 10
2008.606583626199
 20
327.1380739540848
 30
0.0
 11
2008.606583626199
 21
307.7826849540848
 31
0.0
  0
TEXT
  5
1374
330
1F
100
AcDbEntity
  8
0
 62
     3
100
AcDbText
 10
2013.088327409779
 20
313.9543734227371
 30
0.0
 40
2.0
  1
1
  7
高2
100
AcDbText
  0
TEXT
  5
1375
330
1F
100
AcDbEntity
  8
0
 62
     3
100
AcDbText
 10
2012.76407340109
 20
308.6619494803869
 30
0.0
 40
2.0
  1
2
  7
高2
100
AcDbText
  0
TEXT
  5
1376
330
1F
100
AcDbEntity
  8
0
 62
     3
100
AcDbText
 10
2021.565532626199
 20
318.4323360772917
 30
0.0
 40
3.2
  1
日
  7
高3.2
100
AcDbText
  0
TEXT
  5
1377
330
1F
100
AcDbEntity
  8
0
 62
     3
100
AcDbText
 10
2030.442406626199
 20
318.4323360772917
 30
0.0
 40
3.2
  1
付
  7
高3.2
100
AcDbText
  0
TEXT
  5
1378
330
1F
100
AcDbEntity
  8
0
 62
     3
100
AcDbText
 10
2021.391373626199
 20
323.2826849540848
 30
0.0
 40
3.2
  1
図
  7
高3.2
100
AcDbText
  0
TEXT
  5
1379
330
1F
100
AcDbEntity
  8
0
 62
     3
100
AcDbText
 10
2040.047269626199
 20
323.2826849540848
 30
0.0
 40
3.2
  1
面
  7
高3.2
100
AcDbText
  0
TEXT
  5
137A
330
1F
100
AcDbEntity
  8
0
 62
     3
100
AcDbText
 10
2058.703164626199
 20
323.2826849540848
 30
0.0
 40
3.2
  1
略
  7
高3.2
100
AcDbText
  0
TEXT
  5
137B
330
1F
100
AcDbEntity
  8
0
 62
     3
100
AcDbText
 10
2077.359059626199
 20
323.2826849540848
 30
0.0
 40
3.2
  1
歴
  7
高3.2
100
AcDbText
  0
TEXT
  5
137C
330
1F
100
AcDbEntity
  8
0
 62
     3
100
AcDbText
 10
2009.208947626199
 20
318.4076849540848
 30
0.0
 40
3.2
  1
記
  7
高3.2
100
AcDbText
  0
TEXT
  5
137D
330
1F
100
AcDbEntity
  8
0
 62
     3
100
AcDbText
 10
2015.461855626199
 20
318.4076849540848
 30
0.0
 40
3.2
  1
号
  7
高3.2
100
AcDbText
  0
LINE
  5
137E
330
1F
100
AcDbEntity
  8
0
 62
     3
100
AcDbLine
 10
2092.206583626199
 20
307.7826849540848
 30
0.0
 11
2008.606583626199
 21
307.7826849540848
 31
0.0
  0
LINE
  5
137F
330
1F
100
AcDbEntity
  8
0
100
AcDbLine
 10
2013.424287626199
 20
316.9434399540848
 30
0.0
 11
2011.524287626199
 21
313.6525429540848
 31
0.0
  0
LINE
  5
1380
330
1F
100
AcDbEntity
  8
0
100
AcDbLine
 10
2013.424287626199
 20
316.9434399540848
 30
0.0
 11
2015.324287626199
 21
313.6525429540848
 31
0.0
  0
LINE
  5
1381
330
1F
100
AcDbEntity
  8
0
100
AcDbLine
 10
2011.524287626199
 20
313.6525429540848
 30
0.0
 11
2015.324287626199
 21
313.6525429540848
 31
0.0
  0
LINE
  5
1382
330
1F
100
AcDbEntity
  8
0
100
AcDbLine
 10
2013.424287626199
 20
311.7872289540848
 30
0.0
 11
2011.524287626199
 21
308.4963329540848
 31
0.0
  0
LINE
  5
1383
330
1F
100
AcDbEntity
  8
0
100
AcDbLine
 10
2013.424287626199
 20
311.7872289540848
 30
0.0
 11
2015.324287626199
 21
308.4963329540848
 31
0.0
  0
LINE
  5
1384
330
1F
100
AcDbEntity
  8
0
100
AcDbLine
 10
2011.524287626199
 20
308.4963329540848
 30
0.0
 11
2015.324287626199
 21
308.4963329540848
 31
0.0
  0
LINE
  5
1385
330
1F
100
AcDbEntity
  8
0
 62
     2
100
AcDbLine
 10
1979.290935626199
 20
328.9255179540848
 30
0.0
 11
1979.726683626199
 21
328.6980499540848
 31
0.0
  0
LINE
  5
1386
330
1F
100
AcDbEntity
  8
0
 62
     2
100
AcDbLine
 10
1979.290935626199
 20
325.1948879540848
 30
0.0
 11
1979.726683626199
 21
325.4223559540848
 31
0.0
  0
LINE
  5
1387
330
1F
100
AcDbEntity
  8
0
 62
     2
100
AcDbLine
 10
1979.726683626199
 20
328.6980499540848
 30
0.0
 11
1979.726683626199
 21
325.4223559540848
 31
0.0
  0
LINE
  5
1388
330
1F
100
AcDbEntity
  8
0
 62
     2
100
AcDbLine
 10
1980.830200626199
 20
325.1948879540848
 30
0.0
 11
1980.394452626199
 21
325.4223559540848
 31
0.0
  0
LINE
  5
1389
330
1F
100
AcDbEntity
  8
0
 62
     2
100
AcDbLine
 10
1980.394452626199
 20
327.4192149540848
 30
0.0
 11
1980.394452626199
 21
325.4223559540848
 31
0.0
  0
LINE
  5
138A
330
1F
100
AcDbEntity
  8
0
 62
     2
100
AcDbLine
 10
1983.372063626199
 20
328.9255179540848
 30
0.0
 11
1982.936315626199
 21
328.6980499540848
 31
0.0
  0
LINE
  5
138B
330
1F
100
AcDbEntity
  8
0
 62
     2
100
AcDbLine
 10
1981.832798626199
 20
328.9255179540848
 30
0.0
 11
1982.268546626199
 21
328.6980499540848
 31
0.0
  0
LINE
  5
138C
330
1F
100
AcDbEntity
  8
0
 62
     2
100
AcDbLine
 10
1982.268546626199
 20
328.6980499540848
 30
0.0
 11
1982.268546626199
 21
327.2557129540848
 31
0.0
  0
LINE
  5
138D
330
1F
100
AcDbEntity
  8
0
 62
     2
100
AcDbLine
 10
1982.936315626199
 20
328.6980499540848
 30
0.0
 11
1982.936315626199
 21
324.9833259540848
 31
0.0
  0
LINE
  5
138E
330
1F
100
AcDbEntity
  8
0
 62
     2
100
AcDbLine
 10
1983.587360626199
 20
328.9255149540848
 30
0.0
 11
1984.023107626199
 21
328.6980439540848
 31
0.0
  0
LINE
  5
138F
330
1F
100
AcDbEntity
  8
0
 62
     2
100
AcDbLine
 10
1983.587282626199
 20
325.1949379540848
 30
0.0
 11
1984.023038626199
 21
325.4223909540848
 31
0.0
  0
LINE
  5
1390
330
1F
100
AcDbEntity
  8
0
 62
     2
100
AcDbLine
 10
1984.023107626199
 20
328.6980439540848
 30
0.0
 11
1984.023107626199
 21
325.4223909540848
 31
0.0
  0
LINE
  5
1391
330
1F
100
AcDbEntity
  8
0
 62
     2
100
AcDbLine
 10
1985.516897626199
 20
328.9254919540848
 30
0.0
 11
1985.081146626199
 21
328.6980299540848
 31
0.0
  0
LINE
  5
1392
330
1F
100
AcDbEntity
  8
0
 62
     2
100
AcDbLine
 10
1985.081146626199
 20
328.6980299540848
 30
0.0
 11
1985.081146626199
 21
325.4223759540848
 31
0.0
  0
LINE
  5
1393
330
1F
100
AcDbEntity
  8
0
 62
     2
100
AcDbLine
 10
1985.516897626199
 20
325.1949139540848
 30
0.0
 11
1985.081146626199
 21
325.4223759540848
 31
0.0
  0
LINE
  5
1394
330
1F
100
AcDbEntity
  8
0
 62
     2
100
AcDbLine
 10
1989.207150626199
 20
328.9254509540848
 30
0.0
 11
1989.642897626199
 21
328.6979809540848
 31
0.0
  0
LINE
  5
1395
330
1F
100
AcDbEntity
  8
0
 62
     2
100
AcDbLine
 10
1989.642897626199
 20
328.6979809540848
 30
0.0
 11
1989.642840626199
 21
325.4223269540848
 31
0.0
  0
LINE
  5
1396
330
1F
100
AcDbEntity
  8
0
 62
     2
100
AcDbLine
 10
1989.207085626199
 20
325.1948729540848
 30
0.0
 11
1989.642840626199
 21
325.4223269540848
 31
0.0
  0
LINE
  5
1397
330
1F
100
AcDbEntity
  8
0
 62
     2
100
AcDbLine
 10
1991.159411626199
 20
328.9254509540848
 30
0.0
 11
1990.723664626199
 21
328.6979809540848
 31
0.0
  0
LINE
  5
1398
330
1F
100
AcDbEntity
  8
0
 62
     2
100
AcDbLine
 10
1991.159476626199
 20
325.1948729540848
 30
0.0
 11
1990.723721626199
 21
325.4223269540848
 31
0.0
  0
LINE
  5
1399
330
1F
100
AcDbEntity
  8
0
 62
     2
100
AcDbLine
 10
1991.363139626199
 20
328.9254509540848
 30
0.0
 11
1991.798886626199
 21
328.6979809540848
 31
0.0
  0
LINE
  5
139A
330
1F
100
AcDbEntity
  8
0
 62
     2
100
AcDbLine
 10
1991.363074626199
 20
325.1948729540848
 30
0.0
 11
1991.798829626199
 21
325.4223269540848
 31
0.0
  0
LINE
  5
139B
330
1F
100
AcDbEntity
  8
0
 62
     2
100
AcDbLine
 10
1993.315400626199
 20
328.9254509540848
 30
0.0
 11
1992.879653626199
 21
328.6979809540848
 31
0.0
  0
LINE
  5
139C
330
1F
100
AcDbEntity
  8
0
 62
     2
100
AcDbLine
 10
1992.879653626199
 20
328.6979809540848
 30
0.0
 11
1992.879710626199
 21
325.4223269540848
 31
0.0
  0
LINE
  5
139D
330
1F
100
AcDbEntity
  8
0
 62
     2
100
AcDbLine
 10
1993.315465626199
 20
325.1948729540848
 30
0.0
 11
1992.879710626199
 21
325.4223269540848
 31
0.0
  0
LINE
  5
139E
330
1F
100
AcDbEntity
  8
0
 62
     2
100
AcDbLine
 10
1991.798861626199
 20
327.2708479540848
 30
0.0
 11
1990.723689626199
 21
327.2708479540848
 31
0.0
  0
LINE
  5
139F
330
1F
100
AcDbEntity
  8
0
 62
     2
100
AcDbLine
 10
1991.798854626199
 20
326.8495579540848
 30
0.0
 11
1990.723696626199
 21
326.8495579540848
 31
0.0
  0
LINE
  5
13A0
330
1F
100
AcDbEntity
  8
0
 62
     2
100
AcDbLine
 10
1991.798886626199
 20
328.6979809540848
 30
0.0
 11
1991.798861626199
 21
327.2708479540848
 31
0.0
  0
LINE
  5
13A1
330
1F
100
AcDbEntity
  8
0
 62
     2
100
AcDbLine
 10
1991.798854626199
 20
326.8495579540848
 30
0.0
 11
1991.798829626199
 21
325.4223269540848
 31
0.0
  0
LINE
  5
13A2
330
1F
100
AcDbEntity
  8
0
 62
     2
100
AcDbLine
 10
1990.723664626199
 20
328.6979809540848
 30
0.0
 11
1990.723689626199
 21
327.2708479540848
 31
0.0
  0
LINE
  5
13A3
330
1F
100
AcDbEntity
  8
0
 62
     2
100
AcDbLine
 10
1990.723696626199
 20
326.8495579540848
 30
0.0
 11
1990.723721626199
 21
325.4223269540848
 31
0.0
  0
LINE
  5
13A4
330
1F
100
AcDbEntity
  8
0
 62
     2
100
AcDbLine
 10
1993.522359626199
 20
328.9254509540848
 30
0.0
 11
1993.958106626199
 21
328.6979809540848
 31
0.0
  0
LINE
  5
13A5
330
1F
100
AcDbEntity
  8
0
 62
     2
100
AcDbLine
 10
1993.958106626199
 20
328.6979809540848
 30
0.0
 11
1993.958049626199
 21
325.4223269540848
 31
0.0
  0
LINE
  5
13A6
330
1F
100
AcDbEntity
  8
0
 62
     2
100
AcDbLine
 10
1993.522294626199
 20
325.1948729540848
 30
0.0
 11
1993.958049626199
 21
325.4223269540848
 31
0.0
  0
LINE
  5
13A7
330
1F
100
AcDbEntity
  8
0
 62
     2
100
AcDbLine
 10
1995.451869626199
 20
328.9254509540848
 30
0.0
 11
1995.016122626199
 21
328.6979809540848
 31
0.0
  0
LINE
  5
13A8
330
1F
100
AcDbEntity
  8
0
 62
     2
100
AcDbLine
 10
1995.016122626199
 20
328.6979809540848
 30
0.0
 11
1995.016179626199
 21
325.4223269540848
 31
0.0
  0
LINE
  5
13A9
330
1F
100
AcDbEntity
  8
0
 62
     2
100
AcDbLine
 10
1995.451934626199
 20
325.1948729540848
 30
0.0
 11
1995.016179626199
 21
325.4223269540848
 31
0.0
  0
LINE
  5
13AA
330
1F
100
AcDbEntity
  8
0
 62
     2
100
AcDbLine
 10
1995.666229626199
 20
328.9254509540848
 30
0.0
 11
1996.101976626199
 21
328.6979809540848
 31
0.0
  0
LINE
  5
13AB
330
1F
100
AcDbEntity
  8
0
 62
     2
100
AcDbLine
 10
1996.101976626199
 20
328.6979809540848
 30
0.0
 11
1996.101919626199
 21
325.4223269540848
 31
0.0
  0
LINE
  5
13AC
330
1F
100
AcDbEntity
  8
0
 62
     2
100
AcDbLine
 10
1995.666164626199
 20
325.1948729540848
 30
0.0
 11
1996.101919626199
 21
325.4223269540848
 31
0.0
  0
ARC
  5
13AD
330
1F
100
AcDbEntity
  8
0
 62
     2
100
AcDbCircle
 10
1987.815239626199
 20
327.0695929540849
 30
0.0
 40
2.086285999999998
100
AcDbArc
 50
97.70152400000617
 51
270.0
  0
ARC
  5
13AE
330
1F
100
AcDbEntity
  8
0
 62
     2
100
AcDbCircle
 10
2000.695840626199
 20
327.0486359540848
 30
0.0
 40
2.108943
100
AcDbArc
 50
0.3142499999992313
 51
69.00558200000408
  0
ARC
  5
13AF
330
1F
100
AcDbEntity
  8
0
 62
     2
100
AcDbCircle
 10
2001.156515626199
 20
327.0486359540848
 30
0.0
 40
2.108943
100
AcDbArc
 50
110.9944179999959
 51
148.1166110000001
  0
ARC
  5
13B0
330
1F
100
AcDbEntity
  8
0
 62
     2
100
AcDbCircle
 10
2000.695840626199
 20
327.0717699540848
 30
0.0
 40
2.108943
100
AcDbArc
 50
290.9944179999959
 51
359.6857500000008
  0
ARC
  5
13B1
330
1F
100
AcDbEntity
  8
0
 62
     2
100
AcDbCircle
 10
2001.156515626199
 20
327.0717699540848
 30
0.0
 40
2.108943
100
AcDbArc
 50
211.8833889999998
 51
249.0055820000041
  0
ARC
  5
13B2
330
1F
100
AcDbEntity
  8
0
 62
     2
100
AcDbCircle
 10
2000.926177626199
 20
327.9230079540848
 30
0.0
 40
1.214070999999999
100
AcDbArc
 50
64.36517200000577
 51
115.6348279999942
  0
ARC
  5
13B3
330
1F
100
AcDbEntity
  8
0
 62
     2
100
AcDbCircle
 10
2000.926177626199
 20
326.1973969540848
 30
0.0
 40
1.214070999999999
100
AcDbArc
 50
244.3651720000058
 51
295.6348279999943
  0
ARC
  5
13B4
330
1F
100
AcDbEntity
  8
0
 62
     2
100
AcDbCircle
 10
2000.926177626199
 20
327.9460699540848
 30
0.0
 40
0.5958560000000001
100
AcDbArc
 50
19.48660600000229
 51
160.5133939999977
  0
ARC
  5
13B5
330
1F
100
AcDbEntity
  8
0
 62
     2
100
AcDbCircle
 10
2000.926177626199
 20
326.1743359540848
 30
0.0
 40
0.5958560000000001
100
AcDbArc
 50
199.4866060000023
 51
340.5133939999977
  0
ARC
  5
13B6
330
1F
100
AcDbEntity
  8
0
 62
     3
100
AcDbCircle
 10
1996.183705626199
 20
304.8321429540848
 30
0.0
 40
26.04
100
AcDbArc
 50
69.50571500000255
 51
81.68998799999496
  0
ARC
  5
13B7
330
1F
100
AcDbEntity
  8
0
 62
     3
100
AcDbCircle
 10
1996.183705626199
 20
349.2882629540848
 30
0.0
 40
26.04
100
AcDbArc
 50
278.310012000005
 51
290.4942849999975
  0
ARC
  5
13B8
330
1F
100
AcDbEntity
  8
0
 62
     3
100
AcDbCircle
 10
2004.491909626199
 20
327.0602029540849
 30
0.0
 40
2.31
100
AcDbArc
 50
290.4942849999975
 51
69.50571500000255
  0
ARC
  5
13B9
330
1F
100
AcDbEntity
  8
0
 62
     3
100
AcDbCircle
 10
1977.191909626199
 20
327.0602029540849
 30
0.0
 40
2.31
100
AcDbArc
 50
110.4942849999974
 51
249.5057150000025
  0
ARC
  5
13BA
330
1F
100
AcDbEntity
  8
0
 62
     3
100
AcDbCircle
 10
1985.500113626199
 20
304.8321429540848
 30
0.0
 40
26.04
100
AcDbArc
 50
98.31001200000507
 51
110.4942849999974
  0
ARC
  5
13BB
330
1F
100
AcDbEntity
  8
0
 62
     3
100
AcDbCircle
 10
1985.500113626199
 20
349.2882629540848
 30
0.0
 40
26.04
100
AcDbArc
 50
249.5057150000025
 51
261.689987999995
  0
ARC
  5
13BC
330
1F
100
AcDbEntity
  8
0
 62
     3
100
AcDbCircle
 10
1990.841909626199
 20
268.2602029540849
 30
0.0
 40
63.0
100
AcDbArc
 50
81.68998799999496
 51
98.31001200000507
  0
ARC
  5
13BD
330
1F
100
AcDbEntity
  8
0
 62
     3
100
AcDbCircle
 10
1990.841909626199
 20
385.8602029540848
 30
0.0
 40
63.0
100
AcDbArc
 50
261.689987999995
 51
278.310012000005
  0
ARC
  5
13BE
330
1F
100
AcDbEntity
  8
0
 62
     3
100
AcDbCircle
 10
1990.841909626199
 20
268.2602029540849
 30
0.0
 40
62.37
100
AcDbArc
 50
81.68998799999496
 51
98.31001200000507
  0
ARC
  5
13BF
330
1F
100
AcDbEntity
  8
0
 62
     3
100
AcDbCircle
 10
1990.841909626199
 20
385.8602029540848
 30
0.0
 40
62.37
100
AcDbArc
 50
261.689987999995
 51
278.310012000005
  0
ARC
  5
13C0
330
1F
100
AcDbEntity
  8
0
 62
     3
100
AcDbCircle
 10
1996.183705626199
 20
349.2882629540848
 30
0.0
 40
25.41
100
AcDbArc
 50
278.310012000005
 51
290.4942849999975
  0
ARC
  5
13C1
330
1F
100
AcDbEntity
  8
0
 62
     3
100
AcDbCircle
 10
1996.183705626199
 20
304.8321429540848
 30
0.0
 40
25.41
100
AcDbArc
 50
69.50571500000255
 51
81.68998799999496
  0
ARC
  5
13C2
330
1F
100
AcDbEntity
  8
0
 62
     3
100
AcDbCircle
 10
2004.491909626199
 20
327.0602029540849
 30
0.0
 40
1.679999999999999
100
AcDbArc
 50
290.4942849999975
 51
69.50571500000255
  0
ARC
  5
13C3
330
1F
100
AcDbEntity
  8
0
 62
     3
100
AcDbCircle
 10
1977.191909626199
 20
327.0602029540849
 30
0.0
 40
1.679999999999999
100
AcDbArc
 50
110.4942849999974
 51
249.5057150000025
  0
ARC
  5
13C4
330
1F
100
AcDbEntity
  8
0
 62
     3
100
AcDbCircle
 10
1985.500113626199
 20
304.8321429540848
 30
0.0
 40
25.41
100
AcDbArc
 50
98.31001200000507
 51
110.4942849999974
  0
ARC
  5
13C5
330
1F
100
AcDbEntity
  8
0
 62
     3
100
AcDbCircle
 10
1985.500113626199
 20
349.2882629540848
 30
0.0
 40
25.41
100
AcDbArc
 50
249.5057150000025
 51
261.689987999995
  0
LINE
  5
13C6
330
1F
100
AcDbEntity
  8
0
 62
     2
100
AcDbLine
 10
1995.451870626199
 20
324.9833259540848
 30
0.0
 11
1993.522358626199
 21
324.9833259540848
 31
0.0
  0
LINE
  5
13C7
330
1F
100
AcDbEntity
  8
0
 62
     2
100
AcDbLine
 10
1995.451870626199
 20
325.1948879540848
 30
0.0
 11
1995.451870626199
 21
324.9833259540848
 31
0.0
  0
LINE
  5
13C8
330
1F
100
AcDbEntity
  8
0
 62
     2
100
AcDbLine
 10
1993.315401626199
 20
329.1369809540849
 30
0.0
 11
1991.363138626199
 21
329.1369809540849
 31
0.0
  0
LINE
  5
13C9
330
1F
100
AcDbEntity
  8
0
 62
     2
100
AcDbLine
 10
1993.315401626199
 20
329.1369809540849
 30
0.0
 11
1993.315401626199
 21
328.9255179540848
 31
0.0
  0
LINE
  5
13CA
330
1F
100
AcDbEntity
  8
0
 62
     2
100
AcDbLine
 10
1993.315401626199
 20
325.1948879540848
 30
0.0
 11
1993.315401626199
 21
324.9832279540848
 31
0.0
  0
LINE
  5
13CB
330
1F
100
AcDbEntity
  8
0
 62
     2
100
AcDbLine
 10
1993.315401626199
 20
324.9832279540848
 30
0.0
 11
1991.363138626199
 21
324.9832279540848
 31
0.0
  0
LINE
  5
13CC
330
1F
100
AcDbEntity
  8
0
 62
     2
100
AcDbLine
 10
1995.451870626199
 20
329.1370789540848
 30
0.0
 11
1995.451870626199
 21
328.9255179540848
 31
0.0
  0
LINE
  5
13CD
330
1F
100
AcDbEntity
  8
0
 62
     2
100
AcDbLine
 10
1995.451870626199
 20
329.1370789540848
 30
0.0
 11
1993.522358626199
 21
329.1370789540848
 31
0.0
  0
LINE
  5
13CE
330
1F
100
AcDbEntity
  8
0
 62
     2
100
AcDbLine
 10
1993.522358626199
 20
329.1370789540848
 30
0.0
 11
1993.522358626199
 21
328.9255179540848
 31
0.0
  0
LINE
  5
13CF
330
1F
100
AcDbEntity
  8
0
 62
     2
100
AcDbLine
 10
1995.666228626199
 20
325.1948879540848
 30
0.0
 11
1995.666228626199
 21
324.9833259540848
 31
0.0
  0
LINE
  5
13D0
330
1F
100
AcDbEntity
  8
0
 62
     2
100
AcDbLine
 10
1997.650529626199
 20
324.9833259540848
 30
0.0
 11
1995.666228626199
 21
324.9833259540848
 31
0.0
  0
LINE
  5
13D1
330
1F
100
AcDbEntity
  8
0
 62
     2
100
AcDbLine
 10
1997.159992626199
 20
328.4693099540848
 30
0.0
 11
1997.159992626199
 21
325.6510959540849
 31
0.0
  0
LINE
  5
13D2
330
1F
100
AcDbEntity
  8
0
 62
     2
100
AcDbLine
 10
1997.159992626199
 20
325.6510959540849
 30
0.0
 11
1997.350041626199
 21
325.6510959540849
 31
0.0
  0
ARC
  5
13D3
330
1F
100
AcDbEntity
  8
0
 62
     2
100
AcDbCircle
 10
1996.378255626199
 20
327.0602029540849
 30
0.0
 40
1.711709999999999
100
AcDbArc
 50
304.5919549999954
 51
55.40804500000458
  0
LINE
  5
13D4
330
1F
100
AcDbEntity
  8
0
 62
     2
100
AcDbLine
 10
1997.650529626199
 20
329.1370789540848
 30
0.0
 11
1995.666228626199
 21
329.1370789540848
 31
0.0
  0
LINE
  5
13D5
330
1F
100
AcDbEntity
  8
0
 62
     2
100
AcDbLine
 10
1995.666228626199
 20
329.1370789540848
 30
0.0
 11
1995.666228626199
 21
328.9255179540848
 31
0.0
  0
LINE
  5
13D6
330
1F
100
AcDbEntity
  8
0
 62
     2
100
AcDbLine
 10
1993.522358626199
 20
325.1948879540848
 30
0.0
 11
1993.522358626199
 21
324.9833259540848
 31
0.0
  0
LINE
  5
13D7
330
1F
100
AcDbEntity
  8
0
 62
     2
100
AcDbLine
 10
1997.159992626199
 20
328.4693099540848
 30
0.0
 11
1997.350041626199
 21
328.4693099540848
 31
0.0
  0
LINE
  5
13D8
330
1F
100
AcDbEntity
  8
0
 62
     2
100
AcDbLine
 10
1985.516832626199
 20
325.1948879540848
 30
0.0
 11
1985.516829626199
 21
324.9833069540848
 31
0.0
  0
LINE
  5
13D9
330
1F
100
AcDbEntity
  8
0
 62
     2
100
AcDbLine
 10
1983.587317626199
 20
324.9833459540848
 30
0.0
 11
1985.516829626199
 21
324.9833129540848
 31
0.0
  0
LINE
  5
13DA
330
1F
100
AcDbEntity
  8
0
 62
     2
100
AcDbLine
 10
1979.290935626199
 20
324.9833259540848
 30
0.0
 11
1980.830200626199
 21
324.9833259540848
 31
0.0
  0
ARC
  5
13DB
330
1F
100
AcDbEntity
  8
0
 62
     2
100
AcDbCircle
 10
1974.308992626199
 20
327.1091089540848
 30
0.0
 40
14.713566
100
AcDbArc
 50
353.8660060000001
 51
357.6940340000007
  0
LINE
  5
13DC
330
1F
100
AcDbEntity
  8
0
 62
     2
100
AcDbLine
 10
1988.025572626199
 20
326.5207419540848
 30
0.0
 11
1989.010643626199
 21
326.5170969540847
 31
0.0
  0
LINE
  5
13DE
330
1F
100
AcDbEntity
  8
0
 62
     2
100
AcDbLine
 10
1988.029551626199
 20
327.5959569540848
 30
0.0
 11
1989.014622626199
 21
327.5923119540847
 31
0.0
  0
ARC
  5
13DF
330
1F
100
AcDbEntity
  8
0
 62
     2
100
AcDbCircle
 10
1974.308992626199
 20
327.1091089540848
 30
0.0
 40
14.713566
100
AcDbArc
 50
1.881966000000639
 51
5.709994000000348
  0
LINE
  5
13E0
330
1F
100
AcDbEntity
  8
0
 62
     2
100
AcDbLine
 10
1985.516901626199
 20
329.1370589540848
 30
0.0
 11
1985.516898626199
 21
328.9255179540848
 31
0.0
  0
LINE
  5
13E1
330
1F
100
AcDbEntity
  8
0
 62
     2
100
AcDbLine
 10
1983.587389626199
 20
329.1370989540848
 30
0.0
 11
1985.516901626199
 21
329.1370649540848
 31
0.0
  0
LINE
  5
13E2
330
1F
100
AcDbEntity
  8
0
 62
     2
100
AcDbLine
 10
1983.587321626199
 20
325.1948879540848
 30
0.0
 11
1983.587317626199
 21
324.9833459540848
 31
0.0
  0
LINE
  5
13E3
330
1F
100
AcDbEntity
  8
0
 62
     2
100
AcDbLine
 10
1983.587389626199
 20
329.1370989540848
 30
0.0
 11
1983.587386626199
 21
328.9255179540848
 31
0.0
  0
LINE
  5
13E4
330
1F
100
AcDbEntity
  8
0
 62
     2
100
AcDbLine
 10
1980.830200626199
 20
325.1948879540848
 30
0.0
 11
1980.830200626199
 21
324.9833259540848
 31
0.0
  0
LINE
  5
13E5
330
1F
100
AcDbEntity
  8
0
 62
     2
100
AcDbLine
 10
1980.394452626199
 20
327.4192149540848
 30
0.0
 11
1981.916883626199
 21
324.9833259540848
 31
0.0
  0
LINE
  5
13E6
330
1F
100
AcDbEntity
  8
0
 62
     2
100
AcDbLine
 10
1981.916883626199
 20
324.9833259540848
 30
0.0
 11
1982.936315626199
 21
324.9833259540848
 31
0.0
  0
LINE
  5
13E7
330
1F
100
AcDbEntity
  8
0
 62
     2
100
AcDbLine
 10
1983.372063626199
 20
329.1370789540848
 30
0.0
 11
1983.372063626199
 21
328.9255179540848
 31
0.0
  0
LINE
  5
13E8
330
1F
100
AcDbEntity
  8
0
 62
     2
100
AcDbLine
 10
1981.832798626199
 20
329.1370789540848
 30
0.0
 11
1983.372063626199
 21
329.1370789540848
 31
0.0
  0
LINE
  5
13E9
330
1F
100
AcDbEntity
  8
0
 62
     2
100
AcDbLine
 10
1981.832798626199
 20
329.1370789540848
 30
0.0
 11
1981.832798626199
 21
328.9255179540848
 31
0.0
  0
LINE
  5
13EA
330
1F
100
AcDbEntity
  8
0
 62
     2
100
AcDbLine
 10
1982.268546626199
 20
327.2557129540848
 30
0.0
 11
1981.033899626199
 21
329.1370789540848
 31
0.0
  0
LINE
  5
13EB
330
1F
100
AcDbEntity
  8
0
 62
     2
100
AcDbLine
 10
1979.290935626199
 20
329.1370789540848
 30
0.0
 11
1981.033899626199
 21
329.1370789540848
 31
0.0
  0
LINE
  5
13EC
330
1F
100
AcDbEntity
  8
0
 62
     2
100
AcDbLine
 10
1989.207149626199
 20
329.1369809540849
 30
0.0
 11
1991.159412626199
 21
329.1369809540849
 31
0.0
  0
LINE
  5
13ED
330
1F
100
AcDbEntity
  8
0
 62
     2
100
AcDbLine
 10
1989.207149626199
 20
328.9255179540848
 30
0.0
 11
1989.207149626199
 21
329.1369809540849
 31
0.0
  0
LINE
  5
13EE
330
1F
100
AcDbEntity
  8
0
 62
     2
100
AcDbLine
 10
1989.207149626199
 20
324.9832279540848
 30
0.0
 11
1989.207149626199
 21
325.1948879540848
 31
0.0
  0
LINE
  5
13EF
330
1F
100
AcDbEntity
  8
0
 62
     2
100
AcDbLine
 10
1989.207149626199
 20
324.9832279540848
 30
0.0
 11
1991.159412626199
 21
324.9832279540848
 31
0.0
  0
LINE
  5
13F0
330
1F
100
AcDbEntity
  8
0
 62
     2
100
AcDbLine
 10
1991.363138626199
 20
325.1948879540848
 30
0.0
 11
1991.363138626199
 21
324.9832279540848
 31
0.0
  0
LINE
  5
13F1
330
1F
100
AcDbEntity
  8
0
 62
     2
100
AcDbLine
 10
1991.159412626199
 20
325.1948879540848
 30
0.0
 11
1991.159412626199
 21
324.9832279540848
 31
0.0
  0
LINE
  5
13F2
330
1F
100
AcDbEntity
  8
0
 62
     2
100
AcDbLine
 10
1991.159412626199
 20
328.9255179540848
 30
0.0
 11
1991.159412626199
 21
329.1369809540849
 31
0.0
  0
LINE
  5
13F3
330
1F
100
AcDbEntity
  8
0
 62
     2
100
AcDbLine
 10
1991.363138626199
 20
328.9255179540848
 30
0.0
 11
1991.363138626199
 21
329.1369809540849
 31
0.0
  0
LINE
  5
13F4
330
1F
100
AcDbEntity
  8
0
 62
     2
100
AcDbLine
 10
1979.290935626199
 20
325.1948879540848
 30
0.0
 11
1979.290935626199
 21
324.9833259540848
 31
0.0
  0
LINE
  5
13F5
330
1F
100
AcDbEntity
  8
0
 62
     2
100
AcDbLine
 10
1979.290935626199
 20
329.1370789540848
 30
0.0
 11
1979.290935626199
 21
328.9255179540848
 31
0.0
  0
ARC
  5
13F6
330
1F
100
AcDbEntity
  8
0
 62
     2
100
AcDbCircle
 10
1997.860529626199
 20
327.4959509540849
 30
0.0
 40
1.641127999999999
100
AcDbArc
 50
17.30874899999934
 51
23.76507100000167
  0
ARC
  5
13F7
330
1F
100
AcDbEntity
  8
0
 62
     2
100
AcDbCircle
 10
1996.462255626199
 20
327.0602029540849
 30
0.0
 40
3.105725999999998
100
AcDbArc
 50
342.6912510000006
 51
17.30856600000147
  0
ARC
  5
13F8
330
1F
100
AcDbEntity
  8
0
 62
     2
100
AcDbCircle
 10
1997.860529626199
 20
326.6244549540848
 30
0.0
 40
1.641127999999999
100
AcDbArc
 50
336.2349289999984
 51
342.6912510000006
  0
ARC
  5
13F9
330
1F
100
AcDbEntity
  8
0
 62
     2
100
AcDbCircle
 10
1997.650529626199
 20
327.4959509540849
 30
0.0
 40
1.641127999999999
100
AcDbArc
 50
17.30874899999934
 51
90.0
  0
ARC
  5
13FA
330
1F
100
AcDbEntity
  8
0
 62
     2
100
AcDbCircle
 10
1996.252255626199
 20
327.0602029540849
 30
0.0
 40
3.105725999999998
100
AcDbArc
 50
342.6912510000006
 51
17.30856600000147
  0
ARC
  5
13FB
330
1F
100
AcDbEntity
  8
0
 62
     2
100
AcDbCircle
 10
1997.650529626199
 20
326.6244549540848
 30
0.0
 40
1.641127999999999
100
AcDbArc
 50
270.0
 51
342.6912510000006
  0
ARC
  5
13FC
330
1F
100
AcDbEntity
  8
0
 62
     2
100
AcDbCircle
 10
1987.526588626199
 20
327.0602029540849
 30
0.0
 40
2.076875999999999
100
AcDbArc
 50
46.75287999999631
 51
89.74999799999961
  0
ARC
  5
13FD
330
1F
100
AcDbEntity
  8
0
 62
     2
100
AcDbCircle
 10
1987.526588626199
 20
327.0602029540849
 30
0.0
 40
2.076875999999999
100
AcDbArc
 50
273.9763330000016
 51
312.8231200000002
  0
ARC
  5
13FE
330
1F
100
AcDbEntity
  8
0
 62
     2
100
AcDbCircle
 10
1998.968396626199
 20
327.0281409540848
 30
0.0
 40
2.755888999999998
100
AcDbArc
 50
0.6665840000006691
 51
23.90392800000046
  0
ARC
  5
13FF
330
1F
100
AcDbEntity
  8
0
 62
     2
100
AcDbCircle
 10
2002.883959626199
 20
327.0281409540848
 30
0.0
 40
2.755888999999998
100
AcDbArc
 50
156.0960719999995
 51
179.3334159999993
  0
ARC
  5
1400
330
1F
100
AcDbEntity
  8
0
 62
     2
100
AcDbCircle
 10
1998.968396626199
 20
327.0922639540848
 30
0.0
 40
2.755888999999998
100
AcDbArc
 50
336.0960719999996
 51
359.3334159999994
  0
ARC
  5
1401
330
1F
100
AcDbEntity
  8
0
 62
     2
100
AcDbCircle
 10
2002.883959626199
 20
327.0922639540848
 30
0.0
 40
2.755888999999998
100
AcDbArc
 50
180.6665840000007
 51
203.9039280000005
  0
LINE
  5
1402
330
1F
100
AcDbEntity
  8
0
 62
     3
100
AcDbLine
 10
2066.507219626199
 20
66.8037969540848
 30
0.0
 11
2066.507219626199
 21
89.80379695408482
 31
0.0
  0
LINE
  5
1403
330
1F
100
AcDbEntity
  8
0
 62
     3
100
AcDbLine
 10
2013.453610626199
 20
59.80379695408479
 30
0.0
 11
2013.453610626199
 21
73.8037969540848
 31
0.0
  0
TEXT
  5
1404
330
1F
100
AcDbEntity
  8
0
 62
     3
100
AcDbText
 10
2042.517537626199
 20
86.00891295408478
 30
0.0
 40
2.0
  1
A
 41
0.7
100
AcDbText
  0
TEXT
  5
1405
330
1F
100
AcDbEntity
  8
0
 62
     3
100
AcDbText
 10
2045.052824626199
 20
86.00891295408478
 30
0.0
 40
2.0
  1
P
 41
0.7
100
AcDbText
  0
TEXT
  5
1406
330
1F
100
AcDbEntity
  8
0
 62
     3
100
AcDbText
 10
2047.588110626199
 20
86.00891295408478
 30
0.0
 40
2.0
  1
P
 41
0.7
100
AcDbText
  0
TEXT
  5
1407
330
1F
100
AcDbEntity
  8
0
 62
     3
100
AcDbText
 10
2050.123396626199
 20
86.00891295408478
 30
0.0
 40
2.0
  1
D
 41
0.7
100
AcDbText
  0
TEXT
  5
1408
330
1F
100
AcDbEntity
  8
0
 62
     3
100
AcDbText
 10
2055.492079626199
 20
86.00891295408478
 30
0.0
 40
2.0
  1
C
 41
0.7
100
AcDbText
  0
TEXT
  5
1409
330
1F
100
AcDbEntity
  8
0
 62
     3
100
AcDbText
 10
2058.027365626199
 20
86.00891295408478
 30
0.0
 40
2.0
  1
H
 41
0.7
100
AcDbText
  0
TEXT
  5
140A
330
1F
100
AcDbEntity
  8
0
 62
     3
100
AcDbText
 10
2060.562652626199
 20
86.00891295408478
 30
0.0
 40
2.0
  1
C
 41
0.7
100
AcDbText
  0
TEXT
  5
140B
330
1F
100
AcDbEntity
  8
0
 62
     3
100
AcDbText
 10
2063.097938626199
 20
86.00891295408478
 30
0.0
 40
2.0
  1
K
 41
0.7
100
AcDbText
  0
TEXT
  5
140C
330
1F
100
AcDbEntity
  8
0
 62
     3
100
AcDbText
 10
2068.771904626199
 20
86.00891295408478
 30
0.0
 40
2.0
  1
DESN
 41
1.216762999999998
100
AcDbText
  0
TEXT
  5
140D
330
1F
100
AcDbEntity
  8
0
 62
     3
100
AcDbText
 10
1983.765546626199
 20
56.66241495408478
 30
0.0
 40
2.0
  1
NICHIDO IND.CO.LTD
 41
1.274876
100
AcDbText
  0
LINE
  5
140E
330
1F
100
AcDbEntity
  8
0
 62
     3
100
AcDbLine
 10
1994.148575626199
 20
89.80379695408482
 30
0.0
 11
1994.148575626199
 21
66.8037969540848
 31
0.0
  0
LINE
  5
140F
330
1F
100
AcDbEntity
  8
0
 62
     3
100
AcDbLine
 10
2040.507219626199
 20
89.80379695408482
 30
0.0
 11
2040.507219626199
 21
50.1380739540848
 31
0.0
  0
LINE
  5
1410
330
1F
100
AcDbEntity
  8
0
 62
     3
100
AcDbLine
 10
2053.507219626199
 20
89.80379695408482
 30
0.0
 11
2053.507219626199
 21
59.80379695408479
 31
0.0
  0
TEXT
  5
1411
330
1F
100
AcDbEntity
  8
0
 62
     3
100
AcDbText
 10
2041.619664626199
 20
60.66848395408481
 30
0.0
 40
3.2
  1
作成日
 41
1.017225999999997
100
AcDbText
  0
LINE
  5
1412
330
1F
100
AcDbEntity
  8
0
 62
     3
100
AcDbLine
 10
2092.206583626199
 20
89.80379695408482
 30
0.0
 11
1980.903140626199
 21
89.80379695408482
 31
0.0
  0
LINE
  5
1413
330
1F
100
AcDbEntity
  8
0
 62
     3
100
AcDbLine
 10
2079.507219626199
 20
66.8037969540848
 30
0.0
 11
2079.507219626199
 21
89.80379695408482
 31
0.0
  0
TEXT
  5
1414
330
1F
100
AcDbEntity
  8
0
 62
     3
100
AcDbText
 10
2082.831023626199
 20
86.0947309540848
 30
0.0
 40
1.8
  1
D
 41
0.666667
100
AcDbText
  0
TEXT
  5
1415
330
1F
100
AcDbEntity
  8
0
 62
     3
100
AcDbText
 10
2085.647651626199
 20
86.0947309540848
 30
0.0
 40
1.8
  1
E
 41
0.666667
100
AcDbText
  0
TEXT
  5
1416
330
1F
100
AcDbEntity
  8
0
 62
     3
100
AcDbText
 10
2088.464279626199
 20
86.0947309540848
 30
0.0
 40
1.8
  1
F
 41
0.666667
100
AcDbText
  0
TEXT
  5
1417
330
1F
100
AcDbEntity
  8
0
 62
     3
100
AcDbText
 10
2082.831023626199
 20
82.10217795408489
 30
0.0
 40
3.2
  1
製図
 41
1.076369
100
AcDbText
  0
LINE
  5
1418
330
1F
100
AcDbEntity
  8
0
 62
     3
100
AcDbLine
 10
1980.903140626199
 20
89.80379695408482
 30
0.0
 11
1980.903140626199
 21
50.1380739540848
 31
0.0
  0
TEXT
  5
1419
330
1F
100
AcDbEntity
  8
0
 62
     3
100
AcDbText
 10
1982.279793626199
 20
50.47053995408479
 30
0.0
 40
5.0
  1
日動工業株式会社
 41
0.833333
100
AcDbText
  0
LINE
  5
141A
330
1F
100
AcDbEntity
  8
0
 62
     3
100
AcDbLine
 10
2023.785544626199
 20
73.8037969540848
 30
0.0
 11
2023.785544626199
 21
50.1380739540848
 31
0.0
  0
LINE
  5
141B
330
1F
100
AcDbEntity
  8
0
 62
     3
100
AcDbLine
 10
2023.785544626199
 20
54.9709359540849
 30
0.0
 11
2040.507219626199
 21
54.9709359540849
 31
0.0
  0
TEXT
  5
141C
330
1F
100
AcDbEntity
  8
0
 62
     3
100
AcDbText
 10
2024.372146626199
 20
55.78736595408479
 30
0.0
 40
3.2
  1
出図コード
 41
0.8356860000000001
100
AcDbText
  0
LINE
  5
141D
330
1F
100
AcDbEntity
  8
0
 62
     3
100
AcDbLine
 10
1980.903140626199
 20
59.80379695408479
 30
0.0
 11
2092.206583626199
 21
59.80379695408479
 31
0.0
  0
LINE
  5
141E
330
1F
100
AcDbEntity
  8
0
 62
     3
100
AcDbLine
 10
1980.903140626199
 20
80.80379695408479
 30
0.0
 11
2092.206583626199
 21
80.80379695408479
 31
0.0
  0
LINE
  5
141F
330
1F
100
AcDbEntity
  8
0
 62
     3
100
AcDbLine
 10
1980.903140626199
 20
73.8037969540848
 30
0.0
 11
2040.507219626199
 21
73.8037969540848
 31
0.0
  0
LINE
  5
1420
330
1F
100
AcDbEntity
  8
0
 62
     3
100
AcDbLine
 10
1980.903140626199
 20
66.8037969540848
 30
0.0
 11
2092.206583626199
 21
66.8037969540848
 31
0.0
  0
TEXT
  5
1421
330
1F
100
AcDbEntity
  8
0
 62
     3
100
AcDbText
 10
2024.239598626199
 20
50.74026895408479
 30
0.0
 40
3.2
  1
ZK-A4Y
 41
0.8112849999999999
100
AcDbText
  0
LINE
  5
1422
330
1F
100
AcDbEntity
  8
0
 62
     3
100
AcDbLine
 10
1912.206583626199
 20
327.1380739540848
 30
0.0
 11
1912.206583626199
 21
50.1380739540848
 31
0.0
  0
LINE
  5
1423
330
1F
100
AcDbEntity
  8
0
 62
     3
100
AcDbLine
 10
2092.206583626199
 20
50.1380739540848
 30
0.0
 11
2092.206583626199
 21
327.1380739540848
 31
0.0
  0
LINE
  5
1424
330
1F
100
AcDbEntity
  8
0
 62
     3
100
AcDbLine
 10
2092.206583626199
 20
50.1380739540848
 30
0.0
 11
1912.206583626199
 21
50.1380739540848
 31
0.0
  0
TEXT
  5
1425
330
1F
100
AcDbEntity
  8
0
 62
     3
100
AcDbText
 10
1982.720537626199
 20
85.97332295408483
 30
0.0
 40
2.0
  1
CONPONENTS
 41
0.5331600000000001
100
AcDbText
  0
TEXT
  5
1426
330
1F
100
AcDbEntity
  8
0
 62
     3
100
AcDbText
 10
1982.370811626199
 20
67.0411459540848
 30
0.0
 40
3.0
  1
材
 41
0.833333
100
AcDbText
  0
TEXT
  5
1427
330
1F
100
AcDbEntity
  8
0
 62
     3
100
AcDbText
 10
1989.906453626199
 20
67.0411459540848
 30
0.0
 40
3.0
  1
質
 41
0.833333
100
AcDbText
  0
TEXT
  5
1428
330
1F
100
AcDbEntity
  8
0
 62
     3
100
AcDbText
 10
1982.458881626199
 20
77.66566995408481
 30
0.0
 40
2.0
  1
MODEL
 41
1.031072999999999
100
AcDbText
  0
TEXT
  5
1429
330
1F
100
AcDbEntity
  8
0
 62
     3
100
AcDbText
 10
1982.370811626199
 20
70.7234539540848
 30
0.0
 40
2.0
  1
MATERIAL
 41
0.659278
100
AcDbText
  0
TEXT
  5
142A
330
1F
100
AcDbEntity
  8
0
 62
     3
100
AcDbText
 10
2013.678091626199
 20
67.0411459540848
 30
0.0
 40
3.0
  1
備
 41
0.833333
100
AcDbText
  0
TEXT
  5
142B
330
1F
100
AcDbEntity
  8
0
 62
     3
100
AcDbText
 10
2020.411093626199
 20
67.0411459540848
 30
0.0
 40
3.0
  1
考
 41
0.833333
100
AcDbText
  0
TEXT
  5
142C
330
1F
100
AcDbEntity
  8
0
 62
     3
100
AcDbText
 10
2013.966834984767
 20
70.7234539540848
 30
0.0
 40
2.0
  1
REMARKS
 41
0.675794
100
AcDbText
  0
TEXT
  5
142D
330
1F
100
AcDbEntity
  8
0
 62
     3
100
AcDbText
 10
1983.960540626199
 20
63.80333295408481
 30
0.0
 40
2.0
  1
3AD
 41
1.42614
100
AcDbText
  0
TEXT
  5
142E
330
1F
100
AcDbEntity
  8
0
 62
     3
100
AcDbText
 10
1993.271519626199
 20
63.96906695408478
 30
0.0
 40
2.0
  1
ANGLE
 41
1.669883999999995
100
AcDbText
  0
TEXT
  5
142F
330
1F
100
AcDbEntity
  8
0
 62
     3
100
AcDbText
 10
2014.205406626199
 20
63.59222595408482
 30
0.0
 40
2.0
  1
SCALE
 41
0.7719630000000001
100
AcDbText
  0
TEXT
  5
1430
330
1F
100
AcDbEntity
  8
0
 62
     3
100
AcDbText
 10
1983.646669626199
 20
59.80379695408479
 30
0.0
 40
3.0
  1
第
 41
0.833333
100
AcDbText
  0
TEXT
  5
1431
330
1F
100
AcDbEntity
  8
0
 62
     3
100
AcDbText
 10
1991.433519626199
 20
59.80379695408479
 30
0.0
 40
3.0
  1
三
 41
0.833333
100
AcDbText
  0
TEXT
  5
1432
330
1F
100
AcDbEntity
  8
0
 62
     3
100
AcDbText
 10
1999.220369626199
 20
59.80379695408479
 30
0.0
 40
3.0
  1
角
 41
0.833333
100
AcDbText
  0
TEXT
  5
1433
330
1F
100
AcDbEntity
  8
0
 62
     3
100
AcDbText
 10
2007.007219626199
 20
59.80379695408479
 30
0.0
 40
3.0
  1
法
 41
0.833333
100
AcDbText
  0
TEXT
  5
1434
330
1F
100
AcDbEntity
  8
0
 62
     3
100
AcDbText
 10
2014.068611626199
 20
60.0922259540849
 30
0.0
 40
3.0
  1
尺
 41
0.833333
100
AcDbText
  0
TEXT
  5
1435
330
1F
100
AcDbEntity
  8
0
 62
     3
100
AcDbText
 10
2020.801613626199
 20
60.0922259540849
 30
0.0
 40
3.0
  1
度
 41
0.833333
100
AcDbText
  0
TEXT
  5
1436
330
1F
100
AcDbEntity
  8
0
 62
     3
100
AcDbText
 10
2043.384884626199
 20
82.2615259540848
 30
0.0
 40
3.0
  1
承認
 41
1.089472999999999
100
AcDbText
  0
TEXT
  5
1437
330
1F
100
AcDbEntity
  8
0
 62
     3
100
AcDbText
 10
2056.627764626199
 20
82.2037969540848
 30
0.0
 40
3.0
  1
検図
 41
0.931761
100
AcDbText
  0
TEXT
  5
1438
330
1F
100
AcDbEntity
  8
0
 62
     3
100
AcDbText
 10
2069.628161626199
 20
82.2037969540848
 30
0.0
 40
3.0
  1
設
 41
0.833333
100
AcDbText
  0
TEXT
  5
1439
330
1F
100
AcDbEntity
  8
0
 62
     3
100
AcDbText
 10
2074.118029626199
 20
82.2037969540848
 30
0.0
 40
3.0
  1
計
 41
0.833333
100
AcDbText
  0
TEXT
  5
143A
330
1F
100
AcDbEntity
  8
0
 62
     3
100
AcDbText
 10
1982.652009626199
 20
81.4925529540848
 30
0.0
 40
3.0
  1
品
 41
0.833333
100
AcDbText
  0
TEXT
  5
143B
330
1F
100
AcDbEntity
  8
0
 62
     3
100
AcDbText
 10
1990.187651626199
 20
81.4925529540848
 30
0.0
 40
3.0
  1
名
 41
0.833333
100
AcDbText
  0
TEXT
  5
143C
330
1F
100
AcDbEntity
  8
0
 62
     3
100
AcDbText
 10
1982.458881626199
 20
74.03340995408481
 30
0.0
 40
3.0
  1
型
 41
0.833333
100
AcDbText
  0
TEXT
  5
143D
330
1F
100
AcDbEntity
  8
0
 62
     3
100
AcDbText
 10
1990.006972626199
 20
74.03340995408481
 30
0.0
 40
3.0
  1
式
 41
0.833333
100
AcDbText
  0
LINE
  5
143E
330
1F
100
AcDbEntity
  8
0
 62
     3
100
AcDbLine
 10
2007.534246626199
 20
327.1380739540848
 30
0.0
 11
2092.206583626199
 21
327.1380739540848
 31
0.0
  0
LINE
  5
143F
330
1F
100
AcDbEntity
  8
0
 62
     3
100
AcDbLine
 10
1974.121499626199
 20
327.1380739540848
 30
0.0
 11
1912.206583626199
 21
327.1380739540848
 31
0.0
  0
LINE
  5
1440
330
1F
100
AcDbEntity
  8
0
100
AcDbLine
 10
2018.712016626199
 20
322.6326849540848
 30
0.0
 11
2018.712016626199
 21
307.7826849540848
 31
0.0
  0
LINE
  5
1441
330
1F
100
AcDbEntity
  8
0
100
AcDbLine
 10
2092.206583626199
 20
312.7326849540848
 30
0.0
 11
2008.606583626199
 21
312.7326849540848
 31
0.0
  0
LINE
  5
1442
330
1F
100
AcDbEntity
  8
0
100
AcDbLine
 10
2080.609058626199
 20
322.6326849540848
 30
0.0
 11
2080.609058626199
 21
307.7826849540848
 31
0.0
  0
LINE
  5
1443
330
1F
100
AcDbEntity
  8
0
100
AcDbLine
 10
2036.317342626199
 20
322.6326849540848
 30
0.0
 11
2036.317342626199
 21
307.7826849540848
 31
0.0
  0
LINE
  5
1444
330
1F
100
AcDbEntity
  8
0
100
AcDbLine
 10
2008.606583626199
 20
317.6826849540848
 30
0.0
 11
2092.206583626199
 21
317.6826849540848
 31
0.0
  0
TEXT
  5
1445
330
1F
100
AcDbEntity
  8
0
 62
     3
100
AcDbText
 10
2057.090768626199
 20
60.57821295408479
 30
0.0
 40
3.2
  1
2015.07.13
  7
高3.2
100
AcDbText
  0
TEXT
  5
1446
330
1F
100
AcDbEntity
  8
0
 62
     3
100
AcDbText
 10
2028.552097840798
 20
60.69179395408479
 30
0.0
 40
3.2
  1
1/1
  7
高3.2
100
AcDbText
  0
TEXT
  5
1447
330
1F
100
AcDbEntity
  8
0
 62
     3
100
AcDbText
 10
1995.490493001717
 20
81.35621395408479
 30
0.0
 40
4.5
  1
LED電球9Wフロスト
 41
0.8
  7
高4.5
100
AcDbText
  0
TEXT
  5
1448
330
1F
100
AcDbEntity
  8
0
 62
     3
100
AcDbText
 10
2026.653904626199
 20
67.3568459540848
 30
0.0
 40
3.2
  1
交換球
  7
高3.2
100
AcDbText
  0
LINE
  5
1449
330
1F
100
AcDbEntity
  8
0
 62
     3
100
AcDbLine
 10
2066.507219626199
 20
89.80379695408482
 30
0.0
 11
2066.507219626199
 21
95.80379695408479
 31
0.0
  0
LINE
  5
144A
330
1F
100
AcDbEntity
  8
0
 62
     3
100
AcDbLine
 10
2040.507219626199
 20
89.80379695408482
 30
0.0
 11
2040.507219626199
 21
95.80379695408479
 31
0.0
  0
LINE
  5
144B
330
1F
100
AcDbEntity
  8
0
 62
     3
100
AcDbLine
 10
2092.206582626199
 20
95.80379695408479
 30
0.0
 11
2040.507219626199
 21
95.80379695408479
 31
0.0
  0
TEXT
  5
144C
330
1F
100
AcDbEntity
  8
0
 62
     3
100
AcDbText
 10
2046.502817626199
 20
90.6001459540848
 30
0.0
 40
4.5
  1
コード
  7
高4.5
100
AcDbText
  0
TEXT
  5
144D
330
1F
100
AcDbEntity
  8
0
 62
     3
100
AcDbText
 10
2003.403861626199
 20
74.4181669540848
 30
0.0
 40
4.5
  1
LU9W-F
  7
高4.5
100
AcDbText
  0
TEXT
  5
144E
330
1F
100
AcDbEntity
  8
0
 62
     3
100
AcDbText
 10
2049.063377128918
 20
51.4138047999823
 30
0.0
 40
6.299999999999998
  1
LU9W-F
 41
0.9
  7
高6.3
100
AcDbText
  0
TEXT
  5
144F
330
1F
100
AcDbEntity
  8
0
 62
     3
100
AcDbText
 10
2070.616339582982
 20
90.44793395408481
 30
0.0
 40
4.5
  1
13085
  7
高4.5
100
AcDbText
  0
LINE
  5
1553
330
1F
100
AcDbEntity
  8
0
100
AcDbLine
 10
1974.96119268693
 20
134.5664991705703
 30
0.0
 11
1977.461192686931
 21
139.0664991705705
 31
0.0
  0
ARC
  5
1554
330
1F
100
AcDbEntity
  8
0
100
AcDbCircle
 10
1981.65149083104
 20
142.5594704369313
 30
0.0
 40
1.309701188913185
100
AcDbArc
 50
270.0
 51
97.46279400000373
  0
ARC
  5
1555
330
1F
100
AcDbEntity
  8
0
100
AcDbCircle
 10
1981.65149083104
 20
147.7982765265391
 30
0.0
 40
1.309701188913185
100
AcDbArc
 50
270.0
 51
97.46279400000373
  0
ARC
  5
1556
330
1F
100
AcDbEntity
  8
0
100
AcDbCircle
 10
1983.61604261441
 20
145.1788741487128
 30
0.0
 40
1.964551783369778
100
AcDbArc
 50
126.8698979999915
 51
233.1301020000085
  0
ARC
  5
1557
330
1F
100
AcDbEntity
  8
0
100
AcDbCircle
 10
1983.61604261441
 20
150.4176789043655
 30
0.0
 40
1.964551783369778
100
AcDbArc
 50
126.8698979999915
 51
233.1301020000085
  0
ARC
  5
1558
330
1F
100
AcDbEntity
  8
0
100
AcDbCircle
 10
1981.65149083104
 20
153.037081282192
 30
0.0
 40
1.309701188913185
100
AcDbArc
 50
270.0
 51
96.41232653133751
  0
LINE
  5
1559
330
1F
100
AcDbEntity
  8
0
100
AcDbLine
 10
1964.961192686931
 20
134.5664991705704
 30
0.0
 11
1962.46119268693
 21
139.0664991705705
 31
0.0
  0
ARC
  5
155A
330
1F
100
AcDbEntity
  8
0
100
AcDbCircle
 10
1958.270894542821
 20
146.488575337626
 30
0.0
 40
1.309701188913185
100
AcDbArc
 50
90.0
 51
277.4627940000037
  0
ARC
  5
155B
330
1F
100
AcDbEntity
  8
0
100
AcDbCircle
 10
1958.270894542821
 20
141.2497692480181
 30
0.0
 40
1.309701188913185
100
AcDbArc
 50
90.0
 51
290.8564800000042
  0
ARC
  5
155C
330
1F
100
AcDbEntity
  8
0
100
AcDbCircle
 10
1956.306341425496
 20
143.8691716258445
 30
0.0
 40
1.964551783369778
100
AcDbArc
 50
306.8698979999915
 51
53.13010200000849
  0
ARC
  5
155D
330
1F
100
AcDbEntity
  8
0
100
AcDbCircle
 10
1956.306341425496
 20
149.1079777154523
 30
0.0
 40
1.964551783369778
100
AcDbArc
 50
306.8698979999915
 51
53.13010200000849
  0
ARC
  5
155E
330
1F
100
AcDbEntity
  8
0
100
AcDbCircle
 10
1958.270894542821
 20
151.7273800932786
 30
0.0
 40
1.309701188913185
100
AcDbArc
 50
90.0
 51
277.4627940000037
  0
LINE
  5
155F
330
1F
100
AcDbEntity
  8
0
100
AcDbLine
 10
1978.65149083104
 20
139.0664991705705
 30
0.0
 11
1961.270894542822
 21
139.0664991705705
 31
0.0
  0
ARC
  5
1560
330
1F
100
AcDbEntity
  8
0
100
AcDbCircle
 10
1969.96119268693
 20
160.154161171978
 30
0.0
 40
26.0716023040065
100
AcDbArc
 50
258.9433454045602
 51
281.0566545954398
  0
LINE
  5
1561
330
1F
100
AcDbEntity
  8
0
100
AcDbLine
 10
1974.96119268693
 20
134.5664991705704
 30
0.0
 11
1964.961192686931
 21
134.5664991705704
 31
0.0
  0
LINE
  5
1562
330
1F
100
AcDbEntity
  8
0
100
AcDbLine
 10
1957.960349781186
 20
139.9774174696764
 30
0.0
 11
1981.65149083104
 21
141.2497692480181
 31
0.0
  0
LINE
  5
1563
330
1F
100
AcDbEntity
  8
0
100
AcDbLine
 10
1958.270894542821
 20
142.5594704369313
 30
0.0
 11
1981.65149083104
 21
143.8691716258445
 31
0.0
  0
LINE
  5
1564
330
1F
100
AcDbEntity
  8
0
100
AcDbLine
 10
1958.270894542821
 20
145.1788741487128
 30
0.0
 11
1981.65149083104
 21
146.488575337626
 31
0.0
  0
LINE
  5
1565
330
1F
100
AcDbEntity
  8
0
100
AcDbLine
 10
1958.270894542821
 20
147.7982765265391
 30
0.0
 11
1981.65149083104
 21
149.1079777154523
 31
0.0
  0
LINE
  5
1567
330
1F
100
AcDbEntity
  8
0
100
AcDbLine
 10
1958.270894542821
 20
150.4176789043655
 30
0.0
 11
1981.65149083104
 21
151.7273800932786
 31
0.0
  0
LINE
  5
1575
330
1F
100
AcDbEntity
  8
0
  6
Continuous
100
AcDbLine
 10
1982.461192019979
 20
157.4814887595427
 30
0.0
 11
1982.461192019979
 21
162.0664991705704
 31
0.0
  0
LINE
  5
1577
330
1F
100
AcDbEntity
  8
0
100
AcDbLine
 10
1958.270894542821
 20
153.0370812821917
 30
0.0
 11
1981.50521983016
 21
154.3385888689661
 31
0.0
  0
ARC
  5
1578
330
1F
100
AcDbEntity
  8
0
  6
Continuous
100
AcDbCircle
 10
1978.65149083104
 20
142.0664991705703
 30
0.0
 40
3.0
100
AcDbArc
 50
270.0
 51
344.0795009769837
  0
ARC
  5
1579
330
1F
100
AcDbEntity
  8
0
  6
Continuous
100
AcDbCircle
 10
1961.270894542822
 20
142.0664991705704
 30
0.0
 40
3.0
100
AcDbArc
 50
222.5816166691555
 51
270.0
  0
LINE
  5
164B
330
1F
100
AcDbEntity
  8
0
 62
     3
100
AcDbLine
 10
1950.161192686931
 20
195.0664991705704
 30
0.0
 11
1989.76119268693
 21
195.0664991705704
 31
0.0
  0
LINE
  5
164C
330
1F
100
AcDbEntity
  8
0
 62
     3
100
AcDbLine
 10
1985.21119268693
 20
162.0664991705704
 30
0.0
 11
1954.71119268693
 21
162.0664991705704
 31
0.0
  0
LINE
  5
1659
330
1F
100
AcDbEntity
  8
0
100
AcDbLine
 10
1957.461192019952
 20
158.0664991705704
 30
0.0
 11
1982.461192019979
 21
158.0664991705704
 31
0.0
  0
ARC
  5
165B
330
1F
100
AcDbEntity
  8
0
100
AcDbCircle
 10
1983.61604261441
 20
155.6564849939735
 30
0.0
 40
1.964551783369778
100
AcDbArc
 50
132.1490570574841
 51
233.1301020000085
  0
ARC
  5
165D
330
1F
100
AcDbEntity
  8
0
100
AcDbCircle
 10
1958.270894542821
 20
156.9661861828867
 30
0.0
 40
1.309701188913185
100
AcDbArc
 50
128.187326143272
 51
277.4627940000037
  0
ARC
  5
165E
330
1F
100
AcDbEntity
  8
0
100
AcDbCircle
 10
1956.306341425496
 20
154.3467824711052
 30
0.0
 40
1.964551783369778
100
AcDbArc
 50
306.8698979999915
 51
53.13010200000849
  0
LINE
  5
1660
330
1F
100
AcDbEntity
  8
0
100
AcDbLine
 10
1958.270894542821
 20
155.6564849939735
 30
0.0
 11
1981.991981720868
 21
156.9852593201893
 31
0.0
  0
ARC
  5
1662
330
1F
100
AcDbEntity
  8
0
100
AcDbCircle
 10
1981.964184641671
 20
157.4814887595427
 30
0.0
 40
0.4970073783082836
100
AcDbArc
 50
273.206163282242
 51
0.0
  0
LINE
  5
1663
330
1F
100
AcDbEntity
  8
0
  6
Continuous
100
AcDbLine
 10
1957.461192019952
 20
157.9956030219699
 30
0.0
 11
1957.461192019952
 21
162.0664991705704
 31
0.0
  0
LINE
  5
1664
330
1F
100
AcDbEntity
  8
0
 62
     3
100
AcDbLine
 10
1990.761192686931
 20
189.5664991705705
 30
0.0
 11
1989.972219532661
 21
174.5119945709982
 31
0.0
  0
LINE
  5
1665
330
1F
100
AcDbEntity
  8
0
 62
     3
100
AcDbLine
 10
1949.16119268693
 20
189.5664991705704
 30
0.0
 11
1949.9501658412
 21
174.5119945709978
 31
0.0
  0
LINE
  5
1666
330
1F
100
AcDbEntity
  8
0
100
AcDbLine
 10
1990.761192686931
 20
189.5664991705704
 30
0.0
 11
1949.16119268693
 21
189.5664991705704
 31
0.0
  0
LINE
  5
1669
330
1F
100
AcDbEntity
  8
0
 62
     3
100
AcDbLine
 10
1990.761192686931
 20
189.5664991705704
 30
0.0
 11
1990.761192686931
 21
194.0664991705704
 31
0.0
  0
LINE
  5
166A
330
1F
100
AcDbEntity
  8
0
 62
     3
100
AcDbLine
 10
1949.161192686931
 20
189.5664991705704
 30
0.0
 11
1949.161192686931
 21
194.0664991705704
 31
0.0
  0
ARC
  5
1670
330
1F
100
AcDbEntity
  8
0
 62
     3
100
AcDbCircle
 10
1995.21119268693
 20
162.0664991705704
 30
0.0
 40
10.00000000000023
100
AcDbArc
 50
139.5757056031347
 51
180.0
  0
ARC
  5
1671
330
1F
100
AcDbEntity
  8
0
 62
     3
100
AcDbCircle
 10
1944.711192686931
 20
162.0664991705704
 30
0.0
 40
9.999999999999772
100
AcDbArc
 50
0.0
 51
40.42429439686382
  0
ARC
  5
1672
330
1F
100
AcDbEntity
  8
0
 62
     3
100
AcDbCircle
 10
1979.985924185115
 20
175.0353541334277
 30
0.0
 40
10.0
100
AcDbArc
 50
319.575705603136
 51
357.0
  0
ARC
  5
1673
330
1F
100
AcDbEntity
  8
0
 62
     3
100
AcDbCircle
 10
1959.936461188746
 20
175.0353541334272
 30
0.0
 40
10.0
100
AcDbArc
 50
183.0
 51
220.4242943968637
  0
LINE
  5
1674
330
1F
100
AcDbEntity
  8
0
 62
     3
100
AcDbLine
 10
1980.46119268693
 20
262.5664991705705
 30
0.0
 11
1980.46119268693
 21
195.0664991705704
 31
0.0
  0
LINE
  5
1675
330
1F
100
AcDbEntity
  8
0
 62
     3
100
AcDbLine
 10
1959.46119268693
 20
262.5664991705705
 30
0.0
 11
1959.46119268693
 21
195.0664991705704
 31
0.0
  0
LINE
  5
1676
330
1F
100
AcDbEntity
  8
0
 62
     3
100
AcDbLine
 10
1971.46119268693
 20
262.5664991705705
 30
0.0
 11
1971.46119268693
 21
195.0664991705704
 31
0.0
  0
LINE
  5
1677
330
1F
100
AcDbEntity
  8
0
 62
     3
100
AcDbLine
 10
1968.46119268693
 20
262.5664991705705
 30
0.0
 11
1968.46119268693
 21
195.0664991705704
 31
0.0
  0
ARC
  5
168A
330
1F
100
AcDbEntity
  8
0
 62
     3
100
AcDbCircle
 10
1969.96119268693
 20
262.5664991705705
 30
0.0
 40
10.5
100
AcDbArc
 50
0.0
 51
180.0
  0
ARC
  5
168C
330
1F
100
AcDbEntity
  8
0
 62
     3
100
AcDbCircle
 10
1969.96119268693
 20
262.5664991705705
 30
0.0
 40
1.5
100
AcDbArc
 50
0.0
 51
180.0
  0
LINE
  5
1690
330
1F
100
AcDbEntity
  8
0
 62
     3
100
AcDbLine
 10
1986.461192686931
 20
262.5664991705705
 30
0.0
 11
1986.461192686931
 21
195.0664991705704
 31
0.0
  0
ELLIPSE
  5
1698
330
1F
100
AcDbEntity
  8
0
 62
     3
100
AcDbEllipse
 10
1978.96119268693
 20
262.5664991705705
 30
0.0
 11
0.0
 21
10.5
 31
0.0
210
0.0
220
0.0
230
1.0
 40
0.7142857142857145
 41
4.712388980384688
 42
6.806784082777887
  0
LINE
  5
16AB
330
1F
100
AcDbEntity
  8
0
  6
HIDDEN
 62
     7
100
AcDbLine
 10
1977.961192686931
 20
203.5664991705705
 30
0.0
 11
1977.961192686931
 21
199.5664991705705
 31
0.0
  0
LINE
  5
16AC
330
1F
100
AcDbEntity
  8
0
  6
HIDDEN
 62
     7
100
AcDbLine
 10
1973.961192686931
 20
203.5664991705705
 30
0.0
 11
1973.961192686931
 21
199.5664991705705
 31
0.0
  0
LINE
  5
16AD
330
1F
100
AcDbEntity
  8
0
  6
HIDDEN
100
AcDbLine
 10
1973.961192686931
 20
203.5664991705705
 30
0.0
 11
1977.961192686931
 21
203.5664991705705
 31
0.0
  0
LINE
  5
16AE
330
1F
100
AcDbEntity
  8
0
  6
HIDDEN
100
AcDbLine
 10
1973.961192686931
 20
199.5664991705705
 30
0.0
 11
1977.961192686931
 21
199.5664991705705
 31
0.0
  0
LINE
  5
16AF
330
1F
100
AcDbEntity
  8
0
 62
     3
100
AcDbLine
 10
1953.461192686931
 20
262.5664991705705
 30
0.0
 11
1953.461192686931
 21
195.0664991705704
 31
0.0
  0
ELLIPSE
  5
16B0
330
1F
100
AcDbEntity
  8
0
 62
     3
100
AcDbEllipse
 10
1960.96119268693
 20
262.5664991705705
 30
0.0
 11
0.0
 21
10.5
 31
0.0
210
0.0
220
0.0
230
-1.0
 40
0.7142857142857145
 41
4.712388980384688
 42
6.806784082777887
  0
LINE
  5
16B1
330
1F
100
AcDbEntity
  8
0
  6
HIDDEN
 62
     7
100
AcDbLine
 10
1973.961192686931
 20
212.0664991705705
 30
0.0
 11
1973.961192686931
 21
208.0664991705705
 31
0.0
  0
LINE
  5
16B2
330
1F
100
AcDbEntity
  8
0
  6
HIDDEN
 62
     7
100
AcDbLine
 10
1977.961192686931
 20
212.0664991705705
 30
0.0
 11
1977.961192686931
 21
208.0664991705705
 31
0.0
  0
LINE
  5
16B3
330
1F
100
AcDbEntity
  8
0
  6
HIDDEN
100
AcDbLine
 10
1973.961192686931
 20
208.0664991705705
 30
0.0
 11
1977.961192686931
 21
208.0664991705705
 31
0.0
  0
LINE
  5
16B4
330
1F
100
AcDbEntity
  8
0
  6
HIDDEN
100
AcDbLine
 10
1973.961192686931
 20
212.0664991705705
 30
0.0
 11
1977.961192686931
 21
212.0664991705705
 31
0.0
  0
LINE
  5
16B5
330
1F
100
AcDbEntity
  8
0
  6
HIDDEN
 62
     7
100
AcDbLine
 10
1973.961192686931
 20
220.5664991705705
 30
0.0
 11
1973.961192686931
 21
216.5664991705705
 31
0.0
  0
LINE
  5
16B6
330
1F
100
AcDbEntity
  8
0
  6
HIDDEN
 62
     7
100
AcDbLine
 10
1977.961192686931
 20
220.5664991705705
 30
0.0
 11
1977.961192686931
 21
216.5664991705705
 31
0.0
  0
LINE
  5
16B7
330
1F
100
AcDbEntity
  8
0
  6
HIDDEN
100
AcDbLine
 10
1973.961192686931
 20
216.5664991705705
 30
0.0
 11
1977.961192686931
 21
216.5664991705705
 31
0.0
  0
LINE
  5
16B8
330
1F
100
AcDbEntity
  8
0
  6
HIDDEN
100
AcDbLine
 10
1973.961192686931
 20
220.5664991705705
 30
0.0
 11
1977.961192686931
 21
220.5664991705705
 31
0.0
  0
LINE
  5
16B9
330
1F
100
AcDbEntity
  8
0
  6
HIDDEN
 62
     7
100
AcDbLine
 10
1973.961192686931
 20
229.0664991705705
 30
0.0
 11
1973.961192686931
 21
225.0664991705705
 31
0.0
  0
LINE
  5
16BA
330
1F
100
AcDbEntity
  8
0
  6
HIDDEN
 62
     7
100
AcDbLine
 10
1977.961192686931
 20
229.0664991705705
 30
0.0
 11
1977.961192686931
 21
225.0664991705705
 31
0.0
  0
LINE
  5
16BB
330
1F
100
AcDbEntity
  8
0
  6
HIDDEN
100
AcDbLine
 10
1973.961192686931
 20
225.0664991705705
 30
0.0
 11
1977.961192686931
 21
225.0664991705705
 31
0.0
  0
LINE
  5
16BC
330
1F
100
AcDbEntity
  8
0
  6
HIDDEN
100
AcDbLine
 10
1973.961192686931
 20
229.0664991705705
 30
0.0
 11
1977.961192686931
 21
229.0664991705705
 31
0.0
  0
LINE
  5
16BD
330
1F
100
AcDbEntity
  8
0
  6
HIDDEN
 62
     7
100
AcDbLine
 10
1973.961192686931
 20
237.5664991705705
 30
0.0
 11
1973.961192686931
 21
233.5664991705705
 31
0.0
  0
LINE
  5
16BE
330
1F
100
AcDbEntity
  8
0
  6
HIDDEN
 62
     7
100
AcDbLine
 10
1977.961192686931
 20
237.5664991705705
 30
0.0
 11
1977.961192686931
 21
233.5664991705705
 31
0.0
  0
LINE
  5
16BF
330
1F
100
AcDbEntity
  8
0
  6
HIDDEN
100
AcDbLine
 10
1973.961192686931
 20
233.5664991705705
 30
0.0
 11
1977.961192686931
 21
233.5664991705705
 31
0.0
  0
LINE
  5
16C0
330
1F
100
AcDbEntity
  8
0
  6
HIDDEN
100
AcDbLine
 10
1973.961192686931
 20
237.5664991705705
 30
0.0
 11
1977.961192686931
 21
237.5664991705705
 31
0.0
  0
LINE
  5
16C1
330
1F
100
AcDbEntity
  8
0
  6
HIDDEN
 62
     7
100
AcDbLine
 10
1973.961192686931
 20
246.0664991705705
 30
0.0
 11
1973.961192686931
 21
242.0664991705705
 31
0.0
  0
LINE
  5
16C2
330
1F
100
AcDbEntity
  8
0
  6
HIDDEN
 62
     7
100
AcDbLine
 10
1977.961192686931
 20
246.0664991705705
 30
0.0
 11
1977.961192686931
 21
242.0664991705705
 31
0.0
  0
LINE
  5
16C3
330
1F
100
AcDbEntity
  8
0
  6
HIDDEN
100
AcDbLine
 10
1973.961192686931
 20
242.0664991705705
 30
0.0
 11
1977.961192686931
 21
242.0664991705705
 31
0.0
  0
LINE
  5
16C4
330
1F
100
AcDbEntity
  8
0
  6
HIDDEN
100
AcDbLine
 10
1973.961192686931
 20
246.0664991705705
 30
0.0
 11
1977.961192686931
 21
246.0664991705705
 31
0.0
  0
LINE
  5
16C5
330
1F
100
AcDbEntity
  8
0
  6
HIDDEN
 62
     7
100
AcDbLine
 10
1973.961192686931
 20
254.5664991705705
 30
0.0
 11
1973.961192686931
 21
250.5664991705705
 31
0.0
  0
LINE
  5
16C6
330
1F
100
AcDbEntity
  8
0
  6
HIDDEN
 62
     7
100
AcDbLine
 10
1977.961192686931
 20
254.5664991705705
 30
0.0
 11
1977.961192686931
 21
250.5664991705705
 31
0.0
  0
LINE
  5
16C7
330
1F
100
AcDbEntity
  8
0
  6
HIDDEN
100
AcDbLine
 10
1973.961192686931
 20
250.5664991705705
 30
0.0
 11
1977.961192686931
 21
250.5664991705705
 31
0.0
  0
LINE
  5
16C8
330
1F
100
AcDbEntity
  8
0
  6
HIDDEN
100
AcDbLine
 10
1973.961192686931
 20
254.5664991705705
 30
0.0
 11
1977.961192686931
 21
254.5664991705705
 31
0.0
  0
LINE
  5
16C9
330
1F
100
AcDbEntity
  8
0
  6
HIDDEN
 62
     7
100
AcDbLine
 10
1973.961192686931
 20
263.0664991705705
 30
0.0
 11
1973.961192686931
 21
259.0664991705704
 31
0.0
  0
LINE
  5
16CA
330
1F
100
AcDbEntity
  8
0
  6
HIDDEN
 62
     7
100
AcDbLine
 10
1977.961192686931
 20
263.0664991705705
 30
0.0
 11
1977.961192686931
 21
259.0664991705704
 31
0.0
  0
LINE
  5
16CB
330
1F
100
AcDbEntity
  8
0
  6
HIDDEN
100
AcDbLine
 10
1973.961192686931
 20
259.0664991705704
 30
0.0
 11
1977.961192686931
 21
259.0664991705704
 31
0.0
  0
LINE
  5
16CC
330
1F
100
AcDbEntity
  8
0
  6
HIDDEN
100
AcDbLine
 10
1973.961192686931
 20
263.0664991705705
 30
0.0
 11
1977.961192686931
 21
263.0664991705705
 31
0.0
  0
LINE
  5
16CD
330
1F
100
AcDbEntity
  8
0
  6
HIDDEN
 62
     7
100
AcDbLine
 10
1961.961192686931
 20
263.0664991705705
 30
0.0
 11
1961.961192686931
 21
259.0664991705704
 31
0.0
  0
LINE
  5
16CE
330
1F
100
AcDbEntity
  8
0
  6
HIDDEN
 62
     7
100
AcDbLine
 10
1965.961192686931
 20
263.0664991705705
 30
0.0
 11
1965.961192686931
 21
259.0664991705704
 31
0.0
  0
LINE
  5
16CF
330
1F
100
AcDbEntity
  8
0
  6
HIDDEN
100
AcDbLine
 10
1961.961192686931
 20
259.0664991705704
 30
0.0
 11
1965.961192686931
 21
259.0664991705704
 31
0.0
  0
LINE
  5
16D0
330
1F
100
AcDbEntity
  8
0
  6
HIDDEN
100
AcDbLine
 10
1961.961192686931
 20
263.0664991705705
 30
0.0
 11
1965.961192686931
 21
263.0664991705705
 31
0.0
  0
LINE
  5
16D1
330
1F
100
AcDbEntity
  8
0
  6
HIDDEN
 62
     7
100
AcDbLine
 10
1961.961192686931
 20
254.5664991705705
 30
0.0
 11
1961.961192686931
 21
250.5664991705705
 31
0.0
  0
LINE
  5
16D2
330
1F
100
AcDbEntity
  8
0
  6
HIDDEN
 62
     7
100
AcDbLine
 10
1965.961192686931
 20
254.5664991705705
 30
0.0
 11
1965.961192686931
 21
250.5664991705705
 31
0.0
  0
LINE
  5
16D3
330
1F
100
AcDbEntity
  8
0
  6
HIDDEN
100
AcDbLine
 10
1961.961192686931
 20
250.5664991705705
 30
0.0
 11
1965.961192686931
 21
250.5664991705705
 31
0.0
  0
LINE
  5
16D4
330
1F
100
AcDbEntity
  8
0
  6
HIDDEN
100
AcDbLine
 10
1961.961192686931
 20
254.5664991705705
 30
0.0
 11
1965.961192686931
 21
254.5664991705705
 31
0.0
  0
LINE
  5
16D5
330
1F
100
AcDbEntity
  8
0
  6
HIDDEN
 62
     7
100
AcDbLine
 10
1961.961192686931
 20
246.0664991705705
 30
0.0
 11
1961.961192686931
 21
242.0664991705705
 31
0.0
  0
LINE
  5
16D6
330
1F
100
AcDbEntity
  8
0
  6
HIDDEN
 62
     7
100
AcDbLine
 10
1965.961192686931
 20
246.0664991705705
 30
0.0
 11
1965.961192686931
 21
242.0664991705705
 31
0.0
  0
LINE
  5
16D7
330
1F
100
AcDbEntity
  8
0
  6
HIDDEN
100
AcDbLine
 10
1961.961192686931
 20
242.0664991705705
 30
0.0
 11
1965.961192686931
 21
242.0664991705705
 31
0.0
  0
LINE
  5
16D8
330
1F
100
AcDbEntity
  8
0
  6
HIDDEN
100
AcDbLine
 10
1961.961192686931
 20
246.0664991705705
 30
0.0
 11
1965.961192686931
 21
246.0664991705705
 31
0.0
  0
LINE
  5
16D9
330
1F
100
AcDbEntity
  8
0
  6
HIDDEN
 62
     7
100
AcDbLine
 10
1961.961192686931
 20
237.5664991705705
 30
0.0
 11
1961.961192686931
 21
233.5664991705705
 31
0.0
  0
LINE
  5
16DA
330
1F
100
AcDbEntity
  8
0
  6
HIDDEN
 62
     7
100
AcDbLine
 10
1965.961192686931
 20
237.5664991705705
 30
0.0
 11
1965.961192686931
 21
233.5664991705705
 31
0.0
  0
LINE
  5
16DB
330
1F
100
AcDbEntity
  8
0
  6
HIDDEN
100
AcDbLine
 10
1961.961192686931
 20
233.5664991705705
 30
0.0
 11
1965.961192686931
 21
233.5664991705705
 31
0.0
  0
LINE
  5
16DC
330
1F
100
AcDbEntity
  8
0
  6
HIDDEN
100
AcDbLine
 10
1961.961192686931
 20
237.5664991705705
 30
0.0
 11
1965.961192686931
 21
237.5664991705705
 31
0.0
  0
LINE
  5
16DD
330
1F
100
AcDbEntity
  8
0
  6
HIDDEN
 62
     7
100
AcDbLine
 10
1961.961192686931
 20
229.0664991705705
 30
0.0
 11
1961.961192686931
 21
225.0664991705705
 31
0.0
  0
LINE
  5
16DE
330
1F
100
AcDbEntity
  8
0
  6
HIDDEN
 62
     7
100
AcDbLine
 10
1965.961192686931
 20
229.0664991705705
 30
0.0
 11
1965.961192686931
 21
225.0664991705705
 31
0.0
  0
LINE
  5
16DF
330
1F
100
AcDbEntity
  8
0
  6
HIDDEN
100
AcDbLine
 10
1961.961192686931
 20
225.0664991705705
 30
0.0
 11
1965.961192686931
 21
225.0664991705705
 31
0.0
  0
LINE
  5
16E0
330
1F
100
AcDbEntity
  8
0
  6
HIDDEN
100
AcDbLine
 10
1961.961192686931
 20
229.0664991705705
 30
0.0
 11
1965.961192686931
 21
229.0664991705705
 31
0.0
  0
LINE
  5
16E1
330
1F
100
AcDbEntity
  8
0
  6
HIDDEN
 62
     7
100
AcDbLine
 10
1961.961192686931
 20
220.5664991705705
 30
0.0
 11
1961.961192686931
 21
216.5664991705705
 31
0.0
  0
LINE
  5
16E2
330
1F
100
AcDbEntity
  8
0
  6
HIDDEN
 62
     7
100
AcDbLine
 10
1965.961192686931
 20
220.5664991705705
 30
0.0
 11
1965.961192686931
 21
216.5664991705705
 31
0.0
  0
LINE
  5
16E3
330
1F
100
AcDbEntity
  8
0
  6
HIDDEN
100
AcDbLine
 10
1961.961192686931
 20
216.5664991705705
 30
0.0
 11
1965.961192686931
 21
216.5664991705705
 31
0.0
  0
LINE
  5
16E4
330
1F
100
AcDbEntity
  8
0
  6
HIDDEN
100
AcDbLine
 10
1961.961192686931
 20
220.5664991705705
 30
0.0
 11
1965.961192686931
 21
220.5664991705705
 31
0.0
  0
LINE
  5
16E5
330
1F
100
AcDbEntity
  8
0
  6
HIDDEN
 62
     7
100
AcDbLine
 10
1961.961192686931
 20
212.0664991705705
 30
0.0
 11
1961.961192686931
 21
208.0664991705705
 31
0.0
  0
LINE
  5
16E6
330
1F
100
AcDbEntity
  8
0
  6
HIDDEN
 62
     7
100
AcDbLine
 10
1965.961192686931
 20
212.0664991705705
 30
0.0
 11
1965.961192686931
 21
208.0664991705705
 31
0.0
  0
LINE
  5
16E7
330
1F
100
AcDbEntity
  8
0
  6
HIDDEN
100
AcDbLine
 10
1961.961192686931
 20
208.0664991705705
 30
0.0
 11
1965.961192686931
 21
208.0664991705705
 31
0.0
  0
LINE
  5
16E8
330
1F
100
AcDbEntity
  8
0
  6
HIDDEN
100
AcDbLine
 10
1961.961192686931
 20
212.0664991705705
 30
0.0
 11
1965.961192686931
 21
212.0664991705705
 31
0.0
  0
LINE
  5
16E9
330
1F
100
AcDbEntity
  8
0
  6
HIDDEN
 62
     7
100
AcDbLine
 10
1961.961192686931
 20
203.5664991705705
 30
0.0
 11
1961.961192686931
 21
199.5664991705705
 31
0.0
  0
LINE
  5
16EA
330
1F
100
AcDbEntity
  8
0
  6
HIDDEN
 62
     7
100
AcDbLine
 10
1965.961192686931
 20
203.5664991705705
 30
0.0
 11
1965.961192686931
 21
199.5664991705705
 31
0.0
  0
LINE
  5
16EB
330
1F
100
AcDbEntity
  8
0
  6
HIDDEN
100
AcDbLine
 10
1961.961192686931
 20
199.5664991705705
 30
0.0
 11
1965.961192686931
 21
199.5664991705705
 31
0.0
  0
LINE
  5
16EC
330
1F
100
AcDbEntity
  8
0
  6
HIDDEN
100
AcDbLine
 10
1961.961192686931
 20
203.5664991705705
 30
0.0
 11
1965.961192686931
 21
203.5664991705705
 31
0.0
  0
ARC
  5
16ED
330
1F
100
AcDbEntity
  8
0
 62
     3
100
AcDbCircle
 10
1989.76119268693
 20
194.0664991705704
 30
0.0
 40
1.0
100
AcDbArc
 50
0.0
 51
90.0
  0
ARC
  5
16EE
330
1F
100
AcDbEntity
  8
0
 62
     3
100
AcDbCircle
 10
1950.161192686931
 20
194.0664991705704
 30
0.0
 40
1.0
100
AcDbArc
 50
90.0
 51
180.0
  0
TEXT
  5
176E
330
1F
100
AcDbEntity
  8
0
100
AcDbText
 10
2085.329488820634
 20
71.24314565341137
 30
0.0
 40
3.2
  1
I
  7
高3.2
100
AcDbText
  0
LINE
  5
17D1
330
1F
100
AcDbEntity
  8
0
 62
     7
100
AcDbLine
 10
2007.278868523642
 20
159.5046979860624
 30
0.0
 11
2083.178868523642
 21
159.5046979860624
 31
0.0
  0
LINE
  5
17D4
330
1F
100
AcDbEntity
  8
0
 62
     7
100
AcDbLine
 10
2007.278868523642
 20
170.5046979860624
 30
0.0
 11
2083.178868523642
 21
170.5046979860624
 31
0.0
  0
LINE
  5
17D5
330
1F
100
AcDbEntity
  8
0
 62
     7
100
AcDbLine
 10
2017.66985899331
 20
176.0046979860623
 30
0.0
 11
2083.178868523642
 21
176.0046979860623
 31
0.0
  0
LINE
  5
17D6
330
1F
100
AcDbEntity
  8
0
 62
     7
100
AcDbLine
 10
2017.66985899331
 20
181.5046979860624
 30
0.0
 11
2083.178868523642
 21
181.5046979860624
 31
0.0
  0
LINE
  5
17D7
330
1F
100
AcDbEntity
  8
0
 62
     7
100
AcDbLine
 10
2017.66985899331
 20
187.0046979860624
 30
0.0
 11
2083.178868523642
 21
187.0046979860624
 31
0.0
  0
LINE
  5
17D8
330
1F
100
AcDbEntity
  8
0
 62
     7
100
AcDbLine
 10
2017.66985899331
 20
192.5046979860623
 30
0.0
 11
2083.178868523642
 21
192.5046979860623
 31
0.0
  0
LINE
  5
17D9
330
1F
100
AcDbEntity
  8
0
 62
     7
100
AcDbLine
 10
2007.278868523642
 20
198.0046979860624
 30
0.0
 11
2083.178868523642
 21
198.0046979860624
 31
0.0
  0
LINE
  5
17DA
330
1F
100
AcDbEntity
  8
0
 62
     7
100
AcDbLine
 10
2007.278868523642
 20
203.5046979860624
 30
0.0
 11
2083.178868523642
 21
203.5046979860624
 31
0.0
  0
LINE
  5
17DB
330
1F
100
AcDbEntity
  8
0
 62
     7
100
AcDbLine
 10
2007.278868523642
 20
209.0046979860624
 30
0.0
 11
2083.178868523642
 21
209.0046979860624
 31
0.0
  0
LINE
  5
17DC
330
1F
100
AcDbEntity
  8
0
 62
     7
100
AcDbLine
 10
2007.278868523642
 20
214.5046979860624
 30
0.0
 11
2083.178868523642
 21
214.5046979860624
 31
0.0
  0
LINE
  5
17DD
330
1F
100
AcDbEntity
  8
0
 62
     7
100
AcDbLine
 10
2007.278868523642
 20
220.0046979860624
 30
0.0
 11
2083.178868523642
 21
220.0046979860624
 31
0.0
  0
LINE
  5
17DE
330
1F
100
AcDbEntity
  8
0
 62
     7
100
AcDbLine
 10
2007.278868523642
 20
225.5046979860624
 30
0.0
 11
2083.178868523642
 21
225.5046979860624
 31
0.0
  0
LINE
  5
17E0
330
1F
100
AcDbEntity
  8
0
 62
     7
100
AcDbLine
 10
2007.278868523642
 20
231.0046979860624
 30
0.0
 11
2083.178868523642
 21
231.0046979860624
 31
0.0
  0
TEXT
  5
17E1
330
1F
100
AcDbEntity
  8
0
 62
     3
100
AcDbText
 10
2033.706964096406
 20
155.0046979860624
 30
0.0
 40
3.2
  1
60g
  7
高3.2
100
AcDbText
  0
TEXT
  5
17E2
330
1F
100
AcDbEntity
  8
0
 62
     3
100
AcDbText
 10
2008.778868523642
 20
155.0046979860624
 30
0.0
 40
3.2
  1
質　　　量
  7
高3.2
100
AcDbText
  0
TEXT
  5
17E3
330
1F
100
AcDbEntity
  8
0
 62
     3
100
AcDbText
 10
2008.778868523642
 20
166.0046979860624
 30
0.0
 40
3.2
  1
球　寿　命
  7
高3.2
100
AcDbText
  0
TEXT
  5
17E4
330
1F
100
AcDbEntity
  8
0
 62
     3
100
AcDbText
 10
2008.778868523642
 20
160.5046979860624
 30
0.0
 40
3.2
  1
使用環境温度
  7
高3.2
100
AcDbText
  0
TEXT
  5
17E6
330
1F
100
AcDbEntity
  8
0
 62
     3
100
AcDbText
 10
2008.778868523642
 20
199.0046979860624
 30
0.0
 40
3.2
  1
固有エネルギー消費効率
 41
0.5
  7
高3.2
100
AcDbText
  0
TEXT
  5
17E7
330
1F
100
AcDbEntity
  8
0
 62
     3
100
AcDbText
 10
2008.778868523642
 20
204.5046979860624
 30
0.0
 40
3.2
  1
定格消費電力
  7
高3.2
100
AcDbText
  0
TEXT
  5
17E8
330
1F
100
AcDbEntity
  8
0
 62
     3
100
AcDbText
 10
2008.778868523642
 20
210.0046979860624
 30
0.0
 40
3.2
  1
定格　電流
  7
高3.2
100
AcDbText
  0
TEXT
  5
17E9
330
1F
100
AcDbEntity
  8
0
 62
     3
100
AcDbText
 10
2008.778868523642
 20
215.5046979860624
 30
0.0
 40
3.2
  1
入力電圧範囲
 41
0.9
  7
高3.2
100
AcDbText
  0
TEXT
  5
17EA
330
1F
100
AcDbEntity
  8
0
 62
     3
100
AcDbText
 10
2008.778868523642
 20
221.0046979860624
 30
0.0
 40
3.2
  1
周　波　数
  7
高3.2
100
AcDbText
  0
TEXT
  5
17EB
330
1F
100
AcDbEntity
  8
0
 62
     3
100
AcDbText
 10
2008.778868523642
 20
226.5046979860624
 30
0.0
 40
3.2
  1
定格　電圧
  7
高3.2
100
AcDbText
  0
TEXT
  5
17ED
330
1F
100
AcDbEntity
  8
0
 62
     3
100
AcDbText
 10
2008.778868523642
 20
237.5046979860624
 30
0.0
 40
3.2
  1
色　温　度
  7
高3.2
100
AcDbText
  0
TEXT
  5
17EE
330
1F
100
AcDbEntity
  8
0
 62
     3
100
AcDbText
 10
2008.778868523642
 20
243.0046979860624
 30
0.0
 40
3.2
  1
定格　光束
  7
高3.2
100
AcDbText
  0
TEXT
  5
17EF
330
1F
100
AcDbEntity
  8
0
 62
     3
100
AcDbText
 10
2008.778868523642
 20
248.5046979860624
 30
0.0
 40
3.2
  1
光　　　源
  7
高3.2
100
AcDbText
  0
TEXT
  5
17F1
330
1F
100
AcDbEntity
  8
0
 62
     3
100
AcDbText
 10
2008.778868523642
 20
232.0046979860624
 30
0.0
 40
3.2
  1
平均演色評価数
 41
0.8
  7
高3.2
100
AcDbText
  0
TEXT
  5
17F2
330
1F
100
AcDbEntity
  8
0
 62
     3
100
AcDbText
 10
2008.778868523642
 20
193.5046979860624
 30
0.0
 40
3.2
  1
照度
  7
高3.2
100
AcDbText
  0
LINE
  5
17F3
330
1F
100
AcDbEntity
  8
0
 62
     7
100
AcDbLine
 10
2007.278868523642
 20
236.5046979860624
 30
0.0
 11
2083.178868523642
 21
236.5046979860624
 31
0.0
  0
LINE
  5
17F4
330
1F
100
AcDbEntity
  8
0
 62
     7
100
AcDbLine
 10
2007.278868523642
 20
242.0046979860624
 30
0.0
 11
2083.178868523642
 21
242.0046979860624
 31
0.0
  0
LINE
  5
17F5
330
1F
100
AcDbEntity
  8
0
 62
     7
100
AcDbLine
 10
2007.278868523642
 20
247.5046979860624
 30
0.0
 11
2083.178868523642
 21
247.5046979860624
 31
0.0
  0
LINE
  5
17F9
330
1F
100
AcDbEntity
  8
0
 62
     7
100
AcDbLine
 10
2007.278868523641
 20
258.5046979860624
 30
0.0
 11
2083.178868523641
 21
258.5046979860624
 31
0.0
  0
LINE
  5
17FA
330
1F
100
AcDbEntity
  8
0
100
AcDbLine
 10
2017.66985899331
 20
198.0046979860624
 30
0.0
 11
2017.66985899331
 21
170.5046979860624
 31
0.0
  0
TEXT
  5
17FB
330
1F
100
AcDbEntity
  8
0
 62
     3
100
AcDbText
 10
2019.16985899331
 20
193.5046979860624
 30
0.0
 40
3.2
  1
1m
  7
高3.2
100
AcDbText
  0
TEXT
  5
17FC
330
1F
100
AcDbEntity
  8
0
 62
     3
100
AcDbText
 10
2019.16985899331
 20
188.0046979860624
 30
0.0
 40
3.2
  1
2m
  7
高3.2
100
AcDbText
  0
TEXT
  5
17FD
330
1F
100
AcDbEntity
  8
0
 62
     3
100
AcDbText
 10
2019.16985899331
 20
182.5046979860624
 30
0.0
 40
3.2
  1
3m
  7
高3.2
100
AcDbText
  0
TEXT
  5
17FE
330
1F
100
AcDbEntity
  8
0
 62
     3
100
AcDbText
 10
2019.16985899331
 20
177.0046979860623
 30
0.0
 40
3.2
  1
4m
  7
高3.2
100
AcDbText
  0
TEXT
  5
17FF
330
1F
100
AcDbEntity
  8
0
 62
     3
100
AcDbText
 10
2019.16985899331
 20
171.5046979860624
 30
0.0
 40
3.2
  1
5m
  7
高3.2
100
AcDbText
  0
LINE
  5
1800
330
1F
100
AcDbEntity
  8
0
 62
     3
100
AcDbLine
 10
2007.278868523642
 20
154.0046979860624
 30
0.0
 11
2083.178868523642
 21
154.0046979860624
 31
0.0
  0
TEXT
  5
1803
330
1F
100
AcDbEntity
  8
0
 62
     3
100
AcDbText
 10
2033.706964096406
 20
248.5046979860624
 30
0.0
 40
3.2
  1
LED9W48球
  7
高3.2
100
AcDbText
  0
TEXT
  5
1804
330
1F
100
AcDbEntity
  8
0
 62
     3
100
AcDbText
 10
2033.706964096406
 20
243.0046979860624
 30
0.0
 40
3.2
  1
850Lm
  7
高3.2
100
AcDbText
  0
TEXT
  5
1805
330
1F
100
AcDbEntity
  8
0
 62
     3
100
AcDbText
 10
2033.706964096406
 20
237.5046979860624
 30
0.0
 40
3.2
  1
6000K
  7
高3.2
100
AcDbText
  0
TEXT
  5
1806
330
1F
100
AcDbEntity
  8
0
 62
     3
100
AcDbText
 10
2033.706964096406
 20
232.0046979860624
 30
0.0
 40
3.2
  1
Ra72
  7
高3.2
100
AcDbText
  0
TEXT
  5
1808
330
1F
100
AcDbEntity
  8
0
 62
     3
100
AcDbText
 10
2033.706964096406
 20
226.5046979860624
 30
0.0
 40
3.2
  1
AC100V (200V)
  7
高3.2
100
AcDbText
  0
TEXT
  5
1809
330
1F
100
AcDbEntity
  8
0
 62
     3
100
AcDbText
 10
2033.706964096406
 20
221.0046979860624
 30
0.0
 40
3.2
  1
50/60Hz
  7
高3.2
100
AcDbText
  0
TEXT
  5
180A
330
1F
100
AcDbEntity
  8
0
 62
     3
100
AcDbText
 10
2033.706964096406
 20
215.5046979860624
 30
0.0
 40
3.2
  1
AC85～265V
  7
高3.2
100
AcDbText
  0
TEXT
  5
180B
330
1F
100
AcDbEntity
  8
0
 62
     3
100
AcDbText
 10
2033.706964096406
 20
210.0046979860624
 30
0.0
 40
3.2
  1
0.13A (0.09A)
  7
高3.2
100
AcDbText
  0
TEXT
  5
180C
330
1F
100
AcDbEntity
  8
0
 62
     3
100
AcDbText
 10
2033.706964096406
 20
204.5046979860624
 30
0.0
 40
3.2
  1
8.2W (8.8W)
  7
高3.2
100
AcDbText
  0
TEXT
  5
180D
330
1F
100
AcDbEntity
  8
0
 62
     3
100
AcDbText
 10
2033.706964096406
 20
199.0046979860624
 30
0.0
 40
3.2
  1
103.7Lm/W (96.6Lm/W)
 41
0.8
  7
高3.2
100
AcDbText
  0
TEXT
  5
180E
330
1F
100
AcDbEntity
  8
0
 62
     3
100
AcDbText
 10
2033.706964096406
 20
193.5046979860624
 30
0.0
 40
3.2
  1
上:12／横:83Lx
  7
高3.2
100
AcDbText
  0
TEXT
  5
180F
330
1F
100
AcDbEntity
  8
0
 62
     3
100
AcDbText
 10
2033.706964096406
 20
188.0046979860624
 30
0.0
 40
3.2
  1
上:4／横:22Lx
  7
高3.2
100
AcDbText
  0
TEXT
  5
1810
330
1F
100
AcDbEntity
  8
0
 62
     3
100
AcDbText
 10
2033.706964096406
 20
182.5046979860624
 30
0.0
 40
3.2
  1
上:2／横:10Lx
  7
高3.2
100
AcDbText
  0
TEXT
  5
1811
330
1F
100
AcDbEntity
  8
0
 62
     3
100
AcDbText
 10
2033.706964096406
 20
177.0046979860623
 30
0.0
 40
3.2
  1
上:1／横:6Lx
  7
高3.2
100
AcDbText
  0
TEXT
  5
1812
330
1F
100
AcDbEntity
  8
0
 62
     3
100
AcDbText
 10
2033.706964096406
 20
171.5046979860624
 30
0.0
 40
3.2
  1
上:-／横:4Lx
  7
高3.2
100
AcDbText
  0
TEXT
  5
1814
330
1F
100
AcDbEntity
  8
0
 62
     3
100
AcDbText
 10
2033.706964096406
 20
166.0046979860624
 30
0.0
 40
3.2
  1
15000H
  7
高3.2
100
AcDbText
  0
TEXT
  5
1815
330
1F
100
AcDbEntity
  8
0
 62
     3
100
AcDbText
 10
2033.706964096406
 20
160.5046979860624
 30
0.0
 40
3.2
  1
-20～50℃
  7
高3.2
100
AcDbText
  0
LINE
  5
1816
330
1F
100
AcDbEntity
  8
0
 62
     3
100
AcDbLine
 10
2007.27886852364
 20
269.5046979860624
 30
0.0
 11
2007.278868523642
 21
154.0046979860624
 31
0.0
  0
LINE
  5
1817
330
1F
100
AcDbEntity
  8
0
 62
     7
100
AcDbLine
 10
2032.206964096406
 20
154.0046979860624
 30
0.0
 11
2032.206964096404
 21
269.5046979860624
 31
0.0
  0
LINE
  5
1818
330
1F
100
AcDbEntity
  8
0
 62
     3
100
AcDbLine
 10
2083.178868523642
 20
154.0046979860624
 30
0.0
 11
2083.178868523641
 21
269.5046979860624
 31
0.0
  0
TEXT
  5
1819
330
1F
100
AcDbEntity
  8
0
 62
     3
100
AcDbText
 10
2026.447246005771
 20
274.2385098630923
 30
0.0
 40
4.5
  1
主　　仕　　様
  7
高4.5
100
AcDbText
  0
LINE
  5
181A
330
1F
100
AcDbEntity
  8
0
100
AcDbLine
 10
2025.346331638015
 20
273.3727567792496
 30
0.0
 11
2063.938551917703
 21
273.3727567792496
 31
0.0
  0
TEXT
  5
181B
330
1F
100
AcDbEntity
  8
0
 62
     7
100
AcDbText
 10
2006.148958187564
 20
141.2842067528049
 30
0.0
 40
2.0
  1
注４）照度は当社実測値の為、使用環境下により異なります。
  7
高2
100
AcDbText
  0
TEXT
  5
181C
330
1F
100
AcDbEntity
  8
0
 62
     7
100
AcDbText
 10
2006.148958187564
 20
138.2842067528049
 30
0.0
 40
2.0
  1
注５）球寿命は光束が70%%%に低下するまでの時間です。
  7
高2
100
AcDbText
  0
TEXT
  5
181D
330
1F
100
AcDbEntity
  8
0
 62
     7
100
AcDbText
 10
2006.148958187564
 20
135.2842067528049
 30
0.0
 40
2.0
  1
　　　表示は設計値であり、製品の寿命を保証するものではありません。
  7
高2
100
AcDbText
  0
TEXT
  5
181E
330
1F
100
AcDbEntity
  8
0
 62
     7
100
AcDbText
 10
2006.148958187564
 20
144.2842067528049
 30
0.0
 40
2.0
  1
注３）()内数値は入力200Vでの値です。
  7
高2
100
AcDbText
  0
TEXT
  5
181F
330
1F
100
AcDbEntity
  8
0
 62
     7
100
AcDbText
 10
2006.148958187564
 20
147.2842067528049
 30
0.0
 40
2.0
  1
注２）LEDの光色、明るさにはバラツキがあります。
  7
高2
100
AcDbText
  0
TEXT
  5
1820
330
1F
100
AcDbEntity
  8
0
 62
     7
100
AcDbText
 10
2006.148958187564
 20
150.2842067528049
 30
0.0
 40
2.0
  1
注１）当器具のLED素子交換はできません。
  7
高2
100
AcDbText
  0
TEXT
  5
1821
330
1F
100
AcDbEntity
  8
0
 62
     7
100
AcDbText
 10
2006.148958187564
 20
132.2842067528049
 30
0.0
 40
2.0
  1
注６）安全にご使用いただくため、取扱説明書をご参照ください。
  7
高2
100
AcDbText
  0
TEXT
  5
1823
330
1F
100
AcDbEntity
  8
0
 62
     3
100
AcDbText
 10
2008.77886852364
 20
265.0046979860624
 30
0.0
 40
3.2
  1
型　　　式
  7
高3.2
100
AcDbText
  0
LINE
  5
1824
330
1F
100
AcDbEntity
  8
0
 62
     3
100
AcDbLine
 10
2007.27886852364
 20
269.5046979860624
 30
0.0
 11
2083.17886852364
 21
269.5046979860624
 31
0.0
  0
TEXT
  5
1825
330
1F
100
AcDbEntity
  8
0
 62
     3
100
AcDbText
 10
2033.706964096404
 20
265.0046979860624
 30
0.0
 40
3.2
  1
LU9W-F
  7
高3.2
100
AcDbText
  0
TEXT
  5
1826
330
1F
100
AcDbEntity
  8
0
 62
     7
100
AcDbText
 10
2006.148958187564
 20
129.2842067528049
 30
0.0
 40
2.0
  1
注７）仕様変更は予告なく行う場合があります。予めご了承ください。
  7
高2
100
AcDbText
  0
TEXT
  5
1827
330
1F
100
AcDbEntity
  8
0
 62
     3
100
AcDbText
 10
2008.778868523642
 20
254.0046979860624
 30
0.0
 40
3.2
  1
口金サイズ
  7
高3.2
100
AcDbText
  0
LINE
  5
1828
330
1F
100
AcDbEntity
  8
0
 62
     7
100
AcDbLine
 10
2007.278868523642
 20
253.0046979860624
 30
0.0
 11
2083.178868523642
 21
253.0046979860624
 31
0.0
  0
TEXT
  5
1829
330
1F
100
AcDbEntity
  8
0
 62
     3
100
AcDbText
 10
2033.706964096406
 20
254.0046979860624
 30
0.0
 40
3.2
  1
E26
  7
高3.2
100
AcDbText
  0
LINE
  5
182A
330
1F
100
AcDbEntity
  8
0
 62
     7
100
AcDbLine
 10
2007.278868523642
 20
165.0046979860624
 30
0.0
 11
2083.178868523642
 21
165.0046979860624
 31
0.0
  0
LINE
  5
1A79
330
1F
100
AcDbEntity
  8
0
 62
     7
100
AcDbLine
 10
2007.27886852364
 20
264.0046979860624
 30
0.0
 11
2083.17886852364
 21
264.0046979860624
 31
0.0
  0
TEXT
  5
1A7A
330
1F
100
AcDbEntity
  8
0
 62
     3
100
AcDbText
 10
2008.778868523641
 20
259.5046979860624
 30
0.0
 40
3.2
  1
使用　場所
  7
高3.2
100
AcDbText
  0
TEXT
  5
1A7B
330
1F
100
AcDbEntity
  8
0
 62
     3
100
AcDbText
 10
2033.706964096405
 20
259.5046979860624
 30
0.0
 40
3.2
  1
屋内型
  7
高3.2
100
AcDbText
  0
TEXT
  5
1C2F
330
1F
100
AcDbEntity
  8
0
 62
     4
100
AcDbText
 10
1991.592623244053
 20
161.3937819349364
 30
0.0
 40
3.0
  1
PBT
100
AcDbText
1001
ACAD
1000
MTEXTBEGIN
1070
    73
1070
     1
1070
    44
1040
1.0
1070
    74
1070
     0
1000
MTEXTEND
  0
TEXT
  5
1C32
330
1F
100
AcDbEntity
  8
0
 62
     4
100
AcDbText
 10
1993.582676758177
 20
260.4390305337796
 30
0.0
 40
3.0
  1
LED
100
AcDbText
1001
ACAD
1000
MTEXTBEGIN
1070
    73
1070
     1
1070
    44
1040
1.0
1070
    74
1070
     0
1000
MTEXTEND
  0
TEXT
  5
1C35
330
1F
100
AcDbEntity
  8
0
 62
     4
100
AcDbText
 10
1995.563448032498
 20
272.3150763041745
 30
0.0
 40
3.0
  1
ガラス管
100
AcDbText
1001
ACAD
1000
MTEXTBEGIN
1070
    73
1070
     1
1070
    44
1040
1.0
1070
    74
1070
     0
1000
MTEXTEND
  0
LINE
  5
1C38
330
1F
100
AcDbEntity
  8
0
  6
Continuous
100
AcDbLine
 10
1969.71119268693
 20
134.0664991705704
 30
0.0
 11
1937.452571523735
 21
134.0664991705704
 31
0.0
  0
LINE
  5
1C39
330
1F
100
AcDbEntity
  8
0
  6
Continuous
100
AcDbLine
 10
1949.911192686931
 20
195.0664991705704
 30
0.0
 11
1937.452571523735
 21
195.0664991705704
 31
0.0
  0
LINE
  5
1C3A
330
1F
100
AcDbEntity
  8
0
  6
Continuous
100
AcDbLine
 10
1938.702571523735
 20
136.5664991705704
 30
0.0
 11
1938.702571523735
 21
192.5664991705704
 31
0.0
  0
LINE
  5
1C3E
330
1F
100
AcDbEntity
  8
0
  6
Continuous
100
AcDbLine
 10
1956.961194020886
 20
146.238575337626
 30
0.0
 11
1956.961194020886
 21
121.8853004252607
 31
0.0
  0
LINE
  5
1C3F
330
1F
100
AcDbEntity
  8
0
  6
Continuous
100
AcDbLine
 10
1982.958416259193
 20
147.6335107501133
 30
0.0
 11
1982.958416259193
 21
121.8853004252607
 31
0.0
  0
LINE
  5
1C40
330
1F
100
AcDbEntity
  8
0
  6
Continuous
100
AcDbLine
 10
1959.461194020886
 20
123.1353004252607
 30
0.0
 11
1980.458416259193
 21
123.1353004252607
 31
0.0
  0
LINE
  5
1C44
330
1F
100
AcDbEntity
  8
0
  6
Continuous
100
AcDbLine
 10
1990.761192686931
 20
194.3164991705704
 30
0.0
 11
1990.761192686931
 21
284.3982405919615
 31
0.0
  0
LINE
  5
1C45
330
1F
100
AcDbEntity
  8
0
  6
Continuous
100
AcDbLine
 10
1949.161192686931
 20
194.3164991705704
 30
0.0
 11
1949.161192686931
 21
284.3982405919615
 31
0.0
  0
LINE
  5
1C46
330
1F
100
AcDbEntity
  8
0
  6
Continuous
100
AcDbLine
 10
1988.261192686931
 20
283.1482405919615
 30
0.0
 11
1951.661192686931
 21
283.1482405919615
 31
0.0
  0
LINE
  5
1C4A
330
1F
100
AcDbEntity
  8
0
  6
Continuous
100
AcDbLine
 10
1969.71119268693
 20
273.0664991705705
 30
0.0
 11
1926.896659981231
 21
273.0664991705705
 31
0.0
  0
LINE
  5
1C4B
330
1F
100
AcDbEntity
  8
0
  6
Continuous
100
AcDbLine
 10
1969.71119268693
 20
134.0664991705704
 30
0.0
 11
1926.896659981231
 21
134.0664991705704
 31
0.0
  0
LINE
  5
1C4C
330
1F
100
AcDbEntity
  8
0
  6
Continuous
100
AcDbLine
 10
1928.146659981231
 20
270.5664991705705
 30
0.0
 11
1928.146659981231
 21
136.5664991705704
 31
0.0
  0
LINE
  5
1C50
330
1F
100
AcDbEntity
  8
0
 62
     2
100
AcDbLine
 10
1988.029551626199
 20
327.5959569540848
 30
0.0
 11
1988.010923626199
 21
327.7152239540848
 31
0.0
  0
LINE
  5
1C51
330
1F
100
AcDbEntity
  8
0
 62
     2
100
AcDbLine
 10
1988.010923626199
 20
327.7152239540848
 30
0.0
 11
1987.988552626199
 21
327.8294289540848
 31
0.0
  0
LINE
  5
1C52
330
1F
100
AcDbEntity
  8
0
 62
     2
100
AcDbLine
 10
1987.988552626199
 20
327.8294289540848
 30
0.0
 11
1987.962610626199
 21
327.9376879540848
 31
0.0
  0
LINE
  5
1C53
330
1F
100
AcDbEntity
  8
0
 62
     2
100
AcDbLine
 10
1987.962610626199
 20
327.9376879540848
 30
0.0
 11
1987.933298626199
 21
328.0391649540847
 31
0.0
  0
LINE
  5
1C54
330
1F
100
AcDbEntity
  8
0
 62
     2
100
AcDbLine
 10
1987.933298626199
 20
328.0391649540847
 30
0.0
 11
1987.900842626199
 21
328.1330739540848
 31
0.0
  0
LINE
  5
1C55
330
1F
100
AcDbEntity
  8
0
 62
     2
100
AcDbLine
 10
1987.900842626199
 20
328.1330739540848
 30
0.0
 11
1987.865493626199
 21
328.2186909540848
 31
0.0
  0
LINE
  5
1C56
330
1F
100
AcDbEntity
  8
0
 62
     2
100
AcDbLine
 10
1987.865493626199
 20
328.2186909540848
 30
0.0
 11
1987.827525626199
 21
328.2953539540848
 31
0.0
  0
LINE
  5
1C57
330
1F
100
AcDbEntity
  8
0
 62
     2
100
AcDbLine
 10
1987.827525626199
 20
328.2953539540848
 30
0.0
 11
1987.787231626199
 21
328.3624689540848
 31
0.0
  0
LINE
  5
1C58
330
1F
100
AcDbEntity
  8
0
 62
     2
100
AcDbLine
 10
1987.787231626199
 20
328.3624689540848
 30
0.0
 11
1987.744922626199
 21
328.4195189540848
 31
0.0
  0
LINE
  5
1C59
330
1F
100
AcDbEntity
  8
0
 62
     2
100
AcDbLine
 10
1987.744922626199
 20
328.4195189540848
 30
0.0
 11
1987.700926626199
 21
328.4660609540848
 31
0.0
  0
LINE
  5
1C5A
330
1F
100
AcDbEntity
  8
0
 62
     2
100
AcDbLine
 10
1987.700926626199
 20
328.4660609540848
 30
0.0
 11
1987.655582626199
 21
328.5017369540848
 31
0.0
  0
LINE
  5
1C5B
330
1F
100
AcDbEntity
  8
0
 62
     2
100
AcDbLine
 10
1987.655582626199
 20
328.5017369540848
 30
0.0
 11
1987.609241626199
 21
328.5262709540848
 31
0.0
  0
LINE
  5
1C5C
330
1F
100
AcDbEntity
  8
0
 62
     2
100
AcDbLine
 10
1987.609241626199
 20
328.5262709540848
 30
0.0
 11
1987.562261626199
 21
328.5394729540848
 31
0.0
  0
LINE
  5
1C5D
330
1F
100
AcDbEntity
  8
0
 62
     2
100
AcDbLine
 10
1987.562261626199
 20
328.5394729540848
 30
0.0
 11
1987.515005626199
 21
328.5412409540848
 31
0.0
  0
LINE
  5
1C5E
330
1F
100
AcDbEntity
  8
0
 62
     2
100
AcDbLine
 10
1987.515005626199
 20
328.5412409540848
 30
0.0
 11
1987.467839626199
 21
328.5315609540849
 31
0.0
  0
LINE
  5
1C5F
330
1F
100
AcDbEntity
  8
0
 62
     2
100
AcDbLine
 10
1987.467839626199
 20
328.5315609540849
 30
0.0
 11
1987.421127626199
 21
328.5105079540848
 31
0.0
  0
LINE
  5
1C60
330
1F
100
AcDbEntity
  8
0
 62
     2
100
AcDbLine
 10
1987.421127626199
 20
328.5105079540848
 30
0.0
 11
1987.375230626199
 21
328.4782459540848
 31
0.0
  0
LINE
  5
1C61
330
1F
100
AcDbEntity
  8
0
 62
     2
100
AcDbLine
 10
1987.375230626199
 20
328.4782459540848
 30
0.0
 11
1987.330503626199
 21
328.4350219540848
 31
0.0
  0
LINE
  5
1C62
330
1F
100
AcDbEntity
  8
0
 62
     2
100
AcDbLine
 10
1987.330503626199
 20
328.4350219540848
 30
0.0
 11
1987.287292626199
 21
328.3811719540848
 31
0.0
  0
LINE
  5
1C63
330
1F
100
AcDbEntity
  8
0
 62
     2
100
AcDbLine
 10
1987.287292626199
 20
328.3811719540848
 30
0.0
 11
1987.245930626199
 21
328.3171109540848
 31
0.0
  0
LINE
  5
1C64
330
1F
100
AcDbEntity
  8
0
 62
     2
100
AcDbLine
 10
1987.245930626199
 20
328.3171109540848
 30
0.0
 11
1987.206738626199
 21
328.2433359540848
 31
0.0
  0
LINE
  5
1C65
330
1F
100
AcDbEntity
  8
0
 62
     2
100
AcDbLine
 10
1987.206738626199
 20
328.2433359540848
 30
0.0
 11
1987.170018626199
 21
328.1604149540848
 31
0.0
  0
LINE
  5
1C66
330
1F
100
AcDbEntity
  8
0
 62
     2
100
AcDbLine
 10
1987.170018626199
 20
328.1604149540848
 30
0.0
 11
1987.136054626199
 21
328.0689899540848
 31
0.0
  0
LINE
  5
1C67
330
1F
100
AcDbEntity
  8
0
 62
     2
100
AcDbLine
 10
1987.136054626199
 20
328.0689899540848
 30
0.0
 11
1987.105108626199
 21
327.9697679540849
 31
0.0
  0
LINE
  5
1C68
330
1F
100
AcDbEntity
  8
0
 62
     2
100
AcDbLine
 10
1987.105108626199
 20
327.9697679540849
 30
0.0
 11
1987.077421626199
 21
327.8635149540848
 31
0.0
  0
LINE
  5
1C69
330
1F
100
AcDbEntity
  8
0
 62
     2
100
AcDbLine
 10
1987.077421626199
 20
327.8635149540848
 30
0.0
 11
1987.053205626199
 21
327.7510529540848
 31
0.0
  0
LINE
  5
1C6A
330
1F
100
AcDbEntity
  8
0
 62
     2
100
AcDbLine
 10
1987.053205626199
 20
327.7510529540848
 30
0.0
 11
1987.032649626199
 21
327.6332509540848
 31
0.0
  0
LINE
  5
1C6B
330
1F
100
AcDbEntity
  8
0
 62
     2
100
AcDbLine
 10
1987.032649626199
 20
327.6332509540848
 30
0.0
 11
1987.015910626199
 21
327.5110199540848
 31
0.0
  0
LINE
  5
1C6C
330
1F
100
AcDbEntity
  8
0
 62
     2
100
AcDbLine
 10
1987.015910626199
 20
327.5110199540848
 30
0.0
 11
1987.003118626199
 21
327.3853039540848
 31
0.0
  0
LINE
  5
1C6D
330
1F
100
AcDbEntity
  8
0
 62
     2
100
AcDbLine
 10
1987.003118626199
 20
327.3853039540848
 30
0.0
 11
1986.994373626199
 21
327.2570749540848
 31
0.0
  0
LINE
  5
1C6E
330
1F
100
AcDbEntity
  8
0
 62
     2
100
AcDbLine
 10
1986.994373626199
 20
327.2570749540848
 30
0.0
 11
1986.989742626199
 21
327.1273249540848
 31
0.0
  0
LINE
  5
1C6F
330
1F
100
AcDbEntity
  8
0
 62
     2
100
AcDbLine
 10
1986.989742626199
 20
327.1273249540848
 30
0.0
 11
1986.989260626199
 21
326.9970559540848
 31
0.0
  0
LINE
  5
1C70
330
1F
100
AcDbEntity
  8
0
 62
     2
100
AcDbLine
 10
1986.989260626199
 20
326.9970559540848
 30
0.0
 11
1986.992931626199
 21
326.8672739540848
 31
0.0
  0
LINE
  5
1C71
330
1F
100
AcDbEntity
  8
0
 62
     2
100
AcDbLine
 10
1986.992931626199
 20
326.8672739540848
 30
0.0
 11
1987.000727626199
 21
326.7389849540848
 31
0.0
  0
LINE
  5
1C72
330
1F
100
AcDbEntity
  8
0
 62
     2
100
AcDbLine
 10
1987.000727626199
 20
326.7389849540848
 30
0.0
 11
1987.012588626199
 21
326.6131769540848
 31
0.0
  0
LINE
  5
1C73
330
1F
100
AcDbEntity
  8
0
 62
     2
100
AcDbLine
 10
1987.012588626199
 20
326.6131769540848
 30
0.0
 11
1987.028422626199
 21
326.4908259540848
 31
0.0
  0
LINE
  5
1C74
330
1F
100
AcDbEntity
  8
0
 62
     2
100
AcDbLine
 10
1987.028422626199
 20
326.4908259540848
 30
0.0
 11
1987.048106626199
 21
326.3728749540848
 31
0.0
  0
LINE
  5
1C75
330
1F
100
AcDbEntity
  8
0
 62
     2
100
AcDbLine
 10
1987.048106626199
 20
326.3728749540848
 30
0.0
 11
1987.071489626199
 21
326.2602369540848
 31
0.0
  0
LINE
  5
1C76
330
1F
100
AcDbEntity
  8
0
 62
     2
100
AcDbLine
 10
1987.071489626199
 20
326.2602369540848
 30
0.0
 11
1987.098389626199
 21
326.1537819540848
 31
0.0
  0
LINE
  5
1C77
330
1F
100
AcDbEntity
  8
0
 62
     2
100
AcDbLine
 10
1987.098389626199
 20
326.1537819540848
 30
0.0
 11
1987.128599626199
 21
326.0543339540848
 31
0.0
  0
LINE
  5
1C78
330
1F
100
AcDbEntity
  8
0
 62
     2
100
AcDbLine
 10
1987.128599626199
 20
326.0543339540848
 30
0.0
 11
1987.161886626199
 21
325.9626599540848
 31
0.0
  0
LINE
  5
1C79
330
1F
100
AcDbEntity
  8
0
 62
     2
100
AcDbLine
 10
1987.161886626199
 20
325.9626599540848
 30
0.0
 11
1987.197991626199
 21
325.8794689540848
 31
0.0
  0
LINE
  5
1C7A
330
1F
100
AcDbEntity
  8
0
 62
     2
100
AcDbLine
 10
1987.197991626199
 20
325.8794689540848
 30
0.0
 11
1987.236636626199
 21
325.8054059540848
 31
0.0
  0
LINE
  5
1C7B
330
1F
100
AcDbEntity
  8
0
 62
     2
100
AcDbLine
 10
1987.236636626199
 20
325.8054059540848
 30
0.0
 11
1987.277523626199
 21
325.7410409540848
 31
0.0
  0
LINE
  5
1C7C
330
1F
100
AcDbEntity
  8
0
 62
     2
100
AcDbLine
 10
1987.277523626199
 20
325.7410409540848
 30
0.0
 11
1987.320335626199
 21
325.6868719540848
 31
0.0
  0
LINE
  5
1C7D
330
1F
100
AcDbEntity
  8
0
 62
     2
100
AcDbLine
 10
1987.320335626199
 20
325.6868719540848
 30
0.0
 11
1987.364740626199
 21
325.6433189540848
 31
0.0
  0
LINE
  5
1C7E
330
1F
100
AcDbEntity
  8
0
 62
     2
100
AcDbLine
 10
1987.364740626199
 20
325.6433189540848
 30
0.0
 11
1987.410397626199
 21
325.6107169540848
 31
0.0
  0
LINE
  5
1C7F
330
1F
100
AcDbEntity
  8
0
 62
     2
100
AcDbLine
 10
1987.410397626199
 20
325.6107169540848
 30
0.0
 11
1987.456952626199
 21
325.5893199540848
 31
0.0
  0
LINE
  5
1C80
330
1F
100
AcDbEntity
  8
0
 62
     2
100
AcDbLine
 10
1987.456952626199
 20
325.5893199540848
 30
0.0
 11
1987.504045626199
 21
325.5792909540848
 31
0.0
  0
LINE
  5
1C81
330
1F
100
AcDbEntity
  8
0
 62
     2
100
AcDbLine
 10
1987.504045626199
 20
325.5792909540848
 30
0.0
 11
1987.551313626199
 21
325.5807089540848
 31
0.0
  0
LINE
  5
1C82
330
1F
100
AcDbEntity
  8
0
 62
     2
100
AcDbLine
 10
1987.551313626199
 20
325.5807089540848
 30
0.0
 11
1987.598389626199
 21
325.5935629540848
 31
0.0
  0
LINE
  5
1C83
330
1F
100
AcDbEntity
  8
0
 62
     2
100
AcDbLine
 10
1987.598389626199
 20
325.5935629540848
 30
0.0
 11
1987.644911626199
 21
325.6177529540849
 31
0.0
  0
LINE
  5
1C84
330
1F
100
AcDbEntity
  8
0
 62
     2
100
AcDbLine
 10
1987.644911626199
 20
325.6177529540849
 30
0.0
 11
1987.690517626199
 21
325.6530929540848
 31
0.0
  0
LINE
  5
1C85
330
1F
100
AcDbEntity
  8
0
 62
     2
100
AcDbLine
 10
1987.690517626199
 20
325.6530929540848
 30
0.0
 11
1987.734857626199
 21
325.6993089540848
 31
0.0
  0
LINE
  5
1C86
330
1F
100
AcDbEntity
  8
0
 62
     2
100
AcDbLine
 10
1987.734857626199
 20
325.6993089540848
 30
0.0
 11
1987.777587626199
 21
325.7560429540848
 31
0.0
  0
LINE
  5
1C87
330
1F
100
AcDbEntity
  8
0
 62
     2
100
AcDbLine
 10
1987.777587626199
 20
325.7560429540848
 30
0.0
 11
1987.818377626199
 21
325.8228589540848
 31
0.0
  0
LINE
  5
1C88
330
1F
100
AcDbEntity
  8
0
 62
     2
100
AcDbLine
 10
1987.818377626199
 20
325.8228589540848
 30
0.0
 11
1987.856911626199
 21
325.8992379540848
 31
0.0
  0
LINE
  5
1C89
330
1F
100
AcDbEntity
  8
0
 62
     2
100
AcDbLine
 10
1987.856911626199
 20
325.8992379540848
 30
0.0
 11
1987.892892626199
 21
325.9845909540848
 31
0.0
  0
LINE
  5
1C8A
330
1F
100
AcDbEntity
  8
0
 62
     2
100
AcDbLine
 10
1987.892892626199
 20
325.9845909540848
 30
0.0
 11
1987.926042626199
 21
326.0782579540848
 31
0.0
  0
LINE
  5
1C8B
330
1F
100
AcDbEntity
  8
0
 62
     2
100
AcDbLine
 10
1987.926042626199
 20
326.0782579540848
 30
0.0
 11
1987.956105626199
 21
326.1795149540848
 31
0.0
  0
LINE
  5
1C8C
330
1F
100
AcDbEntity
  8
0
 62
     2
100
AcDbLine
 10
1987.956105626199
 20
326.1795149540848
 30
0.0
 11
1987.982847626199
 21
326.2875789540848
 31
0.0
  0
LINE
  5
1C8D
330
1F
100
AcDbEntity
  8
0
 62
     2
100
AcDbLine
 10
1987.982847626199
 20
326.2875789540848
 30
0.0
 11
1988.006063626199
 21
326.4016149540848
 31
0.0
  0
LINE
  5
1C8E
330
1F
100
AcDbEntity
  8
0
 62
     2
100
AcDbLine
 10
1988.006063626199
 20
326.4016149540848
 30
0.0
 11
1988.025572626199
 21
326.5207419540848
 31
0.0
  0
LINE
  5
1C8F
330
1F
100
AcDbEntity
  8
0
100
AcDbLine
 10
1987.978161554257
 20
166.0799144155611
 30
0.0
 11
1988.467623244053
 21
162.8937819349364
 31
0.0
1001
ACAD
1000
DSTYLE
1002
{
1070
   147
1040
0.625
1070
    77
1070
     0
1002
}
  0
LINE
  5
1C90
330
1F
100
AcDbEntity
  8
0
100
AcDbLine
 10
1988.467623244053
 20
162.8937819349364
 30
0.0
 11
1990.967623244053
 21
162.8937819349364
 31
0.0
1001
ACAD
1000
DSTYLE
1002
{
1070
   147
1040
0.625
1070
    77
1070
     0
1002
}
  0
LINE
  5
1C91
330
1F
100
AcDbEntity
  8
0
  6
ByBlock
 62
     0
370
    -2
100
AcDbLine
 10
1987.316056296515
 20
165.9782001396333
 30
0.0
 11
1987.598558436022
 21
168.5509266519992
 31
0.0
  0
LINE
  5
1C92
330
1F
100
AcDbEntity
  8
0
  6
ByBlock
 62
     0
370
    -2
100
AcDbLine
 10
1987.598558436022
 20
168.5509266519992
 30
0.0
 11
1988.640266811998
 21
166.181628691489
 31
0.0
  0
LINE
  5
1C93
330
1F
100
AcDbEntity
  8
0
  6
ByBlock
 62
     0
370
    -2
100
AcDbLine
 10
1987.598558436022
 20
168.5509266519992
 30
0.0
 11
1987.978161554257
 21
166.0799144155611
 31
0.0
  0
LINE
  5
1C94
330
1F
100
AcDbEntity
  8
0
100
AcDbLine
 10
1979.393749068487
 20
246.1153481678525
 30
0.0
 11
1990.457676758177
 21
261.9390305337796
 31
0.0
1001
ACAD
1000
DSTYLE
1002
{
1070
   147
1040
0.625
1070
    77
1070
     0
1002
}
  0
LINE
  5
1C95
330
1F
100
AcDbEntity
  8
0
100
AcDbLine
 10
1990.457676758177
 20
261.9390305337796
 30
0.0
 11
1992.957676758177
 21
261.9390305337796
 31
0.0
1001
ACAD
1000
DSTYLE
1002
{
1070
   147
1040
0.625
1070
    77
1070
     0
1002
}
  0
LINE
  5
1C96
330
1F
100
AcDbEntity
  8
0
  6
ByBlock
 62
     0
370
    -2
100
AcDbLine
 10
1979.94273610846
 20
245.731496117971
 30
0.0
 11
1977.961192686931
 21
244.0664991705705
 31
0.0
  0
LINE
  5
1C97
330
1F
100
AcDbEntity
  8
0
  6
ByBlock
 62
     0
370
    -2
100
AcDbLine
 10
1977.961192686931
 20
244.0664991705705
 30
0.0
 11
1978.844762028514
 21
246.499200217734
 31
0.0
  0
LINE
  5
1C98
330
1F
100
AcDbEntity
  8
0
  6
ByBlock
 62
     0
370
    -2
100
AcDbLine
 10
1977.961192686931
 20
244.0664991705705
 30
0.0
 11
1979.393749068487
 21
246.1153481678525
 31
0.0
  0
LINE
  5
1C99
330
1F
100
AcDbEntity
  8
0
100
AcDbLine
 10
1987.734435380883
 20
266.5617874880627
 30
0.0
 11
1992.638448032497
 21
273.8150763041746
 31
0.0
1001
ACAD
1000
DSTYLE
1002
{
1070
   147
1040
0.625
1070
    77
1070
     0
1002
}
  0
LINE
  5
1C9A
330
1F
100
AcDbEntity
  8
0
100
AcDbLine
 10
1992.638448032497
 20
273.8150763041746
 30
0.0
 11
1995.138448032498
 21
273.8150763041746
 31
0.0
1001
ACAD
1000
DSTYLE
1002
{
1070
   147
1040
0.625
1070
    77
1070
     0
1002
}
  0
LINE
  5
1C9B
330
1F
100
AcDbEntity
  8
0
  6
ByBlock
 62
     0
370
    -2
100
AcDbLine
 10
1988.289372811695
 20
266.1865893882006
 30
0.0
 11
1986.33417600368
 21
264.4907313138956
 31
0.0
  0
LINE
  5
1C9C
330
1F
100
AcDbEntity
  8
0
  6
ByBlock
 62
     0
370
    -2
100
AcDbLine
 10
1986.33417600368
 20
264.4907313138956
 30
0.0
 11
1987.179497950071
 21
266.9369855879248
 31
0.0
  0
LINE
  5
1C9D
330
1F
100
AcDbEntity
  8
0
  6
ByBlock
 62
     0
370
    -2
100
AcDbLine
 10
1986.33417600368
 20
264.4907313138956
 30
0.0
 11
1987.734435380883
 21
266.5617874880627
 31
0.0
  0
TEXT
  5
1C9E
330
1F
100
AcDbEntity
  8
0
 62
     4
100
AcDbText
 10
1938.077571523735
 20
162.5664991705705
 30
0.0
 40
3.0
  1
61
 50
90.0
100
AcDbText
  0
LINE
  5
1C9F
330
1F
100
AcDbEntity
  8
0
  6
ByBlock
 62
     0
370
    -2
100
AcDbLine
 10
1938.032699023735
 20
192.5664991705704
 30
0.0
 11
1938.702571523735
 21
195.0664991705704
 31
0.0
  0
LINE
  5
1CA0
330
1F
100
AcDbEntity
  8
0
  6
ByBlock
 62
     0
370
    -2
100
AcDbLine
 10
1938.702571523735
 20
195.0664991705704
 30
0.0
 11
1939.372444023735
 21
192.5664991705704
 31
0.0
  0
LINE
  5
1CA1
330
1F
100
AcDbEntity
  8
0
  6
ByBlock
 62
     0
370
    -2
100
AcDbLine
 10
1938.702571523735
 20
195.0664991705704
 30
0.0
 11
1938.702571523735
 21
192.5664991705704
 31
0.0
  0
LINE
  5
1CA2
330
1F
100
AcDbEntity
  8
0
  6
ByBlock
 62
     0
370
    -2
100
AcDbLine
 10
1939.372444023735
 20
136.5664991705704
 30
0.0
 11
1938.702571523735
 21
134.0664991705704
 31
0.0
  0
LINE
  5
1CA3
330
1F
100
AcDbEntity
  8
0
  6
ByBlock
 62
     0
370
    -2
100
AcDbLine
 10
1938.702571523735
 20
134.0664991705704
 30
0.0
 11
1938.032699023735
 21
136.5664991705704
 31
0.0
  0
LINE
  5
1CA4
330
1F
100
AcDbEntity
  8
0
  6
ByBlock
 62
     0
370
    -2
100
AcDbLine
 10
1938.702571523735
 20
134.0664991705704
 30
0.0
 11
1938.702571523735
 21
136.5664991705704
 31
0.0
  0
TEXT
  5
1CA5
330
1F
100
AcDbEntity
  8
0
 62
     4
100
AcDbText
 10
1966.614655734496
 20
123.7603004252607
 30
0.0
 40
3.0
  1
E26
100
AcDbText
  0
LINE
  5
1CA6
330
1F
100
AcDbEntity
  8
0
  6
ByBlock
 62
     0
370
    -2
100
AcDbLine
 10
1980.458416259193
 20
123.8051729252607
 30
0.0
 11
1982.958416259193
 21
123.1353004252607
 31
0.0
  0
LINE
  5
1CA7
330
1F
100
AcDbEntity
  8
0
  6
ByBlock
 62
     0
370
    -2
100
AcDbLine
 10
1982.958416259193
 20
123.1353004252607
 30
0.0
 11
1980.458416259193
 21
122.4654279252607
 31
0.0
  0
LINE
  5
1CA8
330
1F
100
AcDbEntity
  8
0
  6
ByBlock
 62
     0
370
    -2
100
AcDbLine
 10
1982.958416259193
 20
123.1353004252607
 30
0.0
 11
1980.458416259193
 21
123.1353004252607
 31
0.0
  0
LINE
  5
1CA9
330
1F
100
AcDbEntity
  8
0
  6
ByBlock
 62
     0
370
    -2
100
AcDbLine
 10
1959.461194020886
 20
122.4654279252607
 30
0.0
 11
1956.961194020886
 21
123.1353004252607
 31
0.0
  0
LINE
  5
1CAA
330
1F
100
AcDbEntity
  8
0
  6
ByBlock
 62
     0
370
    -2
100
AcDbLine
 10
1956.961194020886
 20
123.1353004252607
 30
0.0
 11
1959.461194020886
 21
123.8051729252607
 31
0.0
  0
LINE
  5
1CAB
330
1F
100
AcDbEntity
  8
0
  6
ByBlock
 62
     0
370
    -2
100
AcDbLine
 10
1956.961194020886
 20
123.1353004252607
 30
0.0
 11
1959.461194020886
 21
123.1353004252607
 31
0.0
  0
TEXT
  5
1CAC
330
1F
100
AcDbEntity
  8
0
 62
     4
100
AcDbText
 10
1964.46119268693
 20
283.7732405919615
 30
0.0
 40
3.0
  1
\U+220541.6
100
AcDbText
  0
LINE
  5
1CAD
330
1F
100
AcDbEntity
  8
0
  6
ByBlock
 62
     0
370
    -2
100
AcDbLine
 10
1951.661192686931
 20
282.4783680919615
 30
0.0
 11
1949.161192686931
 21
283.1482405919615
 31
0.0
  0
LINE
  5
1CAE
330
1F
100
AcDbEntity
  8
0
  6
ByBlock
 62
     0
370
    -2
100
AcDbLine
 10
1949.161192686931
 20
283.1482405919615
 30
0.0
 11
1951.661192686931
 21
283.8181130919615
 31
0.0
  0
LINE
  5
1CAF
330
1F
100
AcDbEntity
  8
0
  6
ByBlock
 62
     0
370
    -2
100
AcDbLine
 10
1949.161192686931
 20
283.1482405919615
 30
0.0
 11
1951.661192686931
 21
283.1482405919615
 31
0.0
  0
LINE
  5
1CB0
330
1F
100
AcDbEntity
  8
0
  6
ByBlock
 62
     0
370
    -2
100
AcDbLine
 10
1988.261192686931
 20
283.8181130919615
 30
0.0
 11
1990.761192686931
 21
283.1482405919615
 31
0.0
  0
LINE
  5
1CB1
330
1F
100
AcDbEntity
  8
0
  6
ByBlock
 62
     0
370
    -2
100
AcDbLine
 10
1990.761192686931
 20
283.1482405919615
 30
0.0
 11
1988.261192686931
 21
282.4783680919615
 31
0.0
  0
LINE
  5
1CB2
330
1F
100
AcDbEntity
  8
0
  6
ByBlock
 62
     0
370
    -2
100
AcDbLine
 10
1990.761192686931
 20
283.1482405919615
 30
0.0
 11
1988.261192686931
 21
283.1482405919615
 31
0.0
  0
TEXT
  5
1CB3
330
1F
100
AcDbEntity
  8
0
 62
     4
100
AcDbText
 10
1927.521659981231
 20
200.0664991705705
 30
0.0
 40
3.0
  1
139
 50
90.0
100
AcDbText
  0
LINE
  5
1CB4
330
1F
100
AcDbEntity
  8
0
  6
ByBlock
 62
     0
370
    -2
100
AcDbLine
 10
1928.816532481231
 20
136.5664991705704
 30
0.0
 11
1928.146659981231
 21
134.0664991705704
 31
0.0
  0
LINE
  5
1CB5
330
1F
100
AcDbEntity
  8
0
  6
ByBlock
 62
     0
370
    -2
100
AcDbLine
 10
1928.146659981231
 20
134.0664991705704
 30
0.0
 11
1927.476787481231
 21
136.5664991705704
 31
0.0
  0
LINE
  5
1CB6
330
1F
100
AcDbEntity
  8
0
  6
ByBlock
 62
     0
370
    -2
100
AcDbLine
 10
1928.146659981231
 20
134.0664991705704
 30
0.0
 11
1928.146659981231
 21
136.5664991705704
 31
0.0
  0
LINE
  5
1CB7
330
1F
100
AcDbEntity
  8
0
  6
ByBlock
 62
     0
370
    -2
100
AcDbLine
 10
1927.476787481231
 20
270.5664991705705
 30
0.0
 11
1928.146659981231
 21
273.0664991705705
 31
0.0
  0
LINE
  5
1CB8
330
1F
100
AcDbEntity
  8
0
  6
ByBlock
 62
     0
370
    -2
100
AcDbLine
 10
1928.146659981231
 20
273.0664991705705
 30
0.0
 11
1928.816532481231
 21
270.5664991705705
 31
0.0
  0
LINE
  5
1CB9
330
1F
100
AcDbEntity
  8
0
  6
ByBlock
 62
     0
370
    -2
100
AcDbLine
 10
1928.146659981231
 20
273.0664991705705
 30
0.0
 11
1928.146659981231
 21
270.5664991705705
 31
0.0
  0
ENDSEC
  0
SECTION
  2
OBJECTS
  0
DICTIONARY
  5
C
330
0
100
AcDbDictionary
281
     1
  3
ACAD_2007HEADERVARS_RT
350
1CBE
  3
ACAD_COLOR
350
73
  3
ACAD_GROUP
350
D
  3
ACAD_LAYOUT
350
1A
  3
ACAD_MATERIAL
350
72
  3
ACAD_MLEADERSTYLE
350
168
  3
ACAD_MLINESTYLE
350
17
  3
ACAD_PLOTSETTINGS
350
19
  3
ACAD_PLOTSTYLENAME
350
E
  3
ACAD_SCALELIST
350
156
  3
ACAD_TABLESTYLE
350
86
  3
ACAD_VISUALSTYLE
350
99
  3
ACDB_RECOMPOSE_DATA
350
1CBC
  3
AcDbVariableDictionary
350
66
  3
DWGPROPS
350
1CBD
  0
DICTIONARY
  5
DD
330
2
100
AcDbDictionary
280
     1
281
     1
  3
ACAD_LAYERSTATES
360
DE
  0
DICTIONARY
  5
8E9
330
10
100
AcDbDictionary
280
     1
281
     1
  3
ADSK_XREC_LAYER_RECONCILED
360
182D
  0
DICTIONARY
  5
324
330
1F
100
AcDbDictionary
280
     1
281
     1
  3
ACAD_SORTENTS
360
325
  0
DICTIONARY
  5
E25
330
D57
100
AcDbDictionary
280
     1
281
     1
  3
ACAD_SORTENTS
360
E26
  0
DICTIONARY
  5
1191
330
10C4
100
AcDbDictionary
280
     1
281
     1
  3
ACAD_SORTENTS
360
1192
  0
DICTIONARY
  5
1CBE
102
{ACAD_REACTORS
330
C
102
}
330
C
100
AcDbDictionary
281
     1
  3
DIMARCSYM
350
1CC0
  3
DIMFXL
350
1CBF
  3
DIMJOGANG
350
1CC1
  0
DICTIONARY
  5
73
102
{ACAD_REACTORS
330
C
102
}
330
C
100
AcDbDictionary
281
     1
  0
DICTIONARY
  5
D
102
{ACAD_REACTORS
330
C
102
}
330
C
100
AcDbDictionary
281
     1
  0
DICTIONARY
  5
1A
102
{ACAD_REACTORS
330
C
102
}
330
C
100
AcDbDictionary
281
     1
  3
Model
350
22
  3
レイアウト1
350
59
  3
レイアウト2
350
5E
  0
DICTIONARY
  5
72
102
{ACAD_REACTORS
330
C
102
}
330
C
100
AcDbDictionary
281
     1
  3
ByBlock
350
97
  3
ByLayer
350
96
  3
Global
350
98
  0
DICTIONARY
  5
168
102
{ACAD_REACTORS
330
C
102
}
330
C
100
AcDbDictionary
281
     1
  3
Standard
350
169
  0
DICTIONARY
  5
17
102
{ACAD_REACTORS
330
C
102
}
330
C
100
AcDbDictionary
281
     1
  3
Standard
350
18
  0
DICTIONARY
  5
19
102
{ACAD_REACTORS
330
C
102
}
330
C
100
AcDbDictionary
281
     1
  0
ACDBDICTIONARYWDFLT
  5
E
102
{ACAD_REACTORS
330
C
102
}
330
C
100
AcDbDictionary
281
     1
  3
Normal
350
F
100
AcDbDictionaryWithDefault
340
F
  0
DICTIONARY
  5
156
102
{ACAD_REACTORS
330
C
102
}
330
C
100
AcDbDictionary
281
     1
  3
A0
350
157
  3
A1
350
158
  3
A2
350
159
  3
A3
350
15A
  3
A4
350
15B
  3
A5
350
15C
  3
A6
350
15D
  3
A7
350
15E
  3
A8
350
15F
  3
A9
350
160
  3
B0
350
161
  3
B1
350
162
  3
B2
350
163
  3
B3
350
164
  3
B4
350
165
  3
B5
350
166
  3
B6
350
167
  0
DICTIONARY
  5
86
102
{ACAD_REACTORS
330
C
102
}
330
C
100
AcDbDictionary
281
     1
  3
Standard
350
87
  3
部品表
350
C45
  0
DICTIONARY
  5
99
102
{ACAD_REACTORS
330
C
102
}
330
C
100
AcDbDictionary
281
     1
  3
2dWireframe
350
9F
  3
3D Hidden
350
A1
  3
3dWireframe
350
A0
  3
Basic
350
9E
  3
Brighten
350
A5
  3
ColorChange
350
A9
  3
Conceptual
350
A2
  3
Dim
350
A4
  3
EdgeColorOff
350
155
  3
Facepattern
350
A8
  3
Flat
350
9A
  3
FlatWithEdges
350
9B
  3
Gouraud
350
9C
  3
GouraudWithEdges
350
9D
  3
Hidden
350
14D
  3
JitterOff
350
153
  3
Linepattern
350
A7
  3
OverhangOff
350
154
  3
Realistic
350
A3
  3
Shaded
350
152
  3
Shaded with edges
350
151
  3
Shades of Gray
350
14E
  3
Sketchy
350
14F
  3
Thicken
350
A6
  3
Wireframe
350
14C
  3
X-Ray
350
150
  0
XRECORD
  5
1CBC
102
{ACAD_REACTORS
330
C
102
}
330
C
100
AcDbXrecord
280
     1
 90
        1
330
87
330
C45
  0
DICTIONARY
  5
66
102
{ACAD_REACTORS
330
C
102
}
330
C
100
AcDbDictionary
281
     1
  3
CANNOSCALE
350
24A
  3
CMLEADERSTYLE
350
248
  3
CTABLESTYLE
350
89
  3
DIMASSOC
350
67
  3
HIDETEXT
350
6B
  3
INDEXCTL
350
182F
  3
LAYEREVAL
350
24C
  3
LAYERNOTIFY
350
24D
  3
LIGHTINGUNITS
350
24B
  3
MSLTSCALE
350
249
  3
SORTENTS
350
182E
  3
XCLIPFRAME
350
1BA6
  0
XRECORD
  5
1CBD
102
{ACAD_REACTORS
330
C
102
}
330
C
100
AcDbXrecord
280
     1
  1
DWGPROPS COOKIE
  2

  3

  4

  6

  7

  8
imamura
  9

300
=
301
=
302
=
303
=
304
=
305
=
306
=
307
=
308
=
309
=
 40
0.2778266898148148
 41
2457217.420839051
 42
2457352.47065956
  1

 90
        0
  0
DICTIONARY
  5
DE
102
{ACAD_REACTORS
330
DD
102
}
330
DD
100
AcDbDictionary
281
     1
  0
XRECORD
  5
182D
102
{ACAD_REACTORS
330
8E9
102
}
330
8E9
100
AcDbXrecord
280
     1
290
     1
  0
SORTENTSTABLE
  5
325
102
{ACAD_REACTORS
330
324
102
}
330
324
100
AcDbSortentsTable
330
1F
331
1C74
  5
1402
331
1CAF
  5
176E
331
166A
  5
1806
331
1C70
  5
13FE
331
1CAB
  5
17D9
331
16AD
  5
17F9
331
1C6C
  5
13FA
331
1C68
  5
13F6
331
13CF
  5
13CF
331
1445
  5
16AD
331
13CB
  5
13CB
331
1406
  5
1445
331
1441
  5
169E
331
13C7
  5
13C7
331
1402
  5
1441
331
1664
  5
17F3
331
16EB
  5
1C50
331
143D
  5
169A
331
13C3
  5
13C3
331
1660
  5
1800
331
17FE
  5
1C77
331
1A79
  5
1CB7
331
16E7
  5
1C4C
331
1439
  5
168C
331
17FA
  5
1C73
331
16E3
  5
1C48
331
138E
  5
138E
331
138A
  5
138A
331
1CA7
  5
17DB
331
1CA3
  5
17E3
331
1C64
  5
13F2
331
1C9F
  5
17E6
331
1C2F
  5
1CB6
331
1C60
  5
13EE
331
1C9B
  5
1CA5
331
1C5C
  5
13EA
331
1C58
  5
13E6
331
13FE
  5
143D
331
13BF
  5
13BF
331
13FA
  5
1439
331
1435
  5
1687
331
13BB
  5
13BB
331
13F6
  5
1435
331
16DF
  5
1C44
331
1431
  5
1674
331
13B7
  5
13B7
331
13F2
  5
1431
331
164C
  5
17FB
331
17F2
  5
1C6E
331
16DB
  5
1C40
331
142D
  5
1665
331
13B3
  5
13B3
331
17EE
  5
1C6B
331
1829
  5
1CA3
331
16D7
  5
1C3C
331
1429
  5
157A
331
17EA
  5
1C68
331
1825
  5
1C9F
331
16D3
  5
1C38
331
1821
  5
1C9C
331
1386
  5
1386
331
1382
  5
1382
331
137E
  5
137E
331
137A
  5
137A
331
1C97
  5
1CAC
331
1C93
  5
1CB3
331
1C54
  5
13E2
331
1C8F
  5
1CB4
331
1C50
  5
13DE
331
1C4C
  5
16D3
331
1C8B
  5
1419
331
13EE
  5
142D
331
13AF
  5
13AF
331
13EA
  5
1429
331
1425
  5
1575
331
13AB
  5
13AB
331
13E6
  5
1425
331
17E6
  5
1C64
331
16CF
  5
1C34
331
1421
  5
1563
331
13A7
  5
13A7
331
13E2
  5
1421
331
1564
  5
16C9
331
13A3
  5
13A3
331
17E2
  5
1C61
331
181D
  5
1C98
331
16CB
  5
1C30
331
141D
  5
155F
331
1560
  5
16C5
331
17DE
  5
1C5E
331
1819
  5
1C94
331
16C7
  5
1A79
331
1419
  5
155B
331
17DA
  5
1C5A
331
1815
  5
1C90
331
16C3
  5
1827
331
1811
  5
1C8D
331
1376
  5
1376
331
1372
  5
1372
331
136E
  5
136E
331
1C87
  5
1415
331
1675
  5
17ED
331
1C44
  5
16E4
331
1C83
  5
1411
331
1671
  5
180A
331
1C40
  5
17D6
331
1C7F
  5
140D
331
1CB6
  5
16DF
331
1C7B
  5
1409
331
1C38
  5
17DE
331
1CB2
  5
16EC
331
13DE
  5
141D
331
139F
  5
139F
331
155C
  5
16C1
331
1415
  5
1557
331
139B
  5
139B
331
13DA
  5
13DA
331
13D6
  5
13D6
331
1558
  5
16BD
331
17D6
  5
1C56
331
16BF
  5
1823
331
1411
  5
1553
331
1397
  5
1397
331
144C
  5
16B4
331
1393
  5
1393
331
13D2
  5
13D2
331
180D
  5
1C85
331
16BB
  5
181E
331
140D
  5
144C
331
1448
  5
16B0
331
176E
  5
1C52
331
1809
  5
1C7F
331
16B7
  5
181A
331
1409
  5
1448
331
1805
  5
1C7C
331
16B3
  5
1816
331
1556
  5
16BB
331
1C77
  5
1405
331
1C73
  5
1401
331
1CAE
  5
16EE
331
1669
  5
1804
331
1C6F
  5
13FD
331
1CAA
  5
17D8
331
16AC
  5
17EF
331
1C6B
  5
13F9
331
1C32
  5
1CB0
331
13CE
  5
13CE
331
1444
  5
16A1
331
13CA
  5
13CA
331
1405
  5
1444
331
16EE
  5
1808
331
1440
  5
169D
331
13C6
  5
13C6
331
1401
  5
1440
331
1663
  5
16CC
331
16EA
  5
1C4F
331
143C
  5
1699
331
13C2
  5
13C2
331
17FD
  5
1C76
331
16E6
  5
1C4B
331
1438
  5
168A
331
17F9
  5
1C72
331
16E2
  5
1C47
331
138D
  5
138D
331
1389
  5
1389
331
1CA6
  5
17DA
331
1C67
  5
13F5
331
1CA2
  5
17E2
331
1C63
  5
13F1
331
1C9E
  5
17E9
331
1698
  5
1810
331
1C5F
  5
13ED
331
1C9A
  5
1CA9
331
1C5B
  5
13E9
331
13FD
  5
143C
331
13BE
  5
13BE
331
13F9
  5
1438
331
165B
  5
17FD
331
1434
  5
167A
331
13BA
  5
13BA
331
13F5
  5
1434
331
17F5
  5
1C71
331
16DE
  5
1C43
331
1430
  5
166A
331
13B6
  5
13B6
331
13F1
  5
1430
331
164B
  5
17F4
331
17F1
  5
1C6D
331
16DA
  5
1C3F
331
142C
  5
165F
331
13B2
  5
13B2
331
17ED
  5
1C6A
331
1828
  5
1CA2
331
16D6
  5
1C3B
331
1428
  5
1579
331
17E9
  5
1C67
331
1824
  5
1C9E
331
16D2
  5
1C37
331
1820
  5
1C9B
331
1385
  5
1385
331
1381
  5
1381
331
137D
  5
137D
331
1379
  5
1379
331
1C96
  5
1CAB
331
1C57
  5
13E5
331
1C92
  5
1CB2
331
1C53
  5
13E1
331
1690
  5
180F
331
1C8E
  5
141C
331
168C
  5
180E
331
1C4B
  5
16D2
331
1C8A
  5
1418
331
13ED
  5
142C
331
1577
  5
16CE
331
13AE
  5
13AE
331
13E9
  5
1428
331
1424
  5
1567
331
13AA
  5
13AA
331
13E5
  5
1424
331
1567
  5
16CB
331
13A6
  5
13A6
331
16CE
  5
1C33
331
1420
  5
1562
331
13E1
  5
1420
331
1563
  5
16C8
331
13A2
  5
13A2
331
17E1
  5
1C60
331
181C
  5
1C97
331
16CA
  5
1C2F
331
141C
  5
155E
331
17DD
  5
1C5D
331
1818
  5
1C93
331
16C6
  5
182A
331
1418
  5
155A
331
17D9
  5
1C59
331
1814
  5
1C8F
331
16C2
  5
1826
331
1810
  5
1C8C
331
1375
  5
1375
331
1371
  5
1371
331
1C86
  5
1414
331
1674
  5
17EE
331
1C82
  5
1410
331
1670
  5
1809
331
1C3F
  5
17D5
331
1CB9
  5
16D9
331
1C7E
  5
140C
331
1CB5
  5
16DE
331
1C7A
  5
1408
331
1CB1
  5
16EB
331
155F
  5
16C4
331
139E
  5
139E
331
13D9
  5
13D9
331
155B
  5
16C0
331
1414
  5
1556
331
139A
  5
139A
331
13D5
  5
13D5
331
144F
  5
16B7
331
17D5
  5
1C55
331
16BE
  5
1821
331
1410
  5
144F
331
1396
  5
1396
331
144B
  5
16B3
331
1392
  5
1392
331
13D1
  5
13D1
331
17D1
  5
1C53
331
180C
  5
1C82
331
16BA
  5
181D
331
140C
  5
144B
331
1808
  5
1C7E
331
16B6
  5
1819
331
1408
  5
1447
331
1804
  5
1C7B
331
16B2
  5
1815
331
1800
  5
1C79
331
1555
  5
16BA
331
1C76
  5
1404
331
1C72
  5
1400
331
1CAD
  5
16ED
331
16AF
  5
1811
331
1C6E
  5
13FC
331
1CA9
  5
17D7
331
16AB
  5
17F1
331
1C6A
  5
13F8
331
1C35
  5
1CAA
331
1447
  5
16AF
331
13CD
  5
13CD
331
1443
  5
16A0
331
13C9
  5
13C9
331
1404
  5
1443
331
1666
  5
17FA
331
16ED
  5
1805
331
143F
  5
169C
331
13C5
  5
13C5
331
1400
  5
143F
331
1662
  5
1803
331
1A7B
  5
1CB9
331
16E9
  5
1C4E
331
143B
  5
1698
331
13C1
  5
13C1
331
17FC
  5
1C75
331
16E5
  5
1C4A
331
16E1
  5
1C46
331
1579
  5
16D0
331
138C
  5
138C
331
1388
  5
1388
331
1CA5
  5
17DD
331
1C66
  5
13F4
331
1CA1
  5
17E8
331
1C62
  5
13F0
331
1C9D
  5
1CA7
331
1C5E
  5
13EC
331
1C99
  5
1CA8
331
1C5A
  5
13E8
331
13FC
  5
143B
331
165E
  5
17FF
331
1437
  5
1689
331
13BD
  5
13BD
331
13F8
  5
1437
331
1433
  5
1679
331
13B9
  5
13B9
331
13F4
  5
1433
331
17F4
  5
1C70
331
16DD
  5
1C42
331
142F
  5
1669
331
13B5
  5
13B5
331
13F0
  5
142F
331
16D9
  5
1C3E
331
142B
  5
165E
331
13B1
  5
13B1
331
1827
  5
1CA1
331
16D5
  5
1C3A
331
17E8
  5
1C66
331
1823
  5
1C9D
331
16D1
  5
1C36
331
1384
  5
1384
331
1380
  5
1380
331
137C
  5
137C
331
1378
  5
1378
331
1C95
  5
1CAF
331
1C56
  5
13E4
331
1C91
  5
1CB1
331
1C52
  5
13E0
331
1C8D
  5
141B
331
1C4A
  5
16D1
331
1C89
  5
1417
331
13EC
  5
142B
331
1427
  5
1578
331
13AD
  5
13AD
331
13E8
  5
1427
331
1423
  5
1565
331
13A9
  5
13A9
331
13E4
  5
1423
331
17E4
  5
1C63
331
181F
  5
1C9A
331
16CD
  5
1C32
331
141F
  5
1561
331
13A5
  5
13A5
331
13E0
  5
141F
331
1562
  5
16C7
331
17E0
  5
1C5F
331
181B
  5
1C96
331
16C9
  5
1A7B
331
141B
  5
155D
331
13A1
  5
13A1
331
17DC
  5
1C5C
331
1817
  5
1C92
331
16C5
  5
1829
331
17D8
  5
1C58
331
16C1
  5
1825
331
1374
  5
1374
331
1370
  5
1370
331
1677
  5
17EA
331
1C46
  5
16E9
331
1C85
  5
1413
331
1673
  5
180C
331
1C81
  5
140F
331
1C3E
  5
17D4
331
1CB8
  5
16D8
331
1C7D
  5
140B
331
1C3A
  5
17E1
331
1CB4
  5
16DD
331
1C79
  5
1407
331
1CB0
  5
16EA
331
155E
  5
16C3
331
1417
  5
1559
331
139D
  5
139D
331
13DC
  5
13DC
331
13D8
  5
13D8
331
155A
  5
16BF
331
1413
  5
1555
331
1399
  5
1399
331
144E
  5
16B6
331
1395
  5
1395
331
13D4
  5
13D4
331
17D4
  5
1C54
331
180F
  5
1C8B
331
16BD
  5
1820
331
140F
  5
144E
331
144A
  5
16B2
331
1391
  5
1391
331
13D0
  5
13D0
331
180B
  5
1C81
331
16B9
  5
181C
331
140B
  5
144A
331
16B5
  5
1818
331
1803
  5
1C7A
331
16B1
  5
1814
331
1554
  5
16B9
331
1C75
  5
1403
331
1C71
  5
13FF
331
1CAC
  5
17D1
331
16AE
  5
17F5
331
1C6D
  5
13FB
331
1CA8
  5
17DC
331
1C69
  5
13F7
331
1446
  5
16AE
331
13CC
  5
13CC
331
1407
  5
1446
331
1442
  5
169F
331
13C8
  5
13C8
331
1403
  5
1442
331
1665
  5
17F2
331
16EC
  5
1C51
331
143E
  5
169B
331
13C4
  5
13C4
331
17FF
  5
1C78
331
1A7A
  5
1CB8
331
16E8
  5
1C4D
331
143A
  5
168E
331
13C0
  5
13C0
331
17FB
  5
1C74
331
16E4
  5
1C49
331
16E0
  5
1C45
331
138F
  5
138F
331
1578
  5
16CF
331
138B
  5
138B
331
1CA4
  5
17E4
331
1C65
  5
13F3
331
1CA0
  5
17E7
331
1C61
  5
13EF
331
1C9C
  5
1CA6
331
1C5D
  5
13EB
331
1C98
  5
1CAD
331
1C59
  5
13E7
331
13FF
  5
143E
331
13FB
  5
143A
331
165D
  5
17FE
331
1436
  5
1688
331
13BC
  5
13BC
331
13F7
  5
1436
331
1659
  5
17FC
331
1432
  5
1677
331
13B8
  5
13B8
331
13F3
  5
1432
331
17F3
  5
1C6F
331
16DC
  5
1C41
331
142E
  5
1668
331
13B4
  5
13B4
331
17EF
  5
1C6C
331
182A
  5
1CA4
331
16D8
  5
1C3D
331
142A
  5
165C
331
13B0
  5
13B0
331
17EB
  5
1C69
331
1826
  5
1CA0
331
16D4
  5
1C39
331
16D0
  5
1C35
331
1387
  5
1387
331
1383
  5
1383
331
137F
  5
137F
331
137B
  5
137B
331
1C94
  5
1CAE
331
1C55
  5
13E3
331
1C90
  5
1CB5
331
1C51
  5
13DF
331
1C8C
  5
141A
331
168A
  5
180D
331
1C88
  5
1416
331
13EF
  5
142E
331
13EB
  5
142A
331
1575
  5
16CD
331
1426
  5
1576
331
13AC
  5
13AC
331
13E7
  5
1426
331
17E7
  5
1C65
331
1422
  5
1564
331
13A8
  5
13A8
331
13E3
  5
1422
331
1565
  5
16CA
331
13A4
  5
13A4
331
17E3
  5
1C62
331
181E
  5
1C99
331
16CC
  5
1C31
331
141E
  5
1560
331
1561
  5
16C6
331
181A
  5
1C95
331
16C8
  5
1A7A
331
141A
  5
155C
331
13A0
  5
13A0
331
17DB
  5
1C5B
331
1816
  5
1C91
331
16C4
  5
1828
331
1812
  5
1C8E
331
16C0
  5
1824
331
1377
  5
1377
331
1373
  5
1373
331
136F
  5
136F
331
1676
  5
17EB
331
1C45
  5
16E5
331
1C84
  5
1412
331
1672
  5
180B
331
1C80
  5
140E
331
1CB7
  5
16D7
331
1C7C
  5
140A
331
1C39
  5
17E0
331
1CB3
  5
16E3
331
1C78
  5
1406
331
13DF
  5
141E
331
155D
  5
16C2
331
1416
  5
1558
331
139C
  5
139C
331
13DB
  5
13DB
331
13D7
  5
13D7
331
1559
  5
16BE
331
17D7
  5
1C57
331
1412
  5
1554
331
1398
  5
1398
331
144D
  5
16B5
331
1394
  5
1394
331
13D3
  5
13D3
331
180E
  5
1C88
331
16BC
  5
181F
331
140E
  5
144D
331
1449
  5
16B1
331
180A
  5
1C80
331
16B8
  5
181B
331
140A
  5
1449
331
1390
  5
1390
331
1806
  5
1C7D
331
16B4
  5
1817
331
16B0
  5
1812
331
1557
  5
16BC
331
1553
  5
16B8
  0
SORTENTSTABLE
  5
E26
102
{ACAD_REACTORS
330
E25
102
}
330
E25
100
AcDbSortentsTable
330
D57
  0
SORTENTSTABLE
  5
1192
102
{ACAD_REACTORS
330
1191
102
}
330
1191
100
AcDbSortentsTable
330
10C4
  0
XRECORD
  5
1CC0
102
{ACAD_REACTORS
330
1CBE
102
}
330
1CBE
100
AcDbXrecord
280
     1
 70
     2
  0
XRECORD
  5
1CBF
102
{ACAD_REACTORS
330
1CBE
102
}
330
1CBE
100
AcDbXrecord
280
     1
 40
1.25
  0
XRECORD
  5
1CC1
102
{ACAD_REACTORS
330
1CBE
102
}
330
1CBE
100
AcDbXrecord
280
     1
 40
1.570796326794896
  0
LAYOUT
  5
22
102
{ACAD_XDICTIONARY
360
1CC2
102
}
102
{ACAD_REACTORS
330
1A
102
}
330
1A
100
AcDbPlotSettings
  1

  2
none_device
  4
ANSI_A_(8.50_x_11.00_Inches)
  6

 40
6.349999904632567
 41
19.04999923706055
 42
6.350006103515625
 43
19.04998779296875
 44
215.8999938964844
 45
279.3999938964844
 46
0.0
 47
0.0
 48
0.0
 49
0.0
140
0.0
141
0.0
142
1.0
143
2.584895464708373
 70
 11952
 72
     0
 73
     1
 74
     0
  7

 75
     0
147
0.3868628397755418
148
0.0
149
0.0
100
AcDbLayout
  1
Model
 70
     1
 71
     0
 10
0.0
 20
0.0
 11
12.0
 21
9.0
 12
0.0
 22
0.0
 32
0.0
 14
0.0
 24
0.0
 34
0.0
 15
0.0
 25
0.0
 35
0.0
146
0.0
 13
0.0
 23
0.0
 33
0.0
 16
1.0
 26
0.0
 36
0.0
 17
0.0
 27
1.0
 37
0.0
 76
     0
330
1F
331
94
  0
LAYOUT
  5
59
102
{ACAD_XDICTIONARY
360
1CC4
102
}
102
{ACAD_REACTORS
330
1A
102
}
330
1A
100
AcDbPlotSettings
  1

  2
None
  4

  6

 40
0.0
 41
0.0
 42
0.0
 43
0.0
 44
0.0
 45
0.0
 46
0.0
 47
0.0
 48
0.0
 49
0.0
140
0.0
141
0.0
142
1.0
143
1.0
 70
   688
 72
     0
 73
     0
 74
     5
  7

 75
    16
147
1.0
148
0.0
149
0.0
100
AcDbLayout
  1
レイアウト1
 70
     1
 71
     1
 10
0.0
 20
0.0
 11
12.0
 21
9.0
 12
0.0
 22
0.0
 32
0.0
 14
0.0
 24
0.0
 34
0.0
 15
0.0
 25
0.0
 35
0.0
146
0.0
 13
0.0
 23
0.0
 33
0.0
 16
1.0
 26
0.0
 36
0.0
 17
0.0
 27
1.0
 37
0.0
 76
     0
330
58
  0
LAYOUT
  5
5E
102
{ACAD_XDICTIONARY
360
1CC6
102
}
102
{ACAD_REACTORS
330
1A
102
}
330
1A
100
AcDbPlotSettings
  1

  2
None
  4

  6

 40
0.0
 41
0.0
 42
0.0
 43
0.0
 44
0.0
 45
0.0
 46
0.0
 47
0.0
 48
0.0
 49
0.0
140
0.0
141
0.0
142
1.0
143
1.0
 70
   688
 72
     0
 73
     0
 74
     5
  7

 75
    16
147
1.0
148
0.0
149
0.0
100
AcDbLayout
  1
レイアウト2
 70
     1
 71
     2
 10
0.0
 20
0.0
 11
12.0
 21
9.0
 12
0.0
 22
0.0
 32
0.0
 14
0.0
 24
0.0
 34
0.0
 15
0.0
 25
0.0
 35
0.0
146
0.0
 13
0.0
 23
0.0
 33
0.0
 16
1.0
 26
0.0
 36
0.0
 17
0.0
 27
1.0
 37
0.0
 76
     0
330
5D
  0
MATERIAL
  5
97
102
{ACAD_XDICTIONARY
360
190C
102
}
102
{ACAD_REACTORS
330
72
102
}
330
72
100
AcDbMaterial
  1
ByBlock
 73
     1
 78
     1
172
     1
176
     1
270
     1
274
     1
  0
MATERIAL
  5
96
102
{ACAD_XDICTIONARY
360
190A
102
}
102
{ACAD_REACTORS
330
72
102
}
330
72
100
AcDbMaterial
  1
ByLayer
 73
     1
 78
     1
172
     1
176
     1
270
     1
274
     1
  0
MATERIAL
  5
98
102
{ACAD_XDICTIONARY
360
190E
102
}
102
{ACAD_REACTORS
330
72
102
}
330
72
100
AcDbMaterial
  1
Global
 73
     1
 78
     1
172
     1
176
     1
270
     1
274
     1
  0
MLEADERSTYLE
  5
169
102
{ACAD_REACTORS
330
168
102
}
330
168
100
AcDbMLeaderStyle
170
     2
171
     1
172
     0
 90
        2
 40
0.0
 41
0.0
173
     1
 91
-1056964608
340
14
 92
       -2
290
     1
 42
2.0
291
     1
 43
0.36
  3
Standard
 44
4.0
300

342
11
174
     1
178
     6
175
     1
176
     0
 93
-1056964608
 45
4.0
292
     0
297
     0
 46
4.0
 94
-1056964608
 47
1.0
 49
1.0
140
1.0
293
     1
141
0.0
294
     1
177
     0
142
1.0
295
     0
296
     0
143
0.125
1001
ACAD_MLEADERVER
1070
     2
  0
MLINESTYLE
  5
18
102
{ACAD_REACTORS
330
17
102
}
330
17
100
AcDbMlineStyle
  2
STANDARD
 70
     0
  3

 62
   256
 51
90.0
 52
90.0
 71
     2
 49
0.5
 62
   256
  6
BYLAYER
 49
-0.5
 62
   256
  6
BYLAYER
  0
ACDBPLACEHOLDER
  5
F
102
{ACAD_REACTORS
330
E
102
}
330
E
  0
SCALE
  5
157
102
{ACAD_REACTORS
330
156
102
}
330
156
100
AcDbScale
 70
     0
300
1:1
140
1.0
141
1.0
290
     1
  0
SCALE
  5
158
102
{ACAD_REACTORS
330
156
102
}
330
156
100
AcDbScale
 70
     0
300
1:2
140
1.0
141
2.0
290
     0
  0
SCALE
  5
159
102
{ACAD_REACTORS
330
156
102
}
330
156
100
AcDbScale
 70
     0
300
1:4
140
1.0
141
4.0
290
     0
  0
SCALE
  5
15A
102
{ACAD_REACTORS
330
156
102
}
330
156
100
AcDbScale
 70
     0
300
1:5
140
1.0
141
5.0
290
     0
  0
SCALE
  5
15B
102
{ACAD_REACTORS
330
156
102
}
330
156
100
AcDbScale
 70
     0
300
1:8
140
1.0
141
8.0
290
     0
  0
SCALE
  5
15C
102
{ACAD_REACTORS
330
156
102
}
330
156
100
AcDbScale
 70
     0
300
1:10
140
1.0
141
10.0
290
     0
  0
SCALE
  5
15D
102
{ACAD_REACTORS
330
156
102
}
330
156
100
AcDbScale
 70
     0
300
1:16
140
1.0
141
16.0
290
     0
  0
SCALE
  5
15E
102
{ACAD_REACTORS
330
156
102
}
330
156
100
AcDbScale
 70
     0
300
1:20
140
1.0
141
20.0
290
     0
  0
SCALE
  5
15F
102
{ACAD_REACTORS
330
156
102
}
330
156
100
AcDbScale
 70
     0
300
1:30
140
1.0
141
30.0
290
     0
  0
SCALE
  5
160
102
{ACAD_REACTORS
330
156
102
}
330
156
100
AcDbScale
 70
     0
300
1:40
140
1.0
141
40.0
290
     0
  0
SCALE
  5
161
102
{ACAD_REACTORS
330
156
102
}
330
156
100
AcDbScale
 70
     0
300
1:50
140
1.0
141
50.0
290
     0
  0
SCALE
  5
162
102
{ACAD_REACTORS
330
156
102
}
330
156
100
AcDbScale
 70
     0
300
1:100
140
1.0
141
100.0
290
     0
  0
SCALE
  5
163
102
{ACAD_REACTORS
330
156
102
}
330
156
100
AcDbScale
 70
     0
300
2:1
140
2.0
141
1.0
290
     0
  0
SCALE
  5
164
102
{ACAD_REACTORS
330
156
102
}
330
156
100
AcDbScale
 70
     0
300
4:1
140
4.0
141
1.0
290
     0
  0
SCALE
  5
165
102
{ACAD_REACTORS
330
156
102
}
330
156
100
AcDbScale
 70
     0
300
8:1
140
8.0
141
1.0
290
     0
  0
SCALE
  5
166
102
{ACAD_REACTORS
330
156
102
}
330
156
100
AcDbScale
 70
     0
300
10:1
140
10.0
141
1.0
290
     0
  0
SCALE
  5
167
102
{ACAD_REACTORS
330
156
102
}
330
156
100
AcDbScale
 70
     0
300
100:1
140
100.0
141
1.0
290
     0
  0
TABLESTYLE
  5
87
102
{ACAD_XDICTIONARY
360
18FA
102
}
102
{ACAD_REACTORS
330
86
102
}
330
86
100
AcDbTableStyle
  3
Standard
 70
     0
 71
     0
 40
0.06
 41
0.06
280
     0
281
     0
  7
Standard
140
0.18
170
     2
 62
     0
 63
     7
283
     0
274
    -2
284
     1
 64
     0
275
    -2
285
     1
 65
     0
276
    -2
286
     1
 66
     0
277
    -2
287
     1
 67
     0
278
    -2
288
     1
 68
     0
279
    -2
289
     1
 69
     0
  7
Standard
140
0.25
170
     5
 62
     0
 63
     7
283
     0
274
    -2
284
     1
 64
     0
275
    -2
285
     1
 65
     0
276
    -2
286
     1
 66
     0
277
    -2
287
     1
 67
     0
278
    -2
288
     1
 68
     0
279
    -2
289
     1
 69
     0
  7
Standard
140
0.18
170
     5
 62
     0
 63
     7
283
     0
274
    -2
284
     1
 64
     0
275
    -2
285
     1
 65
     0
276
    -2
286
     1
 66
     0
277
    -2
287
     1
 67
     0
278
    -2
288
     1
 68
     0
279
    -2
289
     1
 69
     0
  0
TABLESTYLE
  5
C45
102
{ACAD_XDICTIONARY
360
C46
102
}
102
{ACAD_REACTORS
330
86
102
}
330
86
100
AcDbTableStyle
  3
Standard
 70
     1
 71
     0
 40
1.5
 41
0.5
280
     0
281
     0
  7
高3.2
140
0.18
170
     7
 62
     3
 63
     7
283
     0
274
    -2
284
     1
 64
     3
275
    -2
285
     1
 65
     7
276
    -2
286
     1
 66
     3
277
    -2
287
     1
 67
     3
278
    -2
288
     1
 68
     7
279
    -2
289
     1
 69
     3
  7
高3.2
140
0.25
170
     8
 62
     3
 63
     7
283
     0
274
    -2
284
     1
 64
     0
275
    -2
285
     1
 65
     0
276
    -2
286
     1
 66
     0
277
    -2
287
     1
 67
     0
278
    -2
288
     1
 68
     0
279
    -2
289
     1
 69
     0
  7
高3.2
140
0.18
170
     7
 62
     3
 63
     7
283
     0
274
    -2
284
     1
 64
     3
275
    -2
285
     1
 65
     7
276
    -2
286
     1
 66
     3
277
    -2
287
     1
 67
     3
278
    -2
288
     1
 68
     7
279
    -2
289
     1
 69
     3
  0
VISUALSTYLE
  5
9F
102
{ACAD_XDICTIONARY
360
1CD3
102
}
102
{ACAD_REACTORS
330
99
102
}
330
99
100
AcDbVisualStyle
  2

 70
     4
 71
     0
 72
     2
 73
     1
 90
        0
 40
-0.6
 41
-30.0
 62
     5
 63
     7
 74
     1
 91
        4
 64
     7
 65
   257
 75
     1
175
     1
 42
1.0
 92
        0
 66
   257
 43
1.0
 76
     1
 77
     6
 78
     2
 67
     7
 79
     5
170
     0
171
     0
290
     0
174
     0
 93
        1
 44
0.0
173
     0
291
     0
 45
0.0
1001
ACAD
1000
AcDbSavedByObjectVersion
1070
     0
  0
VISUALSTYLE
  5
A1
102
{ACAD_XDICTIONARY
360
1CD7
102
}
102
{ACAD_REACTORS
330
99
102
}
330
99
100
AcDbVisualStyle
  2

 70
     6
 71
     1
 72
     2
 73
     2
 90
        0
 40
-0.6
 41
-30.0
 62
     5
 63
     7
 74
     2
 91
        2
 64
     7
 65
   257
 75
     2
175
     1
 42
40.0
 92
        0
 66
   257
 43
1.0
 76
     1
 77
     6
 78
     2
 67
     7
 79
     3
170
     0
171
     0
290
     0
174
     0
 93
        1
 44
0.0
173
     0
291
     0
 45
0.0
1001
ACAD
1000
AcDbSavedByObjectVersion
1070
     0
  0
VISUALSTYLE
  5
A0
102
{ACAD_XDICTIONARY
360
1CD5
102
}
102
{ACAD_REACTORS
330
99
102
}
330
99
100
AcDbVisualStyle
  2

 70
     5
 71
     0
 72
     2
 73
     1
 90
        0
 40
-0.6
 41
-30.0
 62
     5
 63
     7
 74
     1
 91
        4
 64
     7
 65
   257
 75
     1
175
     1
 42
1.0
 92
        0
 66
   257
 43
1.0
 76
     1
 77
     6
 78
     2
 67
     7
 79
     5
170
     0
171
     0
290
     0
174
     0
 93
        1
 44
0.0
173
     0
291
     0
 45
0.0
1001
ACAD
1000
AcDbSavedByObjectVersion
1070
     0
  0
VISUALSTYLE
  5
9E
102
{ACAD_XDICTIONARY
360
1CD1
102
}
102
{ACAD_REACTORS
330
99
102
}
330
99
100
AcDbVisualStyle
  2

 70
     7
 71
     1
 72
     0
 73
     1
 90
        0
 40
-0.6
 41
-30.0
 62
     5
 63
     7
 74
     0
 91
        4
 64
     7
 65
   257
 75
     1
175
     1
 42
1.0
 92
        8
 66
     7
 43
1.0
 76
     1
 77
     6
 78
     2
 67
     7
 79
     5
170
     0
171
     0
290
     0
174
     0
 93
        1
 44
0.0
173
     0
291
     1
 45
0.0
1001
ACAD
1000
AcDbSavedByObjectVersion
1070
     0
  0
VISUALSTYLE
  5
A5
102
{ACAD_XDICTIONARY
360
1CDF
102
}
102
{ACAD_REACTORS
330
99
102
}
330
99
100
AcDbVisualStyle
  2

 70
    12
 71
     2
 72
     2
 73
     1
 90
        0
 40
-0.6
 41
-30.0
 62
     5
 63
     7
 74
     1
 91
        4
 64
     7
 65
   257
 75
     1
175
     1
 42
1.0
 92
        8
 66
     7
 43
1.0
 76
     1
 77
     6
 78
     2
 67
     7
 79
     5
170
     0
171
     0
290
     0
174
     0
 93
        1
 44
50.0
173
     0
291
     1
 45
0.0
1001
ACAD
1000
AcDbSavedByObjectVersion
1070
     0
  0
VISUALSTYLE
  5
A9
102
{ACAD_XDICTIONARY
360
1CE7
102
}
102
{ACAD_REACTORS
330
99
102
}
330
99
100
AcDbVisualStyle
  2

 70
    16
 71
     2
 72
     2
 73
     3
 90
        0
 40
-0.6
 41
-30.0
 62
     5
 63
     8
 74
     1
 91
        4
 64
     7
 65
   257
 75
     1
175
     1
 42
1.0
 92
        8
 66
     8
 43
1.0
 76
     1
 77
     6
 78
     2
 67
     7
 79
     5
170
     0
171
     0
290
     0
174
     0
 93
        1
 44
0.0
173
     0
291
     1
 45
0.0
1001
ACAD
1000
AcDbSavedByObjectVersion
1070
     0
  0
VISUALSTYLE
  5
A2
102
{ACAD_XDICTIONARY
360
1CD9
102
}
102
{ACAD_REACTORS
330
99
102
}
330
99
100
AcDbVisualStyle
  2

 70
     9
 71
     3
 72
     2
 73
     1
 90
        0
 40
-0.6
 41
-30.0
 62
     5
 63
     7
 74
     2
 91
        2
 64
     7
 65
   257
 75
     1
175
     1
 42
40.0
 92
        8
 66
     7
 43
1.0
 76
     1
 77
     6
 78
     2
 67
     7
 79
     3
170
     0
171
     0
290
     0
174
     0
 93
        1
 44
0.0
173
     0
291
     0
 45
0.0
1001
ACAD
1000
AcDbSavedByObjectVersion
1070
     0
  0
VISUALSTYLE
  5
A4
102
{ACAD_XDICTIONARY
360
1CDD
102
}
102
{ACAD_REACTORS
330
99
102
}
330
99
100
AcDbVisualStyle
  2

 70
    11
 71
     2
 72
     2
 73
     1
 90
        0
 40
-0.6
 41
-30.0
 62
     5
 63
     7
 74
     1
 91
        4
 64
     7
 65
   257
 75
     1
175
     1
 42
1.0
 92
        8
 66
     7
 43
1.0
 76
     1
 77
     6
 78
     2
 67
     7
 79
     5
170
     0
171
     0
290
     0
174
     0
 93
        1
 44
-50.0
173
     0
291
     1
 45
0.0
1001
ACAD
1000
AcDbSavedByObjectVersion
1070
     0
  0
VISUALSTYLE
  5
155
102
{ACAD_XDICTIONARY
360
1CFB
102
}
102
{ACAD_REACTORS
330
99
102
}
330
99
100
AcDbVisualStyle
  2

 70
    22
 71
     2
 72
     2
 73
     0
 90
        0
 40
-0.6
 41
-30.0
 62
     5
 63
     7
 74
     1
 91
        4
 64
     7
 65
   257
 75
     1
175
     1
 42
1.0
 92
        8
 66
     7
 43
1.0
 76
     1
 77
     6
 78
     2
 67
     7
 79
     5
170
     0
171
     0
290
     0
174
     0
 93
        1
 44
0.0
173
     0
291
     1
 45
0.0
1001
ACAD
1000
AcDbSavedByObjectVersion
1070
     0
  0
VISUALSTYLE
  5
A8
102
{ACAD_XDICTIONARY
360
1CE5
102
}
102
{ACAD_REACTORS
330
99
102
}
330
99
100
AcDbVisualStyle
  2

 70
    15
 71
     2
 72
     2
 73
     1
 90
        0
 40
-0.6
 41
-30.0
 62
     5
 63
     7
 74
     1
 91
        4
 64
     7
 65
   257
 75
     1
175
     1
 42
1.0
 92
        8
 66
     7
 43
1.0
 76
     1
 77
     6
 78
     2
 67
     7
 79
     5
170
     0
171
     0
290
     0
174
     0
 93
        1
 44
0.0
173
     0
291
     1
 45
0.0
1001
ACAD
1000
AcDbSavedByObjectVersion
1070
     0
  0
VISUALSTYLE
  5
9A
102
{ACAD_XDICTIONARY
360
1CC9
102
}
102
{ACAD_REACTORS
330
99
102
}
330
99
100
AcDbVisualStyle
  2

 70
     0
 71
     2
 72
     1
 73
     1
 90
        2
 40
-0.6
 41
30.0
 62
     5
 63
     7
 74
     0
 91
        4
 64
     7
 65
   257
 75
     1
175
     1
 42
1.0
 92
        8
 66
     7
 43
1.0
 76
     1
 77
     6
 78
     2
 67
     7
 79
     5
170
     0
171
     0
290
     0
174
     0
 93
        1
 44
0.0
173
     0
291
     1
 45
0.0
1001
ACAD
1000
AcDbSavedByObjectVersion
1070
     0
  0
VISUALSTYLE
  5
9B
102
{ACAD_XDICTIONARY
360
1CCB
102
}
102
{ACAD_REACTORS
330
99
102
}
330
99
100
AcDbVisualStyle
  2

 70
     1
 71
     2
 72
     1
 73
     1
 90
        2
 40
-0.6
 41
30.0
 62
     5
 63
     7
 74
     1
 91
        4
 64
     7
 65
   257
 75
     1
175
     1
 42
1.0
 92
        0
 66
   257
 43
1.0
 76
     1
 77
     6
 78
     2
 67
     7
 79
     5
170
     0
171
     0
290
     0
174
     0
 93
        1
 44
0.0
173
     0
291
     1
 45
0.0
1001
ACAD
1000
AcDbSavedByObjectVersion
1070
     0
  0
VISUALSTYLE
  5
9C
102
{ACAD_XDICTIONARY
360
1CCD
102
}
102
{ACAD_REACTORS
330
99
102
}
330
99
100
AcDbVisualStyle
  2

 70
     2
 71
     2
 72
     2
 73
     1
 90
        2
 40
-0.6
 41
30.0
 62
     5
 63
     7
 74
     0
 91
        4
 64
     7
 65
   257
 75
     1
175
     1
 42
1.0
 92
        0
 66
     7
 43
1.0
 76
     1
 77
     6
 78
     2
 67
     7
 79
     5
170
     0
171
     0
290
     0
174
     0
 93
        1
 44
0.0
173
     0
291
     1
 45
0.0
1001
ACAD
1000
AcDbSavedByObjectVersion
1070
     0
  0
VISUALSTYLE
  5
9D
102
{ACAD_XDICTIONARY
360
1CCF
102
}
102
{ACAD_REACTORS
330
99
102
}
330
99
100
AcDbVisualStyle
  2

 70
     3
 71
     2
 72
     2
 73
     1
 90
        2
 40
-0.6
 41
30.0
 62
     5
 63
     7
 74
     1
 91
        4
 64
     7
 65
   257
 75
     1
175
     1
 42
1.0
 92
        0
 66
   257
 43
1.0
 76
     1
 77
     6
 78
     2
 67
     7
 79
     5
170
     0
171
     0
290
     0
174
     0
 93
        1
 44
0.0
173
     0
291
     1
 45
0.0
1001
ACAD
1000
AcDbSavedByObjectVersion
1070
     0
  0
VISUALSTYLE
  5
14D
102
{ACAD_XDICTIONARY
360
1CEB
102
}
102
{ACAD_REACTORS
330
99
102
}
330
99
100
AcDbVisualStyle
  2

 70
     6
 71
     1
 72
     2
 73
     2
 90
        0
 40
-0.6
 41
-30.0
 62
     5
 63
     7
 74
     2
 91
        2
 64
     7
 65
   257
 75
     2
175
     1
 42
40.0
 92
        0
 66
   257
 43
1.0
 76
     1
 77
     6
 78
     2
 67
     7
 79
     3
170
     0
171
     0
290
     0
174
     0
 93
        1
 44
0.0
173
     0
291
     0
 45
0.0
1001
ACAD
1000
AcDbSavedByObjectVersion
1070
     0
  0
VISUALSTYLE
  5
153
102
{ACAD_XDICTIONARY
360
1CF7
102
}
102
{ACAD_REACTORS
330
99
102
}
330
99
100
AcDbVisualStyle
  2

 70
    20
 71
     2
 72
     2
 73
     0
 90
        0
 40
-0.6
 41
-30.0
 62
     5
 63
     7
 74
     1
 91
        4
 64
     7
 65
   257
 75
     1
175
     1
 42
1.0
 92
       10
 66
     7
 43
1.0
 76
     1
 77
     6
 78
     2
 67
     7
 79
     5
170
     0
171
     0
290
     0
174
     0
 93
        1
 44
0.0
173
     0
291
     1
 45
0.0
1001
ACAD
1000
AcDbSavedByObjectVersion
1070
     0
  0
VISUALSTYLE
  5
A7
102
{ACAD_XDICTIONARY
360
1CE3
102
}
102
{ACAD_REACTORS
330
99
102
}
330
99
100
AcDbVisualStyle
  2

 70
    14
 71
     2
 72
     2
 73
     1
 90
        0
 40
-0.6
 41
-30.0
 62
     5
 63
     7
 74
     1
 91
        4
 64
     7
 65
   257
 75
     7
175
     7
 42
1.0
 92
        8
 66
     7
 43
1.0
 76
     1
 77
     6
 78
     2
 67
     7
 79
     5
170
     0
171
     0
290
     0
174
     0
 93
        1
 44
0.0
173
     0
291
     1
 45
0.0
1001
ACAD
1000
AcDbSavedByObjectVersion
1070
     0
  0
VISUALSTYLE
  5
154
102
{ACAD_XDICTIONARY
360
1CF9
102
}
102
{ACAD_REACTORS
330
99
102
}
330
99
100
AcDbVisualStyle
  2

 70
    21
 71
     2
 72
     2
 73
     0
 90
        0
 40
-0.6
 41
-30.0
 62
     5
 63
     7
 74
     1
 91
        4
 64
     7
 65
   257
 75
     1
175
     1
 42
1.0
 92
        9
 66
     7
 43
1.0
 76
     1
 77
     6
 78
     2
 67
     7
 79
     5
170
     0
171
     0
290
     0
174
     0
 93
        1
 44
0.0
173
     0
291
     1
 45
0.0
1001
ACAD
1000
AcDbSavedByObjectVersion
1070
     0
  0
VISUALSTYLE
  5
A3
102
{ACAD_XDICTIONARY
360
1CDB
102
}
102
{ACAD_REACTORS
330
99
102
}
330
99
100
AcDbVisualStyle
  2

 70
     8
 71
     2
 72
     2
 73
     1
 90
        0
 40
-0.6
 41
-30.0
 62
     5
 63
     7
 74
     1
 91
        0
 64
     7
 65
   257
 75
     1
175
     1
 42
1.0
 92
        8
 66
     8
 43
1.0
 76
     1
 77
     6
 78
     2
 67
     7
 79
     5
170
     0
171
     0
290
     0
174
     0
 93
       13
 44
0.0
173
     0
291
     0
 45
0.0
1001
ACAD
1000
AcDbSavedByObjectVersion
1070
     0
  0
VISUALSTYLE
  5
152
102
{ACAD_XDICTIONARY
360
1CF5
102
}
102
{ACAD_REACTORS
330
99
102
}
330
99
100
AcDbVisualStyle
  2

 70
    27
 71
     2
 72
     2
 73
     1
 90
        2
 40
-0.6
 41
30.0
 62
     5
 63
     7
 74
     0
 91
        4
 64
     7
 65
   257
 75
     1
175
     1
 42
1.0
 92
        8
 66
   257
 43
1.0
 76
     1
 77
     6
 78
     2
 67
     8
 79
     3
170
     0
171
     0
290
     0
174
     0
 93
        5
 44
0.0
173
     0
291
     0
 45
0.0
1001
ACAD
1000
AcDbSavedByObjectVersion
1070
     0
  0
VISUALSTYLE
  5
151
102
{ACAD_XDICTIONARY
360
1CF3
102
}
102
{ACAD_REACTORS
330
99
102
}
330
99
100
AcDbVisualStyle
  2

 70
    26
 71
     2
 72
     2
 73
     1
 90
        2
 40
-0.6
 41
30.0
 62
     5
 63
     7
 74
     1
 91
       10
 64
     7
 65
   257
 75
     2
175
     1
 42
1.0
 92
        8
 66
   257
 43
1.0
 76
     1
 77
     6
 78
     2
 67
     7
 79
     3
170
     0
171
     0
290
     0
174
     0
 93
        5
 44
0.0
173
     0
291
     0
 45
0.0
1001
ACAD
1000
AcDbSavedByObjectVersion
1070
     0
  0
VISUALSTYLE
  5
14E
102
{ACAD_XDICTIONARY
360
1CED
102
}
102
{ACAD_REACTORS
330
99
102
}
330
99
100
AcDbVisualStyle
  2

 70
    23
 71
     2
 72
     2
 73
     3
 90
        0
 40
-0.6
 41
-30.0
 62
     5
 63
     7
 74
     2
 91
        2
 64
     7
 65
     7
 75
     1
175
     1
 42
40.0
 92
        8
 66
     7
 43
1.0
 76
     1
 77
     6
 78
     2
 67
     7
 79
     3
170
     0
171
     0
290
     0
174
     0
 93
        1
 44
0.0
173
     0
291
     0
 45
0.0
1001
ACAD
1000
AcDbSavedByObjectVersion
1070
     0
  0
VISUALSTYLE
  5
14F
102
{ACAD_XDICTIONARY
360
1CEF
102
}
102
{ACAD_REACTORS
330
99
102
}
330
99
100
AcDbVisualStyle
  2

 70
    24
 71
     1
 72
     2
 73
     2
 90
        0
 40
-0.6
 41
-30.0
 62
     5
 63
     7
 74
     2
 91
        2
 64
     7
 65
     7
 75
     1
175
     1
 42
40.0
 92
       11
 66
     7
 43
1.0
 76
     1
 77
     6
 78
     2
 67
     7
 79
     6
170
     0
171
     0
290
     0
174
     0
 93
        1
 44
0.0
173
     0
291
     0
 45
0.0
1001
ACAD
1000
AcDbSavedByObjectVersion
1070
     0
  0
VISUALSTYLE
  5
A6
102
{ACAD_XDICTIONARY
360
1CE1
102
}
102
{ACAD_REACTORS
330
99
102
}
330
99
100
AcDbVisualStyle
  2

 70
    13
 71
     2
 72
     2
 73
     1
 90
        0
 40
-0.6
 41
-30.0
 62
     5
 63
     7
 74
     1
 91
        4
 64
     7
 65
   257
 75
     1
175
     1
 42
1.0
 92
       12
 66
     7
 43
1.0
 76
     1
 77
     6
 78
     2
 67
     7
 79
     5
170
     0
171
     0
290
     0
174
     0
 93
        1
 44
0.0
173
     0
291
     1
 45
0.0
1001
ACAD
1000
AcDbSavedByObjectVersion
1070
     0
  0
VISUALSTYLE
  5
14C
102
{ACAD_XDICTIONARY
360
1CE9
102
}
102
{ACAD_REACTORS
330
99
102
}
330
99
100
AcDbVisualStyle
  2

 70
     5
 71
     0
 72
     2
 73
     0
 90
        0
 40
-0.6
 41
-30.0
 62
     5
 63
     7
 74
     1
 91
        4
 64
     7
 65
   257
 75
     1
175
     1
 42
1.0
 92
        0
 66
   257
 43
1.0
 76
     1
 77
     6
 78
     2
 67
     7
 79
     3
170
     0
171
     0
290
     0
174
     0
 93
        1
 44
0.0
173
     0
291
     0
 45
0.0
1001
ACAD
1000
AcDbSavedByObjectVersion
1070
     0
  0
VISUALSTYLE
  5
150
102
{ACAD_XDICTIONARY
360
1CF1
102
}
102
{ACAD_REACTORS
330
99
102
}
330
99
100
AcDbVisualStyle
  2

 70
    25
 71
     2
 72
     2
 73
     1
 90
        1
 40
0.5
 41
-30.0
 62
     5
 63
     7
 74
     1
 91
        0
 64
     7
 65
   257
 75
     1
175
     1
 42
1.0
 92
        8
 66
     7
 43
1.0
 76
     1
 77
     6
 78
     2
 67
     7
 79
     3
170
     0
171
     0
290
     0
174
     0
 93
       13
 44
0.0
173
     0
291
     0
 45
0.0
1001
ACAD
1000
AcDbSavedByObjectVersion
1070
     0
  0
DICTIONARYVAR
  5
24A
102
{ACAD_REACTORS
330
66
102
}
330
66
100
DictionaryVariables
280
     0
  1
1:1
  0
DICTIONARYVAR
  5
248
102
{ACAD_REACTORS
330
66
102
}
330
66
100
DictionaryVariables
280
     0
  1
STANDARD
  0
DICTIONARYVAR
  5
89
102
{ACAD_REACTORS
330
66
102
}
330
66
100
DictionaryVariables
280
     0
  1
STANDARD
  0
DICTIONARYVAR
  5
67
102
{ACAD_REACTORS
330
66
102
}
330
66
100
DictionaryVariables
280
     0
  1
2
  0
DICTIONARYVAR
  5
6B
102
{ACAD_REACTORS
330
66
102
}
330
66
100
DictionaryVariables
280
     0
  1
1
  0
DICTIONARYVAR
  5
182F
102
{ACAD_REACTORS
330
66
102
}
330
66
100
DictionaryVariables
280
     0
  1
0
  0
DICTIONARYVAR
  5
24C
102
{ACAD_REACTORS
330
66
102
}
330
66
100
DictionaryVariables
280
     0
  1
1
  0
DICTIONARYVAR
  5
24D
102
{ACAD_REACTORS
330
66
102
}
330
66
100
DictionaryVariables
280
     0
  1
15
  0
DICTIONARYVAR
  5
24B
102
{ACAD_REACTORS
330
66
102
}
330
66
100
DictionaryVariables
280
     0
  1
0
  0
DICTIONARYVAR
  5
249
102
{ACAD_REACTORS
330
66
102
}
330
66
100
DictionaryVariables
280
     0
  1
0
  0
DICTIONARYVAR
  5
182E
102
{ACAD_REACTORS
330
66
102
}
330
66
100
DictionaryVariables
280
     0
  1
127
  0
DICTIONARYVAR
  5
1BA6
102
{ACAD_REACTORS
330
66
102
}
330
66
100
DictionaryVariables
280
     0
  1
2
  0
DICTIONARY
  5
1CC2
330
22
100
AcDbDictionary
280
     1
281
     1
  3
ACAD_XREC_ROUNDTRIP
360
1CC3
  0
DICTIONARY
  5
1CC4
330
59
100
AcDbDictionary
280
     1
281
     1
  3
ACAD_XREC_ROUNDTRIP
360
1CC5
  0
DICTIONARY
  5
1CC6
330
5E
100
AcDbDictionary
280
     1
281
     1
  3
ACAD_XREC_ROUNDTRIP
360
1CC7
  0
DICTIONARY
  5
190C
330
97
100
AcDbDictionary
280
     1
281
     1
  3
ACAD_XREC_ROUNDTRIP
360
190D
  0
DICTIONARY
  5
190A
330
96
100
AcDbDictionary
280
     1
281
     1
  3
ACAD_XREC_ROUNDTRIP
360
190B
  0
DICTIONARY
  5
190E
330
98
100
AcDbDictionary
280
     1
281
     1
  3
ACAD_XREC_ROUNDTRIP
360
190F
  0
DICTIONARY
  5
18FA
330
87
100
AcDbDictionary
280
     1
281
     1
  3
ACAD_ROUNDTRIP_2008_TABLESTYLE_CELLSTYLEMAP
360
1CBA
  3
ACAD_XREC_ROUNDTRIP
360
1CC8
  0
DICTIONARY
  5
C46
330
C45
100
AcDbDictionary
280
     1
281
     1
  3
ACAD_ROUNDTRIP_2008_TABLESTYLE_CELLSTYLEMAP
360
1CBB
  3
ACAD_XREC_ROUNDTRIP
360
1CFD
  0
DICTIONARY
  5
1CD3
330
9F
100
AcDbDictionary
280
     1
281
     1
  3
ACAD_XREC_ROUNDTRIP
360
1CD4
  0
DICTIONARY
  5
1CD7
330
A1
100
AcDbDictionary
280
     1
281
     1
  3
ACAD_XREC_ROUNDTRIP
360
1CD8
  0
DICTIONARY
  5
1CD5
330
A0
100
AcDbDictionary
280
     1
281
     1
  3
ACAD_XREC_ROUNDTRIP
360
1CD6
  0
DICTIONARY
  5
1CD1
330
9E
100
AcDbDictionary
280
     1
281
     1
  3
ACAD_XREC_ROUNDTRIP
360
1CD2
  0
DICTIONARY
  5
1CDF
330
A5
100
AcDbDictionary
280
     1
281
     1
  3
ACAD_XREC_ROUNDTRIP
360
1CE0
  0
DICTIONARY
  5
1CE7
330
A9
100
AcDbDictionary
280
     1
281
     1
  3
ACAD_XREC_ROUNDTRIP
360
1CE8
  0
DICTIONARY
  5
1CD9
330
A2
100
AcDbDictionary
280
     1
281
     1
  3
ACAD_XREC_ROUNDTRIP
360
1CDA
  0
DICTIONARY
  5
1CDD
330
A4
100
AcDbDictionary
280
     1
281
     1
  3
ACAD_XREC_ROUNDTRIP
360
1CDE
  0
DICTIONARY
  5
1CFB
330
155
100
AcDbDictionary
280
     1
281
     1
  3
ACAD_XREC_ROUNDTRIP
360
1CFC
  0
DICTIONARY
  5
1CE5
330
A8
100
AcDbDictionary
280
     1
281
     1
  3
ACAD_XREC_ROUNDTRIP
360
1CE6
  0
DICTIONARY
  5
1CC9
330
9A
100
AcDbDictionary
280
     1
281
     1
  3
ACAD_XREC_ROUNDTRIP
360
1CCA
  0
DICTIONARY
  5
1CCB
330
9B
100
AcDbDictionary
280
     1
281
     1
  3
ACAD_XREC_ROUNDTRIP
360
1CCC
  0
DICTIONARY
  5
1CCD
330
9C
100
AcDbDictionary
280
     1
281
     1
  3
ACAD_XREC_ROUNDTRIP
360
1CCE
  0
DICTIONARY
  5
1CCF
330
9D
100
AcDbDictionary
280
     1
281
     1
  3
ACAD_XREC_ROUNDTRIP
360
1CD0
  0
DICTIONARY
  5
1CEB
330
14D
100
AcDbDictionary
280
     1
281
     1
  3
ACAD_XREC_ROUNDTRIP
360
1CEC
  0
DICTIONARY
  5
1CF7
330
153
100
AcDbDictionary
280
     1
281
     1
  3
ACAD_XREC_ROUNDTRIP
360
1CF8
  0
DICTIONARY
  5
1CE3
330
A7
100
AcDbDictionary
280
     1
281
     1
  3
ACAD_XREC_ROUNDTRIP
360
1CE4
  0
DICTIONARY
  5
1CF9
330
154
100
AcDbDictionary
280
     1
281
     1
  3
ACAD_XREC_ROUNDTRIP
360
1CFA
  0
DICTIONARY
  5
1CDB
330
A3
100
AcDbDictionary
280
     1
281
     1
  3
ACAD_XREC_ROUNDTRIP
360
1CDC
  0
DICTIONARY
  5
1CF5
330
152
100
AcDbDictionary
280
     1
281
     1
  3
ACAD_XREC_ROUNDTRIP
360
1CF6
  0
DICTIONARY
  5
1CF3
330
151
100
AcDbDictionary
280
     1
281
     1
  3
ACAD_XREC_ROUNDTRIP
360
1CF4
  0
DICTIONARY
  5
1CED
330
14E
100
AcDbDictionary
280
     1
281
     1
  3
ACAD_XREC_ROUNDTRIP
360
1CEE
  0
DICTIONARY
  5
1CEF
330
14F
100
AcDbDictionary
280
     1
281
     1
  3
ACAD_XREC_ROUNDTRIP
360
1CF0
  0
DICTIONARY
  5
1CE1
330
A6
100
AcDbDictionary
280
     1
281
     1
  3
ACAD_XREC_ROUNDTRIP
360
1CE2
  0
DICTIONARY
  5
1CE9
330
14C
100
AcDbDictionary
280
     1
281
     1
  3
ACAD_XREC_ROUNDTRIP
360
1CEA
  0
DICTIONARY
  5
1CF1
330
150
100
AcDbDictionary
280
     1
281
     1
  3
ACAD_XREC_ROUNDTRIP
360
1CF2
  0
XRECORD
  5
1CC3
102
{ACAD_REACTORS
330
1CC2
102
}
330
1CC2
100
AcDbXrecord
280
     1
102
SHADEPLOT
 70
     0
102
SHADEPLOTRESLEVEL
 70
     2
102
SHADEPLOTCUSTOMDPI
 70
   300
  0
XRECORD
  5
1CC5
102
{ACAD_REACTORS
330
1CC4
102
}
330
1CC4
100
AcDbXrecord
280
     1
102
SHADEPLOT
 70
     0
102
SHADEPLOTRESLEVEL
 70
     2
102
SHADEPLOTCUSTOMDPI
 70
   300
  0
XRECORD
  5
1CC7
102
{ACAD_REACTORS
330
1CC6
102
}
330
1CC6
100
AcDbXrecord
280
     1
102
SHADEPLOT
 70
     0
102
SHADEPLOTRESLEVEL
 70
     2
102
SHADEPLOTCUSTOMDPI
 70
   300
  0
XRECORD
  5
190D
102
{ACAD_REACTORS
330
190C
102
}
330
190C
100
AcDbXrecord
280
     1
102
MATERIAL
148
0.0
149
0.0
149
0.0
 93
        0
 94
      127
282
     0
 72
     1
 77
     1
171
     1
175
     1
179
     1
273
     0
  0
XRECORD
  5
190B
102
{ACAD_REACTORS
330
190A
102
}
330
190A
100
AcDbXrecord
280
     1
102
MATERIAL
148
0.0
149
0.0
149
0.0
 93
        0
 94
      127
282
     0
 72
     1
 77
     1
171
     1
175
     1
179
     1
273
     0
  0
XRECORD
  5
190F
102
{ACAD_REACTORS
330
190E
102
}
330
190E
100
AcDbXrecord
280
     1
102
MATERIAL
148
0.0
149
0.0
149
0.0
 93
        0
 94
      127
282
     0
 72
     1
 77
     1
171
     1
175
     1
179
     1
273
     0
  0
CELLSTYLEMAP
  5
1CBA
102
{ACAD_REACTORS
330
18FA
102
}
330
18FA
100
AcDbCellStyleMap
 90
        3
300
CELLSTYLE
  1
TABLEFORMAT_BEGIN
 90
        5
170
     1
 91
        0
 92
    32768
 62
   257
 93
        1
300
CONTENTFORMAT
  1
CONTENTFORMAT_BEGIN
 90
        0
 91
        0
 92
      512
 93
        0
300

 40
0.0
140
1.0
 94
        5
 62
     0
340
11
144
0.25
309
CONTENTFORMAT_END
171
     1
301
MARGIN
  1
CELLMARGIN_BEGIN
 40
0.06
 40
0.06
 40
0.06
 40
0.06
 40
0.18
 40
0.18
309
CELLMARGIN_END
 94
        6
 95
        1
302
GRIDFORMAT
  1
GRIDFORMAT_BEGIN
 90
        0
 91
        1
 62
     0
 92
       -2
340
0
 93
        0
 40
0.045
309
GRIDFORMAT_END
 95
        2
302
GRIDFORMAT
  1
GRIDFORMAT_BEGIN
 90
        0
 91
        1
 62
     0
 92
       -2
340
0
 93
        0
 40
0.045
309
GRIDFORMAT_END
 95
        4
302
GRIDFORMAT
  1
GRIDFORMAT_BEGIN
 90
        0
 91
        1
 62
     0
 92
       -2
340
0
 93
        0
 40
0.045
309
GRIDFORMAT_END
 95
        8
302
GRIDFORMAT
  1
GRIDFORMAT_BEGIN
 90
        0
 91
        1
 62
     0
 92
       -2
340
0
 93
        0
 40
0.045
309
GRIDFORMAT_END
 95
       16
302
GRIDFORMAT
  1
GRIDFORMAT_BEGIN
 90
        0
 91
        1
 62
     0
 92
       -2
340
0
 93
        0
 40
0.045
309
GRIDFORMAT_END
 95
       32
302
GRIDFORMAT
  1
GRIDFORMAT_BEGIN
 90
        0
 91
        1
 62
     0
 92
       -2
340
0
 93
        0
 40
0.045
309
GRIDFORMAT_END
309
TABLEFORMAT_END
  1
CELLSTYLE_BEGIN
 90
        1
 91
        1
300
_TITLE
309
CELLSTYLE_END
300
CELLSTYLE
  1
TABLEFORMAT_BEGIN
 90
        5
170
     1
 91
        0
 92
        0
 62
   257
 93
        1
300
CONTENTFORMAT
  1
CONTENTFORMAT_BEGIN
 90
        0
 91
        0
 92
      512
 93
        0
300

 40
0.0
140
1.0
 94
        5
 62
     0
340
11
144
0.18
309
CONTENTFORMAT_END
171
     1
301
MARGIN
  1
CELLMARGIN_BEGIN
 40
0.06
 40
0.06
 40
0.06
 40
0.06
 40
0.18
 40
0.18
309
CELLMARGIN_END
 94
        6
 95
        1
302
GRIDFORMAT
  1
GRIDFORMAT_BEGIN
 90
        0
 91
        1
 62
     0
 92
       -2
340
0
 93
        0
 40
0.045
309
GRIDFORMAT_END
 95
        2
302
GRIDFORMAT
  1
GRIDFORMAT_BEGIN
 90
        0
 91
        1
 62
     0
 92
       -2
340
0
 93
        0
 40
0.045
309
GRIDFORMAT_END
 95
        4
302
GRIDFORMAT
  1
GRIDFORMAT_BEGIN
 90
        0
 91
        1
 62
     0
 92
       -2
340
0
 93
        0
 40
0.045
309
GRIDFORMAT_END
 95
        8
302
GRIDFORMAT
  1
GRIDFORMAT_BEGIN
 90
        0
 91
        1
 62
     0
 92
       -2
340
0
 93
        0
 40
0.045
309
GRIDFORMAT_END
 95
       16
302
GRIDFORMAT
  1
GRIDFORMAT_BEGIN
 90
        0
 91
        1
 62
     0
 92
       -2
340
0
 93
        0
 40
0.045
309
GRIDFORMAT_END
 95
       32
302
GRIDFORMAT
  1
GRIDFORMAT_BEGIN
 90
        0
 91
        1
 62
     0
 92
       -2
340
0
 93
        0
 40
0.045
309
GRIDFORMAT_END
309
TABLEFORMAT_END
  1
CELLSTYLE_BEGIN
 90
        2
 91
        1
300
_HEADER
309
CELLSTYLE_END
300
CELLSTYLE
  1
TABLEFORMAT_BEGIN
 90
        5
170
     1
 91
        0
 92
        0
 62
   257
 93
        1
300
CONTENTFORMAT
  1
CONTENTFORMAT_BEGIN
 90
        0
 91
        0
 92
      512
 93
        0
300

 40
0.0
140
1.0
 94
        2
 62
     0
340
11
144
0.18
309
CONTENTFORMAT_END
171
     1
301
MARGIN
  1
CELLMARGIN_BEGIN
 40
0.06
 40
0.06
 40
0.06
 40
0.06
 40
0.18
 40
0.18
309
CELLMARGIN_END
 94
        6
 95
        1
302
GRIDFORMAT
  1
GRIDFORMAT_BEGIN
 90
        0
 91
        1
 62
     0
 92
       -2
340
0
 93
        0
 40
0.045
309
GRIDFORMAT_END
 95
        2
302
GRIDFORMAT
  1
GRIDFORMAT_BEGIN
 90
        0
 91
        1
 62
     0
 92
       -2
340
0
 93
        0
 40
0.045
309
GRIDFORMAT_END
 95
        4
302
GRIDFORMAT
  1
GRIDFORMAT_BEGIN
 90
        0
 91
        1
 62
     0
 92
       -2
340
0
 93
        0
 40
0.045
309
GRIDFORMAT_END
 95
        8
302
GRIDFORMAT
  1
GRIDFORMAT_BEGIN
 90
        0
 91
        1
 62
     0
 92
       -2
340
0
 93
        0
 40
0.045
309
GRIDFORMAT_END
 95
       16
302
GRIDFORMAT
  1
GRIDFORMAT_BEGIN
 90
        0
 91
        1
 62
     0
 92
       -2
340
0
 93
        0
 40
0.045
309
GRIDFORMAT_END
 95
       32
302
GRIDFORMAT
  1
GRIDFORMAT_BEGIN
 90
        0
 91
        1
 62
     0
 92
       -2
340
0
 93
        0
 40
0.045
309
GRIDFORMAT_END
309
TABLEFORMAT_END
  1
CELLSTYLE_BEGIN
 90
        3
 91
        2
300
_DATA
309
CELLSTYLE_END
  0
XRECORD
  5
1CC8
102
{ACAD_REACTORS
330
18FA
102
}
330
18FA
100
AcDbXrecord
280
     1
102
ACAD_ROUNDTRIP_PRE2007_TABLESTYLE
 90
      512
 91
        0
  1

 92
      512
 93
        0
  2

 94
      512
 95
        0
  3

  0
CELLSTYLEMAP
  5
1CBB
102
{ACAD_REACTORS
330
C46
102
}
330
C46
100
AcDbCellStyleMap
 90
        3
300
CELLSTYLE
  1
TABLEFORMAT_BEGIN
 90
        5
170
     1
 91
        0
 92
    32768
 62
   257
 93
        1
300
CONTENTFORMAT
  1
CONTENTFORMAT_BEGIN
 90
        0
 91
        0
 92
      512
 93
        0
300

 40
0.0
140
1.0
 94
        8
 62
     3
340
11D
144
0.25
309
CONTENTFORMAT_END
171
     1
301
MARGIN
  1
CELLMARGIN_BEGIN
 40
0.5
 40
10.0
 40
0.06
 40
0.06
 40
0.18
 40
0.18
309
CELLMARGIN_END
 94
        6
 95
        1
302
GRIDFORMAT
  1
GRIDFORMAT_BEGIN
 90
        0
 91
        1
 62
     0
 92
       -2
340
0
 93
        0
 40
0.045
309
GRIDFORMAT_END
 95
        2
302
GRIDFORMAT
  1
GRIDFORMAT_BEGIN
 90
        0
 91
        1
 62
     0
 92
       -2
340
0
 93
        0
 40
0.045
309
GRIDFORMAT_END
 95
        4
302
GRIDFORMAT
  1
GRIDFORMAT_BEGIN
 90
        0
 91
        1
 62
     0
 92
       -2
340
0
 93
        0
 40
0.045
309
GRIDFORMAT_END
 95
        8
302
GRIDFORMAT
  1
GRIDFORMAT_BEGIN
 90
        0
 91
        1
 62
     0
 92
       -2
340
0
 93
        0
 40
0.045
309
GRIDFORMAT_END
 95
       16
302
GRIDFORMAT
  1
GRIDFORMAT_BEGIN
 90
        0
 91
        1
 62
     0
 92
       -2
340
0
 93
        0
 40
0.045
309
GRIDFORMAT_END
 95
       32
302
GRIDFORMAT
  1
GRIDFORMAT_BEGIN
 90
        0
 91
        1
 62
     0
 92
       -2
340
0
 93
        0
 40
0.045
309
GRIDFORMAT_END
309
TABLEFORMAT_END
  1
CELLSTYLE_BEGIN
 90
        1
 91
        1
300
_TITLE
309
CELLSTYLE_END
300
CELLSTYLE
  1
TABLEFORMAT_BEGIN
 90
        5
170
     1
 91
        0
 92
        0
 62
   257
 93
        1
300
CONTENTFORMAT
  1
CONTENTFORMAT_BEGIN
 90
        0
 91
        0
 92
      512
 93
        0
300

 40
0.0
140
1.0
 94
        7
 62
     3
340
11D
144
0.18
309
CONTENTFORMAT_END
171
     1
301
MARGIN
  1
CELLMARGIN_BEGIN
 40
0.5
 40
1.5
 40
0.06
 40
0.06
 40
0.18
 40
0.18
309
CELLMARGIN_END
 94
        6
 95
        1
302
GRIDFORMAT
  1
GRIDFORMAT_BEGIN
 90
        0
 91
        1
 62
     3
 92
       -2
340
14
 93
        0
 40
0.045
309
GRIDFORMAT_END
 95
        2
302
GRIDFORMAT
  1
GRIDFORMAT_BEGIN
 90
        0
 91
        1
 62
     7
 92
       -2
340
14
 93
        0
 40
0.045
309
GRIDFORMAT_END
 95
        4
302
GRIDFORMAT
  1
GRIDFORMAT_BEGIN
 90
        0
 91
        1
 62
     3
 92
       -2
340
14
 93
        0
 40
0.045
309
GRIDFORMAT_END
 95
        8
302
GRIDFORMAT
  1
GRIDFORMAT_BEGIN
 90
        0
 91
        1
 62
     3
 92
       -2
340
14
 93
        0
 40
0.045
309
GRIDFORMAT_END
 95
       16
302
GRIDFORMAT
  1
GRIDFORMAT_BEGIN
 90
        0
 91
        1
 62
     7
 92
       -2
340
14
 93
        0
 40
0.045
309
GRIDFORMAT_END
 95
       32
302
GRIDFORMAT
  1
GRIDFORMAT_BEGIN
 90
        0
 91
        1
 62
     3
 92
       -2
340
14
 93
        0
 40
0.045
309
GRIDFORMAT_END
309
TABLEFORMAT_END
  1
CELLSTYLE_BEGIN
 90
        2
 91
        1
300
_HEADER
309
CELLSTYLE_END
300
CELLSTYLE
  1
TABLEFORMAT_BEGIN
 90
        5
170
     1
 91
        0
 92
        0
 62
   257
 93
        1
300
CONTENTFORMAT
  1
CONTENTFORMAT_BEGIN
 90
        0
 91
        0
 92
      512
 93
        0
300

 40
0.0
140
1.0
 94
        7
 62
     3
340
11D
144
0.18
309
CONTENTFORMAT_END
171
     1
301
MARGIN
  1
CELLMARGIN_BEGIN
 40
0.5
 40
1.5
 40
0.06
 40
0.06
 40
0.18
 40
0.18
309
CELLMARGIN_END
 94
        6
 95
        1
302
GRIDFORMAT
  1
GRIDFORMAT_BEGIN
 90
        0
 91
        1
 62
     3
 92
       -2
340
14
 93
        0
 40
0.045
309
GRIDFORMAT_END
 95
        2
302
GRIDFORMAT
  1
GRIDFORMAT_BEGIN
 90
        0
 91
        1
 62
     7
 92
       -2
340
14
 93
        0
 40
0.045
309
GRIDFORMAT_END
 95
        4
302
GRIDFORMAT
  1
GRIDFORMAT_BEGIN
 90
        0
 91
        1
 62
     3
 92
       -2
340
14
 93
        0
 40
0.045
309
GRIDFORMAT_END
 95
        8
302
GRIDFORMAT
  1
GRIDFORMAT_BEGIN
 90
        0
 91
        1
 62
     3
 92
       -2
340
14
 93
        0
 40
0.045
309
GRIDFORMAT_END
 95
       16
302
GRIDFORMAT
  1
GRIDFORMAT_BEGIN
 90
        0
 91
        1
 62
     7
 92
       -2
340
14
 93
        0
 40
0.045
309
GRIDFORMAT_END
 95
       32
302
GRIDFORMAT
  1
GRIDFORMAT_BEGIN
 90
        0
 91
        1
 62
     3
 92
       -2
340
14
 93
        0
 40
0.045
309
GRIDFORMAT_END
309
TABLEFORMAT_END
  1
CELLSTYLE_BEGIN
 90
        3
 91
        2
300
_DATA
309
CELLSTYLE_END
  0
XRECORD
  5
1CFD
102
{ACAD_REACTORS
330
C46
102
}
330
C46
100
AcDbXrecord
280
     1
102
ACAD_ROUNDTRIP_PRE2007_TABLESTYLE
 90
      512
 91
        0
  1

 92
      512
 93
        0
  2

 94
      512
 95
        0
  3

  0
XRECORD
  5
1CD4
102
{ACAD_REACTORS
330
1CD3
102
}
330
1CD3
100
AcDbXrecord
280
     1
102
RTVSPropertyOp0
 70
     1
102
RTVSPropertyOp1
 70
     1
102
RTVSPropertyOp2
 70
     1
102
RTVSPropertyOp3
 70
     1
102
RTVSPropertyOp4
 70
     1
102
RTVSPropertyOp5
 70
     1
102
RTVSPropertyOp6
 70
     1
102
RTVSPropertyOp7
 70
     1
102
RTVSPropertyOp8
 70
     1
102
RTVSPropertyOp9
 70
     1
102
RTVSPropertyOp10
 70
     1
102
RTVSPropertyOp11
 70
     1
102
RTVSPropertyOp12
 70
     1
102
RTVSPropertyOp13
 70
     1
102
RTVSPropertyOp14
 70
     1
102
RTVSPropertyOp15
 70
     1
102
RTVSPropertyOp16
 70
     1
102
RTVSPropertyOp17
 70
     1
102
RTVSPropertyOp18
 70
     1
102
RTVSPropertyOp19
 70
     1
102
RTVSPropertyOp20
 70
     1
102
RTVSPropertyOp21
 70
     1
102
RTVSPropertyOp22
 70
     1
102
RTVSPropertyOp23
 70
     1
102
RTVSPropertyOp24
 70
     1
102
RTVSPropertyOp25
 70
     1
102
RTVSPropertyOp26
 70
     1
102
RTVSPropertyOp27
 70
     1
102
RTVSPropertyOp28
 70
     1
102
RTVSPropertyOp29
 70
     1
102
RTVSPropertyOp30
 70
     1
102
RTVSPropertyOp31
 70
     1
102
RTVSPropertyOp32
 70
     1
  0
XRECORD
  5
1CD8
102
{ACAD_REACTORS
330
1CD7
102
}
330
1CD7
100
AcDbXrecord
280
     1
102
RTVSPropertyOp0
 70
     1
102
RTVSPropertyOp1
 70
     1
102
RTVSPropertyOp2
 70
     1
102
RTVSPropertyOp3
 70
     1
102
RTVSPropertyOp4
 70
     1
102
RTVSPropertyOp5
 70
     1
102
RTVSPropertyOp6
 70
     1
102
RTVSPropertyOp7
 70
     1
102
RTVSPropertyOp8
 70
     1
102
RTVSPropertyOp9
 70
     1
102
RTVSPropertyOp10
 70
     1
102
RTVSPropertyOp11
 70
     1
102
RTVSPropertyOp12
 70
     1
102
RTVSPropertyOp13
 70
     1
102
RTVSPropertyOp14
 70
     1
102
RTVSPropertyOp15
 70
     1
102
RTVSPropertyOp16
 70
     1
102
RTVSPropertyOp17
 70
     1
102
RTVSPropertyOp18
 70
     1
102
RTVSPropertyOp19
 70
     1
102
RTVSPropertyOp20
 70
     1
102
RTVSPropertyOp21
 70
     1
102
RTVSPropertyOp22
 70
     1
102
RTVSPropertyOp23
 70
     1
102
RTVSPropertyOp24
 70
     1
102
RTVSPropertyOp25
 70
     1
102
RTVSPropertyOp26
 70
     1
102
RTVSPropertyOp27
 70
     1
102
RTVSPropertyOp28
 70
     1
102
RTVSPropertyOp29
 70
     1
102
RTVSPropertyOp30
 70
     1
102
RTVSPropertyOp31
 70
     1
102
RTVSPropertyOp32
 70
     1
  0
XRECORD
  5
1CD6
102
{ACAD_REACTORS
330
1CD5
102
}
330
1CD5
100
AcDbXrecord
280
     1
102
RTVSPropertyOp0
 70
     1
102
RTVSPropertyOp1
 70
     1
102
RTVSPropertyOp2
 70
     1
102
RTVSPropertyOp3
 70
     1
102
RTVSPropertyOp4
 70
     1
102
RTVSPropertyOp5
 70
     1
102
RTVSPropertyOp6
 70
     1
102
RTVSPropertyOp7
 70
     1
102
RTVSPropertyOp8
 70
     1
102
RTVSPropertyOp9
 70
     1
102
RTVSPropertyOp10
 70
     1
102
RTVSPropertyOp11
 70
     1
102
RTVSPropertyOp12
 70
     1
102
RTVSPropertyOp13
 70
     1
102
RTVSPropertyOp14
 70
     1
102
RTVSPropertyOp15
 70
     1
102
RTVSPropertyOp16
 70
     1
102
RTVSPropertyOp17
 70
     1
102
RTVSPropertyOp18
 70
     1
102
RTVSPropertyOp19
 70
     1
102
RTVSPropertyOp20
 70
     1
102
RTVSPropertyOp21
 70
     1
102
RTVSPropertyOp22
 70
     1
102
RTVSPropertyOp23
 70
     1
102
RTVSPropertyOp24
 70
     1
102
RTVSPropertyOp25
 70
     1
102
RTVSPropertyOp26
 70
     1
102
RTVSPropertyOp27
 70
     1
102
RTVSPropertyOp28
 70
     1
102
RTVSPropertyOp29
 70
     1
102
RTVSPropertyOp30
 70
     1
102
RTVSPropertyOp31
 70
     1
102
RTVSPropertyOp32
 70
     1
  0
XRECORD
  5
1CD2
102
{ACAD_REACTORS
330
1CD1
102
}
330
1CD1
100
AcDbXrecord
280
     1
102
RTVSPropertyOp0
 70
     1
102
RTVSPropertyOp1
 70
     1
102
RTVSPropertyOp2
 70
     1
102
RTVSPropertyOp3
 70
     1
102
RTVSPropertyOp4
 70
     1
102
RTVSPropertyOp5
 70
     1
102
RTVSPropertyOp6
 70
     1
102
RTVSPropertyOp7
 70
     1
102
RTVSPropertyOp8
 70
     1
102
RTVSPropertyOp9
 70
     1
102
RTVSPropertyOp10
 70
     1
102
RTVSPropertyOp11
 70
     1
102
RTVSPropertyOp12
 70
     1
102
RTVSPropertyOp13
 70
     1
102
RTVSPropertyOp14
 70
     1
102
RTVSPropertyOp15
 70
     1
102
RTVSPropertyOp16
 70
     1
102
RTVSPropertyOp17
 70
     1
102
RTVSPropertyOp18
 70
     1
102
RTVSPropertyOp19
 70
     1
102
RTVSPropertyOp20
 70
     1
102
RTVSPropertyOp21
 70
     1
102
RTVSPropertyOp22
 70
     1
102
RTVSPropertyOp23
 70
     1
102
RTVSPropertyOp24
 70
     1
102
RTVSPropertyOp25
 70
     1
102
RTVSPropertyOp26
 70
     1
102
RTVSPropertyOp27
 70
     1
102
RTVSPropertyOp28
 70
     1
102
RTVSPropertyOp29
 70
     1
102
RTVSPropertyOp30
 70
     1
102
RTVSPropertyOp31
 70
     1
102
RTVSPropertyOp32
 70
     1
  0
XRECORD
  5
1CE0
102
{ACAD_REACTORS
330
1CDF
102
}
330
1CDF
100
AcDbXrecord
280
     1
102
RTVSPropertyOp0
 70
     1
102
RTVSPropertyOp1
 70
     1
102
RTVSPropertyOp2
 70
     1
102
RTVSPropertyOp3
 70
     1
102
RTVSPropertyOp4
 70
     1
102
RTVSPropertyOp5
 70
     1
102
RTVSPropertyOp6
 70
     1
102
RTVSPropertyOp7
 70
     1
102
RTVSPropertyOp8
 70
     1
102
RTVSPropertyOp9
 70
     1
102
RTVSPropertyOp10
 70
     1
102
RTVSPropertyOp11
 70
     1
102
RTVSPropertyOp12
 70
     1
102
RTVSPropertyOp13
 70
     1
102
RTVSPropertyOp14
 70
     1
102
RTVSPropertyOp15
 70
     1
102
RTVSPropertyOp16
 70
     1
102
RTVSPropertyOp17
 70
     1
102
RTVSPropertyOp18
 70
     1
102
RTVSPropertyOp19
 70
     1
102
RTVSPropertyOp20
 70
     1
102
RTVSPropertyOp21
 70
     1
102
RTVSPropertyOp22
 70
     1
102
RTVSPropertyOp23
 70
     1
102
RTVSPropertyOp24
 70
     1
102
RTVSPropertyOp25
 70
     1
102
RTVSPropertyOp26
 70
     1
102
RTVSPropertyOp27
 70
     1
102
RTVSPropertyOp28
 70
     1
102
RTVSPropertyOp29
 70
     1
102
RTVSPropertyOp30
 70
     1
102
RTVSPropertyOp31
 70
     1
102
RTVSPropertyOp32
 70
     1
  0
XRECORD
  5
1CE8
102
{ACAD_REACTORS
330
1CE7
102
}
330
1CE7
100
AcDbXrecord
280
     1
102
RTVSPropertyOp0
 70
     1
102
RTVSPropertyOp1
 70
     1
102
RTVSPropertyOp2
 70
     1
102
RTVSPropertyOp3
 70
     1
102
RTVSPropertyOp4
 70
     1
102
RTVSPropertyOp5
 70
     1
102
RTVSPropertyOp6
 70
     1
102
RTVSPropertyOp7
 70
     1
102
RTVSPropertyOp8
 70
     1
102
RTVSPropertyOp9
 70
     1
102
RTVSPropertyOp10
 70
     1
102
RTVSPropertyOp11
 70
     1
102
RTVSPropertyOp12
 70
     1
102
RTVSPropertyOp13
 70
     1
102
RTVSPropertyOp14
 70
     1
102
RTVSPropertyOp15
 70
     1
102
RTVSPropertyOp16
 70
     1
102
RTVSPropertyOp17
 70
     1
102
RTVSPropertyOp18
 70
     1
102
RTVSPropertyOp19
 70
     1
102
RTVSPropertyOp20
 70
     1
102
RTVSPropertyOp21
 70
     1
102
RTVSPropertyOp22
 70
     1
102
RTVSPropertyOp23
 70
     1
102
RTVSPropertyOp24
 70
     1
102
RTVSPropertyOp25
 70
     1
102
RTVSPropertyOp26
 70
     1
102
RTVSPropertyOp27
 70
     1
102
RTVSPropertyOp28
 70
     1
102
RTVSPropertyOp29
 70
     1
102
RTVSPropertyOp30
 70
     1
102
RTVSPropertyOp31
 70
     1
102
RTVSPropertyOp32
 70
     1
  0
XRECORD
  5
1CDA
102
{ACAD_REACTORS
330
1CD9
102
}
330
1CD9
100
AcDbXrecord
280
     1
102
RTVSPropertyOp0
 70
     1
102
RTVSPropertyOp1
 70
     1
102
RTVSPropertyOp2
 70
     1
102
RTVSPropertyOp3
 70
     1
102
RTVSPropertyOp4
 70
     1
102
RTVSPropertyOp5
 70
     1
102
RTVSPropertyOp6
 70
     1
102
RTVSPropertyOp7
 70
     1
102
RTVSPropertyOp8
 70
     1
102
RTVSPropertyOp9
 70
     1
102
RTVSPropertyOp10
 70
     1
102
RTVSPropertyOp11
 70
     1
102
RTVSPropertyOp12
 70
     1
102
RTVSPropertyOp13
 70
     1
102
RTVSPropertyOp14
 70
     1
102
RTVSPropertyOp15
 70
     1
102
RTVSPropertyOp16
 70
     1
102
RTVSPropertyOp17
 70
     1
102
RTVSPropertyOp18
 70
     1
102
RTVSPropertyOp19
 70
     1
102
RTVSPropertyOp20
 70
     1
102
RTVSPropertyOp21
 70
     1
102
RTVSPropertyOp22
 70
     1
102
RTVSPropertyOp23
 70
     1
102
RTVSPropertyOp24
 70
     1
102
RTVSPropertyOp25
 70
     1
102
RTVSPropertyOp26
 70
     1
102
RTVSPropertyOp27
 70
     1
102
RTVSPropertyOp28
 70
     1
102
RTVSPropertyOp29
 70
     1
102
RTVSPropertyOp30
 70
     1
102
RTVSPropertyOp31
 70
     1
102
RTVSPropertyOp32
 70
     1
  0
XRECORD
  5
1CDE
102
{ACAD_REACTORS
330
1CDD
102
}
330
1CDD
100
AcDbXrecord
280
     1
102
RTVSPropertyOp0
 70
     1
102
RTVSPropertyOp1
 70
     1
102
RTVSPropertyOp2
 70
     1
102
RTVSPropertyOp3
 70
     1
102
RTVSPropertyOp4
 70
     1
102
RTVSPropertyOp5
 70
     1
102
RTVSPropertyOp6
 70
     1
102
RTVSPropertyOp7
 70
     1
102
RTVSPropertyOp8
 70
     1
102
RTVSPropertyOp9
 70
     1
102
RTVSPropertyOp10
 70
     1
102
RTVSPropertyOp11
 70
     1
102
RTVSPropertyOp12
 70
     1
102
RTVSPropertyOp13
 70
     1
102
RTVSPropertyOp14
 70
     1
102
RTVSPropertyOp15
 70
     1
102
RTVSPropertyOp16
 70
     1
102
RTVSPropertyOp17
 70
     1
102
RTVSPropertyOp18
 70
     1
102
RTVSPropertyOp19
 70
     1
102
RTVSPropertyOp20
 70
     1
102
RTVSPropertyOp21
 70
     1
102
RTVSPropertyOp22
 70
     1
102
RTVSPropertyOp23
 70
     1
102
RTVSPropertyOp24
 70
     1
102
RTVSPropertyOp25
 70
     1
102
RTVSPropertyOp26
 70
     1
102
RTVSPropertyOp27
 70
     1
102
RTVSPropertyOp28
 70
     1
102
RTVSPropertyOp29
 70
     1
102
RTVSPropertyOp30
 70
     1
102
RTVSPropertyOp31
 70
     1
102
RTVSPropertyOp32
 70
     1
  0
XRECORD
  5
1CFC
102
{ACAD_REACTORS
330
1CFB
102
}
330
1CFB
100
AcDbXrecord
280
     1
102
RTVSPropertyOp0
 70
     0
102
RTVSPropertyOp1
 70
     0
102
RTVSPropertyOp2
 70
     0
102
RTVSPropertyOp3
 70
     0
102
RTVSPropertyOp4
 70
     0
102
RTVSPropertyOp5
 70
     0
102
RTVSPropertyOp6
 70
     0
102
RTVSPropertyOp7
 70
     0
102
RTVSPropertyOp8
 70
     0
102
RTVSPropertyOp9
 70
     0
102
RTVSPropertyOp10
 70
     0
102
RTVSPropertyOp11
 70
     0
102
RTVSPropertyOp12
 70
     0
102
RTVSPropertyOp13
 70
     0
102
RTVSPropertyOp14
 70
     2
102
RTVSPropertyOp15
 70
     0
102
RTVSPropertyOp16
 70
     0
102
RTVSPropertyOp17
 70
     0
102
RTVSPropertyOp18
 70
     0
102
RTVSPropertyOp19
 70
     0
102
RTVSPropertyOp20
 70
     0
102
RTVSPropertyOp21
 70
     0
102
RTVSPropertyOp22
 70
     0
102
RTVSPropertyOp23
 70
     0
102
RTVSPropertyOp24
 70
     0
102
RTVSPropertyOp25
 70
     0
102
RTVSPropertyOp26
 70
     0
102
RTVSPropertyOp27
 70
     0
102
RTVSPropertyOp28
 70
     1
102
RTVSPropertyOp29
 70
     1
102
RTVSPropertyOp30
 70
     1
102
RTVSPropertyOp31
 70
     1
102
RTVSPropertyOp32
 70
     1
  0
XRECORD
  5
1CE6
102
{ACAD_REACTORS
330
1CE5
102
}
330
1CE5
100
AcDbXrecord
280
     1
102
RTVSPropertyOp0
 70
     1
102
RTVSPropertyOp1
 70
     1
102
RTVSPropertyOp2
 70
     1
102
RTVSPropertyOp3
 70
     1
102
RTVSPropertyOp4
 70
     1
102
RTVSPropertyOp5
 70
     1
102
RTVSPropertyOp6
 70
     1
102
RTVSPropertyOp7
 70
     1
102
RTVSPropertyOp8
 70
     1
102
RTVSPropertyOp9
 70
     1
102
RTVSPropertyOp10
 70
     1
102
RTVSPropertyOp11
 70
     1
102
RTVSPropertyOp12
 70
     1
102
RTVSPropertyOp13
 70
     1
102
RTVSPropertyOp14
 70
     1
102
RTVSPropertyOp15
 70
     1
102
RTVSPropertyOp16
 70
     1
102
RTVSPropertyOp17
 70
     1
102
RTVSPropertyOp18
 70
     1
102
RTVSPropertyOp19
 70
     1
102
RTVSPropertyOp20
 70
     1
102
RTVSPropertyOp21
 70
     1
102
RTVSPropertyOp22
 70
     1
102
RTVSPropertyOp23
 70
     1
102
RTVSPropertyOp24
 70
     1
102
RTVSPropertyOp25
 70
     1
102
RTVSPropertyOp26
 70
     1
102
RTVSPropertyOp27
 70
     1
102
RTVSPropertyOp28
 70
     1
102
RTVSPropertyOp29
 70
     1
102
RTVSPropertyOp30
 70
     1
102
RTVSPropertyOp31
 70
     1
102
RTVSPropertyOp32
 70
     1
  0
XRECORD
  5
1CCA
102
{ACAD_REACTORS
330
1CC9
102
}
330
1CC9
100
AcDbXrecord
280
     1
102
RTVSPropertyOp0
 70
     1
102
RTVSPropertyOp1
 70
     1
102
RTVSPropertyOp2
 70
     1
102
RTVSPropertyOp3
 70
     1
102
RTVSPropertyOp4
 70
     1
102
RTVSPropertyOp5
 70
     1
102
RTVSPropertyOp6
 70
     1
102
RTVSPropertyOp7
 70
     1
102
RTVSPropertyOp8
 70
     1
102
RTVSPropertyOp9
 70
     1
102
RTVSPropertyOp10
 70
     1
102
RTVSPropertyOp11
 70
     1
102
RTVSPropertyOp12
 70
     1
102
RTVSPropertyOp13
 70
     1
102
RTVSPropertyOp14
 70
     1
102
RTVSPropertyOp15
 70
     1
102
RTVSPropertyOp16
 70
     1
102
RTVSPropertyOp17
 70
     1
102
RTVSPropertyOp18
 70
     1
102
RTVSPropertyOp19
 70
     1
102
RTVSPropertyOp20
 70
     1
102
RTVSPropertyOp21
 70
     1
102
RTVSPropertyOp22
 70
     1
102
RTVSPropertyOp23
 70
     1
102
RTVSPropertyOp24
 70
     1
102
RTVSPropertyOp25
 70
     1
102
RTVSPropertyOp26
 70
     1
102
RTVSPropertyOp27
 70
     1
102
RTVSPropertyOp28
 70
     1
102
RTVSPropertyOp29
 70
     1
102
RTVSPropertyOp30
 70
     1
102
RTVSPropertyOp31
 70
     1
102
RTVSPropertyOp32
 70
     1
  0
XRECORD
  5
1CCC
102
{ACAD_REACTORS
330
1CCB
102
}
330
1CCB
100
AcDbXrecord
280
     1
102
RTVSPropertyOp0
 70
     1
102
RTVSPropertyOp1
 70
     1
102
RTVSPropertyOp2
 70
     1
102
RTVSPropertyOp3
 70
     1
102
RTVSPropertyOp4
 70
     1
102
RTVSPropertyOp5
 70
     1
102
RTVSPropertyOp6
 70
     1
102
RTVSPropertyOp7
 70
     1
102
RTVSPropertyOp8
 70
     1
102
RTVSPropertyOp9
 70
     1
102
RTVSPropertyOp10
 70
     1
102
RTVSPropertyOp11
 70
     1
102
RTVSPropertyOp12
 70
     1
102
RTVSPropertyOp13
 70
     1
102
RTVSPropertyOp14
 70
     1
102
RTVSPropertyOp15
 70
     1
102
RTVSPropertyOp16
 70
     1
102
RTVSPropertyOp17
 70
     1
102
RTVSPropertyOp18
 70
     1
102
RTVSPropertyOp19
 70
     1
102
RTVSPropertyOp20
 70
     1
102
RTVSPropertyOp21
 70
     1
102
RTVSPropertyOp22
 70
     1
102
RTVSPropertyOp23
 70
     1
102
RTVSPropertyOp24
 70
     1
102
RTVSPropertyOp25
 70
     1
102
RTVSPropertyOp26
 70
     1
102
RTVSPropertyOp27
 70
     1
102
RTVSPropertyOp28
 70
     1
102
RTVSPropertyOp29
 70
     1
102
RTVSPropertyOp30
 70
     1
102
RTVSPropertyOp31
 70
     1
102
RTVSPropertyOp32
 70
     1
  0
XRECORD
  5
1CCE
102
{ACAD_REACTORS
330
1CCD
102
}
330
1CCD
100
AcDbXrecord
280
     1
102
RTVSPropertyOp0
 70
     1
102
RTVSPropertyOp1
 70
     1
102
RTVSPropertyOp2
 70
     1
102
RTVSPropertyOp3
 70
     1
102
RTVSPropertyOp4
 70
     1
102
RTVSPropertyOp5
 70
     1
102
RTVSPropertyOp6
 70
     1
102
RTVSPropertyOp7
 70
     1
102
RTVSPropertyOp8
 70
     1
102
RTVSPropertyOp9
 70
     1
102
RTVSPropertyOp10
 70
     1
102
RTVSPropertyOp11
 70
     1
102
RTVSPropertyOp12
 70
     1
102
RTVSPropertyOp13
 70
     1
102
RTVSPropertyOp14
 70
     1
102
RTVSPropertyOp15
 70
     1
102
RTVSPropertyOp16
 70
     1
102
RTVSPropertyOp17
 70
     1
102
RTVSPropertyOp18
 70
     1
102
RTVSPropertyOp19
 70
     1
102
RTVSPropertyOp20
 70
     1
102
RTVSPropertyOp21
 70
     1
102
RTVSPropertyOp22
 70
     1
102
RTVSPropertyOp23
 70
     1
102
RTVSPropertyOp24
 70
     1
102
RTVSPropertyOp25
 70
     1
102
RTVSPropertyOp26
 70
     1
102
RTVSPropertyOp27
 70
     1
102
RTVSPropertyOp28
 70
     1
102
RTVSPropertyOp29
 70
     1
102
RTVSPropertyOp30
 70
     1
102
RTVSPropertyOp31
 70
     1
102
RTVSPropertyOp32
 70
     1
  0
XRECORD
  5
1CD0
102
{ACAD_REACTORS
330
1CCF
102
}
330
1CCF
100
AcDbXrecord
280
     1
102
RTVSPropertyOp0
 70
     1
102
RTVSPropertyOp1
 70
     1
102
RTVSPropertyOp2
 70
     1
102
RTVSPropertyOp3
 70
     1
102
RTVSPropertyOp4
 70
     1
102
RTVSPropertyOp5
 70
     1
102
RTVSPropertyOp6
 70
     1
102
RTVSPropertyOp7
 70
     1
102
RTVSPropertyOp8
 70
     1
102
RTVSPropertyOp9
 70
     1
102
RTVSPropertyOp10
 70
     1
102
RTVSPropertyOp11
 70
     1
102
RTVSPropertyOp12
 70
     1
102
RTVSPropertyOp13
 70
     1
102
RTVSPropertyOp14
 70
     1
102
RTVSPropertyOp15
 70
     1
102
RTVSPropertyOp16
 70
     1
102
RTVSPropertyOp17
 70
     1
102
RTVSPropertyOp18
 70
     1
102
RTVSPropertyOp19
 70
     1
102
RTVSPropertyOp20
 70
     1
102
RTVSPropertyOp21
 70
     1
102
RTVSPropertyOp22
 70
     1
102
RTVSPropertyOp23
 70
     1
102
RTVSPropertyOp24
 70
     1
102
RTVSPropertyOp25
 70
     1
102
RTVSPropertyOp26
 70
     1
102
RTVSPropertyOp27
 70
     1
102
RTVSPropertyOp28
 70
     1
102
RTVSPropertyOp29
 70
     1
102
RTVSPropertyOp30
 70
     1
102
RTVSPropertyOp31
 70
     1
102
RTVSPropertyOp32
 70
     1
  0
XRECORD
  5
1CEC
102
{ACAD_REACTORS
330
1CEB
102
}
330
1CEB
100
AcDbXrecord
280
     1
102
RTVSPropertyOp0
 70
     1
102
RTVSPropertyOp1
 70
     1
102
RTVSPropertyOp2
 70
     1
102
RTVSPropertyOp3
 70
     1
102
RTVSPropertyOp4
 70
     1
102
RTVSPropertyOp5
 70
     1
102
RTVSPropertyOp6
 70
     1
102
RTVSPropertyOp7
 70
     1
102
RTVSPropertyOp8
 70
     1
102
RTVSPropertyOp9
 70
     1
102
RTVSPropertyOp10
 70
     1
102
RTVSPropertyOp11
 70
     1
102
RTVSPropertyOp12
 70
     1
102
RTVSPropertyOp13
 70
     1
102
RTVSPropertyOp14
 70
     1
102
RTVSPropertyOp15
 70
     1
102
RTVSPropertyOp16
 70
     1
102
RTVSPropertyOp17
 70
     1
102
RTVSPropertyOp18
 70
     1
102
RTVSPropertyOp19
 70
     1
102
RTVSPropertyOp20
 70
     1
102
RTVSPropertyOp21
 70
     1
102
RTVSPropertyOp22
 70
     1
102
RTVSPropertyOp23
 70
     1
102
RTVSPropertyOp24
 70
     1
102
RTVSPropertyOp25
 70
     1
102
RTVSPropertyOp26
 70
     1
102
RTVSPropertyOp27
 70
     1
102
RTVSPropertyOp28
 70
     1
102
RTVSPropertyOp29
 70
     1
102
RTVSPropertyOp30
 70
     1
102
RTVSPropertyOp31
 70
     1
102
RTVSPropertyOp32
 70
     1
  0
XRECORD
  5
1CF8
102
{ACAD_REACTORS
330
1CF7
102
}
330
1CF7
100
AcDbXrecord
280
     1
102
RTVSPropertyOp0
 70
     0
102
RTVSPropertyOp1
 70
     0
102
RTVSPropertyOp2
 70
     0
102
RTVSPropertyOp3
 70
     0
102
RTVSPropertyOp4
 70
     0
102
RTVSPropertyOp5
 70
     0
102
RTVSPropertyOp6
 70
     0
102
RTVSPropertyOp7
 70
     0
102
RTVSPropertyOp8
 70
     0
102
RTVSPropertyOp9
 70
     0
102
RTVSPropertyOp10
 70
     0
102
RTVSPropertyOp11
 70
     0
102
RTVSPropertyOp12
 70
     0
102
RTVSPropertyOp13
 70
     0
102
RTVSPropertyOp14
 70
     2
102
RTVSPropertyOp15
 70
     0
102
RTVSPropertyOp16
 70
     0
102
RTVSPropertyOp17
 70
     0
102
RTVSPropertyOp18
 70
     0
102
RTVSPropertyOp19
 70
     0
102
RTVSPropertyOp20
 70
     0
102
RTVSPropertyOp21
 70
     0
102
RTVSPropertyOp22
 70
     0
102
RTVSPropertyOp23
 70
     0
102
RTVSPropertyOp24
 70
     0
102
RTVSPropertyOp25
 70
     0
102
RTVSPropertyOp26
 70
     0
102
RTVSPropertyOp27
 70
     0
102
RTVSPropertyOp28
 70
     1
102
RTVSPropertyOp29
 70
     1
102
RTVSPropertyOp30
 70
     1
102
RTVSPropertyOp31
 70
     1
102
RTVSPropertyOp32
 70
     1
  0
XRECORD
  5
1CE4
102
{ACAD_REACTORS
330
1CE3
102
}
330
1CE3
100
AcDbXrecord
280
     1
102
RTVSPropertyOp0
 70
     1
102
RTVSPropertyOp1
 70
     1
102
RTVSPropertyOp2
 70
     1
102
RTVSPropertyOp3
 70
     1
102
RTVSPropertyOp4
 70
     1
102
RTVSPropertyOp5
 70
     1
102
RTVSPropertyOp6
 70
     1
102
RTVSPropertyOp7
 70
     1
102
RTVSPropertyOp8
 70
     1
102
RTVSPropertyOp9
 70
     1
102
RTVSPropertyOp10
 70
     1
102
RTVSPropertyOp11
 70
     1
102
RTVSPropertyOp12
 70
     1
102
RTVSPropertyOp13
 70
     1
102
RTVSPropertyOp14
 70
     1
102
RTVSPropertyOp15
 70
     1
102
RTVSPropertyOp16
 70
     1
102
RTVSPropertyOp17
 70
     1
102
RTVSPropertyOp18
 70
     1
102
RTVSPropertyOp19
 70
     1
102
RTVSPropertyOp20
 70
     1
102
RTVSPropertyOp21
 70
     1
102
RTVSPropertyOp22
 70
     1
102
RTVSPropertyOp23
 70
     1
102
RTVSPropertyOp24
 70
     1
102
RTVSPropertyOp25
 70
     1
102
RTVSPropertyOp26
 70
     1
102
RTVSPropertyOp27
 70
     1
102
RTVSPropertyOp28
 70
     1
102
RTVSPropertyOp29
 70
     1
102
RTVSPropertyOp30
 70
     1
102
RTVSPropertyOp31
 70
     1
102
RTVSPropertyOp32
 70
     1
  0
XRECORD
  5
1CFA
102
{ACAD_REACTORS
330
1CF9
102
}
330
1CF9
100
AcDbXrecord
280
     1
102
RTVSPropertyOp0
 70
     0
102
RTVSPropertyOp1
 70
     0
102
RTVSPropertyOp2
 70
     0
102
RTVSPropertyOp3
 70
     0
102
RTVSPropertyOp4
 70
     0
102
RTVSPropertyOp5
 70
     0
102
RTVSPropertyOp6
 70
     0
102
RTVSPropertyOp7
 70
     0
102
RTVSPropertyOp8
 70
     0
102
RTVSPropertyOp9
 70
     0
102
RTVSPropertyOp10
 70
     0
102
RTVSPropertyOp11
 70
     0
102
RTVSPropertyOp12
 70
     0
102
RTVSPropertyOp13
 70
     0
102
RTVSPropertyOp14
 70
     2
102
RTVSPropertyOp15
 70
     0
102
RTVSPropertyOp16
 70
     0
102
RTVSPropertyOp17
 70
     0
102
RTVSPropertyOp18
 70
     0
102
RTVSPropertyOp19
 70
     0
102
RTVSPropertyOp20
 70
     0
102
RTVSPropertyOp21
 70
     0
102
RTVSPropertyOp22
 70
     0
102
RTVSPropertyOp23
 70
     0
102
RTVSPropertyOp24
 70
     0
102
RTVSPropertyOp25
 70
     0
102
RTVSPropertyOp26
 70
     0
102
RTVSPropertyOp27
 70
     0
102
RTVSPropertyOp28
 70
     1
102
RTVSPropertyOp29
 70
     1
102
RTVSPropertyOp30
 70
     1
102
RTVSPropertyOp31
 70
     1
102
RTVSPropertyOp32
 70
     1
  0
XRECORD
  5
1CDC
102
{ACAD_REACTORS
330
1CDB
102
}
330
1CDB
100
AcDbXrecord
280
     1
102
RTVSPropertyOp0
 70
     1
102
RTVSPropertyOp1
 70
     1
102
RTVSPropertyOp2
 70
     1
102
RTVSPropertyOp3
 70
     1
102
RTVSPropertyOp4
 70
     1
102
RTVSPropertyOp5
 70
     1
102
RTVSPropertyOp6
 70
     1
102
RTVSPropertyOp7
 70
     1
102
RTVSPropertyOp8
 70
     1
102
RTVSPropertyOp9
 70
     1
102
RTVSPropertyOp10
 70
     1
102
RTVSPropertyOp11
 70
     1
102
RTVSPropertyOp12
 70
     1
102
RTVSPropertyOp13
 70
     1
102
RTVSPropertyOp14
 70
     1
102
RTVSPropertyOp15
 70
     1
102
RTVSPropertyOp16
 70
     1
102
RTVSPropertyOp17
 70
     1
102
RTVSPropertyOp18
 70
     1
102
RTVSPropertyOp19
 70
     1
102
RTVSPropertyOp20
 70
     1
102
RTVSPropertyOp21
 70
     1
102
RTVSPropertyOp22
 70
     1
102
RTVSPropertyOp23
 70
     1
102
RTVSPropertyOp24
 70
     1
102
RTVSPropertyOp25
 70
     1
102
RTVSPropertyOp26
 70
     1
102
RTVSPropertyOp27
 70
     1
102
RTVSPropertyOp28
 70
     1
102
RTVSPropertyOp29
 70
     1
102
RTVSPropertyOp30
 70
     1
102
RTVSPropertyOp31
 70
     1
102
RTVSPropertyOp32
 70
     1
  0
XRECORD
  5
1CF6
102
{ACAD_REACTORS
330
1CF5
102
}
330
1CF5
100
AcDbXrecord
280
     1
102
RTVSPropertyOp0
 70
     1
102
RTVSPropertyOp1
 70
     1
102
RTVSPropertyOp2
 70
     1
102
RTVSPropertyOp3
 70
     1
102
RTVSPropertyOp4
 70
     1
102
RTVSPropertyOp5
 70
     1
102
RTVSPropertyOp6
 70
     1
102
RTVSPropertyOp7
 70
     1
102
RTVSPropertyOp8
 70
     1
102
RTVSPropertyOp9
 70
     1
102
RTVSPropertyOp10
 70
     1
102
RTVSPropertyOp11
 70
     1
102
RTVSPropertyOp12
 70
     1
102
RTVSPropertyOp13
 70
     1
102
RTVSPropertyOp14
 70
     1
102
RTVSPropertyOp15
 70
     1
102
RTVSPropertyOp16
 70
     1
102
RTVSPropertyOp17
 70
     1
102
RTVSPropertyOp18
 70
     1
102
RTVSPropertyOp19
 70
     1
102
RTVSPropertyOp20
 70
     1
102
RTVSPropertyOp21
 70
     1
102
RTVSPropertyOp22
 70
     1
102
RTVSPropertyOp23
 70
     1
102
RTVSPropertyOp24
 70
     1
102
RTVSPropertyOp25
 70
     1
102
RTVSPropertyOp26
 70
     1
102
RTVSPropertyOp27
 70
     1
102
RTVSPropertyOp28
 70
     1
102
RTVSPropertyOp29
 70
     1
102
RTVSPropertyOp30
 70
     1
102
RTVSPropertyOp31
 70
     1
102
RTVSPropertyOp32
 70
     1
  0
XRECORD
  5
1CF4
102
{ACAD_REACTORS
330
1CF3
102
}
330
1CF3
100
AcDbXrecord
280
     1
102
RTVSPropertyOp0
 70
     1
102
RTVSPropertyOp1
 70
     1
102
RTVSPropertyOp2
 70
     1
102
RTVSPropertyOp3
 70
     1
102
RTVSPropertyOp4
 70
     1
102
RTVSPropertyOp5
 70
     1
102
RTVSPropertyOp6
 70
     1
102
RTVSPropertyOp7
 70
     1
102
RTVSPropertyOp8
 70
     1
102
RTVSPropertyOp9
 70
     1
102
RTVSPropertyOp10
 70
     1
102
RTVSPropertyOp11
 70
     1
102
RTVSPropertyOp12
 70
     1
102
RTVSPropertyOp13
 70
     1
102
RTVSPropertyOp14
 70
     1
102
RTVSPropertyOp15
 70
     1
102
RTVSPropertyOp16
 70
     1
102
RTVSPropertyOp17
 70
     1
102
RTVSPropertyOp18
 70
     1
102
RTVSPropertyOp19
 70
     1
102
RTVSPropertyOp20
 70
     1
102
RTVSPropertyOp21
 70
     1
102
RTVSPropertyOp22
 70
     1
102
RTVSPropertyOp23
 70
     1
102
RTVSPropertyOp24
 70
     1
102
RTVSPropertyOp25
 70
     1
102
RTVSPropertyOp26
 70
     1
102
RTVSPropertyOp27
 70
     1
102
RTVSPropertyOp28
 70
     1
102
RTVSPropertyOp29
 70
     1
102
RTVSPropertyOp30
 70
     1
102
RTVSPropertyOp31
 70
     1
102
RTVSPropertyOp32
 70
     1
  0
XRECORD
  5
1CEE
102
{ACAD_REACTORS
330
1CED
102
}
330
1CED
100
AcDbXrecord
280
     1
102
RTVSPropertyOp0
 70
     1
102
RTVSPropertyOp1
 70
     1
102
RTVSPropertyOp2
 70
     1
102
RTVSPropertyOp3
 70
     1
102
RTVSPropertyOp4
 70
     1
102
RTVSPropertyOp5
 70
     1
102
RTVSPropertyOp6
 70
     1
102
RTVSPropertyOp7
 70
     1
102
RTVSPropertyOp8
 70
     1
102
RTVSPropertyOp9
 70
     1
102
RTVSPropertyOp10
 70
     1
102
RTVSPropertyOp11
 70
     1
102
RTVSPropertyOp12
 70
     1
102
RTVSPropertyOp13
 70
     1
102
RTVSPropertyOp14
 70
     1
102
RTVSPropertyOp15
 70
     1
102
RTVSPropertyOp16
 70
     1
102
RTVSPropertyOp17
 70
     1
102
RTVSPropertyOp18
 70
     1
102
RTVSPropertyOp19
 70
     1
102
RTVSPropertyOp20
 70
     1
102
RTVSPropertyOp21
 70
     1
102
RTVSPropertyOp22
 70
     1
102
RTVSPropertyOp23
 70
     1
102
RTVSPropertyOp24
 70
     1
102
RTVSPropertyOp25
 70
     1
102
RTVSPropertyOp26
 70
     1
102
RTVSPropertyOp27
 70
     1
102
RTVSPropertyOp28
 70
     1
102
RTVSPropertyOp29
 70
     1
102
RTVSPropertyOp30
 70
     1
102
RTVSPropertyOp31
 70
     1
102
RTVSPropertyOp32
 70
     1
  0
XRECORD
  5
1CF0
102
{ACAD_REACTORS
330
1CEF
102
}
330
1CEF
100
AcDbXrecord
280
     1
102
RTVSPropertyOp0
 70
     1
102
RTVSPropertyOp1
 70
     1
102
RTVSPropertyOp2
 70
     1
102
RTVSPropertyOp3
 70
     1
102
RTVSPropertyOp4
 70
     1
102
RTVSPropertyOp5
 70
     1
102
RTVSPropertyOp6
 70
     1
102
RTVSPropertyOp7
 70
     1
102
RTVSPropertyOp8
 70
     1
102
RTVSPropertyOp9
 70
     1
102
RTVSPropertyOp10
 70
     1
102
RTVSPropertyOp11
 70
     1
102
RTVSPropertyOp12
 70
     1
102
RTVSPropertyOp13
 70
     1
102
RTVSPropertyOp14
 70
     1
102
RTVSPropertyOp15
 70
     1
102
RTVSPropertyOp16
 70
     1
102
RTVSPropertyOp17
 70
     1
102
RTVSPropertyOp18
 70
     1
102
RTVSPropertyOp19
 70
     1
102
RTVSPropertyOp20
 70
     1
102
RTVSPropertyOp21
 70
     1
102
RTVSPropertyOp22
 70
     1
102
RTVSPropertyOp23
 70
     1
102
RTVSPropertyOp24
 70
     1
102
RTVSPropertyOp25
 70
     1
102
RTVSPropertyOp26
 70
     1
102
RTVSPropertyOp27
 70
     1
102
RTVSPropertyOp28
 70
     1
102
RTVSPropertyOp29
 70
     1
102
RTVSPropertyOp30
 70
     1
102
RTVSPropertyOp31
 70
     1
102
RTVSPropertyOp32
 70
     1
  0
XRECORD
  5
1CE2
102
{ACAD_REACTORS
330
1CE1
102
}
330
1CE1
100
AcDbXrecord
280
     1
102
RTVSPropertyOp0
 70
     1
102
RTVSPropertyOp1
 70
     1
102
RTVSPropertyOp2
 70
     1
102
RTVSPropertyOp3
 70
     1
102
RTVSPropertyOp4
 70
     1
102
RTVSPropertyOp5
 70
     1
102
RTVSPropertyOp6
 70
     1
102
RTVSPropertyOp7
 70
     1
102
RTVSPropertyOp8
 70
     1
102
RTVSPropertyOp9
 70
     1
102
RTVSPropertyOp10
 70
     1
102
RTVSPropertyOp11
 70
     1
102
RTVSPropertyOp12
 70
     1
102
RTVSPropertyOp13
 70
     1
102
RTVSPropertyOp14
 70
     1
102
RTVSPropertyOp15
 70
     1
102
RTVSPropertyOp16
 70
     1
102
RTVSPropertyOp17
 70
     1
102
RTVSPropertyOp18
 70
     1
102
RTVSPropertyOp19
 70
     1
102
RTVSPropertyOp20
 70
     1
102
RTVSPropertyOp21
 70
     1
102
RTVSPropertyOp22
 70
     1
102
RTVSPropertyOp23
 70
     1
102
RTVSPropertyOp24
 70
     1
102
RTVSPropertyOp25
 70
     1
102
RTVSPropertyOp26
 70
     1
102
RTVSPropertyOp27
 70
     1
102
RTVSPropertyOp28
 70
     1
102
RTVSPropertyOp29
 70
     1
102
RTVSPropertyOp30
 70
     1
102
RTVSPropertyOp31
 70
     1
102
RTVSPropertyOp32
 70
     1
  0
XRECORD
  5
1CEA
102
{ACAD_REACTORS
330
1CE9
102
}
330
1CE9
100
AcDbXrecord
280
     1
102
RTVSPropertyOp0
 70
     1
102
RTVSPropertyOp1
 70
     1
102
RTVSPropertyOp2
 70
     1
102
RTVSPropertyOp3
 70
     1
102
RTVSPropertyOp4
 70
     1
102
RTVSPropertyOp5
 70
     1
102
RTVSPropertyOp6
 70
     1
102
RTVSPropertyOp7
 70
     1
102
RTVSPropertyOp8
 70
     1
102
RTVSPropertyOp9
 70
     1
102
RTVSPropertyOp10
 70
     1
102
RTVSPropertyOp11
 70
     1
102
RTVSPropertyOp12
 70
     1
102
RTVSPropertyOp13
 70
     1
102
RTVSPropertyOp14
 70
     1
102
RTVSPropertyOp15
 70
     1
102
RTVSPropertyOp16
 70
     1
102
RTVSPropertyOp17
 70
     1
102
RTVSPropertyOp18
 70
     1
102
RTVSPropertyOp19
 70
     1
102
RTVSPropertyOp20
 70
     1
102
RTVSPropertyOp21
 70
     1
102
RTVSPropertyOp22
 70
     1
102
RTVSPropertyOp23
 70
     1
102
RTVSPropertyOp24
 70
     1
102
RTVSPropertyOp25
 70
     1
102
RTVSPropertyOp26
 70
     1
102
RTVSPropertyOp27
 70
     1
102
RTVSPropertyOp28
 70
     1
102
RTVSPropertyOp29
 70
     1
102
RTVSPropertyOp30
 70
     1
102
RTVSPropertyOp31
 70
     1
102
RTVSPropertyOp32
 70
     1
  0
XRECORD
  5
1CF2
102
{ACAD_REACTORS
330
1CF1
102
}
330
1CF1
100
AcDbXrecord
280
     1
102
RTVSPropertyOp0
 70
     1
102
RTVSPropertyOp1
 70
     1
102
RTVSPropertyOp2
 70
     1
102
RTVSPropertyOp3
 70
     1
102
RTVSPropertyOp4
 70
     1
102
RTVSPropertyOp5
 70
     1
102
RTVSPropertyOp6
 70
     1
102
RTVSPropertyOp7
 70
     1
102
RTVSPropertyOp8
 70
     1
102
RTVSPropertyOp9
 70
     1
102
RTVSPropertyOp10
 70
     1
102
RTVSPropertyOp11
 70
     1
102
RTVSPropertyOp12
 70
     1
102
RTVSPropertyOp13
 70
     1
102
RTVSPropertyOp14
 70
     1
102
RTVSPropertyOp15
 70
     1
102
RTVSPropertyOp16
 70
     1
102
RTVSPropertyOp17
 70
     1
102
RTVSPropertyOp18
 70
     1
102
RTVSPropertyOp19
 70
     1
102
RTVSPropertyOp20
 70
     1
102
RTVSPropertyOp21
 70
     1
102
RTVSPropertyOp22
 70
     1
102
RTVSPropertyOp23
 70
     1
102
RTVSPropertyOp24
 70
     1
102
RTVSPropertyOp25
 70
     1
102
RTVSPropertyOp26
 70
     1
102
RTVSPropertyOp27
 70
     1
102
RTVSPropertyOp28
 70
     1
102
RTVSPropertyOp29
 70
     1
102
RTVSPropertyOp30
 70
     1
102
RTVSPropertyOp31
 70
     1
102
RTVSPropertyOp32
 70
     1
  0
ENDSEC
  0
EOF
