  0
SECTION
  2
HEADER
  9
$ACADVER
  1
AC1015
  9
$ACADMAINTVER
 70
    20
  9
$DWGCODEPAGE
  3
ANSI_932
  9
$INSBASE
 10
0.0
 20
0.0
 30
0.0
  9
$EXTMIN
 10
342.012023
 20
11.780796
 30
0.0
  9
$EXTMAX
 10
847.6801065231924
 20
300.134333903226
 30
0.0
  9
$LIMMIN
 10
342.011024
 20
11.779796
  9
$LIMMAX
 10
534.0130239999998
 20
292.903924
  9
$ORTHOMODE
 70
     1
  9
$REGENMODE
 70
     1
  9
$FILLMODE
 70
     1
  9
$QTEXTMODE
 70
     0
  9
$MIRRTEXT
 70
     0
  9
$LTSCALE
 40
4.685369
  9
$ATTMODE
 70
     1
  9
$TEXTSIZE
 40
3.2
  9
$TRACEWID
 40
0.05
  9
$TEXTSTYLE
  7
高3.2
  9
$CLAYER
  8
0
  9
$CELTYPE
  6
CONTINUOUS
  9
$CECOLOR
 62
   256
  9
$CELTSCALE
 40
1.0
  9
$DISPSILH
 70
     0
  9
$DIMSCALE
 40
1.0
  9
$DIMASZ
 40
2.5
  9
$DIMEXO
 40
0.25
  9
$DIMDLI
 40
0.2
  9
$DIMRND
 40
0.0
  9
$DIMDLE
 40
0.0
  9
$DIMEXE
 40
1.25
  9
$DIMTP
 40
0.0
  9
$DIMTM
 40
0.0
  9
$DIMTXT
 40
3.0
  9
$DIMCEN
 40
0.0
  9
$DIMTSZ
 40
0.0
  9
$DIMTOL
 70
     0
  9
$DIMLIM
 70
     0
  9
$DIMTIH
 70
     0
  9
$DIMTOH
 70
     0
  9
$DIMSE1
 70
     0
  9
$DIMSE2
 70
     0
  9
$DIMTAD
 70
     3
  9
$DIMZIN
 70
     8
  9
$DIMBLK
  1
Open30
  9
$DIMASO
 70
     1
  9
$DIMSHO
 70
     1
  9
$DIMPOST
  1

  9
$DIMAPOST
  1

  9
$DIMALT
 70
     0
  9
$DIMALTD
 70
     3
  9
$DIMALTF
 40
0.03937007874016
  9
$DIMLFAC
 40
1.0
  9
$DIMTOFL
 70
     1
  9
$DIMTVP
 40
0.0
  9
$DIMTIX
 70
     0
  9
$DIMSOXD
 70
     0
  9
$DIMSAH
 70
     0
  9
$DIMBLK1
  1

  9
$DIMBLK2
  1

  9
$DIMSTYLE
  2
1：1
  9
$DIMCLRD
 70
     0
  9
$DIMCLRE
 70
     0
  9
$DIMCLRT
 70
     4
  9
$DIMTFAC
 40
1.0
  9
$DIMGAP
 40
0.625
  9
$DIMJUST
 70
     0
  9
$DIMSD1
 70
     0
  9
$DIMSD2
 70
     0
  9
$DIMTOLJ
 70
     0
  9
$DIMTZIN
 70
     8
  9
$DIMALTZ
 70
     0
  9
$DIMALTTZ
 70
     0
  9
$DIMUPT
 70
     1
  9
$DIMDEC
 70
     2
  9
$DIMTDEC
 70
     2
  9
$DIMALTU
 70
     2
  9
$DIMALTTD
 70
     3
  9
$DIMTXSTY
  7
STANDARD
  9
$DIMAUNIT
 70
     0
  9
$DIMADEC
 70
     1
  9
$DIMALTRND
 40
0.0
  9
$DIMAZIN
 70
     2
  9
$DIMDSEP
 70
    46
  9
$DIMATFIT
 70
     0
  9
$DIMFRAC
 70
     0
  9
$DIMLDRBLK
  1
Open30
  9
$DIMLUNIT
 70
     2
  9
$DIMLWD
 70
    -2
  9
$DIMLWE
 70
    -2
  9
$DIMTMOVE
 70
     0
  9
$LUNITS
 70
     2
  9
$LUPREC
 70
     4
  9
$SKETCHINC
 40
0.1
  9
$FILLETRAD
 40
1.0
  9
$AUNITS
 70
     0
  9
$AUPREC
 70
     0
  9
$MENU
  1
.
  9
$ELEVATION
 40
0.0
  9
$PELEVATION
 40
0.0
  9
$THICKNESS
 40
0.0
  9
$LIMCHECK
 70
     0
  9
$CHAMFERA
 40
0.0
  9
$CHAMFERB
 40
0.0
  9
$CHAMFERC
 40
0.0
  9
$CHAMFERD
 40
0.0
  9
$SKPOLY
 70
     0
  9
$TDCREATE
 40
2456071.583394271
  9
$TDUCREATE
 40
2456071.208394271
  9
$TDUPDATE
 40
2457630.493423901
  9
$TDUUPDATE
 40
2457630.118423900
  9
$TDINDWG
 40
0.2768444676
  9
$TDUSRTIMER
 40
0.2768435301
  9
$USRTIMER
 70
     1
  9
$ANGBASE
 50
0.0
  9
$ANGDIR
 70
     0
  9
$PDMODE
 70
     0
  9
$PDSIZE
 40
0.0
  9
$PLINEWID
 40
0.0
  9
$SPLFRAME
 70
     0
  9
$SPLINETYPE
 70
     6
  9
$SPLINESEGS
 70
     8
  9
$HANDSEED
  5
1A90
  9
$SURFTAB1
 70
     6
  9
$SURFTAB2
 70
     6
  9
$SURFTYPE
 70
     6
  9
$SURFU
 70
     6
  9
$SURFV
 70
     6
  9
$UCSBASE
  2

  9
$UCSNAME
  2

  9
$UCSORG
 10
0.0
 20
0.0
 30
0.0
  9
$UCSXDIR
 10
1.0
 20
0.0
 30
0.0
  9
$UCSYDIR
 10
0.0
 20
1.0
 30
0.0
  9
$UCSORTHOREF
  2

  9
$UCSORTHOVIEW
 70
     0
  9
$UCSORGTOP
 10
0.0
 20
0.0
 30
0.0
  9
$UCSORGBOTTOM
 10
0.0
 20
0.0
 30
0.0
  9
$UCSORGLEFT
 10
0.0
 20
0.0
 30
0.0
  9
$UCSORGRIGHT
 10
0.0
 20
0.0
 30
0.0
  9
$UCSORGFRONT
 10
0.0
 20
0.0
 30
0.0
  9
$UCSORGBACK
 10
0.0
 20
0.0
 30
0.0
  9
$PUCSBASE
  2

  9
$PUCSNAME
  2

  9
$PUCSORG
 10
0.0
 20
0.0
 30
0.0
  9
$PUCSXDIR
 10
1.0
 20
0.0
 30
0.0
  9
$PUCSYDIR
 10
0.0
 20
1.0
 30
0.0
  9
$PUCSORTHOREF
  2

  9
$PUCSORTHOVIEW
 70
     0
  9
$PUCSORGTOP
 10
0.0
 20
0.0
 30
0.0
  9
$PUCSORGBOTTOM
 10
0.0
 20
0.0
 30
0.0
  9
$PUCSORGLEFT
 10
0.0
 20
0.0
 30
0.0
  9
$PUCSORGRIGHT
 10
0.0
 20
0.0
 30
0.0
  9
$PUCSORGFRONT
 10
0.0
 20
0.0
 30
0.0
  9
$PUCSORGBACK
 10
0.0
 20
0.0
 30
0.0
  9
$USERI1
 70
     0
  9
$USERI2
 70
     0
  9
$USERI3
 70
     0
  9
$USERI4
 70
     0
  9
$USERI5
 70
     0
  9
$USERR1
 40
0.0
  9
$USERR2
 40
0.0
  9
$USERR3
 40
0.0
  9
$USERR4
 40
0.0
  9
$USERR5
 40
0.0
  9
$WORLDVIEW
 70
     1
  9
$SHADEDGE
 70
     3
  9
$SHADEDIF
 70
    70
  9
$TILEMODE
 70
     1
  9
$MAXACTVP
 70
    64
  9
$PINSBASE
 10
0.0
 20
0.0
 30
0.0
  9
$PLIMCHECK
 70
     0
  9
$PEXTMIN
 10
1.000000000000000E+20
 20
1.000000000000000E+20
 30
1.000000000000000E+20
  9
$PEXTMAX
 10
-1.000000000000000E+20
 20
-1.000000000000000E+20
 30
-1.000000000000000E+20
  9
$PLIMMIN
 10
0.0
 20
0.0
  9
$PLIMMAX
 10
12.0
 20
9.0
  9
$UNITMODE
 70
     0
  9
$VISRETAIN
 70
     1
  9
$PLINEGEN
 70
     0
  9
$PSLTSCALE
 70
     1
  9
$TREEDEPTH
 70
  3020
  9
$CMLSTYLE
  2
Standard
  9
$CMLJUST
 70
     0
  9
$CMLSCALE
 40
1.0
  9
$PROXYGRAPHICS
 70
     1
  9
$MEASUREMENT
 70
     0
  9
$CELWEIGHT
370
    -1
  9
$ENDCAPS
280
     0
  9
$JOINSTYLE
280
     0
  9
$LWDISPLAY
290
     0
  9
$INSUNITS
 70
     0
  9
$HYPERLINKBASE
  1

  9
$STYLESHEET
  1
N-PLOT.CTB
  9
$XEDIT
290
     1
  9
$CEPSNTYPE
380
     0
  9
$PSTYLEMODE
290
     1
  9
$FINGERPRINTGUID
  2
{AF900223-9014-4B2C-81C1-98185A3C4833}
  9
$VERSIONGUID
  2
{B717EDE8-FFC9-464E-BEEB-911D52A445EA}
  9
$EXTNAMES
290
     1
  9
$PSVPSCALE
 40
0.0
  9
$OLESTARTUP
290
     0
  0
ENDSEC
  0
SECTION
  2
CLASSES
  0
CLASS
  1
ACDBDICTIONARYWDFLT
  2
AcDbDictionaryWithDefault
  3
ObjectDBX Classes
 90
        0
280
     0
281
     0
  0
CLASS
  1
MATERIAL
  2
AcDbMaterial
  3
ObjectDBX Classes
 90
     1153
280
     0
281
     0
  0
CLASS
  1
VISUALSTYLE
  2
AcDbVisualStyle
  3
ObjectDBX Classes
 90
     4095
280
     0
281
     0
  0
CLASS
  1
SCALE
  2
AcDbScale
  3
ObjectDBX Classes
 90
     1153
280
     0
281
     0
  0
CLASS
  1
TABLESTYLE
  2
AcDbTableStyle
  3
ObjectDBX Classes
 90
     4095
280
     0
281
     0
  0
CLASS
  1
MLEADERSTYLE
  2
AcDbMLeaderStyle
  3
ACDB_MLEADERSTYLE_CLASS
 90
     4095
280
     0
281
     0
  0
CLASS
  1
SORTENTSTABLE
  2
AcDbSortentsTable
  3
ObjectDBX Classes
 90
        0
280
     0
281
     0
  0
CLASS
  1
DICTIONARYVAR
  2
AcDbDictionaryVar
  3
ObjectDBX Classes
 90
        0
280
     0
281
     0
  0
CLASS
  1
CELLSTYLEMAP
  2
AcDbCellStyleMap
  3
ObjectDBX Classes
 90
     1152
280
     0
281
     0
  0
CLASS
  1
ACDBPLACEHOLDER
  2
AcDbPlaceHolder
  3
ObjectDBX Classes
 90
        0
280
     0
281
     0
  0
CLASS
  1
LAYOUT
  2
AcDbLayout
  3
ObjectDBX Classes
 90
        0
280
     0
281
     0
  0
ENDSEC
  0
SECTION
  2
TABLES
  0
TABLE
  2
VPORT
  5
8
330
0
100
AcDbSymbolTable
 70
     1
  0
VPORT
  5
8B
330
8
100
AcDbSymbolTableRecord
100
AcDbViewportTableRecord
  2
*Active
 70
     0
 10
0.0
 20
0.0
 11
1.0
 21
1.0
 12
612.1442939914021
 22
132.9610085186792
 13
0.0
 23
0.0
 14
1.0
 24
1.0
 15
0.0
 25
0.0
 16
0.0
 26
0.0
 36
1.0
 17
0.0
 27
0.0
 37
0.0
 40
397.8954657732541
 41
2.358490566037735
 42
50.0
 43
0.0
 44
0.0
 50
0.0
 51
0.0
 71
     0
 72
   100
 73
     1
 74
     1
 75
     0
 76
     0
 77
     0
 78
     0
281
     0
 65
     1
110
0.0
120
0.0
130
0.0
111
1.0
121
0.0
131
0.0
112
0.0
122
1.0
132
0.0
 79
     0
146
0.0
  0
ENDTAB
  0
TABLE
  2
LTYPE
  5
5
330
0
100
AcDbSymbolTable
 70
     4
  0
LTYPE
  5
5A
330
5
100
AcDbSymbolTableRecord
100
AcDbLinetypeTableRecord
  2
ByBlock
 70
     0
  3

 72
    65
 73
     0
 40
0.0
  0
LTYPE
  5
5B
330
5
100
AcDbSymbolTableRecord
100
AcDbLinetypeTableRecord
  2
ByLayer
 70
     0
  3

 72
    65
 73
     0
 40
0.0
  0
LTYPE
  5
5C
330
5
100
AcDbSymbolTableRecord
100
AcDbLinetypeTableRecord
  2
CONTINUOUS
 70
     0
  3
Solid-line
 72
    65
 73
     0
 40
0.0
  0
LTYPE
  5
72
330
5
100
AcDbSymbolTableRecord
100
AcDbLinetypeTableRecord
  2
CENTER
 70
     0
  3
CENTER
 72
    65
 73
     4
 40
2.0
 49
1.25
 74
     0
 49
-0.25
 74
     0
 49
0.25
 74
     0
 49
-0.25
 74
     0
  0
ENDTAB
  0
TABLE
  2
LAYER
  5
2
102
{ACAD_XDICTIONARY
360
3EB
102
}
330
0
100
AcDbSymbolTable
 70
     2
  0
LAYER
  5
54
102
{ACAD_XDICTIONARY
360
544
102
}
330
2
100
AcDbSymbolTableRecord
100
AcDbLayerTableRecord
  2
0
 70
     0
 62
     7
  6
CONTINUOUS
370
    -3
390
F
  0
LAYER
  5
3D6
330
2
100
AcDbSymbolTableRecord
100
AcDbLayerTableRecord
  2
Defpoints
 70
     0
 62
     7
  6
CONTINUOUS
290
     0
370
    -3
390
F
  0
ENDTAB
  0
TABLE
  2
STYLE
  5
3
330
0
100
AcDbSymbolTable
 70
     6
  0
STYLE
  5
55
330
3
100
AcDbSymbolTableRecord
100
AcDbTextStyleTableRecord
  2
STANDARD
 70
     0
 40
0.0
 41
1.0
 50
0.0
 71
     0
 42
0.2
  3
TXT
  4
BIGFONT
  0
STYLE
  5
3D7
330
3
100
AcDbSymbolTableRecord
100
AcDbTextStyleTableRecord
  2
高3.2
 70
     0
 40
3.2
 41
1.0
 50
0.0
 71
     0
 42
3.2
  3
txt.shx
  4
bigfont.shx
  0
STYLE
  5
3D8
330
3
100
AcDbSymbolTableRecord
100
AcDbTextStyleTableRecord
  2
高6.3
 70
     0
 40
6.299999999999998
 41
1.0
 50
0.0
 71
     0
 42
6.299999999999998
  3
txt.shx
  4
bigfont.shx
  0
STYLE
  5
3D9
330
3
100
AcDbSymbolTableRecord
100
AcDbTextStyleTableRecord
  2
高2.5
 70
     0
 40
2.5
 41
1.0
 50
0.0
 71
     0
 42
0.2
  3
txt.shx
  4
bigfont.shx
  0
STYLE
  5
3DA
330
3
100
AcDbSymbolTableRecord
100
AcDbTextStyleTableRecord
  2
高4.5
 70
     0
 40
4.5
 41
1.0
 50
0.0
 71
     0
 42
6.299999999999998
  3
txt.shx
  4
bigfont.shx
  0
STYLE
  5
3DB
330
3
100
AcDbSymbolTableRecord
100
AcDbTextStyleTableRecord
  2
高2
 70
     0
 40
2.0
 41
1.0
 50
0.0
 71
     0
 42
2.0
  3
txt.shx
  4
bigfont.shx
  0
ENDTAB
  0
TABLE
  2
VIEW
  5
6
330
0
100
AcDbSymbolTable
 70
     0
  0
ENDTAB
  0
TABLE
  2
UCS
  5
7
330
0
100
AcDbSymbolTable
 70
     0
  0
ENDTAB
  0
TABLE
  2
APPID
  5
9
330
0
100
AcDbSymbolTable
 70
    11
  0
APPID
  5
56
330
9
100
AcDbSymbolTableRecord
100
AcDbRegAppTableRecord
  2
ACAD
 70
     0
  0
APPID
  5
5D
330
9
100
AcDbSymbolTableRecord
100
AcDbRegAppTableRecord
  2
AcadAnnotative
 70
     0
  0
APPID
  5
3E6
330
9
100
AcDbSymbolTableRecord
100
AcDbRegAppTableRecord
  2
ACAD_DSTYLE_DIMJOGGED_JOGANGLE_SYMBOL
 70
     0
  0
APPID
  5
3E7
330
9
100
AcDbSymbolTableRecord
100
AcDbRegAppTableRecord
  2
ACAD_DSTYLE_DIMJAG
 70
     0
  0
APPID
  5
3E8
330
9
100
AcDbSymbolTableRecord
100
AcDbRegAppTableRecord
  2
ACAD_DSTYLE_DIMBREAK
 70
     0
  0
APPID
  5
3E9
330
9
100
AcDbSymbolTableRecord
100
AcDbRegAppTableRecord
  2
ACAD_DSTYLE_DIMTALN
 70
     0
  0
APPID
  5
52A
330
9
100
AcDbSymbolTableRecord
100
AcDbRegAppTableRecord
  2
ACAD_EXEMPT_FROM_CAD_STANDARDS
 70
     0
  0
APPID
  5
595
330
9
100
AcDbSymbolTableRecord
100
AcDbRegAppTableRecord
  2
ACAD_PSEXT
 70
     0
  0
APPID
  5
5E7
330
9
100
AcDbSymbolTableRecord
100
AcDbRegAppTableRecord
  2
ACAD_MLEADERVER
 70
     0
  0
APPID
  5
5EC
330
9
100
AcDbSymbolTableRecord
100
AcDbRegAppTableRecord
  2
ACAD_DSTYLE_DIMARC_LENGTH_SYMBOL
 70
     0
  0
APPID
  5
5ED
330
9
100
AcDbSymbolTableRecord
100
AcDbRegAppTableRecord
  2
ACAD_DSTYLE_DIMEXT_LENGTH
 70
     0
  0
ENDTAB
  0
TABLE
  2
DIMSTYLE
  5
A
330
0
100
AcDbSymbolTable
 70
     5
100
AcDbDimStyleTable
 71
     2
340
3DC
340
57
  0
DIMSTYLE
105
57
330
A
100
AcDbSymbolTableRecord
100
AcDbDimStyleTableRecord
  2
Standard
 70
     0
340
55
  0
DIMSTYLE
105
3DC
330
A
100
AcDbSymbolTableRecord
100
AcDbDimStyleTableRecord
  2
1：1
 70
     0
 41
2.5
 42
0.25
 43
0.2
 44
1.25
 73
     0
 74
     0
 77
     3
 78
     8
 79
     2
140
3.0
141
0.0
143
0.03937007874016
147
0.625
171
     3
172
     1
178
     4
179
     1
271
     2
272
     2
274
     3
283
     0
284
     8
288
     1
289
     0
340
55
341
346
342
346
1001
ACAD_DSTYLE_DIMARC_LENGTH_SYMBOL
1070
   379
1070
     2
1001
ACAD_DSTYLE_DIMEXT_LENGTH
1070
   378
1040
1.25
1001
ACAD_DSTYLE_DIMJOGGED_JOGANGLE_SYMBOL
1070
   384
1040
1.570796326794896
  0
DIMSTYLE
105
1585
330
A
100
AcDbSymbolTableRecord
100
AcDbDimStyleTableRecord
  2
1／2
 70
     0
 41
2.5
 42
0.25
 43
0.2
 44
1.25
 73
     0
 74
     0
 77
     3
 78
     8
 79
     2
140
3.0
141
0.0
143
0.03937007874016
144
2.0
147
0.625
171
     3
172
     1
178
     4
179
     1
271
     2
272
     2
274
     3
283
     0
284
     8
288
     1
289
     0
340
55
341
346
342
346
1001
ACAD_DSTYLE_DIMARC_LENGTH_SYMBOL
1070
   379
1070
     2
1001
ACAD_DSTYLE_DIMEXT_LENGTH
1070
   378
1040
1.25
1001
ACAD_DSTYLE_DIMJOGGED_JOGANGLE_SYMBOL
1070
   384
1040
1.570796326794896
  0
DIMSTYLE
105
1640
330
A
100
AcDbSymbolTableRecord
100
AcDbDimStyleTableRecord
  2
1／3
 70
     0
 41
2.5
 42
0.25
 43
0.2
 44
1.25
 73
     0
 74
     0
 77
     3
 78
     8
 79
     2
140
3.0
141
0.0
143
0.03937007874016
144
3.0
147
0.625
171
     3
172
     1
178
     4
179
     1
271
     2
272
     2
274
     3
283
     0
284
     8
288
     1
289
     0
340
55
341
346
342
346
1001
ACAD_DSTYLE_DIMARC_LENGTH_SYMBOL
1070
   379
1070
     2
1001
ACAD_DSTYLE_DIMEXT_LENGTH
1070
   378
1040
1.25
1001
ACAD_DSTYLE_DIMJOGGED_JOGANGLE_SYMBOL
1070
   384
1040
1.570796326794896
  0
ENDTAB
  0
TABLE
  2
BLOCK_RECORD
  5
1
330
0
100
AcDbSymbolTable
 70
    20
  0
BLOCK_RECORD
  5
6B
102
{ACAD_XDICTIONARY
360
AE3
102
}
330
1
100
AcDbSymbolTableRecord
100
AcDbBlockTableRecord
  2
*Model_Space
340
6E
  0
BLOCK_RECORD
  5
67
330
1
100
AcDbSymbolTableRecord
100
AcDbBlockTableRecord
  2
*Paper_Space
340
6A
  0
BLOCK_RECORD
  5
346
330
1
100
AcDbSymbolTableRecord
100
AcDbBlockTableRecord
  2
_Open30
340
0
102
{BLKREFS
331
13D8
331
13D9
331
13E1
331
13E2
331
13EA
331
13EB
331
13F3
331
13F4
331
13FC
331
13FD
331
1627
331
1628
331
1630
331
1631
331
1639
331
163A
331
1739
331
173A
331
1742
331
1743
331
196A
331
196B
331
1973
331
1974
331
197C
331
197D
331
1985
331
1986
331
198E
331
198F
102
}
  0
BLOCK_RECORD
  5
B4C
330
1
100
AcDbSymbolTableRecord
100
AcDbBlockTableRecord
  2
*D1
340
0
  0
BLOCK_RECORD
  5
B59
330
1
100
AcDbSymbolTableRecord
100
AcDbBlockTableRecord
  2
*D2
340
0
  0
BLOCK_RECORD
  5
B66
330
1
100
AcDbSymbolTableRecord
100
AcDbBlockTableRecord
  2
*D3
340
0
  0
BLOCK_RECORD
  5
B85
330
1
100
AcDbSymbolTableRecord
100
AcDbBlockTableRecord
  2
*D4
340
0
  0
BLOCK_RECORD
  5
BE3
330
1
100
AcDbSymbolTableRecord
100
AcDbBlockTableRecord
  2
*D5
340
0
  0
BLOCK_RECORD
  5
14AF
330
1
100
AcDbSymbolTableRecord
100
AcDbBlockTableRecord
  2
*D6
340
0
  0
BLOCK_RECORD
  5
14BB
330
1
100
AcDbSymbolTableRecord
100
AcDbBlockTableRecord
  2
*D7
340
0
  0
BLOCK_RECORD
  5
14C7
330
1
100
AcDbSymbolTableRecord
100
AcDbBlockTableRecord
  2
*D8
340
0
  0
BLOCK_RECORD
  5
14D3
330
1
100
AcDbSymbolTableRecord
100
AcDbBlockTableRecord
  2
*D9
340
0
  0
BLOCK_RECORD
  5
14DF
330
1
100
AcDbSymbolTableRecord
100
AcDbBlockTableRecord
  2
*D10
340
0
  0
BLOCK_RECORD
  5
1888
330
1
100
AcDbSymbolTableRecord
100
AcDbBlockTableRecord
  2
*D14
340
0
  0
BLOCK_RECORD
  5
1894
330
1
100
AcDbSymbolTableRecord
100
AcDbBlockTableRecord
  2
*D15
340
0
  0
BLOCK_RECORD
  5
18A0
330
1
100
AcDbSymbolTableRecord
100
AcDbBlockTableRecord
  2
*D16
340
0
  0
BLOCK_RECORD
  5
18AC
330
1
100
AcDbSymbolTableRecord
100
AcDbBlockTableRecord
  2
*D17
340
0
  0
BLOCK_RECORD
  5
18B8
330
1
100
AcDbSymbolTableRecord
100
AcDbBlockTableRecord
  2
*D18
340
0
  0
ENDTAB
  0
ENDSEC
  0
SECTION
  2
BLOCKS
  0
BLOCK
  5
6C
330
6B
100
AcDbEntity
  8
0
100
AcDbBlockBegin
  2
*Model_Space
 70
     0
 10
0.0
 20
0.0
 30
0.0
  3
*Model_Space
  1

  0
ENDBLK
  5
6D
330
6B
100
AcDbEntity
  8
0
100
AcDbBlockEnd
  0
BLOCK
  5
68
330
67
100
AcDbEntity
 67
     1
  8
0
100
AcDbBlockBegin
  2
*Paper_Space
 70
     0
 10
0.0
 20
0.0
 30
0.0
  3
*Paper_Space
  1

  0
ENDBLK
  5
69
330
67
100
AcDbEntity
 67
     1
  8
0
100
AcDbBlockEnd
  0
BLOCK
  5
347
330
346
100
AcDbEntity
  8
0
100
AcDbBlockBegin
  2
_Open30
 70
     0
 10
0.0
 20
0.0
 30
0.0
  3
_Open30
  1

  0
LINE
  5
348
330
346
100
AcDbEntity
  8
0
  6
ByBlock
 62
     0
370
    -2
100
AcDbLine
 10
-1.0
 20
0.267949
 30
0.0
 11
0.0
 21
0.0
 31
0.0
  0
LINE
  5
349
330
346
100
AcDbEntity
  8
0
  6
ByBlock
 62
     0
370
    -2
100
AcDbLine
 10
0.0
 20
0.0
 30
0.0
 11
-1.0
 21
-0.267949
 31
0.0
  0
LINE
  5
34A
330
346
100
AcDbEntity
  8
0
  6
ByBlock
 62
     0
370
    -2
100
AcDbLine
 10
0.0
 20
0.0
 30
0.0
 11
-1.0
 21
0.0
 31
0.0
  0
ENDBLK
  5
34B
330
346
100
AcDbEntity
  8
0
100
AcDbBlockEnd
  0
BLOCK
  5
B4D
330
B4C
100
AcDbEntity
  8
0
100
AcDbBlockBegin
  2
*D1
 70
     1
 10
0.0
 20
0.0
 30
0.0
  3
*D1
  1

  0
LINE
  5
13D5
330
B4C
100
AcDbEntity
  8
0
  6
Continuous
 62
     0
370
    -2
100
AcDbLine
 10
415.3875473819609
 20
93.18272099999992
 30
0.0
 11
362.3007049999206
 21
93.18272099999992
 31
0.0
  0
LINE
  5
13D6
330
B4C
100
AcDbEntity
  8
0
  6
Continuous
 62
     0
370
    -2
100
AcDbLine
 10
415.3875473819609
 20
221.1827209999999
 30
0.0
 11
362.3007049999207
 21
221.1827209999999
 31
0.0
  0
LINE
  5
13D7
330
B4C
100
AcDbEntity
  8
0
  6
Continuous
 62
     0
370
    -2
100
AcDbLine
 10
363.5507049999207
 20
95.68272099999992
 30
0.0
 11
363.5507049999207
 21
218.6827209999999
 31
0.0
  0
INSERT
  5
13D8
330
B4C
100
AcDbEntity
  8
0
  6
Continuous
 62
     0
370
    -2
100
AcDbBlockReference
  2
_Open30
 10
363.5507049999207
 20
93.18272099999992
 30
0.0
 41
2.5
 42
2.5
 43
2.5
 50
270.0
  0
INSERT
  5
13D9
330
B4C
100
AcDbEntity
  8
0
  6
Continuous
 62
     0
370
    -2
100
AcDbBlockReference
  2
_Open30
 10
363.5507049999207
 20
221.1827209999999
 30
0.0
 41
2.5
 42
2.5
 43
2.5
 50
90.0
  0
MTEXT
  5
13DA
330
B4C
100
AcDbEntity
  8
0
  6
Continuous
 62
     4
100
AcDbMText
 10
361.4257049999206
 20
158.7991674417777
 30
0.0
 40
3.0
 41
0.0
 71
     5
 72
     1
  1
128
 11
0.0000000000000001
 21
1.0
 31
0.0
 73
     1
 44
1.0
1001
ACAD
1000
MTEXTBEGIN
1070
    73
1070
     1
1070
    44
1040
1.0
1070
    74
1070
     0
1000
MTEXTEND
  0
POINT
  5
13DB
330
B4C
100
AcDbEntity
  8
Defpoints
  6
Continuous
 62
     0
100
AcDbPoint
 10
415.6375473819609
 20
93.18272099999992
 30
0.0
  0
POINT
  5
13DC
330
B4C
100
AcDbEntity
  8
Defpoints
  6
Continuous
 62
     0
100
AcDbPoint
 10
415.6375473819609
 20
221.1827209999999
 30
0.0
  0
POINT
  5
13DD
330
B4C
100
AcDbEntity
  8
Defpoints
  6
Continuous
 62
     0
100
AcDbPoint
 10
363.5507049999207
 20
221.1827209999999
 30
0.0
  0
ENDBLK
  5
B4E
330
B4C
100
AcDbEntity
  8
0
100
AcDbBlockEnd
  0
BLOCK
  5
B5A
330
B59
100
AcDbEntity
  8
0
100
AcDbBlockBegin
  2
*D2
 70
     1
 10
0.0
 20
0.0
 30
0.0
  3
*D2
  1

  0
LINE
  5
13DE
330
B59
100
AcDbEntity
  8
0
  6
Continuous
 62
     0
370
    -2
100
AcDbLine
 10
391.6375473819613
 20
156.182721
 30
0.0
 11
373.7355939552173
 21
156.182721
 31
0.0
  0
LINE
  5
13DF
330
B59
100
AcDbEntity
  8
0
  6
Continuous
 62
     0
370
    -2
100
AcDbLine
 10
415.3875473819609
 20
93.18272099999992
 30
0.0
 11
373.7355939552173
 21
93.18272099999992
 31
0.0
  0
LINE
  5
13E0
330
B59
100
AcDbEntity
  8
0
  6
Continuous
 62
     0
370
    -2
100
AcDbLine
 10
374.9855939552173
 20
153.682721
 30
0.0
 11
374.9855939552173
 21
95.68272099999992
 31
0.0
  0
INSERT
  5
13E1
330
B59
100
AcDbEntity
  8
0
  6
Continuous
 62
     0
370
    -2
100
AcDbBlockReference
  2
_Open30
 10
374.9855939552173
 20
156.182721
 30
0.0
 41
2.5
 42
2.5
 43
2.5
 50
90.0
  0
INSERT
  5
13E2
330
B59
100
AcDbEntity
  8
0
  6
Continuous
 62
     0
370
    -2
100
AcDbBlockReference
  2
_Open30
 10
374.9855939552173
 20
93.18272099999992
 30
0.0
 41
2.5
 42
2.5
 43
2.5
 50
270.0
  0
MTEXT
  5
13E3
330
B59
100
AcDbEntity
  8
0
  6
Continuous
 62
     4
100
AcDbMText
 10
372.8605939552173
 20
123.2211282981684
 30
0.0
 40
3.0
 41
0.0
 71
     5
 72
     1
  1
63
 11
0.0000000000000001
 21
1.0
 31
0.0
 73
     1
 44
1.0
1001
ACAD
1000
MTEXTBEGIN
1070
    73
1070
     1
1070
    44
1040
1.0
1070
    74
1070
     0
1000
MTEXTEND
  0
POINT
  5
13E4
330
B59
100
AcDbEntity
  8
Defpoints
  6
Continuous
 62
     0
100
AcDbPoint
 10
391.8875473819613
 20
156.182721
 30
0.0
  0
POINT
  5
13E5
330
B59
100
AcDbEntity
  8
Defpoints
  6
Continuous
 62
     0
100
AcDbPoint
 10
415.6375473819609
 20
93.18272099999992
 30
0.0
  0
POINT
  5
13E6
330
B59
100
AcDbEntity
  8
Defpoints
  6
Continuous
 62
     0
100
AcDbPoint
 10
374.9855939552173
 20
93.18272099999992
 30
0.0
  0
ENDBLK
  5
B5B
330
B59
100
AcDbEntity
  8
0
100
AcDbBlockEnd
  0
BLOCK
  5
B67
330
B66
100
AcDbEntity
  8
0
100
AcDbBlockBegin
  2
*D3
 70
     1
 10
0.0
 20
0.0
 30
0.0
  3
*D3
  1

  0
LINE
  5
13E7
330
B66
100
AcDbEntity
  8
0
  6
Continuous
 62
     0
370
    -2
100
AcDbLine
 10
388.1375473819609
 20
210.4327209999999
 30
0.0
 11
388.1375473819609
 21
244.8459513805162
 31
0.0
  0
LINE
  5
13E8
330
B66
100
AcDbEntity
  8
0
  6
Continuous
 62
     0
370
    -2
100
AcDbLine
 10
443.1375473819609
 20
210.4327209999999
 30
0.0
 11
443.1375473819609
 21
244.8459513805162
 31
0.0
  0
LINE
  5
13E9
330
B66
100
AcDbEntity
  8
0
  6
Continuous
 62
     0
370
    -2
100
AcDbLine
 10
390.6375473819609
 20
243.5959513805162
 30
0.0
 11
440.6375473819609
 21
243.5959513805162
 31
0.0
  0
INSERT
  5
13EA
330
B66
100
AcDbEntity
  8
0
  6
Continuous
 62
     0
370
    -2
100
AcDbBlockReference
  2
_Open30
 10
388.1375473819609
 20
243.5959513805162
 30
0.0
 41
2.5
 42
2.5
 43
2.5
 50
180.0
  0
INSERT
  5
13EB
330
B66
100
AcDbEntity
  8
0
  6
Continuous
 62
     0
370
    -2
100
AcDbBlockReference
  2
_Open30
 10
443.1375473819609
 20
243.5959513805162
 30
0.0
 41
2.5
 42
2.5
 43
2.5
  0
MTEXT
  5
13EC
330
B66
100
AcDbEntity
  8
0
  6
Continuous
 62
     4
100
AcDbMText
 10
415.6375473819609
 20
245.7209513805162
 30
0.0
 40
3.0
 41
0.0
 71
     5
 72
     1
  1
%%C55
 73
     1
 44
1.0
1001
ACAD
1000
MTEXTBEGIN
1070
    73
1070
     1
1070
    44
1040
1.0
1070
    74
1070
     0
1000
MTEXTEND
  0
POINT
  5
13ED
330
B66
100
AcDbEntity
  8
Defpoints
  6
Continuous
 62
     0
100
AcDbPoint
 10
388.1375473819609
 20
210.1827209999999
 30
0.0
  0
POINT
  5
13EE
330
B66
100
AcDbEntity
  8
Defpoints
  6
Continuous
 62
     0
100
AcDbPoint
 10
443.1375473819609
 20
210.1827209999999
 30
0.0
  0
POINT
  5
13EF
330
B66
100
AcDbEntity
  8
Defpoints
  6
Continuous
 62
     0
100
AcDbPoint
 10
443.1375473819609
 20
243.5959513805162
 30
0.0
  0
ENDBLK
  5
B68
330
B66
100
AcDbEntity
  8
0
100
AcDbBlockEnd
  0
BLOCK
  5
B86
330
B85
100
AcDbEntity
  8
0
100
AcDbBlockBegin
  2
*D4
 70
     1
 10
0.0
 20
0.0
 30
0.0
  3
*D4
  1

  0
LINE
  5
13F0
330
B85
100
AcDbEntity
  8
0
  6
Continuous
 62
     0
370
    -2
100
AcDbLine
 10
402.6435658819608
 20
103.3131040000003
 30
0.0
 11
402.6435658819608
 21
79.0799134814614
 31
0.0
  0
LINE
  5
13F1
330
B85
100
AcDbEntity
  8
0
  6
Continuous
 62
     0
370
    -2
100
AcDbLine
 10
428.6359338819608
 20
101.3131040000002
 30
0.0
 11
428.6359338819608
 21
79.0799134814614
 31
0.0
  0
LINE
  5
13F2
330
B85
100
AcDbEntity
  8
0
  6
Continuous
 62
     0
370
    -2
100
AcDbLine
 10
405.1435658819608
 20
80.3299134814614
 30
0.0
 11
426.1359338819608
 21
80.3299134814614
 31
0.0
  0
INSERT
  5
13F3
330
B85
100
AcDbEntity
  8
0
  6
Continuous
 62
     0
370
    -2
100
AcDbBlockReference
  2
_Open30
 10
402.6435658819608
 20
80.3299134814614
 30
0.0
 41
2.5
 42
2.5
 43
2.5
 50
180.0
  0
INSERT
  5
13F4
330
B85
100
AcDbEntity
  8
0
  6
Continuous
 62
     0
370
    -2
100
AcDbBlockReference
  2
_Open30
 10
428.6359338819608
 20
80.3299134814614
 30
0.0
 41
2.5
 42
2.5
 43
2.5
  0
MTEXT
  5
13F5
330
B85
100
AcDbEntity
  8
0
  6
Continuous
 62
     4
100
AcDbMText
 10
415.6397498819606
 20
82.4549134814614
 30
0.0
 40
3.0
 41
0.0
 71
     5
 72
     1
  1
E26
 73
     1
 44
1.0
1001
ACAD
1000
MTEXTBEGIN
1070
    73
1070
     1
1070
    44
1040
1.0
1070
    74
1070
     0
1000
MTEXTEND
  0
POINT
  5
13F6
330
B85
100
AcDbEntity
  8
Defpoints
  6
Continuous
 62
     0
100
AcDbPoint
 10
402.6435658819608
 20
103.5631040000003
 30
0.0
  0
POINT
  5
13F7
330
B85
100
AcDbEntity
  8
Defpoints
  6
Continuous
 62
     0
100
AcDbPoint
 10
428.6359338819608
 20
101.5631040000002
 30
0.0
  0
POINT
  5
13F8
330
B85
100
AcDbEntity
  8
Defpoints
  6
Continuous
 62
     0
100
AcDbPoint
 10
428.6359338819608
 20
80.3299134814614
 30
0.0
  0
ENDBLK
  5
B87
330
B85
100
AcDbEntity
  8
0
100
AcDbBlockEnd
  0
BLOCK
  5
BE4
330
BE3
100
AcDbEntity
  8
0
100
AcDbBlockBegin
  2
*D5
 70
     1
 10
0.0
 20
0.0
 30
0.0
  3
*D5
  1

  0
LINE
  5
13F9
330
BE3
100
AcDbEntity
  8
0
  6
Continuous
 62
     0
370
    -2
100
AcDbLine
 10
390.6375473819613
 20
132.932721
 30
0.0
 11
390.6375473819613
 21
71.90718855987221
 31
0.0
  0
LINE
  5
13FA
330
BE3
100
AcDbEntity
  8
0
  6
Continuous
 62
     0
370
    -2
100
AcDbLine
 10
440.6375473819609
 20
132.932721
 30
0.0
 11
440.6375473819609
 21
71.90718855987221
 31
0.0
  0
LINE
  5
13FB
330
BE3
100
AcDbEntity
  8
0
  6
Continuous
 62
     0
370
    -2
100
AcDbLine
 10
393.1375473819613
 20
73.15718855987221
 30
0.0
 11
438.1375473819609
 21
73.15718855987221
 31
0.0
  0
INSERT
  5
13FC
330
BE3
100
AcDbEntity
  8
0
  6
Continuous
 62
     0
370
    -2
100
AcDbBlockReference
  2
_Open30
 10
390.6375473819613
 20
73.15718855987221
 30
0.0
 41
2.5
 42
2.5
 43
2.5
 50
180.0
  0
INSERT
  5
13FD
330
BE3
100
AcDbEntity
  8
0
  6
Continuous
 62
     0
370
    -2
100
AcDbBlockReference
  2
_Open30
 10
440.6375473819609
 20
73.15718855987221
 30
0.0
 41
2.5
 42
2.5
 43
2.5
  0
MTEXT
  5
13FE
330
BE3
100
AcDbEntity
  8
0
  6
Continuous
 62
     4
100
AcDbMText
 10
415.6375473819609
 20
75.28218855987221
 30
0.0
 40
3.0
 41
0.0
 71
     5
 72
     1
  1
%%C50
 73
     1
 44
1.0
1001
ACAD
1000
MTEXTBEGIN
1070
    73
1070
     1
1070
    44
1040
1.0
1070
    74
1070
     0
1000
MTEXTEND
  0
POINT
  5
13FF
330
BE3
100
AcDbEntity
  8
Defpoints
  6
Continuous
 62
     0
100
AcDbPoint
 10
390.6375473819613
 20
133.182721
 30
0.0
  0
POINT
  5
1400
330
BE3
100
AcDbEntity
  8
Defpoints
  6
Continuous
 62
     0
100
AcDbPoint
 10
440.6375473819609
 20
133.182721
 30
0.0
  0
POINT
  5
1401
330
BE3
100
AcDbEntity
  8
Defpoints
  6
Continuous
 62
     0
100
AcDbPoint
 10
440.6375473819609
 20
73.15718855987221
 30
0.0
  0
ENDBLK
  5
BE5
330
BE3
100
AcDbEntity
  8
0
100
AcDbBlockEnd
  0
BLOCK
  5
14B0
330
14AF
100
AcDbEntity
  8
0
100
AcDbBlockBegin
  2
*D6
 70
     1
 10
0.0
 20
0.0
 30
0.0
  3
*D6
  1

  0
LINE
  5
1736
330
14AF
100
AcDbEntity
  8
0
  6
Continuous
 62
     0
370
    -2
100
AcDbLine
 10
387.7192368957617
 20
162.1827209999996
 30
0.0
 11
376.8362520762153
 21
162.1827209999996
 31
0.0
  0
LINE
  5
1737
330
14AF
100
AcDbEntity
  8
0
  6
Continuous
 62
     0
370
    -2
100
AcDbLine
 10
412.7192368957617
 20
93.18272099999992
 30
0.0
 11
376.8362520762153
 21
93.18272099999992
 31
0.0
  0
LINE
  5
1738
330
14AF
100
AcDbEntity
  8
0
  6
Continuous
 62
     0
370
    -2
100
AcDbLine
 10
378.0862520762153
 20
159.6827209999996
 30
0.0
 11
378.0862520762152
 21
95.68272099999992
 31
0.0
  0
INSERT
  5
1739
330
14AF
100
AcDbEntity
  8
0
  6
Continuous
 62
     0
370
    -2
100
AcDbBlockReference
  2
_Open30
 10
378.0862520762153
 20
162.1827209999996
 30
0.0
 41
2.5
 42
2.5
 43
2.5
 50
90.0
  0
INSERT
  5
173A
330
14AF
100
AcDbEntity
  8
0
  6
Continuous
 62
     0
370
    -2
100
AcDbBlockReference
  2
_Open30
 10
378.0862520762152
 20
93.18272099999992
 30
0.0
 41
2.5
 42
2.5
 43
2.5
 50
270.0
  0
MTEXT
  5
173B
330
14AF
100
AcDbEntity
  8
0
  6
Continuous
 62
     4
100
AcDbMText
 10
375.9612520762153
 20
127.6827209999998
 30
0.0
 40
3.0
 41
0.0
 71
     5
 72
     1
  1
69
 11
0.0000000000000001
 21
1.0
 31
0.0
 73
     1
 44
1.0
1001
ACAD
1000
MTEXTBEGIN
1070
    73
1070
     1
1070
    44
1040
1.0
1070
    74
1070
     0
1000
MTEXTEND
  0
POINT
  5
173C
330
14AF
100
AcDbEntity
  8
Defpoints
  6
Continuous
 62
     0
100
AcDbPoint
 10
387.9692368957617
 20
162.1827209999996
 30
0.0
  0
POINT
  5
173D
330
14AF
100
AcDbEntity
  8
Defpoints
  6
Continuous
 62
     0
100
AcDbPoint
 10
412.9692368957616
 20
93.18272099999992
 30
0.0
  0
POINT
  5
173E
330
14AF
100
AcDbEntity
  8
Defpoints
  6
Continuous
 62
     0
100
AcDbPoint
 10
378.0862520762152
 20
93.18272099999992
 30
0.0
  0
ENDBLK
  5
14B1
330
14AF
100
AcDbEntity
  8
0
100
AcDbBlockEnd
  0
BLOCK
  5
14BC
330
14BB
100
AcDbEntity
  8
0
100
AcDbBlockBegin
  2
*D7
 70
     1
 10
0.0
 20
0.0
 30
0.0
  3
*D7
  1

  0
LINE
  5
1624
330
14BB
100
AcDbEntity
  8
0
  6
Continuous
 62
     0
370
    -2
100
AcDbLine
 10
388.9692368957617
 20
163.4327209999999
 30
0.0
 11
388.9692368957617
 21
244.8459513805162
 31
0.0
  0
LINE
  5
1625
330
14BB
100
AcDbEntity
  8
0
  6
Continuous
 62
     0
370
    -2
100
AcDbLine
 10
436.9692368957617
 20
163.4327209999999
 30
0.0
 11
436.9692368957617
 21
244.8459513805162
 31
0.0
  0
LINE
  5
1626
330
14BB
100
AcDbEntity
  8
0
  6
Continuous
 62
     0
370
    -2
100
AcDbLine
 10
391.4692368957617
 20
243.5959513805162
 30
0.0
 11
434.4692368957616
 21
243.5959513805162
 31
0.0
  0
INSERT
  5
1627
330
14BB
100
AcDbEntity
  8
0
  6
Continuous
 62
     0
370
    -2
100
AcDbBlockReference
  2
_Open30
 10
388.9692368957617
 20
243.5959513805162
 30
0.0
 41
2.5
 42
2.5
 43
2.5
 50
180.0
  0
INSERT
  5
1628
330
14BB
100
AcDbEntity
  8
0
  6
Continuous
 62
     0
370
    -2
100
AcDbBlockReference
  2
_Open30
 10
436.9692368957617
 20
243.5959513805162
 30
0.0
 41
2.5
 42
2.5
 43
2.5
  0
MTEXT
  5
1629
330
14BB
100
AcDbEntity
  8
0
  6
Continuous
 62
     4
100
AcDbMText
 10
412.9692368957616
 20
245.7209513805162
 30
0.0
 40
3.0
 41
0.0
 71
     5
 72
     1
  1
%%C48
 73
     1
 44
1.0
1001
ACAD
1000
MTEXTBEGIN
1070
    73
1070
     1
1070
    44
1040
1.0
1070
    74
1070
     0
1000
MTEXTEND
  0
POINT
  5
162A
330
14BB
100
AcDbEntity
  8
Defpoints
  6
Continuous
 62
     0
100
AcDbPoint
 10
388.9692368957617
 20
163.1827209999999
 30
0.0
  0
POINT
  5
162B
330
14BB
100
AcDbEntity
  8
Defpoints
  6
Continuous
 62
     0
100
AcDbPoint
 10
436.9692368957617
 20
163.1827209999999
 30
0.0
  0
POINT
  5
162C
330
14BB
100
AcDbEntity
  8
Defpoints
  6
Continuous
 62
     0
100
AcDbPoint
 10
436.9692368957617
 20
243.5959513805162
 30
0.0
  0
ENDBLK
  5
14BD
330
14BB
100
AcDbEntity
  8
0
100
AcDbBlockEnd
  0
BLOCK
  5
14C8
330
14C7
100
AcDbEntity
  8
0
100
AcDbBlockBegin
  2
*D8
 70
     1
 10
0.0
 20
0.0
 30
0.0
  3
*D8
  1

  0
LINE
  5
162D
330
14C7
100
AcDbEntity
  8
0
  6
Continuous
 62
     0
370
    -2
100
AcDbLine
 10
399.9752553957617
 20
103.3131040000003
 30
0.0
 11
399.9752553957617
 21
79.0799134814614
 31
0.0
  0
LINE
  5
162E
330
14C7
100
AcDbEntity
  8
0
  6
Continuous
 62
     0
370
    -2
100
AcDbLine
 10
425.9676233957616
 20
101.3131040000002
 30
0.0
 11
425.9676233957616
 21
79.0799134814614
 31
0.0
  0
LINE
  5
162F
330
14C7
100
AcDbEntity
  8
0
  6
Continuous
 62
     0
370
    -2
100
AcDbLine
 10
402.4752553957616
 20
80.3299134814614
 30
0.0
 11
423.4676233957616
 21
80.3299134814614
 31
0.0
  0
INSERT
  5
1630
330
14C7
100
AcDbEntity
  8
0
  6
Continuous
 62
     0
370
    -2
100
AcDbBlockReference
  2
_Open30
 10
399.9752553957617
 20
80.3299134814614
 30
0.0
 41
2.5
 42
2.5
 43
2.5
 50
180.0
  0
INSERT
  5
1631
330
14C7
100
AcDbEntity
  8
0
  6
Continuous
 62
     0
370
    -2
100
AcDbBlockReference
  2
_Open30
 10
425.9676233957616
 20
80.3299134814614
 30
0.0
 41
2.5
 42
2.5
 43
2.5
  0
MTEXT
  5
1632
330
14C7
100
AcDbEntity
  8
0
  6
Continuous
 62
     4
100
AcDbMText
 10
412.9714393957613
 20
82.4549134814614
 30
0.0
 40
3.0
 41
0.0
 71
     5
 72
     1
  1
E26
 73
     1
 44
1.0
1001
ACAD
1000
MTEXTBEGIN
1070
    73
1070
     1
1070
    44
1040
1.0
1070
    74
1070
     0
1000
MTEXTEND
  0
POINT
  5
1633
330
14C7
100
AcDbEntity
  8
Defpoints
  6
Continuous
 62
     0
100
AcDbPoint
 10
399.9752553957617
 20
103.5631040000003
 30
0.0
  0
POINT
  5
1634
330
14C7
100
AcDbEntity
  8
Defpoints
  6
Continuous
 62
     0
100
AcDbPoint
 10
425.9676233957616
 20
101.5631040000002
 30
0.0
  0
POINT
  5
1635
330
14C7
100
AcDbEntity
  8
Defpoints
  6
Continuous
 62
     0
100
AcDbPoint
 10
425.9676233957616
 20
80.3299134814614
 30
0.0
  0
ENDBLK
  5
14C9
330
14C7
100
AcDbEntity
  8
0
100
AcDbBlockEnd
  0
BLOCK
  5
14D4
330
14D3
100
AcDbEntity
  8
0
100
AcDbBlockBegin
  2
*D9
 70
     1
 10
0.0
 20
0.0
 30
0.0
  3
*D9
  1

  0
LINE
  5
1636
330
14D3
100
AcDbEntity
  8
0
  6
Continuous
 62
     0
370
    -2
100
AcDbLine
 10
387.969236895762
 20
161.9327209999996
 30
0.0
 11
387.969236895762
 21
71.90718855987221
 31
0.0
  0
LINE
  5
1637
330
14D3
100
AcDbEntity
  8
0
  6
Continuous
 62
     0
370
    -2
100
AcDbLine
 10
437.9692368957616
 20
161.9327209999996
 30
0.0
 11
437.9692368957616
 21
71.90718855987221
 31
0.0
  0
LINE
  5
1638
330
14D3
100
AcDbEntity
  8
0
  6
Continuous
 62
     0
370
    -2
100
AcDbLine
 10
390.469236895762
 20
73.15718855987221
 30
0.0
 11
435.4692368957617
 21
73.15718855987221
 31
0.0
  0
INSERT
  5
1639
330
14D3
100
AcDbEntity
  8
0
  6
Continuous
 62
     0
370
    -2
100
AcDbBlockReference
  2
_Open30
 10
387.969236895762
 20
73.15718855987221
 30
0.0
 41
2.5
 42
2.5
 43
2.5
 50
180.0
  0
INSERT
  5
163A
330
14D3
100
AcDbEntity
  8
0
  6
Continuous
 62
     0
370
    -2
100
AcDbBlockReference
  2
_Open30
 10
437.9692368957616
 20
73.15718855987221
 30
0.0
 41
2.5
 42
2.5
 43
2.5
  0
MTEXT
  5
163B
330
14D3
100
AcDbEntity
  8
0
  6
Continuous
 62
     4
100
AcDbMText
 10
412.9692368957616
 20
75.28218855987221
 30
0.0
 40
3.0
 41
0.0
 71
     5
 72
     1
  1
%%C50
 73
     1
 44
1.0
1001
ACAD
1000
MTEXTBEGIN
1070
    73
1070
     1
1070
    44
1040
1.0
1070
    74
1070
     0
1000
MTEXTEND
  0
POINT
  5
163C
330
14D3
100
AcDbEntity
  8
Defpoints
  6
Continuous
 62
     0
100
AcDbPoint
 10
387.969236895762
 20
162.1827209999996
 30
0.0
  0
POINT
  5
163D
330
14D3
100
AcDbEntity
  8
Defpoints
  6
Continuous
 62
     0
100
AcDbPoint
 10
437.9692368957616
 20
162.1827209999996
 30
0.0
  0
POINT
  5
163E
330
14D3
100
AcDbEntity
  8
Defpoints
  6
Continuous
 62
     0
100
AcDbPoint
 10
437.9692368957616
 20
73.15718855987221
 30
0.0
  0
ENDBLK
  5
14D5
330
14D3
100
AcDbEntity
  8
0
100
AcDbBlockEnd
  0
BLOCK
  5
14E0
330
14DF
100
AcDbEntity
  8
0
100
AcDbBlockBegin
  2
*D10
 70
     1
 10
0.0
 20
0.0
 30
0.0
  3
*D10
  1

  0
LINE
  5
173F
330
14DF
100
AcDbEntity
  8
0
  6
Continuous
 62
     0
370
    -2
100
AcDbLine
 10
412.7192368957617
 20
93.18272099999992
 30
0.0
 11
368.6658551575626
 21
93.18272099999992
 31
0.0
  0
LINE
  5
1740
330
14DF
100
AcDbEntity
  8
0
  6
Continuous
 62
     0
370
    -2
100
AcDbLine
 10
412.7192368957617
 20
226.6827209999999
 30
0.0
 11
368.6658551575627
 21
226.6827209999999
 31
0.0
  0
LINE
  5
1741
330
14DF
100
AcDbEntity
  8
0
  6
Continuous
 62
     0
370
    -2
100
AcDbLine
 10
369.9158551575627
 20
95.68272099999992
 30
0.0
 11
369.9158551575627
 21
224.1827209999999
 31
0.0
  0
INSERT
  5
1742
330
14DF
100
AcDbEntity
  8
0
  6
Continuous
 62
     0
370
    -2
100
AcDbBlockReference
  2
_Open30
 10
369.9158551575627
 20
93.18272099999992
 30
0.0
 41
2.5
 42
2.5
 43
2.5
 50
270.0
  0
INSERT
  5
1743
330
14DF
100
AcDbEntity
  8
0
  6
Continuous
 62
     0
370
    -2
100
AcDbBlockReference
  2
_Open30
 10
369.9158551575627
 20
226.6827209999999
 30
0.0
 41
2.5
 42
2.5
 43
2.5
 50
90.0
  0
MTEXT
  5
1744
330
14DF
100
AcDbEntity
  8
0
  6
Continuous
 62
     4
100
AcDbMText
 10
367.7908551575626
 20
159.9327209999999
 30
0.0
 40
3.0
 41
0.0
 71
     5
 72
     1
  1
133.5
 11
0.0000000000000001
 21
1.0
 31
0.0
 73
     1
 44
1.0
1001
ACAD
1000
MTEXTBEGIN
1070
    73
1070
     1
1070
    44
1040
1.0
1070
    74
1070
     0
1000
MTEXTEND
  0
POINT
  5
1745
330
14DF
100
AcDbEntity
  8
Defpoints
  6
Continuous
 62
     0
100
AcDbPoint
 10
412.9692368957616
 20
93.18272099999992
 30
0.0
  0
POINT
  5
1746
330
14DF
100
AcDbEntity
  8
Defpoints
  6
Continuous
 62
     0
100
AcDbPoint
 10
412.9692368957616
 20
226.6827209999999
 30
0.0
  0
POINT
  5
1747
330
14DF
100
AcDbEntity
  8
Defpoints
  6
Continuous
 62
     0
100
AcDbPoint
 10
369.9158551575627
 20
226.6827209999999
 30
0.0
  0
ENDBLK
  5
14E1
330
14DF
100
AcDbEntity
  8
0
100
AcDbBlockEnd
  0
BLOCK
  5
1889
330
1888
100
AcDbEntity
  8
0
100
AcDbBlockBegin
  2
*D14
 70
     1
 10
0.0
 20
0.0
 30
0.0
  3
*D14
  1

  0
LINE
  5
1967
330
1888
100
AcDbEntity
  8
0
  6
Continuous
 62
     0
370
    -2
100
AcDbLine
 10
410.2105528899867
 20
93.18272099999992
 30
0.0
 11
366.1571711517877
 21
93.18272099999992
 31
0.0
  0
LINE
  5
1968
330
1888
100
AcDbEntity
  8
0
  6
Continuous
 62
     0
370
    -2
100
AcDbLine
 10
410.2105528899867
 20
255.1827209999999
 30
0.0
 11
366.1571711517877
 21
255.1827209999999
 31
0.0
  0
LINE
  5
1969
330
1888
100
AcDbEntity
  8
0
  6
Continuous
 62
     0
370
    -2
100
AcDbLine
 10
367.4071711517877
 20
95.68272099999992
 30
0.0
 11
367.4071711517878
 21
252.6827209999999
 31
0.0
  0
INSERT
  5
196A
330
1888
100
AcDbEntity
  8
0
  6
Continuous
 62
     0
370
    -2
100
AcDbBlockReference
  2
_Open30
 10
367.4071711517877
 20
93.18272099999992
 30
0.0
 41
2.5
 42
2.5
 43
2.5
 50
270.0
  0
INSERT
  5
196B
330
1888
100
AcDbEntity
  8
0
  6
Continuous
 62
     0
370
    -2
100
AcDbBlockReference
  2
_Open30
 10
367.4071711517878
 20
255.1827209999999
 30
0.0
 41
2.5
 42
2.5
 43
2.5
 50
90.0
  0
MTEXT
  5
196C
330
1888
100
AcDbEntity
  8
0
  6
Continuous
 62
     4
100
AcDbMText
 10
365.2821711517877
 20
159.9327209999999
 30
0.0
 40
3.0
 41
0.0
 71
     5
 72
     1
  1
162
 11
0.0000000000000001
 21
1.0
 31
0.0
 73
     1
 44
1.0
1001
ACAD
1000
MTEXTBEGIN
1070
    73
1070
     1
1070
    44
1040
1.0
1070
    74
1070
     0
1000
MTEXTEND
  0
POINT
  5
196D
330
1888
100
AcDbEntity
  8
Defpoints
  6
Continuous
 62
     0
100
AcDbPoint
 10
410.4605528899867
 20
93.18272099999992
 30
0.0
  0
POINT
  5
196E
330
1888
100
AcDbEntity
  8
Defpoints
  6
Continuous
 62
     0
100
AcDbPoint
 10
410.4605528899867
 20
255.1827209999999
 30
0.0
  0
POINT
  5
196F
330
1888
100
AcDbEntity
  8
Defpoints
  6
Continuous
 62
     0
100
AcDbPoint
 10
367.4071711517878
 20
255.1827209999999
 30
0.0
  0
ENDBLK
  5
188A
330
1888
100
AcDbEntity
  8
0
100
AcDbBlockEnd
  0
BLOCK
  5
1895
330
1894
100
AcDbEntity
  8
0
100
AcDbBlockBegin
  2
*D15
 70
     1
 10
0.0
 20
0.0
 30
0.0
  3
*D15
  1

  0
LINE
  5
1970
330
1894
100
AcDbEntity
  8
0
  6
Continuous
 62
     0
370
    -2
100
AcDbLine
 10
380.2105528899867
 20
178.1827209999999
 30
0.0
 11
374.3275680704404
 21
178.1827209999999
 31
0.0
  0
LINE
  5
1971
330
1894
100
AcDbEntity
  8
0
  6
Continuous
 62
     0
370
    -2
100
AcDbLine
 10
410.2105528899867
 20
93.18272099999992
 30
0.0
 11
374.3275680704403
 21
93.18272099999992
 31
0.0
  0
LINE
  5
1972
330
1894
100
AcDbEntity
  8
0
  6
Continuous
 62
     0
370
    -2
100
AcDbLine
 10
375.5775680704403
 20
175.6827209999999
 30
0.0
 11
375.5775680704403
 21
95.68272099999992
 31
0.0
  0
INSERT
  5
1973
330
1894
100
AcDbEntity
  8
0
  6
Continuous
 62
     0
370
    -2
100
AcDbBlockReference
  2
_Open30
 10
375.5775680704403
 20
178.1827209999999
 30
0.0
 41
2.5
 42
2.5
 43
2.5
 50
90.0
  0
INSERT
  5
1974
330
1894
100
AcDbEntity
  8
0
  6
Continuous
 62
     0
370
    -2
100
AcDbBlockReference
  2
_Open30
 10
375.5775680704403
 20
93.18272099999992
 30
0.0
 41
2.5
 42
2.5
 43
2.5
 50
270.0
  0
MTEXT
  5
1975
330
1894
100
AcDbEntity
  8
0
  6
Continuous
 62
     4
100
AcDbMText
 10
373.4525680704403
 20
135.5577209999999
 30
0.0
 40
3.0
 41
0.0
 71
     5
 72
     1
  1
85
 11
0.0000000000000001
 21
1.0
 31
0.0
 73
     1
 44
1.0
1001
ACAD
1000
MTEXTBEGIN
1070
    73
1070
     1
1070
    44
1040
1.0
1070
    74
1070
     0
1000
MTEXTEND
  0
POINT
  5
1976
330
1894
100
AcDbEntity
  8
Defpoints
  6
Continuous
 62
     0
100
AcDbPoint
 10
380.4605528899868
 20
178.1827209999999
 30
0.0
  0
POINT
  5
1977
330
1894
100
AcDbEntity
  8
Defpoints
  6
Continuous
 62
     0
100
AcDbPoint
 10
410.4605528899867
 20
93.18272099999992
 30
0.0
  0
POINT
  5
1978
330
1894
100
AcDbEntity
  8
Defpoints
  6
Continuous
 62
     0
100
AcDbPoint
 10
375.5775680704403
 20
93.18272099999992
 30
0.0
  0
ENDBLK
  5
1896
330
1894
100
AcDbEntity
  8
0
100
AcDbBlockEnd
  0
BLOCK
  5
18A1
330
18A0
100
AcDbEntity
  8
0
100
AcDbBlockBegin
  2
*D16
 70
     1
 10
0.0
 20
0.0
 30
0.0
  3
*D16
  1

  0
LINE
  5
1979
330
18A0
100
AcDbEntity
  8
0
  6
Continuous
 62
     0
370
    -2
100
AcDbLine
 10
381.4605528899869
 20
179.4327210000001
 30
0.0
 11
381.4605528899869
 21
267.9589323881972
 31
0.0
  0
LINE
  5
197A
330
18A0
100
AcDbEntity
  8
0
  6
Continuous
 62
     0
370
    -2
100
AcDbLine
 10
439.4605528899867
 20
179.4327209999999
 30
0.0
 11
439.4605528899867
 21
267.9589323881972
 31
0.0
  0
LINE
  5
197B
330
18A0
100
AcDbEntity
  8
0
  6
Continuous
 62
     0
370
    -2
100
AcDbLine
 10
383.9605528899868
 20
266.7089323881973
 30
0.0
 11
436.9605528899866
 21
266.7089323881973
 31
0.0
  0
INSERT
  5
197C
330
18A0
100
AcDbEntity
  8
0
  6
Continuous
 62
     0
370
    -2
100
AcDbBlockReference
  2
_Open30
 10
381.4605528899869
 20
266.7089323881973
 30
0.0
 41
2.5
 42
2.5
 43
2.5
 50
180.0
  0
INSERT
  5
197D
330
18A0
100
AcDbEntity
  8
0
  6
Continuous
 62
     0
370
    -2
100
AcDbBlockReference
  2
_Open30
 10
439.4605528899867
 20
266.7089323881973
 30
0.0
 41
2.5
 42
2.5
 43
2.5
  0
MTEXT
  5
197E
330
18A0
100
AcDbEntity
  8
0
  6
Continuous
 62
     4
100
AcDbMText
 10
410.4605528899867
 20
268.8339323881972
 30
0.0
 40
3.0
 41
0.0
 71
     5
 72
     1
  1
%%C58
 73
     1
 44
1.0
1001
ACAD
1000
MTEXTBEGIN
1070
    73
1070
     1
1070
    44
1040
1.0
1070
    74
1070
     0
1000
MTEXTEND
  0
POINT
  5
197F
330
18A0
100
AcDbEntity
  8
Defpoints
  6
Continuous
 62
     0
100
AcDbPoint
 10
381.4605528899869
 20
179.1827210000001
 30
0.0
  0
POINT
  5
1980
330
18A0
100
AcDbEntity
  8
Defpoints
  6
Continuous
 62
     0
100
AcDbPoint
 10
439.4605528899867
 20
179.1827209999999
 30
0.0
  0
POINT
  5
1981
330
18A0
100
AcDbEntity
  8
Defpoints
  6
Continuous
 62
     0
100
AcDbPoint
 10
439.4605528899867
 20
266.7089323881973
 30
0.0
  0
ENDBLK
  5
18A2
330
18A0
100
AcDbEntity
  8
0
100
AcDbBlockEnd
  0
BLOCK
  5
18AD
330
18AC
100
AcDbEntity
  8
0
100
AcDbBlockBegin
  2
*D17
 70
     1
 10
0.0
 20
0.0
 30
0.0
  3
*D17
  1

  0
LINE
  5
1982
330
18AC
100
AcDbEntity
  8
0
  6
Continuous
 62
     0
370
    -2
100
AcDbLine
 10
397.4665713899867
 20
103.3131040000003
 30
0.0
 11
397.4665713899867
 21
79.0799134814614
 31
0.0
  0
LINE
  5
1983
330
18AC
100
AcDbEntity
  8
0
  6
Continuous
 62
     0
370
    -2
100
AcDbLine
 10
423.4589393899866
 20
101.3131040000002
 30
0.0
 11
423.4589393899866
 21
79.0799134814614
 31
0.0
  0
LINE
  5
1984
330
18AC
100
AcDbEntity
  8
0
  6
Continuous
 62
     0
370
    -2
100
AcDbLine
 10
399.9665713899867
 20
80.3299134814614
 30
0.0
 11
420.9589393899866
 21
80.3299134814614
 31
0.0
  0
INSERT
  5
1985
330
18AC
100
AcDbEntity
  8
0
  6
Continuous
 62
     0
370
    -2
100
AcDbBlockReference
  2
_Open30
 10
397.4665713899867
 20
80.3299134814614
 30
0.0
 41
2.5
 42
2.5
 43
2.5
 50
180.0
  0
INSERT
  5
1986
330
18AC
100
AcDbEntity
  8
0
  6
Continuous
 62
     0
370
    -2
100
AcDbBlockReference
  2
_Open30
 10
423.4589393899866
 20
80.3299134814614
 30
0.0
 41
2.5
 42
2.5
 43
2.5
  0
MTEXT
  5
1987
330
18AC
100
AcDbEntity
  8
0
  6
Continuous
 62
     4
100
AcDbMText
 10
410.4627553899863
 20
82.4549134814614
 30
0.0
 40
3.0
 41
0.0
 71
     5
 72
     1
  1
E26
 73
     1
 44
1.0
1001
ACAD
1000
MTEXTBEGIN
1070
    73
1070
     1
1070
    44
1040
1.0
1070
    74
1070
     0
1000
MTEXTEND
  0
POINT
  5
1988
330
18AC
100
AcDbEntity
  8
Defpoints
  6
Continuous
 62
     0
100
AcDbPoint
 10
397.4665713899867
 20
103.5631040000003
 30
0.0
  0
POINT
  5
1989
330
18AC
100
AcDbEntity
  8
Defpoints
  6
Continuous
 62
     0
100
AcDbPoint
 10
423.4589393899866
 20
101.5631040000002
 30
0.0
  0
POINT
  5
198A
330
18AC
100
AcDbEntity
  8
Defpoints
  6
Continuous
 62
     0
100
AcDbPoint
 10
423.4589393899866
 20
80.3299134814614
 30
0.0
  0
ENDBLK
  5
18AE
330
18AC
100
AcDbEntity
  8
0
100
AcDbBlockEnd
  0
BLOCK
  5
18B9
330
18B8
100
AcDbEntity
  8
0
100
AcDbBlockBegin
  2
*D18
 70
     1
 10
0.0
 20
0.0
 30
0.0
  3
*D18
  1

  0
LINE
  5
198B
330
18B8
100
AcDbEntity
  8
0
  6
Continuous
 62
     0
370
    -2
100
AcDbLine
 10
380.4605528899868
 20
177.9327209999999
 30
0.0
 11
380.4605528899868
 21
71.90718855987221
 31
0.0
  0
LINE
  5
198C
330
18B8
100
AcDbEntity
  8
0
  6
Continuous
 62
     0
370
    -2
100
AcDbLine
 10
440.4605528899867
 20
177.9327209999999
 30
0.0
 11
440.4605528899867
 21
71.90718855987221
 31
0.0
  0
LINE
  5
198D
330
18B8
100
AcDbEntity
  8
0
  6
Continuous
 62
     0
370
    -2
100
AcDbLine
 10
382.9605528899867
 20
73.15718855987221
 30
0.0
 11
437.9605528899867
 21
73.15718855987221
 31
0.0
  0
INSERT
  5
198E
330
18B8
100
AcDbEntity
  8
0
  6
Continuous
 62
     0
370
    -2
100
AcDbBlockReference
  2
_Open30
 10
380.4605528899868
 20
73.15718855987221
 30
0.0
 41
2.5
 42
2.5
 43
2.5
 50
180.0
  0
INSERT
  5
198F
330
18B8
100
AcDbEntity
  8
0
  6
Continuous
 62
     0
370
    -2
100
AcDbBlockReference
  2
_Open30
 10
440.4605528899867
 20
73.15718855987221
 30
0.0
 41
2.5
 42
2.5
 43
2.5
  0
MTEXT
  5
1990
330
18B8
100
AcDbEntity
  8
0
  6
Continuous
 62
     4
100
AcDbMText
 10
410.4605528899867
 20
75.28218855987221
 30
0.0
 40
3.0
 41
0.0
 71
     5
 72
     1
  1
%%C60
 73
     1
 44
1.0
1001
ACAD
1000
MTEXTBEGIN
1070
    73
1070
     1
1070
    44
1040
1.0
1070
    74
1070
     0
1000
MTEXTEND
  0
POINT
  5
1991
330
18B8
100
AcDbEntity
  8
Defpoints
  6
Continuous
 62
     0
100
AcDbPoint
 10
380.4605528899868
 20
178.1827209999999
 30
0.0
  0
POINT
  5
1992
330
18B8
100
AcDbEntity
  8
Defpoints
  6
Continuous
 62
     0
100
AcDbPoint
 10
440.4605528899867
 20
178.1827209999999
 30
0.0
  0
POINT
  5
1993
330
18B8
100
AcDbEntity
  8
Defpoints
  6
Continuous
 62
     0
100
AcDbPoint
 10
440.4605528899867
 20
73.15718855987221
 30
0.0
  0
ENDBLK
  5
18BA
330
18B8
100
AcDbEntity
  8
0
100
AcDbBlockEnd
  0
ENDSEC
  0
SECTION
  2
ENTITIES
  0
LINE
  5
BB
330
6B
100
AcDbEntity
  8
0
 62
     3
100
AcDbLine
 10
342.49995
 20
150.280796
 30
0.0
 11
342.012023
 21
150.280796
 31
0.0
  0
LINE
  5
BC
330
6B
100
AcDbEntity
  8
0
 62
     3
100
AcDbLine
 10
450.412023
 20
284.275407
 30
0.0
 11
534.012023
 21
284.275407
 31
0.0
  0
TEXT
  5
BD
330
6B
100
AcDbEntity
  8
0
 62
     3
100
AcDbText
 10
523.2870230000002
 20
280.130407
 30
0.0
 40
3.2
  1
担
  7
高3.2
100
AcDbText
  0
TEXT
  5
BE
330
6B
100
AcDbEntity
  8
0
 62
     3
100
AcDbText
 10
530.174523
 20
280.130407
 30
0.0
 40
3.2
  1
当
  7
高3.2
100
AcDbText
  0
TEXT
  5
BF
330
6B
100
AcDbEntity
  8
0
 62
     3
100
AcDbText
 10
483.091246
 20
280.113245
 30
0.0
 40
3.2
  1
変更・追記内容
  7
高3.2
100
AcDbText
  0
LINE
  5
C0
330
6B
100
AcDbEntity
  8
0
 62
     3
100
AcDbLine
 10
450.412023
 20
288.780796
 30
0.0
 11
450.412023
 21
269.4254069999999
 31
0.0
  0
TEXT
  5
C1
330
6B
100
AcDbEntity
  8
0
 62
     3
100
AcDbText
 10
454.8977975128623
 20
275.4445525866895
 30
0.0
 40
2.0
  1
1
  7
高2
100
AcDbText
  0
TEXT
  5
C2
330
6B
100
AcDbEntity
  8
0
 62
     3
100
AcDbText
 10
454.5320979825543
 20
270.2954593266921
 30
0.0
 40
2.0
  1
2
  7
高2
100
AcDbText
  0
TEXT
  5
C3
330
6B
100
AcDbEntity
  8
0
 62
     3
100
AcDbText
 10
463.3709719999997
 20
280.0660302798779
 30
0.0
 40
3.2
  1
日
  7
高3.2
100
AcDbText
  0
TEXT
  5
C4
330
6B
100
AcDbEntity
  8
0
 62
     3
100
AcDbText
 10
472.2478459999998
 20
280.0660302798779
 30
0.0
 40
3.2
  1
付
  7
高3.2
100
AcDbText
  0
TEXT
  5
C5
330
6B
100
AcDbEntity
  8
0
 62
     3
100
AcDbText
 10
463.1968129999998
 20
284.925407
 30
0.0
 40
3.2
  1
図
  7
高3.2
100
AcDbText
  0
TEXT
  5
C6
330
6B
100
AcDbEntity
  8
0
 62
     3
100
AcDbText
 10
481.8527079999998
 20
284.925407
 30
0.0
 40
3.2
  1
面
  7
高3.2
100
AcDbText
  0
TEXT
  5
C7
330
6B
100
AcDbEntity
  8
0
 62
     3
100
AcDbText
 10
500.508604
 20
284.925407
 30
0.0
 40
3.2
  1
略
  7
高3.2
100
AcDbText
  0
TEXT
  5
C8
330
6B
100
AcDbEntity
  8
0
 62
     3
100
AcDbText
 10
519.1644989999998
 20
284.925407
 30
0.0
 40
3.2
  1
歴
  7
高3.2
100
AcDbText
  0
TEXT
  5
C9
330
6B
100
AcDbEntity
  8
0
 62
     3
100
AcDbText
 10
451.014387
 20
280.050407
 30
0.0
 40
3.2
  1
記
  7
高3.2
100
AcDbText
  0
TEXT
  5
CA
330
6B
100
AcDbEntity
  8
0
 62
     3
100
AcDbText
 10
457.267294
 20
280.050407
 30
0.0
 40
3.2
  1
号
  7
高3.2
100
AcDbText
  0
LINE
  5
CB
330
6B
100
AcDbEntity
  8
0
 62
     3
100
AcDbLine
 10
534.0120229999999
 20
269.4254069999999
 30
0.0
 11
450.412023
 21
269.4254069999999
 31
0.0
  0
LINE
  5
CE
330
6B
100
AcDbEntity
  8
0
 62
     2
100
AcDbLine
 10
421.096375
 20
290.56824
 30
0.0
 11
421.532123
 21
290.340772
 31
0.0
  0
LINE
  5
CF
330
6B
100
AcDbEntity
  8
0
 62
     2
100
AcDbLine
 10
421.096375
 20
286.83761
 30
0.0
 11
421.532123
 21
287.065078
 31
0.0
  0
LINE
  5
D0
330
6B
100
AcDbEntity
  8
0
 62
     2
100
AcDbLine
 10
421.532123
 20
290.340772
 30
0.0
 11
421.532123
 21
287.065078
 31
0.0
  0
LINE
  5
D1
330
6B
100
AcDbEntity
  8
0
 62
     2
100
AcDbLine
 10
422.63564
 20
286.83761
 30
0.0
 11
422.1998919999998
 21
287.065078
 31
0.0
  0
LINE
  5
D2
330
6B
100
AcDbEntity
  8
0
 62
     2
100
AcDbLine
 10
422.1998919999998
 20
289.061937
 30
0.0
 11
422.1998919999998
 21
287.065078
 31
0.0
  0
LINE
  5
D3
330
6B
100
AcDbEntity
  8
0
 62
     2
100
AcDbLine
 10
425.177503
 20
290.56824
 30
0.0
 11
424.7417549999998
 21
290.340772
 31
0.0
  0
LINE
  5
D4
330
6B
100
AcDbEntity
  8
0
 62
     2
100
AcDbLine
 10
423.638238
 20
290.56824
 30
0.0
 11
424.073986
 21
290.340772
 31
0.0
  0
LINE
  5
D5
330
6B
100
AcDbEntity
  8
0
 62
     2
100
AcDbLine
 10
424.073986
 20
290.340772
 30
0.0
 11
424.073986
 21
288.898435
 31
0.0
  0
LINE
  5
D6
330
6B
100
AcDbEntity
  8
0
 62
     2
100
AcDbLine
 10
424.7417549999998
 20
290.340772
 30
0.0
 11
424.7417549999998
 21
286.626049
 31
0.0
  0
LINE
  5
D7
330
6B
100
AcDbEntity
  8
0
 62
     2
100
AcDbLine
 10
425.3928
 20
290.568238
 30
0.0
 11
425.828546
 21
290.3407669999999
 31
0.0
  0
LINE
  5
D8
330
6B
100
AcDbEntity
  8
0
 62
     2
100
AcDbLine
 10
425.3927219999998
 20
286.83766
 30
0.0
 11
425.828478
 21
287.065113
 31
0.0
  0
LINE
  5
D9
330
6B
100
AcDbEntity
  8
0
 62
     2
100
AcDbLine
 10
425.828546
 20
290.3407669999999
 30
0.0
 11
425.828546
 21
287.065113
 31
0.0
  0
LINE
  5
DA
330
6B
100
AcDbEntity
  8
0
 62
     2
100
AcDbLine
 10
427.322337
 20
290.568214
 30
0.0
 11
426.886585
 21
290.340752
 31
0.0
  0
LINE
  5
DB
330
6B
100
AcDbEntity
  8
0
 62
     2
100
AcDbLine
 10
426.886585
 20
290.340752
 30
0.0
 11
426.886585
 21
287.065098
 31
0.0
  0
LINE
  5
DC
330
6B
100
AcDbEntity
  8
0
 62
     2
100
AcDbLine
 10
427.322337
 20
286.837636
 30
0.0
 11
426.886585
 21
287.065098
 31
0.0
  0
LINE
  5
DD
330
6B
100
AcDbEntity
  8
0
 62
     2
100
AcDbLine
 10
431.01259
 20
290.568173
 30
0.0
 11
431.448337
 21
290.340703
 31
0.0
  0
LINE
  5
DE
330
6B
100
AcDbEntity
  8
0
 62
     2
100
AcDbLine
 10
431.448337
 20
290.340703
 30
0.0
 11
431.4482799999998
 21
287.06505
 31
0.0
  0
LINE
  5
DF
330
6B
100
AcDbEntity
  8
0
 62
     2
100
AcDbLine
 10
431.0125249999998
 20
286.837595
 30
0.0
 11
431.4482799999998
 21
287.06505
 31
0.0
  0
LINE
  5
E0
330
6B
100
AcDbEntity
  8
0
 62
     2
100
AcDbLine
 10
432.9648509999998
 20
290.568173
 30
0.0
 11
432.529104
 21
290.340703
 31
0.0
  0
LINE
  5
E1
330
6B
100
AcDbEntity
  8
0
 62
     2
100
AcDbLine
 10
432.964916
 20
286.837595
 30
0.0
 11
432.529161
 21
287.06505
 31
0.0
  0
LINE
  5
E2
330
6B
100
AcDbEntity
  8
0
 62
     2
100
AcDbLine
 10
433.168579
 20
290.568173
 30
0.0
 11
433.6043259999998
 21
290.340703
 31
0.0
  0
LINE
  5
E3
330
6B
100
AcDbEntity
  8
0
 62
     2
100
AcDbLine
 10
433.1685139999998
 20
286.837595
 30
0.0
 11
433.604269
 21
287.06505
 31
0.0
  0
LINE
  5
E4
330
6B
100
AcDbEntity
  8
0
 62
     2
100
AcDbLine
 10
435.12084
 20
290.568173
 30
0.0
 11
434.685093
 21
290.340703
 31
0.0
  0
LINE
  5
E5
330
6B
100
AcDbEntity
  8
0
 62
     2
100
AcDbLine
 10
434.685093
 20
290.340703
 30
0.0
 11
434.68515
 21
287.06505
 31
0.0
  0
LINE
  5
E6
330
6B
100
AcDbEntity
  8
0
 62
     2
100
AcDbLine
 10
435.120905
 20
286.837595
 30
0.0
 11
434.68515
 21
287.06505
 31
0.0
  0
LINE
  5
E7
330
6B
100
AcDbEntity
  8
0
 62
     2
100
AcDbLine
 10
433.604301
 20
288.91357
 30
0.0
 11
432.529129
 21
288.91357
 31
0.0
  0
LINE
  5
E8
330
6B
100
AcDbEntity
  8
0
 62
     2
100
AcDbLine
 10
433.604294
 20
288.49228
 30
0.0
 11
432.529136
 21
288.49228
 31
0.0
  0
LINE
  5
E9
330
6B
100
AcDbEntity
  8
0
 62
     2
100
AcDbLine
 10
433.6043259999998
 20
290.340703
 30
0.0
 11
433.604301
 21
288.91357
 31
0.0
  0
LINE
  5
EA
330
6B
100
AcDbEntity
  8
0
 62
     2
100
AcDbLine
 10
433.604294
 20
288.49228
 30
0.0
 11
433.604269
 21
287.06505
 31
0.0
  0
LINE
  5
EB
330
6B
100
AcDbEntity
  8
0
 62
     2
100
AcDbLine
 10
432.529104
 20
290.340703
 30
0.0
 11
432.529129
 21
288.91357
 31
0.0
  0
LINE
  5
EC
330
6B
100
AcDbEntity
  8
0
 62
     2
100
AcDbLine
 10
432.529136
 20
288.49228
 30
0.0
 11
432.529161
 21
287.06505
 31
0.0
  0
LINE
  5
ED
330
6B
100
AcDbEntity
  8
0
 62
     2
100
AcDbLine
 10
435.327799
 20
290.568173
 30
0.0
 11
435.763546
 21
290.340703
 31
0.0
  0
LINE
  5
EE
330
6B
100
AcDbEntity
  8
0
 62
     2
100
AcDbLine
 10
435.763546
 20
290.340703
 30
0.0
 11
435.7634889999998
 21
287.06505
 31
0.0
  0
LINE
  5
EF
330
6B
100
AcDbEntity
  8
0
 62
     2
100
AcDbLine
 10
435.3277339999998
 20
286.837595
 30
0.0
 11
435.7634889999998
 21
287.06505
 31
0.0
  0
LINE
  5
F0
330
6B
100
AcDbEntity
  8
0
 62
     2
100
AcDbLine
 10
437.2573089999998
 20
290.568173
 30
0.0
 11
436.8215619999999
 21
290.340703
 31
0.0
  0
LINE
  5
F1
330
6B
100
AcDbEntity
  8
0
 62
     2
100
AcDbLine
 10
436.8215619999999
 20
290.340703
 30
0.0
 11
436.821619
 21
287.06505
 31
0.0
  0
LINE
  5
F2
330
6B
100
AcDbEntity
  8
0
 62
     2
100
AcDbLine
 10
437.2573739999999
 20
286.837595
 30
0.0
 11
436.821619
 21
287.06505
 31
0.0
  0
LINE
  5
F3
330
6B
100
AcDbEntity
  8
0
 62
     2
100
AcDbLine
 10
437.471669
 20
290.568173
 30
0.0
 11
437.907416
 21
290.340703
 31
0.0
  0
LINE
  5
F4
330
6B
100
AcDbEntity
  8
0
 62
     2
100
AcDbLine
 10
437.907416
 20
290.340703
 30
0.0
 11
437.9073589999999
 21
287.06505
 31
0.0
  0
LINE
  5
F5
330
6B
100
AcDbEntity
  8
0
 62
     2
100
AcDbLine
 10
437.471604
 20
286.837595
 30
0.0
 11
437.9073589999999
 21
287.06505
 31
0.0
  0
ARC
  5
F6
330
6B
100
AcDbEntity
  8
0
 62
     2
100
AcDbCircle
 10
429.620679
 20
288.712315
 30
0.0
 40
2.086285999999998
100
AcDbArc
 50
97.701524
 51
270.0
  0
ARC
  5
F7
330
6B
100
AcDbEntity
  8
0
 62
     2
100
AcDbCircle
 10
442.50128
 20
288.691358
 30
0.0
 40
2.108943
100
AcDbArc
 50
0.31425
 51
69.00558199999998
  0
ARC
  5
F8
330
6B
100
AcDbEntity
  8
0
 62
     2
100
AcDbCircle
 10
442.9619549999999
 20
288.691358
 30
0.0
 40
2.108943
100
AcDbArc
 50
110.994418
 51
148.116611
  0
ARC
  5
F9
330
6B
100
AcDbEntity
  8
0
 62
     2
100
AcDbCircle
 10
442.50128
 20
288.714492
 30
0.0
 40
2.108943
100
AcDbArc
 50
290.994418
 51
359.68575
  0
ARC
  5
FA
330
6B
100
AcDbEntity
  8
0
 62
     2
100
AcDbCircle
 10
442.9619549999999
 20
288.714492
 30
0.0
 40
2.108943
100
AcDbArc
 50
211.883389
 51
249.005582
  0
ARC
  5
FB
330
6B
100
AcDbEntity
  8
0
 62
     2
100
AcDbCircle
 10
442.731617
 20
289.565731
 30
0.0
 40
1.214070999999999
100
AcDbArc
 50
64.365172
 51
115.634828
  0
ARC
  5
FC
330
6B
100
AcDbEntity
  8
0
 62
     2
100
AcDbCircle
 10
442.731617
 20
287.84012
 30
0.0
 40
1.214070999999999
100
AcDbArc
 50
244.365172
 51
295.634828
  0
ARC
  5
FD
330
6B
100
AcDbEntity
  8
0
 62
     2
100
AcDbCircle
 10
442.731617
 20
289.588792
 30
0.0
 40
0.5958560000000001
100
AcDbArc
 50
19.486606
 51
160.513394
  0
ARC
  5
FE
330
6B
100
AcDbEntity
  8
0
 62
     2
100
AcDbCircle
 10
442.731617
 20
287.817058
 30
0.0
 40
0.5958560000000001
100
AcDbArc
 50
199.4866059999999
 51
340.513394
  0
ARC
  5
FF
330
6B
100
AcDbEntity
  8
0
 62
     3
100
AcDbCircle
 10
437.989145
 20
266.4748649999999
 30
0.0
 40
26.04
100
AcDbArc
 50
69.50571500000001
 51
81.689988
  0
ARC
  5
100
330
6B
100
AcDbEntity
  8
0
 62
     3
100
AcDbCircle
 10
437.989145
 20
310.930985
 30
0.0
 40
26.04
100
AcDbArc
 50
278.310012
 51
290.494285
  0
ARC
  5
101
330
6B
100
AcDbEntity
  8
0
 62
     3
100
AcDbCircle
 10
446.297349
 20
288.702925
 30
0.0
 40
2.31
100
AcDbArc
 50
290.494285
 51
69.50571500000001
  0
ARC
  5
102
330
6B
100
AcDbEntity
  8
0
 62
     3
100
AcDbCircle
 10
418.997349
 20
288.702925
 30
0.0
 40
2.31
100
AcDbArc
 50
110.494285
 51
249.505715
  0
ARC
  5
103
330
6B
100
AcDbEntity
  8
0
 62
     3
100
AcDbCircle
 10
427.305553
 20
266.4748649999999
 30
0.0
 40
26.04
100
AcDbArc
 50
98.31001200000001
 51
110.494285
  0
ARC
  5
104
330
6B
100
AcDbEntity
  8
0
 62
     3
100
AcDbCircle
 10
427.305553
 20
310.930985
 30
0.0
 40
26.04
100
AcDbArc
 50
249.505715
 51
261.689988
  0
ARC
  5
105
330
6B
100
AcDbEntity
  8
0
 62
     3
100
AcDbCircle
 10
432.647349
 20
229.902925
 30
0.0
 40
63.0
100
AcDbArc
 50
81.689988
 51
98.31001200000001
  0
ARC
  5
106
330
6B
100
AcDbEntity
  8
0
 62
     3
100
AcDbCircle
 10
432.647349
 20
347.502925
 30
0.0
 40
63.0
100
AcDbArc
 50
261.689988
 51
278.310012
  0
ARC
  5
107
330
6B
100
AcDbEntity
  8
0
 62
     3
100
AcDbCircle
 10
432.647349
 20
229.902925
 30
0.0
 40
62.37
100
AcDbArc
 50
81.689988
 51
98.31001200000001
  0
ARC
  5
108
330
6B
100
AcDbEntity
  8
0
 62
     3
100
AcDbCircle
 10
432.647349
 20
347.502925
 30
0.0
 40
62.37
100
AcDbArc
 50
261.689988
 51
278.310012
  0
ARC
  5
109
330
6B
100
AcDbEntity
  8
0
 62
     3
100
AcDbCircle
 10
437.989145
 20
310.930985
 30
0.0
 40
25.41
100
AcDbArc
 50
278.310012
 51
290.494285
  0
ARC
  5
10A
330
6B
100
AcDbEntity
  8
0
 62
     3
100
AcDbCircle
 10
437.989145
 20
266.4748649999999
 30
0.0
 40
25.41
100
AcDbArc
 50
69.50571500000001
 51
81.689988
  0
ARC
  5
10B
330
6B
100
AcDbEntity
  8
0
 62
     3
100
AcDbCircle
 10
446.297349
 20
288.702925
 30
0.0
 40
1.679999999999999
100
AcDbArc
 50
290.494285
 51
69.50571500000001
  0
ARC
  5
10C
330
6B
100
AcDbEntity
  8
0
 62
     3
100
AcDbCircle
 10
418.997349
 20
288.702925
 30
0.0
 40
1.679999999999999
100
AcDbArc
 50
110.494285
 51
249.505715
  0
ARC
  5
10D
330
6B
100
AcDbEntity
  8
0
 62
     3
100
AcDbCircle
 10
427.305553
 20
266.4748649999999
 30
0.0
 40
25.41
100
AcDbArc
 50
98.31001200000001
 51
110.494285
  0
ARC
  5
10E
330
6B
100
AcDbEntity
  8
0
 62
     3
100
AcDbCircle
 10
427.305553
 20
310.930985
 30
0.0
 40
25.41
100
AcDbArc
 50
249.505715
 51
261.689988
  0
LINE
  5
10F
330
6B
100
AcDbEntity
  8
0
 62
     2
100
AcDbLine
 10
437.2573099999998
 20
286.626049
 30
0.0
 11
435.327798
 21
286.626049
 31
0.0
  0
LINE
  5
110
330
6B
100
AcDbEntity
  8
0
 62
     2
100
AcDbLine
 10
437.2573099999998
 20
286.83761
 30
0.0
 11
437.2573099999998
 21
286.626049
 31
0.0
  0
LINE
  5
111
330
6B
100
AcDbEntity
  8
0
 62
     2
100
AcDbLine
 10
435.120841
 20
290.779703
 30
0.0
 11
433.1685779999999
 21
290.779703
 31
0.0
  0
LINE
  5
112
330
6B
100
AcDbEntity
  8
0
 62
     2
100
AcDbLine
 10
435.120841
 20
290.779703
 30
0.0
 11
435.120841
 21
290.56824
 31
0.0
  0
LINE
  5
113
330
6B
100
AcDbEntity
  8
0
 62
     2
100
AcDbLine
 10
435.120841
 20
286.83761
 30
0.0
 11
435.120841
 21
286.62595
 31
0.0
  0
LINE
  5
114
330
6B
100
AcDbEntity
  8
0
 62
     2
100
AcDbLine
 10
435.120841
 20
286.62595
 30
0.0
 11
433.1685779999999
 21
286.62595
 31
0.0
  0
LINE
  5
115
330
6B
100
AcDbEntity
  8
0
 62
     2
100
AcDbLine
 10
437.2573099999998
 20
290.779802
 30
0.0
 11
437.2573099999998
 21
290.56824
 31
0.0
  0
LINE
  5
116
330
6B
100
AcDbEntity
  8
0
 62
     2
100
AcDbLine
 10
437.2573099999998
 20
290.779802
 30
0.0
 11
435.327798
 21
290.779802
 31
0.0
  0
LINE
  5
117
330
6B
100
AcDbEntity
  8
0
 62
     2
100
AcDbLine
 10
435.327798
 20
290.779802
 30
0.0
 11
435.327798
 21
290.56824
 31
0.0
  0
LINE
  5
118
330
6B
100
AcDbEntity
  8
0
 62
     2
100
AcDbLine
 10
437.4716679999998
 20
286.83761
 30
0.0
 11
437.4716679999998
 21
286.626049
 31
0.0
  0
LINE
  5
119
330
6B
100
AcDbEntity
  8
0
 62
     2
100
AcDbLine
 10
439.4559679999998
 20
286.626049
 30
0.0
 11
437.4716679999998
 21
286.626049
 31
0.0
  0
LINE
  5
11A
330
6B
100
AcDbEntity
  8
0
 62
     2
100
AcDbLine
 10
438.9654319999998
 20
290.112032
 30
0.0
 11
438.9654319999998
 21
287.2938180000001
 31
0.0
  0
LINE
  5
11B
330
6B
100
AcDbEntity
  8
0
 62
     2
100
AcDbLine
 10
438.9654319999998
 20
287.2938180000001
 30
0.0
 11
439.1554809999998
 21
287.2938180000001
 31
0.0
  0
ARC
  5
11C
330
6B
100
AcDbEntity
  8
0
 62
     2
100
AcDbCircle
 10
438.183695
 20
288.702925
 30
0.0
 40
1.711709999999999
100
AcDbArc
 50
304.591955
 51
55.408045
  0
LINE
  5
11D
330
6B
100
AcDbEntity
  8
0
 62
     2
100
AcDbLine
 10
439.4559679999998
 20
290.779802
 30
0.0
 11
437.4716679999998
 21
290.779802
 31
0.0
  0
LINE
  5
11E
330
6B
100
AcDbEntity
  8
0
 62
     2
100
AcDbLine
 10
437.4716679999998
 20
290.779802
 30
0.0
 11
437.4716679999998
 21
290.56824
 31
0.0
  0
LINE
  5
11F
330
6B
100
AcDbEntity
  8
0
 62
     2
100
AcDbLine
 10
435.327798
 20
286.83761
 30
0.0
 11
435.327798
 21
286.626049
 31
0.0
  0
LINE
  5
120
330
6B
100
AcDbEntity
  8
0
 62
     2
100
AcDbLine
 10
438.9654319999998
 20
290.112032
 30
0.0
 11
439.1554809999998
 21
290.112032
 31
0.0
  0
LINE
  5
121
330
6B
100
AcDbEntity
  8
0
 62
     2
100
AcDbLine
 10
427.3222719999998
 20
286.83761
 30
0.0
 11
427.322269
 21
286.626029
 31
0.0
  0
LINE
  5
122
330
6B
100
AcDbEntity
  8
0
 62
     2
100
AcDbLine
 10
425.392757
 20
286.626069
 30
0.0
 11
427.322269
 21
286.626035
 31
0.0
  0
LINE
  5
123
330
6B
100
AcDbEntity
  8
0
 62
     2
100
AcDbLine
 10
421.096375
 20
286.626049
 30
0.0
 11
422.63564
 21
286.626049
 31
0.0
  0
ARC
  5
124
330
6B
100
AcDbEntity
  8
0
 62
     2
100
AcDbCircle
 10
416.114432
 20
288.751832
 30
0.0
 40
14.713566
100
AcDbArc
 50
353.866006
 51
357.694034
  0
LINE
  5
125
330
6B
100
AcDbEntity
  8
0
 62
     2
100
AcDbLine
 10
429.831012
 20
288.1634640000001
 30
0.0
 11
430.816083
 21
288.159819
 31
0.0
  0
LINE
  5
168
330
6B
100
AcDbEntity
  8
0
 62
     2
100
AcDbLine
 10
429.83499
 20
289.238679
 30
0.0
 11
430.820061
 21
289.235034
 31
0.0
  0
ARC
  5
169
330
6B
100
AcDbEntity
  8
0
 62
     2
100
AcDbCircle
 10
416.114432
 20
288.751832
 30
0.0
 40
14.713566
100
AcDbArc
 50
1.881965999999999
 51
5.709994
  0
LINE
  5
16A
330
6B
100
AcDbEntity
  8
0
 62
     2
100
AcDbLine
 10
427.3223409999998
 20
290.779782
 30
0.0
 11
427.322337
 21
290.56824
 31
0.0
  0
LINE
  5
16B
330
6B
100
AcDbEntity
  8
0
 62
     2
100
AcDbLine
 10
425.392829
 20
290.779821
 30
0.0
 11
427.3223409999998
 21
290.779788
 31
0.0
  0
LINE
  5
16C
330
6B
100
AcDbEntity
  8
0
 62
     2
100
AcDbLine
 10
425.3927599999998
 20
286.83761
 30
0.0
 11
425.392757
 21
286.626069
 31
0.0
  0
LINE
  5
16D
330
6B
100
AcDbEntity
  8
0
 62
     2
100
AcDbLine
 10
425.392829
 20
290.779821
 30
0.0
 11
425.392825
 21
290.56824
 31
0.0
  0
LINE
  5
16E
330
6B
100
AcDbEntity
  8
0
 62
     2
100
AcDbLine
 10
422.63564
 20
286.83761
 30
0.0
 11
422.63564
 21
286.626049
 31
0.0
  0
LINE
  5
16F
330
6B
100
AcDbEntity
  8
0
 62
     2
100
AcDbLine
 10
422.1998919999998
 20
289.061937
 30
0.0
 11
423.7223219999998
 21
286.626049
 31
0.0
  0
LINE
  5
170
330
6B
100
AcDbEntity
  8
0
 62
     2
100
AcDbLine
 10
423.7223219999998
 20
286.626049
 30
0.0
 11
424.7417549999998
 21
286.626049
 31
0.0
  0
LINE
  5
171
330
6B
100
AcDbEntity
  8
0
 62
     2
100
AcDbLine
 10
425.177503
 20
290.779802
 30
0.0
 11
425.177503
 21
290.56824
 31
0.0
  0
LINE
  5
172
330
6B
100
AcDbEntity
  8
0
 62
     2
100
AcDbLine
 10
423.638238
 20
290.779802
 30
0.0
 11
425.177503
 21
290.779802
 31
0.0
  0
LINE
  5
173
330
6B
100
AcDbEntity
  8
0
 62
     2
100
AcDbLine
 10
423.638238
 20
290.779802
 30
0.0
 11
423.638238
 21
290.56824
 31
0.0
  0
LINE
  5
174
330
6B
100
AcDbEntity
  8
0
 62
     2
100
AcDbLine
 10
424.073986
 20
288.898435
 30
0.0
 11
422.8393389999998
 21
290.779802
 31
0.0
  0
LINE
  5
175
330
6B
100
AcDbEntity
  8
0
 62
     2
100
AcDbLine
 10
421.096375
 20
290.779802
 30
0.0
 11
422.8393389999998
 21
290.779802
 31
0.0
  0
LINE
  5
176
330
6B
100
AcDbEntity
  8
0
 62
     2
100
AcDbLine
 10
431.012589
 20
290.779703
 30
0.0
 11
432.9648519999998
 21
290.779703
 31
0.0
  0
LINE
  5
177
330
6B
100
AcDbEntity
  8
0
 62
     2
100
AcDbLine
 10
431.012589
 20
290.56824
 30
0.0
 11
431.012589
 21
290.779703
 31
0.0
  0
LINE
  5
178
330
6B
100
AcDbEntity
  8
0
 62
     2
100
AcDbLine
 10
431.012589
 20
286.62595
 30
0.0
 11
431.012589
 21
286.83761
 31
0.0
  0
LINE
  5
179
330
6B
100
AcDbEntity
  8
0
 62
     2
100
AcDbLine
 10
431.012589
 20
286.62595
 30
0.0
 11
432.9648519999998
 21
286.62595
 31
0.0
  0
LINE
  5
17A
330
6B
100
AcDbEntity
  8
0
 62
     2
100
AcDbLine
 10
433.1685779999999
 20
286.83761
 30
0.0
 11
433.1685779999999
 21
286.62595
 31
0.0
  0
LINE
  5
17B
330
6B
100
AcDbEntity
  8
0
 62
     2
100
AcDbLine
 10
432.9648519999998
 20
286.83761
 30
0.0
 11
432.9648519999998
 21
286.62595
 31
0.0
  0
LINE
  5
17C
330
6B
100
AcDbEntity
  8
0
 62
     2
100
AcDbLine
 10
432.9648519999998
 20
290.56824
 30
0.0
 11
432.9648519999998
 21
290.779703
 31
0.0
  0
LINE
  5
17D
330
6B
100
AcDbEntity
  8
0
 62
     2
100
AcDbLine
 10
433.1685779999999
 20
290.56824
 30
0.0
 11
433.1685779999999
 21
290.779703
 31
0.0
  0
LINE
  5
17E
330
6B
100
AcDbEntity
  8
0
 62
     2
100
AcDbLine
 10
421.096375
 20
286.83761
 30
0.0
 11
421.096375
 21
286.626049
 31
0.0
  0
LINE
  5
17F
330
6B
100
AcDbEntity
  8
0
 62
     2
100
AcDbLine
 10
421.096375
 20
290.779802
 30
0.0
 11
421.096375
 21
290.56824
 31
0.0
  0
ARC
  5
180
330
6B
100
AcDbEntity
  8
0
 62
     2
100
AcDbCircle
 10
439.6659679999998
 20
289.138673
 30
0.0
 40
1.641127999999999
100
AcDbArc
 50
17.308749
 51
23.765071
  0
ARC
  5
181
330
6B
100
AcDbEntity
  8
0
 62
     2
100
AcDbCircle
 10
438.267695
 20
288.702925
 30
0.0
 40
3.105725999999998
100
AcDbArc
 50
342.691251
 51
17.308566
  0
ARC
  5
182
330
6B
100
AcDbEntity
  8
0
 62
     2
100
AcDbCircle
 10
439.6659679999998
 20
288.267177
 30
0.0
 40
1.641127999999999
100
AcDbArc
 50
336.234929
 51
342.691251
  0
ARC
  5
183
330
6B
100
AcDbEntity
  8
0
 62
     2
100
AcDbCircle
 10
439.4559679999998
 20
289.138673
 30
0.0
 40
1.641127999999999
100
AcDbArc
 50
17.308749
 51
90.0
  0
ARC
  5
184
330
6B
100
AcDbEntity
  8
0
 62
     2
100
AcDbCircle
 10
438.057695
 20
288.702925
 30
0.0
 40
3.105725999999998
100
AcDbArc
 50
342.691251
 51
17.308566
  0
ARC
  5
185
330
6B
100
AcDbEntity
  8
0
 62
     2
100
AcDbCircle
 10
439.4559679999998
 20
288.267177
 30
0.0
 40
1.641127999999999
100
AcDbArc
 50
270.0
 51
342.691251
  0
ARC
  5
186
330
6B
100
AcDbEntity
  8
0
 62
     2
100
AcDbCircle
 10
429.332028
 20
288.702925
 30
0.0
 40
2.076875999999999
100
AcDbArc
 50
46.75287999999999
 51
89.749998
  0
ARC
  5
187
330
6B
100
AcDbEntity
  8
0
 62
     2
100
AcDbCircle
 10
429.332028
 20
288.702925
 30
0.0
 40
2.076875999999999
100
AcDbArc
 50
273.976333
 51
312.82312
  0
ARC
  5
188
330
6B
100
AcDbEntity
  8
0
 62
     2
100
AcDbCircle
 10
440.773836
 20
288.670864
 30
0.0
 40
2.755888999999998
100
AcDbArc
 50
0.6665840000000001
 51
23.903928
  0
ARC
  5
189
330
6B
100
AcDbEntity
  8
0
 62
     2
100
AcDbCircle
 10
444.689398
 20
288.670864
 30
0.0
 40
2.755888999999998
100
AcDbArc
 50
156.096072
 51
179.333416
  0
ARC
  5
18A
330
6B
100
AcDbEntity
  8
0
 62
     2
100
AcDbCircle
 10
440.773836
 20
288.734987
 30
0.0
 40
2.755888999999998
100
AcDbArc
 50
336.096072
 51
359.333416
  0
ARC
  5
18B
330
6B
100
AcDbEntity
  8
0
 62
     2
100
AcDbCircle
 10
444.689398
 20
288.734987
 30
0.0
 40
2.755888999999998
100
AcDbArc
 50
180.666584
 51
203.903928
  0
LINE
  5
18E
330
6B
100
AcDbEntity
  8
0
 62
     3
100
AcDbLine
 10
508.312659
 20
28.44651800000001
 30
0.0
 11
508.312659
 21
51.446518
 31
0.0
  0
LINE
  5
190
330
6B
100
AcDbEntity
  8
0
 62
     3
100
AcDbLine
 10
455.2590499999998
 20
21.446518
 30
0.0
 11
455.2590499999998
 21
35.446518
 31
0.0
  0
TEXT
  5
192
330
6B
100
AcDbEntity
  8
0
 62
     3
100
AcDbText
 10
484.3229769999998
 20
47.65163399999997
 30
0.0
 40
2.0
  1
A
 41
0.7
100
AcDbText
  0
TEXT
  5
193
330
6B
100
AcDbEntity
  8
0
 62
     3
100
AcDbText
 10
486.8582629999998
 20
47.65163399999997
 30
0.0
 40
2.0
  1
P
 41
0.7
100
AcDbText
  0
TEXT
  5
194
330
6B
100
AcDbEntity
  8
0
 62
     3
100
AcDbText
 10
489.3935500000002
 20
47.65163399999997
 30
0.0
 40
2.0
  1
P
 41
0.7
100
AcDbText
  0
TEXT
  5
195
330
6B
100
AcDbEntity
  8
0
 62
     3
100
AcDbText
 10
491.928836
 20
47.65163399999997
 30
0.0
 40
2.0
  1
D
 41
0.7
100
AcDbText
  0
TEXT
  5
196
330
6B
100
AcDbEntity
  8
0
 62
     3
100
AcDbText
 10
497.297519
 20
47.65163399999997
 30
0.0
 40
2.0
  1
C
 41
0.7
100
AcDbText
  0
TEXT
  5
197
330
6B
100
AcDbEntity
  8
0
 62
     3
100
AcDbText
 10
499.832805
 20
47.65163399999997
 30
0.0
 40
2.0
  1
H
 41
0.7
100
AcDbText
  0
TEXT
  5
198
330
6B
100
AcDbEntity
  8
0
 62
     3
100
AcDbText
 10
502.368091
 20
47.65163399999997
 30
0.0
 40
2.0
  1
C
 41
0.7
100
AcDbText
  0
TEXT
  5
199
330
6B
100
AcDbEntity
  8
0
 62
     3
100
AcDbText
 10
504.903378
 20
47.65163399999997
 30
0.0
 40
2.0
  1
K
 41
0.7
100
AcDbText
  0
TEXT
  5
19A
330
6B
100
AcDbEntity
  8
0
 62
     3
100
AcDbText
 10
510.577344
 20
47.65163399999997
 30
0.0
 40
2.0
  1
DESN
 41
1.216762999999998
100
AcDbText
  0
TEXT
  5
19B
330
6B
100
AcDbEntity
  8
0
 62
     3
100
AcDbText
 10
425.5709849999998
 20
18.30513599999999
 30
0.0
 40
2.0
  1
NICHIDO IND.CO.LTD
 41
1.274876
100
AcDbText
  0
LINE
  5
19C
330
6B
100
AcDbEntity
  8
0
 62
     3
100
AcDbLine
 10
435.9540149999999
 20
51.446518
 30
0.0
 11
435.9540149999999
 21
28.44651800000001
 31
0.0
  0
LINE
  5
19D
330
6B
100
AcDbEntity
  8
0
 62
     3
100
AcDbLine
 10
482.3126589999993
 20
51.44651799999999
 30
0.0
 11
482.312659
 21
11.780796
 31
0.0
  0
LINE
  5
1A2
330
6B
100
AcDbEntity
  8
0
 62
     3
100
AcDbLine
 10
495.312659
 20
51.44651799999999
 30
0.0
 11
495.312659
 21
21.446518
 31
0.0
  0
TEXT
  5
1A3
330
6B
100
AcDbEntity
  8
0
 62
     3
100
AcDbText
 10
483.4251039999998
 20
22.311205
 30
0.0
 40
3.2
  1
作成日
 41
1.017225999999997
100
AcDbText
  0
LINE
  5
1A4
330
6B
100
AcDbEntity
  8
0
 62
     3
100
AcDbLine
 10
534.012023
 20
51.446518
 30
0.0
 11
422.7085800000002
 21
51.446518
 31
0.0
  0
LINE
  5
1A5
330
6B
100
AcDbEntity
  8
0
 62
     3
100
AcDbLine
 10
521.3126589999998
 20
28.44651800000001
 30
0.0
 11
521.3126589999998
 21
51.446518
 31
0.0
  0
TEXT
  5
1A6
330
6B
100
AcDbEntity
  8
0
 62
     3
100
AcDbText
 10
524.636462
 20
47.73745299999998
 30
0.0
 40
1.8
  1
D
 41
0.666667
100
AcDbText
  0
TEXT
  5
1A7
330
6B
100
AcDbEntity
  8
0
 62
     3
100
AcDbText
 10
527.453091
 20
47.73745299999998
 30
0.0
 40
1.8
  1
E
 41
0.666667
100
AcDbText
  0
TEXT
  5
1A8
330
6B
100
AcDbEntity
  8
0
 62
     3
100
AcDbText
 10
530.2697189999999
 20
47.73745299999998
 30
0.0
 40
1.8
  1
F
 41
0.666667
100
AcDbText
  0
TEXT
  5
1A9
330
6B
100
AcDbEntity
  8
0
 62
     3
100
AcDbText
 10
524.636462
 20
43.74489899999999
 30
0.0
 40
3.2
  1
製図
 41
1.076369
100
AcDbText
  0
LINE
  5
1AA
330
6B
100
AcDbEntity
  8
0
 62
     3
100
AcDbLine
 10
422.7085800000002
 20
51.446518
 30
0.0
 11
422.7085800000002
 21
11.780796
 31
0.0
  0
TEXT
  5
1AB
330
6B
100
AcDbEntity
  8
0
 62
     3
100
AcDbText
 10
424.085233
 20
12.113261
 30
0.0
 40
5.0
  1
日動工業株式会社
 41
0.833333
100
AcDbText
  0
LINE
  5
1AC
330
6B
100
AcDbEntity
  8
0
 62
     3
100
AcDbLine
 10
465.5909840000001
 20
35.446518
 30
0.0
 11
465.5909840000001
 21
11.780796
 31
0.0
  0
LINE
  5
1AD
330
6B
100
AcDbEntity
  8
0
 62
     3
100
AcDbLine
 10
465.5909840000001
 20
16.613657
 30
0.0
 11
482.312659
 21
16.613657
 31
0.0
  0
TEXT
  5
1AE
330
6B
100
AcDbEntity
  8
0
 62
     3
100
AcDbText
 10
466.177586
 20
17.430087
 30
0.0
 40
3.2
  1
出図コード
 41
0.8356860000000001
100
AcDbText
  0
LINE
  5
1B0
330
6B
100
AcDbEntity
  8
0
 62
     3
100
AcDbLine
 10
422.7085800000002
 20
21.446518
 30
0.0
 11
534.012023
 21
21.446518
 31
0.0
  0
LINE
  5
1B2
330
6B
100
AcDbEntity
  8
0
 62
     3
100
AcDbLine
 10
422.7085800000002
 20
42.44651799999996
 30
0.0
 11
534.012023
 21
42.44651799999997
 31
0.0
  0
LINE
  5
1B8
330
6B
100
AcDbEntity
  8
0
 62
     3
100
AcDbLine
 10
422.7085800000002
 20
35.446518
 30
0.0
 11
482.312659
 21
35.446518
 31
0.0
  0
LINE
  5
1BE
330
6B
100
AcDbEntity
  8
0
 62
     3
100
AcDbLine
 10
422.7085800000002
 20
28.44651800000001
 30
0.0
 11
534.012023
 21
28.44651800000001
 31
0.0
  0
TEXT
  5
1BF
330
6B
100
AcDbEntity
  8
0
 62
     3
100
AcDbText
 10
466.0450380000001
 20
12.38299
 30
0.0
 40
3.2
  1
ZK-A4Y
 41
0.8112849999999999
100
AcDbText
  0
LINE
  5
1C0
330
6B
100
AcDbEntity
  8
0
 62
     3
100
AcDbLine
 10
354.012023
 20
288.780796
 30
0.0
 11
354.012023
 21
11.780796
 31
0.0
  0
LINE
  5
1C1
330
6B
100
AcDbEntity
  8
0
 62
     3
100
AcDbLine
 10
534.012023
 20
11.780796
 30
0.0
 11
534.012023
 21
288.780796
 31
0.0
  0
LINE
  5
1C2
330
6B
100
AcDbEntity
  8
0
 62
     3
100
AcDbLine
 10
534.012023
 20
11.780796
 30
0.0
 11
354.012023
 21
11.780796
 31
0.0
  0
TEXT
  5
1C7
330
6B
100
AcDbEntity
  8
0
 62
     3
100
AcDbText
 10
424.5259769999998
 20
47.616044
 30
0.0
 40
2.0
  1
CONPONENTS
 41
0.5331600000000001
100
AcDbText
  0
TEXT
  5
1C8
330
6B
100
AcDbEntity
  8
0
 62
     3
100
AcDbText
 10
424.17625
 20
28.683867
 30
0.0
 40
3.0
  1
材
 41
0.833333
100
AcDbText
  0
TEXT
  5
1C9
330
6B
100
AcDbEntity
  8
0
 62
     3
100
AcDbText
 10
431.7118930000001
 20
28.683867
 30
0.0
 40
3.0
  1
質
 41
0.833333
100
AcDbText
  0
TEXT
  5
1CA
330
6B
100
AcDbEntity
  8
0
 62
     3
100
AcDbText
 10
424.2643210000001
 20
39.308392
 30
0.0
 40
2.0
  1
MODEL
 41
1.031072999999999
100
AcDbText
  0
TEXT
  5
1CB
330
6B
100
AcDbEntity
  8
0
 62
     3
100
AcDbText
 10
424.17625
 20
32.366175
 30
0.0
 40
2.0
  1
MATERIAL
 41
0.659278
100
AcDbText
  0
TEXT
  5
1CC
330
6B
100
AcDbEntity
  8
0
 62
     3
100
AcDbText
 10
455.4835309999998
 20
28.683867
 30
0.0
 40
3.0
  1
備
 41
0.833333
100
AcDbText
  0
TEXT
  5
1CD
330
6B
100
AcDbEntity
  8
0
 62
     3
100
AcDbText
 10
462.216533
 20
28.683867
 30
0.0
 40
3.0
  1
考
 41
0.833333
100
AcDbText
  0
TEXT
  5
1CE
330
6B
100
AcDbEntity
  8
0
 62
     3
100
AcDbText
 10
455.8540255915771
 20
32.366175
 30
0.0
 40
2.0
  1
REMARKS
 41
0.675794
100
AcDbText
  0
TEXT
  5
1CF
330
6B
100
AcDbEntity
  8
0
 62
     3
100
AcDbText
 10
425.7659789999998
 20
25.446055
 30
0.0
 40
2.0
  1
3AD
 41
1.42614
100
AcDbText
  0
TEXT
  5
1D0
330
6B
100
AcDbEntity
  8
0
 62
     3
100
AcDbText
 10
435.0769590000001
 20
25.611788
 30
0.0
 40
2.0
  1
ANGLE
 41
1.669883999999995
100
AcDbText
  0
TEXT
  5
1D1
330
6B
100
AcDbEntity
  8
0
 62
     3
100
AcDbText
 10
456.0108460000001
 20
25.234947
 30
0.0
 40
2.0
  1
SCALE
 41
0.7719630000000001
100
AcDbText
  0
TEXT
  5
1D2
330
6B
100
AcDbEntity
  8
0
 62
     3
100
AcDbText
 10
425.4521089999998
 20
21.446518
 30
0.0
 40
3.0
  1
第
 41
0.833333
100
AcDbText
  0
TEXT
  5
1D3
330
6B
100
AcDbEntity
  8
0
 62
     3
100
AcDbText
 10
433.238959
 20
21.446518
 30
0.0
 40
3.0
  1
三
 41
0.833333
100
AcDbText
  0
TEXT
  5
1D4
330
6B
100
AcDbEntity
  8
0
 62
     3
100
AcDbText
 10
441.0258090000001
 20
21.446518
 30
0.0
 40
3.0
  1
角
 41
0.833333
100
AcDbText
  0
TEXT
  5
1D5
330
6B
100
AcDbEntity
  8
0
 62
     3
100
AcDbText
 10
448.812659
 20
21.446518
 30
0.0
 40
3.0
  1
法
 41
0.833333
100
AcDbText
  0
TEXT
  5
1D6
330
6B
100
AcDbEntity
  8
0
 62
     3
100
AcDbText
 10
455.8740509999998
 20
21.734947
 30
0.0
 40
3.0
  1
尺
 41
0.833333
100
AcDbText
  0
TEXT
  5
1D7
330
6B
100
AcDbEntity
  8
0
 62
     3
100
AcDbText
 10
462.6070529999998
 20
21.734947
 30
0.0
 40
3.0
  1
度
 41
0.833333
100
AcDbText
  0
TEXT
  5
1D8
330
6B
100
AcDbEntity
  8
0
 62
     3
100
AcDbText
 10
485.190323
 20
43.90424699999999
 30
0.0
 40
3.0
  1
承認
 41
1.089472999999999
100
AcDbText
  0
TEXT
  5
1D9
330
6B
100
AcDbEntity
  8
0
 62
     3
100
AcDbText
 10
498.4332039999999
 20
43.84651799999999
 30
0.0
 40
3.0
  1
検図
 41
0.931761
100
AcDbText
  0
TEXT
  5
1DA
330
6B
100
AcDbEntity
  8
0
 62
     3
100
AcDbText
 10
511.4336
 20
43.84651799999999
 30
0.0
 40
3.0
  1
設
 41
0.833333
100
AcDbText
  0
TEXT
  5
1DB
330
6B
100
AcDbEntity
  8
0
 62
     3
100
AcDbText
 10
515.9234679999998
 20
43.84651799999999
 30
0.0
 40
3.0
  1
計
 41
0.833333
100
AcDbText
  0
TEXT
  5
1DC
330
6B
100
AcDbEntity
  8
0
 62
     3
100
AcDbText
 10
424.4574489999997
 20
43.135274
 30
0.0
 40
3.0
  1
品
 41
0.833333
100
AcDbText
  0
TEXT
  5
1DD
330
6B
100
AcDbEntity
  8
0
 62
     3
100
AcDbText
 10
431.993091
 20
43.135274
 30
0.0
 40
3.0
  1
名
 41
0.833333
100
AcDbText
  0
TEXT
  5
1DE
330
6B
100
AcDbEntity
  8
0
 62
     3
100
AcDbText
 10
424.2643210000001
 20
35.676132
 30
0.0
 40
3.0
  1
型
 41
0.833333
100
AcDbText
  0
TEXT
  5
1DF
330
6B
100
AcDbEntity
  8
0
 62
     3
100
AcDbText
 10
431.812412
 20
35.676132
 30
0.0
 40
3.0
  1
式
 41
0.833333
100
AcDbText
  0
LINE
  5
1E0
330
6B
100
AcDbEntity
  8
0
 62
     3
100
AcDbLine
 10
449.3396849999998
 20
288.780796
 30
0.0
 11
534.012023
 21
288.780796
 31
0.0
  0
LINE
  5
1E1
330
6B
100
AcDbEntity
  8
0
 62
     3
100
AcDbLine
 10
415.926939
 20
288.780796
 30
0.0
 11
354.012023
 21
288.780796
 31
0.0
  0
LINE
  5
1E3
330
6B
100
AcDbEntity
  8
0
 62
     7
100
AcDbLine
 10
460.517456
 20
284.275407
 30
0.0
 11
460.517456
 21
269.4254069999999
 31
0.0
  0
LINE
  5
1E4
330
6B
100
AcDbEntity
  8
0
 62
     7
100
AcDbLine
 10
534.012023
 20
274.375407
 30
0.0
 11
450.412023
 21
274.375407
 31
0.0
  0
LINE
  5
1E5
330
6B
100
AcDbEntity
  8
0
 62
     7
100
AcDbLine
 10
522.4144980000001
 20
284.275407
 30
0.0
 11
522.4144980000001
 21
269.4254069999999
 31
0.0
  0
LINE
  5
1E6
330
6B
100
AcDbEntity
  8
0
 62
     7
100
AcDbLine
 10
478.122782
 20
284.275407
 30
0.0
 11
478.122782
 21
269.4254069999999
 31
0.0
  0
LINE
  5
1E8
330
6B
100
AcDbEntity
  8
0
 62
     7
100
AcDbLine
 10
450.412023
 20
279.325407
 30
0.0
 11
534.012023
 21
279.325407
 31
0.0
  0
TEXT
  5
1E9
330
6B
100
AcDbEntity
  8
0
 62
     3
100
AcDbText
 10
470.1021296839266
 20
22.33451500000001
 30
0.0
 40
3.2
  1
1/1
  7
高3.2
100
AcDbText
  0
TEXT
  5
1EA
330
6B
100
AcDbEntity
  8
0
 62
     3
100
AcDbText
 10
468.459344
 20
28.999568
 30
0.0
 40
3.2
  1
交換球
  7
高3.2
100
AcDbText
  0
LINE
  5
1FF
330
6B
100
AcDbEntity
  8
0
 62
     7
100
AcDbLine
 10
455.2297269999998
 20
278.586162
 30
0.0
 11
453.3297269999998
 21
275.295265
 31
0.0
  0
LINE
  5
200
330
6B
100
AcDbEntity
  8
0
 62
     7
100
AcDbLine
 10
455.2297269999998
 20
278.586162
 30
0.0
 11
457.1297269999998
 21
275.295265
 31
0.0
  0
LINE
  5
201
330
6B
100
AcDbEntity
  8
0
 62
     7
100
AcDbLine
 10
453.3297269999998
 20
275.295265
 30
0.0
 11
457.1297269999998
 21
275.295265
 31
0.0
  0
LINE
  5
202
330
6B
100
AcDbEntity
  8
0
 62
     7
100
AcDbLine
 10
455.2297269999998
 20
273.429952
 30
0.0
 11
453.3297269999998
 21
270.139055
 31
0.0
  0
LINE
  5
203
330
6B
100
AcDbEntity
  8
0
 62
     7
100
AcDbLine
 10
455.2297269999998
 20
273.429952
 30
0.0
 11
457.1297269999998
 21
270.139055
 31
0.0
  0
LINE
  5
204
330
6B
100
AcDbEntity
  8
0
 62
     7
100
AcDbLine
 10
453.3297269999998
 20
270.139055
 30
0.0
 11
457.1297269999998
 21
270.139055
 31
0.0
  0
TEXT
  5
237
330
6B
100
AcDbEntity
  8
0
 62
     3
100
AcDbText
 10
437.3786309999998
 20
43.33742199999998
 30
0.0
 40
4.5
  1
LEDフロスト電球
 41
0.8
  7
高4.5
100
AcDbText
  0
LINE
  5
30A
330
6B
100
AcDbEntity
  8
0
 62
     3
100
AcDbLine
 10
508.312659
 20
51.446518
 30
0.0
 11
508.312659
 21
57.44651799999999
 31
0.0
  0
LINE
  5
30B
330
6B
100
AcDbEntity
  8
0
 62
     3
100
AcDbLine
 10
482.312659
 20
51.446518
 30
0.0
 11
482.312659
 21
57.44651799999999
 31
0.0
  0
LINE
  5
30C
330
6B
100
AcDbEntity
  8
0
 62
     3
100
AcDbLine
 10
534.012023
 20
57.44651799999999
 30
0.0
 11
482.312659
 21
57.44651799999999
 31
0.0
  0
TEXT
  5
30D
330
6B
100
AcDbEntity
  8
0
 62
     3
100
AcDbText
 10
488.3082579999999
 20
52.242867
 30
0.0
 40
4.5
  1
コード
  7
高4.5
100
AcDbText
  0
TEXT
  5
341
330
6B
100
AcDbEntity
  8
0
 62
     3
100
AcDbText
 10
437.4690898427206
 20
36.060888
 30
0.0
 40
4.5
  1
LFC16W-65K
  7
高4.5
100
AcDbText
  0
TEXT
  5
342
330
6B
100
AcDbEntity
  8
0
 62
     3
100
AcDbText
 10
484.3665924173187
 20
12.87320070709222
 30
0.0
 40
6.299999999999998
  1
LFC16W-65K
 41
0.8
  7
高6.3
100
AcDbText
  0
TEXT
  5
343
330
6B
100
AcDbEntity
  8
0
 62
     3
100
AcDbText
 10
498.8962080000002
 20
22.220934
 30
0.0
 40
3.2
  1
2016.08.29
  7
高3.2
100
AcDbText
  0
TEXT
  5
344
330
6B
100
AcDbEntity
  8
0
 62
     3
100
AcDbText
 10
512.9141374872099
 20
52.09007243369808
 30
0.0
 40
4.5
  1
13111
  7
高4.5
100
AcDbText
  0
LINE
  5
16A5
330
6B
100
AcDbEntity
  8
0
 62
     7
100
AcDbLine
 10
453.3440955525763
 20
114.3013038956365
 30
0.0
 11
522.077034714716
 21
114.3013038956365
 31
0.0
  0
LINE
  5
16A6
330
6B
100
AcDbEntity
  8
0
 62
     7
100
AcDbLine
 10
453.3440955525763
 20
119.8013038956366
 30
0.0
 11
522.077034714716
 21
119.8013038956366
 31
0.0
  0
LINE
  5
16A8
330
6B
100
AcDbEntity
  8
0
 62
     7
100
AcDbLine
 10
453.3440955525763
 20
125.3013038956366
 30
0.0
 11
522.077034714716
 21
125.3013038956366
 31
0.0
  0
LINE
  5
16A9
330
6B
100
AcDbEntity
  8
0
 62
     7
100
AcDbLine
 10
463.7350860222452
 20
130.8013038956366
 30
0.0
 11
522.077034714716
 21
130.8013038956366
 31
0.0
  0
LINE
  5
16AA
330
6B
100
AcDbEntity
  8
0
 62
     7
100
AcDbLine
 10
463.7350860222452
 20
136.3013038956367
 30
0.0
 11
522.077034714716
 21
136.3013038956367
 31
0.0
  0
LINE
  5
16AB
330
6B
100
AcDbEntity
  8
0
 62
     7
100
AcDbLine
 10
463.7350860222452
 20
141.8013038956366
 30
0.0
 11
522.077034714716
 21
141.8013038956366
 31
0.0
  0
LINE
  5
16AC
330
6B
100
AcDbEntity
  8
0
 62
     7
100
AcDbLine
 10
463.7350860222452
 20
147.3013038956367
 30
0.0
 11
522.077034714716
 21
147.3013038956367
 31
0.0
  0
LINE
  5
16AD
330
6B
100
AcDbEntity
  8
0
 62
     7
100
AcDbLine
 10
453.3440955525763
 20
152.8013038956367
 30
0.0
 11
522.077034714716
 21
152.8013038956367
 31
0.0
  0
LINE
  5
16AE
330
6B
100
AcDbEntity
  8
0
 62
     7
100
AcDbLine
 10
453.3440955525763
 20
158.3013038956366
 30
0.0
 11
522.077034714716
 21
158.3013038956366
 31
0.0
  0
LINE
  5
16AF
330
6B
100
AcDbEntity
  8
0
 62
     7
100
AcDbLine
 10
453.3440955525763
 20
163.8013038956367
 30
0.0
 11
522.077034714716
 21
163.8013038956367
 31
0.0
  0
LINE
  5
16B0
330
6B
100
AcDbEntity
  8
0
 62
     7
100
AcDbLine
 10
453.3440955525763
 20
169.3013038956367
 30
0.0
 11
522.077034714716
 21
169.3013038956367
 31
0.0
  0
LINE
  5
16B1
330
6B
100
AcDbEntity
  8
0
 62
     7
100
AcDbLine
 10
453.3440955525763
 20
174.8013038956367
 30
0.0
 11
522.077034714716
 21
174.8013038956367
 31
0.0
  0
LINE
  5
16B2
330
6B
100
AcDbEntity
  8
0
 62
     7
100
AcDbLine
 10
453.3440955525763
 20
180.3013038956367
 30
0.0
 11
522.077034714716
 21
180.3013038956367
 31
0.0
  0
LINE
  5
16B3
330
6B
100
AcDbEntity
  8
0
 62
     7
100
AcDbLine
 10
453.3440955525763
 20
185.8013038956367
 30
0.0
 11
522.077034714716
 21
185.8013038956367
 31
0.0
  0
LINE
  5
16B4
330
6B
100
AcDbEntity
  8
0
 62
     7
100
AcDbLine
 10
453.3440955525763
 20
191.3013038956367
 30
0.0
 11
522.077034714716
 21
191.3013038956367
 31
0.0
  0
TEXT
  5
16B7
330
6B
100
AcDbEntity
  8
0
 62
     3
100
AcDbText
 10
454.8440955525763
 20
120.8013038956365
 30
0.0
 40
3.2
  1
球　寿　命
 41
0.8
  7
高3.2
100
AcDbText
  0
TEXT
  5
16B8
330
6B
100
AcDbEntity
  8
0
 62
     3
100
AcDbText
 10
454.8440955525763
 20
115.3013038956365
 30
0.0
 40
3.2
  1
使用環境温度
 41
0.8
  7
高3.2
100
AcDbText
  0
TEXT
  5
16BA
330
6B
100
AcDbEntity
  8
0
 62
     3
100
AcDbText
 10
454.8440955525763
 20
153.8013038956366
 30
0.0
 40
3.2
  1
固有エネルギー消費効率
 41
0.4
  7
高3.2
100
AcDbText
  0
TEXT
  5
16BB
330
6B
100
AcDbEntity
  8
0
 62
     3
100
AcDbText
 10
454.8440955525763
 20
159.3013038956367
 30
0.0
 40
3.2
  1
定格消費電力
 41
0.8
  7
高3.2
100
AcDbText
  0
TEXT
  5
16BC
330
6B
100
AcDbEntity
  8
0
 62
     3
100
AcDbText
 10
454.8440955525763
 20
164.8013038956366
 30
0.0
 40
3.2
  1
定格　電流
 41
0.8
  7
高3.2
100
AcDbText
  0
TEXT
  5
16BD
330
6B
100
AcDbEntity
  8
0
 62
     3
100
AcDbText
 10
454.8440955525763
 20
170.3013038956367
 30
0.0
 40
3.2
  1
入力電圧範囲
 41
0.8
  7
高3.2
100
AcDbText
  0
TEXT
  5
16BF
330
6B
100
AcDbEntity
  8
0
 62
     3
100
AcDbText
 10
454.8440955525762
 20
175.8013038956366
 30
0.0
 40
3.2
  1
定格　電圧
 41
0.8
  7
高3.2
100
AcDbText
  0
TEXT
  5
16C0
330
6B
100
AcDbEntity
  8
0
 62
     3
100
AcDbText
 10
454.8440955525762
 20
181.3013038956366
 30
0.0
 40
3.2
  1
照射　角度
 41
0.8
  7
高3.2
100
AcDbText
  0
TEXT
  5
16C1
330
6B
100
AcDbEntity
  8
0
 62
     3
100
AcDbText
 10
454.8440955525762
 20
192.3013038956366
 30
0.0
 40
3.2
  1
色　温　度
 41
0.8
  7
高3.2
100
AcDbText
  0
TEXT
  5
16C2
330
6B
100
AcDbEntity
  8
0
 62
     3
100
AcDbText
 10
454.8440955525762
 20
197.8013038956366
 30
0.0
 40
3.2
  1
定格　光束
 41
0.8
  7
高3.2
100
AcDbText
  0
TEXT
  5
16C3
330
6B
100
AcDbEntity
  8
0
 62
     3
100
AcDbText
 10
454.8440955525762
 20
203.3013038956366
 30
0.0
 40
3.2
  1
光　　　源
 41
0.8
  7
高3.2
100
AcDbText
  0
TEXT
  5
16C4
330
6B
100
AcDbEntity
  8
0
 62
     3
100
AcDbText
 10
454.8440955525762
 20
219.8013038956367
 30
0.0
 40
3.2
  1
本　体　色
 41
0.8
  7
高3.2
100
AcDbText
  0
TEXT
  5
16C5
330
6B
100
AcDbEntity
  8
0
 62
     3
100
AcDbText
 10
454.8440955525762
 20
186.8013038956366
 30
0.0
 40
3.2
  1
平均演色評価数
 41
0.6
  7
高3.2
100
AcDbText
  0
TEXT
  5
16C6
330
6B
100
AcDbEntity
  8
0
 62
     3
100
AcDbText
 10
454.8440955525763
 20
148.3013038956366
 30
0.0
 40
3.2
  1
照度
 41
0.8
  7
高3.2
100
AcDbText
  0
LINE
  5
16C7
330
6B
100
AcDbEntity
  8
0
 62
     7
100
AcDbLine
 10
453.3440955525763
 20
196.8013038956367
 30
0.0
 11
522.077034714716
 21
196.8013038956367
 31
0.0
  0
LINE
  5
16C8
330
6B
100
AcDbEntity
  8
0
 62
     7
100
AcDbLine
 10
453.3440955525763
 20
202.3013038956368
 30
0.0
 11
522.077034714716
 21
202.3013038956368
 31
0.0
  0
LINE
  5
16C9
330
6B
100
AcDbEntity
  8
0
 62
     7
100
AcDbLine
 10
453.3440955525763
 20
207.8013038956367
 30
0.0
 11
522.077034714716
 21
207.8013038956367
 31
0.0
  0
LINE
  5
16CA
330
6B
100
AcDbEntity
  8
0
 62
     7
100
AcDbLine
 10
453.3440955525763
 20
218.8013038956369
 30
0.0
 11
522.077034714716
 21
218.8013038956369
 31
0.0
  0
LINE
  5
16CD
330
6B
100
AcDbEntity
  8
0
 62
     7
100
AcDbLine
 10
453.3440955525763
 20
224.3013038956367
 30
0.0
 11
522.0770347147159
 21
224.3013038956367
 31
0.0
  0
LINE
  5
16CE
330
6B
100
AcDbEntity
  8
0
100
AcDbLine
 10
463.7350860222452
 20
152.8013038956367
 30
0.0
 11
463.7350860222452
 21
125.3013038956366
 31
0.0
  0
TEXT
  5
16CF
330
6B
100
AcDbEntity
  8
0
 62
     3
100
AcDbText
 10
465.2350860222443
 20
148.3013038956366
 30
0.0
 40
3.2
  1
1m
 41
0.8
  7
高3.2
100
AcDbText
  0
TEXT
  5
16D0
330
6B
100
AcDbEntity
  8
0
 62
     3
100
AcDbText
 10
465.2350860222443
 20
142.8013038956367
 30
0.0
 40
3.2
  1
2m
 41
0.8
  7
高3.2
100
AcDbText
  0
TEXT
  5
16D1
330
6B
100
AcDbEntity
  8
0
 62
     3
100
AcDbText
 10
465.2350860222443
 20
137.3013038956366
 30
0.0
 40
3.2
  1
3m
 41
0.8
  7
高3.2
100
AcDbText
  0
TEXT
  5
16D2
330
6B
100
AcDbEntity
  8
0
 62
     3
100
AcDbText
 10
465.2350860222443
 20
131.8013038956367
 30
0.0
 40
3.2
  1
4m
 41
0.8
  7
高3.2
100
AcDbText
  0
TEXT
  5
16D3
330
6B
100
AcDbEntity
  8
0
 62
     3
100
AcDbText
 10
465.2350860222443
 20
126.3013038956367
 30
0.0
 40
3.2
  1
5m
 41
0.8
  7
高3.2
100
AcDbText
  0
LINE
  5
16D4
330
6B
100
AcDbEntity
  8
0
 62
     3
100
AcDbLine
 10
453.3440955525763
 20
108.8013038956368
 30
0.0
 11
522.077034714716
 21
108.8013038956368
 31
0.0
  0
TEXT
  5
16D6
330
6B
100
AcDbEntity
  8
0
 62
     3
100
AcDbText
 10
476.292653220844
 20
219.8013038956367
 30
0.0
 40
3.2
  1
白
  7
高3.2
100
AcDbText
  0
TEXT
  5
16D7
330
6B
100
AcDbEntity
  8
0
 62
     3
100
AcDbText
 10
476.292653220844
 20
203.3013038956366
 30
0.0
 40
3.2
  1
LED 16W
  7
高3.2
100
AcDbText
  0
TEXT
  5
16D8
330
6B
100
AcDbEntity
  8
0
 62
     3
100
AcDbText
 10
476.292653220844
 20
197.8013038956366
 30
0.0
 40
3.2
  1
1600Lm
  7
高3.2
100
AcDbText
  0
TEXT
  5
16D9
330
6B
100
AcDbEntity
  8
0
 62
     3
100
AcDbText
 10
476.292653220844
 20
192.3013038956366
 30
0.0
 40
3.2
  1
6500K
  7
高3.2
100
AcDbText
  0
TEXT
  5
16DA
330
6B
100
AcDbEntity
  8
0
 62
     3
100
AcDbText
 10
476.292653220844
 20
186.8013038956366
 30
0.0
 40
3.2
  1
Ra83
  7
高3.2
100
AcDbText
  0
TEXT
  5
16DB
330
6B
100
AcDbEntity
  8
0
 62
     3
100
AcDbText
 10
476.292653220844
 20
181.3013038956366
 30
0.0
 40
3.2
  1
300\U+00B0
  7
高3.2
100
AcDbText
  0
TEXT
  5
16DC
330
6B
100
AcDbEntity
  8
0
 62
     3
100
AcDbText
 10
476.292653220844
 20
175.8013038956366
 30
0.0
 40
3.2
  1
AC100V(50/60Hz)
  7
高3.2
100
AcDbText
  0
TEXT
  5
16DE
330
6B
100
AcDbEntity
  8
0
 62
     3
100
AcDbText
 10
476.2926532208441
 20
170.3013038956367
 30
0.0
 40
3.2
  1
AC90～110V
  7
高3.2
100
AcDbText
  0
TEXT
  5
16DF
330
6B
100
AcDbEntity
  8
0
 62
     3
100
AcDbText
 10
476.2926532208441
 20
164.8013038956366
 30
0.0
 40
3.2
  1
0.2A
  7
高3.2
100
AcDbText
  0
TEXT
  5
16E0
330
6B
100
AcDbEntity
  8
0
 62
     3
100
AcDbText
 10
476.2926532208441
 20
159.3013038956367
 30
0.0
 40
3.2
  1
17.4W
  7
高3.2
100
AcDbText
  0
TEXT
  5
16E1
330
6B
100
AcDbEntity
  8
0
 62
     3
100
AcDbText
 10
476.2926532208441
 20
153.8013038956366
 30
0.0
 40
3.2
  1
91.9Lm/W
  7
高3.2
100
AcDbText
  0
TEXT
  5
16E2
330
6B
100
AcDbEntity
  8
0
 62
     3
100
AcDbText
 10
476.2926532208441
 20
148.3013038956366
 30
0.0
 40
3.2
  1
上:100／横180Lx
  7
高3.2
100
AcDbText
  0
TEXT
  5
16E3
330
6B
100
AcDbEntity
  8
0
 62
     3
100
AcDbText
 10
476.2926532208441
 20
142.8013038956367
 30
0.0
 40
3.2
  1
上:30／横50Lx
  7
高3.2
100
AcDbText
  0
TEXT
  5
16E4
330
6B
100
AcDbEntity
  8
0
 62
     3
100
AcDbText
 10
476.2926532208441
 20
137.3013038956366
 30
0.0
 40
3.2
  1
上:15／横25Lx
  7
高3.2
100
AcDbText
  0
TEXT
  5
16E5
330
6B
100
AcDbEntity
  8
0
 62
     3
100
AcDbText
 10
476.2926532208441
 20
131.8013038956367
 30
0.0
 40
3.2
  1
上:10／横15Lx
  7
高3.2
100
AcDbText
  0
TEXT
  5
16E6
330
6B
100
AcDbEntity
  8
0
 62
     3
100
AcDbText
 10
476.2926532208441
 20
126.3013038956367
 30
0.0
 40
3.2
  1
上:5／横10Lx
  7
高3.2
100
AcDbText
  0
TEXT
  5
16E8
330
6B
100
AcDbEntity
  8
0
 62
     3
100
AcDbText
 10
476.2926532208441
 20
120.8013038956365
 30
0.0
 40
3.2
  1
25000H
  7
高3.2
100
AcDbText
  0
TEXT
  5
16E9
330
6B
100
AcDbEntity
  8
0
 62
     3
100
AcDbText
 10
476.2926532208441
 20
115.3013038956365
 30
0.0
 40
3.2
  1
-20～40℃
  7
高3.2
100
AcDbText
  0
LINE
  5
16EA
330
6B
100
AcDbEntity
  8
0
 62
     3
100
AcDbLine
 10
453.3440955525763
 20
229.8013038956367
 30
0.0
 11
453.3440955525763
 21
108.8013038956368
 31
0.0
  0
LINE
  5
16EB
330
6B
100
AcDbEntity
  8
0
 62
     7
100
AcDbLine
 10
474.7926532208441
 20
108.8013038956368
 30
0.0
 11
474.792653220844
 21
229.8013038956367
 31
0.0
  0
LINE
  5
16EC
330
6B
100
AcDbEntity
  8
0
 62
     3
100
AcDbLine
 10
522.077034714716
 20
108.8013038956368
 30
0.0
 11
522.0770347147159
 21
229.8013038956367
 31
0.0
  0
TEXT
  5
16ED
330
6B
100
AcDbEntity
  8
0
 62
     3
100
AcDbText
 10
470.5557733122735
 20
234.5351157726667
 30
0.0
 40
4.5
  1
主　　仕　　様
  7
高4.5
100
AcDbText
  0
LINE
  5
16EE
330
6B
100
AcDbEntity
  8
0
100
AcDbLine
 10
469.4548589445195
 20
233.6693626888239
 30
0.0
 11
508.0470792242055
 21
233.6693626888239
 31
0.0
  0
TEXT
  5
16EF
330
6B
100
AcDbEntity
  8
0
 62
     7
100
AcDbText
 10
452.2141852164993
 20
98.52543985520089
 30
0.0
 40
2.0
  1
注３）照度は当社実測値の為、使用環境下により異なります。
  7
高2
100
AcDbText
  0
TEXT
  5
16F0
330
6B
100
AcDbEntity
  8
0
 62
     7
100
AcDbText
 10
452.2141852164993
 20
95.52543985520088
 30
0.0
 40
2.0
  1
注４）球寿命は光束が70%%%に低下するまでの時間です。
  7
高2
100
AcDbText
  0
TEXT
  5
16F1
330
6B
100
AcDbEntity
  8
0
 62
     7
100
AcDbText
 10
452.2141852164993
 20
92.52543985520089
 30
0.0
 40
2.0
  1
　　　表示は設計値であり、製品の寿命を保証するものではありません。
  7
高2
100
AcDbText
  0
TEXT
  5
16F3
330
6B
100
AcDbEntity
  8
0
 62
     7
100
AcDbText
 10
452.2141852164993
 20
101.5254398552009
 30
0.0
 40
2.0
  1
注２）LEDの光色、明るさにはバラツキがあります。
  7
高2
100
AcDbText
  0
TEXT
  5
16F4
330
6B
100
AcDbEntity
  8
0
 62
     7
100
AcDbText
 10
452.2141852164993
 20
104.5254398552009
 30
0.0
 40
2.0
  1
注１）当器具のLED素子交換はできません。
  7
高2
100
AcDbText
  0
TEXT
  5
16F5
330
6B
100
AcDbEntity
  8
0
 62
     7
100
AcDbText
 10
452.2141852164993
 20
89.52543985520089
 30
0.0
 40
2.0
  1
注５）安全にご使用いただくため、取扱説明書をご参照ください。
  7
高2
100
AcDbText
  0
TEXT
  5
16F6
330
6B
100
AcDbEntity
  8
0
 62
     3
100
AcDbText
 10
454.8440955525762
 20
225.3013038956368
 30
0.0
 40
3.2
  1
型　　　式
 41
0.8
  7
高3.2
100
AcDbText
  0
LINE
  5
16F7
330
6B
100
AcDbEntity
  8
0
 62
     3
100
AcDbLine
 10
453.3440955525763
 20
229.8013038956367
 30
0.0
 11
522.0770347147159
 21
229.8013038956367
 31
0.0
  0
TEXT
  5
16F8
330
6B
100
AcDbEntity
  8
0
 62
     3
100
AcDbText
 10
476.292653220844
 20
225.3013038956368
 30
0.0
 40
3.2
  1
LFC16W-65K
  7
高3.2
100
AcDbText
  0
TEXT
  5
16F9
330
6B
100
AcDbEntity
  8
0
 62
     7
100
AcDbText
 10
452.2141852164993
 20
86.52543985520088
 30
0.0
 40
2.0
  1
注６）仕様変更は予告なく行う場合があります。予めご了承ください。
  7
高2
100
AcDbText
  0
TEXT
  5
16FA
330
6B
100
AcDbEntity
  8
0
 62
     3
100
AcDbText
 10
454.8440955525762
 20
208.8013038956367
 30
0.0
 40
3.2
  1
口金サイズ
 41
0.8
  7
高3.2
100
AcDbText
  0
LINE
  5
16FB
330
6B
100
AcDbEntity
  8
0
 62
     7
100
AcDbLine
 10
453.3440955525763
 20
213.3013038956367
 30
0.0
 11
522.077034714716
 21
213.3013038956367
 31
0.0
  0
TEXT
  5
16FC
330
6B
100
AcDbEntity
  8
0
 62
     3
100
AcDbText
 10
476.292653220844
 20
208.8013038956367
 30
0.0
 40
3.2
  1
E26
  7
高3.2
100
AcDbText
  0
TEXT
  5
1700
330
6B
100
AcDbEntity
  8
0
 62
     3
100
AcDbText
 10
476.2926532208441
 20
109.8013038956366
 30
0.0
 40
3.2
  1
102g
  7
高3.2
100
AcDbText
  0
TEXT
  5
1701
330
6B
100
AcDbEntity
  8
0
 62
     3
100
AcDbText
 10
454.8440955525763
 20
109.8013038956366
 30
0.0
 40
3.2
  1
質　　　量
 41
0.8
  7
高3.2
100
AcDbText
  0
TEXT
  5
172F
330
6B
100
AcDbEntity
  8
0
 62
     3
100
AcDbText
 10
454.8440955525762
 20
214.3013038956367
 30
0.0
 40
3.2
  1
使用　場所
 41
0.8
  7
高3.2
100
AcDbText
  0
TEXT
  5
1730
330
6B
100
AcDbEntity
  8
0
 62
     3
100
AcDbText
 10
476.292653220844
 20
214.3013038956367
 30
0.0
 40
3.2
  1
屋内型
  7
高3.2
100
AcDbText
  0
TEXT
  5
1735
330
6B
100
AcDbEntity
  8
0
  6
Continuous
100
AcDbText
 10
527.702275654148
 20
33.20117199302979
 30
0.0
 40
3.2
  1
I
  7
高3.2
100
AcDbText
  0
LINE
  5
1840
330
6B
100
AcDbEntity
  8
0
100
AcDbLine
 10
399.1272193899866
 20
109.7379210000003
 30
0.0
 11
399.1272193899866
 21
109.3882859999997
 31
0.0
  0
LINE
  5
1841
330
6B
100
AcDbEntity
  8
0
100
AcDbLine
 10
399.1272193899866
 20
105.737921
 30
0.0
 11
399.1272193899866
 21
105.3882859999997
 31
0.0
  0
LINE
  5
1842
330
6B
100
AcDbEntity
  8
0
100
AcDbLine
 10
399.1272193899866
 20
101.737921
 30
0.0
 11
399.1272193899866
 21
101.3882859999997
 31
0.0
  0
LINE
  5
1843
330
6B
100
AcDbEntity
  8
0
100
AcDbLine
 10
421.7938863899867
 20
111.8098800000003
 30
0.0
 11
421.7938863899867
 21
111.3886979999999
 31
0.0
  0
LINE
  5
1844
330
6B
100
AcDbEntity
  8
0
100
AcDbLine
 10
421.7938863899867
 20
107.73751
 30
0.0
 11
421.7938863899867
 21
107.3886979999999
 31
0.0
  0
LINE
  5
1845
330
6B
100
AcDbEntity
  8
0
100
AcDbLine
 10
421.7938863899867
 20
103.73751
 30
0.0
 11
421.7938863899867
 21
103.3886979999999
 31
0.0
  0
LINE
  5
1846
330
6B
100
AcDbEntity
  8
0
100
AcDbLine
 10
415.4605528899869
 20
94.18272100000001
 30
0.0
 11
418.4605528899867
 21
97.682721
 31
0.0
  0
LINE
  5
1847
330
6B
100
AcDbEntity
  8
0
100
AcDbLine
 10
405.4605528899867
 20
94.18272100000001
 30
0.0
 11
402.4605528899866
 21
97.682721
 31
0.0
  0
ARC
  5
1848
330
6B
100
AcDbEntity
  8
0
100
AcDbCircle
 10
398.7999043899865
 20
103.5631040000003
 30
0.0
 40
1.333333
100
AcDbArc
 50
95.40479299998748
 51
264.5952070000126
  0
ARC
  5
1849
330
6B
100
AcDbEntity
  8
0
100
AcDbCircle
 10
398.6272193899868
 20
101.737921
 30
0.0
 40
0.5
100
AcDbArc
 50
0.0
 51
84.59520700001254
  0
ARC
  5
184A
330
6B
100
AcDbEntity
  8
0
100
AcDbCircle
 10
398.6272193899868
 20
105.3882859999997
 30
0.0
 40
0.5
100
AcDbArc
 50
275.4047929999874
 51
0.0
  0
ARC
  5
184B
330
6B
100
AcDbEntity
  8
0
100
AcDbCircle
 10
422.1256063899867
 20
101.5631040000002
 30
0.0
 40
1.333333
100
AcDbArc
 50
270.0
 51
84.7334589999874
  0
ARC
  5
184C
330
6B
100
AcDbEntity
  8
0
100
AcDbCircle
 10
422.2938863899867
 20
103.3886979999999
 30
0.0
 40
0.5
100
AcDbArc
 50
180.0
 51
264.7334589999874
  0
ARC
  5
184D
330
6B
100
AcDbEntity
  8
0
100
AcDbCircle
 10
422.1256063899867
 20
105.5631040000002
 30
0.0
 40
1.333333
100
AcDbArc
 50
275.2665410000126
 51
84.7334589999874
  0
ARC
  5
184E
330
6B
100
AcDbEntity
  8
0
100
AcDbCircle
 10
422.2938863899867
 20
103.73751
 30
0.0
 40
0.5
100
AcDbArc
 50
95.26654100001259
 51
180.0
  0
ARC
  5
184F
330
6B
100
AcDbEntity
  8
0
100
AcDbCircle
 10
422.2938863899867
 20
107.3886979999999
 30
0.0
 40
0.5
100
AcDbArc
 50
180.0
 51
264.7334589999874
  0
ARC
  5
1850
330
6B
100
AcDbEntity
  8
0
100
AcDbCircle
 10
422.1256063899867
 20
109.5631040000002
 30
0.0
 40
1.333333
100
AcDbArc
 50
275.2665410000126
 51
84.7334589999874
  0
ARC
  5
1851
330
6B
100
AcDbEntity
  8
0
100
AcDbCircle
 10
422.2938863899867
 20
107.73751
 30
0.0
 40
0.5
100
AcDbArc
 50
95.26654100001259
 51
180.0
  0
ARC
  5
1852
330
6B
100
AcDbEntity
  8
0
100
AcDbCircle
 10
422.2938863899867
 20
111.3886979999999
 30
0.0
 40
0.5
100
AcDbArc
 50
180.0
 51
264.7334589999874
  0
ARC
  5
1853
330
6B
100
AcDbEntity
  8
0
100
AcDbCircle
 10
422.2938863899867
 20
111.8098800000003
 30
0.0
 40
0.5
100
AcDbArc
 50
93.18486299999797
 51
180.0
  0
ARC
  5
1854
330
6B
100
AcDbEntity
  8
0
100
AcDbCircle
 10
398.6272193899868
 20
109.7379210000003
 30
0.0
 40
0.5
100
AcDbArc
 50
0.0
 51
84.59520700001254
  0
ARC
  5
1855
330
6B
100
AcDbEntity
  8
0
100
AcDbCircle
 10
398.7999043899865
 20
107.5631040000003
 30
0.0
 40
1.333333
100
AcDbArc
 50
95.40479299998748
 51
264.5952070000126
  0
ARC
  5
1856
330
6B
100
AcDbEntity
  8
0
100
AcDbCircle
 10
398.6272193899868
 20
105.737921
 30
0.0
 40
0.5
100
AcDbArc
 50
0.0
 51
84.59520700001254
  0
ARC
  5
1857
330
6B
100
AcDbEntity
  8
0
100
AcDbCircle
 10
398.6272193899868
 20
109.3882859999997
 30
0.0
 40
0.5
100
AcDbArc
 50
275.4047929999874
 51
0.0
  0
LINE
  5
1858
330
6B
100
AcDbEntity
  8
0
100
AcDbLine
 10
422.2436543899867
 20
112.3083219999998
 30
0.0
 11
398.9179523899866
 21
110.2350069999999
 31
0.0
  0
LINE
  5
1859
330
6B
100
AcDbEntity
  8
0
100
AcDbLine
 10
422.0117013899867
 20
110.891563
 30
0.0
 11
398.6859983899867
 21
108.891563
 31
0.0
  0
LINE
  5
185A
330
6B
100
AcDbEntity
  8
0
100
AcDbLine
 10
422.2395113899867
 20
108.2346449999999
 30
0.0
 11
398.9138093899871
 21
106.234645
 31
0.0
  0
LINE
  5
185B
330
6B
100
AcDbEntity
  8
0
100
AcDbLine
 10
422.0117013899867
 20
106.891563
 30
0.0
 11
398.6859983899867
 21
104.891563
 31
0.0
  0
LINE
  5
185C
330
6B
100
AcDbEntity
  8
0
100
AcDbLine
 10
422.2395113899867
 20
104.2346449999999
 30
0.0
 11
398.9138093899871
 21
102.234645
 31
0.0
  0
LINE
  5
185D
330
6B
100
AcDbEntity
  8
0
100
AcDbLine
 10
422.0117013899867
 20
102.891563
 30
0.0
 11
398.6807875171767
 21
100.8911162076515
 31
0.0
  0
LINE
  5
185E
330
6B
100
AcDbEntity
  8
0
100
AcDbLine
 10
398.460552389987
 20
117.6827209999999
 30
0.0
 11
398.4605523899868
 21
114.182721
 31
0.0
  0
LINE
  5
185F
330
6B
100
AcDbEntity
  8
0
100
AcDbLine
 10
422.4605523899867
 20
117.6827209999999
 30
0.0
 11
422.4605523899867
 21
114.182721
 31
0.0
  0
ARC
  5
1860
330
6B
100
AcDbEntity
  8
0
100
AcDbCircle
 10
398.7999043899865
 20
111.5993900000003
 30
0.0
 40
1.333333
100
AcDbArc
 50
95.40479299998748
 51
264.5952070000126
  0
LINE
  5
1861
330
6B
100
AcDbEntity
  8
0
100
AcDbLine
 10
413.3213841774945
 20
114.182721
 30
0.0
 11
398.6859983899867
 21
112.927849
 31
0.0
  0
LINE
  5
1862
330
6B
100
AcDbEntity
  8
0
100
AcDbLine
 10
422.4605523899867
 20
114.182721
 30
0.0
 11
398.4605523899868
 21
114.182721
 31
0.0
  0
ARC
  5
1863
330
6B
100
AcDbEntity
  8
0
100
AcDbCircle
 10
422.0673494607444
 20
113.2591171745071
 30
0.0
 40
1.003818992662016
100
AcDbArc
 50
280.3671454662602
 51
66.93924410986352
  0
ARC
  5
1864
330
6B
100
AcDbEntity
  8
0
100
AcDbCircle
 10
398.0457402830004
 20
113.4605098518338
 30
0.0
 40
0.8328613489872696
100
AcDbArc
 50
320.2413360786364
 51
60.12849002510869
  0
LINE
  5
1865
330
6B
100
AcDbEntity
  8
0
100
AcDbLine
 10
419.9135028899868
 20
97.682721
 30
0.0
 11
401.0076028899864
 21
97.682721
 31
0.0
  0
LINE
  5
1866
330
6B
100
AcDbEntity
  8
0
100
AcDbLine
 10
415.4605528899869
 20
94.18272100000001
 30
0.0
 11
405.4605528899867
 21
94.18272100000001
 31
0.0
  0
LINE
  5
1867
330
6B
100
AcDbEntity
  8
0
100
AcDbLine
 10
422.1256063899867
 20
100.229771
 30
0.0
 11
398.7090882352629
 21
100.229771
 31
0.0
  0
ARC
  5
1868
330
6B
100
AcDbEntity
  8
0
100
AcDbCircle
 10
398.6272193899868
 20
101.3882859999997
 30
0.0
 40
0.5
100
AcDbArc
 50
275.4047929999874
 51
0.0
  0
ARC
  5
1869
330
6B
100
AcDbEntity
  8
0
100
AcDbCircle
 10
398.7090882352629
 20
100.5610491352751
 30
0.0
 40
0.3312781352750566
100
AcDbArc
 50
94.90068724745823
 51
270.0
  0
ARC
  5
186A
330
6B
100
AcDbEntity
  8
0
100
AcDbCircle
 10
401.0076028899864
 20
99.72977100000001
 30
0.0
 40
2.047050000000238
100
AcDbArc
 50
180.0
 51
270.0
  0
ARC
  5
186B
330
6B
100
AcDbEntity
  8
0
100
AcDbCircle
 10
419.9135028899868
 20
99.72977100000001
 30
0.0
 40
2.047050000000238
100
AcDbArc
 50
270.0
 51
0.0
  0
ARC
  5
186C
330
6B
100
AcDbEntity
  8
0
100
AcDbCircle
 10
410.4605528899867
 20
106.1827210000062
 30
0.0
 40
13.00000000000628
100
AcDbArc
 50
247.3801350519754
 51
292.6198649480247
  0
LINE
  5
186D
330
6B
100
AcDbEntity
  8
0
  6
CENTER
100
AcDbLine
 10
410.4605528899867
 20
90.09817157908479
 30
0.0
 11
410.4605528899867
 21
262.9205806086986
 31
0.0
  0
LINE
  5
1870
330
6B
100
AcDbEntity
  8
0
 62
     3
100
AcDbLine
 10
396.8605528899867
 20
117.6827209999999
 30
0.0
 11
396.8605528899867
 21
118.6827209999999
 31
0.0
  0
LINE
  5
1871
330
6B
100
AcDbEntity
  8
0
 62
     3
100
AcDbLine
 10
424.0605528899867
 20
117.6827209999999
 30
0.0
 11
424.0605528899867
 21
118.6827209999999
 31
0.0
  0
LINE
  5
1873
330
6B
100
AcDbEntity
  8
0
  6
Continuous
100
AcDbLine
 10
421.9605528899869
 20
99.72977100000001
 30
0.0
 11
421.9605528899869
 21
100.229771
 31
0.0
  0
LINE
  5
1874
330
6B
100
AcDbEntity
  8
0
  6
Continuous
100
AcDbLine
 10
398.9605528899864
 20
99.72977100000001
 30
0.0
 11
398.9605528899864
 21
100.229771
 31
0.0
  0
LINE
  5
187B
330
6B
100
AcDbEntity
  8
0
  6
Continuous
 62
     3
100
AcDbLine
 10
396.8605528899867
 20
117.6827209999999
 30
0.0
 11
424.0605528899867
 21
117.6827209999999
 31
0.0
  0
LINE
  5
187C
330
6B
100
AcDbEntity
  8
0
  6
Continuous
 62
     3
100
AcDbLine
 10
395.9605528899867
 20
118.6827209999999
 30
0.0
 11
424.9605528899867
 21
118.6827209999999
 31
0.0
  0
LINE
  5
18F3
330
6B
100
AcDbEntity
  8
0
  6
Continuous
 62
     3
100
AcDbLine
 10
380.4605528899865
 20
178.1827209999999
 30
0.0
 11
440.4605528899867
 21
178.1827209999999
 31
0.0
  0
ARC
  5
18F8
330
6B
100
AcDbEntity
  8
0
  6
Continuous
 62
     3
100
AcDbCircle
 10
318.5089399867607
 20
178.1827209999999
 30
0.0
 40
121.951612903226
100
AcDbArc
 50
330.7974554283317
 51
0.0
  0
ARC
  5
18F9
330
6B
100
AcDbEntity
  8
0
  6
Continuous
 62
     3
100
AcDbCircle
 10
502.4121657932128
 20
178.1827209999999
 30
0.0
 40
121.951612903226
100
AcDbArc
 50
180.0
 51
209.2025445716671
  0
LINE
  5
1931
330
6B
100
AcDbEntity
  8
0
 62
     3
100
AcDbLine
 10
439.4605528899867
 20
178.1827209999999
 30
0.0
 11
439.4605528899867
 21
179.1827209999999
 31
0.0
  0
LINE
  5
1932
330
6B
100
AcDbEntity
  8
0
 62
     3
100
AcDbLine
 10
381.4605528899867
 20
178.1827209999999
 30
0.0
 11
381.4605528899869
 21
179.1827209999999
 31
0.0
  0
LINE
  5
1933
330
6B
100
AcDbEntity
  8
0
  6
Continuous
 62
     3
100
AcDbLine
 10
381.4605528899867
 20
179.1827209999999
 30
0.0
 11
439.4605528899867
 21
179.1827209999999
 31
0.0
  0
LINE
  5
1937
330
6B
100
AcDbEntity
  8
0
  6
Continuous
 62
     3
100
AcDbLine
 10
439.4605528899867
 20
179.1827209999999
 30
0.0
 11
438.4605528899867
 21
181.1827209999999
 31
0.0
  0
LINE
  5
1938
330
6B
100
AcDbEntity
  8
0
  6
Continuous
 62
     3
100
AcDbLine
 10
438.4605528899867
 20
181.1827209999999
 30
0.0
 11
382.4605528899867
 21
181.1827209999999
 31
0.0
  0
LINE
  5
1939
330
6B
100
AcDbEntity
  8
0
  6
Continuous
 62
     3
100
AcDbLine
 10
382.4605528899867
 20
181.1827209999999
 30
0.0
 11
381.4605528899867
 21
179.1827209999999
 31
0.0
  0
LINE
  5
193D
330
6B
100
AcDbEntity
  8
0
  6
Continuous
 62
     3
100
AcDbLine
 10
438.4605528899867
 20
181.1827209999999
 30
0.0
 11
436.9751161809962
 21
249.5128096135637
 31
0.0
  0
LINE
  5
193E
330
6B
100
AcDbEntity
  8
0
  6
Continuous
 62
     3
100
AcDbLine
 10
382.4605528899867
 20
181.1827209999999
 30
0.0
 11
383.9459895989772
 21
249.5128096135637
 31
0.0
  0
ARC
  5
193F
330
6B
100
AcDbEntity
  8
0
  6
Continuous
 62
     3
100
AcDbCircle
 10
410.4605528899867
 20
182.4577209999998
 30
0.0
 40
72.72500000000012
100
AcDbArc
 50
69.16175320565897
 51
110.838246794341
  0
ARC
  5
1940
330
6B
100
AcDbEntity
  8
0
  6
Continuous
 62
     3
100
AcDbCircle
 10
435.9753523921723
 20
249.4910756181546
 30
0.0
 40
1.0
100
AcDbArc
 50
1.245364266767078
 51
69.16175320565713
  0
ARC
  5
1941
330
6B
100
AcDbEntity
  8
0
  6
Continuous
 62
     3
100
AcDbCircle
 10
384.9457533878011
 20
249.4910756181546
 30
0.0
 40
1.0
100
AcDbArc
 50
110.8382467943428
 51
178.7546357332329
  0
LINE
  5
1942
330
6B
100
AcDbEntity
  8
0
  6
Continuous
100
AcDbLine
 10
435.9753523921723
 20
250.1827209999999
 30
0.0
 11
384.9457533878011
 21
250.1827209999999
 31
0.0
  0
LINE
  5
19D2
330
6B
100
AcDbEntity
  8
0
  6
Continuous
100
AcDbLine
 10
380.4605528899868
 20
177.9327209999999
 30
0.0
 11
380.4605528899868
 21
71.90718855987221
 31
0.0
  0
LINE
  5
19D3
330
6B
100
AcDbEntity
  8
0
  6
Continuous
100
AcDbLine
 10
440.4605528899867
 20
177.9327209999999
 30
0.0
 11
440.4605528899867
 21
71.90718855987221
 31
0.0
  0
LINE
  5
19D4
330
6B
100
AcDbEntity
  8
0
  6
Continuous
100
AcDbLine
 10
382.9605528899867
 20
73.15718855987221
 30
0.0
 11
437.9605528899867
 21
73.15718855987221
 31
0.0
  0
LINE
  5
19D8
330
6B
100
AcDbEntity
  8
0
  6
Continuous
100
AcDbLine
 10
397.4665713899867
 20
103.3131040000003
 30
0.0
 11
397.4665713899867
 21
79.0799134814614
 31
0.0
  0
LINE
  5
19D9
330
6B
100
AcDbEntity
  8
0
  6
Continuous
100
AcDbLine
 10
423.4589393899866
 20
101.3131040000002
 30
0.0
 11
423.4589393899866
 21
79.0799134814614
 31
0.0
  0
LINE
  5
19DA
330
6B
100
AcDbEntity
  8
0
  6
Continuous
100
AcDbLine
 10
399.9665713899867
 20
80.3299134814614
 30
0.0
 11
420.9589393899866
 21
80.3299134814614
 31
0.0
  0
LINE
  5
19DE
330
6B
100
AcDbEntity
  8
0
  6
Continuous
100
AcDbLine
 10
381.4605528899869
 20
179.4327210000001
 30
0.0
 11
381.4605528899869
 21
267.9589323881972
 31
0.0
  0
LINE
  5
19DF
330
6B
100
AcDbEntity
  8
0
  6
Continuous
100
AcDbLine
 10
439.4605528899867
 20
179.4327209999999
 30
0.0
 11
439.4605528899867
 21
267.9589323881972
 31
0.0
  0
LINE
  5
19E0
330
6B
100
AcDbEntity
  8
0
  6
Continuous
100
AcDbLine
 10
383.9605528899868
 20
266.7089323881973
 30
0.0
 11
436.9605528899866
 21
266.7089323881973
 31
0.0
  0
LINE
  5
19E4
330
6B
100
AcDbEntity
  8
0
  6
Continuous
100
AcDbLine
 10
380.2105528899867
 20
178.1827209999999
 30
0.0
 11
374.3275680704404
 21
178.1827209999999
 31
0.0
  0
LINE
  5
19E5
330
6B
100
AcDbEntity
  8
0
  6
Continuous
100
AcDbLine
 10
410.2105528899867
 20
93.18272099999992
 30
0.0
 11
374.3275680704403
 21
93.18272099999992
 31
0.0
  0
LINE
  5
19E6
330
6B
100
AcDbEntity
  8
0
  6
Continuous
100
AcDbLine
 10
375.5775680704403
 20
175.6827209999999
 30
0.0
 11
375.5775680704403
 21
95.68272099999992
 31
0.0
  0
LINE
  5
19EA
330
6B
100
AcDbEntity
  8
0
  6
Continuous
100
AcDbLine
 10
410.2105528899867
 20
93.18272099999992
 30
0.0
 11
366.1571711517877
 21
93.18272099999992
 31
0.0
  0
LINE
  5
19EB
330
6B
100
AcDbEntity
  8
0
  6
Continuous
100
AcDbLine
 10
410.2105528899867
 20
255.1827209999999
 30
0.0
 11
366.1571711517877
 21
255.1827209999999
 31
0.0
  0
LINE
  5
19EC
330
6B
100
AcDbEntity
  8
0
  6
Continuous
100
AcDbLine
 10
367.4071711517877
 20
95.68272099999992
 30
0.0
 11
367.4071711517878
 21
252.6827209999999
 31
0.0
  0
LINE
  5
19F0
330
6B
100
AcDbEntity
  8
0
 62
     2
100
AcDbLine
 10
429.83499
 20
289.238679
 30
0.0
 11
429.8163629999998
 21
289.357947
 31
0.0
  0
LINE
  5
19F1
330
6B
100
AcDbEntity
  8
0
 62
     2
100
AcDbLine
 10
429.8163629999998
 20
289.357947
 30
0.0
 11
429.793992
 21
289.472151
 31
0.0
  0
LINE
  5
19F2
330
6B
100
AcDbEntity
  8
0
 62
     2
100
AcDbLine
 10
429.793992
 20
289.472151
 30
0.0
 11
429.76805
 21
289.580411
 31
0.0
  0
LINE
  5
19F3
330
6B
100
AcDbEntity
  8
0
 62
     2
100
AcDbLine
 10
429.76805
 20
289.580411
 30
0.0
 11
429.7387379999998
 21
289.681887
 31
0.0
  0
LINE
  5
19F4
330
6B
100
AcDbEntity
  8
0
 62
     2
100
AcDbLine
 10
429.7387379999998
 20
289.681887
 30
0.0
 11
429.706282
 21
289.775797
 31
0.0
  0
LINE
  5
19F5
330
6B
100
AcDbEntity
  8
0
 62
     2
100
AcDbLine
 10
429.706282
 20
289.775797
 30
0.0
 11
429.6709329999996
 21
289.861414
 31
0.0
  0
LINE
  5
19F6
330
6B
100
AcDbEntity
  8
0
 62
     2
100
AcDbLine
 10
429.6709329999996
 20
289.861414
 30
0.0
 11
429.632965
 21
289.938076
 31
0.0
  0
LINE
  5
19F7
330
6B
100
AcDbEntity
  8
0
 62
     2
100
AcDbLine
 10
429.632965
 20
289.938076
 30
0.0
 11
429.5926709999998
 21
290.005191
 31
0.0
  0
LINE
  5
19F8
330
6B
100
AcDbEntity
  8
0
 62
     2
100
AcDbLine
 10
429.5926709999998
 20
290.005191
 30
0.0
 11
429.5503619999998
 21
290.062241
 31
0.0
  0
LINE
  5
19F9
330
6B
100
AcDbEntity
  8
0
 62
     2
100
AcDbLine
 10
429.5503619999998
 20
290.062241
 30
0.0
 11
429.506365
 21
290.108784
 31
0.0
  0
LINE
  5
19FA
330
6B
100
AcDbEntity
  8
0
 62
     2
100
AcDbLine
 10
429.506365
 20
290.108784
 30
0.0
 11
429.461021
 21
290.14446
 31
0.0
  0
LINE
  5
19FB
330
6B
100
AcDbEntity
  8
0
 62
     2
100
AcDbLine
 10
429.461021
 20
290.14446
 30
0.0
 11
429.41468
 21
290.168993
 31
0.0
  0
LINE
  5
19FC
330
6B
100
AcDbEntity
  8
0
 62
     2
100
AcDbLine
 10
429.41468
 20
290.168993
 30
0.0
 11
429.3677
 21
290.182195
 31
0.0
  0
LINE
  5
19FD
330
6B
100
AcDbEntity
  8
0
 62
     2
100
AcDbLine
 10
429.3677
 20
290.182195
 30
0.0
 11
429.320445
 21
290.183963
 31
0.0
  0
LINE
  5
19FE
330
6B
100
AcDbEntity
  8
0
 62
     2
100
AcDbLine
 10
429.320445
 20
290.183963
 30
0.0
 11
429.273279
 21
290.174283
 31
0.0
  0
LINE
  5
19FF
330
6B
100
AcDbEntity
  8
0
 62
     2
100
AcDbLine
 10
429.273279
 20
290.174283
 30
0.0
 11
429.2265669999999
 21
290.153231
 31
0.0
  0
LINE
  5
1A00
330
6B
100
AcDbEntity
  8
0
 62
     2
100
AcDbLine
 10
429.2265669999999
 20
290.153231
 30
0.0
 11
429.18067
 21
290.120968
 31
0.0
  0
LINE
  5
1A01
330
6B
100
AcDbEntity
  8
0
 62
     2
100
AcDbLine
 10
429.18067
 20
290.120968
 30
0.0
 11
429.1359429999998
 21
290.077744
 31
0.0
  0
LINE
  5
1A02
330
6B
100
AcDbEntity
  8
0
 62
     2
100
AcDbLine
 10
429.1359429999998
 20
290.077744
 30
0.0
 11
429.092732
 21
290.023894
 31
0.0
  0
LINE
  5
1A03
330
6B
100
AcDbEntity
  8
0
 62
     2
100
AcDbLine
 10
429.092732
 20
290.023894
 30
0.0
 11
429.0513699999998
 21
289.959834
 31
0.0
  0
LINE
  5
1A04
330
6B
100
AcDbEntity
  8
0
 62
     2
100
AcDbLine
 10
429.0513699999998
 20
289.959834
 30
0.0
 11
429.0121779999998
 21
289.886058
 31
0.0
  0
LINE
  5
1A05
330
6B
100
AcDbEntity
  8
0
 62
     2
100
AcDbLine
 10
429.0121779999998
 20
289.886058
 30
0.0
 11
428.975458
 21
289.803137
 31
0.0
  0
LINE
  5
1A06
330
6B
100
AcDbEntity
  8
0
 62
     2
100
AcDbLine
 10
428.975458
 20
289.803137
 30
0.0
 11
428.941494
 21
289.711712
 31
0.0
  0
LINE
  5
1A07
330
6B
100
AcDbEntity
  8
0
 62
     2
100
AcDbLine
 10
428.941494
 20
289.711712
 30
0.0
 11
428.910548
 21
289.61249
 31
0.0
  0
LINE
  5
1A08
330
6B
100
AcDbEntity
  8
0
 62
     2
100
AcDbLine
 10
428.910548
 20
289.61249
 30
0.0
 11
428.882861
 21
289.506237
 31
0.0
  0
LINE
  5
1A09
330
6B
100
AcDbEntity
  8
0
 62
     2
100
AcDbLine
 10
428.882861
 20
289.506237
 30
0.0
 11
428.858645
 21
289.393775
 31
0.0
  0
LINE
  5
1A0A
330
6B
100
AcDbEntity
  8
0
 62
     2
100
AcDbLine
 10
428.858645
 20
289.393775
 30
0.0
 11
428.838089
 21
289.275973
 31
0.0
  0
LINE
  5
1A0B
330
6B
100
AcDbEntity
  8
0
 62
     2
100
AcDbLine
 10
428.838089
 20
289.275973
 30
0.0
 11
428.82135
 21
289.153742
 31
0.0
  0
LINE
  5
1A0C
330
6B
100
AcDbEntity
  8
0
 62
     2
100
AcDbLine
 10
428.82135
 20
289.153742
 30
0.0
 11
428.8085579999998
 21
289.0280259999999
 31
0.0
  0
LINE
  5
1A0D
330
6B
100
AcDbEntity
  8
0
 62
     2
100
AcDbLine
 10
428.8085579999998
 20
289.0280259999999
 30
0.0
 11
428.799813
 21
288.8997970000001
 31
0.0
  0
LINE
  5
1A0E
330
6B
100
AcDbEntity
  8
0
 62
     2
100
AcDbLine
 10
428.799813
 20
288.8997970000001
 30
0.0
 11
428.795181
 21
288.770047
 31
0.0
  0
LINE
  5
1A0F
330
6B
100
AcDbEntity
  8
0
 62
     2
100
AcDbLine
 10
428.795181
 20
288.770047
 30
0.0
 11
428.794699
 21
288.639778
 31
0.0
  0
LINE
  5
1A10
330
6B
100
AcDbEntity
  8
0
 62
     2
100
AcDbLine
 10
428.794699
 20
288.639778
 30
0.0
 11
428.7983709999998
 21
288.509997
 31
0.0
  0
LINE
  5
1A11
330
6B
100
AcDbEntity
  8
0
 62
     2
100
AcDbLine
 10
428.7983709999998
 20
288.509997
 30
0.0
 11
428.806167
 21
288.381707
 31
0.0
  0
LINE
  5
1A12
330
6B
100
AcDbEntity
  8
0
 62
     2
100
AcDbLine
 10
428.806167
 20
288.381707
 30
0.0
 11
428.818028
 21
288.2559
 31
0.0
  0
LINE
  5
1A13
330
6B
100
AcDbEntity
  8
0
 62
     2
100
AcDbLine
 10
428.818028
 20
288.2559
 30
0.0
 11
428.833861
 21
288.133548
 31
0.0
  0
LINE
  5
1A14
330
6B
100
AcDbEntity
  8
0
 62
     2
100
AcDbLine
 10
428.833861
 20
288.133548
 30
0.0
 11
428.853546
 21
288.015597
 31
0.0
  0
LINE
  5
1A15
330
6B
100
AcDbEntity
  8
0
 62
     2
100
AcDbLine
 10
428.853546
 20
288.015597
 30
0.0
 11
428.876928
 21
287.902959
 31
0.0
  0
LINE
  5
1A16
330
6B
100
AcDbEntity
  8
0
 62
     2
100
AcDbLine
 10
428.876928
 20
287.902959
 30
0.0
 11
428.903829
 21
287.796504
 31
0.0
  0
LINE
  5
1A17
330
6B
100
AcDbEntity
  8
0
 62
     2
100
AcDbLine
 10
428.903829
 20
287.796504
 30
0.0
 11
428.9340389999998
 21
287.697056
 31
0.0
  0
LINE
  5
1A18
330
6B
100
AcDbEntity
  8
0
 62
     2
100
AcDbLine
 10
428.9340389999998
 20
287.697056
 30
0.0
 11
428.9673259999998
 21
287.605382
 31
0.0
  0
LINE
  5
1A19
330
6B
100
AcDbEntity
  8
0
 62
     2
100
AcDbLine
 10
428.9673259999998
 20
287.605382
 30
0.0
 11
429.003431
 21
287.522192
 31
0.0
  0
LINE
  5
1A1A
330
6B
100
AcDbEntity
  8
0
 62
     2
100
AcDbLine
 10
429.003431
 20
287.522192
 30
0.0
 11
429.0420759999998
 21
287.448128
 31
0.0
  0
LINE
  5
1A1B
330
6B
100
AcDbEntity
  8
0
 62
     2
100
AcDbLine
 10
429.0420759999998
 20
287.448128
 30
0.0
 11
429.082963
 21
287.383763
 31
0.0
  0
LINE
  5
1A1C
330
6B
100
AcDbEntity
  8
0
 62
     2
100
AcDbLine
 10
429.082963
 20
287.383763
 30
0.0
 11
429.125774
 21
287.3295950000001
 31
0.0
  0
LINE
  5
1A1D
330
6B
100
AcDbEntity
  8
0
 62
     2
100
AcDbLine
 10
429.125774
 20
287.3295950000001
 30
0.0
 11
429.1701799999998
 21
287.286041
 31
0.0
  0
LINE
  5
1A1E
330
6B
100
AcDbEntity
  8
0
 62
     2
100
AcDbLine
 10
429.1701799999998
 20
287.286041
 30
0.0
 11
429.215837
 21
287.25344
 31
0.0
  0
LINE
  5
1A1F
330
6B
100
AcDbEntity
  8
0
 62
     2
100
AcDbLine
 10
429.215837
 20
287.25344
 30
0.0
 11
429.2623919999998
 21
287.232042
 31
0.0
  0
LINE
  5
1A20
330
6B
100
AcDbEntity
  8
0
 62
     2
100
AcDbLine
 10
429.2623919999998
 20
287.232042
 30
0.0
 11
429.3094849999998
 21
287.222013
 31
0.0
  0
LINE
  5
1A21
330
6B
100
AcDbEntity
  8
0
 62
     2
100
AcDbLine
 10
429.3094849999998
 20
287.222013
 30
0.0
 11
429.356753
 21
287.223432
 31
0.0
  0
LINE
  5
1A22
330
6B
100
AcDbEntity
  8
0
 62
     2
100
AcDbLine
 10
429.356753
 20
287.223432
 30
0.0
 11
429.403829
 21
287.236285
 31
0.0
  0
LINE
  5
1A23
330
6B
100
AcDbEntity
  8
0
 62
     2
100
AcDbLine
 10
429.403829
 20
287.236285
 30
0.0
 11
429.45035
 21
287.260476
 31
0.0
  0
LINE
  5
1A24
330
6B
100
AcDbEntity
  8
0
 62
     2
100
AcDbLine
 10
429.45035
 20
287.260476
 30
0.0
 11
429.495957
 21
287.295815
 31
0.0
  0
LINE
  5
1A25
330
6B
100
AcDbEntity
  8
0
 62
     2
100
AcDbLine
 10
429.495957
 20
287.295815
 30
0.0
 11
429.5402969999998
 21
287.342031
 31
0.0
  0
LINE
  5
1A26
330
6B
100
AcDbEntity
  8
0
 62
     2
100
AcDbLine
 10
429.5402969999998
 20
287.342031
 30
0.0
 11
429.5830269999998
 21
287.398766
 31
0.0
  0
LINE
  5
1A27
330
6B
100
AcDbEntity
  8
0
 62
     2
100
AcDbLine
 10
429.5830269999998
 20
287.398766
 30
0.0
 11
429.6238169999998
 21
287.465581
 31
0.0
  0
LINE
  5
1A28
330
6B
100
AcDbEntity
  8
0
 62
     2
100
AcDbLine
 10
429.6238169999998
 20
287.465581
 30
0.0
 11
429.6623509999998
 21
287.54196
 31
0.0
  0
LINE
  5
1A29
330
6B
100
AcDbEntity
  8
0
 62
     2
100
AcDbLine
 10
429.6623509999998
 20
287.54196
 30
0.0
 11
429.698332
 21
287.627313
 31
0.0
  0
LINE
  5
1A2A
330
6B
100
AcDbEntity
  8
0
 62
     2
100
AcDbLine
 10
429.698332
 20
287.627313
 30
0.0
 11
429.731482
 21
287.72098
 31
0.0
  0
LINE
  5
1A2B
330
6B
100
AcDbEntity
  8
0
 62
     2
100
AcDbLine
 10
429.731482
 20
287.72098
 30
0.0
 11
429.761544
 21
287.8222370000001
 31
0.0
  0
LINE
  5
1A2C
330
6B
100
AcDbEntity
  8
0
 62
     2
100
AcDbLine
 10
429.761544
 20
287.8222370000001
 30
0.0
 11
429.788287
 21
287.930301
 31
0.0
  0
LINE
  5
1A2D
330
6B
100
AcDbEntity
  8
0
 62
     2
100
AcDbLine
 10
429.788287
 20
287.930301
 30
0.0
 11
429.811502
 21
288.044337
 31
0.0
  0
LINE
  5
1A2E
330
6B
100
AcDbEntity
  8
0
 62
     2
100
AcDbLine
 10
429.811502
 20
288.044337
 30
0.0
 11
429.831012
 21
288.1634640000001
 31
0.0
  0
TEXT
  5
1A2F
330
6B
100
AcDbEntity
  8
0
  6
Continuous
 62
     4
100
AcDbText
 10
406.7105528899867
 20
73.78218855987221
 30
0.0
 40
3.0
  1
\U+220560
100
AcDbText
  0
LINE
  5
1A30
330
6B
100
AcDbEntity
  8
0
  6
ByBlock
 62
     0
370
    -2
100
AcDbLine
 10
437.9605528899867
 20
73.82706105987221
 30
0.0
 11
440.4605528899867
 21
73.15718855987221
 31
0.0
  0
LINE
  5
1A31
330
6B
100
AcDbEntity
  8
0
  6
ByBlock
 62
     0
370
    -2
100
AcDbLine
 10
440.4605528899867
 20
73.15718855987221
 30
0.0
 11
437.9605528899867
 21
72.48731605987221
 31
0.0
  0
LINE
  5
1A32
330
6B
100
AcDbEntity
  8
0
  6
ByBlock
 62
     0
370
    -2
100
AcDbLine
 10
440.4605528899867
 20
73.15718855987221
 30
0.0
 11
437.9605528899867
 21
73.15718855987221
 31
0.0
  0
LINE
  5
1A33
330
6B
100
AcDbEntity
  8
0
  6
ByBlock
 62
     0
370
    -2
100
AcDbLine
 10
382.9605528899867
 20
72.48731605987221
 30
0.0
 11
380.4605528899868
 21
73.15718855987221
 31
0.0
  0
LINE
  5
1A34
330
6B
100
AcDbEntity
  8
0
  6
ByBlock
 62
     0
370
    -2
100
AcDbLine
 10
380.4605528899868
 20
73.15718855987221
 30
0.0
 11
382.9605528899867
 21
73.82706105987221
 31
0.0
  0
LINE
  5
1A35
330
6B
100
AcDbEntity
  8
0
  6
ByBlock
 62
     0
370
    -2
100
AcDbLine
 10
380.4605528899868
 20
73.15718855987221
 30
0.0
 11
382.9605528899867
 21
73.15718855987221
 31
0.0
  0
TEXT
  5
1A36
330
6B
100
AcDbEntity
  8
0
  6
Continuous
 62
     4
100
AcDbText
 10
406.4627553899863
 20
80.9549134814614
 30
0.0
 40
3.0
  1
E26
100
AcDbText
  0
LINE
  5
1A37
330
6B
100
AcDbEntity
  8
0
  6
ByBlock
 62
     0
370
    -2
100
AcDbLine
 10
420.9589393899866
 20
80.9997859814614
 30
0.0
 11
423.4589393899866
 21
80.3299134814614
 31
0.0
  0
LINE
  5
1A38
330
6B
100
AcDbEntity
  8
0
  6
ByBlock
 62
     0
370
    -2
100
AcDbLine
 10
423.4589393899866
 20
80.3299134814614
 30
0.0
 11
420.9589393899866
 21
79.6600409814614
 31
0.0
  0
LINE
  5
1A39
330
6B
100
AcDbEntity
  8
0
  6
ByBlock
 62
     0
370
    -2
100
AcDbLine
 10
423.4589393899866
 20
80.3299134814614
 30
0.0
 11
420.9589393899866
 21
80.3299134814614
 31
0.0
  0
LINE
  5
1A3A
330
6B
100
AcDbEntity
  8
0
  6
ByBlock
 62
     0
370
    -2
100
AcDbLine
 10
399.9665713899867
 20
79.6600409814614
 30
0.0
 11
397.4665713899867
 21
80.3299134814614
 31
0.0
  0
LINE
  5
1A3B
330
6B
100
AcDbEntity
  8
0
  6
ByBlock
 62
     0
370
    -2
100
AcDbLine
 10
397.4665713899867
 20
80.3299134814614
 30
0.0
 11
399.9665713899867
 21
80.9997859814614
 31
0.0
  0
LINE
  5
1A3C
330
6B
100
AcDbEntity
  8
0
  6
ByBlock
 62
     0
370
    -2
100
AcDbLine
 10
397.4665713899867
 20
80.3299134814614
 30
0.0
 11
399.9665713899867
 21
80.3299134814614
 31
0.0
  0
TEXT
  5
1A3D
330
6B
100
AcDbEntity
  8
0
  6
Continuous
 62
     4
100
AcDbText
 10
406.4605528899867
 20
267.3339323881972
 30
0.0
 40
3.0
  1
\U+220558
100
AcDbText
  0
LINE
  5
1A3E
330
6B
100
AcDbEntity
  8
0
  6
ByBlock
 62
     0
370
    -2
100
AcDbLine
 10
436.9605528899866
 20
267.3788048881972
 30
0.0
 11
439.4605528899867
 21
266.7089323881973
 31
0.0
  0
LINE
  5
1A3F
330
6B
100
AcDbEntity
  8
0
  6
ByBlock
 62
     0
370
    -2
100
AcDbLine
 10
439.4605528899867
 20
266.7089323881973
 30
0.0
 11
436.9605528899866
 21
266.0390598881972
 31
0.0
  0
LINE
  5
1A40
330
6B
100
AcDbEntity
  8
0
  6
ByBlock
 62
     0
370
    -2
100
AcDbLine
 10
439.4605528899867
 20
266.7089323881973
 30
0.0
 11
436.9605528899866
 21
266.7089323881973
 31
0.0
  0
LINE
  5
1A41
330
6B
100
AcDbEntity
  8
0
  6
ByBlock
 62
     0
370
    -2
100
AcDbLine
 10
383.9605528899868
 20
266.0390598881972
 30
0.0
 11
381.4605528899869
 21
266.7089323881973
 31
0.0
  0
LINE
  5
1A42
330
6B
100
AcDbEntity
  8
0
  6
ByBlock
 62
     0
370
    -2
100
AcDbLine
 10
381.4605528899869
 20
266.7089323881973
 30
0.0
 11
383.9605528899868
 21
267.3788048881972
 31
0.0
  0
LINE
  5
1A43
330
6B
100
AcDbEntity
  8
0
  6
ByBlock
 62
     0
370
    -2
100
AcDbLine
 10
381.4605528899869
 20
266.7089323881973
 30
0.0
 11
383.9605528899868
 21
266.7089323881973
 31
0.0
  0
TEXT
  5
1A44
330
6B
100
AcDbEntity
  8
0
  6
Continuous
 62
     4
100
AcDbText
 10
374.9525680704403
 20
133.0577209999999
 30
0.0
 40
3.0
  1
85
 50
90.0
100
AcDbText
  0
LINE
  5
1A45
330
6B
100
AcDbEntity
  8
0
  6
ByBlock
 62
     0
370
    -2
100
AcDbLine
 10
376.2474405704403
 20
95.68272099999992
 30
0.0
 11
375.5775680704403
 21
93.18272099999992
 31
0.0
  0
LINE
  5
1A46
330
6B
100
AcDbEntity
  8
0
  6
ByBlock
 62
     0
370
    -2
100
AcDbLine
 10
375.5775680704403
 20
93.18272099999992
 30
0.0
 11
374.9076955704403
 21
95.68272099999992
 31
0.0
  0
LINE
  5
1A47
330
6B
100
AcDbEntity
  8
0
  6
ByBlock
 62
     0
370
    -2
100
AcDbLine
 10
375.5775680704403
 20
93.18272099999992
 30
0.0
 11
375.5775680704403
 21
95.68272099999992
 31
0.0
  0
LINE
  5
1A48
330
6B
100
AcDbEntity
  8
0
  6
ByBlock
 62
     0
370
    -2
100
AcDbLine
 10
374.9076955704404
 20
175.6827209999999
 30
0.0
 11
375.5775680704403
 21
178.1827209999999
 31
0.0
  0
LINE
  5
1A49
330
6B
100
AcDbEntity
  8
0
  6
ByBlock
 62
     0
370
    -2
100
AcDbLine
 10
375.5775680704403
 20
178.1827209999999
 30
0.0
 11
376.2474405704403
 21
175.6827209999999
 31
0.0
  0
LINE
  5
1A4A
330
6B
100
AcDbEntity
  8
0
  6
ByBlock
 62
     0
370
    -2
100
AcDbLine
 10
375.5775680704403
 20
178.1827209999999
 30
0.0
 11
375.5775680704403
 21
175.6827209999999
 31
0.0
  0
TEXT
  5
1A4B
330
6B
100
AcDbEntity
  8
0
  6
Continuous
 62
     4
100
AcDbText
 10
366.7821711517877
 20
156.4327209999999
 30
0.0
 40
3.0
  1
162
 50
90.0
100
AcDbText
  0
LINE
  5
1A4C
330
6B
100
AcDbEntity
  8
0
  6
ByBlock
 62
     0
370
    -2
100
AcDbLine
 10
366.7372986517877
 20
252.6827209999999
 30
0.0
 11
367.4071711517878
 21
255.1827209999999
 31
0.0
  0
LINE
  5
1A4D
330
6B
100
AcDbEntity
  8
0
  6
ByBlock
 62
     0
370
    -2
100
AcDbLine
 10
367.4071711517878
 20
255.1827209999999
 30
0.0
 11
368.0770436517877
 21
252.6827209999999
 31
0.0
  0
LINE
  5
1A4E
330
6B
100
AcDbEntity
  8
0
  6
ByBlock
 62
     0
370
    -2
100
AcDbLine
 10
367.4071711517878
 20
255.1827209999999
 30
0.0
 11
367.4071711517878
 21
252.6827209999999
 31
0.0
  0
LINE
  5
1A4F
330
6B
100
AcDbEntity
  8
0
  6
ByBlock
 62
     0
370
    -2
100
AcDbLine
 10
368.0770436517877
 20
95.68272099999992
 30
0.0
 11
367.4071711517877
 21
93.18272099999992
 31
0.0
  0
LINE
  5
1A50
330
6B
100
AcDbEntity
  8
0
  6
ByBlock
 62
     0
370
    -2
100
AcDbLine
 10
367.4071711517877
 20
93.18272099999992
 30
0.0
 11
366.7372986517877
 21
95.68272099999992
 31
0.0
  0
LINE
  5
1A51
330
6B
100
AcDbEntity
  8
0
  6
ByBlock
 62
     0
370
    -2
100
AcDbLine
 10
367.4071711517877
 20
93.18272099999992
 30
0.0
 11
367.4071711517877
 21
95.68272099999992
 31
0.0
  0
ENDSEC
  0
SECTION
  2
OBJECTS
  0
DICTIONARY
  5
C
330
0
100
AcDbDictionary
281
     1
  3
ACAD_2007HEADERVARS_RT
350
1A55
  3
ACAD_COLOR
350
62
  3
ACAD_GROUP
350
D
  3
ACAD_LAYOUT
350
61
  3
ACAD_MATERIAL
350
10
  3
ACAD_MLEADERSTYLE
350
65
  3
ACAD_MLINESTYLE
350
5E
  3
ACAD_PLOTSETTINGS
350
60
  3
ACAD_PLOTSTYLENAME
350
E
  3
ACAD_SCALELIST
350
42
  3
ACAD_TABLESTYLE
350
63
  3
ACAD_VISUALSTYLE
350
29
  3
ACDB_RECOMPOSE_DATA
350
1A53
  3
AcDbVariableDictionary
350
548
  3
DWGPROPS
350
1A54
  0
DICTIONARY
  5
3EB
330
2
100
AcDbDictionary
280
     1
281
     1
  3
ACAD_LAYERSTATES
360
3EC
  0
DICTIONARY
  5
544
330
54
100
AcDbDictionary
280
     1
281
     1
  3
ADSK_XREC_LAYER_RECONCILED
360
545
  0
DICTIONARY
  5
AE3
330
6B
100
AcDbDictionary
280
     1
281
     1
  3
ACAD_SORTENTS
360
AE4
  0
DICTIONARY
  5
1A55
102
{ACAD_REACTORS
330
C
102
}
330
C
100
AcDbDictionary
281
     1
  3
DIMARCSYM
350
1A57
  3
DIMFXL
350
1A56
  3
DIMJOGANG
350
1A58
  0
DICTIONARY
  5
62
102
{ACAD_REACTORS
330
C
102
}
330
C
100
AcDbDictionary
281
     1
  0
DICTIONARY
  5
D
102
{ACAD_REACTORS
330
C
102
}
330
C
100
AcDbDictionary
281
     1
  0
DICTIONARY
  5
61
102
{ACAD_REACTORS
330
C
102
}
330
C
100
AcDbDictionary
281
     1
  3
Model
350
6E
  3
レイアウト1
350
6A
  0
DICTIONARY
  5
10
102
{ACAD_REACTORS
330
C
102
}
330
C
100
AcDbDictionary
281
     1
  3
ByBlock
350
19
  3
ByLayer
350
11
  3
Global
350
21
  0
DICTIONARY
  5
65
102
{ACAD_REACTORS
330
C
102
}
330
C
100
AcDbDictionary
281
     1
  3
Standard
350
66
  0
DICTIONARY
  5
5E
102
{ACAD_REACTORS
330
C
102
}
330
C
100
AcDbDictionary
281
     1
  3
Standard
350
5F
  0
DICTIONARY
  5
60
102
{ACAD_REACTORS
330
C
102
}
330
C
100
AcDbDictionary
281
     1
  0
ACDBDICTIONARYWDFLT
  5
E
102
{ACAD_REACTORS
330
C
102
}
330
C
100
AcDbDictionary
281
     1
  3
Normal
350
F
100
AcDbDictionaryWithDefault
340
F
  0
DICTIONARY
  5
42
102
{ACAD_REACTORS
330
C
102
}
330
C
100
AcDbDictionary
281
     1
  3
A0
350
43
  3
A1
350
44
  3
A2
350
45
  3
A3
350
46
  3
A4
350
47
  3
A5
350
48
  3
A6
350
49
  3
A7
350
4A
  3
A8
350
4B
  3
A9
350
4C
  3
B0
350
4D
  3
B1
350
4E
  3
B2
350
4F
  3
B3
350
50
  3
B4
350
51
  3
B5
350
52
  3
B6
350
53
  0
DICTIONARY
  5
63
102
{ACAD_REACTORS
330
C
102
}
330
C
100
AcDbDictionary
281
     1
  3
Standard
350
64
  0
DICTIONARY
  5
29
102
{ACAD_REACTORS
330
C
102
}
330
C
100
AcDbDictionary
281
     1
  3
2dWireframe
350
2F
  3
3dWireframe
350
3EA
  3
Basic
350
2E
  3
Brighten
350
35
  3
ColorChange
350
39
  3
Conceptual
350
32
  3
Dim
350
34
  3
EdgeColorOff
350
41
  3
Facepattern
350
38
  3
Flat
350
2A
  3
FlatWithEdges
350
2B
  3
Gouraud
350
2C
  3
GouraudWithEdges
350
2D
  3
Hidden
350
31
  3
JitterOff
350
3F
  3
Linepattern
350
37
  3
OverhangOff
350
40
  3
Realistic
350
33
  3
Shaded
350
3E
  3
Shaded with edges
350
3D
  3
Shades of Gray
350
3A
  3
Sketchy
350
3B
  3
Thicken
350
36
  3
Wireframe
350
30
  3
X-Ray
350
3C
  0
XRECORD
  5
1A53
102
{ACAD_REACTORS
330
C
102
}
330
C
100
AcDbXrecord
280
     1
 90
        1
330
64
  0
DICTIONARY
  5
548
102
{ACAD_REACTORS
330
C
102
}
330
C
100
AcDbDictionary
281
     1
  3
CANNOSCALE
350
54B
  3
CMLEADERSTYLE
350
54A
  3
CTABLESTYLE
350
549
  3
DIMASSOC
350
54E
  3
INDEXCTL
350
54D
  3
SORTENTS
350
54C
  3
XCLIPFRAME
350
1403
  0
XRECORD
  5
1A54
102
{ACAD_REACTORS
330
C
102
}
330
C
100
AcDbXrecord
280
     1
  1
DWGPROPS COOKIE
  2

  3

  4

  6

  7

  8
imamura
  9

300
=
301
=
302
=
303
=
304
=
305
=
306
=
307
=
308
=
309
=
 40
0.2768442939814815
 41
2456071.583394271
 42
2457630.493423901
  1

 90
        0
  0
DICTIONARY
  5
3EC
102
{ACAD_REACTORS
330
3EB
102
}
330
3EB
100
AcDbDictionary
281
     1
  0
XRECORD
  5
545
102
{ACAD_REACTORS
330
544
102
}
330
544
100
AcDbXrecord
280
     1
290
     1
  0
SORTENTSTABLE
  5
AE4
102
{ACAD_REACTORS
330
AE3
102
}
330
AE3
100
AcDbSortentsTable
330
6B
331
16C4
  5
1847
331
16C0
  5
1843
331
16FB
  5
1938
331
1865
  5
19F3
331
16BC
  5
1840
331
1A0E
  5
186
331
1861
  5
19EF
331
16B8
  5
172F
331
1A0A
  5
182
331
1A45
  5
1A21
331
1A06
  5
17E
331
1A41
  5
1A28
331
1735
  5
193E
331
1A02
  5
17A
331
F6
  5
F6
331
1AC
  5
16A9
331
F2
  5
F2
331
16D
  5
1C0
331
1A8
  5
344
331
EE
  5
EE
331
169
  5
1B2
331
1E3
  5
16D6
331
1A4
  5
30D
331
EA
  5
EA
331
16F7
  5
18F1
331
16F3
  5
1878
331
185D
  5
19EB
331
16B4
  5
1700
331
16EF
  5
186D
331
1859
  5
19E7
331
16B0
  5
16F9
331
16EB
  5
1869
331
1855
  5
19E3
331
16AC
  5
16F5
331
1A3D
  5
1A2E
331
342
  5
16EB
331
19FE
  5
176
331
1A39
  5
1A37
331
1851
  5
19DF
331
16A8
  5
16F0
331
19FA
  5
172
331
1A35
  5
1A3E
331
19F6
  5
16E
331
1A31
  5
1A40
331
19F2
  5
16A
331
30A
  5
16E5
331
1940
  5
1A50
331
125
  5
125
331
1DF
  5
16D2
331
E6
  5
E6
331
1DB
  5
16CE
331
E2
  5
E2
331
19C
  5
237
331
121
  5
121
331
1D7
  5
16C8
331
198
  5
201
331
DE
  5
DE
331
11D
  5
11D
331
1D3
  5
16C4
331
194
  5
1E9
331
DA
  5
DA
331
119
  5
119
331
190
  5
1E5
331
184D
  5
19DB
331
16E3
  5
1862
331
1849
  5
19D7
331
16DF
  5
185E
331
1845
  5
19D3
331
16DB
  5
185B
331
1A2D
  5
1AD
331
187C
  5
1A44
331
1841
  5
1940
331
19EA
  5
1A00
331
1A29
  5
1A9
331
19E6
  5
1A1A
331
1A25
  5
1A5
331
1A21
  5
19D
331
1938
  5
1A4A
331
18F9
  5
1A48
331
115
  5
115
331
1CF
  5
16C0
331
D6
  5
D6
331
202
  5
16E1
331
1CB
  5
16BB
331
D2
  5
D2
331
111
  5
111
331
1C7
  5
16B4
331
188
  5
1DF
331
CE
  5
CE
331
10D
  5
10D
331
184
  5
1DB
331
CA
  5
CA
331
109
  5
109
331
180
  5
1D7
331
16D7
  5
1857
331
16D3
  5
1854
331
1874
  5
1A14
331
16CF
  5
1850
331
1870
  5
19FE
331
19DE
  5
1A25
331
1A1D
  5
199
331
186C
  5
19FA
331
19DA
  5
1A31
331
1A19
  5
195
331
1868
  5
19F6
331
1A50
  5
1A07
331
1A15
  5
190
331
19D2
  5
1A39
331
1A4C
  5
1A09
331
1A11
  5
189
331
1A48
  5
1A1B
331
1701
  5
193B
331
105
  5
105
331
1BF
  5
16B0
331
C6
  5
C6
331
1EA
  5
16DC
331
17C
  5
1D3
331
C2
  5
C2
331
101
  5
101
331
178
  5
1CF
331
BE
  5
BE
331
FD
  5
FD
331
174
  5
1CB
331
F9
  5
F9
331
170
  5
1C7
331
16C7
  5
184A
331
16C3
  5
1846
331
16BF
  5
1842
331
16FA
  5
1935
331
1864
  5
19F2
331
16BB
  5
1735
331
1A0D
  5
185
331
1860
  5
19EE
331
1A09
  5
181
331
1A44
  5
1A24
331
1A05
  5
17D
331
1A40
  5
1A2D
331
1A01
  5
179
331
1730
  5
193D
331
F5
  5
F5
331
1AB
  5
16A8
331
F1
  5
F1
331
16C
  5
1BF
331
1E6
  5
16D9
331
1A7
  5
343
331
ED
  5
ED
331
168
  5
1B0
331
1A3
  5
30C
331
E9
  5
E9
331
16F6
  5
187C
331
16B7
  5
1701
331
185C
  5
19EA
331
16B3
  5
16FC
331
16EE
  5
186C
331
1858
  5
19E6
331
16AF
  5
16F8
331
16EA
  5
1868
331
1854
  5
19E2
331
16AB
  5
16F4
331
1A3C
  5
1A34
331
341
  5
16EA
331
19FD
  5
175
331
1A38
  5
1A36
331
1850
  5
19DE
331
19F9
  5
171
331
1A34
  5
1A3D
331
19F5
  5
16D
331
1A30
  5
1A3F
331
19F1
  5
169
331
30D
  5
16E9
331
124
  5
124
331
1DE
  5
16D1
331
E5
  5
E5
331
1DA
  5
16CD
331
E1
  5
E1
331
19B
  5
204
331
120
  5
120
331
1D6
  5
16C7
331
197
  5
200
331
DD
  5
DD
331
11C
  5
11C
331
1D2
  5
16C3
331
193
  5
1E8
331
D9
  5
D9
331
118
  5
118
331
16E6
  5
1865
331
184C
  5
19DA
331
16E2
  5
1861
331
1848
  5
19D6
331
16DE
  5
185D
331
1844
  5
19D2
331
16DA
  5
185A
331
1A2C
  5
1AC
331
187B
  5
1A43
331
1840
  5
193F
331
1A28
  5
1A8
331
19E5
  5
1A16
331
1A24
  5
1A4
331
193F
  5
1A4E
331
1A20
  5
19C
331
1937
  5
1A49
331
18F8
  5
1A47
331
1933
  5
1A46
331
114
  5
114
331
1CE
  5
16BF
331
D5
  5
D5
331
201
  5
16E0
331
1CA
  5
16BA
331
D1
  5
D1
331
18B
  5
1E3
331
110
  5
110
331
187
  5
1DE
331
10C
  5
10C
331
1C2
  5
16B3
331
183
  5
1DA
331
C9
  5
C9
331
108
  5
108
331
16D6
  5
1856
331
16D2
  5
1853
331
1873
  5
1A10
331
16CE
  5
184F
331
16CA
  5
184D
331
1A1C
  5
198
331
186B
  5
19F9
331
19D9
  5
1A30
331
1A18
  5
194
331
1A4F
  5
1A06
331
1A14
  5
18E
331
1A4B
  5
1A0F
331
1A10
  5
188
331
1700
  5
193A
331
104
  5
104
331
1BE
  5
16AF
331
17F
  5
1D6
331
C5
  5
C5
331
1E9
  5
16DB
331
17B
  5
1D2
331
C1
  5
C1
331
100
  5
100
331
177
  5
1CE
331
BD
  5
BD
331
FC
  5
FC
331
1B2
  5
16AD
331
173
  5
1CA
331
F8
  5
F8
331
16C6
  5
1849
331
16C2
  5
1845
331
1867
  5
19F5
331
16F9
  5
1934
331
1863
  5
19F1
331
16BA
  5
1730
331
1A0C
  5
184
331
1A47
  5
1A23
331
1A08
  5
180
331
1A43
  5
1A2A
331
1A04
  5
17C
331
1A00
  5
178
331
1AE
  5
16AB
331
F4
  5
F4
331
16F
  5
1C2
331
1AA
  5
16A6
331
F0
  5
F0
331
16B
  5
1BE
331
1E5
  5
16D8
331
1A6
  5
342
331
EC
  5
EC
331
1E1
  5
16D4
331
1A2
  5
30B
331
E8
  5
E8
331
185F
  5
19ED
331
16F5
  5
187B
331
16F1
  5
1877
331
185B
  5
19E9
331
16B2
  5
16FB
331
16ED
  5
186B
331
1857
  5
19E5
331
16AE
  5
16F7
331
1A3F
  5
1A2C
331
344
  5
16ED
331
16E9
  5
1867
331
1A3B
  5
1A33
331
1853
  5
19E1
331
16AA
  5
16F3
331
172F
  5
193C
331
19FC
  5
174
331
1A37
  5
1A35
331
19F8
  5
170
331
1A33
  5
1A3C
331
19F4
  5
16C
331
19F0
  5
168
331
30C
  5
16E8
331
1942
  5
1A51
331
1DD
  5
16D0
331
E4
  5
E4
331
123
  5
123
331
1D9
  5
16CA
331
E0
  5
E0
331
11F
  5
11F
331
19A
  5
203
331
1D5
  5
16C6
331
196
  5
1FF
331
DC
  5
DC
331
11B
  5
11B
331
1D1
  5
16C2
331
192
  5
1E6
331
D8
  5
D8
331
16E5
  5
1864
331
184F
  5
19DD
331
16A6
  5
16EF
331
184B
  5
19D9
331
16E1
  5
1860
331
1A2F
  5
1A42
331
1847
  5
19D5
331
1843
  5
1942
331
16D9
  5
1859
331
19EC
  5
1A02
331
1A2B
  5
1AB
331
1A27
  5
1A7
331
19E4
  5
1A15
331
1A23
  5
1A3
331
193E
  5
1A4D
331
19E0
  5
1A27
331
18F3
  5
1A45
331
1932
  5
19FC
331
117
  5
117
331
204
  5
16E3
331
113
  5
113
331
1CD
  5
16BD
331
18E
  5
1E4
331
D4
  5
D4
331
200
  5
16DF
331
1C9
  5
16B8
331
D0
  5
D0
331
18A
  5
1E1
331
10F
  5
10F
331
186
  5
1DD
331
10B
  5
10B
331
1C1
  5
16B2
331
182
  5
1D9
331
C8
  5
C8
331
16D1
  5
1852
331
16CD
  5
184E
331
1A1F
  5
19B
331
16C9
  5
184C
331
1A1B
  5
197
331
186A
  5
19F8
331
19D8
  5
1A2F
331
1A17
  5
193
331
19D4
  5
1A3B
331
1A4E
  5
1A0E
331
1A13
  5
18B
331
1A4A
  5
1A20
331
107
  5
107
331
103
  5
103
331
17E
  5
1D5
331
C4
  5
C4
331
1E8
  5
16DA
331
17A
  5
1D1
331
C0
  5
C0
331
FF
  5
FF
331
176
  5
1CD
331
BC
  5
BC
331
FB
  5
FB
331
172
  5
1C9
331
16C5
  5
1848
331
16C1
  5
1844
331
16FC
  5
1939
331
1866
  5
19F4
331
16BD
  5
1841
331
1A0F
  5
187
331
1862
  5
19F0
331
16F8
  5
18F2
331
1A0B
  5
183
331
1A46
  5
1A22
331
1A07
  5
17F
331
1A42
  5
1A29
331
1A03
  5
17B
331
F7
  5
F7
331
1AD
  5
16AA
331
F3
  5
F3
331
16E
  5
1C1
331
1A9
  5
16A5
331
EF
  5
EF
331
16A
  5
1B8
331
1E4
  5
16D7
331
1A5
  5
341
331
EB
  5
EB
331
1E0
  5
16D3
331
185E
  5
19EC
331
16F4
  5
1879
331
16F0
  5
1876
331
185A
  5
19E8
331
16B1
  5
16FA
331
16EC
  5
186A
331
1856
  5
19E4
331
16AD
  5
16F6
331
1A3E
  5
1A2B
331
343
  5
16EC
331
19FF
  5
177
331
16E8
  5
1866
331
1A3A
  5
1A32
331
1852
  5
19E0
331
16A9
  5
16F1
331
19FB
  5
173
331
1A36
  5
1A38
331
19F7
  5
16F
331
1A32
  5
1A41
331
19F3
  5
16B
331
30B
  5
16E6
331
1941
  5
1A4F
331
E7
  5
E7
331
1DC
  5
16CF
331
E3
  5
E3
331
19D
  5
30A
331
122
  5
122
331
1D8
  5
16C9
331
199
  5
202
331
DF
  5
DF
331
11E
  5
11E
331
1D4
  5
16C5
331
195
  5
1EA
331
DB
  5
DB
331
11A
  5
11A
331
1D0
  5
16C1
331
16E4
  5
1863
331
184E
  5
19DC
331
16A5
  5
16EE
331
184A
  5
19D8
331
16E0
  5
185F
331
1846
  5
19D4
331
16DC
  5
185C
331
1A2E
  5
1AE
331
1842
  5
1941
331
16D8
  5
1858
331
19EB
  5
1A01
331
1A2A
  5
1AA
331
1A26
  5
1A6
331
1A22
  5
1A2
331
193D
  5
1A4C
331
1939
  5
1A4B
331
237
  5
16E4
331
1931
  5
19FD
331
116
  5
116
331
D7
  5
D7
331
203
  5
16E2
331
1CC
  5
16BC
331
D3
  5
D3
331
112
  5
112
331
1C8
  5
16B7
331
CF
  5
CF
331
10E
  5
10E
331
189
  5
1E0
331
185
  5
1DC
331
CB
  5
CB
331
10A
  5
10A
331
1C0
  5
16B1
331
181
  5
1D8
331
16D4
  5
1855
331
16D0
  5
1851
331
1871
  5
19FF
331
19DF
  5
1A26
331
1A1E
  5
19A
331
186D
  5
19FB
331
16C8
  5
184B
331
1A1A
  5
196
331
1869
  5
19F7
331
1A51
  5
1A08
331
1A16
  5
192
331
19D3
  5
1A3A
331
1A4D
  5
1A0A
331
1A12
  5
18A
331
1A49
  5
1A1C
331
1FF
  5
16DE
331
106
  5
106
331
C7
  5
C7
331
102
  5
102
331
17D
  5
1D4
331
C3
  5
C3
331
1B8
  5
16AE
331
BF
  5
BF
331
FE
  5
FE
331
179
  5
1D0
331
175
  5
1CC
331
BB
  5
BB
331
FA
  5
FA
331
1B0
  5
16AC
331
171
  5
1C8
  0
XRECORD
  5
1A57
102
{ACAD_REACTORS
330
1A55
102
}
330
1A55
100
AcDbXrecord
280
     1
 70
     2
  0
XRECORD
  5
1A56
102
{ACAD_REACTORS
330
1A55
102
}
330
1A55
100
AcDbXrecord
280
     1
 40
1.25
  0
XRECORD
  5
1A58
102
{ACAD_REACTORS
330
1A55
102
}
330
1A55
100
AcDbXrecord
280
     1
 40
1.570796326794896
  0
LAYOUT
  5
6E
102
{ACAD_XDICTIONARY
360
1A8C
102
}
102
{ACAD_REACTORS
330
61
102
}
330
61
100
AcDbPlotSettings
  1

  2
none_device
  4
Letter_(8.50_x_11.00_Inches)
  6

 40
6.349999904632567
 41
6.349999904632567
 42
6.350006103515625
 43
6.350006103515625
 44
215.8999938964844
 45
279.3999938964844
 46
0.0
 47
0.0
 48
0.0
 49
0.0
140
0.0
141
0.0
142
1.0
143
58.79158117780672
 70
 11952
 72
     0
 73
     1
 74
     0
  7

 75
     0
147
0.0170092380569872
148
-4965.276555290069
149
493.5502545748822
100
AcDbLayout
  1
Model
 70
     1
 71
     0
 10
0.0
 20
0.0
 11
12.0
 21
9.0
 12
0.0
 22
0.0
 32
0.0
 14
0.0
 24
0.0
 34
0.0
 15
0.0
 25
0.0
 35
0.0
146
0.0
 13
0.0
 23
0.0
 33
0.0
 16
1.0
 26
0.0
 36
0.0
 17
0.0
 27
1.0
 37
0.0
 76
     0
330
6B
331
8B
1001
ACAD_PSEXT
1000
なし
1000
なし
1000
適切ではありません
1000
新しいプロッタ環境設定名を選択しない限り、レイアウトは印刷されません。
1070
     0
  0
LAYOUT
  5
6A
102
{ACAD_XDICTIONARY
360
1A8A
102
}
102
{ACAD_REACTORS
330
61
102
}
330
61
100
AcDbPlotSettings
  1

  2
FX DP 205
  4

  6

 40
0.0
 41
0.0
 42
0.0
 43
0.0
 44
0.0
 45
0.0
 46
0.0
 47
0.0
 48
0.0
 49
0.0
140
0.0
141
0.0
142
1.0
143
1.0
 70
   688
 72
     0
 73
     0
 74
     5
  7

 75
    16
147
1.0
148
0.0
149
0.0
100
AcDbLayout
  1
レイアウト1
 70
     1
 71
     1
 10
0.0
 20
0.0
 11
12.0
 21
9.0
 12
0.0
 22
0.0
 32
0.0
 14
1.000000000000000E+20
 24
1.000000000000000E+20
 34
1.000000000000000E+20
 15
-1.000000000000000E+20
 25
-1.000000000000000E+20
 35
-1.000000000000000E+20
146
0.0
 13
0.0
 23
0.0
 33
0.0
 16
1.0
 26
0.0
 36
0.0
 17
0.0
 27
1.0
 37
0.0
 76
     0
330
67
  0
MATERIAL
  5
19
102
{ACAD_XDICTIONARY
360
1A
102
}
102
{ACAD_REACTORS
330
10
102
}
330
10
100
AcDbMaterial
  1
ByBlock
 72
     0
 43
0.0208333333333333
 43
0.0
 43
0.0
 43
0.0
 43
0.0
 43
0.0208333333333333
 43
0.0
 43
0.0
 43
0.0
 43
0.0
 43
1.0
 43
0.0
 43
0.0
 43
0.0
 43
0.0
 43
1.0
 77
     0
 47
0.0208333333333333
 47
0.0
 47
0.0
 47
0.0
 47
0.0
 47
0.0208333333333333
 47
0.0
 47
0.0
 47
0.0
 47
0.0
 47
1.0
 47
0.0
 47
0.0
 47
0.0
 47
0.0
 47
1.0
171
     0
 49
0.0208333333333333
 49
0.0
 49
0.0
 49
0.0
 49
0.0
 49
0.0208333333333333
 49
0.0
 49
0.0
 49
0.0
 49
0.0
 49
1.0
 49
0.0
 49
0.0
 49
0.0
 49
0.0
 49
1.0
175
     0
142
0.0208333333333333
142
0.0
142
0.0
142
0.0
142
0.0
142
0.0208333333333333
142
0.0
142
0.0
142
0.0
142
0.0
142
1.0
142
0.0
142
0.0
142
0.0
142
0.0
142
1.0
179
     0
144
0.0208333333333333
144
0.0
144
0.0
144
0.0
144
0.0
144
0.0208333333333333
144
0.0
144
0.0
144
0.0
144
0.0
144
1.0
144
0.0
144
0.0
144
0.0
144
0.0
144
1.0
147
0.0208333333333333
147
0.0
147
0.0
147
0.0
147
0.0
147
0.0208333333333333
147
0.0
147
0.0
147
0.0
147
0.0
147
1.0
147
0.0
147
0.0
147
0.0
147
0.0
147
1.0
  0
MATERIAL
  5
11
102
{ACAD_XDICTIONARY
360
12
102
}
102
{ACAD_REACTORS
330
10
102
}
330
10
100
AcDbMaterial
  1
ByLayer
 72
     0
 43
0.0208333333333333
 43
0.0
 43
0.0
 43
0.0
 43
0.0
 43
0.0208333333333333
 43
0.0
 43
0.0
 43
0.0
 43
0.0
 43
1.0
 43
0.0
 43
0.0
 43
0.0
 43
0.0
 43
1.0
 77
     0
 47
0.0208333333333333
 47
0.0
 47
0.0
 47
0.0
 47
0.0
 47
0.0208333333333333
 47
0.0
 47
0.0
 47
0.0
 47
0.0
 47
1.0
 47
0.0
 47
0.0
 47
0.0
 47
0.0
 47
1.0
171
     0
 49
0.0208333333333333
 49
0.0
 49
0.0
 49
0.0
 49
0.0
 49
0.0208333333333333
 49
0.0
 49
0.0
 49
0.0
 49
0.0
 49
1.0
 49
0.0
 49
0.0
 49
0.0
 49
0.0
 49
1.0
175
     0
142
0.0208333333333333
142
0.0
142
0.0
142
0.0
142
0.0
142
0.0208333333333333
142
0.0
142
0.0
142
0.0
142
0.0
142
1.0
142
0.0
142
0.0
142
0.0
142
0.0
142
1.0
179
     0
144
0.0208333333333333
144
0.0
144
0.0
144
0.0
144
0.0
144
0.0208333333333333
144
0.0
144
0.0
144
0.0
144
0.0
144
1.0
144
0.0
144
0.0
144
0.0
144
0.0
144
1.0
147
0.0208333333333333
147
0.0
147
0.0
147
0.0
147
0.0
147
0.0208333333333333
147
0.0
147
0.0
147
0.0
147
0.0
147
1.0
147
0.0
147
0.0
147
0.0
147
0.0
147
1.0
  0
MATERIAL
  5
21
102
{ACAD_XDICTIONARY
360
22
102
}
102
{ACAD_REACTORS
330
10
102
}
330
10
100
AcDbMaterial
  1
Global
 72
     0
 43
0.0208333333333333
 43
0.0
 43
0.0
 43
0.0
 43
0.0
 43
0.0208333333333333
 43
0.0
 43
0.0
 43
0.0
 43
0.0
 43
1.0
 43
0.0
 43
0.0
 43
0.0
 43
0.0
 43
1.0
 77
     0
 47
0.0208333333333333
 47
0.0
 47
0.0
 47
0.0
 47
0.0
 47
0.0208333333333333
 47
0.0
 47
0.0
 47
0.0
 47
0.0
 47
1.0
 47
0.0
 47
0.0
 47
0.0
 47
0.0
 47
1.0
171
     0
 49
0.0208333333333333
 49
0.0
 49
0.0
 49
0.0
 49
0.0
 49
0.0208333333333333
 49
0.0
 49
0.0
 49
0.0
 49
0.0
 49
1.0
 49
0.0
 49
0.0
 49
0.0
 49
0.0
 49
1.0
175
     0
142
0.0208333333333333
142
0.0
142
0.0
142
0.0
142
0.0
142
0.0208333333333333
142
0.0
142
0.0
142
0.0
142
0.0
142
1.0
142
0.0
142
0.0
142
0.0
142
0.0
142
1.0
179
     0
144
0.0208333333333333
144
0.0
144
0.0
144
0.0
144
0.0
144
0.0208333333333333
144
0.0
144
0.0
144
0.0
144
0.0
144
1.0
144
0.0
144
0.0
144
0.0
144
0.0
144
1.0
147
0.0208333333333333
147
0.0
147
0.0
147
0.0
147
0.0
147
0.0208333333333333
147
0.0
147
0.0
147
0.0
147
0.0
147
1.0
147
0.0
147
0.0
147
0.0
147
0.0
147
1.0
  0
MLEADERSTYLE
  5
66
102
{ACAD_REACTORS
330
65
102
}
330
65
100
AcDbMLeaderStyle
170
     2
171
     1
172
     0
 90
        2
 40
0.0
 41
0.0
173
     1
 91
-1056964608
340
5A
 92
       -2
290
     1
 42
0.09
291
     1
 43
0.36
  3
Standard
 44
0.18
300

342
55
174
     1
178
     6
175
     1
176
     0
 93
-1056964608
 45
0.18
292
     0
297
     0
 46
0.18
 94
-1056964608
 47
1.0
 49
1.0
140
1.0
293
     1
141
0.0
294
     1
177
     0
142
1.0
295
     0
296
     0
143
0.125
1001
ACAD_MLEADERVER
1070
     2
  0
MLINESTYLE
  5
5F
102
{ACAD_REACTORS
330
5E
102
}
330
5E
100
AcDbMlineStyle
  2
STANDARD
 70
     0
  3

 62
   256
 51
90.0
 52
90.0
 71
     2
 49
0.5
 62
   256
  6
BYLAYER
 49
-0.5
 62
   256
  6
BYLAYER
  0
ACDBPLACEHOLDER
  5
F
102
{ACAD_REACTORS
330
E
102
}
330
E
  0
SCALE
  5
43
102
{ACAD_REACTORS
330
42
102
}
330
42
100
AcDbScale
 70
     0
300
1:1
140
1.0
141
1.0
290
     1
  0
SCALE
  5
44
102
{ACAD_REACTORS
330
42
102
}
330
42
100
AcDbScale
 70
     0
300
1/128" = 1'-0"
140
0.0078125
141
12.0
290
     0
  0
SCALE
  5
45
102
{ACAD_REACTORS
330
42
102
}
330
42
100
AcDbScale
 70
     0
300
1/64" = 1'-0"
140
0.015625
141
12.0
290
     0
  0
SCALE
  5
46
102
{ACAD_REACTORS
330
42
102
}
330
42
100
AcDbScale
 70
     0
300
1/32" = 1'-0"
140
0.03125
141
12.0
290
     0
  0
SCALE
  5
47
102
{ACAD_REACTORS
330
42
102
}
330
42
100
AcDbScale
 70
     0
300
1/16" = 1'-0"
140
0.0625
141
12.0
290
     0
  0
SCALE
  5
48
102
{ACAD_REACTORS
330
42
102
}
330
42
100
AcDbScale
 70
     0
300
3/32" = 1'-0"
140
0.09375
141
12.0
290
     0
  0
SCALE
  5
49
102
{ACAD_REACTORS
330
42
102
}
330
42
100
AcDbScale
 70
     0
300
1/8" = 1'-0"
140
0.125
141
12.0
290
     0
  0
SCALE
  5
4A
102
{ACAD_REACTORS
330
42
102
}
330
42
100
AcDbScale
 70
     0
300
3/16" = 1'-0"
140
0.1875
141
12.0
290
     0
  0
SCALE
  5
4B
102
{ACAD_REACTORS
330
42
102
}
330
42
100
AcDbScale
 70
     0
300
1/4" = 1'-0"
140
0.25
141
12.0
290
     0
  0
SCALE
  5
4C
102
{ACAD_REACTORS
330
42
102
}
330
42
100
AcDbScale
 70
     0
300
3/8" = 1'-0"
140
0.375
141
12.0
290
     0
  0
SCALE
  5
4D
102
{ACAD_REACTORS
330
42
102
}
330
42
100
AcDbScale
 70
     0
300
1/2" = 1'-0"
140
0.5
141
12.0
290
     0
  0
SCALE
  5
4E
102
{ACAD_REACTORS
330
42
102
}
330
42
100
AcDbScale
 70
     0
300
3/4" = 1'-0"
140
0.75
141
12.0
290
     0
  0
SCALE
  5
4F
102
{ACAD_REACTORS
330
42
102
}
330
42
100
AcDbScale
 70
     0
300
1" = 1'-0"
140
1.0
141
12.0
290
     0
  0
SCALE
  5
50
102
{ACAD_REACTORS
330
42
102
}
330
42
100
AcDbScale
 70
     0
300
1-1/2" = 1'-0"
140
1.5
141
12.0
290
     0
  0
SCALE
  5
51
102
{ACAD_REACTORS
330
42
102
}
330
42
100
AcDbScale
 70
     0
300
3" = 1'-0"
140
3.0
141
12.0
290
     0
  0
SCALE
  5
52
102
{ACAD_REACTORS
330
42
102
}
330
42
100
AcDbScale
 70
     0
300
6" = 1'-0"
140
6.0
141
12.0
290
     0
  0
SCALE
  5
53
102
{ACAD_REACTORS
330
42
102
}
330
42
100
AcDbScale
 70
     0
300
1'-0" = 1'-0"
140
12.0
141
12.0
290
     0
  0
TABLESTYLE
  5
64
102
{ACAD_XDICTIONARY
360
5AB
102
}
102
{ACAD_REACTORS
330
63
102
}
330
63
100
AcDbTableStyle
  3
Standard
 70
     0
 71
     0
 40
0.06
 41
0.06
280
     0
281
     0
  7
STANDARD
140
0.18
170
     2
 62
     0
 63
     7
283
     0
274
    -2
284
     1
 64
     0
275
    -2
285
     1
 65
     0
276
    -2
286
     1
 66
     0
277
    -2
287
     1
 67
     0
278
    -2
288
     1
 68
     0
279
    -2
289
     1
 69
     0
  7
STANDARD
140
0.25
170
     5
 62
     0
 63
     7
283
     0
274
    -2
284
     1
 64
     0
275
    -2
285
     1
 65
     0
276
    -2
286
     1
 66
     0
277
    -2
287
     1
 67
     0
278
    -2
288
     1
 68
     0
279
    -2
289
     1
 69
     0
  7
STANDARD
140
0.18
170
     5
 62
     0
 63
     7
283
     0
274
    -2
284
     1
 64
     0
275
    -2
285
     1
 65
     0
276
    -2
286
     1
 66
     0
277
    -2
287
     1
 67
     0
278
    -2
288
     1
 68
     0
279
    -2
289
     1
 69
     0
  0
VISUALSTYLE
  5
2F
102
{ACAD_XDICTIONARY
360
1A63
102
}
102
{ACAD_REACTORS
330
29
102
}
330
29
100
AcDbVisualStyle
  2

 70
     4
 71
     0
 72
     2
 73
     0
 90
        0
 40
-0.6
 41
-30.0
 62
     5
 63
     7
 74
     1
 91
        4
 64
     7
 65
   257
 75
     1
175
     1
 42
1.0
 92
        0
 66
   257
 43
1.0
 76
     1
 77
     6
 78
     2
 67
     7
 79
     5
170
     0
171
     0
290
     0
174
     0
 93
        1
 44
0.0
173
     0
291
     0
 45
0.0
1001
ACAD
1000
AcDbSavedByObjectVersion
1070
     0
  0
VISUALSTYLE
  5
3EA
102
{ACAD_XDICTIONARY
360
1A8E
102
}
102
{ACAD_REACTORS
330
29
102
}
330
29
100
AcDbVisualStyle
  2

 70
     5
 71
     0
 72
     2
 73
     1
 90
        0
 40
-0.6
 41
-30.0
 62
     5
 63
     7
 74
     1
 91
        4
 64
     7
 65
   257
 75
     1
175
     1
 42
1.0
 92
        0
 66
   257
 43
1.0
 76
     1
 77
     6
 78
     2
 67
     7
 79
     5
170
     0
171
     0
290
     0
174
     0
 93
        1
 44
0.0
173
     0
291
     0
 45
0.0
1001
ACAD
1000
AcDbSavedByObjectVersion
1070
     0
  0
VISUALSTYLE
  5
2E
102
{ACAD_XDICTIONARY
360
1A61
102
}
102
{ACAD_REACTORS
330
29
102
}
330
29
100
AcDbVisualStyle
  2

 70
     7
 71
     1
 72
     0
 73
     1
 90
        0
 40
-0.6
 41
-30.0
 62
     5
 63
     7
 74
     0
 91
        4
 64
     7
 65
   257
 75
     1
175
     1
 42
1.0
 92
        8
 66
     7
 43
1.0
 76
     1
 77
     6
 78
     2
 67
     7
 79
     5
170
     0
171
     0
290
     0
174
     0
 93
        1
 44
0.0
173
     0
291
     1
 45
0.0
1001
ACAD
1000
AcDbSavedByObjectVersion
1070
     0
  0
VISUALSTYLE
  5
35
102
{ACAD_XDICTIONARY
360
1A6F
102
}
102
{ACAD_REACTORS
330
29
102
}
330
29
100
AcDbVisualStyle
  2

 70
    12
 71
     2
 72
     2
 73
     0
 90
        0
 40
-0.6
 41
-30.0
 62
     5
 63
     7
 74
     1
 91
        4
 64
     7
 65
   257
 75
     1
175
     1
 42
1.0
 92
        8
 66
     7
 43
1.0
 76
     1
 77
     6
 78
     2
 67
     7
 79
     5
170
     0
171
     0
290
     0
174
     0
 93
        1
 44
50.0
173
     0
291
     1
 45
0.0
1001
ACAD
1000
AcDbSavedByObjectVersion
1070
     0
  0
VISUALSTYLE
  5
39
102
{ACAD_XDICTIONARY
360
1A77
102
}
102
{ACAD_REACTORS
330
29
102
}
330
29
100
AcDbVisualStyle
  2

 70
    16
 71
     2
 72
     2
 73
     3
 90
        0
 40
-0.6
 41
-30.0
 62
     5
 63
     8
 74
     1
 91
        4
 64
     7
 65
   257
 75
     1
175
     1
 42
1.0
 92
        8
 66
     8
 43
1.0
 76
     1
 77
     6
 78
     2
 67
     7
 79
     5
170
     0
171
     0
290
     0
174
     0
 93
        1
 44
0.0
173
     0
291
     1
 45
0.0
1001
ACAD
1000
AcDbSavedByObjectVersion
1070
     0
  0
VISUALSTYLE
  5
32
102
{ACAD_XDICTIONARY
360
1A69
102
}
102
{ACAD_REACTORS
330
29
102
}
330
29
100
AcDbVisualStyle
  2

 70
     9
 71
     3
 72
     2
 73
     0
 90
        0
 40
-0.6
 41
-30.0
 62
     5
 63
     7
 74
     2
 91
        2
 64
     7
 65
   257
 75
     1
175
     1
 42
179.0
 92
        8
 66
     7
 43
1.0
 76
     1
 77
     6
 78
     2
 67
     7
 79
     3
170
     0
171
     0
290
     0
174
     0
 93
        1
 44
0.0
173
     0
291
     0
 45
0.0
1001
ACAD
1000
AcDbSavedByObjectVersion
1070
     0
  0
VISUALSTYLE
  5
34
102
{ACAD_XDICTIONARY
360
1A6D
102
}
102
{ACAD_REACTORS
330
29
102
}
330
29
100
AcDbVisualStyle
  2

 70
    11
 71
     2
 72
     2
 73
     0
 90
        0
 40
-0.6
 41
-30.0
 62
     5
 63
     7
 74
     1
 91
        4
 64
     7
 65
   257
 75
     1
175
     1
 42
1.0
 92
        8
 66
     7
 43
1.0
 76
     1
 77
     6
 78
     2
 67
     7
 79
     5
170
     0
171
     0
290
     0
174
     0
 93
        1
 44
-50.0
173
     0
291
     1
 45
0.0
1001
ACAD
1000
AcDbSavedByObjectVersion
1070
     0
  0
VISUALSTYLE
  5
41
102
{ACAD_XDICTIONARY
360
1A87
102
}
102
{ACAD_REACTORS
330
29
102
}
330
29
100
AcDbVisualStyle
  2

 70
    22
 71
     2
 72
     2
 73
     0
 90
        0
 40
-0.6
 41
-30.0
 62
     5
 63
     7
 74
     1
 91
        4
 64
     7
 65
   257
 75
     1
175
     1
 42
1.0
 92
        8
 66
     7
 43
1.0
 76
     1
 77
     6
 78
     2
 67
     7
 79
     5
170
     0
171
     0
290
     0
174
     0
 93
        1
 44
0.0
173
     0
291
     1
 45
0.0
1001
ACAD
1000
AcDbSavedByObjectVersion
1070
     0
  0
VISUALSTYLE
  5
38
102
{ACAD_XDICTIONARY
360
1A75
102
}
102
{ACAD_REACTORS
330
29
102
}
330
29
100
AcDbVisualStyle
  2

 70
    15
 71
     2
 72
     2
 73
     0
 90
        0
 40
-0.6
 41
-30.0
 62
     5
 63
     7
 74
     1
 91
        4
 64
     7
 65
   257
 75
     1
175
     1
 42
1.0
 92
        8
 66
     7
 43
1.0
 76
     1
 77
     6
 78
     2
 67
     7
 79
     5
170
     0
171
     0
290
     0
174
     0
 93
        1
 44
0.0
173
     0
291
     1
 45
0.0
1001
ACAD
1000
AcDbSavedByObjectVersion
1070
     0
  0
VISUALSTYLE
  5
2A
102
{ACAD_XDICTIONARY
360
1A59
102
}
102
{ACAD_REACTORS
330
29
102
}
330
29
100
AcDbVisualStyle
  2

 70
     0
 71
     2
 72
     1
 73
     1
 90
        2
 40
-0.6
 41
30.0
 62
     5
 63
     7
 74
     0
 91
        0
 64
     7
 65
   257
 75
     1
175
     1
 42
1.0
 92
        8
 66
     7
 43
1.0
 76
     1
 77
     6
 78
     2
 67
     7
 79
     5
170
     0
171
     0
290
     0
174
     0
 93
       13
 44
0.0
173
     0
291
     1
 45
0.0
1001
ACAD
1000
AcDbSavedByObjectVersion
1070
     0
  0
VISUALSTYLE
  5
2B
102
{ACAD_XDICTIONARY
360
1A5B
102
}
102
{ACAD_REACTORS
330
29
102
}
330
29
100
AcDbVisualStyle
  2

 70
     1
 71
     2
 72
     1
 73
     1
 90
        2
 40
-0.6
 41
30.0
 62
     5
 63
     7
 74
     1
 91
        0
 64
     7
 65
   257
 75
     1
175
     1
 42
1.0
 92
        0
 66
   257
 43
1.0
 76
     1
 77
     6
 78
     2
 67
     7
 79
     5
170
     0
171
     0
290
     0
174
     0
 93
       13
 44
0.0
173
     0
291
     1
 45
0.0
1001
ACAD
1000
AcDbSavedByObjectVersion
1070
     0
  0
VISUALSTYLE
  5
2C
102
{ACAD_XDICTIONARY
360
1A5D
102
}
102
{ACAD_REACTORS
330
29
102
}
330
29
100
AcDbVisualStyle
  2

 70
     2
 71
     2
 72
     2
 73
     1
 90
        2
 40
-0.6
 41
30.0
 62
     5
 63
     7
 74
     0
 91
        0
 64
     7
 65
   257
 75
     1
175
     1
 42
1.0
 92
        0
 66
     7
 43
1.0
 76
     1
 77
     6
 78
     2
 67
     7
 79
     5
170
     0
171
     0
290
     0
174
     0
 93
       13
 44
0.0
173
     0
291
     1
 45
0.0
1001
ACAD
1000
AcDbSavedByObjectVersion
1070
     0
  0
VISUALSTYLE
  5
2D
102
{ACAD_XDICTIONARY
360
1A5F
102
}
102
{ACAD_REACTORS
330
29
102
}
330
29
100
AcDbVisualStyle
  2

 70
     3
 71
     2
 72
     2
 73
     1
 90
        2
 40
-0.6
 41
30.0
 62
     5
 63
     7
 74
     1
 91
        0
 64
     7
 65
   257
 75
     1
175
     1
 42
1.0
 92
        0
 66
   257
 43
1.0
 76
     1
 77
     6
 78
     2
 67
     7
 79
     5
170
     0
171
     0
290
     0
174
     0
 93
       13
 44
0.0
173
     0
291
     1
 45
0.0
1001
ACAD
1000
AcDbSavedByObjectVersion
1070
     0
  0
VISUALSTYLE
  5
31
102
{ACAD_XDICTIONARY
360
1A67
102
}
102
{ACAD_REACTORS
330
29
102
}
330
29
100
AcDbVisualStyle
  2

 70
     6
 71
     1
 72
     2
 73
     2
 90
        0
 40
-0.6
 41
-30.0
 62
     5
 63
     7
 74
     2
 91
        2
 64
     7
 65
   257
 75
     2
175
     1
 42
40.0
 92
        0
 66
   257
 43
1.0
 76
     1
 77
     6
 78
     2
 67
     7
 79
     3
170
     0
171
     0
290
     0
174
     0
 93
        1
 44
0.0
173
     0
291
     0
 45
0.0
1001
ACAD
1000
AcDbSavedByObjectVersion
1070
     0
  0
VISUALSTYLE
  5
3F
102
{ACAD_XDICTIONARY
360
1A83
102
}
102
{ACAD_REACTORS
330
29
102
}
330
29
100
AcDbVisualStyle
  2

 70
    20
 71
     2
 72
     2
 73
     0
 90
        0
 40
-0.6
 41
-30.0
 62
     5
 63
     7
 74
     1
 91
        4
 64
     7
 65
   257
 75
     1
175
     1
 42
1.0
 92
       10
 66
     7
 43
1.0
 76
     1
 77
     6
 78
     2
 67
     7
 79
     5
170
     0
171
     0
290
     0
174
     0
 93
        1
 44
0.0
173
     0
291
     1
 45
0.0
1001
ACAD
1000
AcDbSavedByObjectVersion
1070
     0
  0
VISUALSTYLE
  5
37
102
{ACAD_XDICTIONARY
360
1A73
102
}
102
{ACAD_REACTORS
330
29
102
}
330
29
100
AcDbVisualStyle
  2

 70
    14
 71
     2
 72
     2
 73
     0
 90
        0
 40
-0.6
 41
-30.0
 62
     5
 63
     7
 74
     1
 91
        4
 64
     7
 65
   257
 75
     7
175
     7
 42
1.0
 92
        8
 66
     7
 43
1.0
 76
     1
 77
     6
 78
     2
 67
     7
 79
     5
170
     0
171
     0
290
     0
174
     0
 93
        1
 44
0.0
173
     0
291
     1
 45
0.0
1001
ACAD
1000
AcDbSavedByObjectVersion
1070
     0
  0
VISUALSTYLE
  5
40
102
{ACAD_XDICTIONARY
360
1A85
102
}
102
{ACAD_REACTORS
330
29
102
}
330
29
100
AcDbVisualStyle
  2

 70
    21
 71
     2
 72
     2
 73
     0
 90
        0
 40
-0.6
 41
-30.0
 62
     5
 63
     7
 74
     1
 91
        4
 64
     7
 65
   257
 75
     1
175
     1
 42
1.0
 92
        9
 66
     7
 43
1.0
 76
     1
 77
     6
 78
     2
 67
     7
 79
     5
170
     0
171
     0
290
     0
174
     0
 93
        1
 44
0.0
173
     0
291
     1
 45
0.0
1001
ACAD
1000
AcDbSavedByObjectVersion
1070
     0
  0
VISUALSTYLE
  5
33
102
{ACAD_XDICTIONARY
360
1A6B
102
}
102
{ACAD_REACTORS
330
29
102
}
330
29
100
AcDbVisualStyle
  2

 70
     8
 71
     2
 72
     3
 73
     0
 90
        2
 40
-0.6
 41
30.0
 62
     5
 63
     7
 74
     0
 91
        0
 64
     7
 65
   257
 75
     1
175
     1
 42
1.0
 92
        8
 66
   257
 43
1.0
 76
     1
 77
     6
 78
     2
 67
     7
 79
     3
170
     0
171
     0
290
     0
174
     0
 93
       13
 44
0.0
173
     0
291
     0
 45
0.0
1001
ACAD
1000
AcDbSavedByObjectVersion
1070
     0
  0
VISUALSTYLE
  5
3E
102
{ACAD_XDICTIONARY
360
1A81
102
}
102
{ACAD_REACTORS
330
29
102
}
330
29
100
AcDbVisualStyle
  2

 70
    27
 71
     2
 72
     2
 73
     1
 90
        2
 40
-0.6
 41
30.0
 62
     5
 63
     7
 74
     0
 91
        4
 64
     7
 65
   257
 75
     1
175
     1
 42
1.0
 92
        8
 66
   257
 43
1.0
 76
     1
 77
     6
 78
     2
 67
     8
 79
     3
170
     0
171
     0
290
     0
174
     0
 93
        5
 44
0.0
173
     0
291
     0
 45
0.0
1001
ACAD
1000
AcDbSavedByObjectVersion
1070
     0
  0
VISUALSTYLE
  5
3D
102
{ACAD_XDICTIONARY
360
1A7F
102
}
102
{ACAD_REACTORS
330
29
102
}
330
29
100
AcDbVisualStyle
  2

 70
    26
 71
     2
 72
     2
 73
     1
 90
        2
 40
-0.6
 41
30.0
 62
     5
 63
     7
 74
     1
 91
       10
 64
     7
 65
   257
 75
     2
175
     1
 42
1.0
 92
        8
 66
   257
 43
1.0
 76
     1
 77
     6
 78
     2
 67
     7
 79
     3
170
     0
171
     0
290
     0
174
     0
 93
        5
 44
0.0
173
     0
291
     0
 45
0.0
1001
ACAD
1000
AcDbSavedByObjectVersion
1070
     0
  0
VISUALSTYLE
  5
3A
102
{ACAD_XDICTIONARY
360
1A79
102
}
102
{ACAD_REACTORS
330
29
102
}
330
29
100
AcDbVisualStyle
  2

 70
    23
 71
     2
 72
     2
 73
     3
 90
        0
 40
-0.6
 41
-30.0
 62
     5
 63
     7
 74
     2
 91
        2
 64
     7
 65
     7
 75
     1
175
     1
 42
40.0
 92
        8
 66
     7
 43
1.0
 76
     1
 77
     6
 78
     2
 67
     7
 79
     3
170
     0
171
     0
290
     0
174
     0
 93
        1
 44
0.0
173
     0
291
     0
 45
0.0
1001
ACAD
1000
AcDbSavedByObjectVersion
1070
     0
  0
VISUALSTYLE
  5
3B
102
{ACAD_XDICTIONARY
360
1A7B
102
}
102
{ACAD_REACTORS
330
29
102
}
330
29
100
AcDbVisualStyle
  2

 70
    24
 71
     1
 72
     2
 73
     2
 90
        0
 40
-0.6
 41
-30.0
 62
     5
 63
     7
 74
     2
 91
        2
 64
     7
 65
     7
 75
     1
175
     1
 42
40.0
 92
       11
 66
     7
 43
1.0
 76
     1
 77
     6
 78
     2
 67
     7
 79
     6
170
     0
171
     0
290
     0
174
     0
 93
        1
 44
0.0
173
     0
291
     0
 45
0.0
1001
ACAD
1000
AcDbSavedByObjectVersion
1070
     0
  0
VISUALSTYLE
  5
36
102
{ACAD_XDICTIONARY
360
1A71
102
}
102
{ACAD_REACTORS
330
29
102
}
330
29
100
AcDbVisualStyle
  2

 70
    13
 71
     2
 72
     2
 73
     0
 90
        0
 40
-0.6
 41
-30.0
 62
     5
 63
     7
 74
     1
 91
        4
 64
     7
 65
   257
 75
     1
175
     1
 42
1.0
 92
       12
 66
     7
 43
1.0
 76
     1
 77
     6
 78
     2
 67
     7
 79
     5
170
     0
171
     0
290
     0
174
     0
 93
        1
 44
0.0
173
     0
291
     1
 45
0.0
1001
ACAD
1000
AcDbSavedByObjectVersion
1070
     0
  0
VISUALSTYLE
  5
30
102
{ACAD_XDICTIONARY
360
1A65
102
}
102
{ACAD_REACTORS
330
29
102
}
330
29
100
AcDbVisualStyle
  2

 70
     5
 71
     0
 72
     2
 73
     0
 90
        0
 40
-0.6
 41
-30.0
 62
     5
 63
     7
 74
     1
 91
        4
 64
     7
 65
   257
 75
     1
175
     1
 42
1.0
 92
        0
 66
   257
 43
1.0
 76
     1
 77
     6
 78
     2
 67
     7
 79
     3
170
     0
171
     0
290
     0
174
     0
 93
        1
 44
0.0
173
     0
291
     0
 45
0.0
1001
ACAD
1000
AcDbSavedByObjectVersion
1070
     0
  0
VISUALSTYLE
  5
3C
102
{ACAD_XDICTIONARY
360
1A7D
102
}
102
{ACAD_REACTORS
330
29
102
}
330
29
100
AcDbVisualStyle
  2

 70
    25
 71
     2
 72
     2
 73
     1
 90
        1
 40
0.5
 41
-30.0
 62
     5
 63
     7
 74
     1
 91
        0
 64
     7
 65
   257
 75
     1
175
     1
 42
1.0
 92
        8
 66
     7
 43
1.0
 76
     1
 77
     6
 78
     2
 67
     7
 79
     3
170
     0
171
     0
290
     0
174
     0
 93
       13
 44
0.0
173
     0
291
     0
 45
0.0
1001
ACAD
1000
AcDbSavedByObjectVersion
1070
     0
  0
DICTIONARYVAR
  5
54B
102
{ACAD_REACTORS
330
548
102
}
330
548
100
DictionaryVariables
280
     0
  1
1:1
  0
DICTIONARYVAR
  5
54A
102
{ACAD_REACTORS
330
548
102
}
330
548
100
DictionaryVariables
280
     0
  1
STANDARD
  0
DICTIONARYVAR
  5
549
102
{ACAD_REACTORS
330
548
102
}
330
548
100
DictionaryVariables
280
     0
  1
STANDARD
  0
DICTIONARYVAR
  5
54E
102
{ACAD_REACTORS
330
548
102
}
330
548
100
DictionaryVariables
280
     0
  1
1
  0
DICTIONARYVAR
  5
54D
102
{ACAD_REACTORS
330
548
102
}
330
548
100
DictionaryVariables
280
     0
  1
0
  0
DICTIONARYVAR
  5
54C
102
{ACAD_REACTORS
330
548
102
}
330
548
100
DictionaryVariables
280
     0
  1
127
  0
DICTIONARYVAR
  5
1403
102
{ACAD_REACTORS
330
548
102
}
330
548
100
DictionaryVariables
280
     0
  1
2
  0
DICTIONARY
  5
1A8C
330
6E
100
AcDbDictionary
280
     1
281
     1
  3
ACAD_XREC_ROUNDTRIP
360
1A8D
  0
DICTIONARY
  5
1A8A
330
6A
100
AcDbDictionary
280
     1
281
     1
  3
ACAD_XREC_ROUNDTRIP
360
1A8B
  0
DICTIONARY
  5
1A
330
19
100
AcDbDictionary
280
     1
281
     1
  3
ACAD_XREC_ROUNDTRIP
360
5B4
  3
BUMPTILE
360
1C
  3
DIFFUSETILE
360
1B
  3
OPACITYTILE
360
1F
  3
REFLECTIONTILE
360
1E
  3
REFRACTIONTILE
360
20
  3
SPECULARTILE
360
1D
  0
DICTIONARY
  5
12
330
11
100
AcDbDictionary
280
     1
281
     1
  3
ACAD_XREC_ROUNDTRIP
360
5B3
  3
BUMPTILE
360
14
  3
DIFFUSETILE
360
13
  3
OPACITYTILE
360
17
  3
REFLECTIONTILE
360
16
  3
REFRACTIONTILE
360
18
  3
SPECULARTILE
360
15
  0
DICTIONARY
  5
22
330
21
100
AcDbDictionary
280
     1
281
     1
  3
ACAD_XREC_ROUNDTRIP
360
5B5
  3
BUMPTILE
360
24
  3
DIFFUSETILE
360
23
  3
OPACITYTILE
360
27
  3
REFLECTIONTILE
360
26
  3
REFRACTIONTILE
360
28
  3
SPECULARTILE
360
25
  0
DICTIONARY
  5
5AB
330
64
100
AcDbDictionary
280
     1
281
     1
  3
ACAD_ROUNDTRIP_2008_TABLESTYLE_CELLSTYLEMAP
360
1A52
  3
ACAD_XREC_ROUNDTRIP
360
1A89
  0
DICTIONARY
  5
1A63
330
2F
100
AcDbDictionary
280
     1
281
     1
  3
ACAD_XREC_ROUNDTRIP
360
1A64
  0
DICTIONARY
  5
1A8E
330
3EA
100
AcDbDictionary
280
     1
281
     1
  3
ACAD_XREC_ROUNDTRIP
360
1A8F
  0
DICTIONARY
  5
1A61
330
2E
100
AcDbDictionary
280
     1
281
     1
  3
ACAD_XREC_ROUNDTRIP
360
1A62
  0
DICTIONARY
  5
1A6F
330
35
100
AcDbDictionary
280
     1
281
     1
  3
ACAD_XREC_ROUNDTRIP
360
1A70
  0
DICTIONARY
  5
1A77
330
39
100
AcDbDictionary
280
     1
281
     1
  3
ACAD_XREC_ROUNDTRIP
360
1A78
  0
DICTIONARY
  5
1A69
330
32
100
AcDbDictionary
280
     1
281
     1
  3
ACAD_XREC_ROUNDTRIP
360
1A6A
  0
DICTIONARY
  5
1A6D
330
34
100
AcDbDictionary
280
     1
281
     1
  3
ACAD_XREC_ROUNDTRIP
360
1A6E
  0
DICTIONARY
  5
1A87
330
41
100
AcDbDictionary
280
     1
281
     1
  3
ACAD_XREC_ROUNDTRIP
360
1A88
  0
DICTIONARY
  5
1A75
330
38
100
AcDbDictionary
280
     1
281
     1
  3
ACAD_XREC_ROUNDTRIP
360
1A76
  0
DICTIONARY
  5
1A59
330
2A
100
AcDbDictionary
280
     1
281
     1
  3
ACAD_XREC_ROUNDTRIP
360
1A5A
  0
DICTIONARY
  5
1A5B
330
2B
100
AcDbDictionary
280
     1
281
     1
  3
ACAD_XREC_ROUNDTRIP
360
1A5C
  0
DICTIONARY
  5
1A5D
330
2C
100
AcDbDictionary
280
     1
281
     1
  3
ACAD_XREC_ROUNDTRIP
360
1A5E
  0
DICTIONARY
  5
1A5F
330
2D
100
AcDbDictionary
280
     1
281
     1
  3
ACAD_XREC_ROUNDTRIP
360
1A60
  0
DICTIONARY
  5
1A67
330
31
100
AcDbDictionary
280
     1
281
     1
  3
ACAD_XREC_ROUNDTRIP
360
1A68
  0
DICTIONARY
  5
1A83
330
3F
100
AcDbDictionary
280
     1
281
     1
  3
ACAD_XREC_ROUNDTRIP
360
1A84
  0
DICTIONARY
  5
1A73
330
37
100
AcDbDictionary
280
     1
281
     1
  3
ACAD_XREC_ROUNDTRIP
360
1A74
  0
DICTIONARY
  5
1A85
330
40
100
AcDbDictionary
280
     1
281
     1
  3
ACAD_XREC_ROUNDTRIP
360
1A86
  0
DICTIONARY
  5
1A6B
330
33
100
AcDbDictionary
280
     1
281
     1
  3
ACAD_XREC_ROUNDTRIP
360
1A6C
  0
DICTIONARY
  5
1A81
330
3E
100
AcDbDictionary
280
     1
281
     1
  3
ACAD_XREC_ROUNDTRIP
360
1A82
  0
DICTIONARY
  5
1A7F
330
3D
100
AcDbDictionary
280
     1
281
     1
  3
ACAD_XREC_ROUNDTRIP
360
1A80
  0
DICTIONARY
  5
1A79
330
3A
100
AcDbDictionary
280
     1
281
     1
  3
ACAD_XREC_ROUNDTRIP
360
1A7A
  0
DICTIONARY
  5
1A7B
330
3B
100
AcDbDictionary
280
     1
281
     1
  3
ACAD_XREC_ROUNDTRIP
360
1A7C
  0
DICTIONARY
  5
1A71
330
36
100
AcDbDictionary
280
     1
281
     1
  3
ACAD_XREC_ROUNDTRIP
360
1A72
  0
DICTIONARY
  5
1A65
330
30
100
AcDbDictionary
280
     1
281
     1
  3
ACAD_XREC_ROUNDTRIP
360
1A66
  0
DICTIONARY
  5
1A7D
330
3C
100
AcDbDictionary
280
     1
281
     1
  3
ACAD_XREC_ROUNDTRIP
360
1A7E
  0
XRECORD
  5
1A8D
102
{ACAD_REACTORS
330
1A8C
102
}
330
1A8C
100
AcDbXrecord
280
     1
102
SHADEPLOT
 70
     0
102
SHADEPLOTRESLEVEL
 70
     2
102
SHADEPLOTCUSTOMDPI
 70
   300
  0
XRECORD
  5
1A8B
102
{ACAD_REACTORS
330
1A8A
102
}
330
1A8A
100
AcDbXrecord
280
     1
102
SHADEPLOT
 70
     0
102
SHADEPLOTRESLEVEL
 70
     2
102
SHADEPLOTCUSTOMDPI
 70
   300
  0
XRECORD
  5
5B4
102
{ACAD_REACTORS
330
1A
102
}
330
1A
100
AcDbXrecord
280
     1
102
MATERIAL
148
0.0
149
0.0
149
0.0
 93
        0
 94
      127
282
     0
 72
     0
 77
     0
171
     0
175
     0
179
     0
273
     0
  0
XRECORD
  5
1C
102
{ACAD_REACTORS
330
1A
102
}
330
1A
100
AcDbXrecord
280
     1
270
     1
271
     1
  0
XRECORD
  5
1B
102
{ACAD_REACTORS
330
1A
102
}
330
1A
100
AcDbXrecord
280
     1
270
     1
271
     1
  0
XRECORD
  5
1F
102
{ACAD_REACTORS
330
1A
102
}
330
1A
100
AcDbXrecord
280
     1
270
     1
271
     1
  0
XRECORD
  5
1E
102
{ACAD_REACTORS
330
1A
102
}
330
1A
100
AcDbXrecord
280
     1
270
     1
271
     1
  0
XRECORD
  5
20
102
{ACAD_REACTORS
330
1A
102
}
330
1A
100
AcDbXrecord
280
     1
270
     1
271
     1
  0
XRECORD
  5
1D
102
{ACAD_REACTORS
330
1A
102
}
330
1A
100
AcDbXrecord
280
     1
270
     1
271
     1
  0
XRECORD
  5
5B3
102
{ACAD_REACTORS
330
12
102
}
330
12
100
AcDbXrecord
280
     1
102
MATERIAL
148
0.0
149
0.0
149
0.0
 93
        0
 94
      127
282
     0
 72
     0
 77
     0
171
     0
175
     0
179
     0
273
     0
  0
XRECORD
  5
14
102
{ACAD_REACTORS
330
12
102
}
330
12
100
AcDbXrecord
280
     1
270
     1
271
     1
  0
XRECORD
  5
13
102
{ACAD_REACTORS
330
12
102
}
330
12
100
AcDbXrecord
280
     1
270
     1
271
     1
  0
XRECORD
  5
17
102
{ACAD_REACTORS
330
12
102
}
330
12
100
AcDbXrecord
280
     1
270
     1
271
     1
  0
XRECORD
  5
16
102
{ACAD_REACTORS
330
12
102
}
330
12
100
AcDbXrecord
280
     1
270
     1
271
     1
  0
XRECORD
  5
18
102
{ACAD_REACTORS
330
12
102
}
330
12
100
AcDbXrecord
280
     1
270
     1
271
     1
  0
XRECORD
  5
15
102
{ACAD_REACTORS
330
12
102
}
330
12
100
AcDbXrecord
280
     1
270
     1
271
     1
  0
XRECORD
  5
5B5
102
{ACAD_REACTORS
330
22
102
}
330
22
100
AcDbXrecord
280
     1
102
MATERIAL
148
0.0
149
0.0
149
0.0
 93
        0
 94
      127
282
     0
 72
     0
 77
     0
171
     0
175
     0
179
     0
273
     0
  0
XRECORD
  5
24
102
{ACAD_REACTORS
330
22
102
}
330
22
100
AcDbXrecord
280
     1
270
     1
271
     1
  0
XRECORD
  5
23
102
{ACAD_REACTORS
330
22
102
}
330
22
100
AcDbXrecord
280
     1
270
     1
271
     1
  0
XRECORD
  5
27
102
{ACAD_REACTORS
330
22
102
}
330
22
100
AcDbXrecord
280
     1
270
     1
271
     1
  0
XRECORD
  5
26
102
{ACAD_REACTORS
330
22
102
}
330
22
100
AcDbXrecord
280
     1
270
     1
271
     1
  0
XRECORD
  5
28
102
{ACAD_REACTORS
330
22
102
}
330
22
100
AcDbXrecord
280
     1
270
     1
271
     1
  0
XRECORD
  5
25
102
{ACAD_REACTORS
330
22
102
}
330
22
100
AcDbXrecord
280
     1
270
     1
271
     1
  0
CELLSTYLEMAP
  5
1A52
102
{ACAD_REACTORS
330
5AB
102
}
330
5AB
100
AcDbCellStyleMap
 90
        3
300
CELLSTYLE
  1
TABLEFORMAT_BEGIN
 90
        5
170
     1
 91
        0
 92
    32768
 62
   257
 93
        1
300
CONTENTFORMAT
  1
CONTENTFORMAT_BEGIN
 90
        0
 91
        0
 92
      512
 93
        0
300

 40
0.0
140
1.0
 94
        5
 62
     0
340
55
144
0.25
309
CONTENTFORMAT_END
171
     1
301
MARGIN
  1
CELLMARGIN_BEGIN
 40
0.06
 40
0.06
 40
0.06
 40
0.06
 40
0.18
 40
0.18
309
CELLMARGIN_END
 94
        6
 95
        1
302
GRIDFORMAT
  1
GRIDFORMAT_BEGIN
 90
        0
 91
        1
 62
     0
 92
       -2
340
0
 93
        0
 40
0.045
309
GRIDFORMAT_END
 95
        2
302
GRIDFORMAT
  1
GRIDFORMAT_BEGIN
 90
        0
 91
        1
 62
     0
 92
       -2
340
0
 93
        0
 40
0.045
309
GRIDFORMAT_END
 95
        4
302
GRIDFORMAT
  1
GRIDFORMAT_BEGIN
 90
        0
 91
        1
 62
     0
 92
       -2
340
0
 93
        0
 40
0.045
309
GRIDFORMAT_END
 95
        8
302
GRIDFORMAT
  1
GRIDFORMAT_BEGIN
 90
        0
 91
        1
 62
     0
 92
       -2
340
0
 93
        0
 40
0.045
309
GRIDFORMAT_END
 95
       16
302
GRIDFORMAT
  1
GRIDFORMAT_BEGIN
 90
        0
 91
        1
 62
     0
 92
       -2
340
0
 93
        0
 40
0.045
309
GRIDFORMAT_END
 95
       32
302
GRIDFORMAT
  1
GRIDFORMAT_BEGIN
 90
        0
 91
        1
 62
     0
 92
       -2
340
0
 93
        0
 40
0.045
309
GRIDFORMAT_END
309
TABLEFORMAT_END
  1
CELLSTYLE_BEGIN
 90
        1
 91
        1
300
_TITLE
309
CELLSTYLE_END
300
CELLSTYLE
  1
TABLEFORMAT_BEGIN
 90
        5
170
     1
 91
        0
 92
        0
 62
   257
 93
        1
300
CONTENTFORMAT
  1
CONTENTFORMAT_BEGIN
 90
        0
 91
        0
 92
      512
 93
        0
300

 40
0.0
140
1.0
 94
        5
 62
     0
340
55
144
0.18
309
CONTENTFORMAT_END
171
     1
301
MARGIN
  1
CELLMARGIN_BEGIN
 40
0.06
 40
0.06
 40
0.06
 40
0.06
 40
0.18
 40
0.18
309
CELLMARGIN_END
 94
        6
 95
        1
302
GRIDFORMAT
  1
GRIDFORMAT_BEGIN
 90
        0
 91
        1
 62
     0
 92
       -2
340
0
 93
        0
 40
0.045
309
GRIDFORMAT_END
 95
        2
302
GRIDFORMAT
  1
GRIDFORMAT_BEGIN
 90
        0
 91
        1
 62
     0
 92
       -2
340
0
 93
        0
 40
0.045
309
GRIDFORMAT_END
 95
        4
302
GRIDFORMAT
  1
GRIDFORMAT_BEGIN
 90
        0
 91
        1
 62
     0
 92
       -2
340
0
 93
        0
 40
0.045
309
GRIDFORMAT_END
 95
        8
302
GRIDFORMAT
  1
GRIDFORMAT_BEGIN
 90
        0
 91
        1
 62
     0
 92
       -2
340
0
 93
        0
 40
0.045
309
GRIDFORMAT_END
 95
       16
302
GRIDFORMAT
  1
GRIDFORMAT_BEGIN
 90
        0
 91
        1
 62
     0
 92
       -2
340
0
 93
        0
 40
0.045
309
GRIDFORMAT_END
 95
       32
302
GRIDFORMAT
  1
GRIDFORMAT_BEGIN
 90
        0
 91
        1
 62
     0
 92
       -2
340
0
 93
        0
 40
0.045
309
GRIDFORMAT_END
309
TABLEFORMAT_END
  1
CELLSTYLE_BEGIN
 90
        2
 91
        1
300
_HEADER
309
CELLSTYLE_END
300
CELLSTYLE
  1
TABLEFORMAT_BEGIN
 90
        5
170
     1
 91
        0
 92
        0
 62
   257
 93
        1
300
CONTENTFORMAT
  1
CONTENTFORMAT_BEGIN
 90
        0
 91
        0
 92
      512
 93
        0
300

 40
0.0
140
1.0
 94
        2
 62
     0
340
55
144
0.18
309
CONTENTFORMAT_END
171
     1
301
MARGIN
  1
CELLMARGIN_BEGIN
 40
0.06
 40
0.06
 40
0.06
 40
0.06
 40
0.18
 40
0.18
309
CELLMARGIN_END
 94
        6
 95
        1
302
GRIDFORMAT
  1
GRIDFORMAT_BEGIN
 90
        0
 91
        1
 62
     0
 92
       -2
340
0
 93
        0
 40
0.045
309
GRIDFORMAT_END
 95
        2
302
GRIDFORMAT
  1
GRIDFORMAT_BEGIN
 90
        0
 91
        1
 62
     0
 92
       -2
340
0
 93
        0
 40
0.045
309
GRIDFORMAT_END
 95
        4
302
GRIDFORMAT
  1
GRIDFORMAT_BEGIN
 90
        0
 91
        1
 62
     0
 92
       -2
340
0
 93
        0
 40
0.045
309
GRIDFORMAT_END
 95
        8
302
GRIDFORMAT
  1
GRIDFORMAT_BEGIN
 90
        0
 91
        1
 62
     0
 92
       -2
340
0
 93
        0
 40
0.045
309
GRIDFORMAT_END
 95
       16
302
GRIDFORMAT
  1
GRIDFORMAT_BEGIN
 90
        0
 91
        1
 62
     0
 92
       -2
340
0
 93
        0
 40
0.045
309
GRIDFORMAT_END
 95
       32
302
GRIDFORMAT
  1
GRIDFORMAT_BEGIN
 90
        0
 91
        1
 62
     0
 92
       -2
340
0
 93
        0
 40
0.045
309
GRIDFORMAT_END
309
TABLEFORMAT_END
  1
CELLSTYLE_BEGIN
 90
        3
 91
        2
300
_DATA
309
CELLSTYLE_END
  0
XRECORD
  5
1A89
102
{ACAD_REACTORS
330
5AB
102
}
330
5AB
100
AcDbXrecord
280
     1
102
ACAD_ROUNDTRIP_PRE2007_TABLESTYLE
 90
      512
 91
        0
  1

 92
      512
 93
        0
  2

 94
      512
 95
        0
  3

  0
XRECORD
  5
1A64
102
{ACAD_REACTORS
330
1A63
102
}
330
1A63
100
AcDbXrecord
280
     1
102
RTVSPropertyOp0
 70
     1
102
RTVSPropertyOp1
 70
     1
102
RTVSPropertyOp2
 70
     1
102
RTVSPropertyOp3
 70
     1
102
RTVSPropertyOp4
 70
     1
102
RTVSPropertyOp5
 70
     1
102
RTVSPropertyOp6
 70
     1
102
RTVSPropertyOp7
 70
     1
102
RTVSPropertyOp8
 70
     1
102
RTVSPropertyOp9
 70
     1
102
RTVSPropertyOp10
 70
     1
102
RTVSPropertyOp11
 70
     1
102
RTVSPropertyOp12
 70
     1
102
RTVSPropertyOp13
 70
     1
102
RTVSPropertyOp14
 70
     1
102
RTVSPropertyOp15
 70
     1
102
RTVSPropertyOp16
 70
     1
102
RTVSPropertyOp17
 70
     1
102
RTVSPropertyOp18
 70
     1
102
RTVSPropertyOp19
 70
     1
102
RTVSPropertyOp20
 70
     1
102
RTVSPropertyOp21
 70
     1
102
RTVSPropertyOp22
 70
     1
102
RTVSPropertyOp23
 70
     1
102
RTVSPropertyOp24
 70
     1
102
RTVSPropertyOp25
 70
     1
102
RTVSPropertyOp26
 70
     1
102
RTVSPropertyOp27
 70
     1
102
RTVSPropertyOp28
 70
     1
102
RTVSPropertyOp29
 70
     1
102
RTVSPropertyOp30
 70
     1
102
RTVSPropertyOp31
 70
     1
102
RTVSPropertyOp32
 70
     1
  0
XRECORD
  5
1A8F
102
{ACAD_REACTORS
330
1A8E
102
}
330
1A8E
100
AcDbXrecord
280
     1
102
RTVSPropertyOp0
 70
     1
102
RTVSPropertyOp1
 70
     1
102
RTVSPropertyOp2
 70
     1
102
RTVSPropertyOp3
 70
     1
102
RTVSPropertyOp4
 70
     1
102
RTVSPropertyOp5
 70
     1
102
RTVSPropertyOp6
 70
     1
102
RTVSPropertyOp7
 70
     1
102
RTVSPropertyOp8
 70
     1
102
RTVSPropertyOp9
 70
     1
102
RTVSPropertyOp10
 70
     1
102
RTVSPropertyOp11
 70
     1
102
RTVSPropertyOp12
 70
     1
102
RTVSPropertyOp13
 70
     1
102
RTVSPropertyOp14
 70
     1
102
RTVSPropertyOp15
 70
     1
102
RTVSPropertyOp16
 70
     1
102
RTVSPropertyOp17
 70
     1
102
RTVSPropertyOp18
 70
     1
102
RTVSPropertyOp19
 70
     1
102
RTVSPropertyOp20
 70
     1
102
RTVSPropertyOp21
 70
     1
102
RTVSPropertyOp22
 70
     1
102
RTVSPropertyOp23
 70
     1
102
RTVSPropertyOp24
 70
     1
102
RTVSPropertyOp25
 70
     1
102
RTVSPropertyOp26
 70
     1
102
RTVSPropertyOp27
 70
     1
102
RTVSPropertyOp28
 70
     1
102
RTVSPropertyOp29
 70
     1
102
RTVSPropertyOp30
 70
     1
102
RTVSPropertyOp31
 70
     1
102
RTVSPropertyOp32
 70
     1
  0
XRECORD
  5
1A62
102
{ACAD_REACTORS
330
1A61
102
}
330
1A61
100
AcDbXrecord
280
     1
102
RTVSPropertyOp0
 70
     1
102
RTVSPropertyOp1
 70
     1
102
RTVSPropertyOp2
 70
     1
102
RTVSPropertyOp3
 70
     1
102
RTVSPropertyOp4
 70
     1
102
RTVSPropertyOp5
 70
     1
102
RTVSPropertyOp6
 70
     1
102
RTVSPropertyOp7
 70
     1
102
RTVSPropertyOp8
 70
     1
102
RTVSPropertyOp9
 70
     1
102
RTVSPropertyOp10
 70
     1
102
RTVSPropertyOp11
 70
     1
102
RTVSPropertyOp12
 70
     1
102
RTVSPropertyOp13
 70
     1
102
RTVSPropertyOp14
 70
     1
102
RTVSPropertyOp15
 70
     1
102
RTVSPropertyOp16
 70
     1
102
RTVSPropertyOp17
 70
     1
102
RTVSPropertyOp18
 70
     1
102
RTVSPropertyOp19
 70
     1
102
RTVSPropertyOp20
 70
     1
102
RTVSPropertyOp21
 70
     1
102
RTVSPropertyOp22
 70
     1
102
RTVSPropertyOp23
 70
     1
102
RTVSPropertyOp24
 70
     1
102
RTVSPropertyOp25
 70
     1
102
RTVSPropertyOp26
 70
     1
102
RTVSPropertyOp27
 70
     1
102
RTVSPropertyOp28
 70
     1
102
RTVSPropertyOp29
 70
     1
102
RTVSPropertyOp30
 70
     1
102
RTVSPropertyOp31
 70
     1
102
RTVSPropertyOp32
 70
     1
  0
XRECORD
  5
1A70
102
{ACAD_REACTORS
330
1A6F
102
}
330
1A6F
100
AcDbXrecord
280
     1
102
RTVSPropertyOp0
 70
     1
102
RTVSPropertyOp1
 70
     1
102
RTVSPropertyOp2
 70
     1
102
RTVSPropertyOp3
 70
     1
102
RTVSPropertyOp4
 70
     1
102
RTVSPropertyOp5
 70
     1
102
RTVSPropertyOp6
 70
     1
102
RTVSPropertyOp7
 70
     1
102
RTVSPropertyOp8
 70
     1
102
RTVSPropertyOp9
 70
     1
102
RTVSPropertyOp10
 70
     1
102
RTVSPropertyOp11
 70
     1
102
RTVSPropertyOp12
 70
     1
102
RTVSPropertyOp13
 70
     1
102
RTVSPropertyOp14
 70
     1
102
RTVSPropertyOp15
 70
     1
102
RTVSPropertyOp16
 70
     1
102
RTVSPropertyOp17
 70
     1
102
RTVSPropertyOp18
 70
     1
102
RTVSPropertyOp19
 70
     1
102
RTVSPropertyOp20
 70
     1
102
RTVSPropertyOp21
 70
     1
102
RTVSPropertyOp22
 70
     1
102
RTVSPropertyOp23
 70
     1
102
RTVSPropertyOp24
 70
     1
102
RTVSPropertyOp25
 70
     1
102
RTVSPropertyOp26
 70
     1
102
RTVSPropertyOp27
 70
     1
102
RTVSPropertyOp28
 70
     1
102
RTVSPropertyOp29
 70
     1
102
RTVSPropertyOp30
 70
     1
102
RTVSPropertyOp31
 70
     1
102
RTVSPropertyOp32
 70
     1
  0
XRECORD
  5
1A78
102
{ACAD_REACTORS
330
1A77
102
}
330
1A77
100
AcDbXrecord
280
     1
102
RTVSPropertyOp0
 70
     1
102
RTVSPropertyOp1
 70
     1
102
RTVSPropertyOp2
 70
     1
102
RTVSPropertyOp3
 70
     1
102
RTVSPropertyOp4
 70
     1
102
RTVSPropertyOp5
 70
     1
102
RTVSPropertyOp6
 70
     1
102
RTVSPropertyOp7
 70
     1
102
RTVSPropertyOp8
 70
     1
102
RTVSPropertyOp9
 70
     1
102
RTVSPropertyOp10
 70
     1
102
RTVSPropertyOp11
 70
     1
102
RTVSPropertyOp12
 70
     1
102
RTVSPropertyOp13
 70
     1
102
RTVSPropertyOp14
 70
     1
102
RTVSPropertyOp15
 70
     1
102
RTVSPropertyOp16
 70
     1
102
RTVSPropertyOp17
 70
     1
102
RTVSPropertyOp18
 70
     1
102
RTVSPropertyOp19
 70
     1
102
RTVSPropertyOp20
 70
     1
102
RTVSPropertyOp21
 70
     1
102
RTVSPropertyOp22
 70
     1
102
RTVSPropertyOp23
 70
     1
102
RTVSPropertyOp24
 70
     1
102
RTVSPropertyOp25
 70
     1
102
RTVSPropertyOp26
 70
     1
102
RTVSPropertyOp27
 70
     1
102
RTVSPropertyOp28
 70
     1
102
RTVSPropertyOp29
 70
     1
102
RTVSPropertyOp30
 70
     1
102
RTVSPropertyOp31
 70
     1
102
RTVSPropertyOp32
 70
     1
  0
XRECORD
  5
1A6A
102
{ACAD_REACTORS
330
1A69
102
}
330
1A69
100
AcDbXrecord
280
     1
102
RTVSPropertyOp0
 70
     1
102
RTVSPropertyOp1
 70
     1
102
RTVSPropertyOp2
 70
     1
102
RTVSPropertyOp3
 70
     1
102
RTVSPropertyOp4
 70
     1
102
RTVSPropertyOp5
 70
     1
102
RTVSPropertyOp6
 70
     1
102
RTVSPropertyOp7
 70
     1
102
RTVSPropertyOp8
 70
     1
102
RTVSPropertyOp9
 70
     1
102
RTVSPropertyOp10
 70
     1
102
RTVSPropertyOp11
 70
     1
102
RTVSPropertyOp12
 70
     1
102
RTVSPropertyOp13
 70
     1
102
RTVSPropertyOp14
 70
     1
102
RTVSPropertyOp15
 70
     1
102
RTVSPropertyOp16
 70
     1
102
RTVSPropertyOp17
 70
     1
102
RTVSPropertyOp18
 70
     1
102
RTVSPropertyOp19
 70
     1
102
RTVSPropertyOp20
 70
     1
102
RTVSPropertyOp21
 70
     1
102
RTVSPropertyOp22
 70
     1
102
RTVSPropertyOp23
 70
     1
102
RTVSPropertyOp24
 70
     1
102
RTVSPropertyOp25
 70
     1
102
RTVSPropertyOp26
 70
     1
102
RTVSPropertyOp27
 70
     1
102
RTVSPropertyOp28
 70
     1
102
RTVSPropertyOp29
 70
     1
102
RTVSPropertyOp30
 70
     1
102
RTVSPropertyOp31
 70
     1
102
RTVSPropertyOp32
 70
     1
  0
XRECORD
  5
1A6E
102
{ACAD_REACTORS
330
1A6D
102
}
330
1A6D
100
AcDbXrecord
280
     1
102
RTVSPropertyOp0
 70
     1
102
RTVSPropertyOp1
 70
     1
102
RTVSPropertyOp2
 70
     1
102
RTVSPropertyOp3
 70
     1
102
RTVSPropertyOp4
 70
     1
102
RTVSPropertyOp5
 70
     1
102
RTVSPropertyOp6
 70
     1
102
RTVSPropertyOp7
 70
     1
102
RTVSPropertyOp8
 70
     1
102
RTVSPropertyOp9
 70
     1
102
RTVSPropertyOp10
 70
     1
102
RTVSPropertyOp11
 70
     1
102
RTVSPropertyOp12
 70
     1
102
RTVSPropertyOp13
 70
     1
102
RTVSPropertyOp14
 70
     1
102
RTVSPropertyOp15
 70
     1
102
RTVSPropertyOp16
 70
     1
102
RTVSPropertyOp17
 70
     1
102
RTVSPropertyOp18
 70
     1
102
RTVSPropertyOp19
 70
     1
102
RTVSPropertyOp20
 70
     1
102
RTVSPropertyOp21
 70
     1
102
RTVSPropertyOp22
 70
     1
102
RTVSPropertyOp23
 70
     1
102
RTVSPropertyOp24
 70
     1
102
RTVSPropertyOp25
 70
     1
102
RTVSPropertyOp26
 70
     1
102
RTVSPropertyOp27
 70
     1
102
RTVSPropertyOp28
 70
     1
102
RTVSPropertyOp29
 70
     1
102
RTVSPropertyOp30
 70
     1
102
RTVSPropertyOp31
 70
     1
102
RTVSPropertyOp32
 70
     1
  0
XRECORD
  5
1A88
102
{ACAD_REACTORS
330
1A87
102
}
330
1A87
100
AcDbXrecord
280
     1
102
RTVSPropertyOp0
 70
     0
102
RTVSPropertyOp1
 70
     0
102
RTVSPropertyOp2
 70
     0
102
RTVSPropertyOp3
 70
     0
102
RTVSPropertyOp4
 70
     0
102
RTVSPropertyOp5
 70
     0
102
RTVSPropertyOp6
 70
     0
102
RTVSPropertyOp7
 70
     0
102
RTVSPropertyOp8
 70
     0
102
RTVSPropertyOp9
 70
     0
102
RTVSPropertyOp10
 70
     0
102
RTVSPropertyOp11
 70
     0
102
RTVSPropertyOp12
 70
     0
102
RTVSPropertyOp13
 70
     0
102
RTVSPropertyOp14
 70
     2
102
RTVSPropertyOp15
 70
     0
102
RTVSPropertyOp16
 70
     0
102
RTVSPropertyOp17
 70
     0
102
RTVSPropertyOp18
 70
     0
102
RTVSPropertyOp19
 70
     0
102
RTVSPropertyOp20
 70
     0
102
RTVSPropertyOp21
 70
     0
102
RTVSPropertyOp22
 70
     0
102
RTVSPropertyOp23
 70
     0
102
RTVSPropertyOp24
 70
     0
102
RTVSPropertyOp25
 70
     0
102
RTVSPropertyOp26
 70
     0
102
RTVSPropertyOp27
 70
     0
102
RTVSPropertyOp28
 70
     0
102
RTVSPropertyOp29
 70
     0
102
RTVSPropertyOp30
 70
     0
102
RTVSPropertyOp31
 70
     0
102
RTVSPropertyOp32
 70
     0
  0
XRECORD
  5
1A76
102
{ACAD_REACTORS
330
1A75
102
}
330
1A75
100
AcDbXrecord
280
     1
102
RTVSPropertyOp0
 70
     1
102
RTVSPropertyOp1
 70
     1
102
RTVSPropertyOp2
 70
     1
102
RTVSPropertyOp3
 70
     1
102
RTVSPropertyOp4
 70
     1
102
RTVSPropertyOp5
 70
     1
102
RTVSPropertyOp6
 70
     1
102
RTVSPropertyOp7
 70
     1
102
RTVSPropertyOp8
 70
     1
102
RTVSPropertyOp9
 70
     1
102
RTVSPropertyOp10
 70
     1
102
RTVSPropertyOp11
 70
     1
102
RTVSPropertyOp12
 70
     1
102
RTVSPropertyOp13
 70
     1
102
RTVSPropertyOp14
 70
     1
102
RTVSPropertyOp15
 70
     1
102
RTVSPropertyOp16
 70
     1
102
RTVSPropertyOp17
 70
     1
102
RTVSPropertyOp18
 70
     1
102
RTVSPropertyOp19
 70
     1
102
RTVSPropertyOp20
 70
     1
102
RTVSPropertyOp21
 70
     1
102
RTVSPropertyOp22
 70
     1
102
RTVSPropertyOp23
 70
     1
102
RTVSPropertyOp24
 70
     1
102
RTVSPropertyOp25
 70
     1
102
RTVSPropertyOp26
 70
     1
102
RTVSPropertyOp27
 70
     1
102
RTVSPropertyOp28
 70
     1
102
RTVSPropertyOp29
 70
     1
102
RTVSPropertyOp30
 70
     1
102
RTVSPropertyOp31
 70
     1
102
RTVSPropertyOp32
 70
     1
  0
XRECORD
  5
1A5A
102
{ACAD_REACTORS
330
1A59
102
}
330
1A59
100
AcDbXrecord
280
     1
102
RTVSPropertyOp0
 70
     1
102
RTVSPropertyOp1
 70
     1
102
RTVSPropertyOp2
 70
     1
102
RTVSPropertyOp3
 70
     1
102
RTVSPropertyOp4
 70
     1
102
RTVSPropertyOp5
 70
     1
102
RTVSPropertyOp6
 70
     1
102
RTVSPropertyOp7
 70
     1
102
RTVSPropertyOp8
 70
     1
102
RTVSPropertyOp9
 70
     1
102
RTVSPropertyOp10
 70
     1
102
RTVSPropertyOp11
 70
     1
102
RTVSPropertyOp12
 70
     1
102
RTVSPropertyOp13
 70
     1
102
RTVSPropertyOp14
 70
     1
102
RTVSPropertyOp15
 70
     1
102
RTVSPropertyOp16
 70
     1
102
RTVSPropertyOp17
 70
     1
102
RTVSPropertyOp18
 70
     1
102
RTVSPropertyOp19
 70
     1
102
RTVSPropertyOp20
 70
     1
102
RTVSPropertyOp21
 70
     1
102
RTVSPropertyOp22
 70
     1
102
RTVSPropertyOp23
 70
     1
102
RTVSPropertyOp24
 70
     1
102
RTVSPropertyOp25
 70
     1
102
RTVSPropertyOp26
 70
     1
102
RTVSPropertyOp27
 70
     1
102
RTVSPropertyOp28
 70
     1
102
RTVSPropertyOp29
 70
     1
102
RTVSPropertyOp30
 70
     1
102
RTVSPropertyOp31
 70
     1
102
RTVSPropertyOp32
 70
     1
  0
XRECORD
  5
1A5C
102
{ACAD_REACTORS
330
1A5B
102
}
330
1A5B
100
AcDbXrecord
280
     1
102
RTVSPropertyOp0
 70
     1
102
RTVSPropertyOp1
 70
     1
102
RTVSPropertyOp2
 70
     1
102
RTVSPropertyOp3
 70
     1
102
RTVSPropertyOp4
 70
     1
102
RTVSPropertyOp5
 70
     1
102
RTVSPropertyOp6
 70
     1
102
RTVSPropertyOp7
 70
     1
102
RTVSPropertyOp8
 70
     1
102
RTVSPropertyOp9
 70
     1
102
RTVSPropertyOp10
 70
     1
102
RTVSPropertyOp11
 70
     1
102
RTVSPropertyOp12
 70
     1
102
RTVSPropertyOp13
 70
     1
102
RTVSPropertyOp14
 70
     1
102
RTVSPropertyOp15
 70
     1
102
RTVSPropertyOp16
 70
     1
102
RTVSPropertyOp17
 70
     1
102
RTVSPropertyOp18
 70
     1
102
RTVSPropertyOp19
 70
     1
102
RTVSPropertyOp20
 70
     1
102
RTVSPropertyOp21
 70
     1
102
RTVSPropertyOp22
 70
     1
102
RTVSPropertyOp23
 70
     1
102
RTVSPropertyOp24
 70
     1
102
RTVSPropertyOp25
 70
     1
102
RTVSPropertyOp26
 70
     1
102
RTVSPropertyOp27
 70
     1
102
RTVSPropertyOp28
 70
     1
102
RTVSPropertyOp29
 70
     1
102
RTVSPropertyOp30
 70
     1
102
RTVSPropertyOp31
 70
     1
102
RTVSPropertyOp32
 70
     1
  0
XRECORD
  5
1A5E
102
{ACAD_REACTORS
330
1A5D
102
}
330
1A5D
100
AcDbXrecord
280
     1
102
RTVSPropertyOp0
 70
     1
102
RTVSPropertyOp1
 70
     1
102
RTVSPropertyOp2
 70
     1
102
RTVSPropertyOp3
 70
     1
102
RTVSPropertyOp4
 70
     1
102
RTVSPropertyOp5
 70
     1
102
RTVSPropertyOp6
 70
     1
102
RTVSPropertyOp7
 70
     1
102
RTVSPropertyOp8
 70
     1
102
RTVSPropertyOp9
 70
     1
102
RTVSPropertyOp10
 70
     1
102
RTVSPropertyOp11
 70
     1
102
RTVSPropertyOp12
 70
     1
102
RTVSPropertyOp13
 70
     1
102
RTVSPropertyOp14
 70
     1
102
RTVSPropertyOp15
 70
     1
102
RTVSPropertyOp16
 70
     1
102
RTVSPropertyOp17
 70
     1
102
RTVSPropertyOp18
 70
     1
102
RTVSPropertyOp19
 70
     1
102
RTVSPropertyOp20
 70
     1
102
RTVSPropertyOp21
 70
     1
102
RTVSPropertyOp22
 70
     1
102
RTVSPropertyOp23
 70
     1
102
RTVSPropertyOp24
 70
     1
102
RTVSPropertyOp25
 70
     1
102
RTVSPropertyOp26
 70
     1
102
RTVSPropertyOp27
 70
     1
102
RTVSPropertyOp28
 70
     1
102
RTVSPropertyOp29
 70
     1
102
RTVSPropertyOp30
 70
     1
102
RTVSPropertyOp31
 70
     1
102
RTVSPropertyOp32
 70
     1
  0
XRECORD
  5
1A60
102
{ACAD_REACTORS
330
1A5F
102
}
330
1A5F
100
AcDbXrecord
280
     1
102
RTVSPropertyOp0
 70
     1
102
RTVSPropertyOp1
 70
     1
102
RTVSPropertyOp2
 70
     1
102
RTVSPropertyOp3
 70
     1
102
RTVSPropertyOp4
 70
     1
102
RTVSPropertyOp5
 70
     1
102
RTVSPropertyOp6
 70
     1
102
RTVSPropertyOp7
 70
     1
102
RTVSPropertyOp8
 70
     1
102
RTVSPropertyOp9
 70
     1
102
RTVSPropertyOp10
 70
     1
102
RTVSPropertyOp11
 70
     1
102
RTVSPropertyOp12
 70
     1
102
RTVSPropertyOp13
 70
     1
102
RTVSPropertyOp14
 70
     1
102
RTVSPropertyOp15
 70
     1
102
RTVSPropertyOp16
 70
     1
102
RTVSPropertyOp17
 70
     1
102
RTVSPropertyOp18
 70
     1
102
RTVSPropertyOp19
 70
     1
102
RTVSPropertyOp20
 70
     1
102
RTVSPropertyOp21
 70
     1
102
RTVSPropertyOp22
 70
     1
102
RTVSPropertyOp23
 70
     1
102
RTVSPropertyOp24
 70
     1
102
RTVSPropertyOp25
 70
     1
102
RTVSPropertyOp26
 70
     1
102
RTVSPropertyOp27
 70
     1
102
RTVSPropertyOp28
 70
     1
102
RTVSPropertyOp29
 70
     1
102
RTVSPropertyOp30
 70
     1
102
RTVSPropertyOp31
 70
     1
102
RTVSPropertyOp32
 70
     1
  0
XRECORD
  5
1A68
102
{ACAD_REACTORS
330
1A67
102
}
330
1A67
100
AcDbXrecord
280
     1
102
RTVSPropertyOp0
 70
     1
102
RTVSPropertyOp1
 70
     1
102
RTVSPropertyOp2
 70
     1
102
RTVSPropertyOp3
 70
     1
102
RTVSPropertyOp4
 70
     1
102
RTVSPropertyOp5
 70
     1
102
RTVSPropertyOp6
 70
     1
102
RTVSPropertyOp7
 70
     1
102
RTVSPropertyOp8
 70
     1
102
RTVSPropertyOp9
 70
     1
102
RTVSPropertyOp10
 70
     1
102
RTVSPropertyOp11
 70
     1
102
RTVSPropertyOp12
 70
     1
102
RTVSPropertyOp13
 70
     1
102
RTVSPropertyOp14
 70
     1
102
RTVSPropertyOp15
 70
     1
102
RTVSPropertyOp16
 70
     1
102
RTVSPropertyOp17
 70
     1
102
RTVSPropertyOp18
 70
     1
102
RTVSPropertyOp19
 70
     1
102
RTVSPropertyOp20
 70
     1
102
RTVSPropertyOp21
 70
     1
102
RTVSPropertyOp22
 70
     1
102
RTVSPropertyOp23
 70
     1
102
RTVSPropertyOp24
 70
     1
102
RTVSPropertyOp25
 70
     1
102
RTVSPropertyOp26
 70
     1
102
RTVSPropertyOp27
 70
     1
102
RTVSPropertyOp28
 70
     1
102
RTVSPropertyOp29
 70
     1
102
RTVSPropertyOp30
 70
     1
102
RTVSPropertyOp31
 70
     1
102
RTVSPropertyOp32
 70
     1
  0
XRECORD
  5
1A84
102
{ACAD_REACTORS
330
1A83
102
}
330
1A83
100
AcDbXrecord
280
     1
102
RTVSPropertyOp0
 70
     0
102
RTVSPropertyOp1
 70
     0
102
RTVSPropertyOp2
 70
     0
102
RTVSPropertyOp3
 70
     0
102
RTVSPropertyOp4
 70
     0
102
RTVSPropertyOp5
 70
     0
102
RTVSPropertyOp6
 70
     0
102
RTVSPropertyOp7
 70
     0
102
RTVSPropertyOp8
 70
     0
102
RTVSPropertyOp9
 70
     0
102
RTVSPropertyOp10
 70
     0
102
RTVSPropertyOp11
 70
     0
102
RTVSPropertyOp12
 70
     0
102
RTVSPropertyOp13
 70
     0
102
RTVSPropertyOp14
 70
     2
102
RTVSPropertyOp15
 70
     0
102
RTVSPropertyOp16
 70
     0
102
RTVSPropertyOp17
 70
     0
102
RTVSPropertyOp18
 70
     0
102
RTVSPropertyOp19
 70
     0
102
RTVSPropertyOp20
 70
     0
102
RTVSPropertyOp21
 70
     0
102
RTVSPropertyOp22
 70
     0
102
RTVSPropertyOp23
 70
     0
102
RTVSPropertyOp24
 70
     0
102
RTVSPropertyOp25
 70
     0
102
RTVSPropertyOp26
 70
     0
102
RTVSPropertyOp27
 70
     0
102
RTVSPropertyOp28
 70
     0
102
RTVSPropertyOp29
 70
     0
102
RTVSPropertyOp30
 70
     0
102
RTVSPropertyOp31
 70
     0
102
RTVSPropertyOp32
 70
     0
  0
XRECORD
  5
1A74
102
{ACAD_REACTORS
330
1A73
102
}
330
1A73
100
AcDbXrecord
280
     1
102
RTVSPropertyOp0
 70
     1
102
RTVSPropertyOp1
 70
     1
102
RTVSPropertyOp2
 70
     1
102
RTVSPropertyOp3
 70
     1
102
RTVSPropertyOp4
 70
     1
102
RTVSPropertyOp5
 70
     1
102
RTVSPropertyOp6
 70
     1
102
RTVSPropertyOp7
 70
     1
102
RTVSPropertyOp8
 70
     1
102
RTVSPropertyOp9
 70
     1
102
RTVSPropertyOp10
 70
     1
102
RTVSPropertyOp11
 70
     1
102
RTVSPropertyOp12
 70
     1
102
RTVSPropertyOp13
 70
     1
102
RTVSPropertyOp14
 70
     1
102
RTVSPropertyOp15
 70
     1
102
RTVSPropertyOp16
 70
     1
102
RTVSPropertyOp17
 70
     1
102
RTVSPropertyOp18
 70
     1
102
RTVSPropertyOp19
 70
     1
102
RTVSPropertyOp20
 70
     1
102
RTVSPropertyOp21
 70
     1
102
RTVSPropertyOp22
 70
     1
102
RTVSPropertyOp23
 70
     1
102
RTVSPropertyOp24
 70
     1
102
RTVSPropertyOp25
 70
     1
102
RTVSPropertyOp26
 70
     1
102
RTVSPropertyOp27
 70
     1
102
RTVSPropertyOp28
 70
     1
102
RTVSPropertyOp29
 70
     1
102
RTVSPropertyOp30
 70
     1
102
RTVSPropertyOp31
 70
     1
102
RTVSPropertyOp32
 70
     1
  0
XRECORD
  5
1A86
102
{ACAD_REACTORS
330
1A85
102
}
330
1A85
100
AcDbXrecord
280
     1
102
RTVSPropertyOp0
 70
     0
102
RTVSPropertyOp1
 70
     0
102
RTVSPropertyOp2
 70
     0
102
RTVSPropertyOp3
 70
     0
102
RTVSPropertyOp4
 70
     0
102
RTVSPropertyOp5
 70
     0
102
RTVSPropertyOp6
 70
     0
102
RTVSPropertyOp7
 70
     0
102
RTVSPropertyOp8
 70
     0
102
RTVSPropertyOp9
 70
     0
102
RTVSPropertyOp10
 70
     0
102
RTVSPropertyOp11
 70
     0
102
RTVSPropertyOp12
 70
     0
102
RTVSPropertyOp13
 70
     0
102
RTVSPropertyOp14
 70
     2
102
RTVSPropertyOp15
 70
     0
102
RTVSPropertyOp16
 70
     0
102
RTVSPropertyOp17
 70
     0
102
RTVSPropertyOp18
 70
     0
102
RTVSPropertyOp19
 70
     0
102
RTVSPropertyOp20
 70
     0
102
RTVSPropertyOp21
 70
     0
102
RTVSPropertyOp22
 70
     0
102
RTVSPropertyOp23
 70
     0
102
RTVSPropertyOp24
 70
     0
102
RTVSPropertyOp25
 70
     0
102
RTVSPropertyOp26
 70
     0
102
RTVSPropertyOp27
 70
     0
102
RTVSPropertyOp28
 70
     0
102
RTVSPropertyOp29
 70
     0
102
RTVSPropertyOp30
 70
     0
102
RTVSPropertyOp31
 70
     0
102
RTVSPropertyOp32
 70
     0
  0
XRECORD
  5
1A6C
102
{ACAD_REACTORS
330
1A6B
102
}
330
1A6B
100
AcDbXrecord
280
     1
102
RTVSPropertyOp0
 70
     1
102
RTVSPropertyOp1
 70
     1
102
RTVSPropertyOp2
 70
     1
102
RTVSPropertyOp3
 70
     1
102
RTVSPropertyOp4
 70
     1
102
RTVSPropertyOp5
 70
     1
102
RTVSPropertyOp6
 70
     1
102
RTVSPropertyOp7
 70
     1
102
RTVSPropertyOp8
 70
     1
102
RTVSPropertyOp9
 70
     1
102
RTVSPropertyOp10
 70
     1
102
RTVSPropertyOp11
 70
     1
102
RTVSPropertyOp12
 70
     1
102
RTVSPropertyOp13
 70
     1
102
RTVSPropertyOp14
 70
     1
102
RTVSPropertyOp15
 70
     1
102
RTVSPropertyOp16
 70
     1
102
RTVSPropertyOp17
 70
     1
102
RTVSPropertyOp18
 70
     1
102
RTVSPropertyOp19
 70
     1
102
RTVSPropertyOp20
 70
     1
102
RTVSPropertyOp21
 70
     1
102
RTVSPropertyOp22
 70
     1
102
RTVSPropertyOp23
 70
     1
102
RTVSPropertyOp24
 70
     1
102
RTVSPropertyOp25
 70
     1
102
RTVSPropertyOp26
 70
     1
102
RTVSPropertyOp27
 70
     1
102
RTVSPropertyOp28
 70
     1
102
RTVSPropertyOp29
 70
     1
102
RTVSPropertyOp30
 70
     1
102
RTVSPropertyOp31
 70
     1
102
RTVSPropertyOp32
 70
     1
  0
XRECORD
  5
1A82
102
{ACAD_REACTORS
330
1A81
102
}
330
1A81
100
AcDbXrecord
280
     1
102
RTVSPropertyOp0
 70
     1
102
RTVSPropertyOp1
 70
     1
102
RTVSPropertyOp2
 70
     1
102
RTVSPropertyOp3
 70
     1
102
RTVSPropertyOp4
 70
     1
102
RTVSPropertyOp5
 70
     1
102
RTVSPropertyOp6
 70
     1
102
RTVSPropertyOp7
 70
     1
102
RTVSPropertyOp8
 70
     1
102
RTVSPropertyOp9
 70
     1
102
RTVSPropertyOp10
 70
     1
102
RTVSPropertyOp11
 70
     1
102
RTVSPropertyOp12
 70
     1
102
RTVSPropertyOp13
 70
     1
102
RTVSPropertyOp14
 70
     1
102
RTVSPropertyOp15
 70
     1
102
RTVSPropertyOp16
 70
     1
102
RTVSPropertyOp17
 70
     1
102
RTVSPropertyOp18
 70
     1
102
RTVSPropertyOp19
 70
     1
102
RTVSPropertyOp20
 70
     1
102
RTVSPropertyOp21
 70
     1
102
RTVSPropertyOp22
 70
     1
102
RTVSPropertyOp23
 70
     1
102
RTVSPropertyOp24
 70
     1
102
RTVSPropertyOp25
 70
     1
102
RTVSPropertyOp26
 70
     1
102
RTVSPropertyOp27
 70
     1
102
RTVSPropertyOp28
 70
     1
102
RTVSPropertyOp29
 70
     1
102
RTVSPropertyOp30
 70
     1
102
RTVSPropertyOp31
 70
     1
102
RTVSPropertyOp32
 70
     1
  0
XRECORD
  5
1A80
102
{ACAD_REACTORS
330
1A7F
102
}
330
1A7F
100
AcDbXrecord
280
     1
102
RTVSPropertyOp0
 70
     1
102
RTVSPropertyOp1
 70
     1
102
RTVSPropertyOp2
 70
     1
102
RTVSPropertyOp3
 70
     1
102
RTVSPropertyOp4
 70
     1
102
RTVSPropertyOp5
 70
     1
102
RTVSPropertyOp6
 70
     1
102
RTVSPropertyOp7
 70
     1
102
RTVSPropertyOp8
 70
     1
102
RTVSPropertyOp9
 70
     1
102
RTVSPropertyOp10
 70
     1
102
RTVSPropertyOp11
 70
     1
102
RTVSPropertyOp12
 70
     1
102
RTVSPropertyOp13
 70
     1
102
RTVSPropertyOp14
 70
     1
102
RTVSPropertyOp15
 70
     1
102
RTVSPropertyOp16
 70
     1
102
RTVSPropertyOp17
 70
     1
102
RTVSPropertyOp18
 70
     1
102
RTVSPropertyOp19
 70
     1
102
RTVSPropertyOp20
 70
     1
102
RTVSPropertyOp21
 70
     1
102
RTVSPropertyOp22
 70
     1
102
RTVSPropertyOp23
 70
     1
102
RTVSPropertyOp24
 70
     1
102
RTVSPropertyOp25
 70
     1
102
RTVSPropertyOp26
 70
     1
102
RTVSPropertyOp27
 70
     1
102
RTVSPropertyOp28
 70
     1
102
RTVSPropertyOp29
 70
     1
102
RTVSPropertyOp30
 70
     1
102
RTVSPropertyOp31
 70
     1
102
RTVSPropertyOp32
 70
     1
  0
XRECORD
  5
1A7A
102
{ACAD_REACTORS
330
1A79
102
}
330
1A79
100
AcDbXrecord
280
     1
102
RTVSPropertyOp0
 70
     1
102
RTVSPropertyOp1
 70
     1
102
RTVSPropertyOp2
 70
     1
102
RTVSPropertyOp3
 70
     1
102
RTVSPropertyOp4
 70
     1
102
RTVSPropertyOp5
 70
     1
102
RTVSPropertyOp6
 70
     1
102
RTVSPropertyOp7
 70
     1
102
RTVSPropertyOp8
 70
     1
102
RTVSPropertyOp9
 70
     1
102
RTVSPropertyOp10
 70
     1
102
RTVSPropertyOp11
 70
     1
102
RTVSPropertyOp12
 70
     1
102
RTVSPropertyOp13
 70
     1
102
RTVSPropertyOp14
 70
     1
102
RTVSPropertyOp15
 70
     1
102
RTVSPropertyOp16
 70
     1
102
RTVSPropertyOp17
 70
     1
102
RTVSPropertyOp18
 70
     1
102
RTVSPropertyOp19
 70
     1
102
RTVSPropertyOp20
 70
     1
102
RTVSPropertyOp21
 70
     1
102
RTVSPropertyOp22
 70
     1
102
RTVSPropertyOp23
 70
     1
102
RTVSPropertyOp24
 70
     1
102
RTVSPropertyOp25
 70
     1
102
RTVSPropertyOp26
 70
     1
102
RTVSPropertyOp27
 70
     1
102
RTVSPropertyOp28
 70
     1
102
RTVSPropertyOp29
 70
     1
102
RTVSPropertyOp30
 70
     1
102
RTVSPropertyOp31
 70
     1
102
RTVSPropertyOp32
 70
     1
  0
XRECORD
  5
1A7C
102
{ACAD_REACTORS
330
1A7B
102
}
330
1A7B
100
AcDbXrecord
280
     1
102
RTVSPropertyOp0
 70
     1
102
RTVSPropertyOp1
 70
     1
102
RTVSPropertyOp2
 70
     1
102
RTVSPropertyOp3
 70
     1
102
RTVSPropertyOp4
 70
     1
102
RTVSPropertyOp5
 70
     1
102
RTVSPropertyOp6
 70
     1
102
RTVSPropertyOp7
 70
     1
102
RTVSPropertyOp8
 70
     1
102
RTVSPropertyOp9
 70
     1
102
RTVSPropertyOp10
 70
     1
102
RTVSPropertyOp11
 70
     1
102
RTVSPropertyOp12
 70
     1
102
RTVSPropertyOp13
 70
     1
102
RTVSPropertyOp14
 70
     1
102
RTVSPropertyOp15
 70
     1
102
RTVSPropertyOp16
 70
     1
102
RTVSPropertyOp17
 70
     1
102
RTVSPropertyOp18
 70
     1
102
RTVSPropertyOp19
 70
     1
102
RTVSPropertyOp20
 70
     1
102
RTVSPropertyOp21
 70
     1
102
RTVSPropertyOp22
 70
     1
102
RTVSPropertyOp23
 70
     1
102
RTVSPropertyOp24
 70
     1
102
RTVSPropertyOp25
 70
     1
102
RTVSPropertyOp26
 70
     1
102
RTVSPropertyOp27
 70
     1
102
RTVSPropertyOp28
 70
     1
102
RTVSPropertyOp29
 70
     1
102
RTVSPropertyOp30
 70
     1
102
RTVSPropertyOp31
 70
     1
102
RTVSPropertyOp32
 70
     1
  0
XRECORD
  5
1A72
102
{ACAD_REACTORS
330
1A71
102
}
330
1A71
100
AcDbXrecord
280
     1
102
RTVSPropertyOp0
 70
     1
102
RTVSPropertyOp1
 70
     1
102
RTVSPropertyOp2
 70
     1
102
RTVSPropertyOp3
 70
     1
102
RTVSPropertyOp4
 70
     1
102
RTVSPropertyOp5
 70
     1
102
RTVSPropertyOp6
 70
     1
102
RTVSPropertyOp7
 70
     1
102
RTVSPropertyOp8
 70
     1
102
RTVSPropertyOp9
 70
     1
102
RTVSPropertyOp10
 70
     1
102
RTVSPropertyOp11
 70
     1
102
RTVSPropertyOp12
 70
     1
102
RTVSPropertyOp13
 70
     1
102
RTVSPropertyOp14
 70
     1
102
RTVSPropertyOp15
 70
     1
102
RTVSPropertyOp16
 70
     1
102
RTVSPropertyOp17
 70
     1
102
RTVSPropertyOp18
 70
     1
102
RTVSPropertyOp19
 70
     1
102
RTVSPropertyOp20
 70
     1
102
RTVSPropertyOp21
 70
     1
102
RTVSPropertyOp22
 70
     1
102
RTVSPropertyOp23
 70
     1
102
RTVSPropertyOp24
 70
     1
102
RTVSPropertyOp25
 70
     1
102
RTVSPropertyOp26
 70
     1
102
RTVSPropertyOp27
 70
     1
102
RTVSPropertyOp28
 70
     1
102
RTVSPropertyOp29
 70
     1
102
RTVSPropertyOp30
 70
     1
102
RTVSPropertyOp31
 70
     1
102
RTVSPropertyOp32
 70
     1
  0
XRECORD
  5
1A66
102
{ACAD_REACTORS
330
1A65
102
}
330
1A65
100
AcDbXrecord
280
     1
102
RTVSPropertyOp0
 70
     1
102
RTVSPropertyOp1
 70
     1
102
RTVSPropertyOp2
 70
     1
102
RTVSPropertyOp3
 70
     1
102
RTVSPropertyOp4
 70
     1
102
RTVSPropertyOp5
 70
     1
102
RTVSPropertyOp6
 70
     1
102
RTVSPropertyOp7
 70
     1
102
RTVSPropertyOp8
 70
     1
102
RTVSPropertyOp9
 70
     1
102
RTVSPropertyOp10
 70
     1
102
RTVSPropertyOp11
 70
     1
102
RTVSPropertyOp12
 70
     1
102
RTVSPropertyOp13
 70
     1
102
RTVSPropertyOp14
 70
     1
102
RTVSPropertyOp15
 70
     1
102
RTVSPropertyOp16
 70
     1
102
RTVSPropertyOp17
 70
     1
102
RTVSPropertyOp18
 70
     1
102
RTVSPropertyOp19
 70
     1
102
RTVSPropertyOp20
 70
     1
102
RTVSPropertyOp21
 70
     1
102
RTVSPropertyOp22
 70
     1
102
RTVSPropertyOp23
 70
     1
102
RTVSPropertyOp24
 70
     1
102
RTVSPropertyOp25
 70
     1
102
RTVSPropertyOp26
 70
     1
102
RTVSPropertyOp27
 70
     1
102
RTVSPropertyOp28
 70
     1
102
RTVSPropertyOp29
 70
     1
102
RTVSPropertyOp30
 70
     1
102
RTVSPropertyOp31
 70
     1
102
RTVSPropertyOp32
 70
     1
  0
XRECORD
  5
1A7E
102
{ACAD_REACTORS
330
1A7D
102
}
330
1A7D
100
AcDbXrecord
280
     1
102
RTVSPropertyOp0
 70
     1
102
RTVSPropertyOp1
 70
     1
102
RTVSPropertyOp2
 70
     1
102
RTVSPropertyOp3
 70
     1
102
RTVSPropertyOp4
 70
     1
102
RTVSPropertyOp5
 70
     1
102
RTVSPropertyOp6
 70
     1
102
RTVSPropertyOp7
 70
     1
102
RTVSPropertyOp8
 70
     1
102
RTVSPropertyOp9
 70
     1
102
RTVSPropertyOp10
 70
     1
102
RTVSPropertyOp11
 70
     1
102
RTVSPropertyOp12
 70
     1
102
RTVSPropertyOp13
 70
     1
102
RTVSPropertyOp14
 70
     1
102
RTVSPropertyOp15
 70
     1
102
RTVSPropertyOp16
 70
     1
102
RTVSPropertyOp17
 70
     1
102
RTVSPropertyOp18
 70
     1
102
RTVSPropertyOp19
 70
     1
102
RTVSPropertyOp20
 70
     1
102
RTVSPropertyOp21
 70
     1
102
RTVSPropertyOp22
 70
     1
102
RTVSPropertyOp23
 70
     1
102
RTVSPropertyOp24
 70
     1
102
RTVSPropertyOp25
 70
     1
102
RTVSPropertyOp26
 70
     1
102
RTVSPropertyOp27
 70
     1
102
RTVSPropertyOp28
 70
     1
102
RTVSPropertyOp29
 70
     1
102
RTVSPropertyOp30
 70
     1
102
RTVSPropertyOp31
 70
     1
102
RTVSPropertyOp32
 70
     1
  0
ENDSEC
  0
EOF
