  0
SECTION
  2
HEADER
  9
$ACADVER
  1
AC1015
  9
$ACADMAINTVER
 70
    20
  9
$DWGCODEPAGE
  3
ANSI_932
  9
$INSBASE
 10
0.0
 20
0.0
 30
0.0
  9
$EXTMIN
 10
1592.489136943453
 20
67.9330490108639
 30
0.0
  9
$EXTMAX
 10
1814.990413393402
 20
349.0551777408639
 30
0.0
  9
$LIMMIN
 10
0.0
 20
0.0
  9
$LIMMAX
 10
12.0
 20
9.0
  9
$ORTHOMODE
 70
     1
  9
$REGENMODE
 70
     1
  9
$FILLMODE
 70
     1
  9
$QTEXTMODE
 70
     0
  9
$MIRRTEXT
 70
     0
  9
$LTSCALE
 40
1.0
  9
$ATTMODE
 70
     1
  9
$TEXTSIZE
 40
3.2
  9
$TRACEWID
 40
0.05
  9
$TEXTSTYLE
  7
高3.2
  9
$CLAYER
  8
0
  9
$CELTYPE
  6
ByLayer
  9
$CECOLOR
 62
   256
  9
$CELTSCALE
 40
1.0
  9
$DISPSILH
 70
     0
  9
$DIMSCALE
 40
1.0
  9
$DIMASZ
 40
2.5
  9
$DIMEXO
 40
0.25
  9
$DIMDLI
 40
0.2
  9
$DIMRND
 40
0.0
  9
$DIMDLE
 40
0.0
  9
$DIMEXE
 40
1.25
  9
$DIMTP
 40
0.5
  9
$DIMTM
 40
0.5
  9
$DIMTXT
 40
3.0
  9
$DIMCEN
 40
0.0
  9
$DIMTSZ
 40
0.0
  9
$DIMTOL
 70
     0
  9
$DIMLIM
 70
     0
  9
$DIMTIH
 70
     0
  9
$DIMTOH
 70
     0
  9
$DIMSE1
 70
     0
  9
$DIMSE2
 70
     0
  9
$DIMTAD
 70
     3
  9
$DIMZIN
 70
     8
  9
$DIMBLK
  1
Open30
  9
$DIMASO
 70
     1
  9
$DIMSHO
 70
     1
  9
$DIMPOST
  1

  9
$DIMAPOST
  1

  9
$DIMALT
 70
     0
  9
$DIMALTD
 70
     3
  9
$DIMALTF
 40
0.03937007874016
  9
$DIMLFAC
 40
1.0
  9
$DIMTOFL
 70
     1
  9
$DIMTVP
 40
0.0
  9
$DIMTIX
 70
     0
  9
$DIMSOXD
 70
     0
  9
$DIMSAH
 70
     0
  9
$DIMBLK1
  1

  9
$DIMBLK2
  1

  9
$DIMSTYLE
  2
1：1
  9
$DIMCLRD
 70
     0
  9
$DIMCLRE
 70
     0
  9
$DIMCLRT
 70
     4
  9
$DIMTFAC
 40
0.7
  9
$DIMGAP
 40
0.625
  9
$DIMJUST
 70
     0
  9
$DIMSD1
 70
     0
  9
$DIMSD2
 70
     0
  9
$DIMTOLJ
 70
     0
  9
$DIMTZIN
 70
     8
  9
$DIMALTZ
 70
     0
  9
$DIMALTTZ
 70
     0
  9
$DIMUPT
 70
     1
  9
$DIMDEC
 70
     2
  9
$DIMTDEC
 70
     2
  9
$DIMALTU
 70
     2
  9
$DIMALTTD
 70
     3
  9
$DIMTXSTY
  7
Standard
  9
$DIMAUNIT
 70
     0
  9
$DIMADEC
 70
     1
  9
$DIMALTRND
 40
0.0
  9
$DIMAZIN
 70
     2
  9
$DIMDSEP
 70
    46
  9
$DIMATFIT
 70
     0
  9
$DIMFRAC
 70
     0
  9
$DIMLDRBLK
  1
Open30
  9
$DIMLUNIT
 70
     2
  9
$DIMLWD
 70
    -2
  9
$DIMLWE
 70
    -2
  9
$DIMTMOVE
 70
     0
  9
$LUNITS
 70
     2
  9
$LUPREC
 70
     4
  9
$SKETCHINC
 40
0.1
  9
$FILLETRAD
 40
0.0
  9
$AUNITS
 70
     0
  9
$AUPREC
 70
     0
  9
$MENU
  1
.
  9
$ELEVATION
 40
0.0
  9
$PELEVATION
 40
0.0
  9
$THICKNESS
 40
0.0
  9
$LIMCHECK
 70
     0
  9
$CHAMFERA
 40
3.0
  9
$CHAMFERB
 40
3.0
  9
$CHAMFERC
 40
0.0
  9
$CHAMFERD
 40
0.0
  9
$SKPOLY
 70
     0
  9
$TDCREATE
 40
2457423.444516551
  9
$TDUCREATE
 40
2457423.069516551
  9
$TDUPDATE
 40
2457462.696145903
  9
$TDUUPDATE
 40
2457462.321145903
  9
$TDINDWG
 40
0.0233426042
  9
$TDUSRTIMER
 40
0.0233426042
  9
$USRTIMER
 70
     1
  9
$ANGBASE
 50
0.0
  9
$ANGDIR
 70
     0
  9
$PDMODE
 70
     0
  9
$PDSIZE
 40
0.0
  9
$PLINEWID
 40
0.0
  9
$SPLFRAME
 70
     0
  9
$SPLINETYPE
 70
     6
  9
$SPLINESEGS
 70
     8
  9
$HANDSEED
  5
160E
  9
$SURFTAB1
 70
     6
  9
$SURFTAB2
 70
     6
  9
$SURFTYPE
 70
     6
  9
$SURFU
 70
     6
  9
$SURFV
 70
     6
  9
$UCSBASE
  2

  9
$UCSNAME
  2

  9
$UCSORG
 10
0.0
 20
0.0
 30
0.0
  9
$UCSXDIR
 10
1.0
 20
0.0
 30
0.0
  9
$UCSYDIR
 10
0.0
 20
1.0
 30
0.0
  9
$UCSORTHOREF
  2

  9
$UCSORTHOVIEW
 70
     0
  9
$UCSORGTOP
 10
0.0
 20
0.0
 30
0.0
  9
$UCSORGBOTTOM
 10
0.0
 20
0.0
 30
0.0
  9
$UCSORGLEFT
 10
0.0
 20
0.0
 30
0.0
  9
$UCSORGRIGHT
 10
0.0
 20
0.0
 30
0.0
  9
$UCSORGFRONT
 10
0.0
 20
0.0
 30
0.0
  9
$UCSORGBACK
 10
0.0
 20
0.0
 30
0.0
  9
$PUCSBASE
  2

  9
$PUCSNAME
  2

  9
$PUCSORG
 10
0.0
 20
0.0
 30
0.0
  9
$PUCSXDIR
 10
1.0
 20
0.0
 30
0.0
  9
$PUCSYDIR
 10
0.0
 20
1.0
 30
0.0
  9
$PUCSORTHOREF
  2

  9
$PUCSORTHOVIEW
 70
     0
  9
$PUCSORGTOP
 10
0.0
 20
0.0
 30
0.0
  9
$PUCSORGBOTTOM
 10
0.0
 20
0.0
 30
0.0
  9
$PUCSORGLEFT
 10
0.0
 20
0.0
 30
0.0
  9
$PUCSORGRIGHT
 10
0.0
 20
0.0
 30
0.0
  9
$PUCSORGFRONT
 10
0.0
 20
0.0
 30
0.0
  9
$PUCSORGBACK
 10
0.0
 20
0.0
 30
0.0
  9
$USERI1
 70
     0
  9
$USERI2
 70
     0
  9
$USERI3
 70
     0
  9
$USERI4
 70
     0
  9
$USERI5
 70
     0
  9
$USERR1
 40
0.0
  9
$USERR2
 40
0.0
  9
$USERR3
 40
0.0
  9
$USERR4
 40
0.0
  9
$USERR5
 40
0.0
  9
$WORLDVIEW
 70
     1
  9
$SHADEDGE
 70
     3
  9
$SHADEDIF
 70
    70
  9
$TILEMODE
 70
     1
  9
$MAXACTVP
 70
    64
  9
$PINSBASE
 10
0.0
 20
0.0
 30
0.0
  9
$PLIMCHECK
 70
     0
  9
$PEXTMIN
 10
0.0
 20
0.0
 30
0.0
  9
$PEXTMAX
 10
0.0
 20
0.0
 30
0.0
  9
$PLIMMIN
 10
0.0
 20
0.0
  9
$PLIMMAX
 10
12.0
 20
9.0
  9
$UNITMODE
 70
     0
  9
$VISRETAIN
 70
     1
  9
$PLINEGEN
 70
     0
  9
$PSLTSCALE
 70
     1
  9
$TREEDEPTH
 70
  3020
  9
$CMLSTYLE
  2
Standard
  9
$CMLJUST
 70
     0
  9
$CMLSCALE
 40
1.0
  9
$PROXYGRAPHICS
 70
     1
  9
$MEASUREMENT
 70
     1
  9
$CELWEIGHT
370
    -1
  9
$ENDCAPS
280
     0
  9
$JOINSTYLE
280
     0
  9
$LWDISPLAY
290
     0
  9
$INSUNITS
 70
     1
  9
$HYPERLINKBASE
  1

  9
$STYLESHEET
  1

  9
$XEDIT
290
     1
  9
$CEPSNTYPE
380
     0
  9
$PSTYLEMODE
290
     1
  9
$FINGERPRINTGUID
  2
{D80EFCF0-00D7-4A81-B7DC-5C57E67DC0A5}
  9
$VERSIONGUID
  2
{4CFE43C6-2FAF-40D0-89E6-6A86D95E1881}
  9
$EXTNAMES
290
     1
  9
$PSVPSCALE
 40
0.0
  9
$OLESTARTUP
290
     0
  0
ENDSEC
  0
SECTION
  2
CLASSES
  0
CLASS
  1
ACDBDICTIONARYWDFLT
  2
AcDbDictionaryWithDefault
  3
ObjectDBX Classes
 90
        0
280
     0
281
     0
  0
CLASS
  1
ACDBPLACEHOLDER
  2
AcDbPlaceHolder
  3
ObjectDBX Classes
 90
        0
280
     0
281
     0
  0
CLASS
  1
LAYOUT
  2
AcDbLayout
  3
ObjectDBX Classes
 90
        0
280
     0
281
     0
  0
CLASS
  1
DICTIONARYVAR
  2
AcDbDictionaryVar
  3
ObjectDBX Classes
 90
        0
280
     0
281
     0
  0
CLASS
  1
TABLESTYLE
  2
AcDbTableStyle
  3
ObjectDBX Classes
 90
     4095
280
     0
281
     0
  0
CLASS
  1
MATERIAL
  2
AcDbMaterial
  3
ObjectDBX Classes
 90
     1153
280
     0
281
     0
  0
CLASS
  1
VISUALSTYLE
  2
AcDbVisualStyle
  3
ObjectDBX Classes
 90
     4095
280
     0
281
     0
  0
CLASS
  1
SORTENTSTABLE
  2
AcDbSortentsTable
  3
ObjectDBX Classes
 90
        0
280
     0
281
     0
  0
CLASS
  1
DIMASSOC
  2
AcDbDimAssoc
  3
"AcDbDimAssoc|Product Desc:     AcDim ARX App For Dimension|Company:          Autodesk, Inc.|WEB Address:      www.autodesk.com"
 90
        0
280
     0
281
     0
  0
CLASS
  1
SCALE
  2
AcDbScale
  3
ObjectDBX Classes
 90
     1153
280
     0
281
     0
  0
CLASS
  1
MLEADERSTYLE
  2
AcDbMLeaderStyle
  3
ACDB_MLEADERSTYLE_CLASS
 90
     4095
280
     0
281
     0
  0
CLASS
  1
CELLSTYLEMAP
  2
AcDbCellStyleMap
  3
ObjectDBX Classes
 90
     1152
280
     0
281
     0
  0
CLASS
  1
AEC_REFEDIT_STATUS_TRACKER
  2
AecDbRefEditStatusTracker
  3
AecArchBase60|Product Desc: Autodesk Architectural Desktop 2007 |Company: Autodesk,Inc. |WEB Address: www.autodesk.com
 90
      129
280
     0
281
     0
  0
CLASS
  1
NPOCOLLECTION
  2
AcDbImpNonPersistentObjectsCollection
  3
ObjectDBX Classes
 90
     1153
280
     0
281
     0
  0
ENDSEC
  0
SECTION
  2
TABLES
  0
TABLE
  2
VPORT
  5
8
102
{ACAD_XDICTIONARY
360
145B
102
}
330
0
100
AcDbSymbolTable
 70
     1
  0
VPORT
  5
94
330
8
100
AcDbSymbolTableRecord
100
AcDbViewportTableRecord
  2
*Active
 70
     0
 10
0.0
 20
0.0
 11
1.0
 21
1.0
 12
1744.746008437336
 22
206.0589304905504
 13
0.0
 23
0.0
 14
0.5
 24
0.5
 15
0.5
 25
0.5
 16
0.0
 26
0.0
 36
1.0
 17
0.0
 27
0.0
 37
0.0
 40
461.0805848587125
 41
2.061224489795918
 42
50.0
 43
0.0
 44
0.0
 50
0.0
 51
0.0
 71
     0
 72
  1000
 73
     1
 74
     2
 75
     0
 76
     0
 77
     0
 78
     0
281
     0
 65
     1
110
0.0
120
0.0
130
0.0
111
1.0
121
0.0
131
0.0
112
0.0
122
1.0
132
0.0
 79
     0
146
0.0
  0
ENDTAB
  0
TABLE
  2
LTYPE
  5
5
330
0
100
AcDbSymbolTable
 70
     5
  0
LTYPE
  5
14
330
5
100
AcDbSymbolTableRecord
100
AcDbLinetypeTableRecord
  2
ByBlock
 70
     0
  3

 72
    65
 73
     0
 40
0.0
  0
LTYPE
  5
15
330
5
100
AcDbSymbolTableRecord
100
AcDbLinetypeTableRecord
  2
ByLayer
 70
     0
  3

 72
    65
 73
     0
 40
0.0
  0
LTYPE
  5
16
330
5
100
AcDbSymbolTableRecord
100
AcDbLinetypeTableRecord
  2
Continuous
 70
     0
  3
Solid line
 72
    65
 73
     0
 40
0.0
  0
LTYPE
  5
119D
330
5
100
AcDbSymbolTableRecord
100
AcDbLinetypeTableRecord
  2
CENTER
 70
     0
  3
Center ____ _ ____ _ ____ _ ____ _ ____ _ ____
 72
    65
 73
     4
 40
50.8
 49
31.75
 74
     0
 49
-6.349999999999999
 74
     0
 49
6.349999999999999
 74
     0
 49
-6.349999999999999
 74
     0
  0
LTYPE
  5
119E
330
5
100
AcDbSymbolTableRecord
100
AcDbLinetypeTableRecord
  2
HIDDEN
 70
     0
  3
Hidden __ __ __ __ __ __ __ __ __ __ __ __ __ _
 72
    65
 73
     2
 40
9.524999999999998
 49
6.349999999999999
 74
     0
 49
-3.174999999999999
 74
     0
  0
LTYPE
  5
119F
330
5
100
AcDbSymbolTableRecord
100
AcDbLinetypeTableRecord
  2
PHANTOM
 70
     0
  3
Phantom ______  __  __  ______  __  __  ______
 72
    65
 73
     6
 40
63.5
 49
31.75
 74
     0
 49
-6.349999999999999
 74
     0
 49
6.349999999999999
 74
     0
 49
-6.349999999999999
 74
     0
 49
6.349999999999999
 74
     0
 49
-6.349999999999999
 74
     0
  0
ENDTAB
  0
TABLE
  2
LAYER
  5
2
102
{ACAD_XDICTIONARY
360
DD
102
}
330
0
100
AcDbSymbolTable
 70
     2
  0
LAYER
  5
10
102
{ACAD_XDICTIONARY
360
8E9
102
}
330
2
100
AcDbSymbolTableRecord
100
AcDbLayerTableRecord
  2
0
 70
     0
 62
     7
  6
Continuous
370
    -3
390
F
  0
LAYER
  5
D8
330
2
100
AcDbSymbolTableRecord
100
AcDbLayerTableRecord
  2
Defpoints
 70
     0
 62
     7
  6
Continuous
290
     0
370
    -3
390
F
  0
ENDTAB
  0
TABLE
  2
STYLE
  5
3
330
0
100
AcDbSymbolTable
 70
     7
  0
STYLE
  5
11
330
3
100
AcDbSymbolTableRecord
100
AcDbTextStyleTableRecord
  2
Standard
 70
     0
 40
0.0
 41
1.0
 50
0.0
 71
     0
 42
0.2
  3
txt.shx
  4
bigfont.shx
  0
STYLE
  5
11D
330
3
100
AcDbSymbolTableRecord
100
AcDbTextStyleTableRecord
  2
高3.2
 70
     0
 40
3.2
 41
1.0
 50
0.0
 71
     0
 42
3.2
  3
txt.shx
  4
bigfont.shx
  0
STYLE
  5
11E
330
3
100
AcDbSymbolTableRecord
100
AcDbTextStyleTableRecord
  2
高6.3
 70
     0
 40
6.299999999999999
 41
1.0
 50
0.0
 71
     0
 42
6.299999999999999
  3
txt.shx
  4
bigfont.shx
  0
STYLE
  5
11F
330
3
100
AcDbSymbolTableRecord
100
AcDbTextStyleTableRecord
  2
高2.5
 70
     0
 40
2.5
 41
1.0
 50
0.0
 71
     0
 42
0.2
  3
txt.shx
  4
bigfont.shx
  0
STYLE
  5
146
330
3
100
AcDbSymbolTableRecord
100
AcDbTextStyleTableRecord
  2
高4.5
 70
     0
 40
4.5
 41
1.0
 50
0.0
 71
     0
 42
6.299999999999999
  3
txt.shx
  4
bigfont.shx
  0
STYLE
  5
171
330
3
100
AcDbSymbolTableRecord
100
AcDbTextStyleTableRecord
  2
高2
 70
     0
 40
2.0
 41
1.0
 50
0.0
 71
     0
 42
6.299999999999999
  3
txt.shx
  4
bigfont.shx
  0
STYLE
  5
119C
330
3
100
AcDbSymbolTableRecord
100
AcDbTextStyleTableRecord
  2

 70
     1
 40
0.0
 41
1.0
 50
0.0
 71
     0
 42
6.299999999999999
  3
ltypeshp.shx
  4

  0
ENDTAB
  0
TABLE
  2
VIEW
  5
6
330
0
100
AcDbSymbolTable
 70
     0
  0
ENDTAB
  0
TABLE
  2
UCS
  5
7
330
0
100
AcDbSymbolTable
 70
     0
  0
ENDTAB
  0
TABLE
  2
APPID
  5
9
330
0
100
AcDbSymbolTable
 70
     9
  0
APPID
  5
12
330
9
100
AcDbSymbolTableRecord
100
AcDbRegAppTableRecord
  2
ACAD
 70
     0
  0
APPID
  5
DC
330
9
100
AcDbSymbolTableRecord
100
AcDbRegAppTableRecord
  2
ACAD_DSTYLE_DIMJOGGED_JOGANGLE_SYMBOL
 70
     0
  0
APPID
  5
3A5
330
9
100
AcDbSymbolTableRecord
100
AcDbRegAppTableRecord
  2
ACAD_EXEMPT_FROM_CAD_STANDARDS
 70
     0
  0
APPID
  5
70D
330
9
100
AcDbSymbolTableRecord
100
AcDbRegAppTableRecord
  2
ACAD_DSTYLE_DIMJAG
 70
     0
  0
APPID
  5
70E
330
9
100
AcDbSymbolTableRecord
100
AcDbRegAppTableRecord
  2
ACAD_DSTYLE_DIMBREAK
 70
     0
  0
APPID
  5
70F
330
9
100
AcDbSymbolTableRecord
100
AcDbRegAppTableRecord
  2
ACAD_DSTYLE_DIMTALN
 70
     0
  0
APPID
  5
148A
330
9
100
AcDbSymbolTableRecord
100
AcDbRegAppTableRecord
  2
ACAD_DSTYLE_DIMARC_LENGTH_SYMBOL
 70
     0
  0
APPID
  5
148B
330
9
100
AcDbSymbolTableRecord
100
AcDbRegAppTableRecord
  2
ACAD_DSTYLE_DIMEXT_LENGTH
 70
     0
  0
APPID
  5
14A0
330
9
100
AcDbSymbolTableRecord
100
AcDbRegAppTableRecord
  2
ACAD_MLEADERVER
 70
     0
  0
ENDTAB
  0
TABLE
  2
DIMSTYLE
  5
A
330
0
100
AcDbSymbolTable
 70
    10
100
AcDbDimStyleTable
 71
     1
340
D9
  0
DIMSTYLE
105
D9
330
A
100
AcDbSymbolTableRecord
100
AcDbDimStyleTableRecord
  2
1：1
 70
     0
 41
2.5
 42
0.25
 43
0.2
 44
1.25
 73
     0
 74
     0
 77
     3
 78
     8
 79
     2
140
3.0
141
0.0
143
0.03937007874016
147
0.625
171
     3
172
     1
178
     4
179
     1
271
     2
272
     2
274
     3
283
     0
284
     8
288
     1
289
     0
340
11
341
C6
342
C6
1001
ACAD_DSTYLE_DIMARC_LENGTH_SYMBOL
1070
   379
1070
     2
1001
ACAD_DSTYLE_DIMEXT_LENGTH
1070
   378
1040
1.25
1001
ACAD_DSTYLE_DIMJOGGED_JOGANGLE_SYMBOL
1070
   384
1040
1.570796326794896
  0
DIMSTYLE
105
C3C
330
A
100
AcDbSymbolTableRecord
100
AcDbDimStyleTableRecord
  2
2：1
 70
     0
 41
2.5
 42
0.25
 43
0.2
 44
1.25
 73
     0
 74
     0
 77
     3
 78
     8
 79
     2
140
3.0
141
0.0
143
0.03937007874016
144
0.5
147
0.625
171
     3
172
     1
178
     4
179
     1
271
     2
272
     2
274
     3
283
     0
284
     8
288
     1
289
     0
340
11
341
C6
342
C6
1001
ACAD_DSTYLE_DIMARC_LENGTH_SYMBOL
1070
   379
1070
     2
1001
ACAD_DSTYLE_DIMEXT_LENGTH
1070
   378
1040
1.25
1001
ACAD_DSTYLE_DIMJOGGED_JOGANGLE_SYMBOL
1070
   384
1040
1.570796326794896
  0
DIMSTYLE
105
C3D
330
A
100
AcDbSymbolTableRecord
100
AcDbDimStyleTableRecord
  2
5：1
 70
     0
 41
2.5
 42
0.25
 43
0.2
 44
1.25
 73
     0
 74
     0
 77
     3
 78
     8
 79
     2
140
3.0
141
0.0
143
0.03937007874016
144
0.2
147
0.625
171
     3
172
     1
178
     4
179
     1
271
     2
272
     2
274
     3
283
     0
284
     8
288
     1
289
     0
340
11
341
C6
342
C6
1001
ACAD_DSTYLE_DIMARC_LENGTH_SYMBOL
1070
   379
1070
     2
1001
ACAD_DSTYLE_DIMEXT_LENGTH
1070
   378
1040
1.25
1001
ACAD_DSTYLE_DIMJOGGED_JOGANGLE_SYMBOL
1070
   384
1040
1.570796326794896
  0
DIMSTYLE
105
C3E
330
A
100
AcDbSymbolTableRecord
100
AcDbDimStyleTableRecord
  2
10：1
 70
     0
 41
2.5
 42
0.25
 43
0.2
 44
1.25
 73
     0
 74
     0
 77
     3
 78
     8
 79
     2
140
3.0
141
0.0
143
0.03937007874016
144
0.1
147
0.625
171
     3
172
     1
178
     4
179
     1
271
     2
272
     2
274
     3
283
     0
284
     8
288
     1
289
     0
340
11
341
C6
342
C6
1001
ACAD_DSTYLE_DIMARC_LENGTH_SYMBOL
1070
   379
1070
     2
1001
ACAD_DSTYLE_DIMEXT_LENGTH
1070
   378
1040
1.25
1001
ACAD_DSTYLE_DIMJOGGED_JOGANGLE_SYMBOL
1070
   384
1040
1.570796326794896
  0
DIMSTYLE
105
C3F
330
A
100
AcDbSymbolTableRecord
100
AcDbDimStyleTableRecord
  2
1／2
 70
     0
 41
2.5
 42
0.25
 43
0.2
 44
1.25
 73
     0
 74
     0
 77
     3
 78
     8
 79
     2
140
3.0
141
0.0
143
0.03937007874016
144
2.0
147
0.625
171
     3
172
     1
178
     4
179
     1
271
     2
272
     2
274
     3
283
     0
284
     8
288
     1
289
     0
340
11
341
C6
342
C6
1001
ACAD_DSTYLE_DIMARC_LENGTH_SYMBOL
1070
   379
1070
     2
1001
ACAD_DSTYLE_DIMEXT_LENGTH
1070
   378
1040
1.25
1001
ACAD_DSTYLE_DIMJOGGED_JOGANGLE_SYMBOL
1070
   384
1040
1.570796326794896
  0
DIMSTYLE
105
C40
330
A
100
AcDbSymbolTableRecord
100
AcDbDimStyleTableRecord
  2
1／5
 70
     0
 41
2.5
 42
0.25
 43
0.2
 44
1.25
 73
     0
 74
     0
 77
     3
 78
     8
 79
     2
140
3.0
141
0.0
143
0.03937007874016
144
5.0
147
0.625
171
     3
172
     1
178
     4
179
     1
271
     2
272
     2
274
     3
283
     0
284
     8
288
     1
289
     0
340
11
341
C6
342
C6
1001
ACAD_DSTYLE_DIMARC_LENGTH_SYMBOL
1070
   379
1070
     2
1001
ACAD_DSTYLE_DIMEXT_LENGTH
1070
   378
1040
1.25
1001
ACAD_DSTYLE_DIMJOGGED_JOGANGLE_SYMBOL
1070
   384
1040
1.570796326794896
  0
DIMSTYLE
105
C41
330
A
100
AcDbSymbolTableRecord
100
AcDbDimStyleTableRecord
  2
1／10
 70
     0
 41
2.5
 42
0.25
 43
0.2
 44
1.25
 73
     0
 74
     0
 77
     3
 78
     8
 79
     2
140
3.0
141
0.0
143
0.03937007874016
144
10.0
147
0.625
171
     3
172
     1
178
     4
179
     1
271
     2
272
     2
274
     3
283
     0
284
     8
288
     1
289
     0
340
11
341
C6
342
C6
1001
ACAD_DSTYLE_DIMARC_LENGTH_SYMBOL
1070
   379
1070
     2
1001
ACAD_DSTYLE_DIMEXT_LENGTH
1070
   378
1040
1.25
1001
ACAD_DSTYLE_DIMJOGGED_JOGANGLE_SYMBOL
1070
   384
1040
1.570796326794896
  0
DIMSTYLE
105
C42
330
A
100
AcDbSymbolTableRecord
100
AcDbDimStyleTableRecord
  2
1／4
 70
     0
 41
2.5
 42
0.25
 43
0.2
 44
1.25
 73
     0
 74
     0
 77
     3
 78
     8
 79
     2
140
3.0
141
0.0
143
0.03937007874016
144
4.0
147
0.625
171
     3
172
     1
178
     4
179
     1
271
     2
272
     2
274
     3
283
     0
284
     8
288
     1
289
     0
340
11
341
C6
342
C6
1001
ACAD_DSTYLE_DIMARC_LENGTH_SYMBOL
1070
   379
1070
     2
1001
ACAD_DSTYLE_DIMEXT_LENGTH
1070
   378
1040
1.25
1001
ACAD_DSTYLE_DIMJOGGED_JOGANGLE_SYMBOL
1070
   384
1040
1.570796326794896
  0
DIMSTYLE
105
C43
330
A
100
AcDbSymbolTableRecord
100
AcDbDimStyleTableRecord
  2
1／3
 70
     0
 41
2.5
 42
0.25
 43
0.2
 44
1.25
 73
     0
 74
     0
 77
     3
 78
     8
 79
     2
140
3.0
141
0.0
143
0.03937007874016
144
3.0
147
0.625
171
     3
172
     1
178
     4
179
     1
271
     2
272
     2
274
     3
283
     0
284
     8
288
     1
289
     0
340
11
341
C6
342
C6
1001
ACAD_DSTYLE_DIMARC_LENGTH_SYMBOL
1070
   379
1070
     2
1001
ACAD_DSTYLE_DIMEXT_LENGTH
1070
   378
1040
1.25
1001
ACAD_DSTYLE_DIMJOGGED_JOGANGLE_SYMBOL
1070
   384
1040
1.570796326794896
  0
DIMSTYLE
105
C44
330
A
100
AcDbSymbolTableRecord
100
AcDbDimStyleTableRecord
  2
FREE
 70
     0
 41
2.5
 42
0.25
 43
0.2
 44
1.25
 73
     0
 74
     0
 77
     3
 78
     8
 79
     2
140
3.0
141
0.0
143
0.03937007874016
147
0.625
171
     3
172
     1
178
     4
179
     1
271
     2
272
     2
274
     3
283
     0
284
     8
288
     1
289
     0
340
11
341
C6
342
C6
1001
ACAD_DSTYLE_DIMBREAK
1070
   391
1040
3.75
1001
ACAD_DSTYLE_DIMJAG
1070
   388
1040
1.5
1001
ACAD_DSTYLE_DIMTALN
1070
   392
1070
     0
1001
ACAD_DSTYLE_DIMARC_LENGTH_SYMBOL
1070
   379
1070
     2
1001
ACAD_DSTYLE_DIMEXT_LENGTH
1070
   378
1040
1.25
1001
ACAD_DSTYLE_DIMJOGGED_JOGANGLE_SYMBOL
1070
   384
1040
1.570796326794896
  0
ENDTAB
  0
TABLE
  2
BLOCK_RECORD
  5
1
330
0
100
AcDbSymbolTable
 70
     8
  0
BLOCK_RECORD
  5
1F
102
{ACAD_XDICTIONARY
360
324
102
}
330
1
100
AcDbSymbolTableRecord
100
AcDbBlockTableRecord
  2
*Model_Space
340
22
  0
BLOCK_RECORD
  5
58
330
1
100
AcDbSymbolTableRecord
100
AcDbBlockTableRecord
  2
*Paper_Space
340
59
  0
BLOCK_RECORD
  5
5D
330
1
100
AcDbSymbolTableRecord
100
AcDbBlockTableRecord
  2
*Paper_Space0
340
5E
  0
BLOCK_RECORD
  5
C6
330
1
100
AcDbSymbolTableRecord
100
AcDbBlockTableRecord
  2
_Open30
340
0
102
{BLKREFS
331
12EA
331
12EB
331
12F3
331
12F4
331
132B
331
132C
102
}
  0
BLOCK_RECORD
  5
D57
102
{ACAD_XDICTIONARY
360
E25
102
}
330
1
100
AcDbSymbolTableRecord
100
AcDbBlockTableRecord
  2
A$C7A1143B0
340
0
1001
ACAD
1000
DesignCenter Data
1002
{
1070
     1
1070
     1
1002
}
  0
BLOCK_RECORD
  5
10C4
102
{ACAD_XDICTIONARY
360
1191
102
}
330
1
100
AcDbSymbolTableRecord
100
AcDbBlockTableRecord
  2
A$C478E5F75
340
0
1001
ACAD
1000
DesignCenter Data
1002
{
1070
     1
1070
     1
1002
}
  0
BLOCK_RECORD
  5
11AC
102
{ACAD_XDICTIONARY
360
11AD
102
}
330
1
100
AcDbSymbolTableRecord
100
AcDbBlockTableRecord
  2
A$C369B3533
340
0
1001
ACAD
1000
DesignCenter Data
1002
{
1070
     1
1070
     1
1002
}
  0
BLOCK_RECORD
  5
128B
330
1
100
AcDbSymbolTableRecord
100
AcDbBlockTableRecord
  2
*D5
340
0
  0
BLOCK_RECORD
  5
12A3
330
1
100
AcDbSymbolTableRecord
100
AcDbBlockTableRecord
  2
*D6
340
0
  0
BLOCK_RECORD
  5
1300
330
1
100
AcDbSymbolTableRecord
100
AcDbBlockTableRecord
  2
*D7
340
0
  0
ENDTAB
  0
ENDSEC
  0
SECTION
  2
BLOCKS
  0
BLOCK
  5
20
330
1F
100
AcDbEntity
  8
0
100
AcDbBlockBegin
  2
*Model_Space
 70
     0
 10
0.0
 20
0.0
 30
0.0
  3
*Model_Space
  1

  0
ENDBLK
  5
21
330
1F
100
AcDbEntity
  8
0
100
AcDbBlockEnd
  0
BLOCK
  5
5A
330
58
100
AcDbEntity
 67
     1
  8
0
100
AcDbBlockBegin
  2
*Paper_Space
 70
     0
 10
0.0
 20
0.0
 30
0.0
  3
*Paper_Space
  1

  0
ENDBLK
  5
5B
330
58
100
AcDbEntity
 67
     1
  8
0
100
AcDbBlockEnd
  0
BLOCK
  5
5F
330
5D
100
AcDbEntity
 67
     1
  8
0
100
AcDbBlockBegin
  2
*Paper_Space0
 70
     0
 10
0.0
 20
0.0
 30
0.0
  3
*Paper_Space0
  1

  0
ENDBLK
  5
60
330
5D
100
AcDbEntity
 67
     1
  8
0
100
AcDbBlockEnd
  0
BLOCK
  5
C7
330
C6
100
AcDbEntity
  8
0
100
AcDbBlockBegin
  2
_Open30
 70
     0
 10
0.0
 20
0.0
 30
0.0
  3
_Open30
  1

  0
LINE
  5
C8
330
C6
100
AcDbEntity
  8
0
  6
ByBlock
 62
     0
370
    -2
100
AcDbLine
 10
-1.0
 20
0.267949
 30
0.0
 11
0.0
 21
0.0
 31
0.0
  0
LINE
  5
C9
330
C6
100
AcDbEntity
  8
0
  6
ByBlock
 62
     0
370
    -2
100
AcDbLine
 10
0.0
 20
0.0
 30
0.0
 11
-1.0
 21
-0.267949
 31
0.0
  0
LINE
  5
CA
330
C6
100
AcDbEntity
  8
0
  6
ByBlock
 62
     0
370
    -2
100
AcDbLine
 10
0.0
 20
0.0
 30
0.0
 11
-1.0
 21
0.0
 31
0.0
  0
ENDBLK
  5
CB
330
C6
100
AcDbEntity
  8
0
100
AcDbBlockEnd
  0
BLOCK
  5
E27
330
D57
100
AcDbEntity
  8
0
100
AcDbBlockBegin
  2
A$C7A1143B0
 70
     0
 10
0.0
 20
0.0
 30
0.0
  3
A$C7A1143B0
  1

  0
LINE
  5
D58
330
D57
100
AcDbEntity
  8
0
 62
     3
100
AcDbLine
 10
20.00000057328668
 20
283.9999999862201
 30
0.0
 11
20.00000057328668
 21
9.99999998622016
 31
0.0
  0
LINE
  5
D59
330
D57
100
AcDbEntity
  8
0
 62
     3
100
AcDbLine
 10
410.0000005732868
 20
9.99999998622016
 30
0.0
 11
410.0000005732868
 21
283.9999999862201
 31
0.0
  0
LINE
  5
D5A
330
D57
100
AcDbEntity
  8
0
 62
     3
100
AcDbLine
 10
20.00000057328668
 20
9.99999998622016
 30
0.0
 11
410.0000005732868
 21
9.99999998622016
 31
0.0
  0
LINE
  5
D5B
330
D57
100
AcDbEntity
  8
0
 62
     3
100
AcDbLine
 10
197.7748900432866
 20
286.4400021262202
 30
0.0
 11
198.3973870532866
 21
286.1150476462201
 31
0.0
  0
LINE
  5
D5C
330
D57
100
AcDbEntity
  8
0
 62
     3
100
AcDbLine
 10
197.7748900432866
 20
281.1105300262201
 30
0.0
 11
198.3973870532866
 21
281.4354845062202
 31
0.0
  0
LINE
  5
D5D
330
D57
100
AcDbEntity
  8
0
 62
     3
100
AcDbLine
 10
198.3973870532866
 20
286.1150476462201
 30
0.0
 11
198.3973870532866
 21
281.4354845062202
 31
0.0
  0
LINE
  5
D5E
330
D57
100
AcDbEntity
  8
0
 62
     3
100
AcDbLine
 10
199.9738405132866
 20
281.1105300262201
 30
0.0
 11
199.3513435032866
 21
281.4354845062202
 31
0.0
  0
LINE
  5
D5F
330
D57
100
AcDbEntity
  8
0
 62
     3
100
AcDbLine
 10
199.3513435032866
 20
284.2881399562201
 30
0.0
 11
199.3513435032866
 21
281.4354845062202
 31
0.0
  0
LINE
  5
D60
330
D57
100
AcDbEntity
  8
0
 62
     3
100
AcDbLine
 10
203.6050730532868
 20
286.4400021262202
 30
0.0
 11
202.9825760532867
 21
286.1150476462201
 31
0.0
  0
LINE
  5
D61
330
D57
100
AcDbEntity
  8
0
 62
     3
100
AcDbLine
 10
201.4061225832868
 20
286.4400021262202
 30
0.0
 11
202.0286195932868
 21
286.1150476462201
 31
0.0
  0
LINE
  5
D62
330
D57
100
AcDbEntity
  8
0
 62
     3
100
AcDbLine
 10
202.0286195932868
 20
286.1150476462201
 30
0.0
 11
202.0286195932868
 21
284.0545661262201
 31
0.0
  0
LINE
  5
D63
330
D57
100
AcDbEntity
  8
0
 62
     3
100
AcDbLine
 10
202.9825760532867
 20
286.1150476462201
 30
0.0
 11
202.9825760532867
 21
280.8082998162202
 31
0.0
  0
LINE
  5
D64
330
D57
100
AcDbEntity
  8
0
 62
     3
100
AcDbLine
 10
203.9126404932868
 20
286.4399983762202
 30
0.0
 11
204.5351352532866
 21
286.1150396062201
 31
0.0
  0
LINE
  5
D65
330
D57
100
AcDbEntity
  8
0
 62
     3
100
AcDbLine
 10
203.9125291032867
 20
281.1106014162201
 30
0.0
 11
204.5350374532866
 21
281.4355341662201
 31
0.0
  0
LINE
  5
D66
330
D57
100
AcDbEntity
  8
0
 62
     3
100
AcDbLine
 10
204.5351352532866
 20
286.1150396062201
 30
0.0
 11
204.5351352532866
 21
281.4355341662201
 31
0.0
  0
LINE
  5
D67
330
D57
100
AcDbEntity
  8
0
 62
     3
100
AcDbLine
 10
206.6691210532868
 20
286.4399645562201
 30
0.0
 11
206.0466194932867
 21
286.1150187962202
 31
0.0
  0
LINE
  5
D68
330
D57
100
AcDbEntity
  8
0
 62
     3
100
AcDbLine
 10
206.0466194932867
 20
286.1150187962202
 30
0.0
 11
206.0466194932867
 21
281.4355133562201
 31
0.0
  0
LINE
  5
D69
330
D57
100
AcDbEntity
  8
0
 62
     3
100
AcDbLine
 10
206.6691210532868
 20
281.1105675962201
 30
0.0
 11
206.0466194932867
 21
281.4355133562201
 31
0.0
  0
LINE
  5
D6A
330
D57
100
AcDbEntity
  8
0
 62
     3
100
AcDbLine
 10
211.9409116832867
 20
286.4399059862201
 30
0.0
 11
212.5634075632868
 21
286.1149493662201
 31
0.0
  0
LINE
  5
D6B
330
D57
100
AcDbEntity
  8
0
 62
     3
100
AcDbLine
 10
212.5634075632868
 20
286.1149493662201
 30
0.0
 11
212.5633258932867
 21
281.4354439162201
 31
0.0
  0
LINE
  5
D6C
330
D57
100
AcDbEntity
  8
0
 62
     3
100
AcDbLine
 10
211.9408186632866
 20
281.1105090262202
 30
0.0
 11
212.5633258932867
 21
281.4354439162201
 31
0.0
  0
LINE
  5
D6D
330
D57
100
AcDbEntity
  8
0
 62
     3
100
AcDbLine
 10
214.7298559232865
 20
286.4399059862201
 30
0.0
 11
214.1073600332868
 21
286.1149493662201
 31
0.0
  0
LINE
  5
D6E
330
D57
100
AcDbEntity
  8
0
 62
     3
100
AcDbLine
 10
214.7299489332866
 20
281.1105090262202
 30
0.0
 11
214.1074417032867
 21
281.4354439162201
 31
0.0
  0
LINE
  5
D6F
330
D57
100
AcDbEntity
  8
0
 62
     3
100
AcDbLine
 10
215.0208957232867
 20
286.4399059862201
 30
0.0
 11
215.6433916032868
 21
286.1149493662201
 31
0.0
  0
LINE
  5
D70
330
D57
100
AcDbEntity
  8
0
 62
     3
100
AcDbLine
 10
215.0208027032866
 20
281.1105090262202
 30
0.0
 11
215.6433099332867
 21
281.4354439162201
 31
0.0
  0
LINE
  5
D71
330
D57
100
AcDbEntity
  8
0
 62
     3
100
AcDbLine
 10
217.8098399532867
 20
286.4399059862201
 30
0.0
 11
217.1873440732868
 21
286.1149493662201
 31
0.0
  0
LINE
  5
D72
330
D57
100
AcDbEntity
  8
0
 62
     3
100
AcDbLine
 10
217.1873440732868
 20
286.1149493662201
 30
0.0
 11
217.1874257432867
 21
281.4354439162201
 31
0.0
  0
LINE
  5
D73
330
D57
100
AcDbEntity
  8
0
 62
     3
100
AcDbLine
 10
217.8099329732865
 20
281.1105090262202
 30
0.0
 11
217.1874257432867
 21
281.4354439162201
 31
0.0
  0
LINE
  5
D74
330
D57
100
AcDbEntity
  8
0
 62
     3
100
AcDbLine
 10
215.6433560232867
 20
284.0761877662202
 30
0.0
 11
214.1073956132866
 21
284.0761877662202
 31
0.0
  0
LINE
  5
D75
330
D57
100
AcDbEntity
  8
0
 62
     3
100
AcDbLine
 10
215.6433455232866
 20
283.4743443862201
 30
0.0
 11
214.1074061132867
 21
283.4743443862201
 31
0.0
  0
LINE
  5
D76
330
D57
100
AcDbEntity
  8
0
 62
     3
100
AcDbLine
 10
215.6433916032868
 20
286.1149493662201
 30
0.0
 11
215.6433560232867
 21
284.0761877662202
 31
0.0
  0
LINE
  5
D77
330
D57
100
AcDbEntity
  8
0
 62
     3
100
AcDbLine
 10
215.6433455232866
 20
283.4743443862201
 30
0.0
 11
215.6433099332867
 21
281.4354439162201
 31
0.0
  0
LINE
  5
D78
330
D57
100
AcDbEntity
  8
0
 62
     3
100
AcDbLine
 10
214.1073600332868
 20
286.1149493662201
 30
0.0
 11
214.1073956132866
 21
284.0761877662202
 31
0.0
  0
LINE
  5
D79
330
D57
100
AcDbEntity
  8
0
 62
     3
100
AcDbLine
 10
214.1074061132867
 20
283.4743443862201
 30
0.0
 11
214.1074417032867
 21
281.4354439162201
 31
0.0
  0
LINE
  5
D7A
330
D57
100
AcDbEntity
  8
0
 62
     3
100
AcDbLine
 10
218.1054958432867
 20
286.4399059862201
 30
0.0
 11
218.7279917332867
 21
286.1149493662201
 31
0.0
  0
LINE
  5
D7B
330
D57
100
AcDbEntity
  8
0
 62
     3
100
AcDbLine
 10
218.7279917332867
 20
286.1149493662201
 30
0.0
 11
218.7279100532867
 21
281.4354439162201
 31
0.0
  0
LINE
  5
D7C
330
D57
100
AcDbEntity
  8
0
 62
     3
100
AcDbLine
 10
218.1054028232868
 20
281.1105090262202
 30
0.0
 11
218.7279100532867
 21
281.4354439162201
 31
0.0
  0
LINE
  5
D7D
330
D57
100
AcDbEntity
  8
0
 62
     3
100
AcDbLine
 10
220.8619390832867
 20
286.4399059862201
 30
0.0
 11
220.2394431932867
 21
286.1149493662201
 31
0.0
  0
LINE
  5
D7E
330
D57
100
AcDbEntity
  8
0
 62
     3
100
AcDbLine
 10
220.2394431932867
 20
286.1149493662201
 30
0.0
 11
220.2395248732866
 21
281.4354439162201
 31
0.0
  0
LINE
  5
D7F
330
D57
100
AcDbEntity
  8
0
 62
     3
100
AcDbLine
 10
220.8620321032865
 20
281.1105090262202
 30
0.0
 11
220.2395248732866
 21
281.4354439162201
 31
0.0
  0
LINE
  5
D80
330
D57
100
AcDbEntity
  8
0
 62
     3
100
AcDbLine
 10
221.1681670332867
 20
286.4399059862201
 30
0.0
 11
221.7906629232866
 21
286.1149493662201
 31
0.0
  0
LINE
  5
D81
330
D57
100
AcDbEntity
  8
0
 62
     3
100
AcDbLine
 10
221.7906629232866
 20
286.1149493662201
 30
0.0
 11
221.7905812532868
 21
281.4354439162201
 31
0.0
  0
LINE
  5
D82
330
D57
100
AcDbEntity
  8
0
 62
     3
100
AcDbLine
 10
221.1680740232866
 20
281.1105090262202
 30
0.0
 11
221.7905812532868
 21
281.4354439162201
 31
0.0
  0
ARC
  5
D83
330
D57
100
AcDbEntity
  8
0
 62
     3
100
AcDbCircle
 10
209.9524670132867
 20
283.7886800162202
 30
0.0
 40
2.98040844
100
AcDbArc
 50
97.70152351000378
 51
270.0
  0
ARC
  5
D84
330
D57
100
AcDbEntity
  8
0
 62
     3
100
AcDbCircle
 10
228.3533253532866
 20
283.7587419762201
 30
0.0
 40
3.012776259999999
100
AcDbArc
 50
0.3142502699992948
 51
69.00558244999621
  0
ARC
  5
D85
330
D57
100
AcDbEntity
  8
0
 62
     3
100
AcDbCircle
 10
229.0114329632868
 20
283.7587419762201
 30
0.0
 40
3.012776259999999
100
AcDbArc
 50
110.9944175500038
 51
148.1166110200028
  0
ARC
  5
D86
330
D57
100
AcDbEntity
  8
0
 62
     3
100
AcDbCircle
 10
228.3533253532866
 20
283.7917901762202
 30
0.0
 40
3.012776259999999
100
AcDbArc
 50
290.9944175500038
 51
359.6857497300007
  0
ARC
  5
D87
330
D57
100
AcDbEntity
  8
0
 62
     3
100
AcDbCircle
 10
229.0114329632868
 20
283.7917901762202
 30
0.0
 40
3.012776259999999
100
AcDbArc
 50
211.8833889799972
 51
249.0055824499962
  0
ARC
  5
D88
330
D57
100
AcDbEntity
  8
0
 62
     3
100
AcDbCircle
 10
228.6823791632867
 20
285.0078452062202
 30
0.0
 40
1.73438712
100
AcDbArc
 50
64.3651718999996
 51
115.6348281000004
  0
ARC
  5
D89
330
D57
100
AcDbEntity
  8
0
 62
     3
100
AcDbCircle
 10
228.6823791632867
 20
282.5426869462201
 30
0.0
 40
1.73438712
100
AcDbArc
 50
244.3651718999996
 51
295.6348281000004
  0
ARC
  5
D8A
330
D57
100
AcDbEntity
  8
0
 62
     3
100
AcDbCircle
 10
228.6823791632867
 20
285.0407904662201
 30
0.0
 40
0.85122233
100
AcDbArc
 50
19.48660554000209
 51
160.5133944599979
  0
ARC
  5
D8B
330
D57
100
AcDbEntity
  8
0
 62
     3
100
AcDbCircle
 10
228.6823791632867
 20
282.5426869462201
 30
0.0
 40
1.73438712
100
AcDbArc
 50
244.3651718999996
 51
295.6348281000004
  0
ARC
  5
D8C
330
D57
100
AcDbEntity
  8
0
 62
     3
100
AcDbCircle
 10
228.6823791632867
 20
282.5097416862201
 30
0.0
 40
0.85122233
100
AcDbArc
 50
199.4866055400021
 51
340.5133944599979
  0
ARC
  5
D8D
330
D57
100
AcDbEntity
  8
0
 62
     3
100
AcDbCircle
 10
221.9074184432868
 20
252.0208948762201
 30
0.0
 40
37.20000000000001
100
AcDbArc
 50
69.50571480000153
 51
81.68998807000395
  0
ARC
  5
D8E
330
D57
100
AcDbEntity
  8
0
 62
     3
100
AcDbCircle
 10
221.9074184432868
 20
315.5296372762201
 30
0.0
 40
37.20000000000001
100
AcDbArc
 50
278.3100119299961
 51
290.4942851999985
  0
ARC
  5
D8F
330
D57
100
AcDbEntity
  8
0
 62
     3
100
AcDbCircle
 10
233.7762814832865
 20
283.7752660762201
 30
0.0
 40
3.299999999999999
100
AcDbArc
 50
290.4942851999985
 51
69.50571480000153
  0
ARC
  5
D90
330
D57
100
AcDbEntity
  8
0
 62
     3
100
AcDbCircle
 10
194.7762814832865
 20
283.7752660762201
 30
0.0
 40
3.299999999999999
100
AcDbArc
 50
110.4942851999985
 51
249.5057148000015
  0
ARC
  5
D91
330
D57
100
AcDbEntity
  8
0
 62
     3
100
AcDbCircle
 10
206.6451445132868
 20
252.0208948762201
 30
0.0
 40
37.20000000000001
100
AcDbArc
 50
98.31001192999604
 51
110.4942851999985
  0
ARC
  5
D92
330
D57
100
AcDbEntity
  8
0
 62
     3
100
AcDbCircle
 10
206.6451445132868
 20
315.5296372762201
 30
0.0
 40
37.20000000000001
100
AcDbArc
 50
249.5057148000015
 51
261.6899880699973
  0
ARC
  5
D93
330
D57
100
AcDbEntity
  8
0
 62
     3
100
AcDbCircle
 10
214.2762814832865
 20
199.7752660762201
 30
0.0
 40
89.99999981
100
AcDbArc
 50
81.68998807000395
 51
98.31001192999604
  0
ARC
  5
D94
330
D57
100
AcDbEntity
  8
0
 62
     3
100
AcDbCircle
 10
214.2762814832865
 20
367.7752660762201
 30
0.0
 40
89.99999981
100
AcDbArc
 50
261.6899880699973
 51
278.3100119299961
  0
ARC
  5
D95
330
D57
100
AcDbEntity
  8
0
 62
     3
100
AcDbCircle
 10
214.2762814832865
 20
199.7752660762201
 30
0.0
 40
89.09999981
100
AcDbArc
 50
81.68998807000395
 51
98.31001192999604
  0
ARC
  5
D96
330
D57
100
AcDbEntity
  8
0
 62
     3
100
AcDbCircle
 10
214.2762814832865
 20
367.7752660762201
 30
0.0
 40
89.09999981
100
AcDbArc
 50
261.6899880699973
 51
278.3100119299961
  0
ARC
  5
D97
330
D57
100
AcDbEntity
  8
0
 62
     3
100
AcDbCircle
 10
221.9074184432868
 20
315.5296372762201
 30
0.0
 40
36.3
100
AcDbArc
 50
278.3100119299961
 51
290.4942851999985
  0
ARC
  5
D98
330
D57
100
AcDbEntity
  8
0
 62
     3
100
AcDbCircle
 10
221.9074184432868
 20
252.0208948762201
 30
0.0
 40
36.3
100
AcDbArc
 50
69.50571480000153
 51
81.68998807000395
  0
ARC
  5
D99
330
D57
100
AcDbEntity
  8
0
 62
     3
100
AcDbCircle
 10
233.7762814832865
 20
283.7752660762201
 30
0.0
 40
2.399999999999999
100
AcDbArc
 50
290.4942851999985
 51
69.50571480000153
  0
ARC
  5
D9A
330
D57
100
AcDbEntity
  8
0
 62
     3
100
AcDbCircle
 10
194.7762814832865
 20
283.7752660762201
 30
0.0
 40
2.399999999999999
100
AcDbArc
 50
110.4942851999985
 51
249.5057148000015
  0
ARC
  5
D9B
330
D57
100
AcDbEntity
  8
0
 62
     3
100
AcDbCircle
 10
206.6451445132868
 20
252.0208948762201
 30
0.0
 40
36.3
100
AcDbArc
 50
98.31001192999604
 51
110.4942851999985
  0
ARC
  5
D9C
330
D57
100
AcDbEntity
  8
0
 62
     3
100
AcDbCircle
 10
206.6451445132868
 20
315.5296372762201
 30
0.0
 40
36.3
100
AcDbArc
 50
249.5057148000015
 51
261.6899880699973
  0
LINE
  5
D9D
330
D57
100
AcDbEntity
  8
0
 62
     3
100
AcDbLine
 10
220.8619402032866
 20
280.8082998162202
 30
0.0
 11
218.1054947232867
 21
280.8082998162202
 31
0.0
  0
LINE
  5
D9E
330
D57
100
AcDbEntity
  8
0
 62
     3
100
AcDbLine
 10
220.8619402032866
 20
281.1105300262201
 30
0.0
 11
220.8619402032866
 21
280.8082998162202
 31
0.0
  0
LINE
  5
D9F
330
D57
100
AcDbEntity
  8
0
 62
     3
100
AcDbLine
 10
217.8098410732866
 20
286.7420913062201
 30
0.0
 11
215.0208946032867
 21
286.7420913062201
 31
0.0
  0
LINE
  5
DA0
330
D57
100
AcDbEntity
  8
0
 62
     3
100
AcDbLine
 10
217.8098410732866
 20
286.7420913062201
 30
0.0
 11
217.8098410732866
 21
286.4400021262202
 31
0.0
  0
LINE
  5
DA1
330
D57
100
AcDbEntity
  8
0
 62
     3
100
AcDbLine
 10
217.8098410732866
 20
281.1105300262201
 30
0.0
 11
217.8098410732866
 21
280.8081587962202
 31
0.0
  0
LINE
  5
DA2
330
D57
100
AcDbEntity
  8
0
 62
     3
100
AcDbLine
 10
217.8098410732866
 20
280.8081587962202
 30
0.0
 11
215.0208946032867
 21
280.8081587962202
 31
0.0
  0
LINE
  5
DA3
330
D57
100
AcDbEntity
  8
0
 62
     3
100
AcDbLine
 10
220.8619402032866
 20
286.7422323362201
 30
0.0
 11
220.8619402032866
 21
286.4400021262202
 31
0.0
  0
LINE
  5
DA4
330
D57
100
AcDbEntity
  8
0
 62
     3
100
AcDbLine
 10
220.8619402032866
 20
286.7422323362201
 30
0.0
 11
218.1054947232867
 21
286.7422323362201
 31
0.0
  0
LINE
  5
DA5
330
D57
100
AcDbEntity
  8
0
 62
     3
100
AcDbLine
 10
218.1054947232867
 20
286.7422323362201
 30
0.0
 11
218.1054947232867
 21
286.4400021262202
 31
0.0
  0
LINE
  5
DA6
330
D57
100
AcDbEntity
  8
0
 62
     3
100
AcDbLine
 10
221.1681659132866
 20
281.1105300262201
 30
0.0
 11
221.1681659132866
 21
280.8082998162202
 31
0.0
  0
LINE
  5
DA7
330
D57
100
AcDbEntity
  8
0
 62
     3
100
AcDbLine
 10
224.0028810032866
 20
280.8082998162202
 30
0.0
 11
221.1681659132866
 21
280.8082998162202
 31
0.0
  0
LINE
  5
DA8
330
D57
100
AcDbEntity
  8
0
 62
     3
100
AcDbLine
 10
223.3021143932867
 20
285.7882758762201
 30
0.0
 11
223.3021143932867
 21
281.7622562762201
 31
0.0
  0
LINE
  5
DA9
330
D57
100
AcDbEntity
  8
0
 62
     3
100
AcDbLine
 10
223.3021143932867
 20
281.7622562762201
 30
0.0
 11
223.5736129132868
 21
281.7622562762201
 31
0.0
  0
ARC
  5
DAA
330
D57
100
AcDbEntity
  8
0
 62
     3
100
AcDbCircle
 10
222.1853475732867
 20
283.7752660762201
 30
0.0
 40
2.44529939
100
AcDbArc
 50
304.5919552699948
 51
55.40804473000515
  0
LINE
  5
DAB
330
D57
100
AcDbEntity
  8
0
 62
     3
100
AcDbLine
 10
224.0028810032866
 20
286.7422323362201
 30
0.0
 11
221.1681659132866
 21
286.7422323362201
 31
0.0
  0
LINE
  5
DAC
330
D57
100
AcDbEntity
  8
0
 62
     3
100
AcDbLine
 10
221.1681659132866
 20
286.7422323362201
 30
0.0
 11
221.1681659132866
 21
286.4400021262202
 31
0.0
  0
LINE
  5
DAD
330
D57
100
AcDbEntity
  8
0
 62
     3
100
AcDbLine
 10
218.1054947232867
 20
281.1105300262201
 30
0.0
 11
218.1054947232867
 21
280.8082998162202
 31
0.0
  0
LINE
  5
DAE
330
D57
100
AcDbEntity
  8
0
 62
     3
100
AcDbLine
 10
223.3021143932867
 20
285.7882758762201
 30
0.0
 11
223.5736129132868
 21
285.7882758762201
 31
0.0
  0
LINE
  5
DAF
330
D57
100
AcDbEntity
  8
0
 62
     3
100
AcDbLine
 10
206.6690291532866
 20
281.1105300262201
 30
0.0
 11
206.6690238832866
 21
280.8082715762201
 31
0.0
  0
LINE
  5
DB0
330
D57
100
AcDbEntity
  8
0
 62
     3
100
AcDbLine
 10
203.9125784032867
 20
280.8083280662202
 30
0.0
 11
206.6690238832866
 21
280.8082799562201
 31
0.0
  0
LINE
  5
DB1
330
D57
100
AcDbEntity
  8
0
 62
     3
100
AcDbLine
 10
197.7748900432866
 20
280.8082998162202
 30
0.0
 11
199.9738405132866
 21
280.8082998162202
 31
0.0
  0
ARC
  5
DB2
330
D57
100
AcDbEntity
  8
0
 62
     3
100
AcDbCircle
 10
190.6578290732866
 20
283.8451326862202
 30
0.0
 40
21.01937947
100
AcDbArc
 50
353.8660061899995
 51
357.6940342600001
  0
LINE
  5
DB3
330
D57
100
AcDbEntity
  8
0
 62
     3
100
AcDbLine
 10
210.2529431632868
 20
283.0046074662202
 30
0.0
 11
211.6601872832866
 21
282.9994004962201
 31
0.0
  0
LWPOLYLINE
  5
DB4
330
D57
100
AcDbEntity
  8
0
 62
     3
100
AcDbPolyline
 90
       64
 70
     0
 43
0.0
 10
210.2586266132866
 20
284.5406285262201
 10
210.2320158632867
 20
284.7110110462202
 10
210.2000570332868
 20
284.8741607362201
 10
210.1629971332866
 20
285.0288165362201
 10
210.1211226332866
 20
285.1737830362201
 10
210.0747572032867
 20
285.3079397262202
 10
210.0242592132866
 20
285.4302496262201
 10
209.9700189932867
 20
285.5397673662201
 10
209.9124557932867
 20
285.6356464162201
 10
209.8520145432867
 20
285.71714568622
 10
209.7891624232868
 20
285.7836352262201
 10
209.7243852432866
 20
285.8346011062201
 10
209.6581837132867
 20
285.8696493862201
 10
209.5910695232867
 20
285.8885091562202
 10
209.5235614332866
 20
285.8910346562201
 10
209.4561812432867
 20
285.8772063462201
 10
209.3894497732867
 20
285.8471311162201
 10
209.3238828332867
 20
285.8010414462201
 10
209.2599871932866
 20
285.7392935662201
 10
209.1982567632868
 20
285.6623647762201
 10
209.1391686732866
 20
285.5708496762202
 10
209.0831796432867
 20
285.4654556462201
 10
209.0307224432865
 20
285.3469973162201
 10
208.9822025432866
 20
285.2163903062201
 10
208.9379949632867
 20
285.0746441562201
 10
208.8984414232866
 20
284.9228544862201
 10
208.8638476432868
 20
284.7621945462202
 10
208.8344810132867
 20
284.5939061562201
 10
208.8105685232867
 20
284.4192900962202
 10
208.7922950132868
 20
284.2396960662202
 10
208.7798017132866
 20
284.0565122262201
 10
208.7731852032866
 20
283.8711545062201
 10
208.7724966132867
 20
283.6850556062201
 10
208.7777412732866
 20
283.4996539962201
 10
208.7888786432866
 20
283.3163827262201
 10
208.8058226432865
 20
283.1366583862201
 10
208.8284422932868
 20
282.9618701562201
 10
208.8565627632868
 20
282.7933690562202
 10
208.8899666932866
 20
282.6324575162201
 10
208.9283958932867
 20
282.4803792962201
 10
208.9715533132867
 20
282.3383098862201
 10
209.0191053832866
 20
282.2073474062202
 10
209.0706845332868
 20
282.0885041262202
 10
209.1258921032866
 20
281.9826986562201
 10
209.1843013532866
 20
281.8907487962201
 10
209.2454608132866
 20
281.8133652962201
 10
209.3088977532868
 20
281.7511462762201
 10
209.3741218332868
 20
281.7045726662201
 10
209.4406289132867
 20
281.6740044362201
 10
209.5079049232865
 20
281.6596778862201
 10
209.5754298532868
 20
281.6617037462202
 10
209.6426817732865
 20
281.6800663462201
 10
209.7091408532867
 20
281.7146237662202
 10
209.7742934132866
 20
281.7651088962201
 10
209.8376358432868
 20
281.8311314962201
 10
209.8986785432867
 20
281.9121812562201
 10
209.9569496832867
 20
282.0076317062201
 10
210.0119988632866
 20
282.1167450662201
 10
210.0634005832867
 20
282.2386779262201
 10
210.1107575232866
 20
282.3724878362201
 10
210.1537036432867
 20
282.5171404862201
 10
210.1919069932867
 20
282.6715178062201
 10
210.2250722832866
 20
282.8344265362201
 10
210.2529431632868
 20
283.0046074662202
  0
LINE
  5
DB5
330
D57
100
AcDbEntity
  8
0
 62
     3
100
AcDbLine
 10
210.2586266132866
 20
284.5406285262201
 30
0.0
 11
211.6658707332867
 21
284.5354215562202
 31
0.0
  0
ARC
  5
DB6
330
D57
100
AcDbEntity
  8
0
 62
     3
100
AcDbCircle
 10
190.6578290732866
 20
283.8451326862202
 30
0.0
 40
21.01937947
100
AcDbArc
 50
1.881965739999572
 51
5.709993809999576
  0
LINE
  5
DB7
330
D57
100
AcDbEntity
  8
0
 62
     3
100
AcDbLine
 10
206.6691274432867
 20
286.7422040862201
 30
0.0
 11
206.6691221732867
 21
286.4400021262202
 31
0.0
  0
LINE
  5
DB8
330
D57
100
AcDbEntity
  8
0
 62
     3
100
AcDbLine
 10
203.9126819632868
 20
286.7422605762201
 30
0.0
 11
206.6691274432867
 21
286.7422124662202
 31
0.0
  0
LINE
  5
DB9
330
D57
100
AcDbEntity
  8
0
 62
     3
100
AcDbLine
 10
203.9125836732867
 20
281.1105300262201
 30
0.0
 11
203.9125784032867
 21
280.8083280662202
 31
0.0
  0
LINE
  5
DBA
330
D57
100
AcDbEntity
  8
0
 62
     3
100
AcDbLine
 10
203.9126819632868
 20
286.7422605762201
 30
0.0
 11
203.9126766932866
 21
286.4400021262202
 31
0.0
  0
LINE
  5
DBB
330
D57
100
AcDbEntity
  8
0
 62
     3
100
AcDbLine
 10
199.9738405132866
 20
281.1105300262201
 30
0.0
 11
199.9738405132866
 21
280.8082998162202
 31
0.0
  0
LINE
  5
DBC
330
D57
100
AcDbEntity
  8
0
 62
     3
100
AcDbLine
 10
199.3513435032866
 20
284.2881399562201
 30
0.0
 11
201.5262435832867
 21
280.8082998162202
 31
0.0
  0
LINE
  5
DBD
330
D57
100
AcDbEntity
  8
0
 62
     3
100
AcDbLine
 10
201.5262435832867
 20
280.8082998162202
 30
0.0
 11
202.9825760532867
 21
280.8082998162202
 31
0.0
  0
LINE
  5
DBE
330
D57
100
AcDbEntity
  8
0
 62
     3
100
AcDbLine
 10
203.6050730532868
 20
286.7422323362201
 30
0.0
 11
203.6050730532868
 21
286.4400021262202
 31
0.0
  0
LINE
  5
DBF
330
D57
100
AcDbEntity
  8
0
 62
     3
100
AcDbLine
 10
201.4061225832868
 20
286.7422323362201
 30
0.0
 11
203.6050730532868
 21
286.7422323362201
 31
0.0
  0
LINE
  5
DC0
330
D57
100
AcDbEntity
  8
0
 62
     3
100
AcDbLine
 10
201.4061225832868
 20
286.7422323362201
 30
0.0
 11
201.4061225832868
 21
286.4400021262202
 31
0.0
  0
LINE
  5
DC1
330
D57
100
AcDbEntity
  8
0
 62
     3
100
AcDbLine
 10
202.0286195932868
 20
284.0545661262201
 30
0.0
 11
200.2648386532867
 21
286.7422323362201
 31
0.0
  0
LINE
  5
DC2
330
D57
100
AcDbEntity
  8
0
 62
     3
100
AcDbLine
 10
197.7748900432866
 20
286.7422323362201
 30
0.0
 11
200.2648386532867
 21
286.7422323362201
 31
0.0
  0
LINE
  5
DC3
330
D57
100
AcDbEntity
  8
0
 62
     3
100
AcDbLine
 10
211.9409105632867
 20
286.7420913062201
 30
0.0
 11
214.7298570432865
 21
286.7420913062201
 31
0.0
  0
LINE
  5
DC4
330
D57
100
AcDbEntity
  8
0
 62
     3
100
AcDbLine
 10
211.9409105632867
 20
286.4400021262202
 30
0.0
 11
211.9409105632867
 21
286.7420913062201
 31
0.0
  0
LINE
  5
DC5
330
D57
100
AcDbEntity
  8
0
 62
     3
100
AcDbLine
 10
211.9409105632867
 20
280.8081587962202
 30
0.0
 11
211.9409105632867
 21
281.1105300262201
 31
0.0
  0
LINE
  5
DC6
330
D57
100
AcDbEntity
  8
0
 62
     3
100
AcDbLine
 10
211.9409105632867
 20
280.8081587962202
 30
0.0
 11
214.7298570432865
 21
280.8081587962202
 31
0.0
  0
LINE
  5
DC7
330
D57
100
AcDbEntity
  8
0
 62
     3
100
AcDbLine
 10
215.0208946032867
 20
281.1105300262201
 30
0.0
 11
215.0208946032867
 21
280.8081587962202
 31
0.0
  0
LINE
  5
DC8
330
D57
100
AcDbEntity
  8
0
 62
     3
100
AcDbLine
 10
214.7298570432865
 20
281.1105300262201
 30
0.0
 11
214.7298570432865
 21
280.8081587962202
 31
0.0
  0
LINE
  5
DC9
330
D57
100
AcDbEntity
  8
0
 62
     3
100
AcDbLine
 10
214.7298570432865
 20
286.4400021262202
 30
0.0
 11
214.7298570432865
 21
286.7420913062201
 31
0.0
  0
LINE
  5
DCA
330
D57
100
AcDbEntity
  8
0
 62
     3
100
AcDbLine
 10
215.0208946032867
 20
286.4400021262202
 30
0.0
 11
215.0208946032867
 21
286.7420913062201
 31
0.0
  0
LINE
  5
DCB
330
D57
100
AcDbEntity
  8
0
 62
     3
100
AcDbLine
 10
197.7748900432866
 20
281.1105300262201
 30
0.0
 11
197.7748900432866
 21
280.8082998162202
 31
0.0
  0
LINE
  5
DCC
330
D57
100
AcDbEntity
  8
0
 62
     3
100
AcDbLine
 10
197.7748900432866
 20
286.7422323362201
 30
0.0
 11
197.7748900432866
 21
286.4400021262202
 31
0.0
  0
ARC
  5
DCD
330
D57
100
AcDbEntity
  8
0
 62
     3
100
AcDbCircle
 10
224.3028810032868
 20
284.3977630862202
 30
0.0
 40
2.344469249999999
100
AcDbArc
 50
17.30874897999993
 51
23.76507095999782
  0
ARC
  5
DCE
330
D57
100
AcDbEntity
  8
0
 62
     3
100
AcDbCircle
 10
222.3053475732866
 20
283.7752660762201
 30
0.0
 40
4.43675086
100
AcDbArc
 50
342.6912510200001
 51
17.30856644000161
  0
ARC
  5
DCF
330
D57
100
AcDbEntity
  8
0
 62
     3
100
AcDbCircle
 10
224.3028810032868
 20
283.1527690662201
 30
0.0
 40
2.344469249999999
100
AcDbArc
 50
336.2349290399969
 51
342.6912510200001
  0
ARC
  5
DD0
330
D57
100
AcDbEntity
  8
0
 62
     3
100
AcDbCircle
 10
224.0028810032866
 20
284.3977630862202
 30
0.0
 40
2.344469249999999
100
AcDbArc
 50
17.30874897999993
 51
90.0
  0
ARC
  5
DD1
330
D57
100
AcDbEntity
  8
0
 62
     3
100
AcDbCircle
 10
222.0053475732868
 20
283.7752660762201
 30
0.0
 40
4.43675086
100
AcDbArc
 50
342.6912510200001
 51
17.30856644000161
  0
ARC
  5
DD2
330
D57
100
AcDbEntity
  8
0
 62
     3
100
AcDbCircle
 10
224.0028810032866
 20
283.1527690662201
 30
0.0
 40
2.344469249999999
100
AcDbArc
 50
270.0
 51
342.6912510200001
  0
ARC
  5
DD3
330
D57
100
AcDbEntity
  8
0
 62
     3
100
AcDbCircle
 10
209.5401090332866
 20
283.7752660762201
 30
0.0
 40
2.966966259999999
100
AcDbArc
 50
46.75287961000124
 51
89.74999828999569
  0
ARC
  5
DD4
330
D57
100
AcDbEntity
  8
0
 62
     3
100
AcDbCircle
 10
209.5401090332866
 20
283.7752660762201
 30
0.0
 40
2.966966259999999
100
AcDbArc
 50
273.976333149997
 51
312.8231203899988
  0
ARC
  5
DD5
330
D57
100
AcDbEntity
  8
0
 62
     3
100
AcDbCircle
 10
225.8855489632868
 20
283.7294638962202
 30
0.0
 40
3.936984289999999
100
AcDbArc
 50
0.6665840599997753
 51
23.90392827000138
  0
ARC
  5
DD6
330
D57
100
AcDbEntity
  8
0
 62
     3
100
AcDbCircle
 10
231.4792093532867
 20
283.7294638962202
 30
0.0
 40
3.936984289999999
100
AcDbArc
 50
156.0960717299986
 51
179.3334159400002
  0
ARC
  5
DD7
330
D57
100
AcDbEntity
  8
0
 62
     3
100
AcDbCircle
 10
225.8855489632868
 20
283.8210682562201
 30
0.0
 40
3.936984289999999
100
AcDbArc
 50
336.0960717299986
 51
359.3334159400003
  0
ARC
  5
DD8
330
D57
100
AcDbEntity
  8
0
 62
     3
100
AcDbCircle
 10
231.4792093532867
 20
283.8210682562201
 30
0.0
 40
3.936984289999999
100
AcDbArc
 50
180.6665840599997
 51
203.9039282700014
  0
LINE
  5
DD9
330
D57
100
AcDbEntity
  8
0
 62
     3
100
AcDbLine
 10
238.6567257532868
 20
283.9999999862201
 30
0.0
 11
410.0000005732865
 21
283.9999999862201
 31
0.0
  0
LINE
  5
DDA
330
D57
100
AcDbEntity
  8
0
 62
     3
100
AcDbLine
 10
190.1026910832868
 20
283.9999999862201
 30
0.0
 11
20.00000057328668
 21
283.9999999862201
 31
0.0
  0
LINE
  5
DDB
330
D57
100
AcDbEntity
  8
0
 62
     3
100
AcDbLine
 10
7.598076783286614
 20
150.4446389362201
 30
0.0
 11
5.000000573286683
 21
148.9446389362201
 31
0.0
  0
LINE
  5
DDC
330
D57
100
AcDbEntity
  8
0
 62
     3
100
AcDbLine
 10
7.598076783286614
 20
150.4446389362201
 30
0.0
 11
5.000000573286683
 21
151.9446389362201
 31
0.0
  0
LINE
  5
DDD
330
D57
100
AcDbEntity
  8
0
 62
     3
100
AcDbLine
 10
5.000000573286683
 20
148.9446389362201
 30
0.0
 11
5.000000573286683
 21
151.9446389362201
 31
0.0
  0
LINE
  5
DDE
330
D57
100
AcDbEntity
  8
0
 62
   254
370
     0
100
AcDbLine
 10
0.0000005732867976
 20
-0.0000000137798395
 30
0.0
 11
0.0000005732867976
 21
291.9999999862201
 31
0.0
  0
LINE
  5
DDF
330
D57
100
AcDbEntity
  8
0
 62
   254
370
     0
100
AcDbLine
 10
0.0000005732867976
 20
291.9999999862201
 30
0.0
 11
420.0000005732867
 21
291.9999999862201
 31
0.0
  0
LINE
  5
DE0
330
D57
100
AcDbEntity
  8
0
 62
     3
100
AcDbLine
 10
358.0000005732868
 20
9.99999998622016
 30
0.0
 11
358.0000005732868
 21
49.99999998622016
 31
0.0
  0
LINE
  5
DE1
330
D57
100
AcDbEntity
  8
0
 62
     3
100
AcDbLine
 10
371.0000005732868
 20
19.99999998622016
 30
0.0
 11
371.0000005732868
 21
47.99999998622015
 31
0.0
  0
LINE
  5
DE2
330
D57
100
AcDbEntity
  8
0
 62
     3
100
AcDbLine
 10
331.0000005732868
 20
19.99999998622016
 30
0.0
 11
331.0000005732868
 21
33.99999998622016
 31
0.0
  0
LINE
  5
DE3
330
D57
100
AcDbEntity
  8
0
 62
     3
100
AcDbLine
 10
341.0000005732868
 20
33.99999998622016
 30
0.0
 11
341.0000005732868
 21
9.99999998622016
 31
0.0
  0
LINE
  5
DE4
330
D57
100
AcDbEntity
  8
0
 62
     3
100
AcDbLine
 10
312.0000005732868
 20
49.99999998622016
 30
0.0
 11
312.0000005732868
 21
26.99999998622016
 31
0.0
  0
LINE
  5
DE5
330
D57
100
AcDbEntity
  8
0
 62
     3
100
AcDbLine
 10
371.0000005732868
 20
47.99999998622015
 30
0.0
 11
371.0000005732868
 21
49.99999998622016
 31
0.0
  0
LINE
  5
DE6
330
D57
100
AcDbEntity
  8
0
 62
     3
100
AcDbLine
 10
384.0000005732868
 20
26.99999998622016
 30
0.0
 11
384.0000005732868
 21
49.99999998622016
 31
0.0
  0
LINE
  5
DE7
330
D57
100
AcDbEntity
  8
0
 62
     3
100
AcDbLine
 10
410.0000005732868
 20
49.99999998622016
 30
0.0
 11
298.7545659332868
 21
49.99999998622017
 31
0.0
  0
LINE
  5
DE8
330
D57
100
AcDbEntity
  8
0
 62
     3
100
AcDbLine
 10
410.0000005732868
 20
40.99999998622016
 30
0.0
 11
298.7545659332868
 21
40.99999998622016
 31
0.0
  0
LINE
  5
DE9
330
D57
100
AcDbEntity
  8
0
 62
     3
100
AcDbLine
 10
410.0000005732868
 20
26.99999998622016
 30
0.0
 11
298.7545659332868
 21
26.99999998622016
 31
0.0
  0
LINE
  5
DEA
330
D57
100
AcDbEntity
  8
0
 62
     3
100
AcDbLine
 10
410.0000005732868
 20
19.99999998622016
 30
0.0
 11
298.6965580732867
 21
19.99999998622016
 31
0.0
  0
LINE
  5
DEB
330
D57
100
AcDbEntity
  8
0
 62
     3
100
AcDbLine
 10
397.0000005732868
 20
26.99999998622016
 30
0.0
 11
397.0000005732868
 21
49.99999998622016
 31
0.0
  0
LINE
  5
DEC
330
D57
100
AcDbEntity
  8
0
 62
     3
100
AcDbLine
 10
298.7545659332868
 20
49.99999998622017
 30
0.0
 11
298.7545659332868
 21
9.99999998622016
 31
0.0
  0
LINE
  5
DED
330
D57
100
AcDbEntity
  8
0
 62
     3
100
AcDbLine
 10
358.0000005732868
 20
33.99999998622016
 30
0.0
 11
298.7545659332868
 21
33.99999998622015
 31
0.0
  0
LINE
  5
DEE
330
D57
100
AcDbEntity
  8
0
 62
     3
100
AcDbLine
 10
341.2783255032866
 20
14.83286124622015
 30
0.0
 11
358.0000005732868
 21
14.83286124622015
 31
0.0
  0
LINE
  5
DEF
330
D57
100
AcDbEntity
  8
0
 62
     3
100
AcDbLine
 10
345.0000005732868
 20
40.99999998622016
 30
0.0
 11
353.0000005732868
 21
40.99999998622016
 31
0.0
  0
TEXT
  5
DF0
330
D57
100
AcDbEntity
  8
0
 62
     3
100
AcDbText
 10
342.1643259866026
 20
29.0730968395855
 30
0.0
 40
2.5
  1
******
  7
高2.5
100
AcDbText
  0
TEXT
  5
DF1
330
D57
100
AcDbEntity
  8
0
 62
     3
100
AcDbText
 10
313.196369268539
 20
29.29781439120407
 30
0.0
 40
2.5
  1
*****
  7
高2.5
100
AcDbText
  0
TEXT
  5
DF2
330
D57
100
AcDbEntity
  8
0
 62
     3
100
AcDbText
 10
313.4612770232363
 20
42.31224950997805
 30
0.0
 40
4.5
  1
**********
  7
高4.5
100
AcDbText
1001
ACAD
1000
ACAD_MTEXT_DEFINED_HEIGHT_BEGIN
1070
    46
1040
0.0
1000
ACAD_MTEXT_DEFINED_HEIGHT_END
  0
TEXT
  5
DF3
330
D57
100
AcDbEntity
  8
0
 62
     3
100
AcDbText
 10
400.0655896667608
 20
46.51369208492375
 30
0.0
 40
2.0
  1
DEF
  7
高2
100
AcDbText
  0
TEXT
  5
DF4
330
D57
100
AcDbEntity
  8
0
 62
     3
100
AcDbText
 10
386.1264913130526
 20
46.51369208492366
 30
0.0
 40
2.0
  1
DESN
  7
高2
100
AcDbText
  0
TEXT
  5
DF5
330
D57
100
AcDbEntity
  8
0
 62
     3
100
AcDbText
 10
359.8721243730524
 20
46.51369208492375
 30
0.0
 40
2.0
  1
APPD
  7
高2
100
AcDbText
  0
TEXT
  5
DF6
330
D57
100
AcDbEntity
  8
0
 62
     3
100
AcDbText
 10
372.9848604732867
 20
46.51369208492377
 30
0.0
 40
2.0
  1
CHCK
  7
高2
100
AcDbText
  0
TEXT
  5
DF7
330
D57
100
AcDbEntity
  8
0
 62
     3
100
AcDbText
 10
331.9271662124395
 20
24.16839880945088
 30
0.0
 40
2.0
  1
SCALE
 41
0.8
  7
高2
100
AcDbText
  0
TEXT
  5
DF8
330
D57
100
AcDbEntity
  8
0
 62
     3
100
AcDbText
 10
300.4391446363329
 20
24.16839880945089
 30
0.0
 40
2.0
  1
3AD　ANGLE
 41
1.5
  7
高2
100
AcDbText
  0
TEXT
  5
DF9
330
D57
100
AcDbEntity
  8
0
 62
     3
100
AcDbText
 10
331.1965719032883
 20
30.91993687840798
 30
0.0
 40
2.0
  1
REMARKS
 41
0.7
  7
高2
100
AcDbText
  0
TEXT
  5
DFA
330
D57
100
AcDbEntity
  8
0
 62
     3
100
AcDbText
 10
300.2222362832867
 20
30.99999998622016
 30
0.0
 40
2.0
  1
MATERIAL
 41
0.7
  7
高2
100
AcDbText
  0
TEXT
  5
DFB
330
D57
100
AcDbEntity
  8
0
 62
     3
100
AcDbText
 10
300.7987234860409
 20
37.99999998622015
 30
0.0
 40
2.0
  1
MODEL
  7
高2
100
AcDbText
  0
TEXT
  5
DFC
330
D57
100
AcDbEntity
  8
0
 62
     3
100
AcDbText
 10
300.4356443673721
 20
46.70702133681916
 30
0.0
 40
2.0
  1
CONPONENTS
 41
0.5
  7
高2
100
AcDbText
  0
TEXT
  5
DFD
330
D57
100
AcDbEntity
  8
0
 62
     3
100
AcDbText
 10
313.142759838539
 20
35.0874811140321
 30
0.0
 40
4.5
  1
********
  7
高4.5
100
AcDbText
  0
TEXT
  5
DFE
330
D57
100
AcDbEntity
  8
0
 62
     3
100
AcDbText
 10
361.0650463039053
 20
12.03846138158574
 30
0.0
 40
6.299999999999999
  1
*-********
 41
0.6
  7
高6.3
100
AcDbText
1001
ACAD
1000
ACAD_MTEXT_DEFINED_HEIGHT_BEGIN
1070
    46
1040
0.0
1000
ACAD_MTEXT_DEFINED_HEIGHT_END
  0
TEXT
  5
DFF
330
D57
100
AcDbEntity
  8
0
 62
     3
100
AcDbText
 10
374.5635103236164
 20
21.10088914445316
 30
0.0
 40
3.2
  1
******
  7
高3.2
100
AcDbText
1001
ACAD
1000
ACAD_MTEXT_DEFINED_HEIGHT_BEGIN
1070
    46
1040
0.0
1000
ACAD_MTEXT_DEFINED_HEIGHT_END
  0
TEXT
  5
E00
330
D57
100
AcDbEntity
  8
0
 62
     3
100
AcDbText
 10
344.7875984679331
 20
21.10091698878803
 30
0.0
 40
3.2
  1
1/1
  7
高3.2
100
AcDbText
  0
TEXT
  5
E01
330
D57
100
AcDbEntity
  8
0
 62
     3
100
AcDbText
 10
341.8649274432866
 20
10.81687815935612
 30
0.0
 40
3.2
  1
ZK-A3X
 41
0.8
  7
高3.2
100
AcDbText
  0
TEXT
  5
E02
330
D57
100
AcDbEntity
  8
0
 62
     3
100
AcDbText
 10
299.5852669732867
 20
16.52462040840798
 30
0.0
 40
2.0
  1
NICHIDO IND.CO.LTD
 41
1.3
  7
高2
100
AcDbText
  0
TEXT
  5
E03
330
D57
100
AcDbEntity
  8
0
 62
     3
100
AcDbText
 10
300.7667902382439
 20
42.14052819410508
 30
0.0
 40
3.2
  1
品 名
  7
高3.2
100
AcDbText
1001
ACAD
1000
ACAD_MTEXT_DEFINED_HEIGHT_BEGIN
1070
    46
1040
0.0
1000
ACAD_MTEXT_DEFINED_HEIGHT_END
  0
TEXT
  5
E04
330
D57
100
AcDbEntity
  8
0
 62
     3
100
AcDbText
 10
300.7667902382439
 20
34.49999998622015
 30
0.0
 40
3.2
  1
型 式
  7
高3.2
100
AcDbText
1001
ACAD
1000
ACAD_MTEXT_DEFINED_HEIGHT_BEGIN
1070
    46
1040
3.064735913775955
1000
ACAD_MTEXT_DEFINED_HEIGHT_END
  0
TEXT
  5
E05
330
D57
100
AcDbEntity
  8
0
 62
     3
100
AcDbText
 10
300.7667902382439
 20
27.49999998622016
 30
0.0
 40
3.2
  1
材 質
  7
高3.2
100
AcDbText
1001
ACAD
1000
ACAD_MTEXT_DEFINED_HEIGHT_BEGIN
1070
    46
1040
0.0
1000
ACAD_MTEXT_DEFINED_HEIGHT_END
  0
TEXT
  5
E06
330
D57
100
AcDbEntity
  8
0
 62
     3
100
AcDbText
 10
300.4617552882439
 20
20.4674399784664
 30
0.0
 40
3.2
  1
第 三 角 法
  7
高3.2
100
AcDbText
1001
ACAD
1000
ACAD_MTEXT_DEFINED_HEIGHT_BEGIN
1070
    46
1040
0.0
1000
ACAD_MTEXT_DEFINED_HEIGHT_END
  0
TEXT
  5
E07
330
D57
100
AcDbEntity
  8
0
 62
     3
100
AcDbText
 10
298.8682878957727
 20
11.14052819410509
 30
0.0
 40
3.2
  1
日動工業株式会社
 41
1.199999999999999
  7
高3.2
100
AcDbText
1001
ACAD
1000
ACAD_MTEXT_DEFINED_HEIGHT_BEGIN
1070
    46
1040
0.0
1000
ACAD_MTEXT_DEFINED_HEIGHT_END
  0
TEXT
  5
E08
330
D57
100
AcDbEntity
  8
0
 62
     3
100
AcDbText
 10
332.5039120952513
 20
27.38457851938772
 30
0.0
 40
3.2
  1
備考
  7
高3.2
100
AcDbText
1001
ACAD
1000
ACAD_MTEXT_DEFINED_HEIGHT_BEGIN
1070
    46
1040
0.0
1000
ACAD_MTEXT_DEFINED_HEIGHT_END
  0
TEXT
  5
E09
330
D57
100
AcDbEntity
  8
0
 62
     3
100
AcDbText
 10
342.1529695422866
 20
16.14623001179045
 30
0.0
 40
2.5
  1
出図コード
  7
高2.5
100
AcDbText
1001
ACAD
1000
ACAD_MTEXT_DEFINED_HEIGHT_BEGIN
1070
    46
1040
0.0
1000
ACAD_MTEXT_DEFINED_HEIGHT_END
  0
TEXT
  5
E0A
330
D57
100
AcDbEntity
  8
0
 62
     3
100
AcDbText
 10
332.3451459771638
 20
20.45323489663308
 30
0.0
 40
3.2
  1
尺度
  7
高3.2
100
AcDbText
1001
ACAD
1000
ACAD_MTEXT_DEFINED_HEIGHT_BEGIN
1070
    46
1040
0.0
1000
ACAD_MTEXT_DEFINED_HEIGHT_END
  0
TEXT
  5
E0B
330
D57
100
AcDbEntity
  8
0
 62
     3
100
AcDbText
 10
359.4914074589426
 20
21.58471334475057
 30
0.0
 40
3.2
  1
作成日
  7
高3.2
100
AcDbText
1001
ACAD
1000
ACAD_MTEXT_DEFINED_HEIGHT_BEGIN
1070
    46
1040
0.0
1000
ACAD_MTEXT_DEFINED_HEIGHT_END
  0
TEXT
  5
E0C
330
D57
100
AcDbEntity
  8
0
 62
     3
100
AcDbText
 10
359.3858814658065
 20
42.14052819410508
 30
0.0
 40
3.2
  1
承 認
  7
高3.2
100
AcDbText
1001
ACAD
1000
ACAD_MTEXT_DEFINED_HEIGHT_BEGIN
1070
    46
1040
0.0
1000
ACAD_MTEXT_DEFINED_HEIGHT_END
  0
TEXT
  5
E0D
330
D57
100
AcDbEntity
  8
0
 62
     3
100
AcDbText
 10
372.3858814658065
 20
42.14052819410508
 30
0.0
 40
3.2
  1
検 図
  7
高3.2
100
AcDbText
1001
ACAD
1000
ACAD_MTEXT_DEFINED_HEIGHT_BEGIN
1070
    46
1040
0.0
1000
ACAD_MTEXT_DEFINED_HEIGHT_END
  0
TEXT
  5
E0E
330
D57
100
AcDbEntity
  8
0
 62
     3
100
AcDbText
 10
385.3858814658065
 20
42.14052819410508
 30
0.0
 40
3.2
  1
設 計
  7
高3.2
100
AcDbText
1001
ACAD
1000
ACAD_MTEXT_DEFINED_HEIGHT_BEGIN
1070
    46
1040
0.0
1000
ACAD_MTEXT_DEFINED_HEIGHT_END
  0
TEXT
  5
E0F
330
D57
100
AcDbEntity
  8
0
 62
     3
100
AcDbText
 10
398.6865179858064
 20
42.14052819410508
 30
0.0
 40
3.2
  1
製 図
  7
高3.2
100
AcDbText
1001
ACAD
1000
ACAD_MTEXT_DEFINED_HEIGHT_BEGIN
1070
    46
1040
0.0
1000
ACAD_MTEXT_DEFINED_HEIGHT_END
  0
TEXT
  5
E10
330
D57
100
AcDbEntity
  8
0
 62
     3
100
AcDbText
 10
397.5000005732866
 20
274.4999999862201
 30
0.0
 40
3.2
  1
担　当
  7
高3.2
100
AcDbText
  0
TEXT
  5
E11
330
D57
100
AcDbEntity
  8
0
 62
     3
100
AcDbText
 10
353.5000005732866
 20
274.4999999862201
 30
0.0
 40
3.2
  1
変更・追記内容
  7
高3.2
100
AcDbText
  0
TEXT
  5
E12
330
D57
100
AcDbEntity
  8
0
 62
     3
100
AcDbText
 10
328.6135155736258
 20
269.8294614763118
 30
0.0
 40
2.0
  1
1
  7
高2
100
AcDbText
  0
TEXT
  5
E13
330
D57
100
AcDbEntity
  8
0
 62
     3
100
AcDbText
 10
328.3050040968685
 20
264.6596447640389
 30
0.0
 40
2.0
  1
2
  7
高2
100
AcDbText
  0
TEXT
  5
E14
330
D57
100
AcDbEntity
  8
0
 62
     3
100
AcDbText
 10
335.5000005732866
 20
274.4999999862201
 30
0.0
 40
3.2
  1
日　付
  7
高3.2
100
AcDbText
  0
TEXT
  5
E15
330
D57
100
AcDbEntity
  8
0
 62
     3
100
AcDbText
 10
335.5000005732866
 20
279.4999999862201
 30
0.0
 40
3.2
  1
図　　　　面　　　　略　　　　歴
  7
高3.2
100
AcDbText
  0
TEXT
  5
E16
330
D57
100
AcDbEntity
  8
0
 62
     3
100
AcDbText
 10
325.5000005732866
 20
274.4999999862201
 30
0.0
 40
3.2
  1
記号
  7
高3.2
100
AcDbText
  0
LINE
  5
E17
330
D57
100
AcDbEntity
  8
0
 62
     7
100
AcDbLine
 10
329.0000005732866
 20
267.7908959862202
 30
0.0
 11
327.1000005732867
 21
264.4999999862201
 31
0.0
  0
LINE
  5
E18
330
D57
100
AcDbEntity
  8
0
 62
     7
100
AcDbLine
 10
329.0000005732866
 20
267.7908959862202
 30
0.0
 11
330.9000005732867
 21
264.4999999862201
 31
0.0
  0
LINE
  5
E19
330
D57
100
AcDbEntity
  8
0
 62
     7
100
AcDbLine
 10
327.1000005732867
 20
264.4999999862201
 30
0.0
 11
330.9000005732867
 21
264.4999999862201
 31
0.0
  0
LINE
  5
E1A
330
D57
100
AcDbEntity
  8
0
 62
     7
100
AcDbLine
 10
329.0000005732866
 20
272.7908969862202
 30
0.0
 11
327.1000005732867
 21
269.4999999862201
 31
0.0
  0
LINE
  5
E1B
330
D57
100
AcDbEntity
  8
0
 62
     7
100
AcDbLine
 10
329.0000005732866
 20
272.7908969862202
 30
0.0
 11
330.9000005732867
 21
269.4999999862201
 31
0.0
  0
LINE
  5
E1C
330
D57
100
AcDbEntity
  8
0
 62
     7
100
AcDbLine
 10
327.1000005732867
 20
269.4999999862201
 30
0.0
 11
330.9000005732867
 21
269.4999999862201
 31
0.0
  0
LINE
  5
E1D
330
D57
100
AcDbEntity
  8
0
 62
     3
100
AcDbLine
 10
324.0000005732866
 20
278.9999999862201
 30
0.0
 11
410.0000005732865
 21
278.9999999862201
 31
0.0
  0
LINE
  5
E1E
330
D57
100
AcDbEntity
  8
0
 62
     3
100
AcDbLine
 10
324.0000005732866
 20
273.9999999862201
 30
0.0
 11
410.0000005732865
 21
273.9999999862201
 31
0.0
  0
LINE
  5
E1F
330
D57
100
AcDbEntity
  8
0
 62
     7
100
AcDbLine
 10
324.0000005732866
 20
268.9999999862201
 30
0.0
 11
410.0000005732865
 21
268.9999999862201
 31
0.0
  0
LINE
  5
E20
330
D57
100
AcDbEntity
  8
0
 62
     3
100
AcDbLine
 10
324.0000005732866
 20
263.9999999862201
 30
0.0
 11
410.0000005732865
 21
263.9999999862201
 31
0.0
  0
LINE
  5
E21
330
D57
100
AcDbEntity
  8
0
 62
     7
100
AcDbLine
 10
396.0000005732866
 20
263.9999999862201
 30
0.0
 11
396.0000005732866
 21
278.9999999862201
 31
0.0
  0
LINE
  5
E22
330
D57
100
AcDbEntity
  8
0
 62
     7
100
AcDbLine
 10
352.0000005732866
 20
263.9999999862201
 30
0.0
 11
352.0000005732866
 21
278.9999999862201
 31
0.0
  0
LINE
  5
E23
330
D57
100
AcDbEntity
  8
0
 62
     7
100
AcDbLine
 10
334.0000005732866
 20
263.9999999862201
 30
0.0
 11
334.0000005732866
 21
278.9999999862201
 31
0.0
  0
LINE
  5
E24
330
D57
100
AcDbEntity
  8
0
 62
     3
100
AcDbLine
 10
324.0000005732866
 20
263.9999999862201
 30
0.0
 11
324.0000005732866
 21
283.9999999862201
 31
0.0
  0
ENDBLK
  5
E28
330
D57
100
AcDbEntity
  8
0
100
AcDbBlockEnd
  0
BLOCK
  5
1193
330
10C4
100
AcDbEntity
  8
0
100
AcDbBlockBegin
  2
A$C478E5F75
 70
     0
 10
0.0
 20
0.0
 30
0.0
  3
A$C478E5F75
  1

  0
LINE
  5
10C5
330
10C4
100
AcDbEntity
  8
0
 62
     3
100
AcDbLine
 10
19.99999956930423
 20
283.9999999780495
 30
0.0
 11
19.99999956930423
 21
9.999999978049487
 31
0.0
  0
LINE
  5
10C6
330
10C4
100
AcDbEntity
  8
0
 62
     3
100
AcDbLine
 10
409.9999995693044
 20
9.999999978049487
 30
0.0
 11
409.9999995693044
 21
283.9999999780495
 31
0.0
  0
LINE
  5
10C7
330
10C4
100
AcDbEntity
  8
0
 62
     3
100
AcDbLine
 10
19.99999956930423
 20
9.999999978049487
 30
0.0
 11
409.9999995693044
 21
9.999999978049487
 31
0.0
  0
LINE
  5
10C8
330
10C4
100
AcDbEntity
  8
0
 62
     3
100
AcDbLine
 10
197.7748890393043
 20
286.4400021180495
 30
0.0
 11
198.3973860493042
 21
286.1150476380494
 31
0.0
  0
LINE
  5
10C9
330
10C4
100
AcDbEntity
  8
0
 62
     3
100
AcDbLine
 10
197.7748890393043
 20
281.1105300180494
 30
0.0
 11
198.3973860493042
 21
281.4354844980495
 31
0.0
  0
LINE
  5
10CA
330
10C4
100
AcDbEntity
  8
0
 62
     3
100
AcDbLine
 10
198.3973860493042
 20
286.1150476380494
 30
0.0
 11
198.3973860493042
 21
281.4354844980495
 31
0.0
  0
LINE
  5
10CB
330
10C4
100
AcDbEntity
  8
0
 62
     3
100
AcDbLine
 10
199.9738395093043
 20
281.1105300180494
 30
0.0
 11
199.3513424993043
 21
281.4354844980495
 31
0.0
  0
LINE
  5
10CC
330
10C4
100
AcDbEntity
  8
0
 62
     3
100
AcDbLine
 10
199.3513424993043
 20
284.2881399480494
 30
0.0
 11
199.3513424993043
 21
281.4354844980495
 31
0.0
  0
LINE
  5
10CD
330
10C4
100
AcDbEntity
  8
0
 62
     3
100
AcDbLine
 10
203.6050720493045
 20
286.4400021180495
 30
0.0
 11
202.9825750493044
 21
286.1150476380494
 31
0.0
  0
LINE
  5
10CE
330
10C4
100
AcDbEntity
  8
0
 62
     3
100
AcDbLine
 10
201.4061215793045
 20
286.4400021180495
 30
0.0
 11
202.0286185893044
 21
286.1150476380494
 31
0.0
  0
LINE
  5
10CF
330
10C4
100
AcDbEntity
  8
0
 62
     3
100
AcDbLine
 10
202.0286185893044
 20
286.1150476380494
 30
0.0
 11
202.0286185893044
 21
284.0545661180495
 31
0.0
  0
LINE
  5
10D0
330
10C4
100
AcDbEntity
  8
0
 62
     3
100
AcDbLine
 10
202.9825750493044
 20
286.1150476380494
 30
0.0
 11
202.9825750493044
 21
280.8082998080495
 31
0.0
  0
LINE
  5
10D1
330
10C4
100
AcDbEntity
  8
0
 62
     3
100
AcDbLine
 10
203.9126394893044
 20
286.4399983680495
 30
0.0
 11
204.5351342493043
 21
286.1150395980494
 31
0.0
  0
LINE
  5
10D2
330
10C4
100
AcDbEntity
  8
0
 62
     3
100
AcDbLine
 10
203.9125280993044
 20
281.1106014080494
 30
0.0
 11
204.5350364493042
 21
281.4355341580494
 31
0.0
  0
LINE
  5
10D3
330
10C4
100
AcDbEntity
  8
0
 62
     3
100
AcDbLine
 10
204.5351342493043
 20
286.1150395980494
 30
0.0
 11
204.5351342493043
 21
281.4355341580494
 31
0.0
  0
LINE
  5
10D4
330
10C4
100
AcDbEntity
  8
0
 62
     3
100
AcDbLine
 10
206.6691200493044
 20
286.4399645480495
 30
0.0
 11
206.0466184893044
 21
286.1150187880495
 31
0.0
  0
LINE
  5
10D5
330
10C4
100
AcDbEntity
  8
0
 62
     3
100
AcDbLine
 10
206.0466184893044
 20
286.1150187880495
 30
0.0
 11
206.0466184893044
 21
281.4355133480494
 31
0.0
  0
LINE
  5
10D6
330
10C4
100
AcDbEntity
  8
0
 62
     3
100
AcDbLine
 10
206.6691200493044
 20
281.1105675880494
 30
0.0
 11
206.0466184893044
 21
281.4355133480494
 31
0.0
  0
LINE
  5
10D7
330
10C4
100
AcDbEntity
  8
0
 62
     3
100
AcDbLine
 10
211.9409106793043
 20
286.4399059780494
 30
0.0
 11
212.5634065593045
 21
286.1149493580494
 31
0.0
  0
LINE
  5
10D8
330
10C4
100
AcDbEntity
  8
0
 62
     3
100
AcDbLine
 10
212.5634065593045
 20
286.1149493580494
 30
0.0
 11
212.5633248893044
 21
281.4354439080495
 31
0.0
  0
LINE
  5
10D9
330
10C4
100
AcDbEntity
  8
0
 62
     3
100
AcDbLine
 10
211.9408176593042
 20
281.1105090180495
 30
0.0
 11
212.5633248893044
 21
281.4354439080495
 31
0.0
  0
LINE
  5
10DA
330
10C4
100
AcDbEntity
  8
0
 62
     3
100
AcDbLine
 10
214.7298549193042
 20
286.4399059780494
 30
0.0
 11
214.1073590293045
 21
286.1149493580494
 31
0.0
  0
LINE
  5
10DB
330
10C4
100
AcDbEntity
  8
0
 62
     3
100
AcDbLine
 10
214.7299479293042
 20
281.1105090180495
 30
0.0
 11
214.1074406993043
 21
281.4354439080495
 31
0.0
  0
LINE
  5
10DC
330
10C4
100
AcDbEntity
  8
0
 62
     3
100
AcDbLine
 10
215.0208947193044
 20
286.4399059780494
 30
0.0
 11
215.6433905993044
 21
286.1149493580494
 31
0.0
  0
LINE
  5
10DD
330
10C4
100
AcDbEntity
  8
0
 62
     3
100
AcDbLine
 10
215.0208016993042
 20
281.1105090180495
 30
0.0
 11
215.6433089293043
 21
281.4354439080495
 31
0.0
  0
LINE
  5
10DE
330
10C4
100
AcDbEntity
  8
0
 62
     3
100
AcDbLine
 10
217.8098389493043
 20
286.4399059780494
 30
0.0
 11
217.1873430693044
 21
286.1149493580494
 31
0.0
  0
LINE
  5
10DF
330
10C4
100
AcDbEntity
  8
0
 62
     3
100
AcDbLine
 10
217.1873430693044
 20
286.1149493580494
 30
0.0
 11
217.1874247393043
 21
281.4354439080495
 31
0.0
  0
LINE
  5
10E0
330
10C4
100
AcDbEntity
  8
0
 62
     3
100
AcDbLine
 10
217.8099319693042
 20
281.1105090180495
 30
0.0
 11
217.1874247393043
 21
281.4354439080495
 31
0.0
  0
LINE
  5
10E1
330
10C4
100
AcDbEntity
  8
0
 62
     3
100
AcDbLine
 10
215.6433550193044
 20
284.0761877580495
 30
0.0
 11
214.1073946093043
 21
284.0761877580495
 31
0.0
  0
LINE
  5
10E2
330
10C4
100
AcDbEntity
  8
0
 62
     3
100
AcDbLine
 10
215.6433445193043
 20
283.4743443780494
 30
0.0
 11
214.1074051093044
 21
283.4743443780494
 31
0.0
  0
LINE
  5
10E3
330
10C4
100
AcDbEntity
  8
0
 62
     3
100
AcDbLine
 10
215.6433905993044
 20
286.1149493580494
 30
0.0
 11
215.6433550193044
 21
284.0761877580495
 31
0.0
  0
LINE
  5
10E4
330
10C4
100
AcDbEntity
  8
0
 62
     3
100
AcDbLine
 10
215.6433445193043
 20
283.4743443780494
 30
0.0
 11
215.6433089293043
 21
281.4354439080495
 31
0.0
  0
LINE
  5
10E5
330
10C4
100
AcDbEntity
  8
0
 62
     3
100
AcDbLine
 10
214.1073590293045
 20
286.1149493580494
 30
0.0
 11
214.1073946093043
 21
284.0761877580495
 31
0.0
  0
LINE
  5
10E6
330
10C4
100
AcDbEntity
  8
0
 62
     3
100
AcDbLine
 10
214.1074051093044
 20
283.4743443780494
 30
0.0
 11
214.1074406993043
 21
281.4354439080495
 31
0.0
  0
LINE
  5
10E7
330
10C4
100
AcDbEntity
  8
0
 62
     3
100
AcDbLine
 10
218.1054948393044
 20
286.4399059780494
 30
0.0
 11
218.7279907293044
 21
286.1149493580494
 31
0.0
  0
LINE
  5
10E8
330
10C4
100
AcDbEntity
  8
0
 62
     3
100
AcDbLine
 10
218.7279907293044
 20
286.1149493580494
 30
0.0
 11
218.7279090493043
 21
281.4354439080495
 31
0.0
  0
LINE
  5
10E9
330
10C4
100
AcDbEntity
  8
0
 62
     3
100
AcDbLine
 10
218.1054018193044
 20
281.1105090180495
 30
0.0
 11
218.7279090493043
 21
281.4354439080495
 31
0.0
  0
LINE
  5
10EA
330
10C4
100
AcDbEntity
  8
0
 62
     3
100
AcDbLine
 10
220.8619380793043
 20
286.4399059780494
 30
0.0
 11
220.2394421893043
 21
286.1149493580494
 31
0.0
  0
LINE
  5
10EB
330
10C4
100
AcDbEntity
  8
0
 62
     3
100
AcDbLine
 10
220.2394421893043
 20
286.1149493580494
 30
0.0
 11
220.2395238693043
 21
281.4354439080495
 31
0.0
  0
LINE
  5
10EC
330
10C4
100
AcDbEntity
  8
0
 62
     3
100
AcDbLine
 10
220.8620310993042
 20
281.1105090180495
 30
0.0
 11
220.2395238693043
 21
281.4354439080495
 31
0.0
  0
LINE
  5
10ED
330
10C4
100
AcDbEntity
  8
0
 62
     3
100
AcDbLine
 10
221.1681660293043
 20
286.4399059780494
 30
0.0
 11
221.7906619193043
 21
286.1149493580494
 31
0.0
  0
LINE
  5
10EE
330
10C4
100
AcDbEntity
  8
0
 62
     3
100
AcDbLine
 10
221.7906619193043
 20
286.1149493580494
 30
0.0
 11
221.7905802493044
 21
281.4354439080495
 31
0.0
  0
LINE
  5
10EF
330
10C4
100
AcDbEntity
  8
0
 62
     3
100
AcDbLine
 10
221.1680730193043
 20
281.1105090180495
 30
0.0
 11
221.7905802493044
 21
281.4354439080495
 31
0.0
  0
ARC
  5
10F0
330
10C4
100
AcDbEntity
  8
0
 62
     3
100
AcDbCircle
 10
209.9524660093043
 20
283.7886800080495
 30
0.0
 40
2.98040844
100
AcDbArc
 50
97.70152350999723
 51
270.0
  0
ARC
  5
10F1
330
10C4
100
AcDbEntity
  8
0
 62
     3
100
AcDbCircle
 10
228.3533243493043
 20
283.7587419680494
 30
0.0
 40
3.012776259999999
100
AcDbArc
 50
0.314250269999259
 51
69.00558245000303
  0
ARC
  5
10F2
330
10C4
100
AcDbEntity
  8
0
 62
     3
100
AcDbCircle
 10
229.0114319593044
 20
283.7587419680494
 30
0.0
 40
3.012776259999999
100
AcDbArc
 50
110.9944175499969
 51
148.1166110200042
  0
ARC
  5
10F3
330
10C4
100
AcDbEntity
  8
0
 62
     3
100
AcDbCircle
 10
228.3533243493043
 20
283.7917901680495
 30
0.0
 40
3.012776259999999
100
AcDbArc
 50
290.9944175499969
 51
359.6857497300007
  0
ARC
  5
10F4
330
10C4
100
AcDbEntity
  8
0
 62
     3
100
AcDbCircle
 10
229.0114319593044
 20
283.7917901680495
 30
0.0
 40
3.012776259999999
100
AcDbArc
 50
211.8833889799958
 51
249.005582450003
  0
ARC
  5
10F5
330
10C4
100
AcDbEntity
  8
0
 62
     3
100
AcDbCircle
 10
228.6823781593043
 20
285.0078451980495
 30
0.0
 40
1.73438712
100
AcDbArc
 50
64.3651718999996
 51
115.6348281000004
  0
ARC
  5
10F6
330
10C4
100
AcDbEntity
  8
0
 62
     3
100
AcDbCircle
 10
228.6823781593043
 20
282.5426869380494
 30
0.0
 40
1.73438712
100
AcDbArc
 50
244.3651718999996
 51
295.6348281000004
  0
ARC
  5
10F7
330
10C4
100
AcDbEntity
  8
0
 62
     3
100
AcDbCircle
 10
228.6823781593043
 20
285.0407904580494
 30
0.0
 40
0.85122233
100
AcDbArc
 50
19.48660554000363
 51
160.5133944599963
  0
ARC
  5
10F8
330
10C4
100
AcDbEntity
  8
0
 62
     3
100
AcDbCircle
 10
228.6823781593043
 20
282.5426869380494
 30
0.0
 40
1.73438712
100
AcDbArc
 50
244.3651718999996
 51
295.6348281000004
  0
ARC
  5
10F9
330
10C4
100
AcDbEntity
  8
0
 62
     3
100
AcDbCircle
 10
228.6823781593043
 20
282.5097416780494
 30
0.0
 40
0.85122233
100
AcDbArc
 50
199.4866055400036
 51
340.5133944599964
  0
ARC
  5
10FA
330
10C4
100
AcDbEntity
  8
0
 62
     3
100
AcDbCircle
 10
221.9074174393045
 20
252.0208948680495
 30
0.0
 40
37.20000000000001
100
AcDbArc
 50
69.50571480000833
 51
81.68998807001051
  0
ARC
  5
10FB
330
10C4
100
AcDbEntity
  8
0
 62
     3
100
AcDbCircle
 10
221.9074174393045
 20
315.5296372680494
 30
0.0
 40
37.20000000000001
100
AcDbArc
 50
278.3100119299894
 51
290.4942851999917
  0
ARC
  5
10FC
330
10C4
100
AcDbEntity
  8
0
 62
     3
100
AcDbCircle
 10
233.7762804793042
 20
283.7752660680494
 30
0.0
 40
3.299999999999999
100
AcDbArc
 50
290.4942851999917
 51
69.50571480000833
  0
ARC
  5
10FD
330
10C4
100
AcDbEntity
  8
0
 62
     3
100
AcDbCircle
 10
194.7762804793042
 20
283.7752660680494
 30
0.0
 40
3.299999999999999
100
AcDbArc
 50
110.4942851999916
 51
249.5057148000083
  0
ARC
  5
10FE
330
10C4
100
AcDbEntity
  8
0
 62
     3
100
AcDbCircle
 10
206.6451435093045
 20
252.0208948680495
 30
0.0
 40
37.20000000000001
100
AcDbArc
 50
98.31001192998947
 51
110.4942851999916
  0
ARC
  5
10FF
330
10C4
100
AcDbEntity
  8
0
 62
     3
100
AcDbCircle
 10
206.6451435093045
 20
315.5296372680494
 30
0.0
 40
37.20000000000001
100
AcDbArc
 50
249.5057148000083
 51
261.6899880699973
  0
ARC
  5
1100
330
10C4
100
AcDbEntity
  8
0
 62
     3
100
AcDbCircle
 10
214.2762804793042
 20
199.7752660680494
 30
0.0
 40
89.99999981
100
AcDbArc
 50
81.68998807001051
 51
98.31001192998947
  0
ARC
  5
1101
330
10C4
100
AcDbEntity
  8
0
 62
     3
100
AcDbCircle
 10
214.2762804793042
 20
367.7752660680494
 30
0.0
 40
89.99999981
100
AcDbArc
 50
261.6899880699973
 51
278.3100119299894
  0
ARC
  5
1102
330
10C4
100
AcDbEntity
  8
0
 62
     3
100
AcDbCircle
 10
214.2762804793042
 20
199.7752660680494
 30
0.0
 40
89.09999981
100
AcDbArc
 50
81.68998807001051
 51
98.31001192998947
  0
ARC
  5
1103
330
10C4
100
AcDbEntity
  8
0
 62
     3
100
AcDbCircle
 10
214.2762804793042
 20
367.7752660680494
 30
0.0
 40
89.09999981
100
AcDbArc
 50
261.6899880699973
 51
278.3100119299894
  0
ARC
  5
1104
330
10C4
100
AcDbEntity
  8
0
 62
     3
100
AcDbCircle
 10
221.9074174393045
 20
315.5296372680494
 30
0.0
 40
36.3
100
AcDbArc
 50
278.3100119299894
 51
290.4942851999917
  0
ARC
  5
1105
330
10C4
100
AcDbEntity
  8
0
 62
     3
100
AcDbCircle
 10
221.9074174393045
 20
252.0208948680495
 30
0.0
 40
36.3
100
AcDbArc
 50
69.50571480000833
 51
81.68998807001051
  0
ARC
  5
1106
330
10C4
100
AcDbEntity
  8
0
 62
     3
100
AcDbCircle
 10
233.7762804793042
 20
283.7752660680494
 30
0.0
 40
2.399999999999999
100
AcDbArc
 50
290.4942851999917
 51
69.50571480000833
  0
ARC
  5
1107
330
10C4
100
AcDbEntity
  8
0
 62
     3
100
AcDbCircle
 10
194.7762804793042
 20
283.7752660680494
 30
0.0
 40
2.399999999999999
100
AcDbArc
 50
110.4942851999916
 51
249.5057148000083
  0
ARC
  5
1108
330
10C4
100
AcDbEntity
  8
0
 62
     3
100
AcDbCircle
 10
206.6451435093045
 20
252.0208948680495
 30
0.0
 40
36.3
100
AcDbArc
 50
98.31001192998947
 51
110.4942851999916
  0
ARC
  5
1109
330
10C4
100
AcDbEntity
  8
0
 62
     3
100
AcDbCircle
 10
206.6451435093045
 20
315.5296372680494
 30
0.0
 40
36.3
100
AcDbArc
 50
249.5057148000083
 51
261.6899880699973
  0
LINE
  5
110A
330
10C4
100
AcDbEntity
  8
0
 62
     3
100
AcDbLine
 10
220.8619391993043
 20
280.8082998080495
 30
0.0
 11
218.1054937193044
 21
280.8082998080495
 31
0.0
  0
LINE
  5
110B
330
10C4
100
AcDbEntity
  8
0
 62
     3
100
AcDbLine
 10
220.8619391993043
 20
281.1105300180494
 30
0.0
 11
220.8619391993043
 21
280.8082998080495
 31
0.0
  0
LINE
  5
110C
330
10C4
100
AcDbEntity
  8
0
 62
     3
100
AcDbLine
 10
217.8098400693043
 20
286.7420912980494
 30
0.0
 11
215.0208935993044
 21
286.7420912980494
 31
0.0
  0
LINE
  5
110D
330
10C4
100
AcDbEntity
  8
0
 62
     3
100
AcDbLine
 10
217.8098400693043
 20
286.7420912980494
 30
0.0
 11
217.8098400693043
 21
286.4400021180495
 31
0.0
  0
LINE
  5
110E
330
10C4
100
AcDbEntity
  8
0
 62
     3
100
AcDbLine
 10
217.8098400693043
 20
281.1105300180494
 30
0.0
 11
217.8098400693043
 21
280.8081587880495
 31
0.0
  0
LINE
  5
110F
330
10C4
100
AcDbEntity
  8
0
 62
     3
100
AcDbLine
 10
217.8098400693043
 20
280.8081587880495
 30
0.0
 11
215.0208935993044
 21
280.8081587880495
 31
0.0
  0
LINE
  5
1110
330
10C4
100
AcDbEntity
  8
0
 62
     3
100
AcDbLine
 10
220.8619391993043
 20
286.7422323280495
 30
0.0
 11
220.8619391993043
 21
286.4400021180495
 31
0.0
  0
LINE
  5
1111
330
10C4
100
AcDbEntity
  8
0
 62
     3
100
AcDbLine
 10
220.8619391993043
 20
286.7422323280495
 30
0.0
 11
218.1054937193044
 21
286.7422323280495
 31
0.0
  0
LINE
  5
1112
330
10C4
100
AcDbEntity
  8
0
 62
     3
100
AcDbLine
 10
218.1054937193044
 20
286.7422323280495
 30
0.0
 11
218.1054937193044
 21
286.4400021180495
 31
0.0
  0
LINE
  5
1113
330
10C4
100
AcDbEntity
  8
0
 62
     3
100
AcDbLine
 10
221.1681649093043
 20
281.1105300180494
 30
0.0
 11
221.1681649093043
 21
280.8082998080495
 31
0.0
  0
LINE
  5
1114
330
10C4
100
AcDbEntity
  8
0
 62
     3
100
AcDbLine
 10
224.0028799993043
 20
280.8082998080495
 30
0.0
 11
221.1681649093043
 21
280.8082998080495
 31
0.0
  0
LINE
  5
1115
330
10C4
100
AcDbEntity
  8
0
 62
     3
100
AcDbLine
 10
223.3021133893044
 20
285.7882758680495
 30
0.0
 11
223.3021133893044
 21
281.7622562680494
 31
0.0
  0
LINE
  5
1116
330
10C4
100
AcDbEntity
  8
0
 62
     3
100
AcDbLine
 10
223.3021133893044
 20
281.7622562680494
 30
0.0
 11
223.5736119093044
 21
281.7622562680494
 31
0.0
  0
ARC
  5
1117
330
10C4
100
AcDbEntity
  8
0
 62
     3
100
AcDbCircle
 10
222.1853465693043
 20
283.7752660680494
 30
0.0
 40
2.44529939
100
AcDbArc
 50
304.5919552700016
 51
55.40804472999841
  0
LINE
  5
1118
330
10C4
100
AcDbEntity
  8
0
 62
     3
100
AcDbLine
 10
224.0028799993043
 20
286.7422323280495
 30
0.0
 11
221.1681649093043
 21
286.7422323280495
 31
0.0
  0
LINE
  5
1119
330
10C4
100
AcDbEntity
  8
0
 62
     3
100
AcDbLine
 10
221.1681649093043
 20
286.7422323280495
 30
0.0
 11
221.1681649093043
 21
286.4400021180495
 31
0.0
  0
LINE
  5
111A
330
10C4
100
AcDbEntity
  8
0
 62
     3
100
AcDbLine
 10
218.1054937193044
 20
281.1105300180494
 30
0.0
 11
218.1054937193044
 21
280.8082998080495
 31
0.0
  0
LINE
  5
111B
330
10C4
100
AcDbEntity
  8
0
 62
     3
100
AcDbLine
 10
223.3021133893044
 20
285.7882758680495
 30
0.0
 11
223.5736119093044
 21
285.7882758680495
 31
0.0
  0
LINE
  5
111C
330
10C4
100
AcDbEntity
  8
0
 62
     3
100
AcDbLine
 10
206.6690281493043
 20
281.1105300180494
 30
0.0
 11
206.6690228793043
 21
280.8082715680495
 31
0.0
  0
LINE
  5
111D
330
10C4
100
AcDbEntity
  8
0
 62
     3
100
AcDbLine
 10
203.9125773993044
 20
280.8083280580495
 30
0.0
 11
206.6690228793043
 21
280.8082799480494
 31
0.0
  0
LINE
  5
111E
330
10C4
100
AcDbEntity
  8
0
 62
     3
100
AcDbLine
 10
197.7748890393043
 20
280.8082998080495
 30
0.0
 11
199.9738395093043
 21
280.8082998080495
 31
0.0
  0
ARC
  5
111F
330
10C4
100
AcDbEntity
  8
0
 62
     3
100
AcDbCircle
 10
190.6578280693043
 20
283.8451326780495
 30
0.0
 40
21.01937947
100
AcDbArc
 50
353.8660061899987
 51
357.6940342600001
  0
LINE
  5
1120
330
10C4
100
AcDbEntity
  8
0
 62
     3
100
AcDbLine
 10
210.2529421593045
 20
283.0046074580494
 30
0.0
 11
211.6601862793043
 21
282.9994004880494
 31
0.0
  0
LWPOLYLINE
  5
1121
330
10C4
100
AcDbEntity
  8
0
 62
     3
100
AcDbPolyline
 90
       64
 70
     0
 43
0.0
 10
210.2586256093043
 20
284.5406285180494
 10
210.2320148593044
 20
284.7110110380495
 10
210.2000560293045
 20
284.8741607280494
 10
210.1629961293042
 20
285.0288165280495
 10
210.1211216293043
 20
285.1737830280494
 10
210.0747561993044
 20
285.3079397180495
 10
210.0242582093042
 20
285.4302496180494
 10
209.9700179893043
 20
285.5397673580494
 10
209.9124547893043
 20
285.6356464080494
 10
209.8520135393044
 20
285.7171456780494
 10
209.7891614193045
 20
285.7836352180494
 10
209.7243842393043
 20
285.8346010980495
 10
209.6581827093043
 20
285.8696493780494
 10
209.5910685193044
 20
285.8885091480495
 10
209.5235604293043
 20
285.8910346480494
 10
209.4561802393043
 20
285.8772063380494
 10
209.3894487693044
 20
285.8471311080494
 10
209.3238818293043
 20
285.8010414380494
 10
209.2599861893043
 20
285.7392935580494
 10
209.1982557593044
 20
285.6623647680494
 10
209.1391676693042
 20
285.5708496680495
 10
209.0831786393044
 20
285.4654556380495
 10
209.0307214393042
 20
285.3469973080495
 10
208.9822015393042
 20
285.2163902980494
 10
208.9379939593043
 20
285.0746441480494
 10
208.8984404193043
 20
284.9228544780494
 10
208.8638466393045
 20
284.7621945380495
 10
208.8344800093044
 20
284.5939061480494
 10
208.8105675193044
 20
284.4192900880495
 10
208.7922940093045
 20
284.2396960580495
 10
208.7798007093042
 20
284.0565122180494
 10
208.7731841993043
 20
283.8711544980494
 10
208.7724956093043
 20
283.6850555980494
 10
208.7777402693043
 20
283.4996539880494
 10
208.7888776393043
 20
283.3163827180495
 10
208.8058216393042
 20
283.1366583780495
 10
208.8284412893045
 20
282.9618701480494
 10
208.8565617593044
 20
282.7933690480495
 10
208.8899656893043
 20
282.6324575080495
 10
208.9283948893044
 20
282.4803792880494
 10
208.9715523093043
 20
282.3383098780495
 10
209.0191043793043
 20
282.2073473980495
 10
209.0706835293044
 20
282.0885041180495
 10
209.1258910993042
 20
281.9826986480494
 10
209.1843003493043
 20
281.8907487880494
 10
209.2454598093043
 20
281.8133652880494
 10
209.3088967493045
 20
281.7511462680494
 10
209.3741208293045
 20
281.7045726580494
 10
209.4406279093043
 20
281.6740044280495
 10
209.5079039193042
 20
281.6596778780495
 10
209.5754288493044
 20
281.6617037380495
 10
209.6426807693042
 20
281.6800663380494
 10
209.7091398493044
 20
281.7146237580494
 10
209.7742924093043
 20
281.7651088880495
 10
209.8376348393044
 20
281.8311314880494
 10
209.8986775393044
 20
281.9121812480495
 10
209.9569486793043
 20
282.0076316980494
 10
210.0119978593043
 20
282.1167450580495
 10
210.0633995793044
 20
282.2386779180495
 10
210.1107565193042
 20
282.3724878280494
 10
210.1537026393044
 20
282.5171404780494
 10
210.1919059893043
 20
282.6715177980494
 10
210.2250712793043
 20
282.8344265280494
 10
210.2529421593045
 20
283.0046074580494
  0
LINE
  5
1122
330
10C4
100
AcDbEntity
  8
0
 62
     3
100
AcDbLine
 10
210.2586256093043
 20
284.5406285180494
 30
0.0
 11
211.6658697293044
 21
284.5354215480495
 31
0.0
  0
ARC
  5
1123
330
10C4
100
AcDbEntity
  8
0
 62
     3
100
AcDbCircle
 10
190.6578280693043
 20
283.8451326780495
 30
0.0
 40
21.01937947
100
AcDbArc
 50
1.881965739999572
 51
5.709993809998523
  0
LINE
  5
1124
330
10C4
100
AcDbEntity
  8
0
 62
     3
100
AcDbLine
 10
206.6691264393043
 20
286.7422040780494
 30
0.0
 11
206.6691211693044
 21
286.4400021180495
 31
0.0
  0
LINE
  5
1125
330
10C4
100
AcDbEntity
  8
0
 62
     3
100
AcDbLine
 10
203.9126809593045
 20
286.7422605680495
 30
0.0
 11
206.6691264393043
 21
286.7422124580495
 31
0.0
  0
LINE
  5
1126
330
10C4
100
AcDbEntity
  8
0
 62
     3
100
AcDbLine
 10
203.9125826693044
 20
281.1105300180494
 30
0.0
 11
203.9125773993044
 21
280.8083280580495
 31
0.0
  0
LINE
  5
1127
330
10C4
100
AcDbEntity
  8
0
 62
     3
100
AcDbLine
 10
203.9126809593045
 20
286.7422605680495
 30
0.0
 11
203.9126756893042
 21
286.4400021180495
 31
0.0
  0
LINE
  5
1128
330
10C4
100
AcDbEntity
  8
0
 62
     3
100
AcDbLine
 10
199.9738395093043
 20
281.1105300180494
 30
0.0
 11
199.9738395093043
 21
280.8082998080495
 31
0.0
  0
LINE
  5
1129
330
10C4
100
AcDbEntity
  8
0
 62
     3
100
AcDbLine
 10
199.3513424993043
 20
284.2881399480494
 30
0.0
 11
201.5262425793044
 21
280.8082998080495
 31
0.0
  0
LINE
  5
112A
330
10C4
100
AcDbEntity
  8
0
 62
     3
100
AcDbLine
 10
201.5262425793044
 20
280.8082998080495
 30
0.0
 11
202.9825750493044
 21
280.8082998080495
 31
0.0
  0
LINE
  5
112B
330
10C4
100
AcDbEntity
  8
0
 62
     3
100
AcDbLine
 10
203.6050720493045
 20
286.7422323280495
 30
0.0
 11
203.6050720493045
 21
286.4400021180495
 31
0.0
  0
LINE
  5
112C
330
10C4
100
AcDbEntity
  8
0
 62
     3
100
AcDbLine
 10
201.4061215793045
 20
286.7422323280495
 30
0.0
 11
203.6050720493045
 21
286.7422323280495
 31
0.0
  0
LINE
  5
112D
330
10C4
100
AcDbEntity
  8
0
 62
     3
100
AcDbLine
 10
201.4061215793045
 20
286.7422323280495
 30
0.0
 11
201.4061215793045
 21
286.4400021180495
 31
0.0
  0
LINE
  5
112E
330
10C4
100
AcDbEntity
  8
0
 62
     3
100
AcDbLine
 10
202.0286185893044
 20
284.0545661180495
 30
0.0
 11
200.2648376493044
 21
286.7422323280495
 31
0.0
  0
LINE
  5
112F
330
10C4
100
AcDbEntity
  8
0
 62
     3
100
AcDbLine
 10
197.7748890393043
 20
286.7422323280495
 30
0.0
 11
200.2648376493044
 21
286.7422323280495
 31
0.0
  0
LINE
  5
1130
330
10C4
100
AcDbEntity
  8
0
 62
     3
100
AcDbLine
 10
211.9409095593044
 20
286.7420912980494
 30
0.0
 11
214.7298560393042
 21
286.7420912980494
 31
0.0
  0
LINE
  5
1131
330
10C4
100
AcDbEntity
  8
0
 62
     3
100
AcDbLine
 10
211.9409095593044
 20
286.4400021180495
 30
0.0
 11
211.9409095593044
 21
286.7420912980494
 31
0.0
  0
LINE
  5
1132
330
10C4
100
AcDbEntity
  8
0
 62
     3
100
AcDbLine
 10
211.9409095593044
 20
280.8081587880495
 30
0.0
 11
211.9409095593044
 21
281.1105300180494
 31
0.0
  0
LINE
  5
1133
330
10C4
100
AcDbEntity
  8
0
 62
     3
100
AcDbLine
 10
211.9409095593044
 20
280.8081587880495
 30
0.0
 11
214.7298560393042
 21
280.8081587880495
 31
0.0
  0
LINE
  5
1134
330
10C4
100
AcDbEntity
  8
0
 62
     3
100
AcDbLine
 10
215.0208935993044
 20
281.1105300180494
 30
0.0
 11
215.0208935993044
 21
280.8081587880495
 31
0.0
  0
LINE
  5
1135
330
10C4
100
AcDbEntity
  8
0
 62
     3
100
AcDbLine
 10
214.7298560393042
 20
281.1105300180494
 30
0.0
 11
214.7298560393042
 21
280.8081587880495
 31
0.0
  0
LINE
  5
1136
330
10C4
100
AcDbEntity
  8
0
 62
     3
100
AcDbLine
 10
214.7298560393042
 20
286.4400021180495
 30
0.0
 11
214.7298560393042
 21
286.7420912980494
 31
0.0
  0
LINE
  5
1137
330
10C4
100
AcDbEntity
  8
0
 62
     3
100
AcDbLine
 10
215.0208935993044
 20
286.4400021180495
 30
0.0
 11
215.0208935993044
 21
286.7420912980494
 31
0.0
  0
LINE
  5
1138
330
10C4
100
AcDbEntity
  8
0
 62
     3
100
AcDbLine
 10
197.7748890393043
 20
281.1105300180494
 30
0.0
 11
197.7748890393043
 21
280.8082998080495
 31
0.0
  0
LINE
  5
1139
330
10C4
100
AcDbEntity
  8
0
 62
     3
100
AcDbLine
 10
197.7748890393043
 20
286.7422323280495
 30
0.0
 11
197.7748890393043
 21
286.4400021180495
 31
0.0
  0
ARC
  5
113A
330
10C4
100
AcDbEntity
  8
0
 62
     3
100
AcDbCircle
 10
224.3028799993044
 20
284.3977630780495
 30
0.0
 40
2.344469249999999
100
AcDbArc
 50
17.30874897999644
 51
23.76507095999633
  0
ARC
  5
113B
330
10C4
100
AcDbEntity
  8
0
 62
     3
100
AcDbCircle
 10
222.3053465693042
 20
283.7752660680494
 30
0.0
 40
4.43675086
100
AcDbArc
 50
342.6912510200036
 51
17.30856643999929
  0
ARC
  5
113C
330
10C4
100
AcDbEntity
  8
0
 62
     3
100
AcDbCircle
 10
224.3028799993044
 20
283.1527690580495
 30
0.0
 40
2.344469249999999
100
AcDbArc
 50
336.2349290400003
 51
342.6912510200036
  0
ARC
  5
113D
330
10C4
100
AcDbEntity
  8
0
 62
     3
100
AcDbCircle
 10
224.0028799993043
 20
284.3977630780495
 30
0.0
 40
2.344469249999999
100
AcDbArc
 50
17.30874897999644
 51
90.0
  0
ARC
  5
113E
330
10C4
100
AcDbEntity
  8
0
 62
     3
100
AcDbCircle
 10
222.0053465693045
 20
283.7752660680494
 30
0.0
 40
4.43675086
100
AcDbArc
 50
342.6912510200036
 51
17.30856643999929
  0
ARC
  5
113F
330
10C4
100
AcDbEntity
  8
0
 62
     3
100
AcDbCircle
 10
224.0028799993043
 20
283.1527690580495
 30
0.0
 40
2.344469249999999
100
AcDbArc
 50
270.0
 51
342.6912510200036
  0
ARC
  5
1140
330
10C4
100
AcDbEntity
  8
0
 62
     3
100
AcDbCircle
 10
209.5401080293043
 20
283.7752660680494
 30
0.0
 40
2.966966259999999
100
AcDbArc
 50
46.75287960999425
 51
89.74999828999569
  0
ARC
  5
1141
330
10C4
100
AcDbEntity
  8
0
 62
     3
100
AcDbCircle
 10
209.5401080293043
 20
283.7752660680494
 30
0.0
 40
2.966966259999999
100
AcDbArc
 50
273.976333149997
 51
312.8231203899988
  0
ARC
  5
1142
330
10C4
100
AcDbEntity
  8
0
 62
     3
100
AcDbCircle
 10
225.8855479593044
 20
283.7294638880495
 30
0.0
 40
3.936984289999999
100
AcDbArc
 50
0.6665840599997753
 51
23.90392827000138
  0
ARC
  5
1143
330
10C4
100
AcDbEntity
  8
0
 62
     3
100
AcDbCircle
 10
231.4792083493044
 20
283.7294638880495
 30
0.0
 40
3.936984289999999
100
AcDbArc
 50
156.0960717299986
 51
179.3334159400002
  0
ARC
  5
1144
330
10C4
100
AcDbEntity
  8
0
 62
     3
100
AcDbCircle
 10
225.8855479593044
 20
283.8210682480494
 30
0.0
 40
3.936984289999999
100
AcDbArc
 50
336.0960717299986
 51
359.3334159400003
  0
ARC
  5
1145
330
10C4
100
AcDbEntity
  8
0
 62
     3
100
AcDbCircle
 10
231.4792083493044
 20
283.8210682480494
 30
0.0
 40
3.936984289999999
100
AcDbArc
 50
180.6665840599997
 51
203.9039282700014
  0
LINE
  5
1146
330
10C4
100
AcDbEntity
  8
0
 62
     3
100
AcDbLine
 10
238.6567247493044
 20
283.9999999780495
 30
0.0
 11
409.9999995693042
 21
283.9999999780495
 31
0.0
  0
LINE
  5
1147
330
10C4
100
AcDbEntity
  8
0
 62
     3
100
AcDbLine
 10
190.1026900793045
 20
283.9999999780495
 30
0.0
 11
19.99999956930423
 21
283.9999999780495
 31
0.0
  0
LINE
  5
1148
330
10C4
100
AcDbEntity
  8
0
 62
     3
100
AcDbLine
 10
7.598075779304281
 20
150.4446389280494
 30
0.0
 11
4.999999569304236
 21
148.9446389280494
 31
0.0
  0
LINE
  5
1149
330
10C4
100
AcDbEntity
  8
0
 62
     3
100
AcDbLine
 10
7.598075779304281
 20
150.4446389280494
 30
0.0
 11
4.999999569304236
 21
151.9446389280494
 31
0.0
  0
LINE
  5
114A
330
10C4
100
AcDbEntity
  8
0
 62
     3
100
AcDbLine
 10
4.999999569304236
 20
148.9446389280494
 30
0.0
 11
4.999999569304236
 21
151.9446389280494
 31
0.0
  0
LINE
  5
114B
330
10C4
100
AcDbEntity
  8
0
 62
   254
370
     0
100
AcDbLine
 10
-0.0000004306955361
 20
-0.0000000219505125
 30
0.0
 11
-0.0000004306955361
 21
291.9999999780495
 31
0.0
  0
LINE
  5
114C
330
10C4
100
AcDbEntity
  8
0
 62
   254
370
     0
100
AcDbLine
 10
-0.0000004306955361
 20
291.9999999780495
 30
0.0
 11
419.9999995693044
 21
291.9999999780495
 31
0.0
  0
LINE
  5
114D
330
10C4
100
AcDbEntity
  8
0
 62
     3
100
AcDbLine
 10
357.9999995693045
 20
9.999999978049487
 30
0.0
 11
357.9999995693045
 21
49.99999997804948
 31
0.0
  0
LINE
  5
114E
330
10C4
100
AcDbEntity
  8
0
 62
     3
100
AcDbLine
 10
370.9999995693045
 20
19.99999997804948
 30
0.0
 11
370.9999995693045
 21
47.99999997804948
 31
0.0
  0
LINE
  5
114F
330
10C4
100
AcDbEntity
  8
0
 62
     3
100
AcDbLine
 10
330.9999995693045
 20
19.99999997804948
 30
0.0
 11
330.9999995693045
 21
33.99999997804949
 31
0.0
  0
LINE
  5
1150
330
10C4
100
AcDbEntity
  8
0
 62
     3
100
AcDbLine
 10
340.9999995693045
 20
33.99999997804949
 30
0.0
 11
340.9999995693045
 21
9.999999978049487
 31
0.0
  0
LINE
  5
1151
330
10C4
100
AcDbEntity
  8
0
 62
     3
100
AcDbLine
 10
311.9999995693045
 20
49.99999997804948
 30
0.0
 11
311.9999995693045
 21
26.99999997804949
 31
0.0
  0
LINE
  5
1152
330
10C4
100
AcDbEntity
  8
0
 62
     3
100
AcDbLine
 10
370.9999995693045
 20
47.99999997804948
 30
0.0
 11
370.9999995693045
 21
49.99999997804948
 31
0.0
  0
LINE
  5
1153
330
10C4
100
AcDbEntity
  8
0
 62
     3
100
AcDbLine
 10
383.9999995693045
 20
26.99999997804949
 30
0.0
 11
383.9999995693045
 21
49.99999997804948
 31
0.0
  0
LINE
  5
1154
330
10C4
100
AcDbEntity
  8
0
 62
     3
100
AcDbLine
 10
409.9999995693044
 20
49.99999997804948
 30
0.0
 11
298.7545649293045
 21
49.9999999780495
 31
0.0
  0
LINE
  5
1155
330
10C4
100
AcDbEntity
  8
0
 62
     3
100
AcDbLine
 10
409.9999995693044
 20
40.99999997804949
 30
0.0
 11
298.7545649293045
 21
40.99999997804949
 31
0.0
  0
LINE
  5
1156
330
10C4
100
AcDbEntity
  8
0
 62
     3
100
AcDbLine
 10
409.9999995693044
 20
26.99999997804949
 30
0.0
 11
298.7545649293045
 21
26.99999997804949
 31
0.0
  0
LINE
  5
1157
330
10C4
100
AcDbEntity
  8
0
 62
     3
100
AcDbLine
 10
409.9999995693044
 20
19.99999997804948
 30
0.0
 11
298.6965570693044
 21
19.99999997804948
 31
0.0
  0
LINE
  5
1158
330
10C4
100
AcDbEntity
  8
0
 62
     3
100
AcDbLine
 10
396.9999995693044
 20
26.99999997804949
 30
0.0
 11
396.9999995693044
 21
49.99999997804948
 31
0.0
  0
LINE
  5
1159
330
10C4
100
AcDbEntity
  8
0
 62
     3
100
AcDbLine
 10
298.7545649293045
 20
49.9999999780495
 30
0.0
 11
298.7545649293045
 21
9.999999978049487
 31
0.0
  0
LINE
  5
115A
330
10C4
100
AcDbEntity
  8
0
 62
     3
100
AcDbLine
 10
357.9999995693045
 20
33.99999997804949
 30
0.0
 11
298.7545649293045
 21
33.99999997804947
 31
0.0
  0
LINE
  5
115B
330
10C4
100
AcDbEntity
  8
0
 62
     3
100
AcDbLine
 10
341.2783244993043
 20
14.83286123804947
 30
0.0
 11
357.9999995693045
 21
14.83286123804947
 31
0.0
  0
TEXT
  5
115C
330
10C4
100
AcDbEntity
  8
0
 62
     3
100
AcDbText
 10
342.1643249826202
 20
29.07309683141483
 30
0.0
 40
2.5
  1
******
  7
高2.5
100
AcDbText
  0
TEXT
  5
115D
330
10C4
100
AcDbEntity
  8
0
 62
     3
100
AcDbText
 10
313.1963682645567
 20
29.2978143830334
 30
0.0
 40
2.5
  1
*****
  7
高2.5
100
AcDbText
  0
TEXT
  5
115E
330
10C4
100
AcDbEntity
  8
0
 62
     3
100
AcDbText
 10
313.461276019254
 20
42.31224950180737
 30
0.0
 40
4.5
  1
**********
  7
高4.5
100
AcDbText
1001
ACAD
1000
ACAD_MTEXT_DEFINED_HEIGHT_BEGIN
1070
    46
1040
0.0
1000
ACAD_MTEXT_DEFINED_HEIGHT_END
  0
TEXT
  5
115F
330
10C4
100
AcDbEntity
  8
0
 62
     3
100
AcDbText
 10
400.0655886627785
 20
46.51369207675307
 30
0.0
 40
2.0
  1
DEF
  7
高2
100
AcDbText
  0
TEXT
  5
1160
330
10C4
100
AcDbEntity
  8
0
 62
     3
100
AcDbText
 10
386.1264903090703
 20
46.51369207675299
 30
0.0
 40
2.0
  1
DESN
  7
高2
100
AcDbText
  0
TEXT
  5
1161
330
10C4
100
AcDbEntity
  8
0
 62
     3
100
AcDbText
 10
359.8721233690701
 20
46.51369207675307
 30
0.0
 40
2.0
  1
APPD
  7
高2
100
AcDbText
  0
TEXT
  5
1162
330
10C4
100
AcDbEntity
  8
0
 62
     3
100
AcDbText
 10
372.9848594693044
 20
46.5136920767531
 30
0.0
 40
2.0
  1
CHCK
  7
高2
100
AcDbText
  0
TEXT
  5
1163
330
10C4
100
AcDbEntity
  8
0
 62
     3
100
AcDbText
 10
331.9271652084572
 20
24.16839880128021
 30
0.0
 40
2.0
  1
SCALE
 41
0.8
  7
高2
100
AcDbText
  0
TEXT
  5
1164
330
10C4
100
AcDbEntity
  8
0
 62
     3
100
AcDbText
 10
300.4391436323506
 20
24.16839880128022
 30
0.0
 40
2.0
  1
3AD　ANGLE
 41
1.5
  7
高2
100
AcDbText
  0
TEXT
  5
1165
330
10C4
100
AcDbEntity
  8
0
 62
     3
100
AcDbText
 10
331.1965708993059
 20
30.91993687023731
 30
0.0
 40
2.0
  1
REMARKS
 41
0.7
  7
高2
100
AcDbText
  0
TEXT
  5
1166
330
10C4
100
AcDbEntity
  8
0
 62
     3
100
AcDbText
 10
300.2222352793044
 20
30.99999997804949
 30
0.0
 40
2.0
  1
MATERIAL
 41
0.7
  7
高2
100
AcDbText
  0
TEXT
  5
1167
330
10C4
100
AcDbEntity
  8
0
 62
     3
100
AcDbText
 10
300.7987224820586
 20
37.99999997804948
 30
0.0
 40
2.0
  1
MODEL
  7
高2
100
AcDbText
  0
TEXT
  5
1168
330
10C4
100
AcDbEntity
  8
0
 62
     3
100
AcDbText
 10
300.4356433633898
 20
46.70702132864849
 30
0.0
 40
2.0
  1
CONPONENTS
 41
0.5
  7
高2
100
AcDbText
  0
TEXT
  5
1169
330
10C4
100
AcDbEntity
  8
0
 62
     3
100
AcDbText
 10
313.1427588345566
 20
35.08748110586143
 30
0.0
 40
4.5
  1
********
  7
高4.5
100
AcDbText
  0
TEXT
  5
116A
330
10C4
100
AcDbEntity
  8
0
 62
     3
100
AcDbText
 10
361.065045299923
 20
12.03846137341507
 30
0.0
 40
6.299999999999999
  1
*-********
 41
0.6
  7
高6.3
100
AcDbText
1001
ACAD
1000
ACAD_MTEXT_DEFINED_HEIGHT_BEGIN
1070
    46
1040
0.0
1000
ACAD_MTEXT_DEFINED_HEIGHT_END
  0
TEXT
  5
116B
330
10C4
100
AcDbEntity
  8
0
 62
     3
100
AcDbText
 10
374.563509319634
 20
21.10088913628249
 30
0.0
 40
3.2
  1
******
  7
高3.2
100
AcDbText
1001
ACAD
1000
ACAD_MTEXT_DEFINED_HEIGHT_BEGIN
1070
    46
1040
0.0
1000
ACAD_MTEXT_DEFINED_HEIGHT_END
  0
TEXT
  5
116C
330
10C4
100
AcDbEntity
  8
0
 62
     3
100
AcDbText
 10
344.7875974639508
 20
21.10091698061736
 30
0.0
 40
3.2
  1
1/1
  7
高3.2
100
AcDbText
  0
TEXT
  5
116D
330
10C4
100
AcDbEntity
  8
0
 62
     3
100
AcDbText
 10
341.8649264393043
 20
10.81687815118545
 30
0.0
 40
3.2
  1
ZK-A3X
 41
0.8
  7
高3.2
100
AcDbText
  0
TEXT
  5
116E
330
10C4
100
AcDbEntity
  8
0
 62
     3
100
AcDbText
 10
299.5852659693044
 20
16.52462040023731
 30
0.0
 40
2.0
  1
NICHIDO IND.CO.LTD
 41
1.3
  7
高2
100
AcDbText
  0
TEXT
  5
116F
330
10C4
100
AcDbEntity
  8
0
 62
     3
100
AcDbText
 10
300.7667892342615
 20
42.14052818593441
 30
0.0
 40
3.2
  1
品 名
  7
高3.2
100
AcDbText
1001
ACAD
1000
ACAD_MTEXT_DEFINED_HEIGHT_BEGIN
1070
    46
1040
0.0
1000
ACAD_MTEXT_DEFINED_HEIGHT_END
  0
TEXT
  5
1170
330
10C4
100
AcDbEntity
  8
0
 62
     3
100
AcDbText
 10
300.7667892342615
 20
34.49999997804948
 30
0.0
 40
3.2
  1
型 式
  7
高3.2
100
AcDbText
1001
ACAD
1000
ACAD_MTEXT_DEFINED_HEIGHT_BEGIN
1070
    46
1040
3.064735913775955
1000
ACAD_MTEXT_DEFINED_HEIGHT_END
  0
TEXT
  5
1171
330
10C4
100
AcDbEntity
  8
0
 62
     3
100
AcDbText
 10
300.7667892342615
 20
27.49999997804949
 30
0.0
 40
3.2
  1
材 質
  7
高3.2
100
AcDbText
1001
ACAD
1000
ACAD_MTEXT_DEFINED_HEIGHT_BEGIN
1070
    46
1040
0.0
1000
ACAD_MTEXT_DEFINED_HEIGHT_END
  0
TEXT
  5
1172
330
10C4
100
AcDbEntity
  8
0
 62
     3
100
AcDbText
 10
300.4617542842616
 20
20.46743997029573
 30
0.0
 40
3.2
  1
第 三 角 法
  7
高3.2
100
AcDbText
1001
ACAD
1000
ACAD_MTEXT_DEFINED_HEIGHT_BEGIN
1070
    46
1040
0.0
1000
ACAD_MTEXT_DEFINED_HEIGHT_END
  0
TEXT
  5
1173
330
10C4
100
AcDbEntity
  8
0
 62
     3
100
AcDbText
 10
298.8682868917904
 20
11.14052818593441
 30
0.0
 40
3.2
  1
日動工業株式会社
 41
1.199999999999999
  7
高3.2
100
AcDbText
1001
ACAD
1000
ACAD_MTEXT_DEFINED_HEIGHT_BEGIN
1070
    46
1040
0.0
1000
ACAD_MTEXT_DEFINED_HEIGHT_END
  0
TEXT
  5
1174
330
10C4
100
AcDbEntity
  8
0
 62
     3
100
AcDbText
 10
332.5039110912689
 20
27.38457851121705
 30
0.0
 40
3.2
  1
備考
  7
高3.2
100
AcDbText
1001
ACAD
1000
ACAD_MTEXT_DEFINED_HEIGHT_BEGIN
1070
    46
1040
0.0
1000
ACAD_MTEXT_DEFINED_HEIGHT_END
  0
TEXT
  5
1175
330
10C4
100
AcDbEntity
  8
0
 62
     3
100
AcDbText
 10
342.1529685383043
 20
16.14623000361978
 30
0.0
 40
2.5
  1
出図コード
  7
高2.5
100
AcDbText
1001
ACAD
1000
ACAD_MTEXT_DEFINED_HEIGHT_BEGIN
1070
    46
1040
0.0
1000
ACAD_MTEXT_DEFINED_HEIGHT_END
  0
TEXT
  5
1176
330
10C4
100
AcDbEntity
  8
0
 62
     3
100
AcDbText
 10
332.3451449731815
 20
20.45323488846241
 30
0.0
 40
3.2
  1
尺度
  7
高3.2
100
AcDbText
1001
ACAD
1000
ACAD_MTEXT_DEFINED_HEIGHT_BEGIN
1070
    46
1040
0.0
1000
ACAD_MTEXT_DEFINED_HEIGHT_END
  0
TEXT
  5
1177
330
10C4
100
AcDbEntity
  8
0
 62
     3
100
AcDbText
 10
359.4914064549603
 20
21.5847133365799
 30
0.0
 40
3.2
  1
作成日
  7
高3.2
100
AcDbText
1001
ACAD
1000
ACAD_MTEXT_DEFINED_HEIGHT_BEGIN
1070
    46
1040
0.0
1000
ACAD_MTEXT_DEFINED_HEIGHT_END
  0
TEXT
  5
1178
330
10C4
100
AcDbEntity
  8
0
 62
     3
100
AcDbText
 10
359.3858804618242
 20
42.14052818593441
 30
0.0
 40
3.2
  1
承 認
  7
高3.2
100
AcDbText
1001
ACAD
1000
ACAD_MTEXT_DEFINED_HEIGHT_BEGIN
1070
    46
1040
0.0
1000
ACAD_MTEXT_DEFINED_HEIGHT_END
  0
TEXT
  5
1179
330
10C4
100
AcDbEntity
  8
0
 62
     3
100
AcDbText
 10
372.3858804618242
 20
42.14052818593441
 30
0.0
 40
3.2
  1
検 図
  7
高3.2
100
AcDbText
1001
ACAD
1000
ACAD_MTEXT_DEFINED_HEIGHT_BEGIN
1070
    46
1040
0.0
1000
ACAD_MTEXT_DEFINED_HEIGHT_END
  0
TEXT
  5
117A
330
10C4
100
AcDbEntity
  8
0
 62
     3
100
AcDbText
 10
385.3858804618242
 20
42.14052818593441
 30
0.0
 40
3.2
  1
設 計
  7
高3.2
100
AcDbText
1001
ACAD
1000
ACAD_MTEXT_DEFINED_HEIGHT_BEGIN
1070
    46
1040
0.0
1000
ACAD_MTEXT_DEFINED_HEIGHT_END
  0
TEXT
  5
117B
330
10C4
100
AcDbEntity
  8
0
 62
     3
100
AcDbText
 10
398.6865169818241
 20
42.14052818593441
 30
0.0
 40
3.2
  1
製 図
  7
高3.2
100
AcDbText
1001
ACAD
1000
ACAD_MTEXT_DEFINED_HEIGHT_BEGIN
1070
    46
1040
0.0
1000
ACAD_MTEXT_DEFINED_HEIGHT_END
  0
TEXT
  5
117C
330
10C4
100
AcDbEntity
  8
0
 62
     3
100
AcDbText
 10
397.4999995693043
 20
274.4999999780495
 30
0.0
 40
3.2
  1
担　当
  7
高3.2
100
AcDbText
  0
TEXT
  5
117D
330
10C4
100
AcDbEntity
  8
0
 62
     3
100
AcDbText
 10
353.4999995693042
 20
274.4999999780495
 30
0.0
 40
3.2
  1
変更・追記内容
  7
高3.2
100
AcDbText
  0
TEXT
  5
117E
330
10C4
100
AcDbEntity
  8
0
 62
     3
100
AcDbText
 10
328.6135145696435
 20
269.8294614681412
 30
0.0
 40
2.0
  1
1
  7
高2
100
AcDbText
  0
TEXT
  5
117F
330
10C4
100
AcDbEntity
  8
0
 62
     3
100
AcDbText
 10
328.3050030928862
 20
264.6596447558683
 30
0.0
 40
2.0
  1
2
  7
高2
100
AcDbText
  0
TEXT
  5
1180
330
10C4
100
AcDbEntity
  8
0
 62
     3
100
AcDbText
 10
335.4999995693042
 20
274.4999999780495
 30
0.0
 40
3.2
  1
日　付
  7
高3.2
100
AcDbText
  0
TEXT
  5
1181
330
10C4
100
AcDbEntity
  8
0
 62
     3
100
AcDbText
 10
335.4999995693042
 20
279.4999999780495
 30
0.0
 40
3.2
  1
図　　　　面　　　　略　　　　歴
  7
高3.2
100
AcDbText
  0
TEXT
  5
1182
330
10C4
100
AcDbEntity
  8
0
 62
     3
100
AcDbText
 10
325.4999995693042
 20
274.4999999780495
 30
0.0
 40
3.2
  1
記号
  7
高3.2
100
AcDbText
  0
LINE
  5
1183
330
10C4
100
AcDbEntity
  8
0
 62
     7
100
AcDbLine
 10
328.9999995693043
 20
267.7908959780495
 30
0.0
 11
327.0999995693044
 21
264.4999999780495
 31
0.0
  0
LINE
  5
1184
330
10C4
100
AcDbEntity
  8
0
 62
     7
100
AcDbLine
 10
328.9999995693043
 20
267.7908959780495
 30
0.0
 11
330.8999995693043
 21
264.4999999780495
 31
0.0
  0
LINE
  5
1185
330
10C4
100
AcDbEntity
  8
0
 62
     7
100
AcDbLine
 10
327.0999995693044
 20
264.4999999780495
 30
0.0
 11
330.8999995693043
 21
264.4999999780495
 31
0.0
  0
LINE
  5
1186
330
10C4
100
AcDbEntity
  8
0
 62
     7
100
AcDbLine
 10
328.9999995693043
 20
272.7908969780496
 30
0.0
 11
327.0999995693044
 21
269.4999999780494
 31
0.0
  0
LINE
  5
1187
330
10C4
100
AcDbEntity
  8
0
 62
     7
100
AcDbLine
 10
328.9999995693043
 20
272.7908969780496
 30
0.0
 11
330.8999995693043
 21
269.4999999780494
 31
0.0
  0
LINE
  5
1188
330
10C4
100
AcDbEntity
  8
0
 62
     7
100
AcDbLine
 10
327.0999995693044
 20
269.4999999780494
 30
0.0
 11
330.8999995693043
 21
269.4999999780494
 31
0.0
  0
LINE
  5
1189
330
10C4
100
AcDbEntity
  8
0
 62
     3
100
AcDbLine
 10
323.9999995693042
 20
278.9999999780495
 30
0.0
 11
409.9999995693042
 21
278.9999999780495
 31
0.0
  0
LINE
  5
118A
330
10C4
100
AcDbEntity
  8
0
 62
     3
100
AcDbLine
 10
323.9999995693042
 20
273.9999999780494
 30
0.0
 11
409.9999995693042
 21
273.9999999780494
 31
0.0
  0
LINE
  5
118B
330
10C4
100
AcDbEntity
  8
0
 62
     7
100
AcDbLine
 10
323.9999995693042
 20
268.9999999780495
 30
0.0
 11
409.9999995693042
 21
268.9999999780495
 31
0.0
  0
LINE
  5
118C
330
10C4
100
AcDbEntity
  8
0
 62
     3
100
AcDbLine
 10
323.9999995693042
 20
263.9999999780495
 30
0.0
 11
409.9999995693042
 21
263.9999999780495
 31
0.0
  0
LINE
  5
118D
330
10C4
100
AcDbEntity
  8
0
 62
     7
100
AcDbLine
 10
395.9999995693042
 20
263.9999999780495
 30
0.0
 11
395.9999995693042
 21
278.9999999780495
 31
0.0
  0
LINE
  5
118E
330
10C4
100
AcDbEntity
  8
0
 62
     7
100
AcDbLine
 10
351.9999995693043
 20
263.9999999780495
 30
0.0
 11
351.9999995693043
 21
278.9999999780495
 31
0.0
  0
LINE
  5
118F
330
10C4
100
AcDbEntity
  8
0
 62
     7
100
AcDbLine
 10
333.9999995693042
 20
263.9999999780495
 30
0.0
 11
333.9999995693042
 21
278.9999999780495
 31
0.0
  0
LINE
  5
1190
330
10C4
100
AcDbEntity
  8
0
 62
     3
100
AcDbLine
 10
323.9999995693042
 20
263.9999999780495
 30
0.0
 11
323.9999995693042
 21
283.9999999780495
 31
0.0
  0
ENDBLK
  5
1194
330
10C4
100
AcDbEntity
  8
0
100
AcDbBlockEnd
  0
BLOCK
  5
11AF
330
11AC
100
AcDbEntity
  8
0
100
AcDbBlockBegin
  2
A$C369B3533
 70
     0
 10
0.0
 20
0.0
 30
0.0
  3
A$C369B3533
  1

  0
LINE
  5
11B0
330
11AC
100
AcDbEntity
  8
0
 62
     3
100
AcDbLine
 10
8.487927449920789
 20
138.4999996444132
 30
0.0
 11
8.000000619920911
 21
138.4999996444132
 31
0.0
  0
LINE
  5
11B1
330
11AC
100
AcDbEntity
  8
0
 62
     3
100
AcDbLine
 10
20.00000061992091
 20
276.9999996444133
 30
0.0
 11
20.00000061992091
 21
-0.0000003555867352
 31
0.0
  0
LINE
  5
11B2
330
11AC
100
AcDbEntity
  8
0
 62
   254
100
AcDbLine
 10
0.000000619920911
 20
286.9999996444132
 30
0.0
 11
0.000000619920911
 21
-0.0000003555867352
 31
0.0
  0
LINE
  5
11B3
330
11AC
100
AcDbEntity
  8
0
 62
     3
100
AcDbLine
 10
200.0000006199209
 20
-0.0000003555867352
 30
0.0
 11
200.0000006199209
 21
276.9999996444133
 31
0.0
  0
LINE
  5
11B4
330
11AC
100
AcDbEntity
  8
0
 62
     3
100
AcDbLine
 10
20.00000061992091
 20
-0.0000003555867352
 30
0.0
 11
200.0000006199209
 21
-0.0000003555867352
 31
0.0
  0
LINE
  5
11B5
330
11AC
100
AcDbEntity
  8
0
 62
     3
100
AcDbLine
 10
57.08435263992078
 20
278.7874437444133
 30
0.0
 11
57.52010054992092
 21
278.5599756044133
 31
0.0
  0
LINE
  5
11B6
330
11AC
100
AcDbEntity
  8
0
 62
     3
100
AcDbLine
 10
57.08435263992078
 20
275.0568132644133
 30
0.0
 11
57.52010054992092
 21
275.2842814044133
 31
0.0
  0
LINE
  5
11B7
330
11AC
100
AcDbEntity
  8
0
 62
     3
100
AcDbLine
 10
57.52010054992092
 20
278.5599756044133
 30
0.0
 11
57.52010054992092
 21
275.2842814044133
 31
0.0
  0
LINE
  5
11B8
330
11AC
100
AcDbEntity
  8
0
 62
     3
100
AcDbLine
 10
58.62361796992082
 20
275.0568132644133
 30
0.0
 11
58.18787005992067
 21
275.2842814044133
 31
0.0
  0
LINE
  5
11B9
330
11AC
100
AcDbEntity
  8
0
 62
     3
100
AcDbLine
 10
58.18787005992067
 20
277.2811402144133
 30
0.0
 11
58.18787005992067
 21
275.2842814044133
 31
0.0
  0
LINE
  5
11BA
330
11AC
100
AcDbEntity
  8
0
 62
     3
100
AcDbLine
 10
61.16548074992079
 20
278.7874437444133
 30
0.0
 11
60.72973283992087
 21
278.5599756044133
 31
0.0
  0
LINE
  5
11BB
330
11AC
100
AcDbEntity
  8
0
 62
     3
100
AcDbLine
 10
59.62621541992075
 20
278.7874437444133
 30
0.0
 11
60.06196332992089
 21
278.5599756044133
 31
0.0
  0
LINE
  5
11BC
330
11AC
100
AcDbEntity
  8
0
 62
     3
100
AcDbLine
 10
60.06196332992089
 20
278.5599756044133
 30
0.0
 11
60.06196332992089
 21
277.1176385444132
 31
0.0
  0
LINE
  5
11BD
330
11AC
100
AcDbEntity
  8
0
 62
     3
100
AcDbLine
 10
60.72973283992087
 20
278.5599756044133
 30
0.0
 11
60.72973283992087
 21
274.8452521244133
 31
0.0
  0
LINE
  5
11BE
330
11AC
100
AcDbEntity
  8
0
 62
     3
100
AcDbLine
 10
61.38077794992091
 20
278.7874411144132
 30
0.0
 11
61.81652428992084
 21
278.5599699744133
 31
0.0
  0
LINE
  5
11BF
330
11AC
100
AcDbEntity
  8
0
 62
     3
100
AcDbLine
 10
61.38069997992079
 20
275.0568632444133
 30
0.0
 11
61.81645582992087
 21
275.2843161644133
 31
0.0
  0
LINE
  5
11C0
330
11AC
100
AcDbEntity
  8
0
 62
     3
100
AcDbLine
 10
61.81652428992084
 20
278.5599699744133
 30
0.0
 11
61.81652428992084
 21
275.2843161644133
 31
0.0
  0
LINE
  5
11C1
330
11AC
100
AcDbEntity
  8
0
 62
     3
100
AcDbLine
 10
63.31031434992087
 20
278.7874174444132
 30
0.0
 11
62.87456325992093
 21
278.5599554144133
 31
0.0
  0
LINE
  5
11C2
330
11AC
100
AcDbEntity
  8
0
 62
     3
100
AcDbLine
 10
62.87456325992093
 20
278.5599554144133
 30
0.0
 11
62.87456325992093
 21
275.2843015944133
 31
0.0
  0
LINE
  5
11C3
330
11AC
100
AcDbEntity
  8
0
 62
     3
100
AcDbLine
 10
63.31031434992087
 20
275.0568395644133
 30
0.0
 11
62.87456325992093
 21
275.2843015944133
 31
0.0
  0
LINE
  5
11C4
330
11AC
100
AcDbEntity
  8
0
 62
     3
100
AcDbLine
 10
67.00056778992075
 20
278.7873764444133
 30
0.0
 11
67.43631490992084
 21
278.5599068044132
 31
0.0
  0
LINE
  5
11C5
330
11AC
100
AcDbEntity
  8
0
 62
     3
100
AcDbLine
 10
67.43631490992084
 20
278.5599068044132
 30
0.0
 11
67.43625773992085
 21
275.2842529944132
 31
0.0
  0
LINE
  5
11C6
330
11AC
100
AcDbEntity
  8
0
 62
     3
100
AcDbLine
 10
67.00050267992082
 20
275.0567985644133
 30
0.0
 11
67.43625773992085
 21
275.2842529944132
 31
0.0
  0
LINE
  5
11C7
330
11AC
100
AcDbEntity
  8
0
 62
     3
100
AcDbLine
 10
68.95282874992085
 20
278.7873764444133
 30
0.0
 11
68.51708162992077
 21
278.5599068044132
 31
0.0
  0
LINE
  5
11C8
330
11AC
100
AcDbEntity
  8
0
 62
     3
100
AcDbLine
 10
68.95289385992078
 20
275.0567985644133
 30
0.0
 11
68.51713879992075
 21
275.2842529944132
 31
0.0
  0
LINE
  5
11C9
330
11AC
100
AcDbEntity
  8
0
 62
     3
100
AcDbLine
 10
69.15655660992093
 20
278.7873764444133
 30
0.0
 11
69.59230373992091
 21
278.5599068044132
 31
0.0
  0
LINE
  5
11CA
330
11AC
100
AcDbEntity
  8
0
 62
     3
100
AcDbLine
 10
69.15649149992077
 20
275.0567985644133
 30
0.0
 11
69.5922465599208
 21
275.2842529944132
 31
0.0
  0
LINE
  5
11CB
330
11AC
100
AcDbEntity
  8
0
 62
     3
100
AcDbLine
 10
71.1088175799207
 20
278.7873764444133
 30
0.0
 11
70.67307045992084
 21
278.5599068044132
 31
0.0
  0
LINE
  5
11CC
330
11AC
100
AcDbEntity
  8
0
 62
     3
100
AcDbLine
 10
70.67307045992084
 20
278.5599068044132
 30
0.0
 11
70.67312762992083
 21
275.2842529944132
 31
0.0
  0
LINE
  5
11CD
330
11AC
100
AcDbEntity
  8
0
 62
     3
100
AcDbLine
 10
71.10888268992084
 20
275.0567985644133
 30
0.0
 11
70.67312762992083
 21
275.2842529944132
 31
0.0
  0
LINE
  5
11CE
330
11AC
100
AcDbEntity
  8
0
 62
     3
100
AcDbLine
 10
69.59227882992081
 20
277.1327736844132
 30
0.0
 11
68.51710653992086
 21
277.1327736844132
 31
0.0
  0
LINE
  5
11CF
330
11AC
100
AcDbEntity
  8
0
 62
     3
100
AcDbLine
 10
69.59227146992066
 20
276.7114833244133
 30
0.0
 11
68.51711388992066
 21
276.7114833244133
 31
0.0
  0
LINE
  5
11D0
330
11AC
100
AcDbEntity
  8
0
 62
     3
100
AcDbLine
 10
69.59230373992091
 20
278.5599068044132
 30
0.0
 11
69.59227882992081
 21
277.1327736844132
 31
0.0
  0
LINE
  5
11D1
330
11AC
100
AcDbEntity
  8
0
 62
     3
100
AcDbLine
 10
69.59227146992066
 20
276.7114833244133
 30
0.0
 11
69.5922465599208
 21
275.2842529944132
 31
0.0
  0
LINE
  5
11D2
330
11AC
100
AcDbEntity
  8
0
 62
     3
100
AcDbLine
 10
68.51708162992077
 20
278.5599068044132
 30
0.0
 11
68.51710653992086
 21
277.1327736844132
 31
0.0
  0
LINE
  5
11D3
330
11AC
100
AcDbEntity
  8
0
 62
     3
100
AcDbLine
 10
68.51711388992066
 20
276.7114833244133
 30
0.0
 11
68.51713879992075
 21
275.2842529944132
 31
0.0
  0
LINE
  5
11D4
330
11AC
100
AcDbEntity
  8
0
 62
     3
100
AcDbLine
 10
71.31577669992089
 20
278.7873764444133
 30
0.0
 11
71.75152381992075
 21
278.5599068044132
 31
0.0
  0
LINE
  5
11D5
330
11AC
100
AcDbEntity
  8
0
 62
     3
100
AcDbLine
 10
71.75152381992075
 20
278.5599068044132
 30
0.0
 11
71.75146664992076
 21
275.2842529944132
 31
0.0
  0
LINE
  5
11D6
330
11AC
100
AcDbEntity
  8
0
 62
     3
100
AcDbLine
 10
71.31571158992073
 20
275.0567985644133
 30
0.0
 11
71.75146664992076
 21
275.2842529944132
 31
0.0
  0
LINE
  5
11D7
330
11AC
100
AcDbEntity
  8
0
 62
     3
100
AcDbLine
 10
73.2452869699207
 20
278.7873764444133
 30
0.0
 11
72.80953984992084
 21
278.5599068044132
 31
0.0
  0
LINE
  5
11D8
330
11AC
100
AcDbEntity
  8
0
 62
     3
100
AcDbLine
 10
72.80953984992084
 20
278.5599068044132
 30
0.0
 11
72.80959701992083
 21
275.2842529944132
 31
0.0
  0
LINE
  5
11D9
330
11AC
100
AcDbEntity
  8
0
 62
     3
100
AcDbLine
 10
73.24535207992084
 20
275.0567985644133
 30
0.0
 11
72.80959701992083
 21
275.2842529944132
 31
0.0
  0
LINE
  5
11DA
330
11AC
100
AcDbEntity
  8
0
 62
     3
100
AcDbLine
 10
73.45964653992087
 20
278.7873764444133
 30
0.0
 11
73.89539365992073
 21
278.5599068044132
 31
0.0
  0
LINE
  5
11DB
330
11AC
100
AcDbEntity
  8
0
 62
     3
100
AcDbLine
 10
73.89539365992073
 20
278.5599068044132
 30
0.0
 11
73.89533648992074
 21
275.2842529944132
 31
0.0
  0
LINE
  5
11DC
330
11AC
100
AcDbEntity
  8
0
 62
     3
100
AcDbLine
 10
73.45958142992071
 20
275.0567985644133
 30
0.0
 11
73.89533648992074
 21
275.2842529944132
 31
0.0
  0
ARC
  5
11DD
330
11AC
100
AcDbEntity
  8
0
 62
     3
100
AcDbCircle
 10
65.60865651992094
 20
276.9315182644133
 30
0.0
 40
2.086285909999999
100
AcDbArc
 50
97.70152350999723
 51
270.0
  0
ARC
  5
11DE
330
11AC
100
AcDbEntity
  8
0
 62
     3
100
AcDbCircle
 10
78.48925735992065
 20
276.9105616344133
 30
0.0
 40
2.108943379999999
100
AcDbArc
 50
0.314250269999259
 51
69.00558244998928
  0
ARC
  5
11DF
330
11AC
100
AcDbEntity
  8
0
 62
     3
100
AcDbCircle
 10
78.94993267992072
 20
276.9105616344133
 30
0.0
 40
2.108943379999999
100
AcDbArc
 50
110.9944175499969
 51
148.1166110200049
  0
ARC
  5
11E0
330
11AC
100
AcDbEntity
  8
0
 62
     3
100
AcDbCircle
 10
78.48925735992065
 20
276.9336953744133
 30
0.0
 40
2.108943379999999
100
AcDbArc
 50
290.9944175499969
 51
359.6857497300005
  0
ARC
  5
11E1
330
11AC
100
AcDbEntity
  8
0
 62
     3
100
AcDbCircle
 10
78.94993267992072
 20
276.9336953744133
 30
0.0
 40
2.108943379999999
100
AcDbArc
 50
211.8833889799949
 51
249.0055824499893
  0
ARC
  5
11E2
330
11AC
100
AcDbEntity
  8
0
 62
     3
100
AcDbCircle
 10
78.71959501992091
 20
277.7849338944132
 30
0.0
 40
1.214070989999999
100
AcDbArc
 50
64.36517189999968
 51
115.6348281000003
  0
ARC
  5
11E3
330
11AC
100
AcDbEntity
  8
0
 62
     3
100
AcDbCircle
 10
78.71959501992091
 20
276.0593231144132
 30
0.0
 40
1.214070989999999
100
AcDbArc
 50
244.3651718999997
 51
295.6348281000003
  0
ARC
  5
11E4
330
11AC
100
AcDbEntity
  8
0
 62
     3
100
AcDbCircle
 10
78.71959501992091
 20
277.8079955744133
 30
0.0
 40
0.59585563
100
AcDbArc
 50
19.48660554000477
 51
160.5133944599952
  0
ARC
  5
11E5
330
11AC
100
AcDbEntity
  8
0
 62
     3
100
AcDbCircle
 10
78.71959501992091
 20
276.0593231144132
 30
0.0
 40
1.214070989999999
100
AcDbArc
 50
244.3651718999997
 51
295.6348281000003
  0
ARC
  5
11E6
330
11AC
100
AcDbEntity
  8
0
 62
     3
100
AcDbCircle
 10
78.71959501992091
 20
276.0362614344133
 30
0.0
 40
0.59585563
100
AcDbArc
 50
199.4866055400047
 51
340.513394459995
  0
ARC
  5
11E7
330
11AC
100
AcDbEntity
  8
0
 62
     3
100
AcDbCircle
 10
73.97712251992084
 20
254.6940686644133
 30
0.0
 40
26.04
100
AcDbArc
 50
69.50571480000833
 51
81.68998806999736
  0
ARC
  5
11E8
330
11AC
100
AcDbEntity
  8
0
 62
     3
100
AcDbCircle
 10
73.97712251992084
 20
299.1501883444133
 30
0.0
 40
26.04
100
AcDbArc
 50
278.3100119300026
 51
290.4942851999917
  0
ARC
  5
11E9
330
11AC
100
AcDbEntity
  8
0
 62
     3
100
AcDbCircle
 10
82.28532664992076
 20
276.9221285044133
 30
0.0
 40
2.31
100
AcDbArc
 50
290.4942851999917
 51
69.50571480000833
  0
ARC
  5
11EA
330
11AC
100
AcDbEntity
  8
0
 62
     3
100
AcDbCircle
 10
54.9853266499208
 20
276.9221285044133
 30
0.0
 40
2.31
100
AcDbArc
 50
110.4942851999916
 51
249.5057147999945
  0
ARC
  5
11EB
330
11AC
100
AcDbEntity
  8
0
 62
     3
100
AcDbCircle
 10
63.29353076992084
 20
254.6940686644133
 30
0.0
 40
26.04
100
AcDbArc
 50
98.31001192998947
 51
110.4942851999916
  0
ARC
  5
11EC
330
11AC
100
AcDbEntity
  8
0
 62
     3
100
AcDbCircle
 10
63.29353076992084
 20
299.1501883444133
 30
0.0
 40
26.04
100
AcDbArc
 50
249.5057147999945
 51
261.6899880699973
  0
ARC
  5
11ED
330
11AC
100
AcDbEntity
  8
0
 62
     3
100
AcDbCircle
 10
68.63532664992067
 20
218.1221285044133
 30
0.0
 40
62.99999987
100
AcDbArc
 50
81.68998806999736
 51
98.31001192998947
  0
ARC
  5
11EE
330
11AC
100
AcDbEntity
  8
0
 62
     3
100
AcDbCircle
 10
68.63532664992067
 20
335.7221285044133
 30
0.0
 40
62.99999987
100
AcDbArc
 50
261.6899880699973
 51
278.3100119300026
  0
ARC
  5
11EF
330
11AC
100
AcDbEntity
  8
0
 62
     3
100
AcDbCircle
 10
68.63532664992067
 20
218.1221285044133
 30
0.0
 40
62.36999987
100
AcDbArc
 50
81.68998806999736
 51
98.31001192998947
  0
ARC
  5
11F0
330
11AC
100
AcDbEntity
  8
0
 62
     3
100
AcDbCircle
 10
68.63532664992067
 20
335.7221285044133
 30
0.0
 40
62.36999987
100
AcDbArc
 50
261.6899880699973
 51
278.3100119300026
  0
ARC
  5
11F1
330
11AC
100
AcDbEntity
  8
0
 62
     3
100
AcDbCircle
 10
73.97712251992084
 20
299.1501883444133
 30
0.0
 40
25.41
100
AcDbArc
 50
278.3100119300026
 51
290.4942851999917
  0
ARC
  5
11F2
330
11AC
100
AcDbEntity
  8
0
 62
     3
100
AcDbCircle
 10
73.97712251992084
 20
254.6940686644133
 30
0.0
 40
25.41
100
AcDbArc
 50
69.50571480000833
 51
81.68998806999736
  0
ARC
  5
11F3
330
11AC
100
AcDbEntity
  8
0
 62
     3
100
AcDbCircle
 10
82.28532664992076
 20
276.9221285044133
 30
0.0
 40
1.679999999999999
100
AcDbArc
 50
290.4942851999917
 51
69.50571480000833
  0
ARC
  5
11F4
330
11AC
100
AcDbEntity
  8
0
 62
     3
100
AcDbCircle
 10
54.9853266499208
 20
276.9221285044133
 30
0.0
 40
1.679999999999999
100
AcDbArc
 50
110.4942851999916
 51
249.5057147999945
  0
ARC
  5
11F5
330
11AC
100
AcDbEntity
  8
0
 62
     3
100
AcDbCircle
 10
63.29353076992084
 20
254.6940686644133
 30
0.0
 40
25.41
100
AcDbArc
 50
98.31001192998947
 51
110.4942851999916
  0
ARC
  5
11F6
330
11AC
100
AcDbEntity
  8
0
 62
     3
100
AcDbCircle
 10
63.29353076992084
 20
299.1501883444133
 30
0.0
 40
25.41
100
AcDbArc
 50
249.5057147999945
 51
261.6899880699973
  0
LINE
  5
11F7
330
11AC
100
AcDbEntity
  8
0
 62
     3
100
AcDbLine
 10
73.24528774992086
 20
274.8452521244133
 30
0.0
 11
71.31577591992073
 21
274.8452521244133
 31
0.0
  0
LINE
  5
11F8
330
11AC
100
AcDbEntity
  8
0
 62
     3
100
AcDbLine
 10
73.24528774992086
 20
275.0568132644133
 30
0.0
 11
73.24528774992086
 21
274.8452521244133
 31
0.0
  0
LINE
  5
11F9
330
11AC
100
AcDbEntity
  8
0
 62
     3
100
AcDbLine
 10
71.10881835992086
 20
278.9989061644133
 30
0.0
 11
69.15655582992076
 21
278.9989061644133
 31
0.0
  0
LINE
  5
11FA
330
11AC
100
AcDbEntity
  8
0
 62
     3
100
AcDbLine
 10
71.10881835992086
 20
278.9989061644133
 30
0.0
 11
71.10881835992086
 21
278.7874437444133
 31
0.0
  0
LINE
  5
11FB
330
11AC
100
AcDbEntity
  8
0
 62
     3
100
AcDbLine
 10
71.10881835992086
 20
275.0568132644133
 30
0.0
 11
71.10881835992086
 21
274.8451534144133
 31
0.0
  0
LINE
  5
11FC
330
11AC
100
AcDbEntity
  8
0
 62
     3
100
AcDbLine
 10
71.10881835992086
 20
274.8451534144133
 30
0.0
 11
69.15655582992076
 21
274.8451534144133
 31
0.0
  0
LINE
  5
11FD
330
11AC
100
AcDbEntity
  8
0
 62
     3
100
AcDbLine
 10
73.24528774992086
 20
278.9990048844132
 30
0.0
 11
73.24528774992086
 21
278.7874437444133
 31
0.0
  0
LINE
  5
11FE
330
11AC
100
AcDbEntity
  8
0
 62
     3
100
AcDbLine
 10
73.24528774992086
 20
278.9990048844132
 30
0.0
 11
71.31577591992073
 21
278.9990048844132
 31
0.0
  0
LINE
  5
11FF
330
11AC
100
AcDbEntity
  8
0
 62
     3
100
AcDbLine
 10
71.31577591992073
 20
278.9990048844132
 30
0.0
 11
71.31577591992073
 21
278.7874437444133
 31
0.0
  0
LINE
  5
1200
330
11AC
100
AcDbEntity
  8
0
 62
     3
100
AcDbLine
 10
73.4596457499208
 20
275.0568132644133
 30
0.0
 11
73.4596457499208
 21
274.8452521244133
 31
0.0
  0
LINE
  5
1201
330
11AC
100
AcDbEntity
  8
0
 62
     3
100
AcDbLine
 10
75.44394630992087
 20
274.8452521244133
 30
0.0
 11
73.4596457499208
 21
274.8452521244133
 31
0.0
  0
LINE
  5
1202
330
11AC
100
AcDbEntity
  8
0
 62
     3
100
AcDbLine
 10
74.95340967992092
 20
278.3312353644133
 30
0.0
 11
74.95340967992092
 21
275.5130216444133
 31
0.0
  0
LINE
  5
1203
330
11AC
100
AcDbEntity
  8
0
 62
     3
100
AcDbLine
 10
74.95340967992092
 20
275.5130216444133
 30
0.0
 11
75.14345864992083
 21
275.5130216444133
 31
0.0
  0
ARC
  5
1204
330
11AC
100
AcDbEntity
  8
0
 62
     3
100
AcDbCircle
 10
74.17167290992074
 20
276.9221285044133
 30
0.0
 40
1.71170957
100
AcDbArc
 50
304.5919552700024
 51
55.40804472999759
  0
LINE
  5
1205
330
11AC
100
AcDbEntity
  8
0
 62
     3
100
AcDbLine
 10
75.44394630992087
 20
278.9990048844132
 30
0.0
 11
73.4596457499208
 21
278.9990048844132
 31
0.0
  0
LINE
  5
1206
330
11AC
100
AcDbEntity
  8
0
 62
     3
100
AcDbLine
 10
73.4596457499208
 20
278.9990048844132
 30
0.0
 11
73.4596457499208
 21
278.7874437444133
 31
0.0
  0
LINE
  5
1207
330
11AC
100
AcDbEntity
  8
0
 62
     3
100
AcDbLine
 10
71.31577591992073
 20
275.0568132644133
 30
0.0
 11
71.31577591992073
 21
274.8452521244133
 31
0.0
  0
LINE
  5
1208
330
11AC
100
AcDbEntity
  8
0
 62
     3
100
AcDbLine
 10
74.95340967992092
 20
278.3312353644133
 30
0.0
 11
75.14345864992083
 21
278.3312353644133
 31
0.0
  0
LINE
  5
1209
330
11AC
100
AcDbEntity
  8
0
 62
     3
100
AcDbLine
 10
63.31025001992088
 20
275.0568132644133
 30
0.0
 11
63.3102463299208
 21
274.8452323544133
 31
0.0
  0
LINE
  5
120A
330
11AC
100
AcDbEntity
  8
0
 62
     3
100
AcDbLine
 10
61.38073448992077
 20
274.8452718944133
 30
0.0
 11
63.3102463299208
 21
274.8452382244133
 31
0.0
  0
LINE
  5
120B
330
11AC
100
AcDbEntity
  8
0
 62
     3
100
AcDbLine
 10
57.08435263992078
 20
274.8452521244133
 30
0.0
 11
58.62361796992082
 21
274.8452521244133
 31
0.0
  0
ARC
  5
120C
330
11AC
100
AcDbEntity
  8
0
 62
     3
100
AcDbCircle
 10
52.1024099599208
 20
276.9710351244133
 30
0.0
 40
14.71356563
100
AcDbArc
 50
353.8660061899987
 51
357.6940342600003
  0
LINE
  5
120D
330
11AC
100
AcDbEntity
  8
0
 62
     3
100
AcDbLine
 10
65.81898981992094
 20
276.3826674744133
 30
0.0
 11
66.80406070992081
 21
276.3790225944133
 31
0.0
  0
LWPOLYLINE
  5
120E
330
11AC
100
AcDbEntity
  8
0
 62
     3
100
AcDbPolyline
 90
       64
 70
     0
 43
0.0
 10
65.82296823992078
 20
277.4578822144133
 10
65.80434070992078
 20
277.5771499844132
 10
65.78196952992084
 20
277.6913547644133
 10
65.75602759992079
 20
277.7996138244132
 10
65.72671545992079
 20
277.9010903744132
 10
65.69425964992092
 20
277.9950000544133
 10
65.65891105992091
 20
278.0806169944133
 10
65.62094290992082
 20
278.1572794044133
 10
65.58064865992083
 20
278.2243947444133
 10
65.53833978992066
 20
278.2814442344132
 10
65.49434329992073
 20
278.3279869044132
 10
65.44899927992083
 20
278.3636630244132
 10
65.40265820992067
 20
278.3881968144133
 10
65.35567826992087
 20
278.4013986644132
 10
65.30842260992085
 20
278.4031665044133
 10
65.2612564799208
 20
278.3934866944132
 10
65.21454444992082
 20
278.3724340344132
 10
65.16864758992074
 20
278.3401712644133
 10
65.12392064992082
 20
278.2969477544133
 10
65.08070933992076
 20
278.2430975944133
 10
65.03934767992086
 20
278.1790370244133
 10
65.00015535992066
 20
278.1052612044133
 10
64.96343531992079
 20
278.0223403744133
 10
64.92947138992076
 20
277.9309154644133
 10
64.89852608992078
 20
277.8316931644133
 10
64.87083860992084
 20
277.7254403944132
 10
64.84662295992075
 20
277.6129784344133
 10
64.82606631992076
 20
277.4951765544133
 10
64.80932757992082
 20
277.3729453144133
 10
64.7965361199208
 20
277.2472294944133
 10
64.7877908099208
 20
277.1190008144133
 10
64.7831592499208
 20
276.9892504044133
 10
64.78267723992075
 20
276.8589811744133
 10
64.7863484999209
 20
276.7292000544133
 10
64.7941446599209
 20
276.6009101644133
 10
64.8060054599207
 20
276.4751031244133
 10
64.82183921992078
 20
276.3527513544133
 10
64.8415235399209
 20
276.2348005844133
 10
64.8649062999209
 20
276.1221625144133
 10
64.89180672992074
 20
276.0157077544132
 10
64.9220169299208
 20
275.9162591644133
 10
64.9553033799209
 20
275.8245854344133
 10
64.9914087799209
 20
275.7413951344133
 10
65.03005407992077
 20
275.6673313044132
 10
65.0709405599207
 20
275.6029664144132
 10
65.11375217992076
 20
275.5487979644133
 10
65.15815803992087
 20
275.5052446444133
 10
65.20381488992075
 20
275.4726431144133
 10
65.25036984992084
 20
275.4512453544132
 10
65.2974630599208
 20
275.4412167744133
 10
65.34473050992073
 20
275.4426348744133
 10
65.39180684992084
 20
275.4554886944132
 10
65.43832820992088
 20
275.4796788944133
 10
65.48393499992084
 20
275.5150184744133
 10
65.52827469992076
 20
275.5612342944132
 10
65.57100458992067
 20
275.6179691344133
 10
65.61179438992076
 20
275.6847844444132
 10
65.65032881992078
 20
275.7611637944133
 10
65.68631001992094
 20
275.8465168044132
 10
65.7194598799208
 20
275.9401837344133
 10
65.74952215992084
 20
276.0414405944133
 10
65.77626450992079
 20
276.1495047144133
 10
65.79948020992083
 20
276.2635408244133
 10
65.81898981992094
 20
276.3826674744133
  0
LINE
  5
120F
330
11AC
100
AcDbEntity
  8
0
 62
     3
100
AcDbLine
 10
65.82296823992078
 20
277.4578822144133
 30
0.0
 11
66.80803911992075
 21
277.4542373444133
 31
0.0
  0
ARC
  5
1210
330
11AC
100
AcDbEntity
  8
0
 62
     3
100
AcDbCircle
 10
52.1024099599208
 20
276.9710351244133
 30
0.0
 40
14.71356563
100
AcDbArc
 50
1.881965739999166
 51
5.709993809998727
  0
LINE
  5
1211
330
11AC
100
AcDbEntity
  8
0
 62
     3
100
AcDbLine
 10
63.31031881992089
 20
278.9989851144132
 30
0.0
 11
63.31031512992081
 21
278.7874437444133
 31
0.0
  0
LINE
  5
1212
330
11AC
100
AcDbEntity
  8
0
 62
     3
100
AcDbLine
 10
61.38080698992076
 20
278.9990246544132
 30
0.0
 11
63.31031881992089
 21
278.9989909744132
 31
0.0
  0
LINE
  5
1213
330
11AC
100
AcDbEntity
  8
0
 62
     3
100
AcDbLine
 10
61.38073817992085
 20
275.0568132644133
 30
0.0
 11
61.38073448992077
 21
274.8452718944133
 31
0.0
  0
LINE
  5
1214
330
11AC
100
AcDbEntity
  8
0
 62
     3
100
AcDbLine
 10
61.38080698992076
 20
278.9990246544132
 30
0.0
 11
61.38080329992067
 21
278.7874437444133
 31
0.0
  0
LINE
  5
1215
330
11AC
100
AcDbEntity
  8
0
 62
     3
100
AcDbLine
 10
58.62361796992082
 20
275.0568132644133
 30
0.0
 11
58.62361796992082
 21
274.8452521244133
 31
0.0
  0
LINE
  5
1216
330
11AC
100
AcDbEntity
  8
0
 62
     3
100
AcDbLine
 10
58.18787005992067
 20
277.2811402144133
 30
0.0
 11
59.71030011992093
 21
274.8452521244133
 31
0.0
  0
LINE
  5
1217
330
11AC
100
AcDbEntity
  8
0
 62
     3
100
AcDbLine
 10
59.71030011992093
 20
274.8452521244133
 30
0.0
 11
60.72973283992087
 21
274.8452521244133
 31
0.0
  0
LINE
  5
1218
330
11AC
100
AcDbEntity
  8
0
 62
     3
100
AcDbLine
 10
61.16548074992079
 20
278.9990048844132
 30
0.0
 11
61.16548074992079
 21
278.7874437444133
 31
0.0
  0
LINE
  5
1219
330
11AC
100
AcDbEntity
  8
0
 62
     3
100
AcDbLine
 10
59.62621541992075
 20
278.9990048844132
 30
0.0
 11
61.16548074992079
 21
278.9990048844132
 31
0.0
  0
LINE
  5
121A
330
11AC
100
AcDbEntity
  8
0
 62
     3
100
AcDbLine
 10
59.62621541992075
 20
278.9990048844132
 30
0.0
 11
59.62621541992075
 21
278.7874437444133
 31
0.0
  0
LINE
  5
121B
330
11AC
100
AcDbEntity
  8
0
 62
     3
100
AcDbLine
 10
60.06196332992089
 20
277.1176385444132
 30
0.0
 11
58.82731665992082
 21
278.9990048844132
 31
0.0
  0
LINE
  5
121C
330
11AC
100
AcDbEntity
  8
0
 62
     3
100
AcDbLine
 10
57.08435263992078
 20
278.9990048844132
 30
0.0
 11
58.82731665992082
 21
278.9990048844132
 31
0.0
  0
LINE
  5
121D
330
11AC
100
AcDbEntity
  8
0
 62
     3
100
AcDbLine
 10
67.00056699992069
 20
278.9989061644133
 30
0.0
 11
68.95282953992069
 21
278.9989061644133
 31
0.0
  0
LINE
  5
121E
330
11AC
100
AcDbEntity
  8
0
 62
     3
100
AcDbLine
 10
67.00056699992069
 20
278.7874437444133
 30
0.0
 11
67.00056699992069
 21
278.9989061644133
 31
0.0
  0
LINE
  5
121F
330
11AC
100
AcDbEntity
  8
0
 62
     3
100
AcDbLine
 10
67.00056699992069
 20
274.8451534144133
 30
0.0
 11
67.00056699992069
 21
275.0568132644133
 31
0.0
  0
LINE
  5
1220
330
11AC
100
AcDbEntity
  8
0
 62
     3
100
AcDbLine
 10
67.00056699992069
 20
274.8451534144133
 30
0.0
 11
68.95282953992069
 21
274.8451534144133
 31
0.0
  0
LINE
  5
1221
330
11AC
100
AcDbEntity
  8
0
 62
     3
100
AcDbLine
 10
69.15655582992076
 20
275.0568132644133
 30
0.0
 11
69.15655582992076
 21
274.8451534144133
 31
0.0
  0
LINE
  5
1222
330
11AC
100
AcDbEntity
  8
0
 62
     3
100
AcDbLine
 10
68.95282953992069
 20
275.0568132644133
 30
0.0
 11
68.95282953992069
 21
274.8451534144133
 31
0.0
  0
LINE
  5
1223
330
11AC
100
AcDbEntity
  8
0
 62
     3
100
AcDbLine
 10
68.95282953992069
 20
278.7874437444133
 30
0.0
 11
68.95282953992069
 21
278.9989061644133
 31
0.0
  0
LINE
  5
1224
330
11AC
100
AcDbEntity
  8
0
 62
     3
100
AcDbLine
 10
69.15655582992076
 20
278.7874437444133
 30
0.0
 11
69.15655582992076
 21
278.9989061644133
 31
0.0
  0
LINE
  5
1225
330
11AC
100
AcDbEntity
  8
0
 62
     3
100
AcDbLine
 10
57.08435263992078
 20
275.0568132644133
 30
0.0
 11
57.08435263992078
 21
274.8452521244133
 31
0.0
  0
LINE
  5
1226
330
11AC
100
AcDbEntity
  8
0
 62
     3
100
AcDbLine
 10
57.08435263992078
 20
278.9990048844132
 30
0.0
 11
57.08435263992078
 21
278.7874437444133
 31
0.0
  0
ARC
  5
1227
330
11AC
100
AcDbEntity
  8
0
 62
     3
100
AcDbCircle
 10
75.65394630992091
 20
277.3578764144132
 30
0.0
 40
1.641128469999999
100
AcDbArc
 50
17.30874897999683
 51
23.76507095999502
  0
ARC
  5
1228
330
11AC
100
AcDbEntity
  8
0
 62
     3
100
AcDbCircle
 10
74.25567290992081
 20
276.9221285044133
 30
0.0
 40
3.105725599999999
100
AcDbArc
 50
342.6912510200032
 51
17.30856644000026
  0
ARC
  5
1229
330
11AC
100
AcDbEntity
  8
0
 62
     3
100
AcDbCircle
 10
75.65394630992091
 20
276.4863806044133
 30
0.0
 40
1.641128469999999
100
AcDbArc
 50
336.2349290399992
 51
342.6912510200032
  0
ARC
  5
122A
330
11AC
100
AcDbEntity
  8
0
 62
     3
100
AcDbCircle
 10
75.44394630992087
 20
277.3578764144132
 30
0.0
 40
1.641128469999999
100
AcDbArc
 50
17.30874897999683
 51
90.0
  0
ARC
  5
122B
330
11AC
100
AcDbEntity
  8
0
 62
     3
100
AcDbCircle
 10
74.04567290992076
 20
276.9221285044133
 30
0.0
 40
3.105725599999999
100
AcDbArc
 50
342.6912510200032
 51
17.30856644000026
  0
ARC
  5
122C
330
11AC
100
AcDbEntity
  8
0
 62
     3
100
AcDbCircle
 10
75.44394630992087
 20
276.4863806044133
 30
0.0
 40
1.641128469999999
100
AcDbArc
 50
270.0
 51
342.6912510200032
  0
ARC
  5
122D
330
11AC
100
AcDbEntity
  8
0
 62
     3
100
AcDbCircle
 10
65.32000593992075
 20
276.9221285044133
 30
0.0
 40
2.076876379999999
100
AcDbArc
 50
46.75287960999439
 51
89.74999828999569
  0
ARC
  5
122E
330
11AC
100
AcDbEntity
  8
0
 62
     3
100
AcDbCircle
 10
65.32000593992075
 20
276.9221285044133
 30
0.0
 40
2.076876379999999
100
AcDbArc
 50
273.976333149997
 51
312.8231203899985
  0
ARC
  5
122F
330
11AC
100
AcDbEntity
  8
0
 62
     3
100
AcDbCircle
 10
76.76181387992073
 20
276.8900669744132
 30
0.0
 40
2.755888999999999
100
AcDbArc
 50
0.6665840599997753
 51
23.90392827000157
  0
ARC
  5
1230
330
11AC
100
AcDbEntity
  8
0
 62
     3
100
AcDbCircle
 10
80.67737615992086
 20
276.8900669744132
 30
0.0
 40
2.755888999999999
100
AcDbArc
 50
156.0960717299984
 51
179.3334159400002
  0
ARC
  5
1231
330
11AC
100
AcDbEntity
  8
0
 62
     3
100
AcDbCircle
 10
76.76181387992073
 20
276.9541900344133
 30
0.0
 40
2.755888999999999
100
AcDbArc
 50
336.0960717299984
 51
359.3334159400005
  0
ARC
  5
1232
330
11AC
100
AcDbEntity
  8
0
 62
     3
100
AcDbCircle
 10
80.67737615992086
 20
276.9541900344133
 30
0.0
 40
2.755888999999999
100
AcDbArc
 50
180.6665840599995
 51
203.9039282700016
  0
LINE
  5
1233
330
11AC
100
AcDbEntity
  8
0
 62
     3
100
AcDbLine
 10
85.32766324992076
 20
276.9999996444133
 30
0.0
 11
200.0000006199209
 21
276.9999996444133
 31
0.0
  0
LINE
  5
1234
330
11AC
100
AcDbEntity
  8
0
 62
   254
100
AcDbLine
 10
0.000000619920911
 20
286.9999996444132
 30
0.0
 11
200.0000006199209
 21
286.9999996444132
 31
0.0
  0
LINE
  5
1235
330
11AC
100
AcDbEntity
  8
0
 62
     3
100
AcDbLine
 10
51.91491672992083
 20
276.9999996444133
 30
0.0
 11
20.00000061992091
 21
276.9999996444133
 31
0.0
  0
LINE
  5
1236
330
11AC
100
AcDbEntity
  8
0
 62
     3
100
AcDbLine
 10
148.0000006199209
 20
-0.0000003555867352
 30
0.0
 11
148.0000006199209
 21
39.99999964441327
 31
0.0
  0
LINE
  5
1237
330
11AC
100
AcDbEntity
  8
0
 62
     3
100
AcDbLine
 10
161.0000006199209
 20
9.999999644413264
 30
0.0
 11
161.0000006199209
 21
37.99999964441326
 31
0.0
  0
LINE
  5
1238
330
11AC
100
AcDbEntity
  8
0
 62
     3
100
AcDbLine
 10
121.0000006199209
 20
9.999999644413264
 30
0.0
 11
121.0000006199209
 21
23.99999964441326
 31
0.0
  0
LINE
  5
1239
330
11AC
100
AcDbEntity
  8
0
 62
     3
100
AcDbLine
 10
131.0000006199209
 20
23.99999964441326
 30
0.0
 11
131.0000006199209
 21
-0.0000003555867352
 31
0.0
  0
LINE
  5
123A
330
11AC
100
AcDbEntity
  8
0
 62
     3
100
AcDbLine
 10
102.0000006199209
 20
39.99999964441326
 30
0.0
 11
102.0000006199209
 21
16.99999964441327
 31
0.0
  0
LINE
  5
123B
330
11AC
100
AcDbEntity
  8
0
 62
     3
100
AcDbLine
 10
161.0000006199209
 20
37.99999964441326
 30
0.0
 11
161.0000006199209
 21
39.99999964441327
 31
0.0
  0
LINE
  5
123C
330
11AC
100
AcDbEntity
  8
0
 62
     3
100
AcDbLine
 10
174.0000006199209
 20
16.99999964441327
 30
0.0
 11
174.0000006199209
 21
39.99999964441327
 31
0.0
  0
LINE
  5
123D
330
11AC
100
AcDbEntity
  8
0
 62
     3
100
AcDbLine
 10
200.0000006199209
 20
39.99999964441327
 30
0.0
 11
88.75456597992092
 21
39.99999964441328
 31
0.0
  0
LINE
  5
123E
330
11AC
100
AcDbEntity
  8
0
 62
     3
100
AcDbLine
 10
200.0000006199209
 20
30.99999964441327
 30
0.0
 11
88.75456597992092
 21
30.99999964441327
 31
0.0
  0
LINE
  5
123F
330
11AC
100
AcDbEntity
  8
0
 62
     3
100
AcDbLine
 10
200.0000006199209
 20
16.99999964441327
 30
0.0
 11
88.75456597992092
 21
16.99999964441327
 31
0.0
  0
LINE
  5
1240
330
11AC
100
AcDbEntity
  8
0
 62
     3
100
AcDbLine
 10
200.0000006199209
 20
9.999999644413264
 30
0.0
 11
88.75456597992092
 21
9.999999644413261
 31
0.0
  0
LINE
  5
1241
330
11AC
100
AcDbEntity
  8
0
 62
     3
100
AcDbLine
 10
187.0000006199209
 20
16.99999964441327
 30
0.0
 11
187.0000006199209
 21
39.99999964441327
 31
0.0
  0
LINE
  5
1242
330
11AC
100
AcDbEntity
  8
0
 62
     3
100
AcDbLine
 10
88.75456597992092
 20
39.99999964441328
 30
0.0
 11
88.75456597992092
 21
-0.0000003555867352
 31
0.0
  0
LINE
  5
1243
330
11AC
100
AcDbEntity
  8
0
 62
     3
100
AcDbLine
 10
148.0000006199209
 20
23.99999964441326
 30
0.0
 11
88.75456597992092
 21
23.99999964441325
 31
0.0
  0
LINE
  5
1244
330
11AC
100
AcDbEntity
  8
0
 62
     3
100
AcDbLine
 10
131.2783255499207
 20
4.832860904413252
 30
0.0
 11
148.0000006199209
 21
4.832860904413252
 31
0.0
  0
TEXT
  5
1245
330
11AC
100
AcDbEntity
  8
0
 62
     3
100
AcDbText
 10
132.1643260332364
 20
19.07309649777861
 30
0.0
 40
2.5
  1
******
  7
高2.5
100
AcDbText
  0
TEXT
  5
1246
330
11AC
100
AcDbEntity
  8
0
 62
     3
100
AcDbText
 10
103.1963693151731
 20
19.29781404939717
 30
0.0
 40
2.5
  1
*****
  7
高2.5
100
AcDbText
  0
TEXT
  5
1247
330
11AC
100
AcDbEntity
  8
0
 62
     3
100
AcDbText
 10
103.4612770698704
 20
32.31224916817116
 30
0.0
 40
4.5
  1
**********
  7
高4.5
100
AcDbText
1001
ACAD
1000
ACAD_MTEXT_DEFINED_HEIGHT_BEGIN
1070
    46
1040
0.0
1000
ACAD_MTEXT_DEFINED_HEIGHT_END
  0
TEXT
  5
1248
330
11AC
100
AcDbEntity
  8
0
 62
     3
100
AcDbText
 10
190.0655897133949
 20
36.51369174311686
 30
0.0
 40
2.0
  1
DEF
  7
高2
100
AcDbText
  0
TEXT
  5
1249
330
11AC
100
AcDbEntity
  8
0
 62
     3
100
AcDbText
 10
176.1264913596867
 20
36.51369174311677
 30
0.0
 40
2.0
  1
DESN
  7
高2
100
AcDbText
  0
TEXT
  5
124A
330
11AC
100
AcDbEntity
  8
0
 62
     3
100
AcDbText
 10
149.8721244196865
 20
36.51369174311686
 30
0.0
 40
2.0
  1
APPD
  7
高2
100
AcDbText
  0
TEXT
  5
124B
330
11AC
100
AcDbEntity
  8
0
 62
     3
100
AcDbText
 10
162.9848605199206
 20
36.51369174311688
 30
0.0
 40
2.0
  1
CHCK
  7
高2
100
AcDbText
  0
TEXT
  5
124C
330
11AC
100
AcDbEntity
  8
0
 62
     3
100
AcDbText
 10
121.9271662590734
 20
14.16839846764398
 30
0.0
 40
2.0
  1
SCALE
 41
0.8
  7
高2
100
AcDbText
  0
TEXT
  5
124D
330
11AC
100
AcDbEntity
  8
0
 62
     3
100
AcDbText
 10
90.43914468296703
 20
14.16839846764399
 30
0.0
 40
2.0
  1
3AD　ANGLE
 41
1.5
  7
高2
100
AcDbText
  0
TEXT
  5
124E
330
11AC
100
AcDbEntity
  8
0
 62
     3
100
AcDbText
 10
121.1965719499223
 20
20.91993653660109
 30
0.0
 40
2.0
  1
REMARKS
 41
0.7
  7
高2
100
AcDbText
  0
TEXT
  5
124F
330
11AC
100
AcDbEntity
  8
0
 62
     3
100
AcDbText
 10
90.22223632992085
 20
20.99999964441327
 30
0.0
 40
2.0
  1
MATERIAL
 41
0.7
  7
高2
100
AcDbText
  0
TEXT
  5
1250
330
11AC
100
AcDbEntity
  8
0
 62
     3
100
AcDbText
 10
90.79872353267479
 20
27.99999964441325
 30
0.0
 40
2.0
  1
MODEL
  7
高2
100
AcDbText
  0
TEXT
  5
1251
330
11AC
100
AcDbEntity
  8
0
 62
     3
100
AcDbText
 10
90.43564441400599
 20
36.70702099501228
 30
0.0
 40
2.0
  1
CONPONENTS
 41
0.5
  7
高2
100
AcDbText
  0
TEXT
  5
1252
330
11AC
100
AcDbEntity
  8
0
 62
     3
100
AcDbText
 10
103.142759885173
 20
25.08748077222521
 30
0.0
 40
4.5
  1
********
  7
高4.5
100
AcDbText
  0
TEXT
  5
1253
330
11AC
100
AcDbEntity
  8
0
 62
     3
100
AcDbText
 10
151.0650463505392
 20
2.038461039778852
 30
0.0
 40
6.299999999999999
  1
*-********
 41
0.6
  7
高6.3
100
AcDbText
1001
ACAD
1000
ACAD_MTEXT_DEFINED_HEIGHT_BEGIN
1070
    46
1040
0.0
1000
ACAD_MTEXT_DEFINED_HEIGHT_END
  0
TEXT
  5
1254
330
11AC
100
AcDbEntity
  8
0
 62
     3
100
AcDbText
 10
164.5635103702504
 20
11.10088880264627
 30
0.0
 40
3.2
  1
******
  7
高3.2
100
AcDbText
1001
ACAD
1000
ACAD_MTEXT_DEFINED_HEIGHT_BEGIN
1070
    46
1040
0.0
1000
ACAD_MTEXT_DEFINED_HEIGHT_END
  0
TEXT
  5
1255
330
11AC
100
AcDbEntity
  8
0
 62
     3
100
AcDbText
 10
134.7875985145672
 20
11.10091664698114
 30
0.0
 40
3.2
  1
1/1
  7
高3.2
100
AcDbText
  0
TEXT
  5
1256
330
11AC
100
AcDbEntity
  8
0
 62
     3
100
AcDbText
 10
131.8649274899208
 20
0.8168778175492263
 30
0.0
 40
3.2
  1
ZK-A4Y
 41
0.8
  7
高3.2
100
AcDbText
  0
TEXT
  5
1257
330
11AC
100
AcDbEntity
  8
0
 62
     3
100
AcDbText
 10
89.58526701992083
 20
6.524620066601091
 30
0.0
 40
2.0
  1
NICHIDO IND.CO.LTD
 41
1.3
  7
高2
100
AcDbText
  0
TEXT
  5
1258
330
11AC
100
AcDbEntity
  8
0
 62
     3
100
AcDbText
 10
90.76679028487797
 20
32.1405278522982
 30
0.0
 40
3.2
  1
品 名
  7
高3.2
100
AcDbText
1001
ACAD
1000
ACAD_MTEXT_DEFINED_HEIGHT_BEGIN
1070
    46
1040
0.0
1000
ACAD_MTEXT_DEFINED_HEIGHT_END
  0
TEXT
  5
1259
330
11AC
100
AcDbEntity
  8
0
 62
     3
100
AcDbText
 10
90.76679028487797
 20
24.49999964441325
 30
0.0
 40
3.2
  1
型 式
  7
高3.2
100
AcDbText
1001
ACAD
1000
ACAD_MTEXT_DEFINED_HEIGHT_BEGIN
1070
    46
1040
3.064735913775955
1000
ACAD_MTEXT_DEFINED_HEIGHT_END
  0
TEXT
  5
125A
330
11AC
100
AcDbEntity
  8
0
 62
     3
100
AcDbText
 10
90.76679028487797
 20
17.49999964441327
 30
0.0
 40
3.2
  1
材 質
  7
高3.2
100
AcDbText
1001
ACAD
1000
ACAD_MTEXT_DEFINED_HEIGHT_BEGIN
1070
    46
1040
0.0
1000
ACAD_MTEXT_DEFINED_HEIGHT_END
  0
TEXT
  5
125B
330
11AC
100
AcDbEntity
  8
0
 62
     3
100
AcDbText
 10
90.46175533487781
 20
10.4674396366595
 30
0.0
 40
3.2
  1
第 三 角 法
  7
高3.2
100
AcDbText
1001
ACAD
1000
ACAD_MTEXT_DEFINED_HEIGHT_BEGIN
1070
    46
1040
0.0
1000
ACAD_MTEXT_DEFINED_HEIGHT_END
  0
TEXT
  5
125C
330
11AC
100
AcDbEntity
  8
0
 62
     3
100
AcDbText
 10
88.86828794240683
 20
1.140527852298198
 30
0.0
 40
3.2
  1
日動工業株式会社
 41
1.199999999999999
  7
高3.2
100
AcDbText
1001
ACAD
1000
ACAD_MTEXT_DEFINED_HEIGHT_BEGIN
1070
    46
1040
0.0
1000
ACAD_MTEXT_DEFINED_HEIGHT_END
  0
TEXT
  5
125D
330
11AC
100
AcDbEntity
  8
0
 62
     3
100
AcDbText
 10
122.5039121418851
 20
17.38457817758082
 30
0.0
 40
3.2
  1
備考
  7
高3.2
100
AcDbText
1001
ACAD
1000
ACAD_MTEXT_DEFINED_HEIGHT_BEGIN
1070
    46
1040
0.0
1000
ACAD_MTEXT_DEFINED_HEIGHT_END
  0
TEXT
  5
125E
330
11AC
100
AcDbEntity
  8
0
 62
     3
100
AcDbText
 10
132.1529695889207
 20
6.146229669983558
 30
0.0
 40
2.5
  1
出図コード
  7
高2.5
100
AcDbText
1001
ACAD
1000
ACAD_MTEXT_DEFINED_HEIGHT_BEGIN
1070
    46
1040
0.0
1000
ACAD_MTEXT_DEFINED_HEIGHT_END
  0
TEXT
  5
125F
330
11AC
100
AcDbEntity
  8
0
 62
     3
100
AcDbText
 10
122.3451460237977
 20
10.45323455482618
 30
0.0
 40
3.2
  1
尺度
  7
高3.2
100
AcDbText
1001
ACAD
1000
ACAD_MTEXT_DEFINED_HEIGHT_BEGIN
1070
    46
1040
0.0
1000
ACAD_MTEXT_DEFINED_HEIGHT_END
  0
TEXT
  5
1260
330
11AC
100
AcDbEntity
  8
0
 62
     3
100
AcDbText
 10
149.4914075055765
 20
11.58471300294367
 30
0.0
 40
3.2
  1
作成日
  7
高3.2
100
AcDbText
1001
ACAD
1000
ACAD_MTEXT_DEFINED_HEIGHT_BEGIN
1070
    46
1040
0.0
1000
ACAD_MTEXT_DEFINED_HEIGHT_END
  0
TEXT
  5
1261
330
11AC
100
AcDbEntity
  8
0
 62
     3
100
AcDbText
 10
149.3858815124406
 20
32.1405278522982
 30
0.0
 40
3.2
  1
承 認
  7
高3.2
100
AcDbText
1001
ACAD
1000
ACAD_MTEXT_DEFINED_HEIGHT_BEGIN
1070
    46
1040
0.0
1000
ACAD_MTEXT_DEFINED_HEIGHT_END
  0
TEXT
  5
1262
330
11AC
100
AcDbEntity
  8
0
 62
     3
100
AcDbText
 10
162.3858815124406
 20
32.1405278522982
 30
0.0
 40
3.2
  1
検 図
  7
高3.2
100
AcDbText
1001
ACAD
1000
ACAD_MTEXT_DEFINED_HEIGHT_BEGIN
1070
    46
1040
0.0
1000
ACAD_MTEXT_DEFINED_HEIGHT_END
  0
TEXT
  5
1263
330
11AC
100
AcDbEntity
  8
0
 62
     3
100
AcDbText
 10
175.3858815124406
 20
32.1405278522982
 30
0.0
 40
3.2
  1
設 計
  7
高3.2
100
AcDbText
1001
ACAD
1000
ACAD_MTEXT_DEFINED_HEIGHT_BEGIN
1070
    46
1040
0.0
1000
ACAD_MTEXT_DEFINED_HEIGHT_END
  0
TEXT
  5
1264
330
11AC
100
AcDbEntity
  8
0
 62
     3
100
AcDbText
 10
188.6865180324405
 20
32.1405278522982
 30
0.0
 40
3.2
  1
製 図
  7
高3.2
100
AcDbText
1001
ACAD
1000
ACAD_MTEXT_DEFINED_HEIGHT_BEGIN
1070
    46
1040
0.0
1000
ACAD_MTEXT_DEFINED_HEIGHT_END
  0
TEXT
  5
1265
330
11AC
100
AcDbEntity
  8
0
 62
     3
100
AcDbText
 10
187.5000006199209
 20
267.4999996444133
 30
0.0
 40
3.2
  1
担　当
  7
高3.2
100
AcDbText
  0
TEXT
  5
1266
330
11AC
100
AcDbEntity
  8
0
 62
     3
100
AcDbText
 10
143.5000006199209
 20
267.4999996444133
 30
0.0
 40
3.2
  1
変更・追記内容
  7
高3.2
100
AcDbText
  0
TEXT
  5
1267
330
11AC
100
AcDbEntity
  8
0
 62
     3
100
AcDbText
 10
118.6135156202601
 20
262.829461134505
 30
0.0
 40
2.0
  1
1
  7
高2
100
AcDbText
  0
TEXT
  5
1268
330
11AC
100
AcDbEntity
  8
0
 62
     3
100
AcDbText
 10
118.3050041435028
 20
257.6596444222321
 30
0.0
 40
2.0
  1
2
  7
高2
100
AcDbText
  0
TEXT
  5
1269
330
11AC
100
AcDbEntity
  8
0
 62
     3
100
AcDbText
 10
125.5000006199209
 20
267.4999996444133
 30
0.0
 40
3.2
  1
日　付
  7
高3.2
100
AcDbText
  0
TEXT
  5
126A
330
11AC
100
AcDbEntity
  8
0
 62
     3
100
AcDbText
 10
125.5000006199209
 20
272.4999996444132
 30
0.0
 40
3.2
  1
図　　　　面　　　　略　　　　歴
  7
高3.2
100
AcDbText
  0
TEXT
  5
126B
330
11AC
100
AcDbEntity
  8
0
 62
     3
100
AcDbText
 10
115.5000006199209
 20
267.4999996444133
 30
0.0
 40
3.2
  1
記号
  7
高3.2
100
AcDbText
  0
LINE
  5
126C
330
11AC
100
AcDbEntity
  8
0
 62
     7
100
AcDbLine
 10
119.0000006199209
 20
260.7908956444134
 30
0.0
 11
117.1000006199208
 21
257.4999996444133
 31
0.0
  0
LINE
  5
126D
330
11AC
100
AcDbEntity
  8
0
 62
     7
100
AcDbLine
 10
119.0000006199209
 20
260.7908956444134
 30
0.0
 11
120.9000006199207
 21
257.4999996444133
 31
0.0
  0
LINE
  5
126E
330
11AC
100
AcDbEntity
  8
0
 62
     7
100
AcDbLine
 10
117.1000006199208
 20
257.4999996444133
 30
0.0
 11
120.9000006199207
 21
257.4999996444133
 31
0.0
  0
LINE
  5
126F
330
11AC
100
AcDbEntity
  8
0
 62
     7
100
AcDbLine
 10
119.0000006199209
 20
265.7908966444133
 30
0.0
 11
117.1000006199208
 21
262.4999996444133
 31
0.0
  0
LINE
  5
1270
330
11AC
100
AcDbEntity
  8
0
 62
     7
100
AcDbLine
 10
119.0000006199209
 20
265.7908966444133
 30
0.0
 11
120.9000006199207
 21
262.4999996444133
 31
0.0
  0
LINE
  5
1271
330
11AC
100
AcDbEntity
  8
0
 62
     7
100
AcDbLine
 10
117.1000006199208
 20
262.4999996444133
 30
0.0
 11
120.9000006199207
 21
262.4999996444133
 31
0.0
  0
LINE
  5
1272
330
11AC
100
AcDbEntity
  8
0
 62
     3
100
AcDbLine
 10
114.0000006199209
 20
271.9999996444133
 30
0.0
 11
200.0000006199209
 21
271.9999996444133
 31
0.0
  0
LINE
  5
1273
330
11AC
100
AcDbEntity
  8
0
 62
     3
100
AcDbLine
 10
114.0000006199209
 20
266.9999996444133
 30
0.0
 11
200.0000006199209
 21
266.9999996444133
 31
0.0
  0
LINE
  5
1274
330
11AC
100
AcDbEntity
  8
0
 62
     7
100
AcDbLine
 10
114.0000006199209
 20
261.9999996444132
 30
0.0
 11
200.0000006199209
 21
261.9999996444132
 31
0.0
  0
LINE
  5
1275
330
11AC
100
AcDbEntity
  8
0
 62
     3
100
AcDbLine
 10
114.0000006199209
 20
256.9999996444133
 30
0.0
 11
200.0000006199209
 21
256.9999996444133
 31
0.0
  0
LINE
  5
1276
330
11AC
100
AcDbEntity
  8
0
 62
     7
100
AcDbLine
 10
186.0000006199209
 20
256.9999996444133
 30
0.0
 11
186.0000006199209
 21
271.9999996444133
 31
0.0
  0
LINE
  5
1277
330
11AC
100
AcDbEntity
  8
0
 62
     7
100
AcDbLine
 10
142.0000006199209
 20
256.9999996444133
 30
0.0
 11
142.0000006199209
 21
271.9999996444133
 31
0.0
  0
LINE
  5
1278
330
11AC
100
AcDbEntity
  8
0
 62
     7
100
AcDbLine
 10
124.0000006199209
 20
256.9999996444133
 30
0.0
 11
124.0000006199209
 21
271.9999996444133
 31
0.0
  0
LINE
  5
1279
330
11AC
100
AcDbEntity
  8
0
 62
     3
100
AcDbLine
 10
114.0000006199209
 20
256.9999996444133
 30
0.0
 11
114.0000006199209
 21
276.9999996444133
 31
0.0
  0
ENDBLK
  5
127A
330
11AC
100
AcDbEntity
  8
0
100
AcDbBlockEnd
  0
BLOCK
  5
128C
330
128B
100
AcDbEntity
  8
0
100
AcDbBlockBegin
  2
*D5
 70
     1
 10
0.0
 20
0.0
 30
0.0
  3
*D5
  1

  0
LINE
  5
12E7
330
128B
100
AcDbEntity
  8
0
 62
     0
370
    -2
100
AcDbLine
 10
1735.870489254648
 20
292.2586100154722
 30
0.0
 11
1735.870489254648
 21
308.8604605889973
 31
0.0
  0
LINE
  5
12E8
330
128B
100
AcDbEntity
  8
0
 62
     0
370
    -2
100
AcDbLine
 10
1631.870489254648
 20
292.2586100154722
 30
0.0
 11
1631.870489254648
 21
308.8604605889973
 31
0.0
  0
LINE
  5
12E9
330
128B
100
AcDbEntity
  8
0
 62
     0
370
    -2
100
AcDbLine
 10
1733.370489254648
 20
307.6104605889973
 30
0.0
 11
1634.370489254648
 21
307.6104605889973
 31
0.0
  0
INSERT
  5
12EA
330
128B
100
AcDbEntity
  8
0
 62
     0
370
    -2
100
AcDbBlockReference
  2
_Open30
 10
1735.870489254648
 20
307.6104605889973
 30
0.0
 41
2.5
 42
2.5
 43
2.5
  0
INSERT
  5
12EB
330
128B
100
AcDbEntity
  8
0
 62
     0
370
    -2
100
AcDbBlockReference
  2
_Open30
 10
1631.870489254648
 20
307.6104605889973
 30
0.0
 41
2.5
 42
2.5
 43
2.5
 50
180.0
  0
MTEXT
  5
12EC
330
128B
100
AcDbEntity
  8
0
 62
     4
100
AcDbMText
 10
1683.870489254648
 20
309.7354605889973
 30
0.0
 40
3.0
 41
0.0
 71
     5
 72
     1
  1
104{\H2.100000;\U+00B10.5}
 73
     1
 44
1.0
1001
ACAD
1000
MTEXTBEGIN
1070
    73
1070
     1
1070
    44
1040
1.0
1070
    74
1070
     0
1000
MTEXTEND
  0
POINT
  5
12ED
330
128B
100
AcDbEntity
  8
Defpoints
 62
     0
100
AcDbPoint
 10
1735.870489254648
 20
292.0086100154722
 30
0.0
  0
POINT
  5
12EE
330
128B
100
AcDbEntity
  8
Defpoints
 62
     0
100
AcDbPoint
 10
1631.870489254648
 20
292.0086100154722
 30
0.0
  0
POINT
  5
12EF
330
128B
100
AcDbEntity
  8
Defpoints
 62
     0
100
AcDbPoint
 10
1631.870489254648
 20
307.6104605889973
 30
0.0
  0
ENDBLK
  5
128D
330
128B
100
AcDbEntity
  8
0
100
AcDbBlockEnd
  0
BLOCK
  5
12A4
330
12A3
100
AcDbEntity
  8
0
100
AcDbBlockBegin
  2
*D6
 70
     1
 10
0.0
 20
0.0
 30
0.0
  3
*D6
  1

  0
LINE
  5
12F0
330
12A3
100
AcDbEntity
  8
0
 62
     0
370
    -2
100
AcDbLine
 10
1634.620489254648
 20
295.0086100154722
 30
0.0
 11
1620.070797017437
 21
295.0086100154722
 31
0.0
  0
LINE
  5
12F1
330
12A3
100
AcDbEntity
  8
0
 62
     0
370
    -2
100
AcDbLine
 10
1634.620489254648
 20
122.0086100154722
 30
0.0
 11
1620.070797017437
 21
122.0086100154722
 31
0.0
  0
LINE
  5
12F2
330
12A3
100
AcDbEntity
  8
0
 62
     0
370
    -2
100
AcDbLine
 10
1621.320797017436
 20
292.5086100154722
 30
0.0
 11
1621.320797017436
 21
124.5086100154722
 31
0.0
  0
INSERT
  5
12F3
330
12A3
100
AcDbEntity
  8
0
 62
     0
370
    -2
100
AcDbBlockReference
  2
_Open30
 10
1621.320797017436
 20
295.0086100154722
 30
0.0
 41
2.5
 42
2.5
 43
2.5
 50
90.0
  0
INSERT
  5
12F4
330
12A3
100
AcDbEntity
  8
0
 62
     0
370
    -2
100
AcDbBlockReference
  2
_Open30
 10
1621.320797017436
 20
122.0086100154722
 30
0.0
 41
2.5
 42
2.5
 43
2.5
 50
270.0
  0
MTEXT
  5
12F5
330
12A3
100
AcDbEntity
  8
0
 62
     4
100
AcDbMText
 10
1619.195797017437
 20
208.5086100154722
 30
0.0
 40
3.0
 41
0.0
 71
     5
 72
     1
  1
173{\H2.100000;\U+00B10.5}
 11
0.0000000000000001
 21
1.0
 31
0.0
 73
     1
 44
1.0
1001
ACAD
1000
MTEXTBEGIN
1070
    73
1070
     1
1070
    44
1040
1.0
1070
    74
1070
     0
1000
MTEXTEND
  0
POINT
  5
12F6
330
12A3
100
AcDbEntity
  8
Defpoints
 62
     0
100
AcDbPoint
 10
1634.870489254648
 20
295.0086100154722
 30
0.0
  0
POINT
  5
12F7
330
12A3
100
AcDbEntity
  8
Defpoints
 62
     0
100
AcDbPoint
 10
1634.870489254648
 20
122.0086100154722
 30
0.0
  0
POINT
  5
12F8
330
12A3
100
AcDbEntity
  8
Defpoints
 62
     0
100
AcDbPoint
 10
1621.320797017436
 20
122.0086100154722
 30
0.0
  0
ENDBLK
  5
12A5
330
12A3
100
AcDbEntity
  8
0
100
AcDbBlockEnd
  0
BLOCK
  5
1301
330
1300
100
AcDbEntity
  8
0
100
AcDbBlockBegin
  2
*D7
 70
     1
 10
0.0
 20
0.0
 30
0.0
  3
*D7
  1

  0
LINE
  5
1326
330
1300
100
AcDbEntity
  8
0
 62
     0
370
    -2
100
AcDbLine
 10
1762.44714622341
 20
295.2586100154722
 30
0.0
 11
1762.44714622341
 21
309.012241444324
 31
0.0
  0
LINE
  5
1327
330
1300
100
AcDbEntity
  8
0
 62
     0
370
    -2
100
AcDbLine
 10
1759.447146223411
 20
295.2586100154722
 30
0.0
 11
1759.447146223411
 21
309.012241444324
 31
0.0
  0
LINE
  5
1328
330
1300
100
AcDbEntity
  8
0
 62
     0
370
    -2
100
AcDbLine
 10
1764.94714622341
 20
307.762241444324
 30
0.0
 11
1767.44714622341
 21
307.762241444324
 31
0.0
  0
LINE
  5
1329
330
1300
100
AcDbEntity
  8
0
 62
     0
370
    -2
100
AcDbLine
 10
1756.94714622341
 20
307.762241444324
 30
0.0
 11
1745.19714622341
 21
307.762241444324
 31
0.0
  0
LINE
  5
132A
330
1300
100
AcDbEntity
  8
0
 62
     0
370
    -2
100
AcDbLine
 10
1762.44714622341
 20
307.762241444324
 30
0.0
 11
1759.447146223411
 21
307.762241444324
 31
0.0
  0
INSERT
  5
132B
330
1300
100
AcDbEntity
  8
0
 62
     0
370
    -2
100
AcDbBlockReference
  2
_Open30
 10
1762.44714622341
 20
307.762241444324
 30
0.0
 41
2.5
 42
2.5
 43
2.5
 50
180.0
  0
INSERT
  5
132C
330
1300
100
AcDbEntity
  8
0
 62
     0
370
    -2
100
AcDbBlockReference
  2
_Open30
 10
1759.447146223411
 20
307.762241444324
 30
0.0
 41
2.5
 42
2.5
 43
2.5
  0
MTEXT
  5
132D
330
1300
100
AcDbEntity
  8
0
 62
     4
100
AcDbMText
 10
1749.82214622341
 20
309.887241444324
 30
0.0
 40
3.0
 41
0.0
 71
     5
 72
     1
  1
t=3
 73
     1
 44
1.0
1001
ACAD
1000
MTEXTBEGIN
1070
    73
1070
     1
1070
    44
1040
1.0
1070
    74
1070
     0
1000
MTEXTEND
  0
POINT
  5
132E
330
1300
100
AcDbEntity
  8
Defpoints
 62
     0
100
AcDbPoint
 10
1762.44714622341
 20
295.0086100154722
 30
0.0
  0
POINT
  5
132F
330
1300
100
AcDbEntity
  8
Defpoints
 62
     0
100
AcDbPoint
 10
1759.447146223411
 20
295.0086100154722
 30
0.0
  0
POINT
  5
1330
330
1300
100
AcDbEntity
  8
Defpoints
 62
     0
100
AcDbPoint
 10
1759.447146223411
 20
307.762241444324
 30
0.0
  0
ENDBLK
  5
1302
330
1300
100
AcDbEntity
  8
0
100
AcDbBlockEnd
  0
ENDSEC
  0
SECTION
  2
ENTITIES
  0
LINE
  5
11A8
330
1F
100
AcDbEntity
  8
0
 62
     3
100
AcDbLine
 10
1732.870489254648
 20
295.0086100154722
 30
0.0
 11
1634.870489254648
 21
295.0086100154722
 31
0.0
  0
LINE
  5
11A9
330
1F
100
AcDbEntity
  8
0
 62
     3
100
AcDbLine
 10
1732.870489254648
 20
122.0086100154722
 30
0.0
 11
1634.870489254648
 21
122.0086100154722
 31
0.0
  0
LINE
  5
11AA
330
1F
100
AcDbEntity
  8
0
 62
     3
100
AcDbLine
 10
1631.870489254648
 20
292.0086100154722
 30
0.0
 11
1631.870489254648
 21
125.0086100154722
 31
0.0
  0
LINE
  5
11AB
330
1F
100
AcDbEntity
  8
0
 62
     3
100
AcDbLine
 10
1735.870489254648
 20
292.0086100154722
 30
0.0
 11
1735.870489254648
 21
125.0086100154722
 31
0.0
  0
LINE
  5
1286
330
1F
100
AcDbEntity
  8
0
 62
     3
100
AcDbLine
 10
1735.870489254648
 20
292.0086100154722
 30
0.0
 11
1732.870489254648
 21
295.0086100154722
 31
0.0
  0
LINE
  5
1287
330
1F
100
AcDbEntity
  8
0
 62
     3
100
AcDbLine
 10
1634.870489254648
 20
295.0086100154722
 30
0.0
 11
1631.870489254648
 21
292.0086100154722
 31
0.0
  0
LINE
  5
1288
330
1F
100
AcDbEntity
  8
0
 62
     3
100
AcDbLine
 10
1735.870489254648
 20
125.0086100154722
 30
0.0
 11
1732.870489254648
 21
122.0086100154722
 31
0.0
  0
LINE
  5
1289
330
1F
100
AcDbEntity
  8
0
 62
     3
100
AcDbLine
 10
1634.870489254648
 20
122.0086100154722
 30
0.0
 11
1631.870489254648
 21
125.0086100154721
 31
0.0
  0
LINE
  5
12F9
330
1F
100
AcDbEntity
  8
0
 62
     3
100
AcDbLine
 10
1762.44714622341
 20
295.0086100154722
 30
0.0
 11
1759.447146223411
 21
295.0086100154722
 31
0.0
  0
LINE
  5
12FA
330
1F
100
AcDbEntity
  8
0
 62
     3
100
AcDbLine
 10
1762.44714622341
 20
122.0086100154722
 30
0.0
 11
1759.447146223411
 21
122.0086100154722
 31
0.0
  0
LINE
  5
12FB
330
1F
100
AcDbEntity
  8
0
 62
     3
100
AcDbLine
 10
1759.447146223411
 20
295.0086100154722
 30
0.0
 11
1759.447146223411
 21
122.0086100154722
 31
0.0
  0
LINE
  5
12FC
330
1F
100
AcDbEntity
  8
0
 62
     3
100
AcDbLine
 10
1762.44714622341
 20
295.0086100154722
 30
0.0
 11
1762.44714622341
 21
122.0086100154722
 31
0.0
  0
LINE
  5
12FD
330
1F
100
AcDbEntity
  8
0
 62
     3
100
AcDbLine
 10
1762.44714622341
 20
292.0086100154722
 30
0.0
 11
1759.447146223411
 21
292.0086100154722
 31
0.0
  0
LINE
  5
12FE
330
1F
100
AcDbEntity
  8
0
 62
     3
100
AcDbLine
 10
1762.44714622341
 20
125.0086100154722
 30
0.0
 11
1759.447146223411
 21
125.0086100154722
 31
0.0
  0
LINE
  5
1331
330
1F
100
AcDbEntity
  8
0
 62
     3
100
AcDbLine
 10
1592.977063773453
 20
206.4330490108639
 30
0.0
 11
1592.489136943453
 21
206.4330490108639
 31
0.0
  0
LINE
  5
1332
330
1F
100
AcDbEntity
  8
0
 62
     3
100
AcDbLine
 10
1604.489136943453
 20
344.9330490108639
 30
0.0
 11
1604.489136943453
 21
67.9330490108639
 31
0.0
  0
LINE
  5
1334
330
1F
100
AcDbEntity
  8
0
 62
     3
100
AcDbLine
 10
1784.489136943453
 20
67.9330490108639
 30
0.0
 11
1784.489136943453
 21
344.9330490108639
 31
0.0
  0
LINE
  5
1335
330
1F
100
AcDbEntity
  8
0
 62
     3
100
AcDbLine
 10
1604.489136943453
 20
67.9330490108639
 30
0.0
 11
1784.489136943453
 21
67.9330490108639
 31
0.0
  0
LINE
  5
1336
330
1F
100
AcDbEntity
  8
0
 62
     3
100
AcDbLine
 10
1641.573488963453
 20
346.7204931108639
 30
0.0
 11
1642.009236873454
 21
346.4930249708639
 31
0.0
  0
LINE
  5
1337
330
1F
100
AcDbEntity
  8
0
 62
     3
100
AcDbLine
 10
1641.573488963453
 20
342.9898626308639
 30
0.0
 11
1642.009236873454
 21
343.2173307708639
 31
0.0
  0
LINE
  5
1338
330
1F
100
AcDbEntity
  8
0
 62
     3
100
AcDbLine
 10
1642.009236873454
 20
346.4930249708639
 30
0.0
 11
1642.009236873454
 21
343.2173307708639
 31
0.0
  0
LINE
  5
1339
330
1F
100
AcDbEntity
  8
0
 62
     3
100
AcDbLine
 10
1643.112754293454
 20
342.9898626308639
 30
0.0
 11
1642.677006383453
 21
343.2173307708639
 31
0.0
  0
LINE
  5
133A
330
1F
100
AcDbEntity
  8
0
 62
     3
100
AcDbLine
 10
1642.677006383453
 20
345.2141895808639
 30
0.0
 11
1642.677006383453
 21
343.2173307708639
 31
0.0
  0
LINE
  5
133B
330
1F
100
AcDbEntity
  8
0
 62
     3
100
AcDbLine
 10
1645.654617073453
 20
346.7204931108639
 30
0.0
 11
1645.218869163453
 21
346.4930249708639
 31
0.0
  0
LINE
  5
133C
330
1F
100
AcDbEntity
  8
0
 62
     3
100
AcDbLine
 10
1644.115351743453
 20
346.7204931108639
 30
0.0
 11
1644.551099653454
 21
346.4930249708639
 31
0.0
  0
LINE
  5
133D
330
1F
100
AcDbEntity
  8
0
 62
     3
100
AcDbLine
 10
1644.551099653454
 20
346.4930249708639
 30
0.0
 11
1644.551099653454
 21
345.0506879108639
 31
0.0
  0
LINE
  5
133E
330
1F
100
AcDbEntity
  8
0
 62
     3
100
AcDbLine
 10
1645.218869163453
 20
346.4930249708639
 30
0.0
 11
1645.218869163453
 21
342.7783014908639
 31
0.0
  0
LINE
  5
133F
330
1F
100
AcDbEntity
  8
0
 62
     3
100
AcDbLine
 10
1645.869914273453
 20
346.7204904808639
 30
0.0
 11
1646.305660613453
 21
346.4930193408639
 31
0.0
  0
LINE
  5
1340
330
1F
100
AcDbEntity
  8
0
 62
     3
100
AcDbLine
 10
1645.869836303453
 20
342.9899126108639
 30
0.0
 11
1646.305592153454
 21
343.2173655308639
 31
0.0
  0
LINE
  5
1341
330
1F
100
AcDbEntity
  8
0
 62
     3
100
AcDbLine
 10
1646.305660613453
 20
346.4930193408639
 30
0.0
 11
1646.305660613453
 21
343.2173655308639
 31
0.0
  0
LINE
  5
1342
330
1F
100
AcDbEntity
  8
0
 62
     3
100
AcDbLine
 10
1647.799450673453
 20
346.7204668108639
 30
0.0
 11
1647.363699583453
 21
346.4930047808639
 31
0.0
  0
LINE
  5
1343
330
1F
100
AcDbEntity
  8
0
 62
     3
100
AcDbLine
 10
1647.363699583453
 20
346.4930047808639
 30
0.0
 11
1647.363699583453
 21
343.2173509608639
 31
0.0
  0
LINE
  5
1344
330
1F
100
AcDbEntity
  8
0
 62
     3
100
AcDbLine
 10
1647.799450673453
 20
342.9898889308639
 30
0.0
 11
1647.363699583453
 21
343.2173509608639
 31
0.0
  0
LINE
  5
1345
330
1F
100
AcDbEntity
  8
0
 62
     3
100
AcDbLine
 10
1651.489704113453
 20
346.7204258108639
 30
0.0
 11
1651.925451233453
 21
346.4929561708639
 31
0.0
  0
LINE
  5
1346
330
1F
100
AcDbEntity
  8
0
 62
     3
100
AcDbLine
 10
1651.925451233453
 20
346.4929561708639
 30
0.0
 11
1651.925394063453
 21
343.2173023608639
 31
0.0
  0
LINE
  5
1347
330
1F
100
AcDbEntity
  8
0
 62
     3
100
AcDbLine
 10
1651.489639003453
 20
342.9898479308639
 30
0.0
 11
1651.925394063453
 21
343.2173023608639
 31
0.0
  0
LINE
  5
1348
330
1F
100
AcDbEntity
  8
0
 62
     3
100
AcDbLine
 10
1653.441965073453
 20
346.7204258108639
 30
0.0
 11
1653.006217953453
 21
346.4929561708639
 31
0.0
  0
LINE
  5
1349
330
1F
100
AcDbEntity
  8
0
 62
     3
100
AcDbLine
 10
1653.442030183453
 20
342.9898479308639
 30
0.0
 11
1653.006275123453
 21
343.2173023608639
 31
0.0
  0
LINE
  5
134A
330
1F
100
AcDbEntity
  8
0
 62
     3
100
AcDbLine
 10
1653.645692933453
 20
346.7204258108639
 30
0.0
 11
1654.081440063453
 21
346.4929561708639
 31
0.0
  0
LINE
  5
134B
330
1F
100
AcDbEntity
  8
0
 62
     3
100
AcDbLine
 10
1653.645627823453
 20
342.9898479308639
 30
0.0
 11
1654.081382883453
 21
343.2173023608639
 31
0.0
  0
LINE
  5
134C
330
1F
100
AcDbEntity
  8
0
 62
     3
100
AcDbLine
 10
1655.597953903453
 20
346.7204258108639
 30
0.0
 11
1655.162206783453
 21
346.4929561708639
 31
0.0
  0
LINE
  5
134D
330
1F
100
AcDbEntity
  8
0
 62
     3
100
AcDbLine
 10
1655.162206783453
 20
346.4929561708639
 30
0.0
 11
1655.162263953453
 21
343.2173023608639
 31
0.0
  0
LINE
  5
134E
330
1F
100
AcDbEntity
  8
0
 62
     3
100
AcDbLine
 10
1655.598019013453
 20
342.9898479308639
 30
0.0
 11
1655.162263953453
 21
343.2173023608639
 31
0.0
  0
LINE
  5
134F
330
1F
100
AcDbEntity
  8
0
 62
     3
100
AcDbLine
 10
1654.081415153453
 20
345.0658230508639
 30
0.0
 11
1653.006242863454
 21
345.0658230508639
 31
0.0
  0
LINE
  5
1350
330
1F
100
AcDbEntity
  8
0
 62
     3
100
AcDbLine
 10
1654.081407793453
 20
344.6445326908639
 30
0.0
 11
1653.006250213453
 21
344.6445326908639
 31
0.0
  0
LINE
  5
1351
330
1F
100
AcDbEntity
  8
0
 62
     3
100
AcDbLine
 10
1654.081440063453
 20
346.4929561708639
 30
0.0
 11
1654.081415153453
 21
345.0658230508639
 31
0.0
  0
LINE
  5
1352
330
1F
100
AcDbEntity
  8
0
 62
     3
100
AcDbLine
 10
1654.081407793453
 20
344.6445326908639
 30
0.0
 11
1654.081382883453
 21
343.2173023608639
 31
0.0
  0
LINE
  5
1353
330
1F
100
AcDbEntity
  8
0
 62
     3
100
AcDbLine
 10
1653.006217953453
 20
346.4929561708639
 30
0.0
 11
1653.006242863454
 21
345.0658230508639
 31
0.0
  0
LINE
  5
1354
330
1F
100
AcDbEntity
  8
0
 62
     3
100
AcDbLine
 10
1653.006250213453
 20
344.6445326908639
 30
0.0
 11
1653.006275123453
 21
343.2173023608639
 31
0.0
  0
LINE
  5
1355
330
1F
100
AcDbEntity
  8
0
 62
     3
100
AcDbLine
 10
1655.804913023454
 20
346.7204258108639
 30
0.0
 11
1656.240660143453
 21
346.4929561708639
 31
0.0
  0
LINE
  5
1356
330
1F
100
AcDbEntity
  8
0
 62
     3
100
AcDbLine
 10
1656.240660143453
 20
346.4929561708639
 30
0.0
 11
1656.240602973453
 21
343.2173023608639
 31
0.0
  0
LINE
  5
1357
330
1F
100
AcDbEntity
  8
0
 62
     3
100
AcDbLine
 10
1655.804847913453
 20
342.9898479308639
 30
0.0
 11
1656.240602973453
 21
343.2173023608639
 31
0.0
  0
LINE
  5
1358
330
1F
100
AcDbEntity
  8
0
 62
     3
100
AcDbLine
 10
1657.734423293453
 20
346.7204258108639
 30
0.0
 11
1657.298676173453
 21
346.4929561708639
 31
0.0
  0
LINE
  5
1359
330
1F
100
AcDbEntity
  8
0
 62
     3
100
AcDbLine
 10
1657.298676173453
 20
346.4929561708639
 30
0.0
 11
1657.298733343453
 21
343.2173023608639
 31
0.0
  0
LINE
  5
135A
330
1F
100
AcDbEntity
  8
0
 62
     3
100
AcDbLine
 10
1657.734488403453
 20
342.9898479308639
 30
0.0
 11
1657.298733343453
 21
343.2173023608639
 31
0.0
  0
LINE
  5
135B
330
1F
100
AcDbEntity
  8
0
 62
     3
100
AcDbLine
 10
1657.948782863453
 20
346.7204258108639
 30
0.0
 11
1658.384529983453
 21
346.4929561708639
 31
0.0
  0
LINE
  5
135C
330
1F
100
AcDbEntity
  8
0
 62
     3
100
AcDbLine
 10
1658.384529983453
 20
346.4929561708639
 30
0.0
 11
1658.384472813453
 21
343.2173023608639
 31
0.0
  0
LINE
  5
135D
330
1F
100
AcDbEntity
  8
0
 62
     3
100
AcDbLine
 10
1657.948717753453
 20
342.9898479308639
 30
0.0
 11
1658.384472813453
 21
343.2173023608639
 31
0.0
  0
ARC
  5
135E
330
1F
100
AcDbEntity
  8
0
 62
     3
100
AcDbCircle
 10
1650.097792843453
 20
344.8645676308639
 30
0.0
 40
2.086285909999999
100
AcDbArc
 50
97.70152350999723
 51
270.0
  0
ARC
  5
135F
330
1F
100
AcDbEntity
  8
0
 62
     3
100
AcDbCircle
 10
1662.978393683453
 20
344.8436110008639
 30
0.0
 40
2.108943379999999
100
AcDbArc
 50
0.314250269999259
 51
69.00558244998912
  0
ARC
  5
1360
330
1F
100
AcDbEntity
  8
0
 62
     3
100
AcDbCircle
 10
1663.439069003453
 20
344.8436110008639
 30
0.0
 40
2.108943379999999
100
AcDbArc
 50
110.9944175499969
 51
148.1166110200049
  0
ARC
  5
1361
330
1F
100
AcDbEntity
  8
0
 62
     3
100
AcDbCircle
 10
1662.978393683453
 20
344.8667447408639
 30
0.0
 40
2.108943379999999
100
AcDbArc
 50
290.9944175499969
 51
359.6857497300007
  0
ARC
  5
1362
330
1F
100
AcDbEntity
  8
0
 62
     3
100
AcDbCircle
 10
1663.439069003453
 20
344.8667447408639
 30
0.0
 40
2.108943379999999
100
AcDbArc
 50
211.8833889799944
 51
249.0055824499891
  0
ARC
  5
1363
330
1F
100
AcDbEntity
  8
0
 62
     3
100
AcDbCircle
 10
1663.208731343453
 20
345.7179832608639
 30
0.0
 40
1.214070989999999
100
AcDbArc
 50
64.3651718999996
 51
115.6348281000004
  0
ARC
  5
1364
330
1F
100
AcDbEntity
  8
0
 62
     3
100
AcDbCircle
 10
1663.208731343453
 20
343.9923724808639
 30
0.0
 40
1.214070989999999
100
AcDbArc
 50
244.3651718999996
 51
295.6348281000004
  0
ARC
  5
1365
330
1F
100
AcDbEntity
  8
0
 62
     3
100
AcDbCircle
 10
1663.208731343453
 20
345.7410449408639
 30
0.0
 40
0.59585563
100
AcDbArc
 50
19.48660554000516
 51
160.5133944599948
  0
ARC
  5
1366
330
1F
100
AcDbEntity
  8
0
 62
     3
100
AcDbCircle
 10
1663.208731343453
 20
343.9923724808639
 30
0.0
 40
1.214070989999999
100
AcDbArc
 50
244.3651718999996
 51
295.6348281000004
  0
ARC
  5
1367
330
1F
100
AcDbEntity
  8
0
 62
     3
100
AcDbCircle
 10
1663.208731343453
 20
343.9693108008639
 30
0.0
 40
0.59585563
100
AcDbArc
 50
199.4866055400051
 51
340.5133944599949
  0
ARC
  5
1368
330
1F
100
AcDbEntity
  8
0
 62
     3
100
AcDbCircle
 10
1658.466258843453
 20
322.6271180308639
 30
0.0
 40
26.04
100
AcDbArc
 50
69.50571480000848
 51
81.6899880699974
  0
ARC
  5
1369
330
1F
100
AcDbEntity
  8
0
 62
     3
100
AcDbCircle
 10
1658.466258843453
 20
367.0832377108639
 30
0.0
 40
26.04
100
AcDbArc
 50
278.3100119300026
 51
290.4942851999915
  0
ARC
  5
136A
330
1F
100
AcDbEntity
  8
0
 62
     3
100
AcDbCircle
 10
1666.774462973453
 20
344.8551778708639
 30
0.0
 40
2.31
100
AcDbArc
 50
290.4942851999915
 51
69.50571480000848
  0
ARC
  5
136B
330
1F
100
AcDbEntity
  8
0
 62
     3
100
AcDbCircle
 10
1639.474462973453
 20
344.8551778708639
 30
0.0
 40
2.31
100
AcDbArc
 50
110.4942851999915
 51
249.5057147999946
  0
ARC
  5
136C
330
1F
100
AcDbEntity
  8
0
 62
     3
100
AcDbCircle
 10
1647.782667093453
 20
322.6271180308639
 30
0.0
 40
26.04
100
AcDbArc
 50
98.31001192998947
 51
110.4942851999915
  0
ARC
  5
136D
330
1F
100
AcDbEntity
  8
0
 62
     3
100
AcDbCircle
 10
1647.782667093453
 20
367.0832377108639
 30
0.0
 40
26.04
100
AcDbArc
 50
249.5057147999946
 51
261.6899880699974
  0
ARC
  5
136E
330
1F
100
AcDbEntity
  8
0
 62
     3
100
AcDbCircle
 10
1653.124462973453
 20
286.0551778708639
 30
0.0
 40
62.99999987
100
AcDbArc
 50
81.6899880699974
 51
98.31001192998947
  0
ARC
  5
136F
330
1F
100
AcDbEntity
  8
0
 62
     3
100
AcDbCircle
 10
1653.124462973453
 20
403.6551778708639
 30
0.0
 40
62.99999987
100
AcDbArc
 50
261.6899880699974
 51
278.3100119300026
  0
ARC
  5
1370
330
1F
100
AcDbEntity
  8
0
 62
     3
100
AcDbCircle
 10
1653.124462973453
 20
286.0551778708639
 30
0.0
 40
62.36999987
100
AcDbArc
 50
81.6899880699974
 51
98.31001192998947
  0
ARC
  5
1371
330
1F
100
AcDbEntity
  8
0
 62
     3
100
AcDbCircle
 10
1653.124462973453
 20
403.6551778708639
 30
0.0
 40
62.36999987
100
AcDbArc
 50
261.6899880699974
 51
278.3100119300026
  0
ARC
  5
1372
330
1F
100
AcDbEntity
  8
0
 62
     3
100
AcDbCircle
 10
1658.466258843453
 20
367.0832377108639
 30
0.0
 40
25.41
100
AcDbArc
 50
278.3100119300026
 51
290.4942851999915
  0
ARC
  5
1373
330
1F
100
AcDbEntity
  8
0
 62
     3
100
AcDbCircle
 10
1658.466258843453
 20
322.6271180308639
 30
0.0
 40
25.41
100
AcDbArc
 50
69.50571480000848
 51
81.6899880699974
  0
ARC
  5
1374
330
1F
100
AcDbEntity
  8
0
 62
     3
100
AcDbCircle
 10
1666.774462973453
 20
344.8551778708639
 30
0.0
 40
1.679999999999999
100
AcDbArc
 50
290.4942851999915
 51
69.50571480000848
  0
ARC
  5
1375
330
1F
100
AcDbEntity
  8
0
 62
     3
100
AcDbCircle
 10
1639.474462973453
 20
344.8551778708639
 30
0.0
 40
1.679999999999999
100
AcDbArc
 50
110.4942851999915
 51
249.5057147999946
  0
ARC
  5
1376
330
1F
100
AcDbEntity
  8
0
 62
     3
100
AcDbCircle
 10
1647.782667093453
 20
322.6271180308639
 30
0.0
 40
25.41
100
AcDbArc
 50
98.31001192998947
 51
110.4942851999915
  0
ARC
  5
1377
330
1F
100
AcDbEntity
  8
0
 62
     3
100
AcDbCircle
 10
1647.782667093453
 20
367.0832377108639
 30
0.0
 40
25.41
100
AcDbArc
 50
249.5057147999946
 51
261.6899880699974
  0
LINE
  5
1378
330
1F
100
AcDbEntity
  8
0
 62
     3
100
AcDbLine
 10
1657.734424073453
 20
342.7783014908639
 30
0.0
 11
1655.804912243453
 21
342.7783014908639
 31
0.0
  0
LINE
  5
1379
330
1F
100
AcDbEntity
  8
0
 62
     3
100
AcDbLine
 10
1657.734424073453
 20
342.9898626308639
 30
0.0
 11
1657.734424073453
 21
342.7783014908639
 31
0.0
  0
LINE
  5
137A
330
1F
100
AcDbEntity
  8
0
 62
     3
100
AcDbLine
 10
1655.597954683453
 20
346.9319555308639
 30
0.0
 11
1653.645692153453
 21
346.9319555308639
 31
0.0
  0
LINE
  5
137B
330
1F
100
AcDbEntity
  8
0
 62
     3
100
AcDbLine
 10
1655.597954683453
 20
346.9319555308639
 30
0.0
 11
1655.597954683453
 21
346.7204931108639
 31
0.0
  0
LINE
  5
137C
330
1F
100
AcDbEntity
  8
0
 62
     3
100
AcDbLine
 10
1655.597954683453
 20
342.9898626308639
 30
0.0
 11
1655.597954683453
 21
342.7782027808639
 31
0.0
  0
LINE
  5
137D
330
1F
100
AcDbEntity
  8
0
 62
     3
100
AcDbLine
 10
1655.597954683453
 20
342.7782027808639
 30
0.0
 11
1653.645692153453
 21
342.7782027808639
 31
0.0
  0
LINE
  5
137E
330
1F
100
AcDbEntity
  8
0
 62
     3
100
AcDbLine
 10
1657.734424073453
 20
346.9320542508639
 30
0.0
 11
1657.734424073453
 21
346.7204931108639
 31
0.0
  0
LINE
  5
137F
330
1F
100
AcDbEntity
  8
0
 62
     3
100
AcDbLine
 10
1657.734424073453
 20
346.9320542508639
 30
0.0
 11
1655.804912243453
 21
346.9320542508639
 31
0.0
  0
LINE
  5
1380
330
1F
100
AcDbEntity
  8
0
 62
     3
100
AcDbLine
 10
1655.804912243453
 20
346.9320542508639
 30
0.0
 11
1655.804912243453
 21
346.7204931108639
 31
0.0
  0
LINE
  5
1381
330
1F
100
AcDbEntity
  8
0
 62
     3
100
AcDbLine
 10
1657.948782073453
 20
342.9898626308639
 30
0.0
 11
1657.948782073453
 21
342.7783014908639
 31
0.0
  0
LINE
  5
1382
330
1F
100
AcDbEntity
  8
0
 62
     3
100
AcDbLine
 10
1659.933082633453
 20
342.7783014908639
 30
0.0
 11
1657.948782073453
 21
342.7783014908639
 31
0.0
  0
LINE
  5
1383
330
1F
100
AcDbEntity
  8
0
 62
     3
100
AcDbLine
 10
1659.442546003453
 20
346.2642847308639
 30
0.0
 11
1659.442546003453
 21
343.4460710108639
 31
0.0
  0
LINE
  5
1384
330
1F
100
AcDbEntity
  8
0
 62
     3
100
AcDbLine
 10
1659.442546003453
 20
343.4460710108639
 30
0.0
 11
1659.632594973453
 21
343.4460710108639
 31
0.0
  0
ARC
  5
1385
330
1F
100
AcDbEntity
  8
0
 62
     3
100
AcDbCircle
 10
1658.660809233453
 20
344.8551778708639
 30
0.0
 40
1.71170957
100
AcDbArc
 50
304.5919552700023
 51
55.4080447299977
  0
LINE
  5
1386
330
1F
100
AcDbEntity
  8
0
 62
     3
100
AcDbLine
 10
1659.933082633453
 20
346.9320542508639
 30
0.0
 11
1657.948782073453
 21
346.9320542508639
 31
0.0
  0
LINE
  5
1387
330
1F
100
AcDbEntity
  8
0
 62
     3
100
AcDbLine
 10
1657.948782073453
 20
346.9320542508639
 30
0.0
 11
1657.948782073453
 21
346.7204931108639
 31
0.0
  0
LINE
  5
1388
330
1F
100
AcDbEntity
  8
0
 62
     3
100
AcDbLine
 10
1655.804912243453
 20
342.9898626308639
 30
0.0
 11
1655.804912243453
 21
342.7783014908639
 31
0.0
  0
LINE
  5
1389
330
1F
100
AcDbEntity
  8
0
 62
     3
100
AcDbLine
 10
1659.442546003453
 20
346.2642847308639
 30
0.0
 11
1659.632594973453
 21
346.2642847308639
 31
0.0
  0
LINE
  5
138A
330
1F
100
AcDbEntity
  8
0
 62
     3
100
AcDbLine
 10
1647.799386343453
 20
342.9898626308639
 30
0.0
 11
1647.799382653454
 21
342.7782817208639
 31
0.0
  0
LINE
  5
138B
330
1F
100
AcDbEntity
  8
0
 62
     3
100
AcDbLine
 10
1645.869870813453
 20
342.7783212608639
 30
0.0
 11
1647.799382653454
 21
342.7782875908639
 31
0.0
  0
LINE
  5
138C
330
1F
100
AcDbEntity
  8
0
 62
     3
100
AcDbLine
 10
1641.573488963453
 20
342.7783014908639
 30
0.0
 11
1643.112754293454
 21
342.7783014908639
 31
0.0
  0
ARC
  5
138D
330
1F
100
AcDbEntity
  8
0
 62
     3
100
AcDbCircle
 10
1636.591546283453
 20
344.9040844908639
 30
0.0
 40
14.71356563
100
AcDbArc
 50
353.8660061899983
 51
357.6940342600001
  0
LINE
  5
138E
330
1F
100
AcDbEntity
  8
0
 62
     3
100
AcDbLine
 10
1650.308126143453
 20
344.3157168408639
 30
0.0
 11
1651.293197033453
 21
344.3120719608639
 31
0.0
  0
LINE
  5
1390
330
1F
100
AcDbEntity
  8
0
 62
     3
100
AcDbLine
 10
1650.312104563453
 20
345.390931580864
 30
0.0
 11
1651.297175443453
 21
345.3872867108639
 31
0.0
  0
ARC
  5
1391
330
1F
100
AcDbEntity
  8
0
 62
     3
100
AcDbCircle
 10
1636.591546283453
 20
344.9040844908639
 30
0.0
 40
14.71356563
100
AcDbArc
 50
1.881965739998759
 51
5.709993809998117
  0
LINE
  5
1392
330
1F
100
AcDbEntity
  8
0
 62
     3
100
AcDbLine
 10
1647.799455143453
 20
346.9320344808639
 30
0.0
 11
1647.799451453454
 21
346.7204931108639
 31
0.0
  0
LINE
  5
1393
330
1F
100
AcDbEntity
  8
0
 62
     3
100
AcDbLine
 10
1645.869943313453
 20
346.9320740208639
 30
0.0
 11
1647.799455143453
 21
346.9320403408639
 31
0.0
  0
LINE
  5
1394
330
1F
100
AcDbEntity
  8
0
 62
     3
100
AcDbLine
 10
1645.869874503453
 20
342.9898626308639
 30
0.0
 11
1645.869870813453
 21
342.7783212608639
 31
0.0
  0
LINE
  5
1395
330
1F
100
AcDbEntity
  8
0
 62
     3
100
AcDbLine
 10
1645.869943313453
 20
346.9320740208639
 30
0.0
 11
1645.869939623453
 21
346.7204931108639
 31
0.0
  0
LINE
  5
1396
330
1F
100
AcDbEntity
  8
0
 62
     3
100
AcDbLine
 10
1643.112754293454
 20
342.9898626308639
 30
0.0
 11
1643.112754293454
 21
342.7783014908639
 31
0.0
  0
LINE
  5
1397
330
1F
100
AcDbEntity
  8
0
 62
     3
100
AcDbLine
 10
1642.677006383453
 20
345.2141895808639
 30
0.0
 11
1644.199436443453
 21
342.7783014908639
 31
0.0
  0
LINE
  5
1398
330
1F
100
AcDbEntity
  8
0
 62
     3
100
AcDbLine
 10
1644.199436443453
 20
342.7783014908639
 30
0.0
 11
1645.218869163453
 21
342.7783014908639
 31
0.0
  0
LINE
  5
1399
330
1F
100
AcDbEntity
  8
0
 62
     3
100
AcDbLine
 10
1645.654617073453
 20
346.9320542508639
 30
0.0
 11
1645.654617073453
 21
346.7204931108639
 31
0.0
  0
LINE
  5
139A
330
1F
100
AcDbEntity
  8
0
 62
     3
100
AcDbLine
 10
1644.115351743453
 20
346.9320542508639
 30
0.0
 11
1645.654617073453
 21
346.9320542508639
 31
0.0
  0
LINE
  5
139B
330
1F
100
AcDbEntity
  8
0
 62
     3
100
AcDbLine
 10
1644.115351743453
 20
346.9320542508639
 30
0.0
 11
1644.115351743453
 21
346.7204931108639
 31
0.0
  0
LINE
  5
139C
330
1F
100
AcDbEntity
  8
0
 62
     3
100
AcDbLine
 10
1644.551099653454
 20
345.0506879108639
 30
0.0
 11
1643.316452983453
 21
346.9320542508639
 31
0.0
  0
LINE
  5
139D
330
1F
100
AcDbEntity
  8
0
 62
     3
100
AcDbLine
 10
1641.573488963453
 20
346.9320542508639
 30
0.0
 11
1643.316452983453
 21
346.9320542508639
 31
0.0
  0
LINE
  5
139E
330
1F
100
AcDbEntity
  8
0
 62
     3
100
AcDbLine
 10
1651.489703323453
 20
346.9319555308639
 30
0.0
 11
1653.441965863453
 21
346.9319555308639
 31
0.0
  0
LINE
  5
139F
330
1F
100
AcDbEntity
  8
0
 62
     3
100
AcDbLine
 10
1651.489703323453
 20
346.7204931108639
 30
0.0
 11
1651.489703323453
 21
346.9319555308639
 31
0.0
  0
LINE
  5
13A0
330
1F
100
AcDbEntity
  8
0
 62
     3
100
AcDbLine
 10
1651.489703323453
 20
342.7782027808639
 30
0.0
 11
1651.489703323453
 21
342.9898626308639
 31
0.0
  0
LINE
  5
13A1
330
1F
100
AcDbEntity
  8
0
 62
     3
100
AcDbLine
 10
1651.489703323453
 20
342.7782027808639
 30
0.0
 11
1653.441965863453
 21
342.7782027808639
 31
0.0
  0
LINE
  5
13A2
330
1F
100
AcDbEntity
  8
0
 62
     3
100
AcDbLine
 10
1653.645692153453
 20
342.9898626308639
 30
0.0
 11
1653.645692153453
 21
342.7782027808639
 31
0.0
  0
LINE
  5
13A3
330
1F
100
AcDbEntity
  8
0
 62
     3
100
AcDbLine
 10
1653.441965863453
 20
342.9898626308639
 30
0.0
 11
1653.441965863453
 21
342.7782027808639
 31
0.0
  0
LINE
  5
13A4
330
1F
100
AcDbEntity
  8
0
 62
     3
100
AcDbLine
 10
1653.441965863453
 20
346.7204931108639
 30
0.0
 11
1653.441965863453
 21
346.9319555308639
 31
0.0
  0
LINE
  5
13A5
330
1F
100
AcDbEntity
  8
0
 62
     3
100
AcDbLine
 10
1653.645692153453
 20
346.7204931108639
 30
0.0
 11
1653.645692153453
 21
346.9319555308639
 31
0.0
  0
LINE
  5
13A6
330
1F
100
AcDbEntity
  8
0
 62
     3
100
AcDbLine
 10
1641.573488963453
 20
342.9898626308639
 30
0.0
 11
1641.573488963453
 21
342.7783014908639
 31
0.0
  0
LINE
  5
13A7
330
1F
100
AcDbEntity
  8
0
 62
     3
100
AcDbLine
 10
1641.573488963453
 20
346.9320542508639
 30
0.0
 11
1641.573488963453
 21
346.7204931108639
 31
0.0
  0
ARC
  5
13A8
330
1F
100
AcDbEntity
  8
0
 62
     3
100
AcDbCircle
 10
1660.143082633453
 20
345.2909257808638
 30
0.0
 40
1.641128469999999
100
AcDbArc
 50
17.30874897999528
 51
23.76507095999446
  0
ARC
  5
13A9
330
1F
100
AcDbEntity
  8
0
 62
     3
100
AcDbCircle
 10
1658.744809233453
 20
344.8551778708639
 30
0.0
 40
3.105725599999999
100
AcDbArc
 50
342.6912510200047
 51
17.30856643999929
  0
ARC
  5
13AA
330
1F
100
AcDbEntity
  8
0
 62
     3
100
AcDbCircle
 10
1660.143082633453
 20
344.4194299708639
 30
0.0
 40
1.641128469999999
100
AcDbArc
 50
336.2349290400003
 51
342.6912510200047
  0
ARC
  5
13AB
330
1F
100
AcDbEntity
  8
0
 62
     3
100
AcDbCircle
 10
1659.933082633453
 20
345.2909257808638
 30
0.0
 40
1.641128469999999
100
AcDbArc
 50
17.30874897999528
 51
90.0
  0
ARC
  5
13AC
330
1F
100
AcDbEntity
  8
0
 62
     3
100
AcDbCircle
 10
1658.534809233453
 20
344.8551778708639
 30
0.0
 40
3.105725599999999
100
AcDbArc
 50
342.6912510200047
 51
17.30856643999929
  0
ARC
  5
13AD
330
1F
100
AcDbEntity
  8
0
 62
     3
100
AcDbCircle
 10
1659.933082633453
 20
344.4194299708639
 30
0.0
 40
1.641128469999999
100
AcDbArc
 50
270.0
 51
342.6912510200047
  0
ARC
  5
13AE
330
1F
100
AcDbEntity
  8
0
 62
     3
100
AcDbCircle
 10
1649.809142263453
 20
344.8551778708639
 30
0.0
 40
2.076876379999999
100
AcDbArc
 50
46.75287960999315
 51
89.74999828999569
  0
ARC
  5
13AF
330
1F
100
AcDbEntity
  8
0
 62
     3
100
AcDbCircle
 10
1649.809142263453
 20
344.8551778708639
 30
0.0
 40
2.076876379999999
100
AcDbArc
 50
273.976333149997
 51
312.8231203899985
  0
ARC
  5
13B0
330
1F
100
AcDbEntity
  8
0
 62
     3
100
AcDbCircle
 10
1661.250950203453
 20
344.8231163408639
 30
0.0
 40
2.755888999999999
100
AcDbArc
 50
0.6665840599997753
 51
23.90392827000176
  0
ARC
  5
13B1
330
1F
100
AcDbEntity
  8
0
 62
     3
100
AcDbCircle
 10
1665.166512483454
 20
344.8231163408639
 30
0.0
 40
2.755888999999999
100
AcDbArc
 50
156.0960717299982
 51
179.3334159400002
  0
ARC
  5
13B2
330
1F
100
AcDbEntity
  8
0
 62
     3
100
AcDbCircle
 10
1661.250950203453
 20
344.8872394008639
 30
0.0
 40
2.755888999999999
100
AcDbArc
 50
336.0960717299982
 51
359.3334159400003
  0
ARC
  5
13B3
330
1F
100
AcDbEntity
  8
0
 62
     3
100
AcDbCircle
 10
1665.166512483454
 20
344.8872394008639
 30
0.0
 40
2.755888999999999
100
AcDbArc
 50
180.6665840599997
 51
203.9039282700017
  0
LINE
  5
13B4
330
1F
100
AcDbEntity
  8
0
 62
     3
100
AcDbLine
 10
1669.816799573453
 20
344.9330490108639
 30
0.0
 11
1784.489136943453
 21
344.9330490108639
 31
0.0
  0
LINE
  5
13B6
330
1F
100
AcDbEntity
  8
0
 62
     3
100
AcDbLine
 10
1636.404053053453
 20
344.9330490108639
 30
0.0
 11
1604.489136943453
 21
344.9330490108639
 31
0.0
  0
LINE
  5
13B7
330
1F
100
AcDbEntity
  8
0
 62
     3
100
AcDbLine
 10
1732.489136943453
 20
67.9330490108639
 30
0.0
 11
1732.489136943453
 21
107.9330490108639
 31
0.0
  0
LINE
  5
13B8
330
1F
100
AcDbEntity
  8
0
 62
     3
100
AcDbLine
 10
1745.489136943453
 20
77.9330490108639
 30
0.0
 11
1745.489136943453
 21
105.9330490108639
 31
0.0
  0
LINE
  5
13B9
330
1F
100
AcDbEntity
  8
0
 62
     3
100
AcDbLine
 10
1705.489136943453
 20
77.9330490108639
 30
0.0
 11
1705.489136943453
 21
91.9330490108639
 31
0.0
  0
LINE
  5
13BA
330
1F
100
AcDbEntity
  8
0
 62
     3
100
AcDbLine
 10
1715.489136943453
 20
91.9330490108639
 30
0.0
 11
1715.489136943453
 21
67.9330490108639
 31
0.0
  0
LINE
  5
13BB
330
1F
100
AcDbEntity
  8
0
 62
     3
100
AcDbLine
 10
1686.489136943453
 20
107.9330490108639
 30
0.0
 11
1686.489136943453
 21
84.93304901086389
 31
0.0
  0
LINE
  5
13BC
330
1F
100
AcDbEntity
  8
0
 62
     3
100
AcDbLine
 10
1745.489136943453
 20
105.9330490108639
 30
0.0
 11
1745.489136943453
 21
107.9330490108639
 31
0.0
  0
LINE
  5
13BD
330
1F
100
AcDbEntity
  8
0
 62
     3
100
AcDbLine
 10
1758.489136943454
 20
84.93304901086389
 30
0.0
 11
1758.489136943454
 21
107.9330490108639
 31
0.0
  0
LINE
  5
13BE
330
1F
100
AcDbEntity
  8
0
 62
     3
100
AcDbLine
 10
1784.489136943453
 20
107.9330490108639
 30
0.0
 11
1673.243702303453
 21
107.9330490108639
 31
0.0
  0
LINE
  5
13BF
330
1F
100
AcDbEntity
  8
0
 62
     3
100
AcDbLine
 10
1784.489136943453
 20
98.9330490108639
 30
0.0
 11
1673.243702303453
 21
98.9330490108639
 31
0.0
  0
LINE
  5
13C0
330
1F
100
AcDbEntity
  8
0
 62
     3
100
AcDbLine
 10
1784.489136943453
 20
84.93304901086389
 30
0.0
 11
1673.243702303453
 21
84.93304901086389
 31
0.0
  0
LINE
  5
13C1
330
1F
100
AcDbEntity
  8
0
 62
     3
100
AcDbLine
 10
1784.489136943453
 20
77.9330490108639
 30
0.0
 11
1673.243702303453
 21
77.9330490108639
 31
0.0
  0
LINE
  5
13C2
330
1F
100
AcDbEntity
  8
0
 62
     3
100
AcDbLine
 10
1771.489136943453
 20
84.93304901086389
 30
0.0
 11
1771.489136943453
 21
107.9330490108639
 31
0.0
  0
LINE
  5
13C3
330
1F
100
AcDbEntity
  8
0
 62
     3
100
AcDbLine
 10
1673.243702303453
 20
107.9330490108639
 30
0.0
 11
1673.243702303453
 21
67.9330490108639
 31
0.0
  0
LINE
  5
13C4
330
1F
100
AcDbEntity
  8
0
 62
     3
100
AcDbLine
 10
1732.489136943453
 20
91.9330490108639
 30
0.0
 11
1673.243702303453
 21
91.93304901086388
 31
0.0
  0
LINE
  5
13C5
330
1F
100
AcDbEntity
  8
0
 62
     3
100
AcDbLine
 10
1715.767461873453
 20
72.76591027086388
 30
0.0
 11
1732.489136943453
 21
72.76591027086388
 31
0.0
  0
TEXT
  5
13C6
330
1F
100
AcDbEntity
  8
0
 62
     3
100
AcDbText
 10
1716.653462356769
 20
87.00614586422924
 30
0.0
 40
2.5
  1
透明
  7
高2.5
100
AcDbText
  0
TEXT
  5
13C7
330
1F
100
AcDbEntity
  8
0
 62
     3
100
AcDbText
 10
1687.685505638706
 20
87.2308634158478
 30
0.0
 40
2.5
  1
PC
  7
高2.5
100
AcDbText
  0
TEXT
  5
13C8
330
1F
100
AcDbEntity
  8
0
 62
     3
100
AcDbText
 10
1687.950413393403
 20
99.62141313578435
 30
0.0
 40
3.2
  1
ポリカ全面パネル
  7
高3.2
100
AcDbText
1001
ACAD
1000
ACAD_MTEXT_DEFINED_HEIGHT_BEGIN
1070
    46
1040
0.0
1000
ACAD_MTEXT_DEFINED_HEIGHT_END
  0
TEXT
  5
13C9
330
1F
100
AcDbEntity
  8
0
 62
     3
100
AcDbText
 10
1774.554726036927
 20
104.4467411095675
 30
0.0
 40
2.0
  1
DEF
  7
高2
100
AcDbText
  0
TEXT
  5
13CA
330
1F
100
AcDbEntity
  8
0
 62
     3
100
AcDbText
 10
1760.615627683219
 20
104.4467411095674
 30
0.0
 40
2.0
  1
DESN
  7
高2
100
AcDbText
  0
TEXT
  5
13CB
330
1F
100
AcDbEntity
  8
0
 62
     3
100
AcDbText
 10
1734.361260743219
 20
104.4467411095675
 30
0.0
 40
2.0
  1
APPD
  7
高2
100
AcDbText
  0
TEXT
  5
13CC
330
1F
100
AcDbEntity
  8
0
 62
     3
100
AcDbText
 10
1747.473996843453
 20
104.4467411095675
 30
0.0
 40
2.0
  1
CHCK
  7
高2
100
AcDbText
  0
TEXT
  5
13CD
330
1F
100
AcDbEntity
  8
0
 62
     3
100
AcDbText
 10
1706.416302582606
 20
82.10144783409461
 30
0.0
 40
2.0
  1
SCALE
 41
0.8
  7
高2
100
AcDbText
  0
TEXT
  5
13CE
330
1F
100
AcDbEntity
  8
0
 62
     3
100
AcDbText
 10
1674.9282810065
 20
82.10144783409463
 30
0.0
 40
2.0
  1
3AD　ANGLE
 41
1.5
  7
高2
100
AcDbText
  0
TEXT
  5
13CF
330
1F
100
AcDbEntity
  8
0
 62
     3
100
AcDbText
 10
1705.685708273455
 20
88.85298590305172
 30
0.0
 40
2.0
  1
REMARKS
 41
0.7
  7
高2
100
AcDbText
  0
TEXT
  5
13D0
330
1F
100
AcDbEntity
  8
0
 62
     3
100
AcDbText
 10
1674.711372653453
 20
88.9330490108639
 30
0.0
 40
2.0
  1
MATERIAL
 41
0.7
  7
高2
100
AcDbText
  0
TEXT
  5
13D1
330
1F
100
AcDbEntity
  8
0
 62
     3
100
AcDbText
 10
1675.287859856207
 20
95.93304901086389
 30
0.0
 40
2.0
  1
MODEL
  7
高2
100
AcDbText
  0
TEXT
  5
13D2
330
1F
100
AcDbEntity
  8
0
 62
     3
100
AcDbText
 10
1674.924780737538
 20
104.6400703614629
 30
0.0
 40
2.0
  1
CONPONENTS
 41
0.5
  7
高2
100
AcDbText
  0
TEXT
  5
13D3
330
1F
100
AcDbEntity
  8
0
 62
     3
100
AcDbText
 10
1687.631896208706
 20
92.61477651888526
 30
0.0
 40
4.5
  1
LEN-PC-F30
  7
高4.5
100
AcDbText
  0
TEXT
  5
13D4
330
1F
100
AcDbEntity
  8
0
 62
     3
100
AcDbText
 10
1734.441701450234
 20
69.3793136869433
 30
0.0
 40
6.299999999999999
  1
LEN-PC-F30
 41
0.8
  7
高6.3
100
AcDbText
1001
ACAD
1000
ACAD_MTEXT_DEFINED_HEIGHT_BEGIN
1070
    46
1040
0.0
1000
ACAD_MTEXT_DEFINED_HEIGHT_END
  0
TEXT
  5
13D5
330
1F
100
AcDbEntity
  8
0
 62
     3
100
AcDbText
 10
1749.052646693783
 20
79.0339381690969
 30
0.0
 40
3.2
  1
2016.03.14
  7
高3.2
100
AcDbText
1001
ACAD
1000
ACAD_MTEXT_DEFINED_HEIGHT_BEGIN
1070
    46
1040
0.0
1000
ACAD_MTEXT_DEFINED_HEIGHT_END
  0
TEXT
  5
13D6
330
1F
100
AcDbEntity
  8
0
 62
     3
100
AcDbText
 10
1719.2767348381
 20
79.03396601343176
 30
0.0
 40
3.2
  1
1/1
  7
高3.2
100
AcDbText
  0
TEXT
  5
13D7
330
1F
100
AcDbEntity
  8
0
 62
     3
100
AcDbText
 10
1716.354063813453
 20
68.74992718399986
 30
0.0
 40
3.2
  1
ZK-A4Y
 41
0.8
  7
高3.2
100
AcDbText
  0
TEXT
  5
13D8
330
1F
100
AcDbEntity
  8
0
 62
     3
100
AcDbText
 10
1674.074403343453
 20
74.45766943305172
 30
0.0
 40
2.0
  1
NICHIDO IND.CO.LTD
 41
1.3
  7
高2
100
AcDbText
  0
TEXT
  5
13D9
330
1F
100
AcDbEntity
  8
0
 62
     3
100
AcDbText
 10
1675.25592660841
 20
100.0735772187488
 30
0.0
 40
3.2
  1
品 名
  7
高3.2
100
AcDbText
1001
ACAD
1000
ACAD_MTEXT_DEFINED_HEIGHT_BEGIN
1070
    46
1040
0.0
1000
ACAD_MTEXT_DEFINED_HEIGHT_END
  0
TEXT
  5
13DA
330
1F
100
AcDbEntity
  8
0
 62
     3
100
AcDbText
 10
1675.25592660841
 20
92.43304901086387
 30
0.0
 40
3.2
  1
型 式
  7
高3.2
100
AcDbText
1001
ACAD
1000
ACAD_MTEXT_DEFINED_HEIGHT_BEGIN
1070
    46
1040
3.064735913775955
1000
ACAD_MTEXT_DEFINED_HEIGHT_END
  0
TEXT
  5
13DB
330
1F
100
AcDbEntity
  8
0
 62
     3
100
AcDbText
 10
1675.25592660841
 20
85.4330490108639
 30
0.0
 40
3.2
  1
材 質
  7
高3.2
100
AcDbText
1001
ACAD
1000
ACAD_MTEXT_DEFINED_HEIGHT_BEGIN
1070
    46
1040
0.0
1000
ACAD_MTEXT_DEFINED_HEIGHT_END
  0
TEXT
  5
13DC
330
1F
100
AcDbEntity
  8
0
 62
     3
100
AcDbText
 10
1674.95089165841
 20
78.40048900311014
 30
0.0
 40
3.2
  1
第 三 角 法
  7
高3.2
100
AcDbText
1001
ACAD
1000
ACAD_MTEXT_DEFINED_HEIGHT_BEGIN
1070
    46
1040
0.0
1000
ACAD_MTEXT_DEFINED_HEIGHT_END
  0
TEXT
  5
13DD
330
1F
100
AcDbEntity
  8
0
 62
     3
100
AcDbText
 10
1673.357424265939
 20
69.07357721874882
 30
0.0
 40
3.2
  1
日動工業株式会社
 41
1.199999999999999
  7
高3.2
100
AcDbText
1001
ACAD
1000
ACAD_MTEXT_DEFINED_HEIGHT_BEGIN
1070
    46
1040
0.0
1000
ACAD_MTEXT_DEFINED_HEIGHT_END
  0
TEXT
  5
13DE
330
1F
100
AcDbEntity
  8
0
 62
     3
100
AcDbText
 10
1706.993048465418
 20
85.31762754403144
 30
0.0
 40
3.2
  1
備考
  7
高3.2
100
AcDbText
1001
ACAD
1000
ACAD_MTEXT_DEFINED_HEIGHT_BEGIN
1070
    46
1040
0.0
1000
ACAD_MTEXT_DEFINED_HEIGHT_END
  0
TEXT
  5
13DF
330
1F
100
AcDbEntity
  8
0
 62
     3
100
AcDbText
 10
1716.642105912453
 20
74.07927903643418
 30
0.0
 40
2.5
  1
出図コード
  7
高2.5
100
AcDbText
1001
ACAD
1000
ACAD_MTEXT_DEFINED_HEIGHT_BEGIN
1070
    46
1040
0.0
1000
ACAD_MTEXT_DEFINED_HEIGHT_END
  0
TEXT
  5
13E0
330
1F
100
AcDbEntity
  8
0
 62
     3
100
AcDbText
 10
1706.83428234733
 20
78.38628392127681
 30
0.0
 40
3.2
  1
尺度
  7
高3.2
100
AcDbText
1001
ACAD
1000
ACAD_MTEXT_DEFINED_HEIGHT_BEGIN
1070
    46
1040
0.0
1000
ACAD_MTEXT_DEFINED_HEIGHT_END
  0
TEXT
  5
13E1
330
1F
100
AcDbEntity
  8
0
 62
     3
100
AcDbText
 10
1733.980543829109
 20
79.5177623693943
 30
0.0
 40
3.2
  1
作成日
  7
高3.2
100
AcDbText
1001
ACAD
1000
ACAD_MTEXT_DEFINED_HEIGHT_BEGIN
1070
    46
1040
0.0
1000
ACAD_MTEXT_DEFINED_HEIGHT_END
  0
TEXT
  5
13E2
330
1F
100
AcDbEntity
  8
0
 62
     3
100
AcDbText
 10
1733.875017835973
 20
100.0735772187488
 30
0.0
 40
3.2
  1
承 認
  7
高3.2
100
AcDbText
1001
ACAD
1000
ACAD_MTEXT_DEFINED_HEIGHT_BEGIN
1070
    46
1040
0.0
1000
ACAD_MTEXT_DEFINED_HEIGHT_END
  0
TEXT
  5
13E3
330
1F
100
AcDbEntity
  8
0
 62
     3
100
AcDbText
 10
1746.875017835973
 20
100.0735772187488
 30
0.0
 40
3.2
  1
検 図
  7
高3.2
100
AcDbText
1001
ACAD
1000
ACAD_MTEXT_DEFINED_HEIGHT_BEGIN
1070
    46
1040
0.0
1000
ACAD_MTEXT_DEFINED_HEIGHT_END
  0
TEXT
  5
13E4
330
1F
100
AcDbEntity
  8
0
 62
     3
100
AcDbText
 10
1759.875017835973
 20
100.0735772187488
 30
0.0
 40
3.2
  1
設 計
  7
高3.2
100
AcDbText
1001
ACAD
1000
ACAD_MTEXT_DEFINED_HEIGHT_BEGIN
1070
    46
1040
0.0
1000
ACAD_MTEXT_DEFINED_HEIGHT_END
  0
TEXT
  5
13E5
330
1F
100
AcDbEntity
  8
0
 62
     3
100
AcDbText
 10
1773.175654355973
 20
100.0735772187488
 30
0.0
 40
3.2
  1
製 図
  7
高3.2
100
AcDbText
1001
ACAD
1000
ACAD_MTEXT_DEFINED_HEIGHT_BEGIN
1070
    46
1040
0.0
1000
ACAD_MTEXT_DEFINED_HEIGHT_END
  0
TEXT
  5
13E6
330
1F
100
AcDbEntity
  8
0
 62
     3
100
AcDbText
 10
1771.989136943453
 20
335.4330490108639
 30
0.0
 40
3.2
  1
担　当
  7
高3.2
100
AcDbText
  0
TEXT
  5
13E7
330
1F
100
AcDbEntity
  8
0
 62
     3
100
AcDbText
 10
1727.989136943454
 20
335.4330490108639
 30
0.0
 40
3.2
  1
変更・追記内容
  7
高3.2
100
AcDbText
  0
TEXT
  5
13E8
330
1F
100
AcDbEntity
  8
0
 62
     3
100
AcDbText
 10
1703.102651943793
 20
330.7625105009556
 30
0.0
 40
2.0
  1
1
  7
高2
100
AcDbText
  0
TEXT
  5
13E9
330
1F
100
AcDbEntity
  8
0
 62
     3
100
AcDbText
 10
1702.794140467035
 20
325.5926937886827
 30
0.0
 40
2.0
  1
2
  7
高2
100
AcDbText
  0
TEXT
  5
13EA
330
1F
100
AcDbEntity
  8
0
 62
     3
100
AcDbText
 10
1709.989136943454
 20
335.4330490108639
 30
0.0
 40
3.2
  1
日　付
  7
高3.2
100
AcDbText
  0
TEXT
  5
13EB
330
1F
100
AcDbEntity
  8
0
 62
     3
100
AcDbText
 10
1709.989136943454
 20
340.4330490108639
 30
0.0
 40
3.2
  1
図　　　　面　　　　略　　　　歴
  7
高3.2
100
AcDbText
  0
TEXT
  5
13EC
330
1F
100
AcDbEntity
  8
0
 62
     3
100
AcDbText
 10
1699.989136943453
 20
335.4330490108639
 30
0.0
 40
3.2
  1
記号
  7
高3.2
100
AcDbText
  0
LINE
  5
13ED
330
1F
100
AcDbEntity
  8
0
 62
     7
100
AcDbLine
 10
1703.489136943453
 20
328.723945010864
 30
0.0
 11
1701.589136943453
 21
325.4330490108639
 31
0.0
  0
LINE
  5
13EE
330
1F
100
AcDbEntity
  8
0
 62
     7
100
AcDbLine
 10
1703.489136943453
 20
328.723945010864
 30
0.0
 11
1705.389136943453
 21
325.4330490108639
 31
0.0
  0
LINE
  5
13EF
330
1F
100
AcDbEntity
  8
0
 62
     7
100
AcDbLine
 10
1701.589136943453
 20
325.4330490108639
 30
0.0
 11
1705.389136943453
 21
325.4330490108639
 31
0.0
  0
LINE
  5
13F0
330
1F
100
AcDbEntity
  8
0
 62
     7
100
AcDbLine
 10
1703.489136943453
 20
333.723946010864
 30
0.0
 11
1701.589136943453
 21
330.4330490108639
 31
0.0
  0
LINE
  5
13F1
330
1F
100
AcDbEntity
  8
0
 62
     7
100
AcDbLine
 10
1703.489136943453
 20
333.723946010864
 30
0.0
 11
1705.389136943453
 21
330.4330490108639
 31
0.0
  0
LINE
  5
13F2
330
1F
100
AcDbEntity
  8
0
 62
     7
100
AcDbLine
 10
1701.589136943453
 20
330.4330490108639
 30
0.0
 11
1705.389136943453
 21
330.4330490108639
 31
0.0
  0
LINE
  5
13F3
330
1F
100
AcDbEntity
  8
0
 62
     3
100
AcDbLine
 10
1698.489136943453
 20
339.9330490108639
 30
0.0
 11
1784.489136943453
 21
339.9330490108639
 31
0.0
  0
LINE
  5
13F4
330
1F
100
AcDbEntity
  8
0
 62
     3
100
AcDbLine
 10
1698.489136943453
 20
334.9330490108639
 30
0.0
 11
1784.489136943453
 21
334.9330490108639
 31
0.0
  0
LINE
  5
13F5
330
1F
100
AcDbEntity
  8
0
 62
     7
100
AcDbLine
 10
1698.489136943453
 20
329.9330490108639
 30
0.0
 11
1784.489136943453
 21
329.9330490108639
 31
0.0
  0
LINE
  5
13F6
330
1F
100
AcDbEntity
  8
0
 62
     3
100
AcDbLine
 10
1698.489136943453
 20
324.9330490108639
 30
0.0
 11
1784.489136943453
 21
324.9330490108639
 31
0.0
  0
LINE
  5
13F7
330
1F
100
AcDbEntity
  8
0
 62
     7
100
AcDbLine
 10
1770.489136943453
 20
324.9330490108639
 30
0.0
 11
1770.489136943453
 21
339.9330490108639
 31
0.0
  0
LINE
  5
13F8
330
1F
100
AcDbEntity
  8
0
 62
     7
100
AcDbLine
 10
1726.489136943454
 20
324.9330490108639
 30
0.0
 11
1726.489136943454
 21
339.9330490108639
 31
0.0
  0
LINE
  5
13F9
330
1F
100
AcDbEntity
  8
0
 62
     7
100
AcDbLine
 10
1708.489136943454
 20
324.9330490108639
 30
0.0
 11
1708.489136943454
 21
339.9330490108639
 31
0.0
  0
LINE
  5
13FA
330
1F
100
AcDbEntity
  8
0
 62
     3
100
AcDbLine
 10
1698.489136943453
 20
324.9330490108639
 30
0.0
 11
1698.489136943453
 21
344.9330490108639
 31
0.0
  0
TEXT
  5
1451
330
1F
100
AcDbEntity
  8
0
100
AcDbText
 10
1777.842839974825
 20
90.19291501983662
 30
0.0
 40
3.2
  1
I
  7
高3.2
100
AcDbText
  0
LINE
  5
14FE
330
1F
100
AcDbEntity
  8
0
 62
     3
100
AcDbLine
 10
1784.489136943453
 20
113.9330490108639
 30
0.0
 11
1732.489136943453
 21
113.9330490108639
 31
0.0
  0
LINE
  5
1501
330
1F
100
AcDbEntity
  8
0
 62
     3
100
AcDbLine
 10
1758.489136943454
 20
107.9330490108639
 30
0.0
 11
1758.489136943454
 21
113.9330490108639
 31
0.0
  0
LINE
  5
1502
330
1F
100
AcDbEntity
  8
0
 62
     3
100
AcDbLine
 10
1732.489136943453
 20
107.9330490108639
 30
0.0
 11
1732.489136943453
 21
113.9330490108639
 31
0.0
  0
TEXT
  5
1504
330
1F
100
AcDbEntity
  8
0
 62
     3
100
AcDbText
 10
1737.72389831474
 20
108.1894931417664
 30
0.0
 40
4.5
  1
コード
  7
高4.5
100
AcDbText
  0
TEXT
  5
1505
330
1F
100
AcDbEntity
  8
0
 62
     3
100
AcDbText
 10
1760.943424036891
 20
108.3968131637286
 30
0.0
 40
4.5
  1
56273
  7
高4.5
100
AcDbText
  0
TEXT
  5
1506
330
1F
100
AcDbEntity
  8
0
 62
     3
100
AcDbText
 10
1687.950413393403
 20
103.9725008626259
 30
0.0
 40
3.2
  1
フラットライト30W/50W兼用
 41
0.7
  7
高3.2
100
AcDbText
1001
ACAD
1000
ACAD_MTEXT_DEFINED_HEIGHT_BEGIN
1070
    46
1040
0.0
1000
ACAD_MTEXT_DEFINED_HEIGHT_END
  0
TEXT
  5
1552
330
1F
100
AcDbEntity
  8
0
 62
     4
100
AcDbText
 10
1616.74849185253
 20
107.6948591793593
 30
0.0
 40
3.0
  1
4-C3
 50
44.99999999999999
100
AcDbText
  0
LINE
  5
1555
330
1F
100
AcDbEntity
  8
0
100
AcDbLine
 10
1762.44714622341
 20
295.2586100154722
 30
0.0
 11
1762.44714622341
 21
309.012241444324
 31
0.0
  0
LINE
  5
1556
330
1F
100
AcDbEntity
  8
0
100
AcDbLine
 10
1759.447146223411
 20
295.2586100154722
 30
0.0
 11
1759.447146223411
 21
309.012241444324
 31
0.0
  0
LINE
  5
1557
330
1F
100
AcDbEntity
  8
0
100
AcDbLine
 10
1764.94714622341
 20
307.762241444324
 30
0.0
 11
1767.44714622341
 21
307.762241444324
 31
0.0
  0
LINE
  5
1558
330
1F
100
AcDbEntity
  8
0
100
AcDbLine
 10
1756.94714622341
 20
307.762241444324
 30
0.0
 11
1745.19714622341
 21
307.762241444324
 31
0.0
  0
LINE
  5
1559
330
1F
100
AcDbEntity
  8
0
100
AcDbLine
 10
1762.44714622341
 20
307.762241444324
 30
0.0
 11
1759.447146223411
 21
307.762241444324
 31
0.0
  0
LINE
  5
155D
330
1F
100
AcDbEntity
  8
0
100
AcDbLine
 10
1634.620489254648
 20
295.0086100154722
 30
0.0
 11
1620.070797017437
 21
295.0086100154722
 31
0.0
  0
LINE
  5
155E
330
1F
100
AcDbEntity
  8
0
100
AcDbLine
 10
1634.620489254648
 20
122.0086100154722
 30
0.0
 11
1620.070797017437
 21
122.0086100154722
 31
0.0
  0
LINE
  5
155F
330
1F
100
AcDbEntity
  8
0
100
AcDbLine
 10
1621.320797017436
 20
292.5086100154722
 30
0.0
 11
1621.320797017436
 21
124.5086100154722
 31
0.0
  0
LINE
  5
1563
330
1F
100
AcDbEntity
  8
0
100
AcDbLine
 10
1735.870489254648
 20
292.2586100154722
 30
0.0
 11
1735.870489254648
 21
308.8604605889973
 31
0.0
  0
LINE
  5
1564
330
1F
100
AcDbEntity
  8
0
100
AcDbLine
 10
1631.870489254648
 20
292.2586100154722
 30
0.0
 11
1631.870489254648
 21
308.8604605889973
 31
0.0
  0
LINE
  5
1565
330
1F
100
AcDbEntity
  8
0
100
AcDbLine
 10
1733.370489254648
 20
307.6104605889973
 30
0.0
 11
1634.370489254648
 21
307.6104605889973
 31
0.0
  0
LINE
  5
1569
330
1F
100
AcDbEntity
  8
0
 62
     3
100
AcDbLine
 10
1650.312104563453
 20
345.390931580864
 30
0.0
 11
1650.293477033453
 21
345.5101993508639
 31
0.0
  0
LINE
  5
156A
330
1F
100
AcDbEntity
  8
0
 62
     3
100
AcDbLine
 10
1650.293477033453
 20
345.5101993508639
 30
0.0
 11
1650.271105853454
 21
345.6244041308639
 31
0.0
  0
LINE
  5
156B
330
1F
100
AcDbEntity
  8
0
 62
     3
100
AcDbLine
 10
1650.271105853454
 20
345.6244041308639
 30
0.0
 11
1650.245163923453
 21
345.7326631908639
 31
0.0
  0
LINE
  5
156C
330
1F
100
AcDbEntity
  8
0
 62
     3
100
AcDbLine
 10
1650.245163923453
 20
345.7326631908639
 30
0.0
 11
1650.215851783453
 21
345.8341397408639
 31
0.0
  0
LINE
  5
156D
330
1F
100
AcDbEntity
  8
0
 62
     3
100
AcDbLine
 10
1650.215851783453
 20
345.8341397408639
 30
0.0
 11
1650.183395973454
 21
345.9280494208639
 31
0.0
  0
LINE
  5
156E
330
1F
100
AcDbEntity
  8
0
 62
     3
100
AcDbLine
 10
1650.183395973454
 20
345.9280494208639
 30
0.0
 11
1650.148047383454
 21
346.0136663608639
 31
0.0
  0
LINE
  5
156F
330
1F
100
AcDbEntity
  8
0
 62
     3
100
AcDbLine
 10
1650.148047383454
 20
346.0136663608639
 30
0.0
 11
1650.110079233453
 21
346.0903287708639
 31
0.0
  0
LINE
  5
1570
330
1F
100
AcDbEntity
  8
0
 62
     3
100
AcDbLine
 10
1650.110079233453
 20
346.0903287708639
 30
0.0
 11
1650.069784983453
 21
346.1574441108639
 31
0.0
  0
LINE
  5
1571
330
1F
100
AcDbEntity
  8
0
 62
     3
100
AcDbLine
 10
1650.069784983453
 20
346.1574441108639
 30
0.0
 11
1650.027476113453
 21
346.2144936008639
 31
0.0
  0
LINE
  5
1572
330
1F
100
AcDbEntity
  8
0
 62
     3
100
AcDbLine
 10
1650.027476113453
 20
346.2144936008639
 30
0.0
 11
1649.983479623453
 21
346.2610362708639
 31
0.0
  0
LINE
  5
1573
330
1F
100
AcDbEntity
  8
0
 62
     3
100
AcDbLine
 10
1649.983479623453
 20
346.2610362708639
 30
0.0
 11
1649.938135603453
 21
346.2967123908639
 31
0.0
  0
LINE
  5
1574
330
1F
100
AcDbEntity
  8
0
 62
     3
100
AcDbLine
 10
1649.938135603453
 20
346.2967123908639
 30
0.0
 11
1649.891794533453
 21
346.3212461808639
 31
0.0
  0
LINE
  5
1575
330
1F
100
AcDbEntity
  8
0
 62
     3
100
AcDbLine
 10
1649.891794533453
 20
346.3212461808639
 30
0.0
 11
1649.844814593453
 21
346.3344480308639
 31
0.0
  0
LINE
  5
1576
330
1F
100
AcDbEntity
  8
0
 62
     3
100
AcDbLine
 10
1649.844814593453
 20
346.3344480308639
 30
0.0
 11
1649.797558933453
 21
346.3362158708639
 31
0.0
  0
LINE
  5
1577
330
1F
100
AcDbEntity
  8
0
 62
     3
100
AcDbLine
 10
1649.797558933453
 20
346.3362158708639
 30
0.0
 11
1649.750392803453
 21
346.3265360608639
 31
0.0
  0
LINE
  5
1578
330
1F
100
AcDbEntity
  8
0
 62
     3
100
AcDbLine
 10
1649.750392803453
 20
346.3265360608639
 30
0.0
 11
1649.703680773453
 21
346.3054834008639
 31
0.0
  0
LINE
  5
1579
330
1F
100
AcDbEntity
  8
0
 62
     3
100
AcDbLine
 10
1649.703680773453
 20
346.3054834008639
 30
0.0
 11
1649.657783913453
 21
346.2732206308639
 31
0.0
  0
LINE
  5
157A
330
1F
100
AcDbEntity
  8
0
 62
     3
100
AcDbLine
 10
1649.657783913453
 20
346.2732206308639
 30
0.0
 11
1649.613056973453
 21
346.2299971208639
 31
0.0
  0
LINE
  5
157B
330
1F
100
AcDbEntity
  8
0
 62
     3
100
AcDbLine
 10
1649.613056973453
 20
346.2299971208639
 30
0.0
 11
1649.569845663453
 21
346.1761469608639
 31
0.0
  0
LINE
  5
157C
330
1F
100
AcDbEntity
  8
0
 62
     3
100
AcDbLine
 10
1649.569845663453
 20
346.1761469608639
 30
0.0
 11
1649.528484003453
 21
346.1120863908639
 31
0.0
  0
LINE
  5
157D
330
1F
100
AcDbEntity
  8
0
 62
     3
100
AcDbLine
 10
1649.528484003453
 20
346.1120863908639
 30
0.0
 11
1649.489291683453
 21
346.0383105708639
 31
0.0
  0
LINE
  5
157E
330
1F
100
AcDbEntity
  8
0
 62
     3
100
AcDbLine
 10
1649.489291683453
 20
346.0383105708639
 30
0.0
 11
1649.452571643453
 21
345.9553897408639
 31
0.0
  0
LINE
  5
157F
330
1F
100
AcDbEntity
  8
0
 62
     3
100
AcDbLine
 10
1649.452571643453
 20
345.9553897408639
 30
0.0
 11
1649.418607713453
 21
345.8639648308639
 31
0.0
  0
LINE
  5
1580
330
1F
100
AcDbEntity
  8
0
 62
     3
100
AcDbLine
 10
1649.418607713453
 20
345.8639648308639
 30
0.0
 11
1649.387662413453
 21
345.7647425308639
 31
0.0
  0
LINE
  5
1581
330
1F
100
AcDbEntity
  8
0
 62
     3
100
AcDbLine
 10
1649.387662413453
 20
345.7647425308639
 30
0.0
 11
1649.359974933453
 21
345.6584897608639
 31
0.0
  0
LINE
  5
1582
330
1F
100
AcDbEntity
  8
0
 62
     3
100
AcDbLine
 10
1649.359974933453
 20
345.6584897608639
 30
0.0
 11
1649.335759283453
 21
345.5460278008639
 31
0.0
  0
LINE
  5
1583
330
1F
100
AcDbEntity
  8
0
 62
     3
100
AcDbLine
 10
1649.335759283453
 20
345.5460278008639
 30
0.0
 11
1649.315202643453
 21
345.4282259208639
 31
0.0
  0
LINE
  5
1584
330
1F
100
AcDbEntity
  8
0
 62
     3
100
AcDbLine
 10
1649.315202643453
 20
345.4282259208639
 30
0.0
 11
1649.298463903453
 21
345.305994680864
 31
0.0
  0
LINE
  5
1585
330
1F
100
AcDbEntity
  8
0
 62
     3
100
AcDbLine
 10
1649.298463903453
 20
345.305994680864
 30
0.0
 11
1649.285672443453
 21
345.1802788608639
 31
0.0
  0
LINE
  5
1586
330
1F
100
AcDbEntity
  8
0
 62
     3
100
AcDbLine
 10
1649.285672443453
 20
345.1802788608639
 30
0.0
 11
1649.276927133453
 21
345.0520501808639
 31
0.0
  0
LINE
  5
1587
330
1F
100
AcDbEntity
  8
0
 62
     3
100
AcDbLine
 10
1649.276927133453
 20
345.0520501808639
 30
0.0
 11
1649.272295573453
 21
344.9222997708639
 31
0.0
  0
LINE
  5
1588
330
1F
100
AcDbEntity
  8
0
 62
     3
100
AcDbLine
 10
1649.272295573453
 20
344.9222997708639
 30
0.0
 11
1649.271813563453
 21
344.7920305408639
 31
0.0
  0
LINE
  5
1589
330
1F
100
AcDbEntity
  8
0
 62
     3
100
AcDbLine
 10
1649.271813563453
 20
344.7920305408639
 30
0.0
 11
1649.275484823453
 21
344.6622494208639
 31
0.0
  0
LINE
  5
158A
330
1F
100
AcDbEntity
  8
0
 62
     3
100
AcDbLine
 10
1649.275484823453
 20
344.6622494208639
 30
0.0
 11
1649.283280983453
 21
344.5339595308639
 31
0.0
  0
LINE
  5
158B
330
1F
100
AcDbEntity
  8
0
 62
     3
100
AcDbLine
 10
1649.283280983453
 20
344.5339595308639
 30
0.0
 11
1649.295141783453
 21
344.4081524908639
 31
0.0
  0
LINE
  5
158C
330
1F
100
AcDbEntity
  8
0
 62
     3
100
AcDbLine
 10
1649.295141783453
 20
344.4081524908639
 30
0.0
 11
1649.310975543453
 21
344.2858007208639
 31
0.0
  0
LINE
  5
158D
330
1F
100
AcDbEntity
  8
0
 62
     3
100
AcDbLine
 10
1649.310975543453
 20
344.2858007208639
 30
0.0
 11
1649.330659863453
 21
344.1678499508639
 31
0.0
  0
LINE
  5
158E
330
1F
100
AcDbEntity
  8
0
 62
     3
100
AcDbLine
 10
1649.330659863453
 20
344.1678499508639
 30
0.0
 11
1649.354042623453
 21
344.0552118808639
 31
0.0
  0
LINE
  5
158F
330
1F
100
AcDbEntity
  8
0
 62
     3
100
AcDbLine
 10
1649.354042623453
 20
344.0552118808639
 30
0.0
 11
1649.380943053453
 21
343.9487571208639
 31
0.0
  0
LINE
  5
1590
330
1F
100
AcDbEntity
  8
0
 62
     3
100
AcDbLine
 10
1649.380943053453
 20
343.9487571208639
 30
0.0
 11
1649.411153253453
 21
343.8493085308639
 31
0.0
  0
LINE
  5
1591
330
1F
100
AcDbEntity
  8
0
 62
     3
100
AcDbLine
 10
1649.411153253453
 20
343.8493085308639
 30
0.0
 11
1649.444439703453
 21
343.7576348008639
 31
0.0
  0
LINE
  5
1592
330
1F
100
AcDbEntity
  8
0
 62
     3
100
AcDbLine
 10
1649.444439703453
 20
343.7576348008639
 30
0.0
 11
1649.480545103453
 21
343.6744445008639
 31
0.0
  0
LINE
  5
1593
330
1F
100
AcDbEntity
  8
0
 62
     3
100
AcDbLine
 10
1649.480545103453
 20
343.6744445008639
 30
0.0
 11
1649.519190403453
 21
343.6003806708639
 31
0.0
  0
LINE
  5
1594
330
1F
100
AcDbEntity
  8
0
 62
     3
100
AcDbLine
 10
1649.519190403453
 20
343.6003806708639
 30
0.0
 11
1649.560076883453
 21
343.5360157808639
 31
0.0
  0
LINE
  5
1595
330
1F
100
AcDbEntity
  8
0
 62
     3
100
AcDbLine
 10
1649.560076883453
 20
343.5360157808639
 30
0.0
 11
1649.602888503453
 21
343.4818473308639
 31
0.0
  0
LINE
  5
1596
330
1F
100
AcDbEntity
  8
0
 62
     3
100
AcDbLine
 10
1649.602888503453
 20
343.4818473308639
 30
0.0
 11
1649.647294363453
 21
343.4382940108639
 31
0.0
  0
LINE
  5
1597
330
1F
100
AcDbEntity
  8
0
 62
     3
100
AcDbLine
 10
1649.647294363453
 20
343.4382940108639
 30
0.0
 11
1649.692951213453
 21
343.4056924808639
 31
0.0
  0
LINE
  5
1598
330
1F
100
AcDbEntity
  8
0
 62
     3
100
AcDbLine
 10
1649.692951213453
 20
343.4056924808639
 30
0.0
 11
1649.739506173453
 21
343.3842947208639
 31
0.0
  0
LINE
  5
1599
330
1F
100
AcDbEntity
  8
0
 62
     3
100
AcDbLine
 10
1649.739506173453
 20
343.3842947208639
 30
0.0
 11
1649.786599383453
 21
343.3742661408639
 31
0.0
  0
LINE
  5
159A
330
1F
100
AcDbEntity
  8
0
 62
     3
100
AcDbLine
 10
1649.786599383453
 20
343.3742661408639
 30
0.0
 11
1649.833866833453
 21
343.3756842408639
 31
0.0
  0
LINE
  5
159B
330
1F
100
AcDbEntity
  8
0
 62
     3
100
AcDbLine
 10
1649.833866833453
 20
343.3756842408639
 30
0.0
 11
1649.880943173453
 21
343.3885380608639
 31
0.0
  0
LINE
  5
159C
330
1F
100
AcDbEntity
  8
0
 62
     3
100
AcDbLine
 10
1649.880943173453
 20
343.3885380608639
 30
0.0
 11
1649.927464533453
 21
343.4127282608639
 31
0.0
  0
LINE
  5
159D
330
1F
100
AcDbEntity
  8
0
 62
     3
100
AcDbLine
 10
1649.927464533453
 20
343.4127282608639
 30
0.0
 11
1649.973071323453
 21
343.4480678408639
 31
0.0
  0
LINE
  5
159E
330
1F
100
AcDbEntity
  8
0
 62
     3
100
AcDbLine
 10
1649.973071323453
 20
343.4480678408639
 30
0.0
 11
1650.017411023453
 21
343.4942836608639
 31
0.0
  0
LINE
  5
159F
330
1F
100
AcDbEntity
  8
0
 62
     3
100
AcDbLine
 10
1650.017411023453
 20
343.4942836608639
 30
0.0
 11
1650.060140913453
 21
343.5510185008639
 31
0.0
  0
LINE
  5
15A0
330
1F
100
AcDbEntity
  8
0
 62
     3
100
AcDbLine
 10
1650.060140913453
 20
343.5510185008639
 30
0.0
 11
1650.100930713453
 21
343.6178338108639
 31
0.0
  0
LINE
  5
15A1
330
1F
100
AcDbEntity
  8
0
 62
     3
100
AcDbLine
 10
1650.100930713453
 20
343.6178338108639
 30
0.0
 11
1650.139465143453
 21
343.6942131608639
 31
0.0
  0
LINE
  5
15A2
330
1F
100
AcDbEntity
  8
0
 62
     3
100
AcDbLine
 10
1650.139465143453
 20
343.6942131608639
 30
0.0
 11
1650.175446343453
 21
343.7795661708638
 31
0.0
  0
LINE
  5
15A3
330
1F
100
AcDbEntity
  8
0
 62
     3
100
AcDbLine
 10
1650.175446343453
 20
343.7795661708638
 30
0.0
 11
1650.208596203453
 21
343.8732331008639
 31
0.0
  0
LINE
  5
15A4
330
1F
100
AcDbEntity
  8
0
 62
     3
100
AcDbLine
 10
1650.208596203453
 20
343.8732331008639
 30
0.0
 11
1650.238658483453
 21
343.9744899608639
 31
0.0
  0
LINE
  5
15A5
330
1F
100
AcDbEntity
  8
0
 62
     3
100
AcDbLine
 10
1650.238658483453
 20
343.9744899608639
 30
0.0
 11
1650.265400833453
 21
344.0825540808639
 31
0.0
  0
LINE
  5
15A6
330
1F
100
AcDbEntity
  8
0
 62
     3
100
AcDbLine
 10
1650.265400833453
 20
344.0825540808639
 30
0.0
 11
1650.288616533453
 21
344.1965901908639
 31
0.0
  0
LINE
  5
15A7
330
1F
100
AcDbEntity
  8
0
 62
     3
100
AcDbLine
 10
1650.288616533453
 20
344.1965901908639
 30
0.0
 11
1650.308126143453
 21
344.3157168408639
 31
0.0
  0
LINE
  5
15A8
330
1F
100
AcDbEntity
  8
0
100
AcDbLine
 10
1631.611101091286
 20
121.7325037994412
 30
0.0
 11
1625.410549922065
 21
115.4730337724113
 31
0.0
1001
ACAD
1000
DSTYLE
1002
{
1070
    47
1040
0.5
1070
    48
1040
0.5
1070
   146
1040
0.7
1002
}
  0
LINE
  5
15A9
330
1F
100
AcDbEntity
  8
0
100
AcDbLine
 10
1625.410549922065
 20
115.4730337724113
 30
0.0
 11
1624.968608183823
 21
115.0310920341697
 31
0.0
1001
ACAD
1000
DSTYLE
1002
{
1070
    47
1040
0.5
1070
    48
1040
0.5
1070
   146
1040
0.7
1002
}
  0
LINE
  5
15AA
330
1F
100
AcDbEntity
  8
0
  6
ByBlock
 62
     0
370
    -2
100
AcDbLine
 10
1631.135195206807
 20
122.2039300984257
 30
0.0
 11
1633.370489254648
 21
123.5086100154721
 31
0.0
  0
LINE
  5
15AB
330
1F
100
AcDbEntity
  8
0
  6
ByBlock
 62
     0
370
    -2
100
AcDbLine
 10
1633.370489254648
 20
123.5086100154721
 30
0.0
 11
1632.087006975766
 21
121.2610775004566
 31
0.0
  0
LINE
  5
15AC
330
1F
100
AcDbEntity
  8
0
  6
ByBlock
 62
     0
370
    -2
100
AcDbLine
 10
1633.370489254648
 20
123.5086100154721
 30
0.0
 11
1631.611101091286
 21
121.7325037994412
 31
0.0
  0
TEXT
  5
15AD
330
1F
100
AcDbEntity
  8
0
 62
     4
100
AcDbText
 10
1745.82214622341
 20
308.387241444324
 30
0.0
 40
3.0
  1
t=3
100
AcDbText
  0
LINE
  5
15AE
330
1F
100
AcDbEntity
  8
0
  6
ByBlock
 62
     0
370
    -2
100
AcDbLine
 10
1756.94714622341
 20
308.432113944324
 30
0.0
 11
1759.447146223411
 21
307.762241444324
 31
0.0
  0
LINE
  5
15AF
330
1F
100
AcDbEntity
  8
0
  6
ByBlock
 62
     0
370
    -2
100
AcDbLine
 10
1759.447146223411
 20
307.762241444324
 30
0.0
 11
1756.94714622341
 21
307.092368944324
 31
0.0
  0
LINE
  5
15B0
330
1F
100
AcDbEntity
  8
0
  6
ByBlock
 62
     0
370
    -2
100
AcDbLine
 10
1759.447146223411
 20
307.762241444324
 30
0.0
 11
1756.94714622341
 21
307.762241444324
 31
0.0
  0
LINE
  5
15B1
330
1F
100
AcDbEntity
  8
0
  6
ByBlock
 62
     0
370
    -2
100
AcDbLine
 10
1764.94714622341
 20
307.092368944324
 30
0.0
 11
1762.44714622341
 21
307.762241444324
 31
0.0
  0
LINE
  5
15B2
330
1F
100
AcDbEntity
  8
0
  6
ByBlock
 62
     0
370
    -2
100
AcDbLine
 10
1762.44714622341
 20
307.762241444324
 30
0.0
 11
1764.94714622341
 21
308.432113944324
 31
0.0
  0
LINE
  5
15B3
330
1F
100
AcDbEntity
  8
0
  6
ByBlock
 62
     0
370
    -2
100
AcDbLine
 10
1762.44714622341
 20
307.762241444324
 30
0.0
 11
1764.94714622341
 21
307.762241444324
 31
0.0
  0
TEXT
  5
15B4
330
1F
100
AcDbEntity
  8
0
 62
     4
100
AcDbText
 10
1620.695797017437
 20
201.5336100154722
 30
0.0
 40
3.0
  1
173
 50
90.0
100
AcDbText
  0
TEXT
  5
15B5
330
1F
100
AcDbEntity
  8
0
 62
     4
100
AcDbText
 10
1620.695797017437
 20
209.5336100154722
 30
0.0
 40
2.1
  1
\U+00B10.5
 50
90.0
100
AcDbText
  0
LINE
  5
15B6
330
1F
100
AcDbEntity
  8
0
  6
ByBlock
 62
     0
370
    -2
100
AcDbLine
 10
1621.990669517437
 20
124.5086100154722
 30
0.0
 11
1621.320797017436
 21
122.0086100154722
 31
0.0
  0
LINE
  5
15B7
330
1F
100
AcDbEntity
  8
0
  6
ByBlock
 62
     0
370
    -2
100
AcDbLine
 10
1621.320797017436
 20
122.0086100154722
 30
0.0
 11
1620.650924517437
 21
124.5086100154722
 31
0.0
  0
LINE
  5
15B8
330
1F
100
AcDbEntity
  8
0
  6
ByBlock
 62
     0
370
    -2
100
AcDbLine
 10
1621.320797017436
 20
122.0086100154722
 30
0.0
 11
1621.320797017436
 21
124.5086100154722
 31
0.0
  0
LINE
  5
15B9
330
1F
100
AcDbEntity
  8
0
  6
ByBlock
 62
     0
370
    -2
100
AcDbLine
 10
1620.650924517437
 20
292.5086100154722
 30
0.0
 11
1621.320797017436
 21
295.0086100154722
 31
0.0
  0
LINE
  5
15BA
330
1F
100
AcDbEntity
  8
0
  6
ByBlock
 62
     0
370
    -2
100
AcDbLine
 10
1621.320797017436
 20
295.0086100154722
 30
0.0
 11
1621.990669517437
 21
292.5086100154722
 31
0.0
  0
LINE
  5
15BB
330
1F
100
AcDbEntity
  8
0
  6
ByBlock
 62
     0
370
    -2
100
AcDbLine
 10
1621.320797017436
 20
295.0086100154722
 30
0.0
 11
1621.320797017436
 21
292.5086100154722
 31
0.0
  0
TEXT
  5
15BC
330
1F
100
AcDbEntity
  8
0
 62
     4
100
AcDbText
 10
1677.145489254648
 20
308.2354605889973
 30
0.0
 40
3.0
  1
104
100
AcDbText
  0
TEXT
  5
15BD
330
1F
100
AcDbEntity
  8
0
 62
     4
100
AcDbText
 10
1684.645489254648
 20
308.2354605889973
 30
0.0
 40
2.1
  1
\U+00B10.5
100
AcDbText
  0
LINE
  5
15BE
330
1F
100
AcDbEntity
  8
0
  6
ByBlock
 62
     0
370
    -2
100
AcDbLine
 10
1634.370489254648
 20
306.9405880889973
 30
0.0
 11
1631.870489254648
 21
307.6104605889973
 31
0.0
  0
LINE
  5
15BF
330
1F
100
AcDbEntity
  8
0
  6
ByBlock
 62
     0
370
    -2
100
AcDbLine
 10
1631.870489254648
 20
307.6104605889973
 30
0.0
 11
1634.370489254648
 21
308.2803330889973
 31
0.0
  0
LINE
  5
15C0
330
1F
100
AcDbEntity
  8
0
  6
ByBlock
 62
     0
370
    -2
100
AcDbLine
 10
1631.870489254648
 20
307.6104605889973
 30
0.0
 11
1634.370489254648
 21
307.6104605889973
 31
0.0
  0
LINE
  5
15C1
330
1F
100
AcDbEntity
  8
0
  6
ByBlock
 62
     0
370
    -2
100
AcDbLine
 10
1733.370489254648
 20
308.2803330889973
 30
0.0
 11
1735.870489254648
 21
307.6104605889973
 31
0.0
  0
LINE
  5
15C2
330
1F
100
AcDbEntity
  8
0
  6
ByBlock
 62
     0
370
    -2
100
AcDbLine
 10
1735.870489254648
 20
307.6104605889973
 30
0.0
 11
1733.370489254648
 21
306.9405880889973
 31
0.0
  0
LINE
  5
15C3
330
1F
100
AcDbEntity
  8
0
  6
ByBlock
 62
     0
370
    -2
100
AcDbLine
 10
1735.870489254648
 20
307.6104605889973
 30
0.0
 11
1733.370489254648
 21
307.6104605889973
 31
0.0
  0
ENDSEC
  0
SECTION
  2
OBJECTS
  0
DICTIONARY
  5
C
330
0
100
AcDbDictionary
281
     1
  3
ACAD_2007HEADERVARS_RT
350
15C8
  3
ACAD_COLOR
350
73
  3
ACAD_GROUP
350
D
  3
ACAD_LAYOUT
350
1A
  3
ACAD_MATERIAL
350
72
  3
ACAD_MLEADERSTYLE
350
168
  3
ACAD_MLINESTYLE
350
17
  3
ACAD_PLOTSETTINGS
350
19
  3
ACAD_PLOTSTYLENAME
350
E
  3
ACAD_SCALELIST
350
156
  3
ACAD_TABLESTYLE
350
86
  3
ACAD_VISUALSTYLE
350
99
  3
ACDB_RECOMPOSE_DATA
350
15C6
  3
AcDbVariableDictionary
350
66
  3
AEC_PROPERTY_SET_DEFS
350
1281
  3
DWGPROPS
350
15C7
  0
DICTIONARY
  5
145B
330
8
100
AcDbDictionary
280
     1
281
     1
  0
DICTIONARY
  5
DD
330
2
100
AcDbDictionary
280
     1
281
     1
  3
ACAD_LAYERSTATES
360
DE
  0
DICTIONARY
  5
8E9
330
10
100
AcDbDictionary
280
     1
281
     1
  3
ADSK_XREC_LAYER_RECONCILED
360
13FB
  0
DICTIONARY
  5
324
330
1F
100
AcDbDictionary
280
     1
281
     1
  3
ACAD_SORTENTS
360
325
  0
DICTIONARY
  5
E25
330
D57
100
AcDbDictionary
280
     1
281
     1
  3
ACAD_SORTENTS
360
E26
  0
DICTIONARY
  5
1191
330
10C4
100
AcDbDictionary
280
     1
281
     1
  3
ACAD_SORTENTS
360
1192
  0
DICTIONARY
  5
11AD
330
11AC
100
AcDbDictionary
280
     1
281
     1
  3
ACAD_SORTENTS
360
11AE
  0
DICTIONARY
  5
15C8
102
{ACAD_REACTORS
330
C
102
}
330
C
100
AcDbDictionary
281
     1
  3
DIMARCSYM
350
15CA
  3
DIMFXL
350
15C9
  3
DIMJOGANG
350
15CB
  0
DICTIONARY
  5
73
102
{ACAD_REACTORS
330
C
102
}
330
C
100
AcDbDictionary
281
     1
  0
DICTIONARY
  5
D
102
{ACAD_REACTORS
330
C
102
}
330
C
100
AcDbDictionary
281
     1
  0
DICTIONARY
  5
1A
102
{ACAD_REACTORS
330
C
102
}
330
C
100
AcDbDictionary
281
     1
  3
Model
350
22
  3
レイアウト1
350
59
  3
レイアウト2
350
5E
  0
DICTIONARY
  5
72
102
{ACAD_REACTORS
330
C
102
}
330
C
100
AcDbDictionary
281
     1
  3
ByBlock
350
97
  3
ByLayer
350
96
  3
Global
350
98
  0
DICTIONARY
  5
168
102
{ACAD_REACTORS
330
C
102
}
330
C
100
AcDbDictionary
281
     1
  3
Standard
350
169
  0
DICTIONARY
  5
17
102
{ACAD_REACTORS
330
C
102
}
330
C
100
AcDbDictionary
281
     1
  3
Standard
350
18
  0
DICTIONARY
  5
19
102
{ACAD_REACTORS
330
C
102
}
330
C
100
AcDbDictionary
281
     1
  0
ACDBDICTIONARYWDFLT
  5
E
102
{ACAD_REACTORS
330
C
102
}
330
C
100
AcDbDictionary
281
     1
  3
Normal
350
F
100
AcDbDictionaryWithDefault
340
F
  0
DICTIONARY
  5
156
102
{ACAD_REACTORS
330
C
102
}
330
C
100
AcDbDictionary
281
     1
  3
A0
350
157
  3
A1
350
158
  3
A2
350
159
  3
A3
350
15A
  3
A4
350
15B
  3
A5
350
15C
  3
A6
350
15D
  3
A7
350
15E
  3
A8
350
15F
  3
A9
350
160
  3
B0
350
161
  3
B1
350
162
  3
B2
350
163
  3
B3
350
164
  3
B4
350
165
  3
B5
350
166
  3
B6
350
167
  0
DICTIONARY
  5
86
102
{ACAD_REACTORS
330
C
102
}
330
C
100
AcDbDictionary
281
     1
  3
Standard
350
87
  3
部品表
350
C45
  0
DICTIONARY
  5
99
102
{ACAD_REACTORS
330
C
102
}
330
C
100
AcDbDictionary
281
     1
  3
2dWireframe
350
9F
  3
3D Hidden
350
A1
  3
3dWireframe
350
A0
  3
Basic
350
9E
  3
Brighten
350
A5
  3
ColorChange
350
A9
  3
Conceptual
350
A2
  3
Dim
350
A4
  3
EdgeColorOff
350
155
  3
Facepattern
350
A8
  3
Flat
350
9A
  3
FlatWithEdges
350
9B
  3
Gouraud
350
9C
  3
GouraudWithEdges
350
9D
  3
Hidden
350
14D
  3
JitterOff
350
153
  3
Linepattern
350
A7
  3
OverhangOff
350
154
  3
Realistic
350
A3
  3
Shaded
350
152
  3
Shaded with edges
350
151
  3
Shades of Gray
350
14E
  3
Sketchy
350
14F
  3
Thicken
350
A6
  3
Wireframe
350
14C
  3
X-Ray
350
150
  0
XRECORD
  5
15C6
102
{ACAD_REACTORS
330
C
102
}
330
C
100
AcDbXrecord
280
     1
 90
        1
330
87
330
C45
  0
DICTIONARY
  5
66
102
{ACAD_REACTORS
330
C
102
}
330
C
100
AcDbDictionary
281
     1
  3
CANNOSCALE
350
24A
  3
CMLEADERSTYLE
350
248
  3
CTABLESTYLE
350
89
  3
DIMASSOC
350
67
  3
HIDETEXT
350
6B
  3
INDEXCTL
350
14A3
  3
LAYEREVAL
350
24C
  3
LAYERNOTIFY
350
24D
  3
LIGHTINGUNITS
350
24B
  3
MSLTSCALE
350
249
  3
SORTENTS
350
14A2
  3
XCLIPFRAME
350
1507
  0
DICTIONARY
  5
1281
102
{ACAD_REACTORS
330
C
102
}
330
C
100
AcDbDictionary
281
     1
  0
XRECORD
  5
15C7
102
{ACAD_REACTORS
330
C
102
}
330
C
100
AcDbXrecord
280
     1
  1
DWGPROPS COOKIE
  2

  3

  4

  6

  7

  8
imamura
  9

300
=
301
=
302
=
303
=
304
=
305
=
306
=
307
=
308
=
309
=
 40
0.0233423726851852
 41
2457423.444516551
 42
2457462.696145903
  1

 90
        0
  0
DICTIONARY
  5
DE
102
{ACAD_REACTORS
330
DD
102
}
330
DD
100
AcDbDictionary
281
     1
  0
XRECORD
  5
13FB
102
{ACAD_REACTORS
330
8E9
102
}
330
8E9
100
AcDbXrecord
280
     1
290
     1
  0
SORTENTSTABLE
  5
325
102
{ACAD_REACTORS
330
324
102
}
330
324
100
AcDbSortentsTable
330
1F
331
1387
  5
137A
331
1383
  5
1376
331
13BE
  5
13F0
331
13F9
  5
157F
331
137F
  5
1372
331
13BA
  5
13EC
331
13F5
  5
157B
331
1577
  5
1391
331
137B
  5
136E
331
13F1
  5
1577
331
12FD
  5
15AA
331
1573
  5
138D
331
1344
  5
1337
331
15AE
  5
15B4
331
12F9
  5
15A6
331
156F
  5
1389
331
1340
  5
1333
331
15AA
  5
15B9
331
156B
  5
1385
331
13B6
  5
13E8
331
1377
  5
136A
331
13B2
  5
13E5
331
13ED
  5
1573
331
1373
  5
1366
331
13AE
  5
13E1
331
13E9
  5
156F
331
136F
  5
1362
331
133C
  5
12FE
331
13AA
  5
13DD
331
1286
  5
1581
331
13E5
  5
156B
331
136B
  5
135E
331
15A6
  5
13C1
331
1338
  5
12FA
331
13E1
  5
1567
331
1563
  5
1585
331
15A2
  5
13BD
331
1334
  5
1289
331
155F
  5
1598
331
159E
  5
13B9
331
159A
  5
13B5
331
13A6
  5
13D9
331
1367
  5
135A
331
13A2
  5
13D5
331
13DD
  5
1563
331
1363
  5
1356
331
139E
  5
13D1
331
13D9
  5
155F
331
135F
  5
1352
331
139A
  5
13CD
331
13D5
  5
155B
331
1557
  5
15AE
331
1596
  5
13B1
331
135B
  5
134E
331
13D1
  5
1557
331
1592
  5
13AD
331
158E
  5
13A9
331
15C3
  5
158D
331
158A
  5
13A4
331
1396
  5
13C9
331
11A8
  5
11AB
331
1357
  5
134A
331
1392
  5
13C5
331
13CD
  5
1553
331
1353
  5
1346
331
13C9
  5
1504
331
134F
  5
1342
331
138E
  5
1381
331
13C5
  5
13FA
331
15BF
  5
1592
331
1586
  5
13A0
331
134B
  5
133E
331
138A
  5
137D
331
13C1
  5
13F6
331
15BB
  5
159B
331
1582
  5
139C
331
1504
  5
15C1
331
15B7
  5
15A2
331
157E
  5
1398
331
157A
  5
1394
331
1386
  5
1379
331
1382
  5
1375
331
13BD
  5
13EF
331
13F8
  5
157E
331
137E
  5
1371
331
13B9
  5
13EB
331
13F4
  5
157A
331
137A
  5
136D
331
1576
  5
1390
331
1347
  5
133A
331
13F0
  5
1576
331
12FC
  5
15A9
331
1572
  5
138C
331
1343
  5
1336
331
15AD
  5
15B7
331
156E
  5
1388
331
15A9
  5
15BD
331
156A
  5
1384
331
1376
  5
1369
331
13B1
  5
13E4
331
13EC
  5
1572
331
1372
  5
1365
331
133F
  5
1332
331
13AD
  5
13E0
331
1289
  5
1584
331
13E8
  5
156E
331
136E
  5
1361
331
133B
  5
12FD
331
13A9
  5
13DC
331
13E4
  5
156A
331
136A
  5
135D
331
15A5
  5
13C0
331
1337
  5
12F9
331
13E0
  5
1566
331
15A1
  5
13BC
331
155E
  5
1597
331
159D
  5
13B8
331
1599
  5
13B4
331
13A5
  5
13D8
331
1366
  5
1359
331
13A1
  5
13D4
331
13DC
  5
1562
331
1362
  5
1355
331
139D
  5
13D0
331
13D8
  5
155E
331
135E
  5
1351
331
1399
  5
13CC
331
13D4
  5
155A
331
1556
  5
15AD
331
1595
  5
13B0
331
135A
  5
134D
331
13D0
  5
1556
331
1552
  5
15BE
331
1591
  5
13AC
331
158D
  5
13A7
331
15C2
  5
158C
331
1589
  5
13A3
331
11AB
  5
11A7
331
1395
  5
13C8
331
1356
  5
1349
331
1391
  5
13C4
331
13CC
  5
1552
331
1352
  5
1345
331
13C8
  5
1502
331
134E
  5
1341
331
138D
  5
1380
331
13C4
  5
13F9
331
15BE
  5
1591
331
1585
  5
139F
331
134A
  5
133D
331
1389
  5
137C
331
13C0
  5
13F5
331
15BA
  5
159A
331
1581
  5
139B
331
15B6
  5
159F
331
157D
  5
1397
331
1579
  5
1393
331
1385
  5
1378
331
1381
  5
1374
331
13BC
  5
13EE
331
13F7
  5
157D
331
137D
  5
1370
331
13B8
  5
13EA
331
13F3
  5
1579
331
1379
  5
136C
331
1575
  5
138F
331
1346
  5
1339
331
12FB
  5
15A8
331
1571
  5
138B
331
1342
  5
1335
331
15AC
  5
15BB
331
156D
  5
1387
331
15A8
  5
15BC
331
1569
  5
1383
331
13B4
  5
13E7
331
13EF
  5
1575
331
1375
  5
1368
331
13B0
  5
13E3
331
13EB
  5
1571
331
1371
  5
1364
331
133E
  5
1331
331
13AC
  5
13DF
331
1288
  5
1583
331
13E7
  5
156D
331
136D
  5
1360
331
133A
  5
12FC
331
13A8
  5
13DB
331
13E3
  5
1569
331
1369
  5
135C
331
1565
  5
1587
331
15A4
  5
13BF
331
1336
  5
12A2
331
15A0
  5
13BB
331
1332
  5
1287
331
155D
  5
1596
331
159C
  5
13B7
331
1559
  5
15B0
331
1598
  5
13B3
331
13A4
  5
13D7
331
13DF
  5
1565
331
1365
  5
1358
331
13A0
  5
13D3
331
13DB
  5
1561
331
1361
  5
1354
331
139C
  5
13CF
331
13D7
  5
155D
331
135D
  5
1350
331
1398
  5
13CB
331
13D3
  5
1559
331
1555
  5
15AC
331
1594
  5
13AF
331
1359
  5
134C
331
1590
  5
13AB
331
158C
  5
13A6
331
15C1
  5
158B
331
1588
  5
13A2
331
11AA
  5
11A8
331
1394
  5
13C7
331
13CF
  5
1555
331
1355
  5
1348
331
1390
  5
13C3
331
13CB
  5
1506
331
1351
  5
1344
331
13C7
  5
1501
331
134D
  5
1340
331
138C
  5
137F
331
13C3
  5
13F8
331
15BD
  5
1595
331
1584
  5
139E
331
1349
  5
133C
331
1388
  5
137B
331
1506
  5
15C3
331
15B9
  5
1599
331
1580
  5
139A
331
1502
  5
15C0
331
15B5
  5
15A5
331
157C
  5
1396
331
1578
  5
1392
331
1384
  5
1377
331
13BF
  5
13F2
331
13FA
  5
1580
331
1380
  5
1373
331
13BB
  5
13ED
331
13F6
  5
157C
331
14FE
  5
13F1
331
137C
  5
136F
331
13F2
  5
1578
331
1378
  5
136B
331
12FE
  5
15AB
331
1574
  5
138E
331
1345
  5
1338
331
15AF
  5
15B5
331
12FA
  5
15A7
331
1570
  5
138A
331
1341
  5
1334
331
15AB
  5
15BA
331
156C
  5
1386
331
13B7
  5
13E9
331
13B3
  5
13E6
331
13EE
  5
1574
331
1374
  5
1367
331
13AF
  5
13E2
331
13EA
  5
1570
331
1370
  5
1363
331
133D
  5
12FF
331
13AB
  5
13DE
331
1287
  5
1582
331
13E6
  5
156C
331
136C
  5
135F
331
15A7
  5
13C2
331
1339
  5
12FB
331
13E2
  5
1568
331
1368
  5
135B
331
1564
  5
1586
331
15A3
  5
13BE
331
1335
  5
128A
331
159F
  5
13BA
331
1331
  5
1286
331
159B
  5
13B6
331
1558
  5
15AF
331
13A7
  5
13DA
331
13A3
  5
13D6
331
13DE
  5
1564
331
1364
  5
1357
331
139F
  5
13D2
331
13DA
  5
1560
331
1360
  5
1353
331
139B
  5
13CE
331
13D6
  5
155C
331
1597
  5
13B2
331
135C
  5
134F
331
13D2
  5
1558
331
1593
  5
13AE
331
1358
  5
134B
331
158F
  5
13AA
331
158B
  5
13A5
331
15C0
  5
1593
331
1397
  5
13CA
331
11A9
  5
11AA
331
1393
  5
13C6
331
13CE
  5
1554
331
1354
  5
1347
331
13CA
  5
1505
331
1350
  5
1343
331
13C6
  5
14AA
331
1587
  5
13A1
331
134C
  5
133F
331
138B
  5
137E
331
1451
  5
15B8
331
13C2
  5
13F7
331
15BC
  5
1594
331
1583
  5
139D
331
1348
  5
133B
331
1505
  5
15C2
331
15B8
  5
15A3
331
157F
  5
1399
331
1501
  5
15BF
331
15B4
  5
15A4
331
157B
  5
1395
331
15B0
  5
15B6
  0
SORTENTSTABLE
  5
E26
102
{ACAD_REACTORS
330
E25
102
}
330
E25
100
AcDbSortentsTable
330
D57
  0
SORTENTSTABLE
  5
1192
102
{ACAD_REACTORS
330
1191
102
}
330
1191
100
AcDbSortentsTable
330
10C4
  0
SORTENTSTABLE
  5
11AE
102
{ACAD_REACTORS
330
11AD
102
}
330
11AD
100
AcDbSortentsTable
330
11AC
  0
XRECORD
  5
15CA
102
{ACAD_REACTORS
330
15C8
102
}
330
15C8
100
AcDbXrecord
280
     1
 70
     2
  0
XRECORD
  5
15C9
102
{ACAD_REACTORS
330
15C8
102
}
330
15C8
100
AcDbXrecord
280
     1
 40
1.25
  0
XRECORD
  5
15CB
102
{ACAD_REACTORS
330
15C8
102
}
330
15C8
100
AcDbXrecord
280
     1
 40
1.570796326794896
  0
LAYOUT
  5
22
102
{ACAD_XDICTIONARY
360
15CC
102
}
102
{ACAD_REACTORS
330
1A
102
}
330
1A
100
AcDbPlotSettings
  1

  2
none_device
  4
ANSI_A_(8.50_x_11.00_Inches)
  6

 40
6.349999904632568
 41
19.04999923706055
 42
6.350006103515625
 43
19.04998779296875
 44
215.8999938964844
 45
279.3999938964844
 46
0.0
 47
0.0
 48
0.0
 49
0.0
140
0.0
141
0.0
142
1.0
143
2.584895464708373
 70
 11952
 72
     0
 73
     1
 74
     0
  7

 75
     0
147
0.3868628397755418
148
0.0
149
0.0
100
AcDbLayout
  1
Model
 70
     1
 71
     0
 10
0.0
 20
0.0
 11
12.0
 21
9.0
 12
0.0
 22
0.0
 32
0.0
 14
0.0
 24
0.0
 34
0.0
 15
0.0
 25
0.0
 35
0.0
146
0.0
 13
0.0
 23
0.0
 33
0.0
 16
1.0
 26
0.0
 36
0.0
 17
0.0
 27
1.0
 37
0.0
 76
     0
330
1F
331
94
  0
LAYOUT
  5
59
102
{ACAD_XDICTIONARY
360
15CE
102
}
102
{ACAD_REACTORS
330
1A
102
}
330
1A
100
AcDbPlotSettings
  1

  2
None
  4

  6

 40
0.0
 41
0.0
 42
0.0
 43
0.0
 44
0.0
 45
0.0
 46
0.0
 47
0.0
 48
0.0
 49
0.0
140
0.0
141
0.0
142
1.0
143
1.0
 70
   688
 72
     0
 73
     0
 74
     5
  7

 75
    16
147
1.0
148
0.0
149
0.0
100
AcDbLayout
  1
レイアウト1
 70
     1
 71
     1
 10
0.0
 20
0.0
 11
12.0
 21
9.0
 12
0.0
 22
0.0
 32
0.0
 14
0.0
 24
0.0
 34
0.0
 15
0.0
 25
0.0
 35
0.0
146
0.0
 13
0.0
 23
0.0
 33
0.0
 16
1.0
 26
0.0
 36
0.0
 17
0.0
 27
1.0
 37
0.0
 76
     0
330
58
  0
LAYOUT
  5
5E
102
{ACAD_XDICTIONARY
360
15D0
102
}
102
{ACAD_REACTORS
330
1A
102
}
330
1A
100
AcDbPlotSettings
  1

  2
None
  4

  6

 40
0.0
 41
0.0
 42
0.0
 43
0.0
 44
0.0
 45
0.0
 46
0.0
 47
0.0
 48
0.0
 49
0.0
140
0.0
141
0.0
142
1.0
143
1.0
 70
   688
 72
     0
 73
     0
 74
     5
  7

 75
    16
147
1.0
148
0.0
149
0.0
100
AcDbLayout
  1
レイアウト2
 70
     1
 71
     2
 10
0.0
 20
0.0
 11
12.0
 21
9.0
 12
0.0
 22
0.0
 32
0.0
 14
0.0
 24
0.0
 34
0.0
 15
0.0
 25
0.0
 35
0.0
146
0.0
 13
0.0
 23
0.0
 33
0.0
 16
1.0
 26
0.0
 36
0.0
 17
0.0
 27
1.0
 37
0.0
 76
     0
330
5D
  0
MATERIAL
  5
97
102
{ACAD_XDICTIONARY
360
15D5
102
}
102
{ACAD_REACTORS
330
72
102
}
330
72
100
AcDbMaterial
  1
ByBlock
 73
     1
 78
     1
172
     1
176
     1
270
     1
274
     1
  0
MATERIAL
  5
96
102
{ACAD_XDICTIONARY
360
15D3
102
}
102
{ACAD_REACTORS
330
72
102
}
330
72
100
AcDbMaterial
  1
ByLayer
 73
     1
 78
     1
172
     1
176
     1
270
     1
274
     1
  0
MATERIAL
  5
98
102
{ACAD_XDICTIONARY
360
15D7
102
}
102
{ACAD_REACTORS
330
72
102
}
330
72
100
AcDbMaterial
  1
Global
 73
     1
 78
     1
172
     1
176
     1
270
     1
274
     1
  0
MLEADERSTYLE
  5
169
102
{ACAD_REACTORS
330
168
102
}
330
168
100
AcDbMLeaderStyle
170
     2
171
     1
172
     0
 90
        2
 40
0.0
 41
0.0
173
     1
 91
-1056964608
340
14
 92
       -2
290
     1
 42
2.0
291
     1
 43
0.36
  3
Standard
 44
4.0
300

342
11
174
     1
178
     6
175
     1
176
     0
 93
-1056964608
 45
4.0
292
     0
297
     0
 46
4.0
 94
-1056964608
 47
1.0
 49
1.0
140
1.0
293
     1
141
0.0
294
     1
177
     0
142
1.0
295
     0
296
     0
143
0.125
1001
ACAD_MLEADERVER
1070
     2
  0
MLINESTYLE
  5
18
102
{ACAD_REACTORS
330
17
102
}
330
17
100
AcDbMlineStyle
  2
STANDARD
 70
     0
  3

 62
   256
 51
90.0
 52
90.0
 71
     2
 49
0.5
 62
   256
  6
BYLAYER
 49
-0.5
 62
   256
  6
BYLAYER
  0
ACDBPLACEHOLDER
  5
F
102
{ACAD_REACTORS
330
E
102
}
330
E
  0
SCALE
  5
157
102
{ACAD_REACTORS
330
156
102
}
330
156
100
AcDbScale
 70
     0
300
1:1
140
1.0
141
1.0
290
     1
  0
SCALE
  5
158
102
{ACAD_REACTORS
330
156
102
}
330
156
100
AcDbScale
 70
     0
300
1:2
140
1.0
141
2.0
290
     0
  0
SCALE
  5
159
102
{ACAD_REACTORS
330
156
102
}
330
156
100
AcDbScale
 70
     0
300
1:4
140
1.0
141
4.0
290
     0
  0
SCALE
  5
15A
102
{ACAD_REACTORS
330
156
102
}
330
156
100
AcDbScale
 70
     0
300
1:5
140
1.0
141
5.0
290
     0
  0
SCALE
  5
15B
102
{ACAD_REACTORS
330
156
102
}
330
156
100
AcDbScale
 70
     0
300
1:8
140
1.0
141
8.0
290
     0
  0
SCALE
  5
15C
102
{ACAD_REACTORS
330
156
102
}
330
156
100
AcDbScale
 70
     0
300
1:10
140
1.0
141
10.0
290
     0
  0
SCALE
  5
15D
102
{ACAD_REACTORS
330
156
102
}
330
156
100
AcDbScale
 70
     0
300
1:16
140
1.0
141
16.0
290
     0
  0
SCALE
  5
15E
102
{ACAD_REACTORS
330
156
102
}
330
156
100
AcDbScale
 70
     0
300
1:20
140
1.0
141
20.0
290
     0
  0
SCALE
  5
15F
102
{ACAD_REACTORS
330
156
102
}
330
156
100
AcDbScale
 70
     0
300
1:30
140
1.0
141
30.0
290
     0
  0
SCALE
  5
160
102
{ACAD_REACTORS
330
156
102
}
330
156
100
AcDbScale
 70
     0
300
1:40
140
1.0
141
40.0
290
     0
  0
SCALE
  5
161
102
{ACAD_REACTORS
330
156
102
}
330
156
100
AcDbScale
 70
     0
300
1:50
140
1.0
141
50.0
290
     0
  0
SCALE
  5
162
102
{ACAD_REACTORS
330
156
102
}
330
156
100
AcDbScale
 70
     0
300
1:100
140
1.0
141
100.0
290
     0
  0
SCALE
  5
163
102
{ACAD_REACTORS
330
156
102
}
330
156
100
AcDbScale
 70
     0
300
2:1
140
2.0
141
1.0
290
     0
  0
SCALE
  5
164
102
{ACAD_REACTORS
330
156
102
}
330
156
100
AcDbScale
 70
     0
300
4:1
140
4.0
141
1.0
290
     0
  0
SCALE
  5
165
102
{ACAD_REACTORS
330
156
102
}
330
156
100
AcDbScale
 70
     0
300
8:1
140
8.0
141
1.0
290
     0
  0
SCALE
  5
166
102
{ACAD_REACTORS
330
156
102
}
330
156
100
AcDbScale
 70
     0
300
10:1
140
10.0
141
1.0
290
     0
  0
SCALE
  5
167
102
{ACAD_REACTORS
330
156
102
}
330
156
100
AcDbScale
 70
     0
300
100:1
140
100.0
141
1.0
290
     0
  0
TABLESTYLE
  5
87
102
{ACAD_XDICTIONARY
360
1452
102
}
102
{ACAD_REACTORS
330
86
102
}
330
86
100
AcDbTableStyle
  3
Standard
 70
     0
 71
     0
 40
0.06
 41
0.06
280
     0
281
     0
  7
Standard
140
0.18
170
     2
 62
     0
 63
     7
283
     0
274
    -2
284
     1
 64
     0
275
    -2
285
     1
 65
     0
276
    -2
286
     1
 66
     0
277
    -2
287
     1
 67
     0
278
    -2
288
     1
 68
     0
279
    -2
289
     1
 69
     0
  7
Standard
140
0.25
170
     5
 62
     0
 63
     7
283
     0
274
    -2
284
     1
 64
     0
275
    -2
285
     1
 65
     0
276
    -2
286
     1
 66
     0
277
    -2
287
     1
 67
     0
278
    -2
288
     1
 68
     0
279
    -2
289
     1
 69
     0
  7
Standard
140
0.18
170
     5
 62
     0
 63
     7
283
     0
274
    -2
284
     1
 64
     0
275
    -2
285
     1
 65
     0
276
    -2
286
     1
 66
     0
277
    -2
287
     1
 67
     0
278
    -2
288
     1
 68
     0
279
    -2
289
     1
 69
     0
  0
TABLESTYLE
  5
C45
102
{ACAD_XDICTIONARY
360
C46
102
}
102
{ACAD_REACTORS
330
86
102
}
330
86
100
AcDbTableStyle
  3
Standard
 70
     1
 71
     0
 40
1.5
 41
0.5
280
     0
281
     0
  7
高3.2
140
0.18
170
     7
 62
     3
 63
     7
283
     0
274
    -2
284
     1
 64
     3
275
    -2
285
     1
 65
     7
276
    -2
286
     1
 66
     3
277
    -2
287
     1
 67
     3
278
    -2
288
     1
 68
     7
279
    -2
289
     1
 69
     3
  7
高3.2
140
0.25
170
     8
 62
     3
 63
     7
283
     0
274
    -2
284
     1
 64
     0
275
    -2
285
     1
 65
     0
276
    -2
286
     1
 66
     0
277
    -2
287
     1
 67
     0
278
    -2
288
     1
 68
     0
279
    -2
289
     1
 69
     0
  7
高3.2
140
0.18
170
     7
 62
     3
 63
     7
283
     0
274
    -2
284
     1
 64
     3
275
    -2
285
     1
 65
     7
276
    -2
286
     1
 66
     3
277
    -2
287
     1
 67
     3
278
    -2
288
     1
 68
     7
279
    -2
289
     1
 69
     3
  0
VISUALSTYLE
  5
9F
102
{ACAD_XDICTIONARY
360
15E3
102
}
102
{ACAD_REACTORS
330
99
102
}
330
99
100
AcDbVisualStyle
  2
2dWireframe
 70
     4
 71
     0
 72
     2
 73
     1
 90
        0
 40
-0.6
 41
-30.0
 62
     5
 63
     7
 74
     1
 91
        4
 64
     7
 65
   257
 75
     1
175
     1
 42
1.0
 92
        0
 66
   257
 43
1.0
 76
     1
 77
     6
 78
     2
 67
     7
 79
     5
170
     0
171
     0
290
     0
174
     0
 93
        1
 44
0.0
173
     0
291
     0
 45
0.0
1001
ACAD
1000
AcDbSavedByObjectVersion
1070
     0
  0
VISUALSTYLE
  5
A1
102
{ACAD_XDICTIONARY
360
15E7
102
}
102
{ACAD_REACTORS
330
99
102
}
330
99
100
AcDbVisualStyle
  2
3D Hidden
 70
     6
 71
     1
 72
     2
 73
     2
 90
        0
 40
-0.6
 41
-30.0
 62
     5
 63
     7
 74
     2
 91
        2
 64
     7
 65
   257
 75
     2
175
     1
 42
40.0
 92
        0
 66
   257
 43
1.0
 76
     1
 77
     6
 78
     2
 67
     7
 79
     3
170
     0
171
     0
290
     0
174
     0
 93
        1
 44
0.0
173
     0
291
     0
 45
0.0
1001
ACAD
1000
AcDbSavedByObjectVersion
1070
     0
  0
VISUALSTYLE
  5
A0
102
{ACAD_XDICTIONARY
360
15E5
102
}
102
{ACAD_REACTORS
330
99
102
}
330
99
100
AcDbVisualStyle
  2
3dWireframe
 70
     5
 71
     0
 72
     2
 73
     1
 90
        0
 40
-0.6
 41
-30.0
 62
     5
 63
     7
 74
     1
 91
        4
 64
     7
 65
   257
 75
     1
175
     1
 42
1.0
 92
        0
 66
   257
 43
1.0
 76
     1
 77
     6
 78
     2
 67
     7
 79
     5
170
     0
171
     0
290
     0
174
     0
 93
        1
 44
0.0
173
     0
291
     0
 45
0.0
1001
ACAD
1000
AcDbSavedByObjectVersion
1070
     0
  0
VISUALSTYLE
  5
9E
102
{ACAD_XDICTIONARY
360
15E1
102
}
102
{ACAD_REACTORS
330
99
102
}
330
99
100
AcDbVisualStyle
  2
Basic
 70
     7
 71
     1
 72
     0
 73
     1
 90
        0
 40
-0.6
 41
-30.0
 62
     5
 63
     7
 74
     0
 91
        4
 64
     7
 65
   257
 75
     1
175
     1
 42
1.0
 92
        8
 66
     7
 43
1.0
 76
     1
 77
     6
 78
     2
 67
     7
 79
     5
170
     0
171
     0
290
     0
174
     0
 93
        1
 44
0.0
173
     0
291
     1
 45
0.0
1001
ACAD
1000
AcDbSavedByObjectVersion
1070
     0
  0
VISUALSTYLE
  5
A5
102
{ACAD_XDICTIONARY
360
15EF
102
}
102
{ACAD_REACTORS
330
99
102
}
330
99
100
AcDbVisualStyle
  2
Brighten
 70
    12
 71
     2
 72
     2
 73
     1
 90
        0
 40
-0.6
 41
-30.0
 62
     5
 63
     7
 74
     1
 91
        4
 64
     7
 65
   257
 75
     1
175
     1
 42
1.0
 92
        8
 66
     7
 43
1.0
 76
     1
 77
     6
 78
     2
 67
     7
 79
     5
170
     0
171
     0
290
     0
174
     0
 93
        1
 44
50.0
173
     0
291
     1
 45
0.0
1001
ACAD
1000
AcDbSavedByObjectVersion
1070
     0
  0
VISUALSTYLE
  5
A9
102
{ACAD_XDICTIONARY
360
15F7
102
}
102
{ACAD_REACTORS
330
99
102
}
330
99
100
AcDbVisualStyle
  2
ColorChange
 70
    16
 71
     2
 72
     2
 73
     3
 90
        0
 40
-0.6
 41
-30.0
 62
     5
 63
     8
 74
     1
 91
        4
 64
     7
 65
   257
 75
     1
175
     1
 42
1.0
 92
        8
 66
     8
 43
1.0
 76
     1
 77
     6
 78
     2
 67
     7
 79
     5
170
     0
171
     0
290
     0
174
     0
 93
        1
 44
0.0
173
     0
291
     1
 45
0.0
1001
ACAD
1000
AcDbSavedByObjectVersion
1070
     0
  0
VISUALSTYLE
  5
A2
102
{ACAD_XDICTIONARY
360
15E9
102
}
102
{ACAD_REACTORS
330
99
102
}
330
99
100
AcDbVisualStyle
  2
Conceptual
 70
     9
 71
     3
 72
     2
 73
     1
 90
        0
 40
-0.6
 41
-30.0
 62
     5
 63
     7
 74
     2
 91
        2
 64
     7
 65
   257
 75
     1
175
     1
 42
40.0
 92
        8
 66
     7
 43
1.0
 76
     1
 77
     6
 78
     2
 67
     7
 79
     3
170
     0
171
     0
290
     0
174
     0
 93
        1
 44
0.0
173
     0
291
     0
 45
0.0
1001
ACAD
1000
AcDbSavedByObjectVersion
1070
     0
  0
VISUALSTYLE
  5
A4
102
{ACAD_XDICTIONARY
360
15ED
102
}
102
{ACAD_REACTORS
330
99
102
}
330
99
100
AcDbVisualStyle
  2
Dim
 70
    11
 71
     2
 72
     2
 73
     1
 90
        0
 40
-0.6
 41
-30.0
 62
     5
 63
     7
 74
     1
 91
        4
 64
     7
 65
   257
 75
     1
175
     1
 42
1.0
 92
        8
 66
     7
 43
1.0
 76
     1
 77
     6
 78
     2
 67
     7
 79
     5
170
     0
171
     0
290
     0
174
     0
 93
        1
 44
-50.0
173
     0
291
     1
 45
0.0
1001
ACAD
1000
AcDbSavedByObjectVersion
1070
     0
  0
VISUALSTYLE
  5
155
102
{ACAD_XDICTIONARY
360
160B
102
}
102
{ACAD_REACTORS
330
99
102
}
330
99
100
AcDbVisualStyle
  2
EdgeColorOff
 70
    22
 71
     2
 72
     2
 73
     0
 90
        0
 40
-0.6
 41
-30.0
 62
     5
 63
     7
 74
     1
 91
        4
 64
     7
 65
   257
 75
     1
175
     1
 42
1.0
 92
        8
 66
     7
 43
1.0
 76
     1
 77
     6
 78
     2
 67
     7
 79
     5
170
     0
171
     0
290
     0
174
     0
 93
        1
 44
0.0
173
     0
291
     1
 45
0.0
1001
ACAD
1000
AcDbSavedByObjectVersion
1070
     0
  0
VISUALSTYLE
  5
A8
102
{ACAD_XDICTIONARY
360
15F5
102
}
102
{ACAD_REACTORS
330
99
102
}
330
99
100
AcDbVisualStyle
  2
Facepattern
 70
    15
 71
     2
 72
     2
 73
     1
 90
        0
 40
-0.6
 41
-30.0
 62
     5
 63
     7
 74
     1
 91
        4
 64
     7
 65
   257
 75
     1
175
     1
 42
1.0
 92
        8
 66
     7
 43
1.0
 76
     1
 77
     6
 78
     2
 67
     7
 79
     5
170
     0
171
     0
290
     0
174
     0
 93
        1
 44
0.0
173
     0
291
     1
 45
0.0
1001
ACAD
1000
AcDbSavedByObjectVersion
1070
     0
  0
VISUALSTYLE
  5
9A
102
{ACAD_XDICTIONARY
360
15D9
102
}
102
{ACAD_REACTORS
330
99
102
}
330
99
100
AcDbVisualStyle
  2
Flat
 70
     0
 71
     2
 72
     1
 73
     1
 90
        2
 40
-0.6
 41
30.0
 62
     5
 63
     7
 74
     0
 91
        4
 64
     7
 65
   257
 75
     1
175
     1
 42
1.0
 92
        8
 66
     7
 43
1.0
 76
     1
 77
     6
 78
     2
 67
     7
 79
     5
170
     0
171
     0
290
     0
174
     0
 93
        1
 44
0.0
173
     0
291
     1
 45
0.0
1001
ACAD
1000
AcDbSavedByObjectVersion
1070
     0
  0
VISUALSTYLE
  5
9B
102
{ACAD_XDICTIONARY
360
15DB
102
}
102
{ACAD_REACTORS
330
99
102
}
330
99
100
AcDbVisualStyle
  2
FlatWithEdges
 70
     1
 71
     2
 72
     1
 73
     1
 90
        2
 40
-0.6
 41
30.0
 62
     5
 63
     7
 74
     1
 91
        4
 64
     7
 65
   257
 75
     1
175
     1
 42
1.0
 92
        0
 66
   257
 43
1.0
 76
     1
 77
     6
 78
     2
 67
     7
 79
     5
170
     0
171
     0
290
     0
174
     0
 93
        1
 44
0.0
173
     0
291
     1
 45
0.0
1001
ACAD
1000
AcDbSavedByObjectVersion
1070
     0
  0
VISUALSTYLE
  5
9C
102
{ACAD_XDICTIONARY
360
15DD
102
}
102
{ACAD_REACTORS
330
99
102
}
330
99
100
AcDbVisualStyle
  2
Gouraud
 70
     2
 71
     2
 72
     2
 73
     1
 90
        2
 40
-0.6
 41
30.0
 62
     5
 63
     7
 74
     0
 91
        4
 64
     7
 65
   257
 75
     1
175
     1
 42
1.0
 92
        0
 66
     7
 43
1.0
 76
     1
 77
     6
 78
     2
 67
     7
 79
     5
170
     0
171
     0
290
     0
174
     0
 93
        1
 44
0.0
173
     0
291
     1
 45
0.0
1001
ACAD
1000
AcDbSavedByObjectVersion
1070
     0
  0
VISUALSTYLE
  5
9D
102
{ACAD_XDICTIONARY
360
15DF
102
}
102
{ACAD_REACTORS
330
99
102
}
330
99
100
AcDbVisualStyle
  2
GouraudWithEdges
 70
     3
 71
     2
 72
     2
 73
     1
 90
        2
 40
-0.6
 41
30.0
 62
     5
 63
     7
 74
     1
 91
        4
 64
     7
 65
   257
 75
     1
175
     1
 42
1.0
 92
        0
 66
   257
 43
1.0
 76
     1
 77
     6
 78
     2
 67
     7
 79
     5
170
     0
171
     0
290
     0
174
     0
 93
        1
 44
0.0
173
     0
291
     1
 45
0.0
1001
ACAD
1000
AcDbSavedByObjectVersion
1070
     0
  0
VISUALSTYLE
  5
14D
102
{ACAD_XDICTIONARY
360
15FB
102
}
102
{ACAD_REACTORS
330
99
102
}
330
99
100
AcDbVisualStyle
  2
Hidden
 70
     6
 71
     1
 72
     2
 73
     2
 90
        0
 40
-0.6
 41
-30.0
 62
     5
 63
     7
 74
     2
 91
        2
 64
     7
 65
   257
 75
     2
175
     1
 42
40.0
 92
        0
 66
   257
 43
1.0
 76
     1
 77
     6
 78
     2
 67
     7
 79
     3
170
     0
171
     0
290
     0
174
     0
 93
        1
 44
0.0
173
     0
291
     0
 45
0.0
1001
ACAD
1000
AcDbSavedByObjectVersion
1070
     0
  0
VISUALSTYLE
  5
153
102
{ACAD_XDICTIONARY
360
1607
102
}
102
{ACAD_REACTORS
330
99
102
}
330
99
100
AcDbVisualStyle
  2
JitterOff
 70
    20
 71
     2
 72
     2
 73
     0
 90
        0
 40
-0.6
 41
-30.0
 62
     5
 63
     7
 74
     1
 91
        4
 64
     7
 65
   257
 75
     1
175
     1
 42
1.0
 92
       10
 66
     7
 43
1.0
 76
     1
 77
     6
 78
     2
 67
     7
 79
     5
170
     0
171
     0
290
     0
174
     0
 93
        1
 44
0.0
173
     0
291
     1
 45
0.0
1001
ACAD
1000
AcDbSavedByObjectVersion
1070
     0
  0
VISUALSTYLE
  5
A7
102
{ACAD_XDICTIONARY
360
15F3
102
}
102
{ACAD_REACTORS
330
99
102
}
330
99
100
AcDbVisualStyle
  2
Linepattern
 70
    14
 71
     2
 72
     2
 73
     1
 90
        0
 40
-0.6
 41
-30.0
 62
     5
 63
     7
 74
     1
 91
        4
 64
     7
 65
   257
 75
     7
175
     7
 42
1.0
 92
        8
 66
     7
 43
1.0
 76
     1
 77
     6
 78
     2
 67
     7
 79
     5
170
     0
171
     0
290
     0
174
     0
 93
        1
 44
0.0
173
     0
291
     1
 45
0.0
1001
ACAD
1000
AcDbSavedByObjectVersion
1070
     0
  0
VISUALSTYLE
  5
154
102
{ACAD_XDICTIONARY
360
1609
102
}
102
{ACAD_REACTORS
330
99
102
}
330
99
100
AcDbVisualStyle
  2
OverhangOff
 70
    21
 71
     2
 72
     2
 73
     0
 90
        0
 40
-0.6
 41
-30.0
 62
     5
 63
     7
 74
     1
 91
        4
 64
     7
 65
   257
 75
     1
175
     1
 42
1.0
 92
        9
 66
     7
 43
1.0
 76
     1
 77
     6
 78
     2
 67
     7
 79
     5
170
     0
171
     0
290
     0
174
     0
 93
        1
 44
0.0
173
     0
291
     1
 45
0.0
1001
ACAD
1000
AcDbSavedByObjectVersion
1070
     0
  0
VISUALSTYLE
  5
A3
102
{ACAD_XDICTIONARY
360
15EB
102
}
102
{ACAD_REACTORS
330
99
102
}
330
99
100
AcDbVisualStyle
  2
Realistic
 70
     8
 71
     2
 72
     2
 73
     1
 90
        0
 40
-0.6
 41
-30.0
 62
     5
 63
     7
 74
     1
 91
        0
 64
     7
 65
   257
 75
     1
175
     1
 42
1.0
 92
        8
 66
     8
 43
1.0
 76
     1
 77
     6
 78
     2
 67
     7
 79
     5
170
     0
171
     0
290
     0
174
     0
 93
       13
 44
0.0
173
     0
291
     0
 45
0.0
1001
ACAD
1000
AcDbSavedByObjectVersion
1070
     0
  0
VISUALSTYLE
  5
152
102
{ACAD_XDICTIONARY
360
1605
102
}
102
{ACAD_REACTORS
330
99
102
}
330
99
100
AcDbVisualStyle
  2
Shaded
 70
    27
 71
     2
 72
     2
 73
     1
 90
        2
 40
-0.6
 41
30.0
 62
     5
 63
     7
 74
     0
 91
        4
 64
     7
 65
   257
 75
     1
175
     1
 42
1.0
 92
        8
 66
   257
 43
1.0
 76
     1
 77
     6
 78
     2
 67
     8
 79
     3
170
     0
171
     0
290
     0
174
     0
 93
        5
 44
0.0
173
     0
291
     0
 45
0.0
1001
ACAD
1000
AcDbSavedByObjectVersion
1070
     0
  0
VISUALSTYLE
  5
151
102
{ACAD_XDICTIONARY
360
1603
102
}
102
{ACAD_REACTORS
330
99
102
}
330
99
100
AcDbVisualStyle
  2
Shaded with edges
 70
    26
 71
     2
 72
     2
 73
     1
 90
        2
 40
-0.6
 41
30.0
 62
     5
 63
     7
 74
     1
 91
       10
 64
     7
 65
   257
 75
     2
175
     1
 42
1.0
 92
        8
 66
   257
 43
1.0
 76
     1
 77
     6
 78
     2
 67
     7
 79
     3
170
     0
171
     0
290
     0
174
     0
 93
        5
 44
0.0
173
     0
291
     0
 45
0.0
1001
ACAD
1000
AcDbSavedByObjectVersion
1070
     0
  0
VISUALSTYLE
  5
14E
102
{ACAD_XDICTIONARY
360
15FD
102
}
102
{ACAD_REACTORS
330
99
102
}
330
99
100
AcDbVisualStyle
  2
Shades of Gray
 70
    23
 71
     2
 72
     2
 73
     3
 90
        0
 40
-0.6
 41
-30.0
 62
     5
 63
     7
 74
     2
 91
        2
 64
     7
 65
     7
 75
     1
175
     1
 42
40.0
 92
        8
 66
     7
 43
1.0
 76
     1
 77
     6
 78
     2
 67
     7
 79
     3
170
     0
171
     0
290
     0
174
     0
 93
        1
 44
0.0
173
     0
291
     0
 45
0.0
1001
ACAD
1000
AcDbSavedByObjectVersion
1070
     0
  0
VISUALSTYLE
  5
14F
102
{ACAD_XDICTIONARY
360
15FF
102
}
102
{ACAD_REACTORS
330
99
102
}
330
99
100
AcDbVisualStyle
  2
Sketchy
 70
    24
 71
     1
 72
     2
 73
     2
 90
        0
 40
-0.6
 41
-30.0
 62
     5
 63
     7
 74
     2
 91
        2
 64
     7
 65
     7
 75
     1
175
     1
 42
40.0
 92
       11
 66
     7
 43
1.0
 76
     1
 77
     6
 78
     2
 67
     7
 79
     6
170
     0
171
     0
290
     0
174
     0
 93
        1
 44
0.0
173
     0
291
     0
 45
0.0
1001
ACAD
1000
AcDbSavedByObjectVersion
1070
     0
  0
VISUALSTYLE
  5
A6
102
{ACAD_XDICTIONARY
360
15F1
102
}
102
{ACAD_REACTORS
330
99
102
}
330
99
100
AcDbVisualStyle
  2
Thicken
 70
    13
 71
     2
 72
     2
 73
     1
 90
        0
 40
-0.6
 41
-30.0
 62
     5
 63
     7
 74
     1
 91
        4
 64
     7
 65
   257
 75
     1
175
     1
 42
1.0
 92
       12
 66
     7
 43
1.0
 76
     1
 77
     6
 78
     2
 67
     7
 79
     5
170
     0
171
     0
290
     0
174
     0
 93
        1
 44
0.0
173
     0
291
     1
 45
0.0
1001
ACAD
1000
AcDbSavedByObjectVersion
1070
     0
  0
VISUALSTYLE
  5
14C
102
{ACAD_XDICTIONARY
360
15F9
102
}
102
{ACAD_REACTORS
330
99
102
}
330
99
100
AcDbVisualStyle
  2
Wireframe
 70
     5
 71
     0
 72
     2
 73
     0
 90
        0
 40
-0.6
 41
-30.0
 62
     5
 63
     7
 74
     1
 91
        4
 64
     7
 65
   257
 75
     1
175
     1
 42
1.0
 92
        0
 66
   257
 43
1.0
 76
     1
 77
     6
 78
     2
 67
     7
 79
     3
170
     0
171
     0
290
     0
174
     0
 93
        1
 44
0.0
173
     0
291
     0
 45
0.0
1001
ACAD
1000
AcDbSavedByObjectVersion
1070
     0
  0
VISUALSTYLE
  5
150
102
{ACAD_XDICTIONARY
360
1601
102
}
102
{ACAD_REACTORS
330
99
102
}
330
99
100
AcDbVisualStyle
  2
X-Ray
 70
    25
 71
     2
 72
     2
 73
     1
 90
        1
 40
0.5
 41
-30.0
 62
     5
 63
     7
 74
     1
 91
        0
 64
     7
 65
   257
 75
     1
175
     1
 42
1.0
 92
        8
 66
     7
 43
1.0
 76
     1
 77
     6
 78
     2
 67
     7
 79
     3
170
     0
171
     0
290
     0
174
     0
 93
       13
 44
0.0
173
     0
291
     0
 45
0.0
1001
ACAD
1000
AcDbSavedByObjectVersion
1070
     0
  0
DICTIONARYVAR
  5
24A
102
{ACAD_REACTORS
330
66
102
}
330
66
100
DictionaryVariables
280
     0
  1
1:1
  0
DICTIONARYVAR
  5
248
102
{ACAD_REACTORS
330
66
102
}
330
66
100
DictionaryVariables
280
     0
  1
STANDARD
  0
DICTIONARYVAR
  5
89
102
{ACAD_REACTORS
330
66
102
}
330
66
100
DictionaryVariables
280
     0
  1
STANDARD
  0
DICTIONARYVAR
  5
67
102
{ACAD_REACTORS
330
66
102
}
330
66
100
DictionaryVariables
280
     0
  1
2
  0
DICTIONARYVAR
  5
6B
102
{ACAD_REACTORS
330
66
102
}
330
66
100
DictionaryVariables
280
     0
  1
1
  0
DICTIONARYVAR
  5
14A3
102
{ACAD_REACTORS
330
66
102
}
330
66
100
DictionaryVariables
280
     0
  1
0
  0
DICTIONARYVAR
  5
24C
102
{ACAD_REACTORS
330
66
102
}
330
66
100
DictionaryVariables
280
     0
  1
1
  0
DICTIONARYVAR
  5
24D
102
{ACAD_REACTORS
330
66
102
}
330
66
100
DictionaryVariables
280
     0
  1
15
  0
DICTIONARYVAR
  5
24B
102
{ACAD_REACTORS
330
66
102
}
330
66
100
DictionaryVariables
280
     0
  1
0
  0
DICTIONARYVAR
  5
249
102
{ACAD_REACTORS
330
66
102
}
330
66
100
DictionaryVariables
280
     0
  1
0
  0
DICTIONARYVAR
  5
14A2
102
{ACAD_REACTORS
330
66
102
}
330
66
100
DictionaryVariables
280
     0
  1
127
  0
DICTIONARYVAR
  5
1507
102
{ACAD_REACTORS
330
66
102
}
330
66
100
DictionaryVariables
280
     0
  1
2
  0
DICTIONARY
  5
15CC
330
22
100
AcDbDictionary
280
     1
281
     1
  3
ACAD_XREC_ROUNDTRIP
360
15CD
  0
DICTIONARY
  5
15CE
330
59
100
AcDbDictionary
280
     1
281
     1
  3
ACAD_XREC_ROUNDTRIP
360
15CF
  0
DICTIONARY
  5
15D0
330
5E
100
AcDbDictionary
280
     1
281
     1
  3
ACAD_XREC_ROUNDTRIP
360
15D1
  0
DICTIONARY
  5
15D5
330
97
100
AcDbDictionary
280
     1
281
     1
  3
ACAD_XREC_ROUNDTRIP
360
15D6
  0
DICTIONARY
  5
15D3
330
96
100
AcDbDictionary
280
     1
281
     1
  3
ACAD_XREC_ROUNDTRIP
360
15D4
  0
DICTIONARY
  5
15D7
330
98
100
AcDbDictionary
280
     1
281
     1
  3
ACAD_XREC_ROUNDTRIP
360
15D8
  0
DICTIONARY
  5
1452
330
87
100
AcDbDictionary
280
     1
281
     1
  3
ACAD_ROUNDTRIP_2008_TABLESTYLE_CELLSTYLEMAP
360
15C4
  3
ACAD_XREC_ROUNDTRIP
360
15D2
  0
DICTIONARY
  5
C46
330
C45
100
AcDbDictionary
280
     1
281
     1
  3
ACAD_ROUNDTRIP_2008_TABLESTYLE_CELLSTYLEMAP
360
15C5
  3
ACAD_XREC_ROUNDTRIP
360
160D
  0
DICTIONARY
  5
15E3
330
9F
100
AcDbDictionary
280
     1
281
     1
  3
ACAD_XREC_ROUNDTRIP
360
15E4
  0
DICTIONARY
  5
15E7
330
A1
100
AcDbDictionary
280
     1
281
     1
  3
ACAD_XREC_ROUNDTRIP
360
15E8
  0
DICTIONARY
  5
15E5
330
A0
100
AcDbDictionary
280
     1
281
     1
  3
ACAD_XREC_ROUNDTRIP
360
15E6
  0
DICTIONARY
  5
15E1
330
9E
100
AcDbDictionary
280
     1
281
     1
  3
ACAD_XREC_ROUNDTRIP
360
15E2
  0
DICTIONARY
  5
15EF
330
A5
100
AcDbDictionary
280
     1
281
     1
  3
ACAD_XREC_ROUNDTRIP
360
15F0
  0
DICTIONARY
  5
15F7
330
A9
100
AcDbDictionary
280
     1
281
     1
  3
ACAD_XREC_ROUNDTRIP
360
15F8
  0
DICTIONARY
  5
15E9
330
A2
100
AcDbDictionary
280
     1
281
     1
  3
ACAD_XREC_ROUNDTRIP
360
15EA
  0
DICTIONARY
  5
15ED
330
A4
100
AcDbDictionary
280
     1
281
     1
  3
ACAD_XREC_ROUNDTRIP
360
15EE
  0
DICTIONARY
  5
160B
330
155
100
AcDbDictionary
280
     1
281
     1
  3
ACAD_XREC_ROUNDTRIP
360
160C
  0
DICTIONARY
  5
15F5
330
A8
100
AcDbDictionary
280
     1
281
     1
  3
ACAD_XREC_ROUNDTRIP
360
15F6
  0
DICTIONARY
  5
15D9
330
9A
100
AcDbDictionary
280
     1
281
     1
  3
ACAD_XREC_ROUNDTRIP
360
15DA
  0
DICTIONARY
  5
15DB
330
9B
100
AcDbDictionary
280
     1
281
     1
  3
ACAD_XREC_ROUNDTRIP
360
15DC
  0
DICTIONARY
  5
15DD
330
9C
100
AcDbDictionary
280
     1
281
     1
  3
ACAD_XREC_ROUNDTRIP
360
15DE
  0
DICTIONARY
  5
15DF
330
9D
100
AcDbDictionary
280
     1
281
     1
  3
ACAD_XREC_ROUNDTRIP
360
15E0
  0
DICTIONARY
  5
15FB
330
14D
100
AcDbDictionary
280
     1
281
     1
  3
ACAD_XREC_ROUNDTRIP
360
15FC
  0
DICTIONARY
  5
1607
330
153
100
AcDbDictionary
280
     1
281
     1
  3
ACAD_XREC_ROUNDTRIP
360
1608
  0
DICTIONARY
  5
15F3
330
A7
100
AcDbDictionary
280
     1
281
     1
  3
ACAD_XREC_ROUNDTRIP
360
15F4
  0
DICTIONARY
  5
1609
330
154
100
AcDbDictionary
280
     1
281
     1
  3
ACAD_XREC_ROUNDTRIP
360
160A
  0
DICTIONARY
  5
15EB
330
A3
100
AcDbDictionary
280
     1
281
     1
  3
ACAD_XREC_ROUNDTRIP
360
15EC
  0
DICTIONARY
  5
1605
330
152
100
AcDbDictionary
280
     1
281
     1
  3
ACAD_XREC_ROUNDTRIP
360
1606
  0
DICTIONARY
  5
1603
330
151
100
AcDbDictionary
280
     1
281
     1
  3
ACAD_XREC_ROUNDTRIP
360
1604
  0
DICTIONARY
  5
15FD
330
14E
100
AcDbDictionary
280
     1
281
     1
  3
ACAD_XREC_ROUNDTRIP
360
15FE
  0
DICTIONARY
  5
15FF
330
14F
100
AcDbDictionary
280
     1
281
     1
  3
ACAD_XREC_ROUNDTRIP
360
1600
  0
DICTIONARY
  5
15F1
330
A6
100
AcDbDictionary
280
     1
281
     1
  3
ACAD_XREC_ROUNDTRIP
360
15F2
  0
DICTIONARY
  5
15F9
330
14C
100
AcDbDictionary
280
     1
281
     1
  3
ACAD_XREC_ROUNDTRIP
360
15FA
  0
DICTIONARY
  5
1601
330
150
100
AcDbDictionary
280
     1
281
     1
  3
ACAD_XREC_ROUNDTRIP
360
1602
  0
XRECORD
  5
15CD
102
{ACAD_REACTORS
330
15CC
102
}
330
15CC
100
AcDbXrecord
280
     1
102
SHADEPLOT
 70
     0
102
SHADEPLOTRESLEVEL
 70
     2
102
SHADEPLOTCUSTOMDPI
 70
   300
  0
XRECORD
  5
15CF
102
{ACAD_REACTORS
330
15CE
102
}
330
15CE
100
AcDbXrecord
280
     1
102
SHADEPLOT
 70
     0
102
SHADEPLOTRESLEVEL
 70
     2
102
SHADEPLOTCUSTOMDPI
 70
   300
  0
XRECORD
  5
15D1
102
{ACAD_REACTORS
330
15D0
102
}
330
15D0
100
AcDbXrecord
280
     1
102
SHADEPLOT
 70
     0
102
SHADEPLOTRESLEVEL
 70
     2
102
SHADEPLOTCUSTOMDPI
 70
   300
  0
XRECORD
  5
15D6
102
{ACAD_REACTORS
330
15D5
102
}
330
15D5
100
AcDbXrecord
280
     1
102
MATERIAL
148
0.0
149
0.0
149
0.0
 93
        0
 94
       63
282
     0
 72
     1
 77
     1
171
     1
175
     1
179
     1
273
     0
  0
XRECORD
  5
15D4
102
{ACAD_REACTORS
330
15D3
102
}
330
15D3
100
AcDbXrecord
280
     1
102
MATERIAL
148
0.0
149
0.0
149
0.0
 93
        0
 94
       63
282
     0
 72
     1
 77
     1
171
     1
175
     1
179
     1
273
     0
  0
XRECORD
  5
15D8
102
{ACAD_REACTORS
330
15D7
102
}
330
15D7
100
AcDbXrecord
280
     1
102
MATERIAL
148
0.0
149
0.0
149
0.0
 93
        0
 94
       63
282
     0
 72
     1
 77
     1
171
     1
175
     1
179
     1
273
     0
  0
CELLSTYLEMAP
  5
15C4
102
{ACAD_REACTORS
330
1452
102
}
330
1452
100
AcDbCellStyleMap
 90
        3
300
CELLSTYLE
  1
TABLEFORMAT_BEGIN
 90
        5
170
     1
 91
        0
 92
    32768
 62
   257
 93
        1
300
CONTENTFORMAT
  1
CONTENTFORMAT_BEGIN
 90
        0
 91
        0
 92
      512
 93
        0
300

 40
0.0
140
1.0
 94
        5
 62
     0
340
11
144
0.25
309
CONTENTFORMAT_END
171
     0
 94
        6
 95
        1
302
GRIDFORMAT
  1
GRIDFORMAT_BEGIN
 90
        0
 91
        1
 62
     0
 92
       -2
340
0
 93
        0
 40
0.045
309
GRIDFORMAT_END
 95
        2
302
GRIDFORMAT
  1
GRIDFORMAT_BEGIN
 90
        0
 91
        1
 62
     0
 92
       -2
340
0
 93
        0
 40
0.045
309
GRIDFORMAT_END
 95
        4
302
GRIDFORMAT
  1
GRIDFORMAT_BEGIN
 90
        0
 91
        1
 62
     0
 92
       -2
340
0
 93
        0
 40
0.045
309
GRIDFORMAT_END
 95
        8
302
GRIDFORMAT
  1
GRIDFORMAT_BEGIN
 90
        0
 91
        1
 62
     0
 92
       -2
340
0
 93
        0
 40
0.045
309
GRIDFORMAT_END
 95
       16
302
GRIDFORMAT
  1
GRIDFORMAT_BEGIN
 90
        0
 91
        1
 62
     0
 92
       -2
340
0
 93
        0
 40
0.045
309
GRIDFORMAT_END
 95
       32
302
GRIDFORMAT
  1
GRIDFORMAT_BEGIN
 90
        0
 91
        1
 62
     0
 92
       -2
340
0
 93
        0
 40
0.045
309
GRIDFORMAT_END
309
TABLEFORMAT_END
  1
CELLSTYLE_BEGIN
 90
        1
 91
        1
300
_TITLE
309
CELLSTYLE_END
300
CELLSTYLE
  1
TABLEFORMAT_BEGIN
 90
        5
170
     1
 91
        0
 92
        0
 62
   257
 93
        1
300
CONTENTFORMAT
  1
CONTENTFORMAT_BEGIN
 90
        0
 91
        0
 92
      512
 93
        0
300

 40
0.0
140
1.0
 94
        5
 62
     0
340
11
144
0.18
309
CONTENTFORMAT_END
171
     0
 94
        6
 95
        1
302
GRIDFORMAT
  1
GRIDFORMAT_BEGIN
 90
        0
 91
        1
 62
     0
 92
       -2
340
0
 93
        0
 40
0.045
309
GRIDFORMAT_END
 95
        2
302
GRIDFORMAT
  1
GRIDFORMAT_BEGIN
 90
        0
 91
        1
 62
     0
 92
       -2
340
0
 93
        0
 40
0.045
309
GRIDFORMAT_END
 95
        4
302
GRIDFORMAT
  1
GRIDFORMAT_BEGIN
 90
        0
 91
        1
 62
     0
 92
       -2
340
0
 93
        0
 40
0.045
309
GRIDFORMAT_END
 95
        8
302
GRIDFORMAT
  1
GRIDFORMAT_BEGIN
 90
        0
 91
        1
 62
     0
 92
       -2
340
0
 93
        0
 40
0.045
309
GRIDFORMAT_END
 95
       16
302
GRIDFORMAT
  1
GRIDFORMAT_BEGIN
 90
        0
 91
        1
 62
     0
 92
       -2
340
0
 93
        0
 40
0.045
309
GRIDFORMAT_END
 95
       32
302
GRIDFORMAT
  1
GRIDFORMAT_BEGIN
 90
        0
 91
        1
 62
     0
 92
       -2
340
0
 93
        0
 40
0.045
309
GRIDFORMAT_END
309
TABLEFORMAT_END
  1
CELLSTYLE_BEGIN
 90
        2
 91
        1
300
_HEADER
309
CELLSTYLE_END
300
CELLSTYLE
  1
TABLEFORMAT_BEGIN
 90
        5
170
     1
 91
        0
 92
        0
 62
   257
 93
        1
300
CONTENTFORMAT
  1
CONTENTFORMAT_BEGIN
 90
        0
 91
        0
 92
      512
 93
        0
300

 40
0.0
140
1.0
 94
        2
 62
     0
340
11
144
0.18
309
CONTENTFORMAT_END
171
     0
 94
        6
 95
        1
302
GRIDFORMAT
  1
GRIDFORMAT_BEGIN
 90
        0
 91
        1
 62
     0
 92
       -2
340
0
 93
        0
 40
0.045
309
GRIDFORMAT_END
 95
        2
302
GRIDFORMAT
  1
GRIDFORMAT_BEGIN
 90
        0
 91
        1
 62
     0
 92
       -2
340
0
 93
        0
 40
0.045
309
GRIDFORMAT_END
 95
        4
302
GRIDFORMAT
  1
GRIDFORMAT_BEGIN
 90
        0
 91
        1
 62
     0
 92
       -2
340
0
 93
        0
 40
0.045
309
GRIDFORMAT_END
 95
        8
302
GRIDFORMAT
  1
GRIDFORMAT_BEGIN
 90
        0
 91
        1
 62
     0
 92
       -2
340
0
 93
        0
 40
0.045
309
GRIDFORMAT_END
 95
       16
302
GRIDFORMAT
  1
GRIDFORMAT_BEGIN
 90
        0
 91
        1
 62
     0
 92
       -2
340
0
 93
        0
 40
0.045
309
GRIDFORMAT_END
 95
       32
302
GRIDFORMAT
  1
GRIDFORMAT_BEGIN
 90
        0
 91
        1
 62
     0
 92
       -2
340
0
 93
        0
 40
0.045
309
GRIDFORMAT_END
309
TABLEFORMAT_END
  1
CELLSTYLE_BEGIN
 90
        3
 91
        2
300
_DATA
309
CELLSTYLE_END
  0
XRECORD
  5
15D2
102
{ACAD_REACTORS
330
1452
102
}
330
1452
100
AcDbXrecord
280
     1
102
ACAD_ROUNDTRIP_PRE2007_TABLESTYLE
 90
      512
 91
        0
  1

 92
      512
 93
        0
  2

 94
      512
 95
        0
  3

  0
CELLSTYLEMAP
  5
15C5
102
{ACAD_REACTORS
330
C46
102
}
330
C46
100
AcDbCellStyleMap
 90
        3
300
CELLSTYLE
  1
TABLEFORMAT_BEGIN
 90
        5
170
     1
 91
        0
 92
    32768
 62
   257
 93
        1
300
CONTENTFORMAT
  1
CONTENTFORMAT_BEGIN
 90
        0
 91
        0
 92
      512
 93
        0
300

 40
0.0
140
1.0
 94
        8
 62
     3
340
11D
144
0.25
309
CONTENTFORMAT_END
171
     1
301
MARGIN
  1
CELLMARGIN_BEGIN
 40
0.5
 40
10.0
 40
0.06
 40
0.06
 40
0.18
 40
0.18
309
CELLMARGIN_END
 94
        6
 95
        1
302
GRIDFORMAT
  1
GRIDFORMAT_BEGIN
 90
        0
 91
        1
 62
     0
 92
       -2
340
0
 93
        0
 40
0.045
309
GRIDFORMAT_END
 95
        2
302
GRIDFORMAT
  1
GRIDFORMAT_BEGIN
 90
        0
 91
        1
 62
     0
 92
       -2
340
0
 93
        0
 40
0.045
309
GRIDFORMAT_END
 95
        4
302
GRIDFORMAT
  1
GRIDFORMAT_BEGIN
 90
        0
 91
        1
 62
     0
 92
       -2
340
0
 93
        0
 40
0.045
309
GRIDFORMAT_END
 95
        8
302
GRIDFORMAT
  1
GRIDFORMAT_BEGIN
 90
        0
 91
        1
 62
     0
 92
       -2
340
0
 93
        0
 40
0.045
309
GRIDFORMAT_END
 95
       16
302
GRIDFORMAT
  1
GRIDFORMAT_BEGIN
 90
        0
 91
        1
 62
     0
 92
       -2
340
0
 93
        0
 40
0.045
309
GRIDFORMAT_END
 95
       32
302
GRIDFORMAT
  1
GRIDFORMAT_BEGIN
 90
        0
 91
        1
 62
     0
 92
       -2
340
0
 93
        0
 40
0.045
309
GRIDFORMAT_END
309
TABLEFORMAT_END
  1
CELLSTYLE_BEGIN
 90
        1
 91
        1
300
_TITLE
309
CELLSTYLE_END
300
CELLSTYLE
  1
TABLEFORMAT_BEGIN
 90
        5
170
     1
 91
        0
 92
        0
 62
   257
 93
        1
300
CONTENTFORMAT
  1
CONTENTFORMAT_BEGIN
 90
        0
 91
        0
 92
      512
 93
        0
300

 40
0.0
140
1.0
 94
        7
 62
     3
340
11D
144
0.18
309
CONTENTFORMAT_END
171
     1
301
MARGIN
  1
CELLMARGIN_BEGIN
 40
0.5
 40
1.5
 40
0.06
 40
0.06
 40
0.18
 40
0.18
309
CELLMARGIN_END
 94
        6
 95
        1
302
GRIDFORMAT
  1
GRIDFORMAT_BEGIN
 90
        0
 91
        1
 62
     3
 92
       -2
340
14
 93
        0
 40
0.045
309
GRIDFORMAT_END
 95
        2
302
GRIDFORMAT
  1
GRIDFORMAT_BEGIN
 90
        0
 91
        1
 62
     7
 92
       -2
340
14
 93
        0
 40
0.045
309
GRIDFORMAT_END
 95
        4
302
GRIDFORMAT
  1
GRIDFORMAT_BEGIN
 90
        0
 91
        1
 62
     3
 92
       -2
340
14
 93
        0
 40
0.045
309
GRIDFORMAT_END
 95
        8
302
GRIDFORMAT
  1
GRIDFORMAT_BEGIN
 90
        0
 91
        1
 62
     3
 92
       -2
340
14
 93
        0
 40
0.045
309
GRIDFORMAT_END
 95
       16
302
GRIDFORMAT
  1
GRIDFORMAT_BEGIN
 90
        0
 91
        1
 62
     7
 92
       -2
340
14
 93
        0
 40
0.045
309
GRIDFORMAT_END
 95
       32
302
GRIDFORMAT
  1
GRIDFORMAT_BEGIN
 90
        0
 91
        1
 62
     3
 92
       -2
340
14
 93
        0
 40
0.045
309
GRIDFORMAT_END
309
TABLEFORMAT_END
  1
CELLSTYLE_BEGIN
 90
        2
 91
        1
300
_HEADER
309
CELLSTYLE_END
300
CELLSTYLE
  1
TABLEFORMAT_BEGIN
 90
        5
170
     1
 91
        0
 92
        0
 62
   257
 93
        1
300
CONTENTFORMAT
  1
CONTENTFORMAT_BEGIN
 90
        0
 91
        0
 92
      512
 93
        0
300

 40
0.0
140
1.0
 94
        7
 62
     3
340
11D
144
0.18
309
CONTENTFORMAT_END
171
     1
301
MARGIN
  1
CELLMARGIN_BEGIN
 40
0.5
 40
1.5
 40
0.06
 40
0.06
 40
0.18
 40
0.18
309
CELLMARGIN_END
 94
        6
 95
        1
302
GRIDFORMAT
  1
GRIDFORMAT_BEGIN
 90
        0
 91
        1
 62
     3
 92
       -2
340
14
 93
        0
 40
0.045
309
GRIDFORMAT_END
 95
        2
302
GRIDFORMAT
  1
GRIDFORMAT_BEGIN
 90
        0
 91
        1
 62
     7
 92
       -2
340
14
 93
        0
 40
0.045
309
GRIDFORMAT_END
 95
        4
302
GRIDFORMAT
  1
GRIDFORMAT_BEGIN
 90
        0
 91
        1
 62
     3
 92
       -2
340
14
 93
        0
 40
0.045
309
GRIDFORMAT_END
 95
        8
302
GRIDFORMAT
  1
GRIDFORMAT_BEGIN
 90
        0
 91
        1
 62
     3
 92
       -2
340
14
 93
        0
 40
0.045
309
GRIDFORMAT_END
 95
       16
302
GRIDFORMAT
  1
GRIDFORMAT_BEGIN
 90
        0
 91
        1
 62
     7
 92
       -2
340
14
 93
        0
 40
0.045
309
GRIDFORMAT_END
 95
       32
302
GRIDFORMAT
  1
GRIDFORMAT_BEGIN
 90
        0
 91
        1
 62
     3
 92
       -2
340
14
 93
        0
 40
0.045
309
GRIDFORMAT_END
309
TABLEFORMAT_END
  1
CELLSTYLE_BEGIN
 90
        3
 91
        2
300
_DATA
309
CELLSTYLE_END
  0
XRECORD
  5
160D
102
{ACAD_REACTORS
330
C46
102
}
330
C46
100
AcDbXrecord
280
     1
102
ACAD_ROUNDTRIP_PRE2007_TABLESTYLE
 90
      512
 91
        0
  1

 92
      512
 93
        0
  2

 94
      512
 95
        0
  3

  0
XRECORD
  5
15E4
102
{ACAD_REACTORS
330
15E3
102
}
330
15E3
100
AcDbXrecord
280
     1
102
RTVSPropertyOp0
 70
     1
102
RTVSPropertyOp1
 70
     1
102
RTVSPropertyOp2
 70
     1
102
RTVSPropertyOp3
 70
     1
102
RTVSPropertyOp4
 70
     1
102
RTVSPropertyOp5
 70
     1
102
RTVSPropertyOp6
 70
     1
102
RTVSPropertyOp7
 70
     1
102
RTVSPropertyOp8
 70
     1
102
RTVSPropertyOp9
 70
     1
102
RTVSPropertyOp10
 70
     1
102
RTVSPropertyOp11
 70
     1
102
RTVSPropertyOp12
 70
     1
102
RTVSPropertyOp13
 70
     1
102
RTVSPropertyOp14
 70
     1
102
RTVSPropertyOp15
 70
     1
102
RTVSPropertyOp16
 70
     1
102
RTVSPropertyOp17
 70
     1
102
RTVSPropertyOp18
 70
     1
102
RTVSPropertyOp19
 70
     1
102
RTVSPropertyOp20
 70
     1
102
RTVSPropertyOp21
 70
     1
102
RTVSPropertyOp22
 70
     1
102
RTVSPropertyOp23
 70
     1
102
RTVSPropertyOp24
 70
     1
102
RTVSPropertyOp25
 70
     1
102
RTVSPropertyOp26
 70
     1
102
RTVSPropertyOp27
 70
     1
102
RTVSPropertyOp28
 70
     1
102
RTVSPropertyOp29
 70
     1
102
RTVSPropertyOp30
 70
     1
102
RTVSPropertyOp31
 70
     1
102
RTVSPropertyOp32
 70
     1
  0
XRECORD
  5
15E8
102
{ACAD_REACTORS
330
15E7
102
}
330
15E7
100
AcDbXrecord
280
     1
102
RTVSPropertyOp0
 70
     1
102
RTVSPropertyOp1
 70
     1
102
RTVSPropertyOp2
 70
     1
102
RTVSPropertyOp3
 70
     1
102
RTVSPropertyOp4
 70
     1
102
RTVSPropertyOp5
 70
     1
102
RTVSPropertyOp6
 70
     1
102
RTVSPropertyOp7
 70
     1
102
RTVSPropertyOp8
 70
     1
102
RTVSPropertyOp9
 70
     1
102
RTVSPropertyOp10
 70
     1
102
RTVSPropertyOp11
 70
     1
102
RTVSPropertyOp12
 70
     1
102
RTVSPropertyOp13
 70
     1
102
RTVSPropertyOp14
 70
     1
102
RTVSPropertyOp15
 70
     1
102
RTVSPropertyOp16
 70
     1
102
RTVSPropertyOp17
 70
     1
102
RTVSPropertyOp18
 70
     1
102
RTVSPropertyOp19
 70
     1
102
RTVSPropertyOp20
 70
     1
102
RTVSPropertyOp21
 70
     1
102
RTVSPropertyOp22
 70
     1
102
RTVSPropertyOp23
 70
     1
102
RTVSPropertyOp24
 70
     1
102
RTVSPropertyOp25
 70
     1
102
RTVSPropertyOp26
 70
     1
102
RTVSPropertyOp27
 70
     1
102
RTVSPropertyOp28
 70
     1
102
RTVSPropertyOp29
 70
     1
102
RTVSPropertyOp30
 70
     1
102
RTVSPropertyOp31
 70
     1
102
RTVSPropertyOp32
 70
     1
  0
XRECORD
  5
15E6
102
{ACAD_REACTORS
330
15E5
102
}
330
15E5
100
AcDbXrecord
280
     1
102
RTVSPropertyOp0
 70
     1
102
RTVSPropertyOp1
 70
     1
102
RTVSPropertyOp2
 70
     1
102
RTVSPropertyOp3
 70
     1
102
RTVSPropertyOp4
 70
     1
102
RTVSPropertyOp5
 70
     1
102
RTVSPropertyOp6
 70
     1
102
RTVSPropertyOp7
 70
     1
102
RTVSPropertyOp8
 70
     1
102
RTVSPropertyOp9
 70
     1
102
RTVSPropertyOp10
 70
     1
102
RTVSPropertyOp11
 70
     1
102
RTVSPropertyOp12
 70
     1
102
RTVSPropertyOp13
 70
     1
102
RTVSPropertyOp14
 70
     1
102
RTVSPropertyOp15
 70
     1
102
RTVSPropertyOp16
 70
     1
102
RTVSPropertyOp17
 70
     1
102
RTVSPropertyOp18
 70
     1
102
RTVSPropertyOp19
 70
     1
102
RTVSPropertyOp20
 70
     1
102
RTVSPropertyOp21
 70
     1
102
RTVSPropertyOp22
 70
     1
102
RTVSPropertyOp23
 70
     1
102
RTVSPropertyOp24
 70
     1
102
RTVSPropertyOp25
 70
     1
102
RTVSPropertyOp26
 70
     1
102
RTVSPropertyOp27
 70
     1
102
RTVSPropertyOp28
 70
     1
102
RTVSPropertyOp29
 70
     1
102
RTVSPropertyOp30
 70
     1
102
RTVSPropertyOp31
 70
     1
102
RTVSPropertyOp32
 70
     1
  0
XRECORD
  5
15E2
102
{ACAD_REACTORS
330
15E1
102
}
330
15E1
100
AcDbXrecord
280
     1
102
RTVSPropertyOp0
 70
     1
102
RTVSPropertyOp1
 70
     1
102
RTVSPropertyOp2
 70
     1
102
RTVSPropertyOp3
 70
     1
102
RTVSPropertyOp4
 70
     1
102
RTVSPropertyOp5
 70
     1
102
RTVSPropertyOp6
 70
     1
102
RTVSPropertyOp7
 70
     1
102
RTVSPropertyOp8
 70
     1
102
RTVSPropertyOp9
 70
     1
102
RTVSPropertyOp10
 70
     1
102
RTVSPropertyOp11
 70
     1
102
RTVSPropertyOp12
 70
     1
102
RTVSPropertyOp13
 70
     1
102
RTVSPropertyOp14
 70
     1
102
RTVSPropertyOp15
 70
     1
102
RTVSPropertyOp16
 70
     1
102
RTVSPropertyOp17
 70
     1
102
RTVSPropertyOp18
 70
     1
102
RTVSPropertyOp19
 70
     1
102
RTVSPropertyOp20
 70
     1
102
RTVSPropertyOp21
 70
     1
102
RTVSPropertyOp22
 70
     1
102
RTVSPropertyOp23
 70
     1
102
RTVSPropertyOp24
 70
     1
102
RTVSPropertyOp25
 70
     1
102
RTVSPropertyOp26
 70
     1
102
RTVSPropertyOp27
 70
     1
102
RTVSPropertyOp28
 70
     1
102
RTVSPropertyOp29
 70
     1
102
RTVSPropertyOp30
 70
     1
102
RTVSPropertyOp31
 70
     1
102
RTVSPropertyOp32
 70
     1
  0
XRECORD
  5
15F0
102
{ACAD_REACTORS
330
15EF
102
}
330
15EF
100
AcDbXrecord
280
     1
102
RTVSPropertyOp0
 70
     1
102
RTVSPropertyOp1
 70
     1
102
RTVSPropertyOp2
 70
     1
102
RTVSPropertyOp3
 70
     1
102
RTVSPropertyOp4
 70
     1
102
RTVSPropertyOp5
 70
     1
102
RTVSPropertyOp6
 70
     1
102
RTVSPropertyOp7
 70
     1
102
RTVSPropertyOp8
 70
     1
102
RTVSPropertyOp9
 70
     1
102
RTVSPropertyOp10
 70
     1
102
RTVSPropertyOp11
 70
     1
102
RTVSPropertyOp12
 70
     1
102
RTVSPropertyOp13
 70
     1
102
RTVSPropertyOp14
 70
     1
102
RTVSPropertyOp15
 70
     1
102
RTVSPropertyOp16
 70
     1
102
RTVSPropertyOp17
 70
     1
102
RTVSPropertyOp18
 70
     1
102
RTVSPropertyOp19
 70
     1
102
RTVSPropertyOp20
 70
     1
102
RTVSPropertyOp21
 70
     1
102
RTVSPropertyOp22
 70
     1
102
RTVSPropertyOp23
 70
     1
102
RTVSPropertyOp24
 70
     1
102
RTVSPropertyOp25
 70
     1
102
RTVSPropertyOp26
 70
     1
102
RTVSPropertyOp27
 70
     1
102
RTVSPropertyOp28
 70
     1
102
RTVSPropertyOp29
 70
     1
102
RTVSPropertyOp30
 70
     1
102
RTVSPropertyOp31
 70
     1
102
RTVSPropertyOp32
 70
     1
  0
XRECORD
  5
15F8
102
{ACAD_REACTORS
330
15F7
102
}
330
15F7
100
AcDbXrecord
280
     1
102
RTVSPropertyOp0
 70
     1
102
RTVSPropertyOp1
 70
     1
102
RTVSPropertyOp2
 70
     1
102
RTVSPropertyOp3
 70
     1
102
RTVSPropertyOp4
 70
     1
102
RTVSPropertyOp5
 70
     1
102
RTVSPropertyOp6
 70
     1
102
RTVSPropertyOp7
 70
     1
102
RTVSPropertyOp8
 70
     1
102
RTVSPropertyOp9
 70
     1
102
RTVSPropertyOp10
 70
     1
102
RTVSPropertyOp11
 70
     1
102
RTVSPropertyOp12
 70
     1
102
RTVSPropertyOp13
 70
     1
102
RTVSPropertyOp14
 70
     1
102
RTVSPropertyOp15
 70
     1
102
RTVSPropertyOp16
 70
     1
102
RTVSPropertyOp17
 70
     1
102
RTVSPropertyOp18
 70
     1
102
RTVSPropertyOp19
 70
     1
102
RTVSPropertyOp20
 70
     1
102
RTVSPropertyOp21
 70
     1
102
RTVSPropertyOp22
 70
     1
102
RTVSPropertyOp23
 70
     1
102
RTVSPropertyOp24
 70
     1
102
RTVSPropertyOp25
 70
     1
102
RTVSPropertyOp26
 70
     1
102
RTVSPropertyOp27
 70
     1
102
RTVSPropertyOp28
 70
     1
102
RTVSPropertyOp29
 70
     1
102
RTVSPropertyOp30
 70
     1
102
RTVSPropertyOp31
 70
     1
102
RTVSPropertyOp32
 70
     1
  0
XRECORD
  5
15EA
102
{ACAD_REACTORS
330
15E9
102
}
330
15E9
100
AcDbXrecord
280
     1
102
RTVSPropertyOp0
 70
     1
102
RTVSPropertyOp1
 70
     1
102
RTVSPropertyOp2
 70
     1
102
RTVSPropertyOp3
 70
     1
102
RTVSPropertyOp4
 70
     1
102
RTVSPropertyOp5
 70
     1
102
RTVSPropertyOp6
 70
     1
102
RTVSPropertyOp7
 70
     1
102
RTVSPropertyOp8
 70
     1
102
RTVSPropertyOp9
 70
     1
102
RTVSPropertyOp10
 70
     1
102
RTVSPropertyOp11
 70
     1
102
RTVSPropertyOp12
 70
     1
102
RTVSPropertyOp13
 70
     1
102
RTVSPropertyOp14
 70
     1
102
RTVSPropertyOp15
 70
     1
102
RTVSPropertyOp16
 70
     1
102
RTVSPropertyOp17
 70
     1
102
RTVSPropertyOp18
 70
     1
102
RTVSPropertyOp19
 70
     1
102
RTVSPropertyOp20
 70
     1
102
RTVSPropertyOp21
 70
     1
102
RTVSPropertyOp22
 70
     1
102
RTVSPropertyOp23
 70
     1
102
RTVSPropertyOp24
 70
     1
102
RTVSPropertyOp25
 70
     1
102
RTVSPropertyOp26
 70
     1
102
RTVSPropertyOp27
 70
     1
102
RTVSPropertyOp28
 70
     1
102
RTVSPropertyOp29
 70
     1
102
RTVSPropertyOp30
 70
     1
102
RTVSPropertyOp31
 70
     1
102
RTVSPropertyOp32
 70
     1
  0
XRECORD
  5
15EE
102
{ACAD_REACTORS
330
15ED
102
}
330
15ED
100
AcDbXrecord
280
     1
102
RTVSPropertyOp0
 70
     1
102
RTVSPropertyOp1
 70
     1
102
RTVSPropertyOp2
 70
     1
102
RTVSPropertyOp3
 70
     1
102
RTVSPropertyOp4
 70
     1
102
RTVSPropertyOp5
 70
     1
102
RTVSPropertyOp6
 70
     1
102
RTVSPropertyOp7
 70
     1
102
RTVSPropertyOp8
 70
     1
102
RTVSPropertyOp9
 70
     1
102
RTVSPropertyOp10
 70
     1
102
RTVSPropertyOp11
 70
     1
102
RTVSPropertyOp12
 70
     1
102
RTVSPropertyOp13
 70
     1
102
RTVSPropertyOp14
 70
     1
102
RTVSPropertyOp15
 70
     1
102
RTVSPropertyOp16
 70
     1
102
RTVSPropertyOp17
 70
     1
102
RTVSPropertyOp18
 70
     1
102
RTVSPropertyOp19
 70
     1
102
RTVSPropertyOp20
 70
     1
102
RTVSPropertyOp21
 70
     1
102
RTVSPropertyOp22
 70
     1
102
RTVSPropertyOp23
 70
     1
102
RTVSPropertyOp24
 70
     1
102
RTVSPropertyOp25
 70
     1
102
RTVSPropertyOp26
 70
     1
102
RTVSPropertyOp27
 70
     1
102
RTVSPropertyOp28
 70
     1
102
RTVSPropertyOp29
 70
     1
102
RTVSPropertyOp30
 70
     1
102
RTVSPropertyOp31
 70
     1
102
RTVSPropertyOp32
 70
     1
  0
XRECORD
  5
160C
102
{ACAD_REACTORS
330
160B
102
}
330
160B
100
AcDbXrecord
280
     1
102
RTVSPropertyOp0
 70
     0
102
RTVSPropertyOp1
 70
     0
102
RTVSPropertyOp2
 70
     0
102
RTVSPropertyOp3
 70
     0
102
RTVSPropertyOp4
 70
     0
102
RTVSPropertyOp5
 70
     0
102
RTVSPropertyOp6
 70
     0
102
RTVSPropertyOp7
 70
     0
102
RTVSPropertyOp8
 70
     0
102
RTVSPropertyOp9
 70
     0
102
RTVSPropertyOp10
 70
     0
102
RTVSPropertyOp11
 70
     0
102
RTVSPropertyOp12
 70
     0
102
RTVSPropertyOp13
 70
     0
102
RTVSPropertyOp14
 70
     2
102
RTVSPropertyOp15
 70
     0
102
RTVSPropertyOp16
 70
     0
102
RTVSPropertyOp17
 70
     0
102
RTVSPropertyOp18
 70
     0
102
RTVSPropertyOp19
 70
     0
102
RTVSPropertyOp20
 70
     0
102
RTVSPropertyOp21
 70
     0
102
RTVSPropertyOp22
 70
     0
102
RTVSPropertyOp23
 70
     0
102
RTVSPropertyOp24
 70
     0
102
RTVSPropertyOp25
 70
     0
102
RTVSPropertyOp26
 70
     0
102
RTVSPropertyOp27
 70
     0
102
RTVSPropertyOp28
 70
     1
102
RTVSPropertyOp29
 70
     1
102
RTVSPropertyOp30
 70
     1
102
RTVSPropertyOp31
 70
     1
102
RTVSPropertyOp32
 70
     1
  0
XRECORD
  5
15F6
102
{ACAD_REACTORS
330
15F5
102
}
330
15F5
100
AcDbXrecord
280
     1
102
RTVSPropertyOp0
 70
     1
102
RTVSPropertyOp1
 70
     1
102
RTVSPropertyOp2
 70
     1
102
RTVSPropertyOp3
 70
     1
102
RTVSPropertyOp4
 70
     1
102
RTVSPropertyOp5
 70
     1
102
RTVSPropertyOp6
 70
     1
102
RTVSPropertyOp7
 70
     1
102
RTVSPropertyOp8
 70
     1
102
RTVSPropertyOp9
 70
     1
102
RTVSPropertyOp10
 70
     1
102
RTVSPropertyOp11
 70
     1
102
RTVSPropertyOp12
 70
     1
102
RTVSPropertyOp13
 70
     1
102
RTVSPropertyOp14
 70
     1
102
RTVSPropertyOp15
 70
     1
102
RTVSPropertyOp16
 70
     1
102
RTVSPropertyOp17
 70
     1
102
RTVSPropertyOp18
 70
     1
102
RTVSPropertyOp19
 70
     1
102
RTVSPropertyOp20
 70
     1
102
RTVSPropertyOp21
 70
     1
102
RTVSPropertyOp22
 70
     1
102
RTVSPropertyOp23
 70
     1
102
RTVSPropertyOp24
 70
     1
102
RTVSPropertyOp25
 70
     1
102
RTVSPropertyOp26
 70
     1
102
RTVSPropertyOp27
 70
     1
102
RTVSPropertyOp28
 70
     1
102
RTVSPropertyOp29
 70
     1
102
RTVSPropertyOp30
 70
     1
102
RTVSPropertyOp31
 70
     1
102
RTVSPropertyOp32
 70
     1
  0
XRECORD
  5
15DA
102
{ACAD_REACTORS
330
15D9
102
}
330
15D9
100
AcDbXrecord
280
     1
102
RTVSPropertyOp0
 70
     1
102
RTVSPropertyOp1
 70
     1
102
RTVSPropertyOp2
 70
     1
102
RTVSPropertyOp3
 70
     1
102
RTVSPropertyOp4
 70
     1
102
RTVSPropertyOp5
 70
     1
102
RTVSPropertyOp6
 70
     1
102
RTVSPropertyOp7
 70
     1
102
RTVSPropertyOp8
 70
     1
102
RTVSPropertyOp9
 70
     1
102
RTVSPropertyOp10
 70
     1
102
RTVSPropertyOp11
 70
     1
102
RTVSPropertyOp12
 70
     1
102
RTVSPropertyOp13
 70
     1
102
RTVSPropertyOp14
 70
     1
102
RTVSPropertyOp15
 70
     1
102
RTVSPropertyOp16
 70
     1
102
RTVSPropertyOp17
 70
     1
102
RTVSPropertyOp18
 70
     1
102
RTVSPropertyOp19
 70
     1
102
RTVSPropertyOp20
 70
     1
102
RTVSPropertyOp21
 70
     1
102
RTVSPropertyOp22
 70
     1
102
RTVSPropertyOp23
 70
     1
102
RTVSPropertyOp24
 70
     1
102
RTVSPropertyOp25
 70
     1
102
RTVSPropertyOp26
 70
     1
102
RTVSPropertyOp27
 70
     1
102
RTVSPropertyOp28
 70
     1
102
RTVSPropertyOp29
 70
     1
102
RTVSPropertyOp30
 70
     1
102
RTVSPropertyOp31
 70
     1
102
RTVSPropertyOp32
 70
     1
  0
XRECORD
  5
15DC
102
{ACAD_REACTORS
330
15DB
102
}
330
15DB
100
AcDbXrecord
280
     1
102
RTVSPropertyOp0
 70
     1
102
RTVSPropertyOp1
 70
     1
102
RTVSPropertyOp2
 70
     1
102
RTVSPropertyOp3
 70
     1
102
RTVSPropertyOp4
 70
     1
102
RTVSPropertyOp5
 70
     1
102
RTVSPropertyOp6
 70
     1
102
RTVSPropertyOp7
 70
     1
102
RTVSPropertyOp8
 70
     1
102
RTVSPropertyOp9
 70
     1
102
RTVSPropertyOp10
 70
     1
102
RTVSPropertyOp11
 70
     1
102
RTVSPropertyOp12
 70
     1
102
RTVSPropertyOp13
 70
     1
102
RTVSPropertyOp14
 70
     1
102
RTVSPropertyOp15
 70
     1
102
RTVSPropertyOp16
 70
     1
102
RTVSPropertyOp17
 70
     1
102
RTVSPropertyOp18
 70
     1
102
RTVSPropertyOp19
 70
     1
102
RTVSPropertyOp20
 70
     1
102
RTVSPropertyOp21
 70
     1
102
RTVSPropertyOp22
 70
     1
102
RTVSPropertyOp23
 70
     1
102
RTVSPropertyOp24
 70
     1
102
RTVSPropertyOp25
 70
     1
102
RTVSPropertyOp26
 70
     1
102
RTVSPropertyOp27
 70
     1
102
RTVSPropertyOp28
 70
     1
102
RTVSPropertyOp29
 70
     1
102
RTVSPropertyOp30
 70
     1
102
RTVSPropertyOp31
 70
     1
102
RTVSPropertyOp32
 70
     1
  0
XRECORD
  5
15DE
102
{ACAD_REACTORS
330
15DD
102
}
330
15DD
100
AcDbXrecord
280
     1
102
RTVSPropertyOp0
 70
     1
102
RTVSPropertyOp1
 70
     1
102
RTVSPropertyOp2
 70
     1
102
RTVSPropertyOp3
 70
     1
102
RTVSPropertyOp4
 70
     1
102
RTVSPropertyOp5
 70
     1
102
RTVSPropertyOp6
 70
     1
102
RTVSPropertyOp7
 70
     1
102
RTVSPropertyOp8
 70
     1
102
RTVSPropertyOp9
 70
     1
102
RTVSPropertyOp10
 70
     1
102
RTVSPropertyOp11
 70
     1
102
RTVSPropertyOp12
 70
     1
102
RTVSPropertyOp13
 70
     1
102
RTVSPropertyOp14
 70
     1
102
RTVSPropertyOp15
 70
     1
102
RTVSPropertyOp16
 70
     1
102
RTVSPropertyOp17
 70
     1
102
RTVSPropertyOp18
 70
     1
102
RTVSPropertyOp19
 70
     1
102
RTVSPropertyOp20
 70
     1
102
RTVSPropertyOp21
 70
     1
102
RTVSPropertyOp22
 70
     1
102
RTVSPropertyOp23
 70
     1
102
RTVSPropertyOp24
 70
     1
102
RTVSPropertyOp25
 70
     1
102
RTVSPropertyOp26
 70
     1
102
RTVSPropertyOp27
 70
     1
102
RTVSPropertyOp28
 70
     1
102
RTVSPropertyOp29
 70
     1
102
RTVSPropertyOp30
 70
     1
102
RTVSPropertyOp31
 70
     1
102
RTVSPropertyOp32
 70
     1
  0
XRECORD
  5
15E0
102
{ACAD_REACTORS
330
15DF
102
}
330
15DF
100
AcDbXrecord
280
     1
102
RTVSPropertyOp0
 70
     1
102
RTVSPropertyOp1
 70
     1
102
RTVSPropertyOp2
 70
     1
102
RTVSPropertyOp3
 70
     1
102
RTVSPropertyOp4
 70
     1
102
RTVSPropertyOp5
 70
     1
102
RTVSPropertyOp6
 70
     1
102
RTVSPropertyOp7
 70
     1
102
RTVSPropertyOp8
 70
     1
102
RTVSPropertyOp9
 70
     1
102
RTVSPropertyOp10
 70
     1
102
RTVSPropertyOp11
 70
     1
102
RTVSPropertyOp12
 70
     1
102
RTVSPropertyOp13
 70
     1
102
RTVSPropertyOp14
 70
     1
102
RTVSPropertyOp15
 70
     1
102
RTVSPropertyOp16
 70
     1
102
RTVSPropertyOp17
 70
     1
102
RTVSPropertyOp18
 70
     1
102
RTVSPropertyOp19
 70
     1
102
RTVSPropertyOp20
 70
     1
102
RTVSPropertyOp21
 70
     1
102
RTVSPropertyOp22
 70
     1
102
RTVSPropertyOp23
 70
     1
102
RTVSPropertyOp24
 70
     1
102
RTVSPropertyOp25
 70
     1
102
RTVSPropertyOp26
 70
     1
102
RTVSPropertyOp27
 70
     1
102
RTVSPropertyOp28
 70
     1
102
RTVSPropertyOp29
 70
     1
102
RTVSPropertyOp30
 70
     1
102
RTVSPropertyOp31
 70
     1
102
RTVSPropertyOp32
 70
     1
  0
XRECORD
  5
15FC
102
{ACAD_REACTORS
330
15FB
102
}
330
15FB
100
AcDbXrecord
280
     1
102
RTVSPropertyOp0
 70
     1
102
RTVSPropertyOp1
 70
     1
102
RTVSPropertyOp2
 70
     1
102
RTVSPropertyOp3
 70
     1
102
RTVSPropertyOp4
 70
     1
102
RTVSPropertyOp5
 70
     1
102
RTVSPropertyOp6
 70
     1
102
RTVSPropertyOp7
 70
     1
102
RTVSPropertyOp8
 70
     1
102
RTVSPropertyOp9
 70
     1
102
RTVSPropertyOp10
 70
     1
102
RTVSPropertyOp11
 70
     1
102
RTVSPropertyOp12
 70
     1
102
RTVSPropertyOp13
 70
     1
102
RTVSPropertyOp14
 70
     1
102
RTVSPropertyOp15
 70
     1
102
RTVSPropertyOp16
 70
     1
102
RTVSPropertyOp17
 70
     1
102
RTVSPropertyOp18
 70
     1
102
RTVSPropertyOp19
 70
     1
102
RTVSPropertyOp20
 70
     1
102
RTVSPropertyOp21
 70
     1
102
RTVSPropertyOp22
 70
     1
102
RTVSPropertyOp23
 70
     1
102
RTVSPropertyOp24
 70
     1
102
RTVSPropertyOp25
 70
     1
102
RTVSPropertyOp26
 70
     1
102
RTVSPropertyOp27
 70
     1
102
RTVSPropertyOp28
 70
     1
102
RTVSPropertyOp29
 70
     1
102
RTVSPropertyOp30
 70
     1
102
RTVSPropertyOp31
 70
     1
102
RTVSPropertyOp32
 70
     1
  0
XRECORD
  5
1608
102
{ACAD_REACTORS
330
1607
102
}
330
1607
100
AcDbXrecord
280
     1
102
RTVSPropertyOp0
 70
     0
102
RTVSPropertyOp1
 70
     0
102
RTVSPropertyOp2
 70
     0
102
RTVSPropertyOp3
 70
     0
102
RTVSPropertyOp4
 70
     0
102
RTVSPropertyOp5
 70
     0
102
RTVSPropertyOp6
 70
     0
102
RTVSPropertyOp7
 70
     0
102
RTVSPropertyOp8
 70
     0
102
RTVSPropertyOp9
 70
     0
102
RTVSPropertyOp10
 70
     0
102
RTVSPropertyOp11
 70
     0
102
RTVSPropertyOp12
 70
     0
102
RTVSPropertyOp13
 70
     0
102
RTVSPropertyOp14
 70
     2
102
RTVSPropertyOp15
 70
     0
102
RTVSPropertyOp16
 70
     0
102
RTVSPropertyOp17
 70
     0
102
RTVSPropertyOp18
 70
     0
102
RTVSPropertyOp19
 70
     0
102
RTVSPropertyOp20
 70
     0
102
RTVSPropertyOp21
 70
     0
102
RTVSPropertyOp22
 70
     0
102
RTVSPropertyOp23
 70
     0
102
RTVSPropertyOp24
 70
     0
102
RTVSPropertyOp25
 70
     0
102
RTVSPropertyOp26
 70
     0
102
RTVSPropertyOp27
 70
     0
102
RTVSPropertyOp28
 70
     1
102
RTVSPropertyOp29
 70
     1
102
RTVSPropertyOp30
 70
     1
102
RTVSPropertyOp31
 70
     1
102
RTVSPropertyOp32
 70
     1
  0
XRECORD
  5
15F4
102
{ACAD_REACTORS
330
15F3
102
}
330
15F3
100
AcDbXrecord
280
     1
102
RTVSPropertyOp0
 70
     1
102
RTVSPropertyOp1
 70
     1
102
RTVSPropertyOp2
 70
     1
102
RTVSPropertyOp3
 70
     1
102
RTVSPropertyOp4
 70
     1
102
RTVSPropertyOp5
 70
     1
102
RTVSPropertyOp6
 70
     1
102
RTVSPropertyOp7
 70
     1
102
RTVSPropertyOp8
 70
     1
102
RTVSPropertyOp9
 70
     1
102
RTVSPropertyOp10
 70
     1
102
RTVSPropertyOp11
 70
     1
102
RTVSPropertyOp12
 70
     1
102
RTVSPropertyOp13
 70
     1
102
RTVSPropertyOp14
 70
     1
102
RTVSPropertyOp15
 70
     1
102
RTVSPropertyOp16
 70
     1
102
RTVSPropertyOp17
 70
     1
102
RTVSPropertyOp18
 70
     1
102
RTVSPropertyOp19
 70
     1
102
RTVSPropertyOp20
 70
     1
102
RTVSPropertyOp21
 70
     1
102
RTVSPropertyOp22
 70
     1
102
RTVSPropertyOp23
 70
     1
102
RTVSPropertyOp24
 70
     1
102
RTVSPropertyOp25
 70
     1
102
RTVSPropertyOp26
 70
     1
102
RTVSPropertyOp27
 70
     1
102
RTVSPropertyOp28
 70
     1
102
RTVSPropertyOp29
 70
     1
102
RTVSPropertyOp30
 70
     1
102
RTVSPropertyOp31
 70
     1
102
RTVSPropertyOp32
 70
     1
  0
XRECORD
  5
160A
102
{ACAD_REACTORS
330
1609
102
}
330
1609
100
AcDbXrecord
280
     1
102
RTVSPropertyOp0
 70
     0
102
RTVSPropertyOp1
 70
     0
102
RTVSPropertyOp2
 70
     0
102
RTVSPropertyOp3
 70
     0
102
RTVSPropertyOp4
 70
     0
102
RTVSPropertyOp5
 70
     0
102
RTVSPropertyOp6
 70
     0
102
RTVSPropertyOp7
 70
     0
102
RTVSPropertyOp8
 70
     0
102
RTVSPropertyOp9
 70
     0
102
RTVSPropertyOp10
 70
     0
102
RTVSPropertyOp11
 70
     0
102
RTVSPropertyOp12
 70
     0
102
RTVSPropertyOp13
 70
     0
102
RTVSPropertyOp14
 70
     2
102
RTVSPropertyOp15
 70
     0
102
RTVSPropertyOp16
 70
     0
102
RTVSPropertyOp17
 70
     0
102
RTVSPropertyOp18
 70
     0
102
RTVSPropertyOp19
 70
     0
102
RTVSPropertyOp20
 70
     0
102
RTVSPropertyOp21
 70
     0
102
RTVSPropertyOp22
 70
     0
102
RTVSPropertyOp23
 70
     0
102
RTVSPropertyOp24
 70
     0
102
RTVSPropertyOp25
 70
     0
102
RTVSPropertyOp26
 70
     0
102
RTVSPropertyOp27
 70
     0
102
RTVSPropertyOp28
 70
     1
102
RTVSPropertyOp29
 70
     1
102
RTVSPropertyOp30
 70
     1
102
RTVSPropertyOp31
 70
     1
102
RTVSPropertyOp32
 70
     1
  0
XRECORD
  5
15EC
102
{ACAD_REACTORS
330
15EB
102
}
330
15EB
100
AcDbXrecord
280
     1
102
RTVSPropertyOp0
 70
     1
102
RTVSPropertyOp1
 70
     1
102
RTVSPropertyOp2
 70
     1
102
RTVSPropertyOp3
 70
     1
102
RTVSPropertyOp4
 70
     1
102
RTVSPropertyOp5
 70
     1
102
RTVSPropertyOp6
 70
     1
102
RTVSPropertyOp7
 70
     1
102
RTVSPropertyOp8
 70
     1
102
RTVSPropertyOp9
 70
     1
102
RTVSPropertyOp10
 70
     1
102
RTVSPropertyOp11
 70
     1
102
RTVSPropertyOp12
 70
     1
102
RTVSPropertyOp13
 70
     1
102
RTVSPropertyOp14
 70
     1
102
RTVSPropertyOp15
 70
     1
102
RTVSPropertyOp16
 70
     1
102
RTVSPropertyOp17
 70
     1
102
RTVSPropertyOp18
 70
     1
102
RTVSPropertyOp19
 70
     1
102
RTVSPropertyOp20
 70
     1
102
RTVSPropertyOp21
 70
     1
102
RTVSPropertyOp22
 70
     1
102
RTVSPropertyOp23
 70
     1
102
RTVSPropertyOp24
 70
     1
102
RTVSPropertyOp25
 70
     1
102
RTVSPropertyOp26
 70
     1
102
RTVSPropertyOp27
 70
     1
102
RTVSPropertyOp28
 70
     1
102
RTVSPropertyOp29
 70
     1
102
RTVSPropertyOp30
 70
     1
102
RTVSPropertyOp31
 70
     1
102
RTVSPropertyOp32
 70
     1
  0
XRECORD
  5
1606
102
{ACAD_REACTORS
330
1605
102
}
330
1605
100
AcDbXrecord
280
     1
102
RTVSPropertyOp0
 70
     1
102
RTVSPropertyOp1
 70
     1
102
RTVSPropertyOp2
 70
     1
102
RTVSPropertyOp3
 70
     1
102
RTVSPropertyOp4
 70
     1
102
RTVSPropertyOp5
 70
     1
102
RTVSPropertyOp6
 70
     1
102
RTVSPropertyOp7
 70
     1
102
RTVSPropertyOp8
 70
     1
102
RTVSPropertyOp9
 70
     1
102
RTVSPropertyOp10
 70
     1
102
RTVSPropertyOp11
 70
     1
102
RTVSPropertyOp12
 70
     1
102
RTVSPropertyOp13
 70
     1
102
RTVSPropertyOp14
 70
     1
102
RTVSPropertyOp15
 70
     1
102
RTVSPropertyOp16
 70
     1
102
RTVSPropertyOp17
 70
     1
102
RTVSPropertyOp18
 70
     1
102
RTVSPropertyOp19
 70
     1
102
RTVSPropertyOp20
 70
     1
102
RTVSPropertyOp21
 70
     1
102
RTVSPropertyOp22
 70
     1
102
RTVSPropertyOp23
 70
     1
102
RTVSPropertyOp24
 70
     1
102
RTVSPropertyOp25
 70
     1
102
RTVSPropertyOp26
 70
     1
102
RTVSPropertyOp27
 70
     1
102
RTVSPropertyOp28
 70
     1
102
RTVSPropertyOp29
 70
     1
102
RTVSPropertyOp30
 70
     1
102
RTVSPropertyOp31
 70
     1
102
RTVSPropertyOp32
 70
     1
  0
XRECORD
  5
1604
102
{ACAD_REACTORS
330
1603
102
}
330
1603
100
AcDbXrecord
280
     1
102
RTVSPropertyOp0
 70
     1
102
RTVSPropertyOp1
 70
     1
102
RTVSPropertyOp2
 70
     1
102
RTVSPropertyOp3
 70
     1
102
RTVSPropertyOp4
 70
     1
102
RTVSPropertyOp5
 70
     1
102
RTVSPropertyOp6
 70
     1
102
RTVSPropertyOp7
 70
     1
102
RTVSPropertyOp8
 70
     1
102
RTVSPropertyOp9
 70
     1
102
RTVSPropertyOp10
 70
     1
102
RTVSPropertyOp11
 70
     1
102
RTVSPropertyOp12
 70
     1
102
RTVSPropertyOp13
 70
     1
102
RTVSPropertyOp14
 70
     1
102
RTVSPropertyOp15
 70
     1
102
RTVSPropertyOp16
 70
     1
102
RTVSPropertyOp17
 70
     1
102
RTVSPropertyOp18
 70
     1
102
RTVSPropertyOp19
 70
     1
102
RTVSPropertyOp20
 70
     1
102
RTVSPropertyOp21
 70
     1
102
RTVSPropertyOp22
 70
     1
102
RTVSPropertyOp23
 70
     1
102
RTVSPropertyOp24
 70
     1
102
RTVSPropertyOp25
 70
     1
102
RTVSPropertyOp26
 70
     1
102
RTVSPropertyOp27
 70
     1
102
RTVSPropertyOp28
 70
     1
102
RTVSPropertyOp29
 70
     1
102
RTVSPropertyOp30
 70
     1
102
RTVSPropertyOp31
 70
     1
102
RTVSPropertyOp32
 70
     1
  0
XRECORD
  5
15FE
102
{ACAD_REACTORS
330
15FD
102
}
330
15FD
100
AcDbXrecord
280
     1
102
RTVSPropertyOp0
 70
     1
102
RTVSPropertyOp1
 70
     1
102
RTVSPropertyOp2
 70
     1
102
RTVSPropertyOp3
 70
     1
102
RTVSPropertyOp4
 70
     1
102
RTVSPropertyOp5
 70
     1
102
RTVSPropertyOp6
 70
     1
102
RTVSPropertyOp7
 70
     1
102
RTVSPropertyOp8
 70
     1
102
RTVSPropertyOp9
 70
     1
102
RTVSPropertyOp10
 70
     1
102
RTVSPropertyOp11
 70
     1
102
RTVSPropertyOp12
 70
     1
102
RTVSPropertyOp13
 70
     1
102
RTVSPropertyOp14
 70
     1
102
RTVSPropertyOp15
 70
     1
102
RTVSPropertyOp16
 70
     1
102
RTVSPropertyOp17
 70
     1
102
RTVSPropertyOp18
 70
     1
102
RTVSPropertyOp19
 70
     1
102
RTVSPropertyOp20
 70
     1
102
RTVSPropertyOp21
 70
     1
102
RTVSPropertyOp22
 70
     1
102
RTVSPropertyOp23
 70
     1
102
RTVSPropertyOp24
 70
     1
102
RTVSPropertyOp25
 70
     1
102
RTVSPropertyOp26
 70
     1
102
RTVSPropertyOp27
 70
     1
102
RTVSPropertyOp28
 70
     1
102
RTVSPropertyOp29
 70
     1
102
RTVSPropertyOp30
 70
     1
102
RTVSPropertyOp31
 70
     1
102
RTVSPropertyOp32
 70
     1
  0
XRECORD
  5
1600
102
{ACAD_REACTORS
330
15FF
102
}
330
15FF
100
AcDbXrecord
280
     1
102
RTVSPropertyOp0
 70
     1
102
RTVSPropertyOp1
 70
     1
102
RTVSPropertyOp2
 70
     1
102
RTVSPropertyOp3
 70
     1
102
RTVSPropertyOp4
 70
     1
102
RTVSPropertyOp5
 70
     1
102
RTVSPropertyOp6
 70
     1
102
RTVSPropertyOp7
 70
     1
102
RTVSPropertyOp8
 70
     1
102
RTVSPropertyOp9
 70
     1
102
RTVSPropertyOp10
 70
     1
102
RTVSPropertyOp11
 70
     1
102
RTVSPropertyOp12
 70
     1
102
RTVSPropertyOp13
 70
     1
102
RTVSPropertyOp14
 70
     1
102
RTVSPropertyOp15
 70
     1
102
RTVSPropertyOp16
 70
     1
102
RTVSPropertyOp17
 70
     1
102
RTVSPropertyOp18
 70
     1
102
RTVSPropertyOp19
 70
     1
102
RTVSPropertyOp20
 70
     1
102
RTVSPropertyOp21
 70
     1
102
RTVSPropertyOp22
 70
     1
102
RTVSPropertyOp23
 70
     1
102
RTVSPropertyOp24
 70
     1
102
RTVSPropertyOp25
 70
     1
102
RTVSPropertyOp26
 70
     1
102
RTVSPropertyOp27
 70
     1
102
RTVSPropertyOp28
 70
     1
102
RTVSPropertyOp29
 70
     1
102
RTVSPropertyOp30
 70
     1
102
RTVSPropertyOp31
 70
     1
102
RTVSPropertyOp32
 70
     1
  0
XRECORD
  5
15F2
102
{ACAD_REACTORS
330
15F1
102
}
330
15F1
100
AcDbXrecord
280
     1
102
RTVSPropertyOp0
 70
     1
102
RTVSPropertyOp1
 70
     1
102
RTVSPropertyOp2
 70
     1
102
RTVSPropertyOp3
 70
     1
102
RTVSPropertyOp4
 70
     1
102
RTVSPropertyOp5
 70
     1
102
RTVSPropertyOp6
 70
     1
102
RTVSPropertyOp7
 70
     1
102
RTVSPropertyOp8
 70
     1
102
RTVSPropertyOp9
 70
     1
102
RTVSPropertyOp10
 70
     1
102
RTVSPropertyOp11
 70
     1
102
RTVSPropertyOp12
 70
     1
102
RTVSPropertyOp13
 70
     1
102
RTVSPropertyOp14
 70
     1
102
RTVSPropertyOp15
 70
     1
102
RTVSPropertyOp16
 70
     1
102
RTVSPropertyOp17
 70
     1
102
RTVSPropertyOp18
 70
     1
102
RTVSPropertyOp19
 70
     1
102
RTVSPropertyOp20
 70
     1
102
RTVSPropertyOp21
 70
     1
102
RTVSPropertyOp22
 70
     1
102
RTVSPropertyOp23
 70
     1
102
RTVSPropertyOp24
 70
     1
102
RTVSPropertyOp25
 70
     1
102
RTVSPropertyOp26
 70
     1
102
RTVSPropertyOp27
 70
     1
102
RTVSPropertyOp28
 70
     1
102
RTVSPropertyOp29
 70
     1
102
RTVSPropertyOp30
 70
     1
102
RTVSPropertyOp31
 70
     1
102
RTVSPropertyOp32
 70
     1
  0
XRECORD
  5
15FA
102
{ACAD_REACTORS
330
15F9
102
}
330
15F9
100
AcDbXrecord
280
     1
102
RTVSPropertyOp0
 70
     1
102
RTVSPropertyOp1
 70
     1
102
RTVSPropertyOp2
 70
     1
102
RTVSPropertyOp3
 70
     1
102
RTVSPropertyOp4
 70
     1
102
RTVSPropertyOp5
 70
     1
102
RTVSPropertyOp6
 70
     1
102
RTVSPropertyOp7
 70
     1
102
RTVSPropertyOp8
 70
     1
102
RTVSPropertyOp9
 70
     1
102
RTVSPropertyOp10
 70
     1
102
RTVSPropertyOp11
 70
     1
102
RTVSPropertyOp12
 70
     1
102
RTVSPropertyOp13
 70
     1
102
RTVSPropertyOp14
 70
     1
102
RTVSPropertyOp15
 70
     1
102
RTVSPropertyOp16
 70
     1
102
RTVSPropertyOp17
 70
     1
102
RTVSPropertyOp18
 70
     1
102
RTVSPropertyOp19
 70
     1
102
RTVSPropertyOp20
 70
     1
102
RTVSPropertyOp21
 70
     1
102
RTVSPropertyOp22
 70
     1
102
RTVSPropertyOp23
 70
     1
102
RTVSPropertyOp24
 70
     1
102
RTVSPropertyOp25
 70
     1
102
RTVSPropertyOp26
 70
     1
102
RTVSPropertyOp27
 70
     1
102
RTVSPropertyOp28
 70
     1
102
RTVSPropertyOp29
 70
     1
102
RTVSPropertyOp30
 70
     1
102
RTVSPropertyOp31
 70
     1
102
RTVSPropertyOp32
 70
     1
  0
XRECORD
  5
1602
102
{ACAD_REACTORS
330
1601
102
}
330
1601
100
AcDbXrecord
280
     1
102
RTVSPropertyOp0
 70
     1
102
RTVSPropertyOp1
 70
     1
102
RTVSPropertyOp2
 70
     1
102
RTVSPropertyOp3
 70
     1
102
RTVSPropertyOp4
 70
     1
102
RTVSPropertyOp5
 70
     1
102
RTVSPropertyOp6
 70
     1
102
RTVSPropertyOp7
 70
     1
102
RTVSPropertyOp8
 70
     1
102
RTVSPropertyOp9
 70
     1
102
RTVSPropertyOp10
 70
     1
102
RTVSPropertyOp11
 70
     1
102
RTVSPropertyOp12
 70
     1
102
RTVSPropertyOp13
 70
     1
102
RTVSPropertyOp14
 70
     1
102
RTVSPropertyOp15
 70
     1
102
RTVSPropertyOp16
 70
     1
102
RTVSPropertyOp17
 70
     1
102
RTVSPropertyOp18
 70
     1
102
RTVSPropertyOp19
 70
     1
102
RTVSPropertyOp20
 70
     1
102
RTVSPropertyOp21
 70
     1
102
RTVSPropertyOp22
 70
     1
102
RTVSPropertyOp23
 70
     1
102
RTVSPropertyOp24
 70
     1
102
RTVSPropertyOp25
 70
     1
102
RTVSPropertyOp26
 70
     1
102
RTVSPropertyOp27
 70
     1
102
RTVSPropertyOp28
 70
     1
102
RTVSPropertyOp29
 70
     1
102
RTVSPropertyOp30
 70
     1
102
RTVSPropertyOp31
 70
     1
102
RTVSPropertyOp32
 70
     1
  0
ENDSEC
  0
EOF
