  0
SECTION
  2
HEADER
  9
$ACADVER
  1
AC1015
  9
$ACADMAINTVER
 70
    20
  9
$DWGCODEPAGE
  3
ANSI_932
  9
$INSBASE
 10
0.0
 20
0.0
 30
0.0
  9
$EXTMIN
 10
1310.163467420417
 20
19.14468267049449
 30
-0.0015258207003583
  9
$EXTMAX
 10
1502.248035244969
 20
300.2884012528773
 30
0.0000000349246037
  9
$LIMMIN
 10
0.0
 20
0.0
  9
$LIMMAX
 10
12.0
 20
9.0
  9
$ORTHOMODE
 70
     1
  9
$REGENMODE
 70
     1
  9
$FILLMODE
 70
     1
  9
$QTEXTMODE
 70
     0
  9
$MIRRTEXT
 70
     0
  9
$LTSCALE
 40
1.0
  9
$ATTMODE
 70
     1
  9
$TEXTSIZE
 40
3.2
  9
$TRACEWID
 40
0.05
  9
$TEXTSTYLE
  7
高3.2
  9
$CLAYER
  8
0
  9
$CELTYPE
  6
ByLayer
  9
$CECOLOR
 62
   256
  9
$CELTSCALE
 40
1.0
  9
$DISPSILH
 70
     0
  9
$DIMSCALE
 40
1.0
  9
$DIMASZ
 40
2.5
  9
$DIMEXO
 40
0.25
  9
$DIMDLI
 40
0.2
  9
$DIMRND
 40
0.0
  9
$DIMDLE
 40
0.0
  9
$DIMEXE
 40
1.25
  9
$DIMTP
 40
0.0
  9
$DIMTM
 40
0.0
  9
$DIMTXT
 40
3.0
  9
$DIMCEN
 40
0.0
  9
$DIMTSZ
 40
0.0
  9
$DIMTOL
 70
     0
  9
$DIMLIM
 70
     0
  9
$DIMTIH
 70
     0
  9
$DIMTOH
 70
     0
  9
$DIMSE1
 70
     0
  9
$DIMSE2
 70
     0
  9
$DIMTAD
 70
     3
  9
$DIMZIN
 70
     8
  9
$DIMBLK
  1
Open30
  9
$DIMASO
 70
     1
  9
$DIMSHO
 70
     1
  9
$DIMPOST
  1

  9
$DIMAPOST
  1

  9
$DIMALT
 70
     0
  9
$DIMALTD
 70
     3
  9
$DIMALTF
 40
0.03937007874016
  9
$DIMLFAC
 40
1.0
  9
$DIMTOFL
 70
     1
  9
$DIMTVP
 40
0.0
  9
$DIMTIX
 70
     0
  9
$DIMSOXD
 70
     0
  9
$DIMSAH
 70
     0
  9
$DIMBLK1
  1

  9
$DIMBLK2
  1

  9
$DIMSTYLE
  2
1：1
  9
$DIMCLRD
 70
     0
  9
$DIMCLRE
 70
     0
  9
$DIMCLRT
 70
     4
  9
$DIMTFAC
 40
1.0
  9
$DIMGAP
 40
0.625
  9
$DIMJUST
 70
     0
  9
$DIMSD1
 70
     0
  9
$DIMSD2
 70
     0
  9
$DIMTOLJ
 70
     0
  9
$DIMTZIN
 70
     8
  9
$DIMALTZ
 70
     0
  9
$DIMALTTZ
 70
     0
  9
$DIMUPT
 70
     1
  9
$DIMDEC
 70
     2
  9
$DIMTDEC
 70
     2
  9
$DIMALTU
 70
     2
  9
$DIMALTTD
 70
     3
  9
$DIMTXSTY
  7
Standard
  9
$DIMAUNIT
 70
     0
  9
$DIMADEC
 70
     1
  9
$DIMALTRND
 40
0.0
  9
$DIMAZIN
 70
     2
  9
$DIMDSEP
 70
    46
  9
$DIMATFIT
 70
     0
  9
$DIMFRAC
 70
     0
  9
$DIMLDRBLK
  1
Open30
  9
$DIMLUNIT
 70
     2
  9
$DIMLWD
 70
    -2
  9
$DIMLWE
 70
    -2
  9
$DIMTMOVE
 70
     0
  9
$LUNITS
 70
     2
  9
$LUPREC
 70
     4
  9
$SKETCHINC
 40
0.1
  9
$FILLETRAD
 40
0.0
  9
$AUNITS
 70
     0
  9
$AUPREC
 70
     0
  9
$MENU
  1
.
  9
$ELEVATION
 40
0.0
  9
$PELEVATION
 40
0.0
  9
$THICKNESS
 40
0.0
  9
$LIMCHECK
 70
     0
  9
$CHAMFERA
 40
0.0
  9
$CHAMFERB
 40
0.0
  9
$CHAMFERC
 40
0.0
  9
$CHAMFERD
 40
0.0
  9
$SKPOLY
 70
     0
  9
$TDCREATE
 40
2456906.565069722
  9
$TDUCREATE
 40
2456906.190069722
  9
$TDUPDATE
 40
2456906.587021042
  9
$TDUUPDATE
 40
2456906.212021042
  9
$TDINDWG
 40
0.0219520602
  9
$TDUSRTIMER
 40
0.0219520370
  9
$USRTIMER
 70
     1
  9
$ANGBASE
 50
0.0
  9
$ANGDIR
 70
     0
  9
$PDMODE
 70
     0
  9
$PDSIZE
 40
0.0
  9
$PLINEWID
 40
0.0
  9
$SPLFRAME
 70
     0
  9
$SPLINETYPE
 70
     6
  9
$SPLINESEGS
 70
     8
  9
$HANDSEED
  5
11C7
  9
$SURFTAB1
 70
     6
  9
$SURFTAB2
 70
     6
  9
$SURFTYPE
 70
     6
  9
$SURFU
 70
     6
  9
$SURFV
 70
     6
  9
$UCSBASE
  2

  9
$UCSNAME
  2

  9
$UCSORG
 10
0.0
 20
0.0
 30
0.0
  9
$UCSXDIR
 10
1.0
 20
0.0
 30
0.0
  9
$UCSYDIR
 10
0.0
 20
1.0
 30
0.0
  9
$UCSORTHOREF
  2

  9
$UCSORTHOVIEW
 70
     0
  9
$UCSORGTOP
 10
0.0
 20
0.0
 30
0.0
  9
$UCSORGBOTTOM
 10
0.0
 20
0.0
 30
0.0
  9
$UCSORGLEFT
 10
0.0
 20
0.0
 30
0.0
  9
$UCSORGRIGHT
 10
0.0
 20
0.0
 30
0.0
  9
$UCSORGFRONT
 10
0.0
 20
0.0
 30
0.0
  9
$UCSORGBACK
 10
0.0
 20
0.0
 30
0.0
  9
$PUCSBASE
  2

  9
$PUCSNAME
  2

  9
$PUCSORG
 10
0.0
 20
0.0
 30
0.0
  9
$PUCSXDIR
 10
1.0
 20
0.0
 30
0.0
  9
$PUCSYDIR
 10
0.0
 20
1.0
 30
0.0
  9
$PUCSORTHOREF
  2

  9
$PUCSORTHOVIEW
 70
     0
  9
$PUCSORGTOP
 10
0.0
 20
0.0
 30
0.0
  9
$PUCSORGBOTTOM
 10
0.0
 20
0.0
 30
0.0
  9
$PUCSORGLEFT
 10
0.0
 20
0.0
 30
0.0
  9
$PUCSORGRIGHT
 10
0.0
 20
0.0
 30
0.0
  9
$PUCSORGFRONT
 10
0.0
 20
0.0
 30
0.0
  9
$PUCSORGBACK
 10
0.0
 20
0.0
 30
0.0
  9
$USERI1
 70
     0
  9
$USERI2
 70
     0
  9
$USERI3
 70
     0
  9
$USERI4
 70
     0
  9
$USERI5
 70
     0
  9
$USERR1
 40
0.0
  9
$USERR2
 40
0.0
  9
$USERR3
 40
0.0
  9
$USERR4
 40
0.0
  9
$USERR5
 40
0.0
  9
$WORLDVIEW
 70
     1
  9
$SHADEDGE
 70
     3
  9
$SHADEDIF
 70
    70
  9
$TILEMODE
 70
     1
  9
$MAXACTVP
 70
    64
  9
$PINSBASE
 10
0.0
 20
0.0
 30
0.0
  9
$PLIMCHECK
 70
     0
  9
$PEXTMIN
 10
0.0
 20
0.0
 30
0.0
  9
$PEXTMAX
 10
0.0
 20
0.0
 30
0.0
  9
$PLIMMIN
 10
0.0
 20
0.0
  9
$PLIMMAX
 10
12.0
 20
9.0
  9
$UNITMODE
 70
     0
  9
$VISRETAIN
 70
     1
  9
$PLINEGEN
 70
     0
  9
$PSLTSCALE
 70
     1
  9
$TREEDEPTH
 70
  3020
  9
$CMLSTYLE
  2
Standard
  9
$CMLJUST
 70
     0
  9
$CMLSCALE
 40
1.0
  9
$PROXYGRAPHICS
 70
     1
  9
$MEASUREMENT
 70
     1
  9
$CELWEIGHT
370
    -1
  9
$ENDCAPS
280
     0
  9
$JOINSTYLE
280
     0
  9
$LWDISPLAY
290
     0
  9
$INSUNITS
 70
     1
  9
$HYPERLINKBASE
  1

  9
$STYLESHEET
  1
n-plot.ctb
  9
$XEDIT
290
     1
  9
$CEPSNTYPE
380
     0
  9
$PSTYLEMODE
290
     1
  9
$FINGERPRINTGUID
  2
{166EED4E-5DA4-40C7-AF1C-D964DE2AF535}
  9
$VERSIONGUID
  2
{2A8AC0E5-8C03-43A7-81BB-952E649EDD68}
  9
$EXTNAMES
290
     1
  9
$PSVPSCALE
 40
0.0
  9
$OLESTARTUP
290
     0
  0
ENDSEC
  0
SECTION
  2
CLASSES
  0
CLASS
  1
ACDBDICTIONARYWDFLT
  2
AcDbDictionaryWithDefault
  3
ObjectDBX Classes
 90
        0
280
     0
281
     0
  0
CLASS
  1
ACDBPLACEHOLDER
  2
AcDbPlaceHolder
  3
ObjectDBX Classes
 90
        0
280
     0
281
     0
  0
CLASS
  1
LAYOUT
  2
AcDbLayout
  3
ObjectDBX Classes
 90
        0
280
     0
281
     0
  0
CLASS
  1
DICTIONARYVAR
  2
AcDbDictionaryVar
  3
ObjectDBX Classes
 90
        0
280
     0
281
     0
  0
CLASS
  1
TABLESTYLE
  2
AcDbTableStyle
  3
ObjectDBX Classes
 90
     4095
280
     0
281
     0
  0
CLASS
  1
MATERIAL
  2
AcDbMaterial
  3
ObjectDBX Classes
 90
     1153
280
     0
281
     0
  0
CLASS
  1
VISUALSTYLE
  2
AcDbVisualStyle
  3
ObjectDBX Classes
 90
     4095
280
     0
281
     0
  0
CLASS
  1
SORTENTSTABLE
  2
AcDbSortentsTable
  3
ObjectDBX Classes
 90
        0
280
     0
281
     0
  0
CLASS
  1
DIMASSOC
  2
AcDbDimAssoc
  3
"AcDbDimAssoc|Product Desc:     AcDim ARX App For Dimension|Company:          Autodesk, Inc.|WEB Address:      www.autodesk.com"
 90
        0
280
     0
281
     0
  0
CLASS
  1
SCALE
  2
AcDbScale
  3
ObjectDBX Classes
 90
     1153
280
     0
281
     0
  0
CLASS
  1
MLEADERSTYLE
  2
AcDbMLeaderStyle
  3
ACDB_MLEADERSTYLE_CLASS
 90
     4095
280
     0
281
     0
  0
CLASS
  1
CELLSTYLEMAP
  2
AcDbCellStyleMap
  3
ObjectDBX Classes
 90
     1152
280
     0
281
     0
  0
ENDSEC
  0
SECTION
  2
TABLES
  0
TABLE
  2
VPORT
  5
8
330
0
100
AcDbSymbolTable
 70
     1
  0
VPORT
  5
94
330
8
100
AcDbSymbolTableRecord
100
AcDbViewportTableRecord
  2
*Active
 70
     0
 10
0.0
 20
0.0
 11
1.0
 21
1.0
 12
1490.765021432325
 22
160.6358727542722
 13
0.0
 23
0.0
 14
0.5
 24
0.5
 15
0.5
 25
0.5
 16
0.0
 26
0.0
 36
1.0
 17
0.0
 27
0.0
 37
0.0
 40
444.1152855689639
 41
1.946164199192462
 42
50.0
 43
0.0
 44
0.0
 50
0.0
 51
0.0
 71
     0
 72
  1000
 73
     1
 74
     2
 75
     0
 76
     0
 77
     0
 78
     0
281
     0
 65
     1
110
0.0
120
0.0
130
0.0
111
1.0
121
0.0
131
0.0
112
0.0
122
1.0
132
0.0
 79
     0
146
0.0
  0
ENDTAB
  0
TABLE
  2
LTYPE
  5
5
330
0
100
AcDbSymbolTable
 70
     5
  0
LTYPE
  5
14
330
5
100
AcDbSymbolTableRecord
100
AcDbLinetypeTableRecord
  2
ByBlock
 70
     0
  3

 72
    65
 73
     0
 40
0.0
  0
LTYPE
  5
15
330
5
100
AcDbSymbolTableRecord
100
AcDbLinetypeTableRecord
  2
ByLayer
 70
     0
  3

 72
    65
 73
     0
 40
0.0
  0
LTYPE
  5
16
330
5
100
AcDbSymbolTableRecord
100
AcDbLinetypeTableRecord
  2
Continuous
 70
     0
  3
Solid line
 72
    65
 73
     0
 40
0.0
  0
LTYPE
  5
F7A
330
5
100
AcDbSymbolTableRecord
100
AcDbLinetypeTableRecord
  2
CENTER
 70
     0
  3
Center ____ _ ____ _ ____ _ ____ _ ____ _ ____
 72
    65
 73
     4
 40
50.8
 49
31.75
 74
     0
 49
-6.349999999999999
 74
     0
 49
6.349999999999999
 74
     0
 49
-6.349999999999999
 74
     0
  0
LTYPE
  5
F7B
330
5
100
AcDbSymbolTableRecord
100
AcDbLinetypeTableRecord
  2
HIDDEN
 70
     0
  3
Hidden __ __ __ __ __ __ __ __ __ __ __ __ __ _
 72
    65
 73
     2
 40
9.524999999999998
 49
6.349999999999999
 74
     0
 49
-3.174999999999999
 74
     0
  0
LTYPE
  5
F7C
330
5
100
AcDbSymbolTableRecord
100
AcDbLinetypeTableRecord
  2
PHANTOM
 70
     0
  3
Phantom ______  __  __  ______  __  __  ______
 72
    65
 73
     6
 40
63.5
 49
31.75
 74
     0
 49
-6.349999999999999
 74
     0
 49
6.349999999999999
 74
     0
 49
-6.349999999999999
 74
     0
 49
6.349999999999999
 74
     0
 49
-6.349999999999999
 74
     0
  0
ENDTAB
  0
TABLE
  2
LAYER
  5
2
102
{ACAD_XDICTIONARY
360
DD
102
}
330
0
100
AcDbSymbolTable
 70
     2
  0
LAYER
  5
10
102
{ACAD_XDICTIONARY
360
10C5
102
}
330
2
100
AcDbSymbolTableRecord
100
AcDbLayerTableRecord
  2
0
 70
     0
 62
     7
  6
Continuous
370
    -3
390
F
  0
LAYER
  5
D8
330
2
100
AcDbSymbolTableRecord
100
AcDbLayerTableRecord
  2
Defpoints
 70
     0
 62
     7
  6
Continuous
290
     0
370
    -3
390
F
  0
ENDTAB
  0
TABLE
  2
STYLE
  5
3
330
0
100
AcDbSymbolTable
 70
     9
  0
STYLE
  5
11
330
3
100
AcDbSymbolTableRecord
100
AcDbTextStyleTableRecord
  2
Standard
 70
     0
 40
0.0
 41
1.0
 50
0.0
 71
     0
 42
0.2
  3
txt.shx
  4
bigfont.shx
  0
STYLE
  5
11D
330
3
100
AcDbSymbolTableRecord
100
AcDbTextStyleTableRecord
  2
高3.2
 70
     0
 40
3.2
 41
1.0
 50
0.0
 71
     0
 42
3.2
  3
txt.shx
  4
bigfont.shx
  0
STYLE
  5
11E
330
3
100
AcDbSymbolTableRecord
100
AcDbTextStyleTableRecord
  2
高6.3
 70
     0
 40
6.299999999999999
 41
1.0
 50
0.0
 71
     0
 42
6.299999999999999
  3
txt.shx
  4
bigfont.shx
  0
STYLE
  5
11F
330
3
100
AcDbSymbolTableRecord
100
AcDbTextStyleTableRecord
  2
高2.5
 70
     0
 40
2.5
 41
1.0
 50
0.0
 71
     0
 42
0.2
  3
txt.shx
  4
bigfont.shx
  0
STYLE
  5
146
330
3
100
AcDbSymbolTableRecord
100
AcDbTextStyleTableRecord
  2
高4.5
 70
     0
 40
4.5
 41
1.0
 50
0.0
 71
     0
 42
6.299999999999999
  3
txt.shx
  4
bigfont.shx
  0
STYLE
  5
171
330
3
100
AcDbSymbolTableRecord
100
AcDbTextStyleTableRecord
  2
高2
 70
     0
 40
2.0
 41
1.0
 50
0.0
 71
     0
 42
6.299999999999999
  3
txt.shx
  4
bigfont.shx
  0
STYLE
  5
F79
330
3
100
AcDbSymbolTableRecord
100
AcDbTextStyleTableRecord
  2

 70
     1
 40
0.0
 41
1.0
 50
0.0
 71
     0
 42
6.299999999999999
  3
ltypeshp.shx
  4

  0
STYLE
  5
1052
330
3
100
AcDbSymbolTableRecord
100
AcDbTextStyleTableRecord
  2
高4.5e
 70
     0
 40
4.5
 41
1.0
 50
0.0
 71
     0
 42
6.299999999999999
  3
txt.shx
  4
extfont2.shx
  0
ENDTAB
  0
TABLE
  2
VIEW
  5
6
330
0
100
AcDbSymbolTable
 70
     0
  0
ENDTAB
  0
TABLE
  2
UCS
  5
7
330
0
100
AcDbSymbolTable
 70
     0
  0
ENDTAB
  0
TABLE
  2
APPID
  5
9
330
0
100
AcDbSymbolTable
 70
    10
  0
APPID
  5
12
330
9
100
AcDbSymbolTableRecord
100
AcDbRegAppTableRecord
  2
ACAD
 70
     0
  0
APPID
  5
DC
330
9
100
AcDbSymbolTableRecord
100
AcDbRegAppTableRecord
  2
ACAD_DSTYLE_DIMJOGGED_JOGANGLE_SYMBOL
 70
     0
  0
APPID
  5
566
330
9
100
AcDbSymbolTableRecord
100
AcDbRegAppTableRecord
  2
ACAD_EXEMPT_FROM_CAD_STANDARDS
 70
     0
  0
APPID
  5
647
330
9
100
AcDbSymbolTableRecord
100
AcDbRegAppTableRecord
  2
ACAD_DSTYLE_DIMJAG
 70
     0
  0
APPID
  5
648
330
9
100
AcDbSymbolTableRecord
100
AcDbRegAppTableRecord
  2
ACAD_DSTYLE_DIMBREAK
 70
     0
  0
APPID
  5
649
330
9
100
AcDbSymbolTableRecord
100
AcDbRegAppTableRecord
  2
ACAD_DSTYLE_DIMTALN
 70
     0
  0
APPID
  5
1053
330
9
100
AcDbSymbolTableRecord
100
AcDbRegAppTableRecord
  2
AcadAnnoPO
 70
     0
  0
APPID
  5
11AF
330
9
100
AcDbSymbolTableRecord
100
AcDbRegAppTableRecord
  2
ACAD_DSTYLE_DIMARC_LENGTH_SYMBOL
 70
     0
  0
APPID
  5
11B0
330
9
100
AcDbSymbolTableRecord
100
AcDbRegAppTableRecord
  2
ACAD_DSTYLE_DIMEXT_LENGTH
 70
     0
  0
APPID
  5
11C5
330
9
100
AcDbSymbolTableRecord
100
AcDbRegAppTableRecord
  2
ACAD_MLEADERVER
 70
     0
  0
ENDTAB
  0
TABLE
  2
DIMSTYLE
  5
A
330
0
100
AcDbSymbolTable
 70
    11
100
AcDbDimStyleTable
 71
     1
340
D9
  0
DIMSTYLE
105
D9
330
A
100
AcDbSymbolTableRecord
100
AcDbDimStyleTableRecord
  2
1：1
 70
     0
 41
2.5
 42
0.25
 43
0.2
 44
1.25
 73
     0
 74
     0
 77
     3
 78
     8
 79
     2
140
3.0
141
0.0
143
0.03937007874016
147
0.625
171
     3
172
     1
178
     4
179
     1
271
     2
272
     2
274
     3
283
     0
284
     8
288
     1
289
     0
340
11
341
C6
342
C6
1001
ACAD_DSTYLE_DIMARC_LENGTH_SYMBOL
1070
   379
1070
     2
1001
ACAD_DSTYLE_DIMEXT_LENGTH
1070
   378
1040
1.25
1001
ACAD_DSTYLE_DIMJOGGED_JOGANGLE_SYMBOL
1070
   384
1040
1.570796326794896
  0
DIMSTYLE
105
D8E
330
A
100
AcDbSymbolTableRecord
100
AcDbDimStyleTableRecord
  2
2：1
 70
     0
 41
2.5
 42
0.25
 43
0.2
 44
1.25
 73
     0
 74
     0
 77
     3
 78
     8
 79
     2
140
3.0
141
0.0
143
0.03937007874016
144
0.5
147
0.625
171
     3
172
     1
178
     4
179
     1
271
     2
272
     2
274
     3
283
     0
284
     8
288
     1
289
     0
340
11
341
C6
342
C6
1001
ACAD_DSTYLE_DIMARC_LENGTH_SYMBOL
1070
   379
1070
     2
1001
ACAD_DSTYLE_DIMEXT_LENGTH
1070
   378
1040
1.25
1001
ACAD_DSTYLE_DIMJOGGED_JOGANGLE_SYMBOL
1070
   384
1040
1.570796326794896
  0
DIMSTYLE
105
D8F
330
A
100
AcDbSymbolTableRecord
100
AcDbDimStyleTableRecord
  2
5：1
 70
     0
 41
2.5
 42
0.25
 43
0.2
 44
1.25
 73
     0
 74
     0
 77
     3
 78
     8
 79
     2
140
3.0
141
0.0
143
0.03937007874016
144
0.2
147
0.625
171
     3
172
     1
178
     4
179
     1
271
     2
272
     2
274
     3
283
     0
284
     8
288
     1
289
     0
340
11
341
C6
342
C6
1001
ACAD_DSTYLE_DIMARC_LENGTH_SYMBOL
1070
   379
1070
     2
1001
ACAD_DSTYLE_DIMEXT_LENGTH
1070
   378
1040
1.25
1001
ACAD_DSTYLE_DIMJOGGED_JOGANGLE_SYMBOL
1070
   384
1040
1.570796326794896
  0
DIMSTYLE
105
D90
330
A
100
AcDbSymbolTableRecord
100
AcDbDimStyleTableRecord
  2
10：1
 70
     0
 41
2.5
 42
0.25
 43
0.2
 44
1.25
 73
     0
 74
     0
 77
     3
 78
     8
 79
     2
140
3.0
141
0.0
143
0.03937007874016
144
0.1
147
0.625
171
     3
172
     1
178
     4
179
     1
271
     2
272
     2
274
     3
283
     0
284
     8
288
     1
289
     0
340
11
341
C6
342
C6
1001
ACAD_DSTYLE_DIMARC_LENGTH_SYMBOL
1070
   379
1070
     2
1001
ACAD_DSTYLE_DIMEXT_LENGTH
1070
   378
1040
1.25
1001
ACAD_DSTYLE_DIMJOGGED_JOGANGLE_SYMBOL
1070
   384
1040
1.570796326794896
  0
DIMSTYLE
105
D91
330
A
100
AcDbSymbolTableRecord
100
AcDbDimStyleTableRecord
  2
1／2
 70
     0
 41
2.5
 42
0.25
 43
0.2
 44
1.25
 73
     0
 74
     0
 77
     3
 78
     8
 79
     2
140
3.0
141
0.0
143
0.03937007874016
144
2.0
147
0.625
171
     3
172
     1
178
     4
179
     1
271
     2
272
     2
274
     3
283
     0
284
     8
288
     1
289
     0
340
11
341
C6
342
C6
1001
ACAD_DSTYLE_DIMARC_LENGTH_SYMBOL
1070
   379
1070
     2
1001
ACAD_DSTYLE_DIMEXT_LENGTH
1070
   378
1040
1.25
1001
ACAD_DSTYLE_DIMJOGGED_JOGANGLE_SYMBOL
1070
   384
1040
1.570796326794896
  0
DIMSTYLE
105
D92
330
A
100
AcDbSymbolTableRecord
100
AcDbDimStyleTableRecord
  2
1／5
 70
     0
 41
2.5
 42
0.25
 43
0.2
 44
1.25
 73
     0
 74
     0
 77
     3
 78
     8
 79
     2
140
3.0
141
0.0
143
0.03937007874016
144
5.0
147
0.625
171
     3
172
     1
178
     4
179
     1
271
     2
272
     2
274
     3
283
     0
284
     8
288
     1
289
     0
340
11
341
C6
342
C6
1001
ACAD_DSTYLE_DIMARC_LENGTH_SYMBOL
1070
   379
1070
     2
1001
ACAD_DSTYLE_DIMEXT_LENGTH
1070
   378
1040
1.25
1001
ACAD_DSTYLE_DIMJOGGED_JOGANGLE_SYMBOL
1070
   384
1040
1.570796326794896
  0
DIMSTYLE
105
D93
330
A
100
AcDbSymbolTableRecord
100
AcDbDimStyleTableRecord
  2
1／10
 70
     0
 41
2.5
 42
0.25
 43
0.2
 44
1.25
 73
     0
 74
     0
 77
     3
 78
     8
 79
     2
140
3.0
141
0.0
143
0.03937007874016
144
10.0
147
0.625
171
     3
172
     1
178
     4
179
     1
271
     2
272
     2
274
     3
283
     0
284
     8
288
     1
289
     0
340
11
341
C6
342
C6
1001
ACAD_DSTYLE_DIMARC_LENGTH_SYMBOL
1070
   379
1070
     2
1001
ACAD_DSTYLE_DIMEXT_LENGTH
1070
   378
1040
1.25
1001
ACAD_DSTYLE_DIMJOGGED_JOGANGLE_SYMBOL
1070
   384
1040
1.570796326794896
  0
DIMSTYLE
105
D94
330
A
100
AcDbSymbolTableRecord
100
AcDbDimStyleTableRecord
  2
1／4
 70
     0
 41
2.5
 42
0.25
 43
0.2
 44
1.25
 73
     0
 74
     0
 77
     3
 78
     8
 79
     2
140
3.0
141
0.0
143
0.03937007874016
144
4.0
147
0.625
171
     3
172
     1
178
     4
179
     1
271
     2
272
     2
274
     3
283
     0
284
     8
288
     1
289
     0
340
11
341
C6
342
C6
1001
ACAD_DSTYLE_DIMARC_LENGTH_SYMBOL
1070
   379
1070
     2
1001
ACAD_DSTYLE_DIMEXT_LENGTH
1070
   378
1040
1.25
1001
ACAD_DSTYLE_DIMJOGGED_JOGANGLE_SYMBOL
1070
   384
1040
1.570796326794896
  0
DIMSTYLE
105
D95
330
A
100
AcDbSymbolTableRecord
100
AcDbDimStyleTableRecord
  2
1／3
 70
     0
 41
2.5
 42
0.25
 43
0.2
 44
1.25
 73
     0
 74
     0
 77
     3
 78
     8
 79
     2
140
3.0
141
0.0
143
0.03937007874016
144
3.0
147
0.625
171
     3
172
     1
178
     4
179
     1
271
     2
272
     2
274
     3
283
     0
284
     8
288
     1
289
     0
340
11
341
C6
342
C6
1001
ACAD_DSTYLE_DIMARC_LENGTH_SYMBOL
1070
   379
1070
     2
1001
ACAD_DSTYLE_DIMEXT_LENGTH
1070
   378
1040
1.25
1001
ACAD_DSTYLE_DIMJOGGED_JOGANGLE_SYMBOL
1070
   384
1040
1.570796326794896
  0
DIMSTYLE
105
D96
330
A
100
AcDbSymbolTableRecord
100
AcDbDimStyleTableRecord
  2
FREE
 70
     0
 41
2.5
 42
0.25
 43
0.2
 44
1.25
 73
     0
 74
     0
 77
     3
 78
     8
 79
     2
140
3.0
141
0.0
143
0.03937007874016
147
0.625
171
     3
172
     1
178
     4
179
     1
271
     2
272
     2
274
     3
283
     0
284
     8
288
     1
289
     0
340
11
341
C6
342
C6
1001
ACAD_DSTYLE_DIMBREAK
1070
   391
1040
3.75
1001
ACAD_DSTYLE_DIMJAG
1070
   388
1040
1.5
1001
ACAD_DSTYLE_DIMTALN
1070
   392
1070
     0
1001
ACAD_DSTYLE_DIMARC_LENGTH_SYMBOL
1070
   379
1070
     2
1001
ACAD_DSTYLE_DIMEXT_LENGTH
1070
   378
1040
1.25
1001
ACAD_DSTYLE_DIMJOGGED_JOGANGLE_SYMBOL
1070
   384
1040
1.570796326794896
  0
ENDTAB
  0
TABLE
  2
BLOCK_RECORD
  5
1
330
0
100
AcDbSymbolTable
 70
     6
  0
BLOCK_RECORD
  5
1F
102
{ACAD_XDICTIONARY
360
31A
102
}
330
1
100
AcDbSymbolTableRecord
100
AcDbBlockTableRecord
  2
*Model_Space
340
22
  0
BLOCK_RECORD
  5
58
330
1
100
AcDbSymbolTableRecord
100
AcDbBlockTableRecord
  2
*Paper_Space
340
59
  0
BLOCK_RECORD
  5
5D
330
1
100
AcDbSymbolTableRecord
100
AcDbBlockTableRecord
  2
*Paper_Space0
340
5E
  0
BLOCK_RECORD
  5
C6
330
1
100
AcDbSymbolTableRecord
100
AcDbBlockTableRecord
  2
_Open30
340
0
102
{BLKREFS
331
10A0
331
10A1
331
10BB
331
10BC
102
}
  0
BLOCK_RECORD
  5
C34
102
{ACAD_XDICTIONARY
360
CFF
102
}
330
1
100
AcDbSymbolTableRecord
100
AcDbBlockTableRecord
  2
A$C369B3533
340
0
1001
ACAD
1000
DesignCenter Data
1002
{
1070
     1
1070
     1
1002
}
  0
BLOCK_RECORD
  5
105C
330
1
100
AcDbSymbolTableRecord
100
AcDbBlockTableRecord
  2
*D3
340
0
  0
BLOCK_RECORD
  5
1074
330
1
100
AcDbSymbolTableRecord
100
AcDbBlockTableRecord
  2
*D4
340
0
  0
ENDTAB
  0
ENDSEC
  0
SECTION
  2
BLOCKS
  0
BLOCK
  5
20
330
1F
100
AcDbEntity
  8
0
100
AcDbBlockBegin
  2
*Model_Space
 70
     0
 10
0.0
 20
0.0
 30
0.0
  3
*Model_Space
  1

  0
ENDBLK
  5
21
330
1F
100
AcDbEntity
  8
0
100
AcDbBlockEnd
  0
BLOCK
  5
5A
330
58
100
AcDbEntity
 67
     1
  8
0
100
AcDbBlockBegin
  2
*Paper_Space
 70
     0
 10
0.0
 20
0.0
 30
0.0
  3
*Paper_Space
  1

  0
ENDBLK
  5
5B
330
58
100
AcDbEntity
 67
     1
  8
0
100
AcDbBlockEnd
  0
BLOCK
  5
5F
330
5D
100
AcDbEntity
 67
     1
  8
0
100
AcDbBlockBegin
  2
*Paper_Space0
 70
     0
 10
0.0
 20
0.0
 30
0.0
  3
*Paper_Space0
  1

  0
ENDBLK
  5
60
330
5D
100
AcDbEntity
 67
     1
  8
0
100
AcDbBlockEnd
  0
BLOCK
  5
C7
330
C6
100
AcDbEntity
  8
0
100
AcDbBlockBegin
  2
_Open30
 70
     0
 10
0.0
 20
0.0
 30
0.0
  3
_Open30
  1

  0
LINE
  5
C8
330
C6
100
AcDbEntity
  8
0
  6
ByBlock
 62
     0
370
    -2
100
AcDbLine
 10
-1.0
 20
0.267949
 30
0.0
 11
0.0
 21
0.0
 31
0.0
  0
LINE
  5
C9
330
C6
100
AcDbEntity
  8
0
  6
ByBlock
 62
     0
370
    -2
100
AcDbLine
 10
0.0
 20
0.0
 30
0.0
 11
-1.0
 21
-0.267949
 31
0.0
  0
LINE
  5
CA
330
C6
100
AcDbEntity
  8
0
  6
ByBlock
 62
     0
370
    -2
100
AcDbLine
 10
0.0
 20
0.0
 30
0.0
 11
-1.0
 21
0.0
 31
0.0
  0
ENDBLK
  5
CB
330
C6
100
AcDbEntity
  8
0
100
AcDbBlockEnd
  0
BLOCK
  5
D01
330
C34
100
AcDbEntity
  8
0
100
AcDbBlockBegin
  2
A$C369B3533
 70
     0
 10
0.0
 20
0.0
 30
0.0
  3
A$C369B3533
  1

  0
LINE
  5
C35
330
C34
100
AcDbEntity
  8
0
 62
     3
100
AcDbLine
 10
8.487927449920789
 20
138.4999996444132
 30
0.0
 11
8.000000619920911
 21
138.4999996444132
 31
0.0
  0
LINE
  5
C36
330
C34
100
AcDbEntity
  8
0
 62
     3
100
AcDbLine
 10
20.00000061992091
 20
276.9999996444133
 30
0.0
 11
20.00000061992091
 21
-0.0000003555867352
 31
0.0
  0
LINE
  5
C37
330
C34
100
AcDbEntity
  8
0
 62
   254
100
AcDbLine
 10
0.000000619920911
 20
286.9999996444132
 30
0.0
 11
0.000000619920911
 21
-0.0000003555867352
 31
0.0
  0
LINE
  5
C38
330
C34
100
AcDbEntity
  8
0
 62
     3
100
AcDbLine
 10
200.0000006199209
 20
-0.0000003555867352
 30
0.0
 11
200.0000006199209
 21
276.9999996444133
 31
0.0
  0
LINE
  5
C39
330
C34
100
AcDbEntity
  8
0
 62
     3
100
AcDbLine
 10
20.00000061992091
 20
-0.0000003555867352
 30
0.0
 11
200.0000006199209
 21
-0.0000003555867352
 31
0.0
  0
LINE
  5
C3A
330
C34
100
AcDbEntity
  8
0
 62
     3
100
AcDbLine
 10
57.08435263992078
 20
278.7874437444133
 30
0.0
 11
57.52010054992092
 21
278.5599756044133
 31
0.0
  0
LINE
  5
C3B
330
C34
100
AcDbEntity
  8
0
 62
     3
100
AcDbLine
 10
57.08435263992078
 20
275.0568132644133
 30
0.0
 11
57.52010054992092
 21
275.2842814044133
 31
0.0
  0
LINE
  5
C3C
330
C34
100
AcDbEntity
  8
0
 62
     3
100
AcDbLine
 10
57.52010054992092
 20
278.5599756044133
 30
0.0
 11
57.52010054992092
 21
275.2842814044133
 31
0.0
  0
LINE
  5
C3D
330
C34
100
AcDbEntity
  8
0
 62
     3
100
AcDbLine
 10
58.62361796992082
 20
275.0568132644133
 30
0.0
 11
58.18787005992067
 21
275.2842814044133
 31
0.0
  0
LINE
  5
C3E
330
C34
100
AcDbEntity
  8
0
 62
     3
100
AcDbLine
 10
58.18787005992067
 20
277.2811402144133
 30
0.0
 11
58.18787005992067
 21
275.2842814044133
 31
0.0
  0
LINE
  5
C3F
330
C34
100
AcDbEntity
  8
0
 62
     3
100
AcDbLine
 10
61.16548074992079
 20
278.7874437444133
 30
0.0
 11
60.72973283992087
 21
278.5599756044133
 31
0.0
  0
LINE
  5
C40
330
C34
100
AcDbEntity
  8
0
 62
     3
100
AcDbLine
 10
59.62621541992075
 20
278.7874437444133
 30
0.0
 11
60.06196332992089
 21
278.5599756044133
 31
0.0
  0
LINE
  5
C41
330
C34
100
AcDbEntity
  8
0
 62
     3
100
AcDbLine
 10
60.06196332992089
 20
278.5599756044133
 30
0.0
 11
60.06196332992089
 21
277.1176385444132
 31
0.0
  0
LINE
  5
C42
330
C34
100
AcDbEntity
  8
0
 62
     3
100
AcDbLine
 10
60.72973283992087
 20
278.5599756044133
 30
0.0
 11
60.72973283992087
 21
274.8452521244133
 31
0.0
  0
LINE
  5
C43
330
C34
100
AcDbEntity
  8
0
 62
     3
100
AcDbLine
 10
61.38077794992091
 20
278.7874411144132
 30
0.0
 11
61.81652428992084
 21
278.5599699744133
 31
0.0
  0
LINE
  5
C44
330
C34
100
AcDbEntity
  8
0
 62
     3
100
AcDbLine
 10
61.38069997992079
 20
275.0568632444133
 30
0.0
 11
61.81645582992087
 21
275.2843161644133
 31
0.0
  0
LINE
  5
C45
330
C34
100
AcDbEntity
  8
0
 62
     3
100
AcDbLine
 10
61.81652428992084
 20
278.5599699744133
 30
0.0
 11
61.81652428992084
 21
275.2843161644133
 31
0.0
  0
LINE
  5
C46
330
C34
100
AcDbEntity
  8
0
 62
     3
100
AcDbLine
 10
63.31031434992087
 20
278.7874174444132
 30
0.0
 11
62.87456325992093
 21
278.5599554144133
 31
0.0
  0
LINE
  5
C47
330
C34
100
AcDbEntity
  8
0
 62
     3
100
AcDbLine
 10
62.87456325992093
 20
278.5599554144133
 30
0.0
 11
62.87456325992093
 21
275.2843015944133
 31
0.0
  0
LINE
  5
C48
330
C34
100
AcDbEntity
  8
0
 62
     3
100
AcDbLine
 10
63.31031434992087
 20
275.0568395644133
 30
0.0
 11
62.87456325992093
 21
275.2843015944133
 31
0.0
  0
LINE
  5
C49
330
C34
100
AcDbEntity
  8
0
 62
     3
100
AcDbLine
 10
67.00056778992075
 20
278.7873764444133
 30
0.0
 11
67.43631490992084
 21
278.5599068044132
 31
0.0
  0
LINE
  5
C4A
330
C34
100
AcDbEntity
  8
0
 62
     3
100
AcDbLine
 10
67.43631490992084
 20
278.5599068044132
 30
0.0
 11
67.43625773992085
 21
275.2842529944132
 31
0.0
  0
LINE
  5
C4B
330
C34
100
AcDbEntity
  8
0
 62
     3
100
AcDbLine
 10
67.00050267992082
 20
275.0567985644133
 30
0.0
 11
67.43625773992085
 21
275.2842529944132
 31
0.0
  0
LINE
  5
C4C
330
C34
100
AcDbEntity
  8
0
 62
     3
100
AcDbLine
 10
68.95282874992085
 20
278.7873764444133
 30
0.0
 11
68.51708162992077
 21
278.5599068044132
 31
0.0
  0
LINE
  5
C4D
330
C34
100
AcDbEntity
  8
0
 62
     3
100
AcDbLine
 10
68.95289385992078
 20
275.0567985644133
 30
0.0
 11
68.51713879992075
 21
275.2842529944132
 31
0.0
  0
LINE
  5
C4E
330
C34
100
AcDbEntity
  8
0
 62
     3
100
AcDbLine
 10
69.15655660992093
 20
278.7873764444133
 30
0.0
 11
69.59230373992091
 21
278.5599068044132
 31
0.0
  0
LINE
  5
C4F
330
C34
100
AcDbEntity
  8
0
 62
     3
100
AcDbLine
 10
69.15649149992077
 20
275.0567985644133
 30
0.0
 11
69.5922465599208
 21
275.2842529944132
 31
0.0
  0
LINE
  5
C50
330
C34
100
AcDbEntity
  8
0
 62
     3
100
AcDbLine
 10
71.1088175799207
 20
278.7873764444133
 30
0.0
 11
70.67307045992084
 21
278.5599068044132
 31
0.0
  0
LINE
  5
C51
330
C34
100
AcDbEntity
  8
0
 62
     3
100
AcDbLine
 10
70.67307045992084
 20
278.5599068044132
 30
0.0
 11
70.67312762992083
 21
275.2842529944132
 31
0.0
  0
LINE
  5
C52
330
C34
100
AcDbEntity
  8
0
 62
     3
100
AcDbLine
 10
71.10888268992084
 20
275.0567985644133
 30
0.0
 11
70.67312762992083
 21
275.2842529944132
 31
0.0
  0
LINE
  5
C53
330
C34
100
AcDbEntity
  8
0
 62
     3
100
AcDbLine
 10
69.59227882992081
 20
277.1327736844132
 30
0.0
 11
68.51710653992086
 21
277.1327736844132
 31
0.0
  0
LINE
  5
C54
330
C34
100
AcDbEntity
  8
0
 62
     3
100
AcDbLine
 10
69.59227146992066
 20
276.7114833244133
 30
0.0
 11
68.51711388992066
 21
276.7114833244133
 31
0.0
  0
LINE
  5
C55
330
C34
100
AcDbEntity
  8
0
 62
     3
100
AcDbLine
 10
69.59230373992091
 20
278.5599068044132
 30
0.0
 11
69.59227882992081
 21
277.1327736844132
 31
0.0
  0
LINE
  5
C56
330
C34
100
AcDbEntity
  8
0
 62
     3
100
AcDbLine
 10
69.59227146992066
 20
276.7114833244133
 30
0.0
 11
69.5922465599208
 21
275.2842529944132
 31
0.0
  0
LINE
  5
C57
330
C34
100
AcDbEntity
  8
0
 62
     3
100
AcDbLine
 10
68.51708162992077
 20
278.5599068044132
 30
0.0
 11
68.51710653992086
 21
277.1327736844132
 31
0.0
  0
LINE
  5
C58
330
C34
100
AcDbEntity
  8
0
 62
     3
100
AcDbLine
 10
68.51711388992066
 20
276.7114833244133
 30
0.0
 11
68.51713879992075
 21
275.2842529944132
 31
0.0
  0
LINE
  5
C59
330
C34
100
AcDbEntity
  8
0
 62
     3
100
AcDbLine
 10
71.31577669992089
 20
278.7873764444133
 30
0.0
 11
71.75152381992075
 21
278.5599068044132
 31
0.0
  0
LINE
  5
C5A
330
C34
100
AcDbEntity
  8
0
 62
     3
100
AcDbLine
 10
71.75152381992075
 20
278.5599068044132
 30
0.0
 11
71.75146664992076
 21
275.2842529944132
 31
0.0
  0
LINE
  5
C5B
330
C34
100
AcDbEntity
  8
0
 62
     3
100
AcDbLine
 10
71.31571158992073
 20
275.0567985644133
 30
0.0
 11
71.75146664992076
 21
275.2842529944132
 31
0.0
  0
LINE
  5
C5C
330
C34
100
AcDbEntity
  8
0
 62
     3
100
AcDbLine
 10
73.2452869699207
 20
278.7873764444133
 30
0.0
 11
72.80953984992084
 21
278.5599068044132
 31
0.0
  0
LINE
  5
C5D
330
C34
100
AcDbEntity
  8
0
 62
     3
100
AcDbLine
 10
72.80953984992084
 20
278.5599068044132
 30
0.0
 11
72.80959701992083
 21
275.2842529944132
 31
0.0
  0
LINE
  5
C5E
330
C34
100
AcDbEntity
  8
0
 62
     3
100
AcDbLine
 10
73.24535207992084
 20
275.0567985644133
 30
0.0
 11
72.80959701992083
 21
275.2842529944132
 31
0.0
  0
LINE
  5
C5F
330
C34
100
AcDbEntity
  8
0
 62
     3
100
AcDbLine
 10
73.45964653992087
 20
278.7873764444133
 30
0.0
 11
73.89539365992073
 21
278.5599068044132
 31
0.0
  0
LINE
  5
C60
330
C34
100
AcDbEntity
  8
0
 62
     3
100
AcDbLine
 10
73.89539365992073
 20
278.5599068044132
 30
0.0
 11
73.89533648992074
 21
275.2842529944132
 31
0.0
  0
LINE
  5
C61
330
C34
100
AcDbEntity
  8
0
 62
     3
100
AcDbLine
 10
73.45958142992071
 20
275.0567985644133
 30
0.0
 11
73.89533648992074
 21
275.2842529944132
 31
0.0
  0
ARC
  5
C62
330
C34
100
AcDbEntity
  8
0
 62
     3
100
AcDbCircle
 10
65.60865651992094
 20
276.9315182644133
 30
0.0
 40
2.086285909999999
100
AcDbArc
 50
97.70152350999723
 51
270.0
  0
ARC
  5
C63
330
C34
100
AcDbEntity
  8
0
 62
     3
100
AcDbCircle
 10
78.48925735992065
 20
276.9105616344133
 30
0.0
 40
2.108943379999999
100
AcDbArc
 50
0.314250269999259
 51
69.00558244998928
  0
ARC
  5
C64
330
C34
100
AcDbEntity
  8
0
 62
     3
100
AcDbCircle
 10
78.94993267992072
 20
276.9105616344133
 30
0.0
 40
2.108943379999999
100
AcDbArc
 50
110.9944175499969
 51
148.1166110200049
  0
ARC
  5
C65
330
C34
100
AcDbEntity
  8
0
 62
     3
100
AcDbCircle
 10
78.48925735992065
 20
276.9336953744133
 30
0.0
 40
2.108943379999999
100
AcDbArc
 50
290.9944175499969
 51
359.6857497300005
  0
ARC
  5
C66
330
C34
100
AcDbEntity
  8
0
 62
     3
100
AcDbCircle
 10
78.94993267992072
 20
276.9336953744133
 30
0.0
 40
2.108943379999999
100
AcDbArc
 50
211.8833889799949
 51
249.0055824499893
  0
ARC
  5
C67
330
C34
100
AcDbEntity
  8
0
 62
     3
100
AcDbCircle
 10
78.71959501992091
 20
277.7849338944132
 30
0.0
 40
1.214070989999999
100
AcDbArc
 50
64.36517189999968
 51
115.6348281000003
  0
ARC
  5
C68
330
C34
100
AcDbEntity
  8
0
 62
     3
100
AcDbCircle
 10
78.71959501992091
 20
276.0593231144132
 30
0.0
 40
1.214070989999999
100
AcDbArc
 50
244.3651718999997
 51
295.6348281000003
  0
ARC
  5
C69
330
C34
100
AcDbEntity
  8
0
 62
     3
100
AcDbCircle
 10
78.71959501992091
 20
277.8079955744133
 30
0.0
 40
0.59585563
100
AcDbArc
 50
19.48660554000477
 51
160.5133944599952
  0
ARC
  5
C6A
330
C34
100
AcDbEntity
  8
0
 62
     3
100
AcDbCircle
 10
78.71959501992091
 20
276.0593231144132
 30
0.0
 40
1.214070989999999
100
AcDbArc
 50
244.3651718999997
 51
295.6348281000003
  0
ARC
  5
C6B
330
C34
100
AcDbEntity
  8
0
 62
     3
100
AcDbCircle
 10
78.71959501992091
 20
276.0362614344133
 30
0.0
 40
0.59585563
100
AcDbArc
 50
199.4866055400047
 51
340.513394459995
  0
ARC
  5
C6C
330
C34
100
AcDbEntity
  8
0
 62
     3
100
AcDbCircle
 10
73.97712251992084
 20
254.6940686644133
 30
0.0
 40
26.04
100
AcDbArc
 50
69.50571480000833
 51
81.68998806999736
  0
ARC
  5
C6D
330
C34
100
AcDbEntity
  8
0
 62
     3
100
AcDbCircle
 10
73.97712251992084
 20
299.1501883444133
 30
0.0
 40
26.04
100
AcDbArc
 50
278.3100119300026
 51
290.4942851999917
  0
ARC
  5
C6E
330
C34
100
AcDbEntity
  8
0
 62
     3
100
AcDbCircle
 10
82.28532664992076
 20
276.9221285044133
 30
0.0
 40
2.31
100
AcDbArc
 50
290.4942851999917
 51
69.50571480000833
  0
ARC
  5
C6F
330
C34
100
AcDbEntity
  8
0
 62
     3
100
AcDbCircle
 10
54.9853266499208
 20
276.9221285044133
 30
0.0
 40
2.31
100
AcDbArc
 50
110.4942851999916
 51
249.5057147999945
  0
ARC
  5
C70
330
C34
100
AcDbEntity
  8
0
 62
     3
100
AcDbCircle
 10
63.29353076992084
 20
254.6940686644133
 30
0.0
 40
26.04
100
AcDbArc
 50
98.31001192998947
 51
110.4942851999916
  0
ARC
  5
C71
330
C34
100
AcDbEntity
  8
0
 62
     3
100
AcDbCircle
 10
63.29353076992084
 20
299.1501883444133
 30
0.0
 40
26.04
100
AcDbArc
 50
249.5057147999945
 51
261.6899880699973
  0
ARC
  5
C72
330
C34
100
AcDbEntity
  8
0
 62
     3
100
AcDbCircle
 10
68.63532664992067
 20
218.1221285044133
 30
0.0
 40
62.99999987
100
AcDbArc
 50
81.68998806999736
 51
98.31001192998947
  0
ARC
  5
C73
330
C34
100
AcDbEntity
  8
0
 62
     3
100
AcDbCircle
 10
68.63532664992067
 20
335.7221285044133
 30
0.0
 40
62.99999987
100
AcDbArc
 50
261.6899880699973
 51
278.3100119300026
  0
ARC
  5
C74
330
C34
100
AcDbEntity
  8
0
 62
     3
100
AcDbCircle
 10
68.63532664992067
 20
218.1221285044133
 30
0.0
 40
62.36999987
100
AcDbArc
 50
81.68998806999736
 51
98.31001192998947
  0
ARC
  5
C75
330
C34
100
AcDbEntity
  8
0
 62
     3
100
AcDbCircle
 10
68.63532664992067
 20
335.7221285044133
 30
0.0
 40
62.36999987
100
AcDbArc
 50
261.6899880699973
 51
278.3100119300026
  0
ARC
  5
C76
330
C34
100
AcDbEntity
  8
0
 62
     3
100
AcDbCircle
 10
73.97712251992084
 20
299.1501883444133
 30
0.0
 40
25.41
100
AcDbArc
 50
278.3100119300026
 51
290.4942851999917
  0
ARC
  5
C77
330
C34
100
AcDbEntity
  8
0
 62
     3
100
AcDbCircle
 10
73.97712251992084
 20
254.6940686644133
 30
0.0
 40
25.41
100
AcDbArc
 50
69.50571480000833
 51
81.68998806999736
  0
ARC
  5
C78
330
C34
100
AcDbEntity
  8
0
 62
     3
100
AcDbCircle
 10
82.28532664992076
 20
276.9221285044133
 30
0.0
 40
1.679999999999999
100
AcDbArc
 50
290.4942851999917
 51
69.50571480000833
  0
ARC
  5
C79
330
C34
100
AcDbEntity
  8
0
 62
     3
100
AcDbCircle
 10
54.9853266499208
 20
276.9221285044133
 30
0.0
 40
1.679999999999999
100
AcDbArc
 50
110.4942851999916
 51
249.5057147999945
  0
ARC
  5
C7A
330
C34
100
AcDbEntity
  8
0
 62
     3
100
AcDbCircle
 10
63.29353076992084
 20
254.6940686644133
 30
0.0
 40
25.41
100
AcDbArc
 50
98.31001192998947
 51
110.4942851999916
  0
ARC
  5
C7B
330
C34
100
AcDbEntity
  8
0
 62
     3
100
AcDbCircle
 10
63.29353076992084
 20
299.1501883444133
 30
0.0
 40
25.41
100
AcDbArc
 50
249.5057147999945
 51
261.6899880699973
  0
LINE
  5
C7C
330
C34
100
AcDbEntity
  8
0
 62
     3
100
AcDbLine
 10
73.24528774992086
 20
274.8452521244133
 30
0.0
 11
71.31577591992073
 21
274.8452521244133
 31
0.0
  0
LINE
  5
C7D
330
C34
100
AcDbEntity
  8
0
 62
     3
100
AcDbLine
 10
73.24528774992086
 20
275.0568132644133
 30
0.0
 11
73.24528774992086
 21
274.8452521244133
 31
0.0
  0
LINE
  5
C7E
330
C34
100
AcDbEntity
  8
0
 62
     3
100
AcDbLine
 10
71.10881835992086
 20
278.9989061644133
 30
0.0
 11
69.15655582992076
 21
278.9989061644133
 31
0.0
  0
LINE
  5
C7F
330
C34
100
AcDbEntity
  8
0
 62
     3
100
AcDbLine
 10
71.10881835992086
 20
278.9989061644133
 30
0.0
 11
71.10881835992086
 21
278.7874437444133
 31
0.0
  0
LINE
  5
C80
330
C34
100
AcDbEntity
  8
0
 62
     3
100
AcDbLine
 10
71.10881835992086
 20
275.0568132644133
 30
0.0
 11
71.10881835992086
 21
274.8451534144133
 31
0.0
  0
LINE
  5
C81
330
C34
100
AcDbEntity
  8
0
 62
     3
100
AcDbLine
 10
71.10881835992086
 20
274.8451534144133
 30
0.0
 11
69.15655582992076
 21
274.8451534144133
 31
0.0
  0
LINE
  5
C82
330
C34
100
AcDbEntity
  8
0
 62
     3
100
AcDbLine
 10
73.24528774992086
 20
278.9990048844132
 30
0.0
 11
73.24528774992086
 21
278.7874437444133
 31
0.0
  0
LINE
  5
C83
330
C34
100
AcDbEntity
  8
0
 62
     3
100
AcDbLine
 10
73.24528774992086
 20
278.9990048844132
 30
0.0
 11
71.31577591992073
 21
278.9990048844132
 31
0.0
  0
LINE
  5
C84
330
C34
100
AcDbEntity
  8
0
 62
     3
100
AcDbLine
 10
71.31577591992073
 20
278.9990048844132
 30
0.0
 11
71.31577591992073
 21
278.7874437444133
 31
0.0
  0
LINE
  5
C85
330
C34
100
AcDbEntity
  8
0
 62
     3
100
AcDbLine
 10
73.4596457499208
 20
275.0568132644133
 30
0.0
 11
73.4596457499208
 21
274.8452521244133
 31
0.0
  0
LINE
  5
C86
330
C34
100
AcDbEntity
  8
0
 62
     3
100
AcDbLine
 10
75.44394630992087
 20
274.8452521244133
 30
0.0
 11
73.4596457499208
 21
274.8452521244133
 31
0.0
  0
LINE
  5
C87
330
C34
100
AcDbEntity
  8
0
 62
     3
100
AcDbLine
 10
74.95340967992092
 20
278.3312353644133
 30
0.0
 11
74.95340967992092
 21
275.5130216444133
 31
0.0
  0
LINE
  5
C88
330
C34
100
AcDbEntity
  8
0
 62
     3
100
AcDbLine
 10
74.95340967992092
 20
275.5130216444133
 30
0.0
 11
75.14345864992083
 21
275.5130216444133
 31
0.0
  0
ARC
  5
C89
330
C34
100
AcDbEntity
  8
0
 62
     3
100
AcDbCircle
 10
74.17167290992074
 20
276.9221285044133
 30
0.0
 40
1.71170957
100
AcDbArc
 50
304.5919552700024
 51
55.40804472999759
  0
LINE
  5
C8A
330
C34
100
AcDbEntity
  8
0
 62
     3
100
AcDbLine
 10
75.44394630992087
 20
278.9990048844132
 30
0.0
 11
73.4596457499208
 21
278.9990048844132
 31
0.0
  0
LINE
  5
C8B
330
C34
100
AcDbEntity
  8
0
 62
     3
100
AcDbLine
 10
73.4596457499208
 20
278.9990048844132
 30
0.0
 11
73.4596457499208
 21
278.7874437444133
 31
0.0
  0
LINE
  5
C8C
330
C34
100
AcDbEntity
  8
0
 62
     3
100
AcDbLine
 10
71.31577591992073
 20
275.0568132644133
 30
0.0
 11
71.31577591992073
 21
274.8452521244133
 31
0.0
  0
LINE
  5
C8D
330
C34
100
AcDbEntity
  8
0
 62
     3
100
AcDbLine
 10
74.95340967992092
 20
278.3312353644133
 30
0.0
 11
75.14345864992083
 21
278.3312353644133
 31
0.0
  0
LINE
  5
C8E
330
C34
100
AcDbEntity
  8
0
 62
     3
100
AcDbLine
 10
63.31025001992088
 20
275.0568132644133
 30
0.0
 11
63.3102463299208
 21
274.8452323544133
 31
0.0
  0
LINE
  5
C8F
330
C34
100
AcDbEntity
  8
0
 62
     3
100
AcDbLine
 10
61.38073448992077
 20
274.8452718944133
 30
0.0
 11
63.3102463299208
 21
274.8452382244133
 31
0.0
  0
LINE
  5
C90
330
C34
100
AcDbEntity
  8
0
 62
     3
100
AcDbLine
 10
57.08435263992078
 20
274.8452521244133
 30
0.0
 11
58.62361796992082
 21
274.8452521244133
 31
0.0
  0
ARC
  5
C91
330
C34
100
AcDbEntity
  8
0
 62
     3
100
AcDbCircle
 10
52.1024099599208
 20
276.9710351244133
 30
0.0
 40
14.71356563
100
AcDbArc
 50
353.8660061899987
 51
357.6940342600003
  0
LINE
  5
C92
330
C34
100
AcDbEntity
  8
0
 62
     3
100
AcDbLine
 10
65.81898981992094
 20
276.3826674744133
 30
0.0
 11
66.80406070992081
 21
276.3790225944133
 31
0.0
  0
LWPOLYLINE
  5
C93
330
C34
100
AcDbEntity
  8
0
 62
     3
100
AcDbPolyline
 90
       64
 70
     0
 43
0.0
 10
65.82296823992078
 20
277.4578822144133
 10
65.80434070992078
 20
277.5771499844132
 10
65.78196952992084
 20
277.6913547644133
 10
65.75602759992079
 20
277.7996138244132
 10
65.72671545992079
 20
277.9010903744132
 10
65.69425964992092
 20
277.9950000544133
 10
65.65891105992091
 20
278.0806169944133
 10
65.62094290992082
 20
278.1572794044133
 10
65.58064865992083
 20
278.2243947444133
 10
65.53833978992066
 20
278.2814442344132
 10
65.49434329992073
 20
278.3279869044132
 10
65.44899927992083
 20
278.3636630244132
 10
65.40265820992067
 20
278.3881968144133
 10
65.35567826992087
 20
278.4013986644132
 10
65.30842260992085
 20
278.4031665044133
 10
65.2612564799208
 20
278.3934866944132
 10
65.21454444992082
 20
278.3724340344132
 10
65.16864758992074
 20
278.3401712644133
 10
65.12392064992082
 20
278.2969477544133
 10
65.08070933992076
 20
278.2430975944133
 10
65.03934767992086
 20
278.1790370244133
 10
65.00015535992066
 20
278.1052612044133
 10
64.96343531992079
 20
278.0223403744133
 10
64.92947138992076
 20
277.9309154644133
 10
64.89852608992078
 20
277.8316931644133
 10
64.87083860992084
 20
277.7254403944132
 10
64.84662295992075
 20
277.6129784344133
 10
64.82606631992076
 20
277.4951765544133
 10
64.80932757992082
 20
277.3729453144133
 10
64.7965361199208
 20
277.2472294944133
 10
64.7877908099208
 20
277.1190008144133
 10
64.7831592499208
 20
276.9892504044133
 10
64.78267723992075
 20
276.8589811744133
 10
64.7863484999209
 20
276.7292000544133
 10
64.7941446599209
 20
276.6009101644133
 10
64.8060054599207
 20
276.4751031244133
 10
64.82183921992078
 20
276.3527513544133
 10
64.8415235399209
 20
276.2348005844133
 10
64.8649062999209
 20
276.1221625144133
 10
64.89180672992074
 20
276.0157077544132
 10
64.9220169299208
 20
275.9162591644133
 10
64.9553033799209
 20
275.8245854344133
 10
64.9914087799209
 20
275.7413951344133
 10
65.03005407992077
 20
275.6673313044132
 10
65.0709405599207
 20
275.6029664144132
 10
65.11375217992076
 20
275.5487979644133
 10
65.15815803992087
 20
275.5052446444133
 10
65.20381488992075
 20
275.4726431144133
 10
65.25036984992084
 20
275.4512453544132
 10
65.2974630599208
 20
275.4412167744133
 10
65.34473050992073
 20
275.4426348744133
 10
65.39180684992084
 20
275.4554886944132
 10
65.43832820992088
 20
275.4796788944133
 10
65.48393499992084
 20
275.5150184744133
 10
65.52827469992076
 20
275.5612342944132
 10
65.57100458992067
 20
275.6179691344133
 10
65.61179438992076
 20
275.6847844444132
 10
65.65032881992078
 20
275.7611637944133
 10
65.68631001992094
 20
275.8465168044132
 10
65.7194598799208
 20
275.9401837344133
 10
65.74952215992084
 20
276.0414405944133
 10
65.77626450992079
 20
276.1495047144133
 10
65.79948020992083
 20
276.2635408244133
 10
65.81898981992094
 20
276.3826674744133
  0
LINE
  5
C94
330
C34
100
AcDbEntity
  8
0
 62
     3
100
AcDbLine
 10
65.82296823992078
 20
277.4578822144133
 30
0.0
 11
66.80803911992075
 21
277.4542373444133
 31
0.0
  0
ARC
  5
C95
330
C34
100
AcDbEntity
  8
0
 62
     3
100
AcDbCircle
 10
52.1024099599208
 20
276.9710351244133
 30
0.0
 40
14.71356563
100
AcDbArc
 50
1.881965739999166
 51
5.709993809998727
  0
LINE
  5
C96
330
C34
100
AcDbEntity
  8
0
 62
     3
100
AcDbLine
 10
63.31031881992089
 20
278.9989851144132
 30
0.0
 11
63.31031512992081
 21
278.7874437444133
 31
0.0
  0
LINE
  5
C97
330
C34
100
AcDbEntity
  8
0
 62
     3
100
AcDbLine
 10
61.38080698992076
 20
278.9990246544132
 30
0.0
 11
63.31031881992089
 21
278.9989909744132
 31
0.0
  0
LINE
  5
C98
330
C34
100
AcDbEntity
  8
0
 62
     3
100
AcDbLine
 10
61.38073817992085
 20
275.0568132644133
 30
0.0
 11
61.38073448992077
 21
274.8452718944133
 31
0.0
  0
LINE
  5
C99
330
C34
100
AcDbEntity
  8
0
 62
     3
100
AcDbLine
 10
61.38080698992076
 20
278.9990246544132
 30
0.0
 11
61.38080329992067
 21
278.7874437444133
 31
0.0
  0
LINE
  5
C9A
330
C34
100
AcDbEntity
  8
0
 62
     3
100
AcDbLine
 10
58.62361796992082
 20
275.0568132644133
 30
0.0
 11
58.62361796992082
 21
274.8452521244133
 31
0.0
  0
LINE
  5
C9B
330
C34
100
AcDbEntity
  8
0
 62
     3
100
AcDbLine
 10
58.18787005992067
 20
277.2811402144133
 30
0.0
 11
59.71030011992093
 21
274.8452521244133
 31
0.0
  0
LINE
  5
C9C
330
C34
100
AcDbEntity
  8
0
 62
     3
100
AcDbLine
 10
59.71030011992093
 20
274.8452521244133
 30
0.0
 11
60.72973283992087
 21
274.8452521244133
 31
0.0
  0
LINE
  5
C9D
330
C34
100
AcDbEntity
  8
0
 62
     3
100
AcDbLine
 10
61.16548074992079
 20
278.9990048844132
 30
0.0
 11
61.16548074992079
 21
278.7874437444133
 31
0.0
  0
LINE
  5
C9E
330
C34
100
AcDbEntity
  8
0
 62
     3
100
AcDbLine
 10
59.62621541992075
 20
278.9990048844132
 30
0.0
 11
61.16548074992079
 21
278.9990048844132
 31
0.0
  0
LINE
  5
C9F
330
C34
100
AcDbEntity
  8
0
 62
     3
100
AcDbLine
 10
59.62621541992075
 20
278.9990048844132
 30
0.0
 11
59.62621541992075
 21
278.7874437444133
 31
0.0
  0
LINE
  5
CA0
330
C34
100
AcDbEntity
  8
0
 62
     3
100
AcDbLine
 10
60.06196332992089
 20
277.1176385444132
 30
0.0
 11
58.82731665992082
 21
278.9990048844132
 31
0.0
  0
LINE
  5
CA1
330
C34
100
AcDbEntity
  8
0
 62
     3
100
AcDbLine
 10
57.08435263992078
 20
278.9990048844132
 30
0.0
 11
58.82731665992082
 21
278.9990048844132
 31
0.0
  0
LINE
  5
CA2
330
C34
100
AcDbEntity
  8
0
 62
     3
100
AcDbLine
 10
67.00056699992069
 20
278.9989061644133
 30
0.0
 11
68.95282953992069
 21
278.9989061644133
 31
0.0
  0
LINE
  5
CA3
330
C34
100
AcDbEntity
  8
0
 62
     3
100
AcDbLine
 10
67.00056699992069
 20
278.7874437444133
 30
0.0
 11
67.00056699992069
 21
278.9989061644133
 31
0.0
  0
LINE
  5
CA4
330
C34
100
AcDbEntity
  8
0
 62
     3
100
AcDbLine
 10
67.00056699992069
 20
274.8451534144133
 30
0.0
 11
67.00056699992069
 21
275.0568132644133
 31
0.0
  0
LINE
  5
CA5
330
C34
100
AcDbEntity
  8
0
 62
     3
100
AcDbLine
 10
67.00056699992069
 20
274.8451534144133
 30
0.0
 11
68.95282953992069
 21
274.8451534144133
 31
0.0
  0
LINE
  5
CA6
330
C34
100
AcDbEntity
  8
0
 62
     3
100
AcDbLine
 10
69.15655582992076
 20
275.0568132644133
 30
0.0
 11
69.15655582992076
 21
274.8451534144133
 31
0.0
  0
LINE
  5
CA7
330
C34
100
AcDbEntity
  8
0
 62
     3
100
AcDbLine
 10
68.95282953992069
 20
275.0568132644133
 30
0.0
 11
68.95282953992069
 21
274.8451534144133
 31
0.0
  0
LINE
  5
CA8
330
C34
100
AcDbEntity
  8
0
 62
     3
100
AcDbLine
 10
68.95282953992069
 20
278.7874437444133
 30
0.0
 11
68.95282953992069
 21
278.9989061644133
 31
0.0
  0
LINE
  5
CA9
330
C34
100
AcDbEntity
  8
0
 62
     3
100
AcDbLine
 10
69.15655582992076
 20
278.7874437444133
 30
0.0
 11
69.15655582992076
 21
278.9989061644133
 31
0.0
  0
LINE
  5
CAA
330
C34
100
AcDbEntity
  8
0
 62
     3
100
AcDbLine
 10
57.08435263992078
 20
275.0568132644133
 30
0.0
 11
57.08435263992078
 21
274.8452521244133
 31
0.0
  0
LINE
  5
CAB
330
C34
100
AcDbEntity
  8
0
 62
     3
100
AcDbLine
 10
57.08435263992078
 20
278.9990048844132
 30
0.0
 11
57.08435263992078
 21
278.7874437444133
 31
0.0
  0
ARC
  5
CAC
330
C34
100
AcDbEntity
  8
0
 62
     3
100
AcDbCircle
 10
75.65394630992091
 20
277.3578764144132
 30
0.0
 40
1.641128469999999
100
AcDbArc
 50
17.30874897999683
 51
23.76507095999502
  0
ARC
  5
CAD
330
C34
100
AcDbEntity
  8
0
 62
     3
100
AcDbCircle
 10
74.25567290992081
 20
276.9221285044133
 30
0.0
 40
3.105725599999999
100
AcDbArc
 50
342.6912510200032
 51
17.30856644000026
  0
ARC
  5
CAE
330
C34
100
AcDbEntity
  8
0
 62
     3
100
AcDbCircle
 10
75.65394630992091
 20
276.4863806044133
 30
0.0
 40
1.641128469999999
100
AcDbArc
 50
336.2349290399992
 51
342.6912510200032
  0
ARC
  5
CAF
330
C34
100
AcDbEntity
  8
0
 62
     3
100
AcDbCircle
 10
75.44394630992087
 20
277.3578764144132
 30
0.0
 40
1.641128469999999
100
AcDbArc
 50
17.30874897999683
 51
90.0
  0
ARC
  5
CB0
330
C34
100
AcDbEntity
  8
0
 62
     3
100
AcDbCircle
 10
74.04567290992076
 20
276.9221285044133
 30
0.0
 40
3.105725599999999
100
AcDbArc
 50
342.6912510200032
 51
17.30856644000026
  0
ARC
  5
CB1
330
C34
100
AcDbEntity
  8
0
 62
     3
100
AcDbCircle
 10
75.44394630992087
 20
276.4863806044133
 30
0.0
 40
1.641128469999999
100
AcDbArc
 50
270.0
 51
342.6912510200032
  0
ARC
  5
CB2
330
C34
100
AcDbEntity
  8
0
 62
     3
100
AcDbCircle
 10
65.32000593992075
 20
276.9221285044133
 30
0.0
 40
2.076876379999999
100
AcDbArc
 50
46.75287960999439
 51
89.74999828999569
  0
ARC
  5
CB3
330
C34
100
AcDbEntity
  8
0
 62
     3
100
AcDbCircle
 10
65.32000593992075
 20
276.9221285044133
 30
0.0
 40
2.076876379999999
100
AcDbArc
 50
273.976333149997
 51
312.8231203899985
  0
ARC
  5
CB4
330
C34
100
AcDbEntity
  8
0
 62
     3
100
AcDbCircle
 10
76.76181387992073
 20
276.8900669744132
 30
0.0
 40
2.755888999999999
100
AcDbArc
 50
0.6665840599997753
 51
23.90392827000157
  0
ARC
  5
CB5
330
C34
100
AcDbEntity
  8
0
 62
     3
100
AcDbCircle
 10
80.67737615992086
 20
276.8900669744132
 30
0.0
 40
2.755888999999999
100
AcDbArc
 50
156.0960717299984
 51
179.3334159400002
  0
ARC
  5
CB6
330
C34
100
AcDbEntity
  8
0
 62
     3
100
AcDbCircle
 10
76.76181387992073
 20
276.9541900344133
 30
0.0
 40
2.755888999999999
100
AcDbArc
 50
336.0960717299984
 51
359.3334159400005
  0
ARC
  5
CB7
330
C34
100
AcDbEntity
  8
0
 62
     3
100
AcDbCircle
 10
80.67737615992086
 20
276.9541900344133
 30
0.0
 40
2.755888999999999
100
AcDbArc
 50
180.6665840599995
 51
203.9039282700016
  0
LINE
  5
CB8
330
C34
100
AcDbEntity
  8
0
 62
     3
100
AcDbLine
 10
85.32766324992076
 20
276.9999996444133
 30
0.0
 11
200.0000006199209
 21
276.9999996444133
 31
0.0
  0
LINE
  5
CB9
330
C34
100
AcDbEntity
  8
0
 62
   254
100
AcDbLine
 10
0.000000619920911
 20
286.9999996444132
 30
0.0
 11
200.0000006199209
 21
286.9999996444132
 31
0.0
  0
LINE
  5
CBA
330
C34
100
AcDbEntity
  8
0
 62
     3
100
AcDbLine
 10
51.91491672992083
 20
276.9999996444133
 30
0.0
 11
20.00000061992091
 21
276.9999996444133
 31
0.0
  0
LINE
  5
CBB
330
C34
100
AcDbEntity
  8
0
 62
     3
100
AcDbLine
 10
148.0000006199209
 20
-0.0000003555867352
 30
0.0
 11
148.0000006199209
 21
39.99999964441327
 31
0.0
  0
LINE
  5
CBC
330
C34
100
AcDbEntity
  8
0
 62
     3
100
AcDbLine
 10
161.0000006199209
 20
9.999999644413264
 30
0.0
 11
161.0000006199209
 21
37.99999964441326
 31
0.0
  0
LINE
  5
CBD
330
C34
100
AcDbEntity
  8
0
 62
     3
100
AcDbLine
 10
121.0000006199209
 20
9.999999644413264
 30
0.0
 11
121.0000006199209
 21
23.99999964441326
 31
0.0
  0
LINE
  5
CBE
330
C34
100
AcDbEntity
  8
0
 62
     3
100
AcDbLine
 10
131.0000006199209
 20
23.99999964441326
 30
0.0
 11
131.0000006199209
 21
-0.0000003555867352
 31
0.0
  0
LINE
  5
CBF
330
C34
100
AcDbEntity
  8
0
 62
     3
100
AcDbLine
 10
102.0000006199209
 20
39.99999964441326
 30
0.0
 11
102.0000006199209
 21
16.99999964441327
 31
0.0
  0
LINE
  5
CC0
330
C34
100
AcDbEntity
  8
0
 62
     3
100
AcDbLine
 10
161.0000006199209
 20
37.99999964441326
 30
0.0
 11
161.0000006199209
 21
39.99999964441327
 31
0.0
  0
LINE
  5
CC1
330
C34
100
AcDbEntity
  8
0
 62
     3
100
AcDbLine
 10
174.0000006199209
 20
16.99999964441327
 30
0.0
 11
174.0000006199209
 21
39.99999964441327
 31
0.0
  0
LINE
  5
CC2
330
C34
100
AcDbEntity
  8
0
 62
     3
100
AcDbLine
 10
200.0000006199209
 20
39.99999964441327
 30
0.0
 11
88.75456597992092
 21
39.99999964441328
 31
0.0
  0
LINE
  5
CC3
330
C34
100
AcDbEntity
  8
0
 62
     3
100
AcDbLine
 10
200.0000006199209
 20
30.99999964441327
 30
0.0
 11
88.75456597992092
 21
30.99999964441327
 31
0.0
  0
LINE
  5
CC4
330
C34
100
AcDbEntity
  8
0
 62
     3
100
AcDbLine
 10
200.0000006199209
 20
16.99999964441327
 30
0.0
 11
88.75456597992092
 21
16.99999964441327
 31
0.0
  0
LINE
  5
CC5
330
C34
100
AcDbEntity
  8
0
 62
     3
100
AcDbLine
 10
200.0000006199209
 20
9.999999644413264
 30
0.0
 11
88.75456597992092
 21
9.999999644413261
 31
0.0
  0
LINE
  5
CC6
330
C34
100
AcDbEntity
  8
0
 62
     3
100
AcDbLine
 10
187.0000006199209
 20
16.99999964441327
 30
0.0
 11
187.0000006199209
 21
39.99999964441327
 31
0.0
  0
LINE
  5
CC7
330
C34
100
AcDbEntity
  8
0
 62
     3
100
AcDbLine
 10
88.75456597992092
 20
39.99999964441328
 30
0.0
 11
88.75456597992092
 21
-0.0000003555867352
 31
0.0
  0
LINE
  5
CC8
330
C34
100
AcDbEntity
  8
0
 62
     3
100
AcDbLine
 10
148.0000006199209
 20
23.99999964441326
 30
0.0
 11
88.75456597992092
 21
23.99999964441325
 31
0.0
  0
LINE
  5
CC9
330
C34
100
AcDbEntity
  8
0
 62
     3
100
AcDbLine
 10
131.2783255499207
 20
4.832860904413252
 30
0.0
 11
148.0000006199209
 21
4.832860904413252
 31
0.0
  0
TEXT
  5
CCA
330
C34
100
AcDbEntity
  8
0
 62
     3
100
AcDbText
 10
132.1643260332364
 20
19.07309649777861
 30
0.0
 40
2.5
  1
******
  7
高2.5
100
AcDbText
  0
TEXT
  5
CCB
330
C34
100
AcDbEntity
  8
0
 62
     3
100
AcDbText
 10
103.1963693151731
 20
19.29781404939717
 30
0.0
 40
2.5
  1
*****
  7
高2.5
100
AcDbText
  0
TEXT
  5
CCC
330
C34
100
AcDbEntity
  8
0
 62
     3
100
AcDbText
 10
103.4612770698704
 20
32.31224916817116
 30
0.0
 40
4.5
  1
**********
  7
高4.5
100
AcDbText
1001
ACAD
1000
ACAD_MTEXT_DEFINED_HEIGHT_BEGIN
1070
    46
1040
0.0
1000
ACAD_MTEXT_DEFINED_HEIGHT_END
  0
TEXT
  5
CCD
330
C34
100
AcDbEntity
  8
0
 62
     3
100
AcDbText
 10
190.0655897133949
 20
36.51369174311686
 30
0.0
 40
2.0
  1
DEF
  7
高2
100
AcDbText
  0
TEXT
  5
CCE
330
C34
100
AcDbEntity
  8
0
 62
     3
100
AcDbText
 10
176.1264913596867
 20
36.51369174311677
 30
0.0
 40
2.0
  1
DESN
  7
高2
100
AcDbText
  0
TEXT
  5
CCF
330
C34
100
AcDbEntity
  8
0
 62
     3
100
AcDbText
 10
149.8721244196865
 20
36.51369174311686
 30
0.0
 40
2.0
  1
APPD
  7
高2
100
AcDbText
  0
TEXT
  5
CD0
330
C34
100
AcDbEntity
  8
0
 62
     3
100
AcDbText
 10
162.9848605199206
 20
36.51369174311688
 30
0.0
 40
2.0
  1
CHCK
  7
高2
100
AcDbText
  0
TEXT
  5
CD1
330
C34
100
AcDbEntity
  8
0
 62
     3
100
AcDbText
 10
121.9271662590734
 20
14.16839846764398
 30
0.0
 40
2.0
  1
SCALE
 41
0.8
  7
高2
100
AcDbText
  0
TEXT
  5
CD2
330
C34
100
AcDbEntity
  8
0
 62
     3
100
AcDbText
 10
90.43914468296703
 20
14.16839846764399
 30
0.0
 40
2.0
  1
3AD　ANGLE
 41
1.5
  7
高2
100
AcDbText
  0
TEXT
  5
CD3
330
C34
100
AcDbEntity
  8
0
 62
     3
100
AcDbText
 10
121.1965719499223
 20
20.91993653660109
 30
0.0
 40
2.0
  1
REMARKS
 41
0.7
  7
高2
100
AcDbText
  0
TEXT
  5
CD4
330
C34
100
AcDbEntity
  8
0
 62
     3
100
AcDbText
 10
90.22223632992085
 20
20.99999964441327
 30
0.0
 40
2.0
  1
MATERIAL
 41
0.7
  7
高2
100
AcDbText
  0
TEXT
  5
CD5
330
C34
100
AcDbEntity
  8
0
 62
     3
100
AcDbText
 10
90.79872353267479
 20
27.99999964441325
 30
0.0
 40
2.0
  1
MODEL
  7
高2
100
AcDbText
  0
TEXT
  5
CD6
330
C34
100
AcDbEntity
  8
0
 62
     3
100
AcDbText
 10
90.43564441400599
 20
36.70702099501228
 30
0.0
 40
2.0
  1
CONPONENTS
 41
0.5
  7
高2
100
AcDbText
  0
TEXT
  5
CD7
330
C34
100
AcDbEntity
  8
0
 62
     3
100
AcDbText
 10
103.142759885173
 20
25.08748077222521
 30
0.0
 40
4.5
  1
********
  7
高4.5
100
AcDbText
  0
TEXT
  5
CD8
330
C34
100
AcDbEntity
  8
0
 62
     3
100
AcDbText
 10
151.0650463505392
 20
2.038461039778852
 30
0.0
 40
6.299999999999999
  1
*-********
 41
0.6
  7
高6.3
100
AcDbText
1001
ACAD
1000
ACAD_MTEXT_DEFINED_HEIGHT_BEGIN
1070
    46
1040
0.0
1000
ACAD_MTEXT_DEFINED_HEIGHT_END
  0
TEXT
  5
CD9
330
C34
100
AcDbEntity
  8
0
 62
     3
100
AcDbText
 10
164.5635103702504
 20
11.10088880264627
 30
0.0
 40
3.2
  1
******
  7
高3.2
100
AcDbText
1001
ACAD
1000
ACAD_MTEXT_DEFINED_HEIGHT_BEGIN
1070
    46
1040
0.0
1000
ACAD_MTEXT_DEFINED_HEIGHT_END
  0
TEXT
  5
CDA
330
C34
100
AcDbEntity
  8
0
 62
     3
100
AcDbText
 10
134.7875985145672
 20
11.10091664698114
 30
0.0
 40
3.2
  1
1/1
  7
高3.2
100
AcDbText
  0
TEXT
  5
CDB
330
C34
100
AcDbEntity
  8
0
 62
     3
100
AcDbText
 10
131.8649274899208
 20
0.8168778175492263
 30
0.0
 40
3.2
  1
ZK-A4Y
 41
0.8
  7
高3.2
100
AcDbText
  0
TEXT
  5
CDC
330
C34
100
AcDbEntity
  8
0
 62
     3
100
AcDbText
 10
89.58526701992083
 20
6.524620066601091
 30
0.0
 40
2.0
  1
NICHIDO IND.CO.LTD
 41
1.3
  7
高2
100
AcDbText
  0
TEXT
  5
CDD
330
C34
100
AcDbEntity
  8
0
 62
     3
100
AcDbText
 10
90.76679028487797
 20
32.1405278522982
 30
0.0
 40
3.2
  1
品 名
  7
高3.2
100
AcDbText
1001
ACAD
1000
ACAD_MTEXT_DEFINED_HEIGHT_BEGIN
1070
    46
1040
0.0
1000
ACAD_MTEXT_DEFINED_HEIGHT_END
  0
TEXT
  5
CDE
330
C34
100
AcDbEntity
  8
0
 62
     3
100
AcDbText
 10
90.76679028487797
 20
24.49999964441325
 30
0.0
 40
3.2
  1
型 式
  7
高3.2
100
AcDbText
1001
ACAD
1000
ACAD_MTEXT_DEFINED_HEIGHT_BEGIN
1070
    46
1040
3.064735913775955
1000
ACAD_MTEXT_DEFINED_HEIGHT_END
  0
TEXT
  5
CDF
330
C34
100
AcDbEntity
  8
0
 62
     3
100
AcDbText
 10
90.76679028487797
 20
17.49999964441327
 30
0.0
 40
3.2
  1
材 質
  7
高3.2
100
AcDbText
1001
ACAD
1000
ACAD_MTEXT_DEFINED_HEIGHT_BEGIN
1070
    46
1040
0.0
1000
ACAD_MTEXT_DEFINED_HEIGHT_END
  0
TEXT
  5
CE0
330
C34
100
AcDbEntity
  8
0
 62
     3
100
AcDbText
 10
90.46175533487781
 20
10.4674396366595
 30
0.0
 40
3.2
  1
第 三 角 法
  7
高3.2
100
AcDbText
1001
ACAD
1000
ACAD_MTEXT_DEFINED_HEIGHT_BEGIN
1070
    46
1040
0.0
1000
ACAD_MTEXT_DEFINED_HEIGHT_END
  0
TEXT
  5
CE1
330
C34
100
AcDbEntity
  8
0
 62
     3
100
AcDbText
 10
88.86828794240683
 20
1.140527852298198
 30
0.0
 40
3.2
  1
日動工業株式会社
 41
1.199999999999999
  7
高3.2
100
AcDbText
1001
ACAD
1000
ACAD_MTEXT_DEFINED_HEIGHT_BEGIN
1070
    46
1040
0.0
1000
ACAD_MTEXT_DEFINED_HEIGHT_END
  0
TEXT
  5
CE2
330
C34
100
AcDbEntity
  8
0
 62
     3
100
AcDbText
 10
122.5039121418851
 20
17.38457817758082
 30
0.0
 40
3.2
  1
備考
  7
高3.2
100
AcDbText
1001
ACAD
1000
ACAD_MTEXT_DEFINED_HEIGHT_BEGIN
1070
    46
1040
0.0
1000
ACAD_MTEXT_DEFINED_HEIGHT_END
  0
TEXT
  5
CE3
330
C34
100
AcDbEntity
  8
0
 62
     3
100
AcDbText
 10
132.1529695889207
 20
6.146229669983558
 30
0.0
 40
2.5
  1
出図コード
  7
高2.5
100
AcDbText
1001
ACAD
1000
ACAD_MTEXT_DEFINED_HEIGHT_BEGIN
1070
    46
1040
0.0
1000
ACAD_MTEXT_DEFINED_HEIGHT_END
  0
TEXT
  5
CE4
330
C34
100
AcDbEntity
  8
0
 62
     3
100
AcDbText
 10
122.3451460237977
 20
10.45323455482618
 30
0.0
 40
3.2
  1
尺度
  7
高3.2
100
AcDbText
1001
ACAD
1000
ACAD_MTEXT_DEFINED_HEIGHT_BEGIN
1070
    46
1040
0.0
1000
ACAD_MTEXT_DEFINED_HEIGHT_END
  0
TEXT
  5
CE5
330
C34
100
AcDbEntity
  8
0
 62
     3
100
AcDbText
 10
149.4914075055765
 20
11.58471300294367
 30
0.0
 40
3.2
  1
作成日
  7
高3.2
100
AcDbText
1001
ACAD
1000
ACAD_MTEXT_DEFINED_HEIGHT_BEGIN
1070
    46
1040
0.0
1000
ACAD_MTEXT_DEFINED_HEIGHT_END
  0
TEXT
  5
CE6
330
C34
100
AcDbEntity
  8
0
 62
     3
100
AcDbText
 10
149.3858815124406
 20
32.1405278522982
 30
0.0
 40
3.2
  1
承 認
  7
高3.2
100
AcDbText
1001
ACAD
1000
ACAD_MTEXT_DEFINED_HEIGHT_BEGIN
1070
    46
1040
0.0
1000
ACAD_MTEXT_DEFINED_HEIGHT_END
  0
TEXT
  5
CE7
330
C34
100
AcDbEntity
  8
0
 62
     3
100
AcDbText
 10
162.3858815124406
 20
32.1405278522982
 30
0.0
 40
3.2
  1
検 図
  7
高3.2
100
AcDbText
1001
ACAD
1000
ACAD_MTEXT_DEFINED_HEIGHT_BEGIN
1070
    46
1040
0.0
1000
ACAD_MTEXT_DEFINED_HEIGHT_END
  0
TEXT
  5
CE8
330
C34
100
AcDbEntity
  8
0
 62
     3
100
AcDbText
 10
175.3858815124406
 20
32.1405278522982
 30
0.0
 40
3.2
  1
設 計
  7
高3.2
100
AcDbText
1001
ACAD
1000
ACAD_MTEXT_DEFINED_HEIGHT_BEGIN
1070
    46
1040
0.0
1000
ACAD_MTEXT_DEFINED_HEIGHT_END
  0
TEXT
  5
CE9
330
C34
100
AcDbEntity
  8
0
 62
     3
100
AcDbText
 10
188.6865180324405
 20
32.1405278522982
 30
0.0
 40
3.2
  1
製 図
  7
高3.2
100
AcDbText
1001
ACAD
1000
ACAD_MTEXT_DEFINED_HEIGHT_BEGIN
1070
    46
1040
0.0
1000
ACAD_MTEXT_DEFINED_HEIGHT_END
  0
TEXT
  5
CEA
330
C34
100
AcDbEntity
  8
0
 62
     3
100
AcDbText
 10
187.5000006199209
 20
267.4999996444133
 30
0.0
 40
3.2
  1
担　当
  7
高3.2
100
AcDbText
  0
TEXT
  5
CEB
330
C34
100
AcDbEntity
  8
0
 62
     3
100
AcDbText
 10
143.5000006199209
 20
267.4999996444133
 30
0.0
 40
3.2
  1
変更・追記内容
  7
高3.2
100
AcDbText
  0
TEXT
  5
CEC
330
C34
100
AcDbEntity
  8
0
 62
     3
100
AcDbText
 10
118.6135156202601
 20
262.829461134505
 30
0.0
 40
2.0
  1
1
  7
高2
100
AcDbText
  0
TEXT
  5
CED
330
C34
100
AcDbEntity
  8
0
 62
     3
100
AcDbText
 10
118.3050041435028
 20
257.6596444222321
 30
0.0
 40
2.0
  1
2
  7
高2
100
AcDbText
  0
TEXT
  5
CEE
330
C34
100
AcDbEntity
  8
0
 62
     3
100
AcDbText
 10
125.5000006199209
 20
267.4999996444133
 30
0.0
 40
3.2
  1
日　付
  7
高3.2
100
AcDbText
  0
TEXT
  5
CEF
330
C34
100
AcDbEntity
  8
0
 62
     3
100
AcDbText
 10
125.5000006199209
 20
272.4999996444132
 30
0.0
 40
3.2
  1
図　　　　面　　　　略　　　　歴
  7
高3.2
100
AcDbText
  0
TEXT
  5
CF0
330
C34
100
AcDbEntity
  8
0
 62
     3
100
AcDbText
 10
115.5000006199209
 20
267.4999996444133
 30
0.0
 40
3.2
  1
記号
  7
高3.2
100
AcDbText
  0
LINE
  5
CF1
330
C34
100
AcDbEntity
  8
0
 62
     7
100
AcDbLine
 10
119.0000006199209
 20
260.7908956444134
 30
0.0
 11
117.1000006199208
 21
257.4999996444133
 31
0.0
  0
LINE
  5
CF2
330
C34
100
AcDbEntity
  8
0
 62
     7
100
AcDbLine
 10
119.0000006199209
 20
260.7908956444134
 30
0.0
 11
120.9000006199207
 21
257.4999996444133
 31
0.0
  0
LINE
  5
CF3
330
C34
100
AcDbEntity
  8
0
 62
     7
100
AcDbLine
 10
117.1000006199208
 20
257.4999996444133
 30
0.0
 11
120.9000006199207
 21
257.4999996444133
 31
0.0
  0
LINE
  5
CF4
330
C34
100
AcDbEntity
  8
0
 62
     7
100
AcDbLine
 10
119.0000006199209
 20
265.7908966444133
 30
0.0
 11
117.1000006199208
 21
262.4999996444133
 31
0.0
  0
LINE
  5
CF5
330
C34
100
AcDbEntity
  8
0
 62
     7
100
AcDbLine
 10
119.0000006199209
 20
265.7908966444133
 30
0.0
 11
120.9000006199207
 21
262.4999996444133
 31
0.0
  0
LINE
  5
CF6
330
C34
100
AcDbEntity
  8
0
 62
     7
100
AcDbLine
 10
117.1000006199208
 20
262.4999996444133
 30
0.0
 11
120.9000006199207
 21
262.4999996444133
 31
0.0
  0
LINE
  5
CF7
330
C34
100
AcDbEntity
  8
0
 62
     3
100
AcDbLine
 10
114.0000006199209
 20
271.9999996444133
 30
0.0
 11
200.0000006199209
 21
271.9999996444133
 31
0.0
  0
LINE
  5
CF8
330
C34
100
AcDbEntity
  8
0
 62
     3
100
AcDbLine
 10
114.0000006199209
 20
266.9999996444133
 30
0.0
 11
200.0000006199209
 21
266.9999996444133
 31
0.0
  0
LINE
  5
CF9
330
C34
100
AcDbEntity
  8
0
 62
     7
100
AcDbLine
 10
114.0000006199209
 20
261.9999996444132
 30
0.0
 11
200.0000006199209
 21
261.9999996444132
 31
0.0
  0
LINE
  5
CFA
330
C34
100
AcDbEntity
  8
0
 62
     3
100
AcDbLine
 10
114.0000006199209
 20
256.9999996444133
 30
0.0
 11
200.0000006199209
 21
256.9999996444133
 31
0.0
  0
LINE
  5
CFB
330
C34
100
AcDbEntity
  8
0
 62
     7
100
AcDbLine
 10
186.0000006199209
 20
256.9999996444133
 30
0.0
 11
186.0000006199209
 21
271.9999996444133
 31
0.0
  0
LINE
  5
CFC
330
C34
100
AcDbEntity
  8
0
 62
     7
100
AcDbLine
 10
142.0000006199209
 20
256.9999996444133
 30
0.0
 11
142.0000006199209
 21
271.9999996444133
 31
0.0
  0
LINE
  5
CFD
330
C34
100
AcDbEntity
  8
0
 62
     7
100
AcDbLine
 10
124.0000006199209
 20
256.9999996444133
 30
0.0
 11
124.0000006199209
 21
271.9999996444133
 31
0.0
  0
LINE
  5
CFE
330
C34
100
AcDbEntity
  8
0
 62
     3
100
AcDbLine
 10
114.0000006199209
 20
256.9999996444133
 30
0.0
 11
114.0000006199209
 21
276.9999996444133
 31
0.0
  0
ENDBLK
  5
D02
330
C34
100
AcDbEntity
  8
0
100
AcDbBlockEnd
  0
BLOCK
  5
105D
330
105C
100
AcDbEntity
  8
0
100
AcDbBlockBegin
  2
*D3
 70
     1
 10
0.0
 20
0.0
 30
0.0
  3
*D3
  1

  0
LINE
  5
109D
330
105C
100
AcDbEntity
  8
0
 62
     0
370
    -2
100
AcDbLine
 10
1477.825689307843
 20
237.9925346537548
 30
0.0
 11
1477.825689307843
 21
252.8386480361433
 31
0.0
  0
LINE
  5
109E
330
105C
100
AcDbEntity
  8
0
 62
     0
370
    -2
100
AcDbLine
 10
1357.825689307843
 20
237.9925346537548
 30
0.0
 11
1357.825689307843
 21
252.8386480361433
 31
0.0
  0
LINE
  5
109F
330
105C
100
AcDbEntity
  8
0
 62
     0
370
    -2
100
AcDbLine
 10
1475.325689307843
 20
251.5886480361432
 30
0.0
 11
1360.325689307843
 21
251.5886480361432
 31
0.0
  0
INSERT
  5
10A0
330
105C
100
AcDbEntity
  8
0
 62
     0
370
    -2
100
AcDbBlockReference
  2
_Open30
 10
1477.825689307843
 20
251.5886480361432
 30
0.0
 41
2.5
 42
2.5
 43
2.5
  0
INSERT
  5
10A1
330
105C
100
AcDbEntity
  8
0
 62
     0
370
    -2
100
AcDbBlockReference
  2
_Open30
 10
1357.825689307843
 20
251.5886480361432
 30
0.0
 41
2.5
 42
2.5
 43
2.5
 50
180.0
  0
MTEXT
  5
10A2
330
105C
100
AcDbEntity
  8
0
 62
     4
100
AcDbMText
 10
1415.092318963208
 20
253.7136480361432
 30
0.0
 40
3.0
 41
0.0
 71
     5
 72
     1
  1
120
 73
     1
 44
1.0
1001
ACAD
1000
MTEXTBEGIN
1070
    73
1070
     1
1070
    44
1040
1.0
1070
    74
1070
     0
1000
MTEXTEND
  0
POINT
  5
10A3
330
105C
100
AcDbEntity
  8
Defpoints
 62
     0
100
AcDbPoint
 10
1477.825689307843
 20
237.7425346537548
 30
0.0
  0
POINT
  5
10A4
330
105C
100
AcDbEntity
  8
Defpoints
 62
     0
100
AcDbPoint
 10
1357.825689307843
 20
237.7425346537548
 30
0.0
  0
POINT
  5
10A5
330
105C
100
AcDbEntity
  8
Defpoints
 62
     0
100
AcDbPoint
 10
1357.825689307843
 20
251.5886480361432
 30
0.0
  0
ENDBLK
  5
105E
330
105C
100
AcDbEntity
  8
0
100
AcDbBlockEnd
  0
BLOCK
  5
1075
330
1074
100
AcDbEntity
  8
0
100
AcDbBlockBegin
  2
*D4
 70
     1
 10
0.0
 20
0.0
 30
0.0
  3
*D4
  1

  0
LINE
  5
10B8
330
1074
100
AcDbEntity
  8
0
 62
     0
370
    -2
100
AcDbLine
 10
1357.575689307843
 20
237.7425346537548
 30
0.0
 11
1341.509753335745
 21
237.7425346537548
 31
0.0
  0
LINE
  5
10B9
330
1074
100
AcDbEntity
  8
0
 62
     0
370
    -2
100
AcDbLine
 10
1357.575689307843
 20
147.7425346537548
 30
0.0
 11
1341.509753335745
 21
147.7425346537548
 31
0.0
  0
LINE
  5
10BA
330
1074
100
AcDbEntity
  8
0
 62
     0
370
    -2
100
AcDbLine
 10
1342.759753335745
 20
235.2425346537548
 30
0.0
 11
1342.759753335745
 21
150.2425346537548
 31
0.0
  0
INSERT
  5
10BB
330
1074
100
AcDbEntity
  8
0
 62
     0
370
    -2
100
AcDbBlockReference
  2
_Open30
 10
1342.759753335745
 20
237.7425346537548
 30
0.0
 41
2.5
 42
2.5
 43
2.5
 50
90.0
  0
INSERT
  5
10BC
330
1074
100
AcDbEntity
  8
0
 62
     0
370
    -2
100
AcDbBlockReference
  2
_Open30
 10
1342.759753335745
 20
147.7425346537548
 30
0.0
 41
2.5
 42
2.5
 43
2.5
 50
270.0
  0
MTEXT
  5
10BD
330
1074
100
AcDbEntity
  8
0
 62
     4
100
AcDbMText
 10
1340.634753335744
 20
192.7425346537548
 30
0.0
 40
3.0
 41
0.0
 71
     5
 72
     1
  1
90
 11
0.0000000000000001
 21
1.0
 31
0.0
 73
     1
 44
1.0
1001
ACAD
1000
MTEXTBEGIN
1070
    73
1070
     1
1070
    44
1040
1.0
1070
    74
1070
     0
1000
MTEXTEND
  0
POINT
  5
10BE
330
1074
100
AcDbEntity
  8
Defpoints
 62
     0
100
AcDbPoint
 10
1357.825689307843
 20
237.7425346537548
 30
0.0
  0
POINT
  5
10BF
330
1074
100
AcDbEntity
  8
Defpoints
 62
     0
100
AcDbPoint
 10
1357.825689307843
 20
147.7425346537548
 30
0.0
  0
POINT
  5
10C0
330
1074
100
AcDbEntity
  8
Defpoints
 62
     0
100
AcDbPoint
 10
1342.759753335745
 20
147.7425346537548
 30
0.0
  0
ENDBLK
  5
1076
330
1074
100
AcDbEntity
  8
0
100
AcDbBlockEnd
  0
ENDSEC
  0
SECTION
  2
ENTITIES
  0
LINE
  5
F83
330
1F
100
AcDbEntity
  8
0
 62
     3
100
AcDbLine
 10
1357.825689307843
 20
237.7425346537548
 30
0.0
 11
1357.825689307843
 21
147.7425346537548
 31
0.0
  0
LINE
  5
F84
330
1F
100
AcDbEntity
  8
0
 62
     3
100
AcDbLine
 10
1477.825689307843
 20
147.7425346537548
 30
0.0
 11
1357.825689307843
 21
147.7425346537548
 31
0.0
  0
LINE
  5
F85
330
1F
100
AcDbEntity
  8
0
 62
     3
100
AcDbLine
 10
1477.825689307843
 20
237.7425346537548
 30
0.0
 11
1477.825689307843
 21
147.7425346537548
 31
0.0
  0
LINE
  5
F86
330
1F
100
AcDbEntity
  8
0
 62
     3
100
AcDbLine
 10
1477.825689307843
 20
237.7425346537548
 30
0.0
 11
1357.825689307843
 21
237.7425346537548
 31
0.0
  0
LINE
  5
F87
330
1F
100
AcDbEntity
  8
0
 62
     3
100
AcDbLine
 10
1310.690115004692
 20
157.6654161336664
 30
0.0
 11
1310.202188174692
 21
157.6654161336664
 31
0.0
  0
LINE
  5
F88
330
1F
100
AcDbEntity
  8
0
 62
     3
100
AcDbLine
 10
1322.202188174692
 20
296.1654161336664
 30
0.0
 11
1322.202188174692
 21
19.16541613366644
 31
0.0
  0
LINE
  5
F8A
330
1F
100
AcDbEntity
  8
0
 62
     3
100
AcDbLine
 10
1502.202188174692
 20
19.16541613366644
 30
0.0
 11
1502.202188174692
 21
296.1654161336664
 31
0.0
  0
LINE
  5
F8B
330
1F
100
AcDbEntity
  8
0
 62
     3
100
AcDbLine
 10
1322.202188174692
 20
19.16541613366644
 30
0.0
 11
1502.202188174692
 21
19.16541613366644
 31
0.0
  0
LINE
  5
F8C
330
1F
100
AcDbEntity
  8
0
 62
     3
100
AcDbLine
 10
1359.286540194692
 20
297.9528602336665
 30
0.0
 11
1359.722288104692
 21
297.7253920936664
 31
0.0
  0
LINE
  5
F8D
330
1F
100
AcDbEntity
  8
0
 62
     3
100
AcDbLine
 10
1359.286540194692
 20
294.2222297536665
 30
0.0
 11
1359.722288104692
 21
294.4496978936665
 31
0.0
  0
LINE
  5
F8E
330
1F
100
AcDbEntity
  8
0
 62
     3
100
AcDbLine
 10
1359.722288104692
 20
297.7253920936664
 30
0.0
 11
1359.722288104692
 21
294.4496978936665
 31
0.0
  0
LINE
  5
F8F
330
1F
100
AcDbEntity
  8
0
 62
     3
100
AcDbLine
 10
1360.825805524692
 20
294.2222297536665
 30
0.0
 11
1360.390057614691
 21
294.4496978936665
 31
0.0
  0
LINE
  5
F90
330
1F
100
AcDbEntity
  8
0
 62
     3
100
AcDbLine
 10
1360.390057614691
 20
296.4465567036664
 30
0.0
 11
1360.390057614691
 21
294.4496978936665
 31
0.0
  0
LINE
  5
F91
330
1F
100
AcDbEntity
  8
0
 62
     3
100
AcDbLine
 10
1363.367668304692
 20
297.9528602336665
 30
0.0
 11
1362.931920394692
 21
297.7253920936664
 31
0.0
  0
LINE
  5
F92
330
1F
100
AcDbEntity
  8
0
 62
     3
100
AcDbLine
 10
1361.828402974692
 20
297.9528602336665
 30
0.0
 11
1362.264150884692
 21
297.7253920936664
 31
0.0
  0
LINE
  5
F93
330
1F
100
AcDbEntity
  8
0
 62
     3
100
AcDbLine
 10
1362.264150884692
 20
297.7253920936664
 30
0.0
 11
1362.264150884692
 21
296.2830550336664
 31
0.0
  0
LINE
  5
F94
330
1F
100
AcDbEntity
  8
0
 62
     3
100
AcDbLine
 10
1362.931920394692
 20
297.7253920936664
 30
0.0
 11
1362.931920394692
 21
294.0106686136664
 31
0.0
  0
LINE
  5
F95
330
1F
100
AcDbEntity
  8
0
 62
     3
100
AcDbLine
 10
1363.582965504692
 20
297.9528576036664
 30
0.0
 11
1364.018711844692
 21
297.7253864636665
 31
0.0
  0
LINE
  5
F96
330
1F
100
AcDbEntity
  8
0
 62
     3
100
AcDbLine
 10
1363.582887534692
 20
294.2222797336665
 30
0.0
 11
1364.018643384692
 21
294.4497326536664
 31
0.0
  0
LINE
  5
F97
330
1F
100
AcDbEntity
  8
0
 62
     3
100
AcDbLine
 10
1364.018711844692
 20
297.7253864636665
 30
0.0
 11
1364.018711844692
 21
294.4497326536664
 31
0.0
  0
LINE
  5
F98
330
1F
100
AcDbEntity
  8
0
 62
     3
100
AcDbLine
 10
1365.512501904692
 20
297.9528339336664
 30
0.0
 11
1365.076750814692
 21
297.7253719036664
 31
0.0
  0
LINE
  5
F99
330
1F
100
AcDbEntity
  8
0
 62
     3
100
AcDbLine
 10
1365.076750814692
 20
297.7253719036664
 30
0.0
 11
1365.076750814692
 21
294.4497180836664
 31
0.0
  0
LINE
  5
F9A
330
1F
100
AcDbEntity
  8
0
 62
     3
100
AcDbLine
 10
1365.512501904692
 20
294.2222560536665
 30
0.0
 11
1365.076750814692
 21
294.4497180836664
 31
0.0
  0
LINE
  5
F9B
330
1F
100
AcDbEntity
  8
0
 62
     3
100
AcDbLine
 10
1369.202755344692
 20
297.9527929336665
 30
0.0
 11
1369.638502464692
 21
297.7253232936664
 31
0.0
  0
LINE
  5
F9C
330
1F
100
AcDbEntity
  8
0
 62
     3
100
AcDbLine
 10
1369.638502464692
 20
297.7253232936664
 30
0.0
 11
1369.638445294692
 21
294.4496694836664
 31
0.0
  0
LINE
  5
F9D
330
1F
100
AcDbEntity
  8
0
 62
     3
100
AcDbLine
 10
1369.202690234692
 20
294.2222150536665
 30
0.0
 11
1369.638445294692
 21
294.4496694836664
 31
0.0
  0
LINE
  5
F9E
330
1F
100
AcDbEntity
  8
0
 62
     3
100
AcDbLine
 10
1371.155016304692
 20
297.9527929336665
 30
0.0
 11
1370.719269184691
 21
297.7253232936664
 31
0.0
  0
LINE
  5
F9F
330
1F
100
AcDbEntity
  8
0
 62
     3
100
AcDbLine
 10
1371.155081414692
 20
294.2222150536665
 30
0.0
 11
1370.719326354692
 21
294.4496694836664
 31
0.0
  0
LINE
  5
FA0
330
1F
100
AcDbEntity
  8
0
 62
     3
100
AcDbLine
 10
1371.358744164692
 20
297.9527929336665
 30
0.0
 11
1371.794491294692
 21
297.7253232936664
 31
0.0
  0
LINE
  5
FA1
330
1F
100
AcDbEntity
  8
0
 62
     3
100
AcDbLine
 10
1371.358679054692
 20
294.2222150536665
 30
0.0
 11
1371.794434114692
 21
294.4496694836664
 31
0.0
  0
LINE
  5
FA2
330
1F
100
AcDbEntity
  8
0
 62
     3
100
AcDbLine
 10
1373.311005134691
 20
297.9527929336665
 30
0.0
 11
1372.875258014692
 21
297.7253232936664
 31
0.0
  0
LINE
  5
FA3
330
1F
100
AcDbEntity
  8
0
 62
     3
100
AcDbLine
 10
1372.875258014692
 20
297.7253232936664
 30
0.0
 11
1372.875315184692
 21
294.4496694836664
 31
0.0
  0
LINE
  5
FA4
330
1F
100
AcDbEntity
  8
0
 62
     3
100
AcDbLine
 10
1373.311070244692
 20
294.2222150536665
 30
0.0
 11
1372.875315184692
 21
294.4496694836664
 31
0.0
  0
LINE
  5
FA5
330
1F
100
AcDbEntity
  8
0
 62
     3
100
AcDbLine
 10
1371.794466384692
 20
296.2981901736664
 30
0.0
 11
1370.719294094692
 21
296.2981901736664
 31
0.0
  0
LINE
  5
FA6
330
1F
100
AcDbEntity
  8
0
 62
     3
100
AcDbLine
 10
1371.794459024691
 20
295.8768998136664
 30
0.0
 11
1370.719301444691
 21
295.8768998136664
 31
0.0
  0
LINE
  5
FA7
330
1F
100
AcDbEntity
  8
0
 62
     3
100
AcDbLine
 10
1371.794491294692
 20
297.7253232936664
 30
0.0
 11
1371.794466384692
 21
296.2981901736664
 31
0.0
  0
LINE
  5
FA8
330
1F
100
AcDbEntity
  8
0
 62
     3
100
AcDbLine
 10
1371.794459024691
 20
295.8768998136664
 30
0.0
 11
1371.794434114692
 21
294.4496694836664
 31
0.0
  0
LINE
  5
FA9
330
1F
100
AcDbEntity
  8
0
 62
     3
100
AcDbLine
 10
1370.719269184691
 20
297.7253232936664
 30
0.0
 11
1370.719294094692
 21
296.2981901736664
 31
0.0
  0
LINE
  5
FAA
330
1F
100
AcDbEntity
  8
0
 62
     3
100
AcDbLine
 10
1370.719301444691
 20
295.8768998136664
 30
0.0
 11
1370.719326354692
 21
294.4496694836664
 31
0.0
  0
LINE
  5
FAB
330
1F
100
AcDbEntity
  8
0
 62
     3
100
AcDbLine
 10
1373.517964254692
 20
297.9527929336665
 30
0.0
 11
1373.953711374692
 21
297.7253232936664
 31
0.0
  0
LINE
  5
FAC
330
1F
100
AcDbEntity
  8
0
 62
     3
100
AcDbLine
 10
1373.953711374692
 20
297.7253232936664
 30
0.0
 11
1373.953654204691
 21
294.4496694836664
 31
0.0
  0
LINE
  5
FAD
330
1F
100
AcDbEntity
  8
0
 62
     3
100
AcDbLine
 10
1373.517899144691
 20
294.2222150536665
 30
0.0
 11
1373.953654204691
 21
294.4496694836664
 31
0.0
  0
LINE
  5
FAE
330
1F
100
AcDbEntity
  8
0
 62
     3
100
AcDbLine
 10
1375.447474524692
 20
297.9527929336665
 30
0.0
 11
1375.011727404692
 21
297.7253232936664
 31
0.0
  0
LINE
  5
FAF
330
1F
100
AcDbEntity
  8
0
 62
     3
100
AcDbLine
 10
1375.011727404692
 20
297.7253232936664
 30
0.0
 11
1375.011784574692
 21
294.4496694836664
 31
0.0
  0
LINE
  5
FB0
330
1F
100
AcDbEntity
  8
0
 62
     3
100
AcDbLine
 10
1375.447539634692
 20
294.2222150536665
 30
0.0
 11
1375.011784574692
 21
294.4496694836664
 31
0.0
  0
LINE
  5
FB1
330
1F
100
AcDbEntity
  8
0
 62
     3
100
AcDbLine
 10
1375.661834094692
 20
297.9527929336665
 30
0.0
 11
1376.097581214692
 21
297.7253232936664
 31
0.0
  0
LINE
  5
FB2
330
1F
100
AcDbEntity
  8
0
 62
     3
100
AcDbLine
 10
1376.097581214692
 20
297.7253232936664
 30
0.0
 11
1376.097524044691
 21
294.4496694836664
 31
0.0
  0
LINE
  5
FB3
330
1F
100
AcDbEntity
  8
0
 62
     3
100
AcDbLine
 10
1375.661768984692
 20
294.2222150536665
 30
0.0
 11
1376.097524044691
 21
294.4496694836664
 31
0.0
  0
ARC
  5
FB4
330
1F
100
AcDbEntity
  8
0
 62
     3
100
AcDbCircle
 10
1367.810844074692
 20
296.0969347536665
 30
0.0
 40
2.086285909999999
100
AcDbArc
 50
97.70152350999723
 51
270.0
  0
ARC
  5
FB5
330
1F
100
AcDbEntity
  8
0
 62
     3
100
AcDbCircle
 10
1380.691444914691
 20
296.0759781236665
 30
0.0
 40
2.108943379999999
100
AcDbArc
 50
0.314250269999259
 51
69.00558244998919
  0
ARC
  5
FB6
330
1F
100
AcDbEntity
  8
0
 62
     3
100
AcDbCircle
 10
1381.152120234691
 20
296.0759781236665
 30
0.0
 40
2.108943379999999
100
AcDbArc
 50
110.9944175499969
 51
148.1166110200051
  0
ARC
  5
FB7
330
1F
100
AcDbEntity
  8
0
 62
     3
100
AcDbCircle
 10
1380.691444914691
 20
296.0991118636664
 30
0.0
 40
2.108943379999999
100
AcDbArc
 50
290.9944175499969
 51
359.6857497300005
  0
ARC
  5
FB8
330
1F
100
AcDbEntity
  8
0
 62
     3
100
AcDbCircle
 10
1381.152120234691
 20
296.0991118636664
 30
0.0
 40
2.108943379999999
100
AcDbArc
 50
211.8833889799947
 51
249.0055824499892
  0
ARC
  5
FB9
330
1F
100
AcDbEntity
  8
0
 62
     3
100
AcDbCircle
 10
1380.921782574692
 20
296.9503503836664
 30
0.0
 40
1.214070989999999
100
AcDbArc
 50
64.36517189999968
 51
115.6348281000003
  0
ARC
  5
FBA
330
1F
100
AcDbEntity
  8
0
 62
     3
100
AcDbCircle
 10
1380.921782574692
 20
295.2247396036664
 30
0.0
 40
1.214070989999999
100
AcDbArc
 50
244.3651718999997
 51
295.6348281000003
  0
ARC
  5
FBB
330
1F
100
AcDbEntity
  8
0
 62
     3
100
AcDbCircle
 10
1380.921782574692
 20
296.9734120636664
 30
0.0
 40
0.59585563
100
AcDbArc
 50
19.48660554000535
 51
160.5133944599946
  0
ARC
  5
FBC
330
1F
100
AcDbEntity
  8
0
 62
     3
100
AcDbCircle
 10
1380.921782574692
 20
295.2247396036664
 30
0.0
 40
1.214070989999999
100
AcDbArc
 50
244.3651718999997
 51
295.6348281000003
  0
ARC
  5
FBD
330
1F
100
AcDbEntity
  8
0
 62
     3
100
AcDbCircle
 10
1380.921782574692
 20
295.2016779236664
 30
0.0
 40
0.59585563
100
AcDbArc
 50
199.4866055400053
 51
340.5133944599945
  0
ARC
  5
FBE
330
1F
100
AcDbEntity
  8
0
 62
     3
100
AcDbCircle
 10
1376.179310074691
 20
273.8594851536665
 30
0.0
 40
26.04
100
AcDbArc
 50
69.5057148000084
 51
81.68998806999736
  0
ARC
  5
FBF
330
1F
100
AcDbEntity
  8
0
 62
     3
100
AcDbCircle
 10
1376.179310074691
 20
318.3156048336664
 30
0.0
 40
26.04
100
AcDbArc
 50
278.3100119300026
 51
290.4942851999916
  0
ARC
  5
FC0
330
1F
100
AcDbEntity
  8
0
 62
     3
100
AcDbCircle
 10
1384.487514204691
 20
296.0875449936665
 30
0.0
 40
2.31
100
AcDbArc
 50
290.4942851999916
 51
69.5057148000084
  0
ARC
  5
FC1
330
1F
100
AcDbEntity
  8
0
 62
     3
100
AcDbCircle
 10
1357.187514204692
 20
296.0875449936665
 30
0.0
 40
2.31
100
AcDbArc
 50
110.4942851999916
 51
249.5057147999945
  0
ARC
  5
FC2
330
1F
100
AcDbEntity
  8
0
 62
     3
100
AcDbCircle
 10
1365.495718324692
 20
273.8594851536665
 30
0.0
 40
26.04
100
AcDbArc
 50
98.31001192998947
 51
110.4942851999916
  0
ARC
  5
FC3
330
1F
100
AcDbEntity
  8
0
 62
     3
100
AcDbCircle
 10
1365.495718324692
 20
318.3156048336664
 30
0.0
 40
26.04
100
AcDbArc
 50
249.5057147999945
 51
261.6899880699973
  0
ARC
  5
FC4
330
1F
100
AcDbEntity
  8
0
 62
     3
100
AcDbCircle
 10
1370.837514204692
 20
237.2875449936664
 30
0.0
 40
62.99999987
100
AcDbArc
 50
81.68998806999736
 51
98.31001192998947
  0
ARC
  5
FC5
330
1F
100
AcDbEntity
  8
0
 62
     3
100
AcDbCircle
 10
1370.837514204692
 20
354.8875449936665
 30
0.0
 40
62.99999987
100
AcDbArc
 50
261.6899880699973
 51
278.3100119300026
  0
ARC
  5
FC6
330
1F
100
AcDbEntity
  8
0
 62
     3
100
AcDbCircle
 10
1370.837514204692
 20
237.2875449936664
 30
0.0
 40
62.36999987
100
AcDbArc
 50
81.68998806999736
 51
98.31001192998947
  0
ARC
  5
FC7
330
1F
100
AcDbEntity
  8
0
 62
     3
100
AcDbCircle
 10
1370.837514204692
 20
354.8875449936665
 30
0.0
 40
62.36999987
100
AcDbArc
 50
261.6899880699973
 51
278.3100119300026
  0
ARC
  5
FC8
330
1F
100
AcDbEntity
  8
0
 62
     3
100
AcDbCircle
 10
1376.179310074691
 20
318.3156048336664
 30
0.0
 40
25.41
100
AcDbArc
 50
278.3100119300026
 51
290.4942851999916
  0
ARC
  5
FC9
330
1F
100
AcDbEntity
  8
0
 62
     3
100
AcDbCircle
 10
1376.179310074691
 20
273.8594851536665
 30
0.0
 40
25.41
100
AcDbArc
 50
69.5057148000084
 51
81.68998806999736
  0
ARC
  5
FCA
330
1F
100
AcDbEntity
  8
0
 62
     3
100
AcDbCircle
 10
1384.487514204691
 20
296.0875449936665
 30
0.0
 40
1.679999999999999
100
AcDbArc
 50
290.4942851999916
 51
69.5057148000084
  0
ARC
  5
FCB
330
1F
100
AcDbEntity
  8
0
 62
     3
100
AcDbCircle
 10
1357.187514204692
 20
296.0875449936665
 30
0.0
 40
1.679999999999999
100
AcDbArc
 50
110.4942851999916
 51
249.5057147999945
  0
ARC
  5
FCC
330
1F
100
AcDbEntity
  8
0
 62
     3
100
AcDbCircle
 10
1365.495718324692
 20
273.8594851536665
 30
0.0
 40
25.41
100
AcDbArc
 50
98.31001192998947
 51
110.4942851999916
  0
ARC
  5
FCD
330
1F
100
AcDbEntity
  8
0
 62
     3
100
AcDbCircle
 10
1365.495718324692
 20
318.3156048336664
 30
0.0
 40
25.41
100
AcDbArc
 50
249.5057147999945
 51
261.6899880699973
  0
LINE
  5
FCE
330
1F
100
AcDbEntity
  8
0
 62
     3
100
AcDbLine
 10
1375.447475304692
 20
294.0106686136664
 30
0.0
 11
1373.517963474691
 21
294.0106686136664
 31
0.0
  0
LINE
  5
FCF
330
1F
100
AcDbEntity
  8
0
 62
     3
100
AcDbLine
 10
1375.447475304692
 20
294.2222297536665
 30
0.0
 11
1375.447475304692
 21
294.0106686136664
 31
0.0
  0
LINE
  5
FD0
330
1F
100
AcDbEntity
  8
0
 62
     3
100
AcDbLine
 10
1373.311005914692
 20
298.1643226536665
 30
0.0
 11
1371.358743384692
 21
298.1643226536665
 31
0.0
  0
LINE
  5
FD1
330
1F
100
AcDbEntity
  8
0
 62
     3
100
AcDbLine
 10
1373.311005914692
 20
298.1643226536665
 30
0.0
 11
1373.311005914692
 21
297.9528602336665
 31
0.0
  0
LINE
  5
FD2
330
1F
100
AcDbEntity
  8
0
 62
     3
100
AcDbLine
 10
1373.311005914692
 20
294.2222297536665
 30
0.0
 11
1373.311005914692
 21
294.0105699036664
 31
0.0
  0
LINE
  5
FD3
330
1F
100
AcDbEntity
  8
0
 62
     3
100
AcDbLine
 10
1373.311005914692
 20
294.0105699036664
 30
0.0
 11
1371.358743384692
 21
294.0105699036664
 31
0.0
  0
LINE
  5
FD4
330
1F
100
AcDbEntity
  8
0
 62
     3
100
AcDbLine
 10
1375.447475304692
 20
298.1644213736664
 30
0.0
 11
1375.447475304692
 21
297.9528602336665
 31
0.0
  0
LINE
  5
FD5
330
1F
100
AcDbEntity
  8
0
 62
     3
100
AcDbLine
 10
1375.447475304692
 20
298.1644213736664
 30
0.0
 11
1373.517963474691
 21
298.1644213736664
 31
0.0
  0
LINE
  5
FD6
330
1F
100
AcDbEntity
  8
0
 62
     3
100
AcDbLine
 10
1373.517963474691
 20
298.1644213736664
 30
0.0
 11
1373.517963474691
 21
297.9528602336665
 31
0.0
  0
LINE
  5
FD7
330
1F
100
AcDbEntity
  8
0
 62
     3
100
AcDbLine
 10
1375.661833304692
 20
294.2222297536665
 30
0.0
 11
1375.661833304692
 21
294.0106686136664
 31
0.0
  0
LINE
  5
FD8
330
1F
100
AcDbEntity
  8
0
 62
     3
100
AcDbLine
 10
1377.646133864692
 20
294.0106686136664
 30
0.0
 11
1375.661833304692
 21
294.0106686136664
 31
0.0
  0
LINE
  5
FD9
330
1F
100
AcDbEntity
  8
0
 62
     3
100
AcDbLine
 10
1377.155597234692
 20
297.4966518536664
 30
0.0
 11
1377.155597234692
 21
294.6784381336664
 31
0.0
  0
LINE
  5
FDA
330
1F
100
AcDbEntity
  8
0
 62
     3
100
AcDbLine
 10
1377.155597234692
 20
294.6784381336664
 30
0.0
 11
1377.345646204692
 21
294.6784381336664
 31
0.0
  0
ARC
  5
FDB
330
1F
100
AcDbEntity
  8
0
 62
     3
100
AcDbCircle
 10
1376.373860464692
 20
296.0875449936665
 30
0.0
 40
1.71170957
100
AcDbArc
 50
304.5919552700024
 51
55.40804472999759
  0
LINE
  5
FDC
330
1F
100
AcDbEntity
  8
0
 62
     3
100
AcDbLine
 10
1377.646133864692
 20
298.1644213736664
 30
0.0
 11
1375.661833304692
 21
298.1644213736664
 31
0.0
  0
LINE
  5
FDD
330
1F
100
AcDbEntity
  8
0
 62
     3
100
AcDbLine
 10
1375.661833304692
 20
298.1644213736664
 30
0.0
 11
1375.661833304692
 21
297.9528602336665
 31
0.0
  0
LINE
  5
FDE
330
1F
100
AcDbEntity
  8
0
 62
     3
100
AcDbLine
 10
1373.517963474691
 20
294.2222297536665
 30
0.0
 11
1373.517963474691
 21
294.0106686136664
 31
0.0
  0
LINE
  5
FDF
330
1F
100
AcDbEntity
  8
0
 62
     3
100
AcDbLine
 10
1377.155597234692
 20
297.4966518536664
 30
0.0
 11
1377.345646204692
 21
297.4966518536664
 31
0.0
  0
LINE
  5
FE0
330
1F
100
AcDbEntity
  8
0
 62
     3
100
AcDbLine
 10
1365.512437574692
 20
294.2222297536665
 30
0.0
 11
1365.512433884692
 21
294.0106488436665
 31
0.0
  0
LINE
  5
FE1
330
1F
100
AcDbEntity
  8
0
 62
     3
100
AcDbLine
 10
1363.582922044692
 20
294.0106883836664
 30
0.0
 11
1365.512433884692
 21
294.0106547136664
 31
0.0
  0
LINE
  5
FE2
330
1F
100
AcDbEntity
  8
0
 62
     3
100
AcDbLine
 10
1359.286540194692
 20
294.0106686136664
 30
0.0
 11
1360.825805524692
 21
294.0106686136664
 31
0.0
  0
ARC
  5
FE3
330
1F
100
AcDbEntity
  8
0
 62
     3
100
AcDbCircle
 10
1354.304597514692
 20
296.1364516136665
 30
0.0
 40
14.71356563
100
AcDbArc
 50
353.8660061899985
 51
357.6940342600003
  0
LINE
  5
FE4
330
1F
100
AcDbEntity
  8
0
 62
     3
100
AcDbLine
 10
1368.021177374692
 20
295.5480839636664
 30
0.0
 11
1369.006248264692
 21
295.5444390836665
 31
0.0
  0
LINE
  5
FE6
330
1F
100
AcDbEntity
  8
0
 62
     3
100
AcDbLine
 10
1368.025155794692
 20
296.6232987036665
 30
0.0
 11
1369.010226674691
 21
296.6196538336665
 31
0.0
  0
ARC
  5
FE7
330
1F
100
AcDbEntity
  8
0
 62
     3
100
AcDbCircle
 10
1354.304597514692
 20
296.1364516136665
 30
0.0
 40
14.71356563
100
AcDbArc
 50
1.881965739999166
 51
5.709993809998117
  0
LINE
  5
FE8
330
1F
100
AcDbEntity
  8
0
 62
     3
100
AcDbLine
 10
1365.512506374692
 20
298.1644016036664
 30
0.0
 11
1365.512502684692
 21
297.9528602336665
 31
0.0
  0
LINE
  5
FE9
330
1F
100
AcDbEntity
  8
0
 62
     3
100
AcDbLine
 10
1363.582994544692
 20
298.1644411436664
 30
0.0
 11
1365.512506374692
 21
298.1644074636664
 31
0.0
  0
LINE
  5
FEA
330
1F
100
AcDbEntity
  8
0
 62
     3
100
AcDbLine
 10
1363.582925734692
 20
294.2222297536665
 30
0.0
 11
1363.582922044692
 21
294.0106883836664
 31
0.0
  0
LINE
  5
FEB
330
1F
100
AcDbEntity
  8
0
 62
     3
100
AcDbLine
 10
1363.582994544692
 20
298.1644411436664
 30
0.0
 11
1363.582990854691
 21
297.9528602336665
 31
0.0
  0
LINE
  5
FEC
330
1F
100
AcDbEntity
  8
0
 62
     3
100
AcDbLine
 10
1360.825805524692
 20
294.2222297536665
 30
0.0
 11
1360.825805524692
 21
294.0106686136664
 31
0.0
  0
LINE
  5
FED
330
1F
100
AcDbEntity
  8
0
 62
     3
100
AcDbLine
 10
1360.390057614691
 20
296.4465567036664
 30
0.0
 11
1361.912487674692
 21
294.0106686136664
 31
0.0
  0
LINE
  5
FEE
330
1F
100
AcDbEntity
  8
0
 62
     3
100
AcDbLine
 10
1361.912487674692
 20
294.0106686136664
 30
0.0
 11
1362.931920394692
 21
294.0106686136664
 31
0.0
  0
LINE
  5
FEF
330
1F
100
AcDbEntity
  8
0
 62
     3
100
AcDbLine
 10
1363.367668304692
 20
298.1644213736664
 30
0.0
 11
1363.367668304692
 21
297.9528602336665
 31
0.0
  0
LINE
  5
FF0
330
1F
100
AcDbEntity
  8
0
 62
     3
100
AcDbLine
 10
1361.828402974692
 20
298.1644213736664
 30
0.0
 11
1363.367668304692
 21
298.1644213736664
 31
0.0
  0
LINE
  5
FF1
330
1F
100
AcDbEntity
  8
0
 62
     3
100
AcDbLine
 10
1361.828402974692
 20
298.1644213736664
 30
0.0
 11
1361.828402974692
 21
297.9528602336665
 31
0.0
  0
LINE
  5
FF2
330
1F
100
AcDbEntity
  8
0
 62
     3
100
AcDbLine
 10
1362.264150884692
 20
296.2830550336664
 30
0.0
 11
1361.029504214692
 21
298.1644213736664
 31
0.0
  0
LINE
  5
FF3
330
1F
100
AcDbEntity
  8
0
 62
     3
100
AcDbLine
 10
1359.286540194692
 20
298.1644213736664
 30
0.0
 11
1361.029504214692
 21
298.1644213736664
 31
0.0
  0
LINE
  5
FF4
330
1F
100
AcDbEntity
  8
0
 62
     3
100
AcDbLine
 10
1369.202754554692
 20
298.1643226536665
 30
0.0
 11
1371.155017094692
 21
298.1643226536665
 31
0.0
  0
LINE
  5
FF5
330
1F
100
AcDbEntity
  8
0
 62
     3
100
AcDbLine
 10
1369.202754554692
 20
297.9528602336665
 30
0.0
 11
1369.202754554692
 21
298.1643226536665
 31
0.0
  0
LINE
  5
FF6
330
1F
100
AcDbEntity
  8
0
 62
     3
100
AcDbLine
 10
1369.202754554692
 20
294.0105699036664
 30
0.0
 11
1369.202754554692
 21
294.2222297536665
 31
0.0
  0
LINE
  5
FF7
330
1F
100
AcDbEntity
  8
0
 62
     3
100
AcDbLine
 10
1369.202754554692
 20
294.0105699036664
 30
0.0
 11
1371.155017094692
 21
294.0105699036664
 31
0.0
  0
LINE
  5
FF8
330
1F
100
AcDbEntity
  8
0
 62
     3
100
AcDbLine
 10
1371.358743384692
 20
294.2222297536665
 30
0.0
 11
1371.358743384692
 21
294.0105699036664
 31
0.0
  0
LINE
  5
FF9
330
1F
100
AcDbEntity
  8
0
 62
     3
100
AcDbLine
 10
1371.155017094692
 20
294.2222297536665
 30
0.0
 11
1371.155017094692
 21
294.0105699036664
 31
0.0
  0
LINE
  5
FFA
330
1F
100
AcDbEntity
  8
0
 62
     3
100
AcDbLine
 10
1371.155017094692
 20
297.9528602336665
 30
0.0
 11
1371.155017094692
 21
298.1643226536665
 31
0.0
  0
LINE
  5
FFB
330
1F
100
AcDbEntity
  8
0
 62
     3
100
AcDbLine
 10
1371.358743384692
 20
297.9528602336665
 30
0.0
 11
1371.358743384692
 21
298.1643226536665
 31
0.0
  0
LINE
  5
FFC
330
1F
100
AcDbEntity
  8
0
 62
     3
100
AcDbLine
 10
1359.286540194692
 20
294.2222297536665
 30
0.0
 11
1359.286540194692
 21
294.0106686136664
 31
0.0
  0
LINE
  5
FFD
330
1F
100
AcDbEntity
  8
0
 62
     3
100
AcDbLine
 10
1359.286540194692
 20
298.1644213736664
 30
0.0
 11
1359.286540194692
 21
297.9528602336665
 31
0.0
  0
ARC
  5
FFE
330
1F
100
AcDbEntity
  8
0
 62
     3
100
AcDbCircle
 10
1377.856133864692
 20
296.5232929036664
 30
0.0
 40
1.641128469999999
100
AcDbArc
 50
17.30874897999528
 51
23.76507095999465
  0
ARC
  5
FFF
330
1F
100
AcDbEntity
  8
0
 62
     3
100
AcDbCircle
 10
1376.457860464691
 20
296.0875449936665
 30
0.0
 40
3.105725599999999
100
AcDbArc
 50
342.6912510200047
 51
17.30856643999909
  0
ARC
  5
1000
330
1F
100
AcDbEntity
  8
0
 62
     3
100
AcDbCircle
 10
1377.856133864692
 20
295.6517970936665
 30
0.0
 40
1.641128469999999
100
AcDbArc
 50
336.2349290400005
 51
342.6912510200047
  0
ARC
  5
1001
330
1F
100
AcDbEntity
  8
0
 62
     3
100
AcDbCircle
 10
1377.646133864692
 20
296.5232929036664
 30
0.0
 40
1.641128469999999
100
AcDbArc
 50
17.30874897999528
 51
90.0
  0
ARC
  5
1002
330
1F
100
AcDbEntity
  8
0
 62
     3
100
AcDbCircle
 10
1376.247860464691
 20
296.0875449936665
 30
0.0
 40
3.105725599999999
100
AcDbArc
 50
342.6912510200047
 51
17.30856643999909
  0
ARC
  5
1003
330
1F
100
AcDbEntity
  8
0
 62
     3
100
AcDbCircle
 10
1377.646133864692
 20
295.6517970936665
 30
0.0
 40
1.641128469999999
100
AcDbArc
 50
270.0
 51
342.6912510200047
  0
ARC
  5
1004
330
1F
100
AcDbEntity
  8
0
 62
     3
100
AcDbCircle
 10
1367.522193494691
 20
296.0875449936665
 30
0.0
 40
2.076876379999999
100
AcDbArc
 50
46.75287960999344
 51
89.74999828999569
  0
ARC
  5
1005
330
1F
100
AcDbEntity
  8
0
 62
     3
100
AcDbCircle
 10
1367.522193494691
 20
296.0875449936665
 30
0.0
 40
2.076876379999999
100
AcDbArc
 50
273.976333149997
 51
312.8231203899985
  0
ARC
  5
1006
330
1F
100
AcDbEntity
  8
0
 62
     3
100
AcDbCircle
 10
1378.964001434691
 20
296.0554834636664
 30
0.0
 40
2.755888999999999
100
AcDbArc
 50
0.6665840599997753
 51
23.90392827000157
  0
ARC
  5
1007
330
1F
100
AcDbEntity
  8
0
 62
     3
100
AcDbCircle
 10
1382.879563714691
 20
296.0554834636664
 30
0.0
 40
2.755888999999999
100
AcDbArc
 50
156.0960717299984
 51
179.3334159400002
  0
ARC
  5
1008
330
1F
100
AcDbEntity
  8
0
 62
     3
100
AcDbCircle
 10
1378.964001434691
 20
296.1196065236665
 30
0.0
 40
2.755888999999999
100
AcDbArc
 50
336.0960717299984
 51
359.3334159400005
  0
ARC
  5
1009
330
1F
100
AcDbEntity
  8
0
 62
     3
100
AcDbCircle
 10
1382.879563714691
 20
296.1196065236665
 30
0.0
 40
2.755888999999999
100
AcDbArc
 50
180.6665840599995
 51
203.9039282700016
  0
LINE
  5
100A
330
1F
100
AcDbEntity
  8
0
 62
     3
100
AcDbLine
 10
1387.529850804692
 20
296.1654161336664
 30
0.0
 11
1502.202188174692
 21
296.1654161336664
 31
0.0
  0
LINE
  5
100C
330
1F
100
AcDbEntity
  8
0
 62
     3
100
AcDbLine
 10
1354.117104284692
 20
296.1654161336664
 30
0.0
 11
1322.202188174692
 21
296.1654161336664
 31
0.0
  0
LINE
  5
100D
330
1F
100
AcDbEntity
  8
0
 62
     3
100
AcDbLine
 10
1450.202188174691
 20
19.16541613366644
 30
0.0
 11
1450.202188174691
 21
59.16541613366645
 31
0.0
  0
LINE
  5
100E
330
1F
100
AcDbEntity
  8
0
 62
     3
100
AcDbLine
 10
1463.202188174692
 20
29.16541613366644
 30
0.0
 11
1463.202188174692
 21
57.16541613366644
 31
0.0
  0
LINE
  5
100F
330
1F
100
AcDbEntity
  8
0
 62
     3
100
AcDbLine
 10
1423.202188174692
 20
29.16541613366644
 30
0.0
 11
1423.202188174692
 21
43.16541613366643
 31
0.0
  0
LINE
  5
1010
330
1F
100
AcDbEntity
  8
0
 62
     3
100
AcDbLine
 10
1433.202188174692
 20
43.16541613366643
 30
0.0
 11
1433.202188174692
 21
19.16541613366644
 31
0.0
  0
LINE
  5
1011
330
1F
100
AcDbEntity
  8
0
 62
     3
100
AcDbLine
 10
1404.202188174692
 20
59.16541613366643
 30
0.0
 11
1404.202188174692
 21
36.16541613366645
 31
0.0
  0
LINE
  5
1012
330
1F
100
AcDbEntity
  8
0
 62
     3
100
AcDbLine
 10
1463.202188174692
 20
57.16541613366644
 30
0.0
 11
1463.202188174692
 21
59.16541613366645
 31
0.0
  0
LINE
  5
1013
330
1F
100
AcDbEntity
  8
0
 62
     3
100
AcDbLine
 10
1476.202188174692
 20
36.16541613366645
 30
0.0
 11
1476.202188174692
 21
59.16541613366645
 31
0.0
  0
LINE
  5
1014
330
1F
100
AcDbEntity
  8
0
 62
     3
100
AcDbLine
 10
1502.202188174692
 20
59.16541613366645
 30
0.0
 11
1390.956753534692
 21
59.16541613366645
 31
0.0
  0
LINE
  5
1015
330
1F
100
AcDbEntity
  8
0
 62
     3
100
AcDbLine
 10
1502.202188174692
 20
50.16541613366644
 30
0.0
 11
1390.956753534692
 21
50.16541613366644
 31
0.0
  0
LINE
  5
1016
330
1F
100
AcDbEntity
  8
0
 62
     3
100
AcDbLine
 10
1502.202188174692
 20
36.16541613366645
 30
0.0
 11
1390.956753534692
 21
36.16541613366645
 31
0.0
  0
LINE
  5
1017
330
1F
100
AcDbEntity
  8
0
 62
     3
100
AcDbLine
 10
1502.202188174692
 20
29.16541613366644
 30
0.0
 11
1390.956753534692
 21
29.16541613366644
 31
0.0
  0
LINE
  5
1018
330
1F
100
AcDbEntity
  8
0
 62
     3
100
AcDbLine
 10
1489.202188174692
 20
36.16541613366645
 30
0.0
 11
1489.202188174692
 21
59.16541613366645
 31
0.0
  0
LINE
  5
1019
330
1F
100
AcDbEntity
  8
0
 62
     3
100
AcDbLine
 10
1390.956753534692
 20
59.16541613366645
 30
0.0
 11
1390.956753534692
 21
19.16541613366644
 31
0.0
  0
LINE
  5
101A
330
1F
100
AcDbEntity
  8
0
 62
     3
100
AcDbLine
 10
1450.202188174691
 20
43.16541613366643
 30
0.0
 11
1390.956753534692
 21
43.16541613366642
 31
0.0
  0
LINE
  5
101B
330
1F
100
AcDbEntity
  8
0
 62
     3
100
AcDbLine
 10
1433.480513104691
 20
23.99827739366643
 30
0.0
 11
1450.202188174691
 21
23.99827739366643
 31
0.0
  0
TEXT
  5
101C
330
1F
100
AcDbEntity
  8
0
 62
     3
100
AcDbText
 10
1434.366513588007
 20
38.23851298703179
 30
0.0
 40
2.5
  1
-
  7
高2.5
100
AcDbText
  0
TEXT
  5
101D
330
1F
100
AcDbEntity
  8
0
 62
     3
100
AcDbText
 10
1405.398556869944
 20
38.46323053865035
 30
0.0
 40
2.5
  1
ポリエステル
 41
0.8
  7
高2.5
100
AcDbText
  0
TEXT
  5
101E
330
1F
100
AcDbEntity
  8
0
 62
     3
100
AcDbText
 10
1405.663464624641
 20
51.47766565742433
 30
0.0
 40
4.5
  1
エコナイター用眩防フィルム
 41
0.6
  7
高4.5e
100
AcDbText
1001
ACAD
1000
ACAD_MTEXT_DEFINED_HEIGHT_BEGIN
1070
    46
1040
0.0
1000
ACAD_MTEXT_DEFINED_HEIGHT_END
  0
TEXT
  5
101F
330
1F
100
AcDbEntity
  8
0
 62
     3
100
AcDbText
 10
1492.267777268166
 20
55.67910823237003
 30
0.0
 40
2.0
  1
DEF
  7
高2
100
AcDbText
  0
TEXT
  5
1020
330
1F
100
AcDbEntity
  8
0
 62
     3
100
AcDbText
 10
1478.328678914458
 20
55.67910823236995
 30
0.0
 40
2.0
  1
DESN
  7
高2
100
AcDbText
  0
TEXT
  5
1021
330
1F
100
AcDbEntity
  8
0
 62
     3
100
AcDbText
 10
1452.074311974457
 20
55.67910823237003
 30
0.0
 40
2.0
  1
APPD
  7
高2
100
AcDbText
  0
TEXT
  5
1022
330
1F
100
AcDbEntity
  8
0
 62
     3
100
AcDbText
 10
1465.187048074692
 20
55.67910823237005
 30
0.0
 40
2.0
  1
CHCK
  7
高2
100
AcDbText
  0
TEXT
  5
1023
330
1F
100
AcDbEntity
  8
0
 62
     3
100
AcDbText
 10
1424.129353813844
 20
33.33381495689716
 30
0.0
 40
2.0
  1
SCALE
 41
0.8
  7
高2
100
AcDbText
  0
TEXT
  5
1024
330
1F
100
AcDbEntity
  8
0
 62
     3
100
AcDbText
 10
1392.641332237738
 20
33.33381495689717
 30
0.0
 40
2.0
  1
3AD　ANGLE
 41
1.5
  7
高2
100
AcDbText
  0
TEXT
  5
1025
330
1F
100
AcDbEntity
  8
0
 62
     3
100
AcDbText
 10
1423.398759504693
 20
40.08535302585427
 30
0.0
 40
2.0
  1
REMARKS
 41
0.7
  7
高2
100
AcDbText
  0
TEXT
  5
1026
330
1F
100
AcDbEntity
  8
0
 62
     3
100
AcDbText
 10
1392.424423884692
 20
40.16541613366644
 30
0.0
 40
2.0
  1
MATERIAL
 41
0.7
  7
高2
100
AcDbText
  0
TEXT
  5
1027
330
1F
100
AcDbEntity
  8
0
 62
     3
100
AcDbText
 10
1393.000911087446
 20
47.16541613366643
 30
0.0
 40
2.0
  1
MODEL
  7
高2
100
AcDbText
  0
TEXT
  5
1028
330
1F
100
AcDbEntity
  8
0
 62
     3
100
AcDbText
 10
1392.637831968777
 20
55.87243748426545
 30
0.0
 40
2.0
  1
CONPONENTS
 41
0.5
  7
高2
100
AcDbText
  0
TEXT
  5
1029
330
1F
100
AcDbEntity
  8
0
 62
     3
100
AcDbText
 10
1405.344947439944
 20
44.25289726147838
 30
0.0
 40
4.5
  1
LEN-GF
  7
高4.5
100
AcDbText
  0
TEXT
  5
102A
330
1F
100
AcDbEntity
  8
0
 62
     3
100
AcDbText
 10
1453.26723390531
 20
20.50514110943936
 30
0.0
 40
6.299999999999999
  1
LEN-GF
  7
高6.3
100
AcDbText
1001
ACAD
1000
ACAD_MTEXT_DEFINED_HEIGHT_BEGIN
1070
    46
1040
0.0
1000
ACAD_MTEXT_DEFINED_HEIGHT_END
  0
TEXT
  5
102B
330
1F
100
AcDbEntity
  8
0
 62
     3
100
AcDbText
 10
1466.765697925021
 20
30.26630529189945
 30
0.0
 40
3.2
  1
2014.09.05
  7
高3.2
100
AcDbText
1001
ACAD
1000
ACAD_MTEXT_DEFINED_HEIGHT_BEGIN
1070
    46
1040
0.0
1000
ACAD_MTEXT_DEFINED_HEIGHT_END
  0
TEXT
  5
102C
330
1F
100
AcDbEntity
  8
0
 62
     3
100
AcDbText
 10
1436.989786069338
 20
30.26633313623432
 30
0.0
 40
3.2
  1
1/1
  7
高3.2
100
AcDbText
  0
TEXT
  5
102D
330
1F
100
AcDbEntity
  8
0
 62
     3
100
AcDbText
 10
1434.067115044691
 20
19.9822943068024
 30
0.0
 40
3.2
  1
ZK-A4Y
 41
0.8
  7
高3.2
100
AcDbText
  0
TEXT
  5
102E
330
1F
100
AcDbEntity
  8
0
 62
     3
100
AcDbText
 10
1391.787454574691
 20
25.69003655585427
 30
0.0
 40
2.0
  1
NICHIDO IND.CO.LTD
 41
1.3
  7
高2
100
AcDbText
  0
TEXT
  5
102F
330
1F
100
AcDbEntity
  8
0
 62
     3
100
AcDbText
 10
1392.968977839649
 20
51.30594434155137
 30
0.0
 40
3.2
  1
品 名
  7
高3.2
100
AcDbText
1001
ACAD
1000
ACAD_MTEXT_DEFINED_HEIGHT_BEGIN
1070
    46
1040
0.0
1000
ACAD_MTEXT_DEFINED_HEIGHT_END
  0
TEXT
  5
1030
330
1F
100
AcDbEntity
  8
0
 62
     3
100
AcDbText
 10
1392.968977839649
 20
43.66541613366642
 30
0.0
 40
3.2
  1
型 式
  7
高3.2
100
AcDbText
1001
ACAD
1000
ACAD_MTEXT_DEFINED_HEIGHT_BEGIN
1070
    46
1040
3.064735913775955
1000
ACAD_MTEXT_DEFINED_HEIGHT_END
  0
TEXT
  5
1031
330
1F
100
AcDbEntity
  8
0
 62
     3
100
AcDbText
 10
1392.968977839649
 20
36.66541613366645
 30
0.0
 40
3.2
  1
材 質
  7
高3.2
100
AcDbText
1001
ACAD
1000
ACAD_MTEXT_DEFINED_HEIGHT_BEGIN
1070
    46
1040
0.0
1000
ACAD_MTEXT_DEFINED_HEIGHT_END
  0
TEXT
  5
1032
330
1F
100
AcDbEntity
  8
0
 62
     3
100
AcDbText
 10
1392.663942889649
 20
29.63285612591268
 30
0.0
 40
3.2
  1
第 三 角 法
  7
高3.2
100
AcDbText
1001
ACAD
1000
ACAD_MTEXT_DEFINED_HEIGHT_BEGIN
1070
    46
1040
0.0
1000
ACAD_MTEXT_DEFINED_HEIGHT_END
  0
TEXT
  5
1033
330
1F
100
AcDbEntity
  8
0
 62
     3
100
AcDbText
 10
1391.070475497178
 20
20.30594434155137
 30
0.0
 40
3.2
  1
日動工業株式会社
 41
1.199999999999999
  7
高3.2
100
AcDbText
1001
ACAD
1000
ACAD_MTEXT_DEFINED_HEIGHT_BEGIN
1070
    46
1040
0.0
1000
ACAD_MTEXT_DEFINED_HEIGHT_END
  0
TEXT
  5
1034
330
1F
100
AcDbEntity
  8
0
 62
     3
100
AcDbText
 10
1424.706099696656
 20
36.549994666834
 30
0.0
 40
3.2
  1
備考
  7
高3.2
100
AcDbText
1001
ACAD
1000
ACAD_MTEXT_DEFINED_HEIGHT_BEGIN
1070
    46
1040
0.0
1000
ACAD_MTEXT_DEFINED_HEIGHT_END
  0
TEXT
  5
1035
330
1F
100
AcDbEntity
  8
0
 62
     3
100
AcDbText
 10
1434.355157143692
 20
25.31164615923673
 30
0.0
 40
2.5
  1
出図コード
  7
高2.5
100
AcDbText
1001
ACAD
1000
ACAD_MTEXT_DEFINED_HEIGHT_BEGIN
1070
    46
1040
0.0
1000
ACAD_MTEXT_DEFINED_HEIGHT_END
  0
TEXT
  5
1036
330
1F
100
AcDbEntity
  8
0
 62
     3
100
AcDbText
 10
1424.547333578568
 20
29.61865104407936
 30
0.0
 40
3.2
  1
尺度
  7
高3.2
100
AcDbText
1001
ACAD
1000
ACAD_MTEXT_DEFINED_HEIGHT_BEGIN
1070
    46
1040
0.0
1000
ACAD_MTEXT_DEFINED_HEIGHT_END
  0
TEXT
  5
1037
330
1F
100
AcDbEntity
  8
0
 62
     3
100
AcDbText
 10
1451.693595060347
 20
30.75012949219685
 30
0.0
 40
3.2
  1
作成日
  7
高3.2
100
AcDbText
1001
ACAD
1000
ACAD_MTEXT_DEFINED_HEIGHT_BEGIN
1070
    46
1040
0.0
1000
ACAD_MTEXT_DEFINED_HEIGHT_END
  0
TEXT
  5
1038
330
1F
100
AcDbEntity
  8
0
 62
     3
100
AcDbText
 10
1451.588069067211
 20
51.30594434155137
 30
0.0
 40
3.2
  1
承 認
  7
高3.2
100
AcDbText
1001
ACAD
1000
ACAD_MTEXT_DEFINED_HEIGHT_BEGIN
1070
    46
1040
0.0
1000
ACAD_MTEXT_DEFINED_HEIGHT_END
  0
TEXT
  5
1039
330
1F
100
AcDbEntity
  8
0
 62
     3
100
AcDbText
 10
1464.588069067211
 20
51.30594434155137
 30
0.0
 40
3.2
  1
検 図
  7
高3.2
100
AcDbText
1001
ACAD
1000
ACAD_MTEXT_DEFINED_HEIGHT_BEGIN
1070
    46
1040
0.0
1000
ACAD_MTEXT_DEFINED_HEIGHT_END
  0
TEXT
  5
103A
330
1F
100
AcDbEntity
  8
0
 62
     3
100
AcDbText
 10
1477.588069067211
 20
51.30594434155137
 30
0.0
 40
3.2
  1
設 計
  7
高3.2
100
AcDbText
1001
ACAD
1000
ACAD_MTEXT_DEFINED_HEIGHT_BEGIN
1070
    46
1040
0.0
1000
ACAD_MTEXT_DEFINED_HEIGHT_END
  0
TEXT
  5
103B
330
1F
100
AcDbEntity
  8
0
 62
     3
100
AcDbText
 10
1490.888705587211
 20
51.30594434155137
 30
0.0
 40
3.2
  1
製 図
  7
高3.2
100
AcDbText
1001
ACAD
1000
ACAD_MTEXT_DEFINED_HEIGHT_BEGIN
1070
    46
1040
0.0
1000
ACAD_MTEXT_DEFINED_HEIGHT_END
  0
TEXT
  5
103C
330
1F
100
AcDbEntity
  8
0
 62
     3
100
AcDbText
 10
1489.702188174692
 20
286.6654161336665
 30
0.0
 40
3.2
  1
担　当
  7
高3.2
100
AcDbText
  0
TEXT
  5
103D
330
1F
100
AcDbEntity
  8
0
 62
     3
100
AcDbText
 10
1445.702188174692
 20
286.6654161336665
 30
0.0
 40
3.2
  1
変更・追記内容
  7
高3.2
100
AcDbText
  0
TEXT
  5
103E
330
1F
100
AcDbEntity
  8
0
 62
     3
100
AcDbText
 10
1420.815703175031
 20
281.9948776237581
 30
0.0
 40
2.0
  1
1
  7
高2
100
AcDbText
  0
TEXT
  5
103F
330
1F
100
AcDbEntity
  8
0
 62
     3
100
AcDbText
 10
1420.507191698274
 20
276.8250609114852
 30
0.0
 40
2.0
  1
2
  7
高2
100
AcDbText
  0
TEXT
  5
1040
330
1F
100
AcDbEntity
  8
0
 62
     3
100
AcDbText
 10
1427.702188174692
 20
286.6654161336665
 30
0.0
 40
3.2
  1
日　付
  7
高3.2
100
AcDbText
  0
TEXT
  5
1041
330
1F
100
AcDbEntity
  8
0
 62
     3
100
AcDbText
 10
1427.702188174692
 20
291.6654161336664
 30
0.0
 40
3.2
  1
図　　　　面　　　　略　　　　歴
  7
高3.2
100
AcDbText
  0
TEXT
  5
1042
330
1F
100
AcDbEntity
  8
0
 62
     3
100
AcDbText
 10
1417.702188174692
 20
286.6654161336665
 30
0.0
 40
3.2
  1
記号
  7
高3.2
100
AcDbText
  0
LINE
  5
1043
330
1F
100
AcDbEntity
  8
0
 62
     7
100
AcDbLine
 10
1421.202188174692
 20
279.9563121336665
 30
0.0
 11
1419.302188174692
 21
276.6654161336664
 31
0.0
  0
LINE
  5
1044
330
1F
100
AcDbEntity
  8
0
 62
     7
100
AcDbLine
 10
1421.202188174692
 20
279.9563121336665
 30
0.0
 11
1423.102188174692
 21
276.6654161336664
 31
0.0
  0
LINE
  5
1045
330
1F
100
AcDbEntity
  8
0
 62
     7
100
AcDbLine
 10
1419.302188174692
 20
276.6654161336664
 30
0.0
 11
1423.102188174692
 21
276.6654161336664
 31
0.0
  0
LINE
  5
1046
330
1F
100
AcDbEntity
  8
0
 62
     7
100
AcDbLine
 10
1421.202188174692
 20
284.9563131336665
 30
0.0
 11
1419.302188174692
 21
281.6654161336664
 31
0.0
  0
LINE
  5
1047
330
1F
100
AcDbEntity
  8
0
 62
     7
100
AcDbLine
 10
1421.202188174692
 20
284.9563131336665
 30
0.0
 11
1423.102188174692
 21
281.6654161336664
 31
0.0
  0
LINE
  5
1048
330
1F
100
AcDbEntity
  8
0
 62
     7
100
AcDbLine
 10
1419.302188174692
 20
281.6654161336664
 30
0.0
 11
1423.102188174692
 21
281.6654161336664
 31
0.0
  0
LINE
  5
1049
330
1F
100
AcDbEntity
  8
0
 62
     3
100
AcDbLine
 10
1416.202188174692
 20
291.1654161336664
 30
0.0
 11
1502.202188174692
 21
291.1654161336664
 31
0.0
  0
LINE
  5
104A
330
1F
100
AcDbEntity
  8
0
 62
     3
100
AcDbLine
 10
1416.202188174692
 20
286.1654161336664
 30
0.0
 11
1502.202188174692
 21
286.1654161336664
 31
0.0
  0
LINE
  5
104B
330
1F
100
AcDbEntity
  8
0
 62
     7
100
AcDbLine
 10
1416.202188174692
 20
281.1654161336664
 30
0.0
 11
1502.202188174692
 21
281.1654161336664
 31
0.0
  0
LINE
  5
104C
330
1F
100
AcDbEntity
  8
0
 62
     3
100
AcDbLine
 10
1416.202188174692
 20
276.1654161336664
 30
0.0
 11
1502.202188174692
 21
276.1654161336664
 31
0.0
  0
LINE
  5
104D
330
1F
100
AcDbEntity
  8
0
 62
     7
100
AcDbLine
 10
1488.202188174692
 20
276.1654161336664
 30
0.0
 11
1488.202188174692
 21
291.1654161336664
 31
0.0
  0
LINE
  5
104E
330
1F
100
AcDbEntity
  8
0
 62
     7
100
AcDbLine
 10
1444.202188174692
 20
276.1654161336664
 30
0.0
 11
1444.202188174692
 21
291.1654161336664
 31
0.0
  0
LINE
  5
104F
330
1F
100
AcDbEntity
  8
0
 62
     7
100
AcDbLine
 10
1426.202188174691
 20
276.1654161336664
 30
0.0
 11
1426.202188174691
 21
291.1654161336664
 31
0.0
  0
LINE
  5
1050
330
1F
100
AcDbEntity
  8
0
 62
     3
100
AcDbLine
 10
1416.202188174692
 20
276.1654161336664
 30
0.0
 11
1416.202188174692
 21
296.1654161336664
 31
0.0
  0
LINE
  5
1056
330
1F
100
AcDbEntity
  8
0
 62
     3
100
AcDbLine
 10
1502.202188174692
 20
65.16541613366644
 30
0.0
 11
1450.202188174692
 21
65.16541613366644
 31
0.0
  0
LINE
  5
1057
330
1F
100
AcDbEntity
  8
0
 62
     3
100
AcDbLine
 10
1476.202188174692
 20
59.16541613366645
 30
0.0
 11
1476.202188174691
 21
65.16541613366644
 31
0.0
  0
LINE
  5
1058
330
1F
100
AcDbEntity
  8
0
 62
     3
100
AcDbLine
 10
1450.202188174691
 20
59.16541613366645
 30
0.0
 11
1450.202188174691
 21
65.16541613366644
 31
0.0
  0
TEXT
  5
1059
330
1F
100
AcDbEntity
  8
0
 62
     3
100
AcDbText
 10
1455.762245802395
 20
59.75426486341302
 30
0.0
 40
4.5
  1
コード
  7
高4.5
100
AcDbText
  0
TEXT
  5
105A
330
1F
100
AcDbEntity
  8
0
 62
     3
100
AcDbText
 10
1478.956109903748
 20
59.75426486341302
 30
0.0
 40
4.5
  1
54234
  7
高4.5
100
AcDbText
  0
TEXT
  5
10C1
330
1F
100
AcDbEntity
  8
0
 62
     4
100
AcDbText
 10
1397.93196684344
 20
140.6639890111087
 30
0.0
 40
3.2
  1
厚み(136\U+03BCm)
  7
高3.2
100
AcDbText
  0
TEXT
  5
10C2
330
1F
100
AcDbEntity
  8
0
 62
     4
100
AcDbText
 10
1359.701205349092
 20
130.6056929848068
 30
0.0
 40
3.2
  1
3M社製　Fasara　NANOMAML(ミルキーホワイト)相当品。
  7
高3.2
100
AcDbText
  0
LINE
  5
10C3
330
1F
100
AcDbEntity
  8
0
100
AcDbLine
 10
1359.249105896439
 20
129.5300868501899
 30
0.0
 11
1474.537918808684
 21
129.5300868501899
 31
0.0
  0
TEXT
  5
10C4
330
1F
100
AcDbEntity
  8
0
100
AcDbText
 10
1495.239178413295
 20
40.88719481486646
 30
0.0
 40
3.2
  1
I
  7
高3.2
100
AcDbText
  0
LINE
  5
1120
330
1F
100
AcDbEntity
  8
0
100
AcDbLine
 10
1357.575689307843
 20
237.7425346537548
 30
0.0
 11
1341.509753335745
 21
237.7425346537548
 31
0.0
  0
LINE
  5
1121
330
1F
100
AcDbEntity
  8
0
100
AcDbLine
 10
1357.575689307843
 20
147.7425346537548
 30
0.0
 11
1341.509753335745
 21
147.7425346537548
 31
0.0
  0
LINE
  5
1122
330
1F
100
AcDbEntity
  8
0
100
AcDbLine
 10
1342.759753335745
 20
235.2425346537548
 30
0.0
 11
1342.759753335745
 21
150.2425346537548
 31
0.0
  0
LINE
  5
1126
330
1F
100
AcDbEntity
  8
0
100
AcDbLine
 10
1477.825689307843
 20
237.9925346537548
 30
0.0
 11
1477.825689307843
 21
252.8386480361433
 31
0.0
  0
LINE
  5
1127
330
1F
100
AcDbEntity
  8
0
100
AcDbLine
 10
1357.825689307843
 20
237.9925346537548
 30
0.0
 11
1357.825689307843
 21
252.8386480361433
 31
0.0
  0
LINE
  5
1128
330
1F
100
AcDbEntity
  8
0
100
AcDbLine
 10
1475.325689307843
 20
251.5886480361432
 30
0.0
 11
1360.325689307843
 21
251.5886480361432
 31
0.0
  0
LINE
  5
112C
330
1F
100
AcDbEntity
  8
0
 62
     3
100
AcDbLine
 10
1368.025155794692
 20
296.6232987036665
 30
0.0
 11
1368.006528264692
 21
296.7425664736664
 31
0.0
  0
LINE
  5
112D
330
1F
100
AcDbEntity
  8
0
 62
     3
100
AcDbLine
 10
1368.006528264692
 20
296.7425664736664
 30
0.0
 11
1367.984157084692
 21
296.8567712536664
 31
0.0
  0
LINE
  5
112E
330
1F
100
AcDbEntity
  8
0
 62
     3
100
AcDbLine
 10
1367.984157084692
 20
296.8567712536664
 30
0.0
 11
1367.958215154692
 21
296.9650303136664
 31
0.0
  0
LINE
  5
112F
330
1F
100
AcDbEntity
  8
0
 62
     3
100
AcDbLine
 10
1367.958215154692
 20
296.9650303136664
 30
0.0
 11
1367.928903014692
 21
297.0665068636664
 31
0.0
  0
LINE
  5
1130
330
1F
100
AcDbEntity
  8
0
 62
     3
100
AcDbLine
 10
1367.928903014692
 20
297.0665068636664
 30
0.0
 11
1367.896447204692
 21
297.1604165436664
 31
0.0
  0
LINE
  5
1131
330
1F
100
AcDbEntity
  8
0
 62
     3
100
AcDbLine
 10
1367.896447204692
 20
297.1604165436664
 30
0.0
 11
1367.861098614692
 21
297.2460334836664
 31
0.0
  0
LINE
  5
1132
330
1F
100
AcDbEntity
  8
0
 62
     3
100
AcDbLine
 10
1367.861098614692
 20
297.2460334836664
 30
0.0
 11
1367.823130464692
 21
297.3226958936664
 31
0.0
  0
LINE
  5
1133
330
1F
100
AcDbEntity
  8
0
 62
     3
100
AcDbLine
 10
1367.823130464692
 20
297.3226958936664
 30
0.0
 11
1367.782836214692
 21
297.3898112336665
 31
0.0
  0
LINE
  5
1134
330
1F
100
AcDbEntity
  8
0
 62
     3
100
AcDbLine
 10
1367.782836214692
 20
297.3898112336665
 30
0.0
 11
1367.740527344692
 21
297.4468607236664
 31
0.0
  0
LINE
  5
1135
330
1F
100
AcDbEntity
  8
0
 62
     3
100
AcDbLine
 10
1367.740527344692
 20
297.4468607236664
 30
0.0
 11
1367.696530854692
 21
297.4934033936664
 31
0.0
  0
LINE
  5
1136
330
1F
100
AcDbEntity
  8
0
 62
     3
100
AcDbLine
 10
1367.696530854692
 20
297.4934033936664
 30
0.0
 11
1367.651186834692
 21
297.5290795136664
 31
0.0
  0
LINE
  5
1137
330
1F
100
AcDbEntity
  8
0
 62
     3
100
AcDbLine
 10
1367.651186834692
 20
297.5290795136664
 30
0.0
 11
1367.604845764691
 21
297.5536133036665
 31
0.0
  0
LINE
  5
1138
330
1F
100
AcDbEntity
  8
0
 62
     3
100
AcDbLine
 10
1367.604845764691
 20
297.5536133036665
 30
0.0
 11
1367.557865824692
 21
297.5668151536664
 31
0.0
  0
LINE
  5
1139
330
1F
100
AcDbEntity
  8
0
 62
     3
100
AcDbLine
 10
1367.557865824692
 20
297.5668151536664
 30
0.0
 11
1367.510610164692
 21
297.5685829936665
 31
0.0
  0
LINE
  5
113A
330
1F
100
AcDbEntity
  8
0
 62
     3
100
AcDbLine
 10
1367.510610164692
 20
297.5685829936665
 30
0.0
 11
1367.463444034691
 21
297.5589031836664
 31
0.0
  0
LINE
  5
113B
330
1F
100
AcDbEntity
  8
0
 62
     3
100
AcDbLine
 10
1367.463444034691
 20
297.5589031836664
 30
0.0
 11
1367.416732004692
 21
297.5378505236664
 31
0.0
  0
LINE
  5
113C
330
1F
100
AcDbEntity
  8
0
 62
     3
100
AcDbLine
 10
1367.416732004692
 20
297.5378505236664
 30
0.0
 11
1367.370835144692
 21
297.5055877536664
 31
0.0
  0
LINE
  5
113D
330
1F
100
AcDbEntity
  8
0
 62
     3
100
AcDbLine
 10
1367.370835144692
 20
297.5055877536664
 30
0.0
 11
1367.326108204692
 21
297.4623642436664
 31
0.0
  0
LINE
  5
113E
330
1F
100
AcDbEntity
  8
0
 62
     3
100
AcDbLine
 10
1367.326108204692
 20
297.4623642436664
 30
0.0
 11
1367.282896894691
 21
297.4085140836664
 31
0.0
  0
LINE
  5
113F
330
1F
100
AcDbEntity
  8
0
 62
     3
100
AcDbLine
 10
1367.282896894691
 20
297.4085140836664
 30
0.0
 11
1367.241535234692
 21
297.3444535136664
 31
0.0
  0
LINE
  5
1140
330
1F
100
AcDbEntity
  8
0
 62
     3
100
AcDbLine
 10
1367.241535234692
 20
297.3444535136664
 30
0.0
 11
1367.202342914692
 21
297.2706776936665
 31
0.0
  0
LINE
  5
1141
330
1F
100
AcDbEntity
  8
0
 62
     3
100
AcDbLine
 10
1367.202342914692
 20
297.2706776936665
 30
0.0
 11
1367.165622874692
 21
297.1877568636664
 31
0.0
  0
LINE
  5
1142
330
1F
100
AcDbEntity
  8
0
 62
     3
100
AcDbLine
 10
1367.165622874692
 20
297.1877568636664
 30
0.0
 11
1367.131658944692
 21
297.0963319536664
 31
0.0
  0
LINE
  5
1143
330
1F
100
AcDbEntity
  8
0
 62
     3
100
AcDbLine
 10
1367.131658944692
 20
297.0963319536664
 30
0.0
 11
1367.100713644691
 21
296.9971096536664
 31
0.0
  0
LINE
  5
1144
330
1F
100
AcDbEntity
  8
0
 62
     3
100
AcDbLine
 10
1367.100713644691
 20
296.9971096536664
 30
0.0
 11
1367.073026164692
 21
296.8908568836664
 31
0.0
  0
LINE
  5
1145
330
1F
100
AcDbEntity
  8
0
 62
     3
100
AcDbLine
 10
1367.073026164692
 20
296.8908568836664
 30
0.0
 11
1367.048810514692
 21
296.7783949236665
 31
0.0
  0
LINE
  5
1146
330
1F
100
AcDbEntity
  8
0
 62
     3
100
AcDbLine
 10
1367.048810514692
 20
296.7783949236665
 30
0.0
 11
1367.028253874692
 21
296.6605930436664
 31
0.0
  0
LINE
  5
1147
330
1F
100
AcDbEntity
  8
0
 62
     3
100
AcDbLine
 10
1367.028253874692
 20
296.6605930436664
 30
0.0
 11
1367.011515134692
 21
296.5383618036664
 31
0.0
  0
LINE
  5
1148
330
1F
100
AcDbEntity
  8
0
 62
     3
100
AcDbLine
 10
1367.011515134692
 20
296.5383618036664
 30
0.0
 11
1366.998723674692
 21
296.4126459836665
 31
0.0
  0
LINE
  5
1149
330
1F
100
AcDbEntity
  8
0
 62
     3
100
AcDbLine
 10
1366.998723674692
 20
296.4126459836665
 30
0.0
 11
1366.989978364691
 21
296.2844173036664
 31
0.0
  0
LINE
  5
114A
330
1F
100
AcDbEntity
  8
0
 62
     3
100
AcDbLine
 10
1366.989978364691
 20
296.2844173036664
 30
0.0
 11
1366.985346804692
 21
296.1546668936664
 31
0.0
  0
LINE
  5
114B
330
1F
100
AcDbEntity
  8
0
 62
     3
100
AcDbLine
 10
1366.985346804692
 20
296.1546668936664
 30
0.0
 11
1366.984864794692
 21
296.0243976636665
 31
0.0
  0
LINE
  5
114C
330
1F
100
AcDbEntity
  8
0
 62
     3
100
AcDbLine
 10
1366.984864794692
 20
296.0243976636665
 30
0.0
 11
1366.988536054692
 21
295.8946165436664
 31
0.0
  0
LINE
  5
114D
330
1F
100
AcDbEntity
  8
0
 62
     3
100
AcDbLine
 10
1366.988536054692
 20
295.8946165436664
 30
0.0
 11
1366.996332214692
 21
295.7663266536664
 31
0.0
  0
LINE
  5
114E
330
1F
100
AcDbEntity
  8
0
 62
     3
100
AcDbLine
 10
1366.996332214692
 20
295.7663266536664
 30
0.0
 11
1367.008193014692
 21
295.6405196136665
 31
0.0
  0
LINE
  5
114F
330
1F
100
AcDbEntity
  8
0
 62
     3
100
AcDbLine
 10
1367.008193014692
 20
295.6405196136665
 30
0.0
 11
1367.024026774692
 21
295.5181678436665
 31
0.0
  0
LINE
  5
1150
330
1F
100
AcDbEntity
  8
0
 62
     3
100
AcDbLine
 10
1367.024026774692
 20
295.5181678436665
 30
0.0
 11
1367.043711094692
 21
295.4002170736664
 31
0.0
  0
LINE
  5
1151
330
1F
100
AcDbEntity
  8
0
 62
     3
100
AcDbLine
 10
1367.043711094692
 20
295.4002170736664
 30
0.0
 11
1367.067093854692
 21
295.2875790036665
 31
0.0
  0
LINE
  5
1152
330
1F
100
AcDbEntity
  8
0
 62
     3
100
AcDbLine
 10
1367.067093854692
 20
295.2875790036665
 30
0.0
 11
1367.093994284692
 21
295.1811242436664
 31
0.0
  0
LINE
  5
1153
330
1F
100
AcDbEntity
  8
0
 62
     3
100
AcDbLine
 10
1367.093994284692
 20
295.1811242436664
 30
0.0
 11
1367.124204484692
 21
295.0816756536665
 31
0.0
  0
LINE
  5
1154
330
1F
100
AcDbEntity
  8
0
 62
     3
100
AcDbLine
 10
1367.124204484692
 20
295.0816756536665
 30
0.0
 11
1367.157490934692
 21
294.9900019236665
 31
0.0
  0
LINE
  5
1155
330
1F
100
AcDbEntity
  8
0
 62
     3
100
AcDbLine
 10
1367.157490934692
 20
294.9900019236665
 30
0.0
 11
1367.193596334692
 21
294.9068116236664
 31
0.0
  0
LINE
  5
1156
330
1F
100
AcDbEntity
  8
0
 62
     3
100
AcDbLine
 10
1367.193596334692
 20
294.9068116236664
 30
0.0
 11
1367.232241634692
 21
294.8327477936664
 31
0.0
  0
LINE
  5
1157
330
1F
100
AcDbEntity
  8
0
 62
     3
100
AcDbLine
 10
1367.232241634692
 20
294.8327477936664
 30
0.0
 11
1367.273128114691
 21
294.7683829036664
 31
0.0
  0
LINE
  5
1158
330
1F
100
AcDbEntity
  8
0
 62
     3
100
AcDbLine
 10
1367.273128114691
 20
294.7683829036664
 30
0.0
 11
1367.315939734692
 21
294.7142144536664
 31
0.0
  0
LINE
  5
1159
330
1F
100
AcDbEntity
  8
0
 62
     3
100
AcDbLine
 10
1367.315939734692
 20
294.7142144536664
 30
0.0
 11
1367.360345594692
 21
294.6706611336665
 31
0.0
  0
LINE
  5
115A
330
1F
100
AcDbEntity
  8
0
 62
     3
100
AcDbLine
 10
1367.360345594692
 20
294.6706611336665
 30
0.0
 11
1367.406002444691
 21
294.6380596036664
 31
0.0
  0
LINE
  5
115B
330
1F
100
AcDbEntity
  8
0
 62
     3
100
AcDbLine
 10
1367.406002444691
 20
294.6380596036664
 30
0.0
 11
1367.452557404692
 21
294.6166618436664
 31
0.0
  0
LINE
  5
115C
330
1F
100
AcDbEntity
  8
0
 62
     3
100
AcDbLine
 10
1367.452557404692
 20
294.6166618436664
 30
0.0
 11
1367.499650614692
 21
294.6066332636665
 31
0.0
  0
LINE
  5
115D
330
1F
100
AcDbEntity
  8
0
 62
     3
100
AcDbLine
 10
1367.499650614692
 20
294.6066332636665
 30
0.0
 11
1367.546918064691
 21
294.6080513636665
 31
0.0
  0
LINE
  5
115E
330
1F
100
AcDbEntity
  8
0
 62
     3
100
AcDbLine
 10
1367.546918064691
 20
294.6080513636665
 30
0.0
 11
1367.593994404692
 21
294.6209051836664
 31
0.0
  0
LINE
  5
115F
330
1F
100
AcDbEntity
  8
0
 62
     3
100
AcDbLine
 10
1367.593994404692
 20
294.6209051836664
 30
0.0
 11
1367.640515764692
 21
294.6450953836664
 31
0.0
  0
LINE
  5
1160
330
1F
100
AcDbEntity
  8
0
 62
     3
100
AcDbLine
 10
1367.640515764692
 20
294.6450953836664
 30
0.0
 11
1367.686122554692
 21
294.6804349636665
 31
0.0
  0
LINE
  5
1161
330
1F
100
AcDbEntity
  8
0
 62
     3
100
AcDbLine
 10
1367.686122554692
 20
294.6804349636665
 30
0.0
 11
1367.730462254691
 21
294.7266507836664
 31
0.0
  0
LINE
  5
1162
330
1F
100
AcDbEntity
  8
0
 62
     3
100
AcDbLine
 10
1367.730462254691
 20
294.7266507836664
 30
0.0
 11
1367.773192144692
 21
294.7833856236664
 31
0.0
  0
LINE
  5
1163
330
1F
100
AcDbEntity
  8
0
 62
     3
100
AcDbLine
 10
1367.773192144692
 20
294.7833856236664
 30
0.0
 11
1367.813981944691
 21
294.8502009336664
 31
0.0
  0
LINE
  5
1164
330
1F
100
AcDbEntity
  8
0
 62
     3
100
AcDbLine
 10
1367.813981944691
 20
294.8502009336664
 30
0.0
 11
1367.852516374691
 21
294.9265802836665
 31
0.0
  0
LINE
  5
1165
330
1F
100
AcDbEntity
  8
0
 62
     3
100
AcDbLine
 10
1367.852516374691
 20
294.9265802836665
 30
0.0
 11
1367.888497574692
 21
295.0119332936664
 31
0.0
  0
LINE
  5
1166
330
1F
100
AcDbEntity
  8
0
 62
     3
100
AcDbLine
 10
1367.888497574692
 20
295.0119332936664
 30
0.0
 11
1367.921647434692
 21
295.1056002236665
 31
0.0
  0
LINE
  5
1167
330
1F
100
AcDbEntity
  8
0
 62
     3
100
AcDbLine
 10
1367.921647434692
 20
295.1056002236665
 30
0.0
 11
1367.951709714692
 21
295.2068570836665
 31
0.0
  0
LINE
  5
1168
330
1F
100
AcDbEntity
  8
0
 62
     3
100
AcDbLine
 10
1367.951709714692
 20
295.2068570836665
 30
0.0
 11
1367.978452064692
 21
295.3149212036665
 31
0.0
  0
LINE
  5
1169
330
1F
100
AcDbEntity
  8
0
 62
     3
100
AcDbLine
 10
1367.978452064692
 20
295.3149212036665
 30
0.0
 11
1368.001667764692
 21
295.4289573136664
 31
0.0
  0
LINE
  5
116A
330
1F
100
AcDbEntity
  8
0
 62
     3
100
AcDbLine
 10
1368.001667764692
 20
295.4289573136664
 30
0.0
 11
1368.021177374692
 21
295.5480839636664
 31
0.0
  0
TEXT
  5
116B
330
1F
100
AcDbEntity
  8
0
 62
     4
100
AcDbText
 10
1342.134753335745
 20
190.4925346537547
 30
0.0
 40
3.0
  1
90
 50
90.0
100
AcDbText
  0
LINE
  5
116C
330
1F
100
AcDbEntity
  8
0
  6
ByBlock
 62
     0
370
    -2
100
AcDbLine
 10
1343.429625835745
 20
150.2425346537548
 30
0.0
 11
1342.759753335745
 21
147.7425346537548
 31
0.0
  0
LINE
  5
116D
330
1F
100
AcDbEntity
  8
0
  6
ByBlock
 62
     0
370
    -2
100
AcDbLine
 10
1342.759753335745
 20
147.7425346537548
 30
0.0
 11
1342.089880835745
 21
150.2425346537548
 31
0.0
  0
LINE
  5
116E
330
1F
100
AcDbEntity
  8
0
  6
ByBlock
 62
     0
370
    -2
100
AcDbLine
 10
1342.759753335745
 20
147.7425346537548
 30
0.0
 11
1342.759753335745
 21
150.2425346537548
 31
0.0
  0
LINE
  5
116F
330
1F
100
AcDbEntity
  8
0
  6
ByBlock
 62
     0
370
    -2
100
AcDbLine
 10
1342.089880835745
 20
235.2425346537548
 30
0.0
 11
1342.759753335745
 21
237.7425346537548
 31
0.0
  0
LINE
  5
1170
330
1F
100
AcDbEntity
  8
0
  6
ByBlock
 62
     0
370
    -2
100
AcDbLine
 10
1342.759753335745
 20
237.7425346537548
 30
0.0
 11
1343.429625835745
 21
235.2425346537548
 31
0.0
  0
LINE
  5
1171
330
1F
100
AcDbEntity
  8
0
  6
ByBlock
 62
     0
370
    -2
100
AcDbLine
 10
1342.759753335745
 20
237.7425346537548
 30
0.0
 11
1342.759753335745
 21
235.2425346537548
 31
0.0
  0
TEXT
  5
1172
330
1F
100
AcDbEntity
  8
0
 62
     4
100
AcDbText
 10
1411.842318963208
 20
252.2136480361433
 30
0.0
 40
3.0
  1
120
100
AcDbText
  0
LINE
  5
1173
330
1F
100
AcDbEntity
  8
0
  6
ByBlock
 62
     0
370
    -2
100
AcDbLine
 10
1360.325689307843
 20
250.9187755361432
 30
0.0
 11
1357.825689307843
 21
251.5886480361432
 31
0.0
  0
LINE
  5
1174
330
1F
100
AcDbEntity
  8
0
  6
ByBlock
 62
     0
370
    -2
100
AcDbLine
 10
1357.825689307843
 20
251.5886480361432
 30
0.0
 11
1360.325689307843
 21
252.2585205361433
 31
0.0
  0
LINE
  5
1175
330
1F
100
AcDbEntity
  8
0
  6
ByBlock
 62
     0
370
    -2
100
AcDbLine
 10
1357.825689307843
 20
251.5886480361432
 30
0.0
 11
1360.325689307843
 21
251.5886480361432
 31
0.0
  0
LINE
  5
1176
330
1F
100
AcDbEntity
  8
0
  6
ByBlock
 62
     0
370
    -2
100
AcDbLine
 10
1475.325689307843
 20
252.2585205361433
 30
0.0
 11
1477.825689307843
 21
251.5886480361432
 31
0.0
  0
LINE
  5
1177
330
1F
100
AcDbEntity
  8
0
  6
ByBlock
 62
     0
370
    -2
100
AcDbLine
 10
1477.825689307843
 20
251.5886480361432
 30
0.0
 11
1475.325689307843
 21
250.9187755361432
 31
0.0
  0
LINE
  5
1178
330
1F
100
AcDbEntity
  8
0
  6
ByBlock
 62
     0
370
    -2
100
AcDbLine
 10
1477.825689307843
 20
251.5886480361432
 30
0.0
 11
1475.325689307843
 21
251.5886480361432
 31
0.0
  0
ENDSEC
  0
SECTION
  2
OBJECTS
  0
DICTIONARY
  5
C
330
0
100
AcDbDictionary
281
     1
  3
ACAD_2007HEADERVARS_RT
350
117E
  3
ACAD_COLOR
350
73
  3
ACAD_GROUP
350
D
  3
ACAD_LAYOUT
350
1A
  3
ACAD_MATERIAL
350
72
  3
ACAD_MLEADERSTYLE
350
168
  3
ACAD_MLINESTYLE
350
17
  3
ACAD_PLOTSETTINGS
350
19
  3
ACAD_PLOTSTYLENAME
350
E
  3
ACAD_SCALELIST
350
156
  3
ACAD_TABLESTYLE
350
86
  3
ACAD_VISUALSTYLE
350
99
  3
ACDB_RECOMPOSE_DATA
350
117C
  3
AcDbVariableDictionary
350
66
  3
DWGPROPS
350
117D
  0
DICTIONARY
  5
DD
330
2
100
AcDbDictionary
280
     1
281
     1
  3
ACAD_LAYERSTATES
360
DE
  0
DICTIONARY
  5
10C5
330
10
100
AcDbDictionary
280
     1
281
     1
  3
ADSK_XREC_LAYER_RECONCILED
360
10C6
  0
DICTIONARY
  5
31A
330
1F
100
AcDbDictionary
280
     1
281
     1
  3
ACAD_SORTENTS
360
31B
  0
DICTIONARY
  5
CFF
330
C34
100
AcDbDictionary
280
     1
281
     1
  3
ACAD_SORTENTS
360
D00
  0
DICTIONARY
  5
117E
102
{ACAD_REACTORS
330
C
102
}
330
C
100
AcDbDictionary
281
     1
  3
DIMARCSYM
350
1180
  3
DIMFXL
350
117F
  3
DIMJOGANG
350
1181
  0
DICTIONARY
  5
73
102
{ACAD_REACTORS
330
C
102
}
330
C
100
AcDbDictionary
281
     1
  0
DICTIONARY
  5
D
102
{ACAD_REACTORS
330
C
102
}
330
C
100
AcDbDictionary
281
     1
  0
DICTIONARY
  5
1A
102
{ACAD_REACTORS
330
C
102
}
330
C
100
AcDbDictionary
281
     1
  3
Model
350
22
  3
レイアウト1
350
59
  3
レイアウト2
350
5E
  0
DICTIONARY
  5
72
102
{ACAD_REACTORS
330
C
102
}
330
C
100
AcDbDictionary
281
     1
  3
ByBlock
350
97
  3
ByLayer
350
96
  3
Global
350
98
  0
DICTIONARY
  5
168
102
{ACAD_REACTORS
330
C
102
}
330
C
100
AcDbDictionary
281
     1
  3
Standard
350
169
  0
DICTIONARY
  5
17
102
{ACAD_REACTORS
330
C
102
}
330
C
100
AcDbDictionary
281
     1
  3
Standard
350
18
  0
DICTIONARY
  5
19
102
{ACAD_REACTORS
330
C
102
}
330
C
100
AcDbDictionary
281
     1
  0
ACDBDICTIONARYWDFLT
  5
E
102
{ACAD_REACTORS
330
C
102
}
330
C
100
AcDbDictionary
281
     1
  3
Normal
350
F
100
AcDbDictionaryWithDefault
340
F
  0
DICTIONARY
  5
156
102
{ACAD_REACTORS
330
C
102
}
330
C
100
AcDbDictionary
281
     1
  3
A0
350
157
  3
A1
350
158
  3
A2
350
159
  3
A3
350
15A
  3
A4
350
15B
  3
A5
350
15C
  3
A6
350
15D
  3
A7
350
15E
  3
A8
350
15F
  3
A9
350
160
  3
B0
350
161
  3
B1
350
162
  3
B2
350
163
  3
B3
350
164
  3
B4
350
165
  3
B5
350
166
  3
B6
350
167
  0
DICTIONARY
  5
86
102
{ACAD_REACTORS
330
C
102
}
330
C
100
AcDbDictionary
281
     1
  3
Standard
350
87
  3
部品表
350
D97
  0
DICTIONARY
  5
99
102
{ACAD_REACTORS
330
C
102
}
330
C
100
AcDbDictionary
281
     1
  3
2dWireframe
350
9F
  3
3D Hidden
350
A1
  3
3dWireframe
350
A0
  3
Basic
350
9E
  3
Brighten
350
A5
  3
ColorChange
350
A9
  3
Conceptual
350
A2
  3
Dim
350
A4
  3
EdgeColorOff
350
155
  3
Facepattern
350
A8
  3
Flat
350
9A
  3
FlatWithEdges
350
9B
  3
Gouraud
350
9C
  3
GouraudWithEdges
350
9D
  3
Hidden
350
14D
  3
JitterOff
350
153
  3
Linepattern
350
A7
  3
OverhangOff
350
154
  3
Realistic
350
A3
  3
Shaded
350
152
  3
Shaded with edges
350
151
  3
Shades of Gray
350
14E
  3
Sketchy
350
14F
  3
Thicken
350
A6
  3
Wireframe
350
14C
  3
X-Ray
350
150
  0
XRECORD
  5
117C
102
{ACAD_REACTORS
330
C
102
}
330
C
100
AcDbXrecord
280
     1
 90
        1
330
87
330
D97
  0
DICTIONARY
  5
66
102
{ACAD_REACTORS
330
C
102
}
330
C
100
AcDbDictionary
281
     1
  3
CANNOSCALE
350
245
  3
CMLEADERSTYLE
350
243
  3
CTABLESTYLE
350
89
  3
DIMASSOC
350
67
  3
HIDETEXT
350
6B
  3
INDEXCTL
350
10C8
  3
LAYEREVAL
350
247
  3
LAYERNOTIFY
350
248
  3
LIGHTINGUNITS
350
246
  3
MSLTSCALE
350
244
  3
SORTENTS
350
10C7
  3
XCLIPFRAME
350
10C9
  0
XRECORD
  5
117D
102
{ACAD_REACTORS
330
C
102
}
330
C
100
AcDbXrecord
280
     1
  1
DWGPROPS COOKIE
  2

  3

  4

  6

  7

  8
imamura
  9

300
=
301
=
302
=
303
=
304
=
305
=
306
=
307
=
308
=
309
=
 40
0.0219518865740741
 41
2456906.565069722
 42
2456906.587021042
  1

 90
        0
  0
DICTIONARY
  5
DE
102
{ACAD_REACTORS
330
DD
102
}
330
DD
100
AcDbDictionary
281
     1
  0
XRECORD
  5
10C6
102
{ACAD_REACTORS
330
10C5
102
}
330
10C5
100
AcDbXrecord
280
     1
290
     1
  0
SORTENTSTABLE
  5
31B
102
{ACAD_REACTORS
330
31A
102
}
330
31A
100
AcDbSortentsTable
330
1F
331
FA5
  5
FA1
331
FA1
  5
F9D
331
FDC
  5
FD8
331
F9D
  5
F99
331
FD8
  5
FD4
331
F99
  5
F95
331
1145
  5
FFB
331
1141
  5
FF7
331
1178
  5
1163
331
101D
  5
10C4
331
1019
  5
105A
331
1015
  5
1056
331
1050
  5
1152
331
1011
  5
104C
331
FD4
  5
FD0
331
F95
  5
F91
331
FD0
  5
FCC
331
F91
  5
F8D
331
FCC
  5
FC8
331
F8D
  5
F89
331
113D
  5
FF3
331
FC8
  5
FC4
331
1174
  5
1168
331
1139
  5
FEF
331
1170
  5
116F
331
1135
  5
FEB
331
116C
  5
1171
331
1131
  5
FE7
331
1168
  5
101F
331
104C
  5
114E
331
100D
  5
1048
331
1048
  5
114A
331
10C2
  5
1176
331
1009
  5
1045
331
1044
  5
1146
331
1005
  5
1041
331
1040
  5
1142
331
1001
  5
103D
331
F85
  5
1154
331
FC4
  5
FC0
331
FC0
  5
FBC
331
FBC
  5
FB8
331
112D
  5
FE3
331
FB8
  5
FB4
331
1164
  5
101B
331
1160
  5
1017
331
1121
  5
116C
331
115C
  5
1013
331
1158
  5
100F
331
103C
  5
113E
331
FFD
  5
1039
331
1038
  5
113A
331
FF9
  5
1035
331
1034
  5
1136
331
FF5
  5
1031
331
1030
  5
1132
331
FF1
  5
102D
331
FB4
  5
FB0
331
FB0
  5
FAC
331
FAC
  5
FA8
331
FA8
  5
FA4
331
1154
  5
100B
331
1150
  5
1006
331
114C
  5
1002
331
1148
  5
FFE
331
102C
  5
112E
331
FED
  5
1029
331
1028
  5
112A
331
FE9
  5
1025
331
1024
  5
1126
331
1020
  5
1122
331
FE1
  5
FDD
331
FA4
  5
FA0
331
FDF
  5
FDB
331
FA0
  5
F9C
331
FDB
  5
FD7
331
F9C
  5
F98
331
F98
  5
F94
331
1144
  5
FFA
331
1140
  5
FF6
331
101C
  5
10C3
331
1057
  5
1157
331
1018
  5
1059
331
1014
  5
104F
331
1010
  5
104B
331
FD7
  5
FD3
331
FD3
  5
FCF
331
F94
  5
F90
331
FCF
  5
FCB
331
F90
  5
F8C
331
FCB
  5
FC7
331
F8C
  5
F88
331
1177
  5
1162
331
113C
  5
FF2
331
F88
  5
F84
331
1173
  5
1167
331
1138
  5
FEE
331
116F
  5
116E
331
1134
  5
FEA
331
116B
  5
1174
331
1130
  5
FE6
331
104F
  5
1151
331
104B
  5
114D
331
100C
  5
1047
331
1047
  5
1149
331
10C1
  5
1175
331
1008
  5
1044
331
1043
  5
1145
331
1004
  5
1040
331
1000
  5
103C
331
FC7
  5
FC3
331
F84
  5
1155
331
FC3
  5
FBF
331
FBF
  5
FBB
331
FBB
  5
FB7
331
1167
  5
101E
331
112C
  5
FE2
331
1128
  5
115D
331
1163
  5
101A
331
115F
  5
1016
331
1120
  5
116B
331
115B
  5
1012
331
103F
  5
1141
331
103B
  5
113D
331
FFC
  5
1038
331
1037
  5
1139
331
FF8
  5
1034
331
1033
  5
1135
331
FF4
  5
1030
331
FF0
  5
102C
331
FB7
  5
FB3
331
FB3
  5
FAF
331
FAF
  5
FAB
331
FAB
  5
FA7
331
1157
  5
100E
331
1153
  5
100A
331
114F
  5
1005
331
114B
  5
1001
331
102F
  5
1131
331
102B
  5
112D
331
FEC
  5
1028
331
1027
  5
1129
331
FE8
  5
1024
331
1023
  5
1125
331
FE4
  5
FE0
331
105A
  5
115A
331
FE0
  5
FDC
331
FA7
  5
FA3
331
FA3
  5
F9F
331
FDE
  5
FDA
331
F9F
  5
F9B
331
FDA
  5
FD6
331
F9B
  5
F97
331
1147
  5
FFD
331
1143
  5
FF9
331
101F
  5
1121
331
101B
  5
10C2
331
1017
  5
1058
331
1056
  5
1050
331
1013
  5
104E
331
FD6
  5
FD2
331
F97
  5
F93
331
FD2
  5
FCE
331
F93
  5
F8F
331
FCE
  5
FCA
331
F8F
  5
F8B
331
FCA
  5
FC6
331
113F
  5
FF5
331
F8B
  5
F87
331
1176
  5
1161
331
113B
  5
FF1
331
1172
  5
116A
331
1137
  5
FED
331
116E
  5
1173
331
1133
  5
FE9
331
116A
  5
1021
331
104E
  5
1150
331
100F
  5
104A
331
10C4
  5
1178
331
104A
  5
114C
331
1046
  5
1148
331
1007
  5
1043
331
1042
  5
1144
331
1003
  5
103F
331
FC6
  5
FC2
331
F87
  5
F83
331
F83
  5
1153
331
FC2
  5
FBE
331
FBE
  5
FBA
331
112F
  5
FE5
331
FBA
  5
FB6
331
1166
  5
101D
331
1127
  5
115C
331
1162
  5
1019
331
115E
  5
1015
331
115A
  5
1011
331
103E
  5
1140
331
FFF
  5
103B
331
103A
  5
113C
331
FFB
  5
1037
331
1036
  5
1138
331
FF7
  5
1033
331
1032
  5
1134
331
FF3
  5
102F
331
FB6
  5
FB2
331
FB2
  5
FAE
331
FAE
  5
FAA
331
FAA
  5
FA6
331
1156
  5
100D
331
1152
  5
1009
331
114E
  5
1004
331
114A
  5
1000
331
102E
  5
1130
331
FEF
  5
102B
331
102A
  5
112C
331
FEB
  5
1027
331
1026
  5
1128
331
FE7
  5
1023
331
1022
  5
1124
331
FE3
  5
FDF
331
1059
  5
1159
331
FA6
  5
FA2
331
FA2
  5
F9E
331
FDD
  5
FD9
331
F9E
  5
F9A
331
FD9
  5
FD5
331
F9A
  5
F96
331
1146
  5
FFC
331
1142
  5
FF8
331
101E
  5
1120
331
101A
  5
10C1
331
1016
  5
1057
331
1012
  5
104D
331
FD5
  5
FD1
331
F96
  5
F92
331
FD1
  5
FCD
331
F92
  5
F8E
331
FCD
  5
FC9
331
F8E
  5
F8A
331
FC9
  5
FC5
331
113E
  5
FF4
331
F8A
  5
F86
331
1175
  5
1169
331
113A
  5
FF0
331
1171
  5
1170
331
1136
  5
FEC
331
116D
  5
1172
331
1132
  5
FE8
331
1169
  5
1020
331
104D
  5
114F
331
100E
  5
1049
331
1049
  5
114B
331
10C3
  5
1177
331
100A
  5
1046
331
1045
  5
1147
331
1006
  5
1042
331
1041
  5
1143
331
1002
  5
103E
331
F86
  5
1156
331
FC5
  5
FC1
331
FC1
  5
FBD
331
FBD
  5
FB9
331
112E
  5
FE4
331
FB9
  5
FB5
331
1165
  5
101C
331
1126
  5
115B
331
1161
  5
1018
331
1122
  5
116D
331
115D
  5
1014
331
1159
  5
1010
331
103D
  5
113F
331
FFE
  5
103A
331
1039
  5
113B
331
FFA
  5
1036
331
1035
  5
1137
331
FF6
  5
1032
331
1031
  5
1133
331
FF2
  5
102E
331
FB5
  5
FB1
331
FB1
  5
FAD
331
FAD
  5
FA9
331
FA9
  5
FA5
331
1155
  5
100C
331
1151
  5
1008
331
114D
  5
1003
331
1149
  5
FFF
331
102D
  5
112F
331
FEE
  5
102A
331
1029
  5
112B
331
FEA
  5
1026
331
1025
  5
1127
331
FE6
  5
1022
331
1021
  5
1123
331
FE2
  5
FDE
331
1058
  5
1158
  0
SORTENTSTABLE
  5
D00
102
{ACAD_REACTORS
330
CFF
102
}
330
CFF
100
AcDbSortentsTable
330
C34
  0
XRECORD
  5
1180
102
{ACAD_REACTORS
330
117E
102
}
330
117E
100
AcDbXrecord
280
     1
 70
     2
  0
XRECORD
  5
117F
102
{ACAD_REACTORS
330
117E
102
}
330
117E
100
AcDbXrecord
280
     1
 40
1.25
  0
XRECORD
  5
1181
102
{ACAD_REACTORS
330
117E
102
}
330
117E
100
AcDbXrecord
280
     1
 40
1.570796326794896
  0
LAYOUT
  5
22
102
{ACAD_XDICTIONARY
360
1182
102
}
102
{ACAD_REACTORS
330
1A
102
}
330
1A
100
AcDbPlotSettings
  1

  2
none_device
  4
ANSI_A_(8.50_x_11.00_Inches)
  6

 40
6.349999904632568
 41
19.04999923706055
 42
6.350006103515625
 43
19.04998779296875
 44
215.8999938964844
 45
279.3999938964844
 46
0.0
 47
0.0
 48
0.0
 49
0.0
140
0.0
141
0.0
142
1.0
143
2.584895464708373
 70
 11952
 72
     0
 73
     1
 74
     0
  7

 75
     0
147
0.3868628397755418
148
0.0
149
0.0
100
AcDbLayout
  1
Model
 70
     1
 71
     0
 10
0.0
 20
0.0
 11
12.0
 21
9.0
 12
0.0
 22
0.0
 32
0.0
 14
0.0
 24
0.0
 34
0.0
 15
0.0
 25
0.0
 35
0.0
146
0.0
 13
0.0
 23
0.0
 33
0.0
 16
1.0
 26
0.0
 36
0.0
 17
0.0
 27
1.0
 37
0.0
 76
     0
330
1F
331
94
  0
LAYOUT
  5
59
102
{ACAD_XDICTIONARY
360
1184
102
}
102
{ACAD_REACTORS
330
1A
102
}
330
1A
100
AcDbPlotSettings
  1

  2
None
  4

  6

 40
0.0
 41
0.0
 42
0.0
 43
0.0
 44
0.0
 45
0.0
 46
0.0
 47
0.0
 48
0.0
 49
0.0
140
0.0
141
0.0
142
1.0
143
1.0
 70
   688
 72
     0
 73
     0
 74
     5
  7

 75
    16
147
1.0
148
0.0
149
0.0
100
AcDbLayout
  1
レイアウト1
 70
     1
 71
     1
 10
0.0
 20
0.0
 11
12.0
 21
9.0
 12
0.0
 22
0.0
 32
0.0
 14
0.0
 24
0.0
 34
0.0
 15
0.0
 25
0.0
 35
0.0
146
0.0
 13
0.0
 23
0.0
 33
0.0
 16
1.0
 26
0.0
 36
0.0
 17
0.0
 27
1.0
 37
0.0
 76
     0
330
58
  0
LAYOUT
  5
5E
102
{ACAD_XDICTIONARY
360
1186
102
}
102
{ACAD_REACTORS
330
1A
102
}
330
1A
100
AcDbPlotSettings
  1

  2
None
  4

  6

 40
0.0
 41
0.0
 42
0.0
 43
0.0
 44
0.0
 45
0.0
 46
0.0
 47
0.0
 48
0.0
 49
0.0
140
0.0
141
0.0
142
1.0
143
1.0
 70
   688
 72
     0
 73
     0
 74
     5
  7

 75
    16
147
1.0
148
0.0
149
0.0
100
AcDbLayout
  1
レイアウト2
 70
     1
 71
     2
 10
0.0
 20
0.0
 11
12.0
 21
9.0
 12
0.0
 22
0.0
 32
0.0
 14
0.0
 24
0.0
 34
0.0
 15
0.0
 25
0.0
 35
0.0
146
0.0
 13
0.0
 23
0.0
 33
0.0
 16
1.0
 26
0.0
 36
0.0
 17
0.0
 27
1.0
 37
0.0
 76
     0
330
5D
  0
MATERIAL
  5
97
102
{ACAD_XDICTIONARY
360
118B
102
}
102
{ACAD_REACTORS
330
72
102
}
330
72
100
AcDbMaterial
  1
ByBlock
 73
     1
 78
     1
172
     1
176
     1
270
     1
274
     1
  0
MATERIAL
  5
96
102
{ACAD_XDICTIONARY
360
1189
102
}
102
{ACAD_REACTORS
330
72
102
}
330
72
100
AcDbMaterial
  1
ByLayer
 73
     1
 78
     1
172
     1
176
     1
270
     1
274
     1
  0
MATERIAL
  5
98
102
{ACAD_XDICTIONARY
360
118D
102
}
102
{ACAD_REACTORS
330
72
102
}
330
72
100
AcDbMaterial
  1
Global
 73
     1
 78
     1
172
     1
176
     1
270
     1
274
     1
  0
MLEADERSTYLE
  5
169
102
{ACAD_REACTORS
330
168
102
}
330
168
100
AcDbMLeaderStyle
170
     2
171
     1
172
     0
 90
        2
 40
0.0
 41
0.0
173
     1
 91
-1056964608
340
14
 92
       -2
290
     1
 42
2.0
291
     1
 43
0.36
  3
Standard
 44
4.0
300

342
11
174
     1
178
     6
175
     1
176
     0
 93
-1056964608
 45
4.0
292
     0
297
     0
 46
4.0
 94
-1056964608
 47
1.0
 49
1.0
140
1.0
293
     1
141
0.0
294
     1
177
     0
142
1.0
295
     0
296
     0
143
0.125
1001
ACAD_MLEADERVER
1070
     2
  0
MLINESTYLE
  5
18
102
{ACAD_REACTORS
330
17
102
}
330
17
100
AcDbMlineStyle
  2
STANDARD
 70
     0
  3

 62
   256
 51
90.0
 52
90.0
 71
     2
 49
0.5
 62
   256
  6
BYLAYER
 49
-0.5
 62
   256
  6
BYLAYER
  0
ACDBPLACEHOLDER
  5
F
102
{ACAD_REACTORS
330
E
102
}
330
E
  0
SCALE
  5
157
102
{ACAD_REACTORS
330
156
102
}
330
156
100
AcDbScale
 70
     0
300
1:1
140
1.0
141
1.0
290
     1
  0
SCALE
  5
158
102
{ACAD_REACTORS
330
156
102
}
330
156
100
AcDbScale
 70
     0
300
1:2
140
1.0
141
2.0
290
     0
  0
SCALE
  5
159
102
{ACAD_REACTORS
330
156
102
}
330
156
100
AcDbScale
 70
     0
300
1:4
140
1.0
141
4.0
290
     0
  0
SCALE
  5
15A
102
{ACAD_REACTORS
330
156
102
}
330
156
100
AcDbScale
 70
     0
300
1:5
140
1.0
141
5.0
290
     0
  0
SCALE
  5
15B
102
{ACAD_REACTORS
330
156
102
}
330
156
100
AcDbScale
 70
     0
300
1:8
140
1.0
141
8.0
290
     0
  0
SCALE
  5
15C
102
{ACAD_REACTORS
330
156
102
}
330
156
100
AcDbScale
 70
     0
300
1:10
140
1.0
141
10.0
290
     0
  0
SCALE
  5
15D
102
{ACAD_REACTORS
330
156
102
}
330
156
100
AcDbScale
 70
     0
300
1:16
140
1.0
141
16.0
290
     0
  0
SCALE
  5
15E
102
{ACAD_REACTORS
330
156
102
}
330
156
100
AcDbScale
 70
     0
300
1:20
140
1.0
141
20.0
290
     0
  0
SCALE
  5
15F
102
{ACAD_REACTORS
330
156
102
}
330
156
100
AcDbScale
 70
     0
300
1:30
140
1.0
141
30.0
290
     0
  0
SCALE
  5
160
102
{ACAD_REACTORS
330
156
102
}
330
156
100
AcDbScale
 70
     0
300
1:40
140
1.0
141
40.0
290
     0
  0
SCALE
  5
161
102
{ACAD_REACTORS
330
156
102
}
330
156
100
AcDbScale
 70
     0
300
1:50
140
1.0
141
50.0
290
     0
  0
SCALE
  5
162
102
{ACAD_REACTORS
330
156
102
}
330
156
100
AcDbScale
 70
     0
300
1:100
140
1.0
141
100.0
290
     0
  0
SCALE
  5
163
102
{ACAD_REACTORS
330
156
102
}
330
156
100
AcDbScale
 70
     0
300
2:1
140
2.0
141
1.0
290
     0
  0
SCALE
  5
164
102
{ACAD_REACTORS
330
156
102
}
330
156
100
AcDbScale
 70
     0
300
4:1
140
4.0
141
1.0
290
     0
  0
SCALE
  5
165
102
{ACAD_REACTORS
330
156
102
}
330
156
100
AcDbScale
 70
     0
300
8:1
140
8.0
141
1.0
290
     0
  0
SCALE
  5
166
102
{ACAD_REACTORS
330
156
102
}
330
156
100
AcDbScale
 70
     0
300
10:1
140
10.0
141
1.0
290
     0
  0
SCALE
  5
167
102
{ACAD_REACTORS
330
156
102
}
330
156
100
AcDbScale
 70
     0
300
100:1
140
100.0
141
1.0
290
     0
  0
TABLESTYLE
  5
87
102
{ACAD_XDICTIONARY
360
1179
102
}
102
{ACAD_REACTORS
330
86
102
}
330
86
100
AcDbTableStyle
  3
Standard
 70
     0
 71
     0
 40
0.06
 41
0.06
280
     0
281
     0
  7
Standard
140
0.18
170
     2
 62
     0
 63
     7
283
     0
274
    -2
284
     1
 64
     0
275
    -2
285
     1
 65
     0
276
    -2
286
     1
 66
     0
277
    -2
287
     1
 67
     0
278
    -2
288
     1
 68
     0
279
    -2
289
     1
 69
     0
  7
Standard
140
0.25
170
     5
 62
     0
 63
     7
283
     0
274
    -2
284
     1
 64
     0
275
    -2
285
     1
 65
     0
276
    -2
286
     1
 66
     0
277
    -2
287
     1
 67
     0
278
    -2
288
     1
 68
     0
279
    -2
289
     1
 69
     0
  7
Standard
140
0.18
170
     5
 62
     0
 63
     7
283
     0
274
    -2
284
     1
 64
     0
275
    -2
285
     1
 65
     0
276
    -2
286
     1
 66
     0
277
    -2
287
     1
 67
     0
278
    -2
288
     1
 68
     0
279
    -2
289
     1
 69
     0
  0
TABLESTYLE
  5
D97
102
{ACAD_XDICTIONARY
360
D98
102
}
102
{ACAD_REACTORS
330
86
102
}
330
86
100
AcDbTableStyle
  3
Standard
 70
     1
 71
     0
 40
1.5
 41
0.5
280
     0
281
     0
  7
高3.2
140
0.18
170
     7
 62
     3
 63
     7
283
     0
274
    -2
284
     1
 64
     3
275
    -2
285
     1
 65
     7
276
    -2
286
     1
 66
     3
277
    -2
287
     1
 67
     3
278
    -2
288
     1
 68
     7
279
    -2
289
     1
 69
     3
  7
高3.2
140
0.25
170
     8
 62
     3
 63
     7
283
     0
274
    -2
284
     1
 64
     0
275
    -2
285
     1
 65
     0
276
    -2
286
     1
 66
     0
277
    -2
287
     1
 67
     0
278
    -2
288
     1
 68
     0
279
    -2
289
     1
 69
     0
  7
高3.2
140
0.18
170
     7
 62
     3
 63
     7
283
     0
274
    -2
284
     1
 64
     3
275
    -2
285
     1
 65
     7
276
    -2
286
     1
 66
     3
277
    -2
287
     1
 67
     3
278
    -2
288
     1
 68
     7
279
    -2
289
     1
 69
     3
  0
VISUALSTYLE
  5
9F
102
{ACAD_XDICTIONARY
360
1199
102
}
102
{ACAD_REACTORS
330
99
102
}
330
99
100
AcDbVisualStyle
  2
2dWireframe
 70
     4
 71
     0
 72
     2
 73
     1
 90
        0
 40
-0.6
 41
-30.0
 62
     5
 63
     7
 74
     1
 91
        4
 64
     7
 65
   257
 75
     1
175
     1
 42
1.0
 92
        0
 66
   257
 43
1.0
 76
     1
 77
     6
 78
     2
 67
     7
 79
     5
170
     0
171
     0
290
     0
174
     0
 93
        1
 44
0.0
173
     0
291
     0
 45
0.0
1001
ACAD
1000
AcDbSavedByObjectVersion
1070
     0
  0
VISUALSTYLE
  5
A1
102
{ACAD_XDICTIONARY
360
119D
102
}
102
{ACAD_REACTORS
330
99
102
}
330
99
100
AcDbVisualStyle
  2
3D Hidden
 70
     6
 71
     1
 72
     2
 73
     2
 90
        0
 40
-0.6
 41
-30.0
 62
     5
 63
     7
 74
     2
 91
        2
 64
     7
 65
   257
 75
     2
175
     1
 42
40.0
 92
        0
 66
   257
 43
1.0
 76
     1
 77
     6
 78
     2
 67
     7
 79
     3
170
     0
171
     0
290
     0
174
     0
 93
        1
 44
0.0
173
     0
291
     0
 45
0.0
1001
ACAD
1000
AcDbSavedByObjectVersion
1070
     0
  0
VISUALSTYLE
  5
A0
102
{ACAD_XDICTIONARY
360
119B
102
}
102
{ACAD_REACTORS
330
99
102
}
330
99
100
AcDbVisualStyle
  2
3dWireframe
 70
     5
 71
     0
 72
     2
 73
     1
 90
        0
 40
-0.6
 41
-30.0
 62
     5
 63
     7
 74
     1
 91
        4
 64
     7
 65
   257
 75
     1
175
     1
 42
1.0
 92
        0
 66
   257
 43
1.0
 76
     1
 77
     6
 78
     2
 67
     7
 79
     5
170
     0
171
     0
290
     0
174
     0
 93
        1
 44
0.0
173
     0
291
     0
 45
0.0
1001
ACAD
1000
AcDbSavedByObjectVersion
1070
     0
  0
VISUALSTYLE
  5
9E
102
{ACAD_XDICTIONARY
360
1197
102
}
102
{ACAD_REACTORS
330
99
102
}
330
99
100
AcDbVisualStyle
  2
Basic
 70
     7
 71
     1
 72
     0
 73
     1
 90
        0
 40
-0.6
 41
-30.0
 62
     5
 63
     7
 74
     0
 91
        4
 64
     7
 65
   257
 75
     1
175
     1
 42
1.0
 92
        8
 66
     7
 43
1.0
 76
     1
 77
     6
 78
     2
 67
     7
 79
     5
170
     0
171
     0
290
     0
174
     0
 93
        1
 44
0.0
173
     0
291
     1
 45
0.0
1001
ACAD
1000
AcDbSavedByObjectVersion
1070
     0
  0
VISUALSTYLE
  5
A5
102
{ACAD_XDICTIONARY
360
11A5
102
}
102
{ACAD_REACTORS
330
99
102
}
330
99
100
AcDbVisualStyle
  2
Brighten
 70
    12
 71
     2
 72
     2
 73
     1
 90
        0
 40
-0.6
 41
-30.0
 62
     5
 63
     7
 74
     1
 91
        4
 64
     7
 65
   257
 75
     1
175
     1
 42
1.0
 92
        8
 66
     7
 43
1.0
 76
     1
 77
     6
 78
     2
 67
     7
 79
     5
170
     0
171
     0
290
     0
174
     0
 93
        1
 44
50.0
173
     0
291
     1
 45
0.0
1001
ACAD
1000
AcDbSavedByObjectVersion
1070
     0
  0
VISUALSTYLE
  5
A9
102
{ACAD_XDICTIONARY
360
11AD
102
}
102
{ACAD_REACTORS
330
99
102
}
330
99
100
AcDbVisualStyle
  2
ColorChange
 70
    16
 71
     2
 72
     2
 73
     3
 90
        0
 40
-0.6
 41
-30.0
 62
     5
 63
     8
 74
     1
 91
        4
 64
     7
 65
   257
 75
     1
175
     1
 42
1.0
 92
        8
 66
     8
 43
1.0
 76
     1
 77
     6
 78
     2
 67
     7
 79
     5
170
     0
171
     0
290
     0
174
     0
 93
        1
 44
0.0
173
     0
291
     1
 45
0.0
1001
ACAD
1000
AcDbSavedByObjectVersion
1070
     0
  0
VISUALSTYLE
  5
A2
102
{ACAD_XDICTIONARY
360
119F
102
}
102
{ACAD_REACTORS
330
99
102
}
330
99
100
AcDbVisualStyle
  2
Conceptual
 70
     9
 71
     3
 72
     2
 73
     1
 90
        0
 40
-0.6
 41
-30.0
 62
     5
 63
     7
 74
     2
 91
        2
 64
     7
 65
   257
 75
     1
175
     1
 42
40.0
 92
        8
 66
     7
 43
1.0
 76
     1
 77
     6
 78
     2
 67
     7
 79
     3
170
     0
171
     0
290
     0
174
     0
 93
        1
 44
0.0
173
     0
291
     0
 45
0.0
1001
ACAD
1000
AcDbSavedByObjectVersion
1070
     0
  0
VISUALSTYLE
  5
A4
102
{ACAD_XDICTIONARY
360
11A3
102
}
102
{ACAD_REACTORS
330
99
102
}
330
99
100
AcDbVisualStyle
  2
Dim
 70
    11
 71
     2
 72
     2
 73
     1
 90
        0
 40
-0.6
 41
-30.0
 62
     5
 63
     7
 74
     1
 91
        4
 64
     7
 65
   257
 75
     1
175
     1
 42
1.0
 92
        8
 66
     7
 43
1.0
 76
     1
 77
     6
 78
     2
 67
     7
 79
     5
170
     0
171
     0
290
     0
174
     0
 93
        1
 44
-50.0
173
     0
291
     1
 45
0.0
1001
ACAD
1000
AcDbSavedByObjectVersion
1070
     0
  0
VISUALSTYLE
  5
155
102
{ACAD_XDICTIONARY
360
11C3
102
}
102
{ACAD_REACTORS
330
99
102
}
330
99
100
AcDbVisualStyle
  2
EdgeColorOff
 70
    22
 71
     2
 72
     2
 73
     0
 90
        0
 40
-0.6
 41
-30.0
 62
     5
 63
     7
 74
     1
 91
        4
 64
     7
 65
   257
 75
     1
175
     1
 42
1.0
 92
        8
 66
     7
 43
1.0
 76
     1
 77
     6
 78
     2
 67
     7
 79
     5
170
     0
171
     0
290
     0
174
     0
 93
        1
 44
0.0
173
     0
291
     1
 45
0.0
1001
ACAD
1000
AcDbSavedByObjectVersion
1070
     0
  0
VISUALSTYLE
  5
A8
102
{ACAD_XDICTIONARY
360
11AB
102
}
102
{ACAD_REACTORS
330
99
102
}
330
99
100
AcDbVisualStyle
  2
Facepattern
 70
    15
 71
     2
 72
     2
 73
     1
 90
        0
 40
-0.6
 41
-30.0
 62
     5
 63
     7
 74
     1
 91
        4
 64
     7
 65
   257
 75
     1
175
     1
 42
1.0
 92
        8
 66
     7
 43
1.0
 76
     1
 77
     6
 78
     2
 67
     7
 79
     5
170
     0
171
     0
290
     0
174
     0
 93
        1
 44
0.0
173
     0
291
     1
 45
0.0
1001
ACAD
1000
AcDbSavedByObjectVersion
1070
     0
  0
VISUALSTYLE
  5
9A
102
{ACAD_XDICTIONARY
360
118F
102
}
102
{ACAD_REACTORS
330
99
102
}
330
99
100
AcDbVisualStyle
  2
Flat
 70
     0
 71
     2
 72
     1
 73
     1
 90
        2
 40
-0.6
 41
30.0
 62
     5
 63
     7
 74
     0
 91
        4
 64
     7
 65
   257
 75
     1
175
     1
 42
1.0
 92
        8
 66
     7
 43
1.0
 76
     1
 77
     6
 78
     2
 67
     7
 79
     5
170
     0
171
     0
290
     0
174
     0
 93
        1
 44
0.0
173
     0
291
     1
 45
0.0
1001
ACAD
1000
AcDbSavedByObjectVersion
1070
     0
  0
VISUALSTYLE
  5
9B
102
{ACAD_XDICTIONARY
360
1191
102
}
102
{ACAD_REACTORS
330
99
102
}
330
99
100
AcDbVisualStyle
  2
FlatWithEdges
 70
     1
 71
     2
 72
     1
 73
     1
 90
        2
 40
-0.6
 41
30.0
 62
     5
 63
     7
 74
     1
 91
        4
 64
     7
 65
   257
 75
     1
175
     1
 42
1.0
 92
        0
 66
   257
 43
1.0
 76
     1
 77
     6
 78
     2
 67
     7
 79
     5
170
     0
171
     0
290
     0
174
     0
 93
        1
 44
0.0
173
     0
291
     1
 45
0.0
1001
ACAD
1000
AcDbSavedByObjectVersion
1070
     0
  0
VISUALSTYLE
  5
9C
102
{ACAD_XDICTIONARY
360
1193
102
}
102
{ACAD_REACTORS
330
99
102
}
330
99
100
AcDbVisualStyle
  2
Gouraud
 70
     2
 71
     2
 72
     2
 73
     1
 90
        2
 40
-0.6
 41
30.0
 62
     5
 63
     7
 74
     0
 91
        4
 64
     7
 65
   257
 75
     1
175
     1
 42
1.0
 92
        0
 66
     7
 43
1.0
 76
     1
 77
     6
 78
     2
 67
     7
 79
     5
170
     0
171
     0
290
     0
174
     0
 93
        1
 44
0.0
173
     0
291
     1
 45
0.0
1001
ACAD
1000
AcDbSavedByObjectVersion
1070
     0
  0
VISUALSTYLE
  5
9D
102
{ACAD_XDICTIONARY
360
1195
102
}
102
{ACAD_REACTORS
330
99
102
}
330
99
100
AcDbVisualStyle
  2
GouraudWithEdges
 70
     3
 71
     2
 72
     2
 73
     1
 90
        2
 40
-0.6
 41
30.0
 62
     5
 63
     7
 74
     1
 91
        4
 64
     7
 65
   257
 75
     1
175
     1
 42
1.0
 92
        0
 66
   257
 43
1.0
 76
     1
 77
     6
 78
     2
 67
     7
 79
     5
170
     0
171
     0
290
     0
174
     0
 93
        1
 44
0.0
173
     0
291
     1
 45
0.0
1001
ACAD
1000
AcDbSavedByObjectVersion
1070
     0
  0
VISUALSTYLE
  5
14D
102
{ACAD_XDICTIONARY
360
11B3
102
}
102
{ACAD_REACTORS
330
99
102
}
330
99
100
AcDbVisualStyle
  2
Hidden
 70
     6
 71
     1
 72
     2
 73
     2
 90
        0
 40
-0.6
 41
-30.0
 62
     5
 63
     7
 74
     2
 91
        2
 64
     7
 65
   257
 75
     2
175
     1
 42
40.0
 92
        0
 66
   257
 43
1.0
 76
     1
 77
     6
 78
     2
 67
     7
 79
     3
170
     0
171
     0
290
     0
174
     0
 93
        1
 44
0.0
173
     0
291
     0
 45
0.0
1001
ACAD
1000
AcDbSavedByObjectVersion
1070
     0
  0
VISUALSTYLE
  5
153
102
{ACAD_XDICTIONARY
360
11BF
102
}
102
{ACAD_REACTORS
330
99
102
}
330
99
100
AcDbVisualStyle
  2
JitterOff
 70
    20
 71
     2
 72
     2
 73
     0
 90
        0
 40
-0.6
 41
-30.0
 62
     5
 63
     7
 74
     1
 91
        4
 64
     7
 65
   257
 75
     1
175
     1
 42
1.0
 92
       10
 66
     7
 43
1.0
 76
     1
 77
     6
 78
     2
 67
     7
 79
     5
170
     0
171
     0
290
     0
174
     0
 93
        1
 44
0.0
173
     0
291
     1
 45
0.0
1001
ACAD
1000
AcDbSavedByObjectVersion
1070
     0
  0
VISUALSTYLE
  5
A7
102
{ACAD_XDICTIONARY
360
11A9
102
}
102
{ACAD_REACTORS
330
99
102
}
330
99
100
AcDbVisualStyle
  2
Linepattern
 70
    14
 71
     2
 72
     2
 73
     1
 90
        0
 40
-0.6
 41
-30.0
 62
     5
 63
     7
 74
     1
 91
        4
 64
     7
 65
   257
 75
     7
175
     7
 42
1.0
 92
        8
 66
     7
 43
1.0
 76
     1
 77
     6
 78
     2
 67
     7
 79
     5
170
     0
171
     0
290
     0
174
     0
 93
        1
 44
0.0
173
     0
291
     1
 45
0.0
1001
ACAD
1000
AcDbSavedByObjectVersion
1070
     0
  0
VISUALSTYLE
  5
154
102
{ACAD_XDICTIONARY
360
11C1
102
}
102
{ACAD_REACTORS
330
99
102
}
330
99
100
AcDbVisualStyle
  2
OverhangOff
 70
    21
 71
     2
 72
     2
 73
     0
 90
        0
 40
-0.6
 41
-30.0
 62
     5
 63
     7
 74
     1
 91
        4
 64
     7
 65
   257
 75
     1
175
     1
 42
1.0
 92
        9
 66
     7
 43
1.0
 76
     1
 77
     6
 78
     2
 67
     7
 79
     5
170
     0
171
     0
290
     0
174
     0
 93
        1
 44
0.0
173
     0
291
     1
 45
0.0
1001
ACAD
1000
AcDbSavedByObjectVersion
1070
     0
  0
VISUALSTYLE
  5
A3
102
{ACAD_XDICTIONARY
360
11A1
102
}
102
{ACAD_REACTORS
330
99
102
}
330
99
100
AcDbVisualStyle
  2
Realistic
 70
     8
 71
     2
 72
     2
 73
     1
 90
        0
 40
-0.6
 41
-30.0
 62
     5
 63
     7
 74
     1
 91
        0
 64
     7
 65
   257
 75
     1
175
     1
 42
1.0
 92
        8
 66
     8
 43
1.0
 76
     1
 77
     6
 78
     2
 67
     7
 79
     5
170
     0
171
     0
290
     0
174
     0
 93
       13
 44
0.0
173
     0
291
     0
 45
0.0
1001
ACAD
1000
AcDbSavedByObjectVersion
1070
     0
  0
VISUALSTYLE
  5
152
102
{ACAD_XDICTIONARY
360
11BD
102
}
102
{ACAD_REACTORS
330
99
102
}
330
99
100
AcDbVisualStyle
  2
Shaded
 70
    27
 71
     2
 72
     2
 73
     1
 90
        2
 40
-0.6
 41
30.0
 62
     5
 63
     7
 74
     0
 91
        4
 64
     7
 65
   257
 75
     1
175
     1
 42
1.0
 92
        8
 66
   257
 43
1.0
 76
     1
 77
     6
 78
     2
 67
     8
 79
     3
170
     0
171
     0
290
     0
174
     0
 93
        5
 44
0.0
173
     0
291
     0
 45
0.0
1001
ACAD
1000
AcDbSavedByObjectVersion
1070
     0
  0
VISUALSTYLE
  5
151
102
{ACAD_XDICTIONARY
360
11BB
102
}
102
{ACAD_REACTORS
330
99
102
}
330
99
100
AcDbVisualStyle
  2
Shaded with edges
 70
    26
 71
     2
 72
     2
 73
     1
 90
        2
 40
-0.6
 41
30.0
 62
     5
 63
     7
 74
     1
 91
       10
 64
     7
 65
   257
 75
     2
175
     1
 42
1.0
 92
        8
 66
   257
 43
1.0
 76
     1
 77
     6
 78
     2
 67
     7
 79
     3
170
     0
171
     0
290
     0
174
     0
 93
        5
 44
0.0
173
     0
291
     0
 45
0.0
1001
ACAD
1000
AcDbSavedByObjectVersion
1070
     0
  0
VISUALSTYLE
  5
14E
102
{ACAD_XDICTIONARY
360
11B5
102
}
102
{ACAD_REACTORS
330
99
102
}
330
99
100
AcDbVisualStyle
  2
Shades of Gray
 70
    23
 71
     2
 72
     2
 73
     3
 90
        0
 40
-0.6
 41
-30.0
 62
     5
 63
     7
 74
     2
 91
        2
 64
     7
 65
     7
 75
     1
175
     1
 42
40.0
 92
        8
 66
     7
 43
1.0
 76
     1
 77
     6
 78
     2
 67
     7
 79
     3
170
     0
171
     0
290
     0
174
     0
 93
        1
 44
0.0
173
     0
291
     0
 45
0.0
1001
ACAD
1000
AcDbSavedByObjectVersion
1070
     0
  0
VISUALSTYLE
  5
14F
102
{ACAD_XDICTIONARY
360
11B7
102
}
102
{ACAD_REACTORS
330
99
102
}
330
99
100
AcDbVisualStyle
  2
Sketchy
 70
    24
 71
     1
 72
     2
 73
     2
 90
        0
 40
-0.6
 41
-30.0
 62
     5
 63
     7
 74
     2
 91
        2
 64
     7
 65
     7
 75
     1
175
     1
 42
40.0
 92
       11
 66
     7
 43
1.0
 76
     1
 77
     6
 78
     2
 67
     7
 79
     6
170
     0
171
     0
290
     0
174
     0
 93
        1
 44
0.0
173
     0
291
     0
 45
0.0
1001
ACAD
1000
AcDbSavedByObjectVersion
1070
     0
  0
VISUALSTYLE
  5
A6
102
{ACAD_XDICTIONARY
360
11A7
102
}
102
{ACAD_REACTORS
330
99
102
}
330
99
100
AcDbVisualStyle
  2
Thicken
 70
    13
 71
     2
 72
     2
 73
     1
 90
        0
 40
-0.6
 41
-30.0
 62
     5
 63
     7
 74
     1
 91
        4
 64
     7
 65
   257
 75
     1
175
     1
 42
1.0
 92
       12
 66
     7
 43
1.0
 76
     1
 77
     6
 78
     2
 67
     7
 79
     5
170
     0
171
     0
290
     0
174
     0
 93
        1
 44
0.0
173
     0
291
     1
 45
0.0
1001
ACAD
1000
AcDbSavedByObjectVersion
1070
     0
  0
VISUALSTYLE
  5
14C
102
{ACAD_XDICTIONARY
360
11B1
102
}
102
{ACAD_REACTORS
330
99
102
}
330
99
100
AcDbVisualStyle
  2
Wireframe
 70
     5
 71
     0
 72
     2
 73
     0
 90
        0
 40
-0.6
 41
-30.0
 62
     5
 63
     7
 74
     1
 91
        4
 64
     7
 65
   257
 75
     1
175
     1
 42
1.0
 92
        0
 66
   257
 43
1.0
 76
     1
 77
     6
 78
     2
 67
     7
 79
     3
170
     0
171
     0
290
     0
174
     0
 93
        1
 44
0.0
173
     0
291
     0
 45
0.0
1001
ACAD
1000
AcDbSavedByObjectVersion
1070
     0
  0
VISUALSTYLE
  5
150
102
{ACAD_XDICTIONARY
360
11B9
102
}
102
{ACAD_REACTORS
330
99
102
}
330
99
100
AcDbVisualStyle
  2
X-Ray
 70
    25
 71
     2
 72
     2
 73
     1
 90
        1
 40
0.5
 41
-30.0
 62
     5
 63
     7
 74
     1
 91
        0
 64
     7
 65
   257
 75
     1
175
     1
 42
1.0
 92
        8
 66
     7
 43
1.0
 76
     1
 77
     6
 78
     2
 67
     7
 79
     3
170
     0
171
     0
290
     0
174
     0
 93
       13
 44
0.0
173
     0
291
     0
 45
0.0
1001
ACAD
1000
AcDbSavedByObjectVersion
1070
     0
  0
DICTIONARYVAR
  5
245
102
{ACAD_REACTORS
330
66
102
}
330
66
100
DictionaryVariables
280
     0
  1
1:1
  0
DICTIONARYVAR
  5
243
102
{ACAD_REACTORS
330
66
102
}
330
66
100
DictionaryVariables
280
     0
  1
STANDARD
  0
DICTIONARYVAR
  5
89
102
{ACAD_REACTORS
330
66
102
}
330
66
100
DictionaryVariables
280
     0
  1
STANDARD
  0
DICTIONARYVAR
  5
67
102
{ACAD_REACTORS
330
66
102
}
330
66
100
DictionaryVariables
280
     0
  1
2
  0
DICTIONARYVAR
  5
6B
102
{ACAD_REACTORS
330
66
102
}
330
66
100
DictionaryVariables
280
     0
  1
1
  0
DICTIONARYVAR
  5
10C8
102
{ACAD_REACTORS
330
66
102
}
330
66
100
DictionaryVariables
280
     0
  1
0
  0
DICTIONARYVAR
  5
247
102
{ACAD_REACTORS
330
66
102
}
330
66
100
DictionaryVariables
280
     0
  1
1
  0
DICTIONARYVAR
  5
248
102
{ACAD_REACTORS
330
66
102
}
330
66
100
DictionaryVariables
280
     0
  1
15
  0
DICTIONARYVAR
  5
246
102
{ACAD_REACTORS
330
66
102
}
330
66
100
DictionaryVariables
280
     0
  1
0
  0
DICTIONARYVAR
  5
244
102
{ACAD_REACTORS
330
66
102
}
330
66
100
DictionaryVariables
280
     0
  1
0
  0
DICTIONARYVAR
  5
10C7
102
{ACAD_REACTORS
330
66
102
}
330
66
100
DictionaryVariables
280
     0
  1
127
  0
DICTIONARYVAR
  5
10C9
102
{ACAD_REACTORS
330
66
102
}
330
66
100
DictionaryVariables
280
     0
  1
0
  0
DICTIONARY
  5
1182
330
22
100
AcDbDictionary
280
     1
281
     1
  3
ACAD_XREC_ROUNDTRIP
360
1183
  0
DICTIONARY
  5
1184
330
59
100
AcDbDictionary
280
     1
281
     1
  3
ACAD_XREC_ROUNDTRIP
360
1185
  0
DICTIONARY
  5
1186
330
5E
100
AcDbDictionary
280
     1
281
     1
  3
ACAD_XREC_ROUNDTRIP
360
1187
  0
DICTIONARY
  5
118B
330
97
100
AcDbDictionary
280
     1
281
     1
  3
ACAD_XREC_ROUNDTRIP
360
118C
  0
DICTIONARY
  5
1189
330
96
100
AcDbDictionary
280
     1
281
     1
  3
ACAD_XREC_ROUNDTRIP
360
118A
  0
DICTIONARY
  5
118D
330
98
100
AcDbDictionary
280
     1
281
     1
  3
ACAD_XREC_ROUNDTRIP
360
118E
  0
DICTIONARY
  5
1179
330
87
100
AcDbDictionary
280
     1
281
     1
  3
ACAD_ROUNDTRIP_2008_TABLESTYLE_CELLSTYLEMAP
360
117A
  3
ACAD_XREC_ROUNDTRIP
360
1188
  0
DICTIONARY
  5
D98
330
D97
100
AcDbDictionary
280
     1
281
     1
  3
ACAD_ROUNDTRIP_2008_TABLESTYLE_CELLSTYLEMAP
360
117B
  3
ACAD_XREC_ROUNDTRIP
360
11C6
  0
DICTIONARY
  5
1199
330
9F
100
AcDbDictionary
280
     1
281
     1
  3
ACAD_XREC_ROUNDTRIP
360
119A
  0
DICTIONARY
  5
119D
330
A1
100
AcDbDictionary
280
     1
281
     1
  3
ACAD_XREC_ROUNDTRIP
360
119E
  0
DICTIONARY
  5
119B
330
A0
100
AcDbDictionary
280
     1
281
     1
  3
ACAD_XREC_ROUNDTRIP
360
119C
  0
DICTIONARY
  5
1197
330
9E
100
AcDbDictionary
280
     1
281
     1
  3
ACAD_XREC_ROUNDTRIP
360
1198
  0
DICTIONARY
  5
11A5
330
A5
100
AcDbDictionary
280
     1
281
     1
  3
ACAD_XREC_ROUNDTRIP
360
11A6
  0
DICTIONARY
  5
11AD
330
A9
100
AcDbDictionary
280
     1
281
     1
  3
ACAD_XREC_ROUNDTRIP
360
11AE
  0
DICTIONARY
  5
119F
330
A2
100
AcDbDictionary
280
     1
281
     1
  3
ACAD_XREC_ROUNDTRIP
360
11A0
  0
DICTIONARY
  5
11A3
330
A4
100
AcDbDictionary
280
     1
281
     1
  3
ACAD_XREC_ROUNDTRIP
360
11A4
  0
DICTIONARY
  5
11C3
330
155
100
AcDbDictionary
280
     1
281
     1
  3
ACAD_XREC_ROUNDTRIP
360
11C4
  0
DICTIONARY
  5
11AB
330
A8
100
AcDbDictionary
280
     1
281
     1
  3
ACAD_XREC_ROUNDTRIP
360
11AC
  0
DICTIONARY
  5
118F
330
9A
100
AcDbDictionary
280
     1
281
     1
  3
ACAD_XREC_ROUNDTRIP
360
1190
  0
DICTIONARY
  5
1191
330
9B
100
AcDbDictionary
280
     1
281
     1
  3
ACAD_XREC_ROUNDTRIP
360
1192
  0
DICTIONARY
  5
1193
330
9C
100
AcDbDictionary
280
     1
281
     1
  3
ACAD_XREC_ROUNDTRIP
360
1194
  0
DICTIONARY
  5
1195
330
9D
100
AcDbDictionary
280
     1
281
     1
  3
ACAD_XREC_ROUNDTRIP
360
1196
  0
DICTIONARY
  5
11B3
330
14D
100
AcDbDictionary
280
     1
281
     1
  3
ACAD_XREC_ROUNDTRIP
360
11B4
  0
DICTIONARY
  5
11BF
330
153
100
AcDbDictionary
280
     1
281
     1
  3
ACAD_XREC_ROUNDTRIP
360
11C0
  0
DICTIONARY
  5
11A9
330
A7
100
AcDbDictionary
280
     1
281
     1
  3
ACAD_XREC_ROUNDTRIP
360
11AA
  0
DICTIONARY
  5
11C1
330
154
100
AcDbDictionary
280
     1
281
     1
  3
ACAD_XREC_ROUNDTRIP
360
11C2
  0
DICTIONARY
  5
11A1
330
A3
100
AcDbDictionary
280
     1
281
     1
  3
ACAD_XREC_ROUNDTRIP
360
11A2
  0
DICTIONARY
  5
11BD
330
152
100
AcDbDictionary
280
     1
281
     1
  3
ACAD_XREC_ROUNDTRIP
360
11BE
  0
DICTIONARY
  5
11BB
330
151
100
AcDbDictionary
280
     1
281
     1
  3
ACAD_XREC_ROUNDTRIP
360
11BC
  0
DICTIONARY
  5
11B5
330
14E
100
AcDbDictionary
280
     1
281
     1
  3
ACAD_XREC_ROUNDTRIP
360
11B6
  0
DICTIONARY
  5
11B7
330
14F
100
AcDbDictionary
280
     1
281
     1
  3
ACAD_XREC_ROUNDTRIP
360
11B8
  0
DICTIONARY
  5
11A7
330
A6
100
AcDbDictionary
280
     1
281
     1
  3
ACAD_XREC_ROUNDTRIP
360
11A8
  0
DICTIONARY
  5
11B1
330
14C
100
AcDbDictionary
280
     1
281
     1
  3
ACAD_XREC_ROUNDTRIP
360
11B2
  0
DICTIONARY
  5
11B9
330
150
100
AcDbDictionary
280
     1
281
     1
  3
ACAD_XREC_ROUNDTRIP
360
11BA
  0
XRECORD
  5
1183
102
{ACAD_REACTORS
330
1182
102
}
330
1182
100
AcDbXrecord
280
     1
102
SHADEPLOT
 70
     0
102
SHADEPLOTRESLEVEL
 70
     2
102
SHADEPLOTCUSTOMDPI
 70
   300
  0
XRECORD
  5
1185
102
{ACAD_REACTORS
330
1184
102
}
330
1184
100
AcDbXrecord
280
     1
102
SHADEPLOT
 70
     0
102
SHADEPLOTRESLEVEL
 70
     2
102
SHADEPLOTCUSTOMDPI
 70
   300
  0
XRECORD
  5
1187
102
{ACAD_REACTORS
330
1186
102
}
330
1186
100
AcDbXrecord
280
     1
102
SHADEPLOT
 70
     0
102
SHADEPLOTRESLEVEL
 70
     2
102
SHADEPLOTCUSTOMDPI
 70
   300
  0
XRECORD
  5
118C
102
{ACAD_REACTORS
330
118B
102
}
330
118B
100
AcDbXrecord
280
     1
102
MATERIAL
148
0.0
149
0.0
149
0.0
 93
        0
 94
       63
282
     0
 72
     1
 77
     1
171
     1
175
     1
179
     1
273
     0
  0
XRECORD
  5
118A
102
{ACAD_REACTORS
330
1189
102
}
330
1189
100
AcDbXrecord
280
     1
102
MATERIAL
148
0.0
149
0.0
149
0.0
 93
        0
 94
       63
282
     0
 72
     1
 77
     1
171
     1
175
     1
179
     1
273
     0
  0
XRECORD
  5
118E
102
{ACAD_REACTORS
330
118D
102
}
330
118D
100
AcDbXrecord
280
     1
102
MATERIAL
148
0.0
149
0.0
149
0.0
 93
        0
 94
       63
282
     0
 72
     1
 77
     1
171
     1
175
     1
179
     1
273
     0
  0
CELLSTYLEMAP
  5
117A
102
{ACAD_REACTORS
330
1179
102
}
330
1179
100
AcDbCellStyleMap
 90
        3
300
CELLSTYLE
  1
TABLEFORMAT_BEGIN
 90
        5
170
     1
 91
        0
 92
    32768
 62
   257
 93
        1
300
CONTENTFORMAT
  1
CONTENTFORMAT_BEGIN
 90
        0
 91
        0
 92
      512
 93
        0
300

 40
0.0
140
1.0
 94
        5
 62
     0
340
11
144
0.25
309
CONTENTFORMAT_END
171
     0
 94
        6
 95
        1
302
GRIDFORMAT
  1
GRIDFORMAT_BEGIN
 90
        0
 91
        1
 62
     0
 92
       -2
340
0
 93
        0
 40
0.045
309
GRIDFORMAT_END
 95
        2
302
GRIDFORMAT
  1
GRIDFORMAT_BEGIN
 90
        0
 91
        1
 62
     0
 92
       -2
340
0
 93
        0
 40
0.045
309
GRIDFORMAT_END
 95
        4
302
GRIDFORMAT
  1
GRIDFORMAT_BEGIN
 90
        0
 91
        1
 62
     0
 92
       -2
340
0
 93
        0
 40
0.045
309
GRIDFORMAT_END
 95
        8
302
GRIDFORMAT
  1
GRIDFORMAT_BEGIN
 90
        0
 91
        1
 62
     0
 92
       -2
340
0
 93
        0
 40
0.045
309
GRIDFORMAT_END
 95
       16
302
GRIDFORMAT
  1
GRIDFORMAT_BEGIN
 90
        0
 91
        1
 62
     0
 92
       -2
340
0
 93
        0
 40
0.045
309
GRIDFORMAT_END
 95
       32
302
GRIDFORMAT
  1
GRIDFORMAT_BEGIN
 90
        0
 91
        1
 62
     0
 92
       -2
340
0
 93
        0
 40
0.045
309
GRIDFORMAT_END
309
TABLEFORMAT_END
  1
CELLSTYLE_BEGIN
 90
        1
 91
        1
300
_TITLE
309
CELLSTYLE_END
300
CELLSTYLE
  1
TABLEFORMAT_BEGIN
 90
        5
170
     1
 91
        0
 92
        0
 62
   257
 93
        1
300
CONTENTFORMAT
  1
CONTENTFORMAT_BEGIN
 90
        0
 91
        0
 92
      512
 93
        0
300

 40
0.0
140
1.0
 94
        5
 62
     0
340
11
144
0.18
309
CONTENTFORMAT_END
171
     0
 94
        6
 95
        1
302
GRIDFORMAT
  1
GRIDFORMAT_BEGIN
 90
        0
 91
        1
 62
     0
 92
       -2
340
0
 93
        0
 40
0.045
309
GRIDFORMAT_END
 95
        2
302
GRIDFORMAT
  1
GRIDFORMAT_BEGIN
 90
        0
 91
        1
 62
     0
 92
       -2
340
0
 93
        0
 40
0.045
309
GRIDFORMAT_END
 95
        4
302
GRIDFORMAT
  1
GRIDFORMAT_BEGIN
 90
        0
 91
        1
 62
     0
 92
       -2
340
0
 93
        0
 40
0.045
309
GRIDFORMAT_END
 95
        8
302
GRIDFORMAT
  1
GRIDFORMAT_BEGIN
 90
        0
 91
        1
 62
     0
 92
       -2
340
0
 93
        0
 40
0.045
309
GRIDFORMAT_END
 95
       16
302
GRIDFORMAT
  1
GRIDFORMAT_BEGIN
 90
        0
 91
        1
 62
     0
 92
       -2
340
0
 93
        0
 40
0.045
309
GRIDFORMAT_END
 95
       32
302
GRIDFORMAT
  1
GRIDFORMAT_BEGIN
 90
        0
 91
        1
 62
     0
 92
       -2
340
0
 93
        0
 40
0.045
309
GRIDFORMAT_END
309
TABLEFORMAT_END
  1
CELLSTYLE_BEGIN
 90
        2
 91
        1
300
_HEADER
309
CELLSTYLE_END
300
CELLSTYLE
  1
TABLEFORMAT_BEGIN
 90
        5
170
     1
 91
        0
 92
        0
 62
   257
 93
        1
300
CONTENTFORMAT
  1
CONTENTFORMAT_BEGIN
 90
        0
 91
        0
 92
      512
 93
        0
300

 40
0.0
140
1.0
 94
        2
 62
     0
340
11
144
0.18
309
CONTENTFORMAT_END
171
     0
 94
        6
 95
        1
302
GRIDFORMAT
  1
GRIDFORMAT_BEGIN
 90
        0
 91
        1
 62
     0
 92
       -2
340
0
 93
        0
 40
0.045
309
GRIDFORMAT_END
 95
        2
302
GRIDFORMAT
  1
GRIDFORMAT_BEGIN
 90
        0
 91
        1
 62
     0
 92
       -2
340
0
 93
        0
 40
0.045
309
GRIDFORMAT_END
 95
        4
302
GRIDFORMAT
  1
GRIDFORMAT_BEGIN
 90
        0
 91
        1
 62
     0
 92
       -2
340
0
 93
        0
 40
0.045
309
GRIDFORMAT_END
 95
        8
302
GRIDFORMAT
  1
GRIDFORMAT_BEGIN
 90
        0
 91
        1
 62
     0
 92
       -2
340
0
 93
        0
 40
0.045
309
GRIDFORMAT_END
 95
       16
302
GRIDFORMAT
  1
GRIDFORMAT_BEGIN
 90
        0
 91
        1
 62
     0
 92
       -2
340
0
 93
        0
 40
0.045
309
GRIDFORMAT_END
 95
       32
302
GRIDFORMAT
  1
GRIDFORMAT_BEGIN
 90
        0
 91
        1
 62
     0
 92
       -2
340
0
 93
        0
 40
0.045
309
GRIDFORMAT_END
309
TABLEFORMAT_END
  1
CELLSTYLE_BEGIN
 90
        3
 91
        2
300
_DATA
309
CELLSTYLE_END
  0
XRECORD
  5
1188
102
{ACAD_REACTORS
330
1179
102
}
330
1179
100
AcDbXrecord
280
     1
102
ACAD_ROUNDTRIP_PRE2007_TABLESTYLE
 90
      512
 91
        0
  1

 92
      512
 93
        0
  2

 94
      512
 95
        0
  3

  0
CELLSTYLEMAP
  5
117B
102
{ACAD_REACTORS
330
D98
102
}
330
D98
100
AcDbCellStyleMap
 90
        3
300
CELLSTYLE
  1
TABLEFORMAT_BEGIN
 90
        5
170
     1
 91
        0
 92
    32768
 62
   257
 93
        1
300
CONTENTFORMAT
  1
CONTENTFORMAT_BEGIN
 90
        0
 91
        0
 92
      512
 93
        0
300

 40
0.0
140
1.0
 94
        8
 62
     3
340
11D
144
0.25
309
CONTENTFORMAT_END
171
     1
301
MARGIN
  1
CELLMARGIN_BEGIN
 40
0.5
 40
10.0
 40
0.06
 40
0.06
 40
0.18
 40
0.18
309
CELLMARGIN_END
 94
        6
 95
        1
302
GRIDFORMAT
  1
GRIDFORMAT_BEGIN
 90
        0
 91
        1
 62
     0
 92
       -2
340
0
 93
        0
 40
0.045
309
GRIDFORMAT_END
 95
        2
302
GRIDFORMAT
  1
GRIDFORMAT_BEGIN
 90
        0
 91
        1
 62
     0
 92
       -2
340
0
 93
        0
 40
0.045
309
GRIDFORMAT_END
 95
        4
302
GRIDFORMAT
  1
GRIDFORMAT_BEGIN
 90
        0
 91
        1
 62
     0
 92
       -2
340
0
 93
        0
 40
0.045
309
GRIDFORMAT_END
 95
        8
302
GRIDFORMAT
  1
GRIDFORMAT_BEGIN
 90
        0
 91
        1
 62
     0
 92
       -2
340
0
 93
        0
 40
0.045
309
GRIDFORMAT_END
 95
       16
302
GRIDFORMAT
  1
GRIDFORMAT_BEGIN
 90
        0
 91
        1
 62
     0
 92
       -2
340
0
 93
        0
 40
0.045
309
GRIDFORMAT_END
 95
       32
302
GRIDFORMAT
  1
GRIDFORMAT_BEGIN
 90
        0
 91
        1
 62
     0
 92
       -2
340
0
 93
        0
 40
0.045
309
GRIDFORMAT_END
309
TABLEFORMAT_END
  1
CELLSTYLE_BEGIN
 90
        1
 91
        1
300
_TITLE
309
CELLSTYLE_END
300
CELLSTYLE
  1
TABLEFORMAT_BEGIN
 90
        5
170
     1
 91
        0
 92
        0
 62
   257
 93
        1
300
CONTENTFORMAT
  1
CONTENTFORMAT_BEGIN
 90
        0
 91
        0
 92
      512
 93
        0
300

 40
0.0
140
1.0
 94
        7
 62
     3
340
11D
144
0.18
309
CONTENTFORMAT_END
171
     1
301
MARGIN
  1
CELLMARGIN_BEGIN
 40
0.5
 40
1.5
 40
0.06
 40
0.06
 40
0.18
 40
0.18
309
CELLMARGIN_END
 94
        6
 95
        1
302
GRIDFORMAT
  1
GRIDFORMAT_BEGIN
 90
        0
 91
        1
 62
     3
 92
       -2
340
14
 93
        0
 40
0.045
309
GRIDFORMAT_END
 95
        2
302
GRIDFORMAT
  1
GRIDFORMAT_BEGIN
 90
        0
 91
        1
 62
     7
 92
       -2
340
14
 93
        0
 40
0.045
309
GRIDFORMAT_END
 95
        4
302
GRIDFORMAT
  1
GRIDFORMAT_BEGIN
 90
        0
 91
        1
 62
     3
 92
       -2
340
14
 93
        0
 40
0.045
309
GRIDFORMAT_END
 95
        8
302
GRIDFORMAT
  1
GRIDFORMAT_BEGIN
 90
        0
 91
        1
 62
     3
 92
       -2
340
14
 93
        0
 40
0.045
309
GRIDFORMAT_END
 95
       16
302
GRIDFORMAT
  1
GRIDFORMAT_BEGIN
 90
        0
 91
        1
 62
     7
 92
       -2
340
14
 93
        0
 40
0.045
309
GRIDFORMAT_END
 95
       32
302
GRIDFORMAT
  1
GRIDFORMAT_BEGIN
 90
        0
 91
        1
 62
     3
 92
       -2
340
14
 93
        0
 40
0.045
309
GRIDFORMAT_END
309
TABLEFORMAT_END
  1
CELLSTYLE_BEGIN
 90
        2
 91
        1
300
_HEADER
309
CELLSTYLE_END
300
CELLSTYLE
  1
TABLEFORMAT_BEGIN
 90
        5
170
     1
 91
        0
 92
        0
 62
   257
 93
        1
300
CONTENTFORMAT
  1
CONTENTFORMAT_BEGIN
 90
        0
 91
        0
 92
      512
 93
        0
300

 40
0.0
140
1.0
 94
        7
 62
     3
340
11D
144
0.18
309
CONTENTFORMAT_END
171
     1
301
MARGIN
  1
CELLMARGIN_BEGIN
 40
0.5
 40
1.5
 40
0.06
 40
0.06
 40
0.18
 40
0.18
309
CELLMARGIN_END
 94
        6
 95
        1
302
GRIDFORMAT
  1
GRIDFORMAT_BEGIN
 90
        0
 91
        1
 62
     3
 92
       -2
340
14
 93
        0
 40
0.045
309
GRIDFORMAT_END
 95
        2
302
GRIDFORMAT
  1
GRIDFORMAT_BEGIN
 90
        0
 91
        1
 62
     7
 92
       -2
340
14
 93
        0
 40
0.045
309
GRIDFORMAT_END
 95
        4
302
GRIDFORMAT
  1
GRIDFORMAT_BEGIN
 90
        0
 91
        1
 62
     3
 92
       -2
340
14
 93
        0
 40
0.045
309
GRIDFORMAT_END
 95
        8
302
GRIDFORMAT
  1
GRIDFORMAT_BEGIN
 90
        0
 91
        1
 62
     3
 92
       -2
340
14
 93
        0
 40
0.045
309
GRIDFORMAT_END
 95
       16
302
GRIDFORMAT
  1
GRIDFORMAT_BEGIN
 90
        0
 91
        1
 62
     7
 92
       -2
340
14
 93
        0
 40
0.045
309
GRIDFORMAT_END
 95
       32
302
GRIDFORMAT
  1
GRIDFORMAT_BEGIN
 90
        0
 91
        1
 62
     3
 92
       -2
340
14
 93
        0
 40
0.045
309
GRIDFORMAT_END
309
TABLEFORMAT_END
  1
CELLSTYLE_BEGIN
 90
        3
 91
        2
300
_DATA
309
CELLSTYLE_END
  0
XRECORD
  5
11C6
102
{ACAD_REACTORS
330
D98
102
}
330
D98
100
AcDbXrecord
280
     1
102
ACAD_ROUNDTRIP_PRE2007_TABLESTYLE
 90
      512
 91
        0
  1

 92
      512
 93
        0
  2

 94
      512
 95
        0
  3

  0
XRECORD
  5
119A
102
{ACAD_REACTORS
330
1199
102
}
330
1199
100
AcDbXrecord
280
     1
102
RTVSPropertyOp0
 70
     1
102
RTVSPropertyOp1
 70
     1
102
RTVSPropertyOp2
 70
     1
102
RTVSPropertyOp3
 70
     1
102
RTVSPropertyOp4
 70
     1
102
RTVSPropertyOp5
 70
     1
102
RTVSPropertyOp6
 70
     1
102
RTVSPropertyOp7
 70
     1
102
RTVSPropertyOp8
 70
     1
102
RTVSPropertyOp9
 70
     1
102
RTVSPropertyOp10
 70
     1
102
RTVSPropertyOp11
 70
     1
102
RTVSPropertyOp12
 70
     1
102
RTVSPropertyOp13
 70
     1
102
RTVSPropertyOp14
 70
     1
102
RTVSPropertyOp15
 70
     1
102
RTVSPropertyOp16
 70
     1
102
RTVSPropertyOp17
 70
     1
102
RTVSPropertyOp18
 70
     1
102
RTVSPropertyOp19
 70
     1
102
RTVSPropertyOp20
 70
     1
102
RTVSPropertyOp21
 70
     1
102
RTVSPropertyOp22
 70
     1
102
RTVSPropertyOp23
 70
     1
102
RTVSPropertyOp24
 70
     1
102
RTVSPropertyOp25
 70
     1
102
RTVSPropertyOp26
 70
     1
102
RTVSPropertyOp27
 70
     1
102
RTVSPropertyOp28
 70
     1
102
RTVSPropertyOp29
 70
     1
102
RTVSPropertyOp30
 70
     1
102
RTVSPropertyOp31
 70
     1
102
RTVSPropertyOp32
 70
     1
  0
XRECORD
  5
119E
102
{ACAD_REACTORS
330
119D
102
}
330
119D
100
AcDbXrecord
280
     1
102
RTVSPropertyOp0
 70
     1
102
RTVSPropertyOp1
 70
     1
102
RTVSPropertyOp2
 70
     1
102
RTVSPropertyOp3
 70
     1
102
RTVSPropertyOp4
 70
     1
102
RTVSPropertyOp5
 70
     1
102
RTVSPropertyOp6
 70
     1
102
RTVSPropertyOp7
 70
     1
102
RTVSPropertyOp8
 70
     1
102
RTVSPropertyOp9
 70
     1
102
RTVSPropertyOp10
 70
     1
102
RTVSPropertyOp11
 70
     1
102
RTVSPropertyOp12
 70
     1
102
RTVSPropertyOp13
 70
     1
102
RTVSPropertyOp14
 70
     1
102
RTVSPropertyOp15
 70
     1
102
RTVSPropertyOp16
 70
     1
102
RTVSPropertyOp17
 70
     1
102
RTVSPropertyOp18
 70
     1
102
RTVSPropertyOp19
 70
     1
102
RTVSPropertyOp20
 70
     1
102
RTVSPropertyOp21
 70
     1
102
RTVSPropertyOp22
 70
     1
102
RTVSPropertyOp23
 70
     1
102
RTVSPropertyOp24
 70
     1
102
RTVSPropertyOp25
 70
     1
102
RTVSPropertyOp26
 70
     1
102
RTVSPropertyOp27
 70
     1
102
RTVSPropertyOp28
 70
     1
102
RTVSPropertyOp29
 70
     1
102
RTVSPropertyOp30
 70
     1
102
RTVSPropertyOp31
 70
     1
102
RTVSPropertyOp32
 70
     1
  0
XRECORD
  5
119C
102
{ACAD_REACTORS
330
119B
102
}
330
119B
100
AcDbXrecord
280
     1
102
RTVSPropertyOp0
 70
     1
102
RTVSPropertyOp1
 70
     1
102
RTVSPropertyOp2
 70
     1
102
RTVSPropertyOp3
 70
     1
102
RTVSPropertyOp4
 70
     1
102
RTVSPropertyOp5
 70
     1
102
RTVSPropertyOp6
 70
     1
102
RTVSPropertyOp7
 70
     1
102
RTVSPropertyOp8
 70
     1
102
RTVSPropertyOp9
 70
     1
102
RTVSPropertyOp10
 70
     1
102
RTVSPropertyOp11
 70
     1
102
RTVSPropertyOp12
 70
     1
102
RTVSPropertyOp13
 70
     1
102
RTVSPropertyOp14
 70
     1
102
RTVSPropertyOp15
 70
     1
102
RTVSPropertyOp16
 70
     1
102
RTVSPropertyOp17
 70
     1
102
RTVSPropertyOp18
 70
     1
102
RTVSPropertyOp19
 70
     1
102
RTVSPropertyOp20
 70
     1
102
RTVSPropertyOp21
 70
     1
102
RTVSPropertyOp22
 70
     1
102
RTVSPropertyOp23
 70
     1
102
RTVSPropertyOp24
 70
     1
102
RTVSPropertyOp25
 70
     1
102
RTVSPropertyOp26
 70
     1
102
RTVSPropertyOp27
 70
     1
102
RTVSPropertyOp28
 70
     1
102
RTVSPropertyOp29
 70
     1
102
RTVSPropertyOp30
 70
     1
102
RTVSPropertyOp31
 70
     1
102
RTVSPropertyOp32
 70
     1
  0
XRECORD
  5
1198
102
{ACAD_REACTORS
330
1197
102
}
330
1197
100
AcDbXrecord
280
     1
102
RTVSPropertyOp0
 70
     1
102
RTVSPropertyOp1
 70
     1
102
RTVSPropertyOp2
 70
     1
102
RTVSPropertyOp3
 70
     1
102
RTVSPropertyOp4
 70
     1
102
RTVSPropertyOp5
 70
     1
102
RTVSPropertyOp6
 70
     1
102
RTVSPropertyOp7
 70
     1
102
RTVSPropertyOp8
 70
     1
102
RTVSPropertyOp9
 70
     1
102
RTVSPropertyOp10
 70
     1
102
RTVSPropertyOp11
 70
     1
102
RTVSPropertyOp12
 70
     1
102
RTVSPropertyOp13
 70
     1
102
RTVSPropertyOp14
 70
     1
102
RTVSPropertyOp15
 70
     1
102
RTVSPropertyOp16
 70
     1
102
RTVSPropertyOp17
 70
     1
102
RTVSPropertyOp18
 70
     1
102
RTVSPropertyOp19
 70
     1
102
RTVSPropertyOp20
 70
     1
102
RTVSPropertyOp21
 70
     1
102
RTVSPropertyOp22
 70
     1
102
RTVSPropertyOp23
 70
     1
102
RTVSPropertyOp24
 70
     1
102
RTVSPropertyOp25
 70
     1
102
RTVSPropertyOp26
 70
     1
102
RTVSPropertyOp27
 70
     1
102
RTVSPropertyOp28
 70
     1
102
RTVSPropertyOp29
 70
     1
102
RTVSPropertyOp30
 70
     1
102
RTVSPropertyOp31
 70
     1
102
RTVSPropertyOp32
 70
     1
  0
XRECORD
  5
11A6
102
{ACAD_REACTORS
330
11A5
102
}
330
11A5
100
AcDbXrecord
280
     1
102
RTVSPropertyOp0
 70
     1
102
RTVSPropertyOp1
 70
     1
102
RTVSPropertyOp2
 70
     1
102
RTVSPropertyOp3
 70
     1
102
RTVSPropertyOp4
 70
     1
102
RTVSPropertyOp5
 70
     1
102
RTVSPropertyOp6
 70
     1
102
RTVSPropertyOp7
 70
     1
102
RTVSPropertyOp8
 70
     1
102
RTVSPropertyOp9
 70
     1
102
RTVSPropertyOp10
 70
     1
102
RTVSPropertyOp11
 70
     1
102
RTVSPropertyOp12
 70
     1
102
RTVSPropertyOp13
 70
     1
102
RTVSPropertyOp14
 70
     1
102
RTVSPropertyOp15
 70
     1
102
RTVSPropertyOp16
 70
     1
102
RTVSPropertyOp17
 70
     1
102
RTVSPropertyOp18
 70
     1
102
RTVSPropertyOp19
 70
     1
102
RTVSPropertyOp20
 70
     1
102
RTVSPropertyOp21
 70
     1
102
RTVSPropertyOp22
 70
     1
102
RTVSPropertyOp23
 70
     1
102
RTVSPropertyOp24
 70
     1
102
RTVSPropertyOp25
 70
     1
102
RTVSPropertyOp26
 70
     1
102
RTVSPropertyOp27
 70
     1
102
RTVSPropertyOp28
 70
     1
102
RTVSPropertyOp29
 70
     1
102
RTVSPropertyOp30
 70
     1
102
RTVSPropertyOp31
 70
     1
102
RTVSPropertyOp32
 70
     1
  0
XRECORD
  5
11AE
102
{ACAD_REACTORS
330
11AD
102
}
330
11AD
100
AcDbXrecord
280
     1
102
RTVSPropertyOp0
 70
     1
102
RTVSPropertyOp1
 70
     1
102
RTVSPropertyOp2
 70
     1
102
RTVSPropertyOp3
 70
     1
102
RTVSPropertyOp4
 70
     1
102
RTVSPropertyOp5
 70
     1
102
RTVSPropertyOp6
 70
     1
102
RTVSPropertyOp7
 70
     1
102
RTVSPropertyOp8
 70
     1
102
RTVSPropertyOp9
 70
     1
102
RTVSPropertyOp10
 70
     1
102
RTVSPropertyOp11
 70
     1
102
RTVSPropertyOp12
 70
     1
102
RTVSPropertyOp13
 70
     1
102
RTVSPropertyOp14
 70
     1
102
RTVSPropertyOp15
 70
     1
102
RTVSPropertyOp16
 70
     1
102
RTVSPropertyOp17
 70
     1
102
RTVSPropertyOp18
 70
     1
102
RTVSPropertyOp19
 70
     1
102
RTVSPropertyOp20
 70
     1
102
RTVSPropertyOp21
 70
     1
102
RTVSPropertyOp22
 70
     1
102
RTVSPropertyOp23
 70
     1
102
RTVSPropertyOp24
 70
     1
102
RTVSPropertyOp25
 70
     1
102
RTVSPropertyOp26
 70
     1
102
RTVSPropertyOp27
 70
     1
102
RTVSPropertyOp28
 70
     1
102
RTVSPropertyOp29
 70
     1
102
RTVSPropertyOp30
 70
     1
102
RTVSPropertyOp31
 70
     1
102
RTVSPropertyOp32
 70
     1
  0
XRECORD
  5
11A0
102
{ACAD_REACTORS
330
119F
102
}
330
119F
100
AcDbXrecord
280
     1
102
RTVSPropertyOp0
 70
     1
102
RTVSPropertyOp1
 70
     1
102
RTVSPropertyOp2
 70
     1
102
RTVSPropertyOp3
 70
     1
102
RTVSPropertyOp4
 70
     1
102
RTVSPropertyOp5
 70
     1
102
RTVSPropertyOp6
 70
     1
102
RTVSPropertyOp7
 70
     1
102
RTVSPropertyOp8
 70
     1
102
RTVSPropertyOp9
 70
     1
102
RTVSPropertyOp10
 70
     1
102
RTVSPropertyOp11
 70
     1
102
RTVSPropertyOp12
 70
     1
102
RTVSPropertyOp13
 70
     1
102
RTVSPropertyOp14
 70
     1
102
RTVSPropertyOp15
 70
     1
102
RTVSPropertyOp16
 70
     1
102
RTVSPropertyOp17
 70
     1
102
RTVSPropertyOp18
 70
     1
102
RTVSPropertyOp19
 70
     1
102
RTVSPropertyOp20
 70
     1
102
RTVSPropertyOp21
 70
     1
102
RTVSPropertyOp22
 70
     1
102
RTVSPropertyOp23
 70
     1
102
RTVSPropertyOp24
 70
     1
102
RTVSPropertyOp25
 70
     1
102
RTVSPropertyOp26
 70
     1
102
RTVSPropertyOp27
 70
     1
102
RTVSPropertyOp28
 70
     1
102
RTVSPropertyOp29
 70
     1
102
RTVSPropertyOp30
 70
     1
102
RTVSPropertyOp31
 70
     1
102
RTVSPropertyOp32
 70
     1
  0
XRECORD
  5
11A4
102
{ACAD_REACTORS
330
11A3
102
}
330
11A3
100
AcDbXrecord
280
     1
102
RTVSPropertyOp0
 70
     1
102
RTVSPropertyOp1
 70
     1
102
RTVSPropertyOp2
 70
     1
102
RTVSPropertyOp3
 70
     1
102
RTVSPropertyOp4
 70
     1
102
RTVSPropertyOp5
 70
     1
102
RTVSPropertyOp6
 70
     1
102
RTVSPropertyOp7
 70
     1
102
RTVSPropertyOp8
 70
     1
102
RTVSPropertyOp9
 70
     1
102
RTVSPropertyOp10
 70
     1
102
RTVSPropertyOp11
 70
     1
102
RTVSPropertyOp12
 70
     1
102
RTVSPropertyOp13
 70
     1
102
RTVSPropertyOp14
 70
     1
102
RTVSPropertyOp15
 70
     1
102
RTVSPropertyOp16
 70
     1
102
RTVSPropertyOp17
 70
     1
102
RTVSPropertyOp18
 70
     1
102
RTVSPropertyOp19
 70
     1
102
RTVSPropertyOp20
 70
     1
102
RTVSPropertyOp21
 70
     1
102
RTVSPropertyOp22
 70
     1
102
RTVSPropertyOp23
 70
     1
102
RTVSPropertyOp24
 70
     1
102
RTVSPropertyOp25
 70
     1
102
RTVSPropertyOp26
 70
     1
102
RTVSPropertyOp27
 70
     1
102
RTVSPropertyOp28
 70
     1
102
RTVSPropertyOp29
 70
     1
102
RTVSPropertyOp30
 70
     1
102
RTVSPropertyOp31
 70
     1
102
RTVSPropertyOp32
 70
     1
  0
XRECORD
  5
11C4
102
{ACAD_REACTORS
330
11C3
102
}
330
11C3
100
AcDbXrecord
280
     1
102
RTVSPropertyOp0
 70
     0
102
RTVSPropertyOp1
 70
     0
102
RTVSPropertyOp2
 70
     0
102
RTVSPropertyOp3
 70
     0
102
RTVSPropertyOp4
 70
     0
102
RTVSPropertyOp5
 70
     0
102
RTVSPropertyOp6
 70
     0
102
RTVSPropertyOp7
 70
     0
102
RTVSPropertyOp8
 70
     0
102
RTVSPropertyOp9
 70
     0
102
RTVSPropertyOp10
 70
     0
102
RTVSPropertyOp11
 70
     0
102
RTVSPropertyOp12
 70
     0
102
RTVSPropertyOp13
 70
     0
102
RTVSPropertyOp14
 70
     2
102
RTVSPropertyOp15
 70
     0
102
RTVSPropertyOp16
 70
     0
102
RTVSPropertyOp17
 70
     0
102
RTVSPropertyOp18
 70
     0
102
RTVSPropertyOp19
 70
     0
102
RTVSPropertyOp20
 70
     0
102
RTVSPropertyOp21
 70
     0
102
RTVSPropertyOp22
 70
     0
102
RTVSPropertyOp23
 70
     0
102
RTVSPropertyOp24
 70
     0
102
RTVSPropertyOp25
 70
     0
102
RTVSPropertyOp26
 70
     0
102
RTVSPropertyOp27
 70
     0
102
RTVSPropertyOp28
 70
     1
102
RTVSPropertyOp29
 70
     1
102
RTVSPropertyOp30
 70
     1
102
RTVSPropertyOp31
 70
     1
102
RTVSPropertyOp32
 70
     1
  0
XRECORD
  5
11AC
102
{ACAD_REACTORS
330
11AB
102
}
330
11AB
100
AcDbXrecord
280
     1
102
RTVSPropertyOp0
 70
     1
102
RTVSPropertyOp1
 70
     1
102
RTVSPropertyOp2
 70
     1
102
RTVSPropertyOp3
 70
     1
102
RTVSPropertyOp4
 70
     1
102
RTVSPropertyOp5
 70
     1
102
RTVSPropertyOp6
 70
     1
102
RTVSPropertyOp7
 70
     1
102
RTVSPropertyOp8
 70
     1
102
RTVSPropertyOp9
 70
     1
102
RTVSPropertyOp10
 70
     1
102
RTVSPropertyOp11
 70
     1
102
RTVSPropertyOp12
 70
     1
102
RTVSPropertyOp13
 70
     1
102
RTVSPropertyOp14
 70
     1
102
RTVSPropertyOp15
 70
     1
102
RTVSPropertyOp16
 70
     1
102
RTVSPropertyOp17
 70
     1
102
RTVSPropertyOp18
 70
     1
102
RTVSPropertyOp19
 70
     1
102
RTVSPropertyOp20
 70
     1
102
RTVSPropertyOp21
 70
     1
102
RTVSPropertyOp22
 70
     1
102
RTVSPropertyOp23
 70
     1
102
RTVSPropertyOp24
 70
     1
102
RTVSPropertyOp25
 70
     1
102
RTVSPropertyOp26
 70
     1
102
RTVSPropertyOp27
 70
     1
102
RTVSPropertyOp28
 70
     1
102
RTVSPropertyOp29
 70
     1
102
RTVSPropertyOp30
 70
     1
102
RTVSPropertyOp31
 70
     1
102
RTVSPropertyOp32
 70
     1
  0
XRECORD
  5
1190
102
{ACAD_REACTORS
330
118F
102
}
330
118F
100
AcDbXrecord
280
     1
102
RTVSPropertyOp0
 70
     1
102
RTVSPropertyOp1
 70
     1
102
RTVSPropertyOp2
 70
     1
102
RTVSPropertyOp3
 70
     1
102
RTVSPropertyOp4
 70
     1
102
RTVSPropertyOp5
 70
     1
102
RTVSPropertyOp6
 70
     1
102
RTVSPropertyOp7
 70
     1
102
RTVSPropertyOp8
 70
     1
102
RTVSPropertyOp9
 70
     1
102
RTVSPropertyOp10
 70
     1
102
RTVSPropertyOp11
 70
     1
102
RTVSPropertyOp12
 70
     1
102
RTVSPropertyOp13
 70
     1
102
RTVSPropertyOp14
 70
     1
102
RTVSPropertyOp15
 70
     1
102
RTVSPropertyOp16
 70
     1
102
RTVSPropertyOp17
 70
     1
102
RTVSPropertyOp18
 70
     1
102
RTVSPropertyOp19
 70
     1
102
RTVSPropertyOp20
 70
     1
102
RTVSPropertyOp21
 70
     1
102
RTVSPropertyOp22
 70
     1
102
RTVSPropertyOp23
 70
     1
102
RTVSPropertyOp24
 70
     1
102
RTVSPropertyOp25
 70
     1
102
RTVSPropertyOp26
 70
     1
102
RTVSPropertyOp27
 70
     1
102
RTVSPropertyOp28
 70
     1
102
RTVSPropertyOp29
 70
     1
102
RTVSPropertyOp30
 70
     1
102
RTVSPropertyOp31
 70
     1
102
RTVSPropertyOp32
 70
     1
  0
XRECORD
  5
1192
102
{ACAD_REACTORS
330
1191
102
}
330
1191
100
AcDbXrecord
280
     1
102
RTVSPropertyOp0
 70
     1
102
RTVSPropertyOp1
 70
     1
102
RTVSPropertyOp2
 70
     1
102
RTVSPropertyOp3
 70
     1
102
RTVSPropertyOp4
 70
     1
102
RTVSPropertyOp5
 70
     1
102
RTVSPropertyOp6
 70
     1
102
RTVSPropertyOp7
 70
     1
102
RTVSPropertyOp8
 70
     1
102
RTVSPropertyOp9
 70
     1
102
RTVSPropertyOp10
 70
     1
102
RTVSPropertyOp11
 70
     1
102
RTVSPropertyOp12
 70
     1
102
RTVSPropertyOp13
 70
     1
102
RTVSPropertyOp14
 70
     1
102
RTVSPropertyOp15
 70
     1
102
RTVSPropertyOp16
 70
     1
102
RTVSPropertyOp17
 70
     1
102
RTVSPropertyOp18
 70
     1
102
RTVSPropertyOp19
 70
     1
102
RTVSPropertyOp20
 70
     1
102
RTVSPropertyOp21
 70
     1
102
RTVSPropertyOp22
 70
     1
102
RTVSPropertyOp23
 70
     1
102
RTVSPropertyOp24
 70
     1
102
RTVSPropertyOp25
 70
     1
102
RTVSPropertyOp26
 70
     1
102
RTVSPropertyOp27
 70
     1
102
RTVSPropertyOp28
 70
     1
102
RTVSPropertyOp29
 70
     1
102
RTVSPropertyOp30
 70
     1
102
RTVSPropertyOp31
 70
     1
102
RTVSPropertyOp32
 70
     1
  0
XRECORD
  5
1194
102
{ACAD_REACTORS
330
1193
102
}
330
1193
100
AcDbXrecord
280
     1
102
RTVSPropertyOp0
 70
     1
102
RTVSPropertyOp1
 70
     1
102
RTVSPropertyOp2
 70
     1
102
RTVSPropertyOp3
 70
     1
102
RTVSPropertyOp4
 70
     1
102
RTVSPropertyOp5
 70
     1
102
RTVSPropertyOp6
 70
     1
102
RTVSPropertyOp7
 70
     1
102
RTVSPropertyOp8
 70
     1
102
RTVSPropertyOp9
 70
     1
102
RTVSPropertyOp10
 70
     1
102
RTVSPropertyOp11
 70
     1
102
RTVSPropertyOp12
 70
     1
102
RTVSPropertyOp13
 70
     1
102
RTVSPropertyOp14
 70
     1
102
RTVSPropertyOp15
 70
     1
102
RTVSPropertyOp16
 70
     1
102
RTVSPropertyOp17
 70
     1
102
RTVSPropertyOp18
 70
     1
102
RTVSPropertyOp19
 70
     1
102
RTVSPropertyOp20
 70
     1
102
RTVSPropertyOp21
 70
     1
102
RTVSPropertyOp22
 70
     1
102
RTVSPropertyOp23
 70
     1
102
RTVSPropertyOp24
 70
     1
102
RTVSPropertyOp25
 70
     1
102
RTVSPropertyOp26
 70
     1
102
RTVSPropertyOp27
 70
     1
102
RTVSPropertyOp28
 70
     1
102
RTVSPropertyOp29
 70
     1
102
RTVSPropertyOp30
 70
     1
102
RTVSPropertyOp31
 70
     1
102
RTVSPropertyOp32
 70
     1
  0
XRECORD
  5
1196
102
{ACAD_REACTORS
330
1195
102
}
330
1195
100
AcDbXrecord
280
     1
102
RTVSPropertyOp0
 70
     1
102
RTVSPropertyOp1
 70
     1
102
RTVSPropertyOp2
 70
     1
102
RTVSPropertyOp3
 70
     1
102
RTVSPropertyOp4
 70
     1
102
RTVSPropertyOp5
 70
     1
102
RTVSPropertyOp6
 70
     1
102
RTVSPropertyOp7
 70
     1
102
RTVSPropertyOp8
 70
     1
102
RTVSPropertyOp9
 70
     1
102
RTVSPropertyOp10
 70
     1
102
RTVSPropertyOp11
 70
     1
102
RTVSPropertyOp12
 70
     1
102
RTVSPropertyOp13
 70
     1
102
RTVSPropertyOp14
 70
     1
102
RTVSPropertyOp15
 70
     1
102
RTVSPropertyOp16
 70
     1
102
RTVSPropertyOp17
 70
     1
102
RTVSPropertyOp18
 70
     1
102
RTVSPropertyOp19
 70
     1
102
RTVSPropertyOp20
 70
     1
102
RTVSPropertyOp21
 70
     1
102
RTVSPropertyOp22
 70
     1
102
RTVSPropertyOp23
 70
     1
102
RTVSPropertyOp24
 70
     1
102
RTVSPropertyOp25
 70
     1
102
RTVSPropertyOp26
 70
     1
102
RTVSPropertyOp27
 70
     1
102
RTVSPropertyOp28
 70
     1
102
RTVSPropertyOp29
 70
     1
102
RTVSPropertyOp30
 70
     1
102
RTVSPropertyOp31
 70
     1
102
RTVSPropertyOp32
 70
     1
  0
XRECORD
  5
11B4
102
{ACAD_REACTORS
330
11B3
102
}
330
11B3
100
AcDbXrecord
280
     1
102
RTVSPropertyOp0
 70
     1
102
RTVSPropertyOp1
 70
     1
102
RTVSPropertyOp2
 70
     1
102
RTVSPropertyOp3
 70
     1
102
RTVSPropertyOp4
 70
     1
102
RTVSPropertyOp5
 70
     1
102
RTVSPropertyOp6
 70
     1
102
RTVSPropertyOp7
 70
     1
102
RTVSPropertyOp8
 70
     1
102
RTVSPropertyOp9
 70
     1
102
RTVSPropertyOp10
 70
     1
102
RTVSPropertyOp11
 70
     1
102
RTVSPropertyOp12
 70
     1
102
RTVSPropertyOp13
 70
     1
102
RTVSPropertyOp14
 70
     1
102
RTVSPropertyOp15
 70
     1
102
RTVSPropertyOp16
 70
     1
102
RTVSPropertyOp17
 70
     1
102
RTVSPropertyOp18
 70
     1
102
RTVSPropertyOp19
 70
     1
102
RTVSPropertyOp20
 70
     1
102
RTVSPropertyOp21
 70
     1
102
RTVSPropertyOp22
 70
     1
102
RTVSPropertyOp23
 70
     1
102
RTVSPropertyOp24
 70
     1
102
RTVSPropertyOp25
 70
     1
102
RTVSPropertyOp26
 70
     1
102
RTVSPropertyOp27
 70
     1
102
RTVSPropertyOp28
 70
     1
102
RTVSPropertyOp29
 70
     1
102
RTVSPropertyOp30
 70
     1
102
RTVSPropertyOp31
 70
     1
102
RTVSPropertyOp32
 70
     1
  0
XRECORD
  5
11C0
102
{ACAD_REACTORS
330
11BF
102
}
330
11BF
100
AcDbXrecord
280
     1
102
RTVSPropertyOp0
 70
     0
102
RTVSPropertyOp1
 70
     0
102
RTVSPropertyOp2
 70
     0
102
RTVSPropertyOp3
 70
     0
102
RTVSPropertyOp4
 70
     0
102
RTVSPropertyOp5
 70
     0
102
RTVSPropertyOp6
 70
     0
102
RTVSPropertyOp7
 70
     0
102
RTVSPropertyOp8
 70
     0
102
RTVSPropertyOp9
 70
     0
102
RTVSPropertyOp10
 70
     0
102
RTVSPropertyOp11
 70
     0
102
RTVSPropertyOp12
 70
     0
102
RTVSPropertyOp13
 70
     0
102
RTVSPropertyOp14
 70
     2
102
RTVSPropertyOp15
 70
     0
102
RTVSPropertyOp16
 70
     0
102
RTVSPropertyOp17
 70
     0
102
RTVSPropertyOp18
 70
     0
102
RTVSPropertyOp19
 70
     0
102
RTVSPropertyOp20
 70
     0
102
RTVSPropertyOp21
 70
     0
102
RTVSPropertyOp22
 70
     0
102
RTVSPropertyOp23
 70
     0
102
RTVSPropertyOp24
 70
     0
102
RTVSPropertyOp25
 70
     0
102
RTVSPropertyOp26
 70
     0
102
RTVSPropertyOp27
 70
     0
102
RTVSPropertyOp28
 70
     1
102
RTVSPropertyOp29
 70
     1
102
RTVSPropertyOp30
 70
     1
102
RTVSPropertyOp31
 70
     1
102
RTVSPropertyOp32
 70
     1
  0
XRECORD
  5
11AA
102
{ACAD_REACTORS
330
11A9
102
}
330
11A9
100
AcDbXrecord
280
     1
102
RTVSPropertyOp0
 70
     1
102
RTVSPropertyOp1
 70
     1
102
RTVSPropertyOp2
 70
     1
102
RTVSPropertyOp3
 70
     1
102
RTVSPropertyOp4
 70
     1
102
RTVSPropertyOp5
 70
     1
102
RTVSPropertyOp6
 70
     1
102
RTVSPropertyOp7
 70
     1
102
RTVSPropertyOp8
 70
     1
102
RTVSPropertyOp9
 70
     1
102
RTVSPropertyOp10
 70
     1
102
RTVSPropertyOp11
 70
     1
102
RTVSPropertyOp12
 70
     1
102
RTVSPropertyOp13
 70
     1
102
RTVSPropertyOp14
 70
     1
102
RTVSPropertyOp15
 70
     1
102
RTVSPropertyOp16
 70
     1
102
RTVSPropertyOp17
 70
     1
102
RTVSPropertyOp18
 70
     1
102
RTVSPropertyOp19
 70
     1
102
RTVSPropertyOp20
 70
     1
102
RTVSPropertyOp21
 70
     1
102
RTVSPropertyOp22
 70
     1
102
RTVSPropertyOp23
 70
     1
102
RTVSPropertyOp24
 70
     1
102
RTVSPropertyOp25
 70
     1
102
RTVSPropertyOp26
 70
     1
102
RTVSPropertyOp27
 70
     1
102
RTVSPropertyOp28
 70
     1
102
RTVSPropertyOp29
 70
     1
102
RTVSPropertyOp30
 70
     1
102
RTVSPropertyOp31
 70
     1
102
RTVSPropertyOp32
 70
     1
  0
XRECORD
  5
11C2
102
{ACAD_REACTORS
330
11C1
102
}
330
11C1
100
AcDbXrecord
280
     1
102
RTVSPropertyOp0
 70
     0
102
RTVSPropertyOp1
 70
     0
102
RTVSPropertyOp2
 70
     0
102
RTVSPropertyOp3
 70
     0
102
RTVSPropertyOp4
 70
     0
102
RTVSPropertyOp5
 70
     0
102
RTVSPropertyOp6
 70
     0
102
RTVSPropertyOp7
 70
     0
102
RTVSPropertyOp8
 70
     0
102
RTVSPropertyOp9
 70
     0
102
RTVSPropertyOp10
 70
     0
102
RTVSPropertyOp11
 70
     0
102
RTVSPropertyOp12
 70
     0
102
RTVSPropertyOp13
 70
     0
102
RTVSPropertyOp14
 70
     2
102
RTVSPropertyOp15
 70
     0
102
RTVSPropertyOp16
 70
     0
102
RTVSPropertyOp17
 70
     0
102
RTVSPropertyOp18
 70
     0
102
RTVSPropertyOp19
 70
     0
102
RTVSPropertyOp20
 70
     0
102
RTVSPropertyOp21
 70
     0
102
RTVSPropertyOp22
 70
     0
102
RTVSPropertyOp23
 70
     0
102
RTVSPropertyOp24
 70
     0
102
RTVSPropertyOp25
 70
     0
102
RTVSPropertyOp26
 70
     0
102
RTVSPropertyOp27
 70
     0
102
RTVSPropertyOp28
 70
     1
102
RTVSPropertyOp29
 70
     1
102
RTVSPropertyOp30
 70
     1
102
RTVSPropertyOp31
 70
     1
102
RTVSPropertyOp32
 70
     1
  0
XRECORD
  5
11A2
102
{ACAD_REACTORS
330
11A1
102
}
330
11A1
100
AcDbXrecord
280
     1
102
RTVSPropertyOp0
 70
     1
102
RTVSPropertyOp1
 70
     1
102
RTVSPropertyOp2
 70
     1
102
RTVSPropertyOp3
 70
     1
102
RTVSPropertyOp4
 70
     1
102
RTVSPropertyOp5
 70
     1
102
RTVSPropertyOp6
 70
     1
102
RTVSPropertyOp7
 70
     1
102
RTVSPropertyOp8
 70
     1
102
RTVSPropertyOp9
 70
     1
102
RTVSPropertyOp10
 70
     1
102
RTVSPropertyOp11
 70
     1
102
RTVSPropertyOp12
 70
     1
102
RTVSPropertyOp13
 70
     1
102
RTVSPropertyOp14
 70
     1
102
RTVSPropertyOp15
 70
     1
102
RTVSPropertyOp16
 70
     1
102
RTVSPropertyOp17
 70
     1
102
RTVSPropertyOp18
 70
     1
102
RTVSPropertyOp19
 70
     1
102
RTVSPropertyOp20
 70
     1
102
RTVSPropertyOp21
 70
     1
102
RTVSPropertyOp22
 70
     1
102
RTVSPropertyOp23
 70
     1
102
RTVSPropertyOp24
 70
     1
102
RTVSPropertyOp25
 70
     1
102
RTVSPropertyOp26
 70
     1
102
RTVSPropertyOp27
 70
     1
102
RTVSPropertyOp28
 70
     1
102
RTVSPropertyOp29
 70
     1
102
RTVSPropertyOp30
 70
     1
102
RTVSPropertyOp31
 70
     1
102
RTVSPropertyOp32
 70
     1
  0
XRECORD
  5
11BE
102
{ACAD_REACTORS
330
11BD
102
}
330
11BD
100
AcDbXrecord
280
     1
102
RTVSPropertyOp0
 70
     1
102
RTVSPropertyOp1
 70
     1
102
RTVSPropertyOp2
 70
     1
102
RTVSPropertyOp3
 70
     1
102
RTVSPropertyOp4
 70
     1
102
RTVSPropertyOp5
 70
     1
102
RTVSPropertyOp6
 70
     1
102
RTVSPropertyOp7
 70
     1
102
RTVSPropertyOp8
 70
     1
102
RTVSPropertyOp9
 70
     1
102
RTVSPropertyOp10
 70
     1
102
RTVSPropertyOp11
 70
     1
102
RTVSPropertyOp12
 70
     1
102
RTVSPropertyOp13
 70
     1
102
RTVSPropertyOp14
 70
     1
102
RTVSPropertyOp15
 70
     1
102
RTVSPropertyOp16
 70
     1
102
RTVSPropertyOp17
 70
     1
102
RTVSPropertyOp18
 70
     1
102
RTVSPropertyOp19
 70
     1
102
RTVSPropertyOp20
 70
     1
102
RTVSPropertyOp21
 70
     1
102
RTVSPropertyOp22
 70
     1
102
RTVSPropertyOp23
 70
     1
102
RTVSPropertyOp24
 70
     1
102
RTVSPropertyOp25
 70
     1
102
RTVSPropertyOp26
 70
     1
102
RTVSPropertyOp27
 70
     1
102
RTVSPropertyOp28
 70
     1
102
RTVSPropertyOp29
 70
     1
102
RTVSPropertyOp30
 70
     1
102
RTVSPropertyOp31
 70
     1
102
RTVSPropertyOp32
 70
     1
  0
XRECORD
  5
11BC
102
{ACAD_REACTORS
330
11BB
102
}
330
11BB
100
AcDbXrecord
280
     1
102
RTVSPropertyOp0
 70
     1
102
RTVSPropertyOp1
 70
     1
102
RTVSPropertyOp2
 70
     1
102
RTVSPropertyOp3
 70
     1
102
RTVSPropertyOp4
 70
     1
102
RTVSPropertyOp5
 70
     1
102
RTVSPropertyOp6
 70
     1
102
RTVSPropertyOp7
 70
     1
102
RTVSPropertyOp8
 70
     1
102
RTVSPropertyOp9
 70
     1
102
RTVSPropertyOp10
 70
     1
102
RTVSPropertyOp11
 70
     1
102
RTVSPropertyOp12
 70
     1
102
RTVSPropertyOp13
 70
     1
102
RTVSPropertyOp14
 70
     1
102
RTVSPropertyOp15
 70
     1
102
RTVSPropertyOp16
 70
     1
102
RTVSPropertyOp17
 70
     1
102
RTVSPropertyOp18
 70
     1
102
RTVSPropertyOp19
 70
     1
102
RTVSPropertyOp20
 70
     1
102
RTVSPropertyOp21
 70
     1
102
RTVSPropertyOp22
 70
     1
102
RTVSPropertyOp23
 70
     1
102
RTVSPropertyOp24
 70
     1
102
RTVSPropertyOp25
 70
     1
102
RTVSPropertyOp26
 70
     1
102
RTVSPropertyOp27
 70
     1
102
RTVSPropertyOp28
 70
     1
102
RTVSPropertyOp29
 70
     1
102
RTVSPropertyOp30
 70
     1
102
RTVSPropertyOp31
 70
     1
102
RTVSPropertyOp32
 70
     1
  0
XRECORD
  5
11B6
102
{ACAD_REACTORS
330
11B5
102
}
330
11B5
100
AcDbXrecord
280
     1
102
RTVSPropertyOp0
 70
     1
102
RTVSPropertyOp1
 70
     1
102
RTVSPropertyOp2
 70
     1
102
RTVSPropertyOp3
 70
     1
102
RTVSPropertyOp4
 70
     1
102
RTVSPropertyOp5
 70
     1
102
RTVSPropertyOp6
 70
     1
102
RTVSPropertyOp7
 70
     1
102
RTVSPropertyOp8
 70
     1
102
RTVSPropertyOp9
 70
     1
102
RTVSPropertyOp10
 70
     1
102
RTVSPropertyOp11
 70
     1
102
RTVSPropertyOp12
 70
     1
102
RTVSPropertyOp13
 70
     1
102
RTVSPropertyOp14
 70
     1
102
RTVSPropertyOp15
 70
     1
102
RTVSPropertyOp16
 70
     1
102
RTVSPropertyOp17
 70
     1
102
RTVSPropertyOp18
 70
     1
102
RTVSPropertyOp19
 70
     1
102
RTVSPropertyOp20
 70
     1
102
RTVSPropertyOp21
 70
     1
102
RTVSPropertyOp22
 70
     1
102
RTVSPropertyOp23
 70
     1
102
RTVSPropertyOp24
 70
     1
102
RTVSPropertyOp25
 70
     1
102
RTVSPropertyOp26
 70
     1
102
RTVSPropertyOp27
 70
     1
102
RTVSPropertyOp28
 70
     1
102
RTVSPropertyOp29
 70
     1
102
RTVSPropertyOp30
 70
     1
102
RTVSPropertyOp31
 70
     1
102
RTVSPropertyOp32
 70
     1
  0
XRECORD
  5
11B8
102
{ACAD_REACTORS
330
11B7
102
}
330
11B7
100
AcDbXrecord
280
     1
102
RTVSPropertyOp0
 70
     1
102
RTVSPropertyOp1
 70
     1
102
RTVSPropertyOp2
 70
     1
102
RTVSPropertyOp3
 70
     1
102
RTVSPropertyOp4
 70
     1
102
RTVSPropertyOp5
 70
     1
102
RTVSPropertyOp6
 70
     1
102
RTVSPropertyOp7
 70
     1
102
RTVSPropertyOp8
 70
     1
102
RTVSPropertyOp9
 70
     1
102
RTVSPropertyOp10
 70
     1
102
RTVSPropertyOp11
 70
     1
102
RTVSPropertyOp12
 70
     1
102
RTVSPropertyOp13
 70
     1
102
RTVSPropertyOp14
 70
     1
102
RTVSPropertyOp15
 70
     1
102
RTVSPropertyOp16
 70
     1
102
RTVSPropertyOp17
 70
     1
102
RTVSPropertyOp18
 70
     1
102
RTVSPropertyOp19
 70
     1
102
RTVSPropertyOp20
 70
     1
102
RTVSPropertyOp21
 70
     1
102
RTVSPropertyOp22
 70
     1
102
RTVSPropertyOp23
 70
     1
102
RTVSPropertyOp24
 70
     1
102
RTVSPropertyOp25
 70
     1
102
RTVSPropertyOp26
 70
     1
102
RTVSPropertyOp27
 70
     1
102
RTVSPropertyOp28
 70
     1
102
RTVSPropertyOp29
 70
     1
102
RTVSPropertyOp30
 70
     1
102
RTVSPropertyOp31
 70
     1
102
RTVSPropertyOp32
 70
     1
  0
XRECORD
  5
11A8
102
{ACAD_REACTORS
330
11A7
102
}
330
11A7
100
AcDbXrecord
280
     1
102
RTVSPropertyOp0
 70
     1
102
RTVSPropertyOp1
 70
     1
102
RTVSPropertyOp2
 70
     1
102
RTVSPropertyOp3
 70
     1
102
RTVSPropertyOp4
 70
     1
102
RTVSPropertyOp5
 70
     1
102
RTVSPropertyOp6
 70
     1
102
RTVSPropertyOp7
 70
     1
102
RTVSPropertyOp8
 70
     1
102
RTVSPropertyOp9
 70
     1
102
RTVSPropertyOp10
 70
     1
102
RTVSPropertyOp11
 70
     1
102
RTVSPropertyOp12
 70
     1
102
RTVSPropertyOp13
 70
     1
102
RTVSPropertyOp14
 70
     1
102
RTVSPropertyOp15
 70
     1
102
RTVSPropertyOp16
 70
     1
102
RTVSPropertyOp17
 70
     1
102
RTVSPropertyOp18
 70
     1
102
RTVSPropertyOp19
 70
     1
102
RTVSPropertyOp20
 70
     1
102
RTVSPropertyOp21
 70
     1
102
RTVSPropertyOp22
 70
     1
102
RTVSPropertyOp23
 70
     1
102
RTVSPropertyOp24
 70
     1
102
RTVSPropertyOp25
 70
     1
102
RTVSPropertyOp26
 70
     1
102
RTVSPropertyOp27
 70
     1
102
RTVSPropertyOp28
 70
     1
102
RTVSPropertyOp29
 70
     1
102
RTVSPropertyOp30
 70
     1
102
RTVSPropertyOp31
 70
     1
102
RTVSPropertyOp32
 70
     1
  0
XRECORD
  5
11B2
102
{ACAD_REACTORS
330
11B1
102
}
330
11B1
100
AcDbXrecord
280
     1
102
RTVSPropertyOp0
 70
     1
102
RTVSPropertyOp1
 70
     1
102
RTVSPropertyOp2
 70
     1
102
RTVSPropertyOp3
 70
     1
102
RTVSPropertyOp4
 70
     1
102
RTVSPropertyOp5
 70
     1
102
RTVSPropertyOp6
 70
     1
102
RTVSPropertyOp7
 70
     1
102
RTVSPropertyOp8
 70
     1
102
RTVSPropertyOp9
 70
     1
102
RTVSPropertyOp10
 70
     1
102
RTVSPropertyOp11
 70
     1
102
RTVSPropertyOp12
 70
     1
102
RTVSPropertyOp13
 70
     1
102
RTVSPropertyOp14
 70
     1
102
RTVSPropertyOp15
 70
     1
102
RTVSPropertyOp16
 70
     1
102
RTVSPropertyOp17
 70
     1
102
RTVSPropertyOp18
 70
     1
102
RTVSPropertyOp19
 70
     1
102
RTVSPropertyOp20
 70
     1
102
RTVSPropertyOp21
 70
     1
102
RTVSPropertyOp22
 70
     1
102
RTVSPropertyOp23
 70
     1
102
RTVSPropertyOp24
 70
     1
102
RTVSPropertyOp25
 70
     1
102
RTVSPropertyOp26
 70
     1
102
RTVSPropertyOp27
 70
     1
102
RTVSPropertyOp28
 70
     1
102
RTVSPropertyOp29
 70
     1
102
RTVSPropertyOp30
 70
     1
102
RTVSPropertyOp31
 70
     1
102
RTVSPropertyOp32
 70
     1
  0
XRECORD
  5
11BA
102
{ACAD_REACTORS
330
11B9
102
}
330
11B9
100
AcDbXrecord
280
     1
102
RTVSPropertyOp0
 70
     1
102
RTVSPropertyOp1
 70
     1
102
RTVSPropertyOp2
 70
     1
102
RTVSPropertyOp3
 70
     1
102
RTVSPropertyOp4
 70
     1
102
RTVSPropertyOp5
 70
     1
102
RTVSPropertyOp6
 70
     1
102
RTVSPropertyOp7
 70
     1
102
RTVSPropertyOp8
 70
     1
102
RTVSPropertyOp9
 70
     1
102
RTVSPropertyOp10
 70
     1
102
RTVSPropertyOp11
 70
     1
102
RTVSPropertyOp12
 70
     1
102
RTVSPropertyOp13
 70
     1
102
RTVSPropertyOp14
 70
     1
102
RTVSPropertyOp15
 70
     1
102
RTVSPropertyOp16
 70
     1
102
RTVSPropertyOp17
 70
     1
102
RTVSPropertyOp18
 70
     1
102
RTVSPropertyOp19
 70
     1
102
RTVSPropertyOp20
 70
     1
102
RTVSPropertyOp21
 70
     1
102
RTVSPropertyOp22
 70
     1
102
RTVSPropertyOp23
 70
     1
102
RTVSPropertyOp24
 70
     1
102
RTVSPropertyOp25
 70
     1
102
RTVSPropertyOp26
 70
     1
102
RTVSPropertyOp27
 70
     1
102
RTVSPropertyOp28
 70
     1
102
RTVSPropertyOp29
 70
     1
102
RTVSPropertyOp30
 70
     1
102
RTVSPropertyOp31
 70
     1
102
RTVSPropertyOp32
 70
     1
  0
ENDSEC
  0
EOF
