  0
SECTION
  2
HEADER
  9
$ACADVER
  1
AC1015
  9
$ACADMAINTVER
 70
    20
  9
$DWGCODEPAGE
  3
ANSI_932
  9
$INSBASE
 10
0.0
 20
0.0
 30
0.0
  9
$EXTMIN
 10
-102.0
 20
-138.5
 30
0.0
  9
$EXTMAX
 10
97.07756493353446
 20
142.62212873
 30
0.0
  9
$LIMMIN
 10
-102.001
 20
-138.501
  9
$LIMMAX
 10
90.00100000000001
 20
142.623131
  9
$ORTHOMODE
 70
     1
  9
$REGENMODE
 70
     1
  9
$FILLMODE
 70
     1
  9
$QTEXTMODE
 70
     0
  9
$MIRRTEXT
 70
     0
  9
$LTSCALE
 40
4.685369
  9
$ATTMODE
 70
     1
  9
$TEXTSIZE
 40
3.2
  9
$TRACEWID
 40
0.05
  9
$TEXTSTYLE
  7
高3.2
  9
$CLAYER
  8
0
  9
$CELTYPE
  6
CONTINUOUS
  9
$CECOLOR
 62
   256
  9
$CELTSCALE
 40
1.0
  9
$DISPSILH
 70
     0
  9
$DIMSCALE
 40
1.0
  9
$DIMASZ
 40
2.5
  9
$DIMEXO
 40
0.25
  9
$DIMDLI
 40
0.2
  9
$DIMRND
 40
0.0
  9
$DIMDLE
 40
0.0
  9
$DIMEXE
 40
1.25
  9
$DIMTP
 40
0.0
  9
$DIMTM
 40
0.0
  9
$DIMTXT
 40
3.0
  9
$DIMCEN
 40
0.0
  9
$DIMTSZ
 40
0.0
  9
$DIMTOL
 70
     0
  9
$DIMLIM
 70
     0
  9
$DIMTIH
 70
     0
  9
$DIMTOH
 70
     0
  9
$DIMSE1
 70
     0
  9
$DIMSE2
 70
     0
  9
$DIMTAD
 70
     3
  9
$DIMZIN
 70
     8
  9
$DIMBLK
  1
Open30
  9
$DIMASO
 70
     1
  9
$DIMSHO
 70
     1
  9
$DIMPOST
  1

  9
$DIMAPOST
  1

  9
$DIMALT
 70
     0
  9
$DIMALTD
 70
     3
  9
$DIMALTF
 40
0.03937007874016
  9
$DIMLFAC
 40
1.0
  9
$DIMTOFL
 70
     1
  9
$DIMTVP
 40
0.0
  9
$DIMTIX
 70
     0
  9
$DIMSOXD
 70
     0
  9
$DIMSAH
 70
     0
  9
$DIMBLK1
  1

  9
$DIMBLK2
  1

  9
$DIMSTYLE
  2
1：1
  9
$DIMCLRD
 70
     0
  9
$DIMCLRE
 70
     0
  9
$DIMCLRT
 70
     4
  9
$DIMTFAC
 40
1.0
  9
$DIMGAP
 40
0.625
  9
$DIMJUST
 70
     0
  9
$DIMSD1
 70
     0
  9
$DIMSD2
 70
     0
  9
$DIMTOLJ
 70
     0
  9
$DIMTZIN
 70
     8
  9
$DIMALTZ
 70
     0
  9
$DIMALTTZ
 70
     0
  9
$DIMUPT
 70
     1
  9
$DIMDEC
 70
     2
  9
$DIMTDEC
 70
     2
  9
$DIMALTU
 70
     2
  9
$DIMALTTD
 70
     3
  9
$DIMTXSTY
  7
STANDARD
  9
$DIMAUNIT
 70
     0
  9
$DIMADEC
 70
     1
  9
$DIMALTRND
 40
0.0
  9
$DIMAZIN
 70
     2
  9
$DIMDSEP
 70
    46
  9
$DIMATFIT
 70
     0
  9
$DIMFRAC
 70
     0
  9
$DIMLDRBLK
  1
Open30
  9
$DIMLUNIT
 70
     2
  9
$DIMLWD
 70
    -2
  9
$DIMLWE
 70
    -2
  9
$DIMTMOVE
 70
     0
  9
$LUNITS
 70
     2
  9
$LUPREC
 70
     4
  9
$SKETCHINC
 40
0.1
  9
$FILLETRAD
 40
0.0
  9
$AUNITS
 70
     0
  9
$AUPREC
 70
     0
  9
$MENU
  1
.
  9
$ELEVATION
 40
0.0
  9
$PELEVATION
 40
0.0
  9
$THICKNESS
 40
0.0
  9
$LIMCHECK
 70
     0
  9
$CHAMFERA
 40
0.5
  9
$CHAMFERB
 40
0.5
  9
$CHAMFERC
 40
0.0
  9
$CHAMFERD
 40
0.0
  9
$SKPOLY
 70
     0
  9
$TDCREATE
 40
2455442.601448206
  9
$TDUCREATE
 40
2455442.226448206
  9
$TDUPDATE
 40
2458311.813142998
  9
$TDUUPDATE
 40
2458311.438142998
  9
$TDINDWG
 40
1.2014501505
  9
$TDUSRTIMER
 40
1.2014356713
  9
$USRTIMER
 70
     1
  9
$ANGBASE
 50
0.0
  9
$ANGDIR
 70
     0
  9
$PDMODE
 70
     0
  9
$PDSIZE
 40
0.0
  9
$PLINEWID
 40
0.0
  9
$SPLFRAME
 70
     0
  9
$SPLINETYPE
 70
     6
  9
$SPLINESEGS
 70
     8
  9
$HANDSEED
  5
2F19
  9
$SURFTAB1
 70
     6
  9
$SURFTAB2
 70
     6
  9
$SURFTYPE
 70
     6
  9
$SURFU
 70
     6
  9
$SURFV
 70
     6
  9
$UCSBASE
  2

  9
$UCSNAME
  2

  9
$UCSORG
 10
0.0
 20
0.0
 30
0.0
  9
$UCSXDIR
 10
1.0
 20
0.0
 30
0.0
  9
$UCSYDIR
 10
0.0
 20
1.0
 30
0.0
  9
$UCSORTHOREF
  2

  9
$UCSORTHOVIEW
 70
     0
  9
$UCSORGTOP
 10
0.0
 20
0.0
 30
0.0
  9
$UCSORGBOTTOM
 10
0.0
 20
0.0
 30
0.0
  9
$UCSORGLEFT
 10
0.0
 20
0.0
 30
0.0
  9
$UCSORGRIGHT
 10
0.0
 20
0.0
 30
0.0
  9
$UCSORGFRONT
 10
0.0
 20
0.0
 30
0.0
  9
$UCSORGBACK
 10
0.0
 20
0.0
 30
0.0
  9
$PUCSBASE
  2

  9
$PUCSNAME
  2

  9
$PUCSORG
 10
0.0
 20
0.0
 30
0.0
  9
$PUCSXDIR
 10
1.0
 20
0.0
 30
0.0
  9
$PUCSYDIR
 10
0.0
 20
1.0
 30
0.0
  9
$PUCSORTHOREF
  2

  9
$PUCSORTHOVIEW
 70
     0
  9
$PUCSORGTOP
 10
0.0
 20
0.0
 30
0.0
  9
$PUCSORGBOTTOM
 10
0.0
 20
0.0
 30
0.0
  9
$PUCSORGLEFT
 10
0.0
 20
0.0
 30
0.0
  9
$PUCSORGRIGHT
 10
0.0
 20
0.0
 30
0.0
  9
$PUCSORGFRONT
 10
0.0
 20
0.0
 30
0.0
  9
$PUCSORGBACK
 10
0.0
 20
0.0
 30
0.0
  9
$USERI1
 70
     0
  9
$USERI2
 70
     0
  9
$USERI3
 70
     0
  9
$USERI4
 70
     0
  9
$USERI5
 70
     0
  9
$USERR1
 40
0.0
  9
$USERR2
 40
0.0
  9
$USERR3
 40
0.0
  9
$USERR4
 40
0.0
  9
$USERR5
 40
0.0
  9
$WORLDVIEW
 70
     1
  9
$SHADEDGE
 70
     3
  9
$SHADEDIF
 70
    70
  9
$TILEMODE
 70
     1
  9
$MAXACTVP
 70
    64
  9
$PINSBASE
 10
0.0
 20
0.0
 30
0.0
  9
$PLIMCHECK
 70
     0
  9
$PEXTMIN
 10
1.000000000000000E+20
 20
1.000000000000000E+20
 30
1.000000000000000E+20
  9
$PEXTMAX
 10
-1.000000000000000E+20
 20
-1.000000000000000E+20
 30
-1.000000000000000E+20
  9
$PLIMMIN
 10
0.0
 20
0.0
  9
$PLIMMAX
 10
12.0
 20
9.0
  9
$UNITMODE
 70
     0
  9
$VISRETAIN
 70
     1
  9
$PLINEGEN
 70
     0
  9
$PSLTSCALE
 70
     1
  9
$TREEDEPTH
 70
  3020
  9
$CMLSTYLE
  2
Standard
  9
$CMLJUST
 70
     0
  9
$CMLSCALE
 40
1.0
  9
$PROXYGRAPHICS
 70
     1
  9
$MEASUREMENT
 70
     0
  9
$CELWEIGHT
370
    -1
  9
$ENDCAPS
280
     0
  9
$JOINSTYLE
280
     0
  9
$LWDISPLAY
290
     0
  9
$INSUNITS
 70
     0
  9
$HYPERLINKBASE
  1

  9
$STYLESHEET
  1
N-PLOT.CTB
  9
$XEDIT
290
     1
  9
$CEPSNTYPE
380
     0
  9
$PSTYLEMODE
290
     1
  9
$FINGERPRINTGUID
  2
{A40AFDDE-27A6-4300-BB85-D69376388927}
  9
$VERSIONGUID
  2
{9224070D-70D8-49EB-8B93-3E5E0FC196C4}
  9
$EXTNAMES
290
     1
  9
$PSVPSCALE
 40
0.0
  9
$OLESTARTUP
290
     0
  0
ENDSEC
  0
SECTION
  2
CLASSES
  0
CLASS
  1
ACDBDICTIONARYWDFLT
  2
AcDbDictionaryWithDefault
  3
ObjectDBX Classes
 90
        0
280
     0
281
     0
  0
CLASS
  1
MATERIAL
  2
AcDbMaterial
  3
ObjectDBX Classes
 90
     1153
280
     0
281
     0
  0
CLASS
  1
VISUALSTYLE
  2
AcDbVisualStyle
  3
ObjectDBX Classes
 90
     4095
280
     0
281
     0
  0
CLASS
  1
TABLESTYLE
  2
AcDbTableStyle
  3
ObjectDBX Classes
 90
     4095
280
     0
281
     0
  0
CLASS
  1
DICTIONARYVAR
  2
AcDbDictionaryVar
  3
ObjectDBX Classes
 90
        0
280
     0
281
     0
  0
CLASS
  1
ACDBPLACEHOLDER
  2
AcDbPlaceHolder
  3
ObjectDBX Classes
 90
        0
280
     0
281
     0
  0
CLASS
  1
LAYOUT
  2
AcDbLayout
  3
ObjectDBX Classes
 90
        0
280
     0
281
     0
  0
CLASS
  1
SORTENTSTABLE
  2
AcDbSortentsTable
  3
ObjectDBX Classes
 90
        0
280
     0
281
     0
  0
CLASS
  1
SCALE
  2
AcDbScale
  3
ObjectDBX Classes
 90
     1153
280
     0
281
     0
  0
CLASS
  1
MLEADERSTYLE
  2
AcDbMLeaderStyle
  3
ACDB_MLEADERSTYLE_CLASS
 90
     4095
280
     0
281
     0
  0
CLASS
  1
CELLSTYLEMAP
  2
AcDbCellStyleMap
  3
ObjectDBX Classes
 90
     1152
280
     0
281
     0
  0
CLASS
  1
AEC_REFEDIT_STATUS_TRACKER
  2
AecDbRefEditStatusTracker
  3
AecArchBase60|Product Desc: Autodesk Architectural Desktop 2007 |Company: Autodesk,Inc. |WEB Address: www.autodesk.com
 90
      129
280
     0
281
     0
  0
CLASS
  1
NPOCOLLECTION
  2
AcDbImpNonPersistentObjectsCollection
  3
ObjectDBX Classes
 90
     1153
280
     0
281
     0
  0
ENDSEC
  0
SECTION
  2
TABLES
  0
TABLE
  2
VPORT
  5
8
330
0
100
AcDbSymbolTable
 70
     1
  0
VPORT
  5
56
330
8
100
AcDbSymbolTableRecord
100
AcDbViewportTableRecord
  2
*Active
 70
     0
 10
0.0
 20
0.0
 11
1.0
 21
1.0
 12
219.8266045401756
 22
37.34653784286326
 13
0.0
 23
0.0
 14
1.0
 24
1.0
 15
0.0
 25
0.0
 16
0.0
 26
0.0
 36
1.0
 17
0.0
 27
0.0
 37
0.0
 40
567.7491459221616
 41
1.994811932555123
 42
50.0
 43
0.0
 44
0.0
 50
0.0
 51
0.0
 71
     0
 72
  1000
 73
     1
 74
     1
 75
     0
 76
     0
 77
     0
 78
     0
281
     0
 65
     1
110
0.0
120
0.0
130
0.0
111
1.0
121
0.0
131
0.0
112
0.0
122
1.0
132
0.0
 79
     0
146
0.0
  0
ENDTAB
  0
TABLE
  2
LTYPE
  5
5
330
0
100
AcDbSymbolTable
 70
     3
  0
LTYPE
  5
28
330
5
100
AcDbSymbolTableRecord
100
AcDbLinetypeTableRecord
  2
ByBlock
 70
     0
  3

 72
    65
 73
     0
 40
0.0
  0
LTYPE
  5
29
330
5
100
AcDbSymbolTableRecord
100
AcDbLinetypeTableRecord
  2
ByLayer
 70
     0
  3

 72
    65
 73
     0
 40
0.0
  0
LTYPE
  5
2A
330
5
100
AcDbSymbolTableRecord
100
AcDbLinetypeTableRecord
  2
CONTINUOUS
 70
     0
  3
Solid-line
 72
    65
 73
     0
 40
0.0
  0
LTYPE
  5
1582
330
5
100
AcDbSymbolTableRecord
100
AcDbLinetypeTableRecord
  2
CENTER
 70
     0
  3
Center ____ _ ____ _ ____ _ ____ _ ____ _ ____
 72
    65
 73
     4
 40
2.0
 49
1.25
 74
     0
 49
-0.25
 74
     0
 49
0.25
 74
     0
 49
-0.25
 74
     0
  0
ENDTAB
  0
TABLE
  2
LAYER
  5
2
102
{ACAD_XDICTIONARY
360
2FE
102
}
330
0
100
AcDbSymbolTable
 70
     2
  0
LAYER
  5
25
102
{ACAD_XDICTIONARY
360
DA4
102
}
330
2
100
AcDbSymbolTableRecord
100
AcDbLayerTableRecord
  2
0
 70
     0
 62
     7
  6
CONTINUOUS
370
    -3
390
F
  0
LAYER
  5
2FA
330
2
100
AcDbSymbolTableRecord
100
AcDbLayerTableRecord
  2
Defpoints
 70
     0
 62
     7
  6
CONTINUOUS
290
     0
370
    -3
390
F
  0
ENDTAB
  0
TABLE
  2
STYLE
  5
3
330
0
100
AcDbSymbolTable
 70
     7
  0
STYLE
  5
26
330
3
100
AcDbSymbolTableRecord
100
AcDbTextStyleTableRecord
  2
STANDARD
 70
     0
 40
0.0
 41
1.0
 50
0.0
 71
     0
 42
0.2
  3
TXT
  4
BIGFONT
  0
STYLE
  5
9E3
330
3
100
AcDbSymbolTableRecord
100
AcDbTextStyleTableRecord
  2
高3.2
 70
     0
 40
3.2
 41
1.0
 50
0.0
 71
     0
 42
3.2
  3
txt.shx
  4
bigfont.shx
  0
STYLE
  5
9E4
330
3
100
AcDbSymbolTableRecord
100
AcDbTextStyleTableRecord
  2
高6.3
 70
     0
 40
6.299999999999998
 41
1.0
 50
0.0
 71
     0
 42
6.299999999999998
  3
txt.shx
  4
bigfont.shx
  0
STYLE
  5
9E5
330
3
100
AcDbSymbolTableRecord
100
AcDbTextStyleTableRecord
  2
高2.5
 70
     0
 40
2.5
 41
1.0
 50
0.0
 71
     0
 42
0.2
  3
txt.shx
  4
bigfont.shx
  0
STYLE
  5
9E6
330
3
100
AcDbSymbolTableRecord
100
AcDbTextStyleTableRecord
  2
高4.5
 70
     0
 40
4.5
 41
1.0
 50
0.0
 71
     0
 42
6.299999999999998
  3
txt.shx
  4
bigfont.shx
  0
STYLE
  5
9E7
330
3
100
AcDbSymbolTableRecord
100
AcDbTextStyleTableRecord
  2
高2
 70
     0
 40
2.0
 41
1.0
 50
0.0
 71
     0
 42
6.299999999999998
  3
txt.shx
  4
bigfont.shx
  0
STYLE
  5
1581
330
3
100
AcDbSymbolTableRecord
100
AcDbTextStyleTableRecord
  2

 70
     1
 40
0.0
 41
1.0
 50
0.0
 71
     0
 42
3.2
  3
ltypeshp.shx
  4

  0
ENDTAB
  0
TABLE
  2
VIEW
  5
6
330
0
100
AcDbSymbolTable
 70
     0
  0
ENDTAB
  0
TABLE
  2
UCS
  5
7
330
0
100
AcDbSymbolTable
 70
     0
  0
ENDTAB
  0
TABLE
  2
APPID
  5
9
330
0
100
AcDbSymbolTable
 70
    10
  0
APPID
  5
27
330
9
100
AcDbSymbolTableRecord
100
AcDbRegAppTableRecord
  2
ACAD
 70
     0
  0
APPID
  5
2FC
330
9
100
AcDbSymbolTableRecord
100
AcDbRegAppTableRecord
  2
ACAD_DSTYLE_DIMJOGGED_JOGANGLE_SYMBOL
 70
     0
  0
APPID
  5
2FD
330
9
100
AcDbSymbolTableRecord
100
AcDbRegAppTableRecord
  2
ACAD_PSEXT
 70
     0
  0
APPID
  5
529
330
9
100
AcDbSymbolTableRecord
100
AcDbRegAppTableRecord
  2
ACAD_EXEMPT_FROM_CAD_STANDARDS
 70
     0
  0
APPID
  5
796
330
9
100
AcDbSymbolTableRecord
100
AcDbRegAppTableRecord
  2
ACAD_DSTYLE_DIMARC_LENGTH_SYMBOL
 70
     0
  0
APPID
  5
797
330
9
100
AcDbSymbolTableRecord
100
AcDbRegAppTableRecord
  2
ACAD_DSTYLE_DIMEXT_LENGTH
 70
     0
  0
APPID
  5
C84
330
9
100
AcDbSymbolTableRecord
100
AcDbRegAppTableRecord
  2
ACAD_DSTYLE_DIMJAG
 70
     0
  0
APPID
  5
C85
330
9
100
AcDbSymbolTableRecord
100
AcDbRegAppTableRecord
  2
ACAD_DSTYLE_DIMBREAK
 70
     0
  0
APPID
  5
C86
330
9
100
AcDbSymbolTableRecord
100
AcDbRegAppTableRecord
  2
ACAD_DSTYLE_DIMTALN
 70
     0
  0
APPID
  5
DEC
330
9
100
AcDbSymbolTableRecord
100
AcDbRegAppTableRecord
  2
ACAD_MLEADERVER
 70
     0
  0
ENDTAB
  0
TABLE
  2
DIMSTYLE
  5
A
330
0
100
AcDbSymbolTable
 70
    11
100
AcDbDimStyleTable
 71
     3
340
16D9
340
2FB
340
2BB
  0
DIMSTYLE
105
2BB
330
A
100
AcDbSymbolTableRecord
100
AcDbDimStyleTableRecord
  2
Standard
 70
     0
340
26
  0
DIMSTYLE
105
2FB
330
A
100
AcDbSymbolTableRecord
100
AcDbDimStyleTableRecord
  2
1／2
 70
     0
 41
2.5
 42
0.25
 43
0.2
 44
1.25
 73
     0
 74
     0
 77
     3
 78
     8
 79
     2
140
3.0
141
0.0
143
0.03937007874016
144
2.0
147
0.625
171
     3
172
     1
178
     4
179
     1
271
     2
272
     2
274
     3
283
     0
284
     8
288
     1
289
     0
340
26
341
2DA
342
2DA
1001
ACAD_DSTYLE_DIMARC_LENGTH_SYMBOL
1070
   379
1070
     2
1001
ACAD_DSTYLE_DIMEXT_LENGTH
1070
   378
1040
1.25
1001
ACAD_DSTYLE_DIMJOGGED_JOGANGLE_SYMBOL
1070
   384
1040
1.570796326794896
  0
DIMSTYLE
105
16D9
330
A
100
AcDbSymbolTableRecord
100
AcDbDimStyleTableRecord
  2
1：1
 70
     0
 41
2.5
 42
0.25
 43
0.2
 44
1.25
 73
     0
 74
     0
 77
     3
 78
     8
 79
     2
140
3.0
141
0.0
143
0.03937007874016
147
0.625
171
     3
172
     1
178
     4
179
     1
271
     2
272
     2
274
     3
283
     0
284
     8
288
     1
289
     0
340
26
341
2DA
342
2DA
1001
ACAD_DSTYLE_DIMARC_LENGTH_SYMBOL
1070
   379
1070
     2
1001
ACAD_DSTYLE_DIMEXT_LENGTH
1070
   378
1040
1.25
1001
ACAD_DSTYLE_DIMJOGGED_JOGANGLE_SYMBOL
1070
   384
1040
1.570796326794896
  0
DIMSTYLE
105
16DA
330
A
100
AcDbSymbolTableRecord
100
AcDbDimStyleTableRecord
  2
2：1
 70
     0
 41
2.5
 42
0.25
 43
0.2
 44
1.25
 73
     0
 74
     0
 77
     3
 78
     8
 79
     2
140
3.0
141
0.0
143
0.03937007874016
144
0.5
147
0.625
171
     3
172
     1
178
     4
179
     1
271
     2
272
     2
274
     3
283
     0
284
     8
288
     1
289
     0
340
26
341
2DA
342
2DA
1001
ACAD_DSTYLE_DIMARC_LENGTH_SYMBOL
1070
   379
1070
     2
1001
ACAD_DSTYLE_DIMEXT_LENGTH
1070
   378
1040
1.25
1001
ACAD_DSTYLE_DIMJOGGED_JOGANGLE_SYMBOL
1070
   384
1040
1.570796326794896
  0
DIMSTYLE
105
16DB
330
A
100
AcDbSymbolTableRecord
100
AcDbDimStyleTableRecord
  2
5：1
 70
     0
 41
2.5
 42
0.25
 43
0.2
 44
1.25
 73
     0
 74
     0
 77
     3
 78
     8
 79
     2
140
3.0
141
0.0
143
0.03937007874016
144
0.2
147
0.625
171
     3
172
     1
178
     4
179
     1
271
     2
272
     2
274
     3
283
     0
284
     8
288
     1
289
     0
340
26
341
2DA
342
2DA
1001
ACAD_DSTYLE_DIMARC_LENGTH_SYMBOL
1070
   379
1070
     2
1001
ACAD_DSTYLE_DIMEXT_LENGTH
1070
   378
1040
1.25
1001
ACAD_DSTYLE_DIMJOGGED_JOGANGLE_SYMBOL
1070
   384
1040
1.570796326794896
  0
DIMSTYLE
105
16DC
330
A
100
AcDbSymbolTableRecord
100
AcDbDimStyleTableRecord
  2
10：1
 70
     0
 41
2.5
 42
0.25
 43
0.2
 44
1.25
 73
     0
 74
     0
 77
     3
 78
     8
 79
     2
140
3.0
141
0.0
143
0.03937007874016
144
0.1
147
0.625
171
     3
172
     1
178
     4
179
     1
271
     2
272
     2
274
     3
283
     0
284
     8
288
     1
289
     0
340
26
341
2DA
342
2DA
1001
ACAD_DSTYLE_DIMARC_LENGTH_SYMBOL
1070
   379
1070
     2
1001
ACAD_DSTYLE_DIMEXT_LENGTH
1070
   378
1040
1.25
1001
ACAD_DSTYLE_DIMJOGGED_JOGANGLE_SYMBOL
1070
   384
1040
1.570796326794896
  0
DIMSTYLE
105
16DD
330
A
100
AcDbSymbolTableRecord
100
AcDbDimStyleTableRecord
  2
1／5
 70
     0
 41
2.5
 42
0.25
 43
0.2
 44
1.25
 73
     0
 74
     0
 77
     3
 78
     8
 79
     2
140
3.0
141
0.0
143
0.03937007874016
144
5.0
147
0.625
171
     3
172
     1
178
     4
179
     1
271
     2
272
     2
274
     3
283
     0
284
     8
288
     1
289
     0
340
26
341
2DA
342
2DA
1001
ACAD_DSTYLE_DIMARC_LENGTH_SYMBOL
1070
   379
1070
     2
1001
ACAD_DSTYLE_DIMEXT_LENGTH
1070
   378
1040
1.25
1001
ACAD_DSTYLE_DIMJOGGED_JOGANGLE_SYMBOL
1070
   384
1040
1.570796326794896
  0
DIMSTYLE
105
16DE
330
A
100
AcDbSymbolTableRecord
100
AcDbDimStyleTableRecord
  2
1／10
 70
     0
 41
2.5
 42
0.25
 43
0.2
 44
1.25
 73
     0
 74
     0
 77
     3
 78
     8
 79
     2
140
3.0
141
0.0
143
0.03937007874016
144
10.0
147
0.625
171
     3
172
     1
178
     4
179
     1
271
     2
272
     2
274
     3
283
     0
284
     8
288
     1
289
     0
340
26
341
2DA
342
2DA
1001
ACAD_DSTYLE_DIMARC_LENGTH_SYMBOL
1070
   379
1070
     2
1001
ACAD_DSTYLE_DIMEXT_LENGTH
1070
   378
1040
1.25
1001
ACAD_DSTYLE_DIMJOGGED_JOGANGLE_SYMBOL
1070
   384
1040
1.570796326794896
  0
DIMSTYLE
105
16DF
330
A
100
AcDbSymbolTableRecord
100
AcDbDimStyleTableRecord
  2
1／4
 70
     0
 41
2.5
 42
0.25
 43
0.2
 44
1.25
 73
     0
 74
     0
 77
     3
 78
     8
 79
     2
140
3.0
141
0.0
143
0.03937007874016
144
4.0
147
0.625
171
     3
172
     1
178
     4
179
     1
271
     2
272
     2
274
     3
283
     0
284
     8
288
     1
289
     0
340
26
341
2DA
342
2DA
1001
ACAD_DSTYLE_DIMARC_LENGTH_SYMBOL
1070
   379
1070
     2
1001
ACAD_DSTYLE_DIMEXT_LENGTH
1070
   378
1040
1.25
1001
ACAD_DSTYLE_DIMJOGGED_JOGANGLE_SYMBOL
1070
   384
1040
1.570796326794896
  0
DIMSTYLE
105
16E0
330
A
100
AcDbSymbolTableRecord
100
AcDbDimStyleTableRecord
  2
1／3
 70
     0
 41
2.5
 42
0.25
 43
0.2
 44
1.25
 73
     0
 74
     0
 77
     3
 78
     8
 79
     2
140
3.0
141
0.0
143
0.03937007874016
144
3.0
147
0.625
171
     3
172
     1
178
     4
179
     1
271
     2
272
     2
274
     3
283
     0
284
     8
288
     1
289
     0
340
26
341
2DA
342
2DA
1001
ACAD_DSTYLE_DIMARC_LENGTH_SYMBOL
1070
   379
1070
     2
1001
ACAD_DSTYLE_DIMEXT_LENGTH
1070
   378
1040
1.25
1001
ACAD_DSTYLE_DIMJOGGED_JOGANGLE_SYMBOL
1070
   384
1040
1.570796326794896
  0
DIMSTYLE
105
16E1
330
A
100
AcDbSymbolTableRecord
100
AcDbDimStyleTableRecord
  2
FREE
 70
     0
 41
2.5
 42
0.25
 43
0.2
 44
1.25
 73
     0
 74
     0
 77
     3
 78
     8
 79
     2
140
3.0
141
0.0
143
0.03937007874016
147
0.625
171
     3
172
     1
178
     4
179
     1
271
     2
272
     2
274
     3
283
     0
284
     8
288
     1
289
     0
340
26
341
2DA
342
2DA
1001
ACAD_DSTYLE_DIMBREAK
1070
   391
1040
3.75
1001
ACAD_DSTYLE_DIMJAG
1070
   388
1040
1.5
1001
ACAD_DSTYLE_DIMTALN
1070
   392
1070
     0
1001
ACAD_DSTYLE_DIMARC_LENGTH_SYMBOL
1070
   379
1070
     2
1001
ACAD_DSTYLE_DIMEXT_LENGTH
1070
   378
1040
1.25
1001
ACAD_DSTYLE_DIMJOGGED_JOGANGLE_SYMBOL
1070
   384
1040
1.570796326794896
  0
ENDTAB
  0
TABLE
  2
BLOCK_RECORD
  5
1
330
0
100
AcDbSymbolTable
 70
    36
  0
BLOCK_RECORD
  5
36
102
{ACAD_XDICTIONARY
360
5D9
102
}
330
1
100
AcDbSymbolTableRecord
100
AcDbBlockTableRecord
  2
*Model_Space
340
39
  0
BLOCK_RECORD
  5
32
330
1
100
AcDbSymbolTableRecord
100
AcDbBlockTableRecord
  2
*Paper_Space
340
35
  0
BLOCK_RECORD
  5
2DA
330
1
100
AcDbSymbolTableRecord
100
AcDbBlockTableRecord
  2
_Open30
340
0
102
{BLKREFS
331
1665
331
1672
331
1673
331
1680
331
1681
331
168E
331
168F
331
169C
331
169D
331
16AA
331
16AB
331
16B8
331
16B9
331
16C6
331
16C7
331
16D2
331
16D3
331
1656
331
1657
331
1664
331
18E7
331
18E8
331
18F2
331
18F3
331
18FD
331
18FE
331
1908
331
1909
331
1913
331
1914
331
191E
331
191F
331
1929
331
192A
331
1934
331
1935
331
193F
331
1940
331
1948
331
1949
331
1DC0
331
1DC1
331
25FB
331
25FC
331
2604
331
2605
331
260D
331
260E
331
2616
331
2617
331
261F
331
2620
331
262A
331
262B
331
2635
331
2636
331
2D05
331
2D06
331
2D0E
331
2D0F
331
2D17
331
2D18
331
2D20
331
2D21
331
2D29
331
2D2A
331
2D34
331
2D35
331
2D3F
331
2D40
102
}
  0
BLOCK_RECORD
  5
FC6
330
1
100
AcDbSymbolTableRecord
100
AcDbBlockTableRecord
  2
*D1
340
0
  0
BLOCK_RECORD
  5
FDC
330
1
100
AcDbSymbolTableRecord
100
AcDbBlockTableRecord
  2
*D2
340
0
  0
BLOCK_RECORD
  5
1010
330
1
100
AcDbSymbolTableRecord
100
AcDbBlockTableRecord
  2
*D3
340
0
  0
BLOCK_RECORD
  5
101D
330
1
100
AcDbSymbolTableRecord
100
AcDbBlockTableRecord
  2
*D4
340
0
  0
BLOCK_RECORD
  5
102A
330
1
100
AcDbSymbolTableRecord
100
AcDbBlockTableRecord
  2
*D5
340
0
  0
BLOCK_RECORD
  5
1100
330
1
100
AcDbSymbolTableRecord
100
AcDbBlockTableRecord
  2
*D6
340
0
  0
BLOCK_RECORD
  5
110F
330
1
100
AcDbSymbolTableRecord
100
AcDbBlockTableRecord
  2
*D7
340
0
  0
BLOCK_RECORD
  5
164F
330
1
100
AcDbSymbolTableRecord
100
AcDbBlockTableRecord
  2
*D8
340
0
  0
BLOCK_RECORD
  5
165D
330
1
100
AcDbSymbolTableRecord
100
AcDbBlockTableRecord
  2
*D9
340
0
  0
BLOCK_RECORD
  5
166B
330
1
100
AcDbSymbolTableRecord
100
AcDbBlockTableRecord
  2
*D10
340
0
  0
BLOCK_RECORD
  5
1679
330
1
100
AcDbSymbolTableRecord
100
AcDbBlockTableRecord
  2
*D11
340
0
  0
BLOCK_RECORD
  5
1687
330
1
100
AcDbSymbolTableRecord
100
AcDbBlockTableRecord
  2
*D12
340
0
  0
BLOCK_RECORD
  5
1695
330
1
100
AcDbSymbolTableRecord
100
AcDbBlockTableRecord
  2
*D13
340
0
  0
BLOCK_RECORD
  5
16A3
330
1
100
AcDbSymbolTableRecord
100
AcDbBlockTableRecord
  2
*D14
340
0
  0
BLOCK_RECORD
  5
16B1
330
1
100
AcDbSymbolTableRecord
100
AcDbBlockTableRecord
  2
*D15
340
0
  0
BLOCK_RECORD
  5
16BF
330
1
100
AcDbSymbolTableRecord
100
AcDbBlockTableRecord
  2
*D16
340
0
  0
BLOCK_RECORD
  5
16CD
330
1
100
AcDbSymbolTableRecord
100
AcDbBlockTableRecord
  2
*D17
340
0
  0
BLOCK_RECORD
  5
1858
330
1
100
AcDbSymbolTableRecord
100
AcDbBlockTableRecord
  2
*D18
340
0
  0
BLOCK_RECORD
  5
1866
330
1
100
AcDbSymbolTableRecord
100
AcDbBlockTableRecord
  2
*D19
340
0
  0
BLOCK_RECORD
  5
1874
330
1
100
AcDbSymbolTableRecord
100
AcDbBlockTableRecord
  2
*D20
340
0
  0
BLOCK_RECORD
  5
1882
330
1
100
AcDbSymbolTableRecord
100
AcDbBlockTableRecord
  2
*D21
340
0
  0
BLOCK_RECORD
  5
1890
330
1
100
AcDbSymbolTableRecord
100
AcDbBlockTableRecord
  2
*D22
340
0
  0
BLOCK_RECORD
  5
189E
330
1
100
AcDbSymbolTableRecord
100
AcDbBlockTableRecord
  2
*D23
340
0
  0
BLOCK_RECORD
  5
18AC
330
1
100
AcDbSymbolTableRecord
100
AcDbBlockTableRecord
  2
*D24
340
0
  0
BLOCK_RECORD
  5
18BA
330
1
100
AcDbSymbolTableRecord
100
AcDbBlockTableRecord
  2
*D25
340
0
  0
BLOCK_RECORD
  5
18C8
330
1
100
AcDbSymbolTableRecord
100
AcDbBlockTableRecord
  2
*D26
340
0
  0
BLOCK_RECORD
  5
18D6
330
1
100
AcDbSymbolTableRecord
100
AcDbBlockTableRecord
  2
*D27
340
0
  0
BLOCK_RECORD
  5
1DB1
330
1
100
AcDbSymbolTableRecord
100
AcDbBlockTableRecord
  2
*D28
340
0
  0
BLOCK_RECORD
  5
1F2A
330
1
100
AcDbSymbolTableRecord
100
AcDbBlockTableRecord
  2
*D29
340
0
  0
BLOCK_RECORD
  5
1F37
330
1
100
AcDbSymbolTableRecord
100
AcDbBlockTableRecord
  2
*D30
340
0
  0
BLOCK_RECORD
  5
1F4D
330
1
100
AcDbSymbolTableRecord
100
AcDbBlockTableRecord
  2
*D31
340
0
  0
BLOCK_RECORD
  5
1F6C
330
1
100
AcDbSymbolTableRecord
100
AcDbBlockTableRecord
  2
*D32
340
0
  0
BLOCK_RECORD
  5
1F83
330
1
100
AcDbSymbolTableRecord
100
AcDbBlockTableRecord
  2
*D33
340
0
  0
BLOCK_RECORD
  5
1FBD
330
1
100
AcDbSymbolTableRecord
100
AcDbBlockTableRecord
  2
*D34
340
0
  0
BLOCK_RECORD
  5
1FD0
330
1
100
AcDbSymbolTableRecord
100
AcDbBlockTableRecord
  2
*D35
340
0
  0
ENDTAB
  0
ENDSEC
  0
SECTION
  2
BLOCKS
  0
BLOCK
  5
37
330
36
100
AcDbEntity
  8
0
100
AcDbBlockBegin
  2
*Model_Space
 70
     0
 10
0.0
 20
0.0
 30
0.0
  3
*Model_Space
  1

  0
ENDBLK
  5
38
330
36
100
AcDbEntity
  8
0
100
AcDbBlockEnd
  0
BLOCK
  5
33
330
32
100
AcDbEntity
 67
     1
  8
0
100
AcDbBlockBegin
  2
*Paper_Space
 70
     0
 10
0.0
 20
0.0
 30
0.0
  3
*Paper_Space
  1

  0
ENDBLK
  5
34
330
32
100
AcDbEntity
 67
     1
  8
0
100
AcDbBlockEnd
  0
BLOCK
  5
2DB
330
2DA
100
AcDbEntity
  8
0
100
AcDbBlockBegin
  2
_Open30
 70
     0
 10
0.0
 20
0.0
 30
0.0
  3
_Open30
  1

  0
LINE
  5
2DC
330
2DA
100
AcDbEntity
  8
0
  6
ByBlock
 62
     0
370
    -2
100
AcDbLine
 10
-1.0
 20
0.267949
 30
0.0
 11
0.0
 21
0.0
 31
0.0
  0
LINE
  5
2DD
330
2DA
100
AcDbEntity
  8
0
  6
ByBlock
 62
     0
370
    -2
100
AcDbLine
 10
0.0
 20
0.0
 30
0.0
 11
-1.0
 21
-0.267949
 31
0.0
  0
LINE
  5
2DE
330
2DA
100
AcDbEntity
  8
0
  6
ByBlock
 62
     0
370
    -2
100
AcDbLine
 10
0.0
 20
0.0
 30
0.0
 11
-1.0
 21
0.0
 31
0.0
  0
ENDBLK
  5
2DF
330
2DA
100
AcDbEntity
  8
0
100
AcDbBlockEnd
  0
BLOCK
  5
FC7
330
FC6
100
AcDbEntity
  8
0
100
AcDbBlockBegin
  2
*D1
 70
     1
 10
0.0
 20
0.0
 30
0.0
  3
*D1
  1

  0
LINE
  5
25F8
330
FC6
100
AcDbEntity
  8
0
  6
Continuous
 62
     0
370
    -2
100
AcDbLine
 10
35.1164283769142
 20
239.6305072617532
 30
0.0
 11
35.1164283769142
 21
260.0446128077956
 31
0.0
  0
LINE
  5
25F9
330
FC6
100
AcDbEntity
  8
0
  6
Continuous
 62
     0
370
    -2
100
AcDbLine
 10
-78.93161670140376
 20
239.6305072617527
 30
0.0
 11
-78.93161670140376
 21
260.0446128077956
 31
0.0
  0
LINE
  5
25FA
330
FC6
100
AcDbEntity
  8
0
  6
Continuous
 62
     0
370
    -2
100
AcDbLine
 10
32.6164283769142
 20
258.7946128077956
 30
0.0
 11
-76.43161670140376
 21
258.7946128077956
 31
0.0
  0
INSERT
  5
25FB
330
FC6
100
AcDbEntity
  8
0
  6
Continuous
 62
     0
370
    -2
100
AcDbBlockReference
  2
_Open30
 10
35.1164283769142
 20
258.7946128077956
 30
0.0
 41
2.5
 42
2.5
 43
2.5
  0
INSERT
  5
25FC
330
FC6
100
AcDbEntity
  8
0
  6
Continuous
 62
     0
370
    -2
100
AcDbBlockReference
  2
_Open30
 10
-78.93161670140376
 20
258.7946128077956
 30
0.0
 41
2.5
 42
2.5
 43
2.5
 50
180.0
  0
MTEXT
  5
25FD
330
FC6
100
AcDbEntity
  8
0
  6
Continuous
 62
     4
100
AcDbMText
 10
-24.64414001749503
 20
260.9196128077956
 30
0.0
 40
3.0
 41
0.0
 71
     5
 72
     1
  1
1198
 73
     1
 44
1.0
1001
ACAD
1000
MTEXTBEGIN
1070
    73
1070
     1
1070
    44
1040
1.0
1070
    74
1070
     0
1000
MTEXTEND
  0
POINT
  5
25FE
330
FC6
100
AcDbEntity
  8
Defpoints
  6
Continuous
 62
     0
100
AcDbPoint
 10
35.1164283769142
 20
239.3805072617532
 30
0.0
  0
POINT
  5
25FF
330
FC6
100
AcDbEntity
  8
Defpoints
  6
Continuous
 62
     0
100
AcDbPoint
 10
-78.93161670140376
 20
239.3805072617527
 30
0.0
  0
POINT
  5
2600
330
FC6
100
AcDbEntity
  8
Defpoints
  6
Continuous
 62
     0
100
AcDbPoint
 10
-78.93161670140376
 20
258.7946128077956
 30
0.0
  0
ENDBLK
  5
FC8
330
FC6
100
AcDbEntity
  8
0
100
AcDbBlockEnd
  0
BLOCK
  5
FDD
330
FDC
100
AcDbEntity
  8
0
100
AcDbBlockBegin
  2
*D2
 70
     1
 10
0.0
 20
0.0
 30
0.0
  3
*D2
  1

  0
LINE
  5
2601
330
FDC
100
AcDbEntity
  8
0
  6
Continuous
 62
     0
370
    -2
100
AcDbLine
 10
38.8664283769142
 20
234.0805072617533
 30
0.0
 11
38.8664283769142
 21
265.4828771916057
 31
0.0
  0
LINE
  5
2602
330
FDC
100
AcDbEntity
  8
0
  6
Continuous
 62
     0
370
    -2
100
AcDbLine
 10
-82.6816167014037
 20
234.0805072617527
 30
0.0
 11
-82.6816167014037
 21
265.4828771916057
 31
0.0
  0
LINE
  5
2603
330
FDC
100
AcDbEntity
  8
0
  6
Continuous
 62
     0
370
    -2
100
AcDbLine
 10
36.3664283769142
 20
264.2328771916057
 30
0.0
 11
-80.1816167014037
 21
264.2328771916057
 31
0.0
  0
INSERT
  5
2604
330
FDC
100
AcDbEntity
  8
0
  6
Continuous
 62
     0
370
    -2
100
AcDbBlockReference
  2
_Open30
 10
38.8664283769142
 20
264.2328771916057
 30
0.0
 41
2.5
 42
2.5
 43
2.5
  0
INSERT
  5
2605
330
FDC
100
AcDbEntity
  8
0
  6
Continuous
 62
     0
370
    -2
100
AcDbBlockReference
  2
_Open30
 10
-82.6816167014037
 20
264.2328771916057
 30
0.0
 41
2.5
 42
2.5
 43
2.5
 50
180.0
  0
MTEXT
  5
2606
330
FDC
100
AcDbEntity
  8
0
  6
Continuous
 62
     4
100
AcDbMText
 10
-24.64414001749503
 20
266.3578771916057
 30
0.0
 40
3.0
 41
0.0
 71
     5
 72
     1
  1
1213
 73
     1
 44
1.0
1001
ACAD
1000
MTEXTBEGIN
1070
    73
1070
     1
1070
    44
1040
1.0
1070
    74
1070
     0
1000
MTEXTEND
  0
POINT
  5
2607
330
FDC
100
AcDbEntity
  8
Defpoints
  6
Continuous
 62
     0
100
AcDbPoint
 10
38.8664283769142
 20
233.8305072617533
 30
0.0
  0
POINT
  5
2608
330
FDC
100
AcDbEntity
  8
Defpoints
  6
Continuous
 62
     0
100
AcDbPoint
 10
-82.6816167014037
 20
233.8305072617527
 30
0.0
  0
POINT
  5
2609
330
FDC
100
AcDbEntity
  8
Defpoints
  6
Continuous
 62
     0
100
AcDbPoint
 10
-82.6816167014037
 20
264.2328771916057
 30
0.0
  0
ENDBLK
  5
FDE
330
FDC
100
AcDbEntity
  8
0
100
AcDbBlockEnd
  0
BLOCK
  5
1011
330
1010
100
AcDbEntity
  8
0
100
AcDbBlockBegin
  2
*D3
 70
     1
 10
0.0
 20
0.0
 30
0.0
  3
*D3
  1

  0
LINE
  5
260A
330
1010
100
AcDbEntity
  8
0
  6
Continuous
 62
     0
370
    -2
100
AcDbLine
 10
72.60803746726195
 20
241.5305072617532
 30
0.0
 11
57.54803024279164
 21
241.5305072617532
 31
0.0
  0
LINE
  5
260B
330
1010
100
AcDbEntity
  8
0
  6
Continuous
 62
     0
370
    -2
100
AcDbLine
 10
72.60803746726195
 20
225.4305072617532
 30
0.0
 11
57.54803024279163
 21
225.4305072617532
 31
0.0
  0
LINE
  5
260C
330
1010
100
AcDbEntity
  8
0
  6
Continuous
 62
     0
370
    -2
100
AcDbLine
 10
58.79803024279163
 20
239.0305072617532
 30
0.0
 11
58.79803024279163
 21
227.9305072617532
 31
0.0
  0
INSERT
  5
260D
330
1010
100
AcDbEntity
  8
0
  6
Continuous
 62
     0
370
    -2
100
AcDbBlockReference
  2
_Open30
 10
58.79803024279164
 20
241.5305072617532
 30
0.0
 41
2.5
 42
2.5
 43
2.5
 50
90.0
  0
INSERT
  5
260E
330
1010
100
AcDbEntity
  8
0
  6
Continuous
 62
     0
370
    -2
100
AcDbBlockReference
  2
_Open30
 10
58.79803024279163
 20
225.4305072617532
 30
0.0
 41
2.5
 42
2.5
 43
2.5
 50
270.0
  0
MTEXT
  5
260F
330
1010
100
AcDbEntity
  8
0
  6
Continuous
 62
     4
100
AcDbMText
 10
56.6730302427916
 20
233.4952296939118
 30
0.0
 40
3.0
 41
0.0
 71
     5
 72
     1
  1
32.2
 11
0.0000000000000001
 21
1.0
 31
0.0
 73
     1
 44
1.0
1001
ACAD
1000
MTEXTBEGIN
1070
    73
1070
     1
1070
    44
1040
1.0
1070
    74
1070
     0
1000
MTEXTEND
  0
POINT
  5
2610
330
1010
100
AcDbEntity
  8
Defpoints
  6
Continuous
 62
     0
100
AcDbPoint
 10
72.85803746726195
 20
241.5305072617532
 30
0.0
  0
POINT
  5
2611
330
1010
100
AcDbEntity
  8
Defpoints
  6
Continuous
 62
     0
100
AcDbPoint
 10
72.85803746726195
 20
225.4305072617532
 30
0.0
  0
POINT
  5
2612
330
1010
100
AcDbEntity
  8
Defpoints
  6
Continuous
 62
     0
100
AcDbPoint
 10
58.79803024279163
 20
225.4305072617532
 30
0.0
  0
ENDBLK
  5
1012
330
1010
100
AcDbEntity
  8
0
100
AcDbBlockEnd
  0
BLOCK
  5
101E
330
101D
100
AcDbEntity
  8
0
100
AcDbBlockBegin
  2
*D4
 70
     1
 10
0.0
 20
0.0
 30
0.0
  3
*D4
  1

  0
LINE
  5
2613
330
101D
100
AcDbEntity
  8
0
  6
Continuous
 62
     0
370
    -2
100
AcDbLine
 10
72.60803746726195
 20
239.3805072617532
 30
0.0
 11
62.35558842760865
 21
239.3805072617532
 31
0.0
  0
LINE
  5
2614
330
101D
100
AcDbEntity
  8
0
  6
Continuous
 62
     0
370
    -2
100
AcDbLine
 10
72.60803746726195
 20
227.5805072617533
 30
0.0
 11
62.35558842760865
 21
227.5805072617533
 31
0.0
  0
LINE
  5
2615
330
101D
100
AcDbEntity
  8
0
  6
Continuous
 62
     0
370
    -2
100
AcDbLine
 10
63.60558842760865
 20
236.8805072617532
 30
0.0
 11
63.60558842760865
 21
230.0805072617533
 31
0.0
  0
INSERT
  5
2616
330
101D
100
AcDbEntity
  8
0
  6
Continuous
 62
     0
370
    -2
100
AcDbBlockReference
  2
_Open30
 10
63.60558842760865
 20
239.3805072617532
 30
0.0
 41
2.5
 42
2.5
 43
2.5
 50
90.0
  0
INSERT
  5
2617
330
101D
100
AcDbEntity
  8
0
  6
Continuous
 62
     0
370
    -2
100
AcDbBlockReference
  2
_Open30
 10
63.60558842760865
 20
227.5805072617533
 30
0.0
 41
2.5
 42
2.5
 43
2.5
 50
270.0
  0
MTEXT
  5
2618
330
101D
100
AcDbEntity
  8
0
  6
Continuous
 62
     4
100
AcDbMText
 10
61.48058842760861
 20
233.8611918657175
 30
0.0
 40
3.0
 41
0.0
 71
     5
 72
     1
  1
23.6
 11
0.0000000000000001
 21
1.0
 31
0.0
 73
     1
 44
1.0
1001
ACAD
1000
MTEXTBEGIN
1070
    73
1070
     1
1070
    44
1040
1.0
1070
    74
1070
     0
1000
MTEXTEND
  0
POINT
  5
2619
330
101D
100
AcDbEntity
  8
Defpoints
  6
Continuous
 62
     0
100
AcDbPoint
 10
72.85803746726195
 20
239.3805072617532
 30
0.0
  0
POINT
  5
261A
330
101D
100
AcDbEntity
  8
Defpoints
  6
Continuous
 62
     0
100
AcDbPoint
 10
72.85803746726195
 20
227.5805072617533
 30
0.0
  0
POINT
  5
261B
330
101D
100
AcDbEntity
  8
Defpoints
  6
Continuous
 62
     0
100
AcDbPoint
 10
63.60558842760865
 20
227.5805072617533
 30
0.0
  0
ENDBLK
  5
101F
330
101D
100
AcDbEntity
  8
0
100
AcDbBlockEnd
  0
BLOCK
  5
102B
330
102A
100
AcDbEntity
  8
0
100
AcDbBlockBegin
  2
*D5
 70
     1
 10
0.0
 20
0.0
 30
0.0
  3
*D5
  1

  0
LINE
  5
261C
330
102A
100
AcDbEntity
  8
0
  6
Continuous
 62
     0
370
    -2
100
AcDbLine
 10
80.00803746726203
 20
235.7305072617533
 30
0.0
 11
80.00803746726203
 21
250.5730959179846
 31
0.0
  0
LINE
  5
261D
330
102A
100
AcDbEntity
  8
0
  6
Continuous
 62
     0
370
    -2
100
AcDbLine
 10
65.70803746726197
 20
235.7305072617533
 30
0.0
 11
65.70803746726197
 21
250.5730959179846
 31
0.0
  0
LINE
  5
261E
330
102A
100
AcDbEntity
  8
0
  6
Continuous
 62
     0
370
    -2
100
AcDbLine
 10
77.50803746726202
 20
249.3230959179846
 30
0.0
 11
68.20803746726197
 21
249.3230959179846
 31
0.0
  0
INSERT
  5
261F
330
102A
100
AcDbEntity
  8
0
  6
Continuous
 62
     0
370
    -2
100
AcDbBlockReference
  2
_Open30
 10
80.00803746726203
 20
249.3230959179846
 30
0.0
 41
2.5
 42
2.5
 43
2.5
  0
INSERT
  5
2620
330
102A
100
AcDbEntity
  8
0
  6
Continuous
 62
     0
370
    -2
100
AcDbBlockReference
  2
_Open30
 10
65.70803746726197
 20
249.3230959179846
 30
0.0
 41
2.5
 42
2.5
 43
2.5
 50
180.0
  0
MTEXT
  5
2621
330
102A
100
AcDbEntity
  8
0
  6
Continuous
 62
     4
100
AcDbMText
 10
73.13767650999285
 20
251.4480959179846
 30
0.0
 40
3.0
 41
0.0
 71
     5
 72
     1
  1
28.6
 73
     1
 44
1.0
1001
ACAD
1000
MTEXTBEGIN
1070
    73
1070
     1
1070
    44
1040
1.0
1070
    74
1070
     0
1000
MTEXTEND
  0
POINT
  5
2622
330
102A
100
AcDbEntity
  8
Defpoints
  6
Continuous
 62
     0
100
AcDbPoint
 10
80.00803746726203
 20
235.4805072617533
 30
0.0
  0
POINT
  5
2623
330
102A
100
AcDbEntity
  8
Defpoints
  6
Continuous
 62
     0
100
AcDbPoint
 10
65.70803746726197
 20
235.4805072617533
 30
0.0
  0
POINT
  5
2624
330
102A
100
AcDbEntity
  8
Defpoints
  6
Continuous
 62
     0
100
AcDbPoint
 10
65.70803746726197
 20
249.3230959179846
 30
0.0
  0
ENDBLK
  5
102C
330
102A
100
AcDbEntity
  8
0
100
AcDbBlockEnd
  0
BLOCK
  5
1101
330
1100
100
AcDbEntity
  8
0
100
AcDbBlockBegin
  2
*D6
 70
     1
 10
0.0
 20
0.0
 30
0.0
  3
*D6
  1

  0
LINE
  5
2625
330
1100
100
AcDbEntity
  8
0
  6
Continuous
 62
     0
370
    -2
100
AcDbLine
 10
-41.6411615734331
 20
240.9805072617532
 30
0.0
 11
-42.86004094708093
 21
240.9805072617532
 31
0.0
  0
LINE
  5
2626
330
1100
100
AcDbEntity
  8
0
  6
Continuous
 62
     0
370
    -2
100
AcDbLine
 10
-41.6411615734331
 20
225.9805072617532
 30
0.0
 11
-42.86004094708093
 21
225.9805072617532
 31
0.0
  0
LINE
  5
2627
330
1100
100
AcDbEntity
  8
0
  6
Continuous
 62
     0
370
    -2
100
AcDbLine
 10
-41.61004094708093
 20
223.4805072617532
 30
0.0
 11
-41.61004094708093
 21
220.9805072617532
 31
0.0
  0
LINE
  5
2628
330
1100
100
AcDbEntity
  8
0
  6
Continuous
 62
     0
370
    -2
100
AcDbLine
 10
-41.61004094708093
 20
243.4805072617532
 30
0.0
 11
-41.61004094708093
 21
251.7305072617533
 31
0.0
  0
LINE
  5
2629
330
1100
100
AcDbEntity
  8
0
  6
Continuous
 62
     0
370
    -2
100
AcDbLine
 10
-41.61004094708093
 20
225.9805072617532
 30
0.0
 11
-41.61004094708093
 21
240.9805072617532
 31
0.0
  0
INSERT
  5
262A
330
1100
100
AcDbEntity
  8
0
  6
Continuous
 62
     0
370
    -2
100
AcDbBlockReference
  2
_Open30
 10
-41.61004094708093
 20
225.9805072617532
 30
0.0
 41
2.5
 42
2.5
 43
2.5
 50
90.0
  0
INSERT
  5
262B
330
1100
100
AcDbEntity
  8
0
  6
Continuous
 62
     0
370
    -2
100
AcDbBlockReference
  2
_Open30
 10
-41.61004094708093
 20
240.9805072617532
 30
0.0
 41
2.5
 42
2.5
 43
2.5
 50
270.0
  0
MTEXT
  5
262C
330
1100
100
AcDbEntity
  8
0
  6
Continuous
 62
     4
100
AcDbMText
 10
-43.73504094708096
 20
248.8555072617533
 30
0.0
 40
3.0
 41
0.0
 71
     5
 72
     1
  1
30
 11
0.0000000000000001
 21
1.0
 31
0.0
 73
     1
 44
1.0
1001
ACAD
1000
MTEXTBEGIN
1070
    73
1070
     1
1070
    44
1040
1.0
1070
    74
1070
     0
1000
MTEXTEND
  0
POINT
  5
262D
330
1100
100
AcDbEntity
  8
Defpoints
  6
Continuous
 62
     0
100
AcDbPoint
 10
-41.39116157343311
 20
240.9805072617532
 30
0.0
  0
POINT
  5
262E
330
1100
100
AcDbEntity
  8
Defpoints
  6
Continuous
 62
     0
100
AcDbPoint
 10
-41.39116157343311
 20
225.9805072617532
 30
0.0
  0
POINT
  5
262F
330
1100
100
AcDbEntity
  8
Defpoints
  6
Continuous
 62
     0
100
AcDbPoint
 10
-41.61004094708093
 20
225.9805072617532
 30
0.0
  0
ENDBLK
  5
1102
330
1100
100
AcDbEntity
  8
0
100
AcDbBlockEnd
  0
BLOCK
  5
1110
330
110F
100
AcDbEntity
  8
0
100
AcDbBlockBegin
  2
*D7
 70
     1
 10
0.0
 20
0.0
 30
0.0
  3
*D7
  1

  0
LINE
  5
2630
330
110F
100
AcDbEntity
  8
0
  6
Continuous
 62
     0
370
    -2
100
AcDbLine
 10
-45.8150886895946
 20
198.974280016225
 30
0.0
 11
-41.80570161051305
 21
198.974280016225
 31
0.0
  0
LINE
  5
2631
330
110F
100
AcDbEntity
  8
0
  6
Continuous
 62
     0
370
    -2
100
AcDbLine
 10
-44.76936586134033
 20
185.974280016225
 30
0.0
 11
-41.80570161051305
 21
185.974280016225
 31
0.0
  0
LINE
  5
2632
330
110F
100
AcDbEntity
  8
0
  6
Continuous
 62
     0
370
    -2
100
AcDbLine
 10
-43.05570161051306
 20
183.474280016225
 30
0.0
 11
-43.05570161051306
 21
180.974280016225
 31
0.0
  0
LINE
  5
2633
330
110F
100
AcDbEntity
  8
0
  6
Continuous
 62
     0
370
    -2
100
AcDbLine
 10
-43.05570161051306
 20
201.474280016225
 30
0.0
 11
-43.05570161051305
 21
210.224280016225
 31
0.0
  0
LINE
  5
2634
330
110F
100
AcDbEntity
  8
0
  6
Continuous
 62
     0
370
    -2
100
AcDbLine
 10
-43.05570161051306
 20
185.974280016225
 30
0.0
 11
-43.05570161051306
 21
198.974280016225
 31
0.0
  0
INSERT
  5
2635
330
110F
100
AcDbEntity
  8
0
  6
Continuous
 62
     0
370
    -2
100
AcDbBlockReference
  2
_Open30
 10
-43.05570161051306
 20
185.974280016225
 30
0.0
 41
2.5
 42
2.5
 43
2.5
 50
90.0
  0
INSERT
  5
2636
330
110F
100
AcDbEntity
  8
0
  6
Continuous
 62
     0
370
    -2
100
AcDbBlockReference
  2
_Open30
 10
-43.05570161051306
 20
198.974280016225
 30
0.0
 41
2.5
 42
2.5
 43
2.5
 50
270.0
  0
MTEXT
  5
2637
330
110F
100
AcDbEntity
  8
0
  6
Continuous
 62
     4
100
AcDbMText
 10
-45.18070161051309
 20
207.099280016225
 30
0.0
 40
3.0
 41
0.0
 71
     5
 72
     1
  1
26
 11
0.0000000000000001
 21
1.0
 31
0.0
 73
     1
 44
1.0
1001
ACAD
1000
MTEXTBEGIN
1070
    73
1070
     1
1070
    44
1040
1.0
1070
    74
1070
     0
1000
MTEXTEND
  0
POINT
  5
2638
330
110F
100
AcDbEntity
  8
Defpoints
  6
Continuous
 62
     0
100
AcDbPoint
 10
-46.0650886895946
 20
198.974280016225
 30
0.0
  0
POINT
  5
2639
330
110F
100
AcDbEntity
  8
Defpoints
  6
Continuous
 62
     0
100
AcDbPoint
 10
-45.01936586134032
 20
185.974280016225
 30
0.0
  0
POINT
  5
263A
330
110F
100
AcDbEntity
  8
Defpoints
  6
Continuous
 62
     0
100
AcDbPoint
 10
-43.05570161051306
 20
185.974280016225
 30
0.0
  0
ENDBLK
  5
1111
330
110F
100
AcDbEntity
  8
0
100
AcDbBlockEnd
  0
BLOCK
  5
1650
330
164F
100
AcDbEntity
  8
0
100
AcDbBlockBegin
  2
*D8
 70
     1
 10
0.0
 20
0.0
 30
0.0
  3
*D8
  1

  0
LINE
  5
1651
330
164F
100
AcDbEntity
  8
0
 62
     0
370
    -2
100
AcDbLine
 10
-178.2339678749101
 20
-812.0370112307897
 30
0.0
 11
-178.2339678749101
 21
-814.9466426527986
 31
0.0
  0
LINE
  5
1652
330
164F
100
AcDbEntity
  8
0
 62
     0
370
    -2
100
AcDbLine
 10
-180.6911549290304
 20
-812.0370112307897
 30
0.0
 11
-180.6911549290304
 21
-814.9466426527986
 31
0.0
  0
LINE
  5
1653
330
164F
100
AcDbEntity
  8
0
 62
     0
370
    -2
100
AcDbLine
 10
-175.7339678749101
 20
-813.6966426527985
 30
0.0
 11
-173.2339678749101
 21
-813.6966426527985
 31
0.0
  0
LINE
  5
1654
330
164F
100
AcDbEntity
  8
0
 62
     0
370
    -2
100
AcDbLine
 10
-183.1911549290304
 20
-813.6966426527985
 30
0.0
 11
-195.9411549290304
 21
-813.6966426527985
 31
0.0
  0
LINE
  5
1655
330
164F
100
AcDbEntity
  8
0
 62
     0
370
    -2
100
AcDbLine
 10
-178.2339678749101
 20
-813.6966426527985
 30
0.0
 11
-180.6911549290304
 21
-813.6966426527985
 31
0.0
  0
INSERT
  5
1656
330
164F
100
AcDbEntity
  8
0
 62
     0
370
    -2
100
AcDbBlockReference
  2
_Open30
 10
-178.2339678749101
 20
-813.6966426527985
 30
0.0
 41
2.5
 42
2.5
 43
2.5
 50
180.0
  0
INSERT
  5
1657
330
164F
100
AcDbEntity
  8
0
 62
     0
370
    -2
100
AcDbBlockReference
  2
_Open30
 10
-180.6911549290304
 20
-813.6966426527985
 30
0.0
 41
2.5
 42
2.5
 43
2.5
  0
MTEXT
  5
1658
330
164F
100
AcDbEntity
  8
0
 62
     4
100
AcDbMText
 10
-190.8161549290304
 20
-811.5716426527985
 30
0.0
 40
3.0
 41
0.0
 71
     5
 72
     1
  1
2.46
 73
     1
 44
1.0
1001
ACAD
1000
MTEXTBEGIN
1070
    73
1070
     1
1070
    44
1040
1.0
1070
    74
1070
     0
1000
MTEXTEND
  0
POINT
  5
1659
330
164F
100
AcDbEntity
  8
Defpoints
 62
     0
100
AcDbPoint
 10
-178.2339678749101
 20
-811.7870112307898
 30
0.0
  0
POINT
  5
165A
330
164F
100
AcDbEntity
  8
Defpoints
 62
     0
100
AcDbPoint
 10
-180.6911549290304
 20
-811.7870112307898
 30
0.0
  0
POINT
  5
165B
330
164F
100
AcDbEntity
  8
Defpoints
 62
     0
100
AcDbPoint
 10
-180.6911549290304
 20
-813.6966426527985
 30
0.0
  0
ENDBLK
  5
165C
330
164F
100
AcDbEntity
  8
0
100
AcDbBlockEnd
  0
BLOCK
  5
165E
330
165D
100
AcDbEntity
  8
0
100
AcDbBlockBegin
  2
*D9
 70
     1
 10
0.0
 20
0.0
 30
0.0
  3
*D9
  1

  0
LINE
  5
165F
330
165D
100
AcDbEntity
  8
0
 62
     0
370
    -2
100
AcDbLine
 10
-176.5958429688369
 20
-817.4931008035521
 30
0.0
 11
-176.5958429688369
 21
-820.0389928730155
 31
0.0
  0
LINE
  5
1660
330
165D
100
AcDbEntity
  8
0
 62
     0
370
    -2
100
AcDbLine
 10
-179.6900787669798
 20
-817.4931008035521
 30
0.0
 11
-179.6900787669798
 21
-820.0389928730155
 31
0.0
  0
LINE
  5
1661
330
165D
100
AcDbEntity
  8
0
 62
     0
370
    -2
100
AcDbLine
 10
-174.0958429688369
 20
-818.7889928730154
 30
0.0
 11
-171.5958429688369
 21
-818.7889928730154
 31
0.0
  0
LINE
  5
1662
330
165D
100
AcDbEntity
  8
0
 62
     0
370
    -2
100
AcDbLine
 10
-182.1900787669798
 20
-818.7889928730154
 30
0.0
 11
-196.0234121003131
 21
-818.7889928730154
 31
0.0
  0
LINE
  5
1663
330
165D
100
AcDbEntity
  8
0
 62
     0
370
    -2
100
AcDbLine
 10
-176.5958429688369
 20
-818.7889928730154
 30
0.0
 11
-179.6900787669798
 21
-818.7889928730154
 31
0.0
  0
INSERT
  5
1664
330
165D
100
AcDbEntity
  8
0
 62
     0
370
    -2
100
AcDbBlockReference
  2
_Open30
 10
-176.5958429688369
 20
-818.7889928730154
 30
0.0
 41
2.5
 42
2.5
 43
2.5
 50
180.0
  0
INSERT
  5
1665
330
165D
100
AcDbEntity
  8
0
 62
     0
370
    -2
100
AcDbBlockReference
  2
_Open30
 10
-179.6900787669798
 20
-818.7889928730154
 30
0.0
 41
2.5
 42
2.5
 43
2.5
  0
MTEXT
  5
1666
330
165D
100
AcDbEntity
  8
0
 62
     4
100
AcDbMText
 10
-190.8150787669798
 20
-816.9139928730155
 30
0.0
 40
2.5
 41
0.0
 71
     5
 72
     1
  1
15.47
  7
高2.5
 73
     1
 44
1.0
1001
ACAD
1000
MTEXTBEGIN
1070
    73
1070
     1
1070
    44
1040
1.0
1070
    74
1070
     0
1000
MTEXTEND
  0
POINT
  5
1667
330
165D
100
AcDbEntity
  8
Defpoints
 62
     0
100
AcDbPoint
 10
-176.5958429688369
 20
-817.2431008035522
 30
0.0
  0
POINT
  5
1668
330
165D
100
AcDbEntity
  8
Defpoints
 62
     0
100
AcDbPoint
 10
-179.6900787669798
 20
-817.2431008035522
 30
0.0
  0
POINT
  5
1669
330
165D
100
AcDbEntity
  8
Defpoints
 62
     0
100
AcDbPoint
 10
-179.6900787669798
 20
-818.7889928730154
 30
0.0
  0
ENDBLK
  5
166A
330
165D
100
AcDbEntity
  8
0
100
AcDbBlockEnd
  0
BLOCK
  5
166C
330
166B
100
AcDbEntity
  8
0
100
AcDbBlockBegin
  2
*D10
 70
     1
 10
0.0
 20
0.0
 30
0.0
  3
*D10
  1

  0
LINE
  5
166D
330
166B
100
AcDbEntity
  8
0
 62
     0
370
    -2
100
AcDbLine
 10
-174.8667113607514
 20
-822.9491905193986
 30
0.0
 11
-174.8667113607514
 21
-825.2222781817659
 31
0.0
  0
LINE
  5
166E
330
166B
100
AcDbEntity
  8
0
 62
     0
370
    -2
100
AcDbLine
 10
-178.8710163139432
 20
-822.9491905193986
 30
0.0
 11
-178.8710163139432
 21
-825.2222781817659
 31
0.0
  0
LINE
  5
166F
330
166B
100
AcDbEntity
  8
0
 62
     0
370
    -2
100
AcDbLine
 10
-172.3667113607514
 20
-823.9722781817658
 30
0.0
 11
-169.8667113607514
 21
-823.9722781817658
 31
0.0
  0
LINE
  5
1670
330
166B
100
AcDbEntity
  8
0
 62
     0
370
    -2
100
AcDbLine
 10
-181.3710163139432
 20
-823.9722781817658
 30
0.0
 11
-193.1210163139432
 21
-823.9722781817658
 31
0.0
  0
LINE
  5
1671
330
166B
100
AcDbEntity
  8
0
 62
     0
370
    -2
100
AcDbLine
 10
-174.8667113607514
 20
-823.9722781817658
 30
0.0
 11
-178.8710163139432
 21
-823.9722781817658
 31
0.0
  0
INSERT
  5
1672
330
166B
100
AcDbEntity
  8
0
 62
     0
370
    -2
100
AcDbBlockReference
  2
_Open30
 10
-174.8667113607514
 20
-823.9722781817658
 30
0.0
 41
2.5
 42
2.5
 43
2.5
 50
180.0
  0
INSERT
  5
1673
330
166B
100
AcDbEntity
  8
0
 62
     0
370
    -2
100
AcDbBlockReference
  2
_Open30
 10
-178.8710163139432
 20
-823.9722781817658
 30
0.0
 41
2.5
 42
2.5
 43
2.5
  0
MTEXT
  5
1674
330
166B
100
AcDbEntity
  8
0
 62
     4
100
AcDbMText
 10
-188.4960163139432
 20
-821.7472781817658
 30
0.0
 40
3.2
 41
0.0
 71
     5
 72
     1
  1
8.01
  7
高3.2
 73
     1
 44
1.0
1001
ACAD
1000
MTEXTBEGIN
1070
    73
1070
     1
1070
    44
1040
1.0
1070
    74
1070
     0
1000
MTEXTEND
  0
POINT
  5
1675
330
166B
100
AcDbEntity
  8
Defpoints
 62
     0
100
AcDbPoint
 10
-174.8667113607514
 20
-822.6991905193985
 30
0.0
  0
POINT
  5
1676
330
166B
100
AcDbEntity
  8
Defpoints
 62
     0
100
AcDbPoint
 10
-178.8710163139432
 20
-822.6991905193985
 30
0.0
  0
POINT
  5
1677
330
166B
100
AcDbEntity
  8
Defpoints
 62
     0
100
AcDbPoint
 10
-178.8710163139432
 20
-823.9722781817658
 30
0.0
  0
ENDBLK
  5
1678
330
166B
100
AcDbEntity
  8
0
100
AcDbBlockEnd
  0
BLOCK
  5
167A
330
1679
100
AcDbEntity
  8
0
100
AcDbBlockBegin
  2
*D11
 70
     1
 10
0.0
 20
0.0
 30
0.0
  3
*D11
  1

  0
LINE
  5
167B
330
1679
100
AcDbEntity
  8
0
 62
     0
370
    -2
100
AcDbLine
 10
-174.9577180627636
 20
-828.2234104874302
 30
0.0
 11
-174.9577180627636
 21
-830.0418239948866
 31
0.0
  0
LINE
  5
167C
330
1679
100
AcDbEntity
  8
0
 62
     0
370
    -2
100
AcDbLine
 10
-179.6900787669798
 20
-828.2234104874302
 30
0.0
 11
-179.6900787669798
 21
-830.0418239948866
 31
0.0
  0
LINE
  5
167D
330
1679
100
AcDbEntity
  8
0
 62
     0
370
    -2
100
AcDbLine
 10
-172.4577180627636
 20
-828.7918239948865
 30
0.0
 11
-169.9577180627637
 21
-828.7918239948865
 31
0.0
  0
LINE
  5
167E
330
1679
100
AcDbEntity
  8
0
 62
     0
370
    -2
100
AcDbLine
 10
-182.1900787669798
 20
-828.7918239948865
 30
0.0
 11
-203.9400787669798
 21
-828.7918239948865
 31
0.0
  0
LINE
  5
167F
330
1679
100
AcDbEntity
  8
0
 62
     0
370
    -2
100
AcDbLine
 10
-174.9577180627636
 20
-828.7918239948865
 30
0.0
 11
-179.6900787669798
 21
-828.7918239948865
 31
0.0
  0
INSERT
  5
1680
330
1679
100
AcDbEntity
  8
0
 62
     0
370
    -2
100
AcDbBlockReference
  2
_Open30
 10
-174.9577180627636
 20
-828.7918239948865
 30
0.0
 41
2.5
 42
2.5
 43
2.5
 50
180.0
  0
INSERT
  5
1681
330
1679
100
AcDbEntity
  8
0
 62
     0
370
    -2
100
AcDbBlockReference
  2
_Open30
 10
-179.6900787669798
 20
-828.7918239948865
 30
0.0
 41
2.5
 42
2.5
 43
2.5
  0
MTEXT
  5
1682
330
1679
100
AcDbEntity
  8
0
 62
     4
100
AcDbMText
 10
-194.3150787669798
 20
-825.9168239948866
 30
0.0
 40
4.5
 41
0.0
 71
     5
 72
     1
  1
47.32
  7
高4.5
 73
     1
 44
1.0
1001
ACAD
1000
MTEXTBEGIN
1070
    73
1070
     1
1070
    44
1040
1.0
1070
    74
1070
     0
1000
MTEXTEND
  0
POINT
  5
1683
330
1679
100
AcDbEntity
  8
Defpoints
 62
     0
100
AcDbPoint
 10
-174.9577180627636
 20
-827.9734104874302
 30
0.0
  0
POINT
  5
1684
330
1679
100
AcDbEntity
  8
Defpoints
 62
     0
100
AcDbPoint
 10
-179.6900787669798
 20
-827.9734104874302
 30
0.0
  0
POINT
  5
1685
330
1679
100
AcDbEntity
  8
Defpoints
 62
     0
100
AcDbPoint
 10
-179.6900787669798
 20
-828.7918239948865
 30
0.0
  0
ENDBLK
  5
1686
330
1679
100
AcDbEntity
  8
0
100
AcDbBlockEnd
  0
BLOCK
  5
1688
330
1687
100
AcDbEntity
  8
0
100
AcDbBlockBegin
  2
*D12
 70
     1
 10
0.0
 20
0.0
 30
0.0
  3
*D12
  1

  0
LINE
  5
1689
330
1687
100
AcDbEntity
  8
0
 62
     0
370
    -2
100
AcDbLine
 10
-153.4800817947562
 20
-812.0370112307897
 30
0.0
 11
-153.4800817947562
 21
-814.9466426527986
 31
0.0
  0
LINE
  5
168A
330
1687
100
AcDbEntity
  8
0
 62
     0
370
    -2
100
AcDbLine
 10
-155.9372688488765
 20
-812.0370112307897
 30
0.0
 11
-155.9372688488765
 21
-814.9466426527986
 31
0.0
  0
LINE
  5
168B
330
1687
100
AcDbEntity
  8
0
 62
     0
370
    -2
100
AcDbLine
 10
-150.9800817947562
 20
-813.6966426527985
 30
0.0
 11
-148.4800817947562
 21
-813.6966426527985
 31
0.0
  0
LINE
  5
168C
330
1687
100
AcDbEntity
  8
0
 62
     0
370
    -2
100
AcDbLine
 10
-158.4372688488765
 20
-813.6966426527985
 30
0.0
 11
-180.0372688488765
 21
-813.6966426527985
 31
0.0
  0
LINE
  5
168D
330
1687
100
AcDbEntity
  8
0
 62
     0
370
    -2
100
AcDbLine
 10
-153.4800817947562
 20
-813.6966426527985
 30
0.0
 11
-155.9372688488765
 21
-813.6966426527985
 31
0.0
  0
INSERT
  5
168E
330
1687
100
AcDbEntity
  8
0
 62
     0
370
    -2
100
AcDbBlockReference
  2
_Open30
 10
-153.4800817947562
 20
-813.6966426527985
 30
0.0
 41
2.5
 42
2.5
 43
2.5
 50
180.0
  0
INSERT
  5
168F
330
1687
100
AcDbEntity
  8
0
 62
     0
370
    -2
100
AcDbBlockReference
  2
_Open30
 10
-155.9372688488765
 20
-813.6966426527985
 30
0.0
 41
2.5
 42
2.5
 43
2.5
  0
MTEXT
  5
1690
330
1687
100
AcDbEntity
  8
0
 62
     4
100
AcDbMText
 10
-170.4872688488765
 20
-809.9216426527986
 30
0.0
 40
6.299999999999998
 41
0.0
 71
     5
 72
     1
  1
0.25
  7
高6.3
 73
     1
 44
1.0
1001
ACAD
1000
MTEXTBEGIN
1070
    73
1070
     1
1070
    44
1040
1.0
1070
    74
1070
     0
1000
MTEXTEND
  0
POINT
  5
1691
330
1687
100
AcDbEntity
  8
Defpoints
 62
     0
100
AcDbPoint
 10
-153.4800817947562
 20
-811.7870112307898
 30
0.0
  0
POINT
  5
1692
330
1687
100
AcDbEntity
  8
Defpoints
 62
     0
100
AcDbPoint
 10
-155.9372688488765
 20
-811.7870112307898
 30
0.0
  0
POINT
  5
1693
330
1687
100
AcDbEntity
  8
Defpoints
 62
     0
100
AcDbPoint
 10
-155.9372688488765
 20
-813.6966426527985
 30
0.0
  0
ENDBLK
  5
1694
330
1687
100
AcDbEntity
  8
0
100
AcDbBlockEnd
  0
BLOCK
  5
1696
330
1695
100
AcDbEntity
  8
0
100
AcDbBlockBegin
  2
*D13
 70
     1
 10
0.0
 20
0.0
 30
0.0
  3
*D13
  1

  0
LINE
  5
1697
330
1695
100
AcDbEntity
  8
0
 62
     0
370
    -2
100
AcDbLine
 10
-151.841956888683
 20
-817.4931008035521
 30
0.0
 11
-151.841956888683
 21
-820.0389928730155
 31
0.0
  0
LINE
  5
1698
330
1695
100
AcDbEntity
  8
0
 62
     0
370
    -2
100
AcDbLine
 10
-154.9361926868259
 20
-817.4931008035521
 30
0.0
 11
-154.9361926868259
 21
-820.0389928730155
 31
0.0
  0
LINE
  5
1699
330
1695
100
AcDbEntity
  8
0
 62
     0
370
    -2
100
AcDbLine
 10
-149.341956888683
 20
-818.7889928730154
 30
0.0
 11
-146.841956888683
 21
-818.7889928730154
 31
0.0
  0
LINE
  5
169A
330
1695
100
AcDbEntity
  8
0
 62
     0
370
    -2
100
AcDbLine
 10
-157.4361926868259
 20
-818.7889928730154
 30
0.0
 11
-169.4361926868259
 21
-818.7889928730154
 31
0.0
  0
LINE
  5
169B
330
1695
100
AcDbEntity
  8
0
 62
     0
370
    -2
100
AcDbLine
 10
-151.841956888683
 20
-818.7889928730154
 30
0.0
 11
-154.9361926868259
 21
-818.7889928730154
 31
0.0
  0
INSERT
  5
169C
330
1695
100
AcDbEntity
  8
0
 62
     0
370
    -2
100
AcDbBlockReference
  2
_Open30
 10
-151.841956888683
 20
-818.7889928730154
 30
0.0
 41
2.5
 42
2.5
 43
2.5
 50
180.0
  0
INSERT
  5
169D
330
1695
100
AcDbEntity
  8
0
 62
     0
370
    -2
100
AcDbBlockReference
  2
_Open30
 10
-154.9361926868259
 20
-818.7889928730154
 30
0.0
 41
2.5
 42
2.5
 43
2.5
  0
MTEXT
  5
169E
330
1695
100
AcDbEntity
  8
0
 62
     4
100
AcDbMText
 10
-164.8111926868259
 20
-816.6639928730154
 30
0.0
 40
3.0
 41
0.0
 71
     5
 72
     1
  1
1.55
 73
     1
 44
1.0
1001
ACAD
1000
MTEXTBEGIN
1070
    73
1070
     1
1070
    44
1040
1.0
1070
    74
1070
     0
1000
MTEXTEND
  0
POINT
  5
169F
330
1695
100
AcDbEntity
  8
Defpoints
 62
     0
100
AcDbPoint
 10
-151.841956888683
 20
-817.2431008035522
 30
0.0
  0
POINT
  5
16A0
330
1695
100
AcDbEntity
  8
Defpoints
 62
     0
100
AcDbPoint
 10
-154.9361926868259
 20
-817.2431008035522
 30
0.0
  0
POINT
  5
16A1
330
1695
100
AcDbEntity
  8
Defpoints
 62
     0
100
AcDbPoint
 10
-154.9361926868259
 20
-818.7889928730154
 30
0.0
  0
ENDBLK
  5
16A2
330
1695
100
AcDbEntity
  8
0
100
AcDbBlockEnd
  0
BLOCK
  5
16A4
330
16A3
100
AcDbEntity
  8
0
100
AcDbBlockBegin
  2
*D14
 70
     1
 10
0.0
 20
0.0
 30
0.0
  3
*D14
  1

  0
LINE
  5
16A5
330
16A3
100
AcDbEntity
  8
0
 62
     0
370
    -2
100
AcDbLine
 10
-150.1128252805975
 20
-822.9491905193986
 30
0.0
 11
-150.1128252805975
 21
-825.2222781817659
 31
0.0
  0
LINE
  5
16A6
330
16A3
100
AcDbEntity
  8
0
 62
     0
370
    -2
100
AcDbLine
 10
-154.1171302337894
 20
-822.9491905193986
 30
0.0
 11
-154.1171302337894
 21
-825.2222781817659
 31
0.0
  0
LINE
  5
16A7
330
16A3
100
AcDbEntity
  8
0
 62
     0
370
    -2
100
AcDbLine
 10
-147.6128252805976
 20
-823.9722781817658
 30
0.0
 11
-145.1128252805975
 21
-823.9722781817658
 31
0.0
  0
LINE
  5
16A8
330
16A3
100
AcDbEntity
  8
0
 62
     0
370
    -2
100
AcDbLine
 10
-156.6171302337894
 20
-823.9722781817658
 30
0.0
 11
-164.9504635671227
 21
-823.9722781817658
 31
0.0
  0
LINE
  5
16A9
330
16A3
100
AcDbEntity
  8
0
 62
     0
370
    -2
100
AcDbLine
 10
-150.1128252805975
 20
-823.9722781817658
 30
0.0
 11
-154.1171302337894
 21
-823.9722781817658
 31
0.0
  0
INSERT
  5
16AA
330
16A3
100
AcDbEntity
  8
0
 62
     0
370
    -2
100
AcDbBlockReference
  2
_Open30
 10
-150.1128252805975
 20
-823.9722781817658
 30
0.0
 41
2.5
 42
2.5
 43
2.5
 50
180.0
  0
INSERT
  5
16AB
330
16A3
100
AcDbEntity
  8
0
 62
     0
370
    -2
100
AcDbBlockReference
  2
_Open30
 10
-154.1171302337894
 20
-823.9722781817658
 30
0.0
 41
2.5
 42
2.5
 43
2.5
  0
MTEXT
  5
16AC
330
16A3
100
AcDbEntity
  8
0
 62
     4
100
AcDbMText
 10
-162.4921302337894
 20
-822.3472781817658
 30
0.0
 40
2.0
 41
0.0
 71
     5
 72
     1
  1
0.8
  7
高2
 73
     1
 44
1.0
1001
ACAD
1000
MTEXTBEGIN
1070
    73
1070
     1
1070
    44
1040
1.0
1070
    74
1070
     0
1000
MTEXTEND
  0
POINT
  5
16AD
330
16A3
100
AcDbEntity
  8
Defpoints
 62
     0
100
AcDbPoint
 10
-150.1128252805975
 20
-822.6991905193985
 30
0.0
  0
POINT
  5
16AE
330
16A3
100
AcDbEntity
  8
Defpoints
 62
     0
100
AcDbPoint
 10
-154.1171302337894
 20
-822.6991905193985
 30
0.0
  0
POINT
  5
16AF
330
16A3
100
AcDbEntity
  8
Defpoints
 62
     0
100
AcDbPoint
 10
-154.1171302337894
 20
-823.9722781817658
 30
0.0
  0
ENDBLK
  5
16B0
330
16A3
100
AcDbEntity
  8
0
100
AcDbBlockEnd
  0
BLOCK
  5
16B2
330
16B1
100
AcDbEntity
  8
0
100
AcDbBlockBegin
  2
*D15
 70
     1
 10
0.0
 20
0.0
 30
0.0
  3
*D15
  1

  0
LINE
  5
16B3
330
16B1
100
AcDbEntity
  8
0
 62
     0
370
    -2
100
AcDbLine
 10
-150.2038319826098
 20
-828.2234104874302
 30
0.0
 11
-150.2038319826098
 21
-830.0418239948866
 31
0.0
  0
LINE
  5
16B4
330
16B1
100
AcDbEntity
  8
0
 62
     0
370
    -2
100
AcDbLine
 10
-154.9361926868259
 20
-828.2234104874302
 30
0.0
 11
-154.9361926868259
 21
-830.0418239948866
 31
0.0
  0
LINE
  5
16B5
330
16B1
100
AcDbEntity
  8
0
 62
     0
370
    -2
100
AcDbLine
 10
-147.7038319826099
 20
-828.7918239948865
 30
0.0
 11
-145.2038319826098
 21
-828.7918239948865
 31
0.0
  0
LINE
  5
16B6
330
16B1
100
AcDbEntity
  8
0
 62
     0
370
    -2
100
AcDbLine
 10
-157.4361926868259
 20
-828.7918239948865
 30
0.0
 11
-172.1861926868259
 21
-828.7918239948865
 31
0.0
  0
LINE
  5
16B7
330
16B1
100
AcDbEntity
  8
0
 62
     0
370
    -2
100
AcDbLine
 10
-150.2038319826098
 20
-828.7918239948865
 30
0.0
 11
-154.9361926868259
 21
-828.7918239948865
 31
0.0
  0
INSERT
  5
16B8
330
16B1
100
AcDbEntity
  8
0
 62
     0
370
    -2
100
AcDbBlockReference
  2
_Open30
 10
-150.2038319826098
 20
-828.7918239948865
 30
0.0
 41
2.5
 42
2.5
 43
2.5
 50
180.0
  0
INSERT
  5
16B9
330
16B1
100
AcDbEntity
  8
0
 62
     0
370
    -2
100
AcDbBlockReference
  2
_Open30
 10
-154.9361926868259
 20
-828.7918239948865
 30
0.0
 41
2.5
 42
2.5
 43
2.5
  0
MTEXT
  5
16BA
330
16B1
100
AcDbEntity
  8
0
 62
     4
100
AcDbMText
 10
-166.0611926868259
 20
-826.6668239948867
 30
0.0
 40
3.0
 41
0.0
 71
     5
 72
     1
  1
18.93
 73
     1
 44
1.0
1001
ACAD
1000
MTEXTBEGIN
1070
    73
1070
     1
1070
    44
1040
1.0
1070
    74
1070
     0
1000
MTEXTEND
  0
POINT
  5
16BB
330
16B1
100
AcDbEntity
  8
Defpoints
 62
     0
100
AcDbPoint
 10
-150.2038319826098
 20
-827.9734104874302
 30
0.0
  0
POINT
  5
16BC
330
16B1
100
AcDbEntity
  8
Defpoints
 62
     0
100
AcDbPoint
 10
-154.9361926868259
 20
-827.9734104874302
 30
0.0
  0
POINT
  5
16BD
330
16B1
100
AcDbEntity
  8
Defpoints
 62
     0
100
AcDbPoint
 10
-154.9361926868259
 20
-828.7918239948865
 30
0.0
  0
ENDBLK
  5
16BE
330
16B1
100
AcDbEntity
  8
0
100
AcDbBlockEnd
  0
BLOCK
  5
16C0
330
16BF
100
AcDbEntity
  8
0
100
AcDbBlockBegin
  2
*D16
 70
     1
 10
0.0
 20
0.0
 30
0.0
  3
*D16
  1

  0
LINE
  5
16C1
330
16BF
100
AcDbEntity
  8
0
 62
     0
370
    -2
100
AcDbLine
 10
-153.0082588337482
 20
-833.2792506940199
 30
0.0
 11
-153.0082588337482
 21
-835.5891717708955
 31
0.0
  0
LINE
  5
16C2
330
16BF
100
AcDbEntity
  8
0
 62
     0
370
    -2
100
AcDbLine
 10
-157.5969340358961
 20
-833.2792506940199
 30
0.0
 11
-157.5969340358961
 21
-835.5891717708955
 31
0.0
  0
LINE
  5
16C3
330
16BF
100
AcDbEntity
  8
0
 62
     0
370
    -2
100
AcDbLine
 10
-150.5082588337482
 20
-834.3391717708955
 30
0.0
 11
-148.0082588337482
 21
-834.3391717708955
 31
0.0
  0
LINE
  5
16C4
330
16BF
100
AcDbEntity
  8
0
 62
     0
370
    -2
100
AcDbLine
 10
-160.0969340358961
 20
-834.3391717708955
 30
0.0
 11
-174.8469340358961
 21
-834.3391717708955
 31
0.0
  0
LINE
  5
16C5
330
16BF
100
AcDbEntity
  8
0
 62
     0
370
    -2
100
AcDbLine
 10
-153.0082588337482
 20
-834.3391717708955
 30
0.0
 11
-157.5969340358961
 21
-834.3391717708955
 31
0.0
  0
INSERT
  5
16C6
330
16BF
100
AcDbEntity
  8
0
 62
     0
370
    -2
100
AcDbBlockReference
  2
_Open30
 10
-153.0082588337482
 20
-834.3391717708955
 30
0.0
 41
2.5
 42
2.5
 43
2.5
 50
180.0
  0
INSERT
  5
16C7
330
16BF
100
AcDbEntity
  8
0
 62
     0
370
    -2
100
AcDbBlockReference
  2
_Open30
 10
-157.5969340358961
 20
-834.3391717708955
 30
0.0
 41
2.5
 42
2.5
 43
2.5
  0
MTEXT
  5
16C8
330
16BF
100
AcDbEntity
  8
0
 62
     4
100
AcDbMText
 10
-168.7219340358961
 20
-832.2141717708955
 30
0.0
 40
3.0
 41
0.0
 71
     5
 72
     1
  1
13.77
 73
     1
 44
1.0
1001
ACAD
1000
MTEXTBEGIN
1070
    73
1070
     1
1070
    44
1040
1.0
1070
    74
1070
     0
1000
MTEXTEND
  0
POINT
  5
16C9
330
16BF
100
AcDbEntity
  8
Defpoints
 62
     0
100
AcDbPoint
 10
-153.0082588337482
 20
-833.0292506940201
 30
0.0
  0
POINT
  5
16CA
330
16BF
100
AcDbEntity
  8
Defpoints
 62
     0
100
AcDbPoint
 10
-157.5969340358961
 20
-833.0292506940201
 30
0.0
  0
POINT
  5
16CB
330
16BF
100
AcDbEntity
  8
Defpoints
 62
     0
100
AcDbPoint
 10
-157.5969340358961
 20
-834.3391717708955
 30
0.0
  0
ENDBLK
  5
16CC
330
16BF
100
AcDbEntity
  8
0
100
AcDbBlockEnd
  0
BLOCK
  5
16CE
330
16CD
100
AcDbEntity
  8
0
100
AcDbBlockBegin
  2
*D17
 70
     1
 10
0.0
 20
0.0
 30
0.0
  3
*D17
  1

  0
LINE
  5
16CF
330
16CD
100
AcDbEntity
  8
0
 62
     0
370
    -2
100
AcDbLine
 10
-160.1045416668985
 20
-802.3497593757458
 30
0.0
 11
-160.1045416668985
 21
-794.9532258978079
 31
0.0
  0
LINE
  5
16D0
330
16CD
100
AcDbEntity
  8
0
 62
     0
370
    -2
100
AcDbLine
 10
-170.0430160363884
 20
-802.3497593757458
 30
0.0
 11
-170.0430160363884
 21
-794.9532258978079
 31
0.0
  0
LINE
  5
16D1
330
16CD
100
AcDbEntity
  8
0
 62
     0
370
    -2
100
AcDbLine
 10
-162.6045416668985
 20
-796.2032258978077
 30
0.0
 11
-167.5430160363885
 21
-796.2032258978077
 31
0.0
  0
INSERT
  5
16D2
330
16CD
100
AcDbEntity
  8
0
 62
     0
370
    -2
100
AcDbBlockReference
  2
_Open30
 10
-160.1045416668985
 20
-796.2032258978077
 30
0.0
 41
2.5
 42
2.5
 43
2.5
  0
INSERT
  5
16D3
330
16CD
100
AcDbEntity
  8
0
 62
     0
370
    -2
100
AcDbBlockReference
  2
_Open30
 10
-170.0430160363884
 20
-796.2032258978077
 30
0.0
 41
2.5
 42
2.5
 43
2.5
 50
180.0
  0
MTEXT
  5
16D4
330
16CD
100
AcDbEntity
  8
0
 62
     4
100
AcDbMText
 10
-165.0737788516435
 20
-793.1282258978077
 30
0.0
 40
3.0
 41
0.0
 71
     5
 72
     1
  1
9.94\H0.7X;\S+0^ -0.02;
 73
     1
 44
1.0
1001
ACAD
1000
MTEXTBEGIN
1070
    73
1070
     1
1070
    44
1040
1.0
1070
    74
1070
     0
1000
MTEXTEND
  0
POINT
  5
16D5
330
16CD
100
AcDbEntity
  8
Defpoints
 62
     0
100
AcDbPoint
 10
-160.1045416668985
 20
-802.5997593757455
 30
0.0
  0
POINT
  5
16D6
330
16CD
100
AcDbEntity
  8
Defpoints
 62
     0
100
AcDbPoint
 10
-170.0430160363884
 20
-802.5997593757455
 30
0.0
  0
POINT
  5
16D7
330
16CD
100
AcDbEntity
  8
Defpoints
 62
     0
100
AcDbPoint
 10
-170.0430160363884
 20
-796.2032258978077
 30
0.0
  0
ENDBLK
  5
16D8
330
16CD
100
AcDbEntity
  8
0
100
AcDbBlockEnd
  0
BLOCK
  5
1859
330
1858
100
AcDbEntity
  8
0
100
AcDbBlockBegin
  2
*D18
 70
     1
 10
0.0
 20
0.0
 30
0.0
  3
*D18
  1

  0
LINE
  5
18E2
330
1858
100
AcDbEntity
  8
0
 62
     0
370
    -2
100
AcDbLine
 10
386.0370243172054
 20
109.2209822403458
 30
0.0
 11
386.0370243172054
 21
106.311350818337
 31
0.0
  0
LINE
  5
18E3
330
1858
100
AcDbEntity
  8
0
 62
     0
370
    -2
100
AcDbLine
 10
383.5798372630851
 20
109.2209822403458
 30
0.0
 11
383.5798372630851
 21
106.311350818337
 31
0.0
  0
LINE
  5
18E4
330
1858
100
AcDbEntity
  8
0
 62
     0
370
    -2
100
AcDbLine
 10
388.5370243172054
 20
107.561350818337
 30
0.0
 11
391.0370243172053
 21
107.561350818337
 31
0.0
  0
LINE
  5
18E5
330
1858
100
AcDbEntity
  8
0
 62
     0
370
    -2
100
AcDbLine
 10
381.0798372630851
 20
107.561350818337
 30
0.0
 11
368.3298372630851
 21
107.561350818337
 31
0.0
  0
LINE
  5
18E6
330
1858
100
AcDbEntity
  8
0
 62
     0
370
    -2
100
AcDbLine
 10
386.0370243172054
 20
107.561350818337
 30
0.0
 11
383.5798372630851
 21
107.561350818337
 31
0.0
  0
INSERT
  5
18E7
330
1858
100
AcDbEntity
  8
0
 62
     0
370
    -2
100
AcDbBlockReference
  2
_Open30
 10
386.0370243172054
 20
107.561350818337
 30
0.0
 41
2.5
 42
2.5
 43
2.5
 50
180.0
  0
INSERT
  5
18E8
330
1858
100
AcDbEntity
  8
0
 62
     0
370
    -2
100
AcDbBlockReference
  2
_Open30
 10
383.5798372630851
 20
107.561350818337
 30
0.0
 41
2.5
 42
2.5
 43
2.5
  0
MTEXT
  5
18E9
330
1858
100
AcDbEntity
  8
0
 62
     4
100
AcDbMText
 10
373.4548372630851
 20
109.686350818337
 30
0.0
 40
3.0
 41
0.0
 71
     5
 72
     1
  1
2.46
 73
     1
 44
1.0
1001
ACAD
1000
MTEXTBEGIN
1070
    73
1070
     1
1070
    44
1040
1.0
1070
    74
1070
     0
1000
MTEXTEND
  0
POINT
  5
18EA
330
1858
100
AcDbEntity
  8
Defpoints
 62
     0
100
AcDbPoint
 10
386.0370243172054
 20
109.4709822403458
 30
0.0
  0
POINT
  5
18EB
330
1858
100
AcDbEntity
  8
Defpoints
 62
     0
100
AcDbPoint
 10
383.5798372630851
 20
109.4709822403458
 30
0.0
  0
POINT
  5
18EC
330
1858
100
AcDbEntity
  8
Defpoints
 62
     0
100
AcDbPoint
 10
383.5798372630851
 20
107.561350818337
 30
0.0
  0
ENDBLK
  5
185A
330
1858
100
AcDbEntity
  8
0
100
AcDbBlockEnd
  0
BLOCK
  5
1867
330
1866
100
AcDbEntity
  8
0
100
AcDbBlockBegin
  2
*D19
 70
     1
 10
0.0
 20
0.0
 30
0.0
  3
*D19
  1

  0
LINE
  5
18ED
330
1866
100
AcDbEntity
  8
0
 62
     0
370
    -2
100
AcDbLine
 10
387.6751492232786
 20
103.7648926675834
 30
0.0
 11
387.6751492232786
 21
101.2190005981201
 31
0.0
  0
LINE
  5
18EE
330
1866
100
AcDbEntity
  8
0
 62
     0
370
    -2
100
AcDbLine
 10
384.5809134251356
 20
103.7648926675834
 30
0.0
 11
384.5809134251356
 21
101.2190005981201
 31
0.0
  0
LINE
  5
18EF
330
1866
100
AcDbEntity
  8
0
 62
     0
370
    -2
100
AcDbLine
 10
390.1751492232786
 20
102.4690005981201
 30
0.0
 11
392.6751492232786
 21
102.4690005981201
 31
0.0
  0
LINE
  5
18F0
330
1866
100
AcDbEntity
  8
0
 62
     0
370
    -2
100
AcDbLine
 10
382.0809134251356
 20
102.4690005981201
 30
0.0
 11
368.2475800918023
 21
102.4690005981201
 31
0.0
  0
LINE
  5
18F1
330
1866
100
AcDbEntity
  8
0
 62
     0
370
    -2
100
AcDbLine
 10
387.6751492232786
 20
102.4690005981201
 30
0.0
 11
384.5809134251356
 21
102.4690005981201
 31
0.0
  0
INSERT
  5
18F2
330
1866
100
AcDbEntity
  8
0
 62
     0
370
    -2
100
AcDbBlockReference
  2
_Open30
 10
387.6751492232786
 20
102.4690005981201
 30
0.0
 41
2.5
 42
2.5
 43
2.5
 50
180.0
  0
INSERT
  5
18F3
330
1866
100
AcDbEntity
  8
0
 62
     0
370
    -2
100
AcDbBlockReference
  2
_Open30
 10
384.5809134251356
 20
102.4690005981201
 30
0.0
 41
2.5
 42
2.5
 43
2.5
  0
MTEXT
  5
18F4
330
1866
100
AcDbEntity
  8
0
 62
     4
100
AcDbMText
 10
373.4559134251356
 20
104.3440005981201
 30
0.0
 40
2.5
 41
0.0
 71
     5
 72
     1
  1
15.47
  7
高2.5
 73
     1
 44
1.0
1001
ACAD
1000
MTEXTBEGIN
1070
    73
1070
     1
1070
    44
1040
1.0
1070
    74
1070
     0
1000
MTEXTEND
  0
POINT
  5
18F5
330
1866
100
AcDbEntity
  8
Defpoints
 62
     0
100
AcDbPoint
 10
387.6751492232786
 20
104.0148926675834
 30
0.0
  0
POINT
  5
18F6
330
1866
100
AcDbEntity
  8
Defpoints
 62
     0
100
AcDbPoint
 10
384.5809134251356
 20
104.0148926675834
 30
0.0
  0
POINT
  5
18F7
330
1866
100
AcDbEntity
  8
Defpoints
 62
     0
100
AcDbPoint
 10
384.5809134251356
 20
102.4690005981201
 30
0.0
  0
ENDBLK
  5
1868
330
1866
100
AcDbEntity
  8
0
100
AcDbBlockEnd
  0
BLOCK
  5
1875
330
1874
100
AcDbEntity
  8
0
100
AcDbBlockBegin
  2
*D20
 70
     1
 10
0.0
 20
0.0
 30
0.0
  3
*D20
  1

  0
LINE
  5
18F8
330
1874
100
AcDbEntity
  8
0
 62
     0
370
    -2
100
AcDbLine
 10
389.4042808313642
 20
98.30880295173701
 30
0.0
 11
389.4042808313642
 21
96.03571528936972
 31
0.0
  0
LINE
  5
18F9
330
1874
100
AcDbEntity
  8
0
 62
     0
370
    -2
100
AcDbLine
 10
385.3999758781723
 20
98.30880295173701
 30
0.0
 11
385.3999758781723
 21
96.03571528936972
 31
0.0
  0
LINE
  5
18FA
330
1874
100
AcDbEntity
  8
0
 62
     0
370
    -2
100
AcDbLine
 10
391.9042808313641
 20
97.28571528936972
 30
0.0
 11
394.4042808313641
 21
97.28571528936972
 31
0.0
  0
LINE
  5
18FB
330
1874
100
AcDbEntity
  8
0
 62
     0
370
    -2
100
AcDbLine
 10
382.8999758781723
 20
97.28571528936972
 30
0.0
 11
371.1499758781723
 21
97.28571528936972
 31
0.0
  0
LINE
  5
18FC
330
1874
100
AcDbEntity
  8
0
 62
     0
370
    -2
100
AcDbLine
 10
389.4042808313642
 20
97.28571528936972
 30
0.0
 11
385.3999758781723
 21
97.28571528936972
 31
0.0
  0
INSERT
  5
18FD
330
1874
100
AcDbEntity
  8
0
 62
     0
370
    -2
100
AcDbBlockReference
  2
_Open30
 10
389.4042808313642
 20
97.28571528936972
 30
0.0
 41
2.5
 42
2.5
 43
2.5
 50
180.0
  0
INSERT
  5
18FE
330
1874
100
AcDbEntity
  8
0
 62
     0
370
    -2
100
AcDbBlockReference
  2
_Open30
 10
385.3999758781723
 20
97.28571528936972
 30
0.0
 41
2.5
 42
2.5
 43
2.5
  0
MTEXT
  5
18FF
330
1874
100
AcDbEntity
  8
0
 62
     4
100
AcDbMText
 10
375.7749758781723
 20
99.51071528936971
 30
0.0
 40
3.2
 41
0.0
 71
     5
 72
     1
  1
8.01
  7
高3.2
 73
     1
 44
1.0
1001
ACAD
1000
MTEXTBEGIN
1070
    73
1070
     1
1070
    44
1040
1.0
1070
    74
1070
     0
1000
MTEXTEND
  0
POINT
  5
1900
330
1874
100
AcDbEntity
  8
Defpoints
 62
     0
100
AcDbPoint
 10
389.4042808313642
 20
98.55880295173701
 30
0.0
  0
POINT
  5
1901
330
1874
100
AcDbEntity
  8
Defpoints
 62
     0
100
AcDbPoint
 10
385.3999758781723
 20
98.55880295173701
 30
0.0
  0
POINT
  5
1902
330
1874
100
AcDbEntity
  8
Defpoints
 62
     0
100
AcDbPoint
 10
385.3999758781723
 20
97.28571528936972
 30
0.0
  0
ENDBLK
  5
1876
330
1874
100
AcDbEntity
  8
0
100
AcDbBlockEnd
  0
BLOCK
  5
1883
330
1882
100
AcDbEntity
  8
0
100
AcDbBlockBegin
  2
*D21
 70
     1
 10
0.0
 20
0.0
 30
0.0
  3
*D21
  1

  0
LINE
  5
1903
330
1882
100
AcDbEntity
  8
0
 62
     0
370
    -2
100
AcDbLine
 10
389.3132741293518
 20
93.03458298370536
 30
0.0
 11
389.3132741293518
 21
91.21616947624898
 31
0.0
  0
LINE
  5
1904
330
1882
100
AcDbEntity
  8
0
 62
     0
370
    -2
100
AcDbLine
 10
384.5809134251356
 20
93.03458298370536
 30
0.0
 11
384.5809134251356
 21
91.21616947624898
 31
0.0
  0
LINE
  5
1905
330
1882
100
AcDbEntity
  8
0
 62
     0
370
    -2
100
AcDbLine
 10
391.8132741293518
 20
92.46616947624898
 30
0.0
 11
394.3132741293518
 21
92.46616947624898
 31
0.0
  0
LINE
  5
1906
330
1882
100
AcDbEntity
  8
0
 62
     0
370
    -2
100
AcDbLine
 10
382.0809134251356
 20
92.46616947624898
 30
0.0
 11
360.3309134251357
 21
92.46616947624898
 31
0.0
  0
LINE
  5
1907
330
1882
100
AcDbEntity
  8
0
 62
     0
370
    -2
100
AcDbLine
 10
389.3132741293518
 20
92.46616947624898
 30
0.0
 11
384.5809134251356
 21
92.46616947624898
 31
0.0
  0
INSERT
  5
1908
330
1882
100
AcDbEntity
  8
0
 62
     0
370
    -2
100
AcDbBlockReference
  2
_Open30
 10
389.3132741293518
 20
92.46616947624898
 30
0.0
 41
2.5
 42
2.5
 43
2.5
 50
180.0
  0
INSERT
  5
1909
330
1882
100
AcDbEntity
  8
0
 62
     0
370
    -2
100
AcDbBlockReference
  2
_Open30
 10
384.5809134251356
 20
92.46616947624898
 30
0.0
 41
2.5
 42
2.5
 43
2.5
  0
MTEXT
  5
190A
330
1882
100
AcDbEntity
  8
0
 62
     4
100
AcDbMText
 10
369.9559134251356
 20
95.341169476249
 30
0.0
 40
4.5
 41
0.0
 71
     5
 72
     1
  1
47.32
  7
高4.5
 73
     1
 44
1.0
1001
ACAD
1000
MTEXTBEGIN
1070
    73
1070
     1
1070
    44
1040
1.0
1070
    74
1070
     0
1000
MTEXTEND
  0
POINT
  5
190B
330
1882
100
AcDbEntity
  8
Defpoints
 62
     0
100
AcDbPoint
 10
389.3132741293518
 20
93.28458298370536
 30
0.0
  0
POINT
  5
190C
330
1882
100
AcDbEntity
  8
Defpoints
 62
     0
100
AcDbPoint
 10
384.5809134251356
 20
93.28458298370536
 30
0.0
  0
POINT
  5
190D
330
1882
100
AcDbEntity
  8
Defpoints
 62
     0
100
AcDbPoint
 10
384.5809134251356
 20
92.46616947624898
 30
0.0
  0
ENDBLK
  5
1884
330
1882
100
AcDbEntity
  8
0
100
AcDbBlockEnd
  0
BLOCK
  5
1891
330
1890
100
AcDbEntity
  8
0
100
AcDbBlockBegin
  2
*D22
 70
     1
 10
0.0
 20
0.0
 30
0.0
  3
*D22
  1

  0
LINE
  5
190E
330
1890
100
AcDbEntity
  8
0
 62
     0
370
    -2
100
AcDbLine
 10
410.7909103973591
 20
109.2209822403458
 30
0.0
 11
410.7909103973591
 21
106.311350818337
 31
0.0
  0
LINE
  5
190F
330
1890
100
AcDbEntity
  8
0
 62
     0
370
    -2
100
AcDbLine
 10
408.3337233432389
 20
109.2209822403458
 30
0.0
 11
408.3337233432389
 21
106.311350818337
 31
0.0
  0
LINE
  5
1910
330
1890
100
AcDbEntity
  8
0
 62
     0
370
    -2
100
AcDbLine
 10
413.2909103973593
 20
107.561350818337
 30
0.0
 11
415.7909103973591
 21
107.561350818337
 31
0.0
  0
LINE
  5
1911
330
1890
100
AcDbEntity
  8
0
 62
     0
370
    -2
100
AcDbLine
 10
405.8337233432387
 20
107.561350818337
 30
0.0
 11
384.233723343239
 21
107.561350818337
 31
0.0
  0
LINE
  5
1912
330
1890
100
AcDbEntity
  8
0
 62
     0
370
    -2
100
AcDbLine
 10
410.7909103973591
 20
107.561350818337
 30
0.0
 11
408.3337233432389
 21
107.561350818337
 31
0.0
  0
INSERT
  5
1913
330
1890
100
AcDbEntity
  8
0
 62
     0
370
    -2
100
AcDbBlockReference
  2
_Open30
 10
410.7909103973591
 20
107.561350818337
 30
0.0
 41
2.5
 42
2.5
 43
2.5
 50
180.0
  0
INSERT
  5
1914
330
1890
100
AcDbEntity
  8
0
 62
     0
370
    -2
100
AcDbBlockReference
  2
_Open30
 10
408.3337233432389
 20
107.561350818337
 30
0.0
 41
2.5
 42
2.5
 43
2.5
  0
MTEXT
  5
1915
330
1890
100
AcDbEntity
  8
0
 62
     4
100
AcDbMText
 10
393.7837233432389
 20
111.336350818337
 30
0.0
 40
6.299999999999998
 41
0.0
 71
     5
 72
     1
  1
0.25
  7
高6.3
 73
     1
 44
1.0
1001
ACAD
1000
MTEXTBEGIN
1070
    73
1070
     1
1070
    44
1040
1.0
1070
    74
1070
     0
1000
MTEXTEND
  0
POINT
  5
1916
330
1890
100
AcDbEntity
  8
Defpoints
 62
     0
100
AcDbPoint
 10
410.7909103973591
 20
109.4709822403458
 30
0.0
  0
POINT
  5
1917
330
1890
100
AcDbEntity
  8
Defpoints
 62
     0
100
AcDbPoint
 10
408.3337233432389
 20
109.4709822403458
 30
0.0
  0
POINT
  5
1918
330
1890
100
AcDbEntity
  8
Defpoints
 62
     0
100
AcDbPoint
 10
408.3337233432389
 20
107.561350818337
 30
0.0
  0
ENDBLK
  5
1892
330
1890
100
AcDbEntity
  8
0
100
AcDbBlockEnd
  0
BLOCK
  5
189F
330
189E
100
AcDbEntity
  8
0
100
AcDbBlockBegin
  2
*D23
 70
     1
 10
0.0
 20
0.0
 30
0.0
  3
*D23
  1

  0
LINE
  5
1919
330
189E
100
AcDbEntity
  8
0
 62
     0
370
    -2
100
AcDbLine
 10
412.4290353034323
 20
103.7648926675834
 30
0.0
 11
412.4290353034323
 21
101.2190005981201
 31
0.0
  0
LINE
  5
191A
330
189E
100
AcDbEntity
  8
0
 62
     0
370
    -2
100
AcDbLine
 10
409.3347995052895
 20
103.7648926675834
 30
0.0
 11
409.3347995052895
 21
101.2190005981201
 31
0.0
  0
LINE
  5
191B
330
189E
100
AcDbEntity
  8
0
 62
     0
370
    -2
100
AcDbLine
 10
414.9290353034324
 20
102.4690005981201
 30
0.0
 11
417.4290353034323
 21
102.4690005981201
 31
0.0
  0
LINE
  5
191C
330
189E
100
AcDbEntity
  8
0
 62
     0
370
    -2
100
AcDbLine
 10
406.8347995052895
 20
102.4690005981201
 30
0.0
 11
394.8347995052896
 21
102.4690005981201
 31
0.0
  0
LINE
  5
191D
330
189E
100
AcDbEntity
  8
0
 62
     0
370
    -2
100
AcDbLine
 10
412.4290353034323
 20
102.4690005981201
 30
0.0
 11
409.3347995052895
 21
102.4690005981201
 31
0.0
  0
INSERT
  5
191E
330
189E
100
AcDbEntity
  8
0
 62
     0
370
    -2
100
AcDbBlockReference
  2
_Open30
 10
412.4290353034323
 20
102.4690005981201
 30
0.0
 41
2.5
 42
2.5
 43
2.5
 50
180.0
  0
INSERT
  5
191F
330
189E
100
AcDbEntity
  8
0
 62
     0
370
    -2
100
AcDbBlockReference
  2
_Open30
 10
409.3347995052895
 20
102.4690005981201
 30
0.0
 41
2.5
 42
2.5
 43
2.5
  0
MTEXT
  5
1920
330
189E
100
AcDbEntity
  8
0
 62
     4
100
AcDbMText
 10
399.4597995052895
 20
104.5940005981201
 30
0.0
 40
3.0
 41
0.0
 71
     5
 72
     1
  1
1.55
 73
     1
 44
1.0
1001
ACAD
1000
MTEXTBEGIN
1070
    73
1070
     1
1070
    44
1040
1.0
1070
    74
1070
     0
1000
MTEXTEND
  0
POINT
  5
1921
330
189E
100
AcDbEntity
  8
Defpoints
 62
     0
100
AcDbPoint
 10
412.4290353034323
 20
104.0148926675834
 30
0.0
  0
POINT
  5
1922
330
189E
100
AcDbEntity
  8
Defpoints
 62
     0
100
AcDbPoint
 10
409.3347995052895
 20
104.0148926675834
 30
0.0
  0
POINT
  5
1923
330
189E
100
AcDbEntity
  8
Defpoints
 62
     0
100
AcDbPoint
 10
409.3347995052895
 20
102.4690005981201
 30
0.0
  0
ENDBLK
  5
18A0
330
189E
100
AcDbEntity
  8
0
100
AcDbBlockEnd
  0
BLOCK
  5
18AD
330
18AC
100
AcDbEntity
  8
0
100
AcDbBlockBegin
  2
*D24
 70
     1
 10
0.0
 20
0.0
 30
0.0
  3
*D24
  1

  0
LINE
  5
1924
330
18AC
100
AcDbEntity
  8
0
 62
     0
370
    -2
100
AcDbLine
 10
414.1581669115177
 20
98.30880295173701
 30
0.0
 11
414.1581669115177
 21
96.03571528936972
 31
0.0
  0
LINE
  5
1925
330
18AC
100
AcDbEntity
  8
0
 62
     0
370
    -2
100
AcDbLine
 10
410.153861958326
 20
98.30880295173701
 30
0.0
 11
410.153861958326
 21
96.03571528936972
 31
0.0
  0
LINE
  5
1926
330
18AC
100
AcDbEntity
  8
0
 62
     0
370
    -2
100
AcDbLine
 10
416.6581669115179
 20
97.28571528936972
 30
0.0
 11
419.1581669115178
 21
97.28571528936972
 31
0.0
  0
LINE
  5
1927
330
18AC
100
AcDbEntity
  8
0
 62
     0
370
    -2
100
AcDbLine
 10
407.6538619583261
 20
97.28571528936972
 30
0.0
 11
399.3205286249927
 21
97.28571528936972
 31
0.0
  0
LINE
  5
1928
330
18AC
100
AcDbEntity
  8
0
 62
     0
370
    -2
100
AcDbLine
 10
414.1581669115177
 20
97.28571528936972
 30
0.0
 11
410.153861958326
 21
97.28571528936972
 31
0.0
  0
INSERT
  5
1929
330
18AC
100
AcDbEntity
  8
0
 62
     0
370
    -2
100
AcDbBlockReference
  2
_Open30
 10
414.1581669115177
 20
97.28571528936972
 30
0.0
 41
2.5
 42
2.5
 43
2.5
 50
180.0
  0
INSERT
  5
192A
330
18AC
100
AcDbEntity
  8
0
 62
     0
370
    -2
100
AcDbBlockReference
  2
_Open30
 10
410.153861958326
 20
97.28571528936972
 30
0.0
 41
2.5
 42
2.5
 43
2.5
  0
MTEXT
  5
192B
330
18AC
100
AcDbEntity
  8
0
 62
     4
100
AcDbMText
 10
401.7788619583261
 20
98.91071528936969
 30
0.0
 40
2.0
 41
0.0
 71
     5
 72
     1
  1
0.8
  7
高2
 73
     1
 44
1.0
1001
ACAD
1000
MTEXTBEGIN
1070
    73
1070
     1
1070
    44
1040
1.0
1070
    74
1070
     0
1000
MTEXTEND
  0
POINT
  5
192C
330
18AC
100
AcDbEntity
  8
Defpoints
 62
     0
100
AcDbPoint
 10
414.1581669115177
 20
98.55880295173701
 30
0.0
  0
POINT
  5
192D
330
18AC
100
AcDbEntity
  8
Defpoints
 62
     0
100
AcDbPoint
 10
410.153861958326
 20
98.55880295173701
 30
0.0
  0
POINT
  5
192E
330
18AC
100
AcDbEntity
  8
Defpoints
 62
     0
100
AcDbPoint
 10
410.153861958326
 20
97.28571528936972
 30
0.0
  0
ENDBLK
  5
18AE
330
18AC
100
AcDbEntity
  8
0
100
AcDbBlockEnd
  0
BLOCK
  5
18BB
330
18BA
100
AcDbEntity
  8
0
100
AcDbBlockBegin
  2
*D25
 70
     1
 10
0.0
 20
0.0
 30
0.0
  3
*D25
  1

  0
LINE
  5
192F
330
18BA
100
AcDbEntity
  8
0
 62
     0
370
    -2
100
AcDbLine
 10
414.0671602095056
 20
93.03458298370536
 30
0.0
 11
414.0671602095056
 21
91.21616947624898
 31
0.0
  0
LINE
  5
1930
330
18BA
100
AcDbEntity
  8
0
 62
     0
370
    -2
100
AcDbLine
 10
409.3347995052895
 20
93.03458298370536
 30
0.0
 11
409.3347995052895
 21
91.21616947624898
 31
0.0
  0
LINE
  5
1931
330
18BA
100
AcDbEntity
  8
0
 62
     0
370
    -2
100
AcDbLine
 10
416.5671602095056
 20
92.46616947624898
 30
0.0
 11
419.0671602095056
 21
92.46616947624898
 31
0.0
  0
LINE
  5
1932
330
18BA
100
AcDbEntity
  8
0
 62
     0
370
    -2
100
AcDbLine
 10
406.8347995052895
 20
92.46616947624898
 30
0.0
 11
392.0847995052895
 21
92.46616947624898
 31
0.0
  0
LINE
  5
1933
330
18BA
100
AcDbEntity
  8
0
 62
     0
370
    -2
100
AcDbLine
 10
414.0671602095056
 20
92.46616947624898
 30
0.0
 11
409.3347995052895
 21
92.46616947624898
 31
0.0
  0
INSERT
  5
1934
330
18BA
100
AcDbEntity
  8
0
 62
     0
370
    -2
100
AcDbBlockReference
  2
_Open30
 10
414.0671602095056
 20
92.46616947624898
 30
0.0
 41
2.5
 42
2.5
 43
2.5
 50
180.0
  0
INSERT
  5
1935
330
18BA
100
AcDbEntity
  8
0
 62
     0
370
    -2
100
AcDbBlockReference
  2
_Open30
 10
409.3347995052895
 20
92.46616947624898
 30
0.0
 41
2.5
 42
2.5
 43
2.5
  0
MTEXT
  5
1936
330
18BA
100
AcDbEntity
  8
0
 62
     4
100
AcDbMText
 10
398.2097995052896
 20
94.59116947624895
 30
0.0
 40
3.0
 41
0.0
 71
     5
 72
     1
  1
18.93
 73
     1
 44
1.0
1001
ACAD
1000
MTEXTBEGIN
1070
    73
1070
     1
1070
    44
1040
1.0
1070
    74
1070
     0
1000
MTEXTEND
  0
POINT
  5
1937
330
18BA
100
AcDbEntity
  8
Defpoints
 62
     0
100
AcDbPoint
 10
414.0671602095056
 20
93.28458298370536
 30
0.0
  0
POINT
  5
1938
330
18BA
100
AcDbEntity
  8
Defpoints
 62
     0
100
AcDbPoint
 10
409.3347995052895
 20
93.28458298370536
 30
0.0
  0
POINT
  5
1939
330
18BA
100
AcDbEntity
  8
Defpoints
 62
     0
100
AcDbPoint
 10
409.3347995052895
 20
92.46616947624898
 30
0.0
  0
ENDBLK
  5
18BC
330
18BA
100
AcDbEntity
  8
0
100
AcDbBlockEnd
  0
BLOCK
  5
18C9
330
18C8
100
AcDbEntity
  8
0
100
AcDbBlockBegin
  2
*D26
 70
     1
 10
0.0
 20
0.0
 30
0.0
  3
*D26
  1

  0
LINE
  5
193A
330
18C8
100
AcDbEntity
  8
0
 62
     0
370
    -2
100
AcDbLine
 10
411.2627333583673
 20
87.9787427771156
 30
0.0
 11
411.2627333583673
 21
85.66882170024006
 31
0.0
  0
LINE
  5
193B
330
18C8
100
AcDbEntity
  8
0
 62
     0
370
    -2
100
AcDbLine
 10
406.6740581562194
 20
87.9787427771156
 30
0.0
 11
406.6740581562194
 21
85.66882170024006
 31
0.0
  0
LINE
  5
193C
330
18C8
100
AcDbEntity
  8
0
 62
     0
370
    -2
100
AcDbLine
 10
413.7627333583671
 20
86.91882170024006
 30
0.0
 11
416.2627333583673
 21
86.91882170024006
 31
0.0
  0
LINE
  5
193D
330
18C8
100
AcDbEntity
  8
0
 62
     0
370
    -2
100
AcDbLine
 10
404.1740581562192
 20
86.91882170024006
 30
0.0
 11
389.4240581562194
 21
86.91882170024006
 31
0.0
  0
LINE
  5
193E
330
18C8
100
AcDbEntity
  8
0
 62
     0
370
    -2
100
AcDbLine
 10
411.2627333583673
 20
86.91882170024006
 30
0.0
 11
406.6740581562194
 21
86.91882170024006
 31
0.0
  0
INSERT
  5
193F
330
18C8
100
AcDbEntity
  8
0
 62
     0
370
    -2
100
AcDbBlockReference
  2
_Open30
 10
411.2627333583673
 20
86.91882170024006
 30
0.0
 41
2.5
 42
2.5
 43
2.5
 50
180.0
  0
INSERT
  5
1940
330
18C8
100
AcDbEntity
  8
0
 62
     0
370
    -2
100
AcDbBlockReference
  2
_Open30
 10
406.6740581562194
 20
86.91882170024006
 30
0.0
 41
2.5
 42
2.5
 43
2.5
  0
MTEXT
  5
1941
330
18C8
100
AcDbEntity
  8
0
 62
     4
100
AcDbMText
 10
395.5490581562194
 20
89.04382170024005
 30
0.0
 40
3.0
 41
0.0
 71
     5
 72
     1
  1
13.77
 73
     1
 44
1.0
1001
ACAD
1000
MTEXTBEGIN
1070
    73
1070
     1
1070
    44
1040
1.0
1070
    74
1070
     0
1000
MTEXTEND
  0
POINT
  5
1942
330
18C8
100
AcDbEntity
  8
Defpoints
 62
     0
100
AcDbPoint
 10
411.2627333583673
 20
88.2287427771156
 30
0.0
  0
POINT
  5
1943
330
18C8
100
AcDbEntity
  8
Defpoints
 62
     0
100
AcDbPoint
 10
406.6740581562194
 20
88.2287427771156
 30
0.0
  0
POINT
  5
1944
330
18C8
100
AcDbEntity
  8
Defpoints
 62
     0
100
AcDbPoint
 10
406.6740581562194
 20
86.91882170024006
 30
0.0
  0
ENDBLK
  5
18CA
330
18C8
100
AcDbEntity
  8
0
100
AcDbBlockEnd
  0
BLOCK
  5
18D7
330
18D6
100
AcDbEntity
  8
0
100
AcDbBlockBegin
  2
*D27
 70
     1
 10
0.0
 20
0.0
 30
0.0
  3
*D27
  1

  0
LINE
  5
1945
330
18D6
100
AcDbEntity
  8
0
 62
     0
370
    -2
100
AcDbLine
 10
404.1664505252169
 20
118.9082340953899
 30
0.0
 11
404.1664505252169
 21
126.3047675733277
 31
0.0
  0
LINE
  5
1946
330
18D6
100
AcDbEntity
  8
0
 62
     0
370
    -2
100
AcDbLine
 10
394.227976155727
 20
118.9082340953899
 30
0.0
 11
394.227976155727
 21
126.3047675733277
 31
0.0
  0
LINE
  5
1947
330
18D6
100
AcDbEntity
  8
0
 62
     0
370
    -2
100
AcDbLine
 10
401.666450525217
 20
125.0547675733277
 30
0.0
 11
396.727976155727
 21
125.0547675733277
 31
0.0
  0
INSERT
  5
1948
330
18D6
100
AcDbEntity
  8
0
 62
     0
370
    -2
100
AcDbBlockReference
  2
_Open30
 10
404.1664505252169
 20
125.0547675733277
 30
0.0
 41
2.5
 42
2.5
 43
2.5
  0
INSERT
  5
1949
330
18D6
100
AcDbEntity
  8
0
 62
     0
370
    -2
100
AcDbBlockReference
  2
_Open30
 10
394.227976155727
 20
125.0547675733277
 30
0.0
 41
2.5
 42
2.5
 43
2.5
 50
180.0
  0
MTEXT
  5
194A
330
18D6
100
AcDbEntity
  8
0
 62
     4
100
AcDbMText
 10
399.1972133404721
 20
128.1297675733277
 30
0.0
 40
3.0
 41
0.0
 71
     5
 72
     1
  1
9.94\H0.7X;\S+0^ -0.02;
 73
     1
 44
1.0
1001
ACAD
1000
MTEXTBEGIN
1070
    73
1070
     1
1070
    44
1040
1.0
1070
    74
1070
     0
1000
MTEXTEND
  0
POINT
  5
194B
330
18D6
100
AcDbEntity
  8
Defpoints
 62
     0
100
AcDbPoint
 10
404.1664505252169
 20
118.6582340953899
 30
0.0
  0
POINT
  5
194C
330
18D6
100
AcDbEntity
  8
Defpoints
 62
     0
100
AcDbPoint
 10
394.227976155727
 20
118.6582340953899
 30
0.0
  0
POINT
  5
194D
330
18D6
100
AcDbEntity
  8
Defpoints
 62
     0
100
AcDbPoint
 10
394.227976155727
 20
125.0547675733277
 30
0.0
  0
ENDBLK
  5
18D8
330
18D6
100
AcDbEntity
  8
0
100
AcDbBlockEnd
  0
BLOCK
  5
1DB2
330
1DB1
100
AcDbEntity
  8
0
100
AcDbBlockBegin
  2
*D28
 70
     1
 10
0.0
 20
0.0
 30
0.0
  3
*D28
  1

  0
LINE
  5
1DBD
330
1DB1
100
AcDbEntity
  8
0
  6
Continuous
 62
     0
370
    -2
100
AcDbLine
 10
774.8587182142096
 20
-233.2051299164104
 30
0.0
 11
774.8587182142096
 21
-226.8421201258222
 31
0.0
  0
LINE
  5
1DBE
330
1DB1
100
AcDbEntity
  8
0
  6
Continuous
 62
     0
370
    -2
100
AcDbLine
 10
785.3587182142096
 20
-236.4551299164105
 30
0.0
 11
785.3587182142096
 21
-226.8421201258222
 31
0.0
  0
LINE
  5
1DBF
330
1DB1
100
AcDbEntity
  8
0
  6
Continuous
 62
     0
370
    -2
100
AcDbLine
 10
777.3587182142096
 20
-228.0921201258223
 30
0.0
 11
782.8587182142094
 21
-228.0921201258223
 31
0.0
  0
INSERT
  5
1DC0
330
1DB1
100
AcDbEntity
  8
0
  6
Continuous
 62
     0
370
    -2
100
AcDbBlockReference
  2
_Open30
 10
774.8587182142096
 20
-228.0921201258223
 30
0.0
 41
2.5
 42
2.5
 43
2.5
 50
180.0
  0
INSERT
  5
1DC1
330
1DB1
100
AcDbEntity
  8
0
  6
Continuous
 62
     0
370
    -2
100
AcDbBlockReference
  2
_Open30
 10
785.3587182142096
 20
-228.0921201258223
 30
0.0
 41
2.5
 42
2.5
 43
2.5
  0
MTEXT
  5
1DC2
330
1DB1
100
AcDbEntity
  8
0
  6
Continuous
 62
     4
100
AcDbMText
 10
779.5429574260952
 20
-225.9671201258222
 30
0.0
 40
3.0
 41
0.0
 71
     5
 72
     1
  1
10.5
 73
     1
 44
1.0
1001
ACAD
1000
MTEXTBEGIN
1070
    73
1070
     1
1070
    44
1040
1.0
1070
    74
1070
     0
1000
MTEXTEND
  0
POINT
  5
1DC3
330
1DB1
100
AcDbEntity
  8
Defpoints
  6
Continuous
 62
     0
100
AcDbPoint
 10
774.8587182142096
 20
-233.4551299164104
 30
0.0
  0
POINT
  5
1DC4
330
1DB1
100
AcDbEntity
  8
Defpoints
  6
Continuous
 62
     0
100
AcDbPoint
 10
785.3587182142096
 20
-236.7051299164105
 30
0.0
  0
POINT
  5
1DC5
330
1DB1
100
AcDbEntity
  8
Defpoints
  6
Continuous
 62
     0
100
AcDbPoint
 10
785.3587182142096
 20
-228.0921201258223
 30
0.0
  0
ENDBLK
  5
1DB3
330
1DB1
100
AcDbEntity
  8
0
100
AcDbBlockEnd
  0
BLOCK
  5
1F2B
330
1F2A
100
AcDbEntity
  8
0
100
AcDbBlockBegin
  2
*D29
 70
     1
 10
0.0
 20
0.0
 30
0.0
  3
*D29
  1

  0
LINE
  5
2D02
330
1F2A
100
AcDbEntity
  8
0
  6
Continuous
 62
     0
370
    -2
100
AcDbLine
 10
68.4376513912167
 20
80.85144588498605
 30
0.0
 11
48.21436893811323
 21
80.85144588498605
 31
0.0
  0
LINE
  5
2D03
330
1F2A
100
AcDbEntity
  8
0
  6
Continuous
 62
     0
370
    -2
100
AcDbLine
 10
68.43765139121659
 20
64.60144588498611
 30
0.0
 11
48.21436893811323
 21
64.60144588498611
 31
0.0
  0
LINE
  5
2D04
330
1F2A
100
AcDbEntity
  8
0
  6
Continuous
 62
     0
370
    -2
100
AcDbLine
 10
49.46436893811323
 20
78.35144588498605
 30
0.0
 11
49.46436893811323
 21
67.10144588498611
 31
0.0
  0
INSERT
  5
2D05
330
1F2A
100
AcDbEntity
  8
0
  6
Continuous
 62
     0
370
    -2
100
AcDbBlockReference
  2
_Open30
 10
49.46436893811323
 20
80.85144588498605
 30
0.0
 41
2.5
 42
2.5
 43
2.5
 50
90.0
  0
INSERT
  5
2D06
330
1F2A
100
AcDbEntity
  8
0
  6
Continuous
 62
     0
370
    -2
100
AcDbBlockReference
  2
_Open30
 10
49.46436893811323
 20
64.60144588498611
 30
0.0
 41
2.5
 42
2.5
 43
2.5
 50
270.0
  0
MTEXT
  5
2D07
330
1F2A
100
AcDbEntity
  8
0
  6
Continuous
 62
     4
100
AcDbMText
 10
47.33936893811322
 20
72.56611283784469
 30
0.0
 40
3.0
 41
0.0
 71
     5
 72
     1
  1
32.5
 11
0.0000000000000001
 21
1.0
 31
0.0
 73
     1
 44
1.0
1001
ACAD
1000
MTEXTBEGIN
1070
    73
1070
     1
1070
    44
1040
1.0
1070
    74
1070
     0
1000
MTEXTEND
  0
POINT
  5
2D08
330
1F2A
100
AcDbEntity
  8
Defpoints
  6
Continuous
 62
     0
100
AcDbPoint
 10
68.6876513912167
 20
80.85144588498605
 30
0.0
  0
POINT
  5
2D09
330
1F2A
100
AcDbEntity
  8
Defpoints
  6
Continuous
 62
     0
100
AcDbPoint
 10
68.68765139121659
 20
64.60144588498611
 30
0.0
  0
POINT
  5
2D0A
330
1F2A
100
AcDbEntity
  8
Defpoints
  6
Continuous
 62
     0
100
AcDbPoint
 10
49.46436893811323
 20
64.60144588498611
 30
0.0
  0
ENDBLK
  5
1F2C
330
1F2A
100
AcDbEntity
  8
0
100
AcDbBlockEnd
  0
BLOCK
  5
1F38
330
1F37
100
AcDbEntity
  8
0
100
AcDbBlockBegin
  2
*D30
 70
     1
 10
0.0
 20
0.0
 30
0.0
  3
*D30
  1

  0
LINE
  5
2D0B
330
1F37
100
AcDbEntity
  8
0
  6
Continuous
 62
     0
370
    -2
100
AcDbLine
 10
61.43765139121659
 20
71.60144588498609
 30
0.0
 11
61.43765139121659
 21
55.55619906074138
 31
0.0
  0
LINE
  5
2D0C
330
1F37
100
AcDbEntity
  8
0
  6
Continuous
 62
     0
370
    -2
100
AcDbLine
 10
75.93765139121659
 20
71.60144588498609
 30
0.0
 11
75.93765139121659
 21
55.55619906074138
 31
0.0
  0
LINE
  5
2D0D
330
1F37
100
AcDbEntity
  8
0
  6
Continuous
 62
     0
370
    -2
100
AcDbLine
 10
63.93765139121659
 20
56.80619906074138
 30
0.0
 11
73.43765139121659
 21
56.80619906074138
 31
0.0
  0
INSERT
  5
2D0E
330
1F37
100
AcDbEntity
  8
0
  6
Continuous
 62
     0
370
    -2
100
AcDbBlockReference
  2
_Open30
 10
61.43765139121659
 20
56.80619906074138
 30
0.0
 41
2.5
 42
2.5
 43
2.5
 50
180.0
  0
INSERT
  5
2D0F
330
1F37
100
AcDbEntity
  8
0
  6
Continuous
 62
     0
370
    -2
100
AcDbBlockReference
  2
_Open30
 10
75.93765139121659
 20
56.80619906074138
 30
0.0
 41
2.5
 42
2.5
 43
2.5
  0
MTEXT
  5
2D10
330
1F37
100
AcDbEntity
  8
0
  6
Continuous
 62
     4
100
AcDbMText
 10
68.68765139121659
 20
58.93119906074138
 30
0.0
 40
3.0
 41
0.0
 71
     5
 72
     1
  1
29
 73
     1
 44
1.0
1001
ACAD
1000
MTEXTBEGIN
1070
    73
1070
     1
1070
    44
1040
1.0
1070
    74
1070
     0
1000
MTEXTEND
  0
POINT
  5
2D11
330
1F37
100
AcDbEntity
  8
Defpoints
  6
Continuous
 62
     0
100
AcDbPoint
 10
61.43765139121659
 20
71.85144588498609
 30
0.0
  0
POINT
  5
2D12
330
1F37
100
AcDbEntity
  8
Defpoints
  6
Continuous
 62
     0
100
AcDbPoint
 10
75.93765139121659
 20
71.85144588498609
 30
0.0
  0
POINT
  5
2D13
330
1F37
100
AcDbEntity
  8
Defpoints
  6
Continuous
 62
     0
100
AcDbPoint
 10
75.93765139121659
 20
56.80619906074138
 30
0.0
  0
ENDBLK
  5
1F39
330
1F37
100
AcDbEntity
  8
0
100
AcDbBlockEnd
  0
BLOCK
  5
1F4E
330
1F4D
100
AcDbEntity
  8
0
100
AcDbBlockBegin
  2
*D31
 70
     1
 10
0.0
 20
0.0
 30
0.0
  3
*D31
  1

  0
LINE
  5
2D14
330
1F4D
100
AcDbEntity
  8
0
  6
Continuous
 62
     0
370
    -2
100
AcDbLine
 10
68.43765139121659
 20
79.60144588498611
 30
0.0
 11
54.23617730396427
 21
79.60144588498611
 31
0.0
  0
LINE
  5
2D15
330
1F4D
100
AcDbEntity
  8
0
  6
Continuous
 62
     0
370
    -2
100
AcDbLine
 10
68.43765139121659
 20
65.85144588498611
 30
0.0
 11
54.23617730396427
 21
65.85144588498611
 31
0.0
  0
LINE
  5
2D16
330
1F4D
100
AcDbEntity
  8
0
  6
Continuous
 62
     0
370
    -2
100
AcDbLine
 10
55.48617730396427
 20
77.10144588498611
 30
0.0
 11
55.48617730396427
 21
68.35144588498611
 31
0.0
  0
INSERT
  5
2D17
330
1F4D
100
AcDbEntity
  8
0
  6
Continuous
 62
     0
370
    -2
100
AcDbBlockReference
  2
_Open30
 10
55.48617730396427
 20
79.60144588498611
 30
0.0
 41
2.5
 42
2.5
 43
2.5
 50
90.0
  0
INSERT
  5
2D18
330
1F4D
100
AcDbEntity
  8
0
  6
Continuous
 62
     0
370
    -2
100
AcDbBlockReference
  2
_Open30
 10
55.48617730396427
 20
65.85144588498611
 30
0.0
 41
2.5
 42
2.5
 43
2.5
 50
270.0
  0
MTEXT
  5
2D19
330
1F4D
100
AcDbEntity
  8
0
  6
Continuous
 62
     4
100
AcDbMText
 10
53.36117730396427
 20
73.13464768718791
 30
0.0
 40
3.0
 41
0.0
 71
     5
 72
     1
  1
%%C27.5
 11
0.0000000000000001
 21
1.0
 31
0.0
 73
     1
 44
1.0
1001
ACAD
1000
MTEXTBEGIN
1070
    73
1070
     1
1070
    44
1040
1.0
1070
    74
1070
     0
1000
MTEXTEND
  0
POINT
  5
2D1A
330
1F4D
100
AcDbEntity
  8
Defpoints
  6
Continuous
 62
     0
100
AcDbPoint
 10
68.68765139121659
 20
79.60144588498611
 30
0.0
  0
POINT
  5
2D1B
330
1F4D
100
AcDbEntity
  8
Defpoints
  6
Continuous
 62
     0
100
AcDbPoint
 10
68.68765139121659
 20
65.85144588498611
 30
0.0
  0
POINT
  5
2D1C
330
1F4D
100
AcDbEntity
  8
Defpoints
  6
Continuous
 62
     0
100
AcDbPoint
 10
55.48617730396427
 20
65.85144588498611
 30
0.0
  0
ENDBLK
  5
1F4F
330
1F4D
100
AcDbEntity
  8
0
100
AcDbBlockEnd
  0
BLOCK
  5
1F6D
330
1F6C
100
AcDbEntity
  8
0
100
AcDbBlockBegin
  2
*D32
 70
     1
 10
0.0
 20
0.0
 30
0.0
  3
*D32
  1

  0
LINE
  5
2D1D
330
1F6C
100
AcDbEntity
  8
0
  6
Continuous
 62
     0
370
    -2
100
AcDbLine
 10
35.1164283769142
 20
79.47644588498609
 30
0.0
 11
35.1164283769142
 21
98.31633973020712
 31
0.0
  0
LINE
  5
2D1E
330
1F6C
100
AcDbEntity
  8
0
  6
Continuous
 62
     0
370
    -2
100
AcDbLine
 10
-78.93161670140376
 20
79.47644588498609
 30
0.0
 11
-78.93161670140376
 21
98.31633973020712
 31
0.0
  0
LINE
  5
2D1F
330
1F6C
100
AcDbEntity
  8
0
  6
Continuous
 62
     0
370
    -2
100
AcDbLine
 10
32.6164283769142
 20
97.06633973020712
 30
0.0
 11
-76.43161670140376
 21
97.06633973020712
 31
0.0
  0
INSERT
  5
2D20
330
1F6C
100
AcDbEntity
  8
0
  6
Continuous
 62
     0
370
    -2
100
AcDbBlockReference
  2
_Open30
 10
35.1164283769142
 20
97.06633973020712
 30
0.0
 41
2.5
 42
2.5
 43
2.5
  0
INSERT
  5
2D21
330
1F6C
100
AcDbEntity
  8
0
  6
Continuous
 62
     0
370
    -2
100
AcDbBlockReference
  2
_Open30
 10
-78.93161670140376
 20
97.06633973020712
 30
0.0
 41
2.5
 42
2.5
 43
2.5
 50
180.0
  0
MTEXT
  5
2D22
330
1F6C
100
AcDbEntity
  8
0
  6
Continuous
 62
     4
100
AcDbMText
 10
-21.90759416224478
 20
99.19133973020713
 30
0.0
 40
3.0
 41
0.0
 71
     5
 72
     1
  1
1198
 73
     1
 44
1.0
1001
ACAD
1000
MTEXTBEGIN
1070
    73
1070
     1
1070
    44
1040
1.0
1070
    74
1070
     0
1000
MTEXTEND
  0
POINT
  5
2D23
330
1F6C
100
AcDbEntity
  8
Defpoints
  6
Continuous
 62
     0
100
AcDbPoint
 10
35.1164283769142
 20
79.22644588498609
 30
0.0
  0
POINT
  5
2D24
330
1F6C
100
AcDbEntity
  8
Defpoints
  6
Continuous
 62
     0
100
AcDbPoint
 10
-78.93161670140376
 20
79.22644588498609
 30
0.0
  0
POINT
  5
2D25
330
1F6C
100
AcDbEntity
  8
Defpoints
  6
Continuous
 62
     0
100
AcDbPoint
 10
-78.93161670140376
 20
97.06633973020712
 30
0.0
  0
ENDBLK
  5
1F6E
330
1F6C
100
AcDbEntity
  8
0
100
AcDbBlockEnd
  0
BLOCK
  5
1F84
330
1F83
100
AcDbEntity
  8
0
100
AcDbBlockBegin
  2
*D33
 70
     1
 10
0.0
 20
0.0
 30
0.0
  3
*D33
  1

  0
LINE
  5
2D26
330
1F83
100
AcDbEntity
  8
0
  6
Continuous
 62
     0
370
    -2
100
AcDbLine
 10
38.8664283769142
 20
73.35144588498609
 30
0.0
 11
38.8664283769142
 21
104.3531517358026
 31
0.0
  0
LINE
  5
2D27
330
1F83
100
AcDbEntity
  8
0
  6
Continuous
 62
     0
370
    -2
100
AcDbLine
 10
-82.68161670140376
 20
73.35144588498609
 30
0.0
 11
-82.68161670140376
 21
104.3531517358026
 31
0.0
  0
LINE
  5
2D28
330
1F83
100
AcDbEntity
  8
0
  6
Continuous
 62
     0
370
    -2
100
AcDbLine
 10
36.3664283769142
 20
103.1031517358026
 30
0.0
 11
-80.18161670140376
 21
103.1031517358026
 31
0.0
  0
INSERT
  5
2D29
330
1F83
100
AcDbEntity
  8
0
  6
Continuous
 62
     0
370
    -2
100
AcDbBlockReference
  2
_Open30
 10
38.8664283769142
 20
103.1031517358026
 30
0.0
 41
2.5
 42
2.5
 43
2.5
  0
INSERT
  5
2D2A
330
1F83
100
AcDbEntity
  8
0
  6
Continuous
 62
     0
370
    -2
100
AcDbBlockReference
  2
_Open30
 10
-82.68161670140376
 20
103.1031517358026
 30
0.0
 41
2.5
 42
2.5
 43
2.5
 50
180.0
  0
MTEXT
  5
2D2B
330
1F83
100
AcDbEntity
  8
0
  6
Continuous
 62
     4
100
AcDbMText
 10
-21.90759416224478
 20
105.2281517358026
 30
0.0
 40
3.0
 41
0.0
 71
     5
 72
     1
  1
1213
 73
     1
 44
1.0
1001
ACAD
1000
MTEXTBEGIN
1070
    73
1070
     1
1070
    44
1040
1.0
1070
    74
1070
     0
1000
MTEXTEND
  0
POINT
  5
2D2C
330
1F83
100
AcDbEntity
  8
Defpoints
  6
Continuous
 62
     0
100
AcDbPoint
 10
38.8664283769142
 20
73.10144588498609
 30
0.0
  0
POINT
  5
2D2D
330
1F83
100
AcDbEntity
  8
Defpoints
  6
Continuous
 62
     0
100
AcDbPoint
 10
-82.68161670140376
 20
73.10144588498609
 30
0.0
  0
POINT
  5
2D2E
330
1F83
100
AcDbEntity
  8
Defpoints
  6
Continuous
 62
     0
100
AcDbPoint
 10
-82.68161670140376
 20
103.1031517358026
 30
0.0
  0
ENDBLK
  5
1F85
330
1F83
100
AcDbEntity
  8
0
100
AcDbBlockEnd
  0
BLOCK
  5
1FBE
330
1FBD
100
AcDbEntity
  8
0
100
AcDbBlockBegin
  2
*D34
 70
     1
 10
0.0
 20
0.0
 30
0.0
  3
*D34
  1

  0
LINE
  5
2D2F
330
1FBD
100
AcDbEntity
  8
0
  6
Continuous
 62
     0
370
    -2
100
AcDbLine
 10
-41.35918016248346
 20
80.1014458849861
 30
0.0
 11
-45.18582235712755
 21
80.1014458849861
 31
0.0
  0
LINE
  5
2D30
330
1FBD
100
AcDbEntity
  8
0
  6
Continuous
 62
     0
370
    -2
100
AcDbLine
 10
-41.35918016248346
 20
65.3514458849861
 30
0.0
 11
-45.18582235712755
 21
65.3514458849861
 31
0.0
  0
LINE
  5
2D31
330
1FBD
100
AcDbEntity
  8
0
  6
Continuous
 62
     0
370
    -2
100
AcDbLine
 10
-43.93582235712755
 20
62.8514458849861
 30
0.0
 11
-43.93582235712755
 21
60.3514458849861
 31
0.0
  0
LINE
  5
2D32
330
1FBD
100
AcDbEntity
  8
0
  6
Continuous
 62
     0
370
    -2
100
AcDbLine
 10
-43.93582235712755
 20
82.6014458849861
 30
0.0
 11
-43.93582235712755
 21
95.35144588498608
 31
0.0
  0
LINE
  5
2D33
330
1FBD
100
AcDbEntity
  8
0
  6
Continuous
 62
     0
370
    -2
100
AcDbLine
 10
-43.93582235712755
 20
65.3514458849861
 30
0.0
 11
-43.93582235712755
 21
80.1014458849861
 31
0.0
  0
INSERT
  5
2D34
330
1FBD
100
AcDbEntity
  8
0
  6
Continuous
 62
     0
370
    -2
100
AcDbBlockReference
  2
_Open30
 10
-43.93582235712755
 20
65.3514458849861
 30
0.0
 41
2.5
 42
2.5
 43
2.5
 50
90.0
  0
INSERT
  5
2D35
330
1FBD
100
AcDbEntity
  8
0
  6
Continuous
 62
     0
370
    -2
100
AcDbBlockReference
  2
_Open30
 10
-43.93582235712755
 20
80.1014458849861
 30
0.0
 41
2.5
 42
2.5
 43
2.5
 50
270.0
  0
MTEXT
  5
2D36
330
1FBD
100
AcDbEntity
  8
0
  6
Continuous
 62
     4
100
AcDbMText
 10
-46.06082235712756
 20
90.22644588498607
 30
0.0
 40
3.0
 41
0.0
 71
     5
 72
     1
  1
29.5
 11
0.0000000000000001
 21
1.0
 31
0.0
 73
     1
 44
1.0
1001
ACAD
1000
MTEXTBEGIN
1070
    73
1070
     1
1070
    44
1040
1.0
1070
    74
1070
     0
1000
MTEXTEND
  0
POINT
  5
2D37
330
1FBD
100
AcDbEntity
  8
Defpoints
  6
Continuous
 62
     0
100
AcDbPoint
 10
-41.10918016248347
 20
80.1014458849861
 30
0.0
  0
POINT
  5
2D38
330
1FBD
100
AcDbEntity
  8
Defpoints
  6
Continuous
 62
     0
100
AcDbPoint
 10
-41.10918016248347
 20
65.3514458849861
 30
0.0
  0
POINT
  5
2D39
330
1FBD
100
AcDbEntity
  8
Defpoints
  6
Continuous
 62
     0
100
AcDbPoint
 10
-43.93582235712755
 20
65.3514458849861
 30
0.0
  0
ENDBLK
  5
1FBF
330
1FBD
100
AcDbEntity
  8
0
100
AcDbBlockEnd
  0
BLOCK
  5
1FD1
330
1FD0
100
AcDbEntity
  8
0
100
AcDbBlockBegin
  2
*D35
 70
     1
 10
0.0
 20
0.0
 30
0.0
  3
*D35
  1

  0
LINE
  5
2D3A
330
1FD0
100
AcDbEntity
  8
0
  6
Continuous
 62
     0
370
    -2
100
AcDbLine
 10
-43.72756784919115
 20
44.81732579885988
 30
0.0
 11
-49.48497997696723
 21
44.81732579885989
 31
0.0
  0
LINE
  5
2D3B
330
1FD0
100
AcDbEntity
  8
0
  6
Continuous
 62
     0
370
    -2
100
AcDbLine
 10
-43.72756784919115
 20
31.81732579885988
 30
0.0
 11
-49.48497997696723
 21
31.81732579885988
 31
0.0
  0
LINE
  5
2D3C
330
1FD0
100
AcDbEntity
  8
0
  6
Continuous
 62
     0
370
    -2
100
AcDbLine
 10
-48.23497997696723
 20
29.31732579885988
 30
0.0
 11
-48.23497997696723
 21
26.81732579885988
 31
0.0
  0
LINE
  5
2D3D
330
1FD0
100
AcDbEntity
  8
0
  6
Continuous
 62
     0
370
    -2
100
AcDbLine
 10
-48.23497997696723
 20
47.31732579885989
 30
0.0
 11
-48.23497997696722
 21
56.0673257988599
 31
0.0
  0
LINE
  5
2D3E
330
1FD0
100
AcDbEntity
  8
0
  6
Continuous
 62
     0
370
    -2
100
AcDbLine
 10
-48.23497997696723
 20
31.81732579885988
 30
0.0
 11
-48.23497997696723
 21
44.81732579885989
 31
0.0
  0
INSERT
  5
2D3F
330
1FD0
100
AcDbEntity
  8
0
  6
Continuous
 62
     0
370
    -2
100
AcDbBlockReference
  2
_Open30
 10
-48.23497997696723
 20
31.81732579885988
 30
0.0
 41
2.5
 42
2.5
 43
2.5
 50
90.0
  0
INSERT
  5
2D40
330
1FD0
100
AcDbEntity
  8
0
  6
Continuous
 62
     0
370
    -2
100
AcDbBlockReference
  2
_Open30
 10
-48.23497997696723
 20
44.81732579885989
 30
0.0
 41
2.5
 42
2.5
 43
2.5
 50
270.0
  0
MTEXT
  5
2D41
330
1FD0
100
AcDbEntity
  8
0
  6
Continuous
 62
     4
100
AcDbMText
 10
-50.35997997696723
 20
52.94232579885989
 30
0.0
 40
3.0
 41
0.0
 71
     5
 72
     1
  1
26
 11
0.0000000000000001
 21
1.0
 31
0.0
 73
     1
 44
1.0
1001
ACAD
1000
MTEXTBEGIN
1070
    73
1070
     1
1070
    44
1040
1.0
1070
    74
1070
     0
1000
MTEXTEND
  0
POINT
  5
2D42
330
1FD0
100
AcDbEntity
  8
Defpoints
  6
Continuous
 62
     0
100
AcDbPoint
 10
-43.47756784919115
 20
44.81732579885988
 30
0.0
  0
POINT
  5
2D43
330
1FD0
100
AcDbEntity
  8
Defpoints
  6
Continuous
 62
     0
100
AcDbPoint
 10
-43.47756784919115
 20
31.81732579885988
 30
0.0
  0
POINT
  5
2D44
330
1FD0
100
AcDbEntity
  8
Defpoints
  6
Continuous
 62
     0
100
AcDbPoint
 10
-48.23497997696723
 20
31.81732579885988
 30
0.0
  0
ENDBLK
  5
1FD2
330
1FD0
100
AcDbEntity
  8
0
100
AcDbBlockEnd
  0
ENDSEC
  0
SECTION
  2
ENTITIES
  0
LINE
  5
88
330
36
100
AcDbEntity
  8
0
 62
     3
100
AcDbLine
 10
-101.512073
 20
0.0
 30
0.0
 11
-102.0
 21
0.0
 31
0.0
  0
LINE
  5
161
330
36
100
AcDbEntity
  8
0
 62
     3
100
AcDbLine
 10
64.257701
 20
-121.834277
 30
0.0
 11
64.25770100000001
 21
-98.834277
 31
0.0
  0
LINE
  5
163
330
36
100
AcDbEntity
  8
0
 62
     3
100
AcDbLine
 10
11.204092
 20
-128.834277
 30
0.0
 11
11.204092
 21
-114.834277
 31
0.0
  0
TEXT
  5
165
330
36
100
AcDbEntity
  8
0
 62
     3
100
AcDbText
 10
40.268019
 20
-102.629161
 30
0.0
 40
2.0
  1
A
 41
0.7
100
AcDbText
  0
TEXT
  5
166
330
36
100
AcDbEntity
  8
0
 62
     3
100
AcDbText
 10
42.803306
 20
-102.629161
 30
0.0
 40
2.0
  1
P
 41
0.7
100
AcDbText
  0
TEXT
  5
167
330
36
100
AcDbEntity
  8
0
 62
     3
100
AcDbText
 10
45.338592
 20
-102.629161
 30
0.0
 40
2.0
  1
P
 41
0.7
100
AcDbText
  0
TEXT
  5
168
330
36
100
AcDbEntity
  8
0
 62
     3
100
AcDbText
 10
47.873878
 20
-102.629161
 30
0.0
 40
2.0
  1
D
 41
0.7
100
AcDbText
  0
TEXT
  5
169
330
36
100
AcDbEntity
  8
0
 62
     3
100
AcDbText
 10
53.242561
 20
-102.629161
 30
0.0
 40
2.0
  1
C
 41
0.7
100
AcDbText
  0
TEXT
  5
16A
330
36
100
AcDbEntity
  8
0
 62
     3
100
AcDbText
 10
55.77784699999998
 20
-102.629161
 30
0.0
 40
2.0
  1
H
 41
0.7
100
AcDbText
  0
TEXT
  5
16B
330
36
100
AcDbEntity
  8
0
 62
     3
100
AcDbText
 10
58.31313399999999
 20
-102.629161
 30
0.0
 40
2.0
  1
C
 41
0.7
100
AcDbText
  0
TEXT
  5
16C
330
36
100
AcDbEntity
  8
0
 62
     3
100
AcDbText
 10
60.84842
 20
-102.629161
 30
0.0
 40
2.0
  1
K
 41
0.7
100
AcDbText
  0
TEXT
  5
16D
330
36
100
AcDbEntity
  8
0
 62
     3
100
AcDbText
 10
66.522386
 20
-102.629161
 30
0.0
 40
2.0
  1
DESN
 41
1.216762999999998
100
AcDbText
  0
TEXT
  5
16E
330
36
100
AcDbEntity
  8
0
 62
     3
100
AcDbText
 10
-18.483972
 20
-131.975659
 30
0.0
 40
2.0
  1
NICHIDO IND.CO.LTD
 41
1.274876
100
AcDbText
  0
LINE
  5
16F
330
36
100
AcDbEntity
  8
0
 62
     3
100
AcDbLine
 10
-8.100942999999999
 20
-98.83427699999998
 30
0.0
 11
-8.100942999999999
 21
-121.834277
 31
0.0
  0
LINE
  5
170
330
36
100
AcDbEntity
  8
0
 62
     3
100
AcDbLine
 10
38.25770100000001
 20
-98.83427699999998
 30
0.0
 11
38.25770100000001
 21
-138.5
 31
0.0
  0
LINE
  5
175
330
36
100
AcDbEntity
  8
0
 62
     3
100
AcDbLine
 10
51.257701
 20
-98.83427699999998
 30
0.0
 11
51.257701
 21
-128.834277
 31
0.0
  0
TEXT
  5
176
330
36
100
AcDbEntity
  8
0
 62
     3
100
AcDbText
 10
39.37014600000001
 20
-127.96959
 30
0.0
 40
3.2
  1
作成日
 41
1.017225999999997
100
AcDbText
  0
LINE
  5
177
330
36
100
AcDbEntity
  8
0
 62
     3
100
AcDbLine
 10
90.0
 20
-98.834277
 30
0.0
 11
-21.346378
 21
-98.83427699999998
 31
0.0
  0
LINE
  5
178
330
36
100
AcDbEntity
  8
0
 62
     3
100
AcDbLine
 10
77.257701
 20
-121.834277
 30
0.0
 11
77.257701
 21
-98.83427699999998
 31
0.0
  0
TEXT
  5
179
330
36
100
AcDbEntity
  8
0
 62
     3
100
AcDbText
 10
80.58150500000001
 20
-102.543343
 30
0.0
 40
1.8
  1
D
 41
0.666667
100
AcDbText
  0
TEXT
  5
17A
330
36
100
AcDbEntity
  8
0
 62
     3
100
AcDbText
 10
83.39813300000001
 20
-102.543343
 30
0.0
 40
1.8
  1
E
 41
0.666667
100
AcDbText
  0
TEXT
  5
17B
330
36
100
AcDbEntity
  8
0
 62
     3
100
AcDbText
 10
86.214761
 20
-102.543343
 30
0.0
 40
1.8
  1
F
 41
0.666667
100
AcDbText
  0
TEXT
  5
17C
330
36
100
AcDbEntity
  8
0
 62
     3
100
AcDbText
 10
80.58150500000001
 20
-106.5358959999999
 30
0.0
 40
3.2
  1
製図
 41
1.076369
100
AcDbText
  0
LINE
  5
17D
330
36
100
AcDbEntity
  8
0
 62
     3
100
AcDbLine
 10
-21.346378
 20
-98.83427699999998
 30
0.0
 11
-21.346378
 21
-138.5
 31
0.0
  0
TEXT
  5
17E
330
36
100
AcDbEntity
  8
0
 62
     3
100
AcDbText
 10
-19.969725
 20
-138.167534
 30
0.0
 40
5.0
  1
日動工業株式会社
 41
0.833333
100
AcDbText
  0
LINE
  5
17F
330
36
100
AcDbEntity
  8
0
 62
     3
100
AcDbLine
 10
21.536026
 20
-114.834277
 30
0.0
 11
21.536026
 21
-138.5
 31
0.0
  0
LINE
  5
180
330
36
100
AcDbEntity
  8
0
 62
     3
100
AcDbLine
 10
21.536026
 20
-133.6671379999999
 30
0.0
 11
38.25770100000001
 21
-133.6671379999999
 31
0.0
  0
TEXT
  5
181
330
36
100
AcDbEntity
  8
0
 62
     3
100
AcDbText
 10
22.122628
 20
-132.850708
 30
0.0
 40
3.2
  1
出図コード
 41
0.8356860000000001
100
AcDbText
  0
LINE
  5
182
330
36
100
AcDbEntity
  8
0
 62
     3
100
AcDbLine
 10
90.0
 20
-128.834277
 30
0.0
 11
-21.34637800000001
 21
-128.834277
 31
0.0
  0
LINE
  5
183
330
36
100
AcDbEntity
  8
0
 62
     3
100
AcDbLine
 10
86.32079799999997
 20
-128.834277
 30
0.0
 11
90.0
 21
-128.8342769999999
 31
0.0
  0
LINE
  5
185
330
36
100
AcDbEntity
  8
0
 62
     3
100
AcDbLine
 10
-21.346378
 20
-107.834277
 30
0.0
 11
90.0
 21
-107.834277
 31
0.0
  0
LINE
  5
18B
330
36
100
AcDbEntity
  8
0
 62
     3
100
AcDbLine
 10
-21.34637800000001
 20
-114.834277
 30
0.0
 11
38.25770100000001
 21
-114.834277
 31
0.0
  0
LINE
  5
191
330
36
100
AcDbEntity
  8
0
 62
     3
100
AcDbLine
 10
-21.34637800000001
 20
-121.834277
 30
0.0
 11
90.0
 21
-121.834277
 31
0.0
  0
TEXT
  5
192
330
36
100
AcDbEntity
  8
0
 62
     3
100
AcDbText
 10
21.99008
 20
-137.897805
 30
0.0
 40
3.2
  1
ZK-A4Y
 41
0.8112849999999999
100
AcDbText
  0
LINE
  5
193
330
36
100
AcDbEntity
  8
0
 62
     3
100
AcDbLine
 10
-90.0
 20
138.5
 30
0.0
 11
-90.0
 21
-138.5
 31
0.0
  0
LINE
  5
194
330
36
100
AcDbEntity
  8
0
 62
     3
100
AcDbLine
 10
90.0
 20
-138.5
 30
0.0
 11
90.0
 21
138.5
 31
0.0
  0
LINE
  5
195
330
36
100
AcDbEntity
  8
0
 62
     3
100
AcDbLine
 10
90.0
 20
-138.5
 30
0.0
 11
-90.0
 21
-138.5
 31
0.0
  0
TEXT
  5
19A
330
36
100
AcDbEntity
  8
0
 62
     3
100
AcDbText
 10
-19.528981
 20
-102.664751
 30
0.0
 40
2.0
  1
CONPONENTS
 41
0.5331600000000001
100
AcDbText
  0
TEXT
  5
19B
330
36
100
AcDbEntity
  8
0
 62
     3
100
AcDbText
 10
-19.878707
 20
-121.596928
 30
0.0
 40
3.0
  1
材
 41
0.833333
100
AcDbText
  0
TEXT
  5
19C
330
36
100
AcDbEntity
  8
0
 62
     3
100
AcDbText
 10
-12.343065
 20
-121.596928
 30
0.0
 40
3.0
  1
質
 41
0.833333
100
AcDbText
  0
TEXT
  5
19D
330
36
100
AcDbEntity
  8
0
 62
     3
100
AcDbText
 10
-19.790637
 20
-110.972404
 30
0.0
 40
2.0
  1
MODEL
 41
1.031072999999999
100
AcDbText
  0
TEXT
  5
19E
330
36
100
AcDbEntity
  8
0
 62
     3
100
AcDbText
 10
-19.878707
 20
-117.91462
 30
0.0
 40
2.0
  1
MATERIAL
 41
0.659278
100
AcDbText
  0
TEXT
  5
19F
330
36
100
AcDbEntity
  8
0
 62
     3
100
AcDbText
 10
11.428573
 20
-121.596928
 30
0.0
 40
3.0
  1
備
 41
0.833333
100
AcDbText
  0
TEXT
  5
1A0
330
36
100
AcDbEntity
  8
0
 62
     3
100
AcDbText
 10
18.161575
 20
-121.596928
 30
0.0
 40
3.0
  1
考
 41
0.833333
100
AcDbText
  0
TEXT
  5
1A1
330
36
100
AcDbEntity
  8
0
 62
     3
100
AcDbText
 10
11.74797475442096
 20
-117.91462
 30
0.0
 40
2.0
  1
REMARKS
 41
0.675794
100
AcDbText
  0
TEXT
  5
1A2
330
36
100
AcDbEntity
  8
0
 62
     3
100
AcDbText
 10
-18.288978
 20
-124.834741
 30
0.0
 40
2.0
  1
3AD
 41
1.42614
100
AcDbText
  0
TEXT
  5
1A3
330
36
100
AcDbEntity
  8
0
 62
     3
100
AcDbText
 10
-8.977999
 20
-124.669007
 30
0.0
 40
2.0
  1
ANGLE
 41
1.669883999999995
100
AcDbText
  0
TEXT
  5
1A4
330
36
100
AcDbEntity
  8
0
 62
     3
100
AcDbText
 10
11.955888
 20
-125.045848
 30
0.0
 40
2.0
  1
SCALE
 41
0.7719630000000001
100
AcDbText
  0
TEXT
  5
1A5
330
36
100
AcDbEntity
  8
0
 62
     3
100
AcDbText
 10
-18.602849
 20
-128.834277
 30
0.0
 40
3.0
  1
第
 41
0.833333
100
AcDbText
  0
TEXT
  5
1A6
330
36
100
AcDbEntity
  8
0
 62
     3
100
AcDbText
 10
-10.815999
 20
-128.834277
 30
0.0
 40
3.0
  1
三
 41
0.833333
100
AcDbText
  0
TEXT
  5
1A7
330
36
100
AcDbEntity
  8
0
 62
     3
100
AcDbText
 10
-3.029149
 20
-128.834277
 30
0.0
 40
3.0
  1
角
 41
0.833333
100
AcDbText
  0
TEXT
  5
1A8
330
36
100
AcDbEntity
  8
0
 62
     3
100
AcDbText
 10
4.757700999999999
 20
-128.834277
 30
0.0
 40
3.0
  1
法
 41
0.833333
100
AcDbText
  0
TEXT
  5
1A9
330
36
100
AcDbEntity
  8
0
 62
     3
100
AcDbText
 10
11.819093
 20
-128.5458479999999
 30
0.0
 40
3.0
  1
尺
 41
0.833333
100
AcDbText
  0
TEXT
  5
1AA
330
36
100
AcDbEntity
  8
0
 62
     3
100
AcDbText
 10
18.552095
 20
-128.5458479999999
 30
0.0
 40
3.0
  1
度
 41
0.833333
100
AcDbText
  0
TEXT
  5
1AB
330
36
100
AcDbEntity
  8
0
 62
     3
100
AcDbText
 10
41.13536599999997
 20
-106.376548
 30
0.0
 40
3.0
  1
承認
 41
1.089472999999999
100
AcDbText
  0
TEXT
  5
1AC
330
36
100
AcDbEntity
  8
0
 62
     3
100
AcDbText
 10
54.37824599999999
 20
-106.434277
 30
0.0
 40
3.0
  1
検図
 41
0.931761
100
AcDbText
  0
TEXT
  5
1AD
330
36
100
AcDbEntity
  8
0
 62
     3
100
AcDbText
 10
67.37864300000001
 20
-106.434277
 30
0.0
 40
3.0
  1
設
 41
0.833333
100
AcDbText
  0
TEXT
  5
1AE
330
36
100
AcDbEntity
  8
0
 62
     3
100
AcDbText
 10
71.868511
 20
-106.434277
 30
0.0
 40
3.0
  1
計
 41
0.833333
100
AcDbText
  0
TEXT
  5
1AF
330
36
100
AcDbEntity
  8
0
 62
     3
100
AcDbText
 10
-19.597509
 20
-107.145521
 30
0.0
 40
3.0
  1
品
 41
0.833333
100
AcDbText
  0
TEXT
  5
1B0
330
36
100
AcDbEntity
  8
0
 62
     3
100
AcDbText
 10
-12.061867
 20
-107.145521
 30
0.0
 40
3.0
  1
名
 41
0.833333
100
AcDbText
  0
TEXT
  5
1B1
330
36
100
AcDbEntity
  8
0
 62
     3
100
AcDbText
 10
-19.790637
 20
-114.604664
 30
0.0
 40
3.0
  1
型
 41
0.833333
100
AcDbText
  0
TEXT
  5
1B2
330
36
100
AcDbEntity
  8
0
 62
     3
100
AcDbText
 10
-12.242546
 20
-114.604664
 30
0.0
 40
3.0
  1
式
 41
0.833333
100
AcDbText
  0
LINE
  5
219
330
36
100
AcDbEntity
  8
0
 62
     3
100
AcDbLine
 10
64.257701
 20
-98.83427699999998
 30
0.0
 11
64.257701
 21
-92.83427699999998
 31
0.0
  0
LINE
  5
21A
330
36
100
AcDbEntity
  8
0
 62
     3
100
AcDbLine
 10
38.25770100000001
 20
-98.83427699999998
 30
0.0
 11
38.25770100000001
 21
-92.83427699999998
 31
0.0
  0
LINE
  5
21B
330
36
100
AcDbEntity
  8
0
 62
     3
100
AcDbLine
 10
90.0
 20
-92.834277
 30
0.0
 11
38.25770100000001
 21
-92.83427699999998
 31
0.0
  0
TEXT
  5
21C
330
36
100
AcDbEntity
  8
0
 62
     3
100
AcDbText
 10
44.253299
 20
-98.037928
 30
0.0
 40
4.5
  1
コード
  7
高4.5
100
AcDbText
  0
TEXT
  5
21D
330
36
100
AcDbEntity
  8
0
 62
     3
100
AcDbText
 10
-6.873309999513367
 20
-106.662986
 30
0.0
 40
4.5
  1
LEDチューブライト40W型(片側結線)
 41
0.45
  7
高4.5
100
AcDbText
  0
TEXT
  5
25F
330
36
100
AcDbEntity
  8
0
 62
     3
100
AcDbText
 10
25.04916102999141
 20
-128.386584
 30
0.0
 40
3.2
  1
1/2
  7
高3.2
100
AcDbText
  0
TEXT
  5
260
330
36
100
AcDbEntity
  8
0
 62
     3
100
AcDbText
 10
55.28894399999999
 20
-128.272057
 30
0.0
 40
3.2
  1
2018.07.11
  7
高3.2
100
AcDbText
  0
TEXT
  5
2A5
330
36
100
AcDbEntity
  8
0
 62
     3
100
AcDbText
 10
-6.086263030737427
 20
-113.8974032392477
 30
0.0
 40
4.5
  1
LCL-4018W-HI
 41
0.8
  7
高4.5
100
AcDbText
  0
TEXT
  5
2A6
330
36
100
AcDbEntity
  8
0
 62
     3
100
AcDbText
 10
40.79756493353443
 20
-137.3016748436918
 30
0.0
 40
6.299999999999998
  1
LCL-4018W-HI
 41
0.6
  7
高6.3
100
AcDbText
  0
TEXT
  5
2A7
330
36
100
AcDbEntity
  8
0
 62
     3
100
AcDbText
 10
66.244847
 20
-98.19014000000001
 30
0.0
 40
4.5
  1
8234
  7
高4.5
100
AcDbText
  0
TEXT
  5
2BF
330
36
100
AcDbEntity
  8
0
 62
     3
100
AcDbText
 10
23.46953264338866
 20
-120.1386778328505
 30
0.0
 40
2.5
  1
オーバルタイプ
 41
0.6
  7
高2.5
100
AcDbText
  0
TEXT
  5
FC4
330
36
100
AcDbEntity
  8
0
  6
Continuous
100
AcDbText
 10
82.29316131646214
 20
-117.3182101945936
 30
0.0
 40
4.5
  1
I
  7
高4.5
100
AcDbText
  0
TEXT
  5
1160
330
36
100
AcDbEntity
  8
0
 62
     3
100
AcDbText
 10
-6.821035387507888
 20
-120.1386778328505
 30
0.0
 40
2.5
  1
PC／アルミ
  7
高2.5
100
AcDbText
  0
LINE
  5
17C3
330
36
100
AcDbEntity
  8
0
 62
     3
100
AcDbLine
 10
-52.91564798000013
 20
140.2874440999999
 30
0.0
 11
-52.47990006999998
 21
140.0599759599999
 31
0.0
  0
LINE
  5
17C4
330
36
100
AcDbEntity
  8
0
 62
     3
100
AcDbLine
 10
-52.91564798000013
 20
136.5568136199999
 30
0.0
 11
-52.47990006999998
 21
136.78428176
 31
0.0
  0
LINE
  5
17C5
330
36
100
AcDbEntity
  8
0
 62
     3
100
AcDbLine
 10
-52.47990006999998
 20
140.0599759599999
 30
0.0
 11
-52.47990006999998
 21
136.78428176
 31
0.0
  0
LINE
  5
17C6
330
36
100
AcDbEntity
  8
0
 62
     3
100
AcDbLine
 10
-51.3763826500001
 20
136.5568136199999
 30
0.0
 11
-51.81213056000024
 21
136.78428176
 31
0.0
  0
LINE
  5
17C7
330
36
100
AcDbEntity
  8
0
 62
     3
100
AcDbLine
 10
-51.81213056000024
 20
138.7811405699999
 30
0.0
 11
-51.81213056000024
 21
136.78428176
 31
0.0
  0
LINE
  5
17C8
330
36
100
AcDbEntity
  8
0
 62
     3
100
AcDbLine
 10
-48.83451987000011
 20
140.2874440999999
 30
0.0
 11
-49.27026778000004
 21
140.0599759599999
 31
0.0
  0
LINE
  5
17C9
330
36
100
AcDbEntity
  8
0
 62
     3
100
AcDbLine
 10
-50.37378520000014
 20
140.2874440999999
 30
0.0
 11
-49.93803729000001
 21
140.0599759599999
 31
0.0
  0
LINE
  5
17CA
330
36
100
AcDbEntity
  8
0
 62
     3
100
AcDbLine
 10
-49.93803729000001
 20
140.0599759599999
 30
0.0
 11
-49.93803729000001
 21
138.6176389
 31
0.0
  0
LINE
  5
17CB
330
36
100
AcDbEntity
  8
0
 62
     3
100
AcDbLine
 10
-49.27026778000004
 20
140.0599759599999
 30
0.0
 11
-49.27026778000004
 21
136.34525248
 31
0.0
  0
LINE
  5
17CC
330
36
100
AcDbEntity
  8
0
 62
     3
100
AcDbLine
 10
-48.61922267
 20
140.28744147
 30
0.0
 11
-48.18347633000008
 21
140.0599703299999
 31
0.0
  0
LINE
  5
17CD
330
36
100
AcDbEntity
  8
0
 62
     3
100
AcDbLine
 10
-48.6193006400001
 20
136.5568636
 30
0.0
 11
-48.18354479000003
 21
136.7843165199999
 31
0.0
  0
LINE
  5
17CE
330
36
100
AcDbEntity
  8
0
 62
     3
100
AcDbLine
 10
-48.18347633000008
 20
140.0599703299999
 30
0.0
 11
-48.18347633000008
 21
136.7843165199999
 31
0.0
  0
LINE
  5
17CF
330
36
100
AcDbEntity
  8
0
 62
     3
100
AcDbLine
 10
-46.68968627000004
 20
140.2874177999999
 30
0.0
 11
-47.12543735999997
 21
140.05995577
 31
0.0
  0
LINE
  5
17D0
330
36
100
AcDbEntity
  8
0
 62
     3
100
AcDbLine
 10
-47.12543735999997
 20
140.05995577
 30
0.0
 11
-47.12543735999997
 21
136.78430195
 31
0.0
  0
LINE
  5
17D1
330
36
100
AcDbEntity
  8
0
 62
     3
100
AcDbLine
 10
-46.68968627000004
 20
136.55683992
 30
0.0
 11
-47.12543735999997
 21
136.78430195
 31
0.0
  0
LINE
  5
17D2
330
36
100
AcDbEntity
  8
0
 62
     3
100
AcDbLine
 10
-42.99943283000015
 20
140.2873767999999
 30
0.0
 11
-42.56368571000007
 21
140.0599071599999
 31
0.0
  0
LINE
  5
17D3
330
36
100
AcDbEntity
  8
0
 62
     3
100
AcDbLine
 10
-42.56368571000007
 20
140.0599071599999
 30
0.0
 11
-42.56374288000006
 21
136.7842533499999
 31
0.0
  0
LINE
  5
17D4
330
36
100
AcDbEntity
  8
0
 62
     3
100
AcDbLine
 10
-42.99949794000006
 20
136.55679892
 30
0.0
 11
-42.56374288000006
 21
136.7842533499999
 31
0.0
  0
LINE
  5
17D5
330
36
100
AcDbEntity
  8
0
 62
     3
100
AcDbLine
 10
-41.04717187000003
 20
140.2873767999999
 30
0.0
 11
-41.48291899000013
 21
140.0599071599999
 31
0.0
  0
LINE
  5
17D6
330
36
100
AcDbEntity
  8
0
 62
     3
100
AcDbLine
 10
-41.04710676000013
 20
136.55679892
 30
0.0
 11
-41.48286182000012
 21
136.7842533499999
 31
0.0
  0
LINE
  5
17D7
330
36
100
AcDbEntity
  8
0
 62
     3
100
AcDbLine
 10
-40.84344400999998
 20
140.2873767999999
 30
0.0
 11
-40.40769688
 21
140.0599071599999
 31
0.0
  0
LINE
  5
17D8
330
36
100
AcDbEntity
  8
0
 62
     3
100
AcDbLine
 10
-40.84350912000013
 20
136.55679892
 30
0.0
 11
-40.40775406000011
 21
136.7842533499999
 31
0.0
  0
LINE
  5
17D9
330
36
100
AcDbEntity
  8
0
 62
     3
100
AcDbLine
 10
-38.89118304000021
 20
140.2873767999999
 30
0.0
 11
-39.32693016000007
 21
140.0599071599999
 31
0.0
  0
LINE
  5
17DA
330
36
100
AcDbEntity
  8
0
 62
     3
100
AcDbLine
 10
-39.32693016000007
 20
140.0599071599999
 30
0.0
 11
-39.32687299000008
 21
136.7842533499999
 31
0.0
  0
LINE
  5
17DB
330
36
100
AcDbEntity
  8
0
 62
     3
100
AcDbLine
 10
-38.89111793000007
 20
136.55679892
 30
0.0
 11
-39.32687299000008
 21
136.7842533499999
 31
0.0
  0
LINE
  5
17DC
330
36
100
AcDbEntity
  8
0
 62
     3
100
AcDbLine
 10
-40.40772179000009
 20
138.6327740399999
 30
0.0
 11
-41.48289408000005
 21
138.6327740399999
 31
0.0
  0
LINE
  5
17DD
330
36
100
AcDbEntity
  8
0
 62
     3
100
AcDbLine
 10
-40.40772915000025
 20
138.21148368
 30
0.0
 11
-41.48288673000024
 21
138.21148368
 31
0.0
  0
LINE
  5
17DE
330
36
100
AcDbEntity
  8
0
 62
     3
100
AcDbLine
 10
-40.40769688
 20
140.0599071599999
 30
0.0
 11
-40.40772179000009
 21
138.6327740399999
 31
0.0
  0
LINE
  5
17DF
330
36
100
AcDbEntity
  8
0
 62
     3
100
AcDbLine
 10
-40.40772915000025
 20
138.21148368
 30
0.0
 11
-40.40775406000011
 21
136.7842533499999
 31
0.0
  0
LINE
  5
17E0
330
36
100
AcDbEntity
  8
0
 62
     3
100
AcDbLine
 10
-41.48291899000013
 20
140.0599071599999
 30
0.0
 11
-41.48289408000005
 21
138.6327740399999
 31
0.0
  0
LINE
  5
17E1
330
36
100
AcDbEntity
  8
0
 62
     3
100
AcDbLine
 10
-41.48288673000024
 20
138.21148368
 30
0.0
 11
-41.48286182000012
 21
136.7842533499999
 31
0.0
  0
LINE
  5
17E2
330
36
100
AcDbEntity
  8
0
 62
     3
100
AcDbLine
 10
-38.68422392000002
 20
140.2873767999999
 30
0.0
 11
-38.24847680000015
 21
140.0599071599999
 31
0.0
  0
LINE
  5
17E3
330
36
100
AcDbEntity
  8
0
 62
     3
100
AcDbLine
 10
-38.24847680000015
 20
140.0599071599999
 30
0.0
 11
-38.24853397000016
 21
136.7842533499999
 31
0.0
  0
LINE
  5
17E4
330
36
100
AcDbEntity
  8
0
 62
     3
100
AcDbLine
 10
-38.68428903000017
 20
136.55679892
 30
0.0
 11
-38.24853397000016
 21
136.7842533499999
 31
0.0
  0
LINE
  5
17E5
330
36
100
AcDbEntity
  8
0
 62
     3
100
AcDbLine
 10
-36.75471365000021
 20
140.2873767999999
 30
0.0
 11
-37.19046077000007
 21
140.0599071599999
 31
0.0
  0
LINE
  5
17E6
330
36
100
AcDbEntity
  8
0
 62
     3
100
AcDbLine
 10
-37.19046077000007
 20
140.0599071599999
 30
0.0
 11
-37.19040360000008
 21
136.7842533499999
 31
0.0
  0
LINE
  5
17E7
330
36
100
AcDbEntity
  8
0
 62
     3
100
AcDbLine
 10
-36.75464854000006
 20
136.55679892
 30
0.0
 11
-37.19040360000008
 21
136.7842533499999
 31
0.0
  0
LINE
  5
17E8
330
36
100
AcDbEntity
  8
0
 62
     3
100
AcDbLine
 10
-36.54035408000004
 20
140.2873767999999
 30
0.0
 11
-36.10460696000018
 21
140.0599071599999
 31
0.0
  0
LINE
  5
17E9
330
36
100
AcDbEntity
  8
0
 62
     3
100
AcDbLine
 10
-36.10460696000018
 20
140.0599071599999
 30
0.0
 11
-36.10466413000017
 21
136.7842533499999
 31
0.0
  0
LINE
  5
17EA
330
36
100
AcDbEntity
  8
0
 62
     3
100
AcDbLine
 10
-36.54041919000019
 20
136.55679892
 30
0.0
 11
-36.10466413000017
 21
136.7842533499999
 31
0.0
  0
ARC
  5
17EB
330
36
100
AcDbEntity
  8
0
 62
     3
100
AcDbCircle
 10
-44.39134409999996
 20
138.43151862
 30
0.0
 40
2.086285909999999
100
AcDbArc
 50
97.70152350999763
 51
270.0
  0
ARC
  5
17EC
330
36
100
AcDbEntity
  8
0
 62
     3
100
AcDbCircle
 10
-31.51074326000026
 20
138.41056199
 30
0.0
 40
2.108943379999999
100
AcDbArc
 50
0.3142502700074235
 51
69.00558244999094
  0
ARC
  5
17ED
330
36
100
AcDbEntity
  8
0
 62
     3
100
AcDbCircle
 10
-31.05006794000019
 20
138.41056199
 30
0.0
 40
2.108943379999999
100
AcDbArc
 50
110.9944175499969
 51
148.1166110200025
  0
ARC
  5
17EE
330
36
100
AcDbEntity
  8
0
 62
     3
100
AcDbCircle
 10
-31.51074326000026
 20
138.4336957299999
 30
0.0
 40
2.108943379999999
100
AcDbArc
 50
290.9944175499969
 51
359.6857497299926
  0
ARC
  5
17EF
330
36
100
AcDbEntity
  8
0
 62
     3
100
AcDbCircle
 10
-31.05006794000019
 20
138.4336957299999
 30
0.0
 40
2.108943379999999
100
AcDbArc
 50
211.8833889799973
 51
249.0055824499891
  0
ARC
  5
17F0
330
36
100
AcDbEntity
  8
0
 62
     3
100
AcDbCircle
 10
-31.2804056
 20
139.28493425
 30
0.0
 40
1.214070989999997
100
AcDbArc
 50
64.36517190000066
 51
115.6348280999993
  0
ARC
  5
17F1
330
36
100
AcDbEntity
  8
0
 62
     3
100
AcDbCircle
 10
-31.2804056
 20
137.55932347
 30
0.0
 40
1.214070989999997
100
AcDbArc
 50
244.3651719000007
 51
295.6348280999993
  0
ARC
  5
17F2
330
36
100
AcDbEntity
  8
0
 62
     3
100
AcDbCircle
 10
-31.2804056
 20
139.30799593
 30
0.0
 40
0.59585563
100
AcDbArc
 50
19.48660554000628
 51
160.5133944599935
  0
ARC
  5
17F3
330
36
100
AcDbEntity
  8
0
 62
     3
100
AcDbCircle
 10
-31.2804056
 20
137.55932347
 30
0.0
 40
1.214070989999997
100
AcDbArc
 50
244.3651719000007
 51
295.6348280999993
  0
ARC
  5
17F4
330
36
100
AcDbEntity
  8
0
 62
     3
100
AcDbCircle
 10
-31.2804056
 20
137.53626179
 30
0.0
 40
0.59585563
100
AcDbArc
 50
199.4866055400053
 51
340.5133944599937
  0
ARC
  5
17F5
330
36
100
AcDbEntity
  8
0
 62
     3
100
AcDbCircle
 10
-36.02287810000007
 20
116.19406902
 30
0.0
 40
26.04
100
AcDbArc
 50
69.50571480000886
 51
81.68998806999658
  0
ARC
  5
17F6
330
36
100
AcDbEntity
  8
0
 62
     3
100
AcDbCircle
 10
-36.02287810000007
 20
160.6501886999999
 30
0.0
 40
26.04
100
AcDbArc
 50
278.3100119300026
 51
290.4942851999912
  0
ARC
  5
17F7
330
36
100
AcDbEntity
  8
0
 62
     3
100
AcDbCircle
 10
-27.71467397000015
 20
138.4221288599999
 30
0.0
 40
2.31
100
AcDbArc
 50
290.4942851999912
 51
69.50571480000886
  0
ARC
  5
17F8
330
36
100
AcDbEntity
  8
0
 62
     3
100
AcDbCircle
 10
-55.0146739700001
 20
138.4221288599999
 30
0.0
 40
2.31
100
AcDbArc
 50
110.4942851999907
 51
249.5057147999946
  0
ARC
  5
17F9
330
36
100
AcDbEntity
  8
0
 62
     3
100
AcDbCircle
 10
-46.70646985000007
 20
116.19406902
 30
0.0
 40
26.04
100
AcDbArc
 50
98.31001192998868
 51
110.4942851999907
  0
ARC
  5
17FA
330
36
100
AcDbEntity
  8
0
 62
     3
100
AcDbCircle
 10
-46.70646985000007
 20
160.6501886999999
 30
0.0
 40
26.04
100
AcDbArc
 50
249.5057147999946
 51
261.6899880699974
  0
ARC
  5
17FB
330
36
100
AcDbEntity
  8
0
 62
     3
100
AcDbCircle
 10
-41.36467397000024
 20
79.62212885999997
 30
0.0
 40
62.99999987
100
AcDbArc
 50
81.68998806999658
 51
98.31001192998868
  0
ARC
  5
17FC
330
36
100
AcDbEntity
  8
0
 62
     3
100
AcDbCircle
 10
-41.36467397000024
 20
197.22212886
 30
0.0
 40
62.99999987
100
AcDbArc
 50
261.6899880699974
 51
278.3100119300026
  0
ARC
  5
17FD
330
36
100
AcDbEntity
  8
0
 62
     3
100
AcDbCircle
 10
-41.36467397000024
 20
79.62212885999997
 30
0.0
 40
62.36999987
100
AcDbArc
 50
81.68998806999658
 51
98.31001192998868
  0
ARC
  5
17FE
330
36
100
AcDbEntity
  8
0
 62
     3
100
AcDbCircle
 10
-41.36467397000024
 20
197.22212886
 30
0.0
 40
62.36999987
100
AcDbArc
 50
261.6899880699974
 51
278.3100119300026
  0
ARC
  5
17FF
330
36
100
AcDbEntity
  8
0
 62
     3
100
AcDbCircle
 10
-36.02287810000007
 20
160.6501886999999
 30
0.0
 40
25.41
100
AcDbArc
 50
278.3100119300026
 51
290.4942851999912
  0
ARC
  5
1800
330
36
100
AcDbEntity
  8
0
 62
     3
100
AcDbCircle
 10
-36.02287810000007
 20
116.19406902
 30
0.0
 40
25.41
100
AcDbArc
 50
69.50571480000886
 51
81.68998806999658
  0
ARC
  5
1801
330
36
100
AcDbEntity
  8
0
 62
     3
100
AcDbCircle
 10
-27.71467397000015
 20
138.4221288599999
 30
0.0
 40
1.679999999999999
100
AcDbArc
 50
290.4942851999912
 51
69.50571480000886
  0
ARC
  5
1802
330
36
100
AcDbEntity
  8
0
 62
     3
100
AcDbCircle
 10
-55.0146739700001
 20
138.4221288599999
 30
0.0
 40
1.679999999999999
100
AcDbArc
 50
110.4942851999907
 51
249.5057147999946
  0
ARC
  5
1803
330
36
100
AcDbEntity
  8
0
 62
     3
100
AcDbCircle
 10
-46.70646985000007
 20
116.19406902
 30
0.0
 40
25.41
100
AcDbArc
 50
98.31001192998868
 51
110.4942851999907
  0
ARC
  5
1804
330
36
100
AcDbEntity
  8
0
 62
     3
100
AcDbCircle
 10
-46.70646985000007
 20
160.6501886999999
 30
0.0
 40
25.41
100
AcDbArc
 50
249.5057147999946
 51
261.6899880699974
  0
LINE
  5
1805
330
36
100
AcDbEntity
  8
0
 62
     3
100
AcDbLine
 10
-36.75471287000005
 20
136.34525248
 30
0.0
 11
-38.68422470000019
 21
136.34525248
 31
0.0
  0
LINE
  5
1806
330
36
100
AcDbEntity
  8
0
 62
     3
100
AcDbLine
 10
-36.75471287000005
 20
136.5568136199999
 30
0.0
 11
-36.75471287000005
 21
136.34525248
 31
0.0
  0
LINE
  5
1807
330
36
100
AcDbEntity
  8
0
 62
     3
100
AcDbLine
 10
-38.89118226000005
 20
140.49890652
 30
0.0
 11
-40.84344479000015
 21
140.49890652
 31
0.0
  0
LINE
  5
1808
330
36
100
AcDbEntity
  8
0
 62
     3
100
AcDbLine
 10
-38.89118226000005
 20
140.49890652
 30
0.0
 11
-38.89118226000005
 21
140.2874440999999
 31
0.0
  0
LINE
  5
1809
330
36
100
AcDbEntity
  8
0
 62
     3
100
AcDbLine
 10
-38.89118226000005
 20
136.5568136199999
 30
0.0
 11
-38.89118226000005
 21
136.34515377
 31
0.0
  0
LINE
  5
180A
330
36
100
AcDbEntity
  8
0
 62
     3
100
AcDbLine
 10
-38.89118226000005
 20
136.34515377
 30
0.0
 11
-40.84344479000015
 21
136.34515377
 31
0.0
  0
LINE
  5
180B
330
36
100
AcDbEntity
  8
0
 62
     3
100
AcDbLine
 10
-36.75471287000005
 20
140.49900524
 30
0.0
 11
-36.75471287000005
 21
140.2874440999999
 31
0.0
  0
LINE
  5
180C
330
36
100
AcDbEntity
  8
0
 62
     3
100
AcDbLine
 10
-36.75471287000005
 20
140.49900524
 30
0.0
 11
-38.68422470000019
 21
140.49900524
 31
0.0
  0
LINE
  5
180D
330
36
100
AcDbEntity
  8
0
 62
     3
100
AcDbLine
 10
-38.68422470000019
 20
140.49900524
 30
0.0
 11
-38.68422470000019
 21
140.2874440999999
 31
0.0
  0
LINE
  5
180E
330
36
100
AcDbEntity
  8
0
 62
     3
100
AcDbLine
 10
-36.5403548700001
 20
136.5568136199999
 30
0.0
 11
-36.5403548700001
 21
136.34525248
 31
0.0
  0
LINE
  5
180F
330
36
100
AcDbEntity
  8
0
 62
     3
100
AcDbLine
 10
-34.55605431000004
 20
136.34525248
 30
0.0
 11
-36.5403548700001
 21
136.34525248
 31
0.0
  0
LINE
  5
1810
330
36
100
AcDbEntity
  8
0
 62
     3
100
AcDbLine
 10
-35.04659093999999
 20
139.83123572
 30
0.0
 11
-35.04659093999999
 21
137.013022
 31
0.0
  0
LINE
  5
1811
330
36
100
AcDbEntity
  8
0
 62
     3
100
AcDbLine
 10
-35.04659093999999
 20
137.013022
 30
0.0
 11
-34.85654197000008
 21
137.013022
 31
0.0
  0
ARC
  5
1812
330
36
100
AcDbEntity
  8
0
 62
     3
100
AcDbCircle
 10
-35.82832771000017
 20
138.4221288599999
 30
0.0
 40
1.71170957
100
AcDbArc
 50
304.5919552700034
 51
55.40804472999656
  0
LINE
  5
1813
330
36
100
AcDbEntity
  8
0
 62
     3
100
AcDbLine
 10
-34.55605431000004
 20
140.49900524
 30
0.0
 11
-36.5403548700001
 21
140.49900524
 31
0.0
  0
LINE
  5
1814
330
36
100
AcDbEntity
  8
0
 62
     3
100
AcDbLine
 10
-36.5403548700001
 20
140.49900524
 30
0.0
 11
-36.5403548700001
 21
140.2874440999999
 31
0.0
  0
LINE
  5
1815
330
36
100
AcDbEntity
  8
0
 62
     3
100
AcDbLine
 10
-38.68422470000019
 20
136.5568136199999
 30
0.0
 11
-38.68422470000019
 21
136.34525248
 31
0.0
  0
LINE
  5
1816
330
36
100
AcDbEntity
  8
0
 62
     3
100
AcDbLine
 10
-35.04659093999999
 20
139.83123572
 30
0.0
 11
-34.85654197000008
 21
139.83123572
 31
0.0
  0
LINE
  5
1817
330
36
100
AcDbEntity
  8
0
 62
     3
100
AcDbLine
 10
-46.68975060000001
 20
136.5568136199999
 30
0.0
 11
-46.6897542900001
 21
136.34523271
 31
0.0
  0
LINE
  5
1818
330
36
100
AcDbEntity
  8
0
 62
     3
100
AcDbLine
 10
-48.61926613000014
 20
136.34527225
 30
0.0
 11
-46.6897542900001
 21
136.34523858
 31
0.0
  0
LINE
  5
1819
330
36
100
AcDbEntity
  8
0
 62
     3
100
AcDbLine
 10
-52.91564798000013
 20
136.34525248
 30
0.0
 11
-51.3763826500001
 21
136.34525248
 31
0.0
  0
ARC
  5
181A
330
36
100
AcDbEntity
  8
0
 62
     3
100
AcDbCircle
 10
-57.8975906600001
 20
138.4710354799999
 30
0.0
 40
14.71356563
100
AcDbArc
 50
353.8660061899952
 51
357.6940342600066
  0
LINE
  5
181B
330
36
100
AcDbEntity
  8
0
 62
     3
100
AcDbLine
 10
-44.18101079999996
 20
137.8826678299999
 30
0.0
 11
-43.19593991000011
 21
137.87902295
 31
0.0
  0
LINE
  5
181D
330
36
100
AcDbEntity
  8
0
 62
     3
100
AcDbLine
 10
-44.17703238000011
 20
138.95788257
 30
0.0
 11
-43.19196150000015
 21
138.9542377
 31
0.0
  0
ARC
  5
181E
330
36
100
AcDbEntity
  8
0
 62
     3
100
AcDbCircle
 10
-57.8975906600001
 20
138.4710354799999
 30
0.0
 40
14.71356563
100
AcDbArc
 50
1.881965739991514
 51
5.709993809994633
  0
LINE
  5
181F
330
36
100
AcDbEntity
  8
0
 62
     3
100
AcDbLine
 10
-46.68968180000002
 20
140.49898547
 30
0.0
 11
-46.6896854900001
 21
140.2874440999999
 31
0.0
  0
LINE
  5
1820
330
36
100
AcDbEntity
  8
0
 62
     3
100
AcDbLine
 10
-48.61919363000016
 20
140.49902501
 30
0.0
 11
-46.68968180000002
 21
140.4989913299999
 31
0.0
  0
LINE
  5
1821
330
36
100
AcDbEntity
  8
0
 62
     3
100
AcDbLine
 10
-48.61926244000006
 20
136.5568136199999
 30
0.0
 11
-48.61926613000014
 21
136.34527225
 31
0.0
  0
LINE
  5
1822
330
36
100
AcDbEntity
  8
0
 62
     3
100
AcDbLine
 10
-48.61919363000016
 20
140.49902501
 30
0.0
 11
-48.61919732000024
 21
140.2874440999999
 31
0.0
  0
LINE
  5
1823
330
36
100
AcDbEntity
  8
0
 62
     3
100
AcDbLine
 10
-51.3763826500001
 20
136.5568136199999
 30
0.0
 11
-51.3763826500001
 21
136.34525248
 31
0.0
  0
LINE
  5
1824
330
36
100
AcDbEntity
  8
0
 62
     3
100
AcDbLine
 10
-51.81213056000024
 20
138.7811405699999
 30
0.0
 11
-50.28970049999998
 21
136.34525248
 31
0.0
  0
LINE
  5
1825
330
36
100
AcDbEntity
  8
0
 62
     3
100
AcDbLine
 10
-50.28970049999998
 20
136.34525248
 30
0.0
 11
-49.27026778000004
 21
136.34525248
 31
0.0
  0
LINE
  5
1826
330
36
100
AcDbEntity
  8
0
 62
     3
100
AcDbLine
 10
-48.83451987000011
 20
140.49900524
 30
0.0
 11
-48.83451987000011
 21
140.2874440999999
 31
0.0
  0
LINE
  5
1827
330
36
100
AcDbEntity
  8
0
 62
     3
100
AcDbLine
 10
-50.37378520000014
 20
140.49900524
 30
0.0
 11
-48.83451987000011
 21
140.49900524
 31
0.0
  0
LINE
  5
1828
330
36
100
AcDbEntity
  8
0
 62
     3
100
AcDbLine
 10
-50.37378520000014
 20
140.49900524
 30
0.0
 11
-50.37378520000014
 21
140.2874440999999
 31
0.0
  0
LINE
  5
1829
330
36
100
AcDbEntity
  8
0
 62
     3
100
AcDbLine
 10
-49.93803729000001
 20
138.6176389
 30
0.0
 11
-51.17268396000008
 21
140.49900524
 31
0.0
  0
LINE
  5
182A
330
36
100
AcDbEntity
  8
0
 62
     3
100
AcDbLine
 10
-52.91564798000013
 20
140.49900524
 30
0.0
 11
-51.17268396000008
 21
140.49900524
 31
0.0
  0
LINE
  5
182B
330
36
100
AcDbEntity
  8
0
 62
     3
100
AcDbLine
 10
-42.9994336200002
 20
140.49890652
 30
0.0
 11
-41.04717108000023
 21
140.49890652
 31
0.0
  0
LINE
  5
182C
330
36
100
AcDbEntity
  8
0
 62
     3
100
AcDbLine
 10
-42.9994336200002
 20
140.2874440999999
 30
0.0
 11
-42.9994336200002
 21
140.49890652
 31
0.0
  0
LINE
  5
182D
330
36
100
AcDbEntity
  8
0
 62
     3
100
AcDbLine
 10
-42.9994336200002
 20
136.34515377
 30
0.0
 11
-42.9994336200002
 21
136.5568136199999
 31
0.0
  0
LINE
  5
182E
330
36
100
AcDbEntity
  8
0
 62
     3
100
AcDbLine
 10
-42.9994336200002
 20
136.34515377
 30
0.0
 11
-41.04717108000023
 21
136.34515377
 31
0.0
  0
LINE
  5
182F
330
36
100
AcDbEntity
  8
0
 62
     3
100
AcDbLine
 10
-40.84344479000015
 20
136.5568136199999
 30
0.0
 11
-40.84344479000015
 21
136.34515377
 31
0.0
  0
LINE
  5
1830
330
36
100
AcDbEntity
  8
0
 62
     3
100
AcDbLine
 10
-41.04717108000023
 20
136.5568136199999
 30
0.0
 11
-41.04717108000023
 21
136.34515377
 31
0.0
  0
LINE
  5
1831
330
36
100
AcDbEntity
  8
0
 62
     3
100
AcDbLine
 10
-41.04717108000023
 20
140.2874440999999
 30
0.0
 11
-41.04717108000023
 21
140.49890652
 31
0.0
  0
LINE
  5
1832
330
36
100
AcDbEntity
  8
0
 62
     3
100
AcDbLine
 10
-40.84344479000015
 20
140.2874440999999
 30
0.0
 11
-40.84344479000015
 21
140.49890652
 31
0.0
  0
LINE
  5
1833
330
36
100
AcDbEntity
  8
0
 62
     3
100
AcDbLine
 10
-52.91564798000013
 20
136.5568136199999
 30
0.0
 11
-52.91564798000013
 21
136.34525248
 31
0.0
  0
LINE
  5
1834
330
36
100
AcDbEntity
  8
0
 62
     3
100
AcDbLine
 10
-52.91564798000013
 20
140.49900524
 30
0.0
 11
-52.91564798000013
 21
140.2874440999999
 31
0.0
  0
ARC
  5
1835
330
36
100
AcDbEntity
  8
0
 62
     3
100
AcDbCircle
 10
-34.34605431
 20
138.8578767699999
 30
0.0
 40
1.641128469999999
100
AcDbArc
 50
17.30874897999775
 51
23.76507095999313
  0
ARC
  5
1836
330
36
100
AcDbEntity
  8
0
 62
     3
100
AcDbCircle
 10
-35.74432771000011
 20
138.4221288599999
 30
0.0
 40
3.105725599999998
100
AcDbArc
 50
342.6912510200022
 51
17.30856643999535
  0
ARC
  5
1837
330
36
100
AcDbEntity
  8
0
 62
     3
100
AcDbCircle
 10
-34.34605431
 20
137.98638096
 30
0.0
 40
1.641128469999999
100
AcDbArc
 50
336.2349290400069
 51
342.6912510200022
  0
ARC
  5
1838
330
36
100
AcDbEntity
  8
0
 62
     3
100
AcDbCircle
 10
-34.55605431000004
 20
138.8578767699999
 30
0.0
 40
1.641128469999999
100
AcDbArc
 50
17.30874897999775
 51
90.0
  0
ARC
  5
1839
330
36
100
AcDbEntity
  8
0
 62
     3
100
AcDbCircle
 10
-35.95432771000015
 20
138.4221288599999
 30
0.0
 40
3.105725599999998
100
AcDbArc
 50
342.6912510200022
 51
17.30856643999535
  0
ARC
  5
183A
330
36
100
AcDbEntity
  8
0
 62
     3
100
AcDbCircle
 10
-34.55605431000004
 20
137.98638096
 30
0.0
 40
1.641128469999999
100
AcDbArc
 50
270.0
 51
342.6912510200022
  0
ARC
  5
183B
330
36
100
AcDbEntity
  8
0
 62
     3
100
AcDbCircle
 10
-44.67999468000015
 20
138.4221288599999
 30
0.0
 40
2.076876379999998
100
AcDbArc
 50
46.75287960999258
 51
89.74999828999569
  0
ARC
  5
183C
330
36
100
AcDbEntity
  8
0
 62
     3
100
AcDbCircle
 10
-44.67999468000015
 20
138.4221288599999
 30
0.0
 40
2.076876379999998
100
AcDbArc
 50
273.976333149997
 51
312.8231203899972
  0
ARC
  5
183D
330
36
100
AcDbEntity
  8
0
 62
     3
100
AcDbCircle
 10
-33.23818674000018
 20
138.3900673299999
 30
0.0
 40
2.755888999999998
100
AcDbArc
 50
0.6665840599916574
 51
23.90392827000086
  0
ARC
  5
183E
330
36
100
AcDbEntity
  8
0
 62
     3
100
AcDbCircle
 10
-29.32262446000004
 20
138.3900673299999
 30
0.0
 40
2.755888999999998
100
AcDbArc
 50
156.096071729999
 51
179.3334159400083
  0
ARC
  5
183F
330
36
100
AcDbEntity
  8
0
 62
     3
100
AcDbCircle
 10
-33.23818674000018
 20
138.45419039
 30
0.0
 40
2.755888999999998
100
AcDbArc
 50
336.0960717299992
 51
359.3334159400084
  0
ARC
  5
1840
330
36
100
AcDbEntity
  8
0
 62
     3
100
AcDbCircle
 10
-29.32262446000004
 20
138.45419039
 30
0.0
 40
2.755888999999998
100
AcDbArc
 50
180.6665840599917
 51
203.903928270001
  0
LINE
  5
1841
330
36
100
AcDbEntity
  8
0
 62
     3
100
AcDbLine
 10
-24.67233737000015
 20
138.5
 30
0.0
 11
90.0
 21
138.5
 31
0.0
  0
LINE
  5
1842
330
36
100
AcDbEntity
  8
0
 62
     3
100
AcDbLine
 10
-58.08508389000007
 20
138.5
 30
0.0
 11
-90.0
 21
138.5
 31
0.0
  0
TEXT
  5
1843
330
36
100
AcDbEntity
  8
0
 62
     3
100
AcDbText
 10
77.5
 20
129.0
 30
0.0
 40
3.2
  1
担　当
  7
高3.2
100
AcDbText
  0
TEXT
  5
1844
330
36
100
AcDbEntity
  8
0
 62
     3
100
AcDbText
 10
33.5
 20
129.0
 30
0.0
 40
3.2
  1
変更・追記内容
  7
高3.2
100
AcDbText
  0
TEXT
  5
1845
330
36
100
AcDbEntity
  8
0
 62
     3
100
AcDbText
 10
8.613515000339246
 20
124.3294614900917
 30
0.0
 40
2.0
  1
1
  7
高2
100
AcDbText
  0
TEXT
  5
1846
330
36
100
AcDbEntity
  8
0
 62
     3
100
AcDbText
 10
8.305003523581945
 20
119.1596447778188
 30
0.0
 40
2.0
  1
2
  7
高2
100
AcDbText
  0
TEXT
  5
1847
330
36
100
AcDbEntity
  8
0
 62
     3
100
AcDbText
 10
15.5
 20
129.0
 30
0.0
 40
3.2
  1
日　付
  7
高3.2
100
AcDbText
  0
TEXT
  5
1848
330
36
100
AcDbEntity
  8
0
 62
     3
100
AcDbText
 10
15.5
 20
134.0
 30
0.0
 40
3.2
  1
図　　　　面　　　　略　　　　歴
  7
高3.2
100
AcDbText
  0
TEXT
  5
1849
330
36
100
AcDbEntity
  8
0
 62
     3
100
AcDbText
 10
5.5
 20
129.0
 30
0.0
 40
3.2
  1
記号
  7
高3.2
100
AcDbText
  0
LINE
  5
184A
330
36
100
AcDbEntity
  8
0
 62
     7
100
AcDbLine
 10
9.0
 20
122.2908960000001
 30
0.0
 11
7.099999999999909
 21
119.0
 31
0.0
  0
LINE
  5
184B
330
36
100
AcDbEntity
  8
0
 62
     7
100
AcDbLine
 10
9.0
 20
122.2908960000001
 30
0.0
 11
10.89999999999986
 21
119.0
 31
0.0
  0
LINE
  5
184C
330
36
100
AcDbEntity
  8
0
 62
     7
100
AcDbLine
 10
7.099999999999909
 20
119.0
 30
0.0
 11
10.89999999999986
 21
119.0
 31
0.0
  0
LINE
  5
184D
330
36
100
AcDbEntity
  8
0
 62
     7
100
AcDbLine
 10
9.0
 20
127.2908970000001
 30
0.0
 11
7.099999999999909
 21
124.0
 31
0.0
  0
LINE
  5
184E
330
36
100
AcDbEntity
  8
0
 62
     7
100
AcDbLine
 10
9.0
 20
127.2908970000001
 30
0.0
 11
10.89999999999986
 21
124.0
 31
0.0
  0
LINE
  5
184F
330
36
100
AcDbEntity
  8
0
 62
     7
100
AcDbLine
 10
7.099999999999909
 20
124.0
 30
0.0
 11
10.89999999999986
 21
124.0
 31
0.0
  0
LINE
  5
1850
330
36
100
AcDbEntity
  8
0
 62
     3
100
AcDbLine
 10
4.0
 20
133.5
 30
0.0
 11
90.0
 21
133.5
 31
0.0
  0
LINE
  5
1851
330
36
100
AcDbEntity
  8
0
 62
     3
100
AcDbLine
 10
4.0
 20
128.5
 30
0.0
 11
90.0
 21
128.5
 31
0.0
  0
LINE
  5
1852
330
36
100
AcDbEntity
  8
0
 62
     7
100
AcDbLine
 10
4.0
 20
123.5
 30
0.0
 11
90.0
 21
123.5
 31
0.0
  0
LINE
  5
1853
330
36
100
AcDbEntity
  8
0
 62
     3
100
AcDbLine
 10
4.0
 20
118.5
 30
0.0
 11
90.0
 21
118.5
 31
0.0
  0
LINE
  5
1854
330
36
100
AcDbEntity
  8
0
 62
     7
100
AcDbLine
 10
76.0
 20
118.5
 30
0.0
 11
76.0
 21
133.5
 31
0.0
  0
LINE
  5
1855
330
36
100
AcDbEntity
  8
0
 62
     7
100
AcDbLine
 10
32.0
 20
118.5
 30
0.0
 11
32.0
 21
133.5
 31
0.0
  0
LINE
  5
1856
330
36
100
AcDbEntity
  8
0
 62
     7
100
AcDbLine
 10
14.0
 20
118.5
 30
0.0
 11
14.0
 21
133.5
 31
0.0
  0
LINE
  5
1857
330
36
100
AcDbEntity
  8
0
 62
     3
100
AcDbLine
 10
4.0
 20
118.5
 30
0.0
 11
4.0
 21
138.5
 31
0.0
  0
LINE
  5
1BBC
330
36
100
AcDbEntity
  8
0
  6
Continuous
 62
     7
100
AcDbLine
 10
34.6164283769142
 20
72.72644588498611
 30
0.0
 11
30.8664283769142
 21
72.72644588498611
 31
0.0
  0
LINE
  5
1BBE
330
36
100
AcDbEntity
  8
0
  6
Continuous
 62
     3
100
AcDbLine
 10
35.1164283769142
 20
66.2264458849861
 30
0.0
 11
35.1164283769142
 21
79.22644588498609
 31
0.0
  0
LINE
  5
1BBF
330
36
100
AcDbEntity
  8
0
  6
Continuous
 62
     3
100
AcDbLine
 10
12.8664283769142
 20
80.1014458849861
 30
0.0
 11
-21.03597015646605
 21
80.1014458849861
 31
0.0
  0
LINE
  5
1BC0
330
36
100
AcDbEntity
  8
0
  6
Continuous
 62
     3
100
AcDbLine
 10
24.8664283769142
 20
65.3514458849861
 30
0.0
 11
-19.01848292832219
 21
65.3514458849861
 31
0.0
  0
LINE
  5
1BC1
330
36
100
AcDbEntity
  8
0
  6
Continuous
 62
     3
100
AcDbLine
 10
18.49582722992989
 20
73.22644588498611
 30
0.0
 11
-20.70643797631158
 21
73.22644588498611
 31
0.0
  0
LINE
  5
1BC2
330
36
100
AcDbEntity
  8
0
  6
Continuous
 62
     7
100
AcDbLine
 10
15.71087990290596
 20
74.72644588498609
 30
0.0
 11
-20.97783115505179
 21
74.72644588498609
 31
0.0
  0
LINE
  5
1BC3
330
36
100
AcDbEntity
  8
0
  6
Continuous
 62
     3
100
AcDbLine
 10
29.8664283769142
 20
80.85144588498611
 30
0.0
 11
12.8664283769142
 21
80.85144588498611
 31
0.0
  0
LINE
  5
1BC4
330
36
100
AcDbEntity
  8
0
  6
Continuous
 62
     3
100
AcDbLine
 10
29.8664283769142
 20
64.60144588498611
 30
0.0
 11
24.8664283769142
 21
64.60144588498611
 31
0.0
  0
LINE
  5
1BC5
330
36
100
AcDbEntity
  8
0
  6
Continuous
 62
     3
100
AcDbLine
 10
34.6164283769142
 20
79.60144588498611
 30
0.0
 11
29.8664283769142
 21
79.60144588498611
 31
0.0
  0
LINE
  5
1BC6
330
36
100
AcDbEntity
  8
0
  6
Continuous
 62
     3
100
AcDbLine
 10
34.6164283769142
 20
65.85144588498611
 30
0.0
 11
29.8664283769142
 21
65.85144588498611
 31
0.0
  0
LINE
  5
1BC7
330
36
100
AcDbEntity
  8
0
  6
Continuous
 62
     3
100
AcDbLine
 10
35.1164283769142
 20
79.22644588498609
 30
0.0
 11
34.6164283769142
 21
79.22644588498609
 31
0.0
  0
LINE
  5
1BC8
330
36
100
AcDbEntity
  8
0
  6
Continuous
 62
     3
100
AcDbLine
 10
34.6164283769142
 20
66.2264458849861
 30
0.0
 11
35.1164283769142
 21
66.2264458849861
 31
0.0
  0
LINE
  5
1BC9
330
36
100
AcDbEntity
  8
0
  6
Continuous
 62
     3
100
AcDbLine
 10
34.6164283769142
 20
65.85144588498611
 30
0.0
 11
34.6164283769142
 21
79.60144588498611
 31
0.0
  0
LINE
  5
1BCA
330
36
100
AcDbEntity
  8
0
  6
Continuous
 62
     3
100
AcDbLine
 10
29.8664283769142
 20
64.60144588498611
 30
0.0
 11
29.8664283769142
 21
80.85144588498611
 31
0.0
  0
LINE
  5
1BD3
330
36
100
AcDbEntity
  8
0
  6
Continuous
 62
     3
100
AcDbLine
 10
24.8664283769142
 20
64.60144588498611
 30
0.0
 11
24.8664283769142
 21
65.3514458849861
 31
0.0
  0
LINE
  5
1BD4
330
36
100
AcDbEntity
  8
0
  6
Continuous
 62
     3
100
AcDbLine
 10
12.8664283769142
 20
80.1014458849861
 30
0.0
 11
12.8664283769142
 21
80.85144588498611
 31
0.0
  0
ARC
  5
1BD7
330
36
100
AcDbEntity
  8
0
  6
Continuous
 62
     3
100
AcDbCircle
 10
12.79632067234081
 20
62.10144588498611
 30
0.0
 40
12.5
100
AcDbArc
 50
15.07006214488819
 51
67.81457302772182
  0
ARC
  5
1BE1
330
36
100
AcDbEntity
  8
0
  6
Continuous
 62
     3
100
AcDbCircle
 10
20.34842631036668
 20
80.62077903799405
 30
0.0
 40
7.500000000000017
100
AcDbArc
 50
183.9705903894493
 51
247.8145730277219
  0
CIRCLE
  5
1BE5
330
36
100
AcDbEntity
  8
0
  6
Continuous
 62
     7
100
AcDbCircle
 10
68.68765139121659
 20
72.72644588498611
 30
0.0
 40
6.5
  0
CIRCLE
  5
1BE6
330
36
100
AcDbEntity
  8
0
  6
Continuous
 62
     3
100
AcDbCircle
 10
68.68765139121659
 20
72.72644588498611
 30
0.0
 40
6.875
  0
CIRCLE
  5
1CBC
330
36
100
AcDbEntity
  8
0
  6
Continuous
 62
     7
100
AcDbCircle
 10
71.86265139121676
 20
72.72644588498611
 30
0.0
 40
0.5875
  0
CIRCLE
  5
1CBF
330
36
100
AcDbEntity
  8
0
  6
Continuous
 62
     7
100
AcDbCircle
 10
65.51265139121674
 20
72.72644588498611
 30
0.0
 40
0.5875
  0
LINE
  5
1CC0
330
36
100
AcDbEntity
  8
0
  6
Continuous
 62
     7
100
AcDbLine
 10
38.3664283769142
 20
73.31394588498614
 30
0.0
 11
35.1164283769142
 21
73.31394588498614
 31
0.0
  0
LINE
  5
1CC1
330
36
100
AcDbEntity
  8
0
  6
Continuous
 62
     7
100
AcDbLine
 10
38.3664283769142
 20
72.13894588498613
 30
0.0
 11
35.1164283769142
 21
72.13894588498613
 31
0.0
  0
LINE
  5
1CC7
330
36
100
AcDbEntity
  8
0
  6
Continuous
 62
     7
100
AcDbLine
 10
38.3664283769142
 20
73.31394588498614
 30
0.0
 11
38.8664283769142
 21
73.10144588498609
 31
0.0
  0
LINE
  5
1CC8
330
36
100
AcDbEntity
  8
0
  6
Continuous
 62
     7
100
AcDbLine
 10
38.8664283769142
 20
73.10144588498609
 30
0.0
 11
38.8664283769142
 21
72.35144588498609
 31
0.0
  0
LINE
  5
1CC9
330
36
100
AcDbEntity
  8
0
  6
Continuous
 62
     7
100
AcDbLine
 10
38.8664283769142
 20
72.35144588498609
 30
0.0
 11
38.3664283769142
 21
72.13894588498613
 31
0.0
  0
LINE
  5
1CCA
330
36
100
AcDbEntity
  8
0
  6
Continuous
 62
     7
100
AcDbLine
 10
38.3664283769142
 20
72.13894588498613
 30
0.0
 11
38.3664283769142
 21
73.31394588498614
 31
0.0
  0
ARC
  5
1CCB
330
36
100
AcDbEntity
  8
0
  6
Continuous
 62
     7
100
AcDbCircle
 10
68.68765139121659
 20
72.72644588498611
 30
0.0
 40
2.0
100
AcDbArc
 50
30.00000000000024
 51
149.9999999999997
  0
ARC
  5
1CCC
330
36
100
AcDbEntity
  8
0
  6
Continuous
 62
     7
100
AcDbCircle
 10
68.68765139121659
 20
72.72644588498611
 30
0.0
 40
2.75
100
AcDbArc
 50
30.00000000000024
 51
149.9999999999997
  0
LINE
  5
1CCD
330
36
100
AcDbEntity
  8
0
  6
Continuous
 62
     7
100
AcDbLine
 10
66.30608153080935
 20
71.35144588498611
 30
0.0
 11
66.95560058364764
 21
71.72644588498609
 31
0.0
  0
LINE
  5
1CCE
330
36
100
AcDbEntity
  8
0
  6
Continuous
 62
     7
100
AcDbLine
 10
71.06922125162383
 20
71.35144588498611
 30
0.0
 11
70.41970219878554
 21
71.72644588498609
 31
0.0
  0
ARC
  5
1CCF
330
36
100
AcDbEntity
  8
0
  6
Continuous
 62
     7
100
AcDbCircle
 10
68.68765139121659
 20
72.72644588498611
 30
0.0
 40
2.75
100
AcDbArc
 50
210.0000000000003
 51
329.9999999999998
  0
ARC
  5
1CD0
330
36
100
AcDbEntity
  8
0
  6
Continuous
 62
     7
100
AcDbCircle
 10
68.68765139121659
 20
72.72644588498611
 30
0.0
 40
2.0
100
AcDbArc
 50
210.0000000000003
 51
329.9999999999998
  0
LINE
  5
1CD1
330
36
100
AcDbEntity
  8
0
  6
Continuous
 62
     7
100
AcDbLine
 10
66.95560058364764
 20
73.72644588498609
 30
0.0
 11
66.30608153080935
 21
74.10144588498609
 31
0.0
  0
LINE
  5
1CD2
330
36
100
AcDbEntity
  8
0
  6
Continuous
 62
     7
100
AcDbLine
 10
70.41970219878554
 20
73.72644588498609
 30
0.0
 11
71.06922125162383
 21
74.10144588498609
 31
0.0
  0
ARC
  5
1CD7
330
36
100
AcDbEntity
  8
0
  6
Continuous
 62
     7
100
AcDbCircle
 10
68.68765139121659
 20
72.72644588498611
 30
0.0
 40
4.5
100
AcDbArc
 50
55.66605491481019
 51
85.21980815279876
  0
ARC
  5
1CDC
330
36
100
AcDbEntity
  8
0
  6
Continuous
 62
     7
100
AcDbCircle
 10
68.6876513912167
 20
69.29418182144985
 30
0.0
 40
7.307264063536227
100
AcDbArc
 50
70.99731439054837
 51
87.05835737179311
  0
LINE
  5
1CDD
330
36
100
AcDbEntity
  8
0
  6
Continuous
 62
     7
100
AcDbLine
 10
69.06265139121659
 20
76.59181726686973
 30
0.0
 11
69.06265139121659
 21
77.21079366364915
 31
0.0
  0
LINE
  5
1CDE
330
36
100
AcDbEntity
  8
0
  6
Continuous
 62
     7
100
AcDbLine
 10
68.31265139121659
 20
76.59181726686973
 30
0.0
 11
68.31265139121659
 21
77.21079366364915
 31
0.0
  0
ARC
  5
1CE6
330
36
100
AcDbEntity
  8
0
  6
Continuous
 62
     7
100
AcDbCircle
 10
68.68765139121659
 20
62.40453384674641
 30
0.0
 40
13.82191203823974
100
AcDbArc
 50
76.40048450475584
 51
80.54667519367853
  0
ARC
  5
1CE7
330
36
100
AcDbEntity
  8
0
  6
Continuous
 62
     7
100
AcDbCircle
 10
68.6876513912167
 20
74.22099246194513
 30
0.0
 40
3.63045342304106
100
AcDbArc
 50
26.46522845221681
 51
42.29754090238379
  0
LINE
  5
1CEC
330
36
100
AcDbEntity
  8
0
  6
Continuous
 62
     7
100
AcDbLine
 10
66.00235028654728
 20
76.66421779623835
 30
0.0
 11
66.14958220445065
 21
76.44238517447792
 31
0.0
  0
LINE
  5
1CED
330
36
100
AcDbEntity
  8
0
  6
Continuous
 62
     7
100
AcDbLine
 10
71.37295249588588
 20
76.66421779623852
 30
0.0
 11
71.22572057798253
 21
76.44238517447803
 31
0.0
  0
ARC
  5
1CEE
330
36
100
AcDbEntity
  8
0
  6
Continuous
 62
     7
100
AcDbCircle
 10
68.68765139121659
 20
62.40453384674641
 30
0.0
 40
13.82191203823974
100
AcDbArc
 50
99.45332480632151
 51
103.5995154952441
  0
ARC
  5
1CEF
330
36
100
AcDbEntity
  8
0
  6
Continuous
 62
     7
100
AcDbCircle
 10
68.6876513912167
 20
74.22099246194513
 30
0.0
 40
3.63045342304106
100
AcDbArc
 50
137.7024590976167
 51
153.5347715477832
  0
LINE
  5
1CF0
330
36
100
AcDbEntity
  8
0
  6
Continuous
 62
     7
100
AcDbLine
 10
71.06698771478737
 20
76.20322421193964
 30
0.0
 11
70.95781872304029
 21
76.03874055921618
 31
0.0
  0
LINE
  5
1CF1
330
36
100
AcDbEntity
  8
0
  6
Continuous
 62
     7
100
AcDbLine
 10
66.30831506764582
 20
76.20322421193964
 30
0.0
 11
66.41748405939289
 21
76.03874055921618
 31
0.0
  0
ARC
  5
1CF2
330
36
100
AcDbEntity
  8
0
  6
Continuous
 62
     7
100
AcDbCircle
 10
68.6876513912167
 20
69.29418182144985
 30
0.0
 40
7.307264063536227
100
AcDbArc
 50
92.94164262820681
 51
109.0026856094516
  0
ARC
  5
1CF3
330
36
100
AcDbEntity
  8
0
  6
Continuous
 62
     7
100
AcDbCircle
 10
68.68765139121659
 20
72.72644588498611
 30
0.0
 40
4.5
100
AcDbArc
 50
94.78019184720119
 51
124.3339450851897
  0
LINE
  5
1CF4
330
36
100
AcDbEntity
  8
0
  6
Continuous
 62
     7
100
AcDbLine
 10
74.43765139121659
 20
72.72644588498611
 30
0.0
 11
74.93765139121659
 21
72.72644588498611
 31
0.0
  0
LINE
  5
1CF5
330
36
100
AcDbEntity
  8
0
  6
Continuous
 62
     7
100
AcDbLine
 10
74.24172489237877
 20
74.21465539432563
 30
0.0
 11
74.72468780552332
 21
74.34406491687685
 31
0.0
  0
LINE
  5
1CF6
330
36
100
AcDbEntity
  8
0
  6
Continuous
 62
     7
100
AcDbLine
 10
73.6672974629772
 20
75.60144588498609
 30
0.0
 11
74.10031016486936
 21
75.85144588498611
 31
0.0
  0
LINE
  5
1CF7
330
36
100
AcDbEntity
  8
0
  6
Continuous
 62
     7
100
AcDbLine
 10
72.75351538303924
 20
76.79230987680877
 30
0.0
 11
73.10706877363243
 21
77.14586326740203
 31
0.0
  0
LINE
  5
1CF8
330
36
100
AcDbEntity
  8
0
  6
Continuous
 62
     7
100
AcDbLine
 10
71.56265139121659
 20
77.70609195674666
 30
0.0
 11
71.81265139121659
 21
78.13910465863887
 31
0.0
  0
LINE
  5
1CF9
330
36
100
AcDbEntity
  8
0
  6
Continuous
 62
     7
100
AcDbLine
 10
70.17586090055612
 20
78.28051938614828
 30
0.0
 11
70.30527042310733
 21
78.76348229929276
 31
0.0
  0
LINE
  5
1CFA
330
36
100
AcDbEntity
  8
0
  6
Continuous
 62
     7
100
AcDbLine
 10
68.68765139121659
 20
78.47644588498609
 30
0.0
 11
68.68765139121659
 21
78.97644588498611
 31
0.0
  0
LINE
  5
1CFB
330
36
100
AcDbEntity
  8
0
  6
Continuous
 62
     7
100
AcDbLine
 10
67.19944188187707
 20
78.28051938614828
 30
0.0
 11
67.07003235932585
 21
78.76348229929283
 31
0.0
  0
LINE
  5
1CFC
330
36
100
AcDbEntity
  8
0
  6
Continuous
 62
     7
100
AcDbLine
 10
65.81265139121659
 20
77.70609195674666
 30
0.0
 11
65.5626513912167
 21
78.13910465863887
 31
0.0
  0
LINE
  5
1CFD
330
36
100
AcDbEntity
  8
0
  6
Continuous
 62
     7
100
AcDbLine
 10
64.62178739939393
 20
76.79230987680877
 30
0.0
 11
64.26823400880071
 21
77.14586326740203
 31
0.0
  0
LINE
  5
1CFE
330
36
100
AcDbEntity
  8
0
  6
Continuous
 62
     7
100
AcDbLine
 10
63.70800531945609
 20
75.60144588498609
 30
0.0
 11
63.27499261756393
 21
75.85144588498614
 31
0.0
  0
LINE
  5
1CFF
330
36
100
AcDbEntity
  8
0
  6
Continuous
 62
     7
100
AcDbLine
 10
63.1335778900544
 20
74.21465539432556
 30
0.0
 11
62.65061497690986
 21
74.34406491687685
 31
0.0
  0
LINE
  5
1D00
330
36
100
AcDbEntity
  8
0
  6
Continuous
 62
     7
100
AcDbLine
 10
62.93765139121659
 20
72.72644588498611
 30
0.0
 11
62.43765139121659
 21
72.72644588498611
 31
0.0
  0
LINE
  5
1D22
330
36
100
AcDbEntity
  8
0
  6
Continuous
 62
     3
100
AcDbLine
 10
75.93765139121659
 20
71.85144588498609
 30
0.0
 11
75.93765139121659
 21
73.60144588498609
 31
0.0
  0
LINE
  5
1D23
330
36
100
AcDbEntity
  8
0
  6
Continuous
 62
     3
100
AcDbLine
 10
61.43765139121659
 20
73.60144588498609
 30
0.0
 11
61.43765139121659
 21
71.85144588498609
 31
0.0
  0
ARC
  5
1D24
330
36
100
AcDbEntity
  8
0
  6
Continuous
 62
     3
100
AcDbCircle
 10
68.6876513912167
 20
73.60144588498609
 30
0.0
 40
7.249999999999943
100
AcDbArc
 50
0.0
 51
180.0
  0
ARC
  5
1D25
330
36
100
AcDbEntity
  8
0
  6
Continuous
 62
     3
100
AcDbCircle
 10
68.68765139121659
 20
71.85144588498609
 30
0.0
 40
7.25
100
AcDbArc
 50
180.0
 51
0.0
  0
LINE
  5
1D26
330
36
100
AcDbEntity
  8
0
  6
Continuous
 62
     7
100
AcDbLine
 10
26.8664283769142
 20
72.60144588498611
 30
0.0
 11
26.8664283769142
 21
72.85144588498615
 31
0.0
  0
LINE
  5
1D27
330
36
100
AcDbEntity
  8
0
  6
Continuous
 62
     7
100
AcDbLine
 10
28.3664283769142
 20
74.52388013356227
 30
0.0
 11
28.3664283769142
 21
74.77295763880409
 31
0.0
  0
LINE
  5
1D28
330
36
100
AcDbEntity
  8
0
  6
Continuous
 62
     7
100
AcDbLine
 10
61.58765139121658
 20
72.85144588498609
 30
0.0
 11
61.43765139121659
 21
72.85144588498609
 31
0.0
  0
LINE
  5
1D29
330
36
100
AcDbEntity
  8
0
  6
Continuous
 62
     7
100
AcDbLine
 10
61.58765139121658
 20
72.60144588498611
 30
0.0
 11
61.43765139121659
 21
72.60144588498611
 31
0.0
  0
LINE
  5
1D2B
330
36
100
AcDbEntity
  8
0
  6
Continuous
 62
     7
100
AcDbLine
 10
61.58765139121658
 20
72.85144588498609
 30
0.0
 11
61.58765139121658
 21
72.60144588498611
 31
0.0
  0
LINE
  5
1D42
330
36
100
AcDbEntity
  8
0
  6
Continuous
 62
     7
100
AcDbLine
 10
61.64280456560877
 20
74.4846973801574
 30
0.0
 11
61.49657253912128
 21
74.52388013356227
 31
0.0
  0
LINE
  5
1D43
330
36
100
AcDbEntity
  8
0
  6
Continuous
 62
     7
100
AcDbLine
 10
61.67855285509834
 20
74.73393769996039
 30
0.0
 11
61.53292846082546
 21
74.77295763880409
 31
0.0
  0
LINE
  5
1D44
330
36
100
AcDbEntity
  8
0
  6
Continuous
 62
     7
100
AcDbLine
 10
62.14519693662325
 20
76.35939615820905
 30
0.0
 11
62.01429850125963
 21
76.43497040510272
 31
0.0
  0
LINE
  5
1D45
330
36
100
AcDbEntity
  8
0
  6
Continuous
 62
     7
100
AcDbLine
 10
62.24695311320872
 20
76.58932233686051
 30
0.0
 11
62.11654110406119
 21
76.6646157454474
 31
0.0
  0
LINE
  5
1D46
330
36
100
AcDbEntity
  8
0
  6
Continuous
 62
     7
100
AcDbLine
 10
63.16892402695575
 20
78.06839655395015
 30
0.0
 11
63.0622835166158
 21
78.17503706429022
 31
0.0
  0
LINE
  5
1D47
330
36
100
AcDbEntity
  8
0
  6
Continuous
 62
     7
100
AcDbLine
 10
63.33023453109341
 20
78.26063944040602
 30
0.0
 11
63.22391648253493
 21
78.36695748896443
 31
0.0
  0
LINE
  5
1D48
330
36
100
AcDbEntity
  8
0
  6
Continuous
 62
     7
100
AcDbLine
 10
64.66167070396918
 20
79.44964898558976
 30
0.0
 11
64.58643913089405
 21
79.57995389248925
 31
0.0
  0
LINE
  5
1D49
330
36
100
AcDbEntity
  8
0
  6
Continuous
 62
     7
100
AcDbLine
 10
64.87045871984935
 20
79.58801753407373
 30
0.0
 11
64.79538747499089
 21
79.71804474435606
 31
0.0
  0
LINE
  5
1D4A
330
36
100
AcDbEntity
  8
0
  6
Continuous
 62
     7
100
AcDbLine
 10
66.51279834557304
 20
80.36014503717911
 30
0.0
 11
66.47392882157451
 21
80.5052080756077
 31
0.0
  0
LINE
  5
1D4B
330
36
100
AcDbEntity
  8
0
  6
Continuous
 62
     7
100
AcDbLine
 10
66.75221456148652
 20
80.43255738152339
 30
0.0
 11
66.71338782167037
 21
80.57746074720951
 31
0.0
  0
LINE
  5
1D4C
330
36
100
AcDbEntity
  8
0
  6
Continuous
 62
     7
100
AcDbLine
 10
68.56265139121648
 20
80.70034544759437
 30
0.0
 11
68.56265139121659
 21
80.85036821868504
 31
0.0
  0
LINE
  5
1D4D
330
36
100
AcDbEntity
  8
0
  6
Continuous
 62
     7
100
AcDbLine
 10
68.81265139121648
 20
80.70034544759437
 30
0.0
 11
68.81265139121659
 21
80.85036821868504
 31
0.0
  0
ARC
  5
1D4E
330
36
100
AcDbEntity
  8
0
  6
Continuous
 62
     7
100
AcDbCircle
 10
68.6876513912167
 20
73.60144588498609
 30
0.0
 40
7.099999999999942
100
AcDbArc
 50
88.99121936954307
 51
91.00878063046335
  0
ARC
  5
1D4F
330
36
100
AcDbEntity
  8
0
  6
Continuous
 62
     7
100
AcDbCircle
 10
68.6876513912167
 20
73.60144588498609
 30
0.0
 40
7.099999999999942
100
AcDbArc
 50
105.8188464146111
 51
107.8374352183631
  0
ARC
  5
1D50
330
36
100
AcDbEntity
  8
0
  6
Continuous
 62
     7
100
AcDbCircle
 10
68.6876513912167
 20
73.60144588498609
 30
0.0
 40
7.099999999999942
100
AcDbArc
 50
122.522636220707
 51
124.5440403508848
  0
ARC
  5
1D51
330
36
100
AcDbEntity
  8
0
  6
Continuous
 62
     7
100
AcDbCircle
 10
68.6876513912167
 20
73.60144588498609
 30
0.0
 40
7.099999999999942
100
AcDbArc
 50
138.9874408518802
 51
141.0127099031925
  0
ARC
  5
1D52
330
36
100
AcDbEntity
  8
0
  6
Continuous
 62
     7
100
AcDbCircle
 10
68.6876513912167
 20
73.60144588498609
 30
0.0
 40
7.099999999999942
100
AcDbArc
 50
155.1131472593117
 51
157.1423034954314
  0
ARC
  5
1D53
330
36
100
AcDbEntity
  8
0
  6
Continuous
 62
     7
100
AcDbCircle
 10
68.6876513912167
 20
73.60144588498609
 30
0.0
 40
7.099999999999942
100
AcDbArc
 50
170.8217825497487
 51
172.853798641073
  0
LINE
  5
1D58
330
36
100
AcDbEntity
  8
0
  6
Continuous
 62
     7
100
AcDbLine
 10
75.78765139121661
 20
72.85144588498609
 30
0.0
 11
75.78765139121661
 21
72.60144588498611
 31
0.0
  0
LINE
  5
1D59
330
36
100
AcDbEntity
  8
0
  6
Continuous
 62
     7
100
AcDbLine
 10
75.78765139121661
 20
72.60144588498611
 30
0.0
 11
75.93765139121659
 21
72.60144588498611
 31
0.0
  0
LINE
  5
1D5A
330
36
100
AcDbEntity
  8
0
  6
Continuous
 62
     7
100
AcDbLine
 10
75.78765139121661
 20
72.85144588498609
 30
0.0
 11
75.93765139121659
 21
72.85144588498609
 31
0.0
  0
ARC
  5
1D5B
330
36
100
AcDbEntity
  8
0
  6
Continuous
 62
     7
100
AcDbCircle
 10
68.68765139121648
 20
73.60144588498609
 30
0.0
 40
7.099999999999942
100
AcDbArc
 50
7.146201358926992
 51
9.178217450251286
  0
ARC
  5
1D5C
330
36
100
AcDbEntity
  8
0
  6
Continuous
 62
     7
100
AcDbCircle
 10
68.68765139121648
 20
73.60144588498609
 30
0.0
 40
7.099999999999942
100
AcDbArc
 50
22.85769650456179
 51
24.88685274068141
  0
ARC
  5
1D5D
330
36
100
AcDbEntity
  8
0
  6
Continuous
 62
     7
100
AcDbCircle
 10
68.68765139121648
 20
73.60144588498609
 30
0.0
 40
7.099999999999942
100
AcDbArc
 50
38.98729009680806
 51
41.01255914811971
  0
ARC
  5
1D5E
330
36
100
AcDbEntity
  8
0
  6
Continuous
 62
     7
100
AcDbCircle
 10
68.68765139121648
 20
73.60144588498609
 30
0.0
 40
7.099999999999942
100
AcDbArc
 50
55.45595964910625
 51
57.477363779293
  0
ARC
  5
1D5F
330
36
100
AcDbEntity
  8
0
  6
Continuous
 62
     7
100
AcDbCircle
 10
68.68765139121648
 20
73.60144588498609
 30
0.0
 40
7.099999999999942
100
AcDbArc
 50
72.16256478163057
 51
74.1811535853825
  0
LINE
  5
1D60
330
36
100
AcDbEntity
  8
0
  6
Continuous
 62
     7
100
AcDbLine
 10
70.62308822094665
 20
80.43255738152339
 30
0.0
 11
70.66191496076282
 21
80.57746074720951
 31
0.0
  0
LINE
  5
1D61
330
36
100
AcDbEntity
  8
0
  6
Continuous
 62
     7
100
AcDbLine
 10
70.86250443686012
 20
80.36014503717911
 30
0.0
 11
70.90137396085866
 21
80.5052080756077
 31
0.0
  0
LINE
  5
1D62
330
36
100
AcDbEntity
  8
0
  6
Continuous
 62
     7
100
AcDbLine
 10
72.50484406258384
 20
79.58801753407373
 30
0.0
 11
72.57991530744231
 21
79.71804474435606
 31
0.0
  0
LINE
  5
1D63
330
36
100
AcDbEntity
  8
0
  6
Continuous
 62
     7
100
AcDbLine
 10
72.71363207846398
 20
79.44964898558976
 30
0.0
 11
72.78886365153913
 21
79.57995389248925
 31
0.0
  0
LINE
  5
1D64
330
36
100
AcDbEntity
  8
0
  6
Continuous
 62
     7
100
AcDbLine
 10
74.04506825133977
 20
78.26063944040602
 30
0.0
 11
74.15138629989825
 21
78.36695748896443
 31
0.0
  0
LINE
  5
1D65
330
36
100
AcDbEntity
  8
0
  6
Continuous
 62
     7
100
AcDbLine
 10
74.20637875547742
 20
78.06839655395015
 30
0.0
 11
74.31301926581737
 21
78.17503706429022
 31
0.0
  0
LINE
  5
1D66
330
36
100
AcDbEntity
  8
0
  6
Continuous
 62
     7
100
AcDbLine
 10
75.12834966922445
 20
76.58932233686051
 30
0.0
 11
75.25876167837201
 21
76.6646157454474
 31
0.0
  0
LINE
  5
1D67
330
36
100
AcDbEntity
  8
0
  6
Continuous
 62
     7
100
AcDbLine
 10
75.2301058458099
 20
76.35939615820905
 30
0.0
 11
75.36100428117355
 21
76.43497040510272
 31
0.0
  0
LINE
  5
1D68
330
36
100
AcDbEntity
  8
0
  6
Continuous
 62
     7
100
AcDbLine
 10
75.69674992733482
 20
74.73393769996039
 30
0.0
 11
75.84237432160772
 21
74.77295763880409
 31
0.0
  0
LINE
  5
1D69
330
36
100
AcDbEntity
  8
0
  6
Continuous
 62
     7
100
AcDbLine
 10
75.73249821682438
 20
74.4846973801574
 30
0.0
 11
75.87873024331189
 21
74.52388013356227
 31
0.0
  0
LINE
  5
1D6A
330
36
100
AcDbEntity
  8
0
  6
Continuous
 62
     7
100
AcDbLine
 10
26.8664283769142
 20
72.85144588498609
 30
0.0
 11
29.8664283769142
 21
72.85144588498609
 31
0.0
  0
LINE
  5
1D6B
330
36
100
AcDbEntity
  8
0
  6
Continuous
 62
     7
100
AcDbLine
 10
26.8664283769142
 20
72.60144588498611
 30
0.0
 11
29.8664283769142
 21
72.60144588498611
 31
0.0
  0
LINE
  5
1D6C
330
36
100
AcDbEntity
  8
0
  6
Continuous
 62
     7
100
AcDbLine
 10
28.3664283769142
 20
74.52388013356227
 30
0.0
 11
29.8664283769142
 21
74.52388013356227
 31
0.0
  0
LINE
  5
1D6D
330
36
100
AcDbEntity
  8
0
  6
Continuous
 62
     7
100
AcDbLine
 10
28.3664283769142
 20
74.77295763880409
 30
0.0
 11
29.8664283769142
 21
74.77295763880409
 31
0.0
  0
LINE
  5
1D6F
330
36
100
AcDbEntity
  8
0
  6
Continuous
 62
     7
100
AcDbLine
 10
26.8664283769142
 20
76.43497040510272
 30
0.0
 11
29.8664283769142
 21
76.43497040510272
 31
0.0
  0
LINE
  5
1D70
330
36
100
AcDbEntity
  8
0
  6
Continuous
 62
     7
100
AcDbLine
 10
26.8664283769142
 20
76.6646157454474
 30
0.0
 11
29.8664283769142
 21
76.6646157454474
 31
0.0
  0
LINE
  5
1D72
330
36
100
AcDbEntity
  8
0
  6
Continuous
 62
     7
100
AcDbLine
 10
28.3664283769142
 20
78.17503706429022
 30
0.0
 11
29.8664283769142
 21
78.17503706429022
 31
0.0
  0
LINE
  5
1D73
330
36
100
AcDbEntity
  8
0
  6
Continuous
 62
     7
100
AcDbLine
 10
28.3664283769142
 20
78.36695748896443
 30
0.0
 11
29.8664283769142
 21
78.36695748896443
 31
0.0
  0
LINE
  5
1D74
330
36
100
AcDbEntity
  8
0
  6
Continuous
 62
     7
100
AcDbLine
 10
26.8664283769142
 20
79.57995389248925
 30
0.0
 11
29.8664283769142
 21
79.57995389248925
 31
0.0
  0
LINE
  5
1D75
330
36
100
AcDbEntity
  8
0
  6
Continuous
 62
     7
100
AcDbLine
 10
26.8664283769142
 20
79.71804474435612
 30
0.0
 11
29.8664283769142
 21
79.71804474435612
 31
0.0
  0
LINE
  5
1D76
330
36
100
AcDbEntity
  8
0
  6
Continuous
 62
     7
100
AcDbLine
 10
28.3664283769142
 20
80.5052080756077
 30
0.0
 11
29.8664283769142
 21
80.5052080756077
 31
0.0
  0
LINE
  5
1D77
330
36
100
AcDbEntity
  8
0
  6
Continuous
 62
     7
100
AcDbLine
 10
28.3664283769142
 20
80.56991283688336
 30
0.0
 11
29.8664283769142
 21
80.56991283688336
 31
0.0
  0
LINE
  5
1D78
330
36
100
AcDbEntity
  8
0
  6
Continuous
 62
     7
100
AcDbLine
 10
29.8664283769142
 20
80.85036821868504
 30
0.0
 11
26.8664283769142
 21
80.85036821868504
 31
0.0
  0
LINE
  5
1D79
330
36
100
AcDbEntity
  8
0
  6
Continuous
 62
     7
100
AcDbLine
 10
26.8664283769142
 20
76.43497040510272
 30
0.0
 11
26.8664283769142
 21
76.6646157454474
 31
0.0
  0
LINE
  5
1D7A
330
36
100
AcDbEntity
  8
0
  6
Continuous
 62
     7
100
AcDbLine
 10
28.3664283769142
 20
78.17503706429022
 30
0.0
 11
28.3664283769142
 21
78.36695748896443
 31
0.0
  0
LINE
  5
1D7B
330
36
100
AcDbEntity
  8
0
  6
Continuous
 62
     7
100
AcDbLine
 10
26.8664283769142
 20
79.57995389248925
 30
0.0
 11
26.8664283769142
 21
79.71804474435612
 31
0.0
  0
LINE
  5
1D7C
330
36
100
AcDbEntity
  8
0
  6
Continuous
 62
     7
100
AcDbLine
 10
28.3664283769142
 20
80.5052080756077
 30
0.0
 11
28.3664283769142
 21
80.56991283688336
 31
0.0
  0
LINE
  5
1D7D
330
36
100
AcDbEntity
  8
0
  6
Continuous
 62
     7
100
AcDbLine
 10
26.8664283769142
 20
80.85036821868504
 30
0.0
 11
26.8664283769142
 21
80.85144588498611
 31
0.0
  0
LINE
  5
1D9D
330
36
100
AcDbEntity
  8
0
  6
Continuous
 62
     7
100
AcDbLine
 10
34.6164283769142
 20
73.56429762089645
 30
0.0
 11
30.8664283769142
 21
73.56429762089645
 31
0.0
  0
LINE
  5
1D9E
330
36
100
AcDbEntity
  8
0
  6
Continuous
 62
     7
100
AcDbLine
 10
34.6164283769142
 20
73.14537175294129
 30
0.0
 11
30.8664283769142
 21
73.14537175294129
 31
0.0
  0
LINE
  5
1D9F
330
36
100
AcDbEntity
  8
0
  6
Continuous
 62
     7
100
AcDbLine
 10
34.6164283769142
 20
72.30673717568402
 30
0.0
 11
30.8664283769142
 21
72.30673717568402
 31
0.0
  0
LINE
  5
1DA0
330
36
100
AcDbEntity
  8
0
  6
Continuous
 62
     7
100
AcDbLine
 10
34.6164283769142
 20
71.88859414907574
 30
0.0
 11
30.8664283769142
 21
71.88859414907574
 31
0.0
  0
LINE
  5
1DA1
330
36
100
AcDbEntity
  8
0
  6
Continuous
 62
     7
100
AcDbLine
 10
34.6164283769142
 20
78.2170650165612
 30
0.0
 11
30.8664283769142
 21
78.2170650165612
 31
0.0
  0
LINE
  5
1DA2
330
36
100
AcDbEntity
  8
0
  6
Continuous
 62
     7
100
AcDbLine
 10
34.6164283769142
 20
78.44871777628259
 30
0.0
 11
30.8664283769142
 21
78.44871777628259
 31
0.0
  0
LINE
  5
1DA3
330
36
100
AcDbEntity
  8
0
  6
Continuous
 62
     7
100
AcDbLine
 10
34.6164283769142
 20
78.65818071026019
 30
0.0
 11
30.8664283769142
 21
78.65818071026019
 31
0.0
  0
LINE
  5
1DA4
330
36
100
AcDbEntity
  8
0
  6
Continuous
 62
     7
100
AcDbLine
 10
34.6164283769142
 20
78.87911962099997
 30
0.0
 11
30.8664283769142
 21
78.87911962099997
 31
0.0
  0
LINE
  5
1DA5
330
36
100
AcDbEntity
  8
0
  6
Continuous
 62
     7
100
AcDbLine
 10
34.6164283769142
 20
79.04311287862238
 30
0.0
 11
30.8664283769142
 21
79.04311287862238
 31
0.0
  0
LINE
  5
1DA6
330
36
100
AcDbEntity
  8
0
  6
Continuous
 62
     7
100
AcDbLine
 10
34.6164283769142
 20
67.23582675341106
 30
0.0
 11
30.8664283769142
 21
67.23582675341106
 31
0.0
  0
LINE
  5
1DA7
330
36
100
AcDbEntity
  8
0
  6
Continuous
 62
     7
100
AcDbLine
 10
34.6164283769142
 20
66.99348085827444
 30
0.0
 11
30.8664283769142
 21
66.99348085827444
 31
0.0
  0
LINE
  5
1DA8
330
36
100
AcDbEntity
  8
0
  6
Continuous
 62
     7
100
AcDbLine
 10
34.6164283769142
 20
66.77252123396818
 30
0.0
 11
30.8664283769142
 21
66.77252123396818
 31
0.0
  0
LINE
  5
1DA9
330
36
100
AcDbEntity
  8
0
  6
Continuous
 62
     7
100
AcDbLine
 10
34.6164283769142
 20
66.58524812573443
 30
0.0
 11
30.8664283769142
 21
66.58524812573443
 31
0.0
  0
LINE
  5
1DAA
330
36
100
AcDbEntity
  8
0
  6
Continuous
 62
     7
100
AcDbLine
 10
34.6164283769142
 20
66.39797501750071
 30
0.0
 11
30.8664283769142
 21
66.39797501750071
 31
0.0
  0
LINE
  5
1E19
330
36
100
AcDbEntity
  8
0
  6
Continuous
 62
     3
100
AcDbLine
 10
17.51638669610702
 20
45.56732579885988
 30
0.0
 11
29.8664283769142
 21
45.56732579885988
 31
0.0
  0
LINE
  5
1E1A
330
36
100
AcDbEntity
  8
0
  6
Continuous
 62
     3
100
AcDbLine
 10
17.51638669610702
 20
31.06732579885989
 30
0.0
 11
29.8664283769142
 21
31.06732579885989
 31
0.0
  0
LINE
  5
1E1B
330
36
100
AcDbEntity
  8
0
  6
Continuous
 62
     3
100
AcDbLine
 10
29.8664283769142
 20
45.56732579885988
 30
0.0
 11
29.8664283769142
 21
31.06732579885989
 31
0.0
  0
LINE
  5
1E1D
330
36
100
AcDbEntity
  8
0
  6
Continuous
 62
     3
100
AcDbLine
 10
34.6164283769142
 20
31.81732579885988
 30
0.0
 11
35.1164283769142
 21
31.81732579885988
 31
0.0
  0
LINE
  5
1E1E
330
36
100
AcDbEntity
  8
0
  6
Continuous
 62
     3
100
AcDbLine
 10
35.1164283769142
 20
44.81732579885988
 30
0.0
 11
34.6164283769142
 21
44.81732579885988
 31
0.0
  0
LINE
  5
1E1F
330
36
100
AcDbEntity
  8
0
  6
Continuous
 62
     3
100
AcDbLine
 10
34.6164283769142
 20
31.44232579885989
 30
0.0
 11
29.8664283769142
 21
31.44232579885989
 31
0.0
  0
LINE
  5
1E20
330
36
100
AcDbEntity
  8
0
  6
Continuous
 62
     3
100
AcDbLine
 10
34.6164283769142
 20
45.19232579885988
 30
0.0
 11
29.8664283769142
 21
45.19232579885988
 31
0.0
  0
LINE
  5
1E21
330
36
100
AcDbEntity
  8
0
  6
Continuous
 62
     3
100
AcDbLine
 10
35.1164283769142
 20
31.81732579885988
 30
0.0
 11
35.1164283769142
 21
44.81732579885988
 31
0.0
  0
LINE
  5
1E22
330
36
100
AcDbEntity
  8
0
  6
Continuous
 62
     3
100
AcDbLine
 10
34.6164283769142
 20
31.44232579885989
 30
0.0
 11
34.6164283769142
 21
45.19232579885988
 31
0.0
  0
LINE
  5
1E23
330
36
100
AcDbEntity
  8
0
  6
Continuous
 62
     7
100
AcDbLine
 10
38.3664283769142
 20
42.07982579885981
 30
0.0
 11
35.1164283769142
 21
42.07982579885981
 31
0.0
  0
LINE
  5
1E24
330
36
100
AcDbEntity
  8
0
  6
Continuous
 62
     7
100
AcDbLine
 10
38.3664283769142
 20
40.90482579885978
 30
0.0
 11
35.1164283769142
 21
40.90482579885978
 31
0.0
  0
LINE
  5
1E25
330
36
100
AcDbEntity
  8
0
  6
Continuous
 62
     7
100
AcDbLine
 10
38.3664283769142
 20
42.07982579885981
 30
0.0
 11
38.8664283769142
 21
41.86732579885978
 31
0.0
  0
LINE
  5
1E26
330
36
100
AcDbEntity
  8
0
  6
Continuous
 62
     7
100
AcDbLine
 10
38.8664283769142
 20
41.86732579885978
 30
0.0
 11
38.8664283769142
 21
41.11732579885978
 31
0.0
  0
LINE
  5
1E27
330
36
100
AcDbEntity
  8
0
  6
Continuous
 62
     7
100
AcDbLine
 10
38.8664283769142
 20
41.11732579885978
 30
0.0
 11
38.3664283769142
 21
40.90482579885978
 31
0.0
  0
LINE
  5
1E28
330
36
100
AcDbEntity
  8
0
  6
Continuous
 62
     7
100
AcDbLine
 10
38.3664283769142
 20
40.90482579885978
 30
0.0
 11
38.3664283769142
 21
42.07982579885981
 31
0.0
  0
LINE
  5
1E39
330
36
100
AcDbEntity
  8
0
  6
Continuous
 62
     7
100
AcDbLine
 10
38.3664283769142
 20
35.72982579885974
 30
0.0
 11
35.1164283769142
 21
35.72982579885974
 31
0.0
  0
LINE
  5
1E3A
330
36
100
AcDbEntity
  8
0
  6
Continuous
 62
     7
100
AcDbLine
 10
38.3664283769142
 20
34.55482579885972
 30
0.0
 11
35.1164283769142
 21
34.55482579885972
 31
0.0
  0
LINE
  5
1E3B
330
36
100
AcDbEntity
  8
0
  6
Continuous
 62
     7
100
AcDbLine
 10
38.3664283769142
 20
35.72982579885974
 30
0.0
 11
38.8664283769142
 21
35.5173257988597
 31
0.0
  0
LINE
  5
1E3C
330
36
100
AcDbEntity
  8
0
  6
Continuous
 62
     7
100
AcDbLine
 10
38.8664283769142
 20
35.5173257988597
 30
0.0
 11
38.8664283769142
 21
34.7673257988597
 31
0.0
  0
LINE
  5
1E3D
330
36
100
AcDbEntity
  8
0
  6
Continuous
 62
     7
100
AcDbLine
 10
38.8664283769142
 20
34.7673257988597
 30
0.0
 11
38.3664283769142
 21
34.55482579885972
 31
0.0
  0
LINE
  5
1E3E
330
36
100
AcDbEntity
  8
0
  6
Continuous
 62
     7
100
AcDbLine
 10
38.3664283769142
 20
34.55482579885972
 30
0.0
 11
38.3664283769142
 21
35.72982579885974
 31
0.0
  0
LINE
  5
1E42
330
36
100
AcDbEntity
  8
0
  6
Continuous
 62
     3
100
AcDbLine
 10
17.51638669610702
 20
44.81732579885988
 30
0.0
 11
-21.1227872106886
 21
44.81732579885988
 31
0.0
  0
LINE
  5
1E43
330
36
100
AcDbEntity
  8
0
  6
Continuous
 62
     3
100
AcDbLine
 10
17.51638669610702
 20
31.81732579885988
 30
0.0
 11
-19.03134155418007
 21
31.81732579885988
 31
0.0
  0
ELLIPSE
  5
1E45
330
36
100
AcDbEntity
  8
0
  6
Continuous
 62
     3
100
AcDbEllipse
 10
17.51638669610702
 20
38.31732579885989
 30
0.0
 11
0.0
 21
7.25
 31
0.0
210
0.0
220
0.0
230
1.0
 40
0.641373561267983
 41
0.0
 42
0.4588742050138878
  0
ELLIPSE
  5
1E46
330
36
100
AcDbEntity
  8
0
  6
Continuous
 62
     3
100
AcDbEllipse
 10
17.51638669610702
 20
38.31732579885989
 30
0.0
 11
0.0
 21
7.25
 31
0.0
210
0.0
220
0.0
230
1.0
 40
0.641373561267983
 41
2.682718448575904
 42
3.141592653589792
  0
ELLIPSE
  5
1E47
330
36
100
AcDbEntity
  8
0
  6
Continuous
 62
     3
100
AcDbEllipse
 10
17.51638669610702
 20
38.31732579885989
 30
0.0
 11
-7.350041680807179
 21
0.0
 31
0.0
210
0.0
220
0.0
230
1.0
 40
0.8843487264804423
 41
1.570796326794896
 42
4.712388980384688
  0
ELLIPSE
  5
1E4C
330
36
100
AcDbEntity
  8
0
  6
Continuous
 62
     3
100
AcDbEllipse
 10
17.51638669610702
 20
38.31732579885989
 30
0.0
 11
-7.350041680807179
 21
-0.0000000506899252
 31
0.0
210
0.0
220
0.0
230
1.0
 40
0.9863889641512628
 41
1.570796319992215
 42
4.712388973582009
  0
LINE
  5
1E6C
330
36
100
AcDbEntity
  8
0
  6
Continuous
 62
     7
100
AcDbLine
 10
34.6164283769142
 20
42.45480408303018
 30
0.0
 11
30.8664283769142
 21
42.45480408303018
 31
0.0
  0
LINE
  5
1E6D
330
36
100
AcDbEntity
  8
0
  6
Continuous
 62
     7
100
AcDbLine
 10
34.6164283769142
 20
42.11189257288025
 30
0.0
 11
30.8664283769142
 21
42.11189257288025
 31
0.0
  0
LINE
  5
1E6E
330
36
100
AcDbEntity
  8
0
  6
Continuous
 62
     7
100
AcDbLine
 10
34.6164283769142
 20
41.75482579885988
 30
0.0
 11
30.8664283769142
 21
41.75482579885988
 31
0.0
  0
LINE
  5
1E6F
330
36
100
AcDbEntity
  8
0
  6
Continuous
 62
     7
100
AcDbLine
 10
34.6164283769142
 20
41.38493576398977
 30
0.0
 11
30.8664283769142
 21
41.38493576398977
 31
0.0
  0
LINE
  5
1E70
330
36
100
AcDbEntity
  8
0
  6
Continuous
 62
     7
100
AcDbLine
 10
34.6164283769142
 20
41.00360230722367
 30
0.0
 11
30.8664283769142
 21
41.00360230722367
 31
0.0
  0
LINE
  5
1E71
330
36
100
AcDbEntity
  8
0
  6
Continuous
 62
     7
100
AcDbLine
 10
34.6164283769142
 20
35.63104929049615
 30
0.0
 11
30.8664283769142
 21
35.63104929049615
 31
0.0
  0
LINE
  5
1E72
330
36
100
AcDbEntity
  8
0
  6
Continuous
 62
     7
100
AcDbLine
 10
34.6164283769142
 20
35.25543754467804
 30
0.0
 11
30.8664283769142
 21
35.25543754467804
 31
0.0
  0
LINE
  5
1E73
330
36
100
AcDbEntity
  8
0
  6
Continuous
 62
     7
100
AcDbLine
 10
34.6164283769142
 20
34.87982579885989
 30
0.0
 11
30.8664283769142
 21
34.87982579885989
 31
0.0
  0
LINE
  5
1E74
330
36
100
AcDbEntity
  8
0
  6
Continuous
 62
     7
100
AcDbLine
 10
34.6164283769142
 20
34.5227590248395
 30
0.0
 11
30.8664283769142
 21
34.5227590248395
 31
0.0
  0
LINE
  5
1E75
330
36
100
AcDbEntity
  8
0
  6
Continuous
 62
     7
100
AcDbLine
 10
34.6164283769142
 20
34.18756474571472
 30
0.0
 11
30.8664283769142
 21
34.18756474571472
 31
0.0
  0
LINE
  5
1E76
330
36
100
AcDbEntity
  8
0
  6
Continuous
100
AcDbLine
 10
68.68765139121659
 20
72.72644588498611
 30
0.0
 11
68.68765139121659
 21
87.43286590916431
 31
0.0
  0
LINE
  5
1E7B
330
36
100
AcDbEntity
  8
0
  6
Continuous
 62
     7
100
AcDbLine
 10
-78.43161670140375
 20
72.72644588498611
 30
0.0
 11
-74.68161670140375
 21
72.72644588498611
 31
0.0
  0
LINE
  5
1E7C
330
36
100
AcDbEntity
  8
0
  6
Continuous
 62
     3
100
AcDbLine
 10
-78.43161670140375
 20
66.2264458849861
 30
0.0
 11
-78.93161670140376
 21
66.2264458849861
 31
0.0
  0
LINE
  5
1E7D
330
36
100
AcDbEntity
  8
0
  6
Continuous
 62
     3
100
AcDbLine
 10
-78.93161670140376
 20
79.22644588498609
 30
0.0
 11
-78.43161670140375
 21
79.22644588498609
 31
0.0
  0
LINE
  5
1E7E
330
36
100
AcDbEntity
  8
0
  6
Continuous
 62
     3
100
AcDbLine
 10
-78.43161670140375
 20
65.85144588498611
 30
0.0
 11
-73.68161670140375
 21
65.85144588498611
 31
0.0
  0
LINE
  5
1E7F
330
36
100
AcDbEntity
  8
0
  6
Continuous
 62
     3
100
AcDbLine
 10
-78.43161670140375
 20
79.60144588498611
 30
0.0
 11
-73.68161670140375
 21
79.60144588498611
 31
0.0
  0
LINE
  5
1E80
330
36
100
AcDbEntity
  8
0
  6
Continuous
 62
     3
100
AcDbLine
 10
-73.68161670140375
 20
64.60144588498611
 30
0.0
 11
-68.68161670140375
 21
64.60144588498611
 31
0.0
  0
LINE
  5
1E81
330
36
100
AcDbEntity
  8
0
  6
Continuous
 62
     3
100
AcDbLine
 10
-73.68161670140375
 20
80.85144588498611
 30
0.0
 11
-56.68161670140375
 21
80.85144588498611
 31
0.0
  0
LINE
  5
1E82
330
36
100
AcDbEntity
  8
0
  6
Continuous
 62
     3
100
AcDbLine
 10
-78.93161670140376
 20
66.2264458849861
 30
0.0
 11
-78.93161670140376
 21
79.22644588498609
 31
0.0
  0
LINE
  5
1E83
330
36
100
AcDbEntity
  8
0
  6
Continuous
 62
     3
100
AcDbLine
 10
-73.68161670140375
 20
64.60144588498611
 30
0.0
 11
-73.68161670140375
 21
80.85144588498611
 31
0.0
  0
LINE
  5
1E84
330
36
100
AcDbEntity
  8
0
  6
Continuous
 62
     7
100
AcDbLine
 10
-72.18161670140375
 20
74.52388013356227
 30
0.0
 11
-72.18161670140375
 21
74.77295763880409
 31
0.0
  0
LINE
  5
1E85
330
36
100
AcDbEntity
  8
0
  6
Continuous
 62
     7
100
AcDbLine
 10
-72.18161670140375
 20
78.17503706429022
 30
0.0
 11
-72.18161670140375
 21
78.36695748896443
 31
0.0
  0
LINE
  5
1E86
330
36
100
AcDbEntity
  8
0
  6
Continuous
 62
     7
100
AcDbLine
 10
-72.18161670140375
 20
80.5052080756077
 30
0.0
 11
-72.18161670140375
 21
80.56991283688336
 31
0.0
  0
LINE
  5
1E87
330
36
100
AcDbEntity
  8
0
  6
Continuous
 62
     7
100
AcDbLine
 10
-70.68161670140375
 20
72.60144588498611
 30
0.0
 11
-70.68161670140375
 21
72.85144588498615
 31
0.0
  0
LINE
  5
1E88
330
36
100
AcDbEntity
  8
0
  6
Continuous
 62
     7
100
AcDbLine
 10
-70.68161670140375
 20
76.43497040510272
 30
0.0
 11
-70.68161670140375
 21
76.6646157454474
 31
0.0
  0
LINE
  5
1E89
330
36
100
AcDbEntity
  8
0
  6
Continuous
 62
     7
100
AcDbLine
 10
-70.68161670140375
 20
79.57995389248925
 30
0.0
 11
-70.68161670140375
 21
79.71804474435612
 31
0.0
  0
LINE
  5
1E8A
330
36
100
AcDbEntity
  8
0
  6
Continuous
 62
     7
100
AcDbLine
 10
-70.68161670140375
 20
80.85036821868504
 30
0.0
 11
-70.68161670140375
 21
80.85144588498611
 31
0.0
  0
LINE
  5
1E8B
330
36
100
AcDbEntity
  8
0
  6
Continuous
 62
     3
100
AcDbLine
 10
-56.68161670140375
 20
80.1014458849861
 30
0.0
 11
-56.68161670140375
 21
80.85144588498611
 31
0.0
  0
LINE
  5
1E8C
330
36
100
AcDbEntity
  8
0
  6
Continuous
 62
     3
100
AcDbLine
 10
-68.68161670140375
 20
64.60144588498611
 30
0.0
 11
-68.68161670140375
 21
65.3514458849861
 31
0.0
  0
LINE
  5
1E8D
330
36
100
AcDbEntity
  8
0
  6
Continuous
 62
     3
100
AcDbLine
 10
-78.43161670140375
 20
65.85144588498611
 30
0.0
 11
-78.43161670140375
 21
79.60144588498611
 31
0.0
  0
ARC
  5
1E8E
330
36
100
AcDbEntity
  8
0
  6
Continuous
 62
     3
100
AcDbCircle
 10
-56.61150899683036
 20
62.10144588498611
 30
0.0
 40
12.5
100
AcDbArc
 50
112.1854269722782
 51
164.9299378551118
  0
ARC
  5
1E8F
330
36
100
AcDbEntity
  8
0
  6
Continuous
 62
     3
100
AcDbCircle
 10
-64.16361463485623
 20
80.62077903799405
 30
0.0
 40
7.500000000000017
100
AcDbArc
 50
292.1854269722782
 51
356.0294096105507
  0
LINE
  5
1E90
330
36
100
AcDbEntity
  8
0
  6
Continuous
 62
     7
100
AcDbLine
 10
-82.18161670140375
 20
73.31394588498614
 30
0.0
 11
-78.93161670140376
 21
73.31394588498614
 31
0.0
  0
LINE
  5
1E91
330
36
100
AcDbEntity
  8
0
  6
Continuous
 62
     7
100
AcDbLine
 10
-82.18161670140375
 20
72.13894588498613
 30
0.0
 11
-78.93161670140376
 21
72.13894588498613
 31
0.0
  0
LINE
  5
1E92
330
36
100
AcDbEntity
  8
0
  6
Continuous
 62
     7
100
AcDbLine
 10
-82.18161670140375
 20
73.31394588498614
 30
0.0
 11
-82.68161670140376
 21
73.10144588498609
 31
0.0
  0
LINE
  5
1E93
330
36
100
AcDbEntity
  8
0
  6
Continuous
 62
     7
100
AcDbLine
 10
-82.68161670140376
 20
73.10144588498609
 30
0.0
 11
-82.68161670140376
 21
72.35144588498609
 31
0.0
  0
LINE
  5
1E94
330
36
100
AcDbEntity
  8
0
  6
Continuous
 62
     7
100
AcDbLine
 10
-82.68161670140376
 20
72.35144588498609
 30
0.0
 11
-82.18161670140375
 21
72.13894588498613
 31
0.0
  0
LINE
  5
1E95
330
36
100
AcDbEntity
  8
0
  6
Continuous
 62
     7
100
AcDbLine
 10
-82.18161670140375
 20
72.13894588498613
 30
0.0
 11
-82.18161670140375
 21
73.31394588498614
 31
0.0
  0
LINE
  5
1E96
330
36
100
AcDbEntity
  8
0
  6
Continuous
 62
     7
100
AcDbLine
 10
-70.68161670140375
 20
72.85144588498609
 30
0.0
 11
-73.68161670140375
 21
72.85144588498609
 31
0.0
  0
LINE
  5
1E97
330
36
100
AcDbEntity
  8
0
  6
Continuous
 62
     7
100
AcDbLine
 10
-70.68161670140375
 20
72.60144588498611
 30
0.0
 11
-73.68161670140375
 21
72.60144588498611
 31
0.0
  0
LINE
  5
1E98
330
36
100
AcDbEntity
  8
0
  6
Continuous
 62
     7
100
AcDbLine
 10
-72.18161670140375
 20
74.52388013356227
 30
0.0
 11
-73.68161670140375
 21
74.52388013356227
 31
0.0
  0
LINE
  5
1E99
330
36
100
AcDbEntity
  8
0
  6
Continuous
 62
     7
100
AcDbLine
 10
-72.18161670140375
 20
74.77295763880409
 30
0.0
 11
-73.68161670140375
 21
74.77295763880409
 31
0.0
  0
LINE
  5
1E9A
330
36
100
AcDbEntity
  8
0
  6
Continuous
 62
     7
100
AcDbLine
 10
-70.68161670140375
 20
76.43497040510272
 30
0.0
 11
-73.68161670140375
 21
76.43497040510272
 31
0.0
  0
LINE
  5
1E9B
330
36
100
AcDbEntity
  8
0
  6
Continuous
 62
     7
100
AcDbLine
 10
-70.68161670140375
 20
76.6646157454474
 30
0.0
 11
-73.68161670140375
 21
76.6646157454474
 31
0.0
  0
LINE
  5
1E9C
330
36
100
AcDbEntity
  8
0
  6
Continuous
 62
     7
100
AcDbLine
 10
-72.18161670140375
 20
78.17503706429022
 30
0.0
 11
-73.68161670140375
 21
78.17503706429022
 31
0.0
  0
LINE
  5
1E9D
330
36
100
AcDbEntity
  8
0
  6
Continuous
 62
     7
100
AcDbLine
 10
-72.18161670140375
 20
78.36695748896443
 30
0.0
 11
-73.68161670140375
 21
78.36695748896443
 31
0.0
  0
LINE
  5
1E9E
330
36
100
AcDbEntity
  8
0
  6
Continuous
 62
     7
100
AcDbLine
 10
-70.68161670140375
 20
79.57995389248925
 30
0.0
 11
-73.68161670140375
 21
79.57995389248925
 31
0.0
  0
LINE
  5
1E9F
330
36
100
AcDbEntity
  8
0
  6
Continuous
 62
     7
100
AcDbLine
 10
-70.68161670140375
 20
79.71804474435612
 30
0.0
 11
-73.68161670140375
 21
79.71804474435612
 31
0.0
  0
LINE
  5
1EA0
330
36
100
AcDbEntity
  8
0
  6
Continuous
 62
     7
100
AcDbLine
 10
-72.18161670140375
 20
80.5052080756077
 30
0.0
 11
-73.68161670140375
 21
80.5052080756077
 31
0.0
  0
LINE
  5
1EA1
330
36
100
AcDbEntity
  8
0
  6
Continuous
 62
     7
100
AcDbLine
 10
-72.18161670140375
 20
80.56991283688336
 30
0.0
 11
-73.68161670140375
 21
80.56991283688336
 31
0.0
  0
LINE
  5
1EA2
330
36
100
AcDbEntity
  8
0
  6
Continuous
 62
     7
100
AcDbLine
 10
-73.68161670140375
 20
80.85036821868504
 30
0.0
 11
-70.68161670140375
 21
80.85036821868504
 31
0.0
  0
LINE
  5
1EA3
330
36
100
AcDbEntity
  8
0
  6
Continuous
 62
     7
100
AcDbLine
 10
-78.43161670140375
 20
73.56429762089645
 30
0.0
 11
-74.68161670140375
 21
73.56429762089645
 31
0.0
  0
LINE
  5
1EA4
330
36
100
AcDbEntity
  8
0
  6
Continuous
 62
     7
100
AcDbLine
 10
-78.43161670140375
 20
73.14537175294129
 30
0.0
 11
-74.68161670140375
 21
73.14537175294129
 31
0.0
  0
LINE
  5
1EA5
330
36
100
AcDbEntity
  8
0
  6
Continuous
 62
     7
100
AcDbLine
 10
-78.43161670140375
 20
72.30673717568402
 30
0.0
 11
-74.68161670140375
 21
72.30673717568402
 31
0.0
  0
LINE
  5
1EA6
330
36
100
AcDbEntity
  8
0
  6
Continuous
 62
     7
100
AcDbLine
 10
-78.43161670140375
 20
71.88859414907574
 30
0.0
 11
-74.68161670140375
 21
71.88859414907574
 31
0.0
  0
LINE
  5
1EA7
330
36
100
AcDbEntity
  8
0
  6
Continuous
 62
     7
100
AcDbLine
 10
-78.43161670140375
 20
78.2170650165612
 30
0.0
 11
-74.68161670140375
 21
78.2170650165612
 31
0.0
  0
LINE
  5
1EA8
330
36
100
AcDbEntity
  8
0
  6
Continuous
 62
     7
100
AcDbLine
 10
-78.43161670140375
 20
78.44871777628259
 30
0.0
 11
-74.68161670140375
 21
78.44871777628259
 31
0.0
  0
LINE
  5
1EA9
330
36
100
AcDbEntity
  8
0
  6
Continuous
 62
     7
100
AcDbLine
 10
-78.43161670140375
 20
78.65818071026019
 30
0.0
 11
-74.68161670140375
 21
78.65818071026019
 31
0.0
  0
LINE
  5
1EAA
330
36
100
AcDbEntity
  8
0
  6
Continuous
 62
     7
100
AcDbLine
 10
-78.43161670140375
 20
78.87911962099997
 30
0.0
 11
-74.68161670140375
 21
78.87911962099997
 31
0.0
  0
LINE
  5
1EAB
330
36
100
AcDbEntity
  8
0
  6
Continuous
 62
     7
100
AcDbLine
 10
-78.43161670140375
 20
79.04311287862238
 30
0.0
 11
-74.68161670140375
 21
79.04311287862238
 31
0.0
  0
LINE
  5
1EAC
330
36
100
AcDbEntity
  8
0
  6
Continuous
 62
     7
100
AcDbLine
 10
-78.43161670140375
 20
67.23582675341106
 30
0.0
 11
-74.68161670140375
 21
67.23582675341106
 31
0.0
  0
LINE
  5
1EAD
330
36
100
AcDbEntity
  8
0
  6
Continuous
 62
     7
100
AcDbLine
 10
-78.43161670140375
 20
66.99348085827444
 30
0.0
 11
-74.68161670140375
 21
66.99348085827444
 31
0.0
  0
LINE
  5
1EAE
330
36
100
AcDbEntity
  8
0
  6
Continuous
 62
     7
100
AcDbLine
 10
-78.43161670140375
 20
66.77252123396818
 30
0.0
 11
-74.68161670140375
 21
66.77252123396818
 31
0.0
  0
LINE
  5
1EAF
330
36
100
AcDbEntity
  8
0
  6
Continuous
 62
     7
100
AcDbLine
 10
-78.43161670140375
 20
66.58524812573443
 30
0.0
 11
-74.68161670140375
 21
66.58524812573443
 31
0.0
  0
LINE
  5
1EB0
330
36
100
AcDbEntity
  8
0
  6
Continuous
 62
     7
100
AcDbLine
 10
-78.43161670140375
 20
66.39797501750071
 30
0.0
 11
-74.68161670140375
 21
66.39797501750071
 31
0.0
  0
LINE
  5
1EB1
330
36
100
AcDbEntity
  8
0
  6
Continuous
 62
     3
100
AcDbLine
 10
-61.33157502059657
 20
45.56732579885988
 30
0.0
 11
-73.68161670140375
 21
45.56732579885988
 31
0.0
  0
LINE
  5
1EB2
330
36
100
AcDbEntity
  8
0
  6
Continuous
 62
     3
100
AcDbLine
 10
-61.33157502059657
 20
31.06732579885989
 30
0.0
 11
-73.68161670140375
 21
31.06732579885989
 31
0.0
  0
LINE
  5
1EB3
330
36
100
AcDbEntity
  8
0
  6
Continuous
 62
     3
100
AcDbLine
 10
-73.68161670140375
 20
45.56732579885988
 30
0.0
 11
-73.68161670140375
 21
31.06732579885989
 31
0.0
  0
LINE
  5
1EB4
330
36
100
AcDbEntity
  8
0
  6
Continuous
 62
     3
100
AcDbLine
 10
-78.43161670140375
 20
31.81732579885988
 30
0.0
 11
-78.93161670140376
 21
31.81732579885988
 31
0.0
  0
LINE
  5
1EB5
330
36
100
AcDbEntity
  8
0
  6
Continuous
 62
     3
100
AcDbLine
 10
-78.93161670140376
 20
44.81732579885988
 30
0.0
 11
-78.43161670140375
 21
44.81732579885988
 31
0.0
  0
LINE
  5
1EB6
330
36
100
AcDbEntity
  8
0
  6
Continuous
 62
     3
100
AcDbLine
 10
-78.43161670140375
 20
31.44232579885989
 30
0.0
 11
-73.68161670140375
 21
31.44232579885989
 31
0.0
  0
LINE
  5
1EB7
330
36
100
AcDbEntity
  8
0
  6
Continuous
 62
     3
100
AcDbLine
 10
-78.43161670140375
 20
45.19232579885988
 30
0.0
 11
-73.68161670140375
 21
45.19232579885988
 31
0.0
  0
LINE
  5
1EB8
330
36
100
AcDbEntity
  8
0
  6
Continuous
 62
     3
100
AcDbLine
 10
-78.93161670140376
 20
31.81732579885988
 30
0.0
 11
-78.93161670140376
 21
44.81732579885988
 31
0.0
  0
LINE
  5
1EB9
330
36
100
AcDbEntity
  8
0
  6
Continuous
 62
     3
100
AcDbLine
 10
-78.43161670140375
 20
31.44232579885989
 30
0.0
 11
-78.43161670140375
 21
45.19232579885988
 31
0.0
  0
LINE
  5
1EBA
330
36
100
AcDbEntity
  8
0
  6
Continuous
 62
     7
100
AcDbLine
 10
-82.18161670140375
 20
42.07982579885981
 30
0.0
 11
-78.93161670140376
 21
42.07982579885981
 31
0.0
  0
LINE
  5
1EBB
330
36
100
AcDbEntity
  8
0
  6
Continuous
 62
     7
100
AcDbLine
 10
-82.18161670140375
 20
40.90482579885978
 30
0.0
 11
-78.93161670140376
 21
40.90482579885978
 31
0.0
  0
LINE
  5
1EBC
330
36
100
AcDbEntity
  8
0
  6
Continuous
 62
     7
100
AcDbLine
 10
-82.18161670140375
 20
42.07982579885981
 30
0.0
 11
-82.68161670140376
 21
41.86732579885978
 31
0.0
  0
LINE
  5
1EBD
330
36
100
AcDbEntity
  8
0
  6
Continuous
 62
     7
100
AcDbLine
 10
-82.68161670140376
 20
41.86732579885978
 30
0.0
 11
-82.68161670140376
 21
41.11732579885978
 31
0.0
  0
LINE
  5
1EBE
330
36
100
AcDbEntity
  8
0
  6
Continuous
 62
     7
100
AcDbLine
 10
-82.68161670140376
 20
41.11732579885978
 30
0.0
 11
-82.18161670140375
 21
40.90482579885978
 31
0.0
  0
LINE
  5
1EBF
330
36
100
AcDbEntity
  8
0
  6
Continuous
 62
     7
100
AcDbLine
 10
-82.18161670140375
 20
40.90482579885978
 30
0.0
 11
-82.18161670140375
 21
42.07982579885981
 31
0.0
  0
LINE
  5
1EC0
330
36
100
AcDbEntity
  8
0
  6
Continuous
 62
     7
100
AcDbLine
 10
-82.18161670140375
 20
35.72982579885974
 30
0.0
 11
-78.93161670140376
 21
35.72982579885974
 31
0.0
  0
LINE
  5
1EC1
330
36
100
AcDbEntity
  8
0
  6
Continuous
 62
     7
100
AcDbLine
 10
-82.18161670140375
 20
34.55482579885972
 30
0.0
 11
-78.93161670140376
 21
34.55482579885972
 31
0.0
  0
LINE
  5
1EC2
330
36
100
AcDbEntity
  8
0
  6
Continuous
 62
     7
100
AcDbLine
 10
-82.18161670140375
 20
35.72982579885974
 30
0.0
 11
-82.68161670140376
 21
35.5173257988597
 31
0.0
  0
LINE
  5
1EC3
330
36
100
AcDbEntity
  8
0
  6
Continuous
 62
     7
100
AcDbLine
 10
-82.68161670140376
 20
35.5173257988597
 30
0.0
 11
-82.68161670140376
 21
34.7673257988597
 31
0.0
  0
LINE
  5
1EC4
330
36
100
AcDbEntity
  8
0
  6
Continuous
 62
     7
100
AcDbLine
 10
-82.68161670140376
 20
34.7673257988597
 30
0.0
 11
-82.18161670140375
 21
34.55482579885972
 31
0.0
  0
LINE
  5
1EC5
330
36
100
AcDbEntity
  8
0
  6
Continuous
 62
     7
100
AcDbLine
 10
-82.18161670140375
 20
34.55482579885972
 30
0.0
 11
-82.18161670140375
 21
35.72982579885974
 31
0.0
  0
ELLIPSE
  5
1EC6
330
36
100
AcDbEntity
  8
0
  6
Continuous
 62
     3
100
AcDbEllipse
 10
-61.33157502059657
 20
38.31732579885989
 30
0.0
 11
0.0
 21
7.25
 31
0.0
210
0.0
220
0.0
230
-1.0
 40
0.641373561267983
 41
0.0
 42
0.4588742050138878
  0
ELLIPSE
  5
1EC7
330
36
100
AcDbEntity
  8
0
  6
Continuous
 62
     3
100
AcDbEllipse
 10
-61.33157502059657
 20
38.31732579885989
 30
0.0
 11
0.0
 21
7.25
 31
0.0
210
0.0
220
0.0
230
-1.0
 40
0.641373561267983
 41
2.682718448575904
 42
3.141592653589792
  0
ELLIPSE
  5
1EC8
330
36
100
AcDbEntity
  8
0
  6
Continuous
 62
     3
100
AcDbEllipse
 10
-61.33157502059657
 20
38.31732579885989
 30
0.0
 11
7.350041680807179
 21
0.0
 31
0.0
210
0.0
220
0.0
230
-1.0
 40
0.8843487264804423
 41
1.570796326794896
 42
4.712388980384688
  0
ELLIPSE
  5
1EC9
330
36
100
AcDbEntity
  8
0
  6
Continuous
 62
     3
100
AcDbEllipse
 10
-61.33157502059657
 20
38.31732579885989
 30
0.0
 11
7.350041680807179
 21
-0.0000000506899252
 31
0.0
210
0.0
220
0.0
230
-1.0
 40
0.9863889641512628
 41
1.570796319992215
 42
4.712388973582009
  0
LINE
  5
1ECA
330
36
100
AcDbEntity
  8
0
  6
Continuous
 62
     7
100
AcDbLine
 10
-78.43161670140375
 20
42.45480408303018
 30
0.0
 11
-74.68161670140375
 21
42.45480408303018
 31
0.0
  0
LINE
  5
1ECB
330
36
100
AcDbEntity
  8
0
  6
Continuous
 62
     7
100
AcDbLine
 10
-78.43161670140375
 20
42.11189257288025
 30
0.0
 11
-74.68161670140375
 21
42.11189257288025
 31
0.0
  0
LINE
  5
1ECC
330
36
100
AcDbEntity
  8
0
  6
Continuous
 62
     7
100
AcDbLine
 10
-78.43161670140375
 20
41.75482579885988
 30
0.0
 11
-74.68161670140375
 21
41.75482579885988
 31
0.0
  0
LINE
  5
1ECD
330
36
100
AcDbEntity
  8
0
  6
Continuous
 62
     7
100
AcDbLine
 10
-78.43161670140375
 20
41.38493576398977
 30
0.0
 11
-74.68161670140375
 21
41.38493576398977
 31
0.0
  0
LINE
  5
1ECE
330
36
100
AcDbEntity
  8
0
  6
Continuous
 62
     7
100
AcDbLine
 10
-78.43161670140375
 20
41.00360230722367
 30
0.0
 11
-74.68161670140375
 21
41.00360230722367
 31
0.0
  0
LINE
  5
1ECF
330
36
100
AcDbEntity
  8
0
  6
Continuous
 62
     7
100
AcDbLine
 10
-78.43161670140375
 20
35.63104929049615
 30
0.0
 11
-74.68161670140375
 21
35.63104929049615
 31
0.0
  0
LINE
  5
1ED0
330
36
100
AcDbEntity
  8
0
  6
Continuous
 62
     7
100
AcDbLine
 10
-78.43161670140375
 20
35.25543754467804
 30
0.0
 11
-74.68161670140375
 21
35.25543754467804
 31
0.0
  0
LINE
  5
1ED1
330
36
100
AcDbEntity
  8
0
  6
Continuous
 62
     7
100
AcDbLine
 10
-78.43161670140375
 20
34.87982579885989
 30
0.0
 11
-74.68161670140375
 21
34.87982579885989
 31
0.0
  0
LINE
  5
1ED2
330
36
100
AcDbEntity
  8
0
  6
Continuous
 62
     7
100
AcDbLine
 10
-78.43161670140375
 20
34.5227590248395
 30
0.0
 11
-74.68161670140375
 21
34.5227590248395
 31
0.0
  0
LINE
  5
1ED3
330
36
100
AcDbEntity
  8
0
  6
Continuous
 62
     7
100
AcDbLine
 10
-78.43161670140375
 20
34.18756474571472
 30
0.0
 11
-74.68161670140375
 21
34.18756474571472
 31
0.0
  0
LINE
  5
1ED4
330
36
100
AcDbEntity
  8
0
  6
CENTER
 62
     7
100
AcDbLine
 10
-84.76816441825167
 20
38.31732579885989
 30
0.0
 11
42.6012486996808
 21
38.31732579885989
 31
0.0
  0
LINE
  5
1ED5
330
36
100
AcDbEntity
  8
0
  6
CENTER
 62
     7
100
AcDbLine
 10
-84.76816441825167
 20
72.72644588498611
 30
0.0
 11
42.60124869968078
 21
72.72644588498611
 31
0.0
  0
ARC
  5
1ED8
330
36
100
AcDbEntity
  8
0
  6
Continuous
100
AcDbCircle
 10
-0.6244097488713101
 20
43.22529420214578
 30
0.0
 40
20.56010805351166
100
AcDbArc
 50
162.1331383693704
 51
197.8668616306296
  0
ARC
  5
1ED9
330
36
100
AcDbEntity
  8
0
  6
Continuous
100
AcDbCircle
 10
-33.67386937825252
 20
31.16455098853669
 30
0.0
 40
14.65707119556047
100
AcDbArc
 50
336.8903875550897
 51
23.1096124449137
  0
ARC
  5
1EDA
330
36
100
AcDbEntity
  8
0
  6
Continuous
100
AcDbCircle
 10
-5.125183215968441
 20
43.22529420214578
 30
0.0
 40
20.56010805351166
100
AcDbArc
 50
162.1331383693704
 51
197.8668616306296
  0
ARC
  5
1EDB
330
36
100
AcDbEntity
  8
0
  6
Continuous
100
AcDbCircle
 10
-38.17464284534965
 20
31.16455098853669
 30
0.0
 40
14.65707119556047
100
AcDbArc
 50
336.8903875550897
 51
23.1096124449137
  0
ARC
  5
1EDC
330
36
100
AcDbEntity
  8
0
  6
Continuous
100
AcDbCircle
 10
-0.6244097488713101
 20
77.63441428827201
 30
0.0
 40
20.56010805351166
100
AcDbArc
 50
162.1331383693704
 51
197.8668616306296
  0
ARC
  5
1EDD
330
36
100
AcDbEntity
  8
0
  6
Continuous
100
AcDbCircle
 10
-33.67386937825252
 20
65.57367107466291
 30
0.0
 40
14.65707119556047
100
AcDbArc
 50
336.8903875550897
 51
23.1096124449137
  0
ARC
  5
1EDE
330
36
100
AcDbEntity
  8
0
  6
Continuous
100
AcDbCircle
 10
-5.125183215968441
 20
77.63441428827201
 30
0.0
 40
20.56010805351166
100
AcDbArc
 50
162.1331383693704
 51
197.8668616306296
  0
ARC
  5
1EDF
330
36
100
AcDbEntity
  8
0
  6
Continuous
100
AcDbCircle
 10
-38.17464284534965
 20
65.57367107466291
 30
0.0
 40
14.65707119556047
100
AcDbArc
 50
336.8903875550897
 51
23.1096124449137
  0
LINE
  5
1EE0
330
36
100
AcDbEntity
  8
0
  6
Continuous
 62
     3
100
AcDbLine
 10
-25.53674362356318
 20
80.1014458849861
 30
0.0
 11
-56.68161670140375
 21
80.1014458849861
 31
0.0
  0
LINE
  5
1EE1
330
36
100
AcDbEntity
  8
0
  6
Continuous
 62
     7
100
AcDbLine
 10
-25.47860462214893
 20
74.72644588498609
 30
0.0
 11
-59.52606822739554
 21
74.72644588498609
 31
0.0
  0
LINE
  5
1EE2
330
36
100
AcDbEntity
  8
0
  6
Continuous
 62
     3
100
AcDbLine
 10
-25.20721144340872
 20
73.22644588498611
 30
0.0
 11
-62.31101555441935
 21
73.22644588498611
 31
0.0
  0
LINE
  5
1EE3
330
36
100
AcDbEntity
  8
0
  6
Continuous
 62
     3
100
AcDbLine
 10
-25.62356067778573
 20
44.81732579885988
 30
0.0
 11
-61.33157502059657
 21
44.81732579885988
 31
0.0
  0
LINE
  5
1EE4
330
36
100
AcDbEntity
  8
0
  6
Continuous
 62
     3
100
AcDbLine
 10
-23.5321150212772
 20
31.81732579885988
 30
0.0
 11
-61.33157502059657
 21
31.81732579885988
 31
0.0
  0
LINE
  5
1EE5
330
36
100
AcDbEntity
  8
0
  6
Continuous
 62
     3
100
AcDbLine
 10
-23.51925639541932
 20
65.3514458849861
 30
0.0
 11
-68.68161670140366
 21
65.3514458849861
 31
0.0
  0
ARC
  5
1FEC
330
36
100
AcDbEntity
  8
0
  6
Continuous
100
AcDbCircle
 10
68.68765139121659
 20
67.96781617739497
 30
0.0
 40
19.46504973176934
100
AcDbArc
 50
54.28153475998767
 51
125.7184652400123
  0
LINE
  5
1FEE
330
36
100
AcDbEntity
  8
0
  6
Continuous
100
AcDbLine
 10
77.95327784277059
 20
84.31563459847167
 30
0.0
 11
80.05140384806573
 21
83.77140093401612
 31
0.0
  0
LINE
  5
1FEF
330
36
100
AcDbEntity
  8
0
  6
Continuous
100
AcDbLine
 10
80.05140384806573
 20
83.77140093401612
 30
0.0
 11
78.86484886894596
 21
85.31777546693069
 31
0.0
  0
LINE
  5
1FF0
330
36
100
AcDbEntity
  8
0
  6
Continuous
100
AcDbLine
 10
59.42202493966258
 20
84.31563459847167
 30
0.0
 11
57.32389893436742
 21
83.77140093401612
 31
0.0
  0
LINE
  5
1FF1
330
36
100
AcDbEntity
  8
0
  6
Continuous
100
AcDbLine
 10
57.32389893436742
 20
83.77140093401612
 30
0.0
 11
58.51045391348723
 21
85.31777546693069
 31
0.0
  0
TEXT
  5
2016
330
36
100
AcDbEntity
  8
0
  6
Continuous
 62
     4
100
AcDbText
 10
53.85500520514461
 20
86.01979719137716
 30
0.0
 40
3.2
  1
90\U+00B0
  7
高3.2
100
AcDbText
  0
TEXT
  5
2017
330
36
100
AcDbEntity
  8
0
  6
Continuous
 62
     4
100
AcDbText
 10
77.67255531263526
 20
86.01979719137716
 30
0.0
 40
3.2
  1
90\U+00B0
  7
高3.2
100
AcDbText
  0
LINE
  5
2102
330
36
100
AcDbEntity
  8
0
 62
     7
100
AcDbLine
 10
-41.17312420835892
 20
-67.16467238725977
 30
0.0
 11
15.76853902279002
 21
-67.16467238725977
 31
0.0
  0
LINE
  5
2103
330
36
100
AcDbEntity
  8
0
 62
     7
100
AcDbLine
 10
-41.17312420835893
 20
-63.16467238725977
 30
0.0
 11
15.76853902279001
 21
-63.16467238725977
 31
0.0
  0
LINE
  5
2105
330
36
100
AcDbEntity
  8
0
 62
     7
100
AcDbLine
 10
-41.17312420835896
 20
-59.16467238725977
 30
0.0
 11
15.76853902278998
 21
-59.16467238725977
 31
0.0
  0
LINE
  5
2106
330
36
100
AcDbEntity
  8
0
 62
     7
100
AcDbLine
 10
-33.61604023041833
 20
-55.16467238725977
 30
0.0
 11
15.76853902278998
 21
-55.16467238725977
 31
0.0
  0
LINE
  5
2107
330
36
100
AcDbEntity
  8
0
 62
     7
100
AcDbLine
 10
-33.61604023041833
 20
-51.16467238725977
 30
0.0
 11
15.76853902278998
 21
-51.16467238725977
 31
0.0
  0
LINE
  5
2108
330
36
100
AcDbEntity
  8
0
 62
     7
100
AcDbLine
 10
-33.61604023041833
 20
-47.16467238725977
 30
0.0
 11
15.76853902278998
 21
-47.16467238725977
 31
0.0
  0
LINE
  5
2109
330
36
100
AcDbEntity
  8
0
 62
     7
100
AcDbLine
 10
-33.61604023041833
 20
-43.16467238725977
 30
0.0
 11
15.76853902278998
 21
-43.16467238725977
 31
0.0
  0
LINE
  5
210A
330
36
100
AcDbEntity
  8
0
 62
     7
100
AcDbLine
 10
-41.17312420835896
 20
-39.16467238725978
 30
0.0
 11
15.76853902278998
 21
-39.16467238725978
 31
0.0
  0
LINE
  5
210B
330
36
100
AcDbEntity
  8
0
 62
     7
100
AcDbLine
 10
-41.17312420835896
 20
-35.16467238725977
 30
0.0
 11
15.76853902278998
 21
-35.16467238725977
 31
0.0
  0
LINE
  5
210C
330
36
100
AcDbEntity
  8
0
 62
     7
100
AcDbLine
 10
-41.17312420835896
 20
-31.16467238725977
 30
0.0
 11
15.76853902278998
 21
-31.16467238725977
 31
0.0
  0
LINE
  5
210D
330
36
100
AcDbEntity
  8
0
 62
     7
100
AcDbLine
 10
-41.17312420835896
 20
-27.16467238725977
 30
0.0
 11
15.76853902278998
 21
-27.16467238725977
 31
0.0
  0
LINE
  5
210E
330
36
100
AcDbEntity
  8
0
 62
     7
100
AcDbLine
 10
-41.17312420835896
 20
-23.16467238725977
 30
0.0
 11
15.76853902278998
 21
-23.16467238725977
 31
0.0
  0
LINE
  5
210F
330
36
100
AcDbEntity
  8
0
 62
     7
100
AcDbLine
 10
-41.17312420835896
 20
-19.16467238725976
 30
0.0
 11
15.76853902278998
 21
-19.16467238725976
 31
0.0
  0
LINE
  5
2110
330
36
100
AcDbEntity
  8
0
 62
     7
100
AcDbLine
 10
-41.17312420835896
 20
-15.16467238725977
 30
0.0
 11
15.76853902278998
 21
-15.16467238725977
 31
0.0
  0
LINE
  5
2111
330
36
100
AcDbEntity
  8
0
 62
     7
100
AcDbLine
 10
-41.17312420835875
 20
-7.164672387259766
 30
0.0
 11
15.7685390227902
 21
-7.164672387259766
 31
0.0
  0
TEXT
  5
2112
330
36
100
AcDbEntity
  8
0
 62
     3
100
AcDbText
 10
-21.95269106453087
 20
-70.43739965998705
 30
0.0
 40
2.5
  1
300g
 41
0.8
  7
高2.5
100
AcDbText
  0
TEXT
  5
2113
330
36
100
AcDbEntity
  8
0
 62
     3
100
AcDbText
 10
-40.08221511744981
 20
-70.43739965998705
 30
0.0
 40
2.5
  1
質　　　量
 41
0.8
  7
高2.5
100
AcDbText
  0
TEXT
  5
2114
330
36
100
AcDbEntity
  8
0
 62
     3
100
AcDbText
 10
-40.08221511744981
 20
-62.43739965998705
 30
0.0
 40
2.5
  1
球　寿　命
 41
0.8
  7
高2.5
100
AcDbText
  0
TEXT
  5
2115
330
36
100
AcDbEntity
  8
0
 62
     3
100
AcDbText
 10
-40.08221511744981
 20
-66.43739965998702
 30
0.0
 40
2.5
  1
使用環境温度
 41
0.8
  7
高2.5
100
AcDbText
  0
TEXT
  5
2117
330
36
100
AcDbEntity
  8
0
 62
     3
100
AcDbText
 10
-40.08221511744986
 20
-38.43739965998704
 30
0.0
 40
2.5
  1
固有エネルギー消費効率
 41
0.5
  7
高2.5
100
AcDbText
  0
TEXT
  5
2118
330
36
100
AcDbEntity
  8
0
 62
     3
100
AcDbText
 10
-40.08221511744986
 20
-34.43739965998704
 30
0.0
 40
2.5
  1
定格消費電力
 41
0.8
  7
高2.5
100
AcDbText
  0
TEXT
  5
2119
330
36
100
AcDbEntity
  8
0
 62
     3
100
AcDbText
 10
-40.08221511744986
 20
-30.43739965998704
 30
0.0
 40
2.5
  1
定格　電流
 41
0.8
  7
高2.5
100
AcDbText
  0
TEXT
  5
211A
330
36
100
AcDbEntity
  8
0
 62
     3
100
AcDbText
 10
-40.08221511744986
 20
-26.43739965998704
 30
0.0
 40
2.5
  1
入力電圧範囲
 41
0.8
  7
高2.5
100
AcDbText
  0
TEXT
  5
211B
330
36
100
AcDbEntity
  8
0
 62
     3
100
AcDbText
 10
-40.08221511744986
 20
-22.43739965998704
 30
0.0
 40
2.5
  1
周　波　数
 41
0.8
  7
高2.5
100
AcDbText
  0
TEXT
  5
211C
330
36
100
AcDbEntity
  8
0
 62
     3
100
AcDbText
 10
-40.08221511744986
 20
-18.43739965998704
 30
0.0
 40
2.5
  1
定格　電圧
 41
0.8
  7
高2.5
100
AcDbText
  0
TEXT
  5
211E
330
36
100
AcDbEntity
  8
0
 62
     3
100
AcDbText
 10
-40.08221511744966
 20
-2.437399659987041
 30
0.0
 40
2.5
  1
色　温　度
 41
0.8
  7
高2.5
100
AcDbText
  0
TEXT
  5
211F
330
36
100
AcDbEntity
  8
0
 62
     3
100
AcDbText
 10
-40.08221511744966
 20
1.562600340012958
 30
0.0
 40
2.5
  1
定格　光束
 41
0.8
  7
高2.5
100
AcDbText
  0
TEXT
  5
2120
330
36
100
AcDbEntity
  8
0
 62
     3
100
AcDbText
 10
-40.08221511744966
 20
5.562600340012958
 30
0.0
 40
2.5
  1
光　　　源
 41
0.8
  7
高2.5
100
AcDbText
  0
TEXT
  5
2122
330
36
100
AcDbEntity
  8
0
 62
     3
100
AcDbText
 10
-40.08221511744966
 20
-6.437399659987042
 30
0.0
 40
2.5
  1
平均演色評価数
 41
0.8
  7
高2.5
100
AcDbText
  0
TEXT
  5
2123
330
36
100
AcDbEntity
  8
0
 62
     3
100
AcDbText
 10
-40.08221511744986
 20
-42.43739965998702
 30
0.0
 40
2.5
  1
照度
 41
0.8
  7
高2.5
100
AcDbText
  0
LINE
  5
2124
330
36
100
AcDbEntity
  8
0
 62
     7
100
AcDbLine
 10
-41.17312420835875
 20
-3.164672387259768
 30
0.0
 11
15.7685390227902
 21
-3.164672387259768
 31
0.0
  0
LINE
  5
2125
330
36
100
AcDbEntity
  8
0
 62
     7
100
AcDbLine
 10
-41.17312420835875
 20
0.8353276127402311
 30
0.0
 11
15.7685390227902
 21
0.8353276127402311
 31
0.0
  0
LINE
  5
2126
330
36
100
AcDbEntity
  8
0
 62
     7
100
AcDbLine
 10
-41.17312420835875
 20
4.835327612740231
 30
0.0
 11
15.7685390227902
 21
4.835327612740231
 31
0.0
  0
LINE
  5
212A
330
36
100
AcDbEntity
  8
0
 62
     7
100
AcDbLine
 10
-41.17312420835879
 20
12.83532761274023
 30
0.0
 11
15.76853902279017
 21
12.83532761274023
 31
0.0
  0
LINE
  5
212B
330
36
100
AcDbEntity
  8
0
100
AcDbLine
 10
-33.61604023041833
 20
-39.16467238725978
 30
0.0
 11
-33.61604023041833
 21
-59.16467238725977
 31
0.0
  0
TEXT
  5
212C
330
36
100
AcDbEntity
  8
0
 62
     3
100
AcDbText
 10
-32.52513113950924
 20
-42.43739965998702
 30
0.0
 40
2.5
  1
1m
 41
0.8
  7
高2.5
100
AcDbText
  0
TEXT
  5
212D
330
36
100
AcDbEntity
  8
0
 62
     3
100
AcDbText
 10
-32.52513113950924
 20
-46.43739965998702
 30
0.0
 40
2.5
  1
2m
 41
0.8
  7
高2.5
100
AcDbText
  0
TEXT
  5
212E
330
36
100
AcDbEntity
  8
0
 62
     3
100
AcDbText
 10
-32.52513113950924
 20
-50.43739965998703
 30
0.0
 40
2.5
  1
3m
 41
0.8
  7
高2.5
100
AcDbText
  0
TEXT
  5
212F
330
36
100
AcDbEntity
  8
0
 62
     3
100
AcDbText
 10
-32.52513113950924
 20
-54.43739965998705
 30
0.0
 40
2.5
  1
4m
 41
0.8
  7
高2.5
100
AcDbText
  0
TEXT
  5
2130
330
36
100
AcDbEntity
  8
0
 62
     3
100
AcDbText
 10
-32.52513113950924
 20
-58.43739965998705
 30
0.0
 40
2.5
  1
5m
 41
0.8
  7
高2.5
100
AcDbText
  0
LINE
  5
2131
330
36
100
AcDbEntity
  8
0
 62
     3
100
AcDbLine
 10
-41.17312420835892
 20
-71.16467238725977
 30
0.0
 11
15.76853902279002
 21
-71.16467238725977
 31
0.0
  0
TEXT
  5
2134
330
36
100
AcDbEntity
  8
0
 62
     3
100
AcDbText
 10
-21.95269106453068
 20
5.562600340012958
 30
0.0
 40
2.5
  1
LED
 41
0.8
  7
高2.5
100
AcDbText
  0
TEXT
  5
2135
330
36
100
AcDbEntity
  8
0
 62
     3
100
AcDbText
 10
-21.95269106453068
 20
1.562600340012958
 30
0.0
 40
2.5
  1
2850Lm
 41
0.8
  7
高2.5
100
AcDbText
  0
TEXT
  5
2136
330
36
100
AcDbEntity
  8
0
 62
     3
100
AcDbText
 10
-21.95269106453068
 20
-2.437399659987041
 30
0.0
 40
2.5
  1
5000K
 41
0.8
  7
高2.5
100
AcDbText
  0
TEXT
  5
2137
330
36
100
AcDbEntity
  8
0
 62
     3
100
AcDbText
 10
-21.95269106453068
 20
-6.437399659987042
 30
0.0
 40
2.5
  1
Ra80
 41
0.8
  7
高2.5
100
AcDbText
  0
TEXT
  5
2138
330
36
100
AcDbEntity
  8
0
 62
     3
100
AcDbText
 10
-21.9526910645309
 20
-14.43739965998704
 30
0.0
 40
2.5
  1
H:150\U+00B0 V:205\U+00B0[1/10ビーム角]
 41
0.7
  7
高2.5
100
AcDbText
  0
TEXT
  5
2139
330
36
100
AcDbEntity
  8
0
 62
     3
100
AcDbText
 10
-21.9526910645309
 20
-18.43739965998704
 30
0.0
 40
2.5
  1
AC100V (200V)
 41
0.8
  7
高2.5
100
AcDbText
  0
TEXT
  5
213A
330
36
100
AcDbEntity
  8
0
 62
     3
100
AcDbText
 10
-21.9526910645309
 20
-22.43739965998704
 30
0.0
 40
2.5
  1
50/60Hz
 41
0.8
  7
高2.5
100
AcDbText
  0
TEXT
  5
213B
330
36
100
AcDbEntity
  8
0
 62
     3
100
AcDbText
 10
-21.9526910645309
 20
-26.43739965998704
 30
0.0
 40
2.5
  1
AC100～265V
 41
0.8
  7
高2.5
100
AcDbText
  0
TEXT
  5
213C
330
36
100
AcDbEntity
  8
0
 62
     3
100
AcDbText
 10
-21.9526910645309
 20
-30.43739965998704
 30
0.0
 40
2.5
  1
0.18A (0.09A)
 41
0.8
  7
高2.5
100
AcDbText
  0
TEXT
  5
213D
330
36
100
AcDbEntity
  8
0
 62
     3
100
AcDbText
 10
-21.9526910645309
 20
-34.43739965998704
 30
0.0
 40
2.5
  1
18.3W (18.1W)
 41
0.8
  7
高2.5
100
AcDbText
  0
TEXT
  5
213E
330
36
100
AcDbEntity
  8
0
 62
     3
100
AcDbText
 10
-21.9526910645309
 20
-38.43739965998704
 30
0.0
 40
2.5
  1
155.7Lm/W (157.4Lm/W)
 41
0.8
  7
高2.5
100
AcDbText
  0
TEXT
  5
213F
330
36
100
AcDbEntity
  8
0
 62
     3
100
AcDbText
 10
-21.9526910645309
 20
-42.43739965998702
 30
0.0
 40
2.5
  1
640Lx
 41
0.8
  7
高2.5
100
AcDbText
  0
TEXT
  5
2140
330
36
100
AcDbEntity
  8
0
 62
     3
100
AcDbText
 10
-21.9526910645309
 20
-46.43739965998702
 30
0.0
 40
2.5
  1
195Lx
 41
0.8
  7
高2.5
100
AcDbText
  0
TEXT
  5
2141
330
36
100
AcDbEntity
  8
0
 62
     3
100
AcDbText
 10
-21.9526910645309
 20
-50.43739965998703
 30
0.0
 40
2.5
  1
90Lx
 41
0.8
  7
高2.5
100
AcDbText
  0
TEXT
  5
2142
330
36
100
AcDbEntity
  8
0
 62
     3
100
AcDbText
 10
-21.9526910645309
 20
-54.43739965998705
 30
0.0
 40
2.5
  1
55Lx
 41
0.8
  7
高2.5
100
AcDbText
  0
TEXT
  5
2143
330
36
100
AcDbEntity
  8
0
 62
     3
100
AcDbText
 10
-21.9526910645309
 20
-58.43739965998705
 30
0.0
 40
2.5
  1
40Lx
 41
0.8
  7
高2.5
100
AcDbText
  0
TEXT
  5
2145
330
36
100
AcDbEntity
  8
0
 62
     3
100
AcDbText
 10
-21.95269106453087
 20
-62.43739965998705
 30
0.0
 40
2.5
  1
50000時間
 41
0.8
  7
高2.5
100
AcDbText
  0
TEXT
  5
2146
330
36
100
AcDbEntity
  8
0
 62
     3
100
AcDbText
 10
-21.95269106453087
 20
-66.43739965998702
 30
0.0
 40
2.5
  1
-20～40℃
 41
0.8
  7
高2.5
100
AcDbText
  0
LINE
  5
2147
330
36
100
AcDbEntity
  8
0
 62
     3
100
AcDbLine
 10
-41.17312420835879
 20
16.83532761274023
 30
0.0
 11
-41.17312420835892
 21
-71.16467238725977
 31
0.0
  0
LINE
  5
2148
330
36
100
AcDbEntity
  8
0
 62
     7
100
AcDbLine
 10
-23.04360015543996
 20
-71.16467238725977
 30
0.0
 11
-23.04360015543981
 21
16.83532761274023
 31
0.0
  0
LINE
  5
2149
330
36
100
AcDbEntity
  8
0
 62
     3
100
AcDbLine
 10
15.76853902279002
 20
-71.16467238725977
 30
0.0
 11
15.76853902279049
 21
16.83532761274023
 31
0.0
  0
TEXT
  5
214A
330
36
100
AcDbEntity
  8
0
 62
     3
100
AcDbText
 10
-27.23248603953668
 20
18.89348205295403
 30
0.0
 40
3.2
  1
主　　仕　　様
  7
高3.2
100
AcDbText
  0
LINE
  5
214B
330
36
100
AcDbEntity
  8
0
100
AcDbLine
 10
-28.03315103426808
 20
18.26384344652297
 30
0.0
 11
0.033918260050001
 21
18.26384344652297
 31
0.0
  0
TEXT
  5
214C
330
36
100
AcDbEntity
  8
0
 62
     7
100
AcDbText
 10
-44.23990767329691
 20
-82.90939817996655
 30
0.0
 40
2.0
  1
注４）照度は当社実測値の為、使用環境下により異なります。
  7
高2
100
AcDbText
  0
TEXT
  5
214D
330
36
100
AcDbEntity
  8
0
 62
     7
100
AcDbText
 10
-44.23990767329691
 20
-85.59121636178472
 30
0.0
 40
2.0
  1
注５）球寿命は光束が70%%%に低下するまでの時間です。
  7
高2
100
AcDbText
  0
TEXT
  5
214E
330
36
100
AcDbEntity
  8
0
 62
     7
100
AcDbText
 10
-44.23990767329691
 20
-88.2730345436029
 30
0.0
 40
2.0
  1
　　　表示は設計値であり、製品の寿命を保証するものではありません。
  7
高2
100
AcDbText
  0
TEXT
  5
214F
330
36
100
AcDbEntity
  8
0
 62
     7
100
AcDbText
 10
-44.23990767329691
 20
-80.22757999814833
 30
0.0
 40
2.0
  1
注３）()内数値は入力200Vでの値です。
  7
高2
100
AcDbText
  0
TEXT
  5
2150
330
36
100
AcDbEntity
  8
0
 62
     7
100
AcDbText
 10
-44.23990767329691
 20
-77.54576181633018
 30
0.0
 40
2.0
  1
注２）LEDの光色、明るさにはバラツキがあります。
  7
高2
100
AcDbText
  0
TEXT
  5
2151
330
36
100
AcDbEntity
  8
0
 62
     7
100
AcDbText
 10
-44.23990767329691
 20
-74.863943634512
 30
0.0
 40
2.0
  1
注１）当器具のLED素子交換はできません。
  7
高2
100
AcDbText
  0
TEXT
  5
2152
330
36
100
AcDbEntity
  8
0
 62
     7
100
AcDbText
 10
-44.23990767329691
 20
-90.95485272542109
 30
0.0
 40
2.0
  1
注６）安全にご使用いただくため、取扱説明書をご参照ください。
  7
高2
100
AcDbText
  0
TEXT
  5
2154
330
36
100
AcDbEntity
  8
0
 62
     3
100
AcDbText
 10
-40.08221511744969
 20
13.56260034001296
 30
0.0
 40
2.5
  1
型　　　式
 41
0.8
  7
高2.5
100
AcDbText
  0
LINE
  5
2155
330
36
100
AcDbEntity
  8
0
 62
     3
100
AcDbLine
 10
-41.17312420835879
 20
16.83532761274023
 30
0.0
 11
15.76853902279017
 21
16.83532761274023
 31
0.0
  0
TEXT
  5
2156
330
36
100
AcDbEntity
  8
0
 62
     3
100
AcDbText
 10
-21.95269106453071
 20
13.56260034001296
 30
0.0
 40
2.5
  1
LCL-4018W-HI
 41
0.8
  7
高2.5
100
AcDbText
  0
TEXT
  5
2157
330
36
100
AcDbEntity
  8
0
 62
     7
100
AcDbText
 10
-44.23990767329691
 20
-93.63667090723927
 30
0.0
 40
2.0
  1
注７）仕様変更は予告なく行う場合があります。予めご了承ください。
  7
高2
100
AcDbText
  0
TEXT
  5
2158
330
36
100
AcDbEntity
  8
0
 62
     3
100
AcDbText
 10
-40.08221511744966
 20
9.562600340012956
 30
0.0
 40
2.5
  1
口金サイズ
 41
0.8
  7
高2.5
100
AcDbText
  0
LINE
  5
2159
330
36
100
AcDbEntity
  8
0
 62
     7
100
AcDbLine
 10
-41.17312420835875
 20
8.835327612740231
 30
0.0
 11
15.7685390227902
 21
8.835327612740231
 31
0.0
  0
TEXT
  5
215A
330
36
100
AcDbEntity
  8
0
 62
     3
100
AcDbText
 10
-21.95269106453068
 20
9.562600340012956
 30
0.0
 40
2.5
  1
G13
 41
0.8
  7
高2.5
100
AcDbText
  0
TEXT
  5
2686
330
36
100
AcDbEntity
  8
0
  6
Continuous
100
AcDbText
 10
62.3077672175923
 20
37.06045809064517
 30
0.0
 40
3.2
  1
H
  7
高3.2
100
AcDbText
  0
TEXT
  5
2687
330
36
100
AcDbEntity
  8
0
  6
Continuous
100
AcDbText
 10
51.64700500605203
 20
47.71581631323761
 30
0.0
 40
3.2
  1
V
  7
高3.2
100
AcDbText
  0
TEXT
  5
2A98
330
36
100
AcDbEntity
  8
0
 62
     3
100
AcDbText
 10
-40.08221511744986
 20
-10.43739965998704
 30
0.0
 40
2.5
  1
照射　角度
 41
0.8
  7
高2.5
100
AcDbText
  0
TEXT
  5
2A99
330
36
100
AcDbEntity
  8
0
 62
     3
100
AcDbText
 10
-21.9526910645309
 20
-10.43739965998704
 30
0.0
 40
2.5
  1
H:100\U+00B0 V:125\U+00B0[1/2ビーム角]
 41
0.7
  7
高2.5
100
AcDbText
  0
TEXT
  5
2E19
330
36
100
AcDbEntity
  8
0
  6
Continuous
 62
     4
100
AcDbText
 10
3.074575201172411
 20
87.47602290223426
 30
0.0
 40
3.0
  1
アルミ
100
AcDbText
1001
ACAD
1000
MTEXTBEGIN
1070
    73
1070
     1
1070
    44
1040
1.0
1070
    74
1070
     0
1000
MTEXTEND
  0
TEXT
  5
2E1C
330
36
100
AcDbEntity
  8
0
  6
Continuous
 62
     4
100
AcDbText
 10
10.01252311154572
 20
54.08889083140707
 30
0.0
 40
3.0
  1
PC(乳白色)
100
AcDbText
1001
ACAD
1000
MTEXTBEGIN
1070
    73
1070
     1
1070
    44
1040
1.0
1070
    74
1070
     0
1000
MTEXTEND
  0
LINE
  5
2E1F
330
36
100
AcDbEntity
  8
0
  6
Continuous
100
AcDbLine
 10
-43.72756784919115
 20
44.81732579885988
 30
0.0
 11
-49.48497997696723
 21
44.81732579885989
 31
0.0
  0
LINE
  5
2E20
330
36
100
AcDbEntity
  8
0
  6
Continuous
100
AcDbLine
 10
-43.72756784919115
 20
31.81732579885988
 30
0.0
 11
-49.48497997696723
 21
31.81732579885988
 31
0.0
  0
LINE
  5
2E21
330
36
100
AcDbEntity
  8
0
  6
Continuous
100
AcDbLine
 10
-48.23497997696723
 20
29.31732579885988
 30
0.0
 11
-48.23497997696723
 21
26.81732579885988
 31
0.0
  0
LINE
  5
2E22
330
36
100
AcDbEntity
  8
0
  6
Continuous
100
AcDbLine
 10
-48.23497997696723
 20
47.31732579885989
 30
0.0
 11
-48.23497997696722
 21
56.0673257988599
 31
0.0
  0
LINE
  5
2E23
330
36
100
AcDbEntity
  8
0
  6
Continuous
100
AcDbLine
 10
-48.23497997696723
 20
31.81732579885988
 30
0.0
 11
-48.23497997696723
 21
44.81732579885989
 31
0.0
  0
LINE
  5
2E27
330
36
100
AcDbEntity
  8
0
  6
Continuous
100
AcDbLine
 10
-41.35918016248346
 20
80.1014458849861
 30
0.0
 11
-45.18582235712755
 21
80.1014458849861
 31
0.0
  0
LINE
  5
2E28
330
36
100
AcDbEntity
  8
0
  6
Continuous
100
AcDbLine
 10
-41.35918016248346
 20
65.3514458849861
 30
0.0
 11
-45.18582235712755
 21
65.3514458849861
 31
0.0
  0
LINE
  5
2E29
330
36
100
AcDbEntity
  8
0
  6
Continuous
100
AcDbLine
 10
-43.93582235712755
 20
62.8514458849861
 30
0.0
 11
-43.93582235712755
 21
60.3514458849861
 31
0.0
  0
LINE
  5
2E2A
330
36
100
AcDbEntity
  8
0
  6
Continuous
100
AcDbLine
 10
-43.93582235712755
 20
82.6014458849861
 30
0.0
 11
-43.93582235712755
 21
95.35144588498608
 31
0.0
  0
LINE
  5
2E2B
330
36
100
AcDbEntity
  8
0
  6
Continuous
100
AcDbLine
 10
-43.93582235712755
 20
65.3514458849861
 30
0.0
 11
-43.93582235712755
 21
80.1014458849861
 31
0.0
  0
LINE
  5
2E2F
330
36
100
AcDbEntity
  8
0
  6
Continuous
100
AcDbLine
 10
38.8664283769142
 20
73.35144588498609
 30
0.0
 11
38.8664283769142
 21
104.3531517358026
 31
0.0
  0
LINE
  5
2E30
330
36
100
AcDbEntity
  8
0
  6
Continuous
100
AcDbLine
 10
-82.68161670140376
 20
73.35144588498609
 30
0.0
 11
-82.68161670140376
 21
104.3531517358026
 31
0.0
  0
LINE
  5
2E31
330
36
100
AcDbEntity
  8
0
  6
Continuous
100
AcDbLine
 10
36.3664283769142
 20
103.1031517358026
 30
0.0
 11
-80.18161670140376
 21
103.1031517358026
 31
0.0
  0
LINE
  5
2E35
330
36
100
AcDbEntity
  8
0
  6
Continuous
100
AcDbLine
 10
35.1164283769142
 20
79.47644588498609
 30
0.0
 11
35.1164283769142
 21
98.31633973020712
 31
0.0
  0
LINE
  5
2E36
330
36
100
AcDbEntity
  8
0
  6
Continuous
100
AcDbLine
 10
-78.93161670140376
 20
79.47644588498609
 30
0.0
 11
-78.93161670140376
 21
98.31633973020712
 31
0.0
  0
LINE
  5
2E37
330
36
100
AcDbEntity
  8
0
  6
Continuous
100
AcDbLine
 10
32.6164283769142
 20
97.06633973020712
 30
0.0
 11
-76.43161670140376
 21
97.06633973020712
 31
0.0
  0
LINE
  5
2E3B
330
36
100
AcDbEntity
  8
0
  6
Continuous
100
AcDbLine
 10
68.43765139121659
 20
79.60144588498611
 30
0.0
 11
54.23617730396427
 21
79.60144588498611
 31
0.0
  0
LINE
  5
2E3C
330
36
100
AcDbEntity
  8
0
  6
Continuous
100
AcDbLine
 10
68.43765139121659
 20
65.85144588498611
 30
0.0
 11
54.23617730396427
 21
65.85144588498611
 31
0.0
  0
LINE
  5
2E3D
330
36
100
AcDbEntity
  8
0
  6
Continuous
100
AcDbLine
 10
55.48617730396427
 20
77.10144588498611
 30
0.0
 11
55.48617730396427
 21
68.35144588498611
 31
0.0
  0
LINE
  5
2E41
330
36
100
AcDbEntity
  8
0
  6
Continuous
100
AcDbLine
 10
61.43765139121659
 20
71.60144588498609
 30
0.0
 11
61.43765139121659
 21
55.55619906074138
 31
0.0
  0
LINE
  5
2E42
330
36
100
AcDbEntity
  8
0
  6
Continuous
100
AcDbLine
 10
75.93765139121659
 20
71.60144588498609
 30
0.0
 11
75.93765139121659
 21
55.55619906074138
 31
0.0
  0
LINE
  5
2E43
330
36
100
AcDbEntity
  8
0
  6
Continuous
100
AcDbLine
 10
63.93765139121659
 20
56.80619906074138
 30
0.0
 11
73.43765139121659
 21
56.80619906074138
 31
0.0
  0
LINE
  5
2E47
330
36
100
AcDbEntity
  8
0
  6
Continuous
100
AcDbLine
 10
68.4376513912167
 20
80.85144588498605
 30
0.0
 11
48.21436893811323
 21
80.85144588498605
 31
0.0
  0
LINE
  5
2E48
330
36
100
AcDbEntity
  8
0
  6
Continuous
100
AcDbLine
 10
68.43765139121659
 20
64.60144588498611
 30
0.0
 11
48.21436893811323
 21
64.60144588498611
 31
0.0
  0
LINE
  5
2E49
330
36
100
AcDbEntity
  8
0
  6
Continuous
100
AcDbLine
 10
49.46436893811323
 20
78.35144588498605
 30
0.0
 11
49.46436893811323
 21
67.10144588498611
 31
0.0
  0
LINE
  5
2E4D
330
36
100
AcDbEntity
  8
0
 62
     3
100
AcDbLine
 10
-44.17703238000011
 20
138.95788257
 30
0.0
 11
-44.19565991000013
 21
139.07715034
 31
0.0
  0
LINE
  5
2E4E
330
36
100
AcDbEntity
  8
0
 62
     3
100
AcDbLine
 10
-44.19565991000013
 20
139.07715034
 30
0.0
 11
-44.21803109000006
 21
139.19135512
 31
0.0
  0
LINE
  5
2E4F
330
36
100
AcDbEntity
  8
0
 62
     3
100
AcDbLine
 10
-44.21803109000006
 20
139.19135512
 30
0.0
 11
-44.2439730200001
 21
139.2996141799999
 31
0.0
  0
LINE
  5
2E50
330
36
100
AcDbEntity
  8
0
 62
     3
100
AcDbLine
 10
-44.2439730200001
 20
139.2996141799999
 30
0.0
 11
-44.2732851600001
 21
139.4010907299999
 31
0.0
  0
LINE
  5
2E51
330
36
100
AcDbEntity
  8
0
 62
     3
100
AcDbLine
 10
-44.2732851600001
 20
139.4010907299999
 30
0.0
 11
-44.30574096999999
 21
139.49500041
 31
0.0
  0
LINE
  5
2E52
330
36
100
AcDbEntity
  8
0
 62
     3
100
AcDbLine
 10
-44.30574096999999
 20
139.49500041
 30
0.0
 11
-44.34108956
 21
139.58061735
 31
0.0
  0
LINE
  5
2E53
330
36
100
AcDbEntity
  8
0
 62
     3
100
AcDbLine
 10
-44.34108956
 20
139.58061735
 30
0.0
 11
-44.3790577100001
 21
139.6572797599999
 31
0.0
  0
LINE
  5
2E54
330
36
100
AcDbEntity
  8
0
 62
     3
100
AcDbLine
 10
-44.3790577100001
 20
139.6572797599999
 30
0.0
 11
-44.41935196000009
 21
139.7243951
 31
0.0
  0
LINE
  5
2E55
330
36
100
AcDbEntity
  8
0
 62
     3
100
AcDbLine
 10
-44.41935196000009
 20
139.7243951
 30
0.0
 11
-44.46166083000025
 21
139.7814445899999
 31
0.0
  0
LINE
  5
2E56
330
36
100
AcDbEntity
  8
0
 62
     3
100
AcDbLine
 10
-44.46166083000025
 20
139.7814445899999
 30
0.0
 11
-44.50565732000018
 21
139.82798726
 31
0.0
  0
LINE
  5
2E57
330
36
100
AcDbEntity
  8
0
 62
     3
100
AcDbLine
 10
-44.50565732000018
 20
139.82798726
 30
0.0
 11
-44.55100134000008
 21
139.8636633799999
 31
0.0
  0
LINE
  5
2E58
330
36
100
AcDbEntity
  8
0
 62
     3
100
AcDbLine
 10
-44.55100134000008
 20
139.8636633799999
 30
0.0
 11
-44.59734241000023
 21
139.88819717
 31
0.0
  0
LINE
  5
2E59
330
36
100
AcDbEntity
  8
0
 62
     3
100
AcDbLine
 10
-44.59734241000023
 20
139.88819717
 30
0.0
 11
-44.64432235000002
 21
139.90139902
 31
0.0
  0
LINE
  5
2E5A
330
36
100
AcDbEntity
  8
0
 62
     3
100
AcDbLine
 10
-44.64432235000002
 20
139.90139902
 30
0.0
 11
-44.69157801000005
 21
139.90316686
 31
0.0
  0
LINE
  5
2E5B
330
36
100
AcDbEntity
  8
0
 62
     3
100
AcDbLine
 10
-44.69157801000005
 20
139.90316686
 30
0.0
 11
-44.7387441400001
 21
139.8934870499999
 31
0.0
  0
LINE
  5
2E5C
330
36
100
AcDbEntity
  8
0
 62
     3
100
AcDbLine
 10
-44.7387441400001
 20
139.8934870499999
 30
0.0
 11
-44.78545617000007
 21
139.8724343899999
 31
0.0
  0
LINE
  5
2E5D
330
36
100
AcDbEntity
  8
0
 62
     3
100
AcDbLine
 10
-44.78545617000007
 20
139.8724343899999
 30
0.0
 11
-44.83135303000017
 21
139.8401716199999
 31
0.0
  0
LINE
  5
2E5E
330
36
100
AcDbEntity
  8
0
 62
     3
100
AcDbLine
 10
-44.83135303000017
 20
139.8401716199999
 30
0.0
 11
-44.87607997000011
 21
139.79694811
 31
0.0
  0
LINE
  5
2E5F
330
36
100
AcDbEntity
  8
0
 62
     3
100
AcDbLine
 10
-44.87607997000011
 20
139.79694811
 30
0.0
 11
-44.91929128000015
 21
139.74309795
 31
0.0
  0
LINE
  5
2E60
330
36
100
AcDbEntity
  8
0
 62
     3
100
AcDbLine
 10
-44.91929128000015
 20
139.74309795
 30
0.0
 11
-44.96065294000003
 21
139.6790373799999
 31
0.0
  0
LINE
  5
2E61
330
36
100
AcDbEntity
  8
0
 62
     3
100
AcDbLine
 10
-44.96065294000003
 20
139.6790373799999
 30
0.0
 11
-44.99984526000026
 21
139.60526156
 31
0.0
  0
LINE
  5
2E62
330
36
100
AcDbEntity
  8
0
 62
     3
100
AcDbLine
 10
-44.99984526000026
 20
139.60526156
 30
0.0
 11
-45.0365653000001
 21
139.52234073
 31
0.0
  0
LINE
  5
2E63
330
36
100
AcDbEntity
  8
0
 62
     3
100
AcDbLine
 10
-45.0365653000001
 20
139.52234073
 30
0.0
 11
-45.07052923000014
 21
139.43091582
 31
0.0
  0
LINE
  5
2E64
330
36
100
AcDbEntity
  8
0
 62
     3
100
AcDbLine
 10
-45.07052923000014
 20
139.43091582
 30
0.0
 11
-45.10147453000013
 21
139.33169352
 31
0.0
  0
LINE
  5
2E65
330
36
100
AcDbEntity
  8
0
 62
     3
100
AcDbLine
 10
-45.10147453000013
 20
139.33169352
 30
0.0
 11
-45.12916201000006
 21
139.2254407499999
 31
0.0
  0
LINE
  5
2E66
330
36
100
AcDbEntity
  8
0
 62
     3
100
AcDbLine
 10
-45.12916201000006
 20
139.2254407499999
 30
0.0
 11
-45.15337766000015
 21
139.1129787899999
 31
0.0
  0
LINE
  5
2E67
330
36
100
AcDbEntity
  8
0
 62
     3
100
AcDbLine
 10
-45.15337766000015
 20
139.1129787899999
 30
0.0
 11
-45.17393430000015
 21
138.99517691
 31
0.0
  0
LINE
  5
2E68
330
36
100
AcDbEntity
  8
0
 62
     3
100
AcDbLine
 10
-45.17393430000015
 20
138.99517691
 30
0.0
 11
-45.19067304000009
 21
138.87294567
 31
0.0
  0
LINE
  5
2E69
330
36
100
AcDbEntity
  8
0
 62
     3
100
AcDbLine
 10
-45.19067304000009
 20
138.87294567
 30
0.0
 11
-45.2034645000001
 21
138.7472298499999
 31
0.0
  0
LINE
  5
2E6A
330
36
100
AcDbEntity
  8
0
 62
     3
100
AcDbLine
 10
-45.2034645000001
 20
138.7472298499999
 30
0.0
 11
-45.2122098100001
 21
138.61900117
 31
0.0
  0
LINE
  5
2E6B
330
36
100
AcDbEntity
  8
0
 62
     3
100
AcDbLine
 10
-45.2122098100001
 20
138.61900117
 30
0.0
 11
-45.2168413700001
 21
138.48925076
 31
0.0
  0
LINE
  5
2E6C
330
36
100
AcDbEntity
  8
0
 62
     3
100
AcDbLine
 10
-45.2168413700001
 20
138.48925076
 30
0.0
 11
-45.21732338000015
 21
138.3589815299999
 31
0.0
  0
LINE
  5
2E6D
330
36
100
AcDbEntity
  8
0
 62
     3
100
AcDbLine
 10
-45.21732338000015
 20
138.3589815299999
 30
0.0
 11
-45.21365212
 21
138.2292004099999
 31
0.0
  0
LINE
  5
2E6E
330
36
100
AcDbEntity
  8
0
 62
     3
100
AcDbLine
 10
-45.21365212
 20
138.2292004099999
 30
0.0
 11
-45.20585596
 21
138.10091052
 31
0.0
  0
LINE
  5
2E6F
330
36
100
AcDbEntity
  8
0
 62
     3
100
AcDbLine
 10
-45.20585596
 20
138.10091052
 30
0.0
 11
-45.19399516000021
 21
137.97510348
 31
0.0
  0
LINE
  5
2E70
330
36
100
AcDbEntity
  8
0
 62
     3
100
AcDbLine
 10
-45.19399516000021
 20
137.97510348
 30
0.0
 11
-45.17816140000014
 21
137.85275171
 31
0.0
  0
LINE
  5
2E71
330
36
100
AcDbEntity
  8
0
 62
     3
100
AcDbLine
 10
-45.17816140000014
 20
137.85275171
 30
0.0
 11
-45.15847708000001
 21
137.73480094
 31
0.0
  0
LINE
  5
2E72
330
36
100
AcDbEntity
  8
0
 62
     3
100
AcDbLine
 10
-45.15847708000001
 20
137.73480094
 30
0.0
 11
-45.13509432000001
 21
137.62216287
 31
0.0
  0
LINE
  5
2E73
330
36
100
AcDbEntity
  8
0
 62
     3
100
AcDbLine
 10
-45.13509432000001
 20
137.62216287
 30
0.0
 11
-45.10819389000015
 21
137.51570811
 31
0.0
  0
LINE
  5
2E74
330
36
100
AcDbEntity
  8
0
 62
     3
100
AcDbLine
 10
-45.10819389000015
 20
137.51570811
 30
0.0
 11
-45.0779836900001
 21
137.41625952
 31
0.0
  0
LINE
  5
2E75
330
36
100
AcDbEntity
  8
0
 62
     3
100
AcDbLine
 10
-45.0779836900001
 20
137.41625952
 30
0.0
 11
-45.04469723999998
 21
137.32458579
 31
0.0
  0
LINE
  5
2E76
330
36
100
AcDbEntity
  8
0
 62
     3
100
AcDbLine
 10
-45.04469723999998
 20
137.32458579
 30
0.0
 11
-45.00859184000001
 21
137.24139549
 31
0.0
  0
LINE
  5
2E77
330
36
100
AcDbEntity
  8
0
 62
     3
100
AcDbLine
 10
-45.00859184000001
 20
137.24139549
 30
0.0
 11
-44.96994654000014
 21
137.1673316599999
 31
0.0
  0
LINE
  5
2E78
330
36
100
AcDbEntity
  8
0
 62
     3
100
AcDbLine
 10
-44.96994654000014
 20
137.1673316599999
 30
0.0
 11
-44.92906006000021
 21
137.10296677
 31
0.0
  0
LINE
  5
2E79
330
36
100
AcDbEntity
  8
0
 62
     3
100
AcDbLine
 10
-44.92906006000021
 20
137.10296677
 30
0.0
 11
-44.88624844000014
 21
137.04879832
 31
0.0
  0
LINE
  5
2E7A
330
36
100
AcDbEntity
  8
0
 62
     3
100
AcDbLine
 10
-44.88624844000014
 20
137.04879832
 30
0.0
 11
-44.84184258000005
 21
137.005245
 31
0.0
  0
LINE
  5
2E7B
330
36
100
AcDbEntity
  8
0
 62
     3
100
AcDbLine
 10
-44.84184258000005
 20
137.005245
 30
0.0
 11
-44.79618573000015
 21
136.9726434699999
 31
0.0
  0
LINE
  5
2E7C
330
36
100
AcDbEntity
  8
0
 62
     3
100
AcDbLine
 10
-44.79618573000015
 20
136.9726434699999
 30
0.0
 11
-44.74963077000007
 21
136.9512457099999
 31
0.0
  0
LINE
  5
2E7D
330
36
100
AcDbEntity
  8
0
 62
     3
100
AcDbLine
 10
-44.74963077000007
 20
136.9512457099999
 30
0.0
 11
-44.7025375600001
 21
136.94121713
 31
0.0
  0
LINE
  5
2E7E
330
36
100
AcDbEntity
  8
0
 62
     3
100
AcDbLine
 10
-44.7025375600001
 20
136.94121713
 30
0.0
 11
-44.65527011000017
 21
136.9426352299999
 31
0.0
  0
LINE
  5
2E7F
330
36
100
AcDbEntity
  8
0
 62
     3
100
AcDbLine
 10
-44.65527011000017
 20
136.9426352299999
 30
0.0
 11
-44.60819377000006
 21
136.95548905
 31
0.0
  0
LINE
  5
2E80
330
36
100
AcDbEntity
  8
0
 62
     3
100
AcDbLine
 10
-44.60819377000006
 20
136.95548905
 30
0.0
 11
-44.56167241000001
 21
136.97967925
 31
0.0
  0
LINE
  5
2E81
330
36
100
AcDbEntity
  8
0
 62
     3
100
AcDbLine
 10
-44.56167241000001
 20
136.97967925
 30
0.0
 11
-44.51606562000007
 21
137.01501883
 31
0.0
  0
LINE
  5
2E82
330
36
100
AcDbEntity
  8
0
 62
     3
100
AcDbLine
 10
-44.51606562000007
 20
137.01501883
 30
0.0
 11
-44.47172592000015
 21
137.0612346499999
 31
0.0
  0
LINE
  5
2E83
330
36
100
AcDbEntity
  8
0
 62
     3
100
AcDbLine
 10
-44.47172592000015
 20
137.0612346499999
 30
0.0
 11
-44.42899603000022
 21
137.1179694899999
 31
0.0
  0
LINE
  5
2E84
330
36
100
AcDbEntity
  8
0
 62
     3
100
AcDbLine
 10
-44.42899603000022
 20
137.1179694899999
 30
0.0
 11
-44.38820623000014
 21
137.1847848
 31
0.0
  0
LINE
  5
2E85
330
36
100
AcDbEntity
  8
0
 62
     3
100
AcDbLine
 10
-44.38820623000014
 20
137.1847848
 30
0.0
 11
-44.3496718000001
 21
137.26116415
 31
0.0
  0
LINE
  5
2E86
330
36
100
AcDbEntity
  8
0
 62
     3
100
AcDbLine
 10
-44.3496718000001
 20
137.26116415
 30
0.0
 11
-44.31369059999997
 21
137.3465171599999
 31
0.0
  0
LINE
  5
2E87
330
36
100
AcDbEntity
  8
0
 62
     3
100
AcDbLine
 10
-44.31369059999997
 20
137.3465171599999
 30
0.0
 11
-44.2805407400001
 21
137.44018409
 31
0.0
  0
LINE
  5
2E88
330
36
100
AcDbEntity
  8
0
 62
     3
100
AcDbLine
 10
-44.2805407400001
 20
137.44018409
 30
0.0
 11
-44.25047846000007
 21
137.54144095
 31
0.0
  0
LINE
  5
2E89
330
36
100
AcDbEntity
  8
0
 62
     3
100
AcDbLine
 10
-44.25047846000007
 20
137.54144095
 30
0.0
 11
-44.2237361100001
 21
137.64950507
 31
0.0
  0
LINE
  5
2E8A
330
36
100
AcDbEntity
  8
0
 62
     3
100
AcDbLine
 10
-44.2237361100001
 20
137.64950507
 30
0.0
 11
-44.20052041000007
 21
137.7635411799999
 31
0.0
  0
LINE
  5
2E8B
330
36
100
AcDbEntity
  8
0
 62
     3
100
AcDbLine
 10
-44.20052041000007
 20
137.7635411799999
 30
0.0
 11
-44.18101079999996
 21
137.8826678299999
 31
0.0
  0
LINE
  5
2E8C
330
36
100
AcDbEntity
  8
0
  6
Continuous
100
AcDbLine
 10
53.00312384200609
 20
33.4086754886373
 30
0.0
 11
53.00312384200609
 21
38.31732579885989
 31
0.0
1001
ACAD
1000
DSTYLE
1002
{
1070
   147
1040
0.625
1070
    77
1070
     0
1002
}
  0
LINE
  5
2E8D
330
36
100
AcDbEntity
  8
0
  6
ByBlock
 62
     0
370
    -2
100
AcDbLine
 10
53.67299634200609
 20
33.4086754886373
 30
0.0
 11
53.00312384200609
 21
30.9086754886373
 31
0.0
  0
LINE
  5
2E8E
330
36
100
AcDbEntity
  8
0
  6
ByBlock
 62
     0
370
    -2
100
AcDbLine
 10
53.00312384200609
 20
30.9086754886373
 30
0.0
 11
52.33325134200609
 21
33.4086754886373
 31
0.0
  0
LINE
  5
2E8F
330
36
100
AcDbEntity
  8
0
  6
ByBlock
 62
     0
370
    -2
100
AcDbLine
 10
53.00312384200609
 20
30.9086754886373
 30
0.0
 11
53.00312384200609
 21
33.4086754886373
 31
0.0
  0
LINE
  5
2E90
330
36
100
AcDbEntity
  8
0
  6
Continuous
100
AcDbLine
 10
48.09447353178348
 20
38.31732579885989
 30
0.0
 11
53.00312384200609
 21
38.31732579885989
 31
0.0
1001
ACAD
1000
DSTYLE
1002
{
1070
   147
1040
0.625
1070
    77
1070
     0
1002
}
  0
LINE
  5
2E91
330
36
100
AcDbEntity
  8
0
  6
ByBlock
 62
     0
370
    -2
100
AcDbLine
 10
48.09447353178348
 20
37.64745329885989
 30
0.0
 11
45.59447353178348
 21
38.31732579885989
 31
0.0
  0
LINE
  5
2E92
330
36
100
AcDbEntity
  8
0
  6
ByBlock
 62
     0
370
    -2
100
AcDbLine
 10
45.59447353178348
 20
38.31732579885989
 30
0.0
 11
48.09447353178348
 21
38.98719829885989
 31
0.0
  0
LINE
  5
2E93
330
36
100
AcDbEntity
  8
0
  6
ByBlock
 62
     0
370
    -2
100
AcDbLine
 10
45.59447353178348
 20
38.31732579885989
 30
0.0
 11
48.09447353178348
 21
38.31732579885989
 31
0.0
  0
LINE
  5
2E94
330
36
100
AcDbEntity
  8
0
  6
Continuous
100
AcDbLine
 10
53.00312384200609
 20
43.2259761090824
 30
0.0
 11
53.00312384200609
 21
38.31732579885989
 31
0.0
1001
ACAD
1000
DSTYLE
1002
{
1070
   147
1040
0.625
1070
    77
1070
     0
1002
}
  0
LINE
  5
2E95
330
36
100
AcDbEntity
  8
0
  6
ByBlock
 62
     0
370
    -2
100
AcDbLine
 10
52.33325134200609
 20
43.2259761090824
 30
0.0
 11
53.00312384200609
 21
45.7259761090824
 31
0.0
  0
LINE
  5
2E96
330
36
100
AcDbEntity
  8
0
  6
ByBlock
 62
     0
370
    -2
100
AcDbLine
 10
53.00312384200609
 20
45.7259761090824
 30
0.0
 11
53.67299634200609
 21
43.2259761090824
 31
0.0
  0
LINE
  5
2E97
330
36
100
AcDbEntity
  8
0
  6
ByBlock
 62
     0
370
    -2
100
AcDbLine
 10
53.00312384200609
 20
45.7259761090824
 30
0.0
 11
53.00312384200609
 21
43.2259761090824
 31
0.0
  0
LINE
  5
2E98
330
36
100
AcDbEntity
  8
0
  6
Continuous
100
AcDbLine
 10
57.91177415222865
 20
38.31732579885989
 30
0.0
 11
53.00312384200609
 21
38.31732579885989
 31
0.0
1001
ACAD
1000
DSTYLE
1002
{
1070
   147
1040
0.625
1070
    77
1070
     0
1002
}
  0
LINE
  5
2E99
330
36
100
AcDbEntity
  8
0
  6
ByBlock
 62
     0
370
    -2
100
AcDbLine
 10
57.91177415222865
 20
38.98719829885989
 30
0.0
 11
60.41177415222865
 21
38.31732579885989
 31
0.0
  0
LINE
  5
2E9A
330
36
100
AcDbEntity
  8
0
  6
ByBlock
 62
     0
370
    -2
100
AcDbLine
 10
60.41177415222865
 20
38.31732579885989
 30
0.0
 11
57.91177415222865
 21
37.6474532988599
 31
0.0
  0
LINE
  5
2E9B
330
36
100
AcDbEntity
  8
0
  6
ByBlock
 62
     0
370
    -2
100
AcDbLine
 10
60.41177415222865
 20
38.31732579885989
 30
0.0
 11
57.91177415222865
 21
38.31732579885989
 31
0.0
  0
LINE
  5
2E9C
330
36
100
AcDbEntity
  8
0
  6
Continuous
100
AcDbLine
 10
-3.050168431304626
 20
82.37731885000966
 30
0.0
 11
-0.050424798827589
 21
88.97602290223426
 31
0.0
1001
ACAD
1000
DSTYLE
1002
{
1070
   147
1040
0.625
1070
    77
1070
     0
1002
}
  0
LINE
  5
2E9D
330
36
100
AcDbEntity
  8
0
  6
Continuous
100
AcDbLine
 10
-0.050424798827589
 20
88.97602290223426
 30
0.0
 11
2.449575201172411
 21
88.97602290223426
 31
0.0
1001
ACAD
1000
DSTYLE
1002
{
1070
   147
1040
0.625
1070
    77
1070
     0
1002
}
  0
LINE
  5
2E9E
330
36
100
AcDbEntity
  8
0
  6
ByBlock
 62
     0
370
    -2
100
AcDbLine
 10
-2.440350546199527
 20
82.10009815586472
 30
0.0
 11
-4.084770889775922
 21
80.1014458849861
 31
0.0
  0
LINE
  5
2E9F
330
36
100
AcDbEntity
  8
0
  6
ByBlock
 62
     0
370
    -2
100
AcDbLine
 10
-4.084770889775922
 20
80.1014458849861
 30
0.0
 11
-3.659986316409725
 21
82.65453954415459
 31
0.0
  0
LINE
  5
2EA0
330
36
100
AcDbEntity
  8
0
  6
ByBlock
 62
     0
370
    -2
100
AcDbLine
 10
-4.084770889775922
 20
80.1014458849861
 30
0.0
 11
-3.050168431304626
 21
82.37731885000966
 31
0.0
  0
LINE
  5
2EA1
330
36
100
AcDbEntity
  8
0
  6
Continuous
100
AcDbLine
 10
3.864408695502306
 20
63.03507368172057
 30
0.0
 11
6.887523111545721
 21
55.58889083140707
 31
0.0
1001
ACAD
1000
DSTYLE
1002
{
1070
   147
1040
0.625
1070
    77
1070
     0
1002
}
  0
LINE
  5
2EA2
330
36
100
AcDbEntity
  8
0
  6
Continuous
100
AcDbLine
 10
6.887523111545721
 20
55.58889083140707
 30
0.0
 11
9.387523111545721
 21
55.58889083140707
 31
0.0
1001
ACAD
1000
DSTYLE
1002
{
1070
   147
1040
0.625
1070
    77
1070
     0
1002
}
  0
LINE
  5
2EA3
330
36
100
AcDbEntity
  8
0
  6
ByBlock
 62
     0
370
    -2
100
AcDbLine
 10
3.243739080009507
 20
62.7830848036718
 30
0.0
 11
2.923972724296001
 21
65.3514458849861
 31
0.0
  0
LINE
  5
2EA4
330
36
100
AcDbEntity
  8
0
  6
ByBlock
 62
     0
370
    -2
100
AcDbLine
 10
2.923972724296001
 20
65.3514458849861
 30
0.0
 11
4.485078310995104
 21
63.28706255976932
 31
0.0
  0
LINE
  5
2EA5
330
36
100
AcDbEntity
  8
0
  6
ByBlock
 62
     0
370
    -2
100
AcDbLine
 10
2.923972724296001
 20
65.3514458849861
 30
0.0
 11
3.864408695502305
 21
63.03507368172056
 31
0.0
  0
TEXT
  5
2EA6
330
36
100
AcDbEntity
  8
0
  6
Continuous
 62
     4
100
AcDbText
 10
-48.85997997696723
 20
50.44232579885989
 30
0.0
 40
3.0
  1
26
 50
90.0
100
AcDbText
  0
LINE
  5
2EA7
330
36
100
AcDbEntity
  8
0
  6
ByBlock
 62
     0
370
    -2
100
AcDbLine
 10
-47.56510747696721
 20
47.31732579885989
 30
0.0
 11
-48.23497997696723
 21
44.81732579885989
 31
0.0
  0
LINE
  5
2EA8
330
36
100
AcDbEntity
  8
0
  6
ByBlock
 62
     0
370
    -2
100
AcDbLine
 10
-48.23497997696723
 20
44.81732579885989
 30
0.0
 11
-48.90485247696722
 21
47.31732579885989
 31
0.0
  0
LINE
  5
2EA9
330
36
100
AcDbEntity
  8
0
  6
ByBlock
 62
     0
370
    -2
100
AcDbLine
 10
-48.23497997696723
 20
44.81732579885989
 30
0.0
 11
-48.23497997696723
 21
47.31732579885989
 31
0.0
  0
LINE
  5
2EAA
330
36
100
AcDbEntity
  8
0
  6
ByBlock
 62
     0
370
    -2
100
AcDbLine
 10
-48.90485247696722
 20
29.31732579885988
 30
0.0
 11
-48.23497997696723
 21
31.81732579885988
 31
0.0
  0
LINE
  5
2EAB
330
36
100
AcDbEntity
  8
0
  6
ByBlock
 62
     0
370
    -2
100
AcDbLine
 10
-48.23497997696723
 20
31.81732579885988
 30
0.0
 11
-47.56510747696722
 21
29.31732579885988
 31
0.0
  0
LINE
  5
2EAC
330
36
100
AcDbEntity
  8
0
  6
ByBlock
 62
     0
370
    -2
100
AcDbLine
 10
-48.23497997696723
 20
31.81732579885988
 30
0.0
 11
-48.23497997696723
 21
29.31732579885988
 31
0.0
  0
TEXT
  5
2EAD
330
36
100
AcDbEntity
  8
0
  6
Continuous
 62
     4
100
AcDbText
 10
-44.56082235712756
 20
85.72644588498608
 30
0.0
 40
3.0
  1
29.5
 50
90.0
100
AcDbText
  0
LINE
  5
2EAE
330
36
100
AcDbEntity
  8
0
  6
ByBlock
 62
     0
370
    -2
100
AcDbLine
 10
-43.26594985712755
 20
82.6014458849861
 30
0.0
 11
-43.93582235712755
 21
80.1014458849861
 31
0.0
  0
LINE
  5
2EAF
330
36
100
AcDbEntity
  8
0
  6
ByBlock
 62
     0
370
    -2
100
AcDbLine
 10
-43.93582235712755
 20
80.1014458849861
 30
0.0
 11
-44.60569485712754
 21
82.6014458849861
 31
0.0
  0
LINE
  5
2EB0
330
36
100
AcDbEntity
  8
0
  6
ByBlock
 62
     0
370
    -2
100
AcDbLine
 10
-43.93582235712755
 20
80.1014458849861
 30
0.0
 11
-43.93582235712755
 21
82.6014458849861
 31
0.0
  0
LINE
  5
2EB1
330
36
100
AcDbEntity
  8
0
  6
ByBlock
 62
     0
370
    -2
100
AcDbLine
 10
-44.60569485712755
 20
62.8514458849861
 30
0.0
 11
-43.93582235712755
 21
65.3514458849861
 31
0.0
  0
LINE
  5
2EB2
330
36
100
AcDbEntity
  8
0
  6
ByBlock
 62
     0
370
    -2
100
AcDbLine
 10
-43.93582235712755
 20
65.3514458849861
 30
0.0
 11
-43.26594985712755
 21
62.8514458849861
 31
0.0
  0
LINE
  5
2EB3
330
36
100
AcDbEntity
  8
0
  6
ByBlock
 62
     0
370
    -2
100
AcDbLine
 10
-43.93582235712755
 20
65.3514458849861
 30
0.0
 11
-43.93582235712755
 21
62.8514458849861
 31
0.0
  0
TEXT
  5
2EB4
330
36
100
AcDbEntity
  8
0
  6
Continuous
 62
     4
100
AcDbText
 10
-26.40759416224478
 20
103.7281517358026
 30
0.0
 40
3.0
  1
1213
100
AcDbText
  0
LINE
  5
2EB5
330
36
100
AcDbEntity
  8
0
  6
ByBlock
 62
     0
370
    -2
100
AcDbLine
 10
-80.18161670140376
 20
102.4332792358026
 30
0.0
 11
-82.68161670140376
 21
103.1031517358026
 31
0.0
  0
LINE
  5
2EB6
330
36
100
AcDbEntity
  8
0
  6
ByBlock
 62
     0
370
    -2
100
AcDbLine
 10
-82.68161670140376
 20
103.1031517358026
 30
0.0
 11
-80.18161670140376
 21
103.7730242358026
 31
0.0
  0
LINE
  5
2EB7
330
36
100
AcDbEntity
  8
0
  6
ByBlock
 62
     0
370
    -2
100
AcDbLine
 10
-82.68161670140376
 20
103.1031517358026
 30
0.0
 11
-80.18161670140376
 21
103.1031517358026
 31
0.0
  0
LINE
  5
2EB8
330
36
100
AcDbEntity
  8
0
  6
ByBlock
 62
     0
370
    -2
100
AcDbLine
 10
36.3664283769142
 20
103.7730242358026
 30
0.0
 11
38.8664283769142
 21
103.1031517358026
 31
0.0
  0
LINE
  5
2EB9
330
36
100
AcDbEntity
  8
0
  6
ByBlock
 62
     0
370
    -2
100
AcDbLine
 10
38.8664283769142
 20
103.1031517358026
 30
0.0
 11
36.3664283769142
 21
102.4332792358026
 31
0.0
  0
LINE
  5
2EBA
330
36
100
AcDbEntity
  8
0
  6
ByBlock
 62
     0
370
    -2
100
AcDbLine
 10
38.8664283769142
 20
103.1031517358026
 30
0.0
 11
36.3664283769142
 21
103.1031517358026
 31
0.0
  0
TEXT
  5
2EBB
330
36
100
AcDbEntity
  8
0
  6
Continuous
 62
     4
100
AcDbText
 10
-26.40759416224478
 20
97.69133973020712
 30
0.0
 40
3.0
  1
1198
100
AcDbText
  0
LINE
  5
2EBC
330
36
100
AcDbEntity
  8
0
  6
ByBlock
 62
     0
370
    -2
100
AcDbLine
 10
-76.43161670140376
 20
96.39646723020712
 30
0.0
 11
-78.93161670140376
 21
97.06633973020712
 31
0.0
  0
LINE
  5
2EBD
330
36
100
AcDbEntity
  8
0
  6
ByBlock
 62
     0
370
    -2
100
AcDbLine
 10
-78.93161670140376
 20
97.06633973020712
 30
0.0
 11
-76.43161670140376
 21
97.73621223020711
 31
0.0
  0
LINE
  5
2EBE
330
36
100
AcDbEntity
  8
0
  6
ByBlock
 62
     0
370
    -2
100
AcDbLine
 10
-78.93161670140376
 20
97.06633973020712
 30
0.0
 11
-76.43161670140376
 21
97.06633973020712
 31
0.0
  0
LINE
  5
2EBF
330
36
100
AcDbEntity
  8
0
  6
ByBlock
 62
     0
370
    -2
100
AcDbLine
 10
32.6164283769142
 20
97.73621223020711
 30
0.0
 11
35.1164283769142
 21
97.06633973020712
 31
0.0
  0
LINE
  5
2EC0
330
36
100
AcDbEntity
  8
0
  6
ByBlock
 62
     0
370
    -2
100
AcDbLine
 10
35.1164283769142
 20
97.06633973020712
 30
0.0
 11
32.6164283769142
 21
96.39646723020712
 31
0.0
  0
LINE
  5
2EC1
330
36
100
AcDbEntity
  8
0
  6
ByBlock
 62
     0
370
    -2
100
AcDbLine
 10
35.1164283769142
 20
97.06633973020712
 30
0.0
 11
32.6164283769142
 21
97.06633973020712
 31
0.0
  0
TEXT
  5
2EC2
330
36
100
AcDbEntity
  8
0
  6
Continuous
 62
     4
100
AcDbText
 10
54.86117730396427
 20
67.1346476871879
 30
0.0
 40
3.0
  1
\U+220527.5
 50
90.0
100
AcDbText
  0
LINE
  5
2EC3
330
36
100
AcDbEntity
  8
0
  6
ByBlock
 62
     0
370
    -2
100
AcDbLine
 10
56.15604980396428
 20
68.35144588498611
 30
0.0
 11
55.48617730396427
 21
65.85144588498611
 31
0.0
  0
LINE
  5
2EC4
330
36
100
AcDbEntity
  8
0
  6
ByBlock
 62
     0
370
    -2
100
AcDbLine
 10
55.48617730396427
 20
65.85144588498611
 30
0.0
 11
54.81630480396428
 21
68.35144588498611
 31
0.0
  0
LINE
  5
2EC5
330
36
100
AcDbEntity
  8
0
  6
ByBlock
 62
     0
370
    -2
100
AcDbLine
 10
55.48617730396427
 20
65.85144588498611
 30
0.0
 11
55.48617730396427
 21
68.35144588498611
 31
0.0
  0
LINE
  5
2EC6
330
36
100
AcDbEntity
  8
0
  6
ByBlock
 62
     0
370
    -2
100
AcDbLine
 10
54.81630480396428
 20
77.10144588498611
 30
0.0
 11
55.48617730396427
 21
79.60144588498611
 31
0.0
  0
LINE
  5
2EC7
330
36
100
AcDbEntity
  8
0
  6
ByBlock
 62
     0
370
    -2
100
AcDbLine
 10
55.48617730396427
 20
79.60144588498611
 30
0.0
 11
56.15604980396427
 21
77.10144588498611
 31
0.0
  0
LINE
  5
2EC8
330
36
100
AcDbEntity
  8
0
  6
ByBlock
 62
     0
370
    -2
100
AcDbLine
 10
55.48617730396427
 20
79.60144588498611
 30
0.0
 11
55.48617730396427
 21
77.10144588498611
 31
0.0
  0
TEXT
  5
2EC9
330
36
100
AcDbEntity
  8
0
  6
Continuous
 62
     4
100
AcDbText
 10
66.18765139121659
 20
57.43119906074138
 30
0.0
 40
3.0
  1
29
100
AcDbText
  0
LINE
  5
2ECA
330
36
100
AcDbEntity
  8
0
  6
ByBlock
 62
     0
370
    -2
100
AcDbLine
 10
73.43765139121659
 20
57.47607156074138
 30
0.0
 11
75.93765139121659
 21
56.80619906074138
 31
0.0
  0
LINE
  5
2ECB
330
36
100
AcDbEntity
  8
0
  6
ByBlock
 62
     0
370
    -2
100
AcDbLine
 10
75.93765139121659
 20
56.80619906074138
 30
0.0
 11
73.43765139121659
 21
56.13632656074138
 31
0.0
  0
LINE
  5
2ECC
330
36
100
AcDbEntity
  8
0
  6
ByBlock
 62
     0
370
    -2
100
AcDbLine
 10
75.93765139121659
 20
56.80619906074138
 30
0.0
 11
73.43765139121659
 21
56.80619906074138
 31
0.0
  0
LINE
  5
2ECD
330
36
100
AcDbEntity
  8
0
  6
ByBlock
 62
     0
370
    -2
100
AcDbLine
 10
63.93765139121659
 20
56.13632656074138
 30
0.0
 11
61.43765139121659
 21
56.80619906074138
 31
0.0
  0
LINE
  5
2ECE
330
36
100
AcDbEntity
  8
0
  6
ByBlock
 62
     0
370
    -2
100
AcDbLine
 10
61.43765139121659
 20
56.80619906074138
 30
0.0
 11
63.93765139121659
 21
57.47607156074138
 31
0.0
  0
LINE
  5
2ECF
330
36
100
AcDbEntity
  8
0
  6
ByBlock
 62
     0
370
    -2
100
AcDbLine
 10
61.43765139121659
 20
56.80619906074138
 30
0.0
 11
63.93765139121659
 21
56.80619906074138
 31
0.0
  0
TEXT
  5
2ED0
330
36
100
AcDbEntity
  8
0
  6
Continuous
 62
     4
100
AcDbText
 10
48.83936893811323
 20
68.06611283784469
 30
0.0
 40
3.0
  1
32.5
 50
90.0
100
AcDbText
  0
LINE
  5
2ED1
330
36
100
AcDbEntity
  8
0
  6
ByBlock
 62
     0
370
    -2
100
AcDbLine
 10
50.13424143811324
 20
67.10144588498611
 30
0.0
 11
49.46436893811323
 21
64.60144588498611
 31
0.0
  0
LINE
  5
2ED2
330
36
100
AcDbEntity
  8
0
  6
ByBlock
 62
     0
370
    -2
100
AcDbLine
 10
49.46436893811323
 20
64.60144588498611
 30
0.0
 11
48.79449643811323
 21
67.10144588498611
 31
0.0
  0
LINE
  5
2ED3
330
36
100
AcDbEntity
  8
0
  6
ByBlock
 62
     0
370
    -2
100
AcDbLine
 10
49.46436893811323
 20
64.60144588498611
 30
0.0
 11
49.46436893811323
 21
67.10144588498611
 31
0.0
  0
LINE
  5
2ED4
330
36
100
AcDbEntity
  8
0
  6
ByBlock
 62
     0
370
    -2
100
AcDbLine
 10
48.79449643811324
 20
78.35144588498605
 30
0.0
 11
49.46436893811323
 21
80.85144588498605
 31
0.0
  0
LINE
  5
2ED5
330
36
100
AcDbEntity
  8
0
  6
ByBlock
 62
     0
370
    -2
100
AcDbLine
 10
49.46436893811323
 20
80.85144588498605
 30
0.0
 11
50.13424143811324
 21
78.35144588498605
 31
0.0
  0
LINE
  5
2ED6
330
36
100
AcDbEntity
  8
0
  6
ByBlock
 62
     0
370
    -2
100
AcDbLine
 10
49.46436893811323
 20
80.85144588498605
 30
0.0
 11
49.46436893811323
 21
78.35144588498605
 31
0.0
  0
ENDSEC
  0
SECTION
  2
OBJECTS
  0
DICTIONARY
  5
C
330
0
100
AcDbDictionary
281
     1
  3
ACAD_2007HEADERVARS_RT
350
2EDB
  3
ACAD_COLOR
350
2F
  3
ACAD_GROUP
350
D
  3
ACAD_LAYOUT
350
2E
  3
ACAD_MATERIAL
350
10
  3
ACAD_MLEADERSTYLE
350
B6E
  3
ACAD_MLINESTYLE
350
2B
  3
ACAD_PLOTSETTINGS
350
2D
  3
ACAD_PLOTSTYLENAME
350
E
  3
ACAD_SCALELIST
350
B5C
  3
ACAD_TABLESTYLE
350
30
  3
ACAD_VISUALSTYLE
350
14
  3
AcadDim
350
10D8
  3
ACDB_RECOMPOSE_DATA
350
2ED9
  3
AcDbVariableDictionary
350
2BD
  3
AEC_PROPERTY_SET_DEFS
350
2100
  3
DWGPROPS
350
2EDA
  0
DICTIONARY
  5
2FE
330
2
100
AcDbDictionary
280
     1
281
     1
  3
ACAD_LAYERSTATES
360
2FF
  0
DICTIONARY
  5
DA4
330
25
100
AcDbDictionary
280
     1
281
     1
  3
ADSK_XREC_LAYER_RECONCILED
360
DA5
  0
DICTIONARY
  5
5D9
330
36
100
AcDbDictionary
280
     1
281
     1
  3
ACAD_SORTENTS
360
5DA
  0
DICTIONARY
  5
2EDB
102
{ACAD_REACTORS
330
C
102
}
330
C
100
AcDbDictionary
281
     1
  3
DIMARCSYM
350
2EDD
  3
DIMFXL
350
2EDC
  3
DIMJOGANG
350
2EDE
  0
DICTIONARY
  5
2F
102
{ACAD_REACTORS
330
C
102
}
330
C
100
AcDbDictionary
281
     1
  0
DICTIONARY
  5
D
102
{ACAD_REACTORS
330
C
102
}
330
C
100
AcDbDictionary
281
     1
  0
DICTIONARY
  5
2E
102
{ACAD_REACTORS
330
C
102
}
330
C
100
AcDbDictionary
281
     1
  3
Model
350
39
  3
レイアウト1
350
35
  0
DICTIONARY
  5
10
102
{ACAD_REACTORS
330
C
102
}
330
C
100
AcDbDictionary
281
     1
  3
ByBlock
350
12
  3
ByLayer
350
11
  3
Global
350
13
  0
DICTIONARY
  5
B6E
102
{ACAD_REACTORS
330
C
102
}
330
C
100
AcDbDictionary
281
     1
  3
Standard
350
B6F
  0
DICTIONARY
  5
2B
102
{ACAD_REACTORS
330
C
102
}
330
C
100
AcDbDictionary
281
     1
  3
Standard
350
2C
  0
DICTIONARY
  5
2D
102
{ACAD_REACTORS
330
C
102
}
330
C
100
AcDbDictionary
281
     1
  0
ACDBDICTIONARYWDFLT
  5
E
102
{ACAD_REACTORS
330
C
102
}
330
C
100
AcDbDictionary
281
     1
  3
Normal
350
F
100
AcDbDictionaryWithDefault
340
F
  0
DICTIONARY
  5
B5C
102
{ACAD_REACTORS
330
C
102
}
330
C
100
AcDbDictionary
281
     1
  3
A0
350
B5D
  3
A1
350
B5E
  3
A2
350
B5F
  3
A3
350
B60
  3
A4
350
B61
  3
A5
350
B62
  3
A6
350
B63
  3
A7
350
B64
  3
A8
350
B65
  3
A9
350
B66
  3
B0
350
B67
  3
B1
350
B68
  3
B2
350
B69
  3
B3
350
B6A
  3
B4
350
B6B
  3
B5
350
B6C
  3
B6
350
B6D
  0
DICTIONARY
  5
30
102
{ACAD_REACTORS
330
C
102
}
330
C
100
AcDbDictionary
281
     1
  3
Standard
350
31
  3
部品表
350
16E2
  0
DICTIONARY
  5
14
102
{ACAD_REACTORS
330
C
102
}
330
C
100
AcDbDictionary
281
     1
  3
2dWireframe
350
1A
  3
3D Hidden
350
1C
  3
3dWireframe
350
1B
  3
Basic
350
19
  3
Brighten
350
20
  3
ColorChange
350
24
  3
Conceptual
350
1D
  3
Dim
350
1F
  3
EdgeColorOff
350
B5B
  3
Facepattern
350
23
  3
Flat
350
15
  3
FlatWithEdges
350
16
  3
Gouraud
350
17
  3
GouraudWithEdges
350
18
  3
Hidden
350
B53
  3
JitterOff
350
B59
  3
Linepattern
350
22
  3
OverhangOff
350
B5A
  3
Realistic
350
1E
  3
Shaded
350
B58
  3
Shaded with edges
350
B57
  3
Shades of Gray
350
B54
  3
Sketchy
350
B55
  3
Thicken
350
21
  3
Wireframe
350
B52
  3
X-Ray
350
B56
  0
XRECORD
  5
10D8
102
{ACAD_REACTORS
330
C
102
}
330
C
100
AcDbXrecord
280
     1
 90
   990106
  3

 60
     0
 61
     0
 62
     1
 63
     3
 64
     0
 65
     0
 66
     0
 67
     3
 68
     1
 69
     0
 70
     0
 71
     0
 72
     0
 40
0.0
170
     0
340
10FE
  0
XRECORD
  5
2ED9
102
{ACAD_REACTORS
330
C
102
}
330
C
100
AcDbXrecord
280
     1
 90
        1
330
31
330
16E2
  0
DICTIONARY
  5
2BD
102
{ACAD_REACTORS
330
C
102
}
330
C
100
AcDbDictionary
281
     1
  3
CANNOSCALE
350
DA9
  3
CMLEADERSTYLE
350
DA8
  3
CTABLESTYLE
350
2BE
  3
DIMASSOC
350
2C7
  3
INDEXCTL
350
2C6
  3
SORTENTS
350
2C5
  3
XCLIPFRAME
350
2D47
  0
DICTIONARY
  5
2100
102
{ACAD_REACTORS
330
C
102
}
330
C
100
AcDbDictionary
281
     1
  0
XRECORD
  5
2EDA
102
{ACAD_REACTORS
330
C
102
}
330
C
100
AcDbXrecord
280
     1
  1
DWGPROPS COOKIE
  2

  3

  4

  6

  7

  8
kaiha
  9

300
=
301
=
302
=
303
=
304
=
305
=
306
=
307
=
308
=
309
=
 40
1.201450011574074
 41
2455442.601448206
 42
2458311.813142998
  1

 90
        0
  0
DICTIONARY
  5
2FF
102
{ACAD_REACTORS
330
2FE
102
}
330
2FE
100
AcDbDictionary
281
     1
  0
XRECORD
  5
DA5
102
{ACAD_REACTORS
330
DA4
102
}
330
DA4
100
AcDbXrecord
280
     1
290
     1
  0
SORTENTSTABLE
  5
5DA
102
{ACAD_REACTORS
330
5D9
102
}
330
5D9
100
AcDbSortentsTable
330
36
331
2ECE
  5
2E0F
331
2E8F
  5
2ED1
331
182E
  5
1CC4
331
2ECA
  5
2E16
331
182A
  5
1CBC
331
2E8B
  5
1BC3
331
2EC6
  5
2E20
331
2147
  5
2EB0
331
2E87
  5
1857
331
2EC2
  5
2E2D
331
2143
  5
2EAD
331
2E83
  5
1853
331
213F
  5
2EA9
331
213B
  5
2EA5
331
1DAA
  5
1E97
331
210C
  5
2E76
331
1CDC
  5
1D76
331
1EE5
  5
1D34
331
1EAE
  5
210B
331
1BC5
  5
1D30
331
1D53
  5
1E1C
331
1E6F
  5
1EB8
331
1DA6
  5
1E93
331
2108
  5
2E72
331
1D4F
  5
1E21
331
1EE1
  5
1D42
331
1EAA
  5
2107
331
1BC1
  5
1D38
331
1DA2
  5
1E8F
331
1EDD
  5
2140
331
1D4B
  5
1E26
331
17CE
  5
17CE
331
180D
  5
180D
331
1EA6
  5
2102
331
1ED9
  5
213C
331
1CD0
  5
1D6B
331
1EA2
  5
1FF0
331
17CA
  5
17CA
331
1809
  5
1809
331
17C6
  5
17C6
331
1805
  5
1805
331
170
  5
170
331
1AF
  5
1AF
331
1801
  5
1801
331
16C
  5
16C
331
1AB
  5
1AB
331
168
  5
168
331
2E54
  5
1824
331
2E50
  5
1820
331
2E48
  5
2145
331
2EBE
  5
2E36
331
2E7F
  5
184F
331
2EBA
  5
2E3D
331
2E7B
  5
184B
331
2EB6
  5
2E3F
331
2137
  5
2EA1
331
2E77
  5
1847
331
2EB2
  5
2E48
331
2E73
  5
1843
331
212F
  5
2E9B
331
1D9E
  5
1E8B
331
1D47
  5
1E2A
331
212B
  5
2E97
331
1D43
  5
1E3E
331
1ED5
  5
213A
331
1CCC
  5
1D6C
331
1E9E
  5
1EE5
331
1855
  5
1D04
331
1E47
  5
1EB3
331
1ED1
  5
2136
331
1CC8
  5
1D67
331
1E9A
  5
1EE1
331
1E43
  5
1E98
331
1851
  5
1D00
331
1ECD
  5
2130
331
1D2B
  5
1D5C
331
1D7A
  5
1D48
331
1E96
  5
1EDD
331
1A7
  5
1A7
331
17FD
  5
17FD
331
184D
  5
1CFC
331
1EC9
  5
212C
331
1CC0
  5
1D64
331
1E92
  5
1ED9
331
1849
  5
1CF8
331
17F9
  5
17F9
331
1A3
  5
1A3
331
1E3B
  5
1EAD
331
17F5
  5
17F5
331
19F
  5
19F
331
2A6
  5
2A6
331
17F1
  5
17F1
331
19B
  5
19B
331
88
  5
88
331
2E3C
  5
2E1E
331
2EAE
  5
2E4A
331
2EAA
  5
2E53
331
2EA6
  5
2E59
331
2686
  5
2ED3
331
1D27
  5
1D46
331
1845
  5
1CF4
331
2EA2
  5
2E5E
331
1D23
  5
1D5B
331
1841
  5
1CF0
331
1D76
  5
1E87
331
215A
  5
2EC2
331
1D72
  5
1E83
331
1E8E
  5
1ED3
331
1CBC
  5
1D62
331
1FF0
  5
2E69
331
1CF7
  5
1DA2
331
1E8A
  5
1ECF
331
2123
  5
2E92
331
1D6A
  5
1E7C
331
1FEC
  5
2E66
331
1CF3
  5
1D75
331
1EC5
  5
2125
331
17ED
  5
17ED
331
1E86
  5
1ECB
331
1EC1
  5
2120
331
1E82
  5
1EC7
331
193
  5
193
331
17E9
  5
17E9
331
1824
  5
1BD4
331
17E5
  5
17E5
331
1820
  5
1BC8
331
17E1
  5
17E1
331
18B
  5
18B
331
2E30
  5
2E39
331
2E6F
  5
183F
331
2E6B
  5
183B
331
2E28
  5
2E43
331
2E9E
  5
2E60
331
183D
  5
1CEC
331
2E9A
  5
2EC4
331
1839
  5
1CDD
331
2ED5
  5
214B
331
2E96
  5
2EC8
331
2156
  5
2EBE
331
1CFF
  5
1DAA
331
1835
  5
1CD1
331
2ED1
  5
2150
331
2E92
  5
2ECC
331
2152
  5
2EBB
331
1CFB
  5
1DA6
331
1831
  5
1CCC
331
214E
  5
2EB7
331
1E25
  5
1EA7
331
211F
  5
2E8F
331
1CEF
  5
1D7B
331
1D66
  5
1E75
331
214A
  5
2EB3
331
1E21
  5
1EA3
331
211B
  5
2E8C
331
1EBD
  5
211B
331
1BD4
  5
1D51
331
1E7E
  5
1EC3
331
1D62
  5
1E71
331
1E1D
  5
1E9F
331
2117
  5
2E88
331
1D5E
  5
1E6D
331
1EB9
  5
2117
331
1CE7
  5
1D7A
331
1E19
  5
1E9C
331
2113
  5
2E7D
331
1D5A
  5
1E46
331
1EB5
  5
2112
331
1E76
  5
1EBF
331
17DD
  5
17DD
331
1EB1
  5
210E
331
1BC8
  5
1D17
331
1E72
  5
1EBB
331
1818
  5
1818
331
183
  5
183
331
17D9
  5
17D9
331
17D5
  5
17D5
331
1814
  5
1814
331
17F
  5
17F
331
21A
  5
21A
331
17D1
  5
17D1
331
1810
  5
1810
331
17B
  5
17B
331
2E67
  5
1837
331
2E63
  5
1833
331
2E20
  5
2E4F
331
2E5F
  5
182F
331
2E1C
  5
2E5F
331
2E5B
  5
182B
331
2ECD
  5
2A99
331
2E8E
  5
2ED0
331
182D
  5
1CC3
331
2EC9
  5
2E19
331
1829
  5
1BE8
331
2E8A
  5
1BC1
331
2EC5
  5
2E2C
331
2146
  5
2EAF
331
2E86
  5
1856
331
2EC1
  5
2E33
331
2142
  5
2EAC
331
2E82
  5
1852
331
213E
  5
2EA8
331
210F
  5
2E79
331
213A
  5
2EA4
331
1DA9
  5
1E96
331
210B
  5
2E75
331
1EE4
  5
1E99
331
1EAD
  5
210A
331
1BC4
  5
1D31
331
1D52
  5
1E1D
331
1E6E
  5
1EB7
331
1DA5
  5
1E92
331
2107
  5
2E71
331
1D4E
  5
1E22
331
1CD7
  5
1D74
331
1EE0
  5
1D36
331
1EA9
  5
2106
331
1BC0
  5
1D33
331
1DA1
  5
1E8E
331
2103
  5
2E6E
331
1D4A
  5
1E27
331
1EDC
  5
213F
331
1EA5
  5
2017
331
1BBC
  5
1D16
331
177
  5
177
331
17CD
  5
17CD
331
180C
  5
180C
331
1ED8
  5
213B
331
1EA1
  5
1FEF
331
1808
  5
1808
331
1B2
  5
1B2
331
17C9
  5
17C9
331
17C5
  5
17C5
331
1804
  5
1804
331
16F
  5
16F
331
1AE
  5
1AE
331
1AA
  5
1AA
331
1800
  5
1800
331
16B
  5
16B
331
2E57
  5
1827
331
2E53
  5
1823
331
2E4F
  5
181F
331
2EBD
  5
2E35
331
2E7E
  5
184E
331
2EB9
  5
2E3C
331
2E7A
  5
184A
331
2EB5
  5
2E3E
331
2136
  5
2EA0
331
2E76
  5
1846
331
2EB1
  5
2E47
331
2E72
  5
1842
331
212E
  5
2E9A
331
1D9D
  5
1E8A
331
1CCF
  5
1D6D
331
1D46
  5
1E3B
331
2A99
  5
2ED6
331
212A
  5
2E96
331
1D42
  5
1E3F
331
1ED4
  5
2139
331
1CCB
  5
1D6A
331
1E9D
  5
1EE4
331
1854
  5
1D03
331
1E46
  5
1EB2
331
2017
  5
2E6C
331
1D7D
  5
1D4F
331
1ED0
  5
2135
331
1CC7
  5
1D66
331
1E99
  5
1EE0
331
1E42
  5
1E9A
331
1850
  5
1CFF
331
1ECC
  5
212F
331
1D79
  5
1D4C
331
1E95
  5
1EDC
331
184C
  5
1CFB
331
1E3E
  5
1EB0
331
1A6
  5
1A6
331
17FC
  5
17FC
331
167
  5
167
331
1EC8
  5
212B
331
1E91
  5
1ED8
331
1848
  5
1CF7
331
17F8
  5
17F8
331
163
  5
163
331
1A2
  5
1A2
331
1E3A
  5
1EAC
331
2A5
  5
2A5
331
17F4
  5
17F4
331
19E
  5
19E
331
17F0
  5
17F0
331
19A
  5
19A
331
2E47
  5
2143
331
2E43
  5
2A98
331
2E3B
  5
2E1D
331
2EAD
  5
2E4D
331
2EA9
  5
2E58
331
2EA5
  5
2E5C
331
1D26
  5
1D4B
331
1844
  5
1CF3
331
2EA1
  5
2E5D
331
1D22
  5
1D5D
331
1840
  5
1CEF
331
1D75
  5
1E86
331
1CBF
  5
1D63
331
2159
  5
2EC1
331
1E8D
  5
1ED2
331
2126
  5
2E95
331
1D6D
  5
1E7F
331
1FEF
  5
2E68
331
1CF6
  5
1DA1
331
1E89
  5
1ECE
331
1E28
  5
1EAA
331
2122
  5
2E91
331
1D69
  5
1E7B
331
1EC4
  5
2124
331
1CF2
  5
1D77
331
17EC
  5
17EC
331
1E85
  5
1ECA
331
1EC0
  5
211F
331
1E81
  5
1EC6
331
17E8
  5
17E8
331
192
  5
192
331
1827
  5
1BE5
331
1823
  5
1BD3
331
17E4
  5
17E4
331
17E0
  5
17E0
331
2E37
  5
2E30
331
2E2F
  5
2E38
331
2E6E
  5
183E
331
2E2B
  5
2E46
331
2E6A
  5
183A
331
2BF
  5
2BF
331
2E9D
  5
2E64
331
183C
  5
1CE9
331
2E99
  5
2EC3
331
1838
  5
1CDC
331
2ED4
  5
214A
331
2E95
  5
2EC7
331
2155
  5
2EBD
331
1CFE
  5
1DA9
331
1834
  5
1CD0
331
2ED0
  5
2157
331
2E91
  5
2ECB
331
2151
  5
2EBA
331
1CFA
  5
1DA5
331
1830
  5
1CCB
331
214D
  5
2EB6
331
1E24
  5
1EA6
331
211E
  5
2E8E
331
1CEE
  5
1D79
331
1BD7
  5
1D59
331
1D65
  5
1E74
331
2149
  5
2EB2
331
1E20
  5
1EA2
331
211A
  5
2E8B
331
1EBC
  5
211A
331
1BD3
  5
1D52
331
1E7D
  5
1EC2
331
1D61
  5
1E70
331
1D5D
  5
1E6C
331
1EB8
  5
2115
331
1CE6
  5
1D78
331
181F
  5
1BC7
331
2112
  5
2E7C
331
1D59
  5
1E45
331
1EB4
  5
2111
331
181B
  5
181B
331
17DC
  5
17DC
331
1E75
  5
1EBE
331
1EB0
  5
210D
331
1E71
  5
1EBA
331
1817
  5
1817
331
182
  5
182
331
17D8
  5
17D8
331
17D4
  5
17D4
331
1813
  5
1813
331
17E
  5
17E
331
21D
  5
21D
331
219
  5
219
331
17D0
  5
17D0
331
17A
  5
17A
331
2E27
  5
2E42
331
2E66
  5
1836
331
2E23
  5
2E52
331
2E62
  5
1832
331
2E1F
  5
2E4E
331
2E5E
  5
182E
331
2E5A
  5
182A
331
2ECC
  5
2E18
331
2E8D
  5
2ECF
331
182C
  5
1CC0
331
2EC8
  5
2E27
331
1828
  5
1BE7
331
2E89
  5
1BC0
331
2EC4
  5
2E2B
331
2145
  5
2EAE
331
2E85
  5
1855
331
2EC0
  5
2E32
331
2141
  5
2EAB
331
2E81
  5
1851
331
213D
  5
2EA7
331
210E
  5
2E78
331
1CDE
  5
1D5E
331
1BC7
  5
1D18
331
2139
  5
2EA3
331
1DA8
  5
1E95
331
210A
  5
2E74
331
1EE3
  5
1E9B
331
1EAC
  5
2109
331
1E6D
  5
1EB6
331
1BC3
  5
1D32
331
1D51
  5
1E1F
331
1DA4
  5
1E91
331
2106
  5
2E70
331
1D4D
  5
1E24
331
1EDF
  5
2142
331
1EA8
  5
2105
331
180F
  5
180F
331
1BBF
  5
1D35
331
1DA0
  5
1E8D
331
2102
  5
2E6D
331
1D49
  5
1E28
331
1EDB
  5
213E
331
1CD2
  5
1D70
331
1EA4
  5
2016
331
176
  5
176
331
17CC
  5
17CC
331
180B
  5
180B
331
1EA0
  5
1FEE
331
1807
  5
1807
331
1B1
  5
1B1
331
17C8
  5
17C8
331
17C4
  5
17C4
331
1803
  5
1803
331
16E
  5
16E
331
1AD
  5
1AD
331
1A9
  5
1A9
331
16A
  5
16A
331
2E56
  5
1826
331
2E52
  5
1822
331
2E4E
  5
181E
331
2EBC
  5
2E34
331
2E7D
  5
184D
331
2EB8
  5
2E3B
331
2E79
  5
1849
331
2EB4
  5
2E41
331
2135
  5
2E9F
331
2E75
  5
1845
331
2EB0
  5
2E4C
331
2131
  5
2E9D
331
2E71
  5
1841
331
212D
  5
2E99
331
1D45
  5
1E3C
331
1857
  5
1D15
331
1CCE
  5
1D72
331
2A98
  5
2ED5
331
1ED3
  5
2138
331
1CCA
  5
1D69
331
1E9C
  5
1EE3
331
1853
  5
1D02
331
1E45
  5
1EB1
331
2016
  5
2E6B
331
1D7C
  5
1D49
331
1ECF
  5
2134
331
1E98
  5
1EDF
331
17FF
  5
17FF
331
184F
  5
1CFE
331
1D78
  5
1E89
331
1ECB
  5
212E
331
1D29
  5
1DC7
331
1E94
  5
1EDB
331
184B
  5
1CFA
331
1E3D
  5
1EAF
331
166
  5
166
331
1A5
  5
1A5
331
17FB
  5
17FB
331
1E90
  5
1ED5
331
1E39
  5
1EAB
331
17F7
  5
17F7
331
1A1
  5
1A1
331
1160
  5
1160
331
17F3
  5
17F3
331
19D
  5
19D
331
2E42
  5
2159
331
2EAC
  5
2E55
331
2EA8
  5
2E57
331
1847
  5
1CF6
331
2EA4
  5
2E5B
331
1D25
  5
1E23
331
1843
  5
1CF2
331
2EA0
  5
2E62
331
1D74
  5
1E85
331
2158
  5
2EC0
331
1E8C
  5
1ED1
331
1D70
  5
1E82
331
2125
  5
2E94
331
1D6C
  5
1E7E
331
1FEE
  5
2E67
331
1CF5
  5
1DA0
331
1EC7
  5
212A
331
1BE6
  5
1D61
331
17EF
  5
17EF
331
1E88
  5
1ECD
331
1D68
  5
1E79
331
1EC3
  5
2123
331
1CF1
  5
1D7D
331
195
  5
195
331
17EB
  5
17EB
331
1E84
  5
1EC9
331
1E80
  5
1EC5
331
1826
  5
1BE1
331
17E7
  5
17E7
331
191
  5
191
331
1822
  5
1BCA
331
17E3
  5
17E3
331
260
  5
260
331
2E36
  5
2E2F
331
2E6D
  5
183D
331
2E2A
  5
2E45
331
2E69
  5
1839
331
183F
  5
1CEE
331
2E9C
  5
2E63
331
183B
  5
1CE8
331
2E98
  5
2EC6
331
1837
  5
1CD9
331
2ED3
  5
2152
331
2E94
  5
2ECA
331
2154
  5
2EBC
331
1CFD
  5
1DA8
331
1833
  5
1CCF
331
2E90
  5
2ECE
331
2150
  5
2EB9
331
1CF9
  5
1DA4
331
1E27
  5
1EA9
331
214C
  5
2EB5
331
1E23
  5
1EA5
331
1EBF
  5
211E
331
1CED
  5
1D7E
331
1D64
  5
1E73
331
2148
  5
2EB1
331
1E1F
  5
1EA1
331
2119
  5
2E8A
331
1D60
  5
1E6F
331
1E7C
  5
1EC1
331
1EBB
  5
2119
331
1E1B
  5
1E9E
331
2115
  5
2E7F
331
1D5C
  5
1E4C
331
181E
  5
1BC6
331
17DF
  5
17DF
331
1EB7
  5
2114
331
2111
  5
2E7B
331
1D58
  5
1E40
331
1EB3
  5
2110
331
1BCA
  5
1D45
331
181A
  5
181A
331
185
  5
185
331
17DB
  5
17DB
331
1E74
  5
1EBD
331
1E70
  5
1EB9
331
17D7
  5
17D7
331
1816
  5
1816
331
181
  5
181
331
17D3
  5
17D3
331
1812
  5
1812
331
17D
  5
17D
331
21C
  5
21C
331
179
  5
179
331
2E65
  5
1835
331
2E22
  5
2E51
331
2E61
  5
1831
331
2E5D
  5
182D
331
2E59
  5
1829
331
2ECF
  5
2E15
331
182F
  5
1CCA
331
2ECB
  5
2E17
331
2E8C
  5
2ED2
331
182B
  5
1CBF
331
2EC7
  5
2E21
331
2E88
  5
1BBC
331
2EC3
  5
2E2A
331
2E84
  5
1854
331
2140
  5
2EAA
331
2E80
  5
1850
331
213C
  5
2EA6
331
210D
  5
2E77
331
1CDD
  5
1D5F
331
1EAF
  5
210C
331
1BC6
  5
1D19
331
2138
  5
2EA2
331
1DA7
  5
1E94
331
2109
  5
2E73
331
1EAB
  5
2108
331
1BC2
  5
1D3B
331
1EE2
  5
1D3A
331
1E6C
  5
1EB5
331
1D50
  5
1E20
331
1DA3
  5
1E90
331
2105
  5
2E6F
331
1D4C
  5
1E25
331
1EDE
  5
2141
331
1EA7
  5
2103
331
17CF
  5
17CF
331
180E
  5
180E
331
1BBE
  5
1D43
331
1D48
  5
1E29
331
1EDA
  5
213D
331
1CD1
  5
1D73
331
1EA3
  5
1FF1
331
180A
  5
180A
331
175
  5
175
331
17CB
  5
17CB
331
1E4C
  5
1EB4
331
1806
  5
1806
331
1B0
  5
1B0
331
17C7
  5
17C7
331
17C3
  5
17C3
331
1802
  5
1802
331
16D
  5
16D
331
1AC
  5
1AC
331
1A8
  5
1A8
331
169
  5
169
331
2E55
  5
1825
331
2E51
  5
1821
331
2E4D
  5
181D
331
2E49
  5
2146
331
2EBF
  5
2E31
331
2EBB
  5
2E37
331
2E7C
  5
184C
331
2EB7
  5
2E40
331
2E78
  5
1848
331
2EB3
  5
2E49
331
2134
  5
2E9E
331
2E74
  5
1844
331
2E70
  5
1840
331
2130
  5
2E9C
331
1D9F
  5
1E8C
331
FC4
  5
10B3
331
212C
  5
2E98
331
1D44
  5
1E3D
331
1E9F
  5
1FEC
331
1856
  5
1D14
331
1CCD
  5
1D6F
331
1ED2
  5
2137
331
1CC9
  5
1D68
331
1E9B
  5
1EE2
331
1852
  5
1D01
331
1ECE
  5
2131
331
1D7B
  5
1D4E
331
1E97
  5
1EDE
331
17FE
  5
17FE
331
184E
  5
1CFD
331
1D28
  5
1DC8
331
1ECA
  5
212D
331
1CC1
  5
1D65
331
1E93
  5
1EDA
331
184A
  5
1CF9
331
1E3C
  5
1EAE
331
165
  5
165
331
1A4
  5
1A4
331
17FA
  5
17FA
331
17F6
  5
17F6
331
161
  5
161
331
1A0
  5
1A0
331
2A7
  5
2A7
331
17F2
  5
17F2
331
19C
  5
19C
331
2E41
  5
2158
331
2E3D
  5
2E1F
331
2EAF
  5
2E4B
331
2EAB
  5
2E54
331
2687
  5
2ED4
331
2EA7
  5
2E56
331
1846
  5
1CF5
331
2EA3
  5
2E5A
331
1D24
  5
1E1B
331
1842
  5
1CF1
331
1D77
  5
1E88
331
1E8F
  5
1ED4
331
1D73
  5
1E84
331
1FF1
  5
2E6A
331
1D6F
  5
1E81
331
1E8B
  5
1ED0
331
2124
  5
2E93
331
1D6B
  5
1E7D
331
1CF4
  5
1D9F
331
1EC6
  5
2126
331
1BE5
  5
1D60
331
17EE
  5
17EE
331
1E87
  5
1ECC
331
2120
  5
2E90
331
1CF0
  5
1D9E
331
1EC2
  5
2122
331
1BE1
  5
1D5A
331
1E83
  5
1EC8
331
194
  5
194
331
17EA
  5
17EA
331
1825
  5
1BD6
331
17E6
  5
17E6
331
1821
  5
1BC9
331
17E2
  5
17E2
331
2E35
  5
2E2E
331
2E31
  5
2E3A
331
2E6C
  5
183C
331
2E29
  5
2E44
331
2E68
  5
1838
331
2E9F
  5
2E61
331
183E
  5
1CED
331
2E9B
  5
2EC5
331
183A
  5
1CE7
331
2ED6
  5
214C
331
2E97
  5
2EC9
331
2157
  5
2EBF
331
1D00
  5
1DAB
331
1836
  5
1CD2
331
2ED2
  5
2151
331
2E93
  5
2ECD
331
1CFC
  5
1DA7
331
1832
  5
1CCE
331
214F
  5
2EB8
331
1CF8
  5
1DA3
331
1E26
  5
1EA8
331
1D67
  5
1E76
331
214B
  5
2EB4
331
1E22
  5
1EA4
331
211C
  5
2E8D
331
1EBE
  5
211C
331
1CEC
  5
1D7C
331
1E7F
  5
1EC4
331
1D63
  5
1E72
331
1E1E
  5
1EA0
331
2118
  5
2E89
331
1D5F
  5
1E6E
331
1E7B
  5
1EC0
331
1EBA
  5
2118
331
1E1A
  5
1E9D
331
2114
  5
2E7E
331
1D5B
  5
1E47
331
1EB6
  5
2113
331
181D
  5
1BC4
331
25F
  5
25F
331
17DE
  5
17DE
331
2110
  5
2E7A
331
1EB2
  5
210F
331
1BC9
  5
1D58
331
1E73
  5
1EBC
331
1819
  5
1819
331
17DA
  5
17DA
331
17D6
  5
17D6
331
1815
  5
1815
331
180
  5
180
331
21B
  5
21B
331
17D2
  5
17D2
331
1811
  5
1811
331
17C
  5
17C
331
178
  5
178
331
2E64
  5
1834
331
2E21
  5
2E50
331
2E60
  5
1830
331
2E5C
  5
182C
331
2E19
  5
2E65
331
2E58
  5
1828
  0
XRECORD
  5
2EDD
102
{ACAD_REACTORS
330
2EDB
102
}
330
2EDB
100
AcDbXrecord
280
     1
 70
     2
  0
XRECORD
  5
2EDC
102
{ACAD_REACTORS
330
2EDB
102
}
330
2EDB
100
AcDbXrecord
280
     1
 40
1.25
  0
XRECORD
  5
2EDE
102
{ACAD_REACTORS
330
2EDB
102
}
330
2EDB
100
AcDbXrecord
280
     1
 40
1.570796326794896
  0
LAYOUT
  5
39
102
{ACAD_XDICTIONARY
360
2F02
102
}
102
{ACAD_REACTORS
330
2E
102
}
330
2E
100
AcDbPlotSettings
  1

  2
PDF Complete
  4
A4
  6

 40
3.174999952316281
 41
3.174999952316281
 42
3.175003051757812
 43
3.17498779296875
 44
209.9733276367186
 45
297.0106506347656
 46
0.0
 47
0.0
 48
0.0
 49
0.0
140
0.0
141
0.0
142
1.0
143
41.55432757113839
 70
 11952
 72
     0
 73
     1
 74
     0
  7

 75
     0
147
0.0240648822505445
148
6191.45587034033
149
3548.573645552828
100
AcDbLayout
  1
Model
 70
     1
 71
     0
 10
0.0
 20
0.0
 11
12.0
 21
9.0
 12
0.0
 22
0.0
 32
0.0
 14
0.0
 24
0.0
 34
0.0
 15
0.0
 25
0.0
 35
0.0
146
0.0
 13
0.0
 23
0.0
 33
0.0
 16
1.0
 26
0.0
 36
0.0
 17
0.0
 27
1.0
 37
0.0
 76
     0
330
36
331
56
1001
ACAD_PSEXT
1000
PDF Complete
1000
PDF Complete Converter
1000
PDFC
1000
PDF Document Creator
1070
     0
  0
LAYOUT
  5
35
102
{ACAD_XDICTIONARY
360
2F00
102
}
102
{ACAD_REACTORS
330
2E
102
}
330
2E
100
AcDbPlotSettings
  1

  2
PDF Complete
  4

  6

 40
0.0
 41
0.0
 42
0.0
 43
0.0
 44
0.0
 45
0.0
 46
0.0
 47
0.0
 48
0.0
 49
0.0
140
0.0
141
0.0
142
1.0
143
1.0
 70
   688
 72
     0
 73
     0
 74
     5
  7

 75
    16
147
1.0
148
0.0
149
0.0
100
AcDbLayout
  1
レイアウト1
 70
     1
 71
     1
 10
0.0
 20
0.0
 11
12.0
 21
9.0
 12
0.0
 22
0.0
 32
0.0
 14
1.000000000000000E+20
 24
1.000000000000000E+20
 34
1.000000000000000E+20
 15
-1.000000000000000E+20
 25
-1.000000000000000E+20
 35
-1.000000000000000E+20
146
0.0
 13
0.0
 23
0.0
 33
0.0
 16
1.0
 26
0.0
 36
0.0
 17
0.0
 27
1.0
 37
0.0
 76
     0
330
32
  0
MATERIAL
  5
12
102
{ACAD_XDICTIONARY
360
2CB
102
}
102
{ACAD_REACTORS
330
10
102
}
330
10
100
AcDbMaterial
  1
ByBlock
  0
MATERIAL
  5
11
102
{ACAD_XDICTIONARY
360
2C9
102
}
102
{ACAD_REACTORS
330
10
102
}
330
10
100
AcDbMaterial
  1
ByLayer
  0
MATERIAL
  5
13
102
{ACAD_XDICTIONARY
360
2CD
102
}
102
{ACAD_REACTORS
330
10
102
}
330
10
100
AcDbMaterial
  1
Global
  0
MLEADERSTYLE
  5
B6F
102
{ACAD_REACTORS
330
B6E
102
}
330
B6E
100
AcDbMLeaderStyle
170
     2
171
     1
172
     0
 90
        2
 40
0.0
 41
0.0
173
     1
 91
-1056964608
340
28
 92
       -2
290
     1
 42
0.09
291
     1
 43
0.36
  3
Standard
 44
0.18
300

342
26
174
     1
178
     6
175
     1
176
     0
 93
-1056964608
 45
0.18
292
     0
297
     0
 46
0.18
 94
-1056964608
 47
1.0
 49
1.0
140
1.0
293
     1
141
0.0
294
     1
177
     0
142
1.0
295
     0
296
     0
143
0.125
1001
ACAD_MLEADERVER
1070
     2
  0
MLINESTYLE
  5
2C
102
{ACAD_REACTORS
330
2B
102
}
330
2B
100
AcDbMlineStyle
  2
STANDARD
 70
     0
  3

 62
   256
 51
90.0
 52
90.0
 71
     2
 49
0.5
 62
   256
  6
BYLAYER
 49
-0.5
 62
   256
  6
BYLAYER
  0
ACDBPLACEHOLDER
  5
F
102
{ACAD_REACTORS
330
E
102
}
330
E
  0
SCALE
  5
B5D
102
{ACAD_REACTORS
330
B5C
102
}
330
B5C
100
AcDbScale
 70
     0
300
1:1
140
1.0
141
1.0
290
     1
  0
SCALE
  5
B5E
102
{ACAD_REACTORS
330
B5C
102
}
330
B5C
100
AcDbScale
 70
     0
300
1/128" = 1'-0"
140
0.0078125
141
12.0
290
     0
  0
SCALE
  5
B5F
102
{ACAD_REACTORS
330
B5C
102
}
330
B5C
100
AcDbScale
 70
     0
300
1/64" = 1'-0"
140
0.015625
141
12.0
290
     0
  0
SCALE
  5
B60
102
{ACAD_REACTORS
330
B5C
102
}
330
B5C
100
AcDbScale
 70
     0
300
1/32" = 1'-0"
140
0.03125
141
12.0
290
     0
  0
SCALE
  5
B61
102
{ACAD_REACTORS
330
B5C
102
}
330
B5C
100
AcDbScale
 70
     0
300
1/16" = 1'-0"
140
0.0625
141
12.0
290
     0
  0
SCALE
  5
B62
102
{ACAD_REACTORS
330
B5C
102
}
330
B5C
100
AcDbScale
 70
     0
300
3/32" = 1'-0"
140
0.09375
141
12.0
290
     0
  0
SCALE
  5
B63
102
{ACAD_REACTORS
330
B5C
102
}
330
B5C
100
AcDbScale
 70
     0
300
1/8" = 1'-0"
140
0.125
141
12.0
290
     0
  0
SCALE
  5
B64
102
{ACAD_REACTORS
330
B5C
102
}
330
B5C
100
AcDbScale
 70
     0
300
3/16" = 1'-0"
140
0.1875
141
12.0
290
     0
  0
SCALE
  5
B65
102
{ACAD_REACTORS
330
B5C
102
}
330
B5C
100
AcDbScale
 70
     0
300
1/4" = 1'-0"
140
0.25
141
12.0
290
     0
  0
SCALE
  5
B66
102
{ACAD_REACTORS
330
B5C
102
}
330
B5C
100
AcDbScale
 70
     0
300
3/8" = 1'-0"
140
0.375
141
12.0
290
     0
  0
SCALE
  5
B67
102
{ACAD_REACTORS
330
B5C
102
}
330
B5C
100
AcDbScale
 70
     0
300
1/2" = 1'-0"
140
0.5
141
12.0
290
     0
  0
SCALE
  5
B68
102
{ACAD_REACTORS
330
B5C
102
}
330
B5C
100
AcDbScale
 70
     0
300
3/4" = 1'-0"
140
0.75
141
12.0
290
     0
  0
SCALE
  5
B69
102
{ACAD_REACTORS
330
B5C
102
}
330
B5C
100
AcDbScale
 70
     0
300
1" = 1'-0"
140
1.0
141
12.0
290
     0
  0
SCALE
  5
B6A
102
{ACAD_REACTORS
330
B5C
102
}
330
B5C
100
AcDbScale
 70
     0
300
1-1/2" = 1'-0"
140
1.5
141
12.0
290
     0
  0
SCALE
  5
B6B
102
{ACAD_REACTORS
330
B5C
102
}
330
B5C
100
AcDbScale
 70
     0
300
3" = 1'-0"
140
3.0
141
12.0
290
     0
  0
SCALE
  5
B6C
102
{ACAD_REACTORS
330
B5C
102
}
330
B5C
100
AcDbScale
 70
     0
300
6" = 1'-0"
140
6.0
141
12.0
290
     0
  0
SCALE
  5
B6D
102
{ACAD_REACTORS
330
B5C
102
}
330
B5C
100
AcDbScale
 70
     0
300
1'-0" = 1'-0"
140
12.0
141
12.0
290
     0
  0
TABLESTYLE
  5
31
102
{ACAD_XDICTIONARY
360
DAB
102
}
102
{ACAD_REACTORS
330
30
102
}
330
30
100
AcDbTableStyle
  3
Standard
 70
     0
 71
     0
 40
0.06
 41
0.06
280
     0
281
     0
  7
STANDARD
140
0.18
170
     2
 62
     0
 63
     7
283
     0
274
    -2
284
     1
 64
     0
275
    -2
285
     1
 65
     0
276
    -2
286
     1
 66
     0
277
    -2
287
     1
 67
     0
278
    -2
288
     1
 68
     0
279
    -2
289
     1
 69
     0
  7
STANDARD
140
0.25
170
     5
 62
     0
 63
     7
283
     0
274
    -2
284
     1
 64
     0
275
    -2
285
     1
 65
     0
276
    -2
286
     1
 66
     0
277
    -2
287
     1
 67
     0
278
    -2
288
     1
 68
     0
279
    -2
289
     1
 69
     0
  7
STANDARD
140
0.18
170
     5
 62
     0
 63
     7
283
     0
274
    -2
284
     1
 64
     0
275
    -2
285
     1
 65
     0
276
    -2
286
     1
 66
     0
277
    -2
287
     1
 67
     0
278
    -2
288
     1
 68
     0
279
    -2
289
     1
 69
     0
  0
TABLESTYLE
  5
16E2
102
{ACAD_XDICTIONARY
360
16E3
102
}
102
{ACAD_REACTORS
330
30
102
}
330
30
100
AcDbTableStyle
  3
Standard
 70
     1
 71
     0
 40
1.5
 41
0.5
280
     0
281
     0
  7
高3.2
140
0.18
170
     7
 62
     3
 63
     7
283
     0
274
    -2
284
     1
 64
     3
275
    -2
285
     1
 65
     7
276
    -2
286
     1
 66
     3
277
    -2
287
     1
 67
     3
278
    -2
288
     1
 68
     7
279
    -2
289
     1
 69
     3
  7
高3.2
140
0.25
170
     8
 62
     3
 63
     7
283
     0
274
    -2
284
     1
 64
     0
275
    -2
285
     1
 65
     0
276
    -2
286
     1
 66
     0
277
    -2
287
     1
 67
     0
278
    -2
288
     1
 68
     0
279
    -2
289
     1
 69
     0
  7
高3.2
140
0.18
170
     7
 62
     3
 63
     7
283
     0
274
    -2
284
     1
 64
     3
275
    -2
285
     1
 65
     7
276
    -2
286
     1
 66
     3
277
    -2
287
     1
 67
     3
278
    -2
288
     1
 68
     7
279
    -2
289
     1
 69
     3
  0
VISUALSTYLE
  5
1A
102
{ACAD_XDICTIONARY
360
2EE9
102
}
102
{ACAD_REACTORS
330
14
102
}
330
14
100
AcDbVisualStyle
  2

 70
     4
 71
     0
 72
     2
 73
     0
 90
        0
 40
-0.6
 41
-30.0
 62
     5
 63
     7
 74
     1
 91
        4
 64
     7
 65
   257
 75
     1
175
     1
 42
1.0
 92
        0
 66
   257
 43
1.0
 76
     1
 77
     6
 78
     2
 67
     7
 79
     5
170
     0
171
     0
290
     0
174
     0
 93
        1
 44
0.0
173
     0
291
     0
 45
0.0
1001
ACAD
1000
AcDbSavedByObjectVersion
1070
     0
  0
VISUALSTYLE
  5
1C
102
{ACAD_XDICTIONARY
360
2EED
102
}
102
{ACAD_REACTORS
330
14
102
}
330
14
100
AcDbVisualStyle
  2

 70
     6
 71
     1
 72
     2
 73
     2
 90
        0
 40
-0.6
 41
-30.0
 62
     5
 63
     7
 74
     2
 91
        2
 64
     7
 65
   257
 75
     2
175
     1
 42
40.0
 92
        0
 66
   257
 43
1.0
 76
     1
 77
     6
 78
     2
 67
     7
 79
     3
170
     0
171
     0
290
     0
174
     0
 93
        1
 44
0.0
173
     0
291
     0
 45
0.0
1001
ACAD
1000
AcDbSavedByObjectVersion
1070
     0
  0
VISUALSTYLE
  5
1B
102
{ACAD_XDICTIONARY
360
2EEB
102
}
102
{ACAD_REACTORS
330
14
102
}
330
14
100
AcDbVisualStyle
  2

 70
     5
 71
     0
 72
     2
 73
     0
 90
        0
 40
-0.6
 41
-30.0
 62
     5
 63
     7
 74
     1
 91
        4
 64
     7
 65
   257
 75
     1
175
     1
 42
1.0
 92
        0
 66
   257
 43
1.0
 76
     1
 77
     6
 78
     2
 67
     7
 79
     5
170
     0
171
     0
290
     0
174
     0
 93
        1
 44
0.0
173
     0
291
     0
 45
0.0
1001
ACAD
1000
AcDbSavedByObjectVersion
1070
     0
  0
VISUALSTYLE
  5
19
102
{ACAD_XDICTIONARY
360
2EE7
102
}
102
{ACAD_REACTORS
330
14
102
}
330
14
100
AcDbVisualStyle
  2

 70
     7
 71
     1
 72
     0
 73
     1
 90
        0
 40
-0.6
 41
-30.0
 62
     5
 63
     7
 74
     0
 91
        4
 64
     7
 65
   257
 75
     1
175
     1
 42
1.0
 92
        8
 66
     7
 43
1.0
 76
     1
 77
     6
 78
     2
 67
     7
 79
     5
170
     0
171
     0
290
     0
174
     0
 93
        1
 44
0.0
173
     0
291
     1
 45
0.0
1001
ACAD
1000
AcDbSavedByObjectVersion
1070
     0
  0
VISUALSTYLE
  5
20
102
{ACAD_XDICTIONARY
360
2EF5
102
}
102
{ACAD_REACTORS
330
14
102
}
330
14
100
AcDbVisualStyle
  2

 70
    12
 71
     2
 72
     2
 73
     0
 90
        0
 40
-0.6
 41
-30.0
 62
     5
 63
     7
 74
     1
 91
        4
 64
     7
 65
   257
 75
     1
175
     1
 42
1.0
 92
        8
 66
     7
 43
1.0
 76
     1
 77
     6
 78
     2
 67
     7
 79
     5
170
     0
171
     0
290
     0
174
     0
 93
        1
 44
50.0
173
     0
291
     1
 45
0.0
1001
ACAD
1000
AcDbSavedByObjectVersion
1070
     0
  0
VISUALSTYLE
  5
24
102
{ACAD_XDICTIONARY
360
2EFD
102
}
102
{ACAD_REACTORS
330
14
102
}
330
14
100
AcDbVisualStyle
  2

 70
    16
 71
     2
 72
     2
 73
     3
 90
        0
 40
-0.6
 41
-30.0
 62
     5
 63
     8
 74
     1
 91
        4
 64
     7
 65
   257
 75
     1
175
     1
 42
1.0
 92
        8
 66
     8
 43
1.0
 76
     1
 77
     6
 78
     2
 67
     7
 79
     5
170
     0
171
     0
290
     0
174
     0
 93
        1
 44
0.0
173
     0
291
     1
 45
0.0
1001
ACAD
1000
AcDbSavedByObjectVersion
1070
     0
  0
VISUALSTYLE
  5
1D
102
{ACAD_XDICTIONARY
360
2EEF
102
}
102
{ACAD_REACTORS
330
14
102
}
330
14
100
AcDbVisualStyle
  2

 70
     9
 71
     3
 72
     2
 73
     0
 90
        0
 40
-0.6
 41
-30.0
 62
     5
 63
     7
 74
     2
 91
        2
 64
     7
 65
   257
 75
     1
175
     1
 42
40.0
 92
        8
 66
     7
 43
1.0
 76
     1
 77
     6
 78
     2
 67
     7
 79
     3
170
     0
171
     0
290
     0
174
     0
 93
        1
 44
0.0
173
     0
291
     0
 45
0.0
1001
ACAD
1000
AcDbSavedByObjectVersion
1070
     0
  0
VISUALSTYLE
  5
1F
102
{ACAD_XDICTIONARY
360
2EF3
102
}
102
{ACAD_REACTORS
330
14
102
}
330
14
100
AcDbVisualStyle
  2

 70
    11
 71
     2
 72
     2
 73
     0
 90
        0
 40
-0.6
 41
-30.0
 62
     5
 63
     7
 74
     1
 91
        4
 64
     7
 65
   257
 75
     1
175
     1
 42
1.0
 92
        8
 66
     7
 43
1.0
 76
     1
 77
     6
 78
     2
 67
     7
 79
     5
170
     0
171
     0
290
     0
174
     0
 93
        1
 44
-50.0
173
     0
291
     1
 45
0.0
1001
ACAD
1000
AcDbSavedByObjectVersion
1070
     0
  0
VISUALSTYLE
  5
B5B
102
{ACAD_XDICTIONARY
360
2F16
102
}
102
{ACAD_REACTORS
330
14
102
}
330
14
100
AcDbVisualStyle
  2

 70
    22
 71
     2
 72
     2
 73
     0
 90
        0
 40
-0.6
 41
-30.0
 62
     5
 63
     7
 74
     1
 91
        4
 64
     7
 65
   257
 75
     1
175
     1
 42
1.0
 92
        8
 66
     7
 43
1.0
 76
     1
 77
     6
 78
     2
 67
     7
 79
     5
170
     0
171
     0
290
     0
174
     0
 93
        1
 44
0.0
173
     0
291
     1
 45
0.0
1001
ACAD
1000
AcDbSavedByObjectVersion
1070
     0
  0
VISUALSTYLE
  5
23
102
{ACAD_XDICTIONARY
360
2EFB
102
}
102
{ACAD_REACTORS
330
14
102
}
330
14
100
AcDbVisualStyle
  2

 70
    15
 71
     2
 72
     2
 73
     0
 90
        0
 40
-0.6
 41
-30.0
 62
     5
 63
     7
 74
     1
 91
        4
 64
     7
 65
   257
 75
     1
175
     1
 42
1.0
 92
        8
 66
     7
 43
1.0
 76
     1
 77
     6
 78
     2
 67
     7
 79
     5
170
     0
171
     0
290
     0
174
     0
 93
        1
 44
0.0
173
     0
291
     1
 45
0.0
1001
ACAD
1000
AcDbSavedByObjectVersion
1070
     0
  0
VISUALSTYLE
  5
15
102
{ACAD_XDICTIONARY
360
2EDF
102
}
102
{ACAD_REACTORS
330
14
102
}
330
14
100
AcDbVisualStyle
  2

 70
     0
 71
     2
 72
     1
 73
     1
 90
        2
 40
-0.6
 41
30.0
 62
     5
 63
     7
 74
     0
 91
        4
 64
     7
 65
   257
 75
     1
175
     1
 42
1.0
 92
        8
 66
     7
 43
1.0
 76
     1
 77
     6
 78
     2
 67
     7
 79
     5
170
     0
171
     0
290
     0
174
     0
 93
       13
 44
0.0
173
     0
291
     1
 45
0.0
1001
ACAD
1000
AcDbSavedByObjectVersion
1070
     0
  0
VISUALSTYLE
  5
16
102
{ACAD_XDICTIONARY
360
2EE1
102
}
102
{ACAD_REACTORS
330
14
102
}
330
14
100
AcDbVisualStyle
  2

 70
     1
 71
     2
 72
     1
 73
     1
 90
        2
 40
-0.6
 41
30.0
 62
     5
 63
     7
 74
     1
 91
        4
 64
     7
 65
   257
 75
     1
175
     1
 42
1.0
 92
        0
 66
   257
 43
1.0
 76
     1
 77
     6
 78
     2
 67
     7
 79
     5
170
     0
171
     0
290
     0
174
     0
 93
       13
 44
0.0
173
     0
291
     1
 45
0.0
1001
ACAD
1000
AcDbSavedByObjectVersion
1070
     0
  0
VISUALSTYLE
  5
17
102
{ACAD_XDICTIONARY
360
2EE3
102
}
102
{ACAD_REACTORS
330
14
102
}
330
14
100
AcDbVisualStyle
  2

 70
     2
 71
     2
 72
     2
 73
     1
 90
        2
 40
-0.6
 41
30.0
 62
     5
 63
     7
 74
     0
 91
        4
 64
     7
 65
   257
 75
     1
175
     1
 42
1.0
 92
        0
 66
     7
 43
1.0
 76
     1
 77
     6
 78
     2
 67
     7
 79
     5
170
     0
171
     0
290
     0
174
     0
 93
       13
 44
0.0
173
     0
291
     1
 45
0.0
1001
ACAD
1000
AcDbSavedByObjectVersion
1070
     0
  0
VISUALSTYLE
  5
18
102
{ACAD_XDICTIONARY
360
2EE5
102
}
102
{ACAD_REACTORS
330
14
102
}
330
14
100
AcDbVisualStyle
  2

 70
     3
 71
     2
 72
     2
 73
     1
 90
        2
 40
-0.6
 41
30.0
 62
     5
 63
     7
 74
     1
 91
        4
 64
     7
 65
   257
 75
     1
175
     1
 42
1.0
 92
        0
 66
   257
 43
1.0
 76
     1
 77
     6
 78
     2
 67
     7
 79
     5
170
     0
171
     0
290
     0
174
     0
 93
       13
 44
0.0
173
     0
291
     1
 45
0.0
1001
ACAD
1000
AcDbSavedByObjectVersion
1070
     0
  0
VISUALSTYLE
  5
B53
102
{ACAD_XDICTIONARY
360
2F06
102
}
102
{ACAD_REACTORS
330
14
102
}
330
14
100
AcDbVisualStyle
  2

 70
     6
 71
     1
 72
     2
 73
     2
 90
        0
 40
-0.6
 41
-30.0
 62
     5
 63
     7
 74
     2
 91
        2
 64
     7
 65
   257
 75
     2
175
     1
 42
40.0
 92
        0
 66
   257
 43
1.0
 76
     1
 77
     6
 78
     2
 67
     7
 79
     3
170
     0
171
     0
290
     0
174
     0
 93
        1
 44
0.0
173
     0
291
     0
 45
0.0
1001
ACAD
1000
AcDbSavedByObjectVersion
1070
     0
  0
VISUALSTYLE
  5
B59
102
{ACAD_XDICTIONARY
360
2F12
102
}
102
{ACAD_REACTORS
330
14
102
}
330
14
100
AcDbVisualStyle
  2

 70
    20
 71
     2
 72
     2
 73
     0
 90
        0
 40
-0.6
 41
-30.0
 62
     5
 63
     7
 74
     1
 91
        4
 64
     7
 65
   257
 75
     1
175
     1
 42
1.0
 92
       10
 66
     7
 43
1.0
 76
     1
 77
     6
 78
     2
 67
     7
 79
     5
170
     0
171
     0
290
     0
174
     0
 93
        1
 44
0.0
173
     0
291
     1
 45
0.0
1001
ACAD
1000
AcDbSavedByObjectVersion
1070
     0
  0
VISUALSTYLE
  5
22
102
{ACAD_XDICTIONARY
360
2EF9
102
}
102
{ACAD_REACTORS
330
14
102
}
330
14
100
AcDbVisualStyle
  2

 70
    14
 71
     2
 72
     2
 73
     0
 90
        0
 40
-0.6
 41
-30.0
 62
     5
 63
     7
 74
     1
 91
        4
 64
     7
 65
   257
 75
     7
175
     7
 42
1.0
 92
        8
 66
     7
 43
1.0
 76
     1
 77
     6
 78
     2
 67
     7
 79
     5
170
     0
171
     0
290
     0
174
     0
 93
        1
 44
0.0
173
     0
291
     1
 45
0.0
1001
ACAD
1000
AcDbSavedByObjectVersion
1070
     0
  0
VISUALSTYLE
  5
B5A
102
{ACAD_XDICTIONARY
360
2F14
102
}
102
{ACAD_REACTORS
330
14
102
}
330
14
100
AcDbVisualStyle
  2

 70
    21
 71
     2
 72
     2
 73
     0
 90
        0
 40
-0.6
 41
-30.0
 62
     5
 63
     7
 74
     1
 91
        4
 64
     7
 65
   257
 75
     1
175
     1
 42
1.0
 92
        9
 66
     7
 43
1.0
 76
     1
 77
     6
 78
     2
 67
     7
 79
     5
170
     0
171
     0
290
     0
174
     0
 93
        1
 44
0.0
173
     0
291
     1
 45
0.0
1001
ACAD
1000
AcDbSavedByObjectVersion
1070
     0
  0
VISUALSTYLE
  5
1E
102
{ACAD_XDICTIONARY
360
2EF1
102
}
102
{ACAD_REACTORS
330
14
102
}
330
14
100
AcDbVisualStyle
  2

 70
     8
 71
     2
 72
     2
 73
     0
 90
        0
 40
-0.6
 41
-30.0
 62
     5
 63
     7
 74
     1
 91
        0
 64
     7
 65
   257
 75
     1
175
     1
 42
1.0
 92
        8
 66
     8
 43
1.0
 76
     1
 77
     6
 78
     2
 67
     7
 79
     5
170
     0
171
     0
290
     0
174
     0
 93
       13
 44
0.0
173
     0
291
     0
 45
0.0
1001
ACAD
1000
AcDbSavedByObjectVersion
1070
     0
  0
VISUALSTYLE
  5
B58
102
{ACAD_XDICTIONARY
360
2F10
102
}
102
{ACAD_REACTORS
330
14
102
}
330
14
100
AcDbVisualStyle
  2

 70
    27
 71
     2
 72
     2
 73
     1
 90
        2
 40
-0.6
 41
30.0
 62
     5
 63
     7
 74
     0
 91
        4
 64
     7
 65
   257
 75
     1
175
     1
 42
1.0
 92
        8
 66
   257
 43
1.0
 76
     1
 77
     6
 78
     2
 67
     8
 79
     3
170
     0
171
     0
290
     0
174
     0
 93
        5
 44
0.0
173
     0
291
     0
 45
0.0
1001
ACAD
1000
AcDbSavedByObjectVersion
1070
     0
  0
VISUALSTYLE
  5
B57
102
{ACAD_XDICTIONARY
360
2F0E
102
}
102
{ACAD_REACTORS
330
14
102
}
330
14
100
AcDbVisualStyle
  2

 70
    26
 71
     2
 72
     2
 73
     1
 90
        2
 40
-0.6
 41
30.0
 62
     5
 63
     7
 74
     1
 91
       10
 64
     7
 65
   257
 75
     2
175
     1
 42
1.0
 92
        8
 66
   257
 43
1.0
 76
     1
 77
     6
 78
     2
 67
     7
 79
     3
170
     0
171
     0
290
     0
174
     0
 93
        5
 44
0.0
173
     0
291
     0
 45
0.0
1001
ACAD
1000
AcDbSavedByObjectVersion
1070
     0
  0
VISUALSTYLE
  5
B54
102
{ACAD_XDICTIONARY
360
2F08
102
}
102
{ACAD_REACTORS
330
14
102
}
330
14
100
AcDbVisualStyle
  2

 70
    23
 71
     2
 72
     2
 73
     3
 90
        0
 40
-0.6
 41
-30.0
 62
     5
 63
     7
 74
     2
 91
        2
 64
     7
 65
     7
 75
     1
175
     1
 42
40.0
 92
        8
 66
     7
 43
1.0
 76
     1
 77
     6
 78
     2
 67
     7
 79
     3
170
     0
171
     0
290
     0
174
     0
 93
        1
 44
0.0
173
     0
291
     0
 45
0.0
1001
ACAD
1000
AcDbSavedByObjectVersion
1070
     0
  0
VISUALSTYLE
  5
B55
102
{ACAD_XDICTIONARY
360
2F0A
102
}
102
{ACAD_REACTORS
330
14
102
}
330
14
100
AcDbVisualStyle
  2

 70
    24
 71
     1
 72
     2
 73
     2
 90
        0
 40
-0.6
 41
-30.0
 62
     5
 63
     7
 74
     2
 91
        2
 64
     7
 65
     7
 75
     1
175
     1
 42
40.0
 92
       11
 66
     7
 43
1.0
 76
     1
 77
     6
 78
     2
 67
     7
 79
     6
170
     0
171
     0
290
     0
174
     0
 93
        1
 44
0.0
173
     0
291
     0
 45
0.0
1001
ACAD
1000
AcDbSavedByObjectVersion
1070
     0
  0
VISUALSTYLE
  5
21
102
{ACAD_XDICTIONARY
360
2EF7
102
}
102
{ACAD_REACTORS
330
14
102
}
330
14
100
AcDbVisualStyle
  2

 70
    13
 71
     2
 72
     2
 73
     0
 90
        0
 40
-0.6
 41
-30.0
 62
     5
 63
     7
 74
     1
 91
        4
 64
     7
 65
   257
 75
     1
175
     1
 42
1.0
 92
       12
 66
     7
 43
1.0
 76
     1
 77
     6
 78
     2
 67
     7
 79
     5
170
     0
171
     0
290
     0
174
     0
 93
        1
 44
0.0
173
     0
291
     1
 45
0.0
1001
ACAD
1000
AcDbSavedByObjectVersion
1070
     0
  0
VISUALSTYLE
  5
B52
102
{ACAD_XDICTIONARY
360
2F04
102
}
102
{ACAD_REACTORS
330
14
102
}
330
14
100
AcDbVisualStyle
  2

 70
     5
 71
     0
 72
     2
 73
     0
 90
        0
 40
-0.6
 41
-30.0
 62
     5
 63
     7
 74
     1
 91
        4
 64
     7
 65
   257
 75
     1
175
     1
 42
1.0
 92
        0
 66
   257
 43
1.0
 76
     1
 77
     6
 78
     2
 67
     7
 79
     3
170
     0
171
     0
290
     0
174
     0
 93
        1
 44
0.0
173
     0
291
     0
 45
0.0
1001
ACAD
1000
AcDbSavedByObjectVersion
1070
     0
  0
VISUALSTYLE
  5
B56
102
{ACAD_XDICTIONARY
360
2F0C
102
}
102
{ACAD_REACTORS
330
14
102
}
330
14
100
AcDbVisualStyle
  2

 70
    25
 71
     2
 72
     2
 73
     1
 90
        1
 40
0.5
 41
-30.0
 62
     5
 63
     7
 74
     1
 91
        0
 64
     7
 65
   257
 75
     1
175
     1
 42
1.0
 92
        8
 66
     7
 43
1.0
 76
     1
 77
     6
 78
     2
 67
     7
 79
     3
170
     0
171
     0
290
     0
174
     0
 93
       13
 44
0.0
173
     0
291
     0
 45
0.0
1001
ACAD
1000
AcDbSavedByObjectVersion
1070
     0
  0
DICTIONARYVAR
  5
DA9
102
{ACAD_REACTORS
330
2BD
102
}
330
2BD
100
DictionaryVariables
280
     0
  1
1:1
  0
DICTIONARYVAR
  5
DA8
102
{ACAD_REACTORS
330
2BD
102
}
330
2BD
100
DictionaryVariables
280
     0
  1
STANDARD
  0
DICTIONARYVAR
  5
2BE
102
{ACAD_REACTORS
330
2BD
102
}
330
2BD
100
DictionaryVariables
280
     0
  1
STANDARD
  0
DICTIONARYVAR
  5
2C7
102
{ACAD_REACTORS
330
2BD
102
}
330
2BD
100
DictionaryVariables
280
     0
  1
1
  0
DICTIONARYVAR
  5
2C6
102
{ACAD_REACTORS
330
2BD
102
}
330
2BD
100
DictionaryVariables
280
     0
  1
0
  0
DICTIONARYVAR
  5
2C5
102
{ACAD_REACTORS
330
2BD
102
}
330
2BD
100
DictionaryVariables
280
     0
  1
127
  0
DICTIONARYVAR
  5
2D47
102
{ACAD_REACTORS
330
2BD
102
}
330
2BD
100
DictionaryVariables
280
     0
  1
2
  0
DICTIONARY
  5
2F02
330
39
100
AcDbDictionary
280
     1
281
     1
  3
ACAD_XREC_ROUNDTRIP
360
2F03
  0
DICTIONARY
  5
2F00
330
35
100
AcDbDictionary
280
     1
281
     1
  3
ACAD_XREC_ROUNDTRIP
360
2F01
  0
DICTIONARY
  5
2CB
330
12
100
AcDbDictionary
280
     1
281
     1
  3
ACAD_XREC_ROUNDTRIP
360
2CC
  0
DICTIONARY
  5
2C9
330
11
100
AcDbDictionary
280
     1
281
     1
  3
ACAD_XREC_ROUNDTRIP
360
2CA
  0
DICTIONARY
  5
2CD
330
13
100
AcDbDictionary
280
     1
281
     1
  3
ACAD_XREC_ROUNDTRIP
360
2CE
  0
DICTIONARY
  5
DAB
330
31
100
AcDbDictionary
280
     1
281
     1
  3
ACAD_ROUNDTRIP_2008_TABLESTYLE_CELLSTYLEMAP
360
2ED7
  3
ACAD_XREC_ROUNDTRIP
360
2EFF
  0
DICTIONARY
  5
16E3
330
16E2
100
AcDbDictionary
280
     1
281
     1
  3
ACAD_ROUNDTRIP_2008_TABLESTYLE_CELLSTYLEMAP
360
2ED8
  3
ACAD_XREC_ROUNDTRIP
360
2F18
  0
DICTIONARY
  5
2EE9
330
1A
100
AcDbDictionary
280
     1
281
     1
  3
ACAD_XREC_ROUNDTRIP
360
2EEA
  0
DICTIONARY
  5
2EED
330
1C
100
AcDbDictionary
280
     1
281
     1
  3
ACAD_XREC_ROUNDTRIP
360
2EEE
  0
DICTIONARY
  5
2EEB
330
1B
100
AcDbDictionary
280
     1
281
     1
  3
ACAD_XREC_ROUNDTRIP
360
2EEC
  0
DICTIONARY
  5
2EE7
330
19
100
AcDbDictionary
280
     1
281
     1
  3
ACAD_XREC_ROUNDTRIP
360
2EE8
  0
DICTIONARY
  5
2EF5
330
20
100
AcDbDictionary
280
     1
281
     1
  3
ACAD_XREC_ROUNDTRIP
360
2EF6
  0
DICTIONARY
  5
2EFD
330
24
100
AcDbDictionary
280
     1
281
     1
  3
ACAD_XREC_ROUNDTRIP
360
2EFE
  0
DICTIONARY
  5
2EEF
330
1D
100
AcDbDictionary
280
     1
281
     1
  3
ACAD_XREC_ROUNDTRIP
360
2EF0
  0
DICTIONARY
  5
2EF3
330
1F
100
AcDbDictionary
280
     1
281
     1
  3
ACAD_XREC_ROUNDTRIP
360
2EF4
  0
DICTIONARY
  5
2F16
330
B5B
100
AcDbDictionary
280
     1
281
     1
  3
ACAD_XREC_ROUNDTRIP
360
2F17
  0
DICTIONARY
  5
2EFB
330
23
100
AcDbDictionary
280
     1
281
     1
  3
ACAD_XREC_ROUNDTRIP
360
2EFC
  0
DICTIONARY
  5
2EDF
330
15
100
AcDbDictionary
280
     1
281
     1
  3
ACAD_XREC_ROUNDTRIP
360
2EE0
  0
DICTIONARY
  5
2EE1
330
16
100
AcDbDictionary
280
     1
281
     1
  3
ACAD_XREC_ROUNDTRIP
360
2EE2
  0
DICTIONARY
  5
2EE3
330
17
100
AcDbDictionary
280
     1
281
     1
  3
ACAD_XREC_ROUNDTRIP
360
2EE4
  0
DICTIONARY
  5
2EE5
330
18
100
AcDbDictionary
280
     1
281
     1
  3
ACAD_XREC_ROUNDTRIP
360
2EE6
  0
DICTIONARY
  5
2F06
330
B53
100
AcDbDictionary
280
     1
281
     1
  3
ACAD_XREC_ROUNDTRIP
360
2F07
  0
DICTIONARY
  5
2F12
330
B59
100
AcDbDictionary
280
     1
281
     1
  3
ACAD_XREC_ROUNDTRIP
360
2F13
  0
DICTIONARY
  5
2EF9
330
22
100
AcDbDictionary
280
     1
281
     1
  3
ACAD_XREC_ROUNDTRIP
360
2EFA
  0
DICTIONARY
  5
2F14
330
B5A
100
AcDbDictionary
280
     1
281
     1
  3
ACAD_XREC_ROUNDTRIP
360
2F15
  0
DICTIONARY
  5
2EF1
330
1E
100
AcDbDictionary
280
     1
281
     1
  3
ACAD_XREC_ROUNDTRIP
360
2EF2
  0
DICTIONARY
  5
2F10
330
B58
100
AcDbDictionary
280
     1
281
     1
  3
ACAD_XREC_ROUNDTRIP
360
2F11
  0
DICTIONARY
  5
2F0E
330
B57
100
AcDbDictionary
280
     1
281
     1
  3
ACAD_XREC_ROUNDTRIP
360
2F0F
  0
DICTIONARY
  5
2F08
330
B54
100
AcDbDictionary
280
     1
281
     1
  3
ACAD_XREC_ROUNDTRIP
360
2F09
  0
DICTIONARY
  5
2F0A
330
B55
100
AcDbDictionary
280
     1
281
     1
  3
ACAD_XREC_ROUNDTRIP
360
2F0B
  0
DICTIONARY
  5
2EF7
330
21
100
AcDbDictionary
280
     1
281
     1
  3
ACAD_XREC_ROUNDTRIP
360
2EF8
  0
DICTIONARY
  5
2F04
330
B52
100
AcDbDictionary
280
     1
281
     1
  3
ACAD_XREC_ROUNDTRIP
360
2F05
  0
DICTIONARY
  5
2F0C
330
B56
100
AcDbDictionary
280
     1
281
     1
  3
ACAD_XREC_ROUNDTRIP
360
2F0D
  0
XRECORD
  5
2F03
102
{ACAD_REACTORS
330
2F02
102
}
330
2F02
100
AcDbXrecord
280
     1
102
SHADEPLOT
 70
     0
102
SHADEPLOTRESLEVEL
 70
     2
102
SHADEPLOTCUSTOMDPI
 70
   300
  0
XRECORD
  5
2F01
102
{ACAD_REACTORS
330
2F00
102
}
330
2F00
100
AcDbXrecord
280
     1
102
SHADEPLOT
 70
     0
102
SHADEPLOTRESLEVEL
 70
     2
102
SHADEPLOTCUSTOMDPI
 70
   300
  0
XRECORD
  5
2CC
102
{ACAD_REACTORS
330
2CB
102
}
330
2CB
100
AcDbXrecord
280
     1
102
MATERIAL
148
0.0
149
0.0
149
0.0
 93
        0
 94
      127
282
     0
 72
     1
 77
     1
171
     1
175
     1
179
     1
273
     0
  0
XRECORD
  5
2CA
102
{ACAD_REACTORS
330
2C9
102
}
330
2C9
100
AcDbXrecord
280
     1
102
MATERIAL
148
0.0
149
0.0
149
0.0
 93
        0
 94
      127
282
     0
 72
     1
 77
     1
171
     1
175
     1
179
     1
273
     0
  0
XRECORD
  5
2CE
102
{ACAD_REACTORS
330
2CD
102
}
330
2CD
100
AcDbXrecord
280
     1
102
MATERIAL
148
0.0
149
0.0
149
0.0
 93
        0
 94
      127
282
     0
 72
     1
 77
     1
171
     1
175
     1
179
     1
273
     0
  0
CELLSTYLEMAP
  5
2ED7
102
{ACAD_REACTORS
330
DAB
102
}
330
DAB
100
AcDbCellStyleMap
 90
        3
300
CELLSTYLE
  1
TABLEFORMAT_BEGIN
 90
        5
170
     1
 91
        0
 92
    32768
 62
   257
 93
        1
300
CONTENTFORMAT
  1
CONTENTFORMAT_BEGIN
 90
        0
 91
        0
 92
      512
 93
        0
300

 40
0.0
140
1.0
 94
        5
 62
     0
340
26
144
0.25
309
CONTENTFORMAT_END
171
     1
301
MARGIN
  1
CELLMARGIN_BEGIN
 40
0.06
 40
0.06
 40
0.06
 40
0.06
 40
0.18
 40
0.18
309
CELLMARGIN_END
 94
        6
 95
        1
302
GRIDFORMAT
  1
GRIDFORMAT_BEGIN
 90
        0
 91
        1
 62
     0
 92
       -2
340
0
 93
        0
 40
0.045
309
GRIDFORMAT_END
 95
        2
302
GRIDFORMAT
  1
GRIDFORMAT_BEGIN
 90
        0
 91
        1
 62
     0
 92
       -2
340
0
 93
        0
 40
0.045
309
GRIDFORMAT_END
 95
        4
302
GRIDFORMAT
  1
GRIDFORMAT_BEGIN
 90
        0
 91
        1
 62
     0
 92
       -2
340
0
 93
        0
 40
0.045
309
GRIDFORMAT_END
 95
        8
302
GRIDFORMAT
  1
GRIDFORMAT_BEGIN
 90
        0
 91
        1
 62
     0
 92
       -2
340
0
 93
        0
 40
0.045
309
GRIDFORMAT_END
 95
       16
302
GRIDFORMAT
  1
GRIDFORMAT_BEGIN
 90
        0
 91
        1
 62
     0
 92
       -2
340
0
 93
        0
 40
0.045
309
GRIDFORMAT_END
 95
       32
302
GRIDFORMAT
  1
GRIDFORMAT_BEGIN
 90
        0
 91
        1
 62
     0
 92
       -2
340
0
 93
        0
 40
0.045
309
GRIDFORMAT_END
309
TABLEFORMAT_END
  1
CELLSTYLE_BEGIN
 90
        1
 91
        1
300
_TITLE
309
CELLSTYLE_END
300
CELLSTYLE
  1
TABLEFORMAT_BEGIN
 90
        5
170
     1
 91
        0
 92
        0
 62
   257
 93
        1
300
CONTENTFORMAT
  1
CONTENTFORMAT_BEGIN
 90
        0
 91
        0
 92
      512
 93
        0
300

 40
0.0
140
1.0
 94
        5
 62
     0
340
26
144
0.18
309
CONTENTFORMAT_END
171
     1
301
MARGIN
  1
CELLMARGIN_BEGIN
 40
0.06
 40
0.06
 40
0.06
 40
0.06
 40
0.18
 40
0.18
309
CELLMARGIN_END
 94
        6
 95
        1
302
GRIDFORMAT
  1
GRIDFORMAT_BEGIN
 90
        0
 91
        1
 62
     0
 92
       -2
340
0
 93
        0
 40
0.045
309
GRIDFORMAT_END
 95
        2
302
GRIDFORMAT
  1
GRIDFORMAT_BEGIN
 90
        0
 91
        1
 62
     0
 92
       -2
340
0
 93
        0
 40
0.045
309
GRIDFORMAT_END
 95
        4
302
GRIDFORMAT
  1
GRIDFORMAT_BEGIN
 90
        0
 91
        1
 62
     0
 92
       -2
340
0
 93
        0
 40
0.045
309
GRIDFORMAT_END
 95
        8
302
GRIDFORMAT
  1
GRIDFORMAT_BEGIN
 90
        0
 91
        1
 62
     0
 92
       -2
340
0
 93
        0
 40
0.045
309
GRIDFORMAT_END
 95
       16
302
GRIDFORMAT
  1
GRIDFORMAT_BEGIN
 90
        0
 91
        1
 62
     0
 92
       -2
340
0
 93
        0
 40
0.045
309
GRIDFORMAT_END
 95
       32
302
GRIDFORMAT
  1
GRIDFORMAT_BEGIN
 90
        0
 91
        1
 62
     0
 92
       -2
340
0
 93
        0
 40
0.045
309
GRIDFORMAT_END
309
TABLEFORMAT_END
  1
CELLSTYLE_BEGIN
 90
        2
 91
        1
300
_HEADER
309
CELLSTYLE_END
300
CELLSTYLE
  1
TABLEFORMAT_BEGIN
 90
        5
170
     1
 91
        0
 92
        0
 62
   257
 93
        1
300
CONTENTFORMAT
  1
CONTENTFORMAT_BEGIN
 90
        0
 91
        0
 92
      512
 93
        0
300

 40
0.0
140
1.0
 94
        2
 62
     0
340
26
144
0.18
309
CONTENTFORMAT_END
171
     1
301
MARGIN
  1
CELLMARGIN_BEGIN
 40
0.06
 40
0.06
 40
0.06
 40
0.06
 40
0.18
 40
0.18
309
CELLMARGIN_END
 94
        6
 95
        1
302
GRIDFORMAT
  1
GRIDFORMAT_BEGIN
 90
        0
 91
        1
 62
     0
 92
       -2
340
0
 93
        0
 40
0.045
309
GRIDFORMAT_END
 95
        2
302
GRIDFORMAT
  1
GRIDFORMAT_BEGIN
 90
        0
 91
        1
 62
     0
 92
       -2
340
0
 93
        0
 40
0.045
309
GRIDFORMAT_END
 95
        4
302
GRIDFORMAT
  1
GRIDFORMAT_BEGIN
 90
        0
 91
        1
 62
     0
 92
       -2
340
0
 93
        0
 40
0.045
309
GRIDFORMAT_END
 95
        8
302
GRIDFORMAT
  1
GRIDFORMAT_BEGIN
 90
        0
 91
        1
 62
     0
 92
       -2
340
0
 93
        0
 40
0.045
309
GRIDFORMAT_END
 95
       16
302
GRIDFORMAT
  1
GRIDFORMAT_BEGIN
 90
        0
 91
        1
 62
     0
 92
       -2
340
0
 93
        0
 40
0.045
309
GRIDFORMAT_END
 95
       32
302
GRIDFORMAT
  1
GRIDFORMAT_BEGIN
 90
        0
 91
        1
 62
     0
 92
       -2
340
0
 93
        0
 40
0.045
309
GRIDFORMAT_END
309
TABLEFORMAT_END
  1
CELLSTYLE_BEGIN
 90
        3
 91
        2
300
_DATA
309
CELLSTYLE_END
  0
XRECORD
  5
2EFF
102
{ACAD_REACTORS
330
DAB
102
}
330
DAB
100
AcDbXrecord
280
     1
102
ACAD_ROUNDTRIP_PRE2007_TABLESTYLE
 90
      512
 91
        0
  1

 92
      512
 93
        0
  2

 94
      512
 95
        0
  3

  0
CELLSTYLEMAP
  5
2ED8
102
{ACAD_REACTORS
330
16E3
102
}
330
16E3
100
AcDbCellStyleMap
 90
        3
300
CELLSTYLE
  1
TABLEFORMAT_BEGIN
 90
        5
170
     1
 91
        0
 92
    32768
 62
   257
 93
        1
300
CONTENTFORMAT
  1
CONTENTFORMAT_BEGIN
 90
        0
 91
        0
 92
      512
 93
        0
300

 40
0.0
140
1.0
 94
        8
 62
     3
340
9E3
144
0.25
309
CONTENTFORMAT_END
171
     1
301
MARGIN
  1
CELLMARGIN_BEGIN
 40
0.5
 40
10.0
 40
0.06
 40
0.06
 40
0.18
 40
0.18
309
CELLMARGIN_END
 94
        6
 95
        1
302
GRIDFORMAT
  1
GRIDFORMAT_BEGIN
 90
        0
 91
        1
 62
     0
 92
       -2
340
0
 93
        0
 40
0.045
309
GRIDFORMAT_END
 95
        2
302
GRIDFORMAT
  1
GRIDFORMAT_BEGIN
 90
        0
 91
        1
 62
     0
 92
       -2
340
0
 93
        0
 40
0.045
309
GRIDFORMAT_END
 95
        4
302
GRIDFORMAT
  1
GRIDFORMAT_BEGIN
 90
        0
 91
        1
 62
     0
 92
       -2
340
0
 93
        0
 40
0.045
309
GRIDFORMAT_END
 95
        8
302
GRIDFORMAT
  1
GRIDFORMAT_BEGIN
 90
        0
 91
        1
 62
     0
 92
       -2
340
0
 93
        0
 40
0.045
309
GRIDFORMAT_END
 95
       16
302
GRIDFORMAT
  1
GRIDFORMAT_BEGIN
 90
        0
 91
        1
 62
     0
 92
       -2
340
0
 93
        0
 40
0.045
309
GRIDFORMAT_END
 95
       32
302
GRIDFORMAT
  1
GRIDFORMAT_BEGIN
 90
        0
 91
        1
 62
     0
 92
       -2
340
0
 93
        0
 40
0.045
309
GRIDFORMAT_END
309
TABLEFORMAT_END
  1
CELLSTYLE_BEGIN
 90
        1
 91
        1
300
_TITLE
309
CELLSTYLE_END
300
CELLSTYLE
  1
TABLEFORMAT_BEGIN
 90
        5
170
     1
 91
        0
 92
        0
 62
   257
 93
        1
300
CONTENTFORMAT
  1
CONTENTFORMAT_BEGIN
 90
        0
 91
        0
 92
      512
 93
        0
300

 40
0.0
140
1.0
 94
        7
 62
     3
340
9E3
144
0.18
309
CONTENTFORMAT_END
171
     1
301
MARGIN
  1
CELLMARGIN_BEGIN
 40
0.5
 40
1.5
 40
0.06
 40
0.06
 40
0.18
 40
0.18
309
CELLMARGIN_END
 94
        6
 95
        1
302
GRIDFORMAT
  1
GRIDFORMAT_BEGIN
 90
        0
 91
        1
 62
     3
 92
       -2
340
28
 93
        0
 40
0.045
309
GRIDFORMAT_END
 95
        2
302
GRIDFORMAT
  1
GRIDFORMAT_BEGIN
 90
        0
 91
        1
 62
     7
 92
       -2
340
28
 93
        0
 40
0.045
309
GRIDFORMAT_END
 95
        4
302
GRIDFORMAT
  1
GRIDFORMAT_BEGIN
 90
        0
 91
        1
 62
     3
 92
       -2
340
28
 93
        0
 40
0.045
309
GRIDFORMAT_END
 95
        8
302
GRIDFORMAT
  1
GRIDFORMAT_BEGIN
 90
        0
 91
        1
 62
     3
 92
       -2
340
28
 93
        0
 40
0.045
309
GRIDFORMAT_END
 95
       16
302
GRIDFORMAT
  1
GRIDFORMAT_BEGIN
 90
        0
 91
        1
 62
     7
 92
       -2
340
28
 93
        0
 40
0.045
309
GRIDFORMAT_END
 95
       32
302
GRIDFORMAT
  1
GRIDFORMAT_BEGIN
 90
        0
 91
        1
 62
     3
 92
       -2
340
28
 93
        0
 40
0.045
309
GRIDFORMAT_END
309
TABLEFORMAT_END
  1
CELLSTYLE_BEGIN
 90
        2
 91
        1
300
_HEADER
309
CELLSTYLE_END
300
CELLSTYLE
  1
TABLEFORMAT_BEGIN
 90
        5
170
     1
 91
        0
 92
        0
 62
   257
 93
        1
300
CONTENTFORMAT
  1
CONTENTFORMAT_BEGIN
 90
        0
 91
        0
 92
      512
 93
        0
300

 40
0.0
140
1.0
 94
        7
 62
     3
340
9E3
144
0.18
309
CONTENTFORMAT_END
171
     1
301
MARGIN
  1
CELLMARGIN_BEGIN
 40
0.5
 40
1.5
 40
0.06
 40
0.06
 40
0.18
 40
0.18
309
CELLMARGIN_END
 94
        6
 95
        1
302
GRIDFORMAT
  1
GRIDFORMAT_BEGIN
 90
        0
 91
        1
 62
     3
 92
       -2
340
28
 93
        0
 40
0.045
309
GRIDFORMAT_END
 95
        2
302
GRIDFORMAT
  1
GRIDFORMAT_BEGIN
 90
        0
 91
        1
 62
     7
 92
       -2
340
28
 93
        0
 40
0.045
309
GRIDFORMAT_END
 95
        4
302
GRIDFORMAT
  1
GRIDFORMAT_BEGIN
 90
        0
 91
        1
 62
     3
 92
       -2
340
28
 93
        0
 40
0.045
309
GRIDFORMAT_END
 95
        8
302
GRIDFORMAT
  1
GRIDFORMAT_BEGIN
 90
        0
 91
        1
 62
     3
 92
       -2
340
28
 93
        0
 40
0.045
309
GRIDFORMAT_END
 95
       16
302
GRIDFORMAT
  1
GRIDFORMAT_BEGIN
 90
        0
 91
        1
 62
     7
 92
       -2
340
28
 93
        0
 40
0.045
309
GRIDFORMAT_END
 95
       32
302
GRIDFORMAT
  1
GRIDFORMAT_BEGIN
 90
        0
 91
        1
 62
     3
 92
       -2
340
28
 93
        0
 40
0.045
309
GRIDFORMAT_END
309
TABLEFORMAT_END
  1
CELLSTYLE_BEGIN
 90
        3
 91
        2
300
_DATA
309
CELLSTYLE_END
  0
XRECORD
  5
2F18
102
{ACAD_REACTORS
330
16E3
102
}
330
16E3
100
AcDbXrecord
280
     1
102
ACAD_ROUNDTRIP_PRE2007_TABLESTYLE
 90
      512
 91
        0
  1

 92
      512
 93
        0
  2

 94
      512
 95
        0
  3

  0
XRECORD
  5
2EEA
102
{ACAD_REACTORS
330
2EE9
102
}
330
2EE9
100
AcDbXrecord
280
     1
102
RTVSPropertyOp0
 70
     1
102
RTVSPropertyOp1
 70
     1
102
RTVSPropertyOp2
 70
     1
102
RTVSPropertyOp3
 70
     1
102
RTVSPropertyOp4
 70
     1
102
RTVSPropertyOp5
 70
     1
102
RTVSPropertyOp6
 70
     1
102
RTVSPropertyOp7
 70
     1
102
RTVSPropertyOp8
 70
     1
102
RTVSPropertyOp9
 70
     1
102
RTVSPropertyOp10
 70
     1
102
RTVSPropertyOp11
 70
     1
102
RTVSPropertyOp12
 70
     1
102
RTVSPropertyOp13
 70
     1
102
RTVSPropertyOp14
 70
     1
102
RTVSPropertyOp15
 70
     1
102
RTVSPropertyOp16
 70
     1
102
RTVSPropertyOp17
 70
     1
102
RTVSPropertyOp18
 70
     1
102
RTVSPropertyOp19
 70
     1
102
RTVSPropertyOp20
 70
     1
102
RTVSPropertyOp21
 70
     1
102
RTVSPropertyOp22
 70
     1
102
RTVSPropertyOp23
 70
     1
102
RTVSPropertyOp24
 70
     1
102
RTVSPropertyOp25
 70
     1
102
RTVSPropertyOp26
 70
     1
102
RTVSPropertyOp27
 70
     1
102
RTVSPropertyOp28
 70
     1
102
RTVSPropertyOp29
 70
     1
102
RTVSPropertyOp30
 70
     1
102
RTVSPropertyOp31
 70
     1
102
RTVSPropertyOp32
 70
     1
  0
XRECORD
  5
2EEE
102
{ACAD_REACTORS
330
2EED
102
}
330
2EED
100
AcDbXrecord
280
     1
102
RTVSPropertyOp0
 70
     1
102
RTVSPropertyOp1
 70
     1
102
RTVSPropertyOp2
 70
     1
102
RTVSPropertyOp3
 70
     1
102
RTVSPropertyOp4
 70
     1
102
RTVSPropertyOp5
 70
     1
102
RTVSPropertyOp6
 70
     1
102
RTVSPropertyOp7
 70
     1
102
RTVSPropertyOp8
 70
     1
102
RTVSPropertyOp9
 70
     1
102
RTVSPropertyOp10
 70
     1
102
RTVSPropertyOp11
 70
     1
102
RTVSPropertyOp12
 70
     1
102
RTVSPropertyOp13
 70
     1
102
RTVSPropertyOp14
 70
     1
102
RTVSPropertyOp15
 70
     1
102
RTVSPropertyOp16
 70
     1
102
RTVSPropertyOp17
 70
     1
102
RTVSPropertyOp18
 70
     1
102
RTVSPropertyOp19
 70
     1
102
RTVSPropertyOp20
 70
     1
102
RTVSPropertyOp21
 70
     1
102
RTVSPropertyOp22
 70
     1
102
RTVSPropertyOp23
 70
     1
102
RTVSPropertyOp24
 70
     1
102
RTVSPropertyOp25
 70
     1
102
RTVSPropertyOp26
 70
     1
102
RTVSPropertyOp27
 70
     1
102
RTVSPropertyOp28
 70
     1
102
RTVSPropertyOp29
 70
     1
102
RTVSPropertyOp30
 70
     1
102
RTVSPropertyOp31
 70
     1
102
RTVSPropertyOp32
 70
     1
  0
XRECORD
  5
2EEC
102
{ACAD_REACTORS
330
2EEB
102
}
330
2EEB
100
AcDbXrecord
280
     1
102
RTVSPropertyOp0
 70
     1
102
RTVSPropertyOp1
 70
     1
102
RTVSPropertyOp2
 70
     1
102
RTVSPropertyOp3
 70
     1
102
RTVSPropertyOp4
 70
     1
102
RTVSPropertyOp5
 70
     1
102
RTVSPropertyOp6
 70
     1
102
RTVSPropertyOp7
 70
     1
102
RTVSPropertyOp8
 70
     1
102
RTVSPropertyOp9
 70
     1
102
RTVSPropertyOp10
 70
     1
102
RTVSPropertyOp11
 70
     1
102
RTVSPropertyOp12
 70
     1
102
RTVSPropertyOp13
 70
     1
102
RTVSPropertyOp14
 70
     1
102
RTVSPropertyOp15
 70
     1
102
RTVSPropertyOp16
 70
     1
102
RTVSPropertyOp17
 70
     1
102
RTVSPropertyOp18
 70
     1
102
RTVSPropertyOp19
 70
     1
102
RTVSPropertyOp20
 70
     1
102
RTVSPropertyOp21
 70
     1
102
RTVSPropertyOp22
 70
     1
102
RTVSPropertyOp23
 70
     1
102
RTVSPropertyOp24
 70
     1
102
RTVSPropertyOp25
 70
     1
102
RTVSPropertyOp26
 70
     1
102
RTVSPropertyOp27
 70
     1
102
RTVSPropertyOp28
 70
     1
102
RTVSPropertyOp29
 70
     1
102
RTVSPropertyOp30
 70
     1
102
RTVSPropertyOp31
 70
     1
102
RTVSPropertyOp32
 70
     1
  0
XRECORD
  5
2EE8
102
{ACAD_REACTORS
330
2EE7
102
}
330
2EE7
100
AcDbXrecord
280
     1
102
RTVSPropertyOp0
 70
     1
102
RTVSPropertyOp1
 70
     1
102
RTVSPropertyOp2
 70
     1
102
RTVSPropertyOp3
 70
     1
102
RTVSPropertyOp4
 70
     1
102
RTVSPropertyOp5
 70
     1
102
RTVSPropertyOp6
 70
     1
102
RTVSPropertyOp7
 70
     1
102
RTVSPropertyOp8
 70
     1
102
RTVSPropertyOp9
 70
     1
102
RTVSPropertyOp10
 70
     1
102
RTVSPropertyOp11
 70
     1
102
RTVSPropertyOp12
 70
     1
102
RTVSPropertyOp13
 70
     1
102
RTVSPropertyOp14
 70
     1
102
RTVSPropertyOp15
 70
     1
102
RTVSPropertyOp16
 70
     1
102
RTVSPropertyOp17
 70
     1
102
RTVSPropertyOp18
 70
     1
102
RTVSPropertyOp19
 70
     1
102
RTVSPropertyOp20
 70
     1
102
RTVSPropertyOp21
 70
     1
102
RTVSPropertyOp22
 70
     1
102
RTVSPropertyOp23
 70
     1
102
RTVSPropertyOp24
 70
     1
102
RTVSPropertyOp25
 70
     1
102
RTVSPropertyOp26
 70
     1
102
RTVSPropertyOp27
 70
     1
102
RTVSPropertyOp28
 70
     1
102
RTVSPropertyOp29
 70
     1
102
RTVSPropertyOp30
 70
     1
102
RTVSPropertyOp31
 70
     1
102
RTVSPropertyOp32
 70
     1
  0
XRECORD
  5
2EF6
102
{ACAD_REACTORS
330
2EF5
102
}
330
2EF5
100
AcDbXrecord
280
     1
102
RTVSPropertyOp0
 70
     1
102
RTVSPropertyOp1
 70
     1
102
RTVSPropertyOp2
 70
     1
102
RTVSPropertyOp3
 70
     1
102
RTVSPropertyOp4
 70
     1
102
RTVSPropertyOp5
 70
     1
102
RTVSPropertyOp6
 70
     1
102
RTVSPropertyOp7
 70
     1
102
RTVSPropertyOp8
 70
     1
102
RTVSPropertyOp9
 70
     1
102
RTVSPropertyOp10
 70
     1
102
RTVSPropertyOp11
 70
     1
102
RTVSPropertyOp12
 70
     1
102
RTVSPropertyOp13
 70
     1
102
RTVSPropertyOp14
 70
     1
102
RTVSPropertyOp15
 70
     1
102
RTVSPropertyOp16
 70
     1
102
RTVSPropertyOp17
 70
     1
102
RTVSPropertyOp18
 70
     1
102
RTVSPropertyOp19
 70
     1
102
RTVSPropertyOp20
 70
     1
102
RTVSPropertyOp21
 70
     1
102
RTVSPropertyOp22
 70
     1
102
RTVSPropertyOp23
 70
     1
102
RTVSPropertyOp24
 70
     1
102
RTVSPropertyOp25
 70
     1
102
RTVSPropertyOp26
 70
     1
102
RTVSPropertyOp27
 70
     1
102
RTVSPropertyOp28
 70
     1
102
RTVSPropertyOp29
 70
     1
102
RTVSPropertyOp30
 70
     1
102
RTVSPropertyOp31
 70
     1
102
RTVSPropertyOp32
 70
     1
  0
XRECORD
  5
2EFE
102
{ACAD_REACTORS
330
2EFD
102
}
330
2EFD
100
AcDbXrecord
280
     1
102
RTVSPropertyOp0
 70
     1
102
RTVSPropertyOp1
 70
     1
102
RTVSPropertyOp2
 70
     1
102
RTVSPropertyOp3
 70
     1
102
RTVSPropertyOp4
 70
     1
102
RTVSPropertyOp5
 70
     1
102
RTVSPropertyOp6
 70
     1
102
RTVSPropertyOp7
 70
     1
102
RTVSPropertyOp8
 70
     1
102
RTVSPropertyOp9
 70
     1
102
RTVSPropertyOp10
 70
     1
102
RTVSPropertyOp11
 70
     1
102
RTVSPropertyOp12
 70
     1
102
RTVSPropertyOp13
 70
     1
102
RTVSPropertyOp14
 70
     1
102
RTVSPropertyOp15
 70
     1
102
RTVSPropertyOp16
 70
     1
102
RTVSPropertyOp17
 70
     1
102
RTVSPropertyOp18
 70
     1
102
RTVSPropertyOp19
 70
     1
102
RTVSPropertyOp20
 70
     1
102
RTVSPropertyOp21
 70
     1
102
RTVSPropertyOp22
 70
     1
102
RTVSPropertyOp23
 70
     1
102
RTVSPropertyOp24
 70
     1
102
RTVSPropertyOp25
 70
     1
102
RTVSPropertyOp26
 70
     1
102
RTVSPropertyOp27
 70
     1
102
RTVSPropertyOp28
 70
     1
102
RTVSPropertyOp29
 70
     1
102
RTVSPropertyOp30
 70
     1
102
RTVSPropertyOp31
 70
     1
102
RTVSPropertyOp32
 70
     1
  0
XRECORD
  5
2EF0
102
{ACAD_REACTORS
330
2EEF
102
}
330
2EEF
100
AcDbXrecord
280
     1
102
RTVSPropertyOp0
 70
     1
102
RTVSPropertyOp1
 70
     1
102
RTVSPropertyOp2
 70
     1
102
RTVSPropertyOp3
 70
     1
102
RTVSPropertyOp4
 70
     1
102
RTVSPropertyOp5
 70
     1
102
RTVSPropertyOp6
 70
     1
102
RTVSPropertyOp7
 70
     1
102
RTVSPropertyOp8
 70
     1
102
RTVSPropertyOp9
 70
     1
102
RTVSPropertyOp10
 70
     1
102
RTVSPropertyOp11
 70
     1
102
RTVSPropertyOp12
 70
     1
102
RTVSPropertyOp13
 70
     1
102
RTVSPropertyOp14
 70
     1
102
RTVSPropertyOp15
 70
     1
102
RTVSPropertyOp16
 70
     1
102
RTVSPropertyOp17
 70
     1
102
RTVSPropertyOp18
 70
     1
102
RTVSPropertyOp19
 70
     1
102
RTVSPropertyOp20
 70
     1
102
RTVSPropertyOp21
 70
     1
102
RTVSPropertyOp22
 70
     1
102
RTVSPropertyOp23
 70
     1
102
RTVSPropertyOp24
 70
     1
102
RTVSPropertyOp25
 70
     1
102
RTVSPropertyOp26
 70
     1
102
RTVSPropertyOp27
 70
     1
102
RTVSPropertyOp28
 70
     1
102
RTVSPropertyOp29
 70
     1
102
RTVSPropertyOp30
 70
     1
102
RTVSPropertyOp31
 70
     1
102
RTVSPropertyOp32
 70
     1
  0
XRECORD
  5
2EF4
102
{ACAD_REACTORS
330
2EF3
102
}
330
2EF3
100
AcDbXrecord
280
     1
102
RTVSPropertyOp0
 70
     1
102
RTVSPropertyOp1
 70
     1
102
RTVSPropertyOp2
 70
     1
102
RTVSPropertyOp3
 70
     1
102
RTVSPropertyOp4
 70
     1
102
RTVSPropertyOp5
 70
     1
102
RTVSPropertyOp6
 70
     1
102
RTVSPropertyOp7
 70
     1
102
RTVSPropertyOp8
 70
     1
102
RTVSPropertyOp9
 70
     1
102
RTVSPropertyOp10
 70
     1
102
RTVSPropertyOp11
 70
     1
102
RTVSPropertyOp12
 70
     1
102
RTVSPropertyOp13
 70
     1
102
RTVSPropertyOp14
 70
     1
102
RTVSPropertyOp15
 70
     1
102
RTVSPropertyOp16
 70
     1
102
RTVSPropertyOp17
 70
     1
102
RTVSPropertyOp18
 70
     1
102
RTVSPropertyOp19
 70
     1
102
RTVSPropertyOp20
 70
     1
102
RTVSPropertyOp21
 70
     1
102
RTVSPropertyOp22
 70
     1
102
RTVSPropertyOp23
 70
     1
102
RTVSPropertyOp24
 70
     1
102
RTVSPropertyOp25
 70
     1
102
RTVSPropertyOp26
 70
     1
102
RTVSPropertyOp27
 70
     1
102
RTVSPropertyOp28
 70
     1
102
RTVSPropertyOp29
 70
     1
102
RTVSPropertyOp30
 70
     1
102
RTVSPropertyOp31
 70
     1
102
RTVSPropertyOp32
 70
     1
  0
XRECORD
  5
2F17
102
{ACAD_REACTORS
330
2F16
102
}
330
2F16
100
AcDbXrecord
280
     1
102
RTVSPropertyOp0
 70
     0
102
RTVSPropertyOp1
 70
     0
102
RTVSPropertyOp2
 70
     0
102
RTVSPropertyOp3
 70
     0
102
RTVSPropertyOp4
 70
     0
102
RTVSPropertyOp5
 70
     0
102
RTVSPropertyOp6
 70
     0
102
RTVSPropertyOp7
 70
     0
102
RTVSPropertyOp8
 70
     0
102
RTVSPropertyOp9
 70
     0
102
RTVSPropertyOp10
 70
     0
102
RTVSPropertyOp11
 70
     0
102
RTVSPropertyOp12
 70
     0
102
RTVSPropertyOp13
 70
     0
102
RTVSPropertyOp14
 70
     2
102
RTVSPropertyOp15
 70
     0
102
RTVSPropertyOp16
 70
     0
102
RTVSPropertyOp17
 70
     0
102
RTVSPropertyOp18
 70
     0
102
RTVSPropertyOp19
 70
     0
102
RTVSPropertyOp20
 70
     0
102
RTVSPropertyOp21
 70
     0
102
RTVSPropertyOp22
 70
     0
102
RTVSPropertyOp23
 70
     0
102
RTVSPropertyOp24
 70
     0
102
RTVSPropertyOp25
 70
     0
102
RTVSPropertyOp26
 70
     0
102
RTVSPropertyOp27
 70
     0
102
RTVSPropertyOp28
 70
     0
102
RTVSPropertyOp29
 70
     0
102
RTVSPropertyOp30
 70
     0
102
RTVSPropertyOp31
 70
     0
102
RTVSPropertyOp32
 70
     0
  0
XRECORD
  5
2EFC
102
{ACAD_REACTORS
330
2EFB
102
}
330
2EFB
100
AcDbXrecord
280
     1
102
RTVSPropertyOp0
 70
     1
102
RTVSPropertyOp1
 70
     1
102
RTVSPropertyOp2
 70
     1
102
RTVSPropertyOp3
 70
     1
102
RTVSPropertyOp4
 70
     1
102
RTVSPropertyOp5
 70
     1
102
RTVSPropertyOp6
 70
     1
102
RTVSPropertyOp7
 70
     1
102
RTVSPropertyOp8
 70
     1
102
RTVSPropertyOp9
 70
     1
102
RTVSPropertyOp10
 70
     1
102
RTVSPropertyOp11
 70
     1
102
RTVSPropertyOp12
 70
     1
102
RTVSPropertyOp13
 70
     1
102
RTVSPropertyOp14
 70
     1
102
RTVSPropertyOp15
 70
     1
102
RTVSPropertyOp16
 70
     1
102
RTVSPropertyOp17
 70
     1
102
RTVSPropertyOp18
 70
     1
102
RTVSPropertyOp19
 70
     1
102
RTVSPropertyOp20
 70
     1
102
RTVSPropertyOp21
 70
     1
102
RTVSPropertyOp22
 70
     1
102
RTVSPropertyOp23
 70
     1
102
RTVSPropertyOp24
 70
     1
102
RTVSPropertyOp25
 70
     1
102
RTVSPropertyOp26
 70
     1
102
RTVSPropertyOp27
 70
     1
102
RTVSPropertyOp28
 70
     1
102
RTVSPropertyOp29
 70
     1
102
RTVSPropertyOp30
 70
     1
102
RTVSPropertyOp31
 70
     1
102
RTVSPropertyOp32
 70
     1
  0
XRECORD
  5
2EE0
102
{ACAD_REACTORS
330
2EDF
102
}
330
2EDF
100
AcDbXrecord
280
     1
102
RTVSPropertyOp0
 70
     1
102
RTVSPropertyOp1
 70
     1
102
RTVSPropertyOp2
 70
     1
102
RTVSPropertyOp3
 70
     1
102
RTVSPropertyOp4
 70
     1
102
RTVSPropertyOp5
 70
     1
102
RTVSPropertyOp6
 70
     1
102
RTVSPropertyOp7
 70
     1
102
RTVSPropertyOp8
 70
     1
102
RTVSPropertyOp9
 70
     1
102
RTVSPropertyOp10
 70
     1
102
RTVSPropertyOp11
 70
     1
102
RTVSPropertyOp12
 70
     1
102
RTVSPropertyOp13
 70
     1
102
RTVSPropertyOp14
 70
     1
102
RTVSPropertyOp15
 70
     1
102
RTVSPropertyOp16
 70
     1
102
RTVSPropertyOp17
 70
     1
102
RTVSPropertyOp18
 70
     1
102
RTVSPropertyOp19
 70
     1
102
RTVSPropertyOp20
 70
     1
102
RTVSPropertyOp21
 70
     1
102
RTVSPropertyOp22
 70
     1
102
RTVSPropertyOp23
 70
     1
102
RTVSPropertyOp24
 70
     1
102
RTVSPropertyOp25
 70
     1
102
RTVSPropertyOp26
 70
     1
102
RTVSPropertyOp27
 70
     1
102
RTVSPropertyOp28
 70
     1
102
RTVSPropertyOp29
 70
     1
102
RTVSPropertyOp30
 70
     1
102
RTVSPropertyOp31
 70
     1
102
RTVSPropertyOp32
 70
     1
  0
XRECORD
  5
2EE2
102
{ACAD_REACTORS
330
2EE1
102
}
330
2EE1
100
AcDbXrecord
280
     1
102
RTVSPropertyOp0
 70
     1
102
RTVSPropertyOp1
 70
     1
102
RTVSPropertyOp2
 70
     1
102
RTVSPropertyOp3
 70
     1
102
RTVSPropertyOp4
 70
     1
102
RTVSPropertyOp5
 70
     1
102
RTVSPropertyOp6
 70
     1
102
RTVSPropertyOp7
 70
     1
102
RTVSPropertyOp8
 70
     1
102
RTVSPropertyOp9
 70
     1
102
RTVSPropertyOp10
 70
     1
102
RTVSPropertyOp11
 70
     1
102
RTVSPropertyOp12
 70
     1
102
RTVSPropertyOp13
 70
     1
102
RTVSPropertyOp14
 70
     1
102
RTVSPropertyOp15
 70
     1
102
RTVSPropertyOp16
 70
     1
102
RTVSPropertyOp17
 70
     1
102
RTVSPropertyOp18
 70
     1
102
RTVSPropertyOp19
 70
     1
102
RTVSPropertyOp20
 70
     1
102
RTVSPropertyOp21
 70
     1
102
RTVSPropertyOp22
 70
     1
102
RTVSPropertyOp23
 70
     1
102
RTVSPropertyOp24
 70
     1
102
RTVSPropertyOp25
 70
     1
102
RTVSPropertyOp26
 70
     1
102
RTVSPropertyOp27
 70
     1
102
RTVSPropertyOp28
 70
     1
102
RTVSPropertyOp29
 70
     1
102
RTVSPropertyOp30
 70
     1
102
RTVSPropertyOp31
 70
     1
102
RTVSPropertyOp32
 70
     1
  0
XRECORD
  5
2EE4
102
{ACAD_REACTORS
330
2EE3
102
}
330
2EE3
100
AcDbXrecord
280
     1
102
RTVSPropertyOp0
 70
     1
102
RTVSPropertyOp1
 70
     1
102
RTVSPropertyOp2
 70
     1
102
RTVSPropertyOp3
 70
     1
102
RTVSPropertyOp4
 70
     1
102
RTVSPropertyOp5
 70
     1
102
RTVSPropertyOp6
 70
     1
102
RTVSPropertyOp7
 70
     1
102
RTVSPropertyOp8
 70
     1
102
RTVSPropertyOp9
 70
     1
102
RTVSPropertyOp10
 70
     1
102
RTVSPropertyOp11
 70
     1
102
RTVSPropertyOp12
 70
     1
102
RTVSPropertyOp13
 70
     1
102
RTVSPropertyOp14
 70
     1
102
RTVSPropertyOp15
 70
     1
102
RTVSPropertyOp16
 70
     1
102
RTVSPropertyOp17
 70
     1
102
RTVSPropertyOp18
 70
     1
102
RTVSPropertyOp19
 70
     1
102
RTVSPropertyOp20
 70
     1
102
RTVSPropertyOp21
 70
     1
102
RTVSPropertyOp22
 70
     1
102
RTVSPropertyOp23
 70
     1
102
RTVSPropertyOp24
 70
     1
102
RTVSPropertyOp25
 70
     1
102
RTVSPropertyOp26
 70
     1
102
RTVSPropertyOp27
 70
     1
102
RTVSPropertyOp28
 70
     1
102
RTVSPropertyOp29
 70
     1
102
RTVSPropertyOp30
 70
     1
102
RTVSPropertyOp31
 70
     1
102
RTVSPropertyOp32
 70
     1
  0
XRECORD
  5
2EE6
102
{ACAD_REACTORS
330
2EE5
102
}
330
2EE5
100
AcDbXrecord
280
     1
102
RTVSPropertyOp0
 70
     1
102
RTVSPropertyOp1
 70
     1
102
RTVSPropertyOp2
 70
     1
102
RTVSPropertyOp3
 70
     1
102
RTVSPropertyOp4
 70
     1
102
RTVSPropertyOp5
 70
     1
102
RTVSPropertyOp6
 70
     1
102
RTVSPropertyOp7
 70
     1
102
RTVSPropertyOp8
 70
     1
102
RTVSPropertyOp9
 70
     1
102
RTVSPropertyOp10
 70
     1
102
RTVSPropertyOp11
 70
     1
102
RTVSPropertyOp12
 70
     1
102
RTVSPropertyOp13
 70
     1
102
RTVSPropertyOp14
 70
     1
102
RTVSPropertyOp15
 70
     1
102
RTVSPropertyOp16
 70
     1
102
RTVSPropertyOp17
 70
     1
102
RTVSPropertyOp18
 70
     1
102
RTVSPropertyOp19
 70
     1
102
RTVSPropertyOp20
 70
     1
102
RTVSPropertyOp21
 70
     1
102
RTVSPropertyOp22
 70
     1
102
RTVSPropertyOp23
 70
     1
102
RTVSPropertyOp24
 70
     1
102
RTVSPropertyOp25
 70
     1
102
RTVSPropertyOp26
 70
     1
102
RTVSPropertyOp27
 70
     1
102
RTVSPropertyOp28
 70
     1
102
RTVSPropertyOp29
 70
     1
102
RTVSPropertyOp30
 70
     1
102
RTVSPropertyOp31
 70
     1
102
RTVSPropertyOp32
 70
     1
  0
XRECORD
  5
2F07
102
{ACAD_REACTORS
330
2F06
102
}
330
2F06
100
AcDbXrecord
280
     1
102
RTVSPropertyOp0
 70
     1
102
RTVSPropertyOp1
 70
     1
102
RTVSPropertyOp2
 70
     1
102
RTVSPropertyOp3
 70
     1
102
RTVSPropertyOp4
 70
     1
102
RTVSPropertyOp5
 70
     1
102
RTVSPropertyOp6
 70
     1
102
RTVSPropertyOp7
 70
     1
102
RTVSPropertyOp8
 70
     1
102
RTVSPropertyOp9
 70
     1
102
RTVSPropertyOp10
 70
     1
102
RTVSPropertyOp11
 70
     1
102
RTVSPropertyOp12
 70
     1
102
RTVSPropertyOp13
 70
     1
102
RTVSPropertyOp14
 70
     1
102
RTVSPropertyOp15
 70
     1
102
RTVSPropertyOp16
 70
     1
102
RTVSPropertyOp17
 70
     1
102
RTVSPropertyOp18
 70
     1
102
RTVSPropertyOp19
 70
     1
102
RTVSPropertyOp20
 70
     1
102
RTVSPropertyOp21
 70
     1
102
RTVSPropertyOp22
 70
     1
102
RTVSPropertyOp23
 70
     1
102
RTVSPropertyOp24
 70
     1
102
RTVSPropertyOp25
 70
     1
102
RTVSPropertyOp26
 70
     1
102
RTVSPropertyOp27
 70
     1
102
RTVSPropertyOp28
 70
     1
102
RTVSPropertyOp29
 70
     1
102
RTVSPropertyOp30
 70
     1
102
RTVSPropertyOp31
 70
     1
102
RTVSPropertyOp32
 70
     1
  0
XRECORD
  5
2F13
102
{ACAD_REACTORS
330
2F12
102
}
330
2F12
100
AcDbXrecord
280
     1
102
RTVSPropertyOp0
 70
     0
102
RTVSPropertyOp1
 70
     0
102
RTVSPropertyOp2
 70
     0
102
RTVSPropertyOp3
 70
     0
102
RTVSPropertyOp4
 70
     0
102
RTVSPropertyOp5
 70
     0
102
RTVSPropertyOp6
 70
     0
102
RTVSPropertyOp7
 70
     0
102
RTVSPropertyOp8
 70
     0
102
RTVSPropertyOp9
 70
     0
102
RTVSPropertyOp10
 70
     0
102
RTVSPropertyOp11
 70
     0
102
RTVSPropertyOp12
 70
     0
102
RTVSPropertyOp13
 70
     0
102
RTVSPropertyOp14
 70
     2
102
RTVSPropertyOp15
 70
     0
102
RTVSPropertyOp16
 70
     0
102
RTVSPropertyOp17
 70
     0
102
RTVSPropertyOp18
 70
     0
102
RTVSPropertyOp19
 70
     0
102
RTVSPropertyOp20
 70
     0
102
RTVSPropertyOp21
 70
     0
102
RTVSPropertyOp22
 70
     0
102
RTVSPropertyOp23
 70
     0
102
RTVSPropertyOp24
 70
     0
102
RTVSPropertyOp25
 70
     0
102
RTVSPropertyOp26
 70
     0
102
RTVSPropertyOp27
 70
     0
102
RTVSPropertyOp28
 70
     0
102
RTVSPropertyOp29
 70
     0
102
RTVSPropertyOp30
 70
     0
102
RTVSPropertyOp31
 70
     0
102
RTVSPropertyOp32
 70
     0
  0
XRECORD
  5
2EFA
102
{ACAD_REACTORS
330
2EF9
102
}
330
2EF9
100
AcDbXrecord
280
     1
102
RTVSPropertyOp0
 70
     1
102
RTVSPropertyOp1
 70
     1
102
RTVSPropertyOp2
 70
     1
102
RTVSPropertyOp3
 70
     1
102
RTVSPropertyOp4
 70
     1
102
RTVSPropertyOp5
 70
     1
102
RTVSPropertyOp6
 70
     1
102
RTVSPropertyOp7
 70
     1
102
RTVSPropertyOp8
 70
     1
102
RTVSPropertyOp9
 70
     1
102
RTVSPropertyOp10
 70
     1
102
RTVSPropertyOp11
 70
     1
102
RTVSPropertyOp12
 70
     1
102
RTVSPropertyOp13
 70
     1
102
RTVSPropertyOp14
 70
     1
102
RTVSPropertyOp15
 70
     1
102
RTVSPropertyOp16
 70
     1
102
RTVSPropertyOp17
 70
     1
102
RTVSPropertyOp18
 70
     1
102
RTVSPropertyOp19
 70
     1
102
RTVSPropertyOp20
 70
     1
102
RTVSPropertyOp21
 70
     1
102
RTVSPropertyOp22
 70
     1
102
RTVSPropertyOp23
 70
     1
102
RTVSPropertyOp24
 70
     1
102
RTVSPropertyOp25
 70
     1
102
RTVSPropertyOp26
 70
     1
102
RTVSPropertyOp27
 70
     1
102
RTVSPropertyOp28
 70
     1
102
RTVSPropertyOp29
 70
     1
102
RTVSPropertyOp30
 70
     1
102
RTVSPropertyOp31
 70
     1
102
RTVSPropertyOp32
 70
     1
  0
XRECORD
  5
2F15
102
{ACAD_REACTORS
330
2F14
102
}
330
2F14
100
AcDbXrecord
280
     1
102
RTVSPropertyOp0
 70
     0
102
RTVSPropertyOp1
 70
     0
102
RTVSPropertyOp2
 70
     0
102
RTVSPropertyOp3
 70
     0
102
RTVSPropertyOp4
 70
     0
102
RTVSPropertyOp5
 70
     0
102
RTVSPropertyOp6
 70
     0
102
RTVSPropertyOp7
 70
     0
102
RTVSPropertyOp8
 70
     0
102
RTVSPropertyOp9
 70
     0
102
RTVSPropertyOp10
 70
     0
102
RTVSPropertyOp11
 70
     0
102
RTVSPropertyOp12
 70
     0
102
RTVSPropertyOp13
 70
     0
102
RTVSPropertyOp14
 70
     2
102
RTVSPropertyOp15
 70
     0
102
RTVSPropertyOp16
 70
     0
102
RTVSPropertyOp17
 70
     0
102
RTVSPropertyOp18
 70
     0
102
RTVSPropertyOp19
 70
     0
102
RTVSPropertyOp20
 70
     0
102
RTVSPropertyOp21
 70
     0
102
RTVSPropertyOp22
 70
     0
102
RTVSPropertyOp23
 70
     0
102
RTVSPropertyOp24
 70
     0
102
RTVSPropertyOp25
 70
     0
102
RTVSPropertyOp26
 70
     0
102
RTVSPropertyOp27
 70
     0
102
RTVSPropertyOp28
 70
     0
102
RTVSPropertyOp29
 70
     0
102
RTVSPropertyOp30
 70
     0
102
RTVSPropertyOp31
 70
     0
102
RTVSPropertyOp32
 70
     0
  0
XRECORD
  5
2EF2
102
{ACAD_REACTORS
330
2EF1
102
}
330
2EF1
100
AcDbXrecord
280
     1
102
RTVSPropertyOp0
 70
     1
102
RTVSPropertyOp1
 70
     1
102
RTVSPropertyOp2
 70
     1
102
RTVSPropertyOp3
 70
     1
102
RTVSPropertyOp4
 70
     1
102
RTVSPropertyOp5
 70
     1
102
RTVSPropertyOp6
 70
     1
102
RTVSPropertyOp7
 70
     1
102
RTVSPropertyOp8
 70
     1
102
RTVSPropertyOp9
 70
     1
102
RTVSPropertyOp10
 70
     1
102
RTVSPropertyOp11
 70
     1
102
RTVSPropertyOp12
 70
     1
102
RTVSPropertyOp13
 70
     1
102
RTVSPropertyOp14
 70
     1
102
RTVSPropertyOp15
 70
     1
102
RTVSPropertyOp16
 70
     1
102
RTVSPropertyOp17
 70
     1
102
RTVSPropertyOp18
 70
     1
102
RTVSPropertyOp19
 70
     1
102
RTVSPropertyOp20
 70
     1
102
RTVSPropertyOp21
 70
     1
102
RTVSPropertyOp22
 70
     1
102
RTVSPropertyOp23
 70
     1
102
RTVSPropertyOp24
 70
     1
102
RTVSPropertyOp25
 70
     1
102
RTVSPropertyOp26
 70
     1
102
RTVSPropertyOp27
 70
     1
102
RTVSPropertyOp28
 70
     1
102
RTVSPropertyOp29
 70
     1
102
RTVSPropertyOp30
 70
     1
102
RTVSPropertyOp31
 70
     1
102
RTVSPropertyOp32
 70
     1
  0
XRECORD
  5
2F11
102
{ACAD_REACTORS
330
2F10
102
}
330
2F10
100
AcDbXrecord
280
     1
102
RTVSPropertyOp0
 70
     1
102
RTVSPropertyOp1
 70
     1
102
RTVSPropertyOp2
 70
     1
102
RTVSPropertyOp3
 70
     1
102
RTVSPropertyOp4
 70
     1
102
RTVSPropertyOp5
 70
     1
102
RTVSPropertyOp6
 70
     1
102
RTVSPropertyOp7
 70
     1
102
RTVSPropertyOp8
 70
     1
102
RTVSPropertyOp9
 70
     1
102
RTVSPropertyOp10
 70
     1
102
RTVSPropertyOp11
 70
     1
102
RTVSPropertyOp12
 70
     1
102
RTVSPropertyOp13
 70
     1
102
RTVSPropertyOp14
 70
     1
102
RTVSPropertyOp15
 70
     1
102
RTVSPropertyOp16
 70
     1
102
RTVSPropertyOp17
 70
     1
102
RTVSPropertyOp18
 70
     1
102
RTVSPropertyOp19
 70
     1
102
RTVSPropertyOp20
 70
     1
102
RTVSPropertyOp21
 70
     1
102
RTVSPropertyOp22
 70
     1
102
RTVSPropertyOp23
 70
     1
102
RTVSPropertyOp24
 70
     1
102
RTVSPropertyOp25
 70
     1
102
RTVSPropertyOp26
 70
     1
102
RTVSPropertyOp27
 70
     1
102
RTVSPropertyOp28
 70
     1
102
RTVSPropertyOp29
 70
     1
102
RTVSPropertyOp30
 70
     1
102
RTVSPropertyOp31
 70
     1
102
RTVSPropertyOp32
 70
     1
  0
XRECORD
  5
2F0F
102
{ACAD_REACTORS
330
2F0E
102
}
330
2F0E
100
AcDbXrecord
280
     1
102
RTVSPropertyOp0
 70
     1
102
RTVSPropertyOp1
 70
     1
102
RTVSPropertyOp2
 70
     1
102
RTVSPropertyOp3
 70
     1
102
RTVSPropertyOp4
 70
     1
102
RTVSPropertyOp5
 70
     1
102
RTVSPropertyOp6
 70
     1
102
RTVSPropertyOp7
 70
     1
102
RTVSPropertyOp8
 70
     1
102
RTVSPropertyOp9
 70
     1
102
RTVSPropertyOp10
 70
     1
102
RTVSPropertyOp11
 70
     1
102
RTVSPropertyOp12
 70
     1
102
RTVSPropertyOp13
 70
     1
102
RTVSPropertyOp14
 70
     1
102
RTVSPropertyOp15
 70
     1
102
RTVSPropertyOp16
 70
     1
102
RTVSPropertyOp17
 70
     1
102
RTVSPropertyOp18
 70
     1
102
RTVSPropertyOp19
 70
     1
102
RTVSPropertyOp20
 70
     1
102
RTVSPropertyOp21
 70
     1
102
RTVSPropertyOp22
 70
     1
102
RTVSPropertyOp23
 70
     1
102
RTVSPropertyOp24
 70
     1
102
RTVSPropertyOp25
 70
     1
102
RTVSPropertyOp26
 70
     1
102
RTVSPropertyOp27
 70
     1
102
RTVSPropertyOp28
 70
     1
102
RTVSPropertyOp29
 70
     1
102
RTVSPropertyOp30
 70
     1
102
RTVSPropertyOp31
 70
     1
102
RTVSPropertyOp32
 70
     1
  0
XRECORD
  5
2F09
102
{ACAD_REACTORS
330
2F08
102
}
330
2F08
100
AcDbXrecord
280
     1
102
RTVSPropertyOp0
 70
     1
102
RTVSPropertyOp1
 70
     1
102
RTVSPropertyOp2
 70
     1
102
RTVSPropertyOp3
 70
     1
102
RTVSPropertyOp4
 70
     1
102
RTVSPropertyOp5
 70
     1
102
RTVSPropertyOp6
 70
     1
102
RTVSPropertyOp7
 70
     1
102
RTVSPropertyOp8
 70
     1
102
RTVSPropertyOp9
 70
     1
102
RTVSPropertyOp10
 70
     1
102
RTVSPropertyOp11
 70
     1
102
RTVSPropertyOp12
 70
     1
102
RTVSPropertyOp13
 70
     1
102
RTVSPropertyOp14
 70
     1
102
RTVSPropertyOp15
 70
     1
102
RTVSPropertyOp16
 70
     1
102
RTVSPropertyOp17
 70
     1
102
RTVSPropertyOp18
 70
     1
102
RTVSPropertyOp19
 70
     1
102
RTVSPropertyOp20
 70
     1
102
RTVSPropertyOp21
 70
     1
102
RTVSPropertyOp22
 70
     1
102
RTVSPropertyOp23
 70
     1
102
RTVSPropertyOp24
 70
     1
102
RTVSPropertyOp25
 70
     1
102
RTVSPropertyOp26
 70
     1
102
RTVSPropertyOp27
 70
     1
102
RTVSPropertyOp28
 70
     1
102
RTVSPropertyOp29
 70
     1
102
RTVSPropertyOp30
 70
     1
102
RTVSPropertyOp31
 70
     1
102
RTVSPropertyOp32
 70
     1
  0
XRECORD
  5
2F0B
102
{ACAD_REACTORS
330
2F0A
102
}
330
2F0A
100
AcDbXrecord
280
     1
102
RTVSPropertyOp0
 70
     1
102
RTVSPropertyOp1
 70
     1
102
RTVSPropertyOp2
 70
     1
102
RTVSPropertyOp3
 70
     1
102
RTVSPropertyOp4
 70
     1
102
RTVSPropertyOp5
 70
     1
102
RTVSPropertyOp6
 70
     1
102
RTVSPropertyOp7
 70
     1
102
RTVSPropertyOp8
 70
     1
102
RTVSPropertyOp9
 70
     1
102
RTVSPropertyOp10
 70
     1
102
RTVSPropertyOp11
 70
     1
102
RTVSPropertyOp12
 70
     1
102
RTVSPropertyOp13
 70
     1
102
RTVSPropertyOp14
 70
     1
102
RTVSPropertyOp15
 70
     1
102
RTVSPropertyOp16
 70
     1
102
RTVSPropertyOp17
 70
     1
102
RTVSPropertyOp18
 70
     1
102
RTVSPropertyOp19
 70
     1
102
RTVSPropertyOp20
 70
     1
102
RTVSPropertyOp21
 70
     1
102
RTVSPropertyOp22
 70
     1
102
RTVSPropertyOp23
 70
     1
102
RTVSPropertyOp24
 70
     1
102
RTVSPropertyOp25
 70
     1
102
RTVSPropertyOp26
 70
     1
102
RTVSPropertyOp27
 70
     1
102
RTVSPropertyOp28
 70
     1
102
RTVSPropertyOp29
 70
     1
102
RTVSPropertyOp30
 70
     1
102
RTVSPropertyOp31
 70
     1
102
RTVSPropertyOp32
 70
     1
  0
XRECORD
  5
2EF8
102
{ACAD_REACTORS
330
2EF7
102
}
330
2EF7
100
AcDbXrecord
280
     1
102
RTVSPropertyOp0
 70
     1
102
RTVSPropertyOp1
 70
     1
102
RTVSPropertyOp2
 70
     1
102
RTVSPropertyOp3
 70
     1
102
RTVSPropertyOp4
 70
     1
102
RTVSPropertyOp5
 70
     1
102
RTVSPropertyOp6
 70
     1
102
RTVSPropertyOp7
 70
     1
102
RTVSPropertyOp8
 70
     1
102
RTVSPropertyOp9
 70
     1
102
RTVSPropertyOp10
 70
     1
102
RTVSPropertyOp11
 70
     1
102
RTVSPropertyOp12
 70
     1
102
RTVSPropertyOp13
 70
     1
102
RTVSPropertyOp14
 70
     1
102
RTVSPropertyOp15
 70
     1
102
RTVSPropertyOp16
 70
     1
102
RTVSPropertyOp17
 70
     1
102
RTVSPropertyOp18
 70
     1
102
RTVSPropertyOp19
 70
     1
102
RTVSPropertyOp20
 70
     1
102
RTVSPropertyOp21
 70
     1
102
RTVSPropertyOp22
 70
     1
102
RTVSPropertyOp23
 70
     1
102
RTVSPropertyOp24
 70
     1
102
RTVSPropertyOp25
 70
     1
102
RTVSPropertyOp26
 70
     1
102
RTVSPropertyOp27
 70
     1
102
RTVSPropertyOp28
 70
     1
102
RTVSPropertyOp29
 70
     1
102
RTVSPropertyOp30
 70
     1
102
RTVSPropertyOp31
 70
     1
102
RTVSPropertyOp32
 70
     1
  0
XRECORD
  5
2F05
102
{ACAD_REACTORS
330
2F04
102
}
330
2F04
100
AcDbXrecord
280
     1
102
RTVSPropertyOp0
 70
     1
102
RTVSPropertyOp1
 70
     1
102
RTVSPropertyOp2
 70
     1
102
RTVSPropertyOp3
 70
     1
102
RTVSPropertyOp4
 70
     1
102
RTVSPropertyOp5
 70
     1
102
RTVSPropertyOp6
 70
     1
102
RTVSPropertyOp7
 70
     1
102
RTVSPropertyOp8
 70
     1
102
RTVSPropertyOp9
 70
     1
102
RTVSPropertyOp10
 70
     1
102
RTVSPropertyOp11
 70
     1
102
RTVSPropertyOp12
 70
     1
102
RTVSPropertyOp13
 70
     1
102
RTVSPropertyOp14
 70
     1
102
RTVSPropertyOp15
 70
     1
102
RTVSPropertyOp16
 70
     1
102
RTVSPropertyOp17
 70
     1
102
RTVSPropertyOp18
 70
     1
102
RTVSPropertyOp19
 70
     1
102
RTVSPropertyOp20
 70
     1
102
RTVSPropertyOp21
 70
     1
102
RTVSPropertyOp22
 70
     1
102
RTVSPropertyOp23
 70
     1
102
RTVSPropertyOp24
 70
     1
102
RTVSPropertyOp25
 70
     1
102
RTVSPropertyOp26
 70
     1
102
RTVSPropertyOp27
 70
     1
102
RTVSPropertyOp28
 70
     1
102
RTVSPropertyOp29
 70
     1
102
RTVSPropertyOp30
 70
     1
102
RTVSPropertyOp31
 70
     1
102
RTVSPropertyOp32
 70
     1
  0
XRECORD
  5
2F0D
102
{ACAD_REACTORS
330
2F0C
102
}
330
2F0C
100
AcDbXrecord
280
     1
102
RTVSPropertyOp0
 70
     1
102
RTVSPropertyOp1
 70
     1
102
RTVSPropertyOp2
 70
     1
102
RTVSPropertyOp3
 70
     1
102
RTVSPropertyOp4
 70
     1
102
RTVSPropertyOp5
 70
     1
102
RTVSPropertyOp6
 70
     1
102
RTVSPropertyOp7
 70
     1
102
RTVSPropertyOp8
 70
     1
102
RTVSPropertyOp9
 70
     1
102
RTVSPropertyOp10
 70
     1
102
RTVSPropertyOp11
 70
     1
102
RTVSPropertyOp12
 70
     1
102
RTVSPropertyOp13
 70
     1
102
RTVSPropertyOp14
 70
     1
102
RTVSPropertyOp15
 70
     1
102
RTVSPropertyOp16
 70
     1
102
RTVSPropertyOp17
 70
     1
102
RTVSPropertyOp18
 70
     1
102
RTVSPropertyOp19
 70
     1
102
RTVSPropertyOp20
 70
     1
102
RTVSPropertyOp21
 70
     1
102
RTVSPropertyOp22
 70
     1
102
RTVSPropertyOp23
 70
     1
102
RTVSPropertyOp24
 70
     1
102
RTVSPropertyOp25
 70
     1
102
RTVSPropertyOp26
 70
     1
102
RTVSPropertyOp27
 70
     1
102
RTVSPropertyOp28
 70
     1
102
RTVSPropertyOp29
 70
     1
102
RTVSPropertyOp30
 70
     1
102
RTVSPropertyOp31
 70
     1
102
RTVSPropertyOp32
 70
     1
  0
ENDSEC
  0
EOF
