  0
SECTION
  2
HEADER
  9
$ACADVER
  1
AC1015
  9
$ACADMAINTVER
 70
    20
  9
$DWGCODEPAGE
  3
ANSI_932
  9
$INSBASE
 10
0.0
 20
0.0
 30
0.0
  9
$EXTMIN
 10
1421.782508519374
 20
4.577427085585099
 30
0.0
  9
$EXTMAX
 10
1613.782508519375
 20
285.6995558155851
 30
0.0
  9
$LIMMIN
 10
0.0
 20
0.0
  9
$LIMMAX
 10
12.0
 20
9.0
  9
$ORTHOMODE
 70
     1
  9
$REGENMODE
 70
     1
  9
$FILLMODE
 70
     1
  9
$QTEXTMODE
 70
     0
  9
$MIRRTEXT
 70
     0
  9
$LTSCALE
 40
0.2
  9
$ATTMODE
 70
     1
  9
$TEXTSIZE
 40
3.2
  9
$TRACEWID
 40
0.05
  9
$TEXTSTYLE
  7
高3.2
  9
$CLAYER
  8
0
  9
$CELTYPE
  6
ByLayer
  9
$CECOLOR
 62
   256
  9
$CELTSCALE
 40
1.0
  9
$DISPSILH
 70
     0
  9
$DIMSCALE
 40
1.0
  9
$DIMASZ
 40
2.5
  9
$DIMEXO
 40
0.25
  9
$DIMDLI
 40
0.2
  9
$DIMRND
 40
0.0
  9
$DIMDLE
 40
0.0
  9
$DIMEXE
 40
1.25
  9
$DIMTP
 40
0.0
  9
$DIMTM
 40
0.0
  9
$DIMTXT
 40
3.0
  9
$DIMCEN
 40
0.0
  9
$DIMTSZ
 40
0.0
  9
$DIMTOL
 70
     0
  9
$DIMLIM
 70
     0
  9
$DIMTIH
 70
     0
  9
$DIMTOH
 70
     0
  9
$DIMSE1
 70
     0
  9
$DIMSE2
 70
     0
  9
$DIMTAD
 70
     3
  9
$DIMZIN
 70
     8
  9
$DIMBLK
  1
Open30
  9
$DIMASO
 70
     1
  9
$DIMSHO
 70
     1
  9
$DIMPOST
  1

  9
$DIMAPOST
  1

  9
$DIMALT
 70
     0
  9
$DIMALTD
 70
     3
  9
$DIMALTF
 40
0.03937007874016
  9
$DIMLFAC
 40
1.0
  9
$DIMTOFL
 70
     1
  9
$DIMTVP
 40
0.0
  9
$DIMTIX
 70
     0
  9
$DIMSOXD
 70
     0
  9
$DIMSAH
 70
     0
  9
$DIMBLK1
  1

  9
$DIMBLK2
  1

  9
$DIMSTYLE
  2
1：1
  9
$DIMCLRD
 70
     0
  9
$DIMCLRE
 70
     0
  9
$DIMCLRT
 70
     4
  9
$DIMTFAC
 40
1.0
  9
$DIMGAP
 40
0.625
  9
$DIMJUST
 70
     0
  9
$DIMSD1
 70
     0
  9
$DIMSD2
 70
     0
  9
$DIMTOLJ
 70
     0
  9
$DIMTZIN
 70
     8
  9
$DIMALTZ
 70
     0
  9
$DIMALTTZ
 70
     0
  9
$DIMUPT
 70
     1
  9
$DIMDEC
 70
     2
  9
$DIMTDEC
 70
     2
  9
$DIMALTU
 70
     2
  9
$DIMALTTD
 70
     3
  9
$DIMTXSTY
  7
Standard
  9
$DIMAUNIT
 70
     0
  9
$DIMADEC
 70
     1
  9
$DIMALTRND
 40
0.0
  9
$DIMAZIN
 70
     2
  9
$DIMDSEP
 70
    46
  9
$DIMATFIT
 70
     0
  9
$DIMFRAC
 70
     0
  9
$DIMLDRBLK
  1
Open30
  9
$DIMLUNIT
 70
     2
  9
$DIMLWD
 70
    -2
  9
$DIMLWE
 70
    -2
  9
$DIMTMOVE
 70
     0
  9
$LUNITS
 70
     2
  9
$LUPREC
 70
     4
  9
$SKETCHINC
 40
0.1
  9
$FILLETRAD
 40
0.0
  9
$AUNITS
 70
     0
  9
$AUPREC
 70
     0
  9
$MENU
  1
.
  9
$ELEVATION
 40
0.0
  9
$PELEVATION
 40
0.0
  9
$THICKNESS
 40
0.0
  9
$LIMCHECK
 70
     0
  9
$CHAMFERA
 40
0.0
  9
$CHAMFERB
 40
0.0
  9
$CHAMFERC
 40
0.0
  9
$CHAMFERD
 40
0.0
  9
$SKPOLY
 70
     0
  9
$TDCREATE
 40
2458998.359140544
  9
$TDUCREATE
 40
2458997.984140544
  9
$TDUPDATE
 40
2459011.791651459
  9
$TDUUPDATE
 40
2459011.416651459
  9
$TDINDWG
 40
0.3796642130
  9
$TDUSRTIMER
 40
0.3796633333
  9
$USRTIMER
 70
     1
  9
$ANGBASE
 50
0.0
  9
$ANGDIR
 70
     0
  9
$PDMODE
 70
     0
  9
$PDSIZE
 40
0.0
  9
$PLINEWID
 40
0.0
  9
$SPLFRAME
 70
     0
  9
$SPLINETYPE
 70
     6
  9
$SPLINESEGS
 70
     8
  9
$HANDSEED
  5
22B1
  9
$SURFTAB1
 70
     6
  9
$SURFTAB2
 70
     6
  9
$SURFTYPE
 70
     6
  9
$SURFU
 70
     6
  9
$SURFV
 70
     6
  9
$UCSBASE
  2

  9
$UCSNAME
  2

  9
$UCSORG
 10
0.0
 20
0.0
 30
0.0
  9
$UCSXDIR
 10
1.0
 20
0.0
 30
0.0
  9
$UCSYDIR
 10
0.0
 20
1.0
 30
0.0
  9
$UCSORTHOREF
  2

  9
$UCSORTHOVIEW
 70
     0
  9
$UCSORGTOP
 10
0.0
 20
0.0
 30
0.0
  9
$UCSORGBOTTOM
 10
0.0
 20
0.0
 30
0.0
  9
$UCSORGLEFT
 10
0.0
 20
0.0
 30
0.0
  9
$UCSORGRIGHT
 10
0.0
 20
0.0
 30
0.0
  9
$UCSORGFRONT
 10
0.0
 20
0.0
 30
0.0
  9
$UCSORGBACK
 10
0.0
 20
0.0
 30
0.0
  9
$PUCSBASE
  2

  9
$PUCSNAME
  2

  9
$PUCSORG
 10
0.0
 20
0.0
 30
0.0
  9
$PUCSXDIR
 10
1.0
 20
0.0
 30
0.0
  9
$PUCSYDIR
 10
0.0
 20
1.0
 30
0.0
  9
$PUCSORTHOREF
  2

  9
$PUCSORTHOVIEW
 70
     0
  9
$PUCSORGTOP
 10
0.0
 20
0.0
 30
0.0
  9
$PUCSORGBOTTOM
 10
0.0
 20
0.0
 30
0.0
  9
$PUCSORGLEFT
 10
0.0
 20
0.0
 30
0.0
  9
$PUCSORGRIGHT
 10
0.0
 20
0.0
 30
0.0
  9
$PUCSORGFRONT
 10
0.0
 20
0.0
 30
0.0
  9
$PUCSORGBACK
 10
0.0
 20
0.0
 30
0.0
  9
$USERI1
 70
     0
  9
$USERI2
 70
     0
  9
$USERI3
 70
     0
  9
$USERI4
 70
     0
  9
$USERI5
 70
     0
  9
$USERR1
 40
0.0
  9
$USERR2
 40
0.0
  9
$USERR3
 40
0.0
  9
$USERR4
 40
0.0
  9
$USERR5
 40
0.0
  9
$WORLDVIEW
 70
     1
  9
$SHADEDGE
 70
     3
  9
$SHADEDIF
 70
    70
  9
$TILEMODE
 70
     1
  9
$MAXACTVP
 70
    64
  9
$PINSBASE
 10
0.0
 20
0.0
 30
0.0
  9
$PLIMCHECK
 70
     0
  9
$PEXTMIN
 10
0.0
 20
0.0
 30
0.0
  9
$PEXTMAX
 10
0.0
 20
0.0
 30
0.0
  9
$PLIMMIN
 10
0.0
 20
0.0
  9
$PLIMMAX
 10
12.0
 20
9.0
  9
$UNITMODE
 70
     0
  9
$VISRETAIN
 70
     1
  9
$PLINEGEN
 70
     0
  9
$PSLTSCALE
 70
     1
  9
$TREEDEPTH
 70
  3020
  9
$CMLSTYLE
  2
Standard
  9
$CMLJUST
 70
     0
  9
$CMLSCALE
 40
1.0
  9
$PROXYGRAPHICS
 70
     1
  9
$MEASUREMENT
 70
     1
  9
$CELWEIGHT
370
    -1
  9
$ENDCAPS
280
     0
  9
$JOINSTYLE
280
     0
  9
$LWDISPLAY
290
     0
  9
$INSUNITS
 70
     1
  9
$HYPERLINKBASE
  1

  9
$STYLESHEET
  1

  9
$XEDIT
290
     1
  9
$CEPSNTYPE
380
     0
  9
$PSTYLEMODE
290
     1
  9
$FINGERPRINTGUID
  2
{2DC16833-EA50-4549-848F-076E8E2D45A3}
  9
$VERSIONGUID
  2
{7AF1F85D-1E31-404F-A715-FC515DC3F0FC}
  9
$EXTNAMES
290
     1
  9
$PSVPSCALE
 40
0.0
  9
$OLESTARTUP
290
     0
  0
ENDSEC
  0
SECTION
  2
CLASSES
  0
CLASS
  1
ACDBDICTIONARYWDFLT
  2
AcDbDictionaryWithDefault
  3
ObjectDBX Classes
 90
        0
280
     0
281
     0
  0
CLASS
  1
ACDBPLACEHOLDER
  2
AcDbPlaceHolder
  3
ObjectDBX Classes
 90
        0
280
     0
281
     0
  0
CLASS
  1
LAYOUT
  2
AcDbLayout
  3
ObjectDBX Classes
 90
        0
280
     0
281
     0
  0
CLASS
  1
DICTIONARYVAR
  2
AcDbDictionaryVar
  3
ObjectDBX Classes
 90
        0
280
     0
281
     0
  0
CLASS
  1
TABLESTYLE
  2
AcDbTableStyle
  3
ObjectDBX Classes
 90
     4095
280
     0
281
     0
  0
CLASS
  1
MATERIAL
  2
AcDbMaterial
  3
ObjectDBX Classes
 90
     1153
280
     0
281
     0
  0
CLASS
  1
VISUALSTYLE
  2
AcDbVisualStyle
  3
ObjectDBX Classes
 90
     4095
280
     0
281
     0
  0
CLASS
  1
SORTENTSTABLE
  2
AcDbSortentsTable
  3
ObjectDBX Classes
 90
        0
280
     0
281
     0
  0
CLASS
  1
DIMASSOC
  2
AcDbDimAssoc
  3
"AcDbDimAssoc|Product Desc:     AcDim ARX App For Dimension|Company:          Autodesk, Inc.|WEB Address:      www.autodesk.com"
 90
        0
280
     0
281
     0
  0
CLASS
  1
SCALE
  2
AcDbScale
  3
ObjectDBX Classes
 90
     1153
280
     0
281
     0
  0
CLASS
  1
MLEADERSTYLE
  2
AcDbMLeaderStyle
  3
ACDB_MLEADERSTYLE_CLASS
 90
     4095
280
     0
281
     0
  0
CLASS
  1
CELLSTYLEMAP
  2
AcDbCellStyleMap
  3
ObjectDBX Classes
 90
     1152
280
     0
281
     0
  0
CLASS
  1
AEC_REFEDIT_STATUS_TRACKER
  2
AecDbRefEditStatusTracker
  3
AecArchBase60|Product Desc: Autodesk Architectural Desktop 2007 |Company: Autodesk,Inc. |WEB Address: www.autodesk.com
 90
      129
280
     0
281
     0
  0
CLASS
  1
NPOCOLLECTION
  2
AcDbImpNonPersistentObjectsCollection
  3
ObjectDBX Classes
 90
     1153
280
     0
281
     0
  0
ENDSEC
  0
SECTION
  2
TABLES
  0
TABLE
  2
VPORT
  5
8
102
{ACAD_XDICTIONARY
360
829
102
}
330
0
100
AcDbSymbolTable
 70
     1
  0
VPORT
  5
94
330
8
100
AcDbSymbolTableRecord
100
AcDbViewportTableRecord
  2
*Active
 70
     0
 10
0.0
 20
0.0
 11
1.0
 21
1.0
 12
1649.814473768751
 22
178.630414008118
 13
0.0
 23
0.0
 14
0.5
 24
0.5
 15
0.5
 25
0.5
 16
0.0
 26
0.0
 36
1.0
 17
0.0
 27
0.0
 37
0.0
 40
499.1836272993282
 41
2.009859154929577
 42
50.0
 43
0.0
 44
0.0
 50
0.0
 51
0.0
 71
     0
 72
  1000
 73
     1
 74
     2
 75
     0
 76
     0
 77
     0
 78
     0
281
     0
 65
     1
110
0.0
120
0.0
130
0.0
111
1.0
121
0.0
131
0.0
112
0.0
122
1.0
132
0.0
 79
     0
146
0.0
  0
ENDTAB
  0
TABLE
  2
LTYPE
  5
5
330
0
100
AcDbSymbolTable
 70
     5
  0
LTYPE
  5
14
330
5
100
AcDbSymbolTableRecord
100
AcDbLinetypeTableRecord
  2
ByBlock
 70
     0
  3

 72
    65
 73
     0
 40
0.0
  0
LTYPE
  5
15
330
5
100
AcDbSymbolTableRecord
100
AcDbLinetypeTableRecord
  2
ByLayer
 70
     0
  3

 72
    65
 73
     0
 40
0.0
  0
LTYPE
  5
16
330
5
100
AcDbSymbolTableRecord
100
AcDbLinetypeTableRecord
  2
Continuous
 70
     0
  3
Solid line
 72
    65
 73
     0
 40
0.0
  0
LTYPE
  5
148
330
5
100
AcDbSymbolTableRecord
100
AcDbLinetypeTableRecord
  2
CENTER
 70
     0
  3
Center ____ _ ____ _ ____ _ ____ _ ____ _ ____
 72
    65
 73
     4
 40
50.8
 49
31.75
 74
     0
 49
-6.349999999999997
 74
     0
 49
6.349999999999997
 74
     0
 49
-6.349999999999997
 74
     0
  0
LTYPE
  5
149
330
5
100
AcDbSymbolTableRecord
100
AcDbLinetypeTableRecord
  2
HIDDEN
 70
     0
  3
Hidden __ __ __ __ __ __ __ __ __ __ __ __ __ __
 72
    65
 73
     2
 40
9.524999999999996
 49
6.349999999999997
 74
     0
 49
-3.174999999999998
 74
     0
  0
LTYPE
  5
14A
330
5
100
AcDbSymbolTableRecord
100
AcDbLinetypeTableRecord
  2
PHANTOM
 70
     0
  3
Phantom ______  __  __  ______  __  __  ______
 72
    65
 73
     6
 40
63.5
 49
31.75
 74
     0
 49
-6.349999999999997
 74
     0
 49
6.349999999999997
 74
     0
 49
-6.349999999999997
 74
     0
 49
6.349999999999997
 74
     0
 49
-6.349999999999997
 74
     0
  0
ENDTAB
  0
TABLE
  2
LAYER
  5
2
102
{ACAD_XDICTIONARY
360
DD
102
}
330
0
100
AcDbSymbolTable
 70
     2
  0
LAYER
  5
10
102
{ACAD_XDICTIONARY
360
81D
102
}
330
2
100
AcDbSymbolTableRecord
100
AcDbLayerTableRecord
  2
0
 70
     0
 62
     7
  6
Continuous
370
    -3
390
F
  0
LAYER
  5
D8
330
2
100
AcDbSymbolTableRecord
100
AcDbLayerTableRecord
  2
Defpoints
 70
     0
 62
     7
  6
Continuous
290
     0
370
    -3
390
F
  0
ENDTAB
  0
TABLE
  2
STYLE
  5
3
330
0
100
AcDbSymbolTable
 70
     6
  0
STYLE
  5
11
330
3
100
AcDbSymbolTableRecord
100
AcDbTextStyleTableRecord
  2
Standard
 70
     0
 40
0.0
 41
1.0
 50
0.0
 71
     0
 42
0.2
  3
txt.shx
  4
bigfont.shx
  0
STYLE
  5
11D
330
3
100
AcDbSymbolTableRecord
100
AcDbTextStyleTableRecord
  2
高3.2
 70
     0
 40
3.2
 41
1.0
 50
0.0
 71
     0
 42
3.2
  3
txt.shx
  4
bigfont.shx
  0
STYLE
  5
11E
330
3
100
AcDbSymbolTableRecord
100
AcDbTextStyleTableRecord
  2
高6.3
 70
     0
 40
6.299999999999998
 41
1.0
 50
0.0
 71
     0
 42
6.299999999999998
  3
txt.shx
  4
bigfont.shx
  0
STYLE
  5
11F
330
3
100
AcDbSymbolTableRecord
100
AcDbTextStyleTableRecord
  2
高2.5
 70
     0
 40
2.5
 41
1.0
 50
0.0
 71
     0
 42
0.2
  3
txt.shx
  4
bigfont.shx
  0
STYLE
  5
146
330
3
100
AcDbSymbolTableRecord
100
AcDbTextStyleTableRecord
  2
高4.5
 70
     0
 40
4.5
 41
1.0
 50
0.0
 71
     0
 42
6.299999999999998
  3
txt.shx
  4
bigfont.shx
  0
STYLE
  5
171
330
3
100
AcDbSymbolTableRecord
100
AcDbTextStyleTableRecord
  2
高2
 70
     0
 40
2.0
 41
1.0
 50
0.0
 71
     0
 42
6.299999999999998
  3
txt.shx
  4
bigfont.shx
  0
ENDTAB
  0
TABLE
  2
VIEW
  5
6
330
0
100
AcDbSymbolTable
 70
     0
  0
ENDTAB
  0
TABLE
  2
UCS
  5
7
330
0
100
AcDbSymbolTable
 70
     0
  0
ENDTAB
  0
TABLE
  2
APPID
  5
9
330
0
100
AcDbSymbolTable
 70
     9
  0
APPID
  5
12
330
9
100
AcDbSymbolTableRecord
100
AcDbRegAppTableRecord
  2
ACAD
 70
     0
  0
APPID
  5
DC
330
9
100
AcDbSymbolTableRecord
100
AcDbRegAppTableRecord
  2
ACAD_DSTYLE_DIMJOGGED_JOGANGLE_SYMBOL
 70
     0
  0
APPID
  5
566
330
9
100
AcDbSymbolTableRecord
100
AcDbRegAppTableRecord
  2
ACAD_EXEMPT_FROM_CAD_STANDARDS
 70
     0
  0
APPID
  5
647
330
9
100
AcDbSymbolTableRecord
100
AcDbRegAppTableRecord
  2
ACAD_DSTYLE_DIMJAG
 70
     0
  0
APPID
  5
648
330
9
100
AcDbSymbolTableRecord
100
AcDbRegAppTableRecord
  2
ACAD_DSTYLE_DIMBREAK
 70
     0
  0
APPID
  5
649
330
9
100
AcDbSymbolTableRecord
100
AcDbRegAppTableRecord
  2
ACAD_DSTYLE_DIMTALN
 70
     0
  0
APPID
  5
858
330
9
100
AcDbSymbolTableRecord
100
AcDbRegAppTableRecord
  2
ACAD_DSTYLE_DIMARC_LENGTH_SYMBOL
 70
     0
  0
APPID
  5
859
330
9
100
AcDbSymbolTableRecord
100
AcDbRegAppTableRecord
  2
ACAD_DSTYLE_DIMEXT_LENGTH
 70
     0
  0
APPID
  5
86E
330
9
100
AcDbSymbolTableRecord
100
AcDbRegAppTableRecord
  2
ACAD_MLEADERVER
 70
     0
  0
ENDTAB
  0
TABLE
  2
DIMSTYLE
  5
A
330
0
100
AcDbSymbolTable
 70
    11
100
AcDbDimStyleTable
 71
     6
340
645
340
D9
340
DB
340
DA
340
127
340
129
  0
DIMSTYLE
105
D9
330
A
100
AcDbSymbolTableRecord
100
AcDbDimStyleTableRecord
  2
1：1
 70
     0
 41
2.5
 42
0.25
 43
0.2
 44
1.25
 73
     0
 74
     0
 77
     3
 78
     8
 79
     2
140
3.0
141
0.0
143
0.03937007874016
147
0.625
171
     3
172
     1
178
     4
179
     1
271
     2
272
     2
274
     3
283
     0
284
     8
288
     1
289
     0
340
11
341
C6
342
C6
1001
ACAD_DSTYLE_DIMARC_LENGTH_SYMBOL
1070
   379
1070
     2
1001
ACAD_DSTYLE_DIMEXT_LENGTH
1070
   378
1040
1.25
1001
ACAD_DSTYLE_DIMJOGGED_JOGANGLE_SYMBOL
1070
   384
1040
1.570796326794896
  0
DIMSTYLE
105
DA
330
A
100
AcDbSymbolTableRecord
100
AcDbDimStyleTableRecord
  2
2：1
 70
     0
 41
2.5
 42
0.25
 43
0.2
 44
1.25
 73
     0
 74
     0
 77
     3
 78
     8
 79
     2
140
3.0
141
0.0
143
0.03937007874016
144
0.5
147
0.625
171
     3
172
     1
178
     4
179
     1
271
     2
272
     2
274
     3
283
     0
284
     8
288
     1
289
     0
340
11
341
C6
342
C6
1001
ACAD_DSTYLE_DIMARC_LENGTH_SYMBOL
1070
   379
1070
     2
1001
ACAD_DSTYLE_DIMEXT_LENGTH
1070
   378
1040
1.25
1001
ACAD_DSTYLE_DIMJOGGED_JOGANGLE_SYMBOL
1070
   384
1040
1.570796326794896
  0
DIMSTYLE
105
DB
330
A
100
AcDbSymbolTableRecord
100
AcDbDimStyleTableRecord
  2
5：1
 70
     0
 41
2.5
 42
0.25
 43
0.2
 44
1.25
 73
     0
 74
     0
 77
     3
 78
     8
 79
     2
140
3.0
141
0.0
143
0.03937007874016
144
0.2
147
0.625
171
     3
172
     1
178
     4
179
     1
271
     2
272
     2
274
     3
283
     0
284
     8
288
     1
289
     0
340
11
341
C6
342
C6
1001
ACAD_DSTYLE_DIMARC_LENGTH_SYMBOL
1070
   379
1070
     2
1001
ACAD_DSTYLE_DIMEXT_LENGTH
1070
   378
1040
1.25
1001
ACAD_DSTYLE_DIMJOGGED_JOGANGLE_SYMBOL
1070
   384
1040
1.570796326794896
  0
DIMSTYLE
105
127
330
A
100
AcDbSymbolTableRecord
100
AcDbDimStyleTableRecord
  2
10：1
 70
     0
 41
2.5
 42
0.25
 43
0.2
 44
1.25
 73
     0
 74
     0
 77
     3
 78
     8
 79
     2
140
3.0
141
0.0
143
0.03937007874016
144
0.1
147
0.625
171
     3
172
     1
178
     4
179
     1
271
     2
272
     2
274
     3
283
     0
284
     8
288
     1
289
     0
340
11
341
C6
342
C6
1001
ACAD_DSTYLE_DIMARC_LENGTH_SYMBOL
1070
   379
1070
     2
1001
ACAD_DSTYLE_DIMEXT_LENGTH
1070
   378
1040
1.25
1001
ACAD_DSTYLE_DIMJOGGED_JOGANGLE_SYMBOL
1070
   384
1040
1.570796326794896
  0
DIMSTYLE
105
128
330
A
100
AcDbSymbolTableRecord
100
AcDbDimStyleTableRecord
  2
1／2
 70
     0
 41
2.5
 42
0.25
 43
0.2
 44
1.25
 73
     0
 74
     0
 77
     3
 78
     8
 79
     2
140
3.0
141
0.0
143
0.03937007874016
144
2.0
147
0.625
171
     3
172
     1
178
     4
179
     1
271
     2
272
     2
274
     3
283
     0
284
     8
288
     1
289
     0
340
11
341
C6
342
C6
1001
ACAD_DSTYLE_DIMARC_LENGTH_SYMBOL
1070
   379
1070
     2
1001
ACAD_DSTYLE_DIMEXT_LENGTH
1070
   378
1040
1.25
1001
ACAD_DSTYLE_DIMJOGGED_JOGANGLE_SYMBOL
1070
   384
1040
1.570796326794896
  0
DIMSTYLE
105
129
330
A
100
AcDbSymbolTableRecord
100
AcDbDimStyleTableRecord
  2
1／5
 70
     0
 41
2.5
 42
0.25
 43
0.2
 44
1.25
 73
     0
 74
     0
 77
     3
 78
     8
 79
     2
140
3.0
141
0.0
143
0.03937007874016
144
5.0
147
0.625
171
     3
172
     1
178
     4
179
     1
271
     2
272
     2
274
     3
283
     0
284
     8
288
     1
289
     0
340
11
341
C6
342
C6
1001
ACAD_DSTYLE_DIMARC_LENGTH_SYMBOL
1070
   379
1070
     2
1001
ACAD_DSTYLE_DIMEXT_LENGTH
1070
   378
1040
1.25
1001
ACAD_DSTYLE_DIMJOGGED_JOGANGLE_SYMBOL
1070
   384
1040
1.570796326794896
  0
DIMSTYLE
105
12A
330
A
100
AcDbSymbolTableRecord
100
AcDbDimStyleTableRecord
  2
1／10
 70
     0
 41
2.5
 42
0.25
 43
0.2
 44
1.25
 73
     0
 74
     0
 77
     3
 78
     8
 79
     2
140
3.0
141
0.0
143
0.03937007874016
144
10.0
147
0.625
171
     3
172
     1
178
     4
179
     1
271
     2
272
     2
274
     3
283
     0
284
     8
288
     1
289
     0
340
11
341
C6
342
C6
1001
ACAD_DSTYLE_DIMARC_LENGTH_SYMBOL
1070
   379
1070
     2
1001
ACAD_DSTYLE_DIMEXT_LENGTH
1070
   378
1040
1.25
1001
ACAD_DSTYLE_DIMJOGGED_JOGANGLE_SYMBOL
1070
   384
1040
1.570796326794896
  0
DIMSTYLE
105
644
330
A
100
AcDbSymbolTableRecord
100
AcDbDimStyleTableRecord
  2
1／4
 70
     0
 41
2.5
 42
0.25
 43
0.2
 44
1.25
 73
     0
 74
     0
 77
     3
 78
     8
 79
     2
140
3.0
141
0.0
143
0.03937007874016
144
4.0
147
0.625
171
     3
172
     1
178
     4
179
     1
271
     2
272
     2
274
     3
283
     0
284
     8
288
     1
289
     0
340
11
341
C6
342
C6
1001
ACAD_DSTYLE_DIMARC_LENGTH_SYMBOL
1070
   379
1070
     2
1001
ACAD_DSTYLE_DIMEXT_LENGTH
1070
   378
1040
1.25
1001
ACAD_DSTYLE_DIMJOGGED_JOGANGLE_SYMBOL
1070
   384
1040
1.570796326794896
  0
DIMSTYLE
105
645
330
A
100
AcDbSymbolTableRecord
100
AcDbDimStyleTableRecord
  2
1／3
 70
     0
 41
2.5
 42
0.25
 43
0.2
 44
1.25
 73
     0
 74
     0
 77
     3
 78
     8
 79
     2
140
3.0
141
0.0
143
0.03937007874016
144
3.0
147
0.625
171
     3
172
     1
178
     4
179
     1
271
     2
272
     2
274
     3
283
     0
284
     8
288
     1
289
     0
340
11
341
C6
342
C6
1001
ACAD_DSTYLE_DIMARC_LENGTH_SYMBOL
1070
   379
1070
     2
1001
ACAD_DSTYLE_DIMEXT_LENGTH
1070
   378
1040
1.25
1001
ACAD_DSTYLE_DIMJOGGED_JOGANGLE_SYMBOL
1070
   384
1040
1.570796326794896
  0
DIMSTYLE
105
646
330
A
100
AcDbSymbolTableRecord
100
AcDbDimStyleTableRecord
  2
FREE
 70
     0
 41
2.5
 42
0.25
 43
0.2
 44
1.25
 73
     0
 74
     0
 77
     3
 78
     8
 79
     2
140
3.0
141
0.0
143
0.03937007874016
147
0.625
171
     3
172
     1
178
     4
179
     1
271
     2
272
     2
274
     3
283
     0
284
     8
288
     1
289
     0
340
11
341
C6
342
C6
1001
ACAD_DSTYLE_DIMBREAK
1070
   391
1040
3.75
1001
ACAD_DSTYLE_DIMJAG
1070
   388
1040
1.5
1001
ACAD_DSTYLE_DIMTALN
1070
   392
1070
     0
1001
ACAD_DSTYLE_DIMARC_LENGTH_SYMBOL
1070
   379
1070
     2
1001
ACAD_DSTYLE_DIMEXT_LENGTH
1070
   378
1040
1.25
1001
ACAD_DSTYLE_DIMJOGGED_JOGANGLE_SYMBOL
1070
   384
1040
1.570796326794896
  0
DIMSTYLE
105
13E9
330
A
100
AcDbSymbolTableRecord
100
AcDbDimStyleTableRecord
  2
ISO-25
 70
     0
 41
2.5
 42
0.625
 43
3.75
 44
1.25
 73
     0
 74
     0
 77
     1
 78
     8
140
2.5
141
2.5
143
0.03937007874016
147
0.625
171
     3
172
     1
271
     2
272
     2
274
     3
278
    44
283
     0
284
     8
340
11
  0
ENDTAB
  0
TABLE
  2
BLOCK_RECORD
  5
1
330
0
100
AcDbSymbolTable
 70
    42
  0
BLOCK_RECORD
  5
1F
102
{ACAD_XDICTIONARY
360
31A
102
}
330
1
100
AcDbSymbolTableRecord
100
AcDbBlockTableRecord
  2
*Model_Space
340
22
  0
BLOCK_RECORD
  5
58
330
1
100
AcDbSymbolTableRecord
100
AcDbBlockTableRecord
  2
*Paper_Space
340
59
  0
BLOCK_RECORD
  5
5D
330
1
100
AcDbSymbolTableRecord
100
AcDbBlockTableRecord
  2
*Paper_Space0
340
5E
  0
BLOCK_RECORD
  5
C6
330
1
100
AcDbSymbolTableRecord
100
AcDbBlockTableRecord
  2
_Open30
340
0
102
{BLKREFS
331
BA8
331
BA9
331
BB4
331
BB5
331
BC0
331
BC1
331
BCC
331
BCD
331
BD8
331
BD9
331
BE4
331
BE5
331
1024
331
1025
331
105D
331
105E
331
1066
331
1067
331
106F
331
1070
331
1078
331
1079
331
1081
331
1082
331
1200
331
1201
331
1282
331
1283
331
13CA
331
13CB
331
13E2
331
13E3
331
18C0
331
18C1
331
1A2C
331
1A2D
331
1A35
331
1A36
331
1A74
331
1A75
331
1A7D
331
1A7E
331
1A86
331
1A87
331
1A8F
331
1A90
331
1A98
331
1A99
331
1B7C
331
1B7D
331
1B88
331
1B89
331
1B94
331
1B95
331
1BA0
331
1BA1
331
1BAC
331
1BAD
331
205C
331
205D
331
2065
331
2066
331
207A
331
207B
331
2083
331
2084
331
208C
331
208D
331
214C
331
214D
331
2155
331
2156
331
215E
331
215F
331
2167
331
2168
331
2170
331
2171
102
}
  0
BLOCK_RECORD
  5
ACA
102
{ACAD_XDICTIONARY
360
B94
102
}
330
1
100
AcDbSymbolTableRecord
100
AcDbBlockTableRecord
  2
A$C3C162290
340
0
1001
ACAD
1000
DesignCenter Data
1002
{
1070
     1
1070
     1
1002
}
  0
BLOCK_RECORD
  5
BA3
330
1
100
AcDbSymbolTableRecord
100
AcDbBlockTableRecord
  2
*D3
340
0
  0
BLOCK_RECORD
  5
BAF
330
1
100
AcDbSymbolTableRecord
100
AcDbBlockTableRecord
  2
*D4
340
0
  0
BLOCK_RECORD
  5
BBB
330
1
100
AcDbSymbolTableRecord
100
AcDbBlockTableRecord
  2
*D5
340
0
  0
BLOCK_RECORD
  5
BC7
330
1
100
AcDbSymbolTableRecord
100
AcDbBlockTableRecord
  2
*D6
340
0
  0
BLOCK_RECORD
  5
BD3
330
1
100
AcDbSymbolTableRecord
100
AcDbBlockTableRecord
  2
*D7
340
0
  0
BLOCK_RECORD
  5
BDF
330
1
100
AcDbSymbolTableRecord
100
AcDbBlockTableRecord
  2
*D8
340
0
  0
BLOCK_RECORD
  5
1012
330
1
100
AcDbSymbolTableRecord
100
AcDbBlockTableRecord
  2
*D9
340
0
  0
BLOCK_RECORD
  5
101E
330
1
100
AcDbSymbolTableRecord
100
AcDbBlockTableRecord
  2
*D10
340
0
  0
BLOCK_RECORD
  5
102A
330
1
100
AcDbSymbolTableRecord
100
AcDbBlockTableRecord
  2
*D11
340
0
  0
BLOCK_RECORD
  5
1036
330
1
100
AcDbSymbolTableRecord
100
AcDbBlockTableRecord
  2
*D12
340
0
  0
BLOCK_RECORD
  5
1042
330
1
100
AcDbSymbolTableRecord
100
AcDbBlockTableRecord
  2
*D13
340
0
  0
BLOCK_RECORD
  5
104E
330
1
100
AcDbSymbolTableRecord
100
AcDbBlockTableRecord
  2
*D14
340
0
  0
BLOCK_RECORD
  5
1176
330
1
100
AcDbSymbolTableRecord
100
AcDbBlockTableRecord
  2
*D15
340
0
  0
BLOCK_RECORD
  5
1182
330
1
100
AcDbSymbolTableRecord
100
AcDbBlockTableRecord
  2
*D16
340
0
  0
BLOCK_RECORD
  5
118E
330
1
100
AcDbSymbolTableRecord
100
AcDbBlockTableRecord
  2
*D17
340
0
  0
BLOCK_RECORD
  5
119A
330
1
100
AcDbSymbolTableRecord
100
AcDbBlockTableRecord
  2
*D18
340
0
  0
BLOCK_RECORD
  5
11A6
330
1
100
AcDbSymbolTableRecord
100
AcDbBlockTableRecord
  2
*D19
340
0
  0
BLOCK_RECORD
  5
11B2
330
1
100
AcDbSymbolTableRecord
100
AcDbBlockTableRecord
  2
*D20
340
0
  0
BLOCK_RECORD
  5
1268
330
1
100
AcDbSymbolTableRecord
100
AcDbBlockTableRecord
  2
*D21
340
0
  0
BLOCK_RECORD
  5
13BA
330
1
100
AcDbSymbolTableRecord
100
AcDbBlockTableRecord
  2
*D22
340
0
  0
BLOCK_RECORD
  5
13D2
330
1
100
AcDbSymbolTableRecord
100
AcDbBlockTableRecord
  2
*D23
340
0
  0
BLOCK_RECORD
  5
17D8
330
1
100
AcDbSymbolTableRecord
100
AcDbBlockTableRecord
  2
*D24
340
0
  0
BLOCK_RECORD
  5
17E4
330
1
100
AcDbSymbolTableRecord
100
AcDbBlockTableRecord
  2
*D25
340
0
  0
BLOCK_RECORD
  5
17F0
330
1
100
AcDbSymbolTableRecord
100
AcDbBlockTableRecord
  2
*D26
340
0
  0
BLOCK_RECORD
  5
17FC
330
1
100
AcDbSymbolTableRecord
100
AcDbBlockTableRecord
  2
*D27
340
0
  0
BLOCK_RECORD
  5
1811
330
1
100
AcDbSymbolTableRecord
100
AcDbBlockTableRecord
  2
*D28
340
0
  0
BLOCK_RECORD
  5
18AC
330
1
100
AcDbSymbolTableRecord
100
AcDbBlockTableRecord
  2
*D29
340
0
  0
BLOCK_RECORD
  5
1904
330
1
100
AcDbSymbolTableRecord
100
AcDbBlockTableRecord
  2
*D30
340
0
  0
BLOCK_RECORD
  5
191C
330
1
100
AcDbSymbolTableRecord
100
AcDbBlockTableRecord
  2
*D31
340
0
  0
BLOCK_RECORD
  5
1B77
330
1
100
AcDbSymbolTableRecord
100
AcDbBlockTableRecord
  2
*D32
340
0
  0
BLOCK_RECORD
  5
1B83
330
1
100
AcDbSymbolTableRecord
100
AcDbBlockTableRecord
  2
*D33
340
0
  0
BLOCK_RECORD
  5
1B8F
330
1
100
AcDbSymbolTableRecord
100
AcDbBlockTableRecord
  2
*D34
340
0
  0
BLOCK_RECORD
  5
1B9B
330
1
100
AcDbSymbolTableRecord
100
AcDbBlockTableRecord
  2
*D35
340
0
  0
BLOCK_RECORD
  5
1BA7
330
1
100
AcDbSymbolTableRecord
100
AcDbBlockTableRecord
  2
*D36
340
0
  0
BLOCK_RECORD
  5
2029
330
1
100
AcDbSymbolTableRecord
100
AcDbBlockTableRecord
  2
*D37
340
0
  0
BLOCK_RECORD
  5
2035
330
1
100
AcDbSymbolTableRecord
100
AcDbBlockTableRecord
  2
*D38
340
0
  0
BLOCK_RECORD
  5
2041
330
1
100
AcDbSymbolTableRecord
100
AcDbBlockTableRecord
  2
*D39
340
0
  0
BLOCK_RECORD
  5
204D
330
1
100
AcDbSymbolTableRecord
100
AcDbBlockTableRecord
  2
*D40
340
0
  0
BLOCK_RECORD
  5
206B
330
1
100
AcDbSymbolTableRecord
100
AcDbBlockTableRecord
  2
*D41
340
0
  0
ENDTAB
  0
ENDSEC
  0
SECTION
  2
BLOCKS
  0
BLOCK
  5
20
330
1F
100
AcDbEntity
  8
0
100
AcDbBlockBegin
  2
*Model_Space
 70
     0
 10
0.0
 20
0.0
 30
0.0
  3
*Model_Space
  1

  0
ENDBLK
  5
21
330
1F
100
AcDbEntity
  8
0
100
AcDbBlockEnd
  0
BLOCK
  5
5A
330
58
100
AcDbEntity
 67
     1
  8
0
100
AcDbBlockBegin
  2
*Paper_Space
 70
     0
 10
0.0
 20
0.0
 30
0.0
  3
*Paper_Space
  1

  0
ENDBLK
  5
5B
330
58
100
AcDbEntity
 67
     1
  8
0
100
AcDbBlockEnd
  0
BLOCK
  5
5F
330
5D
100
AcDbEntity
 67
     1
  8
0
100
AcDbBlockBegin
  2
*Paper_Space0
 70
     0
 10
0.0
 20
0.0
 30
0.0
  3
*Paper_Space0
  1

  0
ENDBLK
  5
60
330
5D
100
AcDbEntity
 67
     1
  8
0
100
AcDbBlockEnd
  0
BLOCK
  5
C7
330
C6
100
AcDbEntity
  8
0
100
AcDbBlockBegin
  2
_Open30
 70
     0
 10
0.0
 20
0.0
 30
0.0
  3
_Open30
  1

  0
LINE
  5
C8
330
C6
100
AcDbEntity
  8
0
  6
ByBlock
 62
     0
370
    -2
100
AcDbLine
 10
-1.0
 20
0.267949
 30
0.0
 11
0.0
 21
0.0
 31
0.0
  0
LINE
  5
C9
330
C6
100
AcDbEntity
  8
0
  6
ByBlock
 62
     0
370
    -2
100
AcDbLine
 10
0.0
 20
0.0
 30
0.0
 11
-1.0
 21
-0.267949
 31
0.0
  0
LINE
  5
CA
330
C6
100
AcDbEntity
  8
0
  6
ByBlock
 62
     0
370
    -2
100
AcDbLine
 10
0.0
 20
0.0
 30
0.0
 11
-1.0
 21
0.0
 31
0.0
  0
ENDBLK
  5
CB
330
C6
100
AcDbEntity
  8
0
100
AcDbBlockEnd
  0
BLOCK
  5
B96
330
ACA
100
AcDbEntity
  8
0
100
AcDbBlockBegin
  2
A$C3C162290
 70
     0
 10
0.0
 20
0.0
 30
0.0
  3
A$C3C162290
  1

  0
LINE
  5
ACB
330
ACA
100
AcDbEntity
  8
0
 62
     3
100
AcDbLine
 10
8.487926473143485
 20
138.4999995915839
 30
0.0
 11
7.999999643143496
 21
138.4999995915839
 31
0.0
  0
LINE
  5
ACC
330
ACA
100
AcDbEntity
  8
0
 62
     3
100
AcDbLine
 10
19.9999996431435
 20
276.9999995915839
 30
0.0
 11
19.9999996431435
 21
-0.0000004084160992
 31
0.0
  0
LINE
  5
ACD
330
ACA
100
AcDbEntity
  8
0
 62
   254
100
AcDbLine
 10
-0.0000003568565035
 20
286.9999995915839
 30
0.0
 11
-0.0000003568565035
 21
-0.0000004084160992
 31
0.0
  0
LINE
  5
ACE
330
ACA
100
AcDbEntity
  8
0
 62
     3
100
AcDbLine
 10
199.9999996431435
 20
-0.0000004084160992
 30
0.0
 11
199.9999996431435
 21
276.9999995915839
 31
0.0
  0
LINE
  5
ACF
330
ACA
100
AcDbEntity
  8
0
 62
     3
100
AcDbLine
 10
19.9999996431435
 20
-0.0000004084160992
 30
0.0
 11
199.9999996431435
 21
-0.0000004084160992
 31
0.0
  0
LINE
  5
AD0
330
ACA
100
AcDbEntity
  8
0
 62
     3
100
AcDbLine
 10
85.32766227314345
 20
276.9999995915839
 30
0.0
 11
199.9999996431435
 21
276.9999995915839
 31
0.0
  0
LINE
  5
AD1
330
ACA
100
AcDbEntity
  8
0
 62
   254
100
AcDbLine
 10
-0.0000003568565035
 20
286.9999995915839
 30
0.0
 11
199.9999996431435
 21
286.9999995915839
 31
0.0
  0
LINE
  5
AD2
330
ACA
100
AcDbEntity
  8
0
 62
     3
100
AcDbLine
 10
51.91491575314353
 20
276.9999995915839
 30
0.0
 11
19.9999996431435
 21
276.9999995915839
 31
0.0
  0
LINE
  5
AD3
330
ACA
100
AcDbEntity
  8
0
 62
     3
100
AcDbLine
 10
147.9999996431435
 20
-0.0000004084160992
 30
0.0
 11
147.9999996431435
 21
39.99999959158391
 31
0.0
  0
LINE
  5
AD4
330
ACA
100
AcDbEntity
  8
0
 62
     3
100
AcDbLine
 10
160.9999996431435
 20
9.9999995915839
 30
0.0
 11
160.9999996431435
 21
37.9999995915839
 31
0.0
  0
LINE
  5
AD5
330
ACA
100
AcDbEntity
  8
0
 62
     3
100
AcDbLine
 10
120.9999996431435
 20
9.9999995915839
 30
0.0
 11
120.9999996431435
 21
23.99999959158389
 31
0.0
  0
LINE
  5
AD6
330
ACA
100
AcDbEntity
  8
0
 62
     3
100
AcDbLine
 10
130.9999996431435
 20
23.99999959158389
 30
0.0
 11
130.9999996431435
 21
-0.0000004084160992
 31
0.0
  0
LINE
  5
AD7
330
ACA
100
AcDbEntity
  8
0
 62
     3
100
AcDbLine
 10
101.9999996431435
 20
39.99999959158389
 30
0.0
 11
101.9999996431435
 21
16.99999959158391
 31
0.0
  0
LINE
  5
AD8
330
ACA
100
AcDbEntity
  8
0
 62
     3
100
AcDbLine
 10
160.9999996431435
 20
37.9999995915839
 30
0.0
 11
160.9999996431435
 21
39.99999959158391
 31
0.0
  0
LINE
  5
AD9
330
ACA
100
AcDbEntity
  8
0
 62
     3
100
AcDbLine
 10
173.9999996431435
 20
16.99999959158391
 30
0.0
 11
173.9999996431435
 21
39.99999959158391
 31
0.0
  0
LINE
  5
ADA
330
ACA
100
AcDbEntity
  8
0
 62
     3
100
AcDbLine
 10
199.9999996431435
 20
39.99999959158391
 30
0.0
 11
88.75456500314362
 21
39.99999959158392
 31
0.0
  0
LINE
  5
ADB
330
ACA
100
AcDbEntity
  8
0
 62
     3
100
AcDbLine
 10
199.9999996431435
 20
30.9999995915839
 30
0.0
 11
88.75456500314355
 21
30.99999959158391
 31
0.0
  0
LINE
  5
ADC
330
ACA
100
AcDbEntity
  8
0
 62
     3
100
AcDbLine
 10
199.9999996431435
 20
16.99999959158391
 30
0.0
 11
88.75456500314355
 21
16.99999959158391
 31
0.0
  0
LINE
  5
ADD
330
ACA
100
AcDbEntity
  8
0
 62
     3
100
AcDbLine
 10
199.9999996431435
 20
9.9999995915839
 30
0.0
 11
88.69655714314342
 21
9.9999995915839
 31
0.0
  0
LINE
  5
ADE
330
ACA
100
AcDbEntity
  8
0
 62
     3
100
AcDbLine
 10
186.9999996431435
 20
16.99999959158391
 30
0.0
 11
186.9999996431435
 21
39.99999959158391
 31
0.0
  0
LINE
  5
ADF
330
ACA
100
AcDbEntity
  8
0
 62
     3
100
AcDbLine
 10
88.75456500314355
 20
39.99999959158392
 30
0.0
 11
88.75456500314355
 21
-0.0000004084160992
 31
0.0
  0
LINE
  5
AE0
330
ACA
100
AcDbEntity
  8
0
 62
     3
100
AcDbLine
 10
147.9999996431435
 20
23.99999959158389
 30
0.0
 11
88.75456500314355
 21
23.99999959158389
 31
0.0
  0
LINE
  5
AE1
330
ACA
100
AcDbEntity
  8
0
 62
     3
100
AcDbLine
 10
131.2783245731434
 20
4.832860851583888
 30
0.0
 11
147.9999996431435
 21
4.832860851583888
 31
0.0
  0
TEXT
  5
AE2
330
ACA
100
AcDbEntity
  8
0
 62
     3
100
AcDbText
 10
132.1643250564592
 20
19.07309644494925
 30
0.0
 40
2.5
  1
******
  7
高2.5
100
AcDbText
  0
TEXT
  5
AE3
330
ACA
100
AcDbEntity
  8
0
 62
     3
100
AcDbText
 10
103.1963683383957
 20
19.2978139965678
 30
0.0
 40
2.5
  1
*****
  7
高2.5
100
AcDbText
  0
TEXT
  5
AE4
330
ACA
100
AcDbEntity
  8
0
 62
     3
100
AcDbText
 10
103.4612760930931
 20
32.31224911534179
 30
0.0
 40
4.5
  1
**********
  7
高4.5
100
AcDbText
1001
ACAD
1000
ACAD_MTEXT_DEFINED_HEIGHT_BEGIN
1070
    46
1040
0.0
1000
ACAD_MTEXT_DEFINED_HEIGHT_END
  0
TEXT
  5
AE5
330
ACA
100
AcDbEntity
  8
0
 62
     3
100
AcDbText
 10
190.0655887366175
 20
36.51369169028749
 30
0.0
 40
2.0
  1
DEF
  7
高2
100
AcDbText
  0
TEXT
  5
AE6
330
ACA
100
AcDbEntity
  8
0
 62
     3
100
AcDbText
 10
176.1264903829093
 20
36.5136916902874
 30
0.0
 40
2.0
  1
DESN
  7
高2
100
AcDbText
  0
TEXT
  5
AE7
330
ACA
100
AcDbEntity
  8
0
 62
     3
100
AcDbText
 10
149.8721234429091
 20
36.51369169028749
 30
0.0
 40
2.0
  1
APPD
  7
高2
100
AcDbText
  0
TEXT
  5
AE8
330
ACA
100
AcDbEntity
  8
0
 62
     3
100
AcDbText
 10
162.9848595431434
 20
36.51369169028751
 30
0.0
 40
2.0
  1
CHCK
  7
高2
100
AcDbText
  0
TEXT
  5
AE9
330
ACA
100
AcDbEntity
  8
0
 62
     3
100
AcDbText
 10
121.9271652822962
 20
14.16839841481461
 30
0.0
 40
2.0
  1
SCALE
 41
0.8
  7
高2
100
AcDbText
  0
TEXT
  5
AEA
330
ACA
100
AcDbEntity
  8
0
 62
     3
100
AcDbText
 10
90.43914370618962
 20
14.16839841481463
 30
0.0
 40
2.0
  1
3AD　ANGLE
 41
1.5
  7
高2
100
AcDbText
  0
TEXT
  5
AEB
330
ACA
100
AcDbEntity
  8
0
 62
     3
100
AcDbText
 10
121.1965709731449
 20
20.91993648377173
 30
0.0
 40
2.0
  1
REMARKS
 41
0.7
  7
高2
100
AcDbText
  0
TEXT
  5
AEC
330
ACA
100
AcDbEntity
  8
0
 62
     3
100
AcDbText
 10
90.22223535314344
 20
20.99999959158391
 30
0.0
 40
2.0
  1
MATERIAL
 41
0.7
  7
高2
100
AcDbText
  0
TEXT
  5
AED
330
ACA
100
AcDbEntity
  8
0
 62
     3
100
AcDbText
 10
90.7987225558976
 20
27.99999959158389
 30
0.0
 40
2.0
  1
MODEL
  7
高2
100
AcDbText
  0
TEXT
  5
AEE
330
ACA
100
AcDbEntity
  8
0
 62
     3
100
AcDbText
 10
90.43564343722879
 20
36.70702094218292
 30
0.0
 40
2.0
  1
CONPONENTS
 41
0.5
  7
高2
100
AcDbText
  0
TEXT
  5
AEF
330
ACA
100
AcDbEntity
  8
0
 62
     3
100
AcDbText
 10
103.1427589083956
 20
25.08748071939586
 30
0.0
 40
4.5
  1
********
  7
高4.5
100
AcDbText
  0
TEXT
  5
AF0
330
ACA
100
AcDbEntity
  8
0
 62
     3
100
AcDbText
 10
151.065045373762
 20
1.231861447008209
 30
0.0
 40
6.299999999999998
  1
*-********
 41
0.6
  7
高6.3
100
AcDbText
1001
ACAD
1000
ACAD_MTEXT_DEFINED_HEIGHT_BEGIN
1070
    46
1040
0.0
1000
ACAD_MTEXT_DEFINED_HEIGHT_END
  0
TEXT
  5
AF1
330
ACA
100
AcDbEntity
  8
0
 62
     3
100
AcDbText
 10
164.563509393473
 20
11.1008887498169
 30
0.0
 40
3.2
  1
******
  7
高3.2
100
AcDbText
1001
ACAD
1000
ACAD_MTEXT_DEFINED_HEIGHT_BEGIN
1070
    46
1040
0.0
1000
ACAD_MTEXT_DEFINED_HEIGHT_END
  0
TEXT
  5
AF2
330
ACA
100
AcDbEntity
  8
0
 62
     3
100
AcDbText
 10
134.7875975377898
 20
11.10091659415177
 30
0.0
 40
3.2
  1
1/1
  7
高3.2
100
AcDbText
  0
TEXT
  5
AF3
330
ACA
100
AcDbEntity
  8
0
 62
     3
100
AcDbText
 10
131.8649265131434
 20
0.8168777647198622
 30
0.0
 40
3.2
  1
ZK-A4Y
 41
0.8
  7
高3.2
100
AcDbText
  0
TEXT
  5
AF4
330
ACA
100
AcDbEntity
  8
0
 62
     3
100
AcDbText
 10
89.58526604314341
 20
6.524620013771727
 30
0.0
 40
2.0
  1
NICHIDO IND.CO.LTD
 41
1.3
  7
高2
100
AcDbText
  0
TEXT
  5
AF5
330
ACA
100
AcDbEntity
  8
0
 62
     3
100
AcDbText
 10
90.76678930810066
 20
32.14052779946884
 30
0.0
 40
3.2
  1
品 名
  7
高3.2
100
AcDbText
1001
ACAD
1000
ACAD_MTEXT_DEFINED_HEIGHT_BEGIN
1070
    46
1040
0.0
1000
ACAD_MTEXT_DEFINED_HEIGHT_END
  0
TEXT
  5
AF6
330
ACA
100
AcDbEntity
  8
0
 62
     3
100
AcDbText
 10
90.76678930810066
 20
24.49999959158389
 30
0.0
 40
3.2
  1
型 式
  7
高3.2
100
AcDbText
1001
ACAD
1000
ACAD_MTEXT_DEFINED_HEIGHT_BEGIN
1070
    46
1040
3.064735913775952
1000
ACAD_MTEXT_DEFINED_HEIGHT_END
  0
TEXT
  5
AF7
330
ACA
100
AcDbEntity
  8
0
 62
     3
100
AcDbText
 10
90.76678930810066
 20
17.4999995915839
 30
0.0
 40
3.2
  1
材 質
  7
高3.2
100
AcDbText
1001
ACAD
1000
ACAD_MTEXT_DEFINED_HEIGHT_BEGIN
1070
    46
1040
0.0
1000
ACAD_MTEXT_DEFINED_HEIGHT_END
  0
TEXT
  5
AF8
330
ACA
100
AcDbEntity
  8
0
 62
     3
100
AcDbText
 10
90.46175435810059
 20
10.46743958383014
 30
0.0
 40
3.2
  1
第 三 角 法
  7
高3.2
100
AcDbText
1001
ACAD
1000
ACAD_MTEXT_DEFINED_HEIGHT_BEGIN
1070
    46
1040
0.0
1000
ACAD_MTEXT_DEFINED_HEIGHT_END
  0
TEXT
  5
AF9
330
ACA
100
AcDbEntity
  8
0
 62
     3
100
AcDbText
 10
88.86828696562952
 20
1.140527799468832
 30
0.0
 40
3.2
  1
日動工業株式会社
 41
1.199999999999999
  7
高3.2
100
AcDbText
1001
ACAD
1000
ACAD_MTEXT_DEFINED_HEIGHT_BEGIN
1070
    46
1040
0.0
1000
ACAD_MTEXT_DEFINED_HEIGHT_END
  0
TEXT
  5
AFA
330
ACA
100
AcDbEntity
  8
0
 62
     3
100
AcDbText
 10
122.503911165108
 20
17.38457812475146
 30
0.0
 40
3.2
  1
備考
  7
高3.2
100
AcDbText
1001
ACAD
1000
ACAD_MTEXT_DEFINED_HEIGHT_BEGIN
1070
    46
1040
0.0
1000
ACAD_MTEXT_DEFINED_HEIGHT_END
  0
TEXT
  5
AFB
330
ACA
100
AcDbEntity
  8
0
 62
     3
100
AcDbText
 10
132.1529686121434
 20
6.146229617154192
 30
0.0
 40
2.5
  1
出図コード
  7
高2.5
100
AcDbText
1001
ACAD
1000
ACAD_MTEXT_DEFINED_HEIGHT_BEGIN
1070
    46
1040
0.0
1000
ACAD_MTEXT_DEFINED_HEIGHT_END
  0
TEXT
  5
AFC
330
ACA
100
AcDbEntity
  8
0
 62
     3
100
AcDbText
 10
122.3451450470205
 20
10.45323450199681
 30
0.0
 40
3.2
  1
尺度
  7
高3.2
100
AcDbText
1001
ACAD
1000
ACAD_MTEXT_DEFINED_HEIGHT_BEGIN
1070
    46
1040
0.0
1000
ACAD_MTEXT_DEFINED_HEIGHT_END
  0
TEXT
  5
AFD
330
ACA
100
AcDbEntity
  8
0
 62
     3
100
AcDbText
 10
149.4914065287993
 20
11.58471295011431
 30
0.0
 40
3.2
  1
作成日
  7
高3.2
100
AcDbText
1001
ACAD
1000
ACAD_MTEXT_DEFINED_HEIGHT_BEGIN
1070
    46
1040
0.0
1000
ACAD_MTEXT_DEFINED_HEIGHT_END
  0
TEXT
  5
AFE
330
ACA
100
AcDbEntity
  8
0
 62
     3
100
AcDbText
 10
149.3858805356633
 20
32.14052779946884
 30
0.0
 40
3.2
  1
承 認
  7
高3.2
100
AcDbText
1001
ACAD
1000
ACAD_MTEXT_DEFINED_HEIGHT_BEGIN
1070
    46
1040
0.0
1000
ACAD_MTEXT_DEFINED_HEIGHT_END
  0
TEXT
  5
AFF
330
ACA
100
AcDbEntity
  8
0
 62
     3
100
AcDbText
 10
162.3858805356632
 20
32.14052779946884
 30
0.0
 40
3.2
  1
検 図
  7
高3.2
100
AcDbText
1001
ACAD
1000
ACAD_MTEXT_DEFINED_HEIGHT_BEGIN
1070
    46
1040
0.0
1000
ACAD_MTEXT_DEFINED_HEIGHT_END
  0
TEXT
  5
B00
330
ACA
100
AcDbEntity
  8
0
 62
     3
100
AcDbText
 10
175.3858805356632
 20
32.14052779946884
 30
0.0
 40
3.2
  1
設 計
  7
高3.2
100
AcDbText
1001
ACAD
1000
ACAD_MTEXT_DEFINED_HEIGHT_BEGIN
1070
    46
1040
0.0
1000
ACAD_MTEXT_DEFINED_HEIGHT_END
  0
TEXT
  5
B01
330
ACA
100
AcDbEntity
  8
0
 62
     3
100
AcDbText
 10
188.6865170556632
 20
32.14052779946884
 30
0.0
 40
3.2
  1
製 図
  7
高3.2
100
AcDbText
1001
ACAD
1000
ACAD_MTEXT_DEFINED_HEIGHT_BEGIN
1070
    46
1040
0.0
1000
ACAD_MTEXT_DEFINED_HEIGHT_END
  0
LINE
  5
B02
330
ACA
100
AcDbEntity
  8
0
 62
     3
100
AcDbLine
 10
59.25293360287717
 20
278.4481801852499
 30
0.0
 11
59.25293360287717
 21
275.2948313915841
 31
0.0
  0
LINE
  5
B03
330
ACA
100
AcDbEntity
  8
0
 62
     3
100
AcDbLine
 10
59.89576267797656
 20
277.2171083655226
 30
0.0
 11
59.89576267797656
 21
275.2948313915841
 31
0.0
  0
LINE
  5
B04
330
ACA
100
AcDbEntity
  8
0
 62
     3
100
AcDbLine
 10
61.6998595658506
 20
278.4481801852499
 30
0.0
 11
61.6998595658506
 21
277.0597132644989
 31
0.0
  0
LINE
  5
B05
330
ACA
100
AcDbEntity
  8
0
 62
     3
100
AcDbLine
 10
62.34268796709443
 20
278.4481801852499
 30
0.0
 11
62.34268796709443
 21
274.8721993930075
 31
0.0
  0
LINE
  5
B06
330
ACA
100
AcDbEntity
  8
0
 62
     3
100
AcDbLine
 10
63.36663412467465
 20
278.4265210809052
 30
0.0
 11
63.36663412467465
 21
275.2732106969974
 31
0.0
  0
LINE
  5
B07
330
ACA
100
AcDbEntity
  8
0
 62
     3
100
AcDbLine
 10
64.38515577894964
 20
278.4265069299419
 30
0.0
 11
64.38515577894964
 21
275.2731965460339
 31
0.0
  0
LINE
  5
B08
330
ACA
100
AcDbEntity
  8
0
 62
     3
100
AcDbLine
 10
68.15597884937665
 20
278.4264597600639
 30
0.0
 11
68.15592359323386
 21
275.2731500500114
 31
0.0
  0
LINE
  5
B09
330
ACA
100
AcDbEntity
  8
0
 62
     3
100
AcDbLine
 10
71.27184308874848
 20
278.4264597600639
 30
0.0
 11
71.27189834489104
 21
275.2731500500114
 31
0.0
  0
LINE
  5
B0A
330
ACA
100
AcDbEntity
  8
0
 62
     3
100
AcDbLine
 10
70.23141843857614
 20
277.05262965244
 30
0.0
 11
69.19640349954898
 21
277.05262965244
 31
0.0
  0
LINE
  5
B0B
330
ACA
100
AcDbEntity
  8
0
 62
     3
100
AcDbLine
 10
70.23141170002213
 20
276.6470738235357
 30
0.0
 11
69.19641091195831
 21
276.6470738235357
 31
0.0
  0
LINE
  5
B0C
330
ACA
100
AcDbEntity
  8
0
 62
     3
100
AcDbLine
 10
70.23144269737054
 20
278.4264597600639
 30
0.0
 11
70.23141843857614
 21
277.05262965244
 31
0.0
  0
LINE
  5
B0D
330
ACA
100
AcDbEntity
  8
0
 62
     3
100
AcDbLine
 10
70.23141170002213
 20
276.6470738235357
 30
0.0
 11
70.23138744122753
 21
275.2731500500114
 31
0.0
  0
LINE
  5
B0E
330
ACA
100
AcDbEntity
  8
0
 62
     3
100
AcDbLine
 10
69.19637924075459
 20
278.4264597600639
 30
0.0
 11
69.19640349954898
 21
277.05262965244
 31
0.0
  0
LINE
  5
B0F
330
ACA
100
AcDbEntity
  8
0
 62
     3
100
AcDbLine
 10
69.19641091195831
 20
276.6470738235357
 30
0.0
 11
69.19643449689714
 21
275.2731500500114
 31
0.0
  0
LINE
  5
B10
330
ACA
100
AcDbEntity
  8
0
 62
     3
100
AcDbLine
 10
72.29826422648716
 20
278.4264597600639
 30
0.0
 11
72.29820897034461
 21
275.2731500500114
 31
0.0
  0
LINE
  5
B11
330
ACA
100
AcDbEntity
  8
0
 62
     3
100
AcDbLine
 10
73.31676431738968
 20
278.4264597600639
 30
0.0
 11
73.31681889967693
 21
275.2731500500114
 31
0.0
  0
LINE
  5
B12
330
ACA
100
AcDbEntity
  8
0
 62
     3
100
AcDbLine
 10
74.35500991471371
 20
278.4264597600639
 30
0.0
 11
74.35495533242647
 21
275.2731500500114
 31
0.0
  0
ARC
  5
B13
330
ACA
100
AcDbEntity
  8
0
 62
     3
100
AcDbCircle
 10
66.62693773325168
 20
276.8588908343133
 30
0.0
 40
2.008364022758428
100
AcDbArc
 50
97.70152399999972
 51
266.0248408089554
  0
ARC
  5
B14
330
ACA
100
AcDbEntity
  8
0
 62
     3
100
AcDbCircle
 10
78.74673843866117
 20
276.8387169513708
 30
0.0
 40
2.030175374321248
100
AcDbArc
 50
0.3142499999973636
 51
69.00558199999754
  0
ARC
  5
B15
330
ACA
100
AcDbEntity
  8
0
 62
     3
100
AcDbCircle
 10
79.19020739389337
 20
276.8387169513708
 30
0.0
 40
2.030175374321248
100
AcDbArc
 50
110.9944180000024
 51
148.1166110000007
  0
ARC
  5
B16
330
ACA
100
AcDbEntity
  8
0
 62
     3
100
AcDbCircle
 10
78.74673843866117
 20
276.8609865246051
 30
0.0
 40
2.030175374321248
100
AcDbArc
 50
290.9944180000024
 51
359.685749999999
  0
ARC
  5
B17
330
ACA
100
AcDbEntity
  8
0
 62
     3
100
AcDbCircle
 10
79.19020739389337
 20
276.8609865246051
 30
0.0
 40
2.030175374321248
100
AcDbArc
 50
211.8833889999977
 51
249.0055819999976
  0
ARC
  5
B18
330
ACA
100
AcDbEntity
  8
0
 62
     3
100
AcDbCircle
 10
78.96847325320504
 20
277.6804317521362
 30
0.0
 40
1.168726044333501
100
AcDbArc
 50
64.3651719999999
 51
115.6348280000001
  0
ARC
  5
B19
330
ACA
100
AcDbEntity
  8
0
 62
     3
100
AcDbCircle
 10
78.96847325320504
 20
276.0192717238397
 30
0.0
 40
1.168726044333501
100
AcDbArc
 50
244.3651719999999
 51
295.6348280000002
  0
ARC
  5
B1A
330
ACA
100
AcDbEntity
  8
0
 62
     3
100
AcDbCircle
 10
78.96847325320504
 20
277.7026325921198
 30
0.0
 40
0.5736005406576802
100
AcDbArc
 50
19.48660599999859
 51
160.5133940000014
  0
ARC
  5
B1B
330
ACA
100
AcDbEntity
  8
0
 62
     3
100
AcDbCircle
 10
78.96847325320504
 20
275.9970715577115
 30
0.0
 40
0.5736005406576802
100
AcDbArc
 50
199.4866059999986
 51
340.5133940000014
  0
LINE
  5
B1C
330
ACA
100
AcDbEntity
  8
0
 62
     3
100
AcDbLine
 10
73.65396743405449
 20
274.8505456795062
 30
0.0
 11
71.96106110982238
 21
274.8505456795062
 31
0.0
  0
LINE
  5
B1D
330
ACA
100
AcDbEntity
  8
0
 62
     3
100
AcDbLine
 10
73.65396743405449
 20
275.0542049968205
 30
0.0
 11
73.65396743405449
 21
274.8505456795062
 31
0.0
  0
LINE
  5
B1E
330
ACA
100
AcDbEntity
  8
0
 62
     3
100
AcDbLine
 10
71.6090468792688
 20
278.8490627828584
 30
0.0
 11
69.89423958070552
 21
278.8490627828584
 31
0.0
  0
LINE
  5
B1F
330
ACA
100
AcDbEntity
  8
0
 62
     3
100
AcDbLine
 10
71.6090468792688
 20
278.8490627828584
 30
0.0
 11
71.6090468792688
 21
278.6454984791553
 31
0.0
  0
LINE
  5
B20
330
ACA
100
AcDbEntity
  8
0
 62
     3
100
AcDbLine
 10
71.6090468792688
 20
275.0542049968205
 30
0.0
 11
71.6090468792688
 21
274.8504506658949
 31
0.0
  0
LINE
  5
B21
330
ACA
100
AcDbEntity
  8
0
 62
     3
100
AcDbLine
 10
71.6090468792688
 20
274.8504506658949
 30
0.0
 11
69.89423958070552
 21
274.8504506658949
 31
0.0
  0
LINE
  5
B22
330
ACA
100
AcDbEntity
  8
0
 62
     3
100
AcDbLine
 10
73.65396743405449
 20
278.8491577964696
 30
0.0
 11
73.65396743405449
 21
278.6454984791553
 31
0.0
  0
LINE
  5
B23
330
ACA
100
AcDbEntity
  8
0
 62
     3
100
AcDbLine
 10
73.65396743405449
 20
278.8491577964696
 30
0.0
 11
71.96106110982238
 21
278.8491577964696
 31
0.0
  0
LINE
  5
B24
330
ACA
100
AcDbEntity
  8
0
 62
     3
100
AcDbLine
 10
71.96106110982238
 20
278.8491577964696
 30
0.0
 11
71.96106110982238
 21
278.6454984791553
 31
0.0
  0
LINE
  5
B25
330
ACA
100
AcDbEntity
  8
0
 62
     3
100
AcDbLine
 10
74.01780679804892
 20
275.0542049968205
 30
0.0
 11
74.01780679804892
 21
274.8505456795062
 31
0.0
  0
LINE
  5
B26
330
ACA
100
AcDbEntity
  8
0
 62
     3
100
AcDbLine
 10
75.84572495832481
 20
274.8505456795062
 30
0.0
 11
74.01780679804892
 21
274.8505456795062
 31
0.0
  0
LINE
  5
B27
330
ACA
100
AcDbEntity
  8
0
 62
     3
100
AcDbLine
 10
75.37351000561624
 20
278.2063293952258
 30
0.0
 11
75.37351000561624
 21
275.4933740807501
 31
0.0
  0
LINE
  5
B28
330
ACA
100
AcDbEntity
  8
0
 62
     3
100
AcDbLine
 10
75.37351000561624
 20
275.4933740807501
 30
0.0
 11
75.55646039880094
 21
275.4933740807501
 31
0.0
  0
ARC
  5
B29
330
ACA
100
AcDbEntity
  8
0
 62
     3
100
AcDbCircle
 10
74.62097053296566
 20
276.8498517379879
 30
0.0
 40
1.647777933922859
100
AcDbArc
 50
304.5919550000009
 51
55.40804499999918
  0
LINE
  5
B2A
330
ACA
100
AcDbEntity
  8
0
 62
     3
100
AcDbLine
 10
75.84572495832481
 20
278.8491577964696
 30
0.0
 11
74.01780679804892
 21
278.8491577964696
 31
0.0
  0
LINE
  5
B2B
330
ACA
100
AcDbEntity
  8
0
 62
     3
100
AcDbLine
 10
74.01780679804892
 20
278.8491577964696
 30
0.0
 11
74.01780679804892
 21
278.6454984791553
 31
0.0
  0
LINE
  5
B2C
330
ACA
100
AcDbEntity
  8
0
 62
     3
100
AcDbLine
 10
71.96106110982238
 20
275.0542049968205
 30
0.0
 11
71.96106110982238
 21
274.8505456795062
 31
0.0
  0
LINE
  5
B2D
330
ACA
100
AcDbEntity
  8
0
 62
     3
100
AcDbLine
 10
75.37351000561624
 20
278.2063293952258
 30
0.0
 11
75.55646039880094
 21
278.2063293952258
 31
0.0
  0
LINE
  5
B2E
330
ACA
100
AcDbEntity
  8
0
 62
     3
100
AcDbLine
 10
64.72230027005207
 20
275.0541986224044
 30
0.0
 11
64.72229622691975
 21
274.8505204371389
 31
0.0
  0
LINE
  5
B2F
330
ACA
100
AcDbEntity
  8
0
 62
     3
100
AcDbLine
 10
58.91573048621217
 20
274.8721993930075
 30
0.0
 11
60.23296579464136
 21
274.8721993930075
 31
0.0
  0
ARC
  5
B30
330
ACA
100
AcDbEntity
  8
0
 62
     3
100
AcDbCircle
 10
53.62514174043872
 20
276.8969319931671
 30
0.0
 40
14.16402202796531
100
AcDbArc
 50
353.8660059999992
 51
357.694034000001
  0
LINE
  5
B31
330
ACA
100
AcDbEntity
  8
0
 62
     3
100
AcDbLine
 10
66.82941578205123
 20
276.3305396837151
 30
0.0
 11
67.77769474950878
 21
276.3270309186513
 31
0.0
  0
LWPOLYLINE
  5
B32
330
ACA
100
AcDbEntity
  8
0
 62
     3
100
AcDbPolyline
 90
       64
 70
     0
 43
0.0
 10
66.83324530228515
 20
277.3655957279217
 10
66.81531333625571
 20
277.4804085585561
 10
66.79377759155113
 20
277.5903480669433
 10
66.76880518431062
 20
277.6945638475691
 10
66.7405874894671
 20
277.7922499693764
 10
66.70934418388106
 20
277.8826523881731
 10
66.67531583392997
 20
277.965071642055
 10
66.63876524321927
 20
278.0388702638143
 10
66.59997610487244
 20
278.1034788456387
 10
66.5592476106865
 20
278.1583980606774
 10
66.51689445113311
 20
278.2032020323179
 10
66.47324411993621
 20
278.2375457465958
 10
66.42863354479527
 20
278.2611630306287
 10
66.3834084135301
 20
278.2738719434584
 10
66.3379177832378
 20
278.275574102197
 10
66.29251340643645
 20
278.2662553558807
 10
66.24754568793401
 20
278.2459891547484
 10
66.20336301097154
 20
278.2149318332525
 10
66.1603070202366
 20
278.1733226100598
 10
66.11870925258563
 20
278.1214835880512
 10
66.07889248475498
 20
278.059815711189
 10
66.04116399480678
 20
277.9887953952409
 10
66.00581556212842
 20
277.9089711585015
 10
65.97312009815687
 20
277.8209609263721
 10
65.94333029866698
 20
277.7254446189504
 10
65.91667729606047
 20
277.6231607817542
 10
65.89336594237898
 20
277.5148991733112
 10
65.8735768308693
 20
277.4014967220273
 10
65.85746360056259
 20
277.2838307876325
 10
65.84514956699672
 20
277.1628104010602
 10
65.8367310914939
 20
277.0393708736045
 10
65.8322728641724
 20
276.9144670583663
 10
65.83180857780234
 20
276.7890632424218
 10
65.83534294937158
 20
276.6641291036907
 10
65.84284767695293
 20
276.5406309508153
 10
65.85426548283772
 20
276.4195222891857
 10
65.86950809196878
 20
276.3017404516621
 10
65.88845690579546
 20
276.1881951430336
 10
65.91096637155192
 20
276.0797643968855
 10
65.93686196068961
 20
275.9772851416234
 10
65.9659442120103
 20
275.8815511789078
 10
65.9979873839552
 20
275.7933010542562
 10
66.03274417159309
 20
275.7132180570435
 10
66.06994638047467
 20
275.6419207865263
 10
66.10930560048927
 20
275.5799597825655
 10
66.1505179228518
 20
275.5278141563501
 10
66.1932652878138
 20
275.4858875472644
 10
66.23721683237431
 20
275.4545040797554
 10
66.28203293341198
 20
275.4339056679111
 10
66.32736722925165
 20
275.4242513416061
 10
66.37286931508583
 20
275.425616572645
 10
66.41818743839599
 20
275.437989905486
 10
66.46297119437463
 20
275.4612770003731
 10
66.50687489520167
 20
275.4952965902041
 10
66.54955824390071
 20
275.5397865452286
 10
66.59069239903693
 20
275.5944018514821
 10
66.62995862700654
 20
275.6587220231956
 10
66.66705369287956
 20
275.7322484073737
 10
66.70169120811171
 20
275.81441361777
 10
66.73360297825388
 20
275.9045822087433
 10
66.76254237222997
 20
276.0020574138105
 10
66.78828567004734
 20
276.1060851887801
 10
66.81063475821884
 20
276.2158622980159
 10
66.82941578205123
 20
276.3305396837151
  0
LINE
  5
B33
330
ACA
100
AcDbEntity
  8
0
 62
     3
100
AcDbLine
 10
66.83324530228515
 20
277.3655957279217
 30
0.0
 11
67.7815242697427
 21
277.3620869628577
 31
0.0
  0
ARC
  5
B34
330
ACA
100
AcDbEntity
  8
0
 62
     3
100
AcDbCircle
 10
53.62514174043872
 20
276.8969319931671
 30
0.0
 40
14.16402202796531
100
AcDbArc
 50
1.881965999999206
 51
5.709993999999093
  0
LINE
  5
B35
330
ACA
100
AcDbEntity
  8
0
 62
     3
100
AcDbLine
 10
64.72236630803535
 20
278.8491402896916
 30
0.0
 11
64.72236293875835
 21
278.6454998403284
 31
0.0
  0
LINE
  5
B36
330
ACA
100
AcDbEntity
  8
0
 62
     3
100
AcDbLine
 10
63.02939394595137
 20
275.0542036356474
 30
0.0
 11
63.02939057667436
 21
274.8505631862842
 31
0.0
  0
LINE
  5
B37
330
ACA
100
AcDbEntity
  8
0
 62
     3
100
AcDbLine
 10
63.02945998378049
 20
278.8491759773598
 30
0.0
 11
63.02945661450348
 21
278.6454971182388
 31
0.0
  0
LINE
  5
B38
330
ACA
100
AcDbEntity
  8
0
 62
     3
100
AcDbLine
 10
60.23296579464136
 20
275.075858710322
 30
0.0
 11
60.23296579464136
 21
274.8721993930075
 31
0.0
  0
LINE
  5
B39
330
ACA
100
AcDbEntity
  8
0
 62
     3
100
AcDbLine
 10
59.89576267797656
 20
277.2171083655226
 30
0.0
 11
61.3613307857986
 21
274.8721993930075
 31
0.0
  0
LINE
  5
B3A
330
ACA
100
AcDbEntity
  8
0
 62
     3
100
AcDbLine
 10
61.3613307857986
 20
274.8721993930075
 30
0.0
 11
62.34268796709443
 21
274.8721993930075
 31
0.0
  0
LINE
  5
B3B
330
ACA
100
AcDbEntity
  8
0
 62
     3
100
AcDbLine
 10
62.67989108375922
 20
278.870811509971
 30
0.0
 11
62.67989108375922
 21
278.6671521926566
 31
0.0
  0
LINE
  5
B3C
330
ACA
100
AcDbEntity
  8
0
 62
     3
100
AcDbLine
 10
61.36265644918558
 20
278.870811509971
 30
0.0
 11
62.67989108375922
 21
278.870811509971
 31
0.0
  0
LINE
  5
B3D
330
ACA
100
AcDbEntity
  8
0
 62
     3
100
AcDbLine
 10
61.36265644918558
 20
278.870811509971
 30
0.0
 11
61.36265644918558
 21
278.6671521926566
 31
0.0
  0
LINE
  5
B3E
330
ACA
100
AcDbEntity
  8
0
 62
     3
100
AcDbLine
 10
61.6998595658506
 20
277.0597132644989
 30
0.0
 11
60.51132621591159
 21
278.870811509971
 31
0.0
  0
LINE
  5
B3F
330
ACA
100
AcDbEntity
  8
0
 62
     3
100
AcDbLine
 10
58.91573048621217
 20
278.870811509971
 30
0.0
 11
60.51132621591159
 21
278.870811509971
 31
0.0
  0
LINE
  5
B40
330
ACA
100
AcDbEntity
  8
0
 62
     3
100
AcDbLine
 10
67.81877573271163
 20
278.8490627828584
 30
0.0
 11
69.53358235741939
 21
278.8490627828583
 31
0.0
  0
LINE
  5
B41
330
ACA
100
AcDbEntity
  8
0
 62
     3
100
AcDbLine
 10
67.81877573271163
 20
278.6454984791553
 30
0.0
 11
67.81877573271163
 21
278.8490627828584
 31
0.0
  0
LINE
  5
B42
330
ACA
100
AcDbEntity
  8
0
 62
     3
100
AcDbLine
 10
67.81877573271163
 20
274.8504506658949
 30
0.0
 11
67.81877573271163
 21
275.0542049968205
 31
0.0
  0
LINE
  5
B43
330
ACA
100
AcDbEntity
  8
0
 62
     3
100
AcDbLine
 10
67.81877573271163
 20
274.8504506658948
 30
0.0
 11
69.53358235741939
 21
274.8504506658949
 31
0.0
  0
LINE
  5
B44
330
ACA
100
AcDbEntity
  8
0
 62
     3
100
AcDbLine
 10
69.89423958070552
 20
275.0542049968205
 30
0.0
 11
69.89423958070552
 21
274.8504506658949
 31
0.0
  0
LINE
  5
B45
330
ACA
100
AcDbEntity
  8
0
 62
     3
100
AcDbLine
 10
69.53358235741939
 20
275.0542049968205
 30
0.0
 11
69.53358235741939
 21
274.8504506658949
 31
0.0
  0
LINE
  5
B46
330
ACA
100
AcDbEntity
  8
0
 62
     3
100
AcDbLine
 10
69.53358235741939
 20
278.6454984791553
 30
0.0
 11
69.53358235741939
 21
278.8490627828584
 31
0.0
  0
LINE
  5
B47
330
ACA
100
AcDbEntity
  8
0
 62
     3
100
AcDbLine
 10
69.89423958070552
 20
278.6454984791553
 30
0.0
 11
69.89423958070552
 21
278.8490627828584
 31
0.0
  0
LINE
  5
B48
330
ACA
100
AcDbEntity
  8
0
 62
     3
100
AcDbLine
 10
58.91573048621217
 20
275.075858710322
 30
0.0
 11
58.91573048621217
 21
274.8721993930075
 31
0.0
  0
LINE
  5
B49
330
ACA
100
AcDbEntity
  8
0
 62
     3
100
AcDbLine
 10
58.91573048621217
 20
278.870811509971
 30
0.0
 11
58.91573048621217
 21
278.6671521926566
 31
0.0
  0
ARC
  5
B4A
330
ACA
100
AcDbEntity
  8
0
 62
     3
100
AcDbCircle
 10
76.0173242060589
 20
277.2693247024529
 30
0.0
 40
1.579833094016801
100
AcDbArc
 50
17.30874900000322
 51
23.76507099999849
  0
ARC
  5
B4B
330
ACA
100
AcDbEntity
  8
0
 62
     3
100
AcDbCircle
 10
74.67127580883515
 20
276.8498517379879
 30
0.0
 40
2.989728616463745
100
AcDbArc
 50
342.6912509999968
 51
17.30856599999721
  0
ARC
  5
B4C
330
ACA
100
AcDbEntity
  8
0
 62
     3
100
AcDbCircle
 10
76.0173242060589
 20
276.430378773523
 30
0.0
 40
1.579833094016801
100
AcDbArc
 50
336.2349290000015
 51
342.6912509999968
  0
ARC
  5
B4D
330
ACA
100
AcDbEntity
  8
0
 62
     3
100
AcDbCircle
 10
75.84572495832481
 20
277.2693247024529
 30
0.0
 40
1.579833094016801
100
AcDbArc
 50
17.30874900000322
 51
90.0
  0
ARC
  5
B4E
330
ACA
100
AcDbEntity
  8
0
 62
     3
100
AcDbCircle
 10
74.49967317843402
 20
276.8498607706099
 30
0.0
 40
2.989728616463745
100
AcDbArc
 50
342.6912509999968
 51
17.30856599999721
  0
ARC
  5
B4F
330
ACA
100
AcDbEntity
  8
0
 62
     3
100
AcDbCircle
 10
75.84572495832481
 20
276.430378773523
 30
0.0
 40
1.579833094016801
100
AcDbArc
 50
270.0
 51
342.6912509999968
  0
ARC
  5
B50
330
ACA
100
AcDbEntity
  8
0
 62
     3
100
AcDbCircle
 10
66.34906806852905
 20
276.8498517379879
 30
0.0
 40
1.999306058481749
100
AcDbArc
 50
46.7528800000023
 51
89.74999799999961
  0
ARC
  5
B51
330
ACA
100
AcDbEntity
  8
0
 62
     3
100
AcDbCircle
 10
66.34906806852905
 20
276.8498517379879
 30
0.0
 40
1.999306058481749
100
AcDbArc
 50
273.9763330000016
 51
312.8231199999934
  0
ARC
  5
B52
330
ACA
100
AcDbEntity
  8
0
 62
     3
100
AcDbCircle
 10
77.08381358307406
 20
276.8189878129916
 30
0.0
 40
2.652957925148358
100
AcDbArc
 50
0.666583999999372
 51
23.90392800000306
  0
ARC
  5
B53
330
ACA
100
AcDbEntity
  8
0
 62
     3
100
AcDbCircle
 10
80.8531322494805
 20
276.8189878129916
 30
0.0
 40
2.652957925148358
100
AcDbArc
 50
156.0960719999969
 51
179.3334160000006
  0
ARC
  5
B54
330
ACA
100
AcDbEntity
  8
0
 62
     3
100
AcDbCircle
 10
77.08381358307406
 20
276.8807156629842
 30
0.0
 40
2.652957925148358
100
AcDbArc
 50
336.0960719999969
 51
359.3334159999979
  0
ARC
  5
B55
330
ACA
100
AcDbEntity
  8
0
 62
     3
100
AcDbCircle
 10
80.8531322494805
 20
276.8807156629842
 30
0.0
 40
2.652957925148358
100
AcDbArc
 50
180.6665839999993
 51
203.903928000003
  0
LINE
  5
B56
330
ACA
100
AcDbEntity
  8
0
  6
Continuous
 62
     3
100
AcDbLine
 10
58.91573048621217
 20
278.6671521926566
 30
0.0
 11
59.25293360287717
 21
278.4481801852499
 31
0.0
  0
LINE
  5
B57
330
ACA
100
AcDbEntity
  8
0
  6
Continuous
 62
     3
100
AcDbLine
 10
61.36265644918558
 20
278.6671521926566
 30
0.0
 11
61.6998595658506
 21
278.4481801852499
 31
0.0
  0
LINE
  5
B58
330
ACA
100
AcDbEntity
  8
0
  6
Continuous
 62
     3
100
AcDbLine
 10
62.67989108375922
 20
278.6671521926566
 30
0.0
 11
62.34268796709443
 21
278.4481801852499
 31
0.0
  0
LINE
  5
B59
330
ACA
100
AcDbEntity
  8
0
  6
Continuous
 62
     3
100
AcDbLine
 10
63.02945661450348
 20
278.6454971182388
 30
0.0
 11
63.36663412467465
 21
278.4265210809052
 31
0.0
  0
LINE
  5
B5A
330
ACA
100
AcDbEntity
  8
0
  6
Continuous
 62
     3
100
AcDbLine
 10
64.72236293875835
 20
278.6454998403284
 30
0.0
 11
64.38515577894964
 21
278.4265069299419
 31
0.0
  0
LINE
  5
B5B
330
ACA
100
AcDbEntity
  8
0
  6
Continuous
 62
     3
100
AcDbLine
 10
67.81877573271163
 20
278.6454984791553
 30
0.0
 11
68.15597884937665
 21
278.4264597600639
 31
0.0
  0
LINE
  5
B5C
330
ACA
100
AcDbEntity
  8
0
  6
Continuous
 62
     3
100
AcDbLine
 10
69.53358235741939
 20
278.6454984791553
 30
0.0
 11
69.19637924075459
 21
278.4264597600639
 31
0.0
  0
LINE
  5
B5D
330
ACA
100
AcDbEntity
  8
0
  6
Continuous
 62
     3
100
AcDbLine
 10
69.89423958070552
 20
278.6454984791553
 30
0.0
 11
70.23144269737054
 21
278.4264597600639
 31
0.0
  0
LINE
  5
B5E
330
ACA
100
AcDbEntity
  8
0
  6
Continuous
 62
     3
100
AcDbLine
 10
71.6090468792688
 20
278.6454984791553
 30
0.0
 11
71.27184308874848
 21
278.4264597600639
 31
0.0
  0
LINE
  5
B5F
330
ACA
100
AcDbEntity
  8
0
  6
Continuous
 62
     3
100
AcDbLine
 10
71.96106110982238
 20
278.6454984791553
 30
0.0
 11
72.29826422648716
 21
278.4264597600639
 31
0.0
  0
LINE
  5
B60
330
ACA
100
AcDbEntity
  8
0
  6
Continuous
 62
     3
100
AcDbLine
 10
73.65396743405449
 20
278.6454984791553
 30
0.0
 11
73.31676431738968
 21
278.4264597600639
 31
0.0
  0
LINE
  5
B61
330
ACA
100
AcDbEntity
  8
0
  6
Continuous
 62
     3
100
AcDbLine
 10
74.01780679804892
 20
278.6454984791553
 30
0.0
 11
74.35500991471371
 21
278.4264597600639
 31
0.0
  0
LINE
  5
B62
330
ACA
100
AcDbEntity
  8
0
  6
Continuous
 62
     3
100
AcDbLine
 10
74.35495533242647
 20
275.2731500500114
 30
0.0
 11
74.01780679804892
 21
275.0542049968205
 31
0.0
  0
LINE
  5
B63
330
ACA
100
AcDbEntity
  8
0
  6
Continuous
 62
     3
100
AcDbLine
 10
73.31681889967693
 20
275.2731500500114
 30
0.0
 11
73.65396743405449
 21
275.0542049968205
 31
0.0
  0
LINE
  5
B64
330
ACA
100
AcDbEntity
  8
0
  6
Continuous
 62
     3
100
AcDbLine
 10
72.29820897034461
 20
275.2731500500114
 30
0.0
 11
71.96106110982238
 21
275.0542049968205
 31
0.0
  0
LINE
  5
B65
330
ACA
100
AcDbEntity
  8
0
  6
Continuous
 62
     3
100
AcDbLine
 10
71.6090468792688
 20
275.0542049968205
 30
0.0
 11
71.27189834489104
 21
275.2731500500114
 31
0.0
  0
LINE
  5
B66
330
ACA
100
AcDbEntity
  8
0
  6
Continuous
 62
     3
100
AcDbLine
 10
69.89423958070552
 20
275.0542049968205
 30
0.0
 11
70.23138744122753
 21
275.2731500500114
 31
0.0
  0
LINE
  5
B67
330
ACA
100
AcDbEntity
  8
0
  6
Continuous
 62
     3
100
AcDbLine
 10
69.53358235741939
 20
275.0542049968205
 30
0.0
 11
69.19643449689714
 21
275.2731500500114
 31
0.0
  0
LINE
  5
B68
330
ACA
100
AcDbEntity
  8
0
  6
Continuous
 62
     3
100
AcDbLine
 10
68.15592359323386
 20
275.2731500500114
 30
0.0
 11
67.81877573271163
 21
275.0542049968205
 31
0.0
  0
LINE
  5
B69
330
ACA
100
AcDbEntity
  8
0
  6
Continuous
 62
     3
100
AcDbLine
 10
64.72230027021101
 20
275.0542066299256
 30
0.0
 11
64.38515577894964
 21
275.2731965460339
 31
0.0
  0
LINE
  5
B6A
330
ACA
100
AcDbEntity
  8
0
  6
Continuous
 62
     3
100
AcDbLine
 10
63.02939394595137
 20
275.0542036356474
 30
0.0
 11
63.36656808684529
 21
275.2732106969974
 31
0.0
  0
LINE
  5
B6B
330
ACA
100
AcDbEntity
  8
0
  6
Continuous
 62
     3
100
AcDbLine
 10
60.23296579464136
 20
275.075858710322
 30
0.0
 11
59.89576267797656
 21
275.2948313915841
 31
0.0
  0
LINE
  5
B6C
330
ACA
100
AcDbEntity
  8
0
  6
Continuous
 62
     3
100
AcDbLine
 10
58.91573048621217
 20
275.075858710322
 30
0.0
 11
59.25293360287717
 21
275.2948313915841
 31
0.0
  0
LINE
  5
B6D
330
ACA
100
AcDbEntity
  8
0
  6
Continuous
 62
     3
100
AcDbLine
 10
64.72229622707867
 20
274.8505284446602
 30
0.0
 11
63.02939057667436
 21
274.8505631862842
 31
0.0
  0
LINE
  5
B6E
330
ACA
100
AcDbEntity
  8
0
  6
Continuous
 62
     3
100
AcDbLine
 10
63.02945998378049
 20
278.8491759773598
 30
0.0
 11
64.72236630803535
 21
278.8491402896916
 31
0.0
  0
ARC
  5
B6F
330
ACA
100
AcDbEntity
  8
0
  6
Continuous
 62
     3
100
AcDbCircle
 10
82.24372228088146
 20
276.8377054007734
 30
0.0
 40
0.9989999999999998
100
AcDbArc
 50
293.7485430905184
 51
66.25145690948149
  0
ARC
  5
B70
330
ACA
100
AcDbEntity
  8
0
  6
Continuous
 62
     3
100
AcDbCircle
 10
82.24372228088146
 20
276.8377054007734
 30
0.0
 40
1.498499999999999
100
AcDbArc
 50
293.7485430905184
 51
66.25145690948149
  0
ARC
  5
B71
330
ACA
100
AcDbEntity
  8
0
  6
Continuous
 62
     3
100
AcDbCircle
 10
74.59962913488856
 20
259.463983837004
 30
0.0
 40
19.98
100
AcDbArc
 50
66.25145690948149
 51
81.41597019517911
  0
ARC
  5
B72
330
ACA
100
AcDbEntity
  8
0
  6
Continuous
 62
     3
100
AcDbCircle
 10
74.59962913488856
 20
259.463983837004
 30
0.0
 40
20.4795
100
AcDbArc
 50
66.25145690948149
 51
81.41597019517911
  0
ARC
  5
B73
330
ACA
100
AcDbEntity
  8
0
  6
Continuous
 62
     3
100
AcDbCircle
 10
56.21958147402825
 20
276.8377054007734
 30
0.0
 40
0.9989999999999998
100
AcDbArc
 50
113.7485430905185
 51
246.2514569094815
  0
ARC
  5
B74
330
ACA
100
AcDbEntity
  8
0
  6
Continuous
 62
     3
100
AcDbCircle
 10
56.21958147402825
 20
276.8377054007734
 30
0.0
 40
1.498499999999999
100
AcDbArc
 50
113.7485430905185
 51
246.2514569094815
  0
ARC
  5
B75
330
ACA
100
AcDbEntity
  8
0
  6
Continuous
 62
     3
100
AcDbCircle
 10
63.86367462002089
 20
259.463983837004
 30
0.0
 40
19.98
100
AcDbArc
 50
98.5840298048209
 51
113.7485430905185
  0
ARC
  5
B76
330
ACA
100
AcDbEntity
  8
0
  6
Continuous
 62
     3
100
AcDbCircle
 10
63.86367462002089
 20
259.463983837004
 30
0.0
 40
20.4795
100
AcDbArc
 50
98.5840298048209
 51
113.7485430905185
  0
ARC
  5
B77
330
ACA
100
AcDbEntity
  8
0
  6
Continuous
 62
     3
100
AcDbCircle
 10
74.59962913488856
 20
294.2114269645427
 30
0.0
 40
19.98
100
AcDbArc
 50
278.5840298048209
 51
293.7485430905184
  0
ARC
  5
B78
330
ACA
100
AcDbEntity
  8
0
  6
Continuous
 62
     3
100
AcDbCircle
 10
74.59962913488856
 20
294.2114269645427
 30
0.0
 40
20.4795
100
AcDbArc
 50
278.5840298048209
 51
293.7485430905184
  0
ARC
  5
B79
330
ACA
100
AcDbEntity
  8
0
  6
Continuous
 62
     3
100
AcDbCircle
 10
63.86367462002089
 20
294.2114269645427
 30
0.0
 40
19.98
100
AcDbArc
 50
246.2514569094815
 51
261.4159701951791
  0
ARC
  5
B7A
330
ACA
100
AcDbEntity
  8
0
  6
Continuous
 62
     3
100
AcDbCircle
 10
63.86367462002089
 20
294.2114269645427
 30
0.0
 40
20.4795
100
AcDbArc
 50
246.2514569094815
 51
261.4159701951791
  0
ARC
  5
B7B
330
ACA
100
AcDbEntity
  8
0
  6
Continuous
 62
     3
100
AcDbCircle
 10
69.23165187745485
 20
223.9028517379889
 30
0.0
 40
56.44349999999903
100
AcDbArc
 50
81.41597019517911
 51
98.5840298048209
  0
ARC
  5
B7C
330
ACA
100
AcDbEntity
  8
0
  6
Continuous
 62
     3
100
AcDbCircle
 10
69.23165187745485
 20
223.9028517379897
 30
0.0
 40
55.94399999999822
100
AcDbArc
 50
81.41597019517911
 51
98.5840298048209
  0
ARC
  5
B7D
330
ACA
100
AcDbEntity
  8
0
  6
Continuous
 62
     3
100
AcDbCircle
 10
69.23165187745485
 20
329.7725590635579
 30
0.0
 40
56.44349999999903
100
AcDbArc
 50
261.4159701951791
 51
278.5840298048209
  0
ARC
  5
B7E
330
ACA
100
AcDbEntity
  8
0
  6
Continuous
 62
     3
100
AcDbCircle
 10
69.23165187745485
 20
329.7725590635571
 30
0.0
 40
55.94399999999822
100
AcDbArc
 50
261.4159701951791
 51
278.5840298048209
  0
TEXT
  5
B7F
330
ACA
100
AcDbEntity
  8
0
 62
     3
100
AcDbText
 10
187.4999996431435
 20
267.4999995915839
 30
0.0
 40
3.2
  1
担　当
  7
高3.2
100
AcDbText
  0
TEXT
  5
B80
330
ACA
100
AcDbEntity
  8
0
 62
     3
100
AcDbText
 10
143.4999996431435
 20
267.4999995915839
 30
0.0
 40
3.2
  1
変更・追記内容
  7
高3.2
100
AcDbText
  0
TEXT
  5
B81
330
ACA
100
AcDbEntity
  8
0
 62
     3
100
AcDbText
 10
118.6135146434827
 20
262.8294610816756
 30
0.0
 40
2.0
  1
1
  7
高2
100
AcDbText
  0
TEXT
  5
B82
330
ACA
100
AcDbEntity
  8
0
 62
     3
100
AcDbText
 10
118.3050031667254
 20
257.6596443694027
 30
0.0
 40
2.0
  1
2
  7
高2
100
AcDbText
  0
TEXT
  5
B83
330
ACA
100
AcDbEntity
  8
0
 62
     3
100
AcDbText
 10
125.4999996431435
 20
267.4999995915839
 30
0.0
 40
3.2
  1
日　付
  7
高3.2
100
AcDbText
  0
TEXT
  5
B84
330
ACA
100
AcDbEntity
  8
0
 62
     3
100
AcDbText
 10
125.4999996431435
 20
272.4999995915839
 30
0.0
 40
3.2
  1
図　　　　面　　　　略　　　　歴
  7
高3.2
100
AcDbText
  0
TEXT
  5
B85
330
ACA
100
AcDbEntity
  8
0
 62
     3
100
AcDbText
 10
115.4999996431435
 20
267.4999995915839
 30
0.0
 40
3.2
  1
記号
  7
高3.2
100
AcDbText
  0
LINE
  5
B86
330
ACA
100
AcDbEntity
  8
0
100
AcDbLine
 10
118.9999996431435
 20
260.790895591584
 30
0.0
 11
117.0999996431435
 21
257.4999995915839
 31
0.0
  0
LINE
  5
B87
330
ACA
100
AcDbEntity
  8
0
100
AcDbLine
 10
118.9999996431435
 20
260.790895591584
 30
0.0
 11
120.8999996431435
 21
257.4999995915839
 31
0.0
  0
LINE
  5
B88
330
ACA
100
AcDbEntity
  8
0
100
AcDbLine
 10
117.0999996431435
 20
257.4999995915839
 30
0.0
 11
120.8999996431435
 21
257.4999995915839
 31
0.0
  0
LINE
  5
B89
330
ACA
100
AcDbEntity
  8
0
100
AcDbLine
 10
118.9999996431435
 20
265.790896591584
 30
0.0
 11
117.0999996431435
 21
262.4999995915839
 31
0.0
  0
LINE
  5
B8A
330
ACA
100
AcDbEntity
  8
0
100
AcDbLine
 10
118.9999996431435
 20
265.790896591584
 30
0.0
 11
120.8999996431435
 21
262.4999995915839
 31
0.0
  0
LINE
  5
B8B
330
ACA
100
AcDbEntity
  8
0
100
AcDbLine
 10
117.0999996431435
 20
262.4999995915839
 30
0.0
 11
120.8999996431435
 21
262.4999995915839
 31
0.0
  0
LINE
  5
B8C
330
ACA
100
AcDbEntity
  8
0
 62
     3
100
AcDbLine
 10
113.9999996431435
 20
271.9999995915839
 30
0.0
 11
199.9999996431435
 21
271.9999995915839
 31
0.0
  0
LINE
  5
B8D
330
ACA
100
AcDbEntity
  8
0
 62
     3
100
AcDbLine
 10
113.9999996431435
 20
266.9999995915839
 30
0.0
 11
199.9999996431435
 21
266.9999995915839
 31
0.0
  0
LINE
  5
B8E
330
ACA
100
AcDbEntity
  8
0
 62
     7
100
AcDbLine
 10
113.9999996431435
 20
261.9999995915839
 30
0.0
 11
199.9999996431435
 21
261.9999995915839
 31
0.0
  0
LINE
  5
B8F
330
ACA
100
AcDbEntity
  8
0
 62
     3
100
AcDbLine
 10
113.9999996431435
 20
256.9999995915839
 30
0.0
 11
199.9999996431435
 21
256.9999995915839
 31
0.0
  0
LINE
  5
B90
330
ACA
100
AcDbEntity
  8
0
 62
     7
100
AcDbLine
 10
185.9999996431435
 20
256.9999995915839
 30
0.0
 11
185.9999996431435
 21
271.9999995915839
 31
0.0
  0
LINE
  5
B91
330
ACA
100
AcDbEntity
  8
0
 62
     7
100
AcDbLine
 10
141.9999996431435
 20
256.9999995915839
 30
0.0
 11
141.9999996431435
 21
271.9999995915839
 31
0.0
  0
LINE
  5
B92
330
ACA
100
AcDbEntity
  8
0
 62
     7
100
AcDbLine
 10
123.9999996431435
 20
256.9999995915839
 30
0.0
 11
123.9999996431435
 21
271.9999995915839
 31
0.0
  0
LINE
  5
B93
330
ACA
100
AcDbEntity
  8
0
 62
     3
100
AcDbLine
 10
113.9999996431435
 20
256.9999995915839
 30
0.0
 11
113.9999996431435
 21
276.9999995915839
 31
0.0
  0
ENDBLK
  5
B97
330
ACA
100
AcDbEntity
  8
0
100
AcDbBlockEnd
  0
BLOCK
  5
BA4
330
BA3
100
AcDbEntity
  8
0
100
AcDbBlockBegin
  2
*D3
 70
     1
 10
0.0
 20
0.0
 30
0.0
  3
*D3
  1

  0
LINE
  5
BA5
330
BA3
100
AcDbEntity
  8
0
 62
     0
370
    -2
100
AcDbLine
 10
1985.762125611745
 20
250.4933285935966
 30
0.0
 11
1985.762125611745
 21
263.8471210035103
 31
0.0
  0
LINE
  5
BA6
330
BA3
100
AcDbEntity
  8
0
 62
     0
370
    -2
100
AcDbLine
 10
1972.762125655536
 20
251.4560212862726
 30
0.0
 11
1972.762125655536
 21
263.8471210035103
 31
0.0
  0
LINE
  5
BA7
330
BA3
100
AcDbEntity
  8
0
 62
     0
370
    -2
100
AcDbLine
 10
1983.262125611745
 20
262.5971210035103
 30
0.0
 11
1975.262125655536
 21
262.5971210035103
 31
0.0
  0
INSERT
  5
BA8
330
BA3
100
AcDbEntity
  8
0
 62
     0
370
    -2
100
AcDbBlockReference
  2
_Open30
 10
1985.762125611745
 20
262.5971210035103
 30
0.0
 41
2.5
 42
2.5
 43
2.5
  0
INSERT
  5
BA9
330
BA3
100
AcDbEntity
  8
0
 62
     0
370
    -2
100
AcDbBlockReference
  2
_Open30
 10
1972.762125655536
 20
262.5971210035103
 30
0.0
 41
2.5
 42
2.5
 43
2.5
 50
180.0
  0
MTEXT
  5
BAA
330
BA3
100
AcDbEntity
  8
0
 62
     4
100
AcDbMText
 10
1979.422081420968
 20
264.7221210035103
 30
0.0
 40
3.0
 41
0.0
 71
     5
 72
     1
  1
E39
 73
     1
 44
1.0
1001
ACAD
1000
MTEXTBEGIN
1070
    73
1070
     1
1070
    44
1040
1.0
1070
    74
1070
     0
1000
MTEXTEND
  0
POINT
  5
BAB
330
BA3
100
AcDbEntity
  8
Defpoints
 62
     0
100
AcDbPoint
 10
1985.762125611745
 20
250.2433285935966
 30
0.0
  0
POINT
  5
BAC
330
BA3
100
AcDbEntity
  8
Defpoints
 62
     0
100
AcDbPoint
 10
1972.762125655536
 20
251.2060212862726
 30
0.0
  0
POINT
  5
BAD
330
BA3
100
AcDbEntity
  8
Defpoints
 62
     0
100
AcDbPoint
 10
1972.762125655536
 20
262.5971210035103
 30
0.0
  0
ENDBLK
  5
BAE
330
BA3
100
AcDbEntity
  8
0
100
AcDbBlockEnd
  0
BLOCK
  5
BB0
330
BAF
100
AcDbEntity
  8
0
100
AcDbBlockBegin
  2
*D4
 70
     1
 10
0.0
 20
0.0
 30
0.0
  3
*D4
  1

  0
LINE
  5
BB1
330
BAF
100
AcDbEntity
  8
0
 62
     0
370
    -2
100
AcDbLine
 10
1951.762125615894
 20
195.5523378174313
 30
0.0
 11
1951.762125615894
 21
170.2998454808415
 31
0.0
  0
LINE
  5
BB2
330
BAF
100
AcDbEntity
  8
0
 62
     0
370
    -2
100
AcDbLine
 10
2006.762125615894
 20
195.5523378174313
 30
0.0
 11
2006.762125615894
 21
170.2998454808415
 31
0.0
  0
LINE
  5
BB3
330
BAF
100
AcDbEntity
  8
0
 62
     0
370
    -2
100
AcDbLine
 10
1954.262125615894
 20
171.5498454808415
 30
0.0
 11
2004.262125615894
 21
171.5498454808415
 31
0.0
  0
INSERT
  5
BB4
330
BAF
100
AcDbEntity
  8
0
 62
     0
370
    -2
100
AcDbBlockReference
  2
_Open30
 10
1951.762125615894
 20
171.5498454808415
 30
0.0
 41
2.5
 42
2.5
 43
2.5
 50
180.0
  0
INSERT
  5
BB5
330
BAF
100
AcDbEntity
  8
0
 62
     0
370
    -2
100
AcDbBlockReference
  2
_Open30
 10
2006.762125615894
 20
171.5498454808415
 30
0.0
 41
2.5
 42
2.5
 43
2.5
  0
MTEXT
  5
BB6
330
BAF
100
AcDbEntity
  8
0
 62
     4
100
AcDbMText
 10
1979.805296255589
 20
173.6748454808415
 30
0.0
 40
3.0
 41
0.0
 71
     5
 72
     1
  1
%%C165
 73
     1
 44
1.0
1001
ACAD
1000
MTEXTBEGIN
1070
    73
1070
     1
1070
    44
1040
1.0
1070
    74
1070
     0
1000
MTEXTEND
  0
POINT
  5
BB7
330
BAF
100
AcDbEntity
  8
Defpoints
 62
     0
100
AcDbPoint
 10
1951.762125615894
 20
195.8023378174313
 30
0.0
  0
POINT
  5
BB8
330
BAF
100
AcDbEntity
  8
Defpoints
 62
     0
100
AcDbPoint
 10
2006.762125615894
 20
195.8023378174313
 30
0.0
  0
POINT
  5
BB9
330
BAF
100
AcDbEntity
  8
Defpoints
 62
     0
100
AcDbPoint
 10
2006.762125615894
 20
171.5498454808415
 30
0.0
  0
ENDBLK
  5
BBA
330
BAF
100
AcDbEntity
  8
0
100
AcDbBlockEnd
  0
BLOCK
  5
BBC
330
BBB
100
AcDbEntity
  8
0
100
AcDbBlockBegin
  2
*D5
 70
     1
 10
0.0
 20
0.0
 30
0.0
  3
*D5
  1

  0
LINE
  5
BBD
330
BBB
100
AcDbEntity
  8
0
 62
     0
370
    -2
100
AcDbLine
 10
1978.976810035606
 20
257.4688949736606
 30
0.0
 11
1939.67735072822
 21
257.4688949736606
 31
0.0
  0
LINE
  5
BBE
330
BBB
100
AcDbEntity
  8
0
 62
     0
370
    -2
100
AcDbLine
 10
1979.052487307402
 20
183.8023585491097
 30
0.0
 11
1939.67735072822
 21
183.8023585491097
 31
0.0
  0
LINE
  5
BBF
330
BBB
100
AcDbEntity
  8
0
 62
     0
370
    -2
100
AcDbLine
 10
1940.92735072822
 20
254.9688949736606
 30
0.0
 11
1940.92735072822
 21
186.3023585491097
 31
0.0
  0
INSERT
  5
BC0
330
BBB
100
AcDbEntity
  8
0
 62
     0
370
    -2
100
AcDbBlockReference
  2
_Open30
 10
1940.92735072822
 20
257.4688949736606
 30
0.0
 41
2.5
 42
2.5
 43
2.5
 50
90.0
  0
INSERT
  5
BC1
330
BBB
100
AcDbEntity
  8
0
 62
     0
370
    -2
100
AcDbBlockReference
  2
_Open30
 10
1940.92735072822
 20
183.8023585491097
 30
0.0
 41
2.5
 42
2.5
 43
2.5
 50
270.0
  0
MTEXT
  5
BC2
330
BBB
100
AcDbEntity
  8
0
 62
     4
100
AcDbMText
 10
1938.80235072822
 20
220.6356267613852
 30
0.0
 40
3.0
 41
0.0
 71
     5
 72
     1
  1
221
 11
0.0000000000000001
 21
1.0
 31
0.0
 73
     1
 44
1.0
1001
ACAD
1000
MTEXTBEGIN
1070
    73
1070
     1
1070
    44
1040
1.0
1070
    74
1070
     0
1000
MTEXTEND
  0
POINT
  5
BC3
330
BBB
100
AcDbEntity
  8
Defpoints
 62
     0
100
AcDbPoint
 10
1979.226810035606
 20
257.4688949736606
 30
0.0
  0
POINT
  5
BC4
330
BBB
100
AcDbEntity
  8
Defpoints
 62
     0
100
AcDbPoint
 10
1979.302487307402
 20
183.8023585491097
 30
0.0
  0
POINT
  5
BC5
330
BBB
100
AcDbEntity
  8
Defpoints
 62
     0
100
AcDbPoint
 10
1940.92735072822
 20
183.8023585491097
 30
0.0
  0
ENDBLK
  5
BC6
330
BBB
100
AcDbEntity
  8
0
100
AcDbBlockEnd
  0
BLOCK
  5
BC8
330
BC7
100
AcDbEntity
  8
0
100
AcDbBlockBegin
  2
*D6
 70
     1
 10
0.0
 20
0.0
 30
0.0
  3
*D6
  1

  0
LINE
  5
BC9
330
BC7
100
AcDbEntity
  8
0
 62
     0
370
    -2
100
AcDbLine
 10
1968.17879228256
 20
228.6356711507651
 30
0.0
 11
1952.250589187074
 21
228.6356711507651
 31
0.0
  0
LINE
  5
BCA
330
BC7
100
AcDbEntity
  8
0
 62
     0
370
    -2
100
AcDbLine
 10
1968.17879228256
 20
257.4688949736606
 30
0.0
 11
1952.250589187074
 21
257.4688949736606
 31
0.0
  0
LINE
  5
BCB
330
BC7
100
AcDbEntity
  8
0
 62
     0
370
    -2
100
AcDbLine
 10
1953.500589187074
 20
231.135671150765
 30
0.0
 11
1953.500589187074
 21
254.9688949736606
 31
0.0
  0
INSERT
  5
BCC
330
BC7
100
AcDbEntity
  8
0
 62
     0
370
    -2
100
AcDbBlockReference
  2
_Open30
 10
1953.500589187074
 20
228.6356711507651
 30
0.0
 41
2.5
 42
2.5
 43
2.5
 50
270.0
  0
INSERT
  5
BCD
330
BC7
100
AcDbEntity
  8
0
 62
     0
370
    -2
100
AcDbBlockReference
  2
_Open30
 10
1953.500589187074
 20
257.4688949736606
 30
0.0
 41
2.5
 42
2.5
 43
2.5
 50
90.0
  0
MTEXT
  5
BCE
330
BC7
100
AcDbEntity
  8
0
 62
     4
100
AcDbMText
 10
1951.375589187074
 20
242.5340420370963
 30
0.0
 40
3.0
 41
0.0
 71
     5
 72
     1
  1
86.5
 11
0.0000000000000001
 21
1.0
 31
0.0
 73
     1
 44
1.0
1001
ACAD
1000
MTEXTBEGIN
1070
    73
1070
     1
1070
    44
1040
1.0
1070
    74
1070
     0
1000
MTEXTEND
  0
POINT
  5
BCF
330
BC7
100
AcDbEntity
  8
Defpoints
 62
     0
100
AcDbPoint
 10
1968.42879228256
 20
228.6356711507651
 30
0.0
  0
POINT
  5
BD0
330
BC7
100
AcDbEntity
  8
Defpoints
 62
     0
100
AcDbPoint
 10
1968.42879228256
 20
257.4688949736606
 30
0.0
  0
POINT
  5
BD1
330
BC7
100
AcDbEntity
  8
Defpoints
 62
     0
100
AcDbPoint
 10
1953.500589187074
 20
257.4688949736606
 30
0.0
  0
ENDBLK
  5
BD2
330
BC7
100
AcDbEntity
  8
0
100
AcDbBlockEnd
  0
BLOCK
  5
BD4
330
BD3
100
AcDbEntity
  8
0
100
AcDbBlockBegin
  2
*D7
 70
     1
 10
0.0
 20
0.0
 30
0.0
  3
*D7
  1

  0
LINE
  5
BD5
330
BD3
100
AcDbEntity
  8
0
 62
     0
370
    -2
100
AcDbLine
 10
1968.42879228256
 20
228.885671150765
 30
0.0
 11
1968.42879228256
 21
269.1954705811343
 31
0.0
  0
LINE
  5
BD6
330
BD3
100
AcDbEntity
  8
0
 62
     0
370
    -2
100
AcDbLine
 10
1990.095458949227
 20
228.8856711507646
 30
0.0
 11
1990.095458949227
 21
269.1954705811343
 31
0.0
  0
LINE
  5
BD7
330
BD3
100
AcDbEntity
  8
0
 62
     0
370
    -2
100
AcDbLine
 10
1970.92879228256
 20
267.9454705811343
 30
0.0
 11
1987.595458949227
 21
267.9454705811343
 31
0.0
  0
INSERT
  5
BD8
330
BD3
100
AcDbEntity
  8
0
 62
     0
370
    -2
100
AcDbBlockReference
  2
_Open30
 10
1968.42879228256
 20
267.9454705811343
 30
0.0
 41
2.5
 42
2.5
 43
2.5
 50
180.0
  0
INSERT
  5
BD9
330
BD3
100
AcDbEntity
  8
0
 62
     0
370
    -2
100
AcDbBlockReference
  2
_Open30
 10
1990.095458949227
 20
267.9454705811343
 30
0.0
 41
2.5
 42
2.5
 43
2.5
  0
MTEXT
  5
BDA
330
BD3
100
AcDbEntity
  8
0
 62
     4
100
AcDbMText
 10
1979.136707942768
 20
270.0704705811343
 30
0.0
 40
3.0
 41
0.0
 71
     5
 72
     1
  1
%%C65
 73
     1
 44
1.0
1001
ACAD
1000
MTEXTBEGIN
1070
    73
1070
     1
1070
    44
1040
1.0
1070
    74
1070
     0
1000
MTEXTEND
  0
POINT
  5
BDB
330
BD3
100
AcDbEntity
  8
Defpoints
 62
     0
100
AcDbPoint
 10
1968.42879228256
 20
228.635671150765
 30
0.0
  0
POINT
  5
BDC
330
BD3
100
AcDbEntity
  8
Defpoints
 62
     0
100
AcDbPoint
 10
1990.095458949227
 20
228.6356711507646
 30
0.0
  0
POINT
  5
BDD
330
BD3
100
AcDbEntity
  8
Defpoints
 62
     0
100
AcDbPoint
 10
1990.095458949227
 20
267.9454705811343
 30
0.0
  0
ENDBLK
  5
BDE
330
BD3
100
AcDbEntity
  8
0
100
AcDbBlockEnd
  0
BLOCK
  5
BE0
330
BDF
100
AcDbEntity
  8
0
100
AcDbBlockBegin
  2
*D8
 70
     1
 10
0.0
 20
0.0
 30
0.0
  3
*D8
  1

  0
LINE
  5
BE1
330
BDF
100
AcDbEntity
  8
0
 62
     0
370
    -2
100
AcDbLine
 10
1951.512125615893
 20
196.302337817431
 30
0.0
 11
1945.867253521045
 21
196.302337817431
 31
0.0
  0
LINE
  5
BE2
330
BDF
100
AcDbEntity
  8
0
 62
     0
370
    -2
100
AcDbLine
 10
1979.012125615894
 20
257.4690044840981
 30
0.0
 11
1945.867253521045
 21
257.4690044840981
 31
0.0
  0
LINE
  5
BE3
330
BDF
100
AcDbEntity
  8
0
 62
     0
370
    -2
100
AcDbLine
 10
1947.117253521045
 20
198.802337817431
 30
0.0
 11
1947.117253521045
 21
254.9690044840981
 31
0.0
  0
INSERT
  5
BE4
330
BDF
100
AcDbEntity
  8
0
 62
     0
370
    -2
100
AcDbBlockReference
  2
_Open30
 10
1947.117253521045
 20
196.302337817431
 30
0.0
 41
2.5
 42
2.5
 43
2.5
 50
270.0
  0
INSERT
  5
BE5
330
BDF
100
AcDbEntity
  8
0
 62
     0
370
    -2
100
AcDbBlockReference
  2
_Open30
 10
1947.117253521045
 20
257.4690044840981
 30
0.0
 41
2.5
 42
2.5
 43
2.5
 50
90.0
  0
MTEXT
  5
BE6
330
BDF
100
AcDbEntity
  8
0
 62
     4
100
AcDbMText
 10
1944.992253521045
 20
226.3424419684578
 30
0.0
 40
3.0
 41
0.0
 71
     5
 72
     1
  1
183.5
 11
0.0000000000000001
 21
1.0
 31
0.0
 73
     1
 44
1.0
1001
ACAD
1000
MTEXTBEGIN
1070
    73
1070
     1
1070
    44
1040
1.0
1070
    74
1070
     0
1000
MTEXTEND
  0
POINT
  5
BE7
330
BDF
100
AcDbEntity
  8
Defpoints
 62
     0
100
AcDbPoint
 10
1951.762125615894
 20
196.302337817431
 30
0.0
  0
POINT
  5
BE8
330
BDF
100
AcDbEntity
  8
Defpoints
 62
     0
100
AcDbPoint
 10
1979.262125615894
 20
257.4690044840981
 30
0.0
  0
POINT
  5
BE9
330
BDF
100
AcDbEntity
  8
Defpoints
 62
     0
100
AcDbPoint
 10
1947.117253521045
 20
257.4690044840981
 30
0.0
  0
ENDBLK
  5
BEA
330
BDF
100
AcDbEntity
  8
0
100
AcDbBlockEnd
  0
BLOCK
  5
1013
330
1012
100
AcDbEntity
  8
0
100
AcDbBlockBegin
  2
*D9
 70
     1
 10
0.0
 20
0.0
 30
0.0
  3
*D9
  1

  0
LINE
  5
105A
330
1012
100
AcDbEntity
  8
0
 62
     0
370
    -2
100
AcDbLine
 10
1490.213728105621
 20
198.1939472777531
 30
0.0
 11
1490.213728105621
 21
211.5477396876669
 31
0.0
  0
LINE
  5
105B
330
1012
100
AcDbEntity
  8
0
 62
     0
370
    -2
100
AcDbLine
 10
1477.213728149413
 20
199.156639970429
 30
0.0
 11
1477.213728149413
 21
211.5477396876669
 31
0.0
  0
LINE
  5
105C
330
1012
100
AcDbEntity
  8
0
 62
     0
370
    -2
100
AcDbLine
 10
1487.713728105622
 20
210.2977396876669
 30
0.0
 11
1479.713728149413
 21
210.2977396876669
 31
0.0
  0
INSERT
  5
105D
330
1012
100
AcDbEntity
  8
0
 62
     0
370
    -2
100
AcDbBlockReference
  2
_Open30
 10
1490.213728105621
 20
210.2977396876669
 30
0.0
 41
2.5
 42
2.5
 43
2.5
  0
INSERT
  5
105E
330
1012
100
AcDbEntity
  8
0
 62
     0
370
    -2
100
AcDbBlockReference
  2
_Open30
 10
1477.213728149413
 20
210.2977396876669
 30
0.0
 41
2.5
 42
2.5
 43
2.5
 50
180.0
  0
MTEXT
  5
105F
330
1012
100
AcDbEntity
  8
0
 62
     4
100
AcDbMText
 10
1483.873683914845
 20
212.4227396876669
 30
0.0
 40
3.0
 41
0.0
 71
     5
 72
     1
  1
E39
 73
     1
 44
1.0
1001
ACAD
1000
MTEXTBEGIN
1070
    73
1070
     1
1070
    44
1040
1.0
1070
    74
1070
     0
1000
MTEXTEND
  0
POINT
  5
1060
330
1012
100
AcDbEntity
  8
Defpoints
 62
     0
100
AcDbPoint
 10
1490.213728105621
 20
197.9439472777531
 30
0.0
  0
POINT
  5
1061
330
1012
100
AcDbEntity
  8
Defpoints
 62
     0
100
AcDbPoint
 10
1477.213728149413
 20
198.9066399704291
 30
0.0
  0
POINT
  5
1062
330
1012
100
AcDbEntity
  8
Defpoints
 62
     0
100
AcDbPoint
 10
1477.213728149413
 20
210.2977396876669
 30
0.0
  0
ENDBLK
  5
1014
330
1012
100
AcDbEntity
  8
0
100
AcDbBlockEnd
  0
BLOCK
  5
101F
330
101E
100
AcDbEntity
  8
0
100
AcDbBlockBegin
  2
*D10
 70
     1
 10
0.0
 20
0.0
 30
0.0
  3
*D10
  1

  0
LINE
  5
1021
330
101E
100
AcDbEntity
  8
0
 62
     0
370
    -2
100
AcDbLine
 10
1456.213728109771
 20
143.2529565015878
 30
0.0
 11
1456.213728109771
 21
118.000464164998
 31
0.0
  0
LINE
  5
1022
330
101E
100
AcDbEntity
  8
0
 62
     0
370
    -2
100
AcDbLine
 10
1511.213728109771
 20
143.2529565015878
 30
0.0
 11
1511.213728109771
 21
118.000464164998
 31
0.0
  0
LINE
  5
1023
330
101E
100
AcDbEntity
  8
0
 62
     0
370
    -2
100
AcDbLine
 10
1458.713728109771
 20
119.250464164998
 30
0.0
 11
1508.713728109771
 21
119.250464164998
 31
0.0
  0
INSERT
  5
1024
330
101E
100
AcDbEntity
  8
0
 62
     0
370
    -2
100
AcDbBlockReference
  2
_Open30
 10
1456.213728109771
 20
119.250464164998
 30
0.0
 41
2.5
 42
2.5
 43
2.5
 50
180.0
  0
INSERT
  5
1025
330
101E
100
AcDbEntity
  8
0
 62
     0
370
    -2
100
AcDbBlockReference
  2
_Open30
 10
1511.213728109771
 20
119.250464164998
 30
0.0
 41
2.5
 42
2.5
 43
2.5
  0
MTEXT
  5
1026
330
101E
100
AcDbEntity
  8
0
 62
     4
100
AcDbMText
 10
1484.256898749466
 20
121.375464164998
 30
0.0
 40
3.0
 41
0.0
 71
     5
 72
     1
  1
%%C165
 73
     1
 44
1.0
1001
ACAD
1000
MTEXTBEGIN
1070
    73
1070
     1
1070
    44
1040
1.0
1070
    74
1070
     0
1000
MTEXTEND
  0
POINT
  5
1027
330
101E
100
AcDbEntity
  8
Defpoints
 62
     0
100
AcDbPoint
 10
1456.213728109771
 20
143.5029565015878
 30
0.0
  0
POINT
  5
1028
330
101E
100
AcDbEntity
  8
Defpoints
 62
     0
100
AcDbPoint
 10
1511.213728109771
 20
143.5029565015878
 30
0.0
  0
POINT
  5
1029
330
101E
100
AcDbEntity
  8
Defpoints
 62
     0
100
AcDbPoint
 10
1511.213728109771
 20
119.250464164998
 30
0.0
  0
ENDBLK
  5
1020
330
101E
100
AcDbEntity
  8
0
100
AcDbBlockEnd
  0
BLOCK
  5
102B
330
102A
100
AcDbEntity
  8
0
100
AcDbBlockBegin
  2
*D11
 70
     1
 10
0.0
 20
0.0
 30
0.0
  3
*D11
  1

  0
LINE
  5
1063
330
102A
100
AcDbEntity
  8
0
 62
     0
370
    -2
100
AcDbLine
 10
1483.428412529483
 20
205.1695136578171
 30
0.0
 11
1444.128953222097
 21
205.1695136578172
 31
0.0
  0
LINE
  5
1064
330
102A
100
AcDbEntity
  8
0
 62
     0
370
    -2
100
AcDbLine
 10
1483.504089801279
 20
131.5029772332662
 30
0.0
 11
1444.128953222097
 21
131.5029772332662
 31
0.0
  0
LINE
  5
1065
330
102A
100
AcDbEntity
  8
0
 62
     0
370
    -2
100
AcDbLine
 10
1445.378953222097
 20
202.6695136578172
 30
0.0
 11
1445.378953222097
 21
134.0029772332663
 31
0.0
  0
INSERT
  5
1066
330
102A
100
AcDbEntity
  8
0
 62
     0
370
    -2
100
AcDbBlockReference
  2
_Open30
 10
1445.378953222097
 20
205.1695136578172
 30
0.0
 41
2.5
 42
2.5
 43
2.5
 50
90.0
  0
INSERT
  5
1067
330
102A
100
AcDbEntity
  8
0
 62
     0
370
    -2
100
AcDbBlockReference
  2
_Open30
 10
1445.378953222097
 20
131.5029772332662
 30
0.0
 41
2.5
 42
2.5
 43
2.5
 50
270.0
  0
MTEXT
  5
1068
330
102A
100
AcDbEntity
  8
0
 62
     4
100
AcDbMText
 10
1443.253953222097
 20
168.3362454455417
 30
0.0
 40
3.0
 41
0.0
 71
     5
 72
     1
  1
221
 11
0.0000000000000001
 21
1.0
 31
0.0
 73
     1
 44
1.0
1001
ACAD
1000
MTEXTBEGIN
1070
    73
1070
     1
1070
    44
1040
1.0
1070
    74
1070
     0
1000
MTEXTEND
  0
POINT
  5
1069
330
102A
100
AcDbEntity
  8
Defpoints
 62
     0
100
AcDbPoint
 10
1483.678412529483
 20
205.1695136578171
 30
0.0
  0
POINT
  5
106A
330
102A
100
AcDbEntity
  8
Defpoints
 62
     0
100
AcDbPoint
 10
1483.754089801279
 20
131.5029772332662
 30
0.0
  0
POINT
  5
106B
330
102A
100
AcDbEntity
  8
Defpoints
 62
     0
100
AcDbPoint
 10
1445.378953222097
 20
131.5029772332662
 30
0.0
  0
ENDBLK
  5
102C
330
102A
100
AcDbEntity
  8
0
100
AcDbBlockEnd
  0
BLOCK
  5
1037
330
1036
100
AcDbEntity
  8
0
100
AcDbBlockBegin
  2
*D12
 70
     1
 10
0.0
 20
0.0
 30
0.0
  3
*D12
  1

  0
LINE
  5
106C
330
1036
100
AcDbEntity
  8
0
 62
     0
370
    -2
100
AcDbLine
 10
1472.630394776437
 20
176.3362898349216
 30
0.0
 11
1456.702191680952
 21
176.3362898349216
 31
0.0
  0
LINE
  5
106D
330
1036
100
AcDbEntity
  8
0
 62
     0
370
    -2
100
AcDbLine
 10
1472.630394776437
 20
205.1695136578171
 30
0.0
 11
1456.702191680952
 21
205.1695136578172
 31
0.0
  0
LINE
  5
106E
330
1036
100
AcDbEntity
  8
0
 62
     0
370
    -2
100
AcDbLine
 10
1457.952191680952
 20
178.8362898349216
 30
0.0
 11
1457.952191680952
 21
202.6695136578172
 31
0.0
  0
INSERT
  5
106F
330
1036
100
AcDbEntity
  8
0
 62
     0
370
    -2
100
AcDbBlockReference
  2
_Open30
 10
1457.952191680952
 20
176.3362898349216
 30
0.0
 41
2.5
 42
2.5
 43
2.5
 50
270.0
  0
INSERT
  5
1070
330
1036
100
AcDbEntity
  8
0
 62
     0
370
    -2
100
AcDbBlockReference
  2
_Open30
 10
1457.952191680952
 20
205.1695136578172
 30
0.0
 41
2.5
 42
2.5
 43
2.5
 50
90.0
  0
MTEXT
  5
1071
330
1036
100
AcDbEntity
  8
0
 62
     4
100
AcDbMText
 10
1455.827191680952
 20
190.234660721253
 30
0.0
 40
3.0
 41
0.0
 71
     5
 72
     1
  1
86.5
 11
0.0000000000000001
 21
1.0
 31
0.0
 73
     1
 44
1.0
1001
ACAD
1000
MTEXTBEGIN
1070
    73
1070
     1
1070
    44
1040
1.0
1070
    74
1070
     0
1000
MTEXTEND
  0
POINT
  5
1072
330
1036
100
AcDbEntity
  8
Defpoints
 62
     0
100
AcDbPoint
 10
1472.880394776437
 20
176.3362898349216
 30
0.0
  0
POINT
  5
1073
330
1036
100
AcDbEntity
  8
Defpoints
 62
     0
100
AcDbPoint
 10
1472.880394776437
 20
205.1695136578171
 30
0.0
  0
POINT
  5
1074
330
1036
100
AcDbEntity
  8
Defpoints
 62
     0
100
AcDbPoint
 10
1457.952191680952
 20
205.1695136578172
 30
0.0
  0
ENDBLK
  5
1038
330
1036
100
AcDbEntity
  8
0
100
AcDbBlockEnd
  0
BLOCK
  5
1043
330
1042
100
AcDbEntity
  8
0
100
AcDbBlockBegin
  2
*D13
 70
     1
 10
0.0
 20
0.0
 30
0.0
  3
*D13
  1

  0
LINE
  5
1075
330
1042
100
AcDbEntity
  8
0
 62
     0
370
    -2
100
AcDbLine
 10
1472.880394776438
 20
176.5862898349218
 30
0.0
 11
1472.880394776438
 21
216.8960892652911
 31
0.0
  0
LINE
  5
1076
330
1042
100
AcDbEntity
  8
0
 62
     0
370
    -2
100
AcDbLine
 10
1494.547061443105
 20
176.5862898349213
 30
0.0
 11
1494.547061443105
 21
216.8960892652911
 31
0.0
  0
LINE
  5
1077
330
1042
100
AcDbEntity
  8
0
 62
     0
370
    -2
100
AcDbLine
 10
1475.380394776438
 20
215.6460892652911
 30
0.0
 11
1492.047061443105
 21
215.6460892652911
 31
0.0
  0
INSERT
  5
1078
330
1042
100
AcDbEntity
  8
0
 62
     0
370
    -2
100
AcDbBlockReference
  2
_Open30
 10
1472.880394776438
 20
215.6460892652911
 30
0.0
 41
2.5
 42
2.5
 43
2.5
 50
180.0
  0
INSERT
  5
1079
330
1042
100
AcDbEntity
  8
0
 62
     0
370
    -2
100
AcDbBlockReference
  2
_Open30
 10
1494.547061443105
 20
215.6460892652911
 30
0.0
 41
2.5
 42
2.5
 43
2.5
  0
MTEXT
  5
107A
330
1042
100
AcDbEntity
  8
0
 62
     4
100
AcDbMText
 10
1483.588310436646
 20
217.7710892652911
 30
0.0
 40
3.0
 41
0.0
 71
     5
 72
     1
  1
%%C65
 73
     1
 44
1.0
1001
ACAD
1000
MTEXTBEGIN
1070
    73
1070
     1
1070
    44
1040
1.0
1070
    74
1070
     0
1000
MTEXTEND
  0
POINT
  5
107B
330
1042
100
AcDbEntity
  8
Defpoints
 62
     0
100
AcDbPoint
 10
1472.880394776438
 20
176.3362898349218
 30
0.0
  0
POINT
  5
107C
330
1042
100
AcDbEntity
  8
Defpoints
 62
     0
100
AcDbPoint
 10
1494.547061443105
 20
176.3362898349213
 30
0.0
  0
POINT
  5
107D
330
1042
100
AcDbEntity
  8
Defpoints
 62
     0
100
AcDbPoint
 10
1494.547061443105
 20
215.6460892652911
 30
0.0
  0
ENDBLK
  5
1044
330
1042
100
AcDbEntity
  8
0
100
AcDbBlockEnd
  0
BLOCK
  5
104F
330
104E
100
AcDbEntity
  8
0
100
AcDbBlockBegin
  2
*D14
 70
     1
 10
0.0
 20
0.0
 30
0.0
  3
*D14
  1

  0
LINE
  5
107E
330
104E
100
AcDbEntity
  8
0
 62
     0
370
    -2
100
AcDbLine
 10
1455.963728109771
 20
144.0029565015875
 30
0.0
 11
1450.318856014922
 21
144.0029565015875
 31
0.0
  0
LINE
  5
107F
330
104E
100
AcDbEntity
  8
0
 62
     0
370
    -2
100
AcDbLine
 10
1483.463728109771
 20
205.1696231682547
 30
0.0
 11
1450.318856014922
 21
205.1696231682547
 31
0.0
  0
LINE
  5
1080
330
104E
100
AcDbEntity
  8
0
 62
     0
370
    -2
100
AcDbLine
 10
1451.568856014922
 20
146.5029565015875
 30
0.0
 11
1451.568856014922
 21
202.6696231682547
 31
0.0
  0
INSERT
  5
1081
330
104E
100
AcDbEntity
  8
0
 62
     0
370
    -2
100
AcDbBlockReference
  2
_Open30
 10
1451.568856014922
 20
144.0029565015875
 30
0.0
 41
2.5
 42
2.5
 43
2.5
 50
270.0
  0
INSERT
  5
1082
330
104E
100
AcDbEntity
  8
0
 62
     0
370
    -2
100
AcDbBlockReference
  2
_Open30
 10
1451.568856014922
 20
205.1696231682547
 30
0.0
 41
2.5
 42
2.5
 43
2.5
 50
90.0
  0
MTEXT
  5
1083
330
104E
100
AcDbEntity
  8
0
 62
     4
100
AcDbMText
 10
1449.443856014922
 20
174.0430606526143
 30
0.0
 40
3.0
 41
0.0
 71
     5
 72
     1
  1
183.5
 11
0.0000000000000001
 21
1.0
 31
0.0
 73
     1
 44
1.0
1001
ACAD
1000
MTEXTBEGIN
1070
    73
1070
     1
1070
    44
1040
1.0
1070
    74
1070
     0
1000
MTEXTEND
  0
POINT
  5
1084
330
104E
100
AcDbEntity
  8
Defpoints
 62
     0
100
AcDbPoint
 10
1456.213728109771
 20
144.0029565015875
 30
0.0
  0
POINT
  5
1085
330
104E
100
AcDbEntity
  8
Defpoints
 62
     0
100
AcDbPoint
 10
1483.713728109771
 20
205.1696231682547
 30
0.0
  0
POINT
  5
1086
330
104E
100
AcDbEntity
  8
Defpoints
 62
     0
100
AcDbPoint
 10
1451.568856014922
 20
205.1696231682547
 30
0.0
  0
ENDBLK
  5
1050
330
104E
100
AcDbEntity
  8
0
100
AcDbBlockEnd
  0
BLOCK
  5
1177
330
1176
100
AcDbEntity
  8
0
100
AcDbBlockBegin
  2
*D15
 70
     1
 10
0.0
 20
0.0
 30
0.0
  3
*D15
  1

  0
LINE
  5
1A95
330
1176
100
AcDbEntity
  8
0
 62
     0
370
    -2
100
AcDbLine
 10
1487.96823585434
 20
211.3247386363597
 30
0.0
 11
1487.96823585434
 21
224.6785310462734
 31
0.0
  0
LINE
  5
1A96
330
1176
100
AcDbEntity
  8
0
 62
     0
370
    -2
100
AcDbLine
 10
1474.968235898131
 20
212.2874313290357
 30
0.0
 11
1474.968235898131
 21
224.6785310462734
 31
0.0
  0
LINE
  5
1A97
330
1176
100
AcDbEntity
  8
0
 62
     0
370
    -2
100
AcDbLine
 10
1485.46823585434
 20
223.4285310462734
 30
0.0
 11
1477.468235898131
 21
223.4285310462734
 31
0.0
  0
INSERT
  5
1A98
330
1176
100
AcDbEntity
  8
0
 62
     0
370
    -2
100
AcDbBlockReference
  2
_Open30
 10
1487.96823585434
 20
223.4285310462734
 30
0.0
 41
2.5
 42
2.5
 43
2.5
  0
INSERT
  5
1A99
330
1176
100
AcDbEntity
  8
0
 62
     0
370
    -2
100
AcDbBlockReference
  2
_Open30
 10
1474.968235898131
 20
223.4285310462734
 30
0.0
 41
2.5
 42
2.5
 43
2.5
 50
180.0
  0
MTEXT
  5
1A9A
330
1176
100
AcDbEntity
  8
0
 62
     4
100
AcDbMText
 10
1481.628191663563
 20
225.5535310462734
 30
0.0
 40
3.0
 41
0.0
 71
     5
 72
     1
  1
E39
 73
     1
 44
1.0
1001
ACAD
1000
MTEXTBEGIN
1070
    73
1070
     1
1070
    44
1040
1.0
1070
    74
1070
     0
1000
MTEXTEND
  0
POINT
  5
1A9B
330
1176
100
AcDbEntity
  8
Defpoints
 62
     0
100
AcDbPoint
 10
1487.96823585434
 20
211.0747386363597
 30
0.0
  0
POINT
  5
1A9C
330
1176
100
AcDbEntity
  8
Defpoints
 62
     0
100
AcDbPoint
 10
1474.968235898131
 20
212.0374313290357
 30
0.0
  0
POINT
  5
1A9D
330
1176
100
AcDbEntity
  8
Defpoints
 62
     0
100
AcDbPoint
 10
1474.968235898131
 20
223.4285310462734
 30
0.0
  0
ENDBLK
  5
1178
330
1176
100
AcDbEntity
  8
0
100
AcDbBlockEnd
  0
BLOCK
  5
1183
330
1182
100
AcDbEntity
  8
0
100
AcDbBlockBegin
  2
*D16
 70
     1
 10
0.0
 20
0.0
 30
0.0
  3
*D16
  1

  0
LINE
  5
1A8C
330
1182
100
AcDbEntity
  8
0
 62
     0
370
    -2
100
AcDbLine
 10
1460.468235858489
 20
185.050414526861
 30
0.0
 11
1460.468235858489
 21
108.4437268021335
 31
0.0
  0
LINE
  5
1A8D
330
1182
100
AcDbEntity
  8
0
 62
     0
370
    -2
100
AcDbLine
 10
1502.468235858487
 20
185.050414526861
 30
0.0
 11
1502.468235858487
 21
108.4437268021335
 31
0.0
  0
LINE
  5
1A8E
330
1182
100
AcDbEntity
  8
0
 62
     0
370
    -2
100
AcDbLine
 10
1462.968235858489
 20
109.6937268021335
 30
0.0
 11
1499.968235858487
 21
109.6937268021335
 31
0.0
  0
INSERT
  5
1A8F
330
1182
100
AcDbEntity
  8
0
 62
     0
370
    -2
100
AcDbBlockReference
  2
_Open30
 10
1460.468235858489
 20
109.6937268021335
 30
0.0
 41
2.5
 42
2.5
 43
2.5
 50
180.0
  0
INSERT
  5
1A90
330
1182
100
AcDbEntity
  8
0
 62
     0
370
    -2
100
AcDbBlockReference
  2
_Open30
 10
1502.468235858487
 20
109.6937268021335
 30
0.0
 41
2.5
 42
2.5
 43
2.5
  0
MTEXT
  5
1A91
330
1182
100
AcDbEntity
  8
0
 62
     4
100
AcDbMText
 10
1481.468235858488
 20
111.8187268021335
 30
0.0
 40
3.0
 41
0.0
 71
     5
 72
     1
  1
%%C126
 73
     1
 44
1.0
1001
ACAD
1000
MTEXTBEGIN
1070
    73
1070
     1
1070
    44
1040
1.0
1070
    74
1070
     0
1000
MTEXTEND
  0
POINT
  5
1A92
330
1182
100
AcDbEntity
  8
Defpoints
 62
     0
100
AcDbPoint
 10
1460.468235858489
 20
185.300414526861
 30
0.0
  0
POINT
  5
1A93
330
1182
100
AcDbEntity
  8
Defpoints
 62
     0
100
AcDbPoint
 10
1502.468235858487
 20
185.300414526861
 30
0.0
  0
POINT
  5
1A94
330
1182
100
AcDbEntity
  8
Defpoints
 62
     0
100
AcDbPoint
 10
1502.468235858487
 20
109.6937268021335
 30
0.0
  0
ENDBLK
  5
1184
330
1182
100
AcDbEntity
  8
0
100
AcDbBlockEnd
  0
BLOCK
  5
118F
330
118E
100
AcDbEntity
  8
0
100
AcDbBlockBegin
  2
*D17
 70
     1
 10
0.0
 20
0.0
 30
0.0
  3
*D17
  1

  0
LINE
  5
1A83
330
118E
100
AcDbEntity
  8
0
 62
     0
370
    -2
100
AcDbLine
 10
1481.182920278201
 20
218.3003050164237
 30
0.0
 11
1446.019601038153
 21
218.3003050164237
 31
0.0
  0
LINE
  5
1A84
330
118E
100
AcDbEntity
  8
0
 62
     0
370
    -2
100
AcDbLine
 10
1481.180812946497
 20
119.6338060786681
 30
0.0
 11
1446.019601038153
 21
119.6338060786681
 31
0.0
  0
LINE
  5
1A85
330
118E
100
AcDbEntity
  8
0
 62
     0
370
    -2
100
AcDbLine
 10
1447.269601038153
 20
215.8003050164237
 30
0.0
 11
1447.269601038153
 21
122.1338060786681
 31
0.0
  0
INSERT
  5
1A86
330
118E
100
AcDbEntity
  8
0
 62
     0
370
    -2
100
AcDbBlockReference
  2
_Open30
 10
1447.269601038153
 20
218.3003050164237
 30
0.0
 41
2.5
 42
2.5
 43
2.5
 50
90.0
  0
INSERT
  5
1A87
330
118E
100
AcDbEntity
  8
0
 62
     0
370
    -2
100
AcDbBlockReference
  2
_Open30
 10
1447.269601038153
 20
119.6338060786681
 30
0.0
 41
2.5
 42
2.5
 43
2.5
 50
270.0
  0
MTEXT
  5
1A88
330
118E
100
AcDbEntity
  8
0
 62
     4
100
AcDbMText
 10
1445.144601038153
 20
168.9670555475458
 30
0.0
 40
3.0
 41
0.0
 71
     5
 72
     1
  1
296
 11
0.0000000000000001
 21
1.0
 31
0.0
 73
     1
 44
1.0
1001
ACAD
1000
MTEXTBEGIN
1070
    73
1070
     1
1070
    44
1040
1.0
1070
    74
1070
     0
1000
MTEXTEND
  0
POINT
  5
1A89
330
118E
100
AcDbEntity
  8
Defpoints
 62
     0
100
AcDbPoint
 10
1481.432920278201
 20
218.3003050164237
 30
0.0
  0
POINT
  5
1A8A
330
118E
100
AcDbEntity
  8
Defpoints
 62
     0
100
AcDbPoint
 10
1481.430812946497
 20
119.6338060786681
 30
0.0
  0
POINT
  5
1A8B
330
118E
100
AcDbEntity
  8
Defpoints
 62
     0
100
AcDbPoint
 10
1447.269601038153
 20
119.6338060786681
 30
0.0
  0
ENDBLK
  5
1190
330
118E
100
AcDbEntity
  8
0
100
AcDbBlockEnd
  0
BLOCK
  5
119B
330
119A
100
AcDbEntity
  8
0
100
AcDbBlockBegin
  2
*D18
 70
     1
 10
0.0
 20
0.0
 30
0.0
  3
*D18
  1

  0
LINE
  5
1A7A
330
119A
100
AcDbEntity
  8
0
 62
     0
370
    -2
100
AcDbLine
 10
1461.551569191822
 20
186.6337478601943
 30
0.0
 11
1454.45669942967
 21
186.6337478601943
 31
0.0
  0
LINE
  5
1A7B
330
119A
100
AcDbEntity
  8
0
 62
     0
370
    -2
100
AcDbLine
 10
1470.384902525155
 20
218.3003050164237
 30
0.0
 11
1454.45669942967
 21
218.3003050164237
 31
0.0
  0
LINE
  5
1A7C
330
119A
100
AcDbEntity
  8
0
 62
     0
370
    -2
100
AcDbLine
 10
1455.70669942967
 20
189.1337478601943
 30
0.0
 11
1455.70669942967
 21
215.8003050164237
 31
0.0
  0
INSERT
  5
1A7D
330
119A
100
AcDbEntity
  8
0
 62
     0
370
    -2
100
AcDbBlockReference
  2
_Open30
 10
1455.70669942967
 20
186.6337478601943
 30
0.0
 41
2.5
 42
2.5
 43
2.5
 50
270.0
  0
INSERT
  5
1A7E
330
119A
100
AcDbEntity
  8
0
 62
     0
370
    -2
100
AcDbBlockReference
  2
_Open30
 10
1455.70669942967
 20
218.3003050164237
 30
0.0
 41
2.5
 42
2.5
 43
2.5
 50
90.0
  0
MTEXT
  5
1A7F
330
119A
100
AcDbEntity
  8
0
 62
     4
100
AcDbMText
 10
1453.581699429669
 20
203.3654520798597
 30
0.0
 40
3.0
 41
0.0
 71
     5
 72
     1
  1
95
 11
0.0000000000000001
 21
1.0
 31
0.0
 73
     1
 44
1.0
1001
ACAD
1000
MTEXTBEGIN
1070
    73
1070
     1
1070
    44
1040
1.0
1070
    74
1070
     0
1000
MTEXTEND
  0
POINT
  5
1A80
330
119A
100
AcDbEntity
  8
Defpoints
 62
     0
100
AcDbPoint
 10
1461.801569191822
 20
186.6337478601943
 30
0.0
  0
POINT
  5
1A81
330
119A
100
AcDbEntity
  8
Defpoints
 62
     0
100
AcDbPoint
 10
1470.634902525155
 20
218.3003050164237
 30
0.0
  0
POINT
  5
1A82
330
119A
100
AcDbEntity
  8
Defpoints
 62
     0
100
AcDbPoint
 10
1455.70669942967
 20
218.3003050164237
 30
0.0
  0
ENDBLK
  5
119C
330
119A
100
AcDbEntity
  8
0
100
AcDbBlockEnd
  0
BLOCK
  5
11A7
330
11A6
100
AcDbEntity
  8
0
100
AcDbBlockBegin
  2
*D19
 70
     1
 10
0.0
 20
0.0
 30
0.0
  3
*D19
  1

  0
LINE
  5
1A71
330
11A6
100
AcDbEntity
  8
0
 62
     0
370
    -2
100
AcDbLine
 10
1461.801569191822
 20
186.8837478601943
 30
0.0
 11
1461.801569191822
 21
230.0268806238976
 31
0.0
  0
LINE
  5
1A72
330
11A6
100
AcDbEntity
  8
0
 62
     0
370
    -2
100
AcDbLine
 10
1501.134902525155
 20
186.8837478601943
 30
0.0
 11
1501.134902525155
 21
230.0268806238976
 31
0.0
  0
LINE
  5
1A73
330
11A6
100
AcDbEntity
  8
0
 62
     0
370
    -2
100
AcDbLine
 10
1464.301569191822
 20
228.7768806238976
 30
0.0
 11
1498.634902525155
 21
228.7768806238976
 31
0.0
  0
INSERT
  5
1A74
330
11A6
100
AcDbEntity
  8
0
 62
     0
370
    -2
100
AcDbBlockReference
  2
_Open30
 10
1461.801569191822
 20
228.7768806238976
 30
0.0
 41
2.5
 42
2.5
 43
2.5
 50
180.0
  0
INSERT
  5
1A75
330
11A6
100
AcDbEntity
  8
0
 62
     0
370
    -2
100
AcDbBlockReference
  2
_Open30
 10
1501.134902525155
 20
228.7768806238976
 30
0.0
 41
2.5
 42
2.5
 43
2.5
  0
MTEXT
  5
1A76
330
11A6
100
AcDbEntity
  8
0
 62
     4
100
AcDbMText
 10
1481.342818185363
 20
230.9018806238976
 30
0.0
 40
3.0
 41
0.0
 71
     5
 72
     1
  1
%%C118
 73
     1
 44
1.0
1001
ACAD
1000
MTEXTBEGIN
1070
    73
1070
     1
1070
    44
1040
1.0
1070
    74
1070
     0
1000
MTEXTEND
  0
POINT
  5
1A77
330
11A6
100
AcDbEntity
  8
Defpoints
 62
     0
100
AcDbPoint
 10
1461.801569191822
 20
186.6337478601943
 30
0.0
  0
POINT
  5
1A78
330
11A6
100
AcDbEntity
  8
Defpoints
 62
     0
100
AcDbPoint
 10
1501.134902525155
 20
186.6337478601943
 30
0.0
  0
POINT
  5
1A79
330
11A6
100
AcDbEntity
  8
Defpoints
 62
     0
100
AcDbPoint
 10
1501.134902525155
 20
228.7768806238976
 30
0.0
  0
ENDBLK
  5
11A8
330
11A6
100
AcDbEntity
  8
0
100
AcDbBlockEnd
  0
BLOCK
  5
11B3
330
11B2
100
AcDbEntity
  8
0
100
AcDbBlockBegin
  2
*D20
 70
     1
 10
0.0
 20
0.0
 30
0.0
  3
*D20
  1

  0
LINE
  5
11FD
330
11B2
100
AcDbEntity
  8
0
 62
     0
370
    -2
100
AcDbLine
 10
1857.924819422586
 20
56.00295650158666
 30
0.0
 11
1842.990203138039
 21
56.00295650158666
 31
0.0
  0
LINE
  5
11FE
330
11B2
100
AcDbEntity
  8
0
 62
     0
370
    -2
100
AcDbLine
 10
1940.424819422586
 20
239.5029565015879
 30
0.0
 11
1842.990203138039
 21
239.502956501588
 31
0.0
  0
LINE
  5
11FF
330
11B2
100
AcDbEntity
  8
0
 62
     0
370
    -2
100
AcDbLine
 10
1844.240203138039
 20
58.50295650158666
 30
0.0
 11
1844.240203138039
 21
237.002956501588
 31
0.0
  0
INSERT
  5
1200
330
11B2
100
AcDbEntity
  8
0
 62
     0
370
    -2
100
AcDbBlockReference
  2
_Open30
 10
1844.240203138039
 20
56.00295650158666
 30
0.0
 41
2.5
 42
2.5
 43
2.5
 50
270.0
  0
INSERT
  5
1201
330
11B2
100
AcDbEntity
  8
0
 62
     0
370
    -2
100
AcDbBlockReference
  2
_Open30
 10
1844.240203138039
 20
239.502956501588
 30
0.0
 41
2.5
 42
2.5
 43
2.5
 50
90.0
  0
MTEXT
  5
1202
330
11B2
100
AcDbEntity
  8
0
 62
     4
100
AcDbMText
 10
1842.115203138039
 20
146.1232689546671
 30
0.0
 40
3.0
 41
0.0
 71
     5
 72
     1
  1
550.5
 11
0.0000000000000001
 21
1.0
 31
0.0
 73
     1
 44
1.0
1001
ACAD
1000
MTEXTBEGIN
1070
    73
1070
     1
1070
    44
1040
1.0
1070
    74
1070
     0
1000
MTEXTEND
  0
POINT
  5
1203
330
11B2
100
AcDbEntity
  8
Defpoints
 62
     0
100
AcDbPoint
 10
1858.174819422586
 20
56.00295650158666
 30
0.0
  0
POINT
  5
1204
330
11B2
100
AcDbEntity
  8
Defpoints
 62
     0
100
AcDbPoint
 10
1940.674819422586
 20
239.5029565015879
 30
0.0
  0
POINT
  5
1205
330
11B2
100
AcDbEntity
  8
Defpoints
 62
     0
100
AcDbPoint
 10
1844.240203138039
 20
239.502956501588
 30
0.0
  0
ENDBLK
  5
11B4
330
11B2
100
AcDbEntity
  8
0
100
AcDbBlockEnd
  0
BLOCK
  5
1269
330
1268
100
AcDbEntity
  8
0
100
AcDbBlockBegin
  2
*D21
 70
     1
 10
0.0
 20
0.0
 30
0.0
  3
*D21
  1

  0
LINE
  5
127F
330
1268
100
AcDbEntity
  8
0
 62
     0
370
    -2
100
AcDbLine
 10
1907.842858546887
 20
136.502956501588
 30
0.0
 11
1802.800618750902
 21
136.502956501588
 31
0.0
  0
LINE
  5
1280
330
1268
100
AcDbEntity
  8
0
 62
     0
370
    -2
100
AcDbLine
 10
1907.842858546887
 20
-29.49704349841201
 30
0.0
 11
1802.800618750902
 21
-29.49704349841198
 31
0.0
  0
LINE
  5
1281
330
1268
100
AcDbEntity
  8
0
 62
     0
370
    -2
100
AcDbLine
 10
1804.050618750902
 20
134.002956501588
 30
0.0
 11
1804.050618750902
 21
-26.99704349841198
 31
0.0
  0
INSERT
  5
1282
330
1268
100
AcDbEntity
  8
0
 62
     0
370
    -2
100
AcDbBlockReference
  2
_Open30
 10
1804.050618750902
 20
136.502956501588
 30
0.0
 41
2.5
 42
2.5
 43
2.5
 50
90.0
  0
INSERT
  5
1283
330
1268
100
AcDbEntity
  8
0
 62
     0
370
    -2
100
AcDbBlockReference
  2
_Open30
 10
1804.050618750902
 20
-29.49704349841198
 30
0.0
 41
2.5
 42
2.5
 43
2.5
 50
270.0
  0
MTEXT
  5
1284
330
1268
100
AcDbEntity
  8
0
 62
     4
100
AcDbMText
 10
1801.925618750902
 20
27.47055312601606
 30
0.0
 40
3.0
 41
0.0
 71
     5
 72
     1
  1
166
 11
0.0000000000000001
 21
1.0
 31
0.0
 73
     1
 44
1.0
1001
ACAD
1000
MTEXTBEGIN
1070
    73
1070
     1
1070
    44
1040
1.0
1070
    74
1070
     0
1000
MTEXTEND
  0
POINT
  5
1285
330
1268
100
AcDbEntity
  8
Defpoints
 62
     0
100
AcDbPoint
 10
1908.092858546886
 20
136.502956501588
 30
0.0
  0
POINT
  5
1286
330
1268
100
AcDbEntity
  8
Defpoints
 62
     0
100
AcDbPoint
 10
1908.092858546886
 20
-29.49704349841201
 30
0.0
  0
POINT
  5
1287
330
1268
100
AcDbEntity
  8
Defpoints
 62
     0
100
AcDbPoint
 10
1804.050618750902
 20
-29.49704349841198
 30
0.0
  0
ENDBLK
  5
126A
330
1268
100
AcDbEntity
  8
0
100
AcDbBlockEnd
  0
BLOCK
  5
13BB
330
13BA
100
AcDbEntity
  8
0
100
AcDbBlockBegin
  2
*D22
 70
     1
 10
0.0
 20
0.0
 30
0.0
  3
*D22
  1

  0
LINE
  5
13C7
330
13BA
100
AcDbEntity
  8
0
 62
     0
370
    -2
100
AcDbLine
 10
1940.924819422585
 20
191.502956501588
 30
0.0
 11
1951.122280196128
 21
191.502956501588
 31
0.0
  0
LINE
  5
13C8
330
13BA
100
AcDbEntity
  8
0
 62
     0
370
    -2
100
AcDbLine
 10
1940.924819422585
 20
144.502956501588
 30
0.0
 11
1951.122280196128
 21
144.502956501588
 31
0.0
  0
LINE
  5
13C9
330
13BA
100
AcDbEntity
  8
0
 62
     0
370
    -2
100
AcDbLine
 10
1949.872280196127
 20
189.0029565015879
 30
0.0
 11
1949.872280196127
 21
147.002956501588
 31
0.0
  0
INSERT
  5
13CA
330
13BA
100
AcDbEntity
  8
0
 62
     0
370
    -2
100
AcDbBlockReference
  2
_Open30
 10
1949.872280196127
 20
191.502956501588
 30
0.0
 41
2.5
 42
2.5
 43
2.5
 50
90.0
  0
INSERT
  5
13CB
330
13BA
100
AcDbEntity
  8
0
 62
     0
370
    -2
100
AcDbBlockReference
  2
_Open30
 10
1949.872280196127
 20
144.502956501588
 30
0.0
 41
2.5
 42
2.5
 43
2.5
 50
270.0
  0
MTEXT
  5
13CC
330
13BA
100
AcDbEntity
  8
0
 62
     4
100
AcDbMText
 10
1947.747280196128
 20
157.2877156821969
 30
0.0
 40
3.0
 41
0.0
 71
     5
 72
     1
  1
47
 11
0.0000000000000001
 21
1.0
 31
0.0
 73
     1
 44
1.0
1001
ACAD
1000
MTEXTBEGIN
1070
    73
1070
     1
1070
    44
1040
1.0
1070
    74
1070
     0
1000
MTEXTEND
  0
POINT
  5
13CD
330
13BA
100
AcDbEntity
  8
Defpoints
 62
     0
100
AcDbPoint
 10
1940.674819422585
 20
191.502956501588
 30
0.0
  0
POINT
  5
13CE
330
13BA
100
AcDbEntity
  8
Defpoints
 62
     0
100
AcDbPoint
 10
1940.674819422585
 20
144.502956501588
 30
0.0
  0
POINT
  5
13CF
330
13BA
100
AcDbEntity
  8
Defpoints
 62
     0
100
AcDbPoint
 10
1949.872280196127
 20
144.502956501588
 30
0.0
  0
ENDBLK
  5
13BC
330
13BA
100
AcDbEntity
  8
0
100
AcDbBlockEnd
  0
BLOCK
  5
13D3
330
13D2
100
AcDbEntity
  8
0
100
AcDbBlockBegin
  2
*D23
 70
     1
 10
0.0
 20
0.0
 30
0.0
  3
*D23
  1

  0
LINE
  5
13DF
330
13D2
100
AcDbEntity
  8
0
 62
     0
370
    -2
100
AcDbLine
 10
1977.674819422585
 20
136.252956501588
 30
0.0
 11
1977.674819422585
 21
124.9135277149107
 31
0.0
  0
LINE
  5
13E0
330
13D2
100
AcDbEntity
  8
0
 62
     0
370
    -2
100
AcDbLine
 10
1940.674819422585
 20
136.252956501588
 30
0.0
 11
1940.674819422585
 21
124.9135277149107
 31
0.0
  0
LINE
  5
13E1
330
13D2
100
AcDbEntity
  8
0
 62
     0
370
    -2
100
AcDbLine
 10
1975.174819422585
 20
126.1635277149107
 30
0.0
 11
1943.174819422585
 21
126.1635277149107
 31
0.0
  0
INSERT
  5
13E2
330
13D2
100
AcDbEntity
  8
0
 62
     0
370
    -2
100
AcDbBlockReference
  2
_Open30
 10
1977.674819422585
 20
126.1635277149107
 30
0.0
 41
2.5
 42
2.5
 43
2.5
  0
INSERT
  5
13E3
330
13D2
100
AcDbEntity
  8
0
 62
     0
370
    -2
100
AcDbBlockReference
  2
_Open30
 10
1940.674819422585
 20
126.1635277149107
 30
0.0
 41
2.5
 42
2.5
 43
2.5
 50
180.0
  0
MTEXT
  5
13E4
330
13D2
100
AcDbEntity
  8
0
 62
     4
100
AcDbMText
 10
1956.299495525736
 20
128.2885277149107
 30
0.0
 40
3.0
 41
0.0
 71
     5
 72
     1
  1
37
 73
     1
 44
1.0
1001
ACAD
1000
MTEXTBEGIN
1070
    73
1070
     1
1070
    44
1040
1.0
1070
    74
1070
     0
1000
MTEXTEND
  0
POINT
  5
13E5
330
13D2
100
AcDbEntity
  8
Defpoints
 62
     0
100
AcDbPoint
 10
1977.674819422585
 20
136.502956501588
 30
0.0
  0
POINT
  5
13E6
330
13D2
100
AcDbEntity
  8
Defpoints
 62
     0
100
AcDbPoint
 10
1940.674819422585
 20
136.502956501588
 30
0.0
  0
POINT
  5
13E7
330
13D2
100
AcDbEntity
  8
Defpoints
 62
     0
100
AcDbPoint
 10
1940.674819422585
 20
126.1635277149107
 30
0.0
  0
ENDBLK
  5
13D4
330
13D2
100
AcDbEntity
  8
0
100
AcDbBlockEnd
  0
BLOCK
  5
17D9
330
17D8
100
AcDbEntity
  8
0
100
AcDbBlockBegin
  2
*D24
 70
     1
 10
0.0
 20
0.0
 30
0.0
  3
*D24
  1

  0
LINE
  5
2152
330
17D8
100
AcDbEntity
  8
0
 62
     0
370
    -2
100
AcDbLine
 10
1464.468235858488
 20
188.3837478601943
 30
0.0
 11
1464.468235858488
 21
130.276857128698
 31
0.0
  0
LINE
  5
2153
330
17D8
100
AcDbEntity
  8
0
 62
     0
370
    -2
100
AcDbLine
 10
1498.468235858488
 20
188.3837478601943
 30
0.0
 11
1498.468235858488
 21
130.276857128698
 31
0.0
  0
LINE
  5
2154
330
17D8
100
AcDbEntity
  8
0
 62
     0
370
    -2
100
AcDbLine
 10
1466.968235858488
 20
131.526857128698
 30
0.0
 11
1495.968235858487
 21
131.526857128698
 31
0.0
  0
INSERT
  5
2155
330
17D8
100
AcDbEntity
  8
0
 62
     0
370
    -2
100
AcDbBlockReference
  2
_Open30
 10
1464.468235858488
 20
131.526857128698
 30
0.0
 41
2.5
 42
2.5
 43
2.5
 50
180.0
  0
INSERT
  5
2156
330
17D8
100
AcDbEntity
  8
0
 62
     0
370
    -2
100
AcDbBlockReference
  2
_Open30
 10
1498.468235858488
 20
131.526857128698
 30
0.0
 41
2.5
 42
2.5
 43
2.5
  0
MTEXT
  5
2157
330
17D8
100
AcDbEntity
  8
0
 62
     4
100
AcDbMText
 10
1481.468235858488
 20
133.651857128698
 30
0.0
 40
3.0
 41
0.0
 71
     5
 72
     1
  1
%%C102
 73
     1
 44
1.0
1001
ACAD
1000
MTEXTBEGIN
1070
    73
1070
     1
1070
    44
1040
1.0
1070
    74
1070
     0
1000
MTEXTEND
  0
POINT
  5
2158
330
17D8
100
AcDbEntity
  8
Defpoints
 62
     0
100
AcDbPoint
 10
1464.468235858488
 20
188.6337478601943
 30
0.0
  0
POINT
  5
2159
330
17D8
100
AcDbEntity
  8
Defpoints
 62
     0
100
AcDbPoint
 10
1498.468235858488
 20
188.6337478601943
 30
0.0
  0
POINT
  5
215A
330
17D8
100
AcDbEntity
  8
Defpoints
 62
     0
100
AcDbPoint
 10
1498.468235858488
 20
131.526857128698
 30
0.0
  0
ENDBLK
  5
17DA
330
17D8
100
AcDbEntity
  8
0
100
AcDbBlockEnd
  0
BLOCK
  5
17E5
330
17E4
100
AcDbEntity
  8
0
100
AcDbBlockBegin
  2
*D25
 70
     1
 10
0.0
 20
0.0
 30
0.0
  3
*D25
  1

  0
LINE
  5
2164
330
17E4
100
AcDbEntity
  8
0
 62
     0
370
    -2
100
AcDbLine
 10
1465.384902525154
 20
189.9670811935277
 30
0.0
 11
1454.45669942967
 21
189.9670811935277
 31
0.0
  0
LINE
  5
2165
330
17E4
100
AcDbEntity
  8
0
 62
     0
370
    -2
100
AcDbLine
 10
1470.384902525155
 20
218.3003050164237
 30
0.0
 11
1454.45669942967
 21
218.3003050164237
 31
0.0
  0
LINE
  5
2166
330
17E4
100
AcDbEntity
  8
0
 62
     0
370
    -2
100
AcDbLine
 10
1455.70669942967
 20
192.4670811935277
 30
0.0
 11
1455.70669942967
 21
215.8003050164237
 31
0.0
  0
INSERT
  5
2167
330
17E4
100
AcDbEntity
  8
0
 62
     0
370
    -2
100
AcDbBlockReference
  2
_Open30
 10
1455.70669942967
 20
189.9670811935277
 30
0.0
 41
2.5
 42
2.5
 43
2.5
 50
270.0
  0
INSERT
  5
2168
330
17E4
100
AcDbEntity
  8
0
 62
     0
370
    -2
100
AcDbBlockReference
  2
_Open30
 10
1455.70669942967
 20
218.3003050164237
 30
0.0
 41
2.5
 42
2.5
 43
2.5
 50
90.0
  0
MTEXT
  5
2169
330
17E4
100
AcDbEntity
  8
0
 62
     4
100
AcDbMText
 10
1453.581699429669
 20
203.3654520798597
 30
0.0
 40
3.0
 41
0.0
 71
     5
 72
     1
  1
85
 11
0.0000000000000001
 21
1.0
 31
0.0
 73
     1
 44
1.0
1001
ACAD
1000
MTEXTBEGIN
1070
    73
1070
     1
1070
    44
1040
1.0
1070
    74
1070
     0
1000
MTEXTEND
  0
POINT
  5
216A
330
17E4
100
AcDbEntity
  8
Defpoints
 62
     0
100
AcDbPoint
 10
1465.634902525154
 20
189.9670811935277
 30
0.0
  0
POINT
  5
216B
330
17E4
100
AcDbEntity
  8
Defpoints
 62
     0
100
AcDbPoint
 10
1470.634902525155
 20
218.3003050164237
 30
0.0
  0
POINT
  5
216C
330
17E4
100
AcDbEntity
  8
Defpoints
 62
     0
100
AcDbPoint
 10
1455.70669942967
 20
218.3003050164237
 30
0.0
  0
ENDBLK
  5
17E6
330
17E4
100
AcDbEntity
  8
0
100
AcDbBlockEnd
  0
BLOCK
  5
17F1
330
17F0
100
AcDbEntity
  8
0
100
AcDbBlockBegin
  2
*D26
 70
     1
 10
0.0
 20
0.0
 30
0.0
  3
*D26
  1

  0
LINE
  5
216D
330
17F0
100
AcDbEntity
  8
0
 62
     0
370
    -2
100
AcDbLine
 10
1465.634902525154
 20
190.2170811935276
 30
0.0
 11
1465.634902525154
 21
229.5844515363396
 31
0.0
  0
LINE
  5
216E
330
17F0
100
AcDbEntity
  8
0
 62
     0
370
    -2
100
AcDbLine
 10
1497.301569191821
 20
190.2170811935277
 30
0.0
 11
1497.301569191821
 21
229.5844515363396
 31
0.0
  0
LINE
  5
216F
330
17F0
100
AcDbEntity
  8
0
 62
     0
370
    -2
100
AcDbLine
 10
1468.134902525154
 20
228.3344515363396
 30
0.0
 11
1494.801569191821
 21
228.3344515363396
 31
0.0
  0
INSERT
  5
2170
330
17F0
100
AcDbEntity
  8
0
 62
     0
370
    -2
100
AcDbBlockReference
  2
_Open30
 10
1465.634902525154
 20
228.3344515363396
 30
0.0
 41
2.5
 42
2.5
 43
2.5
 50
180.0
  0
INSERT
  5
2171
330
17F0
100
AcDbEntity
  8
0
 62
     0
370
    -2
100
AcDbBlockReference
  2
_Open30
 10
1497.301569191821
 20
228.3344515363396
 30
0.0
 41
2.5
 42
2.5
 43
2.5
  0
MTEXT
  5
2172
330
17F0
100
AcDbEntity
  8
0
 62
     4
100
AcDbMText
 10
1481.342818185363
 20
230.4594515363396
 30
0.0
 40
3.0
 41
0.0
 71
     5
 72
     1
  1
%%C95
 73
     1
 44
1.0
1001
ACAD
1000
MTEXTBEGIN
1070
    73
1070
     1
1070
    44
1040
1.0
1070
    74
1070
     0
1000
MTEXTEND
  0
POINT
  5
2173
330
17F0
100
AcDbEntity
  8
Defpoints
 62
     0
100
AcDbPoint
 10
1465.634902525154
 20
189.9670811935276
 30
0.0
  0
POINT
  5
2174
330
17F0
100
AcDbEntity
  8
Defpoints
 62
     0
100
AcDbPoint
 10
1497.301569191821
 20
189.9670811935277
 30
0.0
  0
POINT
  5
2175
330
17F0
100
AcDbEntity
  8
Defpoints
 62
     0
100
AcDbPoint
 10
1497.301569191821
 20
228.3344515363396
 30
0.0
  0
ENDBLK
  5
17F2
330
17F0
100
AcDbEntity
  8
0
100
AcDbBlockEnd
  0
BLOCK
  5
17FD
330
17FC
100
AcDbEntity
  8
0
100
AcDbBlockBegin
  2
*D27
 70
     1
 10
0.0
 20
0.0
 30
0.0
  3
*D27
  1

  0
LINE
  5
2149
330
17FC
100
AcDbEntity
  8
0
 62
     0
370
    -2
100
AcDbLine
 10
1487.96823585434
 20
211.3247386363597
 30
0.0
 11
1487.96823585434
 21
224.6785310462734
 31
0.0
  0
LINE
  5
214A
330
17FC
100
AcDbEntity
  8
0
 62
     0
370
    -2
100
AcDbLine
 10
1474.968235898131
 20
212.2874313290357
 30
0.0
 11
1474.968235898131
 21
224.6785310462734
 31
0.0
  0
LINE
  5
214B
330
17FC
100
AcDbEntity
  8
0
 62
     0
370
    -2
100
AcDbLine
 10
1485.46823585434
 20
223.4285310462734
 30
0.0
 11
1477.468235898131
 21
223.4285310462734
 31
0.0
  0
INSERT
  5
214C
330
17FC
100
AcDbEntity
  8
0
 62
     0
370
    -2
100
AcDbBlockReference
  2
_Open30
 10
1487.96823585434
 20
223.4285310462734
 30
0.0
 41
2.5
 42
2.5
 43
2.5
  0
INSERT
  5
214D
330
17FC
100
AcDbEntity
  8
0
 62
     0
370
    -2
100
AcDbBlockReference
  2
_Open30
 10
1474.968235898131
 20
223.4285310462734
 30
0.0
 41
2.5
 42
2.5
 43
2.5
 50
180.0
  0
MTEXT
  5
214E
330
17FC
100
AcDbEntity
  8
0
 62
     4
100
AcDbMText
 10
1481.628191663563
 20
225.5535310462734
 30
0.0
 40
3.0
 41
0.0
 71
     5
 72
     1
  1
E39
 73
     1
 44
1.0
1001
ACAD
1000
MTEXTBEGIN
1070
    73
1070
     1
1070
    44
1040
1.0
1070
    74
1070
     0
1000
MTEXTEND
  0
POINT
  5
214F
330
17FC
100
AcDbEntity
  8
Defpoints
 62
     0
100
AcDbPoint
 10
1487.96823585434
 20
211.0747386363597
 30
0.0
  0
POINT
  5
2150
330
17FC
100
AcDbEntity
  8
Defpoints
 62
     0
100
AcDbPoint
 10
1474.968235898131
 20
212.0374313290357
 30
0.0
  0
POINT
  5
2151
330
17FC
100
AcDbEntity
  8
Defpoints
 62
     0
100
AcDbPoint
 10
1474.968235898131
 20
223.4285310462734
 30
0.0
  0
ENDBLK
  5
17FE
330
17FC
100
AcDbEntity
  8
0
100
AcDbBlockEnd
  0
BLOCK
  5
1812
330
1811
100
AcDbEntity
  8
0
100
AcDbBlockBegin
  2
*D28
 70
     1
 10
0.0
 20
0.0
 30
0.0
  3
*D28
  1

  0
LINE
  5
215B
330
1811
100
AcDbEntity
  8
0
 62
     0
370
    -2
100
AcDbLine
 10
1481.182920278201
 20
218.3003050164237
 30
0.0
 11
1446.01960103815
 21
218.3003050164237
 31
0.0
  0
LINE
  5
215C
330
1811
100
AcDbEntity
  8
0
 62
     0
370
    -2
100
AcDbLine
 10
1481.180812946497
 20
138.300414526861
 30
0.0
 11
1446.01960103815
 21
138.300414526861
 31
0.0
  0
LINE
  5
215D
330
1811
100
AcDbEntity
  8
0
 62
     0
370
    -2
100
AcDbLine
 10
1447.26960103815
 20
215.8003050164237
 30
0.0
 11
1447.26960103815
 21
140.800414526861
 31
0.0
  0
INSERT
  5
215E
330
1811
100
AcDbEntity
  8
0
 62
     0
370
    -2
100
AcDbBlockReference
  2
_Open30
 10
1447.26960103815
 20
218.3003050164237
 30
0.0
 41
2.5
 42
2.5
 43
2.5
 50
90.0
  0
INSERT
  5
215F
330
1811
100
AcDbEntity
  8
0
 62
     0
370
    -2
100
AcDbBlockReference
  2
_Open30
 10
1447.26960103815
 20
138.300414526861
 30
0.0
 41
2.5
 42
2.5
 43
2.5
 50
270.0
  0
MTEXT
  5
2160
330
1811
100
AcDbEntity
  8
0
 62
     4
100
AcDbMText
 10
1445.14460103815
 20
178.3003597716422
 30
0.0
 40
3.0
 41
0.0
 71
     5
 72
     1
  1
240
 11
0.0000000000000001
 21
1.0
 31
0.0
 73
     1
 44
1.0
1001
ACAD
1000
MTEXTBEGIN
1070
    73
1070
     1
1070
    44
1040
1.0
1070
    74
1070
     0
1000
MTEXTEND
  0
POINT
  5
2161
330
1811
100
AcDbEntity
  8
Defpoints
 62
     0
100
AcDbPoint
 10
1481.432920278201
 20
218.3003050164237
 30
0.0
  0
POINT
  5
2162
330
1811
100
AcDbEntity
  8
Defpoints
 62
     0
100
AcDbPoint
 10
1481.430812946497
 20
138.300414526861
 30
0.0
  0
POINT
  5
2163
330
1811
100
AcDbEntity
  8
Defpoints
 62
     0
100
AcDbPoint
 10
1447.26960103815
 20
138.300414526861
 30
0.0
  0
ENDBLK
  5
1813
330
1811
100
AcDbEntity
  8
0
100
AcDbBlockEnd
  0
BLOCK
  5
18AD
330
18AC
100
AcDbEntity
  8
0
100
AcDbBlockBegin
  2
*D29
 70
     1
 10
0.0
 20
0.0
 30
0.0
  3
*D29
  1

  0
LINE
  5
18BB
330
18AC
100
AcDbEntity
  8
0
 62
     0
370
    -2
100
AcDbLine
 10
1816.838867342156
 20
175.5504145268609
 30
0.0
 11
1816.838867342156
 21
180.9879818509766
 31
0.0
  0
LINE
  5
18BC
330
18AC
100
AcDbEntity
  8
0
 62
     0
370
    -2
100
AcDbLine
 10
1858.838867342156
 20
175.5504145268609
 30
0.0
 11
1858.838867342156
 21
180.9879818509766
 31
0.0
  0
LINE
  5
18BD
330
18AC
100
AcDbEntity
  8
0
 62
     0
370
    -2
100
AcDbLine
 10
1814.338867342156
 20
179.7379818509766
 30
0.0
 11
1811.838867342156
 21
179.7379818509766
 31
0.0
  0
LINE
  5
18BE
330
18AC
100
AcDbEntity
  8
0
 62
     0
370
    -2
100
AcDbLine
 10
1861.338867342156
 20
179.7379818509766
 30
0.0
 11
1870.088867342156
 21
179.7379818509766
 31
0.0
  0
LINE
  5
18BF
330
18AC
100
AcDbEntity
  8
0
 62
     0
370
    -2
100
AcDbLine
 10
1816.838867342156
 20
179.7379818509766
 30
0.0
 11
1858.838867342156
 21
179.7379818509766
 31
0.0
  0
INSERT
  5
18C0
330
18AC
100
AcDbEntity
  8
0
 62
     0
370
    -2
100
AcDbBlockReference
  2
_Open30
 10
1816.838867342156
 20
179.7379818509766
 30
0.0
 41
2.5
 42
2.5
 43
2.5
  0
INSERT
  5
18C1
330
18AC
100
AcDbEntity
  8
0
 62
     0
370
    -2
100
AcDbBlockReference
  2
_Open30
 10
1858.838867342156
 20
179.7379818509766
 30
0.0
 41
2.5
 42
2.5
 43
2.5
 50
180.0
  0
MTEXT
  5
18C2
330
18AC
100
AcDbEntity
  8
0
 62
     4
100
AcDbMText
 10
1866.963867342156
 20
181.8629818509768
 30
0.0
 40
3.0
 41
0.0
 71
     5
 72
     1
  1
42
 73
     1
 44
1.0
1001
ACAD
1000
MTEXTBEGIN
1070
    73
1070
     1
1070
    44
1040
1.0
1070
    74
1070
     0
1000
MTEXTEND
  0
POINT
  5
18C3
330
18AC
100
AcDbEntity
  8
Defpoints
 62
     0
100
AcDbPoint
 10
1816.838867342156
 20
175.300414526861
 30
0.0
  0
POINT
  5
18C4
330
18AC
100
AcDbEntity
  8
Defpoints
 62
     0
100
AcDbPoint
 10
1858.838867342156
 20
175.300414526861
 30
0.0
  0
POINT
  5
18C5
330
18AC
100
AcDbEntity
  8
Defpoints
 62
     0
100
AcDbPoint
 10
1858.838867342156
 20
179.7379818509766
 30
0.0
  0
ENDBLK
  5
18AE
330
18AC
100
AcDbEntity
  8
0
100
AcDbBlockEnd
  0
BLOCK
  5
1905
330
1904
100
AcDbEntity
  8
0
100
AcDbBlockBegin
  2
*D30
 70
     1
 10
0.0
 20
0.0
 30
0.0
  3
*D30
  1

  0
LINE
  5
1A29
330
1904
100
AcDbEntity
  8
0
 62
     0
370
    -2
100
AcDbLine
 10
1837.838867342156
 20
196.9539405752145
 30
0.0
 11
1837.838867342156
 21
199.5573371357652
 31
0.0
  0
LINE
  5
1A2A
330
1904
100
AcDbEntity
  8
0
 62
     0
370
    -2
100
AcDbLine
 10
1822.005534008823
 20
196.9539405752145
 30
0.0
 11
1822.005534008823
 21
199.5573371357652
 31
0.0
  0
LINE
  5
1A2B
330
1904
100
AcDbEntity
  8
0
 62
     0
370
    -2
100
AcDbLine
 10
1835.338867342156
 20
198.3073371357652
 30
0.0
 11
1824.505534008823
 21
198.3073371357652
 31
0.0
  0
INSERT
  5
1A2C
330
1904
100
AcDbEntity
  8
0
 62
     0
370
    -2
100
AcDbBlockReference
  2
_Open30
 10
1837.838867342156
 20
198.3073371357652
 30
0.0
 41
2.5
 42
2.5
 43
2.5
  0
INSERT
  5
1A2D
330
1904
100
AcDbEntity
  8
0
 62
     0
370
    -2
100
AcDbBlockReference
  2
_Open30
 10
1822.005534008823
 20
198.3073371357652
 30
0.0
 41
2.5
 42
2.5
 43
2.5
 50
180.0
  0
MTEXT
  5
1A2E
330
1904
100
AcDbEntity
  8
0
 62
     4
100
AcDbMText
 10
1828.210136746134
 20
200.4323371357652
 30
0.0
 40
3.0
 41
0.0
 71
     5
 72
     1
  1
15.83
 73
     1
 44
1.0
1001
ACAD
1000
MTEXTBEGIN
1070
    73
1070
     1
1070
    44
1040
1.0
1070
    74
1070
     0
1000
MTEXTEND
  0
POINT
  5
1A2F
330
1904
100
AcDbEntity
  8
Defpoints
 62
     0
100
AcDbPoint
 10
1837.838867342156
 20
196.7039405752146
 30
0.0
  0
POINT
  5
1A30
330
1904
100
AcDbEntity
  8
Defpoints
 62
     0
100
AcDbPoint
 10
1822.005534008823
 20
196.7039405752146
 30
0.0
  0
POINT
  5
1A31
330
1904
100
AcDbEntity
  8
Defpoints
 62
     0
100
AcDbPoint
 10
1822.005534008823
 20
198.3073371357652
 30
0.0
  0
ENDBLK
  5
1906
330
1904
100
AcDbEntity
  8
0
100
AcDbBlockEnd
  0
BLOCK
  5
191D
330
191C
100
AcDbEntity
  8
0
100
AcDbBlockBegin
  2
*D31
 70
     1
 10
0.0
 20
0.0
 30
0.0
  3
*D31
  1

  0
LINE
  5
1A32
330
191C
100
AcDbEntity
  8
0
 62
     0
370
    -2
100
AcDbLine
 10
1838.088867342158
 20
208.7039405752146
 30
0.0
 11
1841.533172560846
 21
208.7039405752146
 31
0.0
  0
LINE
  5
1A33
330
191C
100
AcDbEntity
  8
0
 62
     0
370
    -2
100
AcDbLine
 10
1838.088867342158
 20
196.7039405752146
 30
0.0
 11
1841.533172560846
 21
196.7039405752146
 31
0.0
  0
LINE
  5
1A34
330
191C
100
AcDbEntity
  8
0
 62
     0
370
    -2
100
AcDbLine
 10
1840.283172560846
 20
206.2039405752146
 30
0.0
 11
1840.283172560846
 21
199.2039405752145
 31
0.0
  0
INSERT
  5
1A35
330
191C
100
AcDbEntity
  8
0
 62
     0
370
    -2
100
AcDbBlockReference
  2
_Open30
 10
1840.283172560846
 20
208.7039405752146
 30
0.0
 41
2.5
 42
2.5
 43
2.5
 50
90.0
  0
INSERT
  5
1A36
330
191C
100
AcDbEntity
  8
0
 62
     0
370
    -2
100
AcDbBlockReference
  2
_Open30
 10
1840.283172560846
 20
196.7039405752146
 30
0.0
 41
2.5
 42
2.5
 43
2.5
 50
270.0
  0
MTEXT
  5
1A37
330
191C
100
AcDbEntity
  8
0
 62
     4
100
AcDbMText
 10
1838.158172560846
 20
199.4873603212866
 30
0.0
 40
3.0
 41
0.0
 71
     5
 72
     1
  1
12
 11
0.0000000000000001
 21
1.0
 31
0.0
 73
     1
 44
1.0
1001
ACAD
1000
MTEXTBEGIN
1070
    73
1070
     1
1070
    44
1040
1.0
1070
    74
1070
     0
1000
MTEXTEND
  0
POINT
  5
1A38
330
191C
100
AcDbEntity
  8
Defpoints
 62
     0
100
AcDbPoint
 10
1837.838867342158
 20
208.7039405752146
 30
0.0
  0
POINT
  5
1A39
330
191C
100
AcDbEntity
  8
Defpoints
 62
     0
100
AcDbPoint
 10
1837.838867342158
 20
196.7039405752146
 30
0.0
  0
POINT
  5
1A3A
330
191C
100
AcDbEntity
  8
Defpoints
 62
     0
100
AcDbPoint
 10
1840.283172560846
 20
196.7039405752146
 30
0.0
  0
ENDBLK
  5
191E
330
191C
100
AcDbEntity
  8
0
100
AcDbBlockEnd
  0
BLOCK
  5
1B78
330
1B77
100
AcDbEntity
  8
0
100
AcDbBlockBegin
  2
*D32
 70
     1
 10
0.0
 20
0.0
 30
0.0
  3
*D32
  1

  0
LINE
  5
1B79
330
1B77
100
AcDbEntity
  8
0
 62
     0
370
    -2
100
AcDbLine
 10
1487.96823585434
 20
211.3247386363597
 30
0.0
 11
1487.96823585434
 21
224.6785310462734
 31
0.0
  0
LINE
  5
1B7A
330
1B77
100
AcDbEntity
  8
0
 62
     0
370
    -2
100
AcDbLine
 10
1474.968235898131
 20
212.2874313290357
 30
0.0
 11
1474.968235898131
 21
224.6785310462734
 31
0.0
  0
LINE
  5
1B7B
330
1B77
100
AcDbEntity
  8
0
 62
     0
370
    -2
100
AcDbLine
 10
1485.46823585434
 20
223.4285310462734
 30
0.0
 11
1477.468235898131
 21
223.4285310462734
 31
0.0
  0
INSERT
  5
1B7C
330
1B77
100
AcDbEntity
  8
0
 62
     0
370
    -2
100
AcDbBlockReference
  2
_Open30
 10
1487.96823585434
 20
223.4285310462734
 30
0.0
 41
2.5
 42
2.5
 43
2.5
  0
INSERT
  5
1B7D
330
1B77
100
AcDbEntity
  8
0
 62
     0
370
    -2
100
AcDbBlockReference
  2
_Open30
 10
1474.968235898131
 20
223.4285310462734
 30
0.0
 41
2.5
 42
2.5
 43
2.5
 50
180.0
  0
MTEXT
  5
1B7E
330
1B77
100
AcDbEntity
  8
0
 62
     4
100
AcDbMText
 10
1481.628191663563
 20
225.5535310462734
 30
0.0
 40
3.0
 41
0.0
 71
     5
 72
     1
  1
E39
 73
     1
 44
1.0
1001
ACAD
1000
MTEXTBEGIN
1070
    73
1070
     1
1070
    44
1040
1.0
1070
    74
1070
     0
1000
MTEXTEND
  0
POINT
  5
1B7F
330
1B77
100
AcDbEntity
  8
Defpoints
 62
     0
100
AcDbPoint
 10
1487.96823585434
 20
211.0747386363597
 30
0.0
  0
POINT
  5
1B80
330
1B77
100
AcDbEntity
  8
Defpoints
 62
     0
100
AcDbPoint
 10
1474.968235898131
 20
212.0374313290357
 30
0.0
  0
POINT
  5
1B81
330
1B77
100
AcDbEntity
  8
Defpoints
 62
     0
100
AcDbPoint
 10
1474.968235898131
 20
223.4285310462734
 30
0.0
  0
ENDBLK
  5
1B82
330
1B77
100
AcDbEntity
  8
0
100
AcDbBlockEnd
  0
BLOCK
  5
1B84
330
1B83
100
AcDbEntity
  8
0
100
AcDbBlockBegin
  2
*D33
 70
     1
 10
0.0
 20
0.0
 30
0.0
  3
*D33
  1

  0
LINE
  5
1B85
330
1B83
100
AcDbEntity
  8
0
 62
     0
370
    -2
100
AcDbLine
 10
1460.468235858489
 20
185.050414526861
 30
0.0
 11
1460.468235858489
 21
108.4437268021335
 31
0.0
  0
LINE
  5
1B86
330
1B83
100
AcDbEntity
  8
0
 62
     0
370
    -2
100
AcDbLine
 10
1502.468235858487
 20
185.050414526861
 30
0.0
 11
1502.468235858487
 21
108.4437268021335
 31
0.0
  0
LINE
  5
1B87
330
1B83
100
AcDbEntity
  8
0
 62
     0
370
    -2
100
AcDbLine
 10
1462.968235858489
 20
109.6937268021335
 30
0.0
 11
1499.968235858487
 21
109.6937268021335
 31
0.0
  0
INSERT
  5
1B88
330
1B83
100
AcDbEntity
  8
0
 62
     0
370
    -2
100
AcDbBlockReference
  2
_Open30
 10
1460.468235858489
 20
109.6937268021335
 30
0.0
 41
2.5
 42
2.5
 43
2.5
 50
180.0
  0
INSERT
  5
1B89
330
1B83
100
AcDbEntity
  8
0
 62
     0
370
    -2
100
AcDbBlockReference
  2
_Open30
 10
1502.468235858487
 20
109.6937268021335
 30
0.0
 41
2.5
 42
2.5
 43
2.5
  0
MTEXT
  5
1B8A
330
1B83
100
AcDbEntity
  8
0
 62
     4
100
AcDbMText
 10
1481.468235858488
 20
111.8187268021335
 30
0.0
 40
3.0
 41
0.0
 71
     5
 72
     1
  1
%%C126
 73
     1
 44
1.0
1001
ACAD
1000
MTEXTBEGIN
1070
    73
1070
     1
1070
    44
1040
1.0
1070
    74
1070
     0
1000
MTEXTEND
  0
POINT
  5
1B8B
330
1B83
100
AcDbEntity
  8
Defpoints
 62
     0
100
AcDbPoint
 10
1460.468235858489
 20
185.300414526861
 30
0.0
  0
POINT
  5
1B8C
330
1B83
100
AcDbEntity
  8
Defpoints
 62
     0
100
AcDbPoint
 10
1502.468235858487
 20
185.300414526861
 30
0.0
  0
POINT
  5
1B8D
330
1B83
100
AcDbEntity
  8
Defpoints
 62
     0
100
AcDbPoint
 10
1502.468235858487
 20
109.6937268021335
 30
0.0
  0
ENDBLK
  5
1B8E
330
1B83
100
AcDbEntity
  8
0
100
AcDbBlockEnd
  0
BLOCK
  5
1B90
330
1B8F
100
AcDbEntity
  8
0
100
AcDbBlockBegin
  2
*D34
 70
     1
 10
0.0
 20
0.0
 30
0.0
  3
*D34
  1

  0
LINE
  5
1B91
330
1B8F
100
AcDbEntity
  8
0
 62
     0
370
    -2
100
AcDbLine
 10
1481.182920278201
 20
218.3003050164237
 30
0.0
 11
1446.019601038153
 21
218.3003050164237
 31
0.0
  0
LINE
  5
1B92
330
1B8F
100
AcDbEntity
  8
0
 62
     0
370
    -2
100
AcDbLine
 10
1481.180812946497
 20
119.6338060786681
 30
0.0
 11
1446.019601038153
 21
119.6338060786681
 31
0.0
  0
LINE
  5
1B93
330
1B8F
100
AcDbEntity
  8
0
 62
     0
370
    -2
100
AcDbLine
 10
1447.269601038153
 20
215.8003050164237
 30
0.0
 11
1447.269601038153
 21
122.1338060786681
 31
0.0
  0
INSERT
  5
1B94
330
1B8F
100
AcDbEntity
  8
0
 62
     0
370
    -2
100
AcDbBlockReference
  2
_Open30
 10
1447.269601038153
 20
218.3003050164237
 30
0.0
 41
2.5
 42
2.5
 43
2.5
 50
90.0
  0
INSERT
  5
1B95
330
1B8F
100
AcDbEntity
  8
0
 62
     0
370
    -2
100
AcDbBlockReference
  2
_Open30
 10
1447.269601038153
 20
119.6338060786681
 30
0.0
 41
2.5
 42
2.5
 43
2.5
 50
270.0
  0
MTEXT
  5
1B96
330
1B8F
100
AcDbEntity
  8
0
 62
     4
100
AcDbMText
 10
1445.144601038153
 20
168.9670555475458
 30
0.0
 40
3.0
 41
0.0
 71
     5
 72
     1
  1
296
 11
0.0000000000000001
 21
1.0
 31
0.0
 73
     1
 44
1.0
1001
ACAD
1000
MTEXTBEGIN
1070
    73
1070
     1
1070
    44
1040
1.0
1070
    74
1070
     0
1000
MTEXTEND
  0
POINT
  5
1B97
330
1B8F
100
AcDbEntity
  8
Defpoints
 62
     0
100
AcDbPoint
 10
1481.432920278201
 20
218.3003050164237
 30
0.0
  0
POINT
  5
1B98
330
1B8F
100
AcDbEntity
  8
Defpoints
 62
     0
100
AcDbPoint
 10
1481.430812946497
 20
119.6338060786681
 30
0.0
  0
POINT
  5
1B99
330
1B8F
100
AcDbEntity
  8
Defpoints
 62
     0
100
AcDbPoint
 10
1447.269601038153
 20
119.6338060786681
 30
0.0
  0
ENDBLK
  5
1B9A
330
1B8F
100
AcDbEntity
  8
0
100
AcDbBlockEnd
  0
BLOCK
  5
1B9C
330
1B9B
100
AcDbEntity
  8
0
100
AcDbBlockBegin
  2
*D35
 70
     1
 10
0.0
 20
0.0
 30
0.0
  3
*D35
  1

  0
LINE
  5
1B9D
330
1B9B
100
AcDbEntity
  8
0
 62
     0
370
    -2
100
AcDbLine
 10
1461.551569191822
 20
186.6337478601943
 30
0.0
 11
1454.45669942967
 21
186.6337478601943
 31
0.0
  0
LINE
  5
1B9E
330
1B9B
100
AcDbEntity
  8
0
 62
     0
370
    -2
100
AcDbLine
 10
1470.384902525155
 20
218.3003050164237
 30
0.0
 11
1454.45669942967
 21
218.3003050164237
 31
0.0
  0
LINE
  5
1B9F
330
1B9B
100
AcDbEntity
  8
0
 62
     0
370
    -2
100
AcDbLine
 10
1455.70669942967
 20
189.1337478601943
 30
0.0
 11
1455.70669942967
 21
215.8003050164237
 31
0.0
  0
INSERT
  5
1BA0
330
1B9B
100
AcDbEntity
  8
0
 62
     0
370
    -2
100
AcDbBlockReference
  2
_Open30
 10
1455.70669942967
 20
186.6337478601943
 30
0.0
 41
2.5
 42
2.5
 43
2.5
 50
270.0
  0
INSERT
  5
1BA1
330
1B9B
100
AcDbEntity
  8
0
 62
     0
370
    -2
100
AcDbBlockReference
  2
_Open30
 10
1455.70669942967
 20
218.3003050164237
 30
0.0
 41
2.5
 42
2.5
 43
2.5
 50
90.0
  0
MTEXT
  5
1BA2
330
1B9B
100
AcDbEntity
  8
0
 62
     4
100
AcDbMText
 10
1453.581699429669
 20
203.3654520798597
 30
0.0
 40
3.0
 41
0.0
 71
     5
 72
     1
  1
95
 11
0.0000000000000001
 21
1.0
 31
0.0
 73
     1
 44
1.0
1001
ACAD
1000
MTEXTBEGIN
1070
    73
1070
     1
1070
    44
1040
1.0
1070
    74
1070
     0
1000
MTEXTEND
  0
POINT
  5
1BA3
330
1B9B
100
AcDbEntity
  8
Defpoints
 62
     0
100
AcDbPoint
 10
1461.801569191822
 20
186.6337478601943
 30
0.0
  0
POINT
  5
1BA4
330
1B9B
100
AcDbEntity
  8
Defpoints
 62
     0
100
AcDbPoint
 10
1470.634902525155
 20
218.3003050164237
 30
0.0
  0
POINT
  5
1BA5
330
1B9B
100
AcDbEntity
  8
Defpoints
 62
     0
100
AcDbPoint
 10
1455.70669942967
 20
218.3003050164237
 30
0.0
  0
ENDBLK
  5
1BA6
330
1B9B
100
AcDbEntity
  8
0
100
AcDbBlockEnd
  0
BLOCK
  5
1BA8
330
1BA7
100
AcDbEntity
  8
0
100
AcDbBlockBegin
  2
*D36
 70
     1
 10
0.0
 20
0.0
 30
0.0
  3
*D36
  1

  0
LINE
  5
1BA9
330
1BA7
100
AcDbEntity
  8
0
 62
     0
370
    -2
100
AcDbLine
 10
1461.801569191822
 20
186.8837478601943
 30
0.0
 11
1461.801569191822
 21
230.0268806238976
 31
0.0
  0
LINE
  5
1BAA
330
1BA7
100
AcDbEntity
  8
0
 62
     0
370
    -2
100
AcDbLine
 10
1501.134902525155
 20
186.8837478601943
 30
0.0
 11
1501.134902525155
 21
230.0268806238976
 31
0.0
  0
LINE
  5
1BAB
330
1BA7
100
AcDbEntity
  8
0
 62
     0
370
    -2
100
AcDbLine
 10
1464.301569191822
 20
228.7768806238976
 30
0.0
 11
1498.634902525155
 21
228.7768806238976
 31
0.0
  0
INSERT
  5
1BAC
330
1BA7
100
AcDbEntity
  8
0
 62
     0
370
    -2
100
AcDbBlockReference
  2
_Open30
 10
1461.801569191822
 20
228.7768806238976
 30
0.0
 41
2.5
 42
2.5
 43
2.5
 50
180.0
  0
INSERT
  5
1BAD
330
1BA7
100
AcDbEntity
  8
0
 62
     0
370
    -2
100
AcDbBlockReference
  2
_Open30
 10
1501.134902525155
 20
228.7768806238976
 30
0.0
 41
2.5
 42
2.5
 43
2.5
  0
MTEXT
  5
1BAE
330
1BA7
100
AcDbEntity
  8
0
 62
     4
100
AcDbMText
 10
1481.342818185363
 20
230.9018806238976
 30
0.0
 40
3.0
 41
0.0
 71
     5
 72
     1
  1
%%C118
 73
     1
 44
1.0
1001
ACAD
1000
MTEXTBEGIN
1070
    73
1070
     1
1070
    44
1040
1.0
1070
    74
1070
     0
1000
MTEXTEND
  0
POINT
  5
1BAF
330
1BA7
100
AcDbEntity
  8
Defpoints
 62
     0
100
AcDbPoint
 10
1461.801569191822
 20
186.6337478601943
 30
0.0
  0
POINT
  5
1BB0
330
1BA7
100
AcDbEntity
  8
Defpoints
 62
     0
100
AcDbPoint
 10
1501.134902525155
 20
186.6337478601943
 30
0.0
  0
POINT
  5
1BB1
330
1BA7
100
AcDbEntity
  8
Defpoints
 62
     0
100
AcDbPoint
 10
1501.134902525155
 20
228.7768806238976
 30
0.0
  0
ENDBLK
  5
1BB2
330
1BA7
100
AcDbEntity
  8
0
100
AcDbBlockEnd
  0
BLOCK
  5
202A
330
2029
100
AcDbEntity
  8
0
100
AcDbBlockBegin
  2
*D37
 70
     1
 10
0.0
 20
0.0
 30
0.0
  3
*D37
  1

  0
LINE
  5
2059
330
2029
100
AcDbEntity
  8
0
 62
     0
370
    -2
100
AcDbLine
 10
1712.425374284378
 20
208.3655549550159
 30
0.0
 11
1712.425374284378
 21
221.7193473649296
 31
0.0
  0
LINE
  5
205A
330
2029
100
AcDbEntity
  8
0
 62
     0
370
    -2
100
AcDbLine
 10
1699.425374328169
 20
209.3282476476919
 30
0.0
 11
1699.425374328169
 21
221.7193473649296
 31
0.0
  0
LINE
  5
205B
330
2029
100
AcDbEntity
  8
0
 62
     0
370
    -2
100
AcDbLine
 10
1709.925374284378
 20
220.4693473649296
 30
0.0
 11
1701.92537432817
 21
220.4693473649296
 31
0.0
  0
INSERT
  5
205C
330
2029
100
AcDbEntity
  8
0
 62
     0
370
    -2
100
AcDbBlockReference
  2
_Open30
 10
1712.425374284378
 20
220.4693473649296
 30
0.0
 41
2.5
 42
2.5
 43
2.5
  0
INSERT
  5
205D
330
2029
100
AcDbEntity
  8
0
 62
     0
370
    -2
100
AcDbBlockReference
  2
_Open30
 10
1699.425374328169
 20
220.4693473649296
 30
0.0
 41
2.5
 42
2.5
 43
2.5
 50
180.0
  0
MTEXT
  5
205E
330
2029
100
AcDbEntity
  8
0
 62
     4
100
AcDbMText
 10
1706.085330093602
 20
222.5943473649296
 30
0.0
 40
3.0
 41
0.0
 71
     5
 72
     1
  1
E39
 73
     1
 44
1.0
1001
ACAD
1000
MTEXTBEGIN
1070
    73
1070
     1
1070
    44
1040
1.0
1070
    74
1070
     0
1000
MTEXTEND
  0
POINT
  5
205F
330
2029
100
AcDbEntity
  8
Defpoints
 62
     0
100
AcDbPoint
 10
1712.425374284378
 20
208.1155549550159
 30
0.0
  0
POINT
  5
2060
330
2029
100
AcDbEntity
  8
Defpoints
 62
     0
100
AcDbPoint
 10
1699.425374328169
 20
209.0782476476919
 30
0.0
  0
POINT
  5
2061
330
2029
100
AcDbEntity
  8
Defpoints
 62
     0
100
AcDbPoint
 10
1699.425374328169
 20
220.4693473649296
 30
0.0
  0
ENDBLK
  5
202B
330
2029
100
AcDbEntity
  8
0
100
AcDbBlockEnd
  0
BLOCK
  5
2036
330
2035
100
AcDbEntity
  8
0
100
AcDbBlockBegin
  2
*D38
 70
     1
 10
0.0
 20
0.0
 30
0.0
  3
*D38
  1

  0
LINE
  5
2062
330
2035
100
AcDbEntity
  8
0
 62
     0
370
    -2
100
AcDbLine
 10
1684.925374288528
 20
182.0912308455172
 30
0.0
 11
1684.925374288528
 21
105.4845431207897
 31
0.0
  0
LINE
  5
2063
330
2035
100
AcDbEntity
  8
0
 62
     0
370
    -2
100
AcDbLine
 10
1726.925374288525
 20
182.0912308455172
 30
0.0
 11
1726.925374288525
 21
105.4845431207897
 31
0.0
  0
LINE
  5
2064
330
2035
100
AcDbEntity
  8
0
 62
     0
370
    -2
100
AcDbLine
 10
1687.425374288528
 20
106.7345431207897
 30
0.0
 11
1724.425374288525
 21
106.7345431207897
 31
0.0
  0
INSERT
  5
2065
330
2035
100
AcDbEntity
  8
0
 62
     0
370
    -2
100
AcDbBlockReference
  2
_Open30
 10
1684.925374288528
 20
106.7345431207897
 30
0.0
 41
2.5
 42
2.5
 43
2.5
 50
180.0
  0
INSERT
  5
2066
330
2035
100
AcDbEntity
  8
0
 62
     0
370
    -2
100
AcDbBlockReference
  2
_Open30
 10
1726.925374288525
 20
106.7345431207897
 30
0.0
 41
2.5
 42
2.5
 43
2.5
  0
MTEXT
  5
2067
330
2035
100
AcDbEntity
  8
0
 62
     4
100
AcDbMText
 10
1705.925374288526
 20
108.8595431207897
 30
0.0
 40
3.0
 41
0.0
 71
     5
 72
     1
  1
%%C126
 73
     1
 44
1.0
1001
ACAD
1000
MTEXTBEGIN
1070
    73
1070
     1
1070
    44
1040
1.0
1070
    74
1070
     0
1000
MTEXTEND
  0
POINT
  5
2068
330
2035
100
AcDbEntity
  8
Defpoints
 62
     0
100
AcDbPoint
 10
1684.925374288528
 20
182.3412308455172
 30
0.0
  0
POINT
  5
2069
330
2035
100
AcDbEntity
  8
Defpoints
 62
     0
100
AcDbPoint
 10
1726.925374288525
 20
182.3412308455172
 30
0.0
  0
POINT
  5
206A
330
2035
100
AcDbEntity
  8
Defpoints
 62
     0
100
AcDbPoint
 10
1726.925374288525
 20
106.7345431207897
 30
0.0
  0
ENDBLK
  5
2037
330
2035
100
AcDbEntity
  8
0
100
AcDbBlockEnd
  0
BLOCK
  5
2042
330
2041
100
AcDbEntity
  8
0
100
AcDbBlockBegin
  2
*D39
 70
     1
 10
0.0
 20
0.0
 30
0.0
  3
*D39
  1

  0
LINE
  5
2077
330
2041
100
AcDbEntity
  8
0
 62
     0
370
    -2
100
AcDbLine
 10
1686.00870762186
 20
183.6745641788505
 30
0.0
 11
1678.913837859708
 21
183.6745641788505
 31
0.0
  0
LINE
  5
2078
330
2041
100
AcDbEntity
  8
0
 62
     0
370
    -2
100
AcDbLine
 10
1694.842040955193
 20
215.3411213350799
 30
0.0
 11
1678.913837859708
 21
215.3411213350799
 31
0.0
  0
LINE
  5
2079
330
2041
100
AcDbEntity
  8
0
 62
     0
370
    -2
100
AcDbLine
 10
1680.163837859708
 20
186.1745641788505
 30
0.0
 11
1680.163837859708
 21
212.8411213350799
 31
0.0
  0
INSERT
  5
207A
330
2041
100
AcDbEntity
  8
0
 62
     0
370
    -2
100
AcDbBlockReference
  2
_Open30
 10
1680.163837859708
 20
183.6745641788505
 30
0.0
 41
2.5
 42
2.5
 43
2.5
 50
270.0
  0
INSERT
  5
207B
330
2041
100
AcDbEntity
  8
0
 62
     0
370
    -2
100
AcDbBlockReference
  2
_Open30
 10
1680.163837859708
 20
215.3411213350799
 30
0.0
 41
2.5
 42
2.5
 43
2.5
 50
90.0
  0
MTEXT
  5
207C
330
2041
100
AcDbEntity
  8
0
 62
     4
100
AcDbMText
 10
1678.038837859707
 20
200.4062683985159
 30
0.0
 40
3.0
 41
0.0
 71
     5
 72
     1
  1
95
 11
0.0000000000000001
 21
1.0
 31
0.0
 73
     1
 44
1.0
1001
ACAD
1000
MTEXTBEGIN
1070
    73
1070
     1
1070
    44
1040
1.0
1070
    74
1070
     0
1000
MTEXTEND
  0
POINT
  5
207D
330
2041
100
AcDbEntity
  8
Defpoints
 62
     0
100
AcDbPoint
 10
1686.25870762186
 20
183.6745641788505
 30
0.0
  0
POINT
  5
207E
330
2041
100
AcDbEntity
  8
Defpoints
 62
     0
100
AcDbPoint
 10
1695.092040955193
 20
215.3411213350799
 30
0.0
  0
POINT
  5
207F
330
2041
100
AcDbEntity
  8
Defpoints
 62
     0
100
AcDbPoint
 10
1680.163837859708
 20
215.3411213350799
 30
0.0
  0
ENDBLK
  5
2043
330
2041
100
AcDbEntity
  8
0
100
AcDbBlockEnd
  0
BLOCK
  5
204E
330
204D
100
AcDbEntity
  8
0
100
AcDbBlockBegin
  2
*D40
 70
     1
 10
0.0
 20
0.0
 30
0.0
  3
*D40
  1

  0
LINE
  5
2080
330
204D
100
AcDbEntity
  8
0
 62
     0
370
    -2
100
AcDbLine
 10
1686.25870762186
 20
183.9245641788505
 30
0.0
 11
1686.25870762186
 21
227.0676969425538
 31
0.0
  0
LINE
  5
2081
330
204D
100
AcDbEntity
  8
0
 62
     0
370
    -2
100
AcDbLine
 10
1725.592040955193
 20
183.9245641788505
 30
0.0
 11
1725.592040955193
 21
227.0676969425538
 31
0.0
  0
LINE
  5
2082
330
204D
100
AcDbEntity
  8
0
 62
     0
370
    -2
100
AcDbLine
 10
1688.75870762186
 20
225.8176969425538
 30
0.0
 11
1723.092040955194
 21
225.8176969425538
 31
0.0
  0
INSERT
  5
2083
330
204D
100
AcDbEntity
  8
0
 62
     0
370
    -2
100
AcDbBlockReference
  2
_Open30
 10
1686.25870762186
 20
225.8176969425538
 30
0.0
 41
2.5
 42
2.5
 43
2.5
 50
180.0
  0
INSERT
  5
2084
330
204D
100
AcDbEntity
  8
0
 62
     0
370
    -2
100
AcDbBlockReference
  2
_Open30
 10
1725.592040955193
 20
225.8176969425538
 30
0.0
 41
2.5
 42
2.5
 43
2.5
  0
MTEXT
  5
2085
330
204D
100
AcDbEntity
  8
0
 62
     4
100
AcDbMText
 10
1705.799956615402
 20
227.9426969425538
 30
0.0
 40
3.0
 41
0.0
 71
     5
 72
     1
  1
%%C118
 73
     1
 44
1.0
1001
ACAD
1000
MTEXTBEGIN
1070
    73
1070
     1
1070
    44
1040
1.0
1070
    74
1070
     0
1000
MTEXTEND
  0
POINT
  5
2086
330
204D
100
AcDbEntity
  8
Defpoints
 62
     0
100
AcDbPoint
 10
1686.25870762186
 20
183.6745641788505
 30
0.0
  0
POINT
  5
2087
330
204D
100
AcDbEntity
  8
Defpoints
 62
     0
100
AcDbPoint
 10
1725.592040955193
 20
183.6745641788505
 30
0.0
  0
POINT
  5
2088
330
204D
100
AcDbEntity
  8
Defpoints
 62
     0
100
AcDbPoint
 10
1725.592040955193
 20
225.8176969425538
 30
0.0
  0
ENDBLK
  5
204F
330
204D
100
AcDbEntity
  8
0
100
AcDbBlockEnd
  0
BLOCK
  5
206C
330
206B
100
AcDbEntity
  8
0
100
AcDbBlockBegin
  2
*D41
 70
     1
 10
0.0
 20
0.0
 30
0.0
  3
*D41
  1

  0
LINE
  5
2089
330
206B
100
AcDbEntity
  8
0
 62
     0
370
    -2
100
AcDbLine
 10
1705.64005870824
 20
215.3411213350799
 30
0.0
 11
1670.47673946819
 21
215.3411213350799
 31
0.0
  0
LINE
  5
208A
330
206B
100
AcDbEntity
  8
0
 62
     0
370
    -2
100
AcDbLine
 10
1705.637951376536
 20
116.6746223973243
 30
0.0
 11
1670.47673946819
 21
116.6746223973243
 31
0.0
  0
LINE
  5
208B
330
206B
100
AcDbEntity
  8
0
 62
     0
370
    -2
100
AcDbLine
 10
1671.72673946819
 20
212.8411213350799
 30
0.0
 11
1671.72673946819
 21
119.1746223973243
 31
0.0
  0
INSERT
  5
208C
330
206B
100
AcDbEntity
  8
0
 62
     0
370
    -2
100
AcDbBlockReference
  2
_Open30
 10
1671.72673946819
 20
215.3411213350799
 30
0.0
 41
2.5
 42
2.5
 43
2.5
 50
90.0
  0
INSERT
  5
208D
330
206B
100
AcDbEntity
  8
0
 62
     0
370
    -2
100
AcDbBlockReference
  2
_Open30
 10
1671.72673946819
 20
116.6746223973243
 30
0.0
 41
2.5
 42
2.5
 43
2.5
 50
270.0
  0
MTEXT
  5
208E
330
206B
100
AcDbEntity
  8
0
 62
     4
100
AcDbMText
 10
1669.60173946819
 20
166.0078718662019
 30
0.0
 40
3.0
 41
0.0
 71
     5
 72
     1
  1
296
 11
0.0000000000000001
 21
1.0
 31
0.0
 73
     1
 44
1.0
1001
ACAD
1000
MTEXTBEGIN
1070
    73
1070
     1
1070
    44
1040
1.0
1070
    74
1070
     0
1000
MTEXTEND
  0
POINT
  5
208F
330
206B
100
AcDbEntity
  8
Defpoints
 62
     0
100
AcDbPoint
 10
1705.89005870824
 20
215.3411213350799
 30
0.0
  0
POINT
  5
2090
330
206B
100
AcDbEntity
  8
Defpoints
 62
     0
100
AcDbPoint
 10
1705.887951376535
 20
116.6746223973243
 30
0.0
  0
POINT
  5
2091
330
206B
100
AcDbEntity
  8
Defpoints
 62
     0
100
AcDbPoint
 10
1671.72673946819
 20
116.6746223973243
 30
0.0
  0
ENDBLK
  5
206D
330
206B
100
AcDbEntity
  8
0
100
AcDbBlockEnd
  0
ENDSEC
  0
SECTION
  2
ENTITIES
  0
LINE
  5
E03
330
1F
100
AcDbEntity
  8
0
 62
     3
100
AcDbLine
 10
1433.782508519375
 20
281.5774270855852
 30
0.0
 11
1433.782508519375
 21
4.577427085585099
 31
0.0
  0
LINE
  5
E04
330
1F
100
AcDbEntity
  8
0
 62
     3
100
AcDbLine
 10
1613.782508519375
 20
4.577427085585099
 30
0.0
 11
1613.782508519375
 21
281.5774270855852
 31
0.0
  0
LINE
  5
E05
330
1F
100
AcDbEntity
  8
0
 62
     3
100
AcDbLine
 10
1433.782508519375
 20
4.577427085585099
 30
0.0
 11
1613.782508519375
 21
4.577427085585099
 31
0.0
  0
LINE
  5
E06
330
1F
100
AcDbEntity
  8
0
 62
     3
100
AcDbLine
 10
1561.782508519375
 20
4.577427085585099
 30
0.0
 11
1561.782508519375
 21
44.57742708558511
 31
0.0
  0
LINE
  5
E07
330
1F
100
AcDbEntity
  8
0
 62
     3
100
AcDbLine
 10
1561.782508519375
 20
44.57742708558511
 30
0.0
 11
1561.782508519375
 21
50.57742708558506
 31
0.0
  0
LINE
  5
E08
330
1F
100
AcDbEntity
  8
0
 62
     3
100
AcDbLine
 10
1574.782508519374
 20
14.5774270855852
 30
0.0
 11
1574.782508519374
 21
44.57742708558511
 31
0.0
  0
LINE
  5
E09
330
1F
100
AcDbEntity
  8
0
 62
     3
100
AcDbLine
 10
1534.782508519374
 20
14.5774270855852
 30
0.0
 11
1534.782508519374
 21
28.57742708558511
 31
0.0
  0
LINE
  5
E0A
330
1F
100
AcDbEntity
  8
0
 62
     3
100
AcDbLine
 10
1544.782508519374
 20
28.57742708558511
 30
0.0
 11
1544.782508519374
 21
4.577427085585099
 31
0.0
  0
LINE
  5
E0B
330
1F
100
AcDbEntity
  8
0
 62
     3
100
AcDbLine
 10
1515.782508519375
 20
44.57742708558511
 30
0.0
 11
1515.782508519375
 21
21.57742708558503
 31
0.0
  0
LINE
  5
E0C
330
1F
100
AcDbEntity
  8
0
 62
     3
100
AcDbLine
 10
1587.782508519374
 20
21.57742708558503
 30
0.0
 11
1587.782508519374
 21
44.57742708558511
 31
0.0
  0
LINE
  5
E0D
330
1F
100
AcDbEntity
  8
0
 62
     3
100
AcDbLine
 10
1587.782508519374
 20
44.57742708558511
 30
0.0
 11
1587.782508519374
 21
50.57742708558506
 31
0.0
  0
LINE
  5
E0E
330
1F
100
AcDbEntity
  8
0
 62
     3
100
AcDbLine
 10
1613.782508519375
 20
44.57742708558511
 30
0.0
 11
1502.537073879375
 21
44.57742708558511
 31
0.0
  0
LINE
  5
E0F
330
1F
100
AcDbEntity
  8
0
 62
     3
100
AcDbLine
 10
1613.782508519375
 20
50.57742708558506
 30
0.0
 11
1561.782508519375
 21
50.57742708558506
 31
0.0
  0
LINE
  5
E10
330
1F
100
AcDbEntity
  8
0
 62
     3
100
AcDbLine
 10
1613.782508519375
 20
35.5774270855851
 30
0.0
 11
1502.537073879375
 21
35.5774270855851
 31
0.0
  0
LINE
  5
E11
330
1F
100
AcDbEntity
  8
0
 62
     3
100
AcDbLine
 10
1613.782508519375
 20
21.57742708558503
 30
0.0
 11
1502.537073879375
 21
21.57742708558503
 31
0.0
  0
LINE
  5
E12
330
1F
100
AcDbEntity
  8
0
 62
     3
100
AcDbLine
 10
1613.782508519375
 20
14.5774270855852
 30
0.0
 11
1502.479066019374
 21
14.5774270855852
 31
0.0
  0
LINE
  5
E13
330
1F
100
AcDbEntity
  8
0
 62
     3
100
AcDbLine
 10
1600.782508519375
 20
21.57742708558503
 30
0.0
 11
1600.782508519375
 21
44.57742708558511
 31
0.0
  0
LINE
  5
E14
330
1F
100
AcDbEntity
  8
0
 62
     3
100
AcDbLine
 10
1502.537073879375
 20
44.57742708558511
 30
0.0
 11
1502.537073879375
 21
4.577427085585099
 31
0.0
  0
LINE
  5
E15
330
1F
100
AcDbEntity
  8
0
 62
     3
100
AcDbLine
 10
1561.782508519375
 20
28.57742708558511
 30
0.0
 11
1502.537073879375
 21
28.57742708558511
 31
0.0
  0
LINE
  5
E16
330
1F
100
AcDbEntity
  8
0
 62
     3
100
AcDbLine
 10
1545.060833449374
 20
9.410288345585163
 30
0.0
 11
1561.782508519375
 21
9.410288345585163
 31
0.0
  0
TEXT
  5
E17
330
1F
100
AcDbEntity
  8
0
 62
     3
100
AcDbText
 10
1545.94683393269
 20
23.6505239389505
 30
0.0
 40
2.5
  1
-
  7
高2.5
100
AcDbText
  0
TEXT
  5
E18
330
1F
100
AcDbEntity
  8
0
 62
     3
100
AcDbText
 10
1516.978877214627
 20
23.875241490569
 30
0.0
 40
2.5
  1
-
  7
高2.5
100
AcDbText
  0
TEXT
  5
E19
330
1F
100
AcDbEntity
  8
0
 62
     3
100
AcDbText
 10
1517.243784969324
 20
36.88967660934301
 30
0.0
 40
4.5
  1
コーンライト50W
 41
0.9
  7
高4.5
100
AcDbText
1001
ACAD
1000
ACAD_MTEXT_DEFINED_HEIGHT_BEGIN
1070
    46
1040
0.0
1000
ACAD_MTEXT_DEFINED_HEIGHT_END
  0
TEXT
  5
E1A
330
1F
100
AcDbEntity
  8
0
 62
     3
100
AcDbText
 10
1603.848097612849
 20
41.09111918428872
 30
0.0
 40
2.0
  1
DEF
  7
高2
100
AcDbText
  0
TEXT
  5
E1B
330
1F
100
AcDbEntity
  8
0
 62
     3
100
AcDbText
 10
1589.908999259141
 20
41.0911191842885
 30
0.0
 40
2.0
  1
DESN
  7
高2
100
AcDbText
  0
TEXT
  5
E1C
330
1F
100
AcDbEntity
  8
0
 62
     3
100
AcDbText
 10
1563.65463231914
 20
41.09111918428872
 30
0.0
 40
2.0
  1
APPD
  7
高2
100
AcDbText
  0
TEXT
  5
E1D
330
1F
100
AcDbEntity
  8
0
 62
     3
100
AcDbText
 10
1576.767368419375
 20
41.09111918428872
 30
0.0
 40
2.0
  1
CHCK
  7
高2
100
AcDbText
  0
TEXT
  5
E1E
330
1F
100
AcDbEntity
  8
0
 62
     3
100
AcDbText
 10
1535.709674158527
 20
18.745825908816
 30
0.0
 40
2.0
  1
SCALE
 41
0.8
  7
高2
100
AcDbText
  0
TEXT
  5
E1F
330
1F
100
AcDbEntity
  8
0
 62
     3
100
AcDbText
 10
1504.22165258242
 20
18.745825908816
 30
0.0
 40
2.0
  1
3AD　ANGLE
 41
1.5
  7
高2
100
AcDbText
  0
TEXT
  5
E20
330
1F
100
AcDbEntity
  8
0
 62
     3
100
AcDbText
 10
1534.979079849376
 20
25.49736397777293
 30
0.0
 40
2.0
  1
REMARKS
 41
0.7
  7
高2
100
AcDbText
  0
TEXT
  5
E21
330
1F
100
AcDbEntity
  8
0
 62
     3
100
AcDbText
 10
1504.004744229374
 20
25.57742708558511
 30
0.0
 40
2.0
  1
MATERIAL
 41
0.7
  7
高2
100
AcDbText
  0
TEXT
  5
E22
330
1F
100
AcDbEntity
  8
0
 62
     3
100
AcDbText
 10
1504.581231432128
 20
32.5774270855851
 30
0.0
 40
2.0
  1
MODEL
  7
高2
100
AcDbText
  0
TEXT
  5
E23
330
1F
100
AcDbEntity
  8
0
 62
     3
100
AcDbText
 10
1504.218152313459
 20
41.28444843618411
 30
0.0
 40
2.0
  1
CONPONENTS
 41
0.5
  7
高2
100
AcDbText
  0
TEXT
  5
E24
330
1F
100
AcDbEntity
  8
0
 62
     3
100
AcDbText
 10
1517.528987234969
 20
29.66490821339697
 30
0.0
 40
4.5
  1
LC50W-E39-50K
 41
0.7
  7
高4.5
100
AcDbText
  0
TEXT
  5
E25
330
1F
100
AcDbEntity
  8
0
 62
     3
100
AcDbText
 10
1563.605798582269
 20
5.949475959037485
 30
0.0
 40
6.299999999999998
  1
LC50W-E39-50K
 41
0.6
  7
高6.3
100
AcDbText
1001
ACAD
1000
ACAD_MTEXT_DEFINED_HEIGHT_BEGIN
1070
    46
1040
0.0
1000
ACAD_MTEXT_DEFINED_HEIGHT_END
  0
TEXT
  5
E26
330
1F
100
AcDbEntity
  8
0
 62
     3
100
AcDbText
 10
1578.346018269704
 20
15.6783162438183
 30
0.0
 40
3.2
  1
2020.06.02
  7
高3.2
100
AcDbText
1001
ACAD
1000
ACAD_MTEXT_DEFINED_HEIGHT_BEGIN
1070
    46
1040
0.0
1000
ACAD_MTEXT_DEFINED_HEIGHT_END
  0
TEXT
  5
E27
330
1F
100
AcDbEntity
  8
0
 62
     3
100
AcDbText
 10
1548.57010641402
 20
15.67834408815315
 30
0.0
 40
3.2
  1
1/3
  7
高3.2
100
AcDbText
  0
TEXT
  5
E28
330
1F
100
AcDbEntity
  8
0
 62
     3
100
AcDbText
 10
1545.647435389374
 20
5.394305258721011
 30
0.0
 40
3.2
  1
ZK-A4X
 41
0.8
  7
高3.2
100
AcDbText
  0
TEXT
  5
E29
330
1F
100
AcDbEntity
  8
0
 62
     3
100
AcDbText
 10
1503.367774919375
 20
11.10204750777291
 30
0.0
 40
2.0
  1
NICHIDO IND.CO.LTD
 41
1.3
  7
高2
100
AcDbText
  0
TEXT
  5
E2A
330
1F
100
AcDbEntity
  8
0
 62
     3
100
AcDbText
 10
1504.549298184332
 20
36.71795529347003
 30
0.0
 40
3.2
  1
品 名
  7
高3.2
100
AcDbText
1001
ACAD
1000
ACAD_MTEXT_DEFINED_HEIGHT_BEGIN
1070
    46
1040
0.0
1000
ACAD_MTEXT_DEFINED_HEIGHT_END
  0
TEXT
  5
E2B
330
1F
100
AcDbEntity
  8
0
 62
     3
100
AcDbText
 10
1504.549298184332
 20
29.0774270855851
 30
0.0
 40
3.2
  1
型 式
  7
高3.2
100
AcDbText
1001
ACAD
1000
ACAD_MTEXT_DEFINED_HEIGHT_BEGIN
1070
    46
1040
3.064735913775952
1000
ACAD_MTEXT_DEFINED_HEIGHT_END
  0
TEXT
  5
E2C
330
1F
100
AcDbEntity
  8
0
 62
     3
100
AcDbText
 10
1504.549298184332
 20
22.07742708558511
 30
0.0
 40
3.2
  1
材 質
  7
高3.2
100
AcDbText
1001
ACAD
1000
ACAD_MTEXT_DEFINED_HEIGHT_BEGIN
1070
    46
1040
0.0
1000
ACAD_MTEXT_DEFINED_HEIGHT_END
  0
TEXT
  5
E2D
330
1F
100
AcDbEntity
  8
0
 62
     3
100
AcDbText
 10
1504.244263234332
 20
15.04486707783127
 30
0.0
 40
3.2
  1
第 三 角 法
  7
高3.2
100
AcDbText
1001
ACAD
1000
ACAD_MTEXT_DEFINED_HEIGHT_BEGIN
1070
    46
1040
0.0
1000
ACAD_MTEXT_DEFINED_HEIGHT_END
  0
TEXT
  5
E2E
330
1F
100
AcDbEntity
  8
0
 62
     3
100
AcDbText
 10
1502.65079584186
 20
5.717955293470017
 30
0.0
 40
3.2
  1
日動工業株式会社
 41
1.199999999999999
  7
高3.2
100
AcDbText
1001
ACAD
1000
ACAD_MTEXT_DEFINED_HEIGHT_BEGIN
1070
    46
1040
0.0
1000
ACAD_MTEXT_DEFINED_HEIGHT_END
  0
TEXT
  5
E2F
330
1F
100
AcDbEntity
  8
0
 62
     3
100
AcDbText
 10
1536.286420041339
 20
21.96200561875264
 30
0.0
 40
3.2
  1
備考
  7
高3.2
100
AcDbText
1001
ACAD
1000
ACAD_MTEXT_DEFINED_HEIGHT_BEGIN
1070
    46
1040
0.0
1000
ACAD_MTEXT_DEFINED_HEIGHT_END
  0
TEXT
  5
E30
330
1F
100
AcDbEntity
  8
0
 62
     3
100
AcDbText
 10
1545.935477488374
 20
10.72365711115549
 30
0.0
 40
2.5
  1
出図コード
  7
高2.5
100
AcDbText
1001
ACAD
1000
ACAD_MTEXT_DEFINED_HEIGHT_BEGIN
1070
    46
1040
0.0
1000
ACAD_MTEXT_DEFINED_HEIGHT_END
  0
TEXT
  5
E31
330
1F
100
AcDbEntity
  8
0
 62
     3
100
AcDbText
 10
1536.127653923252
 20
15.03066199599817
 30
0.0
 40
3.2
  1
尺度
  7
高3.2
100
AcDbText
1001
ACAD
1000
ACAD_MTEXT_DEFINED_HEIGHT_BEGIN
1070
    46
1040
0.0
1000
ACAD_MTEXT_DEFINED_HEIGHT_END
  0
TEXT
  5
E32
330
1F
100
AcDbEntity
  8
0
 62
     3
100
AcDbText
 10
1563.27391540503
 20
16.16214044411555
 30
0.0
 40
3.2
  1
作成日
  7
高3.2
100
AcDbText
1001
ACAD
1000
ACAD_MTEXT_DEFINED_HEIGHT_BEGIN
1070
    46
1040
0.0
1000
ACAD_MTEXT_DEFINED_HEIGHT_END
  0
TEXT
  5
E33
330
1F
100
AcDbEntity
  8
0
 62
     3
100
AcDbText
 10
1563.168389411894
 20
36.71795529347003
 30
0.0
 40
3.2
  1
承 認
  7
高3.2
100
AcDbText
1001
ACAD
1000
ACAD_MTEXT_DEFINED_HEIGHT_BEGIN
1070
    46
1040
0.0
1000
ACAD_MTEXT_DEFINED_HEIGHT_END
  0
TEXT
  5
E34
330
1F
100
AcDbEntity
  8
0
 62
     3
100
AcDbText
 10
1576.168389411894
 20
36.71795529347003
 30
0.0
 40
3.2
  1
検 図
  7
高3.2
100
AcDbText
1001
ACAD
1000
ACAD_MTEXT_DEFINED_HEIGHT_BEGIN
1070
    46
1040
0.0
1000
ACAD_MTEXT_DEFINED_HEIGHT_END
  0
TEXT
  5
E35
330
1F
100
AcDbEntity
  8
0
 62
     3
100
AcDbText
 10
1589.168389411894
 20
36.71795529347003
 30
0.0
 40
3.2
  1
設 計
  7
高3.2
100
AcDbText
1001
ACAD
1000
ACAD_MTEXT_DEFINED_HEIGHT_BEGIN
1070
    46
1040
0.0
1000
ACAD_MTEXT_DEFINED_HEIGHT_END
  0
TEXT
  5
E36
330
1F
100
AcDbEntity
  8
0
 62
     3
100
AcDbText
 10
1602.469025931895
 20
36.71795529347003
 30
0.0
 40
3.2
  1
製 図
  7
高3.2
100
AcDbText
1001
ACAD
1000
ACAD_MTEXT_DEFINED_HEIGHT_BEGIN
1070
    46
1040
0.0
1000
ACAD_MTEXT_DEFINED_HEIGHT_END
  0
TEXT
  5
E37
330
1F
100
AcDbEntity
  8
0
 62
     3
100
AcDbText
 10
1591.649800695501
 20
45.27065582953939
 30
0.0
 40
4.5
  1
12843
  7
高4.5
100
AcDbText
1001
ACAD
1000
ACAD_MTEXT_DEFINED_HEIGHT_BEGIN
1070
    46
1040
0.0
1000
ACAD_MTEXT_DEFINED_HEIGHT_END
  0
TEXT
  5
E38
330
1F
100
AcDbEntity
  8
0
 62
     3
100
AcDbText
 10
1565.781227169265
 20
45.27065582953939
 30
0.0
 40
4.5
  1
コード
  7
高4.5
100
AcDbText
1001
ACAD
1000
ACAD_MTEXT_DEFINED_HEIGHT_BEGIN
1070
    46
1040
0.0
1000
ACAD_MTEXT_DEFINED_HEIGHT_END
  0
TEXT
  5
E39
330
1F
100
AcDbEntity
  8
0
 62
     7
100
AcDbText
 10
1606.104893541749
 20
25.57623609314624
 30
0.0
 40
3.2
  1
I
  7
高3.2
100
AcDbText
  0
LINE
  5
E3A
330
1F
100
AcDbEntity
  8
0
 62
     3
100
AcDbLine
 10
1422.270435519374
 20
143.0774270855851
 30
0.0
 11
1421.782508519374
 21
143.0774270855851
 31
0.0
  0
LINE
  5
E3B
330
1F
100
AcDbEntity
  8
0
 62
     3
100
AcDbLine
 10
1470.866860539374
 20
283.3648711855852
 30
0.0
 11
1471.302608449374
 21
283.1374030455852
 31
0.0
  0
LINE
  5
E3C
330
1F
100
AcDbEntity
  8
0
 62
     3
100
AcDbLine
 10
1470.866860539374
 20
279.6342407055852
 30
0.0
 11
1471.302608449374
 21
279.8617088455852
 31
0.0
  0
LINE
  5
E3D
330
1F
100
AcDbEntity
  8
0
 62
     3
100
AcDbLine
 10
1471.302608449374
 20
283.1374030455852
 30
0.0
 11
1471.302608449374
 21
279.8617088455852
 31
0.0
  0
LINE
  5
E3E
330
1F
100
AcDbEntity
  8
0
 62
     3
100
AcDbLine
 10
1472.406125869374
 20
279.6342407055852
 30
0.0
 11
1471.970377959374
 21
279.8617088455852
 31
0.0
  0
LINE
  5
E3F
330
1F
100
AcDbEntity
  8
0
 62
     3
100
AcDbLine
 10
1471.970377959374
 20
281.8585676555851
 30
0.0
 11
1471.970377959374
 21
279.8617088455852
 31
0.0
  0
LINE
  5
E40
330
1F
100
AcDbEntity
  8
0
 62
     3
100
AcDbLine
 10
1474.947988649374
 20
283.3648711855852
 30
0.0
 11
1474.512240739374
 21
283.1374030455852
 31
0.0
  0
LINE
  5
E41
330
1F
100
AcDbEntity
  8
0
 62
     3
100
AcDbLine
 10
1473.408723319374
 20
283.3648711855852
 30
0.0
 11
1473.844471229374
 21
283.1374030455852
 31
0.0
  0
LINE
  5
E42
330
1F
100
AcDbEntity
  8
0
 62
     3
100
AcDbLine
 10
1473.844471229374
 20
283.1374030455852
 30
0.0
 11
1473.844471229374
 21
281.6950659855852
 31
0.0
  0
LINE
  5
E43
330
1F
100
AcDbEntity
  8
0
 62
     3
100
AcDbLine
 10
1474.512240739374
 20
283.1374030455852
 30
0.0
 11
1474.512240739374
 21
279.4226795655851
 31
0.0
  0
LINE
  5
E44
330
1F
100
AcDbEntity
  8
0
 62
     3
100
AcDbLine
 10
1475.163285849374
 20
283.3648685555853
 30
0.0
 11
1475.599032189374
 21
283.1373974155852
 31
0.0
  0
LINE
  5
E45
330
1F
100
AcDbEntity
  8
0
 62
     3
100
AcDbLine
 10
1475.163207879374
 20
279.6342906855853
 30
0.0
 11
1475.598963729374
 21
279.8617436055852
 31
0.0
  0
LINE
  5
E46
330
1F
100
AcDbEntity
  8
0
 62
     3
100
AcDbLine
 10
1475.599032189374
 20
283.1373974155852
 30
0.0
 11
1475.599032189374
 21
279.8617436055852
 31
0.0
  0
LINE
  5
E47
330
1F
100
AcDbEntity
  8
0
 62
     3
100
AcDbLine
 10
1477.092822249374
 20
283.3648448855852
 30
0.0
 11
1476.657071159374
 21
283.1373828555852
 31
0.0
  0
LINE
  5
E48
330
1F
100
AcDbEntity
  8
0
 62
     3
100
AcDbLine
 10
1476.657071159374
 20
283.1373828555852
 30
0.0
 11
1476.657071159374
 21
279.861729035585
 31
0.0
  0
LINE
  5
E49
330
1F
100
AcDbEntity
  8
0
 62
     3
100
AcDbLine
 10
1477.092822249374
 20
279.6342670055852
 30
0.0
 11
1476.657071159374
 21
279.861729035585
 31
0.0
  0
LINE
  5
E4A
330
1F
100
AcDbEntity
  8
0
 62
     3
100
AcDbLine
 10
1480.783075689374
 20
283.3648038855852
 30
0.0
 11
1481.218822809374
 21
283.1373342455852
 31
0.0
  0
LINE
  5
E4B
330
1F
100
AcDbEntity
  8
0
 62
     3
100
AcDbLine
 10
1481.218822809374
 20
283.1373342455852
 30
0.0
 11
1481.218765639374
 21
279.8616804355852
 31
0.0
  0
LINE
  5
E4C
330
1F
100
AcDbEntity
  8
0
 62
     3
100
AcDbLine
 10
1480.783010579374
 20
279.6342260055852
 30
0.0
 11
1481.218765639374
 21
279.8616804355852
 31
0.0
  0
LINE
  5
E4D
330
1F
100
AcDbEntity
  8
0
 62
     3
100
AcDbLine
 10
1482.735336649374
 20
283.3648038855852
 30
0.0
 11
1482.299589529374
 21
283.1373342455852
 31
0.0
  0
LINE
  5
E4E
330
1F
100
AcDbEntity
  8
0
 62
     3
100
AcDbLine
 10
1482.735401759375
 20
279.6342260055852
 30
0.0
 11
1482.299646699374
 21
279.8616804355852
 31
0.0
  0
LINE
  5
E4F
330
1F
100
AcDbEntity
  8
0
 62
     3
100
AcDbLine
 10
1482.939064509374
 20
283.3648038855852
 30
0.0
 11
1483.374811639374
 21
283.1373342455852
 31
0.0
  0
LINE
  5
E50
330
1F
100
AcDbEntity
  8
0
 62
     3
100
AcDbLine
 10
1482.938999399374
 20
279.6342260055852
 30
0.0
 11
1483.374754459374
 21
279.8616804355852
 31
0.0
  0
LINE
  5
E51
330
1F
100
AcDbEntity
  8
0
 62
     3
100
AcDbLine
 10
1484.891325479374
 20
283.3648038855852
 30
0.0
 11
1484.455578359374
 21
283.1373342455852
 31
0.0
  0
LINE
  5
E52
330
1F
100
AcDbEntity
  8
0
 62
     3
100
AcDbLine
 10
1484.455578359374
 20
283.1373342455852
 30
0.0
 11
1484.455635529374
 21
279.8616804355852
 31
0.0
  0
LINE
  5
E53
330
1F
100
AcDbEntity
  8
0
 62
     3
100
AcDbLine
 10
1484.891390589374
 20
279.6342260055852
 30
0.0
 11
1484.455635529374
 21
279.8616804355852
 31
0.0
  0
LINE
  5
E54
330
1F
100
AcDbEntity
  8
0
 62
     3
100
AcDbLine
 10
1483.374786729374
 20
281.7102011255851
 30
0.0
 11
1482.299614439374
 21
281.7102011255851
 31
0.0
  0
LINE
  5
E55
330
1F
100
AcDbEntity
  8
0
 62
     3
100
AcDbLine
 10
1483.374779369374
 20
281.2889107655851
 30
0.0
 11
1482.299621789374
 21
281.2889107655851
 31
0.0
  0
LINE
  5
E56
330
1F
100
AcDbEntity
  8
0
 62
     3
100
AcDbLine
 10
1483.374811639374
 20
283.1373342455852
 30
0.0
 11
1483.374786729374
 21
281.7102011255851
 31
0.0
  0
LINE
  5
E57
330
1F
100
AcDbEntity
  8
0
 62
     3
100
AcDbLine
 10
1483.374779369374
 20
281.2889107655851
 30
0.0
 11
1483.374754459374
 21
279.8616804355852
 31
0.0
  0
LINE
  5
E58
330
1F
100
AcDbEntity
  8
0
 62
     3
100
AcDbLine
 10
1482.299589529374
 20
283.1373342455852
 30
0.0
 11
1482.299614439374
 21
281.7102011255851
 31
0.0
  0
LINE
  5
E59
330
1F
100
AcDbEntity
  8
0
 62
     3
100
AcDbLine
 10
1482.299621789374
 20
281.2889107655851
 30
0.0
 11
1482.299646699374
 21
279.8616804355852
 31
0.0
  0
LINE
  5
E5A
330
1F
100
AcDbEntity
  8
0
 62
     3
100
AcDbLine
 10
1485.098284599374
 20
283.3648038855852
 30
0.0
 11
1485.534031719374
 21
283.1373342455852
 31
0.0
  0
LINE
  5
E5B
330
1F
100
AcDbEntity
  8
0
 62
     3
100
AcDbLine
 10
1485.534031719374
 20
283.1373342455852
 30
0.0
 11
1485.533974549374
 21
279.8616804355852
 31
0.0
  0
LINE
  5
E5C
330
1F
100
AcDbEntity
  8
0
 62
     3
100
AcDbLine
 10
1485.098219489374
 20
279.6342260055852
 30
0.0
 11
1485.533974549374
 21
279.8616804355852
 31
0.0
  0
LINE
  5
E5D
330
1F
100
AcDbEntity
  8
0
 62
     3
100
AcDbLine
 10
1487.027794869374
 20
283.3648038855852
 30
0.0
 11
1486.592047749374
 21
283.1373342455852
 31
0.0
  0
LINE
  5
E5E
330
1F
100
AcDbEntity
  8
0
 62
     3
100
AcDbLine
 10
1486.592047749374
 20
283.1373342455852
 30
0.0
 11
1486.592104919374
 21
279.8616804355852
 31
0.0
  0
LINE
  5
E5F
330
1F
100
AcDbEntity
  8
0
 62
     3
100
AcDbLine
 10
1487.027859979374
 20
279.6342260055852
 30
0.0
 11
1486.592104919374
 21
279.8616804355852
 31
0.0
  0
LINE
  5
E60
330
1F
100
AcDbEntity
  8
0
 62
     3
100
AcDbLine
 10
1487.242154439374
 20
283.3648038855852
 30
0.0
 11
1487.677901559374
 21
283.1373342455852
 31
0.0
  0
LINE
  5
E61
330
1F
100
AcDbEntity
  8
0
 62
     3
100
AcDbLine
 10
1487.677901559374
 20
283.1373342455852
 30
0.0
 11
1487.677844389374
 21
279.8616804355852
 31
0.0
  0
LINE
  5
E62
330
1F
100
AcDbEntity
  8
0
 62
     3
100
AcDbLine
 10
1487.242089329374
 20
279.6342260055852
 30
0.0
 11
1487.677844389374
 21
279.8616804355852
 31
0.0
  0
ARC
  5
E63
330
1F
100
AcDbEntity
  8
0
 62
     3
100
AcDbCircle
 10
1479.391164419374
 20
281.5089457055852
 30
0.0
 40
2.086285909999999
100
AcDbArc
 50
97.70152350999723
 51
270.0
  0
ARC
  5
E64
330
1F
100
AcDbEntity
  8
0
 62
     3
100
AcDbCircle
 10
1492.271765259374
 20
281.4879890755852
 30
0.0
 40
2.108943379999999
100
AcDbArc
 50
0.3142502700008875
 51
69.00558244998916
  0
ARC
  5
E65
330
1F
100
AcDbEntity
  8
0
 62
     3
100
AcDbCircle
 10
1492.732440579374
 20
281.4879890755852
 30
0.0
 40
2.108943379999999
100
AcDbArc
 50
110.9944175499969
 51
148.1166110200044
  0
ARC
  5
E66
330
1F
100
AcDbEntity
  8
0
 62
     3
100
AcDbCircle
 10
1492.271765259374
 20
281.5111228155852
 30
0.0
 40
2.108943379999999
100
AcDbArc
 50
290.9944175499969
 51
359.6857497299991
  0
ARC
  5
E67
330
1F
100
AcDbEntity
  8
0
 62
     3
100
AcDbCircle
 10
1492.732440579374
 20
281.5111228155852
 30
0.0
 40
2.108943379999999
100
AcDbArc
 50
211.8833889799956
 51
249.0055824499892
  0
ARC
  5
E68
330
1F
100
AcDbEntity
  8
0
 62
     3
100
AcDbCircle
 10
1492.502102919374
 20
282.362361335585
 30
0.0
 40
1.214070989999997
100
AcDbArc
 50
64.36517189999968
 51
115.6348281000003
  0
ARC
  5
E69
330
1F
100
AcDbEntity
  8
0
 62
     3
100
AcDbCircle
 10
1492.502102919374
 20
280.636750555585
 30
0.0
 40
1.214070989999997
100
AcDbArc
 50
244.3651718999997
 51
295.6348281000003
  0
ARC
  5
E6A
330
1F
100
AcDbEntity
  8
0
 62
     3
100
AcDbCircle
 10
1492.502102919374
 20
282.3854230155852
 30
0.0
 40
0.59585563
100
AcDbArc
 50
19.48660554000665
 51
160.5133944599933
  0
ARC
  5
E6B
330
1F
100
AcDbEntity
  8
0
 62
     3
100
AcDbCircle
 10
1492.502102919374
 20
280.636750555585
 30
0.0
 40
1.214070989999997
100
AcDbArc
 50
244.3651718999997
 51
295.6348281000003
  0
ARC
  5
E6C
330
1F
100
AcDbEntity
  8
0
 62
     3
100
AcDbCircle
 10
1492.502102919374
 20
280.6136888755852
 30
0.0
 40
0.59585563
100
AcDbArc
 50
199.4866055400066
 51
340.5133944599933
  0
ARC
  5
E6D
330
1F
100
AcDbEntity
  8
0
 62
     3
100
AcDbCircle
 10
1487.759630419374
 20
259.2714961055853
 30
0.0
 40
26.04
100
AcDbArc
 50
69.50571480000843
 51
81.68998806999736
  0
ARC
  5
E6E
330
1F
100
AcDbEntity
  8
0
 62
     3
100
AcDbCircle
 10
1487.759630419374
 20
303.7276157855852
 30
0.0
 40
26.04
100
AcDbArc
 50
278.3100119300026
 51
290.4942851999916
  0
ARC
  5
E6F
330
1F
100
AcDbEntity
  8
0
 62
     3
100
AcDbCircle
 10
1496.067834549374
 20
281.4995559455852
 30
0.0
 40
2.31
100
AcDbArc
 50
290.4942851999916
 51
69.50571480000843
  0
ARC
  5
E70
330
1F
100
AcDbEntity
  8
0
 62
     3
100
AcDbCircle
 10
1468.767834549374
 20
281.4995559455852
 30
0.0
 40
2.31
100
AcDbArc
 50
110.4942851999915
 51
249.5057147999945
  0
ARC
  5
E71
330
1F
100
AcDbEntity
  8
0
 62
     3
100
AcDbCircle
 10
1477.076038669374
 20
259.2714961055853
 30
0.0
 40
26.04
100
AcDbArc
 50
98.31001192998948
 51
110.4942851999915
  0
ARC
  5
E72
330
1F
100
AcDbEntity
  8
0
 62
     3
100
AcDbCircle
 10
1477.076038669374
 20
303.7276157855852
 30
0.0
 40
26.04
100
AcDbArc
 50
249.5057147999945
 51
261.6899880699973
  0
ARC
  5
E73
330
1F
100
AcDbEntity
  8
0
 62
     3
100
AcDbCircle
 10
1482.417834549374
 20
222.6995559455851
 30
0.0
 40
62.99999987
100
AcDbArc
 50
81.68998806999736
 51
98.31001192998948
  0
ARC
  5
E74
330
1F
100
AcDbEntity
  8
0
 62
     3
100
AcDbCircle
 10
1482.417834549374
 20
340.2995559455852
 30
0.0
 40
62.99999987
100
AcDbArc
 50
261.6899880699973
 51
278.3100119300026
  0
ARC
  5
E75
330
1F
100
AcDbEntity
  8
0
 62
     3
100
AcDbCircle
 10
1482.417834549374
 20
222.6995559455851
 30
0.0
 40
62.36999987
100
AcDbArc
 50
81.68998806999736
 51
98.31001192998948
  0
ARC
  5
E76
330
1F
100
AcDbEntity
  8
0
 62
     3
100
AcDbCircle
 10
1482.417834549374
 20
340.2995559455852
 30
0.0
 40
62.36999987
100
AcDbArc
 50
261.6899880699973
 51
278.3100119300026
  0
ARC
  5
E77
330
1F
100
AcDbEntity
  8
0
 62
     3
100
AcDbCircle
 10
1487.759630419374
 20
303.7276157855852
 30
0.0
 40
25.41
100
AcDbArc
 50
278.3100119300026
 51
290.4942851999916
  0
ARC
  5
E78
330
1F
100
AcDbEntity
  8
0
 62
     3
100
AcDbCircle
 10
1487.759630419374
 20
259.2714961055853
 30
0.0
 40
25.41
100
AcDbArc
 50
69.50571480000843
 51
81.68998806999736
  0
ARC
  5
E79
330
1F
100
AcDbEntity
  8
0
 62
     3
100
AcDbCircle
 10
1496.067834549374
 20
281.4995559455852
 30
0.0
 40
1.679999999999999
100
AcDbArc
 50
290.4942851999916
 51
69.50571480000843
  0
ARC
  5
E7A
330
1F
100
AcDbEntity
  8
0
 62
     3
100
AcDbCircle
 10
1468.767834549374
 20
281.4995559455852
 30
0.0
 40
1.679999999999999
100
AcDbArc
 50
110.4942851999915
 51
249.5057147999945
  0
ARC
  5
E7B
330
1F
100
AcDbEntity
  8
0
 62
     3
100
AcDbCircle
 10
1477.076038669374
 20
259.2714961055853
 30
0.0
 40
25.41
100
AcDbArc
 50
98.31001192998948
 51
110.4942851999915
  0
ARC
  5
E7C
330
1F
100
AcDbEntity
  8
0
 62
     3
100
AcDbCircle
 10
1477.076038669374
 20
303.7276157855852
 30
0.0
 40
25.41
100
AcDbArc
 50
249.5057147999945
 51
261.6899880699973
  0
LINE
  5
E7D
330
1F
100
AcDbEntity
  8
0
 62
     3
100
AcDbLine
 10
1487.027795649374
 20
279.4226795655851
 30
0.0
 11
1485.098283819374
 21
279.4226795655851
 31
0.0
  0
LINE
  5
E7E
330
1F
100
AcDbEntity
  8
0
 62
     3
100
AcDbLine
 10
1487.027795649374
 20
279.6342407055852
 30
0.0
 11
1487.027795649374
 21
279.4226795655851
 31
0.0
  0
LINE
  5
E7F
330
1F
100
AcDbEntity
  8
0
 62
     3
100
AcDbLine
 10
1484.891326259374
 20
283.5763336055851
 30
0.0
 11
1482.939063729374
 21
283.5763336055851
 31
0.0
  0
LINE
  5
E80
330
1F
100
AcDbEntity
  8
0
 62
     3
100
AcDbLine
 10
1484.891326259374
 20
283.5763336055851
 30
0.0
 11
1484.891326259374
 21
283.3648711855852
 31
0.0
  0
LINE
  5
E81
330
1F
100
AcDbEntity
  8
0
 62
     3
100
AcDbLine
 10
1484.891326259374
 20
279.6342407055852
 30
0.0
 11
1484.891326259374
 21
279.4225808555852
 31
0.0
  0
LINE
  5
E82
330
1F
100
AcDbEntity
  8
0
 62
     3
100
AcDbLine
 10
1484.891326259374
 20
279.4225808555852
 30
0.0
 11
1482.939063729374
 21
279.4225808555852
 31
0.0
  0
LINE
  5
E83
330
1F
100
AcDbEntity
  8
0
 62
     3
100
AcDbLine
 10
1487.027795649374
 20
283.5764323255852
 30
0.0
 11
1487.027795649374
 21
283.3648711855852
 31
0.0
  0
LINE
  5
E84
330
1F
100
AcDbEntity
  8
0
 62
     3
100
AcDbLine
 10
1487.027795649374
 20
283.5764323255852
 30
0.0
 11
1485.098283819374
 21
283.5764323255852
 31
0.0
  0
LINE
  5
E85
330
1F
100
AcDbEntity
  8
0
 62
     3
100
AcDbLine
 10
1485.098283819374
 20
283.5764323255852
 30
0.0
 11
1485.098283819374
 21
283.3648711855852
 31
0.0
  0
LINE
  5
E86
330
1F
100
AcDbEntity
  8
0
 62
     3
100
AcDbLine
 10
1487.242153649374
 20
279.6342407055852
 30
0.0
 11
1487.242153649374
 21
279.4226795655851
 31
0.0
  0
LINE
  5
E87
330
1F
100
AcDbEntity
  8
0
 62
     3
100
AcDbLine
 10
1489.226454209374
 20
279.4226795655851
 30
0.0
 11
1487.242153649374
 21
279.4226795655851
 31
0.0
  0
LINE
  5
E88
330
1F
100
AcDbEntity
  8
0
 62
     3
100
AcDbLine
 10
1488.735917579374
 20
282.9086628055851
 30
0.0
 11
1488.735917579374
 21
280.090449085585
 31
0.0
  0
LINE
  5
E89
330
1F
100
AcDbEntity
  8
0
 62
     3
100
AcDbLine
 10
1488.735917579374
 20
280.090449085585
 30
0.0
 11
1488.925966549374
 21
280.090449085585
 31
0.0
  0
ARC
  5
E8A
330
1F
100
AcDbEntity
  8
0
 62
     3
100
AcDbCircle
 10
1487.954180809374
 20
281.4995559455852
 30
0.0
 40
1.71170957
100
AcDbArc
 50
304.5919552700025
 51
55.40804472999752
  0
LINE
  5
E8B
330
1F
100
AcDbEntity
  8
0
 62
     3
100
AcDbLine
 10
1489.226454209374
 20
283.5764323255852
 30
0.0
 11
1487.242153649374
 21
283.5764323255852
 31
0.0
  0
LINE
  5
E8C
330
1F
100
AcDbEntity
  8
0
 62
     3
100
AcDbLine
 10
1487.242153649374
 20
283.5764323255852
 30
0.0
 11
1487.242153649374
 21
283.3648711855852
 31
0.0
  0
LINE
  5
E8D
330
1F
100
AcDbEntity
  8
0
 62
     3
100
AcDbLine
 10
1485.098283819374
 20
279.6342407055852
 30
0.0
 11
1485.098283819374
 21
279.4226795655851
 31
0.0
  0
LINE
  5
E8E
330
1F
100
AcDbEntity
  8
0
 62
     3
100
AcDbLine
 10
1488.735917579374
 20
282.9086628055851
 30
0.0
 11
1488.925966549374
 21
282.9086628055851
 31
0.0
  0
LINE
  5
E8F
330
1F
100
AcDbEntity
  8
0
 62
     3
100
AcDbLine
 10
1477.092757919374
 20
279.6342407055852
 30
0.0
 11
1477.092754229374
 21
279.4226597955852
 31
0.0
  0
LINE
  5
E90
330
1F
100
AcDbEntity
  8
0
 62
     3
100
AcDbLine
 10
1475.163242389374
 20
279.4226993355851
 30
0.0
 11
1477.092754229374
 21
279.4226656655851
 31
0.0
  0
LINE
  5
E91
330
1F
100
AcDbEntity
  8
0
 62
     3
100
AcDbLine
 10
1470.866860539374
 20
279.4226795655851
 30
0.0
 11
1472.406125869374
 21
279.4226795655851
 31
0.0
  0
ARC
  5
E92
330
1F
100
AcDbEntity
  8
0
 62
     3
100
AcDbCircle
 10
1465.884917859374
 20
281.5484625655852
 30
0.0
 40
14.71356563
100
AcDbArc
 50
353.8660061899943
 51
357.6940342600001
  0
LINE
  5
E93
330
1F
100
AcDbEntity
  8
0
 62
     3
100
AcDbLine
 10
1479.601497719374
 20
280.9600949155852
 30
0.0
 11
1480.586568609374
 21
280.9564500355853
 31
0.0
  0
LINE
  5
E95
330
1F
100
AcDbEntity
  8
0
 62
     3
100
AcDbLine
 10
1479.605476139374
 20
282.0353096555852
 30
0.0
 11
1480.590547019374
 21
282.0316647855852
 31
0.0
  0
ARC
  5
E96
330
1F
100
AcDbEntity
  8
0
 62
     3
100
AcDbCircle
 10
1465.884917859374
 20
281.5484625655852
 30
0.0
 40
14.71356563
100
AcDbArc
 50
1.88196573999784
 51
5.709993809993105
  0
LINE
  5
E97
330
1F
100
AcDbEntity
  8
0
 62
     3
100
AcDbLine
 10
1477.092826719374
 20
283.576412555585
 30
0.0
 11
1477.092823029374
 21
283.3648711855852
 31
0.0
  0
LINE
  5
E98
330
1F
100
AcDbEntity
  8
0
 62
     3
100
AcDbLine
 10
1475.163314889374
 20
283.5764520955852
 30
0.0
 11
1477.092826719374
 21
283.5764184155852
 31
0.0
  0
LINE
  5
E99
330
1F
100
AcDbEntity
  8
0
 62
     3
100
AcDbLine
 10
1475.163246079374
 20
279.6342407055852
 30
0.0
 11
1475.163242389374
 21
279.4226993355851
 31
0.0
  0
LINE
  5
E9A
330
1F
100
AcDbEntity
  8
0
 62
     3
100
AcDbLine
 10
1475.163314889374
 20
283.5764520955852
 30
0.0
 11
1475.163311199374
 21
283.3648711855852
 31
0.0
  0
LINE
  5
E9B
330
1F
100
AcDbEntity
  8
0
 62
     3
100
AcDbLine
 10
1472.406125869374
 20
279.6342407055852
 30
0.0
 11
1472.406125869374
 21
279.4226795655851
 31
0.0
  0
LINE
  5
E9C
330
1F
100
AcDbEntity
  8
0
 62
     3
100
AcDbLine
 10
1471.970377959374
 20
281.8585676555851
 30
0.0
 11
1473.492808019374
 21
279.4226795655851
 31
0.0
  0
LINE
  5
E9D
330
1F
100
AcDbEntity
  8
0
 62
     3
100
AcDbLine
 10
1473.492808019374
 20
279.4226795655851
 30
0.0
 11
1474.512240739374
 21
279.4226795655851
 31
0.0
  0
LINE
  5
E9E
330
1F
100
AcDbEntity
  8
0
 62
     3
100
AcDbLine
 10
1474.947988649374
 20
283.5764323255852
 30
0.0
 11
1474.947988649374
 21
283.3648711855852
 31
0.0
  0
LINE
  5
E9F
330
1F
100
AcDbEntity
  8
0
 62
     3
100
AcDbLine
 10
1473.408723319374
 20
283.5764323255852
 30
0.0
 11
1474.947988649374
 21
283.5764323255852
 31
0.0
  0
LINE
  5
EA0
330
1F
100
AcDbEntity
  8
0
 62
     3
100
AcDbLine
 10
1473.408723319374
 20
283.5764323255852
 30
0.0
 11
1473.408723319374
 21
283.3648711855852
 31
0.0
  0
LINE
  5
EA1
330
1F
100
AcDbEntity
  8
0
 62
     3
100
AcDbLine
 10
1473.844471229374
 20
281.6950659855852
 30
0.0
 11
1472.609824559374
 21
283.5764323255852
 31
0.0
  0
LINE
  5
EA2
330
1F
100
AcDbEntity
  8
0
 62
     3
100
AcDbLine
 10
1470.866860539374
 20
283.5764323255852
 30
0.0
 11
1472.609824559374
 21
283.5764323255852
 31
0.0
  0
LINE
  5
EA3
330
1F
100
AcDbEntity
  8
0
 62
     3
100
AcDbLine
 10
1480.783074899374
 20
283.5763336055851
 30
0.0
 11
1482.735337439374
 21
283.5763336055851
 31
0.0
  0
LINE
  5
EA4
330
1F
100
AcDbEntity
  8
0
 62
     3
100
AcDbLine
 10
1480.783074899374
 20
283.3648711855852
 30
0.0
 11
1480.783074899374
 21
283.5763336055851
 31
0.0
  0
LINE
  5
EA5
330
1F
100
AcDbEntity
  8
0
 62
     3
100
AcDbLine
 10
1480.783074899374
 20
279.4225808555852
 30
0.0
 11
1480.783074899374
 21
279.6342407055852
 31
0.0
  0
LINE
  5
EA6
330
1F
100
AcDbEntity
  8
0
 62
     3
100
AcDbLine
 10
1480.783074899374
 20
279.4225808555852
 30
0.0
 11
1482.735337439374
 21
279.4225808555852
 31
0.0
  0
LINE
  5
EA7
330
1F
100
AcDbEntity
  8
0
 62
     3
100
AcDbLine
 10
1482.939063729374
 20
279.6342407055852
 30
0.0
 11
1482.939063729374
 21
279.4225808555852
 31
0.0
  0
LINE
  5
EA8
330
1F
100
AcDbEntity
  8
0
 62
     3
100
AcDbLine
 10
1482.735337439374
 20
279.6342407055852
 30
0.0
 11
1482.735337439374
 21
279.4225808555852
 31
0.0
  0
LINE
  5
EA9
330
1F
100
AcDbEntity
  8
0
 62
     3
100
AcDbLine
 10
1482.735337439374
 20
283.3648711855852
 30
0.0
 11
1482.735337439374
 21
283.5763336055851
 31
0.0
  0
LINE
  5
EAA
330
1F
100
AcDbEntity
  8
0
 62
     3
100
AcDbLine
 10
1482.939063729374
 20
283.3648711855852
 30
0.0
 11
1482.939063729374
 21
283.5763336055851
 31
0.0
  0
LINE
  5
EAB
330
1F
100
AcDbEntity
  8
0
 62
     3
100
AcDbLine
 10
1470.866860539374
 20
279.6342407055852
 30
0.0
 11
1470.866860539374
 21
279.4226795655851
 31
0.0
  0
LINE
  5
EAC
330
1F
100
AcDbEntity
  8
0
 62
     3
100
AcDbLine
 10
1470.866860539374
 20
283.5764323255852
 30
0.0
 11
1470.866860539374
 21
283.3648711855852
 31
0.0
  0
ARC
  5
EAD
330
1F
100
AcDbEntity
  8
0
 62
     3
100
AcDbCircle
 10
1489.436454209374
 20
281.9353038555852
 30
0.0
 40
1.641128469999999
100
AcDbArc
 50
17.30874897998818
 51
23.76507095999288
  0
ARC
  5
EAE
330
1F
100
AcDbEntity
  8
0
 62
     3
100
AcDbCircle
 10
1488.038180809374
 20
281.4995559455852
 30
0.0
 40
3.105725599999998
100
AcDbArc
 50
342.6912510200118
 51
17.30856643999719
  0
ARC
  5
EAF
330
1F
100
AcDbEntity
  8
0
 62
     3
100
AcDbCircle
 10
1489.436454209374
 20
281.0638080455852
 30
0.0
 40
1.641128469999999
100
AcDbArc
 50
336.2349290400031
 51
342.6912510200118
  0
ARC
  5
EB0
330
1F
100
AcDbEntity
  8
0
 62
     3
100
AcDbCircle
 10
1489.226454209374
 20
281.9353038555852
 30
0.0
 40
1.641128469999999
100
AcDbArc
 50
17.30874897998818
 51
90.0
  0
ARC
  5
EB1
330
1F
100
AcDbEntity
  8
0
 62
     3
100
AcDbCircle
 10
1487.828180809374
 20
281.4995559455852
 30
0.0
 40
3.105725599999998
100
AcDbArc
 50
342.6912510200118
 51
17.30856643999719
  0
ARC
  5
EB2
330
1F
100
AcDbEntity
  8
0
 62
     3
100
AcDbCircle
 10
1489.226454209374
 20
281.0638080455852
 30
0.0
 40
1.641128469999999
100
AcDbArc
 50
270.0
 51
342.6912510200118
  0
ARC
  5
EB3
330
1F
100
AcDbEntity
  8
0
 62
     3
100
AcDbCircle
 10
1479.102513839374
 20
281.4995559455852
 30
0.0
 40
2.076876379999998
100
AcDbArc
 50
46.75287960999252
 51
89.74999828999569
  0
ARC
  5
EB4
330
1F
100
AcDbEntity
  8
0
 62
     3
100
AcDbCircle
 10
1479.102513839374
 20
281.4995559455852
 30
0.0
 40
2.076876379999998
100
AcDbArc
 50
273.976333149997
 51
312.8231203899982
  0
ARC
  5
EB5
330
1F
100
AcDbEntity
  8
0
 62
     3
100
AcDbCircle
 10
1490.544321779374
 20
281.4674944155852
 30
0.0
 40
2.755888999999998
100
AcDbArc
 50
0.6665840599981471
 51
23.90392827000115
  0
ARC
  5
EB6
330
1F
100
AcDbEntity
  8
0
 62
     3
100
AcDbCircle
 10
1494.459884059374
 20
281.4674944155852
 30
0.0
 40
2.755888999999998
100
AcDbArc
 50
156.0960717299988
 51
179.3334159400018
  0
ARC
  5
EB7
330
1F
100
AcDbEntity
  8
0
 62
     3
100
AcDbCircle
 10
1490.544321779374
 20
281.5316174755852
 30
0.0
 40
2.755888999999998
100
AcDbArc
 50
336.0960717299989
 51
359.3334159400019
  0
ARC
  5
EB8
330
1F
100
AcDbEntity
  8
0
 62
     3
100
AcDbCircle
 10
1494.459884059374
 20
281.5316174755852
 30
0.0
 40
2.755888999999998
100
AcDbArc
 50
180.6665840599981
 51
203.9039282700011
  0
LINE
  5
EB9
330
1F
100
AcDbEntity
  8
0
 62
     3
100
AcDbLine
 10
1499.110171149374
 20
281.5774270855852
 30
0.0
 11
1613.782508519375
 21
281.5774270855852
 31
0.0
  0
LINE
  5
EBA
330
1F
100
AcDbEntity
  8
0
 62
     3
100
AcDbLine
 10
1465.697424629374
 20
281.5774270855852
 30
0.0
 11
1433.782508519374
 21
281.5774270855852
 31
0.0
  0
TEXT
  5
EBB
330
1F
100
AcDbEntity
  8
0
 62
     3
100
AcDbText
 10
1601.282508519374
 20
272.0774270855851
 30
0.0
 40
3.2
  1
担　当
  7
高3.2
100
AcDbText
  0
TEXT
  5
EBC
330
1F
100
AcDbEntity
  8
0
 62
     3
100
AcDbText
 10
1557.282508519374
 20
272.0774270855851
 30
0.0
 40
3.2
  1
変更・追記内容
  7
高3.2
100
AcDbText
  0
TEXT
  5
EBD
330
1F
100
AcDbEntity
  8
0
 62
     3
100
AcDbText
 10
1532.396023519714
 20
267.4068885756769
 30
0.0
 40
2.0
  1
1
  7
高2
100
AcDbText
  0
TEXT
  5
EBE
330
1F
100
AcDbEntity
  8
0
 62
     3
100
AcDbText
 10
1532.087512042956
 20
262.2370718634039
 30
0.0
 40
2.0
  1
2
  7
高2
100
AcDbText
  0
TEXT
  5
EBF
330
1F
100
AcDbEntity
  8
0
 62
     3
100
AcDbText
 10
1539.282508519374
 20
272.0774270855851
 30
0.0
 40
3.2
  1
日　付
  7
高3.2
100
AcDbText
  0
TEXT
  5
EC0
330
1F
100
AcDbEntity
  8
0
 62
     3
100
AcDbText
 10
1539.282508519374
 20
277.077427085585
 30
0.0
 40
3.2
  1
図　　　　面　　　　略　　　　歴
  7
高3.2
100
AcDbText
  0
TEXT
  5
EC1
330
1F
100
AcDbEntity
  8
0
 62
     3
100
AcDbText
 10
1529.282508519374
 20
272.0774270855851
 30
0.0
 40
3.2
  1
記号
  7
高3.2
100
AcDbText
  0
LINE
  5
EC2
330
1F
100
AcDbEntity
  8
0
 62
     7
100
AcDbLine
 10
1532.782508519375
 20
265.3683230855853
 30
0.0
 11
1530.882508519374
 21
262.0774270855851
 31
0.0
  0
LINE
  5
EC3
330
1F
100
AcDbEntity
  8
0
 62
     7
100
AcDbLine
 10
1532.782508519375
 20
265.3683230855853
 30
0.0
 11
1534.682508519374
 21
262.0774270855851
 31
0.0
  0
LINE
  5
EC4
330
1F
100
AcDbEntity
  8
0
 62
     7
100
AcDbLine
 10
1530.882508519374
 20
262.0774270855851
 30
0.0
 11
1534.682508519374
 21
262.0774270855851
 31
0.0
  0
LINE
  5
EC5
330
1F
100
AcDbEntity
  8
0
 62
     7
100
AcDbLine
 10
1532.782508519375
 20
270.3683240855852
 30
0.0
 11
1530.882508519374
 21
267.0774270855852
 31
0.0
  0
LINE
  5
EC6
330
1F
100
AcDbEntity
  8
0
 62
     7
100
AcDbLine
 10
1532.782508519375
 20
270.3683240855852
 30
0.0
 11
1534.682508519374
 21
267.0774270855852
 31
0.0
  0
LINE
  5
EC7
330
1F
100
AcDbEntity
  8
0
 62
     7
100
AcDbLine
 10
1530.882508519374
 20
267.0774270855852
 30
0.0
 11
1534.682508519374
 21
267.0774270855852
 31
0.0
  0
LINE
  5
EC8
330
1F
100
AcDbEntity
  8
0
 62
     3
100
AcDbLine
 10
1527.782508519374
 20
276.5774270855851
 30
0.0
 11
1613.782508519375
 21
276.5774270855851
 31
0.0
  0
LINE
  5
EC9
330
1F
100
AcDbEntity
  8
0
 62
     3
100
AcDbLine
 10
1527.782508519374
 20
271.5774270855852
 30
0.0
 11
1613.782508519375
 21
271.5774270855852
 31
0.0
  0
LINE
  5
ECA
330
1F
100
AcDbEntity
  8
0
 62
     7
100
AcDbLine
 10
1527.782508519374
 20
266.577427085585
 30
0.0
 11
1613.782508519375
 21
266.577427085585
 31
0.0
  0
LINE
  5
ECB
330
1F
100
AcDbEntity
  8
0
 62
     3
100
AcDbLine
 10
1527.782508519374
 20
261.5774270855851
 30
0.0
 11
1613.782508519375
 21
261.5774270855851
 31
0.0
  0
LINE
  5
ECC
330
1F
100
AcDbEntity
  8
0
 62
     7
100
AcDbLine
 10
1599.782508519374
 20
261.5774270855851
 30
0.0
 11
1599.782508519374
 21
276.5774270855851
 31
0.0
  0
LINE
  5
ECD
330
1F
100
AcDbEntity
  8
0
 62
     7
100
AcDbLine
 10
1555.782508519375
 20
261.5774270855851
 30
0.0
 11
1555.782508519375
 21
276.5774270855851
 31
0.0
  0
LINE
  5
ECE
330
1F
100
AcDbEntity
  8
0
 62
     7
100
AcDbLine
 10
1537.782508519374
 20
261.5774270855851
 30
0.0
 11
1537.782508519374
 21
276.5774270855851
 31
0.0
  0
LINE
  5
ECF
330
1F
100
AcDbEntity
  8
0
 62
     3
100
AcDbLine
 10
1527.782508519374
 20
261.5774270855851
 30
0.0
 11
1527.782508519374
 21
281.5774270855852
 31
0.0
  0
LINE
  5
16CA
330
1F
100
AcDbEntity
  8
0
  6
CENTER
 62
     7
100
AcDbLine
 10
1481.468235858488
 20
221.6688442177045
 30
0.0
 11
1481.468235858488
 21
135.0474054869015
 31
0.0
  0
LINE
  5
16CD
330
1F
100
AcDbEntity
  8
0
 62
     3
100
AcDbLine
 10
1474.468235858488
 20
203.9670811935277
 30
0.0
 11
1474.468235858489
 21
201.9670811935277
 31
0.0
  0
LINE
  5
16CE
330
1F
100
AcDbEntity
  8
0
 62
     3
100
AcDbLine
 10
1488.468235858488
 20
203.9670811935277
 30
0.0
 11
1488.468235858489
 21
201.9670811935277
 31
0.0
  0
ARC
  5
16CF
330
1F
100
AcDbEntity
  8
0
 62
     7
100
AcDbCircle
 10
1479.164074914758
 20
214.8005968971984
 30
0.0
 40
2.333333333333325
100
AcDbArc
 50
90.71635643577378
 51
167.6309595051253
  0
ARC
  5
16D0
330
1F
100
AcDbEntity
  8
0
 62
     7
100
AcDbCircle
 10
1483.772396802221
 20
214.8005968971984
 30
0.0
 40
2.333333333333325
100
AcDbArc
 50
12.36904049487464
 51
89.28364356422623
  0
ARC
  5
16D1
330
1F
100
AcDbEntity
  8
0
 62
     7
100
AcDbCircle
 10
1481.468235858488
 20
212.6059700824166
 30
0.0
 40
5.694444444444425
100
AcDbArc
 50
65.81048584595632
 51
114.1895141540437
  0
LINE
  5
16D2
330
1F
100
AcDbEntity
  8
0
 62
     7
100
AcDbLine
 10
1479.134902453133
 20
217.8004147652796
 30
0.0
 11
1479.134902453133
 21
217.1337467475745
 31
0.0
  0
LINE
  5
16D3
330
1F
100
AcDbEntity
  8
0
 62
     7
100
AcDbLine
 10
1483.801569263845
 20
217.1337467475745
 30
0.0
 11
1483.801569263845
 21
217.8004147652796
 31
0.0
  0
LINE
  5
16D4
330
1F
100
AcDbEntity
  8
0
 62
     7
100
AcDbLine
 10
1481.468235858488
 20
217.1337467475745
 30
0.0
 11
1483.801569263845
 21
217.1337467475745
 31
0.0
  0
LINE
  5
16D5
330
1F
100
AcDbEntity
  8
0
 62
     7
100
AcDbLine
 10
1479.134902453133
 20
217.1337467475745
 30
0.0
 11
1481.468235858488
 21
217.1337467475745
 31
0.0
  0
LINE
  5
16D6
330
1F
100
AcDbEntity
  8
0
 62
     7
100
AcDbLine
 10
1479.134902453133
 20
217.8004147652796
 30
0.0
 11
1483.801569263845
 21
217.8004147652796
 31
0.0
  0
SPLINE
  5
16D7
330
1F
100
AcDbEntity
  8
0
 62
     7
100
AcDbSpline
210
0.0
220
0.0
230
1.0
 70
     8
 71
     3
 72
    11
 73
     7
 74
     0
 42
0.0000000001
 43
0.0000000001
 40
0.0
 40
0.0
 40
0.0
 40
0.0
 40
0.2457368990040056
 40
0.4974959653356802
 40
0.7507199712319216
 40
1.0
 40
1.0
 40
1.0
 40
1.0
 10
1487.301569191822
 20
207.6337455157454
 30
0.0
 10
1487.309174357443
 20
207.7186128234387
 30
0.0
 10
1487.324571065171
 20
207.8904272450321
 30
0.0
 10
1487.431551813223
 20
208.1044779163067
 30
0.0
 10
1487.57030340815
 20
208.2698888037706
 30
0.0
 10
1487.671952320568
 20
208.3353852748993
 30
0.0
 10
1487.722377873529
 20
208.3678764811006
 30
0.0
  0
ARC
  5
16D8
330
1F
100
AcDbEntity
  8
0
 62
     7
100
AcDbCircle
 10
1475.805990507991
 20
214.967080952707
 30
0.0
 40
0.3333312296498412
100
AcDbArc
 50
89.98956724379992
 51
148.2463808528369
  0
ARC
  5
16D9
330
1F
100
AcDbEntity
  8
0
 62
     7
100
AcDbCircle
 10
1487.094354936738
 20
214.9670788588581
 30
0.0
 40
0.3333333235471783
100
AcDbArc
 50
331.246908581064
 51
90.00159237560403
  0
SPLINE
  5
16DA
330
1F
100
AcDbEntity
  8
0
 62
     7
100
AcDbSpline
210
0.0
220
0.0
230
1.0
 70
     8
 71
     3
 72
     9
 73
     5
 74
     0
 42
0.0000000001
 43
0.0000000001
 40
0.0
 40
0.0
 40
0.0
 40
0.0
 40
0.5036067025240226
 40
1.0
 40
1.0
 40
1.0
 40
1.0
 10
1474.968235858684
 20
214.4337427657414
 30
0.0
 10
1474.980333686239
 20
214.3525480928839
 30
0.0
 10
1475.004356058251
 20
214.1913217381694
 30
0.0
 10
1475.145651227572
 20
214.0852917603421
 30
0.0
 10
1475.215789202591
 20
214.0326591900172
 30
0.0
  0
SPLINE
  5
16DB
330
1F
100
AcDbEntity
  8
0
 62
     7
100
AcDbSpline
210
0.0
220
0.0
230
1.0
 70
     8
 71
     3
 72
     9
 73
     5
 74
     0
 42
0.0000000001
 43
0.0000000001
 40
0.0
 40
0.0
 40
0.0
 40
0.0
 40
0.5036066838050375
 40
1.0
 40
1.0
 40
1.0
 40
1.0
 10
1474.968235858537
 20
212.1670774984237
 30
0.0
 10
1474.980333272366
 20
212.0858827792464
 30
0.0
 10
1475.004354823743
 20
211.924656326563
 30
0.0
 10
1475.145649485916
 20
211.818626254534
 30
0.0
 10
1475.215787211832
 20
211.7659936354629
 30
0.0
  0
SPLINE
  5
16DC
330
1F
100
AcDbEntity
  8
0
 62
     7
100
AcDbSpline
210
0.0
220
0.0
230
1.0
 70
     8
 71
     3
 72
     9
 73
     5
 74
     0
 42
0.0000000001
 43
0.0000000001
 40
0.0
 40
0.0
 40
0.0
 40
0.0
 40
0.5036066672147116
 40
1.0
 40
1.0
 40
1.0
 40
1.0
 10
1474.968235858493
 20
209.9004118396617
 30
0.0
 10
1474.980332901411
 20
209.8192172421785
 30
0.0
 10
1475.004353717071
 20
209.6579910258296
 30
0.0
 10
1475.145647021364
 20
209.5519612130359
 30
0.0
 10
1475.215784075584
 20
209.4993287208885
 30
0.0
  0
SPLINE
  5
16DD
330
1F
100
AcDbEntity
  8
0
 62
     7
100
AcDbSpline
210
0.0
220
0.0
230
1.0
 70
     8
 71
     3
 72
     9
 73
     5
 74
     0
 42
0.0000000001
 43
0.0000000001
 40
0.0
 40
0.0
 40
0.0
 40
0.0
 40
0.4963948516298528
 40
1.0
 40
1.0
 40
1.0
 40
1.0
 10
1487.721392229242
 20
210.6330577584353
 30
0.0
 10
1487.79132713149
 20
210.6856239964453
 30
0.0
 10
1487.932212763195
 20
210.7915200141764
 30
0.0
 10
1487.956170578335
 20
210.9526208473801
 30
0.0
 10
1487.968235857384
 20
211.033752056388
 30
0.0
  0
SPLINE
  5
16DE
330
1F
100
AcDbEntity
  8
0
 62
     7
100
AcDbSpline
210
0.0
220
0.0
230
1.0
 70
     8
 71
     3
 72
     9
 73
     5
 74
     0
 42
0.0000000001
 43
0.0000000001
 40
0.0
 40
0.0
 40
0.0
 40
0.0
 40
0.4963948290794784
 40
1.0
 40
1.0
 40
1.0
 40
1.0
 10
1487.721356031598
 20
212.8997039941603
 30
0.0
 10
1487.791302818125
 20
212.9522747582947
 30
0.0
 10
1487.932212397419
 20
213.058179898829
 30
0.0
 10
1487.956170453441
 20
213.219289318779
 30
0.0
 10
1487.96823585434
 20
213.3004248557497
 30
0.0
  0
LINE
  5
16DF
330
1F
100
AcDbEntity
  8
0
 62
     7
100
AcDbLine
 10
1487.96823585849
 20
203.9670811935277
 30
0.0
 11
1487.96823585849
 21
206.5004121824114
 31
0.0
  0
LINE
  5
16E0
330
1F
100
AcDbEntity
  8
0
 62
     7
100
AcDbLine
 10
1474.96823585849
 20
206.5004121824114
 30
0.0
 11
1474.96823585849
 21
203.9670811935277
 31
0.0
  0
LINE
  5
16E1
330
1F
100
AcDbEntity
  8
0
 62
     7
100
AcDbLine
 10
1474.96823585849
 20
207.633745515745
 30
0.0
 11
1474.96823585849
 21
206.5004121824114
 31
0.0
  0
SPLINE
  5
16E2
330
1F
100
AcDbEntity
  8
0
 62
     7
100
AcDbSpline
210
0.0
220
0.0
230
1.0
 70
     8
 71
     3
 72
     9
 73
     5
 74
     0
 42
0.0000000001
 43
0.0000000001
 40
0.0
 40
0.0
 40
0.0
 40
0.0
 40
0.4963942349401516
 40
1.0
 40
1.0
 40
1.0
 40
1.0
 10
1475.215548959051
 20
214.8346973953431
 30
0.0
 10
1475.14546969765
 20
214.7820798556288
 30
0.0
 10
1475.004293075385
 20
214.6760803576281
 30
0.0
 10
1474.980312608682
 20
214.5148822832242
 30
0.0
 10
1474.968235907402
 20
214.4337020036378
 30
0.0
  0
SPLINE
  5
16E3
330
1F
100
AcDbEntity
  8
0
 62
     7
100
AcDbSpline
210
0.0
220
0.0
230
1.0
 70
     8
 71
     3
 72
     9
 73
     5
 74
     0
 42
0.0000000001
 43
0.0000000001
 40
0.0
 40
0.0
 40
0.0
 40
0.0
 40
0.4963943489687381
 40
1.0
 40
1.0
 40
1.0
 40
1.0
 10
1475.215467546989
 20
212.5679850595332
 30
0.0
 10
1475.145412847057
 20
212.5153760400984
 30
0.0
 10
1475.004285736971
 20
212.4093937307827
 30
0.0
 10
1474.980310142829
 20
212.2482118057559
 30
0.0
 10
1474.968235898131
 20
212.1670396774681
 30
0.0
  0
SPLINE
  5
16E4
330
1F
100
AcDbEntity
  8
0
 62
     7
100
AcDbSpline
210
0.0
220
0.0
230
1.0
 70
     8
 71
     3
 72
     9
 73
     5
 74
     0
 42
0.0000000001
 43
0.0000000001
 40
0.0
 40
0.0
 40
0.0
 40
0.0
 40
0.4963944112626438
 40
1.0
 40
1.0
 40
1.0
 40
1.0
 10
1475.215384450233
 20
210.3012717214371
 30
0.0
 10
1475.145356187774
 20
210.2486724149378
 30
0.0
 10
1475.004282354406
 20
210.1427096858941
 30
0.0
 10
1474.980308996824
 20
209.9815461889587
 30
0.0
 10
1474.968235879964
 20
209.9003833512014
 30
0.0
  0
SPLINE
  5
16E5
330
1F
100
AcDbEntity
  8
0
 62
     7
100
AcDbSpline
210
0.0
220
0.0
230
1.0
 70
     8
 71
     3
 72
     9
 73
     5
 74
     0
 42
0.0000000001
 43
0.0000000001
 40
0.0
 40
0.0
 40
0.0
 40
0.0
 40
0.4963944054616503
 40
1.0
 40
1.0
 40
1.0
 40
1.0
 10
1475.215303823051
 20
208.0345597149062
 30
0.0
 10
1475.145302887388
 20
207.9819710780183
 30
0.0
 10
1475.004284102945
 20
207.8760298419585
 30
0.0
 10
1474.980309570565
 20
207.7148866079343
 30
0.0
 10
1474.968235861931
 20
207.6337339737575
 30
0.0
  0
SPLINE
  5
16E6
330
1F
100
AcDbEntity
  8
0
 62
     7
100
AcDbSpline
210
0.0
220
0.0
230
1.0
 70
     8
 71
     3
 72
     9
 73
     5
 74
     0
 42
0.0000000001
 43
0.0000000001
 40
0.0
 40
0.0
 40
0.0
 40
0.0
 40
0.5034303937051963
 40
1.0
 40
1.0
 40
1.0
 40
1.0
 10
1487.964784358745
 20
206.5539316829294
 30
0.0
 10
1487.941009873913
 20
206.6321501714377
 30
0.0
 10
1487.89378490472
 20
206.7875211809881
 30
0.0
 10
1487.692893154423
 20
206.8936793892547
 30
0.0
 10
1487.593136417071
 20
206.9463943289389
 30
0.0
  0
SPLINE
  5
16E7
330
1F
100
AcDbEntity
  8
0
 62
     7
100
AcDbSpline
210
0.0
220
0.0
230
1.0
 70
     8
 71
     3
 72
     9
 73
     5
 74
     0
 42
0.0000000001
 43
0.0000000001
 40
0.0
 40
0.0
 40
0.0
 40
0.0
 40
0.5036058488009049
 40
1.0
 40
1.0
 40
1.0
 40
1.0
 10
1487.968235854621
 20
208.7670666125604
 30
0.0
 10
1487.956156949383
 20
208.8482308427697
 30
0.0
 10
1487.932172110316
 20
209.0093970214438
 30
0.0
 10
1487.791079925301
 20
209.1153627301222
 30
0.0
 10
1487.721042589882
 20
209.1679634881376
 30
0.0
  0
SPLINE
  5
16E8
330
1F
100
AcDbEntity
  8
0
 62
     7
100
AcDbSpline
210
0.0
220
0.0
230
1.0
 70
     8
 71
     3
 72
     9
 73
     5
 74
     0
 42
0.0000000001
 43
0.0000000001
 40
0.0
 40
0.0
 40
0.0
 40
0.0
 40
0.5036059943782388
 40
1.0
 40
1.0
 40
1.0
 40
1.0
 10
1487.968235848603
 20
211.033725954792
 30
0.0
 10
1487.956153932732
 20
211.1149014838444
 30
0.0
 10
1487.932163122442
 20
211.2760900518099
 30
0.0
 10
1487.791003096337
 20
211.3820795853716
 30
0.0
 10
1487.720932105547
 20
211.4346921544905
 30
0.0
  0
SPLINE
  5
16E9
330
1F
100
AcDbEntity
  8
0
 62
     7
100
AcDbSpline
210
0.0
220
0.0
230
1.0
 70
     8
 71
     3
 72
     9
 73
     5
 74
     0
 42
0.0000000001
 43
0.0000000001
 40
0.0
 40
0.0
 40
0.0
 40
0.0
 40
0.5036061094004448
 40
1.0
 40
1.0
 40
1.0
 40
1.0
 10
1487.968235845662
 20
213.300389898612
 30
0.0
 10
1487.95615139433
 20
213.3815726531889
 30
0.0
 10
1487.932155554909
 20
213.5427755319097
 30
0.0
 10
1487.790950961656
 20
213.6487803040705
 30
0.0
 10
1487.720857864238
 20
213.7014004253455
 30
0.0
  0
SPLINE
  5
16EA
330
1F
100
AcDbEntity
  8
0
 62
     7
100
AcDbSpline
210
0.0
220
0.0
230
1.0
 70
     8
 71
     3
 72
     9
 73
     5
 74
     0
 42
0.0000000001
 43
0.0000000001
 40
0.0
 40
0.0
 40
0.0
 40
0.0
 40
0.5054916101427228
 40
1.0
 40
1.0
 40
1.0
 40
1.0
 10
1475.523079956726
 20
215.1436706638617
 30
0.0
 10
1475.478849506592
 20
215.0778762525305
 30
0.0
 10
1475.391349636668
 20
214.9477169976363
 30
0.0
 10
1475.273770481176
 20
214.8721228426692
 30
0.0
 10
1475.215626602313
 20
214.8347408988136
 30
0.0
  0
SPLINE
  5
16EB
330
1F
100
AcDbEntity
  8
0
 62
     7
100
AcDbSpline
210
0.0
220
0.0
230
1.0
 70
     8
 71
     3
 72
    14
 73
    10
 74
     0
 42
0.0000000001
 43
0.0000000001
 40
0.0
 40
0.0
 40
0.0
 40
0.0
 40
0.217625151509925
 40
0.3399076169403028
 40
0.4695225777292266
 40
0.6037452647715976
 40
0.7389960319785489
 40
0.871825191517497
 40
1.0
 40
1.0
 40
1.0
 40
1.0
 10
1475.215473972468
 20
214.0328356988189
 30
0.0
 10
1475.310147685781
 20
213.9640524807435
 30
0.0
 10
1475.45801807693
 20
213.8566203223764
 30
0.0
 10
1475.592375568137
 20
213.5989389029004
 30
0.0
 10
1475.644839687237
 20
213.3621318130781
 30
0.0
 10
1475.62617800416
 20
213.1079725141162
 30
0.0
 10
1475.535047095075
 20
212.8740487197191
 30
0.0
 10
1475.389854754759
 20
212.6832003973865
 30
0.0
 10
1475.272891986784
 20
212.6059255703162
 30
0.0
 10
1475.215453471584
 20
212.5679771581318
 30
0.0
  0
SPLINE
  5
16EC
330
1F
100
AcDbEntity
  8
0
 62
     7
100
AcDbSpline
210
0.0
220
0.0
230
1.0
 70
     8
 71
     3
 72
    13
 73
     9
 74
     0
 42
0.0000000001
 43
0.0000000001
 40
0.0
 40
0.0
 40
0.0
 40
0.0
 40
0.2057883785236247
 40
0.3800690476594867
 40
0.5328042580502734
 40
0.7168678537469613
 40
0.8485871795344712
 40
1.0
 40
1.0
 40
1.0
 40
1.0
 10
1475.21536872784
 20
211.7662281470836
 30
0.0
 10
1475.301427639072
 20
211.7051638944067
 30
0.0
 10
1475.460369211328
 20
211.5923847737998
 30
0.0
 10
1475.616767989152
 20
211.2908803071515
 30
0.0
 10
1475.652227740033
 20
210.9439210028051
 30
0.0
 10
1475.566276247798
 20
210.65892259497
 30
0.0
 10
1475.404186561857
 20
210.4285603002765
 30
0.0
 10
1475.28142533443
 20
210.3457668648256
 30
0.0
 10
1475.215775340482
 20
210.3014907635649
 30
0.0
  0
SPLINE
  5
16ED
330
1F
100
AcDbEntity
  8
0
 62
     7
100
AcDbSpline
210
0.0
220
0.0
230
1.0
 70
     8
 71
     3
 72
    13
 73
     9
 74
     0
 42
0.0000000001
 43
0.0000000001
 40
0.0
 40
0.0
 40
0.0
 40
0.0
 40
0.2057436635911812
 40
0.3800286345522891
 40
0.5328184981754882
 40
0.7169299360032994
 40
0.8486401917944961
 40
1.0
 40
1.0
 40
1.0
 40
1.0
 10
1475.215125539777
 20
209.4996984340006
 30
0.0
 10
1475.301264154964
 20
209.4385980303801
 30
0.0
 10
1475.460370587408
 20
209.32573961932
 30
0.0
 10
1475.616796105266
 20
209.0241455569616
 30
0.0
 10
1475.652224482266
 20
208.6771274309755
 30
0.0
 10
1475.566206371196
 20
208.3921245813911
 30
0.0
 10
1475.404052941813
 20
208.1617761720055
 30
0.0
 10
1475.281208518221
 20
208.0789633205863
 30
0.0
 10
1475.215522630666
 20
208.0346826321564
 30
0.0
  0
SPLINE
  5
16EE
330
1F
100
AcDbEntity
  8
0
 62
     7
100
AcDbSpline
210
0.0
220
0.0
230
1.0
 70
     8
 71
     3
 72
     9
 73
     5
 74
     0
 42
0.0000000001
 43
0.0000000001
 40
0.0
 40
0.0
 40
0.0
 40
0.0
 40
0.4982495495766152
 40
1.0
 40
1.0
 40
1.0
 40
1.0
 10
1487.595371627328
 20
206.9458168561287
 30
0.0
 10
1487.52419862312
 20
207.0146568318822
 30
0.0
 10
1487.381352524677
 20
207.1528204806244
 30
0.0
 10
1487.328225633434
 20
207.4730634577348
 30
0.0
 10
1487.301569191822
 20
207.633745515745
 30
0.0
  0
SPLINE
  5
16EF
330
1F
100
AcDbEntity
  8
0
 62
     7
100
AcDbSpline
210
0.0
220
0.0
230
1.0
 70
     8
 71
     3
 72
    14
 73
    10
 74
     0
 42
0.0000000001
 43
0.0000000001
 40
0.0
 40
0.0
 40
0.0
 40
0.0
 40
0.217517429302176
 40
0.3397631727764423
 40
0.4693509924662353
 40
0.6035615375162779
 40
0.7388266255370996
 40
0.8717115883225359
 40
1.0
 40
1.0
 40
1.0
 40
1.0
 10
1487.72091177863
 20
209.1680368834192
 30
0.0
 10
1487.626254867814
 20
209.2368231677297
 30
0.0
 10
1487.478400360484
 20
209.3442676436768
 30
0.0
 10
1487.344089290884
 20
209.6019097779864
 30
0.0
 10
1487.291634116104
 20
209.8386990860116
 30
0.0
 10
1487.310290852001
 20
210.0928395751
 30
0.0
 10
1487.401389455825
 20
210.3267382655432
 30
0.0
 10
1487.54652878091
 20
210.5175486305807
 30
0.0
 10
1487.663345109347
 20
210.5947578985187
 30
0.0
 10
1487.720725312303
 20
210.6326831057529
 30
0.0
  0
SPLINE
  5
16F0
330
1F
100
AcDbEntity
  8
0
 62
     7
100
AcDbSpline
210
0.0
220
0.0
230
1.0
 70
     8
 71
     3
 72
    13
 73
     9
 74
     0
 42
0.0000000001
 43
0.0000000001
 40
0.0
 40
0.0
 40
0.0
 40
0.0
 40
0.2055504811937125
 40
0.3797817549283605
 40
0.5326004521343056
 40
0.7167774379146527
 40
0.8485488073954712
 40
1.0
 40
1.0
 40
1.0
 40
1.0
 10
1487.721374580992
 20
211.4344432356042
 30
0.0
 10
1487.635207946146
 20
211.4955707447326
 30
0.0
 10
1487.476003668892
 20
211.6085119188725
 30
0.0
 10
1487.319651875708
 20
211.9101234159424
 30
0.0
 10
1487.284256616364
 20
212.2570358208806
 30
0.0
 10
1487.370253501858
 20
212.5420092495192
 30
0.0
 10
1487.53238080219
 20
212.7723464794578
 30
0.0
 10
1487.655173135189
 20
212.8551387952683
 30
0.0
 10
1487.720835436729
 20
212.8994113803182
 30
0.0
  0
SPLINE
  5
16F1
330
1F
100
AcDbEntity
  8
0
 62
     7
100
AcDbSpline
210
0.0
220
0.0
230
1.0
 70
     8
 71
     3
 72
    11
 73
     7
 74
     0
 42
0.0000000001
 43
0.0000000001
 40
0.0
 40
0.0
 40
0.0
 40
0.0
 40
0.2989236174403561
 40
0.5327490888989659
 40
0.759885732138936
 40
1.0
 40
1.0
 40
1.0
 40
1.0
 10
1487.721072605357
 20
213.70127996024
 30
0.0
 10
1487.629385420039
 20
213.7678076207338
 30
0.0
 10
1487.465978243116
 20
213.8863748681732
 30
0.0
 10
1487.319436582978
 20
214.1866957718733
 30
0.0
 10
1487.280175044699
 20
214.5176225562869
 30
0.0
 10
1487.354025873307
 20
214.7109800034876
 30
0.0
 10
1487.391976869701
 20
214.8103439228872
 30
0.0
  0
SPLINE
  5
16F2
330
1F
100
AcDbEntity
  8
0
 62
     7
100
AcDbSpline
210
0.0
220
0.0
230
1.0
 70
     8
 71
     3
 72
    10
 73
     6
 74
     0
 42
0.0000000001
 43
0.0000000001
 40
0.0
 40
0.0
 40
0.0
 40
0.0
 40
0.6394175102021852
 40
0.8393390319694601
 40
1.0
 40
1.0
 40
1.0
 40
1.0
 10
1487.72239278574
 20
208.3678848081889
 30
0.0
 10
1487.786336047447
 20
208.4078975057084
 30
0.0
 10
1487.870271933663
 20
208.4604206510192
 30
0.0
 10
1487.957774478824
 20
208.6422696295425
 30
0.0
 10
1487.965011385629
 20
208.728609358999
 30
0.0
 10
1487.96823585849
 20
208.767078849078
 30
0.0
  0
SPLINE
  5
16F3
330
1F
100
AcDbEntity
  8
0
 62
     7
100
AcDbSpline
210
0.0
220
0.0
230
1.0
 70
     8
 71
     3
 72
    20
 73
    16
 74
     0
 42
0.0000000001
 43
0.0000000001
 40
0.0
 40
0.0
 40
0.0
 40
0.0
 40
0.0708280383542781
 40
0.1429969773945798
 40
0.2298669127114
 40
0.3192561228879628
 40
0.406116708493201
 40
0.4954954488627874
 40
0.5823657980653337
 40
0.6717539187329658
 40
0.7586502573216735
 40
0.8480641669776819
 40
0.921664247611034
 40
0.996770486857579
 40
1.0
 40
1.0
 40
1.0
 40
1.0
 10
1483.645471668455
 20
206.4381011513075
 30
0.0
 10
1483.36523393867
 20
206.430202957307
 30
0.0
 10
1482.799453080655
 20
206.4142570424525
 30
0.0
 10
1481.851687152949
 20
206.395407289008
 30
0.0
 10
1480.819447371779
 20
206.3787406356337
 30
0.0
 10
1479.743034011909
 20
206.3696163523112
 30
0.0
 10
1478.706187946582
 20
206.3679268506386
 30
0.0
 10
1477.756581973932
 20
206.3717510985606
 30
0.0
 10
1476.904069756022
 20
206.3844942036531
 30
0.0
 10
1476.187974118819
 20
206.4012189571209
 30
0.0
 10
1475.615767104358
 20
206.4234637381675
 30
0.0
 10
1475.23410845902
 20
206.4491048340924
 30
0.0
 10
1475.018516559496
 20
206.4739572813506
 30
0.0
 10
1474.968920289898
 20
206.4909610486125
 30
0.0
 10
1474.968262958018
 20
206.5000379721321
 30
0.0
 10
1474.96823585849
 20
206.5004121824114
 30
0.0
  0
SPLINE
  5
16F4
330
1F
100
AcDbEntity
  8
0
 62
     7
100
AcDbSpline
210
0.0
220
0.0
230
1.0
 70
     8
 71
     3
 72
    20
 73
    16
 74
     0
 42
0.0000000001
 43
0.0000000001
 40
0.0
 40
0.0
 40
0.0
 40
0.0
 40
0.0032068471712263
 40
0.0757022301091734
 40
0.1495980360793847
 40
0.2372703530997107
 40
0.3274674429692217
 40
0.4148188823520118
 40
0.5046829063237192
 40
0.5917760854842371
 40
0.6813770667248439
 40
0.7684424215250464
 40
0.8580293204469404
 40
0.9283584427651675
 40
1.0
 40
1.0
 40
1.0
 40
1.0
 10
1474.96823585849
 20
206.5004121824114
 30
0.0
 10
1474.968262434903
 20
206.5023058471176
 30
0.0
 10
1474.96888980928
 20
206.547008520393
 30
0.0
 10
1475.015860504471
 20
206.6360227865201
 30
0.0
 10
1475.222093721702
 20
206.7749478623289
 30
0.0
 10
1475.598552379649
 20
206.9205169929269
 30
0.0
 10
1476.163111600689
 20
207.0705405326731
 30
0.0
 10
1476.885078168719
 20
207.2166854024479
 30
0.0
 10
1477.730125305102
 20
207.3526428860317
 30
0.0
 10
1478.689686237927
 20
207.4843767843063
 30
0.0
 10
1479.719427053646
 20
207.6052650034089
 30
0.0
 10
1480.809672252185
 20
207.7190971938683
 30
0.0
 10
1481.838905961325
 20
207.8180938333147
 30
0.0
 10
1482.796701056258
 20
207.9031437809867
 30
0.0
 10
1483.360809847077
 20
207.9518342177109
 30
0.0
 10
1483.645471668455
 20
207.9764044932097
 30
0.0
  0
LINE
  5
16F5
330
1F
100
AcDbEntity
  8
0
 62
     7
100
AcDbLine
 10
1487.70184696098
 20
208.3711708696138
 30
0.0
 11
1487.697862867342
 21
208.3687477488311
 31
0.0
  0
LINE
  5
16F6
330
1F
100
AcDbEntity
  8
0
 62
     7
100
AcDbLine
 10
1475.538414944455
 20
215.1366462519273
 30
0.0
 11
1475.533141942664
 21
215.1350022729944
 31
0.0
  0
SPLINE
  5
16F7
330
1F
100
AcDbEntity
  8
0
 62
     7
100
AcDbSpline
210
0.0
220
0.0
230
1.0
 70
    24
 71
     3
 72
    15
 73
    11
 74
     0
 42
0.0000000001
 43
0.0000000001
 40
0.0
 40
0.0
 40
0.0
 40
0.0
 40
0.1381895190657714
 40
0.2762866949410798
 40
0.4149396815341292
 40
0.5535396102884561
 40
0.6781242887499671
 40
0.8026846113974757
 40
0.9228755551802866
 40
1.0
 40
1.0
 40
1.0
 40
1.0
 10
1482.122765010446
 20
215.3004121824116
 30
0.0
 10
1482.494805893803
 20
215.3004121824116
 30
0.0
 10
1483.238639049458
 20
215.3004121824116
 30
0.0
 10
1484.272300614216
 20
215.3004121824116
 30
0.0
 10
1485.194486188805
 20
215.3004121824116
 30
0.0
 10
1485.946027512412
 20
215.3004121824116
 30
0.0
 10
1486.509963835474
 20
215.3004121824116
 30
0.0
 10
1486.882149869547
 20
215.3004121824116
 30
0.0
 10
1487.076053560204
 20
215.3004121824116
 30
0.0
 10
1487.074752260723
 20
215.3004121824116
 30
0.0
 10
1487.074243623255
 20
215.3004121824116
 30
0.0
  0
SPLINE
  5
16F8
330
1F
100
AcDbEntity
  8
0
 62
     7
100
AcDbSpline
210
0.0
220
0.0
230
1.0
 70
    24
 71
     3
 72
    15
 73
    11
 74
     0
 42
0.0000000001
 43
0.0000000001
 40
0.0
 40
0.0
 40
0.0
 40
0.0
 40
0.1031129362327991
 40
0.2362782984864588
 40
0.372301448766958
 40
0.5083526626934305
 40
0.6476815119263361
 40
0.7870550977493004
 40
0.8935195635893208
 40
1.0
 40
1.0
 40
1.0
 40
1.0
 10
1475.820130568443
 20
215.3004121824116
 30
0.0
 10
1475.823215921105
 20
215.3004121824116
 30
0.0
 10
1475.83028585727
 20
215.3004121824116
 30
0.0
 10
1476.029778503636
 20
215.3004121824116
 30
0.0
 10
1476.387983116602
 20
215.3004121824116
 30
0.0
 10
1476.901868979558
 20
215.3004121824116
 30
0.0
 10
1477.556096884827
 20
215.3004121824116
 30
0.0
 10
1478.270929352067
 20
215.3004121824116
 30
0.0
 10
1478.991875929419
 20
215.3004121824116
 30
0.0
 10
1479.462479868665
 20
215.3004121824116
 30
0.0
 10
1479.69779948561
 20
215.3004121824116
 30
0.0
  0
SPLINE
  5
16F9
330
1F
100
AcDbEntity
  8
0
 62
     7
100
AcDbSpline
210
0.0
220
0.0
230
1.0
 70
     8
 71
     3
 72
    16
 73
    12
 74
     0
 42
0.0000000001
 43
0.0000000001
 40
0.0
 40
0.0
 40
0.0
 40
0.0
 40
0.0052880309849414
 40
0.0568887488701464
 40
0.1978637416490867
 40
0.3487075627249002
 40
0.4936472437914451
 40
0.6214002098381563
 40
0.7565786487654435
 40
0.8956762320131954
 40
1.0
 40
1.0
 40
1.0
 40
1.0
 10
1487.96823585849
 20
206.5004121824114
 30
0.0
 10
1487.96820614641
 20
206.5004683383694
 30
0.0
 10
1487.967886503214
 20
206.5010724653479
 30
0.0
 10
1487.947494603128
 20
206.5029594773041
 30
0.0
 10
1487.80461287571
 20
206.504996617247
 30
0.0
 10
1487.419267018122
 20
206.5055059788989
 30
0.0
 10
1486.858431184576
 20
206.5032935617822
 30
0.0
 10
1486.168974032404
 20
206.4945215511857
 30
0.0
 10
1485.363103963555
 20
206.4813079496778
 30
0.0
 10
1484.505691408986
 20
206.463034566024
 30
0.0
 10
1483.903538165061
 20
206.4455811923725
 30
0.0
 10
1483.645471668455
 20
206.4381011513075
 30
0.0
  0
SPLINE
  5
16FA
330
1F
100
AcDbEntity
  8
0
 62
     7
100
AcDbSpline
210
0.0
220
0.0
230
1.0
 70
    24
 71
     3
 72
    10
 73
     6
 74
     0
 42
0.0000000001
 43
0.0000000001
 40
0.0
 40
0.0
 40
0.0
 40
0.0
 40
0.1339212878727249
 40
0.6708280778273023
 40
1.0
 40
1.0
 40
1.0
 40
1.0
 10
1480.903207212463
 20
215.3004121824116
 30
0.0
 10
1480.957659927703
 20
215.3004121824116
 30
0.0
 10
1481.23042022502
 20
215.3004121824116
 30
0.0
 10
1481.641077122285
 20
215.3004121824116
 30
0.0
 10
1481.99010820736
 20
215.3004121824116
 30
0.0
 10
1482.122765010446
 20
215.3004121824116
 30
0.0
  0
SPLINE
  5
16FB
330
1F
100
AcDbEntity
  8
0
 62
     7
100
AcDbSpline
210
0.0
220
0.0
230
1.0
 70
    24
 71
     3
 72
    11
 73
     7
 74
     0
 42
0.0000000001
 43
0.0000000001
 40
0.0
 40
0.0
 40
0.0
 40
0.0
 40
0.1321783914511294
 40
0.396641321645365
 40
0.6973730509917581
 40
1.0
 40
1.0
 40
1.0
 40
1.0
 10
1479.69779948561
 20
215.3004121824116
 30
0.0
 10
1479.748706817274
 20
215.3004121824116
 30
0.0
 10
1479.901469693954
 20
215.3004121824116
 30
0.0
 10
1480.179307607845
 20
215.3004121824116
 30
0.0
 10
1480.530592153638
 20
215.3004121824116
 30
0.0
 10
1480.778742369975
 20
215.3004121824116
 30
0.0
 10
1480.903207212463
 20
215.3004121824116
 30
0.0
  0
SPLINE
  5
16FC
330
1F
100
AcDbEntity
  8
0
 62
     7
100
AcDbSpline
210
0.0
220
0.0
230
1.0
 70
     8
 71
     3
 72
    14
 73
    10
 74
     0
 42
0.0000000001
 43
0.0000000001
 40
0.0
 40
0.0
 40
0.0
 40
0.0
 40
0.0777168941382962
 40
0.243362077558284
 40
0.4078361234653979
 40
0.5734813068853855
 40
0.7384566804233784
 40
0.8688428218594655
 40
1.0
 40
1.0
 40
1.0
 40
1.0
 10
1487.697862867342
 20
208.368747748831
 30
0.0
 10
1487.685785771788
 20
208.3586326046514
 30
0.0
 10
1487.647967648744
 20
208.326958120877
 30
0.0
 10
1487.358190518727
 20
208.2727294803019
 30
0.0
 10
1486.849312947383
 20
208.2092355951898
 30
0.0
 10
1486.146478153
 20
208.1435239494327
 30
0.0
 10
1485.343417759715
 20
208.0835437222118
 30
0.0
 10
1484.501775229188
 20
208.0282554179781
 30
0.0
 10
1483.931466617049
 20
207.9937220698772
 30
0.0
 10
1483.645471668455
 20
207.9764044932097
 30
0.0
  0
ARC
  5
16FD
330
1F
100
AcDbEntity
  8
0
 62
     7
100
AcDbCircle
 10
1488.181569191822
 20
207.633745515745
 30
0.0
 40
0.8800000000000045
100
AcDbArc
 50
179.5758919264331
 51
240.9310898389168
  0
SPLINE
  5
16FE
330
1F
100
AcDbEntity
  8
0
 62
     7
100
AcDbSpline
210
0.0
220
0.0
230
1.0
 70
     8
 71
     3
 72
    14
 73
    10
 74
     0
 42
0.0000000001
 43
0.0000000001
 40
0.0
 40
0.0
 40
0.0
 40
0.0
 40
0.1517351914597909
 40
0.304086436870584
 40
0.4553605350021755
 40
0.6077117804129686
 40
0.7594469718727596
 40
0.8793689075545797
 40
1.0
 40
1.0
 40
1.0
 40
1.0
 10
1487.754011351206
 20
206.8645938447938
 30
0.0
 10
1487.733464049396
 20
206.8431474743737
 30
0.0
 10
1487.692286022503
 20
206.8001676599874
 30
0.0
 10
1487.362897967467
 20
206.7344499926324
 30
0.0
 10
1486.848044555391
 20
206.6709258259169
 30
0.0
 10
1486.146820038483
 20
206.6052223399798
 30
0.0
 10
1485.343347797618
 20
206.5452400257881
 30
0.0
 10
1484.501791088466
 20
206.4899521564401
 30
0.0
 10
1483.931471913854
 20
206.4554187548155
 30
0.0
 10
1483.645471668455
 20
206.4381011513075
 30
0.0
  0
ARC
  5
16FF
330
1F
100
AcDbEntity
  8
0
 62
     7
100
AcDbCircle
 10
1480.838512875126
 20
359.5538163510558
 30
0.0
 40
144.8837158741876
100
AcDbArc
 50
270.5214683062684
 51
272.5844760477798
  0
SPLINE
  5
1700
330
1F
100
AcDbEntity
  8
0
 62
     7
100
AcDbSpline
210
0.0
220
0.0
230
1.0
 70
     8
 71
     3
 72
    24
 73
    20
 74
     0
 42
0.0000000001
 43
0.0000000001
 40
0.0
 40
0.0
 40
0.0
 40
0.0
 40
0.0306981251976086
 40
0.0931403430927189
 40
0.1557556448012965
 40
0.2180390364825356
 40
0.2807288115612894
 40
0.3429803629901615
 40
0.4056452939023817
 40
0.4679922909934917
 40
0.5305332963682263
 40
0.5930743017429611
 40
0.655421298834071
 40
0.7180862297462916
 40
0.7803377811751631
 40
0.8430275562539167
 40
0.9053109479351558
 40
0.9679262496437337
 40
0.9999999999999998
 40
0.9999999999999998
 40
0.9999999999999998
 40
0.9999999999999998
 10
1475.241768309269
 20
209.5014692733037
 30
0.0
 10
1475.216339974297
 20
209.5130617805438
 30
0.0
 10
1475.139188557784
 20
209.5482342900926
 30
0.0
 10
1475.27151944731
 20
209.6068016224631
 30
0.0
 10
1475.621311516424
 20
209.6784527266223
 30
0.0
 10
1476.209104013918
 20
209.7481209414389
 30
0.0
 10
1476.994259137396
 20
209.8202470697532
 30
0.0
 10
1477.953974507656
 20
209.8897296822801
 30
0.0
 10
1479.046596015782
 20
209.9616877538511
 30
0.0
 10
1480.234110692516
 20
210.0317346168215
 30
0.0
 10
1481.468232217335
 20
210.102897182084
 30
0.0
 10
1482.70237556649
 20
210.1740597749905
 30
0.0
 10
1483.889824862413
 20
210.2441065551452
 30
0.0
 10
1484.98268659736
 20
210.3160649310035
 30
0.0
 10
1485.941509229959
 20
210.3855464127295
 30
0.0
 10
1486.730006454795
 20
210.4576767743709
 30
0.0
 10
1487.305363429158
 20
210.5273292375303
 30
0.0
 10
1487.637449177659
 20
210.58741489906
 30
0.0
 10
1487.680692582994
 20
210.623091324042
 30
0.0
 10
1487.695340297349
 20
210.6351758968996
 30
0.0
  0
SPLINE
  5
1701
330
1F
100
AcDbEntity
  8
0
 62
     7
100
AcDbSpline
210
0.0
220
0.0
230
1.0
 70
     8
 71
     3
 72
    24
 73
    20
 74
     0
 42
0.0000000001
 43
0.0000000001
 40
0.0
 40
0.0
 40
0.0
 40
0.0
 40
0.0307001068594337
 40
0.0931432690478897
 40
0.1557595176673027
 40
0.2180438512400098
 40
0.2807345743558364
 40
0.3429870671946675
 40
0.4056529457682493
 40
0.4680008857127115
 40
0.5305428368747231
 40
0.5930847880367339
 40
0.6554327279811957
 40
0.7180986065547775
 40
0.7803510993936086
 40
0.8430418225094346
 40
0.9053261560821418
 40
0.9679424047015546
 40
1.0
 40
1.0
 40
1.0
 40
1.0
 10
1475.241771240846
 20
211.7681342217301
 30
0.0
 10
1475.216341470511
 20
211.7797273021562
 30
0.0
 10
1475.139188255671
 20
211.8149003852392
 30
0.0
 10
1475.271519109375
 20
211.8734682894537
 30
0.0
 10
1475.621311606525
 20
211.9451193932027
 30
0.0
 10
1476.20910398965
 20
212.0147876081288
 30
0.0
 10
1476.994259143858
 20
212.086913736414
 30
0.0
 10
1477.95397450594
 20
212.1563963489485
 30
0.0
 10
1479.046596016155
 20
212.2283544205171
 30
0.0
 10
1480.234110692742
 20
212.2984012834896
 30
0.0
 10
1481.468232216057
 20
212.3695638487457
 30
0.0
 10
1482.70237557137
 20
212.4407264416749
 30
0.0
 10
1483.889824844201
 20
212.5107732217458
 30
0.0
 10
1484.982686665544
 20
212.582731597917
 30
0.0
 10
1485.94150897664
 20
212.6522130784796
 30
0.0
 10
1486.730007405187
 20
212.7243434444774
 30
0.0
 10
1487.305359900675
 20
212.7939958914266
 30
0.0
 10
1487.63742449005
 20
212.8540752344091
 30
0.0
 10
1487.680666077024
 20
212.8897454108425
 30
0.0
 10
1487.695308149616
 20
212.9018237213133
 30
0.0
  0
SPLINE
  5
1702
330
1F
100
AcDbEntity
  8
0
 62
     7
100
AcDbSpline
210
0.0
220
0.0
230
1.0
 70
     8
 71
     3
 72
    17
 73
    13
 74
     0
 42
0.0000000001
 43
0.0000000001
 40
0.0
 40
0.0
 40
0.0
 40
0.0
 40
0.0542875517610549
 40
0.1647032927152463
 40
0.2754250954679354
 40
0.3855599861468038
 40
0.4964134791665379
 40
0.606492067151881
 40
0.7173016285633415
 40
0.8275489918400186
 40
0.9381394173766526
 40
1.0
 40
1.0
 40
1.0
 40
1.0
 10
1475.241773189192
 20
214.034799746443
 30
0.0
 10
1475.216342468577
 20
214.0463932077724
 30
0.0
 10
1475.139188069733
 20
214.081566671908
 30
0.0
 10
1475.271518748302
 20
214.1401349578192
 30
0.0
 10
1475.621312166994
 20
214.2117860543709
 30
0.0
 10
1476.209102113818
 20
214.2814542950252
 30
0.0
 10
1476.994266118962
 20
214.353580327306
 30
0.0
 10
1477.953948624791
 20
214.4230632969229
 30
0.0
 10
1479.046693128742
 20
214.4950200316058
 30
0.0
 10
1480.233749911015
 20
214.5650718717305
 30
0.0
 10
1481.28787910381
 20
214.6257555413639
 30
0.0
 10
1481.927639491388
 20
214.6628093816154
 30
0.0
 10
1482.157130468199
 20
214.6761011110801
 30
0.0
  0
ARC
  5
1703
330
1F
100
AcDbEntity
  8
0
 62
     7
100
AcDbCircle
 10
1487.551569191822
 20
206.5004121824114
 30
0.0
 40
0.4166666666666706
100
AcDbArc
 50
0.0
 51
60.93108983891667
  0
SPLINE
  5
1704
330
1F
100
AcDbEntity
  8
0
 62
     7
100
AcDbSpline
210
0.0
220
0.0
230
1.0
 70
     8
 71
     3
 72
    24
 73
    20
 74
     0
 42
0.0000000001
 43
0.0000000001
 40
0.0
 40
0.0
 40
0.0
 40
0.0
 40
0.0319774828928831
 40
0.094609763278388
 40
0.1569100436362992
 40
0.2196168175860744
 40
0.2818852490578609
 40
0.3445671721043932
 40
0.4069310751193286
 40
0.4694890390249017
 40
0.5320470029304744
 40
0.5944109059454098
 40
0.6570928289919423
 40
0.7193612604637283
 40
0.7820680344135038
 40
0.8443683147714148
 40
0.9070005951569195
 40
0.9694597447957939
 40
1.0
 40
1.0
 40
1.0
 40
1.0
 10
1475.241334153289
 20
208.0324339597306
 30
0.0
 10
1475.255946267532
 20
208.0444790399426
 30
0.0
 10
1475.299178209026
 20
208.080116059634
 30
0.0
 10
1475.631130562336
 20
208.1401618745759
 30
0.0
 10
1476.206459262569
 20
208.2098142354051
 30
0.0
 10
1476.994964086174
 20
208.2819446245478
 30
0.0
 10
1477.953784689104
 20
208.3514260989285
 30
0.0
 10
1479.046646969823
 20
208.4233844767605
 30
0.0
 10
1480.234096118655
 20
208.4934312563886
 30
0.0
 10
1481.468239511598
 20
208.5645938494325
 30
0.0
 10
1482.70236100856
 20
208.6357564146734
 30
0.0
 10
1483.889875752826
 20
208.7058032775918
 30
0.0
 10
1484.982497018133
 20
208.7777613493922
 30
0.0
 10
1485.942213289321
 20
208.8472439610562
 30
0.0
 10
1486.727365040426
 20
208.9193700926033
 30
0.0
 10
1487.315170085981
 20
208.9890382953907
 30
0.0
 10
1487.66491519373
 20
209.0606894445694
 30
0.0
 10
1487.797250136767
 20
209.1191941622818
 30
0.0
 10
1487.720295639806
 20
209.1543038722825
 30
0.0
 10
1487.695024403065
 20
209.1658336181487
 30
0.0
  0
SPLINE
  5
1705
330
1F
100
AcDbEntity
  8
0
 62
     7
100
AcDbSpline
210
0.0
220
0.0
230
1.0
 70
     8
 71
     3
 72
    24
 73
    20
 74
     0
 42
0.0000000001
 43
0.0000000001
 40
0.0
 40
0.0
 40
0.0
 40
0.0
 40
0.0319403145095642
 40
0.0945716896261664
 40
0.1568710695138075
 40
0.2195769371179723
 40
0.2818444685798239
 40
0.3445254856399329
 40
0.4068884872650147
 40
0.4694455469758347
 40
0.5320026066866537
 40
0.5943656083117355
 40
0.6570466253718445
 40
0.7193141568336962
 40
0.7820200244378605
 40
0.8443194043255013
 40
0.9069507794421035
 40
0.9694090263144586
 40
1.0
 40
1.0
 40
1.0
 40
1.0
 10
1475.241405050452
 20
210.2991421802534
 30
0.0
 10
1475.25600470311
 20
210.3111734496097
 30
0.0
 10
1475.299232637494
 20
210.346796689044
 30
0.0
 10
1475.631138364671
 20
210.406828569481
 30
0.0
 10
1476.206457161022
 20
210.4764808944659
 30
0.0
 10
1476.994964646314
 20
210.5486112932418
 30
0.0
 10
1477.95378453835
 20
210.6180927650493
 30
0.0
 10
1479.046647010023
 20
210.6900511435731
 30
0.0
 10
1480.23409610815
 20
210.7600979230158
 30
0.0
 10
1481.468239513365
 20
210.8312605161106
 30
0.0
 10
1482.702361012007
 20
210.9024230813332
 30
0.0
 10
1483.889875737302
 20
210.9724699442744
 30
0.0
 10
1484.982497076966
 20
211.0444280160024
 30
0.0
 10
1485.942213070569
 20
211.1139106279328
 30
0.0
 10
1486.727365861188
 20
211.1860367584831
 30
0.0
 10
1487.315167038753
 20
211.2557049649785
 30
0.0
 10
1487.664926622569
 20
211.3273561002799
 30
0.0
 10
1487.797260290092
 20
211.3858800931128
 30
0.0
 10
1487.720245171821
 20
211.4210091351259
 30
0.0
 10
1487.694925588892
 20
211.4325582012371
 30
0.0
  0
SPLINE
  5
1706
330
1F
100
AcDbEntity
  8
0
 62
     7
100
AcDbSpline
210
0.0
220
0.0
230
1.0
 70
     8
 71
     3
 72
    24
 73
    20
 74
     0
 42
0.0000000001
 43
0.0000000001
 40
0.0
 40
0.0
 40
0.0
 40
0.0
 40
0.0319022088170548
 40
0.0945338199507925
 40
0.1568334346044933
 40
0.2195395385065078
 40
0.281807304614403
 40
0.344488557878716
 40
0.4068517945096069
 40
0.4694090899575154
 40
0.5319663854054231
 40
0.5943296220363147
 40
0.6570108753006274
 40
0.719278641408523
 40
0.7819847453105364
 40
0.8442843599642378
 40
0.9069159710979755
 40
0.9693744533350566
 40
0.9999999999999998
 40
0.9999999999999998
 40
0.9999999999999998
 40
0.9999999999999998
 10
1475.24147888292
 20
212.5658521212014
 30
0.0
 10
1475.256065551421
 20
212.5778690078766
 30
0.0
 10
1475.299289313822
 20
212.6134778965235
 30
0.0
 10
1475.631146497113
 20
212.6734952655807
 30
0.0
 10
1476.206454970561
 20
212.7431475532045
 30
0.0
 10
1476.994965230153
 20
212.8152779620215
 30
0.0
 10
1477.953784381208
 20
212.8847594311472
 30
0.0
 10
1479.046647051952
 20
212.9567178103918
 30
0.0
 10
1480.234096097088
 20
213.0267645896416
 30
0.0
 10
1481.468239515624
 20
213.0979271827889
 30
0.0
 10
1482.702361014039
 20
213.1690897479942
 30
0.0
 10
1483.889875726934
 20
213.2391366109519
 30
0.0
 10
1484.982497116529
 20
213.3110946826309
 30
0.0
 10
1485.942212923387
 20
213.3805772947406
 30
0.0
 10
1486.727366413434
 20
213.4527034246203
 30
0.0
 10
1487.315164988436
 20
213.5223716336109
 30
0.0
 10
1487.664934312421
 20
213.5940227595747
 30
0.0
 10
1487.797267134748
 20
213.6525597347074
 30
0.0
 10
1487.720211187513
 20
213.6877017973505
 30
0.0
 10
1487.694859034884
 20
213.6992638761741
 30
0.0
  0
SPLINE
  5
1707
330
1F
100
AcDbEntity
  8
0
 62
     7
100
AcDbSpline
210
0.0
220
0.0
230
1.0
 70
     8
 71
     3
 72
    14
 73
    10
 74
     0
 42
0.0000000001
 43
0.0000000001
 40
0.0
 40
0.0
 40
0.0
 40
0.0
 40
0.0849184655995474
 40
0.2518310684043993
 40
0.4178589039870487
 40
0.5849700292571275
 40
0.722764554716779
 40
0.8613220990393152
 40
0.9999999999999998
 40
0.9999999999999998
 40
0.9999999999999998
 40
0.9999999999999998
 10
1475.241551789452
 20
214.8325615194452
 30
0.0
 10
1475.256125619669
 20
214.8445641322722
 30
0.0
 10
1475.299345232841
 20
214.8801586380192
 30
0.0
 10
1475.631154894635
 20
214.9401644566982
 30
0.0
 10
1476.206451489097
 20
215.0098050858033
 30
0.0
 10
1476.950497913173
 20
215.0779081714032
 30
0.0
 10
1477.788069500798
 20
215.1396029997392
 30
0.0
 10
1478.666705538978
 20
215.1988861690753
 30
0.0
 10
1479.311939285016
 20
215.2383301681896
 30
0.0
 10
1479.634696216179
 20
215.2580607296881
 30
0.0
  0
LINE
  5
172C
330
1F
100
AcDbEntity
  8
0
 62
     3
100
AcDbLine
 10
1474.468235858488
 20
203.9670811935277
 30
0.0
 11
1488.468235858488
 21
203.9670811935277
 31
0.0
  0
LINE
  5
17A2
330
1F
100
AcDbEntity
  8
0
 62
     3
100
AcDbLine
 10
1474.468235858489
 20
201.9670811935277
 30
0.0
 11
1488.468235858489
 21
201.9670811935277
 31
0.0
  0
LINE
  5
18A0
330
1F
100
AcDbEntity
  8
0
 62
     3
100
AcDbLine
 10
1465.634902525154
 20
189.9670811935277
 30
0.0
 11
1497.301569191821
 21
189.9670811935277
 31
0.0
  0
LINE
  5
18C7
330
1F
100
AcDbEntity
  8
0
 62
     3
100
AcDbLine
 10
1465.634902525154
 20
187.300414526861
 30
0.0
 11
1497.301569191821
 21
187.300414526861
 31
0.0
  0
LINE
  5
18C8
330
1F
100
AcDbEntity
  8
0
 62
     3
100
AcDbLine
 10
1471.301569191821
 20
145.6337478601943
 30
0.0
 11
1491.634902525154
 21
145.6337478601943
 31
0.0
  0
LINE
  5
18C9
330
1F
100
AcDbEntity
  8
0
 62
     3
100
AcDbLine
 10
1471.301569191821
 20
144.9670811935277
 30
0.0
 11
1491.634902525154
 21
144.9670811935277
 31
0.0
  0
ARC
  5
18CC
330
1F
100
AcDbEntity
  8
0
 62
     3
100
AcDbCircle
 10
1481.468235858488
 20
148.4024978601943
 30
0.0
 40
10.10208333333326
100
AcDbArc
 50
199.8811460662286
 51
340.1188539337712
  0
LINE
  5
18CD
330
1F
100
AcDbEntity
  8
0
 62
     3
100
AcDbLine
 10
1491.634902525154
 20
145.6337478601943
 30
0.0
 11
1491.634902525154
 21
144.9670811935277
 31
0.0
  0
LINE
  5
18CE
330
1F
100
AcDbEntity
  8
0
 62
     3
100
AcDbLine
 10
1471.301569191821
 20
145.6337478601943
 30
0.0
 11
1471.301569191821
 21
144.9670811935277
 31
0.0
  0
ARC
  5
18D3
330
1F
100
AcDbEntity
  8
0
 62
     3
100
AcDbCircle
 10
1497.12299776325
 20
188.6337478601943
 30
0.0
 40
1.345238095238133
100
AcDbArc
 50
277.6281496685824
 51
82.37185033141754
  0
ARC
  5
18D4
330
1F
100
AcDbEntity
  8
0
 62
     3
100
AcDbCircle
 10
1465.813473953726
 20
188.6337478601943
 30
0.0
 40
1.345238095238092
100
AcDbArc
 50
97.62814966858243
 51
262.3718503314176
  0
ARC
  5
18E3
330
1F
100
AcDbEntity
  8
0
 62
     3
100
AcDbCircle
 10
1272.787680302932
 20
187.300414526861
 30
0.0
 40
219.0138888888888
100
AcDbArc
 50
349.0328191110691
 51
0.0
  0
ARC
  5
18E4
330
1F
100
AcDbEntity
  8
0
 62
     3
100
AcDbCircle
 10
1690.148791414043
 20
187.300414526861
 30
0.0
 40
219.0138888888888
100
AcDbArc
 50
180.0
 51
190.9671808889309
  0
ARC
  5
18E7
330
1F
100
AcDbEntity
  8
0
 62
     3
100
AcDbCircle
 10
1345.575378715638
 20
187.300414526861
 30
0.0
 40
151.7261904761829
100
AcDbArc
 50
344.0607792113557
 51
0.0
  0
ARC
  5
18E8
330
1F
100
AcDbEntity
  8
0
 62
     3
100
AcDbCircle
 10
1617.361093001345
 20
187.300414526861
 30
0.0
 40
151.7261904761904
100
AcDbArc
 50
180.0
 51
195.9392207886443
  0
ARC
  5
18ED
330
1F
100
AcDbEntity
  8
0
 62
     3
100
AcDbCircle
 10
1290.147723037975
 20
187.300414526861
 30
0.0
 40
202.4871794871795
100
AcDbArc
 50
348.1251678010336
 51
0.0
  0
ARC
  5
18EE
330
1F
100
AcDbEntity
  8
0
 62
     3
100
AcDbCircle
 10
1672.788748679001
 20
187.300414526861
 30
0.0
 40
202.4871794871795
100
AcDbArc
 50
180.0
 51
191.8748321989663
  0
LINE
  5
18EF
330
1F
100
AcDbEntity
  8
0
100
AcDbLine
 10
1470.347942320955
 20
182.9670811935277
 30
0.0
 11
1471.177775641506
 21
182.9670811935277
 31
0.0
  0
LINE
  5
18F0
330
1F
100
AcDbEntity
  8
0
100
AcDbLine
 10
1470.390483230224
 20
181.300414526861
 30
0.0
 11
1471.217104520084
 21
181.300414526861
 31
0.0
  0
LINE
  5
18F1
330
1F
100
AcDbEntity
  8
0
100
AcDbLine
 10
1470.809508626393
 20
172.9670811935277
 30
0.0
 11
1471.604427309658
 21
172.9670811935277
 31
0.0
  0
LINE
  5
18F2
330
1F
100
AcDbEntity
  8
0
100
AcDbLine
 10
1470.934697798982
 20
171.300414526861
 30
0.0
 11
1471.72012221919
 21
171.300414526861
 31
0.0
  0
LINE
  5
18F3
330
1F
100
AcDbEntity
  8
0
100
AcDbLine
 10
1471.728912170877
 20
163.300414526861
 30
0.0
 11
1472.453859166564
 21
163.300414526861
 31
0.0
  0
LINE
  5
18F4
330
1F
100
AcDbEntity
  8
0
100
AcDbLine
 10
1471.934871248428
 20
161.6337478601943
 30
0.0
 11
1472.644065606863
 21
161.6337478601943
 31
0.0
  0
LINE
  5
18F5
330
1F
100
AcDbEntity
  8
0
100
AcDbLine
 10
1473.349389833578
 20
152.300414526861
 30
0.0
 11
1473.949615823028
 21
152.300414526861
 31
0.0
  0
LINE
  5
18F6
330
1F
100
AcDbEntity
  8
0
100
AcDbLine
 10
1473.064071321489
 20
153.9670811935277
 30
0.0
 11
1473.686387253128
 21
153.9670811935277
 31
0.0
  0
LINE
  5
18F7
330
1F
100
AcDbEntity
  8
0
100
AcDbLine
 10
1491.75869607547
 20
182.9670811935277
 30
0.0
 11
1492.58852939602
 21
182.9670811935277
 31
0.0
  0
LINE
  5
18F8
330
1F
100
AcDbEntity
  8
0
100
AcDbLine
 10
1491.719367196891
 20
181.300414526861
 30
0.0
 11
1492.545988486751
 21
181.300414526861
 31
0.0
  0
LINE
  5
18F9
330
1F
100
AcDbEntity
  8
0
100
AcDbLine
 10
1491.332044407317
 20
172.9670811935277
 30
0.0
 11
1492.126963090582
 21
172.9670811935277
 31
0.0
  0
LINE
  5
18FA
330
1F
100
AcDbEntity
  8
0
100
AcDbLine
 10
1491.216349497785
 20
171.300414526861
 30
0.0
 11
1492.001773917994
 21
171.300414526861
 31
0.0
  0
LINE
  5
18FB
330
1F
100
AcDbEntity
  8
0
100
AcDbLine
 10
1490.482612550411
 20
163.300414526861
 30
0.0
 11
1491.207559546098
 21
163.300414526861
 31
0.0
  0
LINE
  5
18FC
330
1F
100
AcDbEntity
  8
0
100
AcDbLine
 10
1490.292406110112
 20
161.6337478601943
 30
0.0
 11
1491.001600468547
 21
161.6337478601943
 31
0.0
  0
LINE
  5
18FD
330
1F
100
AcDbEntity
  8
0
100
AcDbLine
 10
1489.250084463847
 20
153.9670811935277
 30
0.0
 11
1489.872400395487
 21
153.9670811935277
 31
0.0
  0
LINE
  5
18FE
330
1F
100
AcDbEntity
  8
0
100
AcDbLine
 10
1488.986855893947
 20
152.300414526861
 30
0.0
 11
1489.587081883397
 21
152.300414526861
 31
0.0
  0
ARC
  5
1901
330
1F
100
AcDbEntity
  8
0
 62
     3
100
AcDbCircle
 10
1483.979797906048
 20
189.4119347377964
 30
0.0
 40
13.33333333333333
100
AcDbArc
 50
2.386255959383174
 51
70.32813888060307
  0
ARC
  5
1902
330
1F
100
AcDbEntity
  8
0
 62
     3
100
AcDbCircle
 10
1478.956673810928
 20
189.411934737797
 30
0.0
 40
13.33333333333333
100
AcDbArc
 50
109.6718611193969
 51
177.613744040607
  0
LINE
  5
1983
330
1F
100
AcDbEntity
  8
0
 62
     3
100
AcDbLine
 10
1484.149447001424
 20
191.300414526861
 30
0.0
 11
1486.886236842576
 21
191.300414526861
 31
0.0
  0
ARC
  5
1984
330
1F
100
AcDbEntity
  8
0
 62
     3
100
AcDbCircle
 10
1484.438671196228
 20
197.6393301350367
 30
0.0
 40
0.3278020064771058
100
AcDbArc
 50
91.01018510920464
 51
180.9757604995139
  0
ARC
  5
1985
330
1F
100
AcDbEntity
  8
0
 62
     3
100
AcDbCircle
 10
1484.524944211262
 20
197.6393301350367
 30
0.0
 40
0.3278020064771058
100
AcDbArc
 50
91.01018510920464
 51
180.9757604995139
  0
LINE
  5
1986
330
1F
100
AcDbEntity
  8
0
 62
     3
100
AcDbLine
 10
1484.470868723771
 20
192.1337478601943
 30
0.0
 11
1484.470868723771
 21
191.6337478601943
 31
0.0
  0
LINE
  5
1987
330
1F
100
AcDbEntity
  8
0
 62
     3
100
AcDbLine
 10
1484.197189739655
 20
197.6337478601943
 30
0.0
 11
1484.197189739655
 21
192.1337478601943
 31
0.0
  0
LINE
  5
1988
330
1F
100
AcDbEntity
  8
0
 62
     3
100
AcDbLine
 10
1486.354424085035
 20
197.9670811935277
 30
0.0
 11
1484.432892000051
 21
197.9670811935277
 31
0.0
  0
ARC
  5
1989
330
1F
100
AcDbEntity
  8
0
 62
     3
100
AcDbCircle
 10
1486.348644888858
 20
197.6393301350367
 30
0.0
 40
0.3278020064771058
100
AcDbArc
 50
359.0242395004862
 51
88.98981489079538
  0
LINE
  5
198A
330
1F
100
AcDbEntity
  8
0
 62
     3
100
AcDbLine
 10
1486.676399360464
 20
192.1337478601943
 30
0.0
 11
1486.676399360464
 21
197.6337478601943
 31
0.0
  0
LINE
  5
198B
330
1F
100
AcDbEntity
  8
0
 62
     3
100
AcDbLine
 10
1486.402720376349
 20
192.1337478601943
 30
0.0
 11
1486.676399360464
 21
192.1337478601943
 31
0.0
  0
LINE
  5
198C
330
1F
100
AcDbEntity
  8
0
 62
     3
100
AcDbLine
 10
1486.402720376349
 20
192.1337478601943
 30
0.0
 11
1486.402720376349
 21
191.6337478601943
 31
0.0
  0
ELLIPSE
  5
198D
330
1F
100
AcDbEntity
  8
0
 62
     3
100
AcDbEllipse
 10
1485.43679455006
 20
196.300414526861
 30
0.0
 11
0.0
 21
0.9666666666666779
 31
0.0
210
0.0
220
0.0
230
1.0
 40
0.6328479551549047
 41
0.0
 42
6.283185307179584
  0
LINE
  5
198E
330
1F
100
AcDbEntity
  8
0
 62
     3
100
AcDbLine
 10
1484.110916724621
 20
192.1337478601943
 30
0.0
 11
1484.470868723771
 21
192.1337478601943
 31
0.0
  0
LINE
  5
198F
330
1F
100
AcDbEntity
  8
0
 62
     3
100
AcDbLine
 10
1484.110916724621
 20
197.6337478601943
 30
0.0
 11
1484.110916724621
 21
192.1337478601943
 31
0.0
  0
LINE
  5
1990
330
1F
100
AcDbEntity
  8
0
 62
     3
100
AcDbLine
 10
1484.133760459542
 20
191.6337478601943
 30
0.0
 11
1484.384595708737
 21
191.6337478601943
 31
0.0
  0
LINE
  5
1991
330
1F
100
AcDbEntity
  8
0
 62
     3
100
AcDbLine
 10
1484.384595708737
 20
192.1337478601943
 30
0.0
 11
1484.384595708737
 21
191.6337478601943
 31
0.0
  0
ELLIPSE
  5
1992
330
1F
100
AcDbEntity
  8
0
 62
     3
100
AcDbEllipse
 10
1485.350521535026
 20
196.300414526861
 30
0.0
 11
0.0
 21
0.9666666666666779
 31
0.0
210
0.0
220
0.0
230
1.0
 40
0.6328479551549047
 41
3.212164162708233
 42
6.21261379806125
  0
ELLIPSE
  5
1993
330
1F
100
AcDbEntity
  8
0
 62
     3
100
AcDbEllipse
 10
1484.384595708737
 20
191.6337478601943
 30
0.0
 11
0.0
 21
-0.3333333333333333
 31
0.0
210
0.0
220
0.0
230
1.0
 40
0.2588190451025412
 41
6.283185307179584
 42
7.853981633974482
  0
ELLIPSE
  5
1994
330
1F
100
AcDbEntity
  8
0
 62
     3
100
AcDbEllipse
 10
1486.316447361315
 20
191.6337478601943
 30
0.0
 11
0.0
 21
-0.3333333333333333
 31
0.0
210
0.0
220
0.0
230
1.0
 40
0.2588190451025412
 41
6.283185307179584
 42
7.853981633974482
  0
ARC
  5
1995
330
1F
100
AcDbEntity
  8
0
 62
     3
100
AcDbCircle
 10
1443.526483384799
 20
189.7942899438067
 30
0.0
 40
43.38590359988959
100
AcDbArc
 50
1.989400164512418
 51
5.978675347837891
  0
ARC
  5
1996
330
1F
100
AcDbEntity
  8
0
 62
     3
100
AcDbCircle
 10
1442.847830125015
 20
189.9620388726221
 30
0.0
 40
41.32329616569239
100
AcDbArc
 50
1.856015766993429
 51
9.940506877464091
  0
ARC
  5
1997
330
1F
100
AcDbEntity
  8
0
 62
     3
100
AcDbCircle
 10
1485.457197412617
 20
197.5447502516741
 30
0.0
 40
1.958654903334853
100
AcDbArc
 50
155.6003789242452
 51
193.2599748643535
  0
ARC
  5
1998
330
1F
100
AcDbEntity
  8
0
 62
     3
100
AcDbCircle
 10
1484.523954898599
 20
197.8951232156857
 30
0.0
 40
0.9663119963178788
100
AcDbArc
 50
93.63994276194899
 51
151.6577591342968
  0
ARC
  5
1999
330
1F
100
AcDbEntity
  8
0
 62
     3
100
AcDbCircle
 10
1484.412104958721
 20
197.0927460785373
 30
0.0
 40
1.767461464758568
100
AcDbArc
 50
29.64892284935345
 51
88.36264125431108
  0
ARC
  5
199A
330
1F
100
AcDbEntity
  8
0
 62
     3
100
AcDbCircle
 10
1442.173514765231
 20
215.1269628712284
 30
0.0
 40
32.21217050457222
100
AcDbArc
 50
322.1014950123681
 51
328.6750663688756
  0
ARC
  5
199B
330
1F
100
AcDbEntity
  8
0
 62
     3
100
AcDbCircle
 10
1474.219646540978
 20
193.0750368946281
 30
0.0
 40
7.181940681633987
100
AcDbArc
 50
130.9487717344269
 51
160.379490851459
  0
ARC
  5
199C
330
1F
100
AcDbEntity
  8
0
 62
     3
100
AcDbCircle
 10
1469.875628459181
 20
198.081123964728
 30
0.0
 40
0.5538639852921305
100
AcDbArc
 50
108.976811327779
 51
130.937432246061
  0
ARC
  5
199D
330
1F
100
AcDbEntity
  8
0
 62
     3
100
AcDbCircle
 10
1469.689430306907
 20
198.5468191472869
 30
0.0
 40
0.0583848880625799
100
AcDbArc
 50
345.909258106213
 51
84.01306888312708
  0
ARC
  5
199E
330
1F
100
AcDbEntity
  8
0
 62
     3
100
AcDbCircle
 10
1469.472891794551
 20
198.5462247908818
 30
0.0
 40
0.2735060089779331
100
AcDbArc
 50
322.6117807384411
 51
357.1456301025473
  0
ARC
  5
199F
330
1F
100
AcDbEntity
  8
0
 62
     3
100
AcDbCircle
 10
1467.424906800662
 20
195.4510708608569
 30
0.0
 40
0.2006674826361322
100
AcDbArc
 50
292.1909970707367
 51
326.4491210481503
  0
ARC
  5
19A0
330
1F
100
AcDbEntity
  8
0
 62
     3
100
AcDbCircle
 10
1467.787298791653
 20
195.3377642059748
 30
0.0
 40
0.3643950629969454
100
AcDbArc
 50
155.8838007973666
 51
189.4210113880196
  0
ARC
  5
19A1
330
1F
100
AcDbEntity
  8
0
 62
     3
100
AcDbCircle
 10
1467.471982592477
 20
195.315499475749
 30
0.0
 40
0.0578609657581053
100
AcDbArc
 50
220.2460020395869
 51
299.7543421936157
  0
LINE
  5
1EBF
330
1F
100
AcDbEntity
  8
0
 62
     7
100
AcDbLine
 10
1535.774331774283
 20
112.3138196775948
 30
0.0
 11
1606.799133517029
 21
112.3138196775948
 31
0.0
  0
LINE
  5
1EC0
330
1F
100
AcDbEntity
  8
0
 62
     7
100
AcDbLine
 10
1535.774331774283
 20
123.3138196775948
 30
0.0
 11
1606.799133517029
 21
123.3138196775948
 31
0.0
  0
LINE
  5
1EC1
330
1F
100
AcDbEntity
  8
0
 62
     7
100
AcDbLine
 10
1546.165322243951
 20
128.8138196775948
 30
0.0
 11
1606.799133517029
 21
128.8138196775948
 31
0.0
  0
LINE
  5
1EC2
330
1F
100
AcDbEntity
  8
0
 62
     7
100
AcDbLine
 10
1546.165322243951
 20
134.3138196775947
 30
0.0
 11
1606.799133517029
 21
134.3138196775947
 31
0.0
  0
LINE
  5
1EC3
330
1F
100
AcDbEntity
  8
0
 62
     7
100
AcDbLine
 10
1546.165322243951
 20
139.8138196775948
 30
0.0
 11
1606.799133517029
 21
139.8138196775948
 31
0.0
  0
LINE
  5
1EC4
330
1F
100
AcDbEntity
  8
0
 62
     7
100
AcDbLine
 10
1546.165322243951
 20
145.3138196775948
 30
0.0
 11
1606.799133517029
 21
145.3138196775948
 31
0.0
  0
LINE
  5
1EC5
330
1F
100
AcDbEntity
  8
0
 62
     7
100
AcDbLine
 10
1546.165322243951
 20
150.8138196775948
 30
0.0
 11
1606.799133517029
 21
150.8138196775948
 31
0.0
  0
LINE
  5
1EC6
330
1F
100
AcDbEntity
  8
0
 62
     7
100
AcDbLine
 10
1535.774331774283
 20
167.313819677595
 30
0.0
 11
1606.799133517029
 21
167.313819677595
 31
0.0
  0
LINE
  5
1EC7
330
1F
100
AcDbEntity
  8
0
 62
     7
100
AcDbLine
 10
1535.774331774283
 20
172.8138196775951
 30
0.0
 11
1606.799133517029
 21
172.8138196775951
 31
0.0
  0
LINE
  5
1EC8
330
1F
100
AcDbEntity
  8
0
 62
     7
100
AcDbLine
 10
1535.774331774283
 20
178.313819677595
 30
0.0
 11
1606.799133517029
 21
178.313819677595
 31
0.0
  0
LINE
  5
1EC9
330
1F
100
AcDbEntity
  8
0
 62
     7
100
AcDbLine
 10
1535.774331774283
 20
183.813819677595
 30
0.0
 11
1606.799133517029
 21
183.813819677595
 31
0.0
  0
LINE
  5
1ECA
330
1F
100
AcDbEntity
  8
0
 62
     7
100
AcDbLine
 10
1535.774331774283
 20
189.3138196775949
 30
0.0
 11
1606.799133517029
 21
189.3138196775949
 31
0.0
  0
TEXT
  5
1ECB
330
1F
100
AcDbEntity
  8
0
 62
     3
100
AcDbText
 10
1562.202427347046
 20
107.8138196775948
 30
0.0
 40
3.2
  1
820g
 41
0.8
  7
高3.2
100
AcDbText
  0
TEXT
  5
1ECC
330
1F
100
AcDbEntity
  8
0
 62
     3
100
AcDbText
 10
1537.274331774283
 20
107.8138196775948
 30
0.0
 40
3.2
  1
質　　　量
  7
高3.2
100
AcDbText
  0
TEXT
  5
1ECD
330
1F
100
AcDbEntity
  8
0
 62
     3
100
AcDbText
 10
1537.274331774283
 20
118.8138196775948
 30
0.0
 40
3.2
  1
球　寿　命
  7
高3.2
100
AcDbText
  0
TEXT
  5
1ECE
330
1F
100
AcDbEntity
  8
0
 62
     3
100
AcDbText
 10
1537.274331774283
 20
113.3138196775948
 30
0.0
 40
3.2
  1
使用環境温度
  7
高3.2
100
AcDbText
  0
TEXT
  5
1ECF
330
1F
100
AcDbEntity
  8
0
 62
     3
100
AcDbText
 10
1537.274331774283
 20
162.813819677595
 30
0.0
 40
3.2
  1
定格消費電力
  7
高3.2
100
AcDbText
  0
TEXT
  5
1ED0
330
1F
100
AcDbEntity
  8
0
 62
     3
100
AcDbText
 10
1537.274331774283
 20
168.313819677595
 30
0.0
 40
3.2
  1
定格　電流
  7
高3.2
100
AcDbText
  0
TEXT
  5
1ED1
330
1F
100
AcDbEntity
  8
0
 62
     3
100
AcDbText
 10
1537.274331774283
 20
173.8138196775949
 30
0.0
 40
3.2
  1
入力電圧範囲
 41
0.9
  7
高3.2
100
AcDbText
  0
TEXT
  5
1ED2
330
1F
100
AcDbEntity
  8
0
 62
     3
100
AcDbText
 10
1537.274331774283
 20
179.313819677595
 30
0.0
 40
3.2
  1
周　波　数
  7
高3.2
100
AcDbText
  0
TEXT
  5
1ED3
330
1F
100
AcDbEntity
  8
0
 62
     3
100
AcDbText
 10
1537.274331774283
 20
184.8138196775949
 30
0.0
 40
3.2
  1
定格　電圧
  7
高3.2
100
AcDbText
  0
TEXT
  5
1ED4
330
1F
100
AcDbEntity
  8
0
 62
     3
100
AcDbText
 10
1537.274331774284
 20
206.813819677595
 30
0.0
 40
3.2
  1
色　温　度
  7
高3.2
100
AcDbText
  0
TEXT
  5
1ED5
330
1F
100
AcDbEntity
  8
0
 62
     3
100
AcDbText
 10
1537.274331774284
 20
212.313819677595
 30
0.0
 40
3.2
  1
定格　光束
  7
高3.2
100
AcDbText
  0
TEXT
  5
1ED6
330
1F
100
AcDbEntity
  8
0
 62
     3
100
AcDbText
 10
1537.274331774284
 20
217.813819677595
 30
0.0
 40
3.2
  1
光　　　源
  7
高3.2
100
AcDbText
  0
TEXT
  5
1ED7
330
1F
100
AcDbEntity
  8
0
 62
     3
100
AcDbText
 10
1537.274331774282
 20
151.8138196775946
 30
0.0
 40
3.2
  1
照度
  7
高3.2
100
AcDbText
  0
LINE
  5
1ED8
330
1F
100
AcDbEntity
  8
0
 62
     7
100
AcDbLine
 10
1535.774331774285
 20
211.313819677595
 30
0.0
 11
1606.79913351703
 21
211.313819677595
 31
0.0
  0
LINE
  5
1ED9
330
1F
100
AcDbEntity
  8
0
 62
     7
100
AcDbLine
 10
1535.774331774285
 20
216.8138196775951
 30
0.0
 11
1606.79913351703
 21
216.8138196775951
 31
0.0
  0
LINE
  5
1EDA
330
1F
100
AcDbEntity
  8
0
 62
     7
100
AcDbLine
 10
1535.774331774285
 20
233.3138196775952
 30
0.0
 11
1606.799133517031
 21
233.3138196775952
 31
0.0
  0
LINE
  5
1EDB
330
1F
100
AcDbEntity
  8
0
100
AcDbLine
 10
1546.165322243951
 20
150.8138196775948
 30
0.0
 11
1546.165322243951
 21
123.3138196775948
 31
0.0
  0
TEXT
  5
1EDC
330
1F
100
AcDbEntity
  8
0
 62
     3
100
AcDbText
 10
1547.665322243951
 20
146.3138196775946
 30
0.0
 40
3.2
  1
1m
  7
高3.2
100
AcDbText
  0
TEXT
  5
1EDD
330
1F
100
AcDbEntity
  8
0
 62
     3
100
AcDbText
 10
1547.665322243951
 20
140.8138196775948
 30
0.0
 40
3.2
  1
2m
  7
高3.2
100
AcDbText
  0
TEXT
  5
1EDE
330
1F
100
AcDbEntity
  8
0
 62
     3
100
AcDbText
 10
1547.665322243951
 20
135.3138196775948
 30
0.0
 40
3.2
  1
3m
  7
高3.2
100
AcDbText
  0
TEXT
  5
1EDF
330
1F
100
AcDbEntity
  8
0
 62
     3
100
AcDbText
 10
1547.665322243951
 20
129.8138196775948
 30
0.0
 40
3.2
  1
4m
  7
高3.2
100
AcDbText
  0
TEXT
  5
1EE0
330
1F
100
AcDbEntity
  8
0
 62
     3
100
AcDbText
 10
1547.665322243951
 20
124.3138196775948
 30
0.0
 40
3.2
  1
5m
  7
高3.2
100
AcDbText
  0
LINE
  5
1EE1
330
1F
100
AcDbEntity
  8
0
 62
     3
100
AcDbLine
 10
1535.774331774283
 20
106.8138196775948
 30
0.0
 11
1606.799133517029
 21
106.8138196775948
 31
0.0
  0
TEXT
  5
1EE2
330
1F
100
AcDbEntity
  8
0
 62
     3
100
AcDbText
 10
1562.202427347048
 20
217.813819677595
 30
0.0
 40
3.2
  1
LED
 41
0.8
  7
高3.2
100
AcDbText
  0
TEXT
  5
1EE3
330
1F
100
AcDbEntity
  8
0
 62
     3
100
AcDbText
 10
1562.202427347048
 20
212.313819677595
 30
0.0
 40
3.2
  1
6090Lm
 41
0.8
  7
高3.2
100
AcDbText
  0
TEXT
  5
1EE4
330
1F
100
AcDbEntity
  8
0
 62
     3
100
AcDbText
 10
1562.202427347048
 20
206.813819677595
 30
0.0
 40
3.2
  1
5000K
 41
0.8
  7
高3.2
100
AcDbText
  0
TEXT
  5
1EE5
330
1F
100
AcDbEntity
  8
0
 62
     3
100
AcDbText
 10
1562.202427347046
 20
184.8138196775949
 30
0.0
 40
3.2
  1
AC100V (200V)
 41
0.8
  7
高3.2
100
AcDbText
  0
TEXT
  5
1EE6
330
1F
100
AcDbEntity
  8
0
 62
     3
100
AcDbText
 10
1562.202427347046
 20
179.313819677595
 30
0.0
 40
3.2
  1
50/60Hz
 41
0.8
  7
高3.2
100
AcDbText
  0
TEXT
  5
1EE7
330
1F
100
AcDbEntity
  8
0
 62
     3
100
AcDbText
 10
1562.202427347046
 20
173.8138196775949
 30
0.0
 40
3.2
  1
AC90～277V
 41
0.8
  7
高3.2
100
AcDbText
  0
TEXT
  5
1EE8
330
1F
100
AcDbEntity
  8
0
 62
     3
100
AcDbText
 10
1562.202427347046
 20
168.313819677595
 30
0.0
 40
3.2
  1
0.46A (0.24A)
 41
0.8
  7
高3.2
100
AcDbText
  0
TEXT
  5
1EE9
330
1F
100
AcDbEntity
  8
0
 62
     3
100
AcDbText
 10
1562.202427347046
 20
162.813819677595
 30
0.0
 40
3.2
  1
46W (46W)
 41
0.8
  7
高3.2
100
AcDbText
  0
TEXT
  5
1EEA
330
1F
100
AcDbEntity
  8
0
 62
     3
100
AcDbText
 10
1562.202427347046
 20
146.3138196775946
 30
0.0
 40
3.2
  1
450Lx
 41
0.8
  7
高3.2
100
AcDbText
  0
TEXT
  5
1EEB
330
1F
100
AcDbEntity
  8
0
 62
     3
100
AcDbText
 10
1562.202427347046
 20
140.8138196775948
 30
0.0
 40
3.2
  1
120Lx
 41
0.8
  7
高3.2
100
AcDbText
  0
TEXT
  5
1EEC
330
1F
100
AcDbEntity
  8
0
 62
     3
100
AcDbText
 10
1562.202427347046
 20
135.3138196775948
 30
0.0
 40
3.2
  1
60Lx
 41
0.8
  7
高3.2
100
AcDbText
  0
TEXT
  5
1EED
330
1F
100
AcDbEntity
  8
0
 62
     3
100
AcDbText
 10
1562.202427347046
 20
129.8138196775948
 30
0.0
 40
3.2
  1
30Lx
 41
0.8
  7
高3.2
100
AcDbText
  0
TEXT
  5
1EEE
330
1F
100
AcDbEntity
  8
0
 62
     3
100
AcDbText
 10
1562.202427347046
 20
124.3138196775948
 30
0.0
 40
3.2
  1
20Lx
 41
0.8
  7
高3.2
100
AcDbText
  0
TEXT
  5
1EEF
330
1F
100
AcDbEntity
  8
0
 62
     3
100
AcDbText
 10
1562.202427347046
 20
118.8138196775948
 30
0.0
 40
3.2
  1
40000時間
 41
0.8
  7
高3.2
100
AcDbText
  0
TEXT
  5
1EF0
330
1F
100
AcDbEntity
  8
0
 62
     3
100
AcDbText
 10
1562.202427347046
 20
113.3138196775948
 30
0.0
 40
3.2
  1
-30～50℃
 41
0.8
  7
高3.2
100
AcDbText
  0
LINE
  5
1EF1
330
1F
100
AcDbEntity
  8
0
 62
     3
100
AcDbLine
 10
1535.774331774285
 20
238.813819677595
 30
0.0
 11
1535.774331774283
 21
106.8138196775948
 31
0.0
  0
LINE
  5
1EF2
330
1F
100
AcDbEntity
  8
0
 62
     7
100
AcDbLine
 10
1560.702427347046
 20
106.8138196775948
 30
0.0
 11
1560.702427347049
 21
238.813819677595
 31
0.0
  0
LINE
  5
1EF3
330
1F
100
AcDbEntity
  8
0
 62
     3
100
AcDbLine
 10
1606.799133517029
 20
106.8138196775948
 30
0.0
 11
1606.799133517031
 21
238.813819677595
 31
0.0
  0
TEXT
  5
1EF4
330
1F
100
AcDbEntity
  8
0
 62
     3
100
AcDbText
 10
1554.942709256414
 20
243.4784703668023
 30
0.0
 40
4.5
  1
主　　仕　　様
  7
高4.5
100
AcDbText
  0
LINE
  5
1EF5
330
1F
100
AcDbEntity
  8
0
100
AcDbLine
 10
1553.841794888659
 20
242.6127172829595
 30
0.0
 11
1592.434015168346
 21
242.6127172829595
 31
0.0
  0
TEXT
  5
1EF6
330
1F
100
AcDbEntity
  8
0
 62
     7
100
AcDbText
 10
1531.291397330257
 20
91.06610703537755
 30
0.0
 40
2.5
  1
注４）照度は当社実測値の為、使用環境下により異なります。
 41
0.8
  7
高2.5
100
AcDbText
  0
TEXT
  5
1EF7
330
1F
100
AcDbEntity
  8
0
 62
     7
100
AcDbText
 10
1531.291397330257
 20
88.0661070353776
 30
0.0
 40
2.5
  1
注５）球寿命は光束が70%%%に低下するまでの時間です。
 41
0.8
  7
高2.5
100
AcDbText
  0
TEXT
  5
1EF8
330
1F
100
AcDbEntity
  8
0
 62
     7
100
AcDbText
 10
1531.291397330257
 20
85.06610703537758
 30
0.0
 40
2.5
  1
　　　表示は設計値であり、製品の寿命を保証するものではありません。
 41
0.8
  7
高2.5
100
AcDbText
  0
TEXT
  5
1EF9
330
1F
100
AcDbEntity
  8
0
 62
     7
100
AcDbText
 10
1531.291397330257
 20
94.06610703537756
 30
0.0
 40
2.5
  1
注３）()内数値は入力200Vでの値です。
 41
0.8
  7
高2.5
100
AcDbText
  0
TEXT
  5
1EFA
330
1F
100
AcDbEntity
  8
0
 62
     7
100
AcDbText
 10
1531.291397330257
 20
97.06610703537755
 30
0.0
 40
2.5
  1
注２）LEDの光色、明るさにはバラツキがあります。
 41
0.8
  7
高2.5
100
AcDbText
  0
TEXT
  5
1EFB
330
1F
100
AcDbEntity
  8
0
 62
     7
100
AcDbText
 10
1531.291397330257
 20
100.0661070353775
 30
0.0
 40
2.5
  1
注１）当器具のLED素子交換はできません。
 41
0.8
  7
高2.5
100
AcDbText
  0
TEXT
  5
1EFC
330
1F
100
AcDbEntity
  8
0
 62
     7
100
AcDbText
 10
1531.291397330257
 20
82.06610703537755
 30
0.0
 40
2.5
  1
注６）安全にご使用いただくため、取扱説明書をご参照ください。
 41
0.8
  7
高2.5
100
AcDbText
  0
TEXT
  5
1EFD
330
1F
100
AcDbEntity
  8
0
 62
     3
100
AcDbText
 10
1537.274331774284
 20
234.313819677595
 30
0.0
 40
3.2
  1
型　　　式
  7
高3.2
100
AcDbText
  0
LINE
  5
1EFE
330
1F
100
AcDbEntity
  8
0
 62
     3
100
AcDbLine
 10
1535.774331774285
 20
238.813819677595
 30
0.0
 11
1606.799133517031
 21
238.813819677595
 31
0.0
  0
TEXT
  5
1EFF
330
1F
100
AcDbEntity
  8
0
 62
     3
100
AcDbText
 10
1562.202427347049
 20
234.313819677595
 30
0.0
 40
3.2
  1
LC50W-E39-50K
 41
0.8
  7
高3.2
100
AcDbText
  0
TEXT
  5
1F00
330
1F
100
AcDbEntity
  8
0
 62
     7
100
AcDbText
 10
1531.291397330257
 20
79.06610703537755
 30
0.0
 40
2.5
  1
注７）仕様変更は予告なく行う場合があります。予めご了承ください。
 41
0.8
  7
高2.5
100
AcDbText
  0
TEXT
  5
1F01
330
1F
100
AcDbEntity
  8
0
 62
     3
100
AcDbText
 10
1537.274331774284
 20
223.3138196775952
 30
0.0
 40
3.2
  1
口金サイズ
  7
高3.2
100
AcDbText
  0
LINE
  5
1F02
330
1F
100
AcDbEntity
  8
0
 62
     7
100
AcDbLine
 10
1535.774331774285
 20
222.3138196775952
 30
0.0
 11
1606.79913351703
 21
222.3138196775952
 31
0.0
  0
TEXT
  5
1F03
330
1F
100
AcDbEntity
  8
0
 62
     3
100
AcDbText
 10
1562.202427347048
 20
223.3138196775952
 30
0.0
 40
3.2
  1
E39
 41
0.8
  7
高3.2
100
AcDbText
  0
LINE
  5
1F04
330
1F
100
AcDbEntity
  8
0
 62
     7
100
AcDbLine
 10
1535.774331774283
 20
117.8138196775948
 30
0.0
 11
1606.799133517029
 21
117.8138196775948
 31
0.0
  0
TEXT
  5
1F05
330
1F
100
AcDbEntity
  8
0
 62
     3
100
AcDbText
 10
1537.274331774284
 20
228.8138196775952
 30
0.0
 40
3.2
  1
使用　場所
  7
高3.2
100
AcDbText
  0
TEXT
  5
1F06
330
1F
100
AcDbEntity
  8
0
 62
     3
100
AcDbText
 10
1562.20242734705
 20
228.8138196775952
 30
0.0
 40
3.2
  1
屋内型
  7
高3.2
100
AcDbText
  0
LINE
  5
1F07
330
1F
100
AcDbEntity
  8
0
 62
     7
100
AcDbLine
 10
1535.774331774285
 20
227.8138196775952
 30
0.0
 11
1606.799133517031
 21
227.8138196775952
 31
0.0
  0
TEXT
  5
1F08
330
1F
100
AcDbEntity
  8
0
 62
     3
100
AcDbText
 10
1537.274331774282
 20
201.3138196775951
 30
0.0
 40
3.2
  1
平均演色評価数
 41
0.8
  7
高3.2
100
AcDbText
  0
LINE
  5
1F09
330
1F
100
AcDbEntity
  8
0
 62
     7
100
AcDbLine
 10
1535.774331774285
 20
205.813819677595
 30
0.0
 11
1606.79913351703
 21
205.813819677595
 31
0.0
  0
TEXT
  5
1F0A
330
1F
100
AcDbEntity
  8
0
 62
     3
100
AcDbText
 10
1562.202427347046
 20
201.3138196775951
 30
0.0
 40
3.2
  1
Ra75
 41
0.8
  7
高3.2
100
AcDbText
  0
LINE
  5
1F0B
330
1F
100
AcDbEntity
  8
0
 62
     7
100
AcDbLine
 10
1535.774331774283
 20
161.8138196775948
 30
0.0
 11
1606.799133517029
 21
161.8138196775948
 31
0.0
  0
TEXT
  5
1F0C
330
1F
100
AcDbEntity
  8
0
 62
     3
100
AcDbText
 10
1537.274331774283
 20
157.3138196775948
 30
0.0
 40
3.2
  1
固有エネルギー消費効率
 41
0.5
  7
高3.2
100
AcDbText
  0
TEXT
  5
1F0D
330
1F
100
AcDbEntity
  8
0
 62
     3
100
AcDbText
 10
1562.202427347046
 20
157.3138196775948
 30
0.0
 40
3.2
  1
132.3Lm/W (132.3Lm/W)
 41
0.7
  7
高3.2
100
AcDbText
  0
LINE
  5
201B
330
1F
100
AcDbEntity
  8
0
100
AcDbLine
 10
1583.750780432037
 20
123.3138196775948
 30
0.0
 11
1583.750780432037
 21
156.313819677595
 31
0.0
  0
LINE
  5
201C
330
1F
100
AcDbEntity
  8
0
 62
     7
100
AcDbLine
 10
1535.774331774283
 20
156.313819677595
 30
0.0
 11
1606.799133517029
 21
156.313819677595
 31
0.0
  0
TEXT
  5
201D
330
1F
100
AcDbEntity
  8
0
 62
     3
100
AcDbText
 10
1562.202427347046
 20
151.8138196775946
 30
0.0
 40
3.2
  1
下面
 41
0.8
  7
高3.2
100
AcDbText
  0
TEXT
  5
201E
330
1F
100
AcDbEntity
  8
0
 62
     3
100
AcDbText
 10
1585.250780432037
 20
151.8138196775946
 30
0.0
 40
3.2
  1
側面
 41
0.8
  7
高3.2
100
AcDbText
  0
TEXT
  5
201F
330
1F
100
AcDbEntity
  8
0
 62
     3
100
AcDbText
 10
1585.250780432037
 20
146.3138196775946
 30
0.0
 40
3.2
  1
490Lx
 41
0.8
  7
高3.2
100
AcDbText
  0
TEXT
  5
2020
330
1F
100
AcDbEntity
  8
0
 62
     3
100
AcDbText
 10
1585.250780432037
 20
140.8138196775948
 30
0.0
 40
3.2
  1
130Lx
 41
0.8
  7
高3.2
100
AcDbText
  0
TEXT
  5
2021
330
1F
100
AcDbEntity
  8
0
 62
     3
100
AcDbText
 10
1585.250780432037
 20
135.3138196775948
 30
0.0
 40
3.2
  1
60Lx
 41
0.8
  7
高3.2
100
AcDbText
  0
TEXT
  5
2022
330
1F
100
AcDbEntity
  8
0
 62
     3
100
AcDbText
 10
1585.250780432037
 20
129.8138196775948
 30
0.0
 40
3.2
  1
40Lx
 41
0.8
  7
高3.2
100
AcDbText
  0
TEXT
  5
2023
330
1F
100
AcDbEntity
  8
0
 62
     3
100
AcDbText
 10
1585.250780432037
 20
124.3138196775948
 30
0.0
 40
3.2
  1
20Lx
 41
0.8
  7
高3.2
100
AcDbText
  0
TEXT
  5
2024
330
1F
100
AcDbEntity
  8
0
 62
     3
100
AcDbText
 10
1537.274331774282
 20
195.8138196775951
 30
0.0
 40
3.2
  1
照射　角度
 41
0.8
  7
高3.2
100
AcDbText
  0
LINE
  5
2025
330
1F
100
AcDbEntity
  8
0
 62
     7
100
AcDbLine
 10
1535.774331774284
 20
200.313819677595
 30
0.0
 11
1606.799133517029
 21
200.313819677595
 31
0.0
  0
TEXT
  5
2026
330
1F
100
AcDbEntity
  8
0
 62
     3
100
AcDbText
 10
1562.202427347046
 20
195.8138196775951
 30
0.0
 40
3.2
  1
252\U+00B0[1/2ビーム角]
 41
0.8
  7
高3.2
100
AcDbText
  0
LINE
  5
2027
330
1F
100
AcDbEntity
  8
0
 62
     7
100
AcDbLine
 10
1560.702427347048
 20
194.813819677596
 30
0.0
 11
1606.799133517028
 21
194.813819677595
 31
0.0
  0
TEXT
  5
2028
330
1F
100
AcDbEntity
  8
0
 62
     3
100
AcDbText
 10
1562.202427347045
 20
190.3138196775951
 30
0.0
 40
3.2
  1
320\U+00B0[1/10ビーム角]
 41
0.8
  7
高3.2
100
AcDbText
  0
TEXT
  5
21BB
330
1F
100
AcDbEntity
  8
0
 62
     4
100
AcDbText
 10
1511.700049616038
 20
150.4350557468947
 30
0.0
 40
3.0
  1
シリコン
 41
0.8
100
AcDbText
1001
ACAD
1000
MTEXTBEGIN
1070
    73
1070
     1
1070
    44
1040
0.8
1070
    74
1070
     0
1000
MTEXTEND
  0
TEXT
  5
21BC
330
1F
100
AcDbEntity
  8
0
 62
     4
100
AcDbText
 10
1512.020049616038
 20
146.4350557468947
 30
0.0
 40
3.0
  1
(黄)
 41
0.8
100
AcDbText
1001
ACAD
1000
MTEXTBEGIN
1070
    73
1070
     1
1070
    44
1040
0.8
1070
    74
1070
     0
1000
MTEXTEND
  0
TEXT
  5
21C1
330
1F
100
AcDbEntity
  8
0
 62
     4
100
AcDbText
 10
1512.163211168565
 20
184.2496359695197
 30
0.0
 40
3.0
  1
シリコン
 41
0.8
100
AcDbText
1001
ACAD
1000
MTEXTBEGIN
1070
    73
1070
     1
1070
    44
1040
0.8
1070
    74
1070
     0
1000
MTEXTEND
  0
TEXT
  5
21C2
330
1F
100
AcDbEntity
  8
0
 62
     4
100
AcDbText
 10
1512.483211168565
 20
180.2496359695197
 30
0.0
 40
3.0
  1
(黄)
 41
0.8
100
AcDbText
1001
ACAD
1000
MTEXTBEGIN
1070
    73
1070
     1
1070
    44
1040
0.8
1070
    74
1070
     0
1000
MTEXTEND
  0
TEXT
  5
21C5
330
1F
100
AcDbEntity
  8
0
 62
     4
100
AcDbText
 10
1511.134932498764
 20
194.999439250615
 30
0.0
 40
3.0
  1
SUS
 41
0.8
100
AcDbText
1001
ACAD
1000
MTEXTBEGIN
1070
    73
1070
     1
1070
    44
1040
1.0
1070
    74
1070
     0
1000
MTEXTEND
  0
TEXT
  5
21C8
330
1F
100
AcDbEntity
  8
0
 62
     4
100
AcDbText
 10
1512.765871918511
 20
205.5007534568704
 30
0.0
 40
3.0
  1
PC
 41
0.8
100
AcDbText
1001
ACAD
1000
MTEXTBEGIN
1070
    73
1070
     1
1070
    44
1040
0.8
1070
    74
1070
     0
1000
MTEXTEND
  0
TEXT
  5
21C9
330
1F
100
AcDbEntity
  8
0
 62
     4
100
AcDbText
 10
1512.765871918511
 20
201.5007534568704
 30
0.0
 40
3.0
  1
(白)
 41
0.8
100
AcDbText
1001
ACAD
1000
MTEXTBEGIN
1070
    73
1070
     1
1070
    44
1040
0.8
1070
    74
1070
     0
1000
MTEXTEND
  0
TEXT
  5
21CC
330
1F
100
AcDbEntity
  8
0
 62
     4
100
AcDbText
 10
1512.760538195737
 20
136.7572754963368
 30
0.0
 40
3.0
  1
PC
 41
0.8
100
AcDbText
1001
ACAD
1000
MTEXTBEGIN
1070
    73
1070
     1
1070
    44
1040
0.8
1070
    74
1070
     0
1000
MTEXTEND
  0
TEXT
  5
21CD
330
1F
100
AcDbEntity
  8
0
 62
     4
100
AcDbText
 10
1512.760538195737
 20
132.7572754963368
 30
0.0
 40
3.0
  1
(乳白)
 41
0.8
100
AcDbText
1001
ACAD
1000
MTEXTBEGIN
1070
    73
1070
     1
1070
    44
1040
0.8
1070
    74
1070
     0
1000
MTEXTEND
  0
TEXT
  5
21D0
330
1F
100
AcDbEntity
  8
0
 62
     4
100
AcDbText
 10
1512.760538195737
 20
163.6158047439612
 30
0.0
 40
3.0
  1
PC
 41
0.8
100
AcDbText
1001
ACAD
1000
MTEXTBEGIN
1070
    73
1070
     1
1070
    44
1040
0.8
1070
    74
1070
     0
1000
MTEXTEND
  0
TEXT
  5
21D1
330
1F
100
AcDbEntity
  8
0
 62
     4
100
AcDbText
 10
1512.760538195737
 20
159.6158047439612
 30
0.0
 40
3.0
  1
(乳白)
 41
0.8
100
AcDbText
1001
ACAD
1000
MTEXTBEGIN
1070
    73
1070
     1
1070
    44
1040
0.8
1070
    74
1070
     0
1000
MTEXTEND
  0
LINE
  5
21D4
330
1F
100
AcDbEntity
  8
0
100
AcDbLine
 10
1465.634902525154
 20
190.2170811935276
 30
0.0
 11
1465.634902525154
 21
229.5844515363396
 31
0.0
  0
LINE
  5
21D5
330
1F
100
AcDbEntity
  8
0
100
AcDbLine
 10
1497.301569191821
 20
190.2170811935277
 30
0.0
 11
1497.301569191821
 21
229.5844515363396
 31
0.0
  0
LINE
  5
21D6
330
1F
100
AcDbEntity
  8
0
100
AcDbLine
 10
1468.134902525154
 20
228.3344515363396
 30
0.0
 11
1494.801569191821
 21
228.3344515363396
 31
0.0
  0
LINE
  5
21DA
330
1F
100
AcDbEntity
  8
0
100
AcDbLine
 10
1465.384902525154
 20
189.9670811935277
 30
0.0
 11
1454.45669942967
 21
189.9670811935277
 31
0.0
  0
LINE
  5
21DB
330
1F
100
AcDbEntity
  8
0
100
AcDbLine
 10
1470.384902525155
 20
218.3003050164237
 30
0.0
 11
1454.45669942967
 21
218.3003050164237
 31
0.0
  0
LINE
  5
21DC
330
1F
100
AcDbEntity
  8
0
100
AcDbLine
 10
1455.70669942967
 20
192.4670811935277
 30
0.0
 11
1455.70669942967
 21
215.8003050164237
 31
0.0
  0
LINE
  5
21E0
330
1F
100
AcDbEntity
  8
0
100
AcDbLine
 10
1481.182920278201
 20
218.3003050164237
 30
0.0
 11
1446.01960103815
 21
218.3003050164237
 31
0.0
  0
LINE
  5
21E1
330
1F
100
AcDbEntity
  8
0
100
AcDbLine
 10
1481.180812946497
 20
138.300414526861
 30
0.0
 11
1446.01960103815
 21
138.300414526861
 31
0.0
  0
LINE
  5
21E2
330
1F
100
AcDbEntity
  8
0
100
AcDbLine
 10
1447.26960103815
 20
215.8003050164237
 30
0.0
 11
1447.26960103815
 21
140.800414526861
 31
0.0
  0
LINE
  5
21E6
330
1F
100
AcDbEntity
  8
0
100
AcDbLine
 10
1464.468235858488
 20
188.3837478601943
 30
0.0
 11
1464.468235858488
 21
130.276857128698
 31
0.0
  0
LINE
  5
21E7
330
1F
100
AcDbEntity
  8
0
100
AcDbLine
 10
1498.468235858488
 20
188.3837478601943
 30
0.0
 11
1498.468235858488
 21
130.276857128698
 31
0.0
  0
LINE
  5
21E8
330
1F
100
AcDbEntity
  8
0
100
AcDbLine
 10
1466.968235858488
 20
131.526857128698
 30
0.0
 11
1495.968235858487
 21
131.526857128698
 31
0.0
  0
LINE
  5
21EC
330
1F
100
AcDbEntity
  8
0
100
AcDbLine
 10
1487.96823585434
 20
211.3247386363597
 30
0.0
 11
1487.96823585434
 21
224.6785310462734
 31
0.0
  0
LINE
  5
21ED
330
1F
100
AcDbEntity
  8
0
100
AcDbLine
 10
1474.968235898131
 20
212.2874313290357
 30
0.0
 11
1474.968235898131
 21
224.6785310462734
 31
0.0
  0
LINE
  5
21EE
330
1F
100
AcDbEntity
  8
0
100
AcDbLine
 10
1485.46823585434
 20
223.4285310462734
 30
0.0
 11
1477.468235898131
 21
223.4285310462734
 31
0.0
  0
LINE
  5
21F2
330
1F
100
AcDbEntity
  8
0
 62
     3
100
AcDbLine
 10
1479.605476139374
 20
282.0353096555852
 30
0.0
 11
1479.586848609374
 21
282.154577425585
 31
0.0
  0
LINE
  5
21F3
330
1F
100
AcDbEntity
  8
0
 62
     3
100
AcDbLine
 10
1479.586848609374
 20
282.154577425585
 30
0.0
 11
1479.564477429374
 21
282.2687822055852
 31
0.0
  0
LINE
  5
21F4
330
1F
100
AcDbEntity
  8
0
 62
     3
100
AcDbLine
 10
1479.564477429374
 20
282.2687822055852
 30
0.0
 11
1479.538535499374
 21
282.3770412655851
 31
0.0
  0
LINE
  5
21F5
330
1F
100
AcDbEntity
  8
0
 62
     3
100
AcDbLine
 10
1479.538535499374
 20
282.3770412655851
 30
0.0
 11
1479.509223359374
 21
282.4785178155852
 31
0.0
  0
LINE
  5
21F6
330
1F
100
AcDbEntity
  8
0
 62
     3
100
AcDbLine
 10
1479.509223359374
 20
282.4785178155852
 30
0.0
 11
1479.476767549374
 21
282.572427495585
 31
0.0
  0
LINE
  5
21F7
330
1F
100
AcDbEntity
  8
0
 62
     3
100
AcDbLine
 10
1479.476767549374
 20
282.572427495585
 30
0.0
 11
1479.441418959374
 21
282.6580444355851
 31
0.0
  0
LINE
  5
21F8
330
1F
100
AcDbEntity
  8
0
 62
     3
100
AcDbLine
 10
1479.441418959374
 20
282.6580444355851
 30
0.0
 11
1479.403450809374
 21
282.7347068455852
 31
0.0
  0
LINE
  5
21F9
330
1F
100
AcDbEntity
  8
0
 62
     3
100
AcDbLine
 10
1479.403450809374
 20
282.7347068455852
 30
0.0
 11
1479.363156559374
 21
282.8018221855852
 31
0.0
  0
LINE
  5
21FA
330
1F
100
AcDbEntity
  8
0
 62
     3
100
AcDbLine
 10
1479.363156559374
 20
282.8018221855852
 30
0.0
 11
1479.320847689374
 21
282.858871675585
 31
0.0
  0
LINE
  5
21FB
330
1F
100
AcDbEntity
  8
0
 62
     3
100
AcDbLine
 10
1479.320847689374
 20
282.858871675585
 30
0.0
 11
1479.276851199374
 21
282.905414345585
 31
0.0
  0
LINE
  5
21FC
330
1F
100
AcDbEntity
  8
0
 62
     3
100
AcDbLine
 10
1479.276851199374
 20
282.905414345585
 30
0.0
 11
1479.231507179374
 21
282.9410904655851
 31
0.0
  0
LINE
  5
21FD
330
1F
100
AcDbEntity
  8
0
 62
     3
100
AcDbLine
 10
1479.231507179374
 20
282.9410904655851
 30
0.0
 11
1479.185166109374
 21
282.9656242555852
 31
0.0
  0
LINE
  5
21FE
330
1F
100
AcDbEntity
  8
0
 62
     3
100
AcDbLine
 10
1479.185166109374
 20
282.9656242555852
 30
0.0
 11
1479.138186169374
 21
282.9788261055849
 31
0.0
  0
LINE
  5
21FF
330
1F
100
AcDbEntity
  8
0
 62
     3
100
AcDbLine
 10
1479.138186169374
 20
282.9788261055849
 30
0.0
 11
1479.090930509374
 21
282.9805939455852
 31
0.0
  0
LINE
  5
2200
330
1F
100
AcDbEntity
  8
0
 62
     3
100
AcDbLine
 10
1479.090930509374
 20
282.9805939455852
 30
0.0
 11
1479.043764379374
 21
282.9709141355852
 31
0.0
  0
LINE
  5
2201
330
1F
100
AcDbEntity
  8
0
 62
     3
100
AcDbLine
 10
1479.043764379374
 20
282.9709141355852
 30
0.0
 11
1478.997052349374
 21
282.9498614755852
 31
0.0
  0
LINE
  5
2202
330
1F
100
AcDbEntity
  8
0
 62
     3
100
AcDbLine
 10
1478.997052349374
 20
282.9498614755852
 30
0.0
 11
1478.951155489374
 21
282.917598705585
 31
0.0
  0
LINE
  5
2203
330
1F
100
AcDbEntity
  8
0
 62
     3
100
AcDbLine
 10
1478.951155489374
 20
282.917598705585
 30
0.0
 11
1478.906428549374
 21
282.8743751955851
 31
0.0
  0
LINE
  5
2204
330
1F
100
AcDbEntity
  8
0
 62
     3
100
AcDbLine
 10
1478.906428549374
 20
282.8743751955851
 30
0.0
 11
1478.863217239374
 21
282.8205250355852
 31
0.0
  0
LINE
  5
2205
330
1F
100
AcDbEntity
  8
0
 62
     3
100
AcDbLine
 10
1478.863217239374
 20
282.8205250355852
 30
0.0
 11
1478.821855579374
 21
282.7564644655851
 31
0.0
  0
LINE
  5
2206
330
1F
100
AcDbEntity
  8
0
 62
     3
100
AcDbLine
 10
1478.821855579374
 20
282.7564644655851
 30
0.0
 11
1478.782663259374
 21
282.6826886455852
 31
0.0
  0
LINE
  5
2207
330
1F
100
AcDbEntity
  8
0
 62
     3
100
AcDbLine
 10
1478.782663259374
 20
282.6826886455852
 30
0.0
 11
1478.745943219374
 21
282.599767815585
 31
0.0
  0
LINE
  5
2208
330
1F
100
AcDbEntity
  8
0
 62
     3
100
AcDbLine
 10
1478.745943219374
 20
282.599767815585
 30
0.0
 11
1478.711979289374
 21
282.5083429055851
 31
0.0
  0
LINE
  5
2209
330
1F
100
AcDbEntity
  8
0
 62
     3
100
AcDbLine
 10
1478.711979289374
 20
282.5083429055851
 30
0.0
 11
1478.681033989374
 21
282.4091206055852
 31
0.0
  0
LINE
  5
220A
330
1F
100
AcDbEntity
  8
0
 62
     3
100
AcDbLine
 10
1478.681033989374
 20
282.4091206055852
 30
0.0
 11
1478.653346509374
 21
282.3028678355852
 31
0.0
  0
LINE
  5
220B
330
1F
100
AcDbEntity
  8
0
 62
     3
100
AcDbLine
 10
1478.653346509374
 20
282.3028678355852
 30
0.0
 11
1478.629130859374
 21
282.1904058755852
 31
0.0
  0
LINE
  5
220C
330
1F
100
AcDbEntity
  8
0
 62
     3
100
AcDbLine
 10
1478.629130859374
 20
282.1904058755852
 30
0.0
 11
1478.608574219374
 21
282.0726039955852
 31
0.0
  0
LINE
  5
220D
330
1F
100
AcDbEntity
  8
0
 62
     3
100
AcDbLine
 10
1478.608574219374
 20
282.0726039955852
 30
0.0
 11
1478.591835479374
 21
281.9503727555852
 31
0.0
  0
LINE
  5
220E
330
1F
100
AcDbEntity
  8
0
 62
     3
100
AcDbLine
 10
1478.591835479374
 20
281.9503727555852
 30
0.0
 11
1478.579044019374
 21
281.8246569355851
 31
0.0
  0
LINE
  5
220F
330
1F
100
AcDbEntity
  8
0
 62
     3
100
AcDbLine
 10
1478.579044019374
 20
281.8246569355851
 30
0.0
 11
1478.570298709374
 21
281.6964282555852
 31
0.0
  0
LINE
  5
2210
330
1F
100
AcDbEntity
  8
0
 62
     3
100
AcDbLine
 10
1478.570298709374
 20
281.6964282555852
 30
0.0
 11
1478.565667149374
 21
281.5666778455852
 31
0.0
  0
LINE
  5
2211
330
1F
100
AcDbEntity
  8
0
 62
     3
100
AcDbLine
 10
1478.565667149374
 20
281.5666778455852
 30
0.0
 11
1478.565185139374
 21
281.4364086155852
 31
0.0
  0
LINE
  5
2212
330
1F
100
AcDbEntity
  8
0
 62
     3
100
AcDbLine
 10
1478.565185139374
 20
281.4364086155852
 30
0.0
 11
1478.568856399374
 21
281.3066274955852
 31
0.0
  0
LINE
  5
2213
330
1F
100
AcDbEntity
  8
0
 62
     3
100
AcDbLine
 10
1478.568856399374
 20
281.3066274955852
 30
0.0
 11
1478.576652559374
 21
281.1783376055852
 31
0.0
  0
LINE
  5
2214
330
1F
100
AcDbEntity
  8
0
 62
     3
100
AcDbLine
 10
1478.576652559374
 20
281.1783376055852
 30
0.0
 11
1478.588513359374
 21
281.0525305655852
 31
0.0
  0
LINE
  5
2215
330
1F
100
AcDbEntity
  8
0
 62
     3
100
AcDbLine
 10
1478.588513359374
 20
281.0525305655852
 30
0.0
 11
1478.604347119375
 21
280.9301787955852
 31
0.0
  0
LINE
  5
2216
330
1F
100
AcDbEntity
  8
0
 62
     3
100
AcDbLine
 10
1478.604347119375
 20
280.9301787955852
 30
0.0
 11
1478.624031439374
 21
280.8122280255852
 31
0.0
  0
LINE
  5
2217
330
1F
100
AcDbEntity
  8
0
 62
     3
100
AcDbLine
 10
1478.624031439374
 20
280.8122280255852
 30
0.0
 11
1478.647414199374
 21
280.6995899555852
 31
0.0
  0
LINE
  5
2218
330
1F
100
AcDbEntity
  8
0
 62
     3
100
AcDbLine
 10
1478.647414199374
 20
280.6995899555852
 30
0.0
 11
1478.674314629374
 21
280.593135195585
 31
0.0
  0
LINE
  5
2219
330
1F
100
AcDbEntity
  8
0
 62
     3
100
AcDbLine
 10
1478.674314629374
 20
280.593135195585
 30
0.0
 11
1478.704524829374
 21
280.4936866055852
 31
0.0
  0
LINE
  5
221A
330
1F
100
AcDbEntity
  8
0
 62
     3
100
AcDbLine
 10
1478.704524829374
 20
280.4936866055852
 30
0.0
 11
1478.737811279374
 21
280.4020128755852
 31
0.0
  0
LINE
  5
221B
330
1F
100
AcDbEntity
  8
0
 62
     3
100
AcDbLine
 10
1478.737811279374
 20
280.4020128755852
 30
0.0
 11
1478.773916679374
 21
280.3188225755852
 31
0.0
  0
LINE
  5
221C
330
1F
100
AcDbEntity
  8
0
 62
     3
100
AcDbLine
 10
1478.773916679374
 20
280.3188225755852
 30
0.0
 11
1478.812561979374
 21
280.2447587455851
 31
0.0
  0
LINE
  5
221D
330
1F
100
AcDbEntity
  8
0
 62
     3
100
AcDbLine
 10
1478.812561979374
 20
280.2447587455851
 30
0.0
 11
1478.853448459374
 21
280.1803938555852
 31
0.0
  0
LINE
  5
221E
330
1F
100
AcDbEntity
  8
0
 62
     3
100
AcDbLine
 10
1478.853448459374
 20
280.1803938555852
 30
0.0
 11
1478.896260079374
 21
280.1262254055852
 31
0.0
  0
LINE
  5
221F
330
1F
100
AcDbEntity
  8
0
 62
     3
100
AcDbLine
 10
1478.896260079374
 20
280.1262254055852
 30
0.0
 11
1478.940665939374
 21
280.0826720855852
 31
0.0
  0
LINE
  5
2220
330
1F
100
AcDbEntity
  8
0
 62
     3
100
AcDbLine
 10
1478.940665939374
 20
280.0826720855852
 30
0.0
 11
1478.986322789374
 21
280.050070555585
 31
0.0
  0
LINE
  5
2221
330
1F
100
AcDbEntity
  8
0
 62
     3
100
AcDbLine
 10
1478.986322789374
 20
280.050070555585
 30
0.0
 11
1479.032877749374
 21
280.0286727955852
 31
0.0
  0
LINE
  5
2222
330
1F
100
AcDbEntity
  8
0
 62
     3
100
AcDbLine
 10
1479.032877749374
 20
280.0286727955852
 30
0.0
 11
1479.079970959374
 21
280.0186442155852
 31
0.0
  0
LINE
  5
2223
330
1F
100
AcDbEntity
  8
0
 62
     3
100
AcDbLine
 10
1479.079970959374
 20
280.0186442155852
 30
0.0
 11
1479.127238409374
 21
280.0200623155852
 31
0.0
  0
LINE
  5
2224
330
1F
100
AcDbEntity
  8
0
 62
     3
100
AcDbLine
 10
1479.127238409374
 20
280.0200623155852
 30
0.0
 11
1479.174314749374
 21
280.032916135585
 31
0.0
  0
LINE
  5
2225
330
1F
100
AcDbEntity
  8
0
 62
     3
100
AcDbLine
 10
1479.174314749374
 20
280.032916135585
 30
0.0
 11
1479.220836109374
 21
280.0571063355852
 31
0.0
  0
LINE
  5
2226
330
1F
100
AcDbEntity
  8
0
 62
     3
100
AcDbLine
 10
1479.220836109374
 20
280.0571063355852
 30
0.0
 11
1479.266442899374
 21
280.0924459155853
 31
0.0
  0
LINE
  5
2227
330
1F
100
AcDbEntity
  8
0
 62
     3
100
AcDbLine
 10
1479.266442899374
 20
280.0924459155853
 30
0.0
 11
1479.310782599374
 21
280.1386617355852
 31
0.0
  0
LINE
  5
2228
330
1F
100
AcDbEntity
  8
0
 62
     3
100
AcDbLine
 10
1479.310782599374
 20
280.1386617355852
 30
0.0
 11
1479.353512489374
 21
280.1953965755852
 31
0.0
  0
LINE
  5
2229
330
1F
100
AcDbEntity
  8
0
 62
     3
100
AcDbLine
 10
1479.353512489374
 20
280.1953965755852
 30
0.0
 11
1479.394302289374
 21
280.262211885585
 31
0.0
  0
LINE
  5
222A
330
1F
100
AcDbEntity
  8
0
 62
     3
100
AcDbLine
 10
1479.394302289374
 20
280.262211885585
 30
0.0
 11
1479.432836719374
 21
280.3385912355852
 31
0.0
  0
LINE
  5
222B
330
1F
100
AcDbEntity
  8
0
 62
     3
100
AcDbLine
 10
1479.432836719374
 20
280.3385912355852
 30
0.0
 11
1479.468817919374
 21
280.4239442455852
 31
0.0
  0
LINE
  5
222C
330
1F
100
AcDbEntity
  8
0
 62
     3
100
AcDbLine
 10
1479.468817919374
 20
280.4239442455852
 30
0.0
 11
1479.501967779374
 21
280.5176111755851
 31
0.0
  0
LINE
  5
222D
330
1F
100
AcDbEntity
  8
0
 62
     3
100
AcDbLine
 10
1479.501967779374
 20
280.5176111755851
 30
0.0
 11
1479.532030059374
 21
280.6188680355853
 31
0.0
  0
LINE
  5
222E
330
1F
100
AcDbEntity
  8
0
 62
     3
100
AcDbLine
 10
1479.532030059374
 20
280.6188680355853
 30
0.0
 11
1479.558772409374
 21
280.7269321555852
 31
0.0
  0
LINE
  5
222F
330
1F
100
AcDbEntity
  8
0
 62
     3
100
AcDbLine
 10
1479.558772409374
 20
280.7269321555852
 30
0.0
 11
1479.581988109374
 21
280.8409682655852
 31
0.0
  0
LINE
  5
2230
330
1F
100
AcDbEntity
  8
0
 62
     3
100
AcDbLine
 10
1479.581988109374
 20
280.8409682655852
 30
0.0
 11
1479.601497719374
 21
280.9600949155852
 31
0.0
  0
LINE
  5
2231
330
1F
100
AcDbEntity
  8
0
100
AcDbLine
 10
1493.968442112759
 20
146.1974056043406
 30
0.0
 11
1508.895049616037
 21
151.9350557468946
 31
0.0
1001
ACAD
1000
DSTYLE
1002
{
1070
   147
1040
0.625
1070
    77
1070
     0
1002
}
  0
LINE
  5
2232
330
1F
100
AcDbEntity
  8
0
100
AcDbLine
 10
1508.895049616037
 20
151.9350557468946
 30
0.0
 11
1511.395049616037
 21
151.9350557468946
 31
0.0
1001
ACAD
1000
DSTYLE
1002
{
1070
   147
1040
0.625
1070
    77
1070
     0
1002
}
  0
LINE
  5
2233
330
1F
100
AcDbEntity
  8
0
  6
ByBlock
 62
     0
370
    -2
100
AcDbLine
 10
1494.208789974979
 20
145.5721360053813
 30
0.0
 11
1491.634902525154
 21
145.300414526861
 31
0.0
  0
LINE
  5
2234
330
1F
100
AcDbEntity
  8
0
  6
ByBlock
 62
     0
370
    -2
100
AcDbLine
 10
1491.634902525154
 20
145.300414526861
 30
0.0
 11
1493.72809425054
 21
146.8226752032999
 31
0.0
  0
LINE
  5
2235
330
1F
100
AcDbEntity
  8
0
  6
ByBlock
 62
     0
370
    -2
100
AcDbLine
 10
1491.634902525154
 20
145.300414526861
 30
0.0
 11
1493.968442112759
 21
146.1974056043406
 31
0.0
  0
LINE
  5
2236
330
1F
100
AcDbEntity
  8
0
100
AcDbLine
 10
1500.915277425394
 20
188.0385673134941
 30
0.0
 11
1511.858211168565
 21
185.7496359695197
 31
0.0
1001
ACAD
1000
DSTYLE
1002
{
1070
   147
1040
0.625
1070
    77
1070
     0
1002
}
  0
LINE
  5
2237
330
1F
100
AcDbEntity
  8
0
  6
ByBlock
 62
     0
370
    -2
100
AcDbLine
 10
1500.77812847642
 20
187.382884972683
 30
0.0
 11
1498.468235858488
 21
188.550414526861
 31
0.0
  0
LINE
  5
2238
330
1F
100
AcDbEntity
  8
0
  6
ByBlock
 62
     0
370
    -2
100
AcDbLine
 10
1498.468235858488
 20
188.550414526861
 30
0.0
 11
1501.052426374369
 21
188.6942496543051
 31
0.0
  0
LINE
  5
2239
330
1F
100
AcDbEntity
  8
0
  6
ByBlock
 62
     0
370
    -2
100
AcDbLine
 10
1498.468235858488
 20
188.550414526861
 30
0.0
 11
1500.915277425394
 21
188.0385673134941
 31
0.0
  0
LINE
  5
223A
330
1F
100
AcDbEntity
  8
0
100
AcDbLine
 10
1489.170674614135
 20
195.0528364728356
 30
0.0
 11
1510.509932498764
 21
196.499439250615
 31
0.0
1001
ACAD
1000
DSTYLE
1002
{
1070
   147
1040
0.625
1070
    77
1070
     0
1002
}
  0
LINE
  5
223B
330
1F
100
AcDbEntity
  8
0
  6
ByBlock
 62
     0
370
    -2
100
AcDbLine
 10
1489.215981738803
 20
194.3844979128897
 30
0.0
 11
1486.676399360464
 21
194.8837478601943
 31
0.0
  0
LINE
  5
223C
330
1F
100
AcDbEntity
  8
0
  6
ByBlock
 62
     0
370
    -2
100
AcDbLine
 10
1486.676399360464
 20
194.8837478601943
 30
0.0
 11
1489.125367489466
 21
195.7211750327815
 31
0.0
  0
LINE
  5
223D
330
1F
100
AcDbEntity
  8
0
  6
ByBlock
 62
     0
370
    -2
100
AcDbLine
 10
1486.676399360464
 20
194.8837478601943
 30
0.0
 11
1489.170674614135
 21
195.0528364728356
 31
0.0
  0
LINE
  5
223E
330
1F
100
AcDbEntity
  8
0
100
AcDbLine
 10
1496.814728427918
 20
198.6771038998146
 30
0.0
 11
1509.640871918511
 21
207.0007534568705
 31
0.0
1001
ACAD
1000
DSTYLE
1002
{
1070
   147
1040
0.625
1070
    77
1070
     0
1002
}
  0
LINE
  5
223F
330
1F
100
AcDbEntity
  8
0
100
AcDbLine
 10
1509.640871918511
 20
207.0007534568705
 30
0.0
 11
1512.140871918511
 21
207.0007534568705
 31
0.0
1001
ACAD
1000
DSTYLE
1002
{
1070
   147
1040
0.625
1070
    77
1070
     0
1002
}
  0
LINE
  5
2240
330
1F
100
AcDbEntity
  8
0
  6
ByBlock
 62
     0
370
    -2
100
AcDbLine
 10
1497.179390078003
 20
198.1151866041086
 30
0.0
 11
1494.717623024629
 21
197.3161671167517
 31
0.0
  0
LINE
  5
2241
330
1F
100
AcDbEntity
  8
0
  6
ByBlock
 62
     0
370
    -2
100
AcDbLine
 10
1494.717623024629
 20
197.3161671167517
 30
0.0
 11
1496.450066777834
 21
199.2390211955206
 31
0.0
  0
LINE
  5
2242
330
1F
100
AcDbEntity
  8
0
  6
ByBlock
 62
     0
370
    -2
100
AcDbLine
 10
1494.717623024629
 20
197.3161671167517
 30
0.0
 11
1496.814728427918
 21
198.6771038998146
 31
0.0
  0
LINE
  5
2243
330
1F
100
AcDbEntity
  8
0
100
AcDbLine
 10
1492.091305933884
 20
141.9961865607243
 30
0.0
 11
1512.135538195737
 21
138.2572754963367
 31
0.0
1001
ACAD
1000
DSTYLE
1002
{
1070
   147
1040
0.625
1070
    77
1070
     0
1002
}
  0
LINE
  5
2244
330
1F
100
AcDbEntity
  8
0
  6
ByBlock
 62
     0
370
    -2
100
AcDbLine
 10
1491.968471313473
 20
141.3376724589128
 30
0.0
 11
1489.633696083459
 21
142.4546119342514
 31
0.0
  0
LINE
  5
2245
330
1F
100
AcDbEntity
  8
0
  6
ByBlock
 62
     0
370
    -2
100
AcDbLine
 10
1489.633696083459
 20
142.4546119342514
 30
0.0
 11
1492.214140554295
 21
142.6547006625359
 31
0.0
  0
LINE
  5
2246
330
1F
100
AcDbEntity
  8
0
  6
ByBlock
 62
     0
370
    -2
100
AcDbLine
 10
1489.633696083459
 20
142.4546119342514
 30
0.0
 11
1492.091305933884
 21
141.9961865607243
 31
0.0
  0
LINE
  5
2247
330
1F
100
AcDbEntity
  8
0
100
AcDbLine
 10
1497.160932808138
 20
160.7131173235696
 30
0.0
 11
1509.635538195737
 21
165.1158047439612
 31
0.0
1001
ACAD
1000
DSTYLE
1002
{
1070
   147
1040
0.625
1070
    77
1070
     0
1002
}
  0
LINE
  5
2248
330
1F
100
AcDbEntity
  8
0
100
AcDbLine
 10
1509.635538195737
 20
165.1158047439612
 30
0.0
 11
1512.135538195737
 21
165.1158047439612
 31
0.0
1001
ACAD
1000
DSTYLE
1002
{
1070
   147
1040
0.625
1070
    77
1070
     0
1002
}
  0
LINE
  5
2249
330
1F
100
AcDbEntity
  8
0
  6
ByBlock
 62
     0
370
    -2
100
AcDbLine
 10
1497.383874697525
 20
160.0814322119732
 30
0.0
 11
1494.803450184219
 21
159.8810862677066
 31
0.0
  0
LINE
  5
224A
330
1F
100
AcDbEntity
  8
0
  6
ByBlock
 62
     0
370
    -2
100
AcDbLine
 10
1494.803450184219
 20
159.8810862677066
 30
0.0
 11
1496.93799091875
 21
161.3448024351661
 31
0.0
  0
LINE
  5
224B
330
1F
100
AcDbEntity
  8
0
  6
ByBlock
 62
     0
370
    -2
100
AcDbLine
 10
1494.803450184219
 20
159.8810862677066
 30
0.0
 11
1497.160932808138
 21
160.7131173235696
 31
0.0
  0
TEXT
  5
224C
330
1F
100
AcDbEntity
  8
0
 62
     4
100
AcDbText
 10
1477.342818185363
 20
228.9594515363396
 30
0.0
 40
3.0
  1
\U+220595
100
AcDbText
  0
LINE
  5
224D
330
1F
100
AcDbEntity
  8
0
  6
ByBlock
 62
     0
370
    -2
100
AcDbLine
 10
1494.801569191821
 20
229.0043240363396
 30
0.0
 11
1497.301569191821
 21
228.3344515363396
 31
0.0
  0
LINE
  5
224E
330
1F
100
AcDbEntity
  8
0
  6
ByBlock
 62
     0
370
    -2
100
AcDbLine
 10
1497.301569191821
 20
228.3344515363396
 30
0.0
 11
1494.801569191821
 21
227.6645790363396
 31
0.0
  0
LINE
  5
224F
330
1F
100
AcDbEntity
  8
0
  6
ByBlock
 62
     0
370
    -2
100
AcDbLine
 10
1497.301569191821
 20
228.3344515363396
 30
0.0
 11
1494.801569191821
 21
228.3344515363396
 31
0.0
  0
LINE
  5
2250
330
1F
100
AcDbEntity
  8
0
  6
ByBlock
 62
     0
370
    -2
100
AcDbLine
 10
1468.134902525154
 20
227.6645790363396
 30
0.0
 11
1465.634902525154
 21
228.3344515363396
 31
0.0
  0
LINE
  5
2251
330
1F
100
AcDbEntity
  8
0
  6
ByBlock
 62
     0
370
    -2
100
AcDbLine
 10
1465.634902525154
 20
228.3344515363396
 30
0.0
 11
1468.134902525154
 21
229.0043240363396
 31
0.0
  0
LINE
  5
2252
330
1F
100
AcDbEntity
  8
0
  6
ByBlock
 62
     0
370
    -2
100
AcDbLine
 10
1465.634902525154
 20
228.3344515363396
 30
0.0
 11
1468.134902525154
 21
228.3344515363396
 31
0.0
  0
TEXT
  5
2253
330
1F
100
AcDbEntity
  8
0
 62
     4
100
AcDbText
 10
1455.08169942967
 20
200.8654520798597
 30
0.0
 40
3.0
  1
85
 50
90.0
100
AcDbText
  0
LINE
  5
2254
330
1F
100
AcDbEntity
  8
0
  6
ByBlock
 62
     0
370
    -2
100
AcDbLine
 10
1455.036826929669
 20
215.8003050164237
 30
0.0
 11
1455.70669942967
 21
218.3003050164237
 31
0.0
  0
LINE
  5
2255
330
1F
100
AcDbEntity
  8
0
  6
ByBlock
 62
     0
370
    -2
100
AcDbLine
 10
1455.70669942967
 20
218.3003050164237
 30
0.0
 11
1456.37657192967
 21
215.8003050164237
 31
0.0
  0
LINE
  5
2256
330
1F
100
AcDbEntity
  8
0
  6
ByBlock
 62
     0
370
    -2
100
AcDbLine
 10
1455.70669942967
 20
218.3003050164237
 30
0.0
 11
1455.70669942967
 21
215.8003050164237
 31
0.0
  0
LINE
  5
2257
330
1F
100
AcDbEntity
  8
0
  6
ByBlock
 62
     0
370
    -2
100
AcDbLine
 10
1456.37657192967
 20
192.4670811935277
 30
0.0
 11
1455.70669942967
 21
189.9670811935277
 31
0.0
  0
LINE
  5
2258
330
1F
100
AcDbEntity
  8
0
  6
ByBlock
 62
     0
370
    -2
100
AcDbLine
 10
1455.70669942967
 20
189.9670811935277
 30
0.0
 11
1455.036826929669
 21
192.4670811935277
 31
0.0
  0
LINE
  5
2259
330
1F
100
AcDbEntity
  8
0
  6
ByBlock
 62
     0
370
    -2
100
AcDbLine
 10
1455.70669942967
 20
189.9670811935277
 30
0.0
 11
1455.70669942967
 21
192.4670811935277
 31
0.0
  0
TEXT
  5
225A
330
1F
100
AcDbEntity
  8
0
 62
     4
100
AcDbText
 10
1446.64460103815
 20
174.5503597716421
 30
0.0
 40
3.0
  1
240
 50
90.0
100
AcDbText
  0
LINE
  5
225B
330
1F
100
AcDbEntity
  8
0
  6
ByBlock
 62
     0
370
    -2
100
AcDbLine
 10
1447.93947353815
 20
140.800414526861
 30
0.0
 11
1447.26960103815
 21
138.300414526861
 31
0.0
  0
LINE
  5
225C
330
1F
100
AcDbEntity
  8
0
  6
ByBlock
 62
     0
370
    -2
100
AcDbLine
 10
1447.26960103815
 20
138.300414526861
 30
0.0
 11
1446.59972853815
 21
140.800414526861
 31
0.0
  0
LINE
  5
225D
330
1F
100
AcDbEntity
  8
0
  6
ByBlock
 62
     0
370
    -2
100
AcDbLine
 10
1447.26960103815
 20
138.300414526861
 30
0.0
 11
1447.26960103815
 21
140.800414526861
 31
0.0
  0
LINE
  5
225E
330
1F
100
AcDbEntity
  8
0
  6
ByBlock
 62
     0
370
    -2
100
AcDbLine
 10
1446.59972853815
 20
215.8003050164237
 30
0.0
 11
1447.26960103815
 21
218.3003050164237
 31
0.0
  0
LINE
  5
225F
330
1F
100
AcDbEntity
  8
0
  6
ByBlock
 62
     0
370
    -2
100
AcDbLine
 10
1447.26960103815
 20
218.3003050164237
 30
0.0
 11
1447.93947353815
 21
215.8003050164237
 31
0.0
  0
LINE
  5
2260
330
1F
100
AcDbEntity
  8
0
  6
ByBlock
 62
     0
370
    -2
100
AcDbLine
 10
1447.26960103815
 20
218.3003050164237
 30
0.0
 11
1447.26960103815
 21
215.8003050164237
 31
0.0
  0
TEXT
  5
2261
330
1F
100
AcDbEntity
  8
0
 62
     4
100
AcDbText
 10
1476.718235858488
 20
132.151857128698
 30
0.0
 40
3.0
  1
\U+2205102
100
AcDbText
  0
LINE
  5
2262
330
1F
100
AcDbEntity
  8
0
  6
ByBlock
 62
     0
370
    -2
100
AcDbLine
 10
1495.968235858487
 20
132.196729628698
 30
0.0
 11
1498.468235858488
 21
131.526857128698
 31
0.0
  0
LINE
  5
2263
330
1F
100
AcDbEntity
  8
0
  6
ByBlock
 62
     0
370
    -2
100
AcDbLine
 10
1498.468235858488
 20
131.526857128698
 30
0.0
 11
1495.968235858487
 21
130.856984628698
 31
0.0
  0
LINE
  5
2264
330
1F
100
AcDbEntity
  8
0
  6
ByBlock
 62
     0
370
    -2
100
AcDbLine
 10
1498.468235858488
 20
131.526857128698
 30
0.0
 11
1495.968235858487
 21
131.526857128698
 31
0.0
  0
LINE
  5
2265
330
1F
100
AcDbEntity
  8
0
  6
ByBlock
 62
     0
370
    -2
100
AcDbLine
 10
1466.968235858488
 20
130.856984628698
 30
0.0
 11
1464.468235858488
 21
131.526857128698
 31
0.0
  0
LINE
  5
2266
330
1F
100
AcDbEntity
  8
0
  6
ByBlock
 62
     0
370
    -2
100
AcDbLine
 10
1464.468235858488
 20
131.526857128698
 30
0.0
 11
1466.968235858488
 21
132.196729628698
 31
0.0
  0
LINE
  5
2267
330
1F
100
AcDbEntity
  8
0
  6
ByBlock
 62
     0
370
    -2
100
AcDbLine
 10
1464.468235858488
 20
131.526857128698
 30
0.0
 11
1466.968235858488
 21
131.526857128698
 31
0.0
  0
TEXT
  5
2268
330
1F
100
AcDbEntity
  8
0
 62
     4
100
AcDbText
 10
1477.628191663563
 20
224.0535310462735
 30
0.0
 40
3.0
  1
E39
100
AcDbText
  0
LINE
  5
2269
330
1F
100
AcDbEntity
  8
0
  6
ByBlock
 62
     0
370
    -2
100
AcDbLine
 10
1477.468235898131
 20
222.7586585462734
 30
0.0
 11
1474.968235898131
 21
223.4285310462734
 31
0.0
  0
LINE
  5
226A
330
1F
100
AcDbEntity
  8
0
  6
ByBlock
 62
     0
370
    -2
100
AcDbLine
 10
1474.968235898131
 20
223.4285310462734
 30
0.0
 11
1477.468235898131
 21
224.0984035462734
 31
0.0
  0
LINE
  5
226B
330
1F
100
AcDbEntity
  8
0
  6
ByBlock
 62
     0
370
    -2
100
AcDbLine
 10
1474.968235898131
 20
223.4285310462734
 30
0.0
 11
1477.468235898131
 21
223.4285310462734
 31
0.0
  0
LINE
  5
226C
330
1F
100
AcDbEntity
  8
0
  6
ByBlock
 62
     0
370
    -2
100
AcDbLine
 10
1485.46823585434
 20
224.0984035462734
 30
0.0
 11
1487.96823585434
 21
223.4285310462734
 31
0.0
  0
LINE
  5
226D
330
1F
100
AcDbEntity
  8
0
  6
ByBlock
 62
     0
370
    -2
100
AcDbLine
 10
1487.96823585434
 20
223.4285310462734
 30
0.0
 11
1485.46823585434
 21
222.7586585462734
 31
0.0
  0
LINE
  5
226E
330
1F
100
AcDbEntity
  8
0
  6
ByBlock
 62
     0
370
    -2
100
AcDbLine
 10
1487.96823585434
 20
223.4285310462734
 30
0.0
 11
1485.46823585434
 21
223.4285310462734
 31
0.0
  0
ENDSEC
  0
SECTION
  2
OBJECTS
  0
DICTIONARY
  5
C
330
0
100
AcDbDictionary
281
     1
  3
ACAD_2007HEADERVARS_RT
350
2272
  3
ACAD_COLOR
350
73
  3
ACAD_GROUP
350
D
  3
ACAD_LAYOUT
350
1A
  3
ACAD_MATERIAL
350
72
  3
ACAD_MLEADERSTYLE
350
168
  3
ACAD_MLINESTYLE
350
17
  3
ACAD_PLOTSETTINGS
350
19
  3
ACAD_PLOTSTYLENAME
350
E
  3
ACAD_SCALELIST
350
156
  3
ACAD_TABLESTYLE
350
86
  3
ACAD_VISUALSTYLE
350
99
  3
ACDB_RECOMPOSE_DATA
350
2270
  3
AcDbVariableDictionary
350
66
  3
AEC_PROPERTY_SET_DEFS
350
DFF
  3
DWGPROPS
350
2271
  0
DICTIONARY
  5
829
330
8
100
AcDbDictionary
280
     1
281
     1
  0
DICTIONARY
  5
DD
330
2
100
AcDbDictionary
280
     1
281
     1
  3
ACAD_LAYERSTATES
360
DE
  0
DICTIONARY
  5
81D
330
10
100
AcDbDictionary
280
     1
281
     1
  3
ADSK_XREC_LAYER_RECONCILED
360
14E1
  0
DICTIONARY
  5
31A
330
1F
100
AcDbDictionary
280
     1
281
     1
  3
ACAD_SORTENTS
360
31B
  0
DICTIONARY
  5
B94
330
ACA
100
AcDbDictionary
280
     1
281
     1
  3
ACAD_SORTENTS
360
B95
  0
DICTIONARY
  5
2272
102
{ACAD_REACTORS
330
C
102
}
330
C
100
AcDbDictionary
281
     1
  3
DIMARCSYM
350
2274
  3
DIMFXL
350
2273
  3
DIMJOGANG
350
2275
  0
DICTIONARY
  5
73
102
{ACAD_REACTORS
330
C
102
}
330
C
100
AcDbDictionary
281
     1
  0
DICTIONARY
  5
D
102
{ACAD_REACTORS
330
C
102
}
330
C
100
AcDbDictionary
281
     1
  0
DICTIONARY
  5
1A
102
{ACAD_REACTORS
330
C
102
}
330
C
100
AcDbDictionary
281
     1
  3
Model
350
22
  3
レイアウト1
350
59
  3
レイアウト2
350
5E
  0
DICTIONARY
  5
72
102
{ACAD_REACTORS
330
C
102
}
330
C
100
AcDbDictionary
281
     1
  3
ByBlock
350
97
  3
ByLayer
350
96
  3
Global
350
98
  0
DICTIONARY
  5
168
102
{ACAD_REACTORS
330
C
102
}
330
C
100
AcDbDictionary
281
     1
  3
Standard
350
169
  0
DICTIONARY
  5
17
102
{ACAD_REACTORS
330
C
102
}
330
C
100
AcDbDictionary
281
     1
  3
Standard
350
18
  0
DICTIONARY
  5
19
102
{ACAD_REACTORS
330
C
102
}
330
C
100
AcDbDictionary
281
     1
  0
ACDBDICTIONARYWDFLT
  5
E
102
{ACAD_REACTORS
330
C
102
}
330
C
100
AcDbDictionary
281
     1
  3
Normal
350
F
100
AcDbDictionaryWithDefault
340
F
  0
DICTIONARY
  5
156
102
{ACAD_REACTORS
330
C
102
}
330
C
100
AcDbDictionary
281
     1
  3
A0
350
157
  3
A1
350
158
  3
A2
350
159
  3
A3
350
15A
  3
A4
350
15B
  3
A5
350
15C
  3
A6
350
15D
  3
A7
350
15E
  3
A8
350
15F
  3
A9
350
160
  3
B0
350
161
  3
B1
350
162
  3
B2
350
163
  3
B3
350
164
  3
B4
350
165
  3
B5
350
166
  3
B6
350
167
  0
DICTIONARY
  5
86
102
{ACAD_REACTORS
330
C
102
}
330
C
100
AcDbDictionary
281
     1
  3
Standard
350
87
  0
DICTIONARY
  5
99
102
{ACAD_REACTORS
330
C
102
}
330
C
100
AcDbDictionary
281
     1
  3
2dWireframe
350
9F
  3
3D Hidden
350
A1
  3
3dWireframe
350
A0
  3
Basic
350
9E
  3
Brighten
350
A5
  3
ColorChange
350
A9
  3
Conceptual
350
A2
  3
Dim
350
A4
  3
EdgeColorOff
350
155
  3
Facepattern
350
A8
  3
Flat
350
9A
  3
FlatWithEdges
350
9B
  3
Gouraud
350
9C
  3
GouraudWithEdges
350
9D
  3
Hidden
350
14D
  3
JitterOff
350
153
  3
Linepattern
350
A7
  3
OverhangOff
350
154
  3
Realistic
350
A3
  3
Shaded
350
152
  3
Shaded with edges
350
151
  3
Shades of Gray
350
14E
  3
Sketchy
350
14F
  3
Thicken
350
A6
  3
Wireframe
350
14C
  3
X-Ray
350
150
  0
XRECORD
  5
2270
102
{ACAD_REACTORS
330
C
102
}
330
C
100
AcDbXrecord
280
     1
 90
        1
330
87
  0
DICTIONARY
  5
66
102
{ACAD_REACTORS
330
C
102
}
330
C
100
AcDbDictionary
281
     1
  3
CANNOSCALE
350
245
  3
CMLEADERSTYLE
350
243
  3
CTABLESTYLE
350
89
  3
DIMASSOC
350
67
  3
HIDETEXT
350
6B
  3
INDEXCTL
350
870
  3
LAYEREVAL
350
247
  3
LAYERNOTIFY
350
248
  3
LIGHTINGUNITS
350
246
  3
MSLTSCALE
350
244
  3
SORTENTS
350
86F
  3
XCLIPFRAME
350
2178
  0
DICTIONARY
  5
DFF
102
{ACAD_REACTORS
330
C
102
}
330
C
100
AcDbDictionary
281
     1
  0
XRECORD
  5
2271
102
{ACAD_REACTORS
330
C
102
}
330
C
100
AcDbXrecord
280
     1
  1
DWGPROPS COOKIE
  2

  3

  4

  6

  7

  8
imamura
  9

300
=
301
=
302
=
303
=
304
=
305
=
306
=
307
=
308
=
309
=
 40
0.3796640393518518
 41
2458998.359140544
 42
2459011.791651459
  1

 90
        0
  0
DICTIONARY
  5
DE
102
{ACAD_REACTORS
330
DD
102
}
330
DD
100
AcDbDictionary
281
     1
  0
XRECORD
  5
14E1
102
{ACAD_REACTORS
330
81D
102
}
330
81D
100
AcDbXrecord
280
     1
290
     1
  0
SORTENTSTABLE
  5
31B
102
{ACAD_REACTORS
330
31A
102
}
330
31A
100
AcDbSortentsTable
330
1F
331
16F4
  5
1998
331
2255
  5
1EFC
331
16F0
  5
1994
331
221E
  5
EC1
331
2251
  5
1F03
331
1F0C
  5
225F
331
21DB
  5
1EF6
331
1ECD
  5
2220
331
1986
  5
21F6
331
221A
  5
EBD
331
224D
  5
1F05
331
1F08
  5
225B
331
1EC9
  5
221C
331
2216
  5
EB9
331
2249
  5
1F09
331
1F04
  5
2257
331
1EC5
  5
2218
331
18FE
  5
21E2
331
2212
  5
EB5
331
1F00
  5
2253
331
1EC1
  5
2214
331
18FA
  5
21DB
331
16D5
  5
18F6
331
E96
  5
16D1
331
E5F
  5
E5F
331
16D1
  5
18ED
331
E5B
  5
E5B
331
E92
  5
E92
331
E1C
  5
E1C
331
ECD
  5
172C
331
E18
  5
E18
331
E57
  5
E57
331
E8E
  5
E8E
331
EC9
  5
1704
331
E8A
  5
E8A
331
E14
  5
E14
331
E53
  5
E53
331
E10
  5
E10
331
2245
  5
201F
331
220E
  5
EB1
331
2241
  5
2026
331
1EFC
  5
224F
331
18F6
  5
21E3
331
220A
  5
EAD
331
223D
  5
21C2
331
1EF8
  5
224B
331
18F2
  5
21DA
331
2206
  5
EA9
331
2239
  5
21C7
331
1EF4
  5
2247
331
18EE
  5
21F0
331
2202
  5
EA5
331
1EF0
  5
2243
331
19A1
  5
2211
331
EC5
  5
1700
331
E86
  5
E86
331
E4F
  5
E4F
331
EC1
  5
16FC
331
E4B
  5
E4B
331
E82
  5
E82
331
E0C
  5
E0C
331
EBD
  5
16F8
331
E08
  5
E08
331
E47
  5
E47
331
E7E
  5
E7E
331
EB9
  5
16F4
331
E04
  5
E04
331
E43
  5
E43
331
E7A
  5
E7A
331
21FE
  5
EA1
331
21BB
  5
21D0
331
1EEC
  5
223F
331
21FA
  5
E9D
331
2235
  5
21CD
331
226C
  5
18D8
331
1EE8
  5
223B
331
21F6
  5
E99
331
2231
  5
21CE
331
2268
  5
18E7
331
1EE4
  5
2237
331
199D
  5
220D
331
21F2
  5
E95
331
1EE0
  5
2233
331
1999
  5
2209
331
EB5
  5
16F0
331
E3F
  5
E3F
331
EB1
  5
16EC
331
E3B
  5
E3B
331
16EC
  5
1990
331
EAD
  5
16E8
331
E37
  5
E37
331
E76
  5
E76
331
16E8
  5
198C
331
EA9
  5
16E4
331
E33
  5
E33
331
E72
  5
E72
331
1707
  5
1ECE
331
1703
  5
1EC4
331
2264
  5
1EE1
331
16FF
  5
1EC0
331
2027
  5
226D
331
21EE
  5
18A3
331
222D
  5
16CA
331
2260
  5
1EEE
331
16FB
  5
199F
331
2023
  5
2269
331
1EDC
  5
222F
331
1995
  5
2205
331
18CE
  5
21E6
331
2229
  5
ECC
331
225C
  5
1EF2
331
201F
  5
2265
331
21E6
  5
1ECF
331
1ED8
  5
222B
331
1991
  5
2201
331
2225
  5
EC8
331
2258
  5
1EF9
331
201B
  5
2261
331
21E2
  5
1EE7
331
1ED4
  5
2227
331
198D
  5
21FD
331
2221
  5
EC4
331
1ED0
  5
2223
331
1989
  5
21F9
331
16E4
  5
1988
331
EA5
  5
16E0
331
E6E
  5
E6E
331
E2F
  5
E2F
331
16E0
  5
1984
331
EA1
  5
16DC
331
E2B
  5
E2B
331
E6A
  5
E6A
331
16DC
  5
18FE
331
E9D
  5
16D8
331
E27
  5
E27
331
E66
  5
E66
331
16D8
  5
18FA
331
E99
  5
16D4
331
E23
  5
E23
331
E62
  5
E62
331
18C7
  5
21D3
331
16CE
  5
18EA
331
16CA
  5
18E8
331
16F7
  5
199B
331
16F3
  5
1997
331
2254
  5
1EFB
331
221D
  5
EC0
331
2250
  5
1F02
331
1F0B
  5
225E
331
21DA
  5
1EF5
331
1ECC
  5
221F
331
1985
  5
21F5
331
2219
  5
EBC
331
224C
  5
1F08
331
1F07
  5
225A
331
21D6
  5
1F01
331
1EC8
  5
221B
331
2215
  5
EB8
331
2248
  5
1F0D
331
1F03
  5
2256
331
1EC4
  5
2217
331
18FD
  5
21E4
331
2211
  5
EB4
331
1EC0
  5
2213
331
18F9
  5
21D9
331
16D4
  5
18F5
331
E95
  5
16D0
331
E5E
  5
E5E
331
E1F
  5
E1F
331
16D0
  5
18EC
331
E1B
  5
E1B
331
E5A
  5
E5A
331
E91
  5
E91
331
ECC
  5
1707
331
E17
  5
E17
331
E56
  5
E56
331
E8D
  5
E8D
331
EC8
  5
1703
331
E89
  5
E89
331
E13
  5
E13
331
E52
  5
E52
331
2244
  5
201E
331
1EFF
  5
2252
331
220D
  5
EB0
331
2240
  5
2025
331
1EFB
  5
224E
331
18F5
  5
21E1
331
2209
  5
EAC
331
223C
  5
21C1
331
1EF7
  5
224A
331
18F1
  5
21D8
331
17A2
  5
2024
331
2205
  5
EA8
331
2238
  5
21C6
331
1EF3
  5
2246
331
21C2
  5
21CA
331
18ED
  5
21EF
331
2201
  5
EA4
331
19A0
  5
2210
331
EC4
  5
16FF
331
E4E
  5
E4E
331
E85
  5
E85
331
E0F
  5
E0F
331
EC0
  5
16FB
331
E4A
  5
E4A
331
E81
  5
E81
331
E0B
  5
E0B
331
EBC
  5
16F7
331
E07
  5
E07
331
E46
  5
E46
331
E7D
  5
E7D
331
EB8
  5
16F3
331
E79
  5
E79
331
E03
  5
E03
331
E42
  5
E42
331
1EEF
  5
2242
331
21FD
  5
EA0
331
1EEB
  5
223E
331
21F9
  5
E9C
331
2234
  5
21CC
331
226B
  5
18E6
331
1EE7
  5
223A
331
21F5
  5
E98
331
1EE3
  5
2236
331
199C
  5
220C
331
2230
  5
16CF
331
1998
  5
2208
331
EB4
  5
16EF
331
E3E
  5
E3E
331
16EF
  5
1993
331
EB0
  5
16EB
331
E3A
  5
E3A
331
16EB
  5
198F
331
EAC
  5
16E7
331
E36
  5
E36
331
E75
  5
E75
331
EA8
  5
16E3
331
E32
  5
E32
331
E71
  5
E71
331
1706
  5
1ECA
331
2267
  5
1EDC
331
1702
  5
1EC3
331
2263
  5
1EDE
331
16FE
  5
1EBF
331
2026
  5
226C
331
1EDF
  5
2232
331
21ED
  5
18A2
331
222C
  5
ECF
331
225F
  5
1EED
331
16FA
  5
199E
331
2022
  5
2268
331
1EDB
  5
222E
331
1994
  5
2204
331
18CD
  5
21E7
331
2228
  5
ECB
331
225B
  5
1EF1
331
201E
  5
2264
331
1ED7
  5
222A
331
1990
  5
2200
331
18C9
  5
21E5
331
2224
  5
EC7
331
1ED3
  5
2226
331
21E1
  5
1EE6
331
198C
  5
21FC
331
16E7
  5
198B
331
2220
  5
EC3
331
1988
  5
21F8
331
16E3
  5
1987
331
EA4
  5
16DF
331
E6D
  5
E6D
331
E2E
  5
E2E
331
16DF
  5
1983
331
EA0
  5
16DB
331
E2A
  5
E2A
331
E69
  5
E69
331
16DB
  5
18FD
331
E9C
  5
16D7
331
E26
  5
E26
331
E65
  5
E65
331
E98
  5
16D3
331
E22
  5
E22
331
E61
  5
E61
331
16CD
  5
18E9
331
16F6
  5
199A
331
2257
  5
1EF8
331
16F2
  5
1996
331
2253
  5
1EFE
331
1ECF
  5
2222
331
221C
  5
EBF
331
224F
  5
1F07
331
1F0A
  5
225D
331
1ECB
  5
221E
331
1984
  5
21F4
331
2218
  5
EBB
331
224B
  5
1F0B
331
1F06
  5
2259
331
21D5
  5
1F00
331
1EC7
  5
221A
331
2214
  5
EB7
331
1F02
  5
2255
331
21D1
  5
201C
331
1EC3
  5
2216
331
18FC
  5
21DF
331
16D7
  5
18F9
331
2210
  5
EB3
331
18F8
  5
21D7
331
16D3
  5
18F3
331
E5D
  5
E5D
331
E1E
  5
E1E
331
ECF
  5
18A0
331
E1A
  5
E1A
331
E59
  5
E59
331
E90
  5
E90
331
ECB
  5
1706
331
E16
  5
E16
331
E55
  5
E55
331
E8C
  5
E8C
331
E88
  5
E88
331
E12
  5
E12
331
E51
  5
E51
331
1902
  5
21F2
331
2247
  5
1F0C
331
2243
  5
2021
331
1EFE
  5
2251
331
21CD
  5
2023
331
1EBF
  5
2212
331
220C
  5
EAF
331
223F
  5
21BB
331
1EFA
  5
224D
331
21C9
  5
21BD
331
18F4
  5
21DE
331
2208
  5
EAB
331
223B
  5
21C0
331
1EF6
  5
2249
331
21C5
  5
21C4
331
18F0
  5
21D6
331
2204
  5
EA7
331
1EF2
  5
2245
331
21C1
  5
21C9
331
2200
  5
EA3
331
EC7
  5
1702
331
18E8
  5
21EE
331
EC3
  5
16FE
331
E4D
  5
E4D
331
E84
  5
E84
331
E0E
  5
E0E
331
EBF
  5
16FA
331
E0A
  5
E0A
331
E49
  5
E49
331
E80
  5
E80
331
EBB
  5
16F6
331
E06
  5
E06
331
E45
  5
E45
331
E7C
  5
E7C
331
E78
  5
E78
331
E41
  5
E41
331
2028
  5
226E
331
1EEE
  5
2241
331
21FC
  5
E9F
331
2237
  5
21C5
331
226E
  5
18E3
331
1EEA
  5
223D
331
18E4
  5
21EC
331
21F8
  5
E9B
331
2233
  5
21CB
331
226A
  5
18E5
331
1EE6
  5
2239
331
199F
  5
220F
331
21F4
  5
E97
331
1EE2
  5
2235
331
199B
  5
220B
331
18D4
  5
21EA
331
EB7
  5
16F2
331
EB3
  5
16EE
331
E3D
  5
E3D
331
16EE
  5
1992
331
EAF
  5
16EA
331
E39
  5
E39
331
16EA
  5
198E
331
EAB
  5
16E6
331
E35
  5
E35
331
E74
  5
E74
331
E70
  5
E70
331
E31
  5
E31
331
1705
  5
1EC9
331
2266
  5
1ED6
331
1701
  5
1EC2
331
222F
  5
16CE
331
2262
  5
1EDD
331
16FD
  5
19A1
331
2025
  5
226B
331
1EDE
  5
2231
331
1997
  5
2207
331
21EC
  5
18A1
331
222B
  5
ECE
331
225E
  5
1EEA
331
16F9
  5
199D
331
2021
  5
2267
331
21E8
  5
1ED4
331
1EDA
  5
222D
331
1993
  5
2203
331
18CC
  5
21E8
331
2227
  5
ECA
331
225A
  5
1EF4
331
201D
  5
2263
331
1ED6
  5
2229
331
198F
  5
21FF
331
18C8
  5
21E0
331
2223
  5
EC6
331
1ED2
  5
2225
331
21E0
  5
1EE3
331
198B
  5
21FB
331
16E6
  5
198A
331
EA7
  5
16E2
331
18A0
  5
21D2
331
16E2
  5
1986
331
EA3
  5
16DE
331
E6C
  5
E6C
331
E2D
  5
E2D
331
16DE
  5
1902
331
E9F
  5
16DA
331
E29
  5
E29
331
E68
  5
E68
331
16DA
  5
18FC
331
E9B
  5
16D6
331
E25
  5
E25
331
E64
  5
E64
331
E21
  5
E21
331
E60
  5
E60
331
16F5
  5
1999
331
2256
  5
1EFD
331
16F1
  5
1995
331
221F
  5
EC2
331
2252
  5
1F04
331
1F0D
  5
2260
331
21DC
  5
1EF7
331
1ECE
  5
2221
331
1987
  5
21F7
331
221B
  5
EBE
331
224E
  5
1F06
331
1F09
  5
225C
331
1ECA
  5
221D
331
1983
  5
21F3
331
2217
  5
EBA
331
224A
  5
1F0A
331
1F05
  5
2258
331
21D4
  5
1EFF
331
1EC6
  5
2219
331
2213
  5
EB6
331
1F01
  5
2254
331
21D0
  5
201B
331
1EC2
  5
2215
331
18FB
  5
21DD
331
16D6
  5
18F7
331
E97
  5
16D2
331
16D2
  5
18F2
331
E5C
  5
E5C
331
E93
  5
E93
331
E1D
  5
E1D
331
ECE
  5
17A2
331
E19
  5
E19
331
E58
  5
E58
331
E8F
  5
E8F
331
ECA
  5
1705
331
E15
  5
E15
331
E54
  5
E54
331
E8B
  5
E8B
331
E11
  5
E11
331
E50
  5
E50
331
1901
  5
21F1
331
2246
  5
2020
331
220F
  5
EB2
331
2242
  5
2027
331
1EFD
  5
2250
331
21CC
  5
2022
331
18F7
  5
21D5
331
220B
  5
EAE
331
223E
  5
2028
331
1EF9
  5
224C
331
21C8
  5
21BC
331
18F3
  5
21DC
331
2207
  5
EAA
331
223A
  5
21C3
331
1EF5
  5
2248
331
18EF
  5
21D4
331
2203
  5
EA6
331
1EF1
  5
2244
331
EC6
  5
1701
331
E87
  5
E87
331
EC2
  5
16FD
331
E4C
  5
E4C
331
E83
  5
E83
331
E0D
  5
E0D
331
EBE
  5
16F9
331
E09
  5
E09
331
E48
  5
E48
331
E7F
  5
E7F
331
EBA
  5
16F5
331
E05
  5
E05
331
E44
  5
E44
331
E7B
  5
E7B
331
E40
  5
E40
331
21FF
  5
EA2
331
21BC
  5
21D1
331
172C
  5
201D
331
1EED
  5
2240
331
18E7
  5
21ED
331
21FB
  5
E9E
331
2236
  5
21C8
331
226D
  5
18D9
331
1EE9
  5
223C
331
18E3
  5
21EB
331
21F7
  5
E9A
331
2232
  5
21CF
331
2269
  5
18E4
331
1EE5
  5
2238
331
199E
  5
220E
331
21F3
  5
E96
331
1EE1
  5
2234
331
199A
  5
220A
331
18D3
  5
21E9
331
EB6
  5
16F1
331
EB2
  5
16ED
331
E3C
  5
E3C
331
16ED
  5
1991
331
EAE
  5
16E9
331
E38
  5
E38
331
E77
  5
E77
331
16E9
  5
198D
331
EAA
  5
16E5
331
E34
  5
E34
331
E73
  5
E73
331
E30
  5
E30
331
1704
  5
1EC8
331
2265
  5
1ED5
331
1700
  5
1EC1
331
222E
  5
16CD
331
2261
  5
1EE2
331
16FC
  5
19A0
331
2024
  5
226A
331
1EDD
  5
2230
331
1996
  5
2206
331
222A
  5
ECD
331
225D
  5
1EF3
331
16F8
  5
199C
331
2020
  5
2266
331
21E7
  5
1ED0
331
1ED9
  5
222C
331
1992
  5
2202
331
2226
  5
EC9
331
2259
  5
1EFA
331
201C
  5
2262
331
1ED5
  5
2228
331
198E
  5
21FE
331
2222
  5
EC5
331
1ED1
  5
2224
331
198A
  5
21FA
331
16E5
  5
1989
331
EA6
  5
16E1
331
E6F
  5
E6F
331
16E1
  5
1985
331
EA2
  5
16DD
331
E2C
  5
E2C
331
E6B
  5
E6B
331
16DD
  5
1901
331
E9E
  5
16D9
331
E28
  5
E28
331
E67
  5
E67
331
16D9
  5
18FB
331
E9A
  5
16D5
331
E24
  5
E24
331
E63
  5
E63
331
E20
  5
E20
331
16CF
  5
18EB
  0
SORTENTSTABLE
  5
B95
102
{ACAD_REACTORS
330
B94
102
}
330
B94
100
AcDbSortentsTable
330
ACA
  0
XRECORD
  5
2274
102
{ACAD_REACTORS
330
2272
102
}
330
2272
100
AcDbXrecord
280
     1
 70
     2
  0
XRECORD
  5
2273
102
{ACAD_REACTORS
330
2272
102
}
330
2272
100
AcDbXrecord
280
     1
 40
1.25
  0
XRECORD
  5
2275
102
{ACAD_REACTORS
330
2272
102
}
330
2272
100
AcDbXrecord
280
     1
 40
1.570796326794896
  0
LAYOUT
  5
22
102
{ACAD_XDICTIONARY
360
2276
102
}
102
{ACAD_REACTORS
330
1A
102
}
330
1A
100
AcDbPlotSettings
  1

  2
none_device
  4
ANSI_A_(8.50_x_11.00_Inches)
  6

 40
6.349999904632567
 41
19.04999923706055
 42
6.350006103515625
 43
19.04998779296875
 44
215.8999938964844
 45
279.3999938964844
 46
0.0
 47
0.0
 48
0.0
 49
0.0
140
0.0
141
0.0
142
1.0
143
2.584895464708373
 70
 11952
 72
     0
 73
     1
 74
     0
  7

 75
     0
147
0.3868628397755418
148
0.0
149
0.0
100
AcDbLayout
  1
Model
 70
     1
 71
     0
 10
0.0
 20
0.0
 11
12.0
 21
9.0
 12
0.0
 22
0.0
 32
0.0
 14
0.0
 24
0.0
 34
0.0
 15
0.0
 25
0.0
 35
0.0
146
0.0
 13
0.0
 23
0.0
 33
0.0
 16
1.0
 26
0.0
 36
0.0
 17
0.0
 27
1.0
 37
0.0
 76
     0
330
1F
331
94
  0
LAYOUT
  5
59
102
{ACAD_XDICTIONARY
360
2278
102
}
102
{ACAD_REACTORS
330
1A
102
}
330
1A
100
AcDbPlotSettings
  1

  2
None
  4

  6

 40
0.0
 41
0.0
 42
0.0
 43
0.0
 44
0.0
 45
0.0
 46
0.0
 47
0.0
 48
0.0
 49
0.0
140
0.0
141
0.0
142
1.0
143
1.0
 70
   688
 72
     0
 73
     0
 74
     5
  7

 75
    16
147
1.0
148
0.0
149
0.0
100
AcDbLayout
  1
レイアウト1
 70
     1
 71
     1
 10
0.0
 20
0.0
 11
12.0
 21
9.0
 12
0.0
 22
0.0
 32
0.0
 14
0.0
 24
0.0
 34
0.0
 15
0.0
 25
0.0
 35
0.0
146
0.0
 13
0.0
 23
0.0
 33
0.0
 16
1.0
 26
0.0
 36
0.0
 17
0.0
 27
1.0
 37
0.0
 76
     0
330
58
  0
LAYOUT
  5
5E
102
{ACAD_XDICTIONARY
360
227A
102
}
102
{ACAD_REACTORS
330
1A
102
}
330
1A
100
AcDbPlotSettings
  1

  2
None
  4

  6

 40
0.0
 41
0.0
 42
0.0
 43
0.0
 44
0.0
 45
0.0
 46
0.0
 47
0.0
 48
0.0
 49
0.0
140
0.0
141
0.0
142
1.0
143
1.0
 70
   688
 72
     0
 73
     0
 74
     5
  7

 75
    16
147
1.0
148
0.0
149
0.0
100
AcDbLayout
  1
レイアウト2
 70
     1
 71
     2
 10
0.0
 20
0.0
 11
12.0
 21
9.0
 12
0.0
 22
0.0
 32
0.0
 14
0.0
 24
0.0
 34
0.0
 15
0.0
 25
0.0
 35
0.0
146
0.0
 13
0.0
 23
0.0
 33
0.0
 16
1.0
 26
0.0
 36
0.0
 17
0.0
 27
1.0
 37
0.0
 76
     0
330
5D
  0
MATERIAL
  5
97
102
{ACAD_XDICTIONARY
360
153B
102
}
102
{ACAD_REACTORS
330
72
102
}
330
72
100
AcDbMaterial
  1
ByBlock
 73
     1
 78
     1
172
     1
176
     1
270
     1
274
     1
  0
MATERIAL
  5
96
102
{ACAD_XDICTIONARY
360
1539
102
}
102
{ACAD_REACTORS
330
72
102
}
330
72
100
AcDbMaterial
  1
ByLayer
 73
     1
 78
     1
172
     1
176
     1
270
     1
274
     1
  0
MATERIAL
  5
98
102
{ACAD_XDICTIONARY
360
153D
102
}
102
{ACAD_REACTORS
330
72
102
}
330
72
100
AcDbMaterial
  1
Global
 73
     1
 78
     1
172
     1
176
     1
270
     1
274
     1
  0
MLEADERSTYLE
  5
169
102
{ACAD_REACTORS
330
168
102
}
330
168
100
AcDbMLeaderStyle
170
     2
171
     1
172
     0
 90
        2
 40
0.0
 41
0.0
173
     1
 91
-1056964608
340
14
 92
       -2
290
     1
 42
2.0
291
     1
 43
0.36
  3
Standard
 44
4.0
300

342
11
174
     1
178
     6
175
     1
176
     0
 93
-1056964608
 45
4.0
292
     0
297
     0
 46
4.0
 94
-1056964608
 47
1.0
 49
1.0
140
1.0
293
     1
141
0.0
294
     1
177
     0
142
1.0
295
     0
296
     0
143
0.125
1001
ACAD_MLEADERVER
1070
     2
  0
MLINESTYLE
  5
18
102
{ACAD_REACTORS
330
17
102
}
330
17
100
AcDbMlineStyle
  2
STANDARD
 70
     0
  3

 62
   256
 51
90.0
 52
90.0
 71
     2
 49
0.5
 62
   256
  6
BYLAYER
 49
-0.5
 62
   256
  6
BYLAYER
  0
ACDBPLACEHOLDER
  5
F
102
{ACAD_REACTORS
330
E
102
}
330
E
  0
SCALE
  5
157
102
{ACAD_REACTORS
330
156
102
}
330
156
100
AcDbScale
 70
     0
300
1:1
140
1.0
141
1.0
290
     1
  0
SCALE
  5
158
102
{ACAD_REACTORS
330
156
102
}
330
156
100
AcDbScale
 70
     0
300
1:2
140
1.0
141
2.0
290
     0
  0
SCALE
  5
159
102
{ACAD_REACTORS
330
156
102
}
330
156
100
AcDbScale
 70
     0
300
1:4
140
1.0
141
4.0
290
     0
  0
SCALE
  5
15A
102
{ACAD_REACTORS
330
156
102
}
330
156
100
AcDbScale
 70
     0
300
1:5
140
1.0
141
5.0
290
     0
  0
SCALE
  5
15B
102
{ACAD_REACTORS
330
156
102
}
330
156
100
AcDbScale
 70
     0
300
1:8
140
1.0
141
8.0
290
     0
  0
SCALE
  5
15C
102
{ACAD_REACTORS
330
156
102
}
330
156
100
AcDbScale
 70
     0
300
1:10
140
1.0
141
10.0
290
     0
  0
SCALE
  5
15D
102
{ACAD_REACTORS
330
156
102
}
330
156
100
AcDbScale
 70
     0
300
1:16
140
1.0
141
16.0
290
     0
  0
SCALE
  5
15E
102
{ACAD_REACTORS
330
156
102
}
330
156
100
AcDbScale
 70
     0
300
1:20
140
1.0
141
20.0
290
     0
  0
SCALE
  5
15F
102
{ACAD_REACTORS
330
156
102
}
330
156
100
AcDbScale
 70
     0
300
1:30
140
1.0
141
30.0
290
     0
  0
SCALE
  5
160
102
{ACAD_REACTORS
330
156
102
}
330
156
100
AcDbScale
 70
     0
300
1:40
140
1.0
141
40.0
290
     0
  0
SCALE
  5
161
102
{ACAD_REACTORS
330
156
102
}
330
156
100
AcDbScale
 70
     0
300
1:50
140
1.0
141
50.0
290
     0
  0
SCALE
  5
162
102
{ACAD_REACTORS
330
156
102
}
330
156
100
AcDbScale
 70
     0
300
1:100
140
1.0
141
100.0
290
     0
  0
SCALE
  5
163
102
{ACAD_REACTORS
330
156
102
}
330
156
100
AcDbScale
 70
     0
300
2:1
140
2.0
141
1.0
290
     0
  0
SCALE
  5
164
102
{ACAD_REACTORS
330
156
102
}
330
156
100
AcDbScale
 70
     0
300
4:1
140
4.0
141
1.0
290
     0
  0
SCALE
  5
165
102
{ACAD_REACTORS
330
156
102
}
330
156
100
AcDbScale
 70
     0
300
8:1
140
8.0
141
1.0
290
     0
  0
SCALE
  5
166
102
{ACAD_REACTORS
330
156
102
}
330
156
100
AcDbScale
 70
     0
300
10:1
140
10.0
141
1.0
290
     0
  0
SCALE
  5
167
102
{ACAD_REACTORS
330
156
102
}
330
156
100
AcDbScale
 70
     0
300
100:1
140
100.0
141
1.0
290
     0
  0
TABLESTYLE
  5
87
102
{ACAD_XDICTIONARY
360
821
102
}
102
{ACAD_REACTORS
330
86
102
}
330
86
100
AcDbTableStyle
  3
Standard
 70
     0
 71
     0
 40
0.06
 41
0.06
280
     0
281
     0
  7
Standard
140
0.18
170
     2
 62
     0
 63
     7
283
     0
274
    -2
284
     1
 64
     0
275
    -2
285
     1
 65
     0
276
    -2
286
     1
 66
     0
277
    -2
287
     1
 67
     0
278
    -2
288
     1
 68
     0
279
    -2
289
     1
 69
     0
  7
Standard
140
0.25
170
     5
 62
     0
 63
     7
283
     0
274
    -2
284
     1
 64
     0
275
    -2
285
     1
 65
     0
276
    -2
286
     1
 66
     0
277
    -2
287
     1
 67
     0
278
    -2
288
     1
 68
     0
279
    -2
289
     1
 69
     0
  7
Standard
140
0.18
170
     5
 62
     0
 63
     7
283
     0
274
    -2
284
     1
 64
     0
275
    -2
285
     1
 65
     0
276
    -2
286
     1
 66
     0
277
    -2
287
     1
 67
     0
278
    -2
288
     1
 68
     0
279
    -2
289
     1
 69
     0
  0
VISUALSTYLE
  5
9F
102
{ACAD_XDICTIONARY
360
2287
102
}
102
{ACAD_REACTORS
330
99
102
}
330
99
100
AcDbVisualStyle
  2

 70
     4
 71
     0
 72
     2
 73
     1
 90
        0
 40
-0.6
 41
-30.0
 62
     5
 63
     7
 74
     1
 91
        4
 64
     7
 65
   257
 75
     1
175
     1
 42
1.0
 92
        0
 66
   257
 43
1.0
 76
     1
 77
     6
 78
     2
 67
     7
 79
     5
170
     0
171
     0
290
     0
174
     0
 93
        1
 44
0.0
173
     0
291
     0
 45
0.0
1001
ACAD
1000
AcDbSavedByObjectVersion
1070
     0
  0
VISUALSTYLE
  5
A1
102
{ACAD_XDICTIONARY
360
228B
102
}
102
{ACAD_REACTORS
330
99
102
}
330
99
100
AcDbVisualStyle
  2

 70
     6
 71
     1
 72
     2
 73
     2
 90
        0
 40
-0.6
 41
-30.0
 62
     5
 63
     7
 74
     2
 91
        2
 64
     7
 65
   257
 75
     2
175
     1
 42
40.0
 92
        0
 66
   257
 43
1.0
 76
     1
 77
     6
 78
     2
 67
     7
 79
     3
170
     0
171
     0
290
     0
174
     0
 93
        1
 44
0.0
173
     0
291
     0
 45
0.0
1001
ACAD
1000
AcDbSavedByObjectVersion
1070
     0
  0
VISUALSTYLE
  5
A0
102
{ACAD_XDICTIONARY
360
2289
102
}
102
{ACAD_REACTORS
330
99
102
}
330
99
100
AcDbVisualStyle
  2

 70
     5
 71
     0
 72
     2
 73
     1
 90
        0
 40
-0.6
 41
-30.0
 62
     5
 63
     7
 74
     1
 91
        4
 64
     7
 65
   257
 75
     1
175
     1
 42
1.0
 92
        0
 66
   257
 43
1.0
 76
     1
 77
     6
 78
     2
 67
     7
 79
     5
170
     0
171
     0
290
     0
174
     0
 93
        1
 44
0.0
173
     0
291
     0
 45
0.0
1001
ACAD
1000
AcDbSavedByObjectVersion
1070
     0
  0
VISUALSTYLE
  5
9E
102
{ACAD_XDICTIONARY
360
2285
102
}
102
{ACAD_REACTORS
330
99
102
}
330
99
100
AcDbVisualStyle
  2

 70
     7
 71
     1
 72
     0
 73
     1
 90
        0
 40
-0.6
 41
-30.0
 62
     5
 63
     7
 74
     0
 91
        4
 64
     7
 65
   257
 75
     1
175
     1
 42
1.0
 92
        8
 66
     7
 43
1.0
 76
     1
 77
     6
 78
     2
 67
     7
 79
     5
170
     0
171
     0
290
     0
174
     0
 93
        1
 44
0.0
173
     0
291
     1
 45
0.0
1001
ACAD
1000
AcDbSavedByObjectVersion
1070
     0
  0
VISUALSTYLE
  5
A5
102
{ACAD_XDICTIONARY
360
2293
102
}
102
{ACAD_REACTORS
330
99
102
}
330
99
100
AcDbVisualStyle
  2

 70
    12
 71
     2
 72
     2
 73
     1
 90
        0
 40
-0.6
 41
-30.0
 62
     5
 63
     7
 74
     1
 91
        4
 64
     7
 65
   257
 75
     1
175
     1
 42
1.0
 92
        8
 66
     7
 43
1.0
 76
     1
 77
     6
 78
     2
 67
     7
 79
     5
170
     0
171
     0
290
     0
174
     0
 93
        1
 44
50.0
173
     0
291
     1
 45
0.0
1001
ACAD
1000
AcDbSavedByObjectVersion
1070
     0
  0
VISUALSTYLE
  5
A9
102
{ACAD_XDICTIONARY
360
229B
102
}
102
{ACAD_REACTORS
330
99
102
}
330
99
100
AcDbVisualStyle
  2

 70
    16
 71
     2
 72
     2
 73
     3
 90
        0
 40
-0.6
 41
-30.0
 62
     5
 63
     8
 74
     1
 91
        4
 64
     7
 65
   257
 75
     1
175
     1
 42
1.0
 92
        8
 66
     8
 43
1.0
 76
     1
 77
     6
 78
     2
 67
     7
 79
     5
170
     0
171
     0
290
     0
174
     0
 93
        1
 44
0.0
173
     0
291
     1
 45
0.0
1001
ACAD
1000
AcDbSavedByObjectVersion
1070
     0
  0
VISUALSTYLE
  5
A2
102
{ACAD_XDICTIONARY
360
228D
102
}
102
{ACAD_REACTORS
330
99
102
}
330
99
100
AcDbVisualStyle
  2

 70
     9
 71
     3
 72
     2
 73
     1
 90
        0
 40
-0.6
 41
-30.0
 62
     5
 63
     7
 74
     2
 91
        2
 64
     7
 65
   257
 75
     1
175
     1
 42
40.0
 92
        8
 66
     7
 43
1.0
 76
     1
 77
     6
 78
     2
 67
     7
 79
     3
170
     0
171
     0
290
     0
174
     0
 93
        1
 44
0.0
173
     0
291
     0
 45
0.0
1001
ACAD
1000
AcDbSavedByObjectVersion
1070
     0
  0
VISUALSTYLE
  5
A4
102
{ACAD_XDICTIONARY
360
2291
102
}
102
{ACAD_REACTORS
330
99
102
}
330
99
100
AcDbVisualStyle
  2

 70
    11
 71
     2
 72
     2
 73
     1
 90
        0
 40
-0.6
 41
-30.0
 62
     5
 63
     7
 74
     1
 91
        4
 64
     7
 65
   257
 75
     1
175
     1
 42
1.0
 92
        8
 66
     7
 43
1.0
 76
     1
 77
     6
 78
     2
 67
     7
 79
     5
170
     0
171
     0
290
     0
174
     0
 93
        1
 44
-50.0
173
     0
291
     1
 45
0.0
1001
ACAD
1000
AcDbSavedByObjectVersion
1070
     0
  0
VISUALSTYLE
  5
155
102
{ACAD_XDICTIONARY
360
22AF
102
}
102
{ACAD_REACTORS
330
99
102
}
330
99
100
AcDbVisualStyle
  2

 70
    22
 71
     2
 72
     2
 73
     0
 90
        0
 40
-0.6
 41
-30.0
 62
     5
 63
     7
 74
     1
 91
        4
 64
     7
 65
   257
 75
     1
175
     1
 42
1.0
 92
        8
 66
     7
 43
1.0
 76
     1
 77
     6
 78
     2
 67
     7
 79
     5
170
     0
171
     0
290
     0
174
     0
 93
        1
 44
0.0
173
     0
291
     1
 45
0.0
1001
ACAD
1000
AcDbSavedByObjectVersion
1070
     0
  0
VISUALSTYLE
  5
A8
102
{ACAD_XDICTIONARY
360
2299
102
}
102
{ACAD_REACTORS
330
99
102
}
330
99
100
AcDbVisualStyle
  2

 70
    15
 71
     2
 72
     2
 73
     1
 90
        0
 40
-0.6
 41
-30.0
 62
     5
 63
     7
 74
     1
 91
        4
 64
     7
 65
   257
 75
     1
175
     1
 42
1.0
 92
        8
 66
     7
 43
1.0
 76
     1
 77
     6
 78
     2
 67
     7
 79
     5
170
     0
171
     0
290
     0
174
     0
 93
        1
 44
0.0
173
     0
291
     1
 45
0.0
1001
ACAD
1000
AcDbSavedByObjectVersion
1070
     0
  0
VISUALSTYLE
  5
9A
102
{ACAD_XDICTIONARY
360
227D
102
}
102
{ACAD_REACTORS
330
99
102
}
330
99
100
AcDbVisualStyle
  2

 70
     0
 71
     2
 72
     1
 73
     1
 90
        2
 40
-0.6
 41
30.0
 62
     5
 63
     7
 74
     0
 91
        4
 64
     7
 65
   257
 75
     1
175
     1
 42
1.0
 92
        8
 66
     7
 43
1.0
 76
     1
 77
     6
 78
     2
 67
     7
 79
     5
170
     0
171
     0
290
     0
174
     0
 93
        1
 44
0.0
173
     0
291
     1
 45
0.0
1001
ACAD
1000
AcDbSavedByObjectVersion
1070
     0
  0
VISUALSTYLE
  5
9B
102
{ACAD_XDICTIONARY
360
227F
102
}
102
{ACAD_REACTORS
330
99
102
}
330
99
100
AcDbVisualStyle
  2

 70
     1
 71
     2
 72
     1
 73
     1
 90
        2
 40
-0.6
 41
30.0
 62
     5
 63
     7
 74
     1
 91
        4
 64
     7
 65
   257
 75
     1
175
     1
 42
1.0
 92
        0
 66
   257
 43
1.0
 76
     1
 77
     6
 78
     2
 67
     7
 79
     5
170
     0
171
     0
290
     0
174
     0
 93
        1
 44
0.0
173
     0
291
     1
 45
0.0
1001
ACAD
1000
AcDbSavedByObjectVersion
1070
     0
  0
VISUALSTYLE
  5
9C
102
{ACAD_XDICTIONARY
360
2281
102
}
102
{ACAD_REACTORS
330
99
102
}
330
99
100
AcDbVisualStyle
  2

 70
     2
 71
     2
 72
     2
 73
     1
 90
        2
 40
-0.6
 41
30.0
 62
     5
 63
     7
 74
     0
 91
        4
 64
     7
 65
   257
 75
     1
175
     1
 42
1.0
 92
        0
 66
     7
 43
1.0
 76
     1
 77
     6
 78
     2
 67
     7
 79
     5
170
     0
171
     0
290
     0
174
     0
 93
        1
 44
0.0
173
     0
291
     1
 45
0.0
1001
ACAD
1000
AcDbSavedByObjectVersion
1070
     0
  0
VISUALSTYLE
  5
9D
102
{ACAD_XDICTIONARY
360
2283
102
}
102
{ACAD_REACTORS
330
99
102
}
330
99
100
AcDbVisualStyle
  2

 70
     3
 71
     2
 72
     2
 73
     1
 90
        2
 40
-0.6
 41
30.0
 62
     5
 63
     7
 74
     1
 91
        4
 64
     7
 65
   257
 75
     1
175
     1
 42
1.0
 92
        0
 66
   257
 43
1.0
 76
     1
 77
     6
 78
     2
 67
     7
 79
     5
170
     0
171
     0
290
     0
174
     0
 93
        1
 44
0.0
173
     0
291
     1
 45
0.0
1001
ACAD
1000
AcDbSavedByObjectVersion
1070
     0
  0
VISUALSTYLE
  5
14D
102
{ACAD_XDICTIONARY
360
229F
102
}
102
{ACAD_REACTORS
330
99
102
}
330
99
100
AcDbVisualStyle
  2

 70
     6
 71
     1
 72
     2
 73
     2
 90
        0
 40
-0.6
 41
-30.0
 62
     5
 63
     7
 74
     2
 91
        2
 64
     7
 65
   257
 75
     2
175
     1
 42
40.0
 92
        0
 66
   257
 43
1.0
 76
     1
 77
     6
 78
     2
 67
     7
 79
     3
170
     0
171
     0
290
     0
174
     0
 93
        1
 44
0.0
173
     0
291
     0
 45
0.0
1001
ACAD
1000
AcDbSavedByObjectVersion
1070
     0
  0
VISUALSTYLE
  5
153
102
{ACAD_XDICTIONARY
360
22AB
102
}
102
{ACAD_REACTORS
330
99
102
}
330
99
100
AcDbVisualStyle
  2

 70
    20
 71
     2
 72
     2
 73
     0
 90
        0
 40
-0.6
 41
-30.0
 62
     5
 63
     7
 74
     1
 91
        4
 64
     7
 65
   257
 75
     1
175
     1
 42
1.0
 92
       10
 66
     7
 43
1.0
 76
     1
 77
     6
 78
     2
 67
     7
 79
     5
170
     0
171
     0
290
     0
174
     0
 93
        1
 44
0.0
173
     0
291
     1
 45
0.0
1001
ACAD
1000
AcDbSavedByObjectVersion
1070
     0
  0
VISUALSTYLE
  5
A7
102
{ACAD_XDICTIONARY
360
2297
102
}
102
{ACAD_REACTORS
330
99
102
}
330
99
100
AcDbVisualStyle
  2

 70
    14
 71
     2
 72
     2
 73
     1
 90
        0
 40
-0.6
 41
-30.0
 62
     5
 63
     7
 74
     1
 91
        4
 64
     7
 65
   257
 75
     7
175
     7
 42
1.0
 92
        8
 66
     7
 43
1.0
 76
     1
 77
     6
 78
     2
 67
     7
 79
     5
170
     0
171
     0
290
     0
174
     0
 93
        1
 44
0.0
173
     0
291
     1
 45
0.0
1001
ACAD
1000
AcDbSavedByObjectVersion
1070
     0
  0
VISUALSTYLE
  5
154
102
{ACAD_XDICTIONARY
360
22AD
102
}
102
{ACAD_REACTORS
330
99
102
}
330
99
100
AcDbVisualStyle
  2

 70
    21
 71
     2
 72
     2
 73
     0
 90
        0
 40
-0.6
 41
-30.0
 62
     5
 63
     7
 74
     1
 91
        4
 64
     7
 65
   257
 75
     1
175
     1
 42
1.0
 92
        9
 66
     7
 43
1.0
 76
     1
 77
     6
 78
     2
 67
     7
 79
     5
170
     0
171
     0
290
     0
174
     0
 93
        1
 44
0.0
173
     0
291
     1
 45
0.0
1001
ACAD
1000
AcDbSavedByObjectVersion
1070
     0
  0
VISUALSTYLE
  5
A3
102
{ACAD_XDICTIONARY
360
228F
102
}
102
{ACAD_REACTORS
330
99
102
}
330
99
100
AcDbVisualStyle
  2

 70
     8
 71
     2
 72
     2
 73
     1
 90
        0
 40
-0.6
 41
-30.0
 62
     5
 63
     7
 74
     1
 91
        0
 64
     7
 65
   257
 75
     1
175
     1
 42
1.0
 92
        8
 66
     8
 43
1.0
 76
     1
 77
     6
 78
     2
 67
     7
 79
     5
170
     0
171
     0
290
     0
174
     0
 93
       13
 44
0.0
173
     0
291
     0
 45
0.0
1001
ACAD
1000
AcDbSavedByObjectVersion
1070
     0
  0
VISUALSTYLE
  5
152
102
{ACAD_XDICTIONARY
360
22A9
102
}
102
{ACAD_REACTORS
330
99
102
}
330
99
100
AcDbVisualStyle
  2

 70
    27
 71
     2
 72
     2
 73
     1
 90
        2
 40
-0.6
 41
30.0
 62
     5
 63
     7
 74
     0
 91
        4
 64
     7
 65
   257
 75
     1
175
     1
 42
1.0
 92
        8
 66
   257
 43
1.0
 76
     1
 77
     6
 78
     2
 67
     8
 79
     3
170
     0
171
     0
290
     0
174
     0
 93
        5
 44
0.0
173
     0
291
     0
 45
0.0
1001
ACAD
1000
AcDbSavedByObjectVersion
1070
     0
  0
VISUALSTYLE
  5
151
102
{ACAD_XDICTIONARY
360
22A7
102
}
102
{ACAD_REACTORS
330
99
102
}
330
99
100
AcDbVisualStyle
  2

 70
    26
 71
     2
 72
     2
 73
     1
 90
        2
 40
-0.6
 41
30.0
 62
     5
 63
     7
 74
     1
 91
       10
 64
     7
 65
   257
 75
     2
175
     1
 42
1.0
 92
        8
 66
   257
 43
1.0
 76
     1
 77
     6
 78
     2
 67
     7
 79
     3
170
     0
171
     0
290
     0
174
     0
 93
        5
 44
0.0
173
     0
291
     0
 45
0.0
1001
ACAD
1000
AcDbSavedByObjectVersion
1070
     0
  0
VISUALSTYLE
  5
14E
102
{ACAD_XDICTIONARY
360
22A1
102
}
102
{ACAD_REACTORS
330
99
102
}
330
99
100
AcDbVisualStyle
  2

 70
    23
 71
     2
 72
     2
 73
     3
 90
        0
 40
-0.6
 41
-30.0
 62
     5
 63
     7
 74
     2
 91
        2
 64
     7
 65
     7
 75
     1
175
     1
 42
40.0
 92
        8
 66
     7
 43
1.0
 76
     1
 77
     6
 78
     2
 67
     7
 79
     3
170
     0
171
     0
290
     0
174
     0
 93
        1
 44
0.0
173
     0
291
     0
 45
0.0
1001
ACAD
1000
AcDbSavedByObjectVersion
1070
     0
  0
VISUALSTYLE
  5
14F
102
{ACAD_XDICTIONARY
360
22A3
102
}
102
{ACAD_REACTORS
330
99
102
}
330
99
100
AcDbVisualStyle
  2

 70
    24
 71
     1
 72
     2
 73
     2
 90
        0
 40
-0.6
 41
-30.0
 62
     5
 63
     7
 74
     2
 91
        2
 64
     7
 65
     7
 75
     1
175
     1
 42
40.0
 92
       11
 66
     7
 43
1.0
 76
     1
 77
     6
 78
     2
 67
     7
 79
     6
170
     0
171
     0
290
     0
174
     0
 93
        1
 44
0.0
173
     0
291
     0
 45
0.0
1001
ACAD
1000
AcDbSavedByObjectVersion
1070
     0
  0
VISUALSTYLE
  5
A6
102
{ACAD_XDICTIONARY
360
2295
102
}
102
{ACAD_REACTORS
330
99
102
}
330
99
100
AcDbVisualStyle
  2

 70
    13
 71
     2
 72
     2
 73
     1
 90
        0
 40
-0.6
 41
-30.0
 62
     5
 63
     7
 74
     1
 91
        4
 64
     7
 65
   257
 75
     1
175
     1
 42
1.0
 92
       12
 66
     7
 43
1.0
 76
     1
 77
     6
 78
     2
 67
     7
 79
     5
170
     0
171
     0
290
     0
174
     0
 93
        1
 44
0.0
173
     0
291
     1
 45
0.0
1001
ACAD
1000
AcDbSavedByObjectVersion
1070
     0
  0
VISUALSTYLE
  5
14C
102
{ACAD_XDICTIONARY
360
229D
102
}
102
{ACAD_REACTORS
330
99
102
}
330
99
100
AcDbVisualStyle
  2

 70
     5
 71
     0
 72
     2
 73
     0
 90
        0
 40
-0.6
 41
-30.0
 62
     5
 63
     7
 74
     1
 91
        4
 64
     7
 65
   257
 75
     1
175
     1
 42
1.0
 92
        0
 66
   257
 43
1.0
 76
     1
 77
     6
 78
     2
 67
     7
 79
     3
170
     0
171
     0
290
     0
174
     0
 93
        1
 44
0.0
173
     0
291
     0
 45
0.0
1001
ACAD
1000
AcDbSavedByObjectVersion
1070
     0
  0
VISUALSTYLE
  5
150
102
{ACAD_XDICTIONARY
360
22A5
102
}
102
{ACAD_REACTORS
330
99
102
}
330
99
100
AcDbVisualStyle
  2

 70
    25
 71
     2
 72
     2
 73
     1
 90
        1
 40
0.5
 41
-30.0
 62
     5
 63
     7
 74
     1
 91
        0
 64
     7
 65
   257
 75
     1
175
     1
 42
1.0
 92
        8
 66
     7
 43
1.0
 76
     1
 77
     6
 78
     2
 67
     7
 79
     3
170
     0
171
     0
290
     0
174
     0
 93
       13
 44
0.0
173
     0
291
     0
 45
0.0
1001
ACAD
1000
AcDbSavedByObjectVersion
1070
     0
  0
DICTIONARYVAR
  5
245
102
{ACAD_REACTORS
330
66
102
}
330
66
100
DictionaryVariables
280
     0
  1
1:1
  0
DICTIONARYVAR
  5
243
102
{ACAD_REACTORS
330
66
102
}
330
66
100
DictionaryVariables
280
     0
  1
STANDARD
  0
DICTIONARYVAR
  5
89
102
{ACAD_REACTORS
330
66
102
}
330
66
100
DictionaryVariables
280
     0
  1
STANDARD
  0
DICTIONARYVAR
  5
67
102
{ACAD_REACTORS
330
66
102
}
330
66
100
DictionaryVariables
280
     0
  1
2
  0
DICTIONARYVAR
  5
6B
102
{ACAD_REACTORS
330
66
102
}
330
66
100
DictionaryVariables
280
     0
  1
1
  0
DICTIONARYVAR
  5
870
102
{ACAD_REACTORS
330
66
102
}
330
66
100
DictionaryVariables
280
     0
  1
0
  0
DICTIONARYVAR
  5
247
102
{ACAD_REACTORS
330
66
102
}
330
66
100
DictionaryVariables
280
     0
  1
1
  0
DICTIONARYVAR
  5
248
102
{ACAD_REACTORS
330
66
102
}
330
66
100
DictionaryVariables
280
     0
  1
15
  0
DICTIONARYVAR
  5
246
102
{ACAD_REACTORS
330
66
102
}
330
66
100
DictionaryVariables
280
     0
  1
0
  0
DICTIONARYVAR
  5
244
102
{ACAD_REACTORS
330
66
102
}
330
66
100
DictionaryVariables
280
     0
  1
0
  0
DICTIONARYVAR
  5
86F
102
{ACAD_REACTORS
330
66
102
}
330
66
100
DictionaryVariables
280
     0
  1
127
  0
DICTIONARYVAR
  5
2178
102
{ACAD_REACTORS
330
66
102
}
330
66
100
DictionaryVariables
280
     0
  1
2
  0
DICTIONARY
  5
2276
330
22
100
AcDbDictionary
280
     1
281
     1
  3
ACAD_XREC_ROUNDTRIP
360
2277
  0
DICTIONARY
  5
2278
330
59
100
AcDbDictionary
280
     1
281
     1
  3
ACAD_XREC_ROUNDTRIP
360
2279
  0
DICTIONARY
  5
227A
330
5E
100
AcDbDictionary
280
     1
281
     1
  3
ACAD_XREC_ROUNDTRIP
360
227B
  0
DICTIONARY
  5
153B
330
97
100
AcDbDictionary
280
     1
281
     1
  3
ACAD_XREC_ROUNDTRIP
360
153C
  0
DICTIONARY
  5
1539
330
96
100
AcDbDictionary
280
     1
281
     1
  3
ACAD_XREC_ROUNDTRIP
360
153A
  0
DICTIONARY
  5
153D
330
98
100
AcDbDictionary
280
     1
281
     1
  3
ACAD_XREC_ROUNDTRIP
360
153E
  0
DICTIONARY
  5
821
330
87
100
AcDbDictionary
280
     1
281
     1
  3
ACAD_ROUNDTRIP_2008_TABLESTYLE_CELLSTYLEMAP
360
226F
  3
ACAD_XREC_ROUNDTRIP
360
227C
  0
DICTIONARY
  5
2287
330
9F
100
AcDbDictionary
280
     1
281
     1
  3
ACAD_XREC_ROUNDTRIP
360
2288
  0
DICTIONARY
  5
228B
330
A1
100
AcDbDictionary
280
     1
281
     1
  3
ACAD_XREC_ROUNDTRIP
360
228C
  0
DICTIONARY
  5
2289
330
A0
100
AcDbDictionary
280
     1
281
     1
  3
ACAD_XREC_ROUNDTRIP
360
228A
  0
DICTIONARY
  5
2285
330
9E
100
AcDbDictionary
280
     1
281
     1
  3
ACAD_XREC_ROUNDTRIP
360
2286
  0
DICTIONARY
  5
2293
330
A5
100
AcDbDictionary
280
     1
281
     1
  3
ACAD_XREC_ROUNDTRIP
360
2294
  0
DICTIONARY
  5
229B
330
A9
100
AcDbDictionary
280
     1
281
     1
  3
ACAD_XREC_ROUNDTRIP
360
229C
  0
DICTIONARY
  5
228D
330
A2
100
AcDbDictionary
280
     1
281
     1
  3
ACAD_XREC_ROUNDTRIP
360
228E
  0
DICTIONARY
  5
2291
330
A4
100
AcDbDictionary
280
     1
281
     1
  3
ACAD_XREC_ROUNDTRIP
360
2292
  0
DICTIONARY
  5
22AF
330
155
100
AcDbDictionary
280
     1
281
     1
  3
ACAD_XREC_ROUNDTRIP
360
22B0
  0
DICTIONARY
  5
2299
330
A8
100
AcDbDictionary
280
     1
281
     1
  3
ACAD_XREC_ROUNDTRIP
360
229A
  0
DICTIONARY
  5
227D
330
9A
100
AcDbDictionary
280
     1
281
     1
  3
ACAD_XREC_ROUNDTRIP
360
227E
  0
DICTIONARY
  5
227F
330
9B
100
AcDbDictionary
280
     1
281
     1
  3
ACAD_XREC_ROUNDTRIP
360
2280
  0
DICTIONARY
  5
2281
330
9C
100
AcDbDictionary
280
     1
281
     1
  3
ACAD_XREC_ROUNDTRIP
360
2282
  0
DICTIONARY
  5
2283
330
9D
100
AcDbDictionary
280
     1
281
     1
  3
ACAD_XREC_ROUNDTRIP
360
2284
  0
DICTIONARY
  5
229F
330
14D
100
AcDbDictionary
280
     1
281
     1
  3
ACAD_XREC_ROUNDTRIP
360
22A0
  0
DICTIONARY
  5
22AB
330
153
100
AcDbDictionary
280
     1
281
     1
  3
ACAD_XREC_ROUNDTRIP
360
22AC
  0
DICTIONARY
  5
2297
330
A7
100
AcDbDictionary
280
     1
281
     1
  3
ACAD_XREC_ROUNDTRIP
360
2298
  0
DICTIONARY
  5
22AD
330
154
100
AcDbDictionary
280
     1
281
     1
  3
ACAD_XREC_ROUNDTRIP
360
22AE
  0
DICTIONARY
  5
228F
330
A3
100
AcDbDictionary
280
     1
281
     1
  3
ACAD_XREC_ROUNDTRIP
360
2290
  0
DICTIONARY
  5
22A9
330
152
100
AcDbDictionary
280
     1
281
     1
  3
ACAD_XREC_ROUNDTRIP
360
22AA
  0
DICTIONARY
  5
22A7
330
151
100
AcDbDictionary
280
     1
281
     1
  3
ACAD_XREC_ROUNDTRIP
360
22A8
  0
DICTIONARY
  5
22A1
330
14E
100
AcDbDictionary
280
     1
281
     1
  3
ACAD_XREC_ROUNDTRIP
360
22A2
  0
DICTIONARY
  5
22A3
330
14F
100
AcDbDictionary
280
     1
281
     1
  3
ACAD_XREC_ROUNDTRIP
360
22A4
  0
DICTIONARY
  5
2295
330
A6
100
AcDbDictionary
280
     1
281
     1
  3
ACAD_XREC_ROUNDTRIP
360
2296
  0
DICTIONARY
  5
229D
330
14C
100
AcDbDictionary
280
     1
281
     1
  3
ACAD_XREC_ROUNDTRIP
360
229E
  0
DICTIONARY
  5
22A5
330
150
100
AcDbDictionary
280
     1
281
     1
  3
ACAD_XREC_ROUNDTRIP
360
22A6
  0
XRECORD
  5
2277
102
{ACAD_REACTORS
330
2276
102
}
330
2276
100
AcDbXrecord
280
     1
102
SHADEPLOT
 70
     0
102
SHADEPLOTRESLEVEL
 70
     2
102
SHADEPLOTCUSTOMDPI
 70
   300
  0
XRECORD
  5
2279
102
{ACAD_REACTORS
330
2278
102
}
330
2278
100
AcDbXrecord
280
     1
102
SHADEPLOT
 70
     0
102
SHADEPLOTRESLEVEL
 70
     2
102
SHADEPLOTCUSTOMDPI
 70
   300
  0
XRECORD
  5
227B
102
{ACAD_REACTORS
330
227A
102
}
330
227A
100
AcDbXrecord
280
     1
102
SHADEPLOT
 70
     0
102
SHADEPLOTRESLEVEL
 70
     2
102
SHADEPLOTCUSTOMDPI
 70
   300
  0
XRECORD
  5
153C
102
{ACAD_REACTORS
330
153B
102
}
330
153B
100
AcDbXrecord
280
     1
102
MATERIAL
148
0.0
149
0.0
149
0.0
 93
        0
 94
      127
282
     0
 72
     1
 77
     1
171
     1
175
     1
179
     1
273
     0
  0
XRECORD
  5
153A
102
{ACAD_REACTORS
330
1539
102
}
330
1539
100
AcDbXrecord
280
     1
102
MATERIAL
148
0.0
149
0.0
149
0.0
 93
        0
 94
      127
282
     0
 72
     1
 77
     1
171
     1
175
     1
179
     1
273
     0
  0
XRECORD
  5
153E
102
{ACAD_REACTORS
330
153D
102
}
330
153D
100
AcDbXrecord
280
     1
102
MATERIAL
148
0.0
149
0.0
149
0.0
 93
        0
 94
      127
282
     0
 72
     1
 77
     1
171
     1
175
     1
179
     1
273
     0
  0
CELLSTYLEMAP
  5
226F
102
{ACAD_REACTORS
330
821
102
}
330
821
100
AcDbCellStyleMap
 90
        3
300
CELLSTYLE
  1
TABLEFORMAT_BEGIN
 90
        5
170
     1
 91
        0
 92
    32768
 62
   257
 93
        1
300
CONTENTFORMAT
  1
CONTENTFORMAT_BEGIN
 90
        0
 91
        0
 92
      512
 93
        0
300

 40
0.0
140
1.0
 94
        5
 62
     0
340
11
144
0.25
309
CONTENTFORMAT_END
171
     1
301
MARGIN
  1
CELLMARGIN_BEGIN
 40
0.06
 40
0.06
 40
0.06
 40
0.06
 40
0.18
 40
0.18
309
CELLMARGIN_END
 94
        6
 95
        1
302
GRIDFORMAT
  1
GRIDFORMAT_BEGIN
 90
        0
 91
        1
 62
     0
 92
       -2
340
0
 93
        0
 40
0.045
309
GRIDFORMAT_END
 95
        2
302
GRIDFORMAT
  1
GRIDFORMAT_BEGIN
 90
        0
 91
        1
 62
     0
 92
       -2
340
0
 93
        0
 40
0.045
309
GRIDFORMAT_END
 95
        4
302
GRIDFORMAT
  1
GRIDFORMAT_BEGIN
 90
        0
 91
        1
 62
     0
 92
       -2
340
0
 93
        0
 40
0.045
309
GRIDFORMAT_END
 95
        8
302
GRIDFORMAT
  1
GRIDFORMAT_BEGIN
 90
        0
 91
        1
 62
     0
 92
       -2
340
0
 93
        0
 40
0.045
309
GRIDFORMAT_END
 95
       16
302
GRIDFORMAT
  1
GRIDFORMAT_BEGIN
 90
        0
 91
        1
 62
     0
 92
       -2
340
0
 93
        0
 40
0.045
309
GRIDFORMAT_END
 95
       32
302
GRIDFORMAT
  1
GRIDFORMAT_BEGIN
 90
        0
 91
        1
 62
     0
 92
       -2
340
0
 93
        0
 40
0.045
309
GRIDFORMAT_END
309
TABLEFORMAT_END
  1
CELLSTYLE_BEGIN
 90
        1
 91
        1
300
_TITLE
309
CELLSTYLE_END
300
CELLSTYLE
  1
TABLEFORMAT_BEGIN
 90
        5
170
     1
 91
        0
 92
        0
 62
   257
 93
        1
300
CONTENTFORMAT
  1
CONTENTFORMAT_BEGIN
 90
        0
 91
        0
 92
      512
 93
        0
300

 40
0.0
140
1.0
 94
        5
 62
     0
340
11
144
0.18
309
CONTENTFORMAT_END
171
     1
301
MARGIN
  1
CELLMARGIN_BEGIN
 40
0.06
 40
0.06
 40
0.06
 40
0.06
 40
0.18
 40
0.18
309
CELLMARGIN_END
 94
        6
 95
        1
302
GRIDFORMAT
  1
GRIDFORMAT_BEGIN
 90
        0
 91
        1
 62
     0
 92
       -2
340
0
 93
        0
 40
0.045
309
GRIDFORMAT_END
 95
        2
302
GRIDFORMAT
  1
GRIDFORMAT_BEGIN
 90
        0
 91
        1
 62
     0
 92
       -2
340
0
 93
        0
 40
0.045
309
GRIDFORMAT_END
 95
        4
302
GRIDFORMAT
  1
GRIDFORMAT_BEGIN
 90
        0
 91
        1
 62
     0
 92
       -2
340
0
 93
        0
 40
0.045
309
GRIDFORMAT_END
 95
        8
302
GRIDFORMAT
  1
GRIDFORMAT_BEGIN
 90
        0
 91
        1
 62
     0
 92
       -2
340
0
 93
        0
 40
0.045
309
GRIDFORMAT_END
 95
       16
302
GRIDFORMAT
  1
GRIDFORMAT_BEGIN
 90
        0
 91
        1
 62
     0
 92
       -2
340
0
 93
        0
 40
0.045
309
GRIDFORMAT_END
 95
       32
302
GRIDFORMAT
  1
GRIDFORMAT_BEGIN
 90
        0
 91
        1
 62
     0
 92
       -2
340
0
 93
        0
 40
0.045
309
GRIDFORMAT_END
309
TABLEFORMAT_END
  1
CELLSTYLE_BEGIN
 90
        2
 91
        1
300
_HEADER
309
CELLSTYLE_END
300
CELLSTYLE
  1
TABLEFORMAT_BEGIN
 90
        5
170
     1
 91
        0
 92
        0
 62
   257
 93
        1
300
CONTENTFORMAT
  1
CONTENTFORMAT_BEGIN
 90
        0
 91
        0
 92
      512
 93
        0
300

 40
0.0
140
1.0
 94
        2
 62
     0
340
11
144
0.18
309
CONTENTFORMAT_END
171
     1
301
MARGIN
  1
CELLMARGIN_BEGIN
 40
0.06
 40
0.06
 40
0.06
 40
0.06
 40
0.18
 40
0.18
309
CELLMARGIN_END
 94
        6
 95
        1
302
GRIDFORMAT
  1
GRIDFORMAT_BEGIN
 90
        0
 91
        1
 62
     0
 92
       -2
340
0
 93
        0
 40
0.045
309
GRIDFORMAT_END
 95
        2
302
GRIDFORMAT
  1
GRIDFORMAT_BEGIN
 90
        0
 91
        1
 62
     0
 92
       -2
340
0
 93
        0
 40
0.045
309
GRIDFORMAT_END
 95
        4
302
GRIDFORMAT
  1
GRIDFORMAT_BEGIN
 90
        0
 91
        1
 62
     0
 92
       -2
340
0
 93
        0
 40
0.045
309
GRIDFORMAT_END
 95
        8
302
GRIDFORMAT
  1
GRIDFORMAT_BEGIN
 90
        0
 91
        1
 62
     0
 92
       -2
340
0
 93
        0
 40
0.045
309
GRIDFORMAT_END
 95
       16
302
GRIDFORMAT
  1
GRIDFORMAT_BEGIN
 90
        0
 91
        1
 62
     0
 92
       -2
340
0
 93
        0
 40
0.045
309
GRIDFORMAT_END
 95
       32
302
GRIDFORMAT
  1
GRIDFORMAT_BEGIN
 90
        0
 91
        1
 62
     0
 92
       -2
340
0
 93
        0
 40
0.045
309
GRIDFORMAT_END
309
TABLEFORMAT_END
  1
CELLSTYLE_BEGIN
 90
        3
 91
        2
300
_DATA
309
CELLSTYLE_END
  0
XRECORD
  5
227C
102
{ACAD_REACTORS
330
821
102
}
330
821
100
AcDbXrecord
280
     1
102
ACAD_ROUNDTRIP_PRE2007_TABLESTYLE
 90
      512
 91
        0
  1

 92
      512
 93
        0
  2

 94
      512
 95
        0
  3

  0
XRECORD
  5
2288
102
{ACAD_REACTORS
330
2287
102
}
330
2287
100
AcDbXrecord
280
     1
102
RTVSPropertyOp0
 70
     1
102
RTVSPropertyOp1
 70
     1
102
RTVSPropertyOp2
 70
     1
102
RTVSPropertyOp3
 70
     1
102
RTVSPropertyOp4
 70
     1
102
RTVSPropertyOp5
 70
     1
102
RTVSPropertyOp6
 70
     1
102
RTVSPropertyOp7
 70
     1
102
RTVSPropertyOp8
 70
     1
102
RTVSPropertyOp9
 70
     1
102
RTVSPropertyOp10
 70
     1
102
RTVSPropertyOp11
 70
     1
102
RTVSPropertyOp12
 70
     1
102
RTVSPropertyOp13
 70
     1
102
RTVSPropertyOp14
 70
     1
102
RTVSPropertyOp15
 70
     1
102
RTVSPropertyOp16
 70
     1
102
RTVSPropertyOp17
 70
     1
102
RTVSPropertyOp18
 70
     1
102
RTVSPropertyOp19
 70
     1
102
RTVSPropertyOp20
 70
     1
102
RTVSPropertyOp21
 70
     1
102
RTVSPropertyOp22
 70
     1
102
RTVSPropertyOp23
 70
     1
102
RTVSPropertyOp24
 70
     1
102
RTVSPropertyOp25
 70
     1
102
RTVSPropertyOp26
 70
     1
102
RTVSPropertyOp27
 70
     1
102
RTVSPropertyOp28
 70
     1
102
RTVSPropertyOp29
 70
     1
102
RTVSPropertyOp30
 70
     1
102
RTVSPropertyOp31
 70
     1
102
RTVSPropertyOp32
 70
     1
  0
XRECORD
  5
228C
102
{ACAD_REACTORS
330
228B
102
}
330
228B
100
AcDbXrecord
280
     1
102
RTVSPropertyOp0
 70
     1
102
RTVSPropertyOp1
 70
     1
102
RTVSPropertyOp2
 70
     1
102
RTVSPropertyOp3
 70
     1
102
RTVSPropertyOp4
 70
     1
102
RTVSPropertyOp5
 70
     1
102
RTVSPropertyOp6
 70
     1
102
RTVSPropertyOp7
 70
     1
102
RTVSPropertyOp8
 70
     1
102
RTVSPropertyOp9
 70
     1
102
RTVSPropertyOp10
 70
     1
102
RTVSPropertyOp11
 70
     1
102
RTVSPropertyOp12
 70
     1
102
RTVSPropertyOp13
 70
     1
102
RTVSPropertyOp14
 70
     1
102
RTVSPropertyOp15
 70
     1
102
RTVSPropertyOp16
 70
     1
102
RTVSPropertyOp17
 70
     1
102
RTVSPropertyOp18
 70
     1
102
RTVSPropertyOp19
 70
     1
102
RTVSPropertyOp20
 70
     1
102
RTVSPropertyOp21
 70
     1
102
RTVSPropertyOp22
 70
     1
102
RTVSPropertyOp23
 70
     1
102
RTVSPropertyOp24
 70
     1
102
RTVSPropertyOp25
 70
     1
102
RTVSPropertyOp26
 70
     1
102
RTVSPropertyOp27
 70
     1
102
RTVSPropertyOp28
 70
     1
102
RTVSPropertyOp29
 70
     1
102
RTVSPropertyOp30
 70
     1
102
RTVSPropertyOp31
 70
     1
102
RTVSPropertyOp32
 70
     1
  0
XRECORD
  5
228A
102
{ACAD_REACTORS
330
2289
102
}
330
2289
100
AcDbXrecord
280
     1
102
RTVSPropertyOp0
 70
     1
102
RTVSPropertyOp1
 70
     1
102
RTVSPropertyOp2
 70
     1
102
RTVSPropertyOp3
 70
     1
102
RTVSPropertyOp4
 70
     1
102
RTVSPropertyOp5
 70
     1
102
RTVSPropertyOp6
 70
     1
102
RTVSPropertyOp7
 70
     1
102
RTVSPropertyOp8
 70
     1
102
RTVSPropertyOp9
 70
     1
102
RTVSPropertyOp10
 70
     1
102
RTVSPropertyOp11
 70
     1
102
RTVSPropertyOp12
 70
     1
102
RTVSPropertyOp13
 70
     1
102
RTVSPropertyOp14
 70
     1
102
RTVSPropertyOp15
 70
     1
102
RTVSPropertyOp16
 70
     1
102
RTVSPropertyOp17
 70
     1
102
RTVSPropertyOp18
 70
     1
102
RTVSPropertyOp19
 70
     1
102
RTVSPropertyOp20
 70
     1
102
RTVSPropertyOp21
 70
     1
102
RTVSPropertyOp22
 70
     1
102
RTVSPropertyOp23
 70
     1
102
RTVSPropertyOp24
 70
     1
102
RTVSPropertyOp25
 70
     1
102
RTVSPropertyOp26
 70
     1
102
RTVSPropertyOp27
 70
     1
102
RTVSPropertyOp28
 70
     1
102
RTVSPropertyOp29
 70
     1
102
RTVSPropertyOp30
 70
     1
102
RTVSPropertyOp31
 70
     1
102
RTVSPropertyOp32
 70
     1
  0
XRECORD
  5
2286
102
{ACAD_REACTORS
330
2285
102
}
330
2285
100
AcDbXrecord
280
     1
102
RTVSPropertyOp0
 70
     1
102
RTVSPropertyOp1
 70
     1
102
RTVSPropertyOp2
 70
     1
102
RTVSPropertyOp3
 70
     1
102
RTVSPropertyOp4
 70
     1
102
RTVSPropertyOp5
 70
     1
102
RTVSPropertyOp6
 70
     1
102
RTVSPropertyOp7
 70
     1
102
RTVSPropertyOp8
 70
     1
102
RTVSPropertyOp9
 70
     1
102
RTVSPropertyOp10
 70
     1
102
RTVSPropertyOp11
 70
     1
102
RTVSPropertyOp12
 70
     1
102
RTVSPropertyOp13
 70
     1
102
RTVSPropertyOp14
 70
     1
102
RTVSPropertyOp15
 70
     1
102
RTVSPropertyOp16
 70
     1
102
RTVSPropertyOp17
 70
     1
102
RTVSPropertyOp18
 70
     1
102
RTVSPropertyOp19
 70
     1
102
RTVSPropertyOp20
 70
     1
102
RTVSPropertyOp21
 70
     1
102
RTVSPropertyOp22
 70
     1
102
RTVSPropertyOp23
 70
     1
102
RTVSPropertyOp24
 70
     1
102
RTVSPropertyOp25
 70
     1
102
RTVSPropertyOp26
 70
     1
102
RTVSPropertyOp27
 70
     1
102
RTVSPropertyOp28
 70
     1
102
RTVSPropertyOp29
 70
     1
102
RTVSPropertyOp30
 70
     1
102
RTVSPropertyOp31
 70
     1
102
RTVSPropertyOp32
 70
     1
  0
XRECORD
  5
2294
102
{ACAD_REACTORS
330
2293
102
}
330
2293
100
AcDbXrecord
280
     1
102
RTVSPropertyOp0
 70
     1
102
RTVSPropertyOp1
 70
     1
102
RTVSPropertyOp2
 70
     1
102
RTVSPropertyOp3
 70
     1
102
RTVSPropertyOp4
 70
     1
102
RTVSPropertyOp5
 70
     1
102
RTVSPropertyOp6
 70
     1
102
RTVSPropertyOp7
 70
     1
102
RTVSPropertyOp8
 70
     1
102
RTVSPropertyOp9
 70
     1
102
RTVSPropertyOp10
 70
     1
102
RTVSPropertyOp11
 70
     1
102
RTVSPropertyOp12
 70
     1
102
RTVSPropertyOp13
 70
     1
102
RTVSPropertyOp14
 70
     1
102
RTVSPropertyOp15
 70
     1
102
RTVSPropertyOp16
 70
     1
102
RTVSPropertyOp17
 70
     1
102
RTVSPropertyOp18
 70
     1
102
RTVSPropertyOp19
 70
     1
102
RTVSPropertyOp20
 70
     1
102
RTVSPropertyOp21
 70
     1
102
RTVSPropertyOp22
 70
     1
102
RTVSPropertyOp23
 70
     1
102
RTVSPropertyOp24
 70
     1
102
RTVSPropertyOp25
 70
     1
102
RTVSPropertyOp26
 70
     1
102
RTVSPropertyOp27
 70
     1
102
RTVSPropertyOp28
 70
     1
102
RTVSPropertyOp29
 70
     1
102
RTVSPropertyOp30
 70
     1
102
RTVSPropertyOp31
 70
     1
102
RTVSPropertyOp32
 70
     1
  0
XRECORD
  5
229C
102
{ACAD_REACTORS
330
229B
102
}
330
229B
100
AcDbXrecord
280
     1
102
RTVSPropertyOp0
 70
     1
102
RTVSPropertyOp1
 70
     1
102
RTVSPropertyOp2
 70
     1
102
RTVSPropertyOp3
 70
     1
102
RTVSPropertyOp4
 70
     1
102
RTVSPropertyOp5
 70
     1
102
RTVSPropertyOp6
 70
     1
102
RTVSPropertyOp7
 70
     1
102
RTVSPropertyOp8
 70
     1
102
RTVSPropertyOp9
 70
     1
102
RTVSPropertyOp10
 70
     1
102
RTVSPropertyOp11
 70
     1
102
RTVSPropertyOp12
 70
     1
102
RTVSPropertyOp13
 70
     1
102
RTVSPropertyOp14
 70
     1
102
RTVSPropertyOp15
 70
     1
102
RTVSPropertyOp16
 70
     1
102
RTVSPropertyOp17
 70
     1
102
RTVSPropertyOp18
 70
     1
102
RTVSPropertyOp19
 70
     1
102
RTVSPropertyOp20
 70
     1
102
RTVSPropertyOp21
 70
     1
102
RTVSPropertyOp22
 70
     1
102
RTVSPropertyOp23
 70
     1
102
RTVSPropertyOp24
 70
     1
102
RTVSPropertyOp25
 70
     1
102
RTVSPropertyOp26
 70
     1
102
RTVSPropertyOp27
 70
     1
102
RTVSPropertyOp28
 70
     1
102
RTVSPropertyOp29
 70
     1
102
RTVSPropertyOp30
 70
     1
102
RTVSPropertyOp31
 70
     1
102
RTVSPropertyOp32
 70
     1
  0
XRECORD
  5
228E
102
{ACAD_REACTORS
330
228D
102
}
330
228D
100
AcDbXrecord
280
     1
102
RTVSPropertyOp0
 70
     1
102
RTVSPropertyOp1
 70
     1
102
RTVSPropertyOp2
 70
     1
102
RTVSPropertyOp3
 70
     1
102
RTVSPropertyOp4
 70
     1
102
RTVSPropertyOp5
 70
     1
102
RTVSPropertyOp6
 70
     1
102
RTVSPropertyOp7
 70
     1
102
RTVSPropertyOp8
 70
     1
102
RTVSPropertyOp9
 70
     1
102
RTVSPropertyOp10
 70
     1
102
RTVSPropertyOp11
 70
     1
102
RTVSPropertyOp12
 70
     1
102
RTVSPropertyOp13
 70
     1
102
RTVSPropertyOp14
 70
     1
102
RTVSPropertyOp15
 70
     1
102
RTVSPropertyOp16
 70
     1
102
RTVSPropertyOp17
 70
     1
102
RTVSPropertyOp18
 70
     1
102
RTVSPropertyOp19
 70
     1
102
RTVSPropertyOp20
 70
     1
102
RTVSPropertyOp21
 70
     1
102
RTVSPropertyOp22
 70
     1
102
RTVSPropertyOp23
 70
     1
102
RTVSPropertyOp24
 70
     1
102
RTVSPropertyOp25
 70
     1
102
RTVSPropertyOp26
 70
     1
102
RTVSPropertyOp27
 70
     1
102
RTVSPropertyOp28
 70
     1
102
RTVSPropertyOp29
 70
     1
102
RTVSPropertyOp30
 70
     1
102
RTVSPropertyOp31
 70
     1
102
RTVSPropertyOp32
 70
     1
  0
XRECORD
  5
2292
102
{ACAD_REACTORS
330
2291
102
}
330
2291
100
AcDbXrecord
280
     1
102
RTVSPropertyOp0
 70
     1
102
RTVSPropertyOp1
 70
     1
102
RTVSPropertyOp2
 70
     1
102
RTVSPropertyOp3
 70
     1
102
RTVSPropertyOp4
 70
     1
102
RTVSPropertyOp5
 70
     1
102
RTVSPropertyOp6
 70
     1
102
RTVSPropertyOp7
 70
     1
102
RTVSPropertyOp8
 70
     1
102
RTVSPropertyOp9
 70
     1
102
RTVSPropertyOp10
 70
     1
102
RTVSPropertyOp11
 70
     1
102
RTVSPropertyOp12
 70
     1
102
RTVSPropertyOp13
 70
     1
102
RTVSPropertyOp14
 70
     1
102
RTVSPropertyOp15
 70
     1
102
RTVSPropertyOp16
 70
     1
102
RTVSPropertyOp17
 70
     1
102
RTVSPropertyOp18
 70
     1
102
RTVSPropertyOp19
 70
     1
102
RTVSPropertyOp20
 70
     1
102
RTVSPropertyOp21
 70
     1
102
RTVSPropertyOp22
 70
     1
102
RTVSPropertyOp23
 70
     1
102
RTVSPropertyOp24
 70
     1
102
RTVSPropertyOp25
 70
     1
102
RTVSPropertyOp26
 70
     1
102
RTVSPropertyOp27
 70
     1
102
RTVSPropertyOp28
 70
     1
102
RTVSPropertyOp29
 70
     1
102
RTVSPropertyOp30
 70
     1
102
RTVSPropertyOp31
 70
     1
102
RTVSPropertyOp32
 70
     1
  0
XRECORD
  5
22B0
102
{ACAD_REACTORS
330
22AF
102
}
330
22AF
100
AcDbXrecord
280
     1
102
RTVSPropertyOp0
 70
     0
102
RTVSPropertyOp1
 70
     0
102
RTVSPropertyOp2
 70
     0
102
RTVSPropertyOp3
 70
     0
102
RTVSPropertyOp4
 70
     0
102
RTVSPropertyOp5
 70
     0
102
RTVSPropertyOp6
 70
     0
102
RTVSPropertyOp7
 70
     0
102
RTVSPropertyOp8
 70
     0
102
RTVSPropertyOp9
 70
     0
102
RTVSPropertyOp10
 70
     0
102
RTVSPropertyOp11
 70
     0
102
RTVSPropertyOp12
 70
     0
102
RTVSPropertyOp13
 70
     0
102
RTVSPropertyOp14
 70
     2
102
RTVSPropertyOp15
 70
     0
102
RTVSPropertyOp16
 70
     0
102
RTVSPropertyOp17
 70
     0
102
RTVSPropertyOp18
 70
     0
102
RTVSPropertyOp19
 70
     0
102
RTVSPropertyOp20
 70
     0
102
RTVSPropertyOp21
 70
     0
102
RTVSPropertyOp22
 70
     0
102
RTVSPropertyOp23
 70
     0
102
RTVSPropertyOp24
 70
     0
102
RTVSPropertyOp25
 70
     0
102
RTVSPropertyOp26
 70
     0
102
RTVSPropertyOp27
 70
     0
102
RTVSPropertyOp28
 70
     1
102
RTVSPropertyOp29
 70
     1
102
RTVSPropertyOp30
 70
     1
102
RTVSPropertyOp31
 70
     1
102
RTVSPropertyOp32
 70
     1
  0
XRECORD
  5
229A
102
{ACAD_REACTORS
330
2299
102
}
330
2299
100
AcDbXrecord
280
     1
102
RTVSPropertyOp0
 70
     1
102
RTVSPropertyOp1
 70
     1
102
RTVSPropertyOp2
 70
     1
102
RTVSPropertyOp3
 70
     1
102
RTVSPropertyOp4
 70
     1
102
RTVSPropertyOp5
 70
     1
102
RTVSPropertyOp6
 70
     1
102
RTVSPropertyOp7
 70
     1
102
RTVSPropertyOp8
 70
     1
102
RTVSPropertyOp9
 70
     1
102
RTVSPropertyOp10
 70
     1
102
RTVSPropertyOp11
 70
     1
102
RTVSPropertyOp12
 70
     1
102
RTVSPropertyOp13
 70
     1
102
RTVSPropertyOp14
 70
     1
102
RTVSPropertyOp15
 70
     1
102
RTVSPropertyOp16
 70
     1
102
RTVSPropertyOp17
 70
     1
102
RTVSPropertyOp18
 70
     1
102
RTVSPropertyOp19
 70
     1
102
RTVSPropertyOp20
 70
     1
102
RTVSPropertyOp21
 70
     1
102
RTVSPropertyOp22
 70
     1
102
RTVSPropertyOp23
 70
     1
102
RTVSPropertyOp24
 70
     1
102
RTVSPropertyOp25
 70
     1
102
RTVSPropertyOp26
 70
     1
102
RTVSPropertyOp27
 70
     1
102
RTVSPropertyOp28
 70
     1
102
RTVSPropertyOp29
 70
     1
102
RTVSPropertyOp30
 70
     1
102
RTVSPropertyOp31
 70
     1
102
RTVSPropertyOp32
 70
     1
  0
XRECORD
  5
227E
102
{ACAD_REACTORS
330
227D
102
}
330
227D
100
AcDbXrecord
280
     1
102
RTVSPropertyOp0
 70
     1
102
RTVSPropertyOp1
 70
     1
102
RTVSPropertyOp2
 70
     1
102
RTVSPropertyOp3
 70
     1
102
RTVSPropertyOp4
 70
     1
102
RTVSPropertyOp5
 70
     1
102
RTVSPropertyOp6
 70
     1
102
RTVSPropertyOp7
 70
     1
102
RTVSPropertyOp8
 70
     1
102
RTVSPropertyOp9
 70
     1
102
RTVSPropertyOp10
 70
     1
102
RTVSPropertyOp11
 70
     1
102
RTVSPropertyOp12
 70
     1
102
RTVSPropertyOp13
 70
     1
102
RTVSPropertyOp14
 70
     1
102
RTVSPropertyOp15
 70
     1
102
RTVSPropertyOp16
 70
     1
102
RTVSPropertyOp17
 70
     1
102
RTVSPropertyOp18
 70
     1
102
RTVSPropertyOp19
 70
     1
102
RTVSPropertyOp20
 70
     1
102
RTVSPropertyOp21
 70
     1
102
RTVSPropertyOp22
 70
     1
102
RTVSPropertyOp23
 70
     1
102
RTVSPropertyOp24
 70
     1
102
RTVSPropertyOp25
 70
     1
102
RTVSPropertyOp26
 70
     1
102
RTVSPropertyOp27
 70
     1
102
RTVSPropertyOp28
 70
     1
102
RTVSPropertyOp29
 70
     1
102
RTVSPropertyOp30
 70
     1
102
RTVSPropertyOp31
 70
     1
102
RTVSPropertyOp32
 70
     1
  0
XRECORD
  5
2280
102
{ACAD_REACTORS
330
227F
102
}
330
227F
100
AcDbXrecord
280
     1
102
RTVSPropertyOp0
 70
     1
102
RTVSPropertyOp1
 70
     1
102
RTVSPropertyOp2
 70
     1
102
RTVSPropertyOp3
 70
     1
102
RTVSPropertyOp4
 70
     1
102
RTVSPropertyOp5
 70
     1
102
RTVSPropertyOp6
 70
     1
102
RTVSPropertyOp7
 70
     1
102
RTVSPropertyOp8
 70
     1
102
RTVSPropertyOp9
 70
     1
102
RTVSPropertyOp10
 70
     1
102
RTVSPropertyOp11
 70
     1
102
RTVSPropertyOp12
 70
     1
102
RTVSPropertyOp13
 70
     1
102
RTVSPropertyOp14
 70
     1
102
RTVSPropertyOp15
 70
     1
102
RTVSPropertyOp16
 70
     1
102
RTVSPropertyOp17
 70
     1
102
RTVSPropertyOp18
 70
     1
102
RTVSPropertyOp19
 70
     1
102
RTVSPropertyOp20
 70
     1
102
RTVSPropertyOp21
 70
     1
102
RTVSPropertyOp22
 70
     1
102
RTVSPropertyOp23
 70
     1
102
RTVSPropertyOp24
 70
     1
102
RTVSPropertyOp25
 70
     1
102
RTVSPropertyOp26
 70
     1
102
RTVSPropertyOp27
 70
     1
102
RTVSPropertyOp28
 70
     1
102
RTVSPropertyOp29
 70
     1
102
RTVSPropertyOp30
 70
     1
102
RTVSPropertyOp31
 70
     1
102
RTVSPropertyOp32
 70
     1
  0
XRECORD
  5
2282
102
{ACAD_REACTORS
330
2281
102
}
330
2281
100
AcDbXrecord
280
     1
102
RTVSPropertyOp0
 70
     1
102
RTVSPropertyOp1
 70
     1
102
RTVSPropertyOp2
 70
     1
102
RTVSPropertyOp3
 70
     1
102
RTVSPropertyOp4
 70
     1
102
RTVSPropertyOp5
 70
     1
102
RTVSPropertyOp6
 70
     1
102
RTVSPropertyOp7
 70
     1
102
RTVSPropertyOp8
 70
     1
102
RTVSPropertyOp9
 70
     1
102
RTVSPropertyOp10
 70
     1
102
RTVSPropertyOp11
 70
     1
102
RTVSPropertyOp12
 70
     1
102
RTVSPropertyOp13
 70
     1
102
RTVSPropertyOp14
 70
     1
102
RTVSPropertyOp15
 70
     1
102
RTVSPropertyOp16
 70
     1
102
RTVSPropertyOp17
 70
     1
102
RTVSPropertyOp18
 70
     1
102
RTVSPropertyOp19
 70
     1
102
RTVSPropertyOp20
 70
     1
102
RTVSPropertyOp21
 70
     1
102
RTVSPropertyOp22
 70
     1
102
RTVSPropertyOp23
 70
     1
102
RTVSPropertyOp24
 70
     1
102
RTVSPropertyOp25
 70
     1
102
RTVSPropertyOp26
 70
     1
102
RTVSPropertyOp27
 70
     1
102
RTVSPropertyOp28
 70
     1
102
RTVSPropertyOp29
 70
     1
102
RTVSPropertyOp30
 70
     1
102
RTVSPropertyOp31
 70
     1
102
RTVSPropertyOp32
 70
     1
  0
XRECORD
  5
2284
102
{ACAD_REACTORS
330
2283
102
}
330
2283
100
AcDbXrecord
280
     1
102
RTVSPropertyOp0
 70
     1
102
RTVSPropertyOp1
 70
     1
102
RTVSPropertyOp2
 70
     1
102
RTVSPropertyOp3
 70
     1
102
RTVSPropertyOp4
 70
     1
102
RTVSPropertyOp5
 70
     1
102
RTVSPropertyOp6
 70
     1
102
RTVSPropertyOp7
 70
     1
102
RTVSPropertyOp8
 70
     1
102
RTVSPropertyOp9
 70
     1
102
RTVSPropertyOp10
 70
     1
102
RTVSPropertyOp11
 70
     1
102
RTVSPropertyOp12
 70
     1
102
RTVSPropertyOp13
 70
     1
102
RTVSPropertyOp14
 70
     1
102
RTVSPropertyOp15
 70
     1
102
RTVSPropertyOp16
 70
     1
102
RTVSPropertyOp17
 70
     1
102
RTVSPropertyOp18
 70
     1
102
RTVSPropertyOp19
 70
     1
102
RTVSPropertyOp20
 70
     1
102
RTVSPropertyOp21
 70
     1
102
RTVSPropertyOp22
 70
     1
102
RTVSPropertyOp23
 70
     1
102
RTVSPropertyOp24
 70
     1
102
RTVSPropertyOp25
 70
     1
102
RTVSPropertyOp26
 70
     1
102
RTVSPropertyOp27
 70
     1
102
RTVSPropertyOp28
 70
     1
102
RTVSPropertyOp29
 70
     1
102
RTVSPropertyOp30
 70
     1
102
RTVSPropertyOp31
 70
     1
102
RTVSPropertyOp32
 70
     1
  0
XRECORD
  5
22A0
102
{ACAD_REACTORS
330
229F
102
}
330
229F
100
AcDbXrecord
280
     1
102
RTVSPropertyOp0
 70
     1
102
RTVSPropertyOp1
 70
     1
102
RTVSPropertyOp2
 70
     1
102
RTVSPropertyOp3
 70
     1
102
RTVSPropertyOp4
 70
     1
102
RTVSPropertyOp5
 70
     1
102
RTVSPropertyOp6
 70
     1
102
RTVSPropertyOp7
 70
     1
102
RTVSPropertyOp8
 70
     1
102
RTVSPropertyOp9
 70
     1
102
RTVSPropertyOp10
 70
     1
102
RTVSPropertyOp11
 70
     1
102
RTVSPropertyOp12
 70
     1
102
RTVSPropertyOp13
 70
     1
102
RTVSPropertyOp14
 70
     1
102
RTVSPropertyOp15
 70
     1
102
RTVSPropertyOp16
 70
     1
102
RTVSPropertyOp17
 70
     1
102
RTVSPropertyOp18
 70
     1
102
RTVSPropertyOp19
 70
     1
102
RTVSPropertyOp20
 70
     1
102
RTVSPropertyOp21
 70
     1
102
RTVSPropertyOp22
 70
     1
102
RTVSPropertyOp23
 70
     1
102
RTVSPropertyOp24
 70
     1
102
RTVSPropertyOp25
 70
     1
102
RTVSPropertyOp26
 70
     1
102
RTVSPropertyOp27
 70
     1
102
RTVSPropertyOp28
 70
     1
102
RTVSPropertyOp29
 70
     1
102
RTVSPropertyOp30
 70
     1
102
RTVSPropertyOp31
 70
     1
102
RTVSPropertyOp32
 70
     1
  0
XRECORD
  5
22AC
102
{ACAD_REACTORS
330
22AB
102
}
330
22AB
100
AcDbXrecord
280
     1
102
RTVSPropertyOp0
 70
     0
102
RTVSPropertyOp1
 70
     0
102
RTVSPropertyOp2
 70
     0
102
RTVSPropertyOp3
 70
     0
102
RTVSPropertyOp4
 70
     0
102
RTVSPropertyOp5
 70
     0
102
RTVSPropertyOp6
 70
     0
102
RTVSPropertyOp7
 70
     0
102
RTVSPropertyOp8
 70
     0
102
RTVSPropertyOp9
 70
     0
102
RTVSPropertyOp10
 70
     0
102
RTVSPropertyOp11
 70
     0
102
RTVSPropertyOp12
 70
     0
102
RTVSPropertyOp13
 70
     0
102
RTVSPropertyOp14
 70
     2
102
RTVSPropertyOp15
 70
     0
102
RTVSPropertyOp16
 70
     0
102
RTVSPropertyOp17
 70
     0
102
RTVSPropertyOp18
 70
     0
102
RTVSPropertyOp19
 70
     0
102
RTVSPropertyOp20
 70
     0
102
RTVSPropertyOp21
 70
     0
102
RTVSPropertyOp22
 70
     0
102
RTVSPropertyOp23
 70
     0
102
RTVSPropertyOp24
 70
     0
102
RTVSPropertyOp25
 70
     0
102
RTVSPropertyOp26
 70
     0
102
RTVSPropertyOp27
 70
     0
102
RTVSPropertyOp28
 70
     1
102
RTVSPropertyOp29
 70
     1
102
RTVSPropertyOp30
 70
     1
102
RTVSPropertyOp31
 70
     1
102
RTVSPropertyOp32
 70
     1
  0
XRECORD
  5
2298
102
{ACAD_REACTORS
330
2297
102
}
330
2297
100
AcDbXrecord
280
     1
102
RTVSPropertyOp0
 70
     1
102
RTVSPropertyOp1
 70
     1
102
RTVSPropertyOp2
 70
     1
102
RTVSPropertyOp3
 70
     1
102
RTVSPropertyOp4
 70
     1
102
RTVSPropertyOp5
 70
     1
102
RTVSPropertyOp6
 70
     1
102
RTVSPropertyOp7
 70
     1
102
RTVSPropertyOp8
 70
     1
102
RTVSPropertyOp9
 70
     1
102
RTVSPropertyOp10
 70
     1
102
RTVSPropertyOp11
 70
     1
102
RTVSPropertyOp12
 70
     1
102
RTVSPropertyOp13
 70
     1
102
RTVSPropertyOp14
 70
     1
102
RTVSPropertyOp15
 70
     1
102
RTVSPropertyOp16
 70
     1
102
RTVSPropertyOp17
 70
     1
102
RTVSPropertyOp18
 70
     1
102
RTVSPropertyOp19
 70
     1
102
RTVSPropertyOp20
 70
     1
102
RTVSPropertyOp21
 70
     1
102
RTVSPropertyOp22
 70
     1
102
RTVSPropertyOp23
 70
     1
102
RTVSPropertyOp24
 70
     1
102
RTVSPropertyOp25
 70
     1
102
RTVSPropertyOp26
 70
     1
102
RTVSPropertyOp27
 70
     1
102
RTVSPropertyOp28
 70
     1
102
RTVSPropertyOp29
 70
     1
102
RTVSPropertyOp30
 70
     1
102
RTVSPropertyOp31
 70
     1
102
RTVSPropertyOp32
 70
     1
  0
XRECORD
  5
22AE
102
{ACAD_REACTORS
330
22AD
102
}
330
22AD
100
AcDbXrecord
280
     1
102
RTVSPropertyOp0
 70
     0
102
RTVSPropertyOp1
 70
     0
102
RTVSPropertyOp2
 70
     0
102
RTVSPropertyOp3
 70
     0
102
RTVSPropertyOp4
 70
     0
102
RTVSPropertyOp5
 70
     0
102
RTVSPropertyOp6
 70
     0
102
RTVSPropertyOp7
 70
     0
102
RTVSPropertyOp8
 70
     0
102
RTVSPropertyOp9
 70
     0
102
RTVSPropertyOp10
 70
     0
102
RTVSPropertyOp11
 70
     0
102
RTVSPropertyOp12
 70
     0
102
RTVSPropertyOp13
 70
     0
102
RTVSPropertyOp14
 70
     2
102
RTVSPropertyOp15
 70
     0
102
RTVSPropertyOp16
 70
     0
102
RTVSPropertyOp17
 70
     0
102
RTVSPropertyOp18
 70
     0
102
RTVSPropertyOp19
 70
     0
102
RTVSPropertyOp20
 70
     0
102
RTVSPropertyOp21
 70
     0
102
RTVSPropertyOp22
 70
     0
102
RTVSPropertyOp23
 70
     0
102
RTVSPropertyOp24
 70
     0
102
RTVSPropertyOp25
 70
     0
102
RTVSPropertyOp26
 70
     0
102
RTVSPropertyOp27
 70
     0
102
RTVSPropertyOp28
 70
     1
102
RTVSPropertyOp29
 70
     1
102
RTVSPropertyOp30
 70
     1
102
RTVSPropertyOp31
 70
     1
102
RTVSPropertyOp32
 70
     1
  0
XRECORD
  5
2290
102
{ACAD_REACTORS
330
228F
102
}
330
228F
100
AcDbXrecord
280
     1
102
RTVSPropertyOp0
 70
     1
102
RTVSPropertyOp1
 70
     1
102
RTVSPropertyOp2
 70
     1
102
RTVSPropertyOp3
 70
     1
102
RTVSPropertyOp4
 70
     1
102
RTVSPropertyOp5
 70
     1
102
RTVSPropertyOp6
 70
     1
102
RTVSPropertyOp7
 70
     1
102
RTVSPropertyOp8
 70
     1
102
RTVSPropertyOp9
 70
     1
102
RTVSPropertyOp10
 70
     1
102
RTVSPropertyOp11
 70
     1
102
RTVSPropertyOp12
 70
     1
102
RTVSPropertyOp13
 70
     1
102
RTVSPropertyOp14
 70
     1
102
RTVSPropertyOp15
 70
     1
102
RTVSPropertyOp16
 70
     1
102
RTVSPropertyOp17
 70
     1
102
RTVSPropertyOp18
 70
     1
102
RTVSPropertyOp19
 70
     1
102
RTVSPropertyOp20
 70
     1
102
RTVSPropertyOp21
 70
     1
102
RTVSPropertyOp22
 70
     1
102
RTVSPropertyOp23
 70
     1
102
RTVSPropertyOp24
 70
     1
102
RTVSPropertyOp25
 70
     1
102
RTVSPropertyOp26
 70
     1
102
RTVSPropertyOp27
 70
     1
102
RTVSPropertyOp28
 70
     1
102
RTVSPropertyOp29
 70
     1
102
RTVSPropertyOp30
 70
     1
102
RTVSPropertyOp31
 70
     1
102
RTVSPropertyOp32
 70
     1
  0
XRECORD
  5
22AA
102
{ACAD_REACTORS
330
22A9
102
}
330
22A9
100
AcDbXrecord
280
     1
102
RTVSPropertyOp0
 70
     1
102
RTVSPropertyOp1
 70
     1
102
RTVSPropertyOp2
 70
     1
102
RTVSPropertyOp3
 70
     1
102
RTVSPropertyOp4
 70
     1
102
RTVSPropertyOp5
 70
     1
102
RTVSPropertyOp6
 70
     1
102
RTVSPropertyOp7
 70
     1
102
RTVSPropertyOp8
 70
     1
102
RTVSPropertyOp9
 70
     1
102
RTVSPropertyOp10
 70
     1
102
RTVSPropertyOp11
 70
     1
102
RTVSPropertyOp12
 70
     1
102
RTVSPropertyOp13
 70
     1
102
RTVSPropertyOp14
 70
     1
102
RTVSPropertyOp15
 70
     1
102
RTVSPropertyOp16
 70
     1
102
RTVSPropertyOp17
 70
     1
102
RTVSPropertyOp18
 70
     1
102
RTVSPropertyOp19
 70
     1
102
RTVSPropertyOp20
 70
     1
102
RTVSPropertyOp21
 70
     1
102
RTVSPropertyOp22
 70
     1
102
RTVSPropertyOp23
 70
     1
102
RTVSPropertyOp24
 70
     1
102
RTVSPropertyOp25
 70
     1
102
RTVSPropertyOp26
 70
     1
102
RTVSPropertyOp27
 70
     1
102
RTVSPropertyOp28
 70
     1
102
RTVSPropertyOp29
 70
     1
102
RTVSPropertyOp30
 70
     1
102
RTVSPropertyOp31
 70
     1
102
RTVSPropertyOp32
 70
     1
  0
XRECORD
  5
22A8
102
{ACAD_REACTORS
330
22A7
102
}
330
22A7
100
AcDbXrecord
280
     1
102
RTVSPropertyOp0
 70
     1
102
RTVSPropertyOp1
 70
     1
102
RTVSPropertyOp2
 70
     1
102
RTVSPropertyOp3
 70
     1
102
RTVSPropertyOp4
 70
     1
102
RTVSPropertyOp5
 70
     1
102
RTVSPropertyOp6
 70
     1
102
RTVSPropertyOp7
 70
     1
102
RTVSPropertyOp8
 70
     1
102
RTVSPropertyOp9
 70
     1
102
RTVSPropertyOp10
 70
     1
102
RTVSPropertyOp11
 70
     1
102
RTVSPropertyOp12
 70
     1
102
RTVSPropertyOp13
 70
     1
102
RTVSPropertyOp14
 70
     1
102
RTVSPropertyOp15
 70
     1
102
RTVSPropertyOp16
 70
     1
102
RTVSPropertyOp17
 70
     1
102
RTVSPropertyOp18
 70
     1
102
RTVSPropertyOp19
 70
     1
102
RTVSPropertyOp20
 70
     1
102
RTVSPropertyOp21
 70
     1
102
RTVSPropertyOp22
 70
     1
102
RTVSPropertyOp23
 70
     1
102
RTVSPropertyOp24
 70
     1
102
RTVSPropertyOp25
 70
     1
102
RTVSPropertyOp26
 70
     1
102
RTVSPropertyOp27
 70
     1
102
RTVSPropertyOp28
 70
     1
102
RTVSPropertyOp29
 70
     1
102
RTVSPropertyOp30
 70
     1
102
RTVSPropertyOp31
 70
     1
102
RTVSPropertyOp32
 70
     1
  0
XRECORD
  5
22A2
102
{ACAD_REACTORS
330
22A1
102
}
330
22A1
100
AcDbXrecord
280
     1
102
RTVSPropertyOp0
 70
     1
102
RTVSPropertyOp1
 70
     1
102
RTVSPropertyOp2
 70
     1
102
RTVSPropertyOp3
 70
     1
102
RTVSPropertyOp4
 70
     1
102
RTVSPropertyOp5
 70
     1
102
RTVSPropertyOp6
 70
     1
102
RTVSPropertyOp7
 70
     1
102
RTVSPropertyOp8
 70
     1
102
RTVSPropertyOp9
 70
     1
102
RTVSPropertyOp10
 70
     1
102
RTVSPropertyOp11
 70
     1
102
RTVSPropertyOp12
 70
     1
102
RTVSPropertyOp13
 70
     1
102
RTVSPropertyOp14
 70
     1
102
RTVSPropertyOp15
 70
     1
102
RTVSPropertyOp16
 70
     1
102
RTVSPropertyOp17
 70
     1
102
RTVSPropertyOp18
 70
     1
102
RTVSPropertyOp19
 70
     1
102
RTVSPropertyOp20
 70
     1
102
RTVSPropertyOp21
 70
     1
102
RTVSPropertyOp22
 70
     1
102
RTVSPropertyOp23
 70
     1
102
RTVSPropertyOp24
 70
     1
102
RTVSPropertyOp25
 70
     1
102
RTVSPropertyOp26
 70
     1
102
RTVSPropertyOp27
 70
     1
102
RTVSPropertyOp28
 70
     1
102
RTVSPropertyOp29
 70
     1
102
RTVSPropertyOp30
 70
     1
102
RTVSPropertyOp31
 70
     1
102
RTVSPropertyOp32
 70
     1
  0
XRECORD
  5
22A4
102
{ACAD_REACTORS
330
22A3
102
}
330
22A3
100
AcDbXrecord
280
     1
102
RTVSPropertyOp0
 70
     1
102
RTVSPropertyOp1
 70
     1
102
RTVSPropertyOp2
 70
     1
102
RTVSPropertyOp3
 70
     1
102
RTVSPropertyOp4
 70
     1
102
RTVSPropertyOp5
 70
     1
102
RTVSPropertyOp6
 70
     1
102
RTVSPropertyOp7
 70
     1
102
RTVSPropertyOp8
 70
     1
102
RTVSPropertyOp9
 70
     1
102
RTVSPropertyOp10
 70
     1
102
RTVSPropertyOp11
 70
     1
102
RTVSPropertyOp12
 70
     1
102
RTVSPropertyOp13
 70
     1
102
RTVSPropertyOp14
 70
     1
102
RTVSPropertyOp15
 70
     1
102
RTVSPropertyOp16
 70
     1
102
RTVSPropertyOp17
 70
     1
102
RTVSPropertyOp18
 70
     1
102
RTVSPropertyOp19
 70
     1
102
RTVSPropertyOp20
 70
     1
102
RTVSPropertyOp21
 70
     1
102
RTVSPropertyOp22
 70
     1
102
RTVSPropertyOp23
 70
     1
102
RTVSPropertyOp24
 70
     1
102
RTVSPropertyOp25
 70
     1
102
RTVSPropertyOp26
 70
     1
102
RTVSPropertyOp27
 70
     1
102
RTVSPropertyOp28
 70
     1
102
RTVSPropertyOp29
 70
     1
102
RTVSPropertyOp30
 70
     1
102
RTVSPropertyOp31
 70
     1
102
RTVSPropertyOp32
 70
     1
  0
XRECORD
  5
2296
102
{ACAD_REACTORS
330
2295
102
}
330
2295
100
AcDbXrecord
280
     1
102
RTVSPropertyOp0
 70
     1
102
RTVSPropertyOp1
 70
     1
102
RTVSPropertyOp2
 70
     1
102
RTVSPropertyOp3
 70
     1
102
RTVSPropertyOp4
 70
     1
102
RTVSPropertyOp5
 70
     1
102
RTVSPropertyOp6
 70
     1
102
RTVSPropertyOp7
 70
     1
102
RTVSPropertyOp8
 70
     1
102
RTVSPropertyOp9
 70
     1
102
RTVSPropertyOp10
 70
     1
102
RTVSPropertyOp11
 70
     1
102
RTVSPropertyOp12
 70
     1
102
RTVSPropertyOp13
 70
     1
102
RTVSPropertyOp14
 70
     1
102
RTVSPropertyOp15
 70
     1
102
RTVSPropertyOp16
 70
     1
102
RTVSPropertyOp17
 70
     1
102
RTVSPropertyOp18
 70
     1
102
RTVSPropertyOp19
 70
     1
102
RTVSPropertyOp20
 70
     1
102
RTVSPropertyOp21
 70
     1
102
RTVSPropertyOp22
 70
     1
102
RTVSPropertyOp23
 70
     1
102
RTVSPropertyOp24
 70
     1
102
RTVSPropertyOp25
 70
     1
102
RTVSPropertyOp26
 70
     1
102
RTVSPropertyOp27
 70
     1
102
RTVSPropertyOp28
 70
     1
102
RTVSPropertyOp29
 70
     1
102
RTVSPropertyOp30
 70
     1
102
RTVSPropertyOp31
 70
     1
102
RTVSPropertyOp32
 70
     1
  0
XRECORD
  5
229E
102
{ACAD_REACTORS
330
229D
102
}
330
229D
100
AcDbXrecord
280
     1
102
RTVSPropertyOp0
 70
     1
102
RTVSPropertyOp1
 70
     1
102
RTVSPropertyOp2
 70
     1
102
RTVSPropertyOp3
 70
     1
102
RTVSPropertyOp4
 70
     1
102
RTVSPropertyOp5
 70
     1
102
RTVSPropertyOp6
 70
     1
102
RTVSPropertyOp7
 70
     1
102
RTVSPropertyOp8
 70
     1
102
RTVSPropertyOp9
 70
     1
102
RTVSPropertyOp10
 70
     1
102
RTVSPropertyOp11
 70
     1
102
RTVSPropertyOp12
 70
     1
102
RTVSPropertyOp13
 70
     1
102
RTVSPropertyOp14
 70
     1
102
RTVSPropertyOp15
 70
     1
102
RTVSPropertyOp16
 70
     1
102
RTVSPropertyOp17
 70
     1
102
RTVSPropertyOp18
 70
     1
102
RTVSPropertyOp19
 70
     1
102
RTVSPropertyOp20
 70
     1
102
RTVSPropertyOp21
 70
     1
102
RTVSPropertyOp22
 70
     1
102
RTVSPropertyOp23
 70
     1
102
RTVSPropertyOp24
 70
     1
102
RTVSPropertyOp25
 70
     1
102
RTVSPropertyOp26
 70
     1
102
RTVSPropertyOp27
 70
     1
102
RTVSPropertyOp28
 70
     1
102
RTVSPropertyOp29
 70
     1
102
RTVSPropertyOp30
 70
     1
102
RTVSPropertyOp31
 70
     1
102
RTVSPropertyOp32
 70
     1
  0
XRECORD
  5
22A6
102
{ACAD_REACTORS
330
22A5
102
}
330
22A5
100
AcDbXrecord
280
     1
102
RTVSPropertyOp0
 70
     1
102
RTVSPropertyOp1
 70
     1
102
RTVSPropertyOp2
 70
     1
102
RTVSPropertyOp3
 70
     1
102
RTVSPropertyOp4
 70
     1
102
RTVSPropertyOp5
 70
     1
102
RTVSPropertyOp6
 70
     1
102
RTVSPropertyOp7
 70
     1
102
RTVSPropertyOp8
 70
     1
102
RTVSPropertyOp9
 70
     1
102
RTVSPropertyOp10
 70
     1
102
RTVSPropertyOp11
 70
     1
102
RTVSPropertyOp12
 70
     1
102
RTVSPropertyOp13
 70
     1
102
RTVSPropertyOp14
 70
     1
102
RTVSPropertyOp15
 70
     1
102
RTVSPropertyOp16
 70
     1
102
RTVSPropertyOp17
 70
     1
102
RTVSPropertyOp18
 70
     1
102
RTVSPropertyOp19
 70
     1
102
RTVSPropertyOp20
 70
     1
102
RTVSPropertyOp21
 70
     1
102
RTVSPropertyOp22
 70
     1
102
RTVSPropertyOp23
 70
     1
102
RTVSPropertyOp24
 70
     1
102
RTVSPropertyOp25
 70
     1
102
RTVSPropertyOp26
 70
     1
102
RTVSPropertyOp27
 70
     1
102
RTVSPropertyOp28
 70
     1
102
RTVSPropertyOp29
 70
     1
102
RTVSPropertyOp30
 70
     1
102
RTVSPropertyOp31
 70
     1
102
RTVSPropertyOp32
 70
     1
  0
ENDSEC
  0
EOF
