  0
SECTION
  2
HEADER
  9
$ACADVER
  1
AC1015
  9
$ACADMAINTVER
 70
    20
  9
$DWGCODEPAGE
  3
ANSI_932
  9
$INSBASE
 10
0.0
 20
0.0
 30
0.0
  9
$EXTMIN
 10
1427.259137022225
 20
-3.435667881006451
 30
0.0
  9
$EXTMAX
 10
1619.259137022226
 20
277.6864608489936
 30
0.0
  9
$LIMMIN
 10
0.0
 20
0.0
  9
$LIMMAX
 10
12.0
 20
9.0
  9
$ORTHOMODE
 70
     1
  9
$REGENMODE
 70
     1
  9
$FILLMODE
 70
     1
  9
$QTEXTMODE
 70
     0
  9
$MIRRTEXT
 70
     0
  9
$LTSCALE
 40
0.2
  9
$ATTMODE
 70
     1
  9
$TEXTSIZE
 40
3.2
  9
$TRACEWID
 40
0.05
  9
$TEXTSTYLE
  7
高3.2
  9
$CLAYER
  8
0
  9
$CELTYPE
  6
ByLayer
  9
$CECOLOR
 62
     3
  9
$CELTSCALE
 40
1.0
  9
$DISPSILH
 70
     0
  9
$DIMSCALE
 40
1.0
  9
$DIMASZ
 40
2.5
  9
$DIMEXO
 40
0.25
  9
$DIMDLI
 40
0.2
  9
$DIMRND
 40
0.0
  9
$DIMDLE
 40
0.0
  9
$DIMEXE
 40
1.25
  9
$DIMTP
 40
0.0
  9
$DIMTM
 40
0.0
  9
$DIMTXT
 40
3.0
  9
$DIMCEN
 40
0.0
  9
$DIMTSZ
 40
0.0
  9
$DIMTOL
 70
     0
  9
$DIMLIM
 70
     0
  9
$DIMTIH
 70
     0
  9
$DIMTOH
 70
     0
  9
$DIMSE1
 70
     0
  9
$DIMSE2
 70
     0
  9
$DIMTAD
 70
     3
  9
$DIMZIN
 70
     8
  9
$DIMBLK
  1
Open30
  9
$DIMASO
 70
     1
  9
$DIMSHO
 70
     1
  9
$DIMPOST
  1

  9
$DIMAPOST
  1

  9
$DIMALT
 70
     0
  9
$DIMALTD
 70
     3
  9
$DIMALTF
 40
0.03937007874016
  9
$DIMLFAC
 40
2.0
  9
$DIMTOFL
 70
     1
  9
$DIMTVP
 40
0.0
  9
$DIMTIX
 70
     0
  9
$DIMSOXD
 70
     0
  9
$DIMSAH
 70
     0
  9
$DIMBLK1
  1

  9
$DIMBLK2
  1

  9
$DIMSTYLE
  2
1／2
  9
$DIMCLRD
 70
     0
  9
$DIMCLRE
 70
     0
  9
$DIMCLRT
 70
     4
  9
$DIMTFAC
 40
1.0
  9
$DIMGAP
 40
0.625
  9
$DIMJUST
 70
     0
  9
$DIMSD1
 70
     0
  9
$DIMSD2
 70
     0
  9
$DIMTOLJ
 70
     0
  9
$DIMTZIN
 70
     8
  9
$DIMALTZ
 70
     0
  9
$DIMALTTZ
 70
     0
  9
$DIMUPT
 70
     1
  9
$DIMDEC
 70
     2
  9
$DIMTDEC
 70
     2
  9
$DIMALTU
 70
     2
  9
$DIMALTTD
 70
     3
  9
$DIMTXSTY
  7
Standard
  9
$DIMAUNIT
 70
     0
  9
$DIMADEC
 70
     1
  9
$DIMALTRND
 40
0.0
  9
$DIMAZIN
 70
     2
  9
$DIMDSEP
 70
    46
  9
$DIMATFIT
 70
     0
  9
$DIMFRAC
 70
     0
  9
$DIMLDRBLK
  1
Open30
  9
$DIMLUNIT
 70
     2
  9
$DIMLWD
 70
    -2
  9
$DIMLWE
 70
    -2
  9
$DIMTMOVE
 70
     0
  9
$LUNITS
 70
     2
  9
$LUPREC
 70
     4
  9
$SKETCHINC
 40
0.1
  9
$FILLETRAD
 40
0.0
  9
$AUNITS
 70
     0
  9
$AUPREC
 70
     0
  9
$MENU
  1
.
  9
$ELEVATION
 40
0.0
  9
$PELEVATION
 40
0.0
  9
$THICKNESS
 40
0.0
  9
$LIMCHECK
 70
     0
  9
$CHAMFERA
 40
0.0
  9
$CHAMFERB
 40
0.0
  9
$CHAMFERC
 40
0.0
  9
$CHAMFERD
 40
0.0
  9
$SKPOLY
 70
     0
  9
$TDCREATE
 40
2458317.409787060
  9
$TDUCREATE
 40
2458317.034787060
  9
$TDUPDATE
 40
2459048.604441887
  9
$TDUUPDATE
 40
2459048.229441887
  9
$TDINDWG
 40
0.1510414352
  9
$TDUSRTIMER
 40
0.1510401157
  9
$USRTIMER
 70
     1
  9
$ANGBASE
 50
0.0
  9
$ANGDIR
 70
     0
  9
$PDMODE
 70
     0
  9
$PDSIZE
 40
0.0
  9
$PLINEWID
 40
0.0
  9
$SPLFRAME
 70
     0
  9
$SPLINETYPE
 70
     6
  9
$SPLINESEGS
 70
     8
  9
$HANDSEED
  5
1A15
  9
$SURFTAB1
 70
     6
  9
$SURFTAB2
 70
     6
  9
$SURFTYPE
 70
     6
  9
$SURFU
 70
     6
  9
$SURFV
 70
     6
  9
$UCSBASE
  2

  9
$UCSNAME
  2

  9
$UCSORG
 10
0.0
 20
0.0
 30
0.0
  9
$UCSXDIR
 10
1.0
 20
0.0
 30
0.0
  9
$UCSYDIR
 10
0.0
 20
1.0
 30
0.0
  9
$UCSORTHOREF
  2

  9
$UCSORTHOVIEW
 70
     0
  9
$UCSORGTOP
 10
0.0
 20
0.0
 30
0.0
  9
$UCSORGBOTTOM
 10
0.0
 20
0.0
 30
0.0
  9
$UCSORGLEFT
 10
0.0
 20
0.0
 30
0.0
  9
$UCSORGRIGHT
 10
0.0
 20
0.0
 30
0.0
  9
$UCSORGFRONT
 10
0.0
 20
0.0
 30
0.0
  9
$UCSORGBACK
 10
0.0
 20
0.0
 30
0.0
  9
$PUCSBASE
  2

  9
$PUCSNAME
  2

  9
$PUCSORG
 10
0.0
 20
0.0
 30
0.0
  9
$PUCSXDIR
 10
1.0
 20
0.0
 30
0.0
  9
$PUCSYDIR
 10
0.0
 20
1.0
 30
0.0
  9
$PUCSORTHOREF
  2

  9
$PUCSORTHOVIEW
 70
     0
  9
$PUCSORGTOP
 10
0.0
 20
0.0
 30
0.0
  9
$PUCSORGBOTTOM
 10
0.0
 20
0.0
 30
0.0
  9
$PUCSORGLEFT
 10
0.0
 20
0.0
 30
0.0
  9
$PUCSORGRIGHT
 10
0.0
 20
0.0
 30
0.0
  9
$PUCSORGFRONT
 10
0.0
 20
0.0
 30
0.0
  9
$PUCSORGBACK
 10
0.0
 20
0.0
 30
0.0
  9
$USERI1
 70
     0
  9
$USERI2
 70
     0
  9
$USERI3
 70
     0
  9
$USERI4
 70
     0
  9
$USERI5
 70
     0
  9
$USERR1
 40
0.0
  9
$USERR2
 40
0.0
  9
$USERR3
 40
0.0
  9
$USERR4
 40
0.0
  9
$USERR5
 40
0.0
  9
$WORLDVIEW
 70
     1
  9
$SHADEDGE
 70
     3
  9
$SHADEDIF
 70
    70
  9
$TILEMODE
 70
     1
  9
$MAXACTVP
 70
    64
  9
$PINSBASE
 10
0.0
 20
0.0
 30
0.0
  9
$PLIMCHECK
 70
     0
  9
$PEXTMIN
 10
0.0
 20
0.0
 30
0.0
  9
$PEXTMAX
 10
0.0
 20
0.0
 30
0.0
  9
$PLIMMIN
 10
0.0
 20
0.0
  9
$PLIMMAX
 10
12.0
 20
9.0
  9
$UNITMODE
 70
     0
  9
$VISRETAIN
 70
     1
  9
$PLINEGEN
 70
     0
  9
$PSLTSCALE
 70
     1
  9
$TREEDEPTH
 70
  3020
  9
$CMLSTYLE
  2
Standard
  9
$CMLJUST
 70
     0
  9
$CMLSCALE
 40
1.0
  9
$PROXYGRAPHICS
 70
     1
  9
$MEASUREMENT
 70
     1
  9
$CELWEIGHT
370
    -1
  9
$ENDCAPS
280
     0
  9
$JOINSTYLE
280
     0
  9
$LWDISPLAY
290
     0
  9
$INSUNITS
 70
     1
  9
$HYPERLINKBASE
  1

  9
$STYLESHEET
  1

  9
$XEDIT
290
     1
  9
$CEPSNTYPE
380
     0
  9
$PSTYLEMODE
290
     1
  9
$FINGERPRINTGUID
  2
{ADE947CC-F8E5-48EC-91A6-61717F152C1B}
  9
$VERSIONGUID
  2
{7C723251-44BF-4E57-B7B7-A3CAC4A742C4}
  9
$EXTNAMES
290
     1
  9
$PSVPSCALE
 40
0.0
  9
$OLESTARTUP
290
     0
  0
ENDSEC
  0
SECTION
  2
CLASSES
  0
CLASS
  1
ACDBDICTIONARYWDFLT
  2
AcDbDictionaryWithDefault
  3
ObjectDBX Classes
 90
        0
280
     0
281
     0
  0
CLASS
  1
ACDBPLACEHOLDER
  2
AcDbPlaceHolder
  3
ObjectDBX Classes
 90
        0
280
     0
281
     0
  0
CLASS
  1
LAYOUT
  2
AcDbLayout
  3
ObjectDBX Classes
 90
        0
280
     0
281
     0
  0
CLASS
  1
DICTIONARYVAR
  2
AcDbDictionaryVar
  3
ObjectDBX Classes
 90
        0
280
     0
281
     0
  0
CLASS
  1
TABLESTYLE
  2
AcDbTableStyle
  3
ObjectDBX Classes
 90
     4095
280
     0
281
     0
  0
CLASS
  1
MATERIAL
  2
AcDbMaterial
  3
ObjectDBX Classes
 90
     1153
280
     0
281
     0
  0
CLASS
  1
VISUALSTYLE
  2
AcDbVisualStyle
  3
ObjectDBX Classes
 90
     4095
280
     0
281
     0
  0
CLASS
  1
SORTENTSTABLE
  2
AcDbSortentsTable
  3
ObjectDBX Classes
 90
        0
280
     0
281
     0
  0
CLASS
  1
DIMASSOC
  2
AcDbDimAssoc
  3
"AcDbDimAssoc|Product Desc:     AcDim ARX App For Dimension|Company:          Autodesk, Inc.|WEB Address:      www.autodesk.com"
 90
    32768
280
     0
281
     0
  0
CLASS
  1
SCALE
  2
AcDbScale
  3
ObjectDBX Classes
 90
     1153
280
     0
281
     0
  0
CLASS
  1
MLEADERSTYLE
  2
AcDbMLeaderStyle
  3
ACDB_MLEADERSTYLE_CLASS
 90
     4095
280
     0
281
     0
  0
CLASS
  1
CELLSTYLEMAP
  2
AcDbCellStyleMap
  3
ObjectDBX Classes
 90
     1152
280
     0
281
     0
  0
CLASS
  1
AEC_REFEDIT_STATUS_TRACKER
  2
AecDbRefEditStatusTracker
  3
AecArchBase60|Product Desc: Autodesk Architectural Desktop 2007 |Company: Autodesk,Inc. |WEB Address: www.autodesk.com
 90
      129
280
     0
281
     0
  0
CLASS
  1
NPOCOLLECTION
  2
AcDbImpNonPersistentObjectsCollection
  3
ObjectDBX Classes
 90
     1153
280
     0
281
     0
  0
ENDSEC
  0
SECTION
  2
TABLES
  0
TABLE
  2
VPORT
  5
8
102
{ACAD_XDICTIONARY
360
829
102
}
330
0
100
AcDbSymbolTable
 70
     1
  0
VPORT
  5
94
330
8
100
AcDbSymbolTableRecord
100
AcDbViewportTableRecord
  2
*Active
 70
     0
 10
0.0
 20
0.0
 11
1.0
 21
1.0
 12
1584.621300505893
 22
136.2081338282641
 13
0.0
 23
0.0
 14
0.5
 24
0.5
 15
0.5
 25
0.5
 16
0.0
 26
0.0
 36
1.0
 17
0.0
 27
0.0
 37
0.0
 40
571.7938506379868
 41
1.403089887640449
 42
50.0
 43
0.0
 44
0.0
 50
0.0
 51
0.0
 71
     0
 72
  1000
 73
     1
 74
     2
 75
     0
 76
     0
 77
     0
 78
     0
281
     0
 65
     1
110
0.0
120
0.0
130
0.0
111
1.0
121
0.0
131
0.0
112
0.0
122
1.0
132
0.0
 79
     0
146
0.0
  0
ENDTAB
  0
TABLE
  2
LTYPE
  5
5
330
0
100
AcDbSymbolTable
 70
     5
  0
LTYPE
  5
14
330
5
100
AcDbSymbolTableRecord
100
AcDbLinetypeTableRecord
  2
ByBlock
 70
     0
  3

 72
    65
 73
     0
 40
0.0
  0
LTYPE
  5
15
330
5
100
AcDbSymbolTableRecord
100
AcDbLinetypeTableRecord
  2
ByLayer
 70
     0
  3

 72
    65
 73
     0
 40
0.0
  0
LTYPE
  5
16
330
5
100
AcDbSymbolTableRecord
100
AcDbLinetypeTableRecord
  2
Continuous
 70
     0
  3
Solid line
 72
    65
 73
     0
 40
0.0
  0
LTYPE
  5
148
330
5
100
AcDbSymbolTableRecord
100
AcDbLinetypeTableRecord
  2
CENTER
 70
     0
  3
Center ____ _ ____ _ ____ _ ____ _ ____ _ ____
 72
    65
 73
     4
 40
50.8
 49
31.75
 74
     0
 49
-6.349999999999997
 74
     0
 49
6.349999999999997
 74
     0
 49
-6.349999999999997
 74
     0
  0
LTYPE
  5
149
330
5
100
AcDbSymbolTableRecord
100
AcDbLinetypeTableRecord
  2
HIDDEN
 70
     0
  3
Hidden __ __ __ __ __ __ __ __ __ __ __ __ __ __
 72
    65
 73
     2
 40
9.524999999999996
 49
6.349999999999997
 74
     0
 49
-3.174999999999998
 74
     0
  0
LTYPE
  5
14A
330
5
100
AcDbSymbolTableRecord
100
AcDbLinetypeTableRecord
  2
PHANTOM
 70
     0
  3
Phantom ______  __  __  ______  __  __  ______
 72
    65
 73
     6
 40
63.5
 49
31.75
 74
     0
 49
-6.349999999999997
 74
     0
 49
6.349999999999997
 74
     0
 49
-6.349999999999997
 74
     0
 49
6.349999999999997
 74
     0
 49
-6.349999999999997
 74
     0
  0
ENDTAB
  0
TABLE
  2
LAYER
  5
2
102
{ACAD_XDICTIONARY
360
DD
102
}
330
0
100
AcDbSymbolTable
 70
     2
  0
LAYER
  5
10
102
{ACAD_XDICTIONARY
360
81D
102
}
330
2
100
AcDbSymbolTableRecord
100
AcDbLayerTableRecord
  2
0
 70
     0
 62
     7
  6
Continuous
370
    -3
390
F
  0
LAYER
  5
D8
330
2
100
AcDbSymbolTableRecord
100
AcDbLayerTableRecord
  2
Defpoints
 70
     0
 62
     7
  6
Continuous
290
     0
370
    -3
390
F
  0
ENDTAB
  0
TABLE
  2
STYLE
  5
3
330
0
100
AcDbSymbolTable
 70
     6
  0
STYLE
  5
11
330
3
100
AcDbSymbolTableRecord
100
AcDbTextStyleTableRecord
  2
Standard
 70
     0
 40
0.0
 41
1.0
 50
0.0
 71
     0
 42
0.2
  3
txt.shx
  4
bigfont.shx
  0
STYLE
  5
11D
330
3
100
AcDbSymbolTableRecord
100
AcDbTextStyleTableRecord
  2
高3.2
 70
     0
 40
3.2
 41
1.0
 50
0.0
 71
     0
 42
3.2
  3
txt.shx
  4
bigfont.shx
  0
STYLE
  5
11E
330
3
100
AcDbSymbolTableRecord
100
AcDbTextStyleTableRecord
  2
高6.3
 70
     0
 40
6.299999999999998
 41
1.0
 50
0.0
 71
     0
 42
6.299999999999998
  3
txt.shx
  4
bigfont.shx
  0
STYLE
  5
11F
330
3
100
AcDbSymbolTableRecord
100
AcDbTextStyleTableRecord
  2
高2.5
 70
     0
 40
2.5
 41
1.0
 50
0.0
 71
     0
 42
0.2
  3
txt.shx
  4
bigfont.shx
  0
STYLE
  5
146
330
3
100
AcDbSymbolTableRecord
100
AcDbTextStyleTableRecord
  2
高4.5
 70
     0
 40
4.5
 41
1.0
 50
0.0
 71
     0
 42
6.299999999999998
  3
txt.shx
  4
bigfont.shx
  0
STYLE
  5
171
330
3
100
AcDbSymbolTableRecord
100
AcDbTextStyleTableRecord
  2
高2
 70
     0
 40
2.0
 41
1.0
 50
0.0
 71
     0
 42
6.299999999999998
  3
txt.shx
  4
bigfont.shx
  0
ENDTAB
  0
TABLE
  2
VIEW
  5
6
330
0
100
AcDbSymbolTable
 70
     0
  0
ENDTAB
  0
TABLE
  2
UCS
  5
7
330
0
100
AcDbSymbolTable
 70
     0
  0
ENDTAB
  0
TABLE
  2
APPID
  5
9
330
0
100
AcDbSymbolTable
 70
     9
  0
APPID
  5
12
330
9
100
AcDbSymbolTableRecord
100
AcDbRegAppTableRecord
  2
ACAD
 70
     0
  0
APPID
  5
DC
330
9
100
AcDbSymbolTableRecord
100
AcDbRegAppTableRecord
  2
ACAD_DSTYLE_DIMJOGGED_JOGANGLE_SYMBOL
 70
     0
  0
APPID
  5
566
330
9
100
AcDbSymbolTableRecord
100
AcDbRegAppTableRecord
  2
ACAD_EXEMPT_FROM_CAD_STANDARDS
 70
     0
  0
APPID
  5
647
330
9
100
AcDbSymbolTableRecord
100
AcDbRegAppTableRecord
  2
ACAD_DSTYLE_DIMJAG
 70
     0
  0
APPID
  5
648
330
9
100
AcDbSymbolTableRecord
100
AcDbRegAppTableRecord
  2
ACAD_DSTYLE_DIMBREAK
 70
     0
  0
APPID
  5
649
330
9
100
AcDbSymbolTableRecord
100
AcDbRegAppTableRecord
  2
ACAD_DSTYLE_DIMTALN
 70
     0
  0
APPID
  5
858
330
9
100
AcDbSymbolTableRecord
100
AcDbRegAppTableRecord
  2
ACAD_DSTYLE_DIMARC_LENGTH_SYMBOL
 70
     0
  0
APPID
  5
859
330
9
100
AcDbSymbolTableRecord
100
AcDbRegAppTableRecord
  2
ACAD_DSTYLE_DIMEXT_LENGTH
 70
     0
  0
APPID
  5
86E
330
9
100
AcDbSymbolTableRecord
100
AcDbRegAppTableRecord
  2
ACAD_MLEADERVER
 70
     0
  0
ENDTAB
  0
TABLE
  2
DIMSTYLE
  5
A
330
0
100
AcDbSymbolTable
 70
    10
100
AcDbDimStyleTable
 71
     5
340
D9
340
DB
340
DA
340
127
340
129
  0
DIMSTYLE
105
D9
330
A
100
AcDbSymbolTableRecord
100
AcDbDimStyleTableRecord
  2
1：1
 70
     0
 41
2.5
 42
0.25
 43
0.2
 44
1.25
 73
     0
 74
     0
 77
     3
 78
     8
 79
     2
140
3.0
141
0.0
143
0.03937007874016
147
0.625
171
     3
172
     1
178
     4
179
     1
271
     2
272
     2
274
     3
283
     0
284
     8
288
     1
289
     0
340
11
341
C6
342
C6
1001
ACAD_DSTYLE_DIMARC_LENGTH_SYMBOL
1070
   379
1070
     2
1001
ACAD_DSTYLE_DIMEXT_LENGTH
1070
   378
1040
1.25
1001
ACAD_DSTYLE_DIMJOGGED_JOGANGLE_SYMBOL
1070
   384
1040
1.570796326794896
  0
DIMSTYLE
105
DA
330
A
100
AcDbSymbolTableRecord
100
AcDbDimStyleTableRecord
  2
2：1
 70
     0
 41
2.5
 42
0.25
 43
0.2
 44
1.25
 73
     0
 74
     0
 77
     3
 78
     8
 79
     2
140
3.0
141
0.0
143
0.03937007874016
144
0.5
147
0.625
171
     3
172
     1
178
     4
179
     1
271
     2
272
     2
274
     3
283
     0
284
     8
288
     1
289
     0
340
11
341
C6
342
C6
1001
ACAD_DSTYLE_DIMARC_LENGTH_SYMBOL
1070
   379
1070
     2
1001
ACAD_DSTYLE_DIMEXT_LENGTH
1070
   378
1040
1.25
1001
ACAD_DSTYLE_DIMJOGGED_JOGANGLE_SYMBOL
1070
   384
1040
1.570796326794896
  0
DIMSTYLE
105
DB
330
A
100
AcDbSymbolTableRecord
100
AcDbDimStyleTableRecord
  2
5：1
 70
     0
 41
2.5
 42
0.25
 43
0.2
 44
1.25
 73
     0
 74
     0
 77
     3
 78
     8
 79
     2
140
3.0
141
0.0
143
0.03937007874016
144
0.2
147
0.625
171
     3
172
     1
178
     4
179
     1
271
     2
272
     2
274
     3
283
     0
284
     8
288
     1
289
     0
340
11
341
C6
342
C6
1001
ACAD_DSTYLE_DIMARC_LENGTH_SYMBOL
1070
   379
1070
     2
1001
ACAD_DSTYLE_DIMEXT_LENGTH
1070
   378
1040
1.25
1001
ACAD_DSTYLE_DIMJOGGED_JOGANGLE_SYMBOL
1070
   384
1040
1.570796326794896
  0
DIMSTYLE
105
127
330
A
100
AcDbSymbolTableRecord
100
AcDbDimStyleTableRecord
  2
10：1
 70
     0
 41
2.5
 42
0.25
 43
0.2
 44
1.25
 73
     0
 74
     0
 77
     3
 78
     8
 79
     2
140
3.0
141
0.0
143
0.03937007874016
144
0.1
147
0.625
171
     3
172
     1
178
     4
179
     1
271
     2
272
     2
274
     3
283
     0
284
     8
288
     1
289
     0
340
11
341
C6
342
C6
1001
ACAD_DSTYLE_DIMARC_LENGTH_SYMBOL
1070
   379
1070
     2
1001
ACAD_DSTYLE_DIMEXT_LENGTH
1070
   378
1040
1.25
1001
ACAD_DSTYLE_DIMJOGGED_JOGANGLE_SYMBOL
1070
   384
1040
1.570796326794896
  0
DIMSTYLE
105
128
330
A
100
AcDbSymbolTableRecord
100
AcDbDimStyleTableRecord
  2
1／2
 70
     0
 41
2.5
 42
0.25
 43
0.2
 44
1.25
 73
     0
 74
     0
 77
     3
 78
     8
 79
     2
140
3.0
141
0.0
143
0.03937007874016
144
2.0
147
0.625
171
     3
172
     1
178
     4
179
     1
271
     2
272
     2
274
     3
283
     0
284
     8
288
     1
289
     0
340
11
341
C6
342
C6
1001
ACAD_DSTYLE_DIMARC_LENGTH_SYMBOL
1070
   379
1070
     2
1001
ACAD_DSTYLE_DIMEXT_LENGTH
1070
   378
1040
1.25
1001
ACAD_DSTYLE_DIMJOGGED_JOGANGLE_SYMBOL
1070
   384
1040
1.570796326794896
  0
DIMSTYLE
105
129
330
A
100
AcDbSymbolTableRecord
100
AcDbDimStyleTableRecord
  2
1／5
 70
     0
 41
2.5
 42
0.25
 43
0.2
 44
1.25
 73
     0
 74
     0
 77
     3
 78
     8
 79
     2
140
3.0
141
0.0
143
0.03937007874016
144
5.0
147
0.625
171
     3
172
     1
178
     4
179
     1
271
     2
272
     2
274
     3
283
     0
284
     8
288
     1
289
     0
340
11
341
C6
342
C6
1001
ACAD_DSTYLE_DIMARC_LENGTH_SYMBOL
1070
   379
1070
     2
1001
ACAD_DSTYLE_DIMEXT_LENGTH
1070
   378
1040
1.25
1001
ACAD_DSTYLE_DIMJOGGED_JOGANGLE_SYMBOL
1070
   384
1040
1.570796326794896
  0
DIMSTYLE
105
12A
330
A
100
AcDbSymbolTableRecord
100
AcDbDimStyleTableRecord
  2
1／10
 70
     0
 41
2.5
 42
0.25
 43
0.2
 44
1.25
 73
     0
 74
     0
 77
     3
 78
     8
 79
     2
140
3.0
141
0.0
143
0.03937007874016
144
10.0
147
0.625
171
     3
172
     1
178
     4
179
     1
271
     2
272
     2
274
     3
283
     0
284
     8
288
     1
289
     0
340
11
341
C6
342
C6
1001
ACAD_DSTYLE_DIMARC_LENGTH_SYMBOL
1070
   379
1070
     2
1001
ACAD_DSTYLE_DIMEXT_LENGTH
1070
   378
1040
1.25
1001
ACAD_DSTYLE_DIMJOGGED_JOGANGLE_SYMBOL
1070
   384
1040
1.570796326794896
  0
DIMSTYLE
105
644
330
A
100
AcDbSymbolTableRecord
100
AcDbDimStyleTableRecord
  2
1／4
 70
     0
 41
2.5
 42
0.25
 43
0.2
 44
1.25
 73
     0
 74
     0
 77
     3
 78
     8
 79
     2
140
3.0
141
0.0
143
0.03937007874016
144
4.0
147
0.625
171
     3
172
     1
178
     4
179
     1
271
     2
272
     2
274
     3
283
     0
284
     8
288
     1
289
     0
340
11
341
C6
342
C6
1001
ACAD_DSTYLE_DIMARC_LENGTH_SYMBOL
1070
   379
1070
     2
1001
ACAD_DSTYLE_DIMEXT_LENGTH
1070
   378
1040
1.25
1001
ACAD_DSTYLE_DIMJOGGED_JOGANGLE_SYMBOL
1070
   384
1040
1.570796326794896
  0
DIMSTYLE
105
645
330
A
100
AcDbSymbolTableRecord
100
AcDbDimStyleTableRecord
  2
1／3
 70
     0
 41
2.5
 42
0.25
 43
0.2
 44
1.25
 73
     0
 74
     0
 77
     3
 78
     8
 79
     2
140
3.0
141
0.0
143
0.03937007874016
144
3.0
147
0.625
171
     3
172
     1
178
     4
179
     1
271
     2
272
     2
274
     3
283
     0
284
     8
288
     1
289
     0
340
11
341
C6
342
C6
1001
ACAD_DSTYLE_DIMARC_LENGTH_SYMBOL
1070
   379
1070
     2
1001
ACAD_DSTYLE_DIMEXT_LENGTH
1070
   378
1040
1.25
1001
ACAD_DSTYLE_DIMJOGGED_JOGANGLE_SYMBOL
1070
   384
1040
1.570796326794896
  0
DIMSTYLE
105
646
330
A
100
AcDbSymbolTableRecord
100
AcDbDimStyleTableRecord
  2
FREE
 70
     0
 41
2.5
 42
0.25
 43
0.2
 44
1.25
 73
     0
 74
     0
 77
     3
 78
     8
 79
     2
140
3.0
141
0.0
143
0.03937007874016
147
0.625
171
     3
172
     1
178
     4
179
     1
271
     2
272
     2
274
     3
283
     0
284
     8
288
     1
289
     0
340
11
341
C6
342
C6
1001
ACAD_DSTYLE_DIMBREAK
1070
   391
1040
3.75
1001
ACAD_DSTYLE_DIMJAG
1070
   388
1040
1.5
1001
ACAD_DSTYLE_DIMTALN
1070
   392
1070
     0
1001
ACAD_DSTYLE_DIMARC_LENGTH_SYMBOL
1070
   379
1070
     2
1001
ACAD_DSTYLE_DIMEXT_LENGTH
1070
   378
1040
1.25
1001
ACAD_DSTYLE_DIMJOGGED_JOGANGLE_SYMBOL
1070
   384
1040
1.570796326794896
  0
ENDTAB
  0
TABLE
  2
BLOCK_RECORD
  5
1
330
0
100
AcDbSymbolTable
 70
    15
  0
BLOCK_RECORD
  5
1F
102
{ACAD_XDICTIONARY
360
31A
102
}
330
1
100
AcDbSymbolTableRecord
100
AcDbBlockTableRecord
  2
*Model_Space
340
22
  0
BLOCK_RECORD
  5
58
330
1
100
AcDbSymbolTableRecord
100
AcDbBlockTableRecord
  2
*Paper_Space
340
59
  0
BLOCK_RECORD
  5
5D
330
1
100
AcDbSymbolTableRecord
100
AcDbBlockTableRecord
  2
*Paper_Space0
340
5E
  0
BLOCK_RECORD
  5
C6
330
1
100
AcDbSymbolTableRecord
100
AcDbBlockTableRecord
  2
_Open30
340
0
102
{BLKREFS
331
BA3
331
BA4
331
BAF
331
BB0
331
BBB
331
BBC
331
BC7
331
BC8
331
BD3
331
BD4
331
BDF
331
BE0
331
1868
331
1869
331
1871
331
1872
331
187A
331
187B
331
1883
331
1884
331
188C
331
188D
331
1895
331
1896
102
}
  0
BLOCK_RECORD
  5
ACA
102
{ACAD_XDICTIONARY
360
B94
102
}
330
1
100
AcDbSymbolTableRecord
100
AcDbBlockTableRecord
  2
A$C3C162290
340
0
1001
ACAD
1000
DesignCenter Data
1002
{
1070
     1
1070
     1
1002
}
  0
BLOCK_RECORD
  5
B9E
330
1
100
AcDbSymbolTableRecord
100
AcDbBlockTableRecord
  2
*D3
340
0
  0
BLOCK_RECORD
  5
BAA
330
1
100
AcDbSymbolTableRecord
100
AcDbBlockTableRecord
  2
*D4
340
0
  0
BLOCK_RECORD
  5
BB6
330
1
100
AcDbSymbolTableRecord
100
AcDbBlockTableRecord
  2
*D5
340
0
  0
BLOCK_RECORD
  5
BC2
330
1
100
AcDbSymbolTableRecord
100
AcDbBlockTableRecord
  2
*D6
340
0
  0
BLOCK_RECORD
  5
BCE
330
1
100
AcDbSymbolTableRecord
100
AcDbBlockTableRecord
  2
*D7
340
0
  0
BLOCK_RECORD
  5
BDA
330
1
100
AcDbSymbolTableRecord
100
AcDbBlockTableRecord
  2
*D8
340
0
  0
BLOCK_RECORD
  5
1007
330
1
100
AcDbSymbolTableRecord
100
AcDbBlockTableRecord
  2
*D9
340
0
  0
BLOCK_RECORD
  5
1013
330
1
100
AcDbSymbolTableRecord
100
AcDbBlockTableRecord
  2
*D10
340
0
  0
BLOCK_RECORD
  5
101F
330
1
100
AcDbSymbolTableRecord
100
AcDbBlockTableRecord
  2
*D11
340
0
  0
BLOCK_RECORD
  5
102B
330
1
100
AcDbSymbolTableRecord
100
AcDbBlockTableRecord
  2
*D12
340
0
  0
BLOCK_RECORD
  5
1037
330
1
100
AcDbSymbolTableRecord
100
AcDbBlockTableRecord
  2
*D13
340
0
  0
BLOCK_RECORD
  5
1043
330
1
100
AcDbSymbolTableRecord
100
AcDbBlockTableRecord
  2
*D14
340
0
  0
ENDTAB
  0
ENDSEC
  0
SECTION
  2
BLOCKS
  0
BLOCK
  5
20
330
1F
100
AcDbEntity
  8
0
100
AcDbBlockBegin
  2
*Model_Space
 70
     0
 10
0.0
 20
0.0
 30
0.0
  3
*Model_Space
  1

  0
ENDBLK
  5
21
330
1F
100
AcDbEntity
  8
0
100
AcDbBlockEnd
  0
BLOCK
  5
5A
330
58
100
AcDbEntity
 67
     1
  8
0
100
AcDbBlockBegin
  2
*Paper_Space
 70
     0
 10
0.0
 20
0.0
 30
0.0
  3
*Paper_Space
  1

  0
ENDBLK
  5
5B
330
58
100
AcDbEntity
 67
     1
  8
0
100
AcDbBlockEnd
  0
BLOCK
  5
5F
330
5D
100
AcDbEntity
 67
     1
  8
0
100
AcDbBlockBegin
  2
*Paper_Space0
 70
     0
 10
0.0
 20
0.0
 30
0.0
  3
*Paper_Space0
  1

  0
ENDBLK
  5
60
330
5D
100
AcDbEntity
 67
     1
  8
0
100
AcDbBlockEnd
  0
BLOCK
  5
C7
330
C6
100
AcDbEntity
  8
0
100
AcDbBlockBegin
  2
_Open30
 70
     0
 10
0.0
 20
0.0
 30
0.0
  3
_Open30
  1

  0
LINE
  5
C8
330
C6
100
AcDbEntity
  8
0
  6
ByBlock
 62
     0
370
    -2
100
AcDbLine
 10
-1.0
 20
0.267949
 30
0.0
 11
0.0
 21
0.0
 31
0.0
  0
LINE
  5
C9
330
C6
100
AcDbEntity
  8
0
  6
ByBlock
 62
     0
370
    -2
100
AcDbLine
 10
0.0
 20
0.0
 30
0.0
 11
-1.0
 21
-0.267949
 31
0.0
  0
LINE
  5
CA
330
C6
100
AcDbEntity
  8
0
  6
ByBlock
 62
     0
370
    -2
100
AcDbLine
 10
0.0
 20
0.0
 30
0.0
 11
-1.0
 21
0.0
 31
0.0
  0
ENDBLK
  5
CB
330
C6
100
AcDbEntity
  8
0
100
AcDbBlockEnd
  0
BLOCK
  5
B96
330
ACA
100
AcDbEntity
  8
0
100
AcDbBlockBegin
  2
A$C3C162290
 70
     0
 10
0.0
 20
0.0
 30
0.0
  3
A$C3C162290
  1

  0
LINE
  5
ACB
330
ACA
100
AcDbEntity
  8
0
 62
     3
100
AcDbLine
 10
8.487926473143485
 20
138.4999995915839
 30
0.0
 11
7.999999643143496
 21
138.4999995915839
 31
0.0
  0
LINE
  5
ACC
330
ACA
100
AcDbEntity
  8
0
 62
     3
100
AcDbLine
 10
19.9999996431435
 20
276.9999995915839
 30
0.0
 11
19.9999996431435
 21
-0.0000004084160992
 31
0.0
  0
LINE
  5
ACD
330
ACA
100
AcDbEntity
  8
0
 62
   254
100
AcDbLine
 10
-0.0000003568565035
 20
286.9999995915839
 30
0.0
 11
-0.0000003568565035
 21
-0.0000004084160992
 31
0.0
  0
LINE
  5
ACE
330
ACA
100
AcDbEntity
  8
0
 62
     3
100
AcDbLine
 10
199.9999996431435
 20
-0.0000004084160992
 30
0.0
 11
199.9999996431435
 21
276.9999995915839
 31
0.0
  0
LINE
  5
ACF
330
ACA
100
AcDbEntity
  8
0
 62
     3
100
AcDbLine
 10
19.9999996431435
 20
-0.0000004084160992
 30
0.0
 11
199.9999996431435
 21
-0.0000004084160992
 31
0.0
  0
LINE
  5
AD0
330
ACA
100
AcDbEntity
  8
0
 62
     3
100
AcDbLine
 10
85.32766227314345
 20
276.9999995915839
 30
0.0
 11
199.9999996431435
 21
276.9999995915839
 31
0.0
  0
LINE
  5
AD1
330
ACA
100
AcDbEntity
  8
0
 62
   254
100
AcDbLine
 10
-0.0000003568565035
 20
286.9999995915839
 30
0.0
 11
199.9999996431435
 21
286.9999995915839
 31
0.0
  0
LINE
  5
AD2
330
ACA
100
AcDbEntity
  8
0
 62
     3
100
AcDbLine
 10
51.91491575314353
 20
276.9999995915839
 30
0.0
 11
19.9999996431435
 21
276.9999995915839
 31
0.0
  0
LINE
  5
AD3
330
ACA
100
AcDbEntity
  8
0
 62
     3
100
AcDbLine
 10
147.9999996431435
 20
-0.0000004084160992
 30
0.0
 11
147.9999996431435
 21
39.99999959158391
 31
0.0
  0
LINE
  5
AD4
330
ACA
100
AcDbEntity
  8
0
 62
     3
100
AcDbLine
 10
160.9999996431435
 20
9.9999995915839
 30
0.0
 11
160.9999996431435
 21
37.9999995915839
 31
0.0
  0
LINE
  5
AD5
330
ACA
100
AcDbEntity
  8
0
 62
     3
100
AcDbLine
 10
120.9999996431435
 20
9.9999995915839
 30
0.0
 11
120.9999996431435
 21
23.99999959158389
 31
0.0
  0
LINE
  5
AD6
330
ACA
100
AcDbEntity
  8
0
 62
     3
100
AcDbLine
 10
130.9999996431435
 20
23.99999959158389
 30
0.0
 11
130.9999996431435
 21
-0.0000004084160992
 31
0.0
  0
LINE
  5
AD7
330
ACA
100
AcDbEntity
  8
0
 62
     3
100
AcDbLine
 10
101.9999996431435
 20
39.99999959158389
 30
0.0
 11
101.9999996431435
 21
16.99999959158391
 31
0.0
  0
LINE
  5
AD8
330
ACA
100
AcDbEntity
  8
0
 62
     3
100
AcDbLine
 10
160.9999996431435
 20
37.9999995915839
 30
0.0
 11
160.9999996431435
 21
39.99999959158391
 31
0.0
  0
LINE
  5
AD9
330
ACA
100
AcDbEntity
  8
0
 62
     3
100
AcDbLine
 10
173.9999996431435
 20
16.99999959158391
 30
0.0
 11
173.9999996431435
 21
39.99999959158391
 31
0.0
  0
LINE
  5
ADA
330
ACA
100
AcDbEntity
  8
0
 62
     3
100
AcDbLine
 10
199.9999996431435
 20
39.99999959158391
 30
0.0
 11
88.75456500314362
 21
39.99999959158392
 31
0.0
  0
LINE
  5
ADB
330
ACA
100
AcDbEntity
  8
0
 62
     3
100
AcDbLine
 10
199.9999996431435
 20
30.9999995915839
 30
0.0
 11
88.75456500314355
 21
30.99999959158391
 31
0.0
  0
LINE
  5
ADC
330
ACA
100
AcDbEntity
  8
0
 62
     3
100
AcDbLine
 10
199.9999996431435
 20
16.99999959158391
 30
0.0
 11
88.75456500314355
 21
16.99999959158391
 31
0.0
  0
LINE
  5
ADD
330
ACA
100
AcDbEntity
  8
0
 62
     3
100
AcDbLine
 10
199.9999996431435
 20
9.9999995915839
 30
0.0
 11
88.69655714314342
 21
9.9999995915839
 31
0.0
  0
LINE
  5
ADE
330
ACA
100
AcDbEntity
  8
0
 62
     3
100
AcDbLine
 10
186.9999996431435
 20
16.99999959158391
 30
0.0
 11
186.9999996431435
 21
39.99999959158391
 31
0.0
  0
LINE
  5
ADF
330
ACA
100
AcDbEntity
  8
0
 62
     3
100
AcDbLine
 10
88.75456500314355
 20
39.99999959158392
 30
0.0
 11
88.75456500314355
 21
-0.0000004084160992
 31
0.0
  0
LINE
  5
AE0
330
ACA
100
AcDbEntity
  8
0
 62
     3
100
AcDbLine
 10
147.9999996431435
 20
23.99999959158389
 30
0.0
 11
88.75456500314355
 21
23.99999959158389
 31
0.0
  0
LINE
  5
AE1
330
ACA
100
AcDbEntity
  8
0
 62
     3
100
AcDbLine
 10
131.2783245731434
 20
4.832860851583888
 30
0.0
 11
147.9999996431435
 21
4.832860851583888
 31
0.0
  0
TEXT
  5
AE2
330
ACA
100
AcDbEntity
  8
0
 62
     3
100
AcDbText
 10
132.1643250564592
 20
19.07309644494925
 30
0.0
 40
2.5
  1
******
  7
高2.5
100
AcDbText
  0
TEXT
  5
AE3
330
ACA
100
AcDbEntity
  8
0
 62
     3
100
AcDbText
 10
103.1963683383957
 20
19.2978139965678
 30
0.0
 40
2.5
  1
*****
  7
高2.5
100
AcDbText
  0
TEXT
  5
AE4
330
ACA
100
AcDbEntity
  8
0
 62
     3
100
AcDbText
 10
103.4612760930931
 20
32.31224911534179
 30
0.0
 40
4.5
  1
**********
  7
高4.5
100
AcDbText
1001
ACAD
1000
ACAD_MTEXT_DEFINED_HEIGHT_BEGIN
1070
    46
1040
0.0
1000
ACAD_MTEXT_DEFINED_HEIGHT_END
  0
TEXT
  5
AE5
330
ACA
100
AcDbEntity
  8
0
 62
     3
100
AcDbText
 10
190.0655887366175
 20
36.51369169028749
 30
0.0
 40
2.0
  1
DEF
  7
高2
100
AcDbText
  0
TEXT
  5
AE6
330
ACA
100
AcDbEntity
  8
0
 62
     3
100
AcDbText
 10
176.1264903829093
 20
36.5136916902874
 30
0.0
 40
2.0
  1
DESN
  7
高2
100
AcDbText
  0
TEXT
  5
AE7
330
ACA
100
AcDbEntity
  8
0
 62
     3
100
AcDbText
 10
149.8721234429091
 20
36.51369169028749
 30
0.0
 40
2.0
  1
APPD
  7
高2
100
AcDbText
  0
TEXT
  5
AE8
330
ACA
100
AcDbEntity
  8
0
 62
     3
100
AcDbText
 10
162.9848595431434
 20
36.51369169028751
 30
0.0
 40
2.0
  1
CHCK
  7
高2
100
AcDbText
  0
TEXT
  5
AE9
330
ACA
100
AcDbEntity
  8
0
 62
     3
100
AcDbText
 10
121.9271652822962
 20
14.16839841481461
 30
0.0
 40
2.0
  1
SCALE
 41
0.8
  7
高2
100
AcDbText
  0
TEXT
  5
AEA
330
ACA
100
AcDbEntity
  8
0
 62
     3
100
AcDbText
 10
90.43914370618962
 20
14.16839841481463
 30
0.0
 40
2.0
  1
3AD　ANGLE
 41
1.5
  7
高2
100
AcDbText
  0
TEXT
  5
AEB
330
ACA
100
AcDbEntity
  8
0
 62
     3
100
AcDbText
 10
121.1965709731449
 20
20.91993648377173
 30
0.0
 40
2.0
  1
REMARKS
 41
0.7
  7
高2
100
AcDbText
  0
TEXT
  5
AEC
330
ACA
100
AcDbEntity
  8
0
 62
     3
100
AcDbText
 10
90.22223535314344
 20
20.99999959158391
 30
0.0
 40
2.0
  1
MATERIAL
 41
0.7
  7
高2
100
AcDbText
  0
TEXT
  5
AED
330
ACA
100
AcDbEntity
  8
0
 62
     3
100
AcDbText
 10
90.7987225558976
 20
27.99999959158389
 30
0.0
 40
2.0
  1
MODEL
  7
高2
100
AcDbText
  0
TEXT
  5
AEE
330
ACA
100
AcDbEntity
  8
0
 62
     3
100
AcDbText
 10
90.43564343722879
 20
36.70702094218292
 30
0.0
 40
2.0
  1
CONPONENTS
 41
0.5
  7
高2
100
AcDbText
  0
TEXT
  5
AEF
330
ACA
100
AcDbEntity
  8
0
 62
     3
100
AcDbText
 10
103.1427589083956
 20
25.08748071939586
 30
0.0
 40
4.5
  1
********
  7
高4.5
100
AcDbText
  0
TEXT
  5
AF0
330
ACA
100
AcDbEntity
  8
0
 62
     3
100
AcDbText
 10
151.065045373762
 20
1.231861447008208
 30
0.0
 40
6.299999999999998
  1
*-********
 41
0.6
  7
高6.3
100
AcDbText
1001
ACAD
1000
ACAD_MTEXT_DEFINED_HEIGHT_BEGIN
1070
    46
1040
0.0
1000
ACAD_MTEXT_DEFINED_HEIGHT_END
  0
TEXT
  5
AF1
330
ACA
100
AcDbEntity
  8
0
 62
     3
100
AcDbText
 10
164.563509393473
 20
11.1008887498169
 30
0.0
 40
3.2
  1
******
  7
高3.2
100
AcDbText
1001
ACAD
1000
ACAD_MTEXT_DEFINED_HEIGHT_BEGIN
1070
    46
1040
0.0
1000
ACAD_MTEXT_DEFINED_HEIGHT_END
  0
TEXT
  5
AF2
330
ACA
100
AcDbEntity
  8
0
 62
     3
100
AcDbText
 10
134.7875975377898
 20
11.10091659415177
 30
0.0
 40
3.2
  1
1/1
  7
高3.2
100
AcDbText
  0
TEXT
  5
AF3
330
ACA
100
AcDbEntity
  8
0
 62
     3
100
AcDbText
 10
131.8649265131434
 20
0.8168777647198622
 30
0.0
 40
3.2
  1
ZK-A4Y
 41
0.8
  7
高3.2
100
AcDbText
  0
TEXT
  5
AF4
330
ACA
100
AcDbEntity
  8
0
 62
     3
100
AcDbText
 10
89.58526604314341
 20
6.524620013771727
 30
0.0
 40
2.0
  1
NICHIDO IND.CO.LTD
 41
1.3
  7
高2
100
AcDbText
  0
TEXT
  5
AF5
330
ACA
100
AcDbEntity
  8
0
 62
     3
100
AcDbText
 10
90.76678930810066
 20
32.14052779946884
 30
0.0
 40
3.2
  1
品 名
  7
高3.2
100
AcDbText
1001
ACAD
1000
ACAD_MTEXT_DEFINED_HEIGHT_BEGIN
1070
    46
1040
0.0
1000
ACAD_MTEXT_DEFINED_HEIGHT_END
  0
TEXT
  5
AF6
330
ACA
100
AcDbEntity
  8
0
 62
     3
100
AcDbText
 10
90.76678930810066
 20
24.49999959158389
 30
0.0
 40
3.2
  1
型 式
  7
高3.2
100
AcDbText
1001
ACAD
1000
ACAD_MTEXT_DEFINED_HEIGHT_BEGIN
1070
    46
1040
3.064735913775952
1000
ACAD_MTEXT_DEFINED_HEIGHT_END
  0
TEXT
  5
AF7
330
ACA
100
AcDbEntity
  8
0
 62
     3
100
AcDbText
 10
90.76678930810066
 20
17.4999995915839
 30
0.0
 40
3.2
  1
材 質
  7
高3.2
100
AcDbText
1001
ACAD
1000
ACAD_MTEXT_DEFINED_HEIGHT_BEGIN
1070
    46
1040
0.0
1000
ACAD_MTEXT_DEFINED_HEIGHT_END
  0
TEXT
  5
AF8
330
ACA
100
AcDbEntity
  8
0
 62
     3
100
AcDbText
 10
90.46175435810059
 20
10.46743958383014
 30
0.0
 40
3.2
  1
第 三 角 法
  7
高3.2
100
AcDbText
1001
ACAD
1000
ACAD_MTEXT_DEFINED_HEIGHT_BEGIN
1070
    46
1040
0.0
1000
ACAD_MTEXT_DEFINED_HEIGHT_END
  0
TEXT
  5
AF9
330
ACA
100
AcDbEntity
  8
0
 62
     3
100
AcDbText
 10
88.86828696562952
 20
1.140527799468832
 30
0.0
 40
3.2
  1
日動工業株式会社
 41
1.199999999999999
  7
高3.2
100
AcDbText
1001
ACAD
1000
ACAD_MTEXT_DEFINED_HEIGHT_BEGIN
1070
    46
1040
0.0
1000
ACAD_MTEXT_DEFINED_HEIGHT_END
  0
TEXT
  5
AFA
330
ACA
100
AcDbEntity
  8
0
 62
     3
100
AcDbText
 10
122.503911165108
 20
17.38457812475146
 30
0.0
 40
3.2
  1
備考
  7
高3.2
100
AcDbText
1001
ACAD
1000
ACAD_MTEXT_DEFINED_HEIGHT_BEGIN
1070
    46
1040
0.0
1000
ACAD_MTEXT_DEFINED_HEIGHT_END
  0
TEXT
  5
AFB
330
ACA
100
AcDbEntity
  8
0
 62
     3
100
AcDbText
 10
132.1529686121434
 20
6.146229617154192
 30
0.0
 40
2.5
  1
出図コード
  7
高2.5
100
AcDbText
1001
ACAD
1000
ACAD_MTEXT_DEFINED_HEIGHT_BEGIN
1070
    46
1040
0.0
1000
ACAD_MTEXT_DEFINED_HEIGHT_END
  0
TEXT
  5
AFC
330
ACA
100
AcDbEntity
  8
0
 62
     3
100
AcDbText
 10
122.3451450470205
 20
10.45323450199681
 30
0.0
 40
3.2
  1
尺度
  7
高3.2
100
AcDbText
1001
ACAD
1000
ACAD_MTEXT_DEFINED_HEIGHT_BEGIN
1070
    46
1040
0.0
1000
ACAD_MTEXT_DEFINED_HEIGHT_END
  0
TEXT
  5
AFD
330
ACA
100
AcDbEntity
  8
0
 62
     3
100
AcDbText
 10
149.4914065287993
 20
11.58471295011431
 30
0.0
 40
3.2
  1
作成日
  7
高3.2
100
AcDbText
1001
ACAD
1000
ACAD_MTEXT_DEFINED_HEIGHT_BEGIN
1070
    46
1040
0.0
1000
ACAD_MTEXT_DEFINED_HEIGHT_END
  0
TEXT
  5
AFE
330
ACA
100
AcDbEntity
  8
0
 62
     3
100
AcDbText
 10
149.3858805356633
 20
32.14052779946884
 30
0.0
 40
3.2
  1
承 認
  7
高3.2
100
AcDbText
1001
ACAD
1000
ACAD_MTEXT_DEFINED_HEIGHT_BEGIN
1070
    46
1040
0.0
1000
ACAD_MTEXT_DEFINED_HEIGHT_END
  0
TEXT
  5
AFF
330
ACA
100
AcDbEntity
  8
0
 62
     3
100
AcDbText
 10
162.3858805356632
 20
32.14052779946884
 30
0.0
 40
3.2
  1
検 図
  7
高3.2
100
AcDbText
1001
ACAD
1000
ACAD_MTEXT_DEFINED_HEIGHT_BEGIN
1070
    46
1040
0.0
1000
ACAD_MTEXT_DEFINED_HEIGHT_END
  0
TEXT
  5
B00
330
ACA
100
AcDbEntity
  8
0
 62
     3
100
AcDbText
 10
175.3858805356632
 20
32.14052779946884
 30
0.0
 40
3.2
  1
設 計
  7
高3.2
100
AcDbText
1001
ACAD
1000
ACAD_MTEXT_DEFINED_HEIGHT_BEGIN
1070
    46
1040
0.0
1000
ACAD_MTEXT_DEFINED_HEIGHT_END
  0
TEXT
  5
B01
330
ACA
100
AcDbEntity
  8
0
 62
     3
100
AcDbText
 10
188.6865170556632
 20
32.14052779946884
 30
0.0
 40
3.2
  1
製 図
  7
高3.2
100
AcDbText
1001
ACAD
1000
ACAD_MTEXT_DEFINED_HEIGHT_BEGIN
1070
    46
1040
0.0
1000
ACAD_MTEXT_DEFINED_HEIGHT_END
  0
LINE
  5
B02
330
ACA
100
AcDbEntity
  8
0
 62
     3
100
AcDbLine
 10
59.25293360287717
 20
278.4481801852499
 30
0.0
 11
59.25293360287717
 21
275.2948313915841
 31
0.0
  0
LINE
  5
B03
330
ACA
100
AcDbEntity
  8
0
 62
     3
100
AcDbLine
 10
59.89576267797656
 20
277.2171083655226
 30
0.0
 11
59.89576267797656
 21
275.2948313915841
 31
0.0
  0
LINE
  5
B04
330
ACA
100
AcDbEntity
  8
0
 62
     3
100
AcDbLine
 10
61.6998595658506
 20
278.4481801852499
 30
0.0
 11
61.6998595658506
 21
277.0597132644989
 31
0.0
  0
LINE
  5
B05
330
ACA
100
AcDbEntity
  8
0
 62
     3
100
AcDbLine
 10
62.34268796709443
 20
278.4481801852499
 30
0.0
 11
62.34268796709443
 21
274.8721993930075
 31
0.0
  0
LINE
  5
B06
330
ACA
100
AcDbEntity
  8
0
 62
     3
100
AcDbLine
 10
63.36663412467465
 20
278.4265210809052
 30
0.0
 11
63.36663412467465
 21
275.2732106969974
 31
0.0
  0
LINE
  5
B07
330
ACA
100
AcDbEntity
  8
0
 62
     3
100
AcDbLine
 10
64.38515577894964
 20
278.4265069299419
 30
0.0
 11
64.38515577894964
 21
275.2731965460339
 31
0.0
  0
LINE
  5
B08
330
ACA
100
AcDbEntity
  8
0
 62
     3
100
AcDbLine
 10
68.15597884937665
 20
278.4264597600639
 30
0.0
 11
68.15592359323386
 21
275.2731500500114
 31
0.0
  0
LINE
  5
B09
330
ACA
100
AcDbEntity
  8
0
 62
     3
100
AcDbLine
 10
71.27184308874848
 20
278.4264597600639
 30
0.0
 11
71.27189834489104
 21
275.2731500500114
 31
0.0
  0
LINE
  5
B0A
330
ACA
100
AcDbEntity
  8
0
 62
     3
100
AcDbLine
 10
70.23141843857614
 20
277.05262965244
 30
0.0
 11
69.19640349954898
 21
277.05262965244
 31
0.0
  0
LINE
  5
B0B
330
ACA
100
AcDbEntity
  8
0
 62
     3
100
AcDbLine
 10
70.23141170002213
 20
276.6470738235357
 30
0.0
 11
69.19641091195831
 21
276.6470738235357
 31
0.0
  0
LINE
  5
B0C
330
ACA
100
AcDbEntity
  8
0
 62
     3
100
AcDbLine
 10
70.23144269737054
 20
278.4264597600639
 30
0.0
 11
70.23141843857614
 21
277.05262965244
 31
0.0
  0
LINE
  5
B0D
330
ACA
100
AcDbEntity
  8
0
 62
     3
100
AcDbLine
 10
70.23141170002213
 20
276.6470738235357
 30
0.0
 11
70.23138744122753
 21
275.2731500500114
 31
0.0
  0
LINE
  5
B0E
330
ACA
100
AcDbEntity
  8
0
 62
     3
100
AcDbLine
 10
69.19637924075459
 20
278.4264597600639
 30
0.0
 11
69.19640349954898
 21
277.05262965244
 31
0.0
  0
LINE
  5
B0F
330
ACA
100
AcDbEntity
  8
0
 62
     3
100
AcDbLine
 10
69.19641091195831
 20
276.6470738235357
 30
0.0
 11
69.19643449689714
 21
275.2731500500114
 31
0.0
  0
LINE
  5
B10
330
ACA
100
AcDbEntity
  8
0
 62
     3
100
AcDbLine
 10
72.29826422648716
 20
278.4264597600639
 30
0.0
 11
72.29820897034461
 21
275.2731500500114
 31
0.0
  0
LINE
  5
B11
330
ACA
100
AcDbEntity
  8
0
 62
     3
100
AcDbLine
 10
73.31676431738968
 20
278.4264597600639
 30
0.0
 11
73.31681889967693
 21
275.2731500500114
 31
0.0
  0
LINE
  5
B12
330
ACA
100
AcDbEntity
  8
0
 62
     3
100
AcDbLine
 10
74.35500991471371
 20
278.4264597600639
 30
0.0
 11
74.35495533242647
 21
275.2731500500114
 31
0.0
  0
ARC
  5
B13
330
ACA
100
AcDbEntity
  8
0
 62
     3
100
AcDbCircle
 10
66.62693773325168
 20
276.8588908343133
 30
0.0
 40
2.008364022758428
100
AcDbArc
 50
97.70152399999972
 51
266.0248408089554
  0
ARC
  5
B14
330
ACA
100
AcDbEntity
  8
0
 62
     3
100
AcDbCircle
 10
78.74673843866117
 20
276.8387169513708
 30
0.0
 40
2.030175374321248
100
AcDbArc
 50
0.3142499999973636
 51
69.00558199999754
  0
ARC
  5
B15
330
ACA
100
AcDbEntity
  8
0
 62
     3
100
AcDbCircle
 10
79.19020739389337
 20
276.8387169513708
 30
0.0
 40
2.030175374321248
100
AcDbArc
 50
110.9944180000024
 51
148.1166110000007
  0
ARC
  5
B16
330
ACA
100
AcDbEntity
  8
0
 62
     3
100
AcDbCircle
 10
78.74673843866117
 20
276.8609865246051
 30
0.0
 40
2.030175374321248
100
AcDbArc
 50
290.9944180000024
 51
359.685749999999
  0
ARC
  5
B17
330
ACA
100
AcDbEntity
  8
0
 62
     3
100
AcDbCircle
 10
79.19020739389337
 20
276.8609865246051
 30
0.0
 40
2.030175374321248
100
AcDbArc
 50
211.8833889999977
 51
249.0055819999976
  0
ARC
  5
B18
330
ACA
100
AcDbEntity
  8
0
 62
     3
100
AcDbCircle
 10
78.96847325320504
 20
277.6804317521362
 30
0.0
 40
1.168726044333501
100
AcDbArc
 50
64.3651719999999
 51
115.6348280000001
  0
ARC
  5
B19
330
ACA
100
AcDbEntity
  8
0
 62
     3
100
AcDbCircle
 10
78.96847325320504
 20
276.0192717238397
 30
0.0
 40
1.168726044333501
100
AcDbArc
 50
244.3651719999999
 51
295.6348280000002
  0
ARC
  5
B1A
330
ACA
100
AcDbEntity
  8
0
 62
     3
100
AcDbCircle
 10
78.96847325320504
 20
277.7026325921198
 30
0.0
 40
0.5736005406576802
100
AcDbArc
 50
19.48660599999859
 51
160.5133940000014
  0
ARC
  5
B1B
330
ACA
100
AcDbEntity
  8
0
 62
     3
100
AcDbCircle
 10
78.96847325320504
 20
275.9970715577115
 30
0.0
 40
0.5736005406576802
100
AcDbArc
 50
199.4866059999986
 51
340.5133940000014
  0
LINE
  5
B1C
330
ACA
100
AcDbEntity
  8
0
 62
     3
100
AcDbLine
 10
73.65396743405449
 20
274.8505456795062
 30
0.0
 11
71.96106110982238
 21
274.8505456795062
 31
0.0
  0
LINE
  5
B1D
330
ACA
100
AcDbEntity
  8
0
 62
     3
100
AcDbLine
 10
73.65396743405449
 20
275.0542049968205
 30
0.0
 11
73.65396743405449
 21
274.8505456795062
 31
0.0
  0
LINE
  5
B1E
330
ACA
100
AcDbEntity
  8
0
 62
     3
100
AcDbLine
 10
71.6090468792688
 20
278.8490627828584
 30
0.0
 11
69.89423958070552
 21
278.8490627828584
 31
0.0
  0
LINE
  5
B1F
330
ACA
100
AcDbEntity
  8
0
 62
     3
100
AcDbLine
 10
71.6090468792688
 20
278.8490627828584
 30
0.0
 11
71.6090468792688
 21
278.6454984791553
 31
0.0
  0
LINE
  5
B20
330
ACA
100
AcDbEntity
  8
0
 62
     3
100
AcDbLine
 10
71.6090468792688
 20
275.0542049968205
 30
0.0
 11
71.6090468792688
 21
274.8504506658949
 31
0.0
  0
LINE
  5
B21
330
ACA
100
AcDbEntity
  8
0
 62
     3
100
AcDbLine
 10
71.6090468792688
 20
274.8504506658949
 30
0.0
 11
69.89423958070552
 21
274.8504506658949
 31
0.0
  0
LINE
  5
B22
330
ACA
100
AcDbEntity
  8
0
 62
     3
100
AcDbLine
 10
73.65396743405449
 20
278.8491577964696
 30
0.0
 11
73.65396743405449
 21
278.6454984791553
 31
0.0
  0
LINE
  5
B23
330
ACA
100
AcDbEntity
  8
0
 62
     3
100
AcDbLine
 10
73.65396743405449
 20
278.8491577964696
 30
0.0
 11
71.96106110982238
 21
278.8491577964696
 31
0.0
  0
LINE
  5
B24
330
ACA
100
AcDbEntity
  8
0
 62
     3
100
AcDbLine
 10
71.96106110982238
 20
278.8491577964696
 30
0.0
 11
71.96106110982238
 21
278.6454984791553
 31
0.0
  0
LINE
  5
B25
330
ACA
100
AcDbEntity
  8
0
 62
     3
100
AcDbLine
 10
74.01780679804892
 20
275.0542049968205
 30
0.0
 11
74.01780679804892
 21
274.8505456795062
 31
0.0
  0
LINE
  5
B26
330
ACA
100
AcDbEntity
  8
0
 62
     3
100
AcDbLine
 10
75.84572495832481
 20
274.8505456795062
 30
0.0
 11
74.01780679804892
 21
274.8505456795062
 31
0.0
  0
LINE
  5
B27
330
ACA
100
AcDbEntity
  8
0
 62
     3
100
AcDbLine
 10
75.37351000561624
 20
278.2063293952258
 30
0.0
 11
75.37351000561624
 21
275.4933740807501
 31
0.0
  0
LINE
  5
B28
330
ACA
100
AcDbEntity
  8
0
 62
     3
100
AcDbLine
 10
75.37351000561624
 20
275.4933740807501
 30
0.0
 11
75.55646039880094
 21
275.4933740807501
 31
0.0
  0
ARC
  5
B29
330
ACA
100
AcDbEntity
  8
0
 62
     3
100
AcDbCircle
 10
74.62097053296566
 20
276.8498517379879
 30
0.0
 40
1.647777933922859
100
AcDbArc
 50
304.5919550000009
 51
55.40804499999918
  0
LINE
  5
B2A
330
ACA
100
AcDbEntity
  8
0
 62
     3
100
AcDbLine
 10
75.84572495832481
 20
278.8491577964696
 30
0.0
 11
74.01780679804892
 21
278.8491577964696
 31
0.0
  0
LINE
  5
B2B
330
ACA
100
AcDbEntity
  8
0
 62
     3
100
AcDbLine
 10
74.01780679804892
 20
278.8491577964696
 30
0.0
 11
74.01780679804892
 21
278.6454984791553
 31
0.0
  0
LINE
  5
B2C
330
ACA
100
AcDbEntity
  8
0
 62
     3
100
AcDbLine
 10
71.96106110982238
 20
275.0542049968205
 30
0.0
 11
71.96106110982238
 21
274.8505456795062
 31
0.0
  0
LINE
  5
B2D
330
ACA
100
AcDbEntity
  8
0
 62
     3
100
AcDbLine
 10
75.37351000561624
 20
278.2063293952258
 30
0.0
 11
75.55646039880094
 21
278.2063293952258
 31
0.0
  0
LINE
  5
B2E
330
ACA
100
AcDbEntity
  8
0
 62
     3
100
AcDbLine
 10
64.72230027005207
 20
275.0541986224044
 30
0.0
 11
64.72229622691975
 21
274.8505204371389
 31
0.0
  0
LINE
  5
B2F
330
ACA
100
AcDbEntity
  8
0
 62
     3
100
AcDbLine
 10
58.91573048621217
 20
274.8721993930075
 30
0.0
 11
60.23296579464136
 21
274.8721993930075
 31
0.0
  0
ARC
  5
B30
330
ACA
100
AcDbEntity
  8
0
 62
     3
100
AcDbCircle
 10
53.62514174043872
 20
276.8969319931671
 30
0.0
 40
14.16402202796531
100
AcDbArc
 50
353.8660059999992
 51
357.694034000001
  0
LINE
  5
B31
330
ACA
100
AcDbEntity
  8
0
 62
     3
100
AcDbLine
 10
66.82941578205123
 20
276.3305396837151
 30
0.0
 11
67.77769474950878
 21
276.3270309186513
 31
0.0
  0
LWPOLYLINE
  5
B32
330
ACA
100
AcDbEntity
  8
0
 62
     3
100
AcDbPolyline
 90
       64
 70
     0
 43
0.0
 10
66.83324530228515
 20
277.3655957279217
 10
66.81531333625571
 20
277.4804085585561
 10
66.79377759155113
 20
277.5903480669433
 10
66.76880518431062
 20
277.6945638475691
 10
66.7405874894671
 20
277.7922499693764
 10
66.70934418388106
 20
277.8826523881731
 10
66.67531583392997
 20
277.965071642055
 10
66.63876524321927
 20
278.0388702638143
 10
66.59997610487244
 20
278.1034788456387
 10
66.5592476106865
 20
278.1583980606774
 10
66.51689445113311
 20
278.2032020323179
 10
66.47324411993621
 20
278.2375457465958
 10
66.42863354479527
 20
278.2611630306287
 10
66.3834084135301
 20
278.2738719434584
 10
66.3379177832378
 20
278.275574102197
 10
66.29251340643645
 20
278.2662553558807
 10
66.24754568793401
 20
278.2459891547484
 10
66.20336301097154
 20
278.2149318332525
 10
66.1603070202366
 20
278.1733226100598
 10
66.11870925258563
 20
278.1214835880512
 10
66.07889248475498
 20
278.059815711189
 10
66.04116399480678
 20
277.9887953952409
 10
66.00581556212842
 20
277.9089711585015
 10
65.97312009815687
 20
277.8209609263721
 10
65.94333029866698
 20
277.7254446189504
 10
65.91667729606047
 20
277.6231607817542
 10
65.89336594237898
 20
277.5148991733112
 10
65.8735768308693
 20
277.4014967220273
 10
65.85746360056259
 20
277.2838307876325
 10
65.84514956699672
 20
277.1628104010602
 10
65.8367310914939
 20
277.0393708736045
 10
65.8322728641724
 20
276.9144670583663
 10
65.83180857780234
 20
276.7890632424218
 10
65.83534294937158
 20
276.6641291036907
 10
65.84284767695293
 20
276.5406309508153
 10
65.85426548283772
 20
276.4195222891857
 10
65.86950809196878
 20
276.3017404516621
 10
65.88845690579546
 20
276.1881951430336
 10
65.91096637155192
 20
276.0797643968855
 10
65.93686196068961
 20
275.9772851416234
 10
65.9659442120103
 20
275.8815511789078
 10
65.9979873839552
 20
275.7933010542562
 10
66.03274417159309
 20
275.7132180570435
 10
66.06994638047467
 20
275.6419207865263
 10
66.10930560048927
 20
275.5799597825655
 10
66.1505179228518
 20
275.5278141563501
 10
66.1932652878138
 20
275.4858875472644
 10
66.23721683237431
 20
275.4545040797554
 10
66.28203293341198
 20
275.4339056679111
 10
66.32736722925165
 20
275.4242513416061
 10
66.37286931508583
 20
275.425616572645
 10
66.41818743839599
 20
275.437989905486
 10
66.46297119437463
 20
275.4612770003731
 10
66.50687489520167
 20
275.4952965902041
 10
66.54955824390071
 20
275.5397865452286
 10
66.59069239903693
 20
275.5944018514821
 10
66.62995862700654
 20
275.6587220231956
 10
66.66705369287956
 20
275.7322484073737
 10
66.70169120811171
 20
275.81441361777
 10
66.73360297825388
 20
275.9045822087433
 10
66.76254237222997
 20
276.0020574138105
 10
66.78828567004734
 20
276.1060851887801
 10
66.81063475821884
 20
276.2158622980159
 10
66.82941578205123
 20
276.3305396837151
  0
LINE
  5
B33
330
ACA
100
AcDbEntity
  8
0
 62
     3
100
AcDbLine
 10
66.83324530228515
 20
277.3655957279217
 30
0.0
 11
67.7815242697427
 21
277.3620869628577
 31
0.0
  0
ARC
  5
B34
330
ACA
100
AcDbEntity
  8
0
 62
     3
100
AcDbCircle
 10
53.62514174043872
 20
276.8969319931671
 30
0.0
 40
14.16402202796531
100
AcDbArc
 50
1.881965999999206
 51
5.709993999999093
  0
LINE
  5
B35
330
ACA
100
AcDbEntity
  8
0
 62
     3
100
AcDbLine
 10
64.72236630803535
 20
278.8491402896916
 30
0.0
 11
64.72236293875835
 21
278.6454998403284
 31
0.0
  0
LINE
  5
B36
330
ACA
100
AcDbEntity
  8
0
 62
     3
100
AcDbLine
 10
63.02939394595137
 20
275.0542036356474
 30
0.0
 11
63.02939057667436
 21
274.8505631862842
 31
0.0
  0
LINE
  5
B37
330
ACA
100
AcDbEntity
  8
0
 62
     3
100
AcDbLine
 10
63.02945998378049
 20
278.8491759773598
 30
0.0
 11
63.02945661450348
 21
278.6454971182388
 31
0.0
  0
LINE
  5
B38
330
ACA
100
AcDbEntity
  8
0
 62
     3
100
AcDbLine
 10
60.23296579464136
 20
275.075858710322
 30
0.0
 11
60.23296579464136
 21
274.8721993930075
 31
0.0
  0
LINE
  5
B39
330
ACA
100
AcDbEntity
  8
0
 62
     3
100
AcDbLine
 10
59.89576267797656
 20
277.2171083655226
 30
0.0
 11
61.3613307857986
 21
274.8721993930075
 31
0.0
  0
LINE
  5
B3A
330
ACA
100
AcDbEntity
  8
0
 62
     3
100
AcDbLine
 10
61.3613307857986
 20
274.8721993930075
 30
0.0
 11
62.34268796709443
 21
274.8721993930075
 31
0.0
  0
LINE
  5
B3B
330
ACA
100
AcDbEntity
  8
0
 62
     3
100
AcDbLine
 10
62.67989108375922
 20
278.870811509971
 30
0.0
 11
62.67989108375922
 21
278.6671521926566
 31
0.0
  0
LINE
  5
B3C
330
ACA
100
AcDbEntity
  8
0
 62
     3
100
AcDbLine
 10
61.36265644918558
 20
278.870811509971
 30
0.0
 11
62.67989108375922
 21
278.870811509971
 31
0.0
  0
LINE
  5
B3D
330
ACA
100
AcDbEntity
  8
0
 62
     3
100
AcDbLine
 10
61.36265644918558
 20
278.870811509971
 30
0.0
 11
61.36265644918558
 21
278.6671521926566
 31
0.0
  0
LINE
  5
B3E
330
ACA
100
AcDbEntity
  8
0
 62
     3
100
AcDbLine
 10
61.6998595658506
 20
277.0597132644989
 30
0.0
 11
60.51132621591159
 21
278.870811509971
 31
0.0
  0
LINE
  5
B3F
330
ACA
100
AcDbEntity
  8
0
 62
     3
100
AcDbLine
 10
58.91573048621217
 20
278.870811509971
 30
0.0
 11
60.51132621591159
 21
278.870811509971
 31
0.0
  0
LINE
  5
B40
330
ACA
100
AcDbEntity
  8
0
 62
     3
100
AcDbLine
 10
67.81877573271163
 20
278.8490627828584
 30
0.0
 11
69.53358235741939
 21
278.8490627828583
 31
0.0
  0
LINE
  5
B41
330
ACA
100
AcDbEntity
  8
0
 62
     3
100
AcDbLine
 10
67.81877573271163
 20
278.6454984791553
 30
0.0
 11
67.81877573271163
 21
278.8490627828584
 31
0.0
  0
LINE
  5
B42
330
ACA
100
AcDbEntity
  8
0
 62
     3
100
AcDbLine
 10
67.81877573271163
 20
274.8504506658949
 30
0.0
 11
67.81877573271163
 21
275.0542049968205
 31
0.0
  0
LINE
  5
B43
330
ACA
100
AcDbEntity
  8
0
 62
     3
100
AcDbLine
 10
67.81877573271163
 20
274.8504506658948
 30
0.0
 11
69.53358235741939
 21
274.8504506658949
 31
0.0
  0
LINE
  5
B44
330
ACA
100
AcDbEntity
  8
0
 62
     3
100
AcDbLine
 10
69.89423958070552
 20
275.0542049968205
 30
0.0
 11
69.89423958070552
 21
274.8504506658949
 31
0.0
  0
LINE
  5
B45
330
ACA
100
AcDbEntity
  8
0
 62
     3
100
AcDbLine
 10
69.53358235741939
 20
275.0542049968205
 30
0.0
 11
69.53358235741939
 21
274.8504506658949
 31
0.0
  0
LINE
  5
B46
330
ACA
100
AcDbEntity
  8
0
 62
     3
100
AcDbLine
 10
69.53358235741939
 20
278.6454984791553
 30
0.0
 11
69.53358235741939
 21
278.8490627828584
 31
0.0
  0
LINE
  5
B47
330
ACA
100
AcDbEntity
  8
0
 62
     3
100
AcDbLine
 10
69.89423958070552
 20
278.6454984791553
 30
0.0
 11
69.89423958070552
 21
278.8490627828584
 31
0.0
  0
LINE
  5
B48
330
ACA
100
AcDbEntity
  8
0
 62
     3
100
AcDbLine
 10
58.91573048621217
 20
275.075858710322
 30
0.0
 11
58.91573048621217
 21
274.8721993930075
 31
0.0
  0
LINE
  5
B49
330
ACA
100
AcDbEntity
  8
0
 62
     3
100
AcDbLine
 10
58.91573048621217
 20
278.870811509971
 30
0.0
 11
58.91573048621217
 21
278.6671521926566
 31
0.0
  0
ARC
  5
B4A
330
ACA
100
AcDbEntity
  8
0
 62
     3
100
AcDbCircle
 10
76.0173242060589
 20
277.2693247024529
 30
0.0
 40
1.579833094016801
100
AcDbArc
 50
17.30874900000322
 51
23.76507099999849
  0
ARC
  5
B4B
330
ACA
100
AcDbEntity
  8
0
 62
     3
100
AcDbCircle
 10
74.67127580883515
 20
276.8498517379879
 30
0.0
 40
2.989728616463745
100
AcDbArc
 50
342.6912509999968
 51
17.30856599999721
  0
ARC
  5
B4C
330
ACA
100
AcDbEntity
  8
0
 62
     3
100
AcDbCircle
 10
76.0173242060589
 20
276.430378773523
 30
0.0
 40
1.579833094016801
100
AcDbArc
 50
336.2349290000015
 51
342.6912509999968
  0
ARC
  5
B4D
330
ACA
100
AcDbEntity
  8
0
 62
     3
100
AcDbCircle
 10
75.84572495832481
 20
277.2693247024529
 30
0.0
 40
1.579833094016801
100
AcDbArc
 50
17.30874900000322
 51
90.0
  0
ARC
  5
B4E
330
ACA
100
AcDbEntity
  8
0
 62
     3
100
AcDbCircle
 10
74.49967317843402
 20
276.8498607706099
 30
0.0
 40
2.989728616463745
100
AcDbArc
 50
342.6912509999968
 51
17.30856599999721
  0
ARC
  5
B4F
330
ACA
100
AcDbEntity
  8
0
 62
     3
100
AcDbCircle
 10
75.84572495832481
 20
276.430378773523
 30
0.0
 40
1.579833094016801
100
AcDbArc
 50
270.0
 51
342.6912509999968
  0
ARC
  5
B50
330
ACA
100
AcDbEntity
  8
0
 62
     3
100
AcDbCircle
 10
66.34906806852905
 20
276.8498517379879
 30
0.0
 40
1.999306058481749
100
AcDbArc
 50
46.7528800000023
 51
89.74999799999961
  0
ARC
  5
B51
330
ACA
100
AcDbEntity
  8
0
 62
     3
100
AcDbCircle
 10
66.34906806852905
 20
276.8498517379879
 30
0.0
 40
1.999306058481749
100
AcDbArc
 50
273.9763330000016
 51
312.8231199999934
  0
ARC
  5
B52
330
ACA
100
AcDbEntity
  8
0
 62
     3
100
AcDbCircle
 10
77.08381358307406
 20
276.8189878129916
 30
0.0
 40
2.652957925148358
100
AcDbArc
 50
0.666583999999372
 51
23.90392800000306
  0
ARC
  5
B53
330
ACA
100
AcDbEntity
  8
0
 62
     3
100
AcDbCircle
 10
80.8531322494805
 20
276.8189878129916
 30
0.0
 40
2.652957925148358
100
AcDbArc
 50
156.0960719999969
 51
179.3334160000006
  0
ARC
  5
B54
330
ACA
100
AcDbEntity
  8
0
 62
     3
100
AcDbCircle
 10
77.08381358307406
 20
276.8807156629842
 30
0.0
 40
2.652957925148358
100
AcDbArc
 50
336.0960719999969
 51
359.3334159999979
  0
ARC
  5
B55
330
ACA
100
AcDbEntity
  8
0
 62
     3
100
AcDbCircle
 10
80.8531322494805
 20
276.8807156629842
 30
0.0
 40
2.652957925148358
100
AcDbArc
 50
180.6665839999993
 51
203.903928000003
  0
LINE
  5
B56
330
ACA
100
AcDbEntity
  8
0
  6
Continuous
 62
     3
100
AcDbLine
 10
58.91573048621217
 20
278.6671521926566
 30
0.0
 11
59.25293360287717
 21
278.4481801852499
 31
0.0
  0
LINE
  5
B57
330
ACA
100
AcDbEntity
  8
0
  6
Continuous
 62
     3
100
AcDbLine
 10
61.36265644918558
 20
278.6671521926566
 30
0.0
 11
61.6998595658506
 21
278.4481801852499
 31
0.0
  0
LINE
  5
B58
330
ACA
100
AcDbEntity
  8
0
  6
Continuous
 62
     3
100
AcDbLine
 10
62.67989108375922
 20
278.6671521926566
 30
0.0
 11
62.34268796709443
 21
278.4481801852499
 31
0.0
  0
LINE
  5
B59
330
ACA
100
AcDbEntity
  8
0
  6
Continuous
 62
     3
100
AcDbLine
 10
63.02945661450348
 20
278.6454971182388
 30
0.0
 11
63.36663412467465
 21
278.4265210809052
 31
0.0
  0
LINE
  5
B5A
330
ACA
100
AcDbEntity
  8
0
  6
Continuous
 62
     3
100
AcDbLine
 10
64.72236293875835
 20
278.6454998403284
 30
0.0
 11
64.38515577894964
 21
278.4265069299419
 31
0.0
  0
LINE
  5
B5B
330
ACA
100
AcDbEntity
  8
0
  6
Continuous
 62
     3
100
AcDbLine
 10
67.81877573271163
 20
278.6454984791553
 30
0.0
 11
68.15597884937665
 21
278.4264597600639
 31
0.0
  0
LINE
  5
B5C
330
ACA
100
AcDbEntity
  8
0
  6
Continuous
 62
     3
100
AcDbLine
 10
69.53358235741939
 20
278.6454984791553
 30
0.0
 11
69.19637924075459
 21
278.4264597600639
 31
0.0
  0
LINE
  5
B5D
330
ACA
100
AcDbEntity
  8
0
  6
Continuous
 62
     3
100
AcDbLine
 10
69.89423958070552
 20
278.6454984791553
 30
0.0
 11
70.23144269737054
 21
278.4264597600639
 31
0.0
  0
LINE
  5
B5E
330
ACA
100
AcDbEntity
  8
0
  6
Continuous
 62
     3
100
AcDbLine
 10
71.6090468792688
 20
278.6454984791553
 30
0.0
 11
71.27184308874848
 21
278.4264597600639
 31
0.0
  0
LINE
  5
B5F
330
ACA
100
AcDbEntity
  8
0
  6
Continuous
 62
     3
100
AcDbLine
 10
71.96106110982238
 20
278.6454984791553
 30
0.0
 11
72.29826422648716
 21
278.4264597600639
 31
0.0
  0
LINE
  5
B60
330
ACA
100
AcDbEntity
  8
0
  6
Continuous
 62
     3
100
AcDbLine
 10
73.65396743405449
 20
278.6454984791553
 30
0.0
 11
73.31676431738968
 21
278.4264597600639
 31
0.0
  0
LINE
  5
B61
330
ACA
100
AcDbEntity
  8
0
  6
Continuous
 62
     3
100
AcDbLine
 10
74.01780679804892
 20
278.6454984791553
 30
0.0
 11
74.35500991471371
 21
278.4264597600639
 31
0.0
  0
LINE
  5
B62
330
ACA
100
AcDbEntity
  8
0
  6
Continuous
 62
     3
100
AcDbLine
 10
74.35495533242647
 20
275.2731500500114
 30
0.0
 11
74.01780679804892
 21
275.0542049968205
 31
0.0
  0
LINE
  5
B63
330
ACA
100
AcDbEntity
  8
0
  6
Continuous
 62
     3
100
AcDbLine
 10
73.31681889967693
 20
275.2731500500114
 30
0.0
 11
73.65396743405449
 21
275.0542049968205
 31
0.0
  0
LINE
  5
B64
330
ACA
100
AcDbEntity
  8
0
  6
Continuous
 62
     3
100
AcDbLine
 10
72.29820897034461
 20
275.2731500500114
 30
0.0
 11
71.96106110982238
 21
275.0542049968205
 31
0.0
  0
LINE
  5
B65
330
ACA
100
AcDbEntity
  8
0
  6
Continuous
 62
     3
100
AcDbLine
 10
71.6090468792688
 20
275.0542049968205
 30
0.0
 11
71.27189834489104
 21
275.2731500500114
 31
0.0
  0
LINE
  5
B66
330
ACA
100
AcDbEntity
  8
0
  6
Continuous
 62
     3
100
AcDbLine
 10
69.89423958070552
 20
275.0542049968205
 30
0.0
 11
70.23138744122753
 21
275.2731500500114
 31
0.0
  0
LINE
  5
B67
330
ACA
100
AcDbEntity
  8
0
  6
Continuous
 62
     3
100
AcDbLine
 10
69.53358235741939
 20
275.0542049968205
 30
0.0
 11
69.19643449689714
 21
275.2731500500114
 31
0.0
  0
LINE
  5
B68
330
ACA
100
AcDbEntity
  8
0
  6
Continuous
 62
     3
100
AcDbLine
 10
68.15592359323386
 20
275.2731500500114
 30
0.0
 11
67.81877573271163
 21
275.0542049968205
 31
0.0
  0
LINE
  5
B69
330
ACA
100
AcDbEntity
  8
0
  6
Continuous
 62
     3
100
AcDbLine
 10
64.72230027021101
 20
275.0542066299256
 30
0.0
 11
64.38515577894964
 21
275.2731965460339
 31
0.0
  0
LINE
  5
B6A
330
ACA
100
AcDbEntity
  8
0
  6
Continuous
 62
     3
100
AcDbLine
 10
63.02939394595137
 20
275.0542036356474
 30
0.0
 11
63.36656808684529
 21
275.2732106969974
 31
0.0
  0
LINE
  5
B6B
330
ACA
100
AcDbEntity
  8
0
  6
Continuous
 62
     3
100
AcDbLine
 10
60.23296579464136
 20
275.075858710322
 30
0.0
 11
59.89576267797656
 21
275.2948313915841
 31
0.0
  0
LINE
  5
B6C
330
ACA
100
AcDbEntity
  8
0
  6
Continuous
 62
     3
100
AcDbLine
 10
58.91573048621217
 20
275.075858710322
 30
0.0
 11
59.25293360287717
 21
275.2948313915841
 31
0.0
  0
LINE
  5
B6D
330
ACA
100
AcDbEntity
  8
0
  6
Continuous
 62
     3
100
AcDbLine
 10
64.72229622707867
 20
274.8505284446602
 30
0.0
 11
63.02939057667436
 21
274.8505631862842
 31
0.0
  0
LINE
  5
B6E
330
ACA
100
AcDbEntity
  8
0
  6
Continuous
 62
     3
100
AcDbLine
 10
63.02945998378049
 20
278.8491759773598
 30
0.0
 11
64.72236630803535
 21
278.8491402896916
 31
0.0
  0
ARC
  5
B6F
330
ACA
100
AcDbEntity
  8
0
  6
Continuous
 62
     3
100
AcDbCircle
 10
82.24372228088146
 20
276.8377054007734
 30
0.0
 40
0.9989999999999998
100
AcDbArc
 50
293.7485430905184
 51
66.25145690948149
  0
ARC
  5
B70
330
ACA
100
AcDbEntity
  8
0
  6
Continuous
 62
     3
100
AcDbCircle
 10
82.24372228088146
 20
276.8377054007734
 30
0.0
 40
1.498499999999999
100
AcDbArc
 50
293.7485430905184
 51
66.25145690948149
  0
ARC
  5
B71
330
ACA
100
AcDbEntity
  8
0
  6
Continuous
 62
     3
100
AcDbCircle
 10
74.59962913488856
 20
259.463983837004
 30
0.0
 40
19.98
100
AcDbArc
 50
66.25145690948149
 51
81.41597019517911
  0
ARC
  5
B72
330
ACA
100
AcDbEntity
  8
0
  6
Continuous
 62
     3
100
AcDbCircle
 10
74.59962913488856
 20
259.463983837004
 30
0.0
 40
20.4795
100
AcDbArc
 50
66.25145690948149
 51
81.41597019517911
  0
ARC
  5
B73
330
ACA
100
AcDbEntity
  8
0
  6
Continuous
 62
     3
100
AcDbCircle
 10
56.21958147402825
 20
276.8377054007734
 30
0.0
 40
0.9989999999999998
100
AcDbArc
 50
113.7485430905185
 51
246.2514569094815
  0
ARC
  5
B74
330
ACA
100
AcDbEntity
  8
0
  6
Continuous
 62
     3
100
AcDbCircle
 10
56.21958147402825
 20
276.8377054007734
 30
0.0
 40
1.498499999999999
100
AcDbArc
 50
113.7485430905185
 51
246.2514569094815
  0
ARC
  5
B75
330
ACA
100
AcDbEntity
  8
0
  6
Continuous
 62
     3
100
AcDbCircle
 10
63.86367462002089
 20
259.463983837004
 30
0.0
 40
19.98
100
AcDbArc
 50
98.5840298048209
 51
113.7485430905185
  0
ARC
  5
B76
330
ACA
100
AcDbEntity
  8
0
  6
Continuous
 62
     3
100
AcDbCircle
 10
63.86367462002089
 20
259.463983837004
 30
0.0
 40
20.4795
100
AcDbArc
 50
98.5840298048209
 51
113.7485430905185
  0
ARC
  5
B77
330
ACA
100
AcDbEntity
  8
0
  6
Continuous
 62
     3
100
AcDbCircle
 10
74.59962913488856
 20
294.2114269645427
 30
0.0
 40
19.98
100
AcDbArc
 50
278.5840298048209
 51
293.7485430905184
  0
ARC
  5
B78
330
ACA
100
AcDbEntity
  8
0
  6
Continuous
 62
     3
100
AcDbCircle
 10
74.59962913488856
 20
294.2114269645427
 30
0.0
 40
20.4795
100
AcDbArc
 50
278.5840298048209
 51
293.7485430905184
  0
ARC
  5
B79
330
ACA
100
AcDbEntity
  8
0
  6
Continuous
 62
     3
100
AcDbCircle
 10
63.86367462002089
 20
294.2114269645427
 30
0.0
 40
19.98
100
AcDbArc
 50
246.2514569094815
 51
261.4159701951791
  0
ARC
  5
B7A
330
ACA
100
AcDbEntity
  8
0
  6
Continuous
 62
     3
100
AcDbCircle
 10
63.86367462002089
 20
294.2114269645427
 30
0.0
 40
20.4795
100
AcDbArc
 50
246.2514569094815
 51
261.4159701951791
  0
ARC
  5
B7B
330
ACA
100
AcDbEntity
  8
0
  6
Continuous
 62
     3
100
AcDbCircle
 10
69.23165187745485
 20
223.9028517379889
 30
0.0
 40
56.44349999999903
100
AcDbArc
 50
81.41597019517911
 51
98.5840298048209
  0
ARC
  5
B7C
330
ACA
100
AcDbEntity
  8
0
  6
Continuous
 62
     3
100
AcDbCircle
 10
69.23165187745485
 20
223.9028517379897
 30
0.0
 40
55.94399999999822
100
AcDbArc
 50
81.41597019517911
 51
98.5840298048209
  0
ARC
  5
B7D
330
ACA
100
AcDbEntity
  8
0
  6
Continuous
 62
     3
100
AcDbCircle
 10
69.23165187745485
 20
329.7725590635579
 30
0.0
 40
56.44349999999903
100
AcDbArc
 50
261.4159701951791
 51
278.5840298048209
  0
ARC
  5
B7E
330
ACA
100
AcDbEntity
  8
0
  6
Continuous
 62
     3
100
AcDbCircle
 10
69.23165187745485
 20
329.7725590635571
 30
0.0
 40
55.94399999999822
100
AcDbArc
 50
261.4159701951791
 51
278.5840298048209
  0
TEXT
  5
B7F
330
ACA
100
AcDbEntity
  8
0
 62
     3
100
AcDbText
 10
187.4999996431435
 20
267.4999995915839
 30
0.0
 40
3.2
  1
担　当
  7
高3.2
100
AcDbText
  0
TEXT
  5
B80
330
ACA
100
AcDbEntity
  8
0
 62
     3
100
AcDbText
 10
143.4999996431435
 20
267.4999995915839
 30
0.0
 40
3.2
  1
変更・追記内容
  7
高3.2
100
AcDbText
  0
TEXT
  5
B81
330
ACA
100
AcDbEntity
  8
0
 62
     3
100
AcDbText
 10
118.6135146434827
 20
262.8294610816756
 30
0.0
 40
2.0
  1
1
  7
高2
100
AcDbText
  0
TEXT
  5
B82
330
ACA
100
AcDbEntity
  8
0
 62
     3
100
AcDbText
 10
118.3050031667254
 20
257.6596443694027
 30
0.0
 40
2.0
  1
2
  7
高2
100
AcDbText
  0
TEXT
  5
B83
330
ACA
100
AcDbEntity
  8
0
 62
     3
100
AcDbText
 10
125.4999996431435
 20
267.4999995915839
 30
0.0
 40
3.2
  1
日　付
  7
高3.2
100
AcDbText
  0
TEXT
  5
B84
330
ACA
100
AcDbEntity
  8
0
 62
     3
100
AcDbText
 10
125.4999996431435
 20
272.4999995915839
 30
0.0
 40
3.2
  1
図　　　　面　　　　略　　　　歴
  7
高3.2
100
AcDbText
  0
TEXT
  5
B85
330
ACA
100
AcDbEntity
  8
0
 62
     3
100
AcDbText
 10
115.4999996431435
 20
267.4999995915839
 30
0.0
 40
3.2
  1
記号
  7
高3.2
100
AcDbText
  0
LINE
  5
B86
330
ACA
100
AcDbEntity
  8
0
100
AcDbLine
 10
118.9999996431435
 20
260.790895591584
 30
0.0
 11
117.0999996431435
 21
257.4999995915839
 31
0.0
  0
LINE
  5
B87
330
ACA
100
AcDbEntity
  8
0
100
AcDbLine
 10
118.9999996431435
 20
260.790895591584
 30
0.0
 11
120.8999996431435
 21
257.4999995915839
 31
0.0
  0
LINE
  5
B88
330
ACA
100
AcDbEntity
  8
0
100
AcDbLine
 10
117.0999996431435
 20
257.4999995915839
 30
0.0
 11
120.8999996431435
 21
257.4999995915839
 31
0.0
  0
LINE
  5
B89
330
ACA
100
AcDbEntity
  8
0
100
AcDbLine
 10
118.9999996431435
 20
265.790896591584
 30
0.0
 11
117.0999996431435
 21
262.4999995915839
 31
0.0
  0
LINE
  5
B8A
330
ACA
100
AcDbEntity
  8
0
100
AcDbLine
 10
118.9999996431435
 20
265.790896591584
 30
0.0
 11
120.8999996431435
 21
262.4999995915839
 31
0.0
  0
LINE
  5
B8B
330
ACA
100
AcDbEntity
  8
0
100
AcDbLine
 10
117.0999996431435
 20
262.4999995915839
 30
0.0
 11
120.8999996431435
 21
262.4999995915839
 31
0.0
  0
LINE
  5
B8C
330
ACA
100
AcDbEntity
  8
0
 62
     3
100
AcDbLine
 10
113.9999996431435
 20
271.9999995915839
 30
0.0
 11
199.9999996431435
 21
271.9999995915839
 31
0.0
  0
LINE
  5
B8D
330
ACA
100
AcDbEntity
  8
0
 62
     3
100
AcDbLine
 10
113.9999996431435
 20
266.9999995915839
 30
0.0
 11
199.9999996431435
 21
266.9999995915839
 31
0.0
  0
LINE
  5
B8E
330
ACA
100
AcDbEntity
  8
0
 62
     7
100
AcDbLine
 10
113.9999996431435
 20
261.9999995915839
 30
0.0
 11
199.9999996431435
 21
261.9999995915839
 31
0.0
  0
LINE
  5
B8F
330
ACA
100
AcDbEntity
  8
0
 62
     3
100
AcDbLine
 10
113.9999996431435
 20
256.9999995915839
 30
0.0
 11
199.9999996431435
 21
256.9999995915839
 31
0.0
  0
LINE
  5
B90
330
ACA
100
AcDbEntity
  8
0
 62
     7
100
AcDbLine
 10
185.9999996431435
 20
256.9999995915839
 30
0.0
 11
185.9999996431435
 21
271.9999995915839
 31
0.0
  0
LINE
  5
B91
330
ACA
100
AcDbEntity
  8
0
 62
     7
100
AcDbLine
 10
141.9999996431435
 20
256.9999995915839
 30
0.0
 11
141.9999996431435
 21
271.9999995915839
 31
0.0
  0
LINE
  5
B92
330
ACA
100
AcDbEntity
  8
0
 62
     7
100
AcDbLine
 10
123.9999996431435
 20
256.9999995915839
 30
0.0
 11
123.9999996431435
 21
271.9999995915839
 31
0.0
  0
LINE
  5
B93
330
ACA
100
AcDbEntity
  8
0
 62
     3
100
AcDbLine
 10
113.9999996431435
 20
256.9999995915839
 30
0.0
 11
113.9999996431435
 21
276.9999995915839
 31
0.0
  0
ENDBLK
  5
B97
330
ACA
100
AcDbEntity
  8
0
100
AcDbBlockEnd
  0
BLOCK
  5
B9F
330
B9E
100
AcDbEntity
  8
0
100
AcDbBlockBegin
  2
*D3
 70
     1
 10
0.0
 20
0.0
 30
0.0
  3
*D3
  1

  0
LINE
  5
BA0
330
B9E
100
AcDbEntity
  8
0
 62
     0
370
    -2
100
AcDbLine
 10
883.7368592361077
 20
-785.426348691372
 30
0.0
 11
883.7368592361077
 21
-772.0725562814583
 31
0.0
  0
LINE
  5
BA1
330
B9E
100
AcDbEntity
  8
0
 62
     0
370
    -2
100
AcDbLine
 10
870.7368592798982
 20
-784.4636559986961
 30
0.0
 11
870.7368592798982
 21
-772.0725562814583
 31
0.0
  0
LINE
  5
BA2
330
B9E
100
AcDbEntity
  8
0
 62
     0
370
    -2
100
AcDbLine
 10
881.2368592361076
 20
-773.3225562814583
 30
0.0
 11
873.2368592798984
 21
-773.3225562814583
 31
0.0
  0
INSERT
  5
BA3
330
B9E
100
AcDbEntity
  8
0
 62
     0
370
    -2
100
AcDbBlockReference
  2
_Open30
 10
883.7368592361077
 20
-773.3225562814583
 30
0.0
 41
2.5
 42
2.5
 43
2.5
  0
INSERT
  5
BA4
330
B9E
100
AcDbEntity
  8
0
 62
     0
370
    -2
100
AcDbBlockReference
  2
_Open30
 10
870.7368592798982
 20
-773.3225562814583
 30
0.0
 41
2.5
 42
2.5
 43
2.5
 50
180.0
  0
MTEXT
  5
BA5
330
B9E
100
AcDbEntity
  8
0
 62
     4
100
AcDbMText
 10
877.3968150453306
 20
-771.1975562814583
 30
0.0
 40
3.0
 41
0.0
 71
     5
 72
     1
  1
E26
 73
     1
 44
1.0
1001
ACAD
1000
MTEXTBEGIN
1070
    73
1070
     1
1070
    44
1040
1.0
1070
    74
1070
     0
1000
MTEXTEND
  0
POINT
  5
BA6
330
B9E
100
AcDbEntity
  8
Defpoints
 62
     0
100
AcDbPoint
 10
883.7368592361077
 20
-785.676348691372
 30
0.0
  0
POINT
  5
BA7
330
B9E
100
AcDbEntity
  8
Defpoints
 62
     0
100
AcDbPoint
 10
870.7368592798982
 20
-784.7136559986961
 30
0.0
  0
POINT
  5
BA8
330
B9E
100
AcDbEntity
  8
Defpoints
 62
     0
100
AcDbPoint
 10
870.7368592798982
 20
-773.3225562814583
 30
0.0
  0
ENDBLK
  5
BA9
330
B9E
100
AcDbEntity
  8
0
100
AcDbBlockEnd
  0
BLOCK
  5
BAB
330
BAA
100
AcDbEntity
  8
0
100
AcDbBlockBegin
  2
*D4
 70
     1
 10
0.0
 20
0.0
 30
0.0
  3
*D4
  1

  0
LINE
  5
BAC
330
BAA
100
AcDbEntity
  8
0
 62
     0
370
    -2
100
AcDbLine
 10
847.2368599108087
 20
-844.2006748050769
 30
0.0
 11
847.2368599108087
 21
-873.7576880105871
 31
0.0
  0
LINE
  5
BAD
330
BAA
100
AcDbEntity
  8
0
 62
     0
370
    -2
100
AcDbLine
 10
907.2368585697043
 20
-844.2006748050769
 30
0.0
 11
907.2368585697043
 21
-873.7576880105871
 31
0.0
  0
LINE
  5
BAE
330
BAA
100
AcDbEntity
  8
0
 62
     0
370
    -2
100
AcDbLine
 10
849.7368599108087
 20
-872.5076880105874
 30
0.0
 11
904.7368585697043
 21
-872.5076880105874
 31
0.0
  0
INSERT
  5
BAF
330
BAA
100
AcDbEntity
  8
0
 62
     0
370
    -2
100
AcDbBlockReference
  2
_Open30
 10
847.2368599108087
 20
-872.5076880105874
 30
0.0
 41
2.5
 42
2.5
 43
2.5
 50
180.0
  0
INSERT
  5
BB0
330
BAA
100
AcDbEntity
  8
0
 62
     0
370
    -2
100
AcDbBlockReference
  2
_Open30
 10
907.2368585697043
 20
-872.5076880105874
 30
0.0
 41
2.5
 42
2.5
 43
2.5
  0
MTEXT
  5
BB1
330
BAA
100
AcDbEntity
  8
0
 62
     4
100
AcDbMText
 10
877.7800298799515
 20
-870.3826880105873
 30
0.0
 40
3.0
 41
0.0
 71
     5
 72
     1
  1
%%C120
 73
     1
 44
1.0
1001
ACAD
1000
MTEXTBEGIN
1070
    73
1070
     1
1070
    44
1040
1.0
1070
    74
1070
     0
1000
MTEXTEND
  0
POINT
  5
BB2
330
BAA
100
AcDbEntity
  8
Defpoints
 62
     0
100
AcDbPoint
 10
847.2368599108087
 20
-843.9506748050767
 30
0.0
  0
POINT
  5
BB3
330
BAA
100
AcDbEntity
  8
Defpoints
 62
     0
100
AcDbPoint
 10
907.2368585697043
 20
-843.9506748050767
 30
0.0
  0
POINT
  5
BB4
330
BAA
100
AcDbEntity
  8
Defpoints
 62
     0
100
AcDbPoint
 10
907.2368585697043
 20
-872.5076880105874
 30
0.0
  0
ENDBLK
  5
BB5
330
BAA
100
AcDbEntity
  8
0
100
AcDbBlockEnd
  0
BLOCK
  5
BB7
330
BB6
100
AcDbEntity
  8
0
100
AcDbBlockBegin
  2
*D5
 70
     1
 10
0.0
 20
0.0
 30
0.0
  3
*D5
  1

  0
LINE
  5
BB8
330
BB6
100
AcDbEntity
  8
0
 62
     0
370
    -2
100
AcDbLine
 10
876.9515436599686
 20
-778.450782311308
 30
0.0
 11
837.6520843525819
 21
-778.450782311308
 31
0.0
  0
LINE
  5
BB9
330
BB6
100
AcDbEntity
  8
0
 62
     0
370
    -2
100
AcDbLine
 10
877.0356751529877
 20
-858.9506442721782
 30
0.0
 11
837.6520843525819
 21
-858.9506442721782
 31
0.0
  0
LINE
  5
BBA
330
BB6
100
AcDbEntity
  8
0
 62
     0
370
    -2
100
AcDbLine
 10
838.902084352582
 20
-780.9507823113079
 30
0.0
 11
838.902084352582
 21
-856.4506442721784
 31
0.0
  0
INSERT
  5
BBB
330
BB6
100
AcDbEntity
  8
0
 62
     0
370
    -2
100
AcDbBlockReference
  2
_Open30
 10
838.902084352582
 20
-778.450782311308
 30
0.0
 41
2.5
 42
2.5
 43
2.5
 50
90.0
  0
INSERT
  5
BBC
330
BB6
100
AcDbEntity
  8
0
 62
     0
370
    -2
100
AcDbBlockReference
  2
_Open30
 10
838.902084352582
 20
-858.9506442721782
 30
0.0
 41
2.5
 42
2.5
 43
2.5
 50
270.0
  0
MTEXT
  5
BBD
330
BB6
100
AcDbEntity
  8
0
 62
     4
100
AcDbMText
 10
836.7770843525823
 20
-815.2840505235833
 30
0.0
 40
3.0
 41
0.0
 71
     5
 72
     1
  1
161
 11
0.0000000000000001
 21
1.0
 31
0.0
 73
     1
 44
1.0
1001
ACAD
1000
MTEXTBEGIN
1070
    73
1070
     1
1070
    44
1040
1.0
1070
    74
1070
     0
1000
MTEXTEND
  0
POINT
  5
BBE
330
BB6
100
AcDbEntity
  8
Defpoints
 62
     0
100
AcDbPoint
 10
877.2015436599685
 20
-778.450782311308
 30
0.0
  0
POINT
  5
BBF
330
BB6
100
AcDbEntity
  8
Defpoints
 62
     0
100
AcDbPoint
 10
877.285675152988
 20
-858.9506442721782
 30
0.0
  0
POINT
  5
BC0
330
BB6
100
AcDbEntity
  8
Defpoints
 62
     0
100
AcDbPoint
 10
838.902084352582
 20
-858.9506442721782
 30
0.0
  0
ENDBLK
  5
BC1
330
BB6
100
AcDbEntity
  8
0
100
AcDbBlockEnd
  0
BLOCK
  5
BC3
330
BC2
100
AcDbEntity
  8
0
100
AcDbBlockBegin
  2
*D6
 70
     1
 10
0.0
 20
0.0
 30
0.0
  3
*D6
  1

  0
LINE
  5
BC4
330
BC2
100
AcDbEntity
  8
0
 62
     0
370
    -2
100
AcDbLine
 10
864.9868591359487
 20
-809.200674231382
 30
0.0
 11
850.2253228114371
 21
-809.200674231382
 31
0.0
  0
LINE
  5
BC5
330
BC2
100
AcDbEntity
  8
0
 62
     0
370
    -2
100
AcDbLine
 10
866.1535259069227
 20
-778.4507823113081
 30
0.0
 11
850.2253228114371
 21
-778.4507823113081
 31
0.0
  0
LINE
  5
BC6
330
BC2
100
AcDbEntity
  8
0
 62
     0
370
    -2
100
AcDbLine
 10
851.4753228114372
 20
-806.700674231382
 30
0.0
 11
851.4753228114372
 21
-780.9507823113079
 31
0.0
  0
INSERT
  5
BC7
330
BC2
100
AcDbEntity
  8
0
 62
     0
370
    -2
100
AcDbBlockReference
  2
_Open30
 10
851.4753228114372
 20
-809.200674231382
 30
0.0
 41
2.5
 42
2.5
 43
2.5
 50
270.0
  0
INSERT
  5
BC8
330
BC2
100
AcDbEntity
  8
0
 62
     0
370
    -2
100
AcDbBlockReference
  2
_Open30
 10
851.4753228114372
 20
-778.4507823113081
 30
0.0
 41
2.5
 42
2.5
 43
2.5
 50
90.0
  0
MTEXT
  5
BC9
330
BC2
100
AcDbEntity
  8
0
 62
     4
100
AcDbMText
 10
849.3503228114374
 20
-793.3856352478717
 30
0.0
 40
3.0
 41
0.0
 71
     5
 72
     1
  1
61.5
 11
0.0000000000000001
 21
1.0
 31
0.0
 73
     1
 44
1.0
1001
ACAD
1000
MTEXTBEGIN
1070
    73
1070
     1
1070
    44
1040
1.0
1070
    74
1070
     0
1000
MTEXTEND
  0
POINT
  5
BCA
330
BC2
100
AcDbEntity
  8
Defpoints
 62
     0
100
AcDbPoint
 10
865.2368591359486
 20
-809.200674231382
 30
0.0
  0
POINT
  5
BCB
330
BC2
100
AcDbEntity
  8
Defpoints
 62
     0
100
AcDbPoint
 10
866.4035259069226
 20
-778.4507823113081
 30
0.0
  0
POINT
  5
BCC
330
BC2
100
AcDbEntity
  8
Defpoints
 62
     0
100
AcDbPoint
 10
851.4753228114372
 20
-778.4507823113081
 30
0.0
  0
ENDBLK
  5
BCD
330
BC2
100
AcDbEntity
  8
0
100
AcDbBlockEnd
  0
BLOCK
  5
BCF
330
BCE
100
AcDbEntity
  8
0
100
AcDbBlockBegin
  2
*D7
 70
     1
 10
0.0
 20
0.0
 30
0.0
  3
*D7
  1

  0
LINE
  5
BD0
330
BCE
100
AcDbEntity
  8
0
 62
     0
370
    -2
100
AcDbLine
 10
866.2368592998614
 20
-808.9506742313819
 30
0.0
 11
866.2368592998614
 21
-766.7242067038339
 31
0.0
  0
LINE
  5
BD1
330
BCE
100
AcDbEntity
  8
0
 62
     0
370
    -2
100
AcDbLine
 10
888.2368591806519
 20
-808.9506742313819
 30
0.0
 11
888.2368591806519
 21
-766.7242067038339
 31
0.0
  0
LINE
  5
BD2
330
BCE
100
AcDbEntity
  8
0
 62
     0
370
    -2
100
AcDbLine
 10
868.7368592998614
 20
-767.9742067038339
 30
0.0
 11
885.7368591806519
 21
-767.9742067038339
 31
0.0
  0
INSERT
  5
BD3
330
BCE
100
AcDbEntity
  8
0
 62
     0
370
    -2
100
AcDbBlockReference
  2
_Open30
 10
866.2368592998614
 20
-767.9742067038339
 30
0.0
 41
2.5
 42
2.5
 43
2.5
 50
180.0
  0
INSERT
  5
BD4
330
BCE
100
AcDbEntity
  8
0
 62
     0
370
    -2
100
AcDbBlockReference
  2
_Open30
 10
888.2368591806519
 20
-767.9742067038339
 30
0.0
 41
2.5
 42
2.5
 43
2.5
  0
MTEXT
  5
BD5
330
BCE
100
AcDbEntity
  8
0
 62
     4
100
AcDbMText
 10
877.1114415671315
 20
-765.8492067038339
 30
0.0
 40
3.0
 41
0.0
 71
     5
 72
     1
  1
%%C44
 73
     1
 44
1.0
1001
ACAD
1000
MTEXTBEGIN
1070
    73
1070
     1
1070
    44
1040
1.0
1070
    74
1070
     0
1000
MTEXTEND
  0
POINT
  5
BD6
330
BCE
100
AcDbEntity
  8
Defpoints
 62
     0
100
AcDbPoint
 10
866.2368592998614
 20
-809.200674231382
 30
0.0
  0
POINT
  5
BD7
330
BCE
100
AcDbEntity
  8
Defpoints
 62
     0
100
AcDbPoint
 10
888.2368591806519
 20
-809.200674231382
 30
0.0
  0
POINT
  5
BD8
330
BCE
100
AcDbEntity
  8
Defpoints
 62
     0
100
AcDbPoint
 10
888.2368591806519
 20
-767.9742067038339
 30
0.0
  0
ENDBLK
  5
BD9
330
BCE
100
AcDbEntity
  8
0
100
AcDbBlockEnd
  0
BLOCK
  5
BDB
330
BDA
100
AcDbEntity
  8
0
100
AcDbBlockBegin
  2
*D8
 70
     1
 10
0.0
 20
0.0
 30
0.0
  3
*D8
  1

  0
LINE
  5
BDC
330
BDA
100
AcDbEntity
  8
0
 62
     0
370
    -2
100
AcDbLine
 10
846.9868599108087
 20
-843.9506748050767
 30
0.0
 11
843.8419871454074
 21
-843.9506748050767
 31
0.0
  0
LINE
  5
BDD
330
BDA
100
AcDbEntity
  8
0
 62
     0
370
    -2
100
AcDbLine
 10
876.9868592402568
 20
-778.4506728008717
 30
0.0
 11
843.8419871454074
 21
-778.4506728008717
 31
0.0
  0
LINE
  5
BDE
330
BDA
100
AcDbEntity
  8
0
 62
     0
370
    -2
100
AcDbLine
 10
845.0919871454075
 20
-841.4506748050767
 30
0.0
 11
845.0919871454075
 21
-780.9506728008718
 31
0.0
  0
INSERT
  5
BDF
330
BDA
100
AcDbEntity
  8
0
 62
     0
370
    -2
100
AcDbBlockReference
  2
_Open30
 10
845.0919871454075
 20
-843.9506748050767
 30
0.0
 41
2.5
 42
2.5
 43
2.5
 50
270.0
  0
INSERT
  5
BE0
330
BDA
100
AcDbEntity
  8
0
 62
     0
370
    -2
100
AcDbBlockReference
  2
_Open30
 10
845.0919871454075
 20
-778.4506728008717
 30
0.0
 41
2.5
 42
2.5
 43
2.5
 50
90.0
  0
MTEXT
  5
BE1
330
BDA
100
AcDbEntity
  8
0
 62
     4
100
AcDbMText
 10
842.9669871454077
 20
-809.5772353165124
 30
0.0
 40
3.0
 41
0.0
 71
     5
 72
     1
  1
131
 11
0.0000000000000001
 21
1.0
 31
0.0
 73
     1
 44
1.0
1001
ACAD
1000
MTEXTBEGIN
1070
    73
1070
     1
1070
    44
1040
1.0
1070
    74
1070
     0
1000
MTEXTEND
  0
POINT
  5
BE2
330
BDA
100
AcDbEntity
  8
Defpoints
 62
     0
100
AcDbPoint
 10
847.2368599108087
 20
-843.9506748050767
 30
0.0
  0
POINT
  5
BE3
330
BDA
100
AcDbEntity
  8
Defpoints
 62
     0
100
AcDbPoint
 10
877.2368592402568
 20
-778.4506728008717
 30
0.0
  0
POINT
  5
BE4
330
BDA
100
AcDbEntity
  8
Defpoints
 62
     0
100
AcDbPoint
 10
845.0919871454075
 20
-778.4506728008717
 30
0.0
  0
ENDBLK
  5
BE5
330
BDA
100
AcDbEntity
  8
0
100
AcDbBlockEnd
  0
BLOCK
  5
1008
330
1007
100
AcDbEntity
  8
0
100
AcDbBlockBegin
  2
*D9
 70
     1
 10
0.0
 20
0.0
 30
0.0
  3
*D9
  1

  0
LINE
  5
1865
330
1007
100
AcDbEntity
  8
0
 62
     0
370
    -2
100
AcDbLine
 10
1495.690356608473
 20
190.1808523111615
 30
0.0
 11
1495.690356608473
 21
203.5346447210753
 31
0.0
  0
LINE
  5
1866
330
1007
100
AcDbEntity
  8
0
 62
     0
370
    -2
100
AcDbLine
 10
1482.690356652264
 20
191.1435450038375
 30
0.0
 11
1482.690356652264
 21
203.5346447210753
 31
0.0
  0
LINE
  5
1867
330
1007
100
AcDbEntity
  8
0
 62
     0
370
    -2
100
AcDbLine
 10
1493.190356608473
 20
202.2846447210753
 30
0.0
 11
1485.190356652264
 21
202.2846447210753
 31
0.0
  0
INSERT
  5
1868
330
1007
100
AcDbEntity
  8
0
 62
     0
370
    -2
100
AcDbBlockReference
  2
_Open30
 10
1495.690356608473
 20
202.2846447210753
 30
0.0
 41
2.5
 42
2.5
 43
2.5
  0
INSERT
  5
1869
330
1007
100
AcDbEntity
  8
0
 62
     0
370
    -2
100
AcDbBlockReference
  2
_Open30
 10
1482.690356652264
 20
202.2846447210753
 30
0.0
 41
2.5
 42
2.5
 43
2.5
 50
180.0
  0
MTEXT
  5
186A
330
1007
100
AcDbEntity
  8
0
 62
     4
100
AcDbMText
 10
1489.350312417696
 20
204.4096447210753
 30
0.0
 40
3.0
 41
0.0
 71
     5
 72
     1
  1
E26
 73
     1
 44
1.0
1001
ACAD
1000
MTEXTBEGIN
1070
    73
1070
     1
1070
    44
1040
1.0
1070
    74
1070
     0
1000
MTEXTEND
  0
POINT
  5
186B
330
1007
100
AcDbEntity
  8
Defpoints
 62
     0
100
AcDbPoint
 10
1495.690356608473
 20
189.9308523111615
 30
0.0
  0
POINT
  5
186C
330
1007
100
AcDbEntity
  8
Defpoints
 62
     0
100
AcDbPoint
 10
1482.690356652264
 20
190.8935450038375
 30
0.0
  0
POINT
  5
186D
330
1007
100
AcDbEntity
  8
Defpoints
 62
     0
100
AcDbPoint
 10
1482.690356652264
 20
202.2846447210753
 30
0.0
  0
ENDBLK
  5
1009
330
1007
100
AcDbEntity
  8
0
100
AcDbBlockEnd
  0
BLOCK
  5
1014
330
1013
100
AcDbEntity
  8
0
100
AcDbBlockBegin
  2
*D10
 70
     1
 10
0.0
 20
0.0
 30
0.0
  3
*D10
  1

  0
LINE
  5
186E
330
1013
100
AcDbEntity
  8
0
 62
     0
370
    -2
100
AcDbLine
 10
1459.190357283174
 20
131.406526197457
 30
0.0
 11
1459.190357283174
 21
101.8495129919465
 31
0.0
  0
LINE
  5
186F
330
1013
100
AcDbEntity
  8
0
 62
     0
370
    -2
100
AcDbLine
 10
1519.190355942069
 20
131.406526197457
 30
0.0
 11
1519.190355942069
 21
101.8495129919465
 31
0.0
  0
LINE
  5
1870
330
1013
100
AcDbEntity
  8
0
 62
     0
370
    -2
100
AcDbLine
 10
1461.690357283174
 20
103.0995129919465
 30
0.0
 11
1516.690355942069
 21
103.0995129919465
 31
0.0
  0
INSERT
  5
1871
330
1013
100
AcDbEntity
  8
0
 62
     0
370
    -2
100
AcDbBlockReference
  2
_Open30
 10
1459.190357283174
 20
103.0995129919465
 30
0.0
 41
2.5
 42
2.5
 43
2.5
 50
180.0
  0
INSERT
  5
1872
330
1013
100
AcDbEntity
  8
0
 62
     0
370
    -2
100
AcDbBlockReference
  2
_Open30
 10
1519.190355942069
 20
103.0995129919465
 30
0.0
 41
2.5
 42
2.5
 43
2.5
  0
MTEXT
  5
1873
330
1013
100
AcDbEntity
  8
0
 62
     4
100
AcDbMText
 10
1489.733527252317
 20
105.2245129919465
 30
0.0
 40
3.0
 41
0.0
 71
     5
 72
     1
  1
%%C120
 73
     1
 44
1.0
1001
ACAD
1000
MTEXTBEGIN
1070
    73
1070
     1
1070
    44
1040
1.0
1070
    74
1070
     0
1000
MTEXTEND
  0
POINT
  5
1874
330
1013
100
AcDbEntity
  8
Defpoints
 62
     0
100
AcDbPoint
 10
1459.190357283174
 20
131.656526197457
 30
0.0
  0
POINT
  5
1875
330
1013
100
AcDbEntity
  8
Defpoints
 62
     0
100
AcDbPoint
 10
1519.190355942069
 20
131.656526197457
 30
0.0
  0
POINT
  5
1876
330
1013
100
AcDbEntity
  8
Defpoints
 62
     0
100
AcDbPoint
 10
1519.190355942069
 20
103.0995129919465
 30
0.0
  0
ENDBLK
  5
1015
330
1013
100
AcDbEntity
  8
0
100
AcDbBlockEnd
  0
BLOCK
  5
1020
330
101F
100
AcDbEntity
  8
0
100
AcDbBlockBegin
  2
*D11
 70
     1
 10
0.0
 20
0.0
 30
0.0
  3
*D11
  1

  0
LINE
  5
1877
330
101F
100
AcDbEntity
  8
0
 62
     0
370
    -2
100
AcDbLine
 10
1488.905041032334
 20
197.1564186912256
 30
0.0
 11
1449.605581724947
 21
197.1564186912256
 31
0.0
  0
LINE
  5
1878
330
101F
100
AcDbEntity
  8
0
 62
     0
370
    -2
100
AcDbLine
 10
1488.989172525353
 20
116.6565567303552
 30
0.0
 11
1449.605581724947
 21
116.6565567303552
 31
0.0
  0
LINE
  5
1879
330
101F
100
AcDbEntity
  8
0
 62
     0
370
    -2
100
AcDbLine
 10
1450.855581724947
 20
194.6564186912256
 30
0.0
 11
1450.855581724947
 21
119.1565567303552
 31
0.0
  0
INSERT
  5
187A
330
101F
100
AcDbEntity
  8
0
 62
     0
370
    -2
100
AcDbBlockReference
  2
_Open30
 10
1450.855581724947
 20
197.1564186912256
 30
0.0
 41
2.5
 42
2.5
 43
2.5
 50
90.0
  0
INSERT
  5
187B
330
101F
100
AcDbEntity
  8
0
 62
     0
370
    -2
100
AcDbBlockReference
  2
_Open30
 10
1450.855581724947
 20
116.6565567303552
 30
0.0
 41
2.5
 42
2.5
 43
2.5
 50
270.0
  0
MTEXT
  5
187C
330
101F
100
AcDbEntity
  8
0
 62
     4
100
AcDbMText
 10
1448.730581724947
 20
160.3231504789503
 30
0.0
 40
3.0
 41
0.0
 71
     5
 72
     1
  1
161
 11
0.0000000000000001
 21
1.0
 31
0.0
 73
     1
 44
1.0
1001
ACAD
1000
MTEXTBEGIN
1070
    73
1070
     1
1070
    44
1040
1.0
1070
    74
1070
     0
1000
MTEXTEND
  0
POINT
  5
187D
330
101F
100
AcDbEntity
  8
Defpoints
 62
     0
100
AcDbPoint
 10
1489.155041032334
 20
197.1564186912256
 30
0.0
  0
POINT
  5
187E
330
101F
100
AcDbEntity
  8
Defpoints
 62
     0
100
AcDbPoint
 10
1489.239172525353
 20
116.6565567303552
 30
0.0
  0
POINT
  5
187F
330
101F
100
AcDbEntity
  8
Defpoints
 62
     0
100
AcDbPoint
 10
1450.855581724947
 20
116.6565567303552
 30
0.0
  0
ENDBLK
  5
1021
330
101F
100
AcDbEntity
  8
0
100
AcDbBlockEnd
  0
BLOCK
  5
102C
330
102B
100
AcDbEntity
  8
0
100
AcDbBlockBegin
  2
*D12
 70
     1
 10
0.0
 20
0.0
 30
0.0
  3
*D12
  1

  0
LINE
  5
1880
330
102B
100
AcDbEntity
  8
0
 62
     0
370
    -2
100
AcDbLine
 10
1476.940356508314
 20
166.4065267711517
 30
0.0
 11
1462.178820183803
 21
166.4065267711517
 31
0.0
  0
LINE
  5
1881
330
102B
100
AcDbEntity
  8
0
 62
     0
370
    -2
100
AcDbLine
 10
1478.107023279288
 20
197.1564186912255
 30
0.0
 11
1462.178820183803
 21
197.1564186912255
 31
0.0
  0
LINE
  5
1882
330
102B
100
AcDbEntity
  8
0
 62
     0
370
    -2
100
AcDbLine
 10
1463.428820183803
 20
168.9065267711517
 30
0.0
 11
1463.428820183803
 21
194.6564186912255
 31
0.0
  0
INSERT
  5
1883
330
102B
100
AcDbEntity
  8
0
 62
     0
370
    -2
100
AcDbBlockReference
  2
_Open30
 10
1463.428820183803
 20
166.4065267711517
 30
0.0
 41
2.5
 42
2.5
 43
2.5
 50
270.0
  0
INSERT
  5
1884
330
102B
100
AcDbEntity
  8
0
 62
     0
370
    -2
100
AcDbBlockReference
  2
_Open30
 10
1463.428820183803
 20
197.1564186912255
 30
0.0
 41
2.5
 42
2.5
 43
2.5
 50
90.0
  0
MTEXT
  5
1885
330
102B
100
AcDbEntity
  8
0
 62
     4
100
AcDbMText
 10
1461.303820183803
 20
182.2215657546616
 30
0.0
 40
3.0
 41
0.0
 71
     5
 72
     1
  1
61.5
 11
0.0000000000000001
 21
1.0
 31
0.0
 73
     1
 44
1.0
1001
ACAD
1000
MTEXTBEGIN
1070
    73
1070
     1
1070
    44
1040
1.0
1070
    74
1070
     0
1000
MTEXTEND
  0
POINT
  5
1886
330
102B
100
AcDbEntity
  8
Defpoints
 62
     0
100
AcDbPoint
 10
1477.190356508314
 20
166.4065267711517
 30
0.0
  0
POINT
  5
1887
330
102B
100
AcDbEntity
  8
Defpoints
 62
     0
100
AcDbPoint
 10
1478.357023279288
 20
197.1564186912255
 30
0.0
  0
POINT
  5
1888
330
102B
100
AcDbEntity
  8
Defpoints
 62
     0
100
AcDbPoint
 10
1463.428820183803
 20
197.1564186912255
 30
0.0
  0
ENDBLK
  5
102D
330
102B
100
AcDbEntity
  8
0
100
AcDbBlockEnd
  0
BLOCK
  5
1038
330
1037
100
AcDbEntity
  8
0
100
AcDbBlockBegin
  2
*D13
 70
     1
 10
0.0
 20
0.0
 30
0.0
  3
*D13
  1

  0
LINE
  5
1889
330
1037
100
AcDbEntity
  8
0
 62
     0
370
    -2
100
AcDbLine
 10
1478.190356672226
 20
166.6565267711517
 30
0.0
 11
1478.190356672226
 21
208.8829942986997
 31
0.0
  0
LINE
  5
188A
330
1037
100
AcDbEntity
  8
0
 62
     0
370
    -2
100
AcDbLine
 10
1500.190356553017
 20
166.6565267711517
 30
0.0
 11
1500.190356553017
 21
208.8829942986997
 31
0.0
  0
LINE
  5
188B
330
1037
100
AcDbEntity
  8
0
 62
     0
370
    -2
100
AcDbLine
 10
1480.690356672226
 20
207.6329942986997
 30
0.0
 11
1497.690356553017
 21
207.6329942986997
 31
0.0
  0
INSERT
  5
188C
330
1037
100
AcDbEntity
  8
0
 62
     0
370
    -2
100
AcDbBlockReference
  2
_Open30
 10
1478.190356672226
 20
207.6329942986997
 30
0.0
 41
2.5
 42
2.5
 43
2.5
 50
180.0
  0
INSERT
  5
188D
330
1037
100
AcDbEntity
  8
0
 62
     0
370
    -2
100
AcDbBlockReference
  2
_Open30
 10
1500.190356553017
 20
207.6329942986997
 30
0.0
 41
2.5
 42
2.5
 43
2.5
  0
MTEXT
  5
188E
330
1037
100
AcDbEntity
  8
0
 62
     4
100
AcDbMText
 10
1489.064938939496
 20
209.7579942986997
 30
0.0
 40
3.0
 41
0.0
 71
     5
 72
     1
  1
%%C44
 73
     1
 44
1.0
1001
ACAD
1000
MTEXTBEGIN
1070
    73
1070
     1
1070
    44
1040
1.0
1070
    74
1070
     0
1000
MTEXTEND
  0
POINT
  5
188F
330
1037
100
AcDbEntity
  8
Defpoints
 62
     0
100
AcDbPoint
 10
1478.190356672226
 20
166.4065267711517
 30
0.0
  0
POINT
  5
1890
330
1037
100
AcDbEntity
  8
Defpoints
 62
     0
100
AcDbPoint
 10
1500.190356553017
 20
166.4065267711517
 30
0.0
  0
POINT
  5
1891
330
1037
100
AcDbEntity
  8
Defpoints
 62
     0
100
AcDbPoint
 10
1500.190356553017
 20
207.6329942986997
 30
0.0
  0
ENDBLK
  5
1039
330
1037
100
AcDbEntity
  8
0
100
AcDbBlockEnd
  0
BLOCK
  5
1044
330
1043
100
AcDbEntity
  8
0
100
AcDbBlockBegin
  2
*D14
 70
     1
 10
0.0
 20
0.0
 30
0.0
  3
*D14
  1

  0
LINE
  5
1892
330
1043
100
AcDbEntity
  8
0
 62
     0
370
    -2
100
AcDbLine
 10
1458.940357283174
 20
131.656526197457
 30
0.0
 11
1455.795484517773
 21
131.656526197457
 31
0.0
  0
LINE
  5
1893
330
1043
100
AcDbEntity
  8
0
 62
     0
370
    -2
100
AcDbLine
 10
1488.940356612622
 20
197.1565282016618
 30
0.0
 11
1455.795484517773
 21
197.1565282016618
 31
0.0
  0
LINE
  5
1894
330
1043
100
AcDbEntity
  8
0
 62
     0
370
    -2
100
AcDbLine
 10
1457.045484517773
 20
134.156526197457
 30
0.0
 11
1457.045484517773
 21
194.6565282016618
 31
0.0
  0
INSERT
  5
1895
330
1043
100
AcDbEntity
  8
0
 62
     0
370
    -2
100
AcDbBlockReference
  2
_Open30
 10
1457.045484517773
 20
131.656526197457
 30
0.0
 41
2.5
 42
2.5
 43
2.5
 50
270.0
  0
INSERT
  5
1896
330
1043
100
AcDbEntity
  8
0
 62
     0
370
    -2
100
AcDbBlockReference
  2
_Open30
 10
1457.045484517773
 20
197.1565282016618
 30
0.0
 41
2.5
 42
2.5
 43
2.5
 50
90.0
  0
MTEXT
  5
1897
330
1043
100
AcDbEntity
  8
0
 62
     4
100
AcDbMText
 10
1454.920484517773
 20
166.0299656860214
 30
0.0
 40
3.0
 41
0.0
 71
     5
 72
     1
  1
131
 11
0.0000000000000001
 21
1.0
 31
0.0
 73
     1
 44
1.0
1001
ACAD
1000
MTEXTBEGIN
1070
    73
1070
     1
1070
    44
1040
1.0
1070
    74
1070
     0
1000
MTEXTEND
  0
POINT
  5
1898
330
1043
100
AcDbEntity
  8
Defpoints
 62
     0
100
AcDbPoint
 10
1459.190357283174
 20
131.656526197457
 30
0.0
  0
POINT
  5
1899
330
1043
100
AcDbEntity
  8
Defpoints
 62
     0
100
AcDbPoint
 10
1489.190356612622
 20
197.1565282016618
 30
0.0
  0
POINT
  5
189A
330
1043
100
AcDbEntity
  8
Defpoints
 62
     0
100
AcDbPoint
 10
1457.045484517773
 20
197.1565282016618
 30
0.0
  0
ENDBLK
  5
1045
330
1043
100
AcDbEntity
  8
0
100
AcDbBlockEnd
  0
ENDSEC
  0
SECTION
  2
ENTITIES
  0
LINE
  5
DFB
330
1F
100
AcDbEntity
  8
0
 62
     3
100
AcDbLine
 10
1439.259137022226
 20
273.5643321189936
 30
0.0
 11
1439.259137022226
 21
-3.435667881006451
 31
0.0
  0
LINE
  5
DFC
330
1F
100
AcDbEntity
  8
0
 62
     3
100
AcDbLine
 10
1619.259137022226
 20
-3.435667881006451
 30
0.0
 11
1619.259137022226
 21
273.5643321189936
 31
0.0
  0
LINE
  5
DFD
330
1F
100
AcDbEntity
  8
0
 62
     3
100
AcDbLine
 10
1439.259137022226
 20
-3.435667881006451
 30
0.0
 11
1619.259137022226
 21
-3.435667881006451
 31
0.0
  0
LINE
  5
DFE
330
1F
100
AcDbEntity
  8
0
 62
     3
100
AcDbLine
 10
1567.259137022226
 20
-3.435667881006451
 30
0.0
 11
1567.259137022226
 21
36.56433211899355
 31
0.0
  0
LINE
  5
DFF
330
1F
100
AcDbEntity
  8
0
 62
     3
100
AcDbLine
 10
1567.259137022226
 20
36.56433211899355
 30
0.0
 11
1567.259137022226
 21
42.56433211899355
 31
0.0
  0
LINE
  5
E00
330
1F
100
AcDbEntity
  8
0
 62
     3
100
AcDbLine
 10
1580.259137022225
 20
6.564332118993661
 30
0.0
 11
1580.259137022225
 21
36.56433211899355
 31
0.0
  0
LINE
  5
E01
330
1F
100
AcDbEntity
  8
0
 62
     3
100
AcDbLine
 10
1540.259137022225
 20
6.564332118993661
 30
0.0
 11
1540.259137022225
 21
20.56433211899355
 31
0.0
  0
LINE
  5
E02
330
1F
100
AcDbEntity
  8
0
 62
     3
100
AcDbLine
 10
1550.259137022225
 20
20.56433211899355
 30
0.0
 11
1550.259137022225
 21
-3.435667881006451
 31
0.0
  0
LINE
  5
E03
330
1F
100
AcDbEntity
  8
0
 62
     3
100
AcDbLine
 10
1521.259137022226
 20
36.56433211899355
 30
0.0
 11
1521.259137022226
 21
13.56433211899343
 31
0.0
  0
LINE
  5
E04
330
1F
100
AcDbEntity
  8
0
 62
     3
100
AcDbLine
 10
1593.259137022225
 20
13.56433211899343
 30
0.0
 11
1593.259137022225
 21
36.56433211899355
 31
0.0
  0
LINE
  5
E05
330
1F
100
AcDbEntity
  8
0
 62
     3
100
AcDbLine
 10
1593.259137022225
 20
36.56433211899355
 30
0.0
 11
1593.259137022225
 21
42.56433211899355
 31
0.0
  0
LINE
  5
E06
330
1F
100
AcDbEntity
  8
0
 62
     3
100
AcDbLine
 10
1619.259137022226
 20
36.56433211899355
 30
0.0
 11
1508.013702382226
 21
36.56433211899355
 31
0.0
  0
LINE
  5
E07
330
1F
100
AcDbEntity
  8
0
 62
     3
100
AcDbLine
 10
1619.259137022226
 20
42.56433211899355
 30
0.0
 11
1567.259137022226
 21
42.56433211899355
 31
0.0
  0
LINE
  5
E08
330
1F
100
AcDbEntity
  8
0
 62
     3
100
AcDbLine
 10
1619.259137022226
 20
27.56433211899355
 30
0.0
 11
1508.013702382226
 21
27.56433211899355
 31
0.0
  0
LINE
  5
E09
330
1F
100
AcDbEntity
  8
0
 62
     3
100
AcDbLine
 10
1619.259137022226
 20
13.56433211899343
 30
0.0
 11
1508.013702382226
 21
13.56433211899343
 31
0.0
  0
LINE
  5
E0A
330
1F
100
AcDbEntity
  8
0
 62
     3
100
AcDbLine
 10
1619.259137022226
 20
6.564332118993661
 30
0.0
 11
1507.955694522225
 21
6.564332118993661
 31
0.0
  0
LINE
  5
E0B
330
1F
100
AcDbEntity
  8
0
 62
     3
100
AcDbLine
 10
1606.259137022226
 20
13.56433211899343
 30
0.0
 11
1606.259137022226
 21
36.56433211899355
 31
0.0
  0
LINE
  5
E0C
330
1F
100
AcDbEntity
  8
0
 62
     3
100
AcDbLine
 10
1508.013702382226
 20
36.56433211899355
 30
0.0
 11
1508.013702382226
 21
-3.435667881006451
 31
0.0
  0
LINE
  5
E0D
330
1F
100
AcDbEntity
  8
0
 62
     3
100
AcDbLine
 10
1567.259137022226
 20
20.56433211899355
 30
0.0
 11
1508.013702382226
 21
20.56433211899355
 31
0.0
  0
LINE
  5
E0E
330
1F
100
AcDbEntity
  8
0
 62
     3
100
AcDbLine
 10
1550.537461952225
 20
1.397193378993619
 30
0.0
 11
1567.259137022226
 21
1.397193378993619
 31
0.0
  0
TEXT
  5
E0F
330
1F
100
AcDbEntity
  8
0
 62
     3
100
AcDbText
 10
1551.423462435541
 20
15.63742897235897
 30
0.0
 40
2.5
  1
本体色：白
  7
高2.5
100
AcDbText
  0
TEXT
  5
E10
330
1F
100
AcDbEntity
  8
0
 62
     3
100
AcDbText
 10
1522.455505717478
 20
15.86214652397746
 30
0.0
 40
2.5
  1
-
  7
高2.5
100
AcDbText
  0
TEXT
  5
E11
330
1F
100
AcDbEntity
  8
0
 62
     3
100
AcDbText
 10
1522.720413472175
 20
28.87658164275149
 30
0.0
 40
4.5
  1
エコビック 電球色
 41
0.8
  7
高4.5
100
AcDbText
1001
ACAD
1000
ACAD_MTEXT_DEFINED_HEIGHT_BEGIN
1070
    46
1040
0.0
1000
ACAD_MTEXT_DEFINED_HEIGHT_END
  0
TEXT
  5
E12
330
1F
100
AcDbEntity
  8
0
 62
     3
100
AcDbText
 10
1609.3247261157
 20
33.07802421769713
 30
0.0
 40
2.0
  1
DEF
  7
高2
100
AcDbText
  0
TEXT
  5
E13
330
1F
100
AcDbEntity
  8
0
 62
     3
100
AcDbText
 10
1595.385627761992
 20
33.07802421769691
 30
0.0
 40
2.0
  1
DESN
  7
高2
100
AcDbText
  0
TEXT
  5
E14
330
1F
100
AcDbEntity
  8
0
 62
     3
100
AcDbText
 10
1569.131260821991
 20
33.07802421769713
 30
0.0
 40
2.0
  1
APPD
  7
高2
100
AcDbText
  0
TEXT
  5
E15
330
1F
100
AcDbEntity
  8
0
 62
     3
100
AcDbText
 10
1582.243996922226
 20
33.07802421769713
 30
0.0
 40
2.0
  1
CHCK
  7
高2
100
AcDbText
  0
TEXT
  5
E16
330
1F
100
AcDbEntity
  8
0
 62
     3
100
AcDbText
 10
1541.186302661378
 20
10.7327309422244
 30
0.0
 40
2.0
  1
SCALE
 41
0.8
  7
高2
100
AcDbText
  0
TEXT
  5
E17
330
1F
100
AcDbEntity
  8
0
 62
     3
100
AcDbText
 10
1509.698281085271
 20
10.7327309422244
 30
0.0
 40
2.0
  1
3AD　ANGLE
 41
1.5
  7
高2
100
AcDbText
  0
TEXT
  5
E18
330
1F
100
AcDbEntity
  8
0
 62
     3
100
AcDbText
 10
1540.455708352227
 20
17.48426901118136
 30
0.0
 40
2.0
  1
REMARKS
 41
0.7
  7
高2
100
AcDbText
  0
TEXT
  5
E19
330
1F
100
AcDbEntity
  8
0
 62
     3
100
AcDbText
 10
1509.481372732225
 20
17.56433211899355
 30
0.0
 40
2.0
  1
MATERIAL
 41
0.7
  7
高2
100
AcDbText
  0
TEXT
  5
E1A
330
1F
100
AcDbEntity
  8
0
 62
     3
100
AcDbText
 10
1510.057859934979
 20
24.56433211899355
 30
0.0
 40
2.0
  1
MODEL
  7
高2
100
AcDbText
  0
TEXT
  5
E1B
330
1F
100
AcDbEntity
  8
0
 62
     3
100
AcDbText
 10
1509.69478081631
 20
33.27135346959256
 30
0.0
 40
2.0
  1
CONPONENTS
 41
0.5
  7
高2
100
AcDbText
  0
TEXT
  5
E1C
330
1F
100
AcDbEntity
  8
0
 62
     3
100
AcDbText
 10
1522.401896287478
 20
21.65181324680543
 30
0.0
 40
4.5
  1
L20W-JW110-30K
 41
0.65
  7
高4.5
100
AcDbText
  0
TEXT
  5
E1D
330
1F
100
AcDbEntity
  8
0
 62
     3
100
AcDbText
 10
1569.08242708512
 20
-2.063619007554049
 30
0.0
 40
6.299999999999998
  1
L20W-JW110-30K
 41
0.55
  7
高6.3
100
AcDbText
1001
ACAD
1000
ACAD_MTEXT_DEFINED_HEIGHT_BEGIN
1070
    46
1040
0.0
1000
ACAD_MTEXT_DEFINED_HEIGHT_END
  0
TEXT
  5
E1E
330
1F
100
AcDbEntity
  8
0
 62
     3
100
AcDbText
 10
1583.822646772555
 20
7.665221277226692
 30
0.0
 40
3.2
  1
2020.07.15
  7
高3.2
100
AcDbText
1001
ACAD
1000
ACAD_MTEXT_DEFINED_HEIGHT_BEGIN
1070
    46
1040
0.0
1000
ACAD_MTEXT_DEFINED_HEIGHT_END
  0
TEXT
  5
E1F
330
1F
100
AcDbEntity
  8
0
 62
     3
100
AcDbText
 10
1554.046734916871
 20
7.6652491215616
 30
0.0
 40
3.2
  1
1/2
  7
高3.2
100
AcDbText
  0
TEXT
  5
E20
330
1F
100
AcDbEntity
  8
0
 62
     3
100
AcDbText
 10
1551.124063892225
 20
-2.618789707870519
 30
0.0
 40
3.2
  1
ZK-A4X
 41
0.8
  7
高3.2
100
AcDbText
  0
TEXT
  5
E21
330
1F
100
AcDbEntity
  8
0
 62
     3
100
AcDbText
 10
1508.844403422226
 20
3.088952541181356
 30
0.0
 40
2.0
  1
NICHIDO IND.CO.LTD
 41
1.3
  7
高2
100
AcDbText
  0
TEXT
  5
E22
330
1F
100
AcDbEntity
  8
0
 62
     3
100
AcDbText
 10
1510.025926687183
 20
28.70486032687848
 30
0.0
 40
3.2
  1
品 名
  7
高3.2
100
AcDbText
1001
ACAD
1000
ACAD_MTEXT_DEFINED_HEIGHT_BEGIN
1070
    46
1040
0.0
1000
ACAD_MTEXT_DEFINED_HEIGHT_END
  0
TEXT
  5
E23
330
1F
100
AcDbEntity
  8
0
 62
     3
100
AcDbText
 10
1510.025926687183
 20
21.06433211899355
 30
0.0
 40
3.2
  1
型 式
  7
高3.2
100
AcDbText
1001
ACAD
1000
ACAD_MTEXT_DEFINED_HEIGHT_BEGIN
1070
    46
1040
3.064735913775952
1000
ACAD_MTEXT_DEFINED_HEIGHT_END
  0
TEXT
  5
E24
330
1F
100
AcDbEntity
  8
0
 62
     3
100
AcDbText
 10
1510.025926687183
 20
14.06433211899354
 30
0.0
 40
3.2
  1
材 質
  7
高3.2
100
AcDbText
1001
ACAD
1000
ACAD_MTEXT_DEFINED_HEIGHT_BEGIN
1070
    46
1040
0.0
1000
ACAD_MTEXT_DEFINED_HEIGHT_END
  0
TEXT
  5
E25
330
1F
100
AcDbEntity
  8
0
 62
     3
100
AcDbText
 10
1509.720891737183
 20
7.031772111239661
 30
0.0
 40
3.2
  1
第 三 角 法
  7
高3.2
100
AcDbText
1001
ACAD
1000
ACAD_MTEXT_DEFINED_HEIGHT_BEGIN
1070
    46
1040
0.0
1000
ACAD_MTEXT_DEFINED_HEIGHT_END
  0
TEXT
  5
E26
330
1F
100
AcDbEntity
  8
0
 62
     3
100
AcDbText
 10
1508.127424344711
 20
-2.295139673121525
 30
0.0
 40
3.2
  1
日動工業株式会社
 41
1.199999999999999
  7
高3.2
100
AcDbText
1001
ACAD
1000
ACAD_MTEXT_DEFINED_HEIGHT_BEGIN
1070
    46
1040
0.0
1000
ACAD_MTEXT_DEFINED_HEIGHT_END
  0
TEXT
  5
E27
330
1F
100
AcDbEntity
  8
0
 62
     3
100
AcDbText
 10
1541.76304854419
 20
13.94891065216109
 30
0.0
 40
3.2
  1
備考
  7
高3.2
100
AcDbText
1001
ACAD
1000
ACAD_MTEXT_DEFINED_HEIGHT_BEGIN
1070
    46
1040
0.0
1000
ACAD_MTEXT_DEFINED_HEIGHT_END
  0
TEXT
  5
E28
330
1F
100
AcDbEntity
  8
0
 62
     3
100
AcDbText
 10
1551.412105991225
 20
2.710562144563937
 30
0.0
 40
2.5
  1
出図コード
  7
高2.5
100
AcDbText
1001
ACAD
1000
ACAD_MTEXT_DEFINED_HEIGHT_BEGIN
1070
    46
1040
0.0
1000
ACAD_MTEXT_DEFINED_HEIGHT_END
  0
TEXT
  5
E29
330
1F
100
AcDbEntity
  8
0
 62
     3
100
AcDbText
 10
1541.604282426103
 20
7.017567029406563
 30
0.0
 40
3.2
  1
尺度
  7
高3.2
100
AcDbText
1001
ACAD
1000
ACAD_MTEXT_DEFINED_HEIGHT_BEGIN
1070
    46
1040
0.0
1000
ACAD_MTEXT_DEFINED_HEIGHT_END
  0
TEXT
  5
E2A
330
1F
100
AcDbEntity
  8
0
 62
     3
100
AcDbText
 10
1568.750543907881
 20
8.149045477523941
 30
0.0
 40
3.2
  1
作成日
  7
高3.2
100
AcDbText
1001
ACAD
1000
ACAD_MTEXT_DEFINED_HEIGHT_BEGIN
1070
    46
1040
0.0
1000
ACAD_MTEXT_DEFINED_HEIGHT_END
  0
TEXT
  5
E2B
330
1F
100
AcDbEntity
  8
0
 62
     3
100
AcDbText
 10
1568.645017914745
 20
28.70486032687848
 30
0.0
 40
3.2
  1
承 認
  7
高3.2
100
AcDbText
1001
ACAD
1000
ACAD_MTEXT_DEFINED_HEIGHT_BEGIN
1070
    46
1040
0.0
1000
ACAD_MTEXT_DEFINED_HEIGHT_END
  0
TEXT
  5
E2C
330
1F
100
AcDbEntity
  8
0
 62
     3
100
AcDbText
 10
1581.645017914745
 20
28.70486032687848
 30
0.0
 40
3.2
  1
検 図
  7
高3.2
100
AcDbText
1001
ACAD
1000
ACAD_MTEXT_DEFINED_HEIGHT_BEGIN
1070
    46
1040
0.0
1000
ACAD_MTEXT_DEFINED_HEIGHT_END
  0
TEXT
  5
E2D
330
1F
100
AcDbEntity
  8
0
 62
     3
100
AcDbText
 10
1594.645017914745
 20
28.70486032687848
 30
0.0
 40
3.2
  1
設 計
  7
高3.2
100
AcDbText
1001
ACAD
1000
ACAD_MTEXT_DEFINED_HEIGHT_BEGIN
1070
    46
1040
0.0
1000
ACAD_MTEXT_DEFINED_HEIGHT_END
  0
TEXT
  5
E2E
330
1F
100
AcDbEntity
  8
0
 62
     3
100
AcDbText
 10
1607.945654434746
 20
28.70486032687848
 30
0.0
 40
3.2
  1
製 図
  7
高3.2
100
AcDbText
1001
ACAD
1000
ACAD_MTEXT_DEFINED_HEIGHT_BEGIN
1070
    46
1040
0.0
1000
ACAD_MTEXT_DEFINED_HEIGHT_END
  0
TEXT
  5
E2F
330
1F
100
AcDbEntity
  8
0
 62
     3
100
AcDbText
 10
1598.00913135356
 20
37.2575608629478
 30
0.0
 40
4.5
  1
14156
  7
高4.5
100
AcDbText
1001
ACAD
1000
ACAD_MTEXT_DEFINED_HEIGHT_BEGIN
1070
    46
1040
0.0
1000
ACAD_MTEXT_DEFINED_HEIGHT_END
  0
TEXT
  5
E30
330
1F
100
AcDbEntity
  8
0
 62
     3
100
AcDbText
 10
1571.257855672116
 20
37.2575608629478
 30
0.0
 40
4.5
  1
コード
  7
高4.5
100
AcDbText
1001
ACAD
1000
ACAD_MTEXT_DEFINED_HEIGHT_BEGIN
1070
    46
1040
0.0
1000
ACAD_MTEXT_DEFINED_HEIGHT_END
  0
TEXT
  5
E31
330
1F
100
AcDbEntity
  8
0
 62
     7
100
AcDbText
 10
1611.5815220446
 20
17.56314112655468
 30
0.0
 40
3.2
  1
I
  7
高3.2
100
AcDbText
  0
LINE
  5
E32
330
1F
100
AcDbEntity
  8
0
 62
     3
100
AcDbLine
 10
1427.747064022225
 20
135.0643321189936
 30
0.0
 11
1427.259137022225
 21
135.0643321189936
 31
0.0
  0
LINE
  5
E33
330
1F
100
AcDbEntity
  8
0
 62
     3
100
AcDbLine
 10
1476.343489042225
 20
275.3517762189937
 30
0.0
 11
1476.779236952225
 21
275.1243080789937
 31
0.0
  0
LINE
  5
E34
330
1F
100
AcDbEntity
  8
0
 62
     3
100
AcDbLine
 10
1476.343489042225
 20
271.6211457389936
 30
0.0
 11
1476.779236952225
 21
271.8486138789937
 31
0.0
  0
LINE
  5
E35
330
1F
100
AcDbEntity
  8
0
 62
     3
100
AcDbLine
 10
1476.779236952225
 20
275.1243080789937
 30
0.0
 11
1476.779236952225
 21
271.8486138789937
 31
0.0
  0
LINE
  5
E36
330
1F
100
AcDbEntity
  8
0
 62
     3
100
AcDbLine
 10
1477.882754372225
 20
271.6211457389936
 30
0.0
 11
1477.447006462225
 21
271.8486138789937
 31
0.0
  0
LINE
  5
E37
330
1F
100
AcDbEntity
  8
0
 62
     3
100
AcDbLine
 10
1477.447006462225
 20
273.8454726889936
 30
0.0
 11
1477.447006462225
 21
271.8486138789937
 31
0.0
  0
LINE
  5
E38
330
1F
100
AcDbEntity
  8
0
 62
     3
100
AcDbLine
 10
1480.424617152225
 20
275.3517762189937
 30
0.0
 11
1479.988869242225
 21
275.1243080789937
 31
0.0
  0
LINE
  5
E39
330
1F
100
AcDbEntity
  8
0
 62
     3
100
AcDbLine
 10
1478.885351822225
 20
275.3517762189937
 30
0.0
 11
1479.321099732225
 21
275.1243080789937
 31
0.0
  0
LINE
  5
E3A
330
1F
100
AcDbEntity
  8
0
 62
     3
100
AcDbLine
 10
1479.321099732225
 20
275.1243080789937
 30
0.0
 11
1479.321099732225
 21
273.6819710189936
 31
0.0
  0
LINE
  5
E3B
330
1F
100
AcDbEntity
  8
0
 62
     3
100
AcDbLine
 10
1479.988869242225
 20
275.1243080789937
 30
0.0
 11
1479.988869242225
 21
271.4095845989934
 31
0.0
  0
LINE
  5
E3C
330
1F
100
AcDbEntity
  8
0
 62
     3
100
AcDbLine
 10
1480.639914352225
 20
275.3517735889936
 30
0.0
 11
1481.075660692225
 21
275.1243024489936
 31
0.0
  0
LINE
  5
E3D
330
1F
100
AcDbEntity
  8
0
 62
     3
100
AcDbLine
 10
1480.639836382225
 20
271.6211957189937
 30
0.0
 11
1481.075592232225
 21
271.8486486389936
 31
0.0
  0
LINE
  5
E3E
330
1F
100
AcDbEntity
  8
0
 62
     3
100
AcDbLine
 10
1481.075660692225
 20
275.1243024489936
 30
0.0
 11
1481.075660692225
 21
271.8486486389936
 31
0.0
  0
LINE
  5
E3F
330
1F
100
AcDbEntity
  8
0
 62
     3
100
AcDbLine
 10
1482.569450752225
 20
275.3517499189936
 30
0.0
 11
1482.133699662225
 21
275.1242878889936
 31
0.0
  0
LINE
  5
E40
330
1F
100
AcDbEntity
  8
0
 62
     3
100
AcDbLine
 10
1482.133699662225
 20
275.1242878889936
 30
0.0
 11
1482.133699662225
 21
271.8486340689935
 31
0.0
  0
LINE
  5
E41
330
1F
100
AcDbEntity
  8
0
 62
     3
100
AcDbLine
 10
1482.569450752225
 20
271.6211720389936
 30
0.0
 11
1482.133699662225
 21
271.8486340689935
 31
0.0
  0
LINE
  5
E42
330
1F
100
AcDbEntity
  8
0
 62
     3
100
AcDbLine
 10
1486.259704192225
 20
275.3517089189936
 30
0.0
 11
1486.695451312225
 21
275.1242392789936
 31
0.0
  0
LINE
  5
E43
330
1F
100
AcDbEntity
  8
0
 62
     3
100
AcDbLine
 10
1486.695451312225
 20
275.1242392789936
 30
0.0
 11
1486.695394142225
 21
271.8485854689936
 31
0.0
  0
LINE
  5
E44
330
1F
100
AcDbEntity
  8
0
 62
     3
100
AcDbLine
 10
1486.259639082225
 20
271.6211310389937
 30
0.0
 11
1486.695394142225
 21
271.8485854689936
 31
0.0
  0
LINE
  5
E45
330
1F
100
AcDbEntity
  8
0
 62
     3
100
AcDbLine
 10
1488.211965152225
 20
275.3517089189936
 30
0.0
 11
1487.776218032225
 21
275.1242392789936
 31
0.0
  0
LINE
  5
E46
330
1F
100
AcDbEntity
  8
0
 62
     3
100
AcDbLine
 10
1488.212030262225
 20
271.6211310389937
 30
0.0
 11
1487.776275202225
 21
271.8485854689936
 31
0.0
  0
LINE
  5
E47
330
1F
100
AcDbEntity
  8
0
 62
     3
100
AcDbLine
 10
1488.415693012225
 20
275.3517089189936
 30
0.0
 11
1488.851440142225
 21
275.1242392789936
 31
0.0
  0
LINE
  5
E48
330
1F
100
AcDbEntity
  8
0
 62
     3
100
AcDbLine
 10
1488.415627902225
 20
271.6211310389937
 30
0.0
 11
1488.851382962225
 21
271.8485854689936
 31
0.0
  0
LINE
  5
E49
330
1F
100
AcDbEntity
  8
0
 62
     3
100
AcDbLine
 10
1490.367953982225
 20
275.3517089189936
 30
0.0
 11
1489.932206862225
 21
275.1242392789936
 31
0.0
  0
LINE
  5
E4A
330
1F
100
AcDbEntity
  8
0
 62
     3
100
AcDbLine
 10
1489.932206862225
 20
275.1242392789936
 30
0.0
 11
1489.932264032225
 21
271.8485854689936
 31
0.0
  0
LINE
  5
E4B
330
1F
100
AcDbEntity
  8
0
 62
     3
100
AcDbLine
 10
1490.368019092225
 20
271.6211310389937
 30
0.0
 11
1489.932264032225
 21
271.8485854689936
 31
0.0
  0
LINE
  5
E4C
330
1F
100
AcDbEntity
  8
0
 62
     3
100
AcDbLine
 10
1488.851415232225
 20
273.6971061589935
 30
0.0
 11
1487.776242942225
 21
273.6971061589935
 31
0.0
  0
LINE
  5
E4D
330
1F
100
AcDbEntity
  8
0
 62
     3
100
AcDbLine
 10
1488.851407872225
 20
273.2758157989936
 30
0.0
 11
1487.776250292225
 21
273.2758157989936
 31
0.0
  0
LINE
  5
E4E
330
1F
100
AcDbEntity
  8
0
 62
     3
100
AcDbLine
 10
1488.851440142225
 20
275.1242392789936
 30
0.0
 11
1488.851415232225
 21
273.6971061589935
 31
0.0
  0
LINE
  5
E4F
330
1F
100
AcDbEntity
  8
0
 62
     3
100
AcDbLine
 10
1488.851407872225
 20
273.2758157989936
 30
0.0
 11
1488.851382962225
 21
271.8485854689936
 31
0.0
  0
LINE
  5
E50
330
1F
100
AcDbEntity
  8
0
 62
     3
100
AcDbLine
 10
1487.776218032225
 20
275.1242392789936
 30
0.0
 11
1487.776242942225
 21
273.6971061589935
 31
0.0
  0
LINE
  5
E51
330
1F
100
AcDbEntity
  8
0
 62
     3
100
AcDbLine
 10
1487.776250292225
 20
273.2758157989936
 30
0.0
 11
1487.776275202225
 21
271.8485854689936
 31
0.0
  0
LINE
  5
E52
330
1F
100
AcDbEntity
  8
0
 62
     3
100
AcDbLine
 10
1490.574913102225
 20
275.3517089189936
 30
0.0
 11
1491.010660222225
 21
275.1242392789936
 31
0.0
  0
LINE
  5
E53
330
1F
100
AcDbEntity
  8
0
 62
     3
100
AcDbLine
 10
1491.010660222225
 20
275.1242392789936
 30
0.0
 11
1491.010603052225
 21
271.8485854689936
 31
0.0
  0
LINE
  5
E54
330
1F
100
AcDbEntity
  8
0
 62
     3
100
AcDbLine
 10
1490.574847992225
 20
271.6211310389937
 30
0.0
 11
1491.010603052225
 21
271.8485854689936
 31
0.0
  0
LINE
  5
E55
330
1F
100
AcDbEntity
  8
0
 62
     3
100
AcDbLine
 10
1492.504423372225
 20
275.3517089189936
 30
0.0
 11
1492.068676252225
 21
275.1242392789936
 31
0.0
  0
LINE
  5
E56
330
1F
100
AcDbEntity
  8
0
 62
     3
100
AcDbLine
 10
1492.068676252225
 20
275.1242392789936
 30
0.0
 11
1492.068733422225
 21
271.8485854689936
 31
0.0
  0
LINE
  5
E57
330
1F
100
AcDbEntity
  8
0
 62
     3
100
AcDbLine
 10
1492.504488482225
 20
271.6211310389937
 30
0.0
 11
1492.068733422225
 21
271.8485854689936
 31
0.0
  0
LINE
  5
E58
330
1F
100
AcDbEntity
  8
0
 62
     3
100
AcDbLine
 10
1492.718782942225
 20
275.3517089189936
 30
0.0
 11
1493.154530062225
 21
275.1242392789936
 31
0.0
  0
LINE
  5
E59
330
1F
100
AcDbEntity
  8
0
 62
     3
100
AcDbLine
 10
1493.154530062225
 20
275.1242392789936
 30
0.0
 11
1493.154472892225
 21
271.8485854689936
 31
0.0
  0
LINE
  5
E5A
330
1F
100
AcDbEntity
  8
0
 62
     3
100
AcDbLine
 10
1492.718717832225
 20
271.6211310389937
 30
0.0
 11
1493.154472892225
 21
271.8485854689936
 31
0.0
  0
ARC
  5
E5B
330
1F
100
AcDbEntity
  8
0
 62
     3
100
AcDbCircle
 10
1484.867792922225
 20
273.4958507389937
 30
0.0
 40
2.086285909999999
100
AcDbArc
 50
97.70152350999723
 51
270.0
  0
ARC
  5
E5C
330
1F
100
AcDbEntity
  8
0
 62
     3
100
AcDbCircle
 10
1497.748393762225
 20
273.4748941089936
 30
0.0
 40
2.108943379999999
100
AcDbArc
 50
0.3142502700009129
 51
69.00558244998906
  0
ARC
  5
E5D
330
1F
100
AcDbEntity
  8
0
 62
     3
100
AcDbCircle
 10
1498.209069082225
 20
273.4748941089936
 30
0.0
 40
2.108943379999999
100
AcDbArc
 50
110.9944175499969
 51
148.1166110200035
  0
ARC
  5
E5E
330
1F
100
AcDbEntity
  8
0
 62
     3
100
AcDbCircle
 10
1497.748393762225
 20
273.4980278489936
 30
0.0
 40
2.108943379999999
100
AcDbArc
 50
290.9944175499969
 51
359.685749729999
  0
ARC
  5
E5F
330
1F
100
AcDbEntity
  8
0
 62
     3
100
AcDbCircle
 10
1498.209069082225
 20
273.4980278489936
 30
0.0
 40
2.108943379999999
100
AcDbArc
 50
211.8833889799963
 51
249.0055824499891
  0
ARC
  5
E60
330
1F
100
AcDbEntity
  8
0
 62
     3
100
AcDbCircle
 10
1497.978731422225
 20
274.3492663689935
 30
0.0
 40
1.214070989999997
100
AcDbArc
 50
64.36517189999985
 51
115.6348281000001
  0
ARC
  5
E61
330
1F
100
AcDbEntity
  8
0
 62
     3
100
AcDbCircle
 10
1497.978731422225
 20
272.6236555889934
 30
0.0
 40
1.214070989999997
100
AcDbArc
 50
244.3651718999999
 51
295.6348281000002
  0
ARC
  5
E62
330
1F
100
AcDbEntity
  8
0
 62
     3
100
AcDbCircle
 10
1497.978731422225
 20
274.3723280489937
 30
0.0
 40
0.59585563
100
AcDbArc
 50
19.48660554000634
 51
160.5133944599935
  0
ARC
  5
E63
330
1F
100
AcDbEntity
  8
0
 62
     3
100
AcDbCircle
 10
1497.978731422225
 20
272.6236555889934
 30
0.0
 40
1.214070989999997
100
AcDbArc
 50
244.3651718999999
 51
295.6348281000002
  0
ARC
  5
E64
330
1F
100
AcDbEntity
  8
0
 62
     3
100
AcDbCircle
 10
1497.978731422225
 20
272.6005939089937
 30
0.0
 40
0.59585563
100
AcDbArc
 50
199.4866055400063
 51
340.5133944599937
  0
ARC
  5
E65
330
1F
100
AcDbEntity
  8
0
 62
     3
100
AcDbCircle
 10
1493.236258922225
 20
251.2584011389937
 30
0.0
 40
26.04
100
AcDbArc
 50
69.50571480000846
 51
81.68998806999736
  0
ARC
  5
E66
330
1F
100
AcDbEntity
  8
0
 62
     3
100
AcDbCircle
 10
1493.236258922225
 20
295.7145208189936
 30
0.0
 40
26.04
100
AcDbArc
 50
278.3100119300026
 51
290.4942851999916
  0
ARC
  5
E67
330
1F
100
AcDbEntity
  8
0
 62
     3
100
AcDbCircle
 10
1501.544463052225
 20
273.4864609789936
 30
0.0
 40
2.31
100
AcDbArc
 50
290.4942851999916
 51
69.50571480000846
  0
ARC
  5
E68
330
1F
100
AcDbEntity
  8
0
 62
     3
100
AcDbCircle
 10
1474.244463052225
 20
273.4864609789936
 30
0.0
 40
2.31
100
AcDbArc
 50
110.4942851999915
 51
249.5057147999945
  0
ARC
  5
E69
330
1F
100
AcDbEntity
  8
0
 62
     3
100
AcDbCircle
 10
1482.552667172225
 20
251.2584011389937
 30
0.0
 40
26.04
100
AcDbArc
 50
98.31001192998948
 51
110.4942851999915
  0
ARC
  5
E6A
330
1F
100
AcDbEntity
  8
0
 62
     3
100
AcDbCircle
 10
1482.552667172225
 20
295.7145208189936
 30
0.0
 40
26.04
100
AcDbArc
 50
249.5057147999945
 51
261.6899880699973
  0
ARC
  5
E6B
330
1F
100
AcDbEntity
  8
0
 62
     3
100
AcDbCircle
 10
1487.894463052225
 20
214.6864609789936
 30
0.0
 40
62.99999987
100
AcDbArc
 50
81.68998806999736
 51
98.31001192998948
  0
ARC
  5
E6C
330
1F
100
AcDbEntity
  8
0
 62
     3
100
AcDbCircle
 10
1487.894463052225
 20
332.2864609789935
 30
0.0
 40
62.99999987
100
AcDbArc
 50
261.6899880699973
 51
278.3100119300026
  0
ARC
  5
E6D
330
1F
100
AcDbEntity
  8
0
 62
     3
100
AcDbCircle
 10
1487.894463052225
 20
214.6864609789936
 30
0.0
 40
62.36999987
100
AcDbArc
 50
81.68998806999736
 51
98.31001192998948
  0
ARC
  5
E6E
330
1F
100
AcDbEntity
  8
0
 62
     3
100
AcDbCircle
 10
1487.894463052225
 20
332.2864609789935
 30
0.0
 40
62.36999987
100
AcDbArc
 50
261.6899880699973
 51
278.3100119300026
  0
ARC
  5
E6F
330
1F
100
AcDbEntity
  8
0
 62
     3
100
AcDbCircle
 10
1493.236258922225
 20
295.7145208189936
 30
0.0
 40
25.41
100
AcDbArc
 50
278.3100119300026
 51
290.4942851999916
  0
ARC
  5
E70
330
1F
100
AcDbEntity
  8
0
 62
     3
100
AcDbCircle
 10
1493.236258922225
 20
251.2584011389937
 30
0.0
 40
25.41
100
AcDbArc
 50
69.50571480000846
 51
81.68998806999736
  0
ARC
  5
E71
330
1F
100
AcDbEntity
  8
0
 62
     3
100
AcDbCircle
 10
1501.544463052225
 20
273.4864609789936
 30
0.0
 40
1.679999999999999
100
AcDbArc
 50
290.4942851999916
 51
69.50571480000846
  0
ARC
  5
E72
330
1F
100
AcDbEntity
  8
0
 62
     3
100
AcDbCircle
 10
1474.244463052225
 20
273.4864609789936
 30
0.0
 40
1.679999999999999
100
AcDbArc
 50
110.4942851999915
 51
249.5057147999945
  0
ARC
  5
E73
330
1F
100
AcDbEntity
  8
0
 62
     3
100
AcDbCircle
 10
1482.552667172225
 20
251.2584011389937
 30
0.0
 40
25.41
100
AcDbArc
 50
98.31001192998948
 51
110.4942851999915
  0
ARC
  5
E74
330
1F
100
AcDbEntity
  8
0
 62
     3
100
AcDbCircle
 10
1482.552667172225
 20
295.7145208189936
 30
0.0
 40
25.41
100
AcDbArc
 50
249.5057147999945
 51
261.6899880699973
  0
LINE
  5
E75
330
1F
100
AcDbEntity
  8
0
 62
     3
100
AcDbLine
 10
1492.504424152225
 20
271.4095845989934
 30
0.0
 11
1490.574912322225
 21
271.4095845989934
 31
0.0
  0
LINE
  5
E76
330
1F
100
AcDbEntity
  8
0
 62
     3
100
AcDbLine
 10
1492.504424152225
 20
271.6211457389936
 30
0.0
 11
1492.504424152225
 21
271.4095845989934
 31
0.0
  0
LINE
  5
E77
330
1F
100
AcDbEntity
  8
0
 62
     3
100
AcDbLine
 10
1490.367954762225
 20
275.5632386389937
 30
0.0
 11
1488.415692232225
 21
275.5632386389937
 31
0.0
  0
LINE
  5
E78
330
1F
100
AcDbEntity
  8
0
 62
     3
100
AcDbLine
 10
1490.367954762225
 20
275.5632386389937
 30
0.0
 11
1490.367954762225
 21
275.3517762189937
 31
0.0
  0
LINE
  5
E79
330
1F
100
AcDbEntity
  8
0
 62
     3
100
AcDbLine
 10
1490.367954762225
 20
271.6211457389936
 30
0.0
 11
1490.367954762225
 21
271.4094858889937
 31
0.0
  0
LINE
  5
E7A
330
1F
100
AcDbEntity
  8
0
 62
     3
100
AcDbLine
 10
1490.367954762225
 20
271.4094858889937
 30
0.0
 11
1488.415692232225
 21
271.4094858889937
 31
0.0
  0
LINE
  5
E7B
330
1F
100
AcDbEntity
  8
0
 62
     3
100
AcDbLine
 10
1492.504424152225
 20
275.5633373589936
 30
0.0
 11
1492.504424152225
 21
275.3517762189937
 31
0.0
  0
LINE
  5
E7C
330
1F
100
AcDbEntity
  8
0
 62
     3
100
AcDbLine
 10
1492.504424152225
 20
275.5633373589936
 30
0.0
 11
1490.574912322225
 21
275.5633373589936
 31
0.0
  0
LINE
  5
E7D
330
1F
100
AcDbEntity
  8
0
 62
     3
100
AcDbLine
 10
1490.574912322225
 20
275.5633373589936
 30
0.0
 11
1490.574912322225
 21
275.3517762189937
 31
0.0
  0
LINE
  5
E7E
330
1F
100
AcDbEntity
  8
0
 62
     3
100
AcDbLine
 10
1492.718782152225
 20
271.6211457389936
 30
0.0
 11
1492.718782152225
 21
271.4095845989934
 31
0.0
  0
LINE
  5
E7F
330
1F
100
AcDbEntity
  8
0
 62
     3
100
AcDbLine
 10
1494.703082712225
 20
271.4095845989934
 30
0.0
 11
1492.718782152225
 21
271.4095845989934
 31
0.0
  0
LINE
  5
E80
330
1F
100
AcDbEntity
  8
0
 62
     3
100
AcDbLine
 10
1494.212546082225
 20
274.8955678389934
 30
0.0
 11
1494.212546082225
 21
272.0773541189934
 31
0.0
  0
LINE
  5
E81
330
1F
100
AcDbEntity
  8
0
 62
     3
100
AcDbLine
 10
1494.212546082225
 20
272.0773541189934
 30
0.0
 11
1494.402595052225
 21
272.0773541189934
 31
0.0
  0
ARC
  5
E82
330
1F
100
AcDbEntity
  8
0
 62
     3
100
AcDbCircle
 10
1493.430809312225
 20
273.4864609789936
 30
0.0
 40
1.71170957
100
AcDbArc
 50
304.5919552700027
 51
55.40804472999734
  0
LINE
  5
E83
330
1F
100
AcDbEntity
  8
0
 62
     3
100
AcDbLine
 10
1494.703082712225
 20
275.5633373589936
 30
0.0
 11
1492.718782152225
 21
275.5633373589936
 31
0.0
  0
LINE
  5
E84
330
1F
100
AcDbEntity
  8
0
 62
     3
100
AcDbLine
 10
1492.718782152225
 20
275.5633373589936
 30
0.0
 11
1492.718782152225
 21
275.3517762189937
 31
0.0
  0
LINE
  5
E85
330
1F
100
AcDbEntity
  8
0
 62
     3
100
AcDbLine
 10
1490.574912322225
 20
271.6211457389936
 30
0.0
 11
1490.574912322225
 21
271.4095845989934
 31
0.0
  0
LINE
  5
E86
330
1F
100
AcDbEntity
  8
0
 62
     3
100
AcDbLine
 10
1494.212546082225
 20
274.8955678389934
 30
0.0
 11
1494.402595052225
 21
274.8955678389934
 31
0.0
  0
LINE
  5
E87
330
1F
100
AcDbEntity
  8
0
 62
     3
100
AcDbLine
 10
1482.569386422225
 20
271.6211457389936
 30
0.0
 11
1482.569382732225
 21
271.4095648289937
 31
0.0
  0
LINE
  5
E88
330
1F
100
AcDbEntity
  8
0
 62
     3
100
AcDbLine
 10
1480.639870892225
 20
271.4096043689935
 30
0.0
 11
1482.569382732225
 21
271.4095706989935
 31
0.0
  0
LINE
  5
E89
330
1F
100
AcDbEntity
  8
0
 62
     3
100
AcDbLine
 10
1476.343489042225
 20
271.4095845989934
 30
0.0
 11
1477.882754372225
 21
271.4095845989934
 31
0.0
  0
ARC
  5
E8A
330
1F
100
AcDbEntity
  8
0
 62
     3
100
AcDbCircle
 10
1471.361546362225
 20
273.5353675989936
 30
0.0
 40
14.71356563
100
AcDbArc
 50
353.8660061899947
 51
357.6940342600001
  0
LINE
  5
E8B
330
1F
100
AcDbEntity
  8
0
 62
     3
100
AcDbLine
 10
1485.078126222225
 20
272.9469999489936
 30
0.0
 11
1486.063197112225
 21
272.9433550689937
 31
0.0
  0
LINE
  5
E8D
330
1F
100
AcDbEntity
  8
0
 62
     3
100
AcDbLine
 10
1485.082104642225
 20
274.0222146889937
 30
0.0
 11
1486.067175522225
 21
274.0185698189937
 31
0.0
  0
ARC
  5
E8E
330
1F
100
AcDbEntity
  8
0
 62
     3
100
AcDbCircle
 10
1471.361546362225
 20
273.5353675989936
 30
0.0
 40
14.71356563
100
AcDbArc
 50
1.88196573999784
 51
5.709993809994168
  0
LINE
  5
E8F
330
1F
100
AcDbEntity
  8
0
 62
     3
100
AcDbLine
 10
1482.569455222225
 20
275.5633175889934
 30
0.0
 11
1482.569451532225
 21
275.3517762189937
 31
0.0
  0
LINE
  5
E90
330
1F
100
AcDbEntity
  8
0
 62
     3
100
AcDbLine
 10
1480.639943392225
 20
275.5633571289936
 30
0.0
 11
1482.569455222225
 21
275.5633234489936
 31
0.0
  0
LINE
  5
E91
330
1F
100
AcDbEntity
  8
0
 62
     3
100
AcDbLine
 10
1480.639874582225
 20
271.6211457389936
 30
0.0
 11
1480.639870892225
 21
271.4096043689935
 31
0.0
  0
LINE
  5
E92
330
1F
100
AcDbEntity
  8
0
 62
     3
100
AcDbLine
 10
1480.639943392225
 20
275.5633571289936
 30
0.0
 11
1480.639939702225
 21
275.3517762189937
 31
0.0
  0
LINE
  5
E93
330
1F
100
AcDbEntity
  8
0
 62
     3
100
AcDbLine
 10
1477.882754372225
 20
271.6211457389936
 30
0.0
 11
1477.882754372225
 21
271.4095845989934
 31
0.0
  0
LINE
  5
E94
330
1F
100
AcDbEntity
  8
0
 62
     3
100
AcDbLine
 10
1477.447006462225
 20
273.8454726889936
 30
0.0
 11
1478.969436522225
 21
271.4095845989934
 31
0.0
  0
LINE
  5
E95
330
1F
100
AcDbEntity
  8
0
 62
     3
100
AcDbLine
 10
1478.969436522225
 20
271.4095845989934
 30
0.0
 11
1479.988869242225
 21
271.4095845989934
 31
0.0
  0
LINE
  5
E96
330
1F
100
AcDbEntity
  8
0
 62
     3
100
AcDbLine
 10
1480.424617152225
 20
275.5633373589936
 30
0.0
 11
1480.424617152225
 21
275.3517762189937
 31
0.0
  0
LINE
  5
E97
330
1F
100
AcDbEntity
  8
0
 62
     3
100
AcDbLine
 10
1478.885351822225
 20
275.5633373589936
 30
0.0
 11
1480.424617152225
 21
275.5633373589936
 31
0.0
  0
LINE
  5
E98
330
1F
100
AcDbEntity
  8
0
 62
     3
100
AcDbLine
 10
1478.885351822225
 20
275.5633373589936
 30
0.0
 11
1478.885351822225
 21
275.3517762189937
 31
0.0
  0
LINE
  5
E99
330
1F
100
AcDbEntity
  8
0
 62
     3
100
AcDbLine
 10
1479.321099732225
 20
273.6819710189936
 30
0.0
 11
1478.086453062225
 21
275.5633373589936
 31
0.0
  0
LINE
  5
E9A
330
1F
100
AcDbEntity
  8
0
 62
     3
100
AcDbLine
 10
1476.343489042225
 20
275.5633373589936
 30
0.0
 11
1478.086453062225
 21
275.5633373589936
 31
0.0
  0
LINE
  5
E9B
330
1F
100
AcDbEntity
  8
0
 62
     3
100
AcDbLine
 10
1486.259703402225
 20
275.5632386389937
 30
0.0
 11
1488.211965942225
 21
275.5632386389937
 31
0.0
  0
LINE
  5
E9C
330
1F
100
AcDbEntity
  8
0
 62
     3
100
AcDbLine
 10
1486.259703402225
 20
275.3517762189937
 30
0.0
 11
1486.259703402225
 21
275.5632386389937
 31
0.0
  0
LINE
  5
E9D
330
1F
100
AcDbEntity
  8
0
 62
     3
100
AcDbLine
 10
1486.259703402225
 20
271.4094858889937
 30
0.0
 11
1486.259703402225
 21
271.6211457389936
 31
0.0
  0
LINE
  5
E9E
330
1F
100
AcDbEntity
  8
0
 62
     3
100
AcDbLine
 10
1486.259703402225
 20
271.4094858889937
 30
0.0
 11
1488.211965942225
 21
271.4094858889937
 31
0.0
  0
LINE
  5
E9F
330
1F
100
AcDbEntity
  8
0
 62
     3
100
AcDbLine
 10
1488.415692232225
 20
271.6211457389936
 30
0.0
 11
1488.415692232225
 21
271.4094858889937
 31
0.0
  0
LINE
  5
EA0
330
1F
100
AcDbEntity
  8
0
 62
     3
100
AcDbLine
 10
1488.211965942225
 20
271.6211457389936
 30
0.0
 11
1488.211965942225
 21
271.4094858889937
 31
0.0
  0
LINE
  5
EA1
330
1F
100
AcDbEntity
  8
0
 62
     3
100
AcDbLine
 10
1488.211965942225
 20
275.3517762189937
 30
0.0
 11
1488.211965942225
 21
275.5632386389937
 31
0.0
  0
LINE
  5
EA2
330
1F
100
AcDbEntity
  8
0
 62
     3
100
AcDbLine
 10
1488.415692232225
 20
275.3517762189937
 30
0.0
 11
1488.415692232225
 21
275.5632386389937
 31
0.0
  0
LINE
  5
EA3
330
1F
100
AcDbEntity
  8
0
 62
     3
100
AcDbLine
 10
1476.343489042225
 20
271.6211457389936
 30
0.0
 11
1476.343489042225
 21
271.4095845989934
 31
0.0
  0
LINE
  5
EA4
330
1F
100
AcDbEntity
  8
0
 62
     3
100
AcDbLine
 10
1476.343489042225
 20
275.5633373589936
 30
0.0
 11
1476.343489042225
 21
275.3517762189937
 31
0.0
  0
ARC
  5
EA5
330
1F
100
AcDbEntity
  8
0
 62
     3
100
AcDbCircle
 10
1494.913082712225
 20
273.9222088889936
 30
0.0
 40
1.641128469999999
100
AcDbArc
 50
17.30874897998889
 51
23.76507095999288
  0
ARC
  5
EA6
330
1F
100
AcDbEntity
  8
0
 62
     3
100
AcDbCircle
 10
1493.514809312225
 20
273.4864609789936
 30
0.0
 40
3.105725599999998
100
AcDbArc
 50
342.6912510200111
 51
17.30856644000001
  0
ARC
  5
EA7
330
1F
100
AcDbEntity
  8
0
 62
     3
100
AcDbCircle
 10
1494.913082712225
 20
273.0507130789937
 30
0.0
 40
1.641128469999999
100
AcDbArc
 50
336.2349290400022
 51
342.6912510200111
  0
ARC
  5
EA8
330
1F
100
AcDbEntity
  8
0
 62
     3
100
AcDbCircle
 10
1494.703082712225
 20
273.9222088889936
 30
0.0
 40
1.641128469999999
100
AcDbArc
 50
17.30874897998889
 51
90.0
  0
ARC
  5
EA9
330
1F
100
AcDbEntity
  8
0
 62
     3
100
AcDbCircle
 10
1493.304809312225
 20
273.4864609789936
 30
0.0
 40
3.105725599999998
100
AcDbArc
 50
342.6912510200111
 51
17.30856644000001
  0
ARC
  5
EAA
330
1F
100
AcDbEntity
  8
0
 62
     3
100
AcDbCircle
 10
1494.703082712225
 20
273.0507130789937
 30
0.0
 40
1.641128469999999
100
AcDbArc
 50
270.0
 51
342.6912510200111
  0
ARC
  5
EAB
330
1F
100
AcDbEntity
  8
0
 62
     3
100
AcDbCircle
 10
1484.579142342225
 20
273.4864609789936
 30
0.0
 40
2.076876379999998
100
AcDbArc
 50
46.75287960999254
 51
89.74999828999569
  0
ARC
  5
EAC
330
1F
100
AcDbEntity
  8
0
 62
     3
100
AcDbCircle
 10
1484.579142342225
 20
273.4864609789936
 30
0.0
 40
2.076876379999998
100
AcDbArc
 50
273.976333149997
 51
312.8231203899976
  0
ARC
  5
EAD
330
1F
100
AcDbEntity
  8
0
 62
     3
100
AcDbCircle
 10
1496.020950282225
 20
273.4543994489936
 30
0.0
 40
2.755888999999998
100
AcDbArc
 50
0.6665840599981216
 51
23.90392827000115
  0
ARC
  5
EAE
330
1F
100
AcDbEntity
  8
0
 62
     3
100
AcDbCircle
 10
1499.936512562225
 20
273.4543994489936
 30
0.0
 40
2.755888999999998
100
AcDbArc
 50
156.0960717299988
 51
179.3334159400019
  0
ARC
  5
EAF
330
1F
100
AcDbEntity
  8
0
 62
     3
100
AcDbCircle
 10
1496.020950282225
 20
273.5185225089937
 30
0.0
 40
2.755888999999998
100
AcDbArc
 50
336.0960717299989
 51
359.3334159400019
  0
ARC
  5
EB0
330
1F
100
AcDbEntity
  8
0
 62
     3
100
AcDbCircle
 10
1499.936512562225
 20
273.5185225089937
 30
0.0
 40
2.755888999999998
100
AcDbArc
 50
180.6665840599981
 51
203.9039282700011
  0
LINE
  5
EB1
330
1F
100
AcDbEntity
  8
0
 62
     3
100
AcDbLine
 10
1504.586799652225
 20
273.5643321189936
 30
0.0
 11
1619.259137022226
 21
273.5643321189936
 31
0.0
  0
LINE
  5
EB2
330
1F
100
AcDbEntity
  8
0
 62
     3
100
AcDbLine
 10
1471.174053132225
 20
273.5643321189936
 30
0.0
 11
1439.259137022225
 21
273.5643321189936
 31
0.0
  0
TEXT
  5
EB3
330
1F
100
AcDbEntity
  8
0
 62
     3
100
AcDbText
 10
1606.759137022225
 20
264.0643321189934
 30
0.0
 40
3.2
  1
担　当
  7
高3.2
100
AcDbText
  0
TEXT
  5
EB4
330
1F
100
AcDbEntity
  8
0
 62
     3
100
AcDbText
 10
1562.759137022225
 20
264.0643321189934
 30
0.0
 40
3.2
  1
変更・追記内容
  7
高3.2
100
AcDbText
  0
TEXT
  5
EB5
330
1F
100
AcDbEntity
  8
0
 62
     3
100
AcDbText
 10
1537.872652022565
 20
259.3937936090854
 30
0.0
 40
2.0
  1
1
  7
高2
100
AcDbText
  0
TEXT
  5
EB6
330
1F
100
AcDbEntity
  8
0
 62
     3
100
AcDbText
 10
1537.564140545807
 20
254.2239768968124
 30
0.0
 40
2.0
  1
2
  7
高2
100
AcDbText
  0
TEXT
  5
EB7
330
1F
100
AcDbEntity
  8
0
 62
     3
100
AcDbText
 10
1544.759137022225
 20
264.0643321189934
 30
0.0
 40
3.2
  1
日　付
  7
高3.2
100
AcDbText
  0
TEXT
  5
EB8
330
1F
100
AcDbEntity
  8
0
 62
     3
100
AcDbText
 10
1544.759137022225
 20
269.0643321189934
 30
0.0
 40
3.2
  1
図　　　　面　　　　略　　　　歴
  7
高3.2
100
AcDbText
  0
TEXT
  5
EB9
330
1F
100
AcDbEntity
  8
0
 62
     3
100
AcDbText
 10
1534.759137022225
 20
264.0643321189934
 30
0.0
 40
3.2
  1
記号
  7
高3.2
100
AcDbText
  0
LINE
  5
EBA
330
1F
100
AcDbEntity
  8
0
 62
     7
100
AcDbLine
 10
1538.259137022226
 20
257.3552281189936
 30
0.0
 11
1536.359137022225
 21
254.0643321189934
 31
0.0
  0
LINE
  5
EBB
330
1F
100
AcDbEntity
  8
0
 62
     7
100
AcDbLine
 10
1538.259137022226
 20
257.3552281189936
 30
0.0
 11
1540.159137022225
 21
254.0643321189934
 31
0.0
  0
LINE
  5
EBC
330
1F
100
AcDbEntity
  8
0
 62
     7
100
AcDbLine
 10
1536.359137022225
 20
254.0643321189934
 30
0.0
 11
1540.159137022225
 21
254.0643321189934
 31
0.0
  0
LINE
  5
EBD
330
1F
100
AcDbEntity
  8
0
 62
     7
100
AcDbLine
 10
1538.259137022226
 20
262.3552291189938
 30
0.0
 11
1536.359137022225
 21
259.0643321189936
 31
0.0
  0
LINE
  5
EBE
330
1F
100
AcDbEntity
  8
0
 62
     7
100
AcDbLine
 10
1538.259137022226
 20
262.3552291189938
 30
0.0
 11
1540.159137022225
 21
259.0643321189936
 31
0.0
  0
LINE
  5
EBF
330
1F
100
AcDbEntity
  8
0
 62
     7
100
AcDbLine
 10
1536.359137022225
 20
259.0643321189936
 30
0.0
 11
1540.159137022225
 21
259.0643321189936
 31
0.0
  0
LINE
  5
EC0
330
1F
100
AcDbEntity
  8
0
 62
     3
100
AcDbLine
 10
1533.259137022225
 20
268.5643321189934
 30
0.0
 11
1619.259137022226
 21
268.5643321189934
 31
0.0
  0
LINE
  5
EC1
330
1F
100
AcDbEntity
  8
0
 62
     3
100
AcDbLine
 10
1533.259137022225
 20
263.5643321189937
 30
0.0
 11
1619.259137022226
 21
263.5643321189937
 31
0.0
  0
LINE
  5
EC2
330
1F
100
AcDbEntity
  8
0
 62
     7
100
AcDbLine
 10
1533.259137022225
 20
258.5643321189934
 30
0.0
 11
1619.259137022226
 21
258.5643321189934
 31
0.0
  0
LINE
  5
EC3
330
1F
100
AcDbEntity
  8
0
 62
     3
100
AcDbLine
 10
1533.259137022225
 20
253.5643321189934
 30
0.0
 11
1619.259137022226
 21
253.5643321189934
 31
0.0
  0
LINE
  5
EC4
330
1F
100
AcDbEntity
  8
0
 62
     7
100
AcDbLine
 10
1605.259137022225
 20
253.5643321189934
 30
0.0
 11
1605.259137022225
 21
268.5643321189934
 31
0.0
  0
LINE
  5
EC5
330
1F
100
AcDbEntity
  8
0
 62
     7
100
AcDbLine
 10
1561.259137022226
 20
253.5643321189934
 30
0.0
 11
1561.259137022226
 21
268.5643321189934
 31
0.0
  0
LINE
  5
EC6
330
1F
100
AcDbEntity
  8
0
 62
     7
100
AcDbLine
 10
1543.259137022225
 20
253.5643321189934
 30
0.0
 11
1543.259137022225
 21
268.5643321189934
 31
0.0
  0
LINE
  5
EC7
330
1F
100
AcDbEntity
  8
0
 62
     3
100
AcDbLine
 10
1533.259137022225
 20
253.5643321189934
 30
0.0
 11
1533.259137022225
 21
273.5643321189936
 31
0.0
  0
LINE
  5
EC8
330
1F
100
AcDbEntity
  8
0
 62
     7
100
AcDbLine
 10
1539.102415939688
 20
98.80072471100334
 30
0.0
 11
1615.002415939688
 21
98.80072471100334
 31
0.0
  0
LINE
  5
EC9
330
1F
100
AcDbEntity
  8
0
 62
     7
100
AcDbLine
 10
1539.102415939688
 20
109.8007247110033
 30
0.0
 11
1615.002415939688
 21
109.8007247110033
 31
0.0
  0
LINE
  5
ECA
330
1F
100
AcDbEntity
  8
0
 62
     7
100
AcDbLine
 10
1549.493406409356
 20
115.3007247110033
 30
0.0
 11
1615.002415939688
 21
115.3007247110033
 31
0.0
  0
LINE
  5
ECB
330
1F
100
AcDbEntity
  8
0
 62
     7
100
AcDbLine
 10
1549.493406409356
 20
120.8007247110032
 30
0.0
 11
1615.002415939688
 21
120.8007247110032
 31
0.0
  0
LINE
  5
ECC
330
1F
100
AcDbEntity
  8
0
 62
     7
100
AcDbLine
 10
1549.493406409356
 20
126.3007247110033
 30
0.0
 11
1615.002415939688
 21
126.3007247110033
 31
0.0
  0
LINE
  5
ECD
330
1F
100
AcDbEntity
  8
0
 62
     7
100
AcDbLine
 10
1549.493406409356
 20
131.8007247110033
 30
0.0
 11
1615.002415939688
 21
131.8007247110033
 31
0.0
  0
LINE
  5
ECE
330
1F
100
AcDbEntity
  8
0
 62
     7
100
AcDbLine
 10
1539.102415939688
 20
137.3007247110033
 30
0.0
 11
1615.002415939688
 21
137.3007247110033
 31
0.0
  0
LINE
  5
ECF
330
1F
100
AcDbEntity
  8
0
 62
     7
100
AcDbLine
 10
1539.102415939688
 20
148.3007247110034
 30
0.0
 11
1615.002415939688
 21
148.3007247110034
 31
0.0
  0
LINE
  5
ED0
330
1F
100
AcDbEntity
  8
0
 62
     7
100
AcDbLine
 10
1539.102415939688
 20
153.8007247110035
 30
0.0
 11
1615.002415939688
 21
153.8007247110035
 31
0.0
  0
LINE
  5
ED1
330
1F
100
AcDbEntity
  8
0
 62
     7
100
AcDbLine
 10
1539.102415939688
 20
159.3007247110034
 30
0.0
 11
1615.002415939688
 21
159.3007247110034
 31
0.0
  0
LINE
  5
ED2
330
1F
100
AcDbEntity
  8
0
 62
     7
100
AcDbLine
 10
1539.102415939688
 20
164.8007247110034
 30
0.0
 11
1615.002415939688
 21
164.8007247110034
 31
0.0
  0
LINE
  5
ED3
330
1F
100
AcDbEntity
  8
0
 62
     7
100
AcDbLine
 10
1539.102415939688
 20
170.3007247110035
 30
0.0
 11
1615.002415939688
 21
170.3007247110035
 31
0.0
  0
LINE
  5
ED4
330
1F
100
AcDbEntity
  8
0
 62
     7
100
AcDbLine
 10
1539.102415939688
 20
175.8007247110033
 30
0.0
 11
1615.002415939688
 21
175.8007247110033
 31
0.0
  0
TEXT
  5
ED5
330
1F
100
AcDbEntity
  8
0
 62
     3
100
AcDbText
 10
1565.530511512451
 20
94.30072471100334
 30
0.0
 40
3.2
  1
433g
 41
0.8
  7
高3.2
100
AcDbText
  0
TEXT
  5
ED6
330
1F
100
AcDbEntity
  8
0
 62
     3
100
AcDbText
 10
1540.602415939688
 20
94.30072471100334
 30
0.0
 40
3.2
  1
質　　　量
  7
高3.2
100
AcDbText
  0
TEXT
  5
ED7
330
1F
100
AcDbEntity
  8
0
 62
     3
100
AcDbText
 10
1540.602415939688
 20
105.3007247110033
 30
0.0
 40
3.2
  1
球　寿　命
  7
高3.2
100
AcDbText
  0
TEXT
  5
ED8
330
1F
100
AcDbEntity
  8
0
 62
     3
100
AcDbText
 10
1540.602415939688
 20
99.80072471100335
 30
0.0
 40
3.2
  1
使用環境温度
  7
高3.2
100
AcDbText
  0
TEXT
  5
ED9
330
1F
100
AcDbEntity
  8
0
 62
     3
100
AcDbText
 10
1540.602415939688
 20
143.8007247110034
 30
0.0
 40
3.2
  1
定格消費電力
  7
高3.2
100
AcDbText
  0
TEXT
  5
EDA
330
1F
100
AcDbEntity
  8
0
 62
     3
100
AcDbText
 10
1540.602415939688
 20
149.3007247110034
 30
0.0
 40
3.2
  1
定格　電流
  7
高3.2
100
AcDbText
  0
TEXT
  5
EDB
330
1F
100
AcDbEntity
  8
0
 62
     3
100
AcDbText
 10
1540.602415939688
 20
154.8007247110034
 30
0.0
 40
3.2
  1
入力電圧範囲
 41
0.9
  7
高3.2
100
AcDbText
  0
TEXT
  5
EDC
330
1F
100
AcDbEntity
  8
0
 62
     3
100
AcDbText
 10
1540.602415939688
 20
160.3007247110034
 30
0.0
 40
3.2
  1
周　波　数
  7
高3.2
100
AcDbText
  0
TEXT
  5
EDD
330
1F
100
AcDbEntity
  8
0
 62
     3
100
AcDbText
 10
1540.602415939688
 20
165.8007247110034
 30
0.0
 40
3.2
  1
定格　電圧
  7
高3.2
100
AcDbText
  0
TEXT
  5
EDE
330
1F
100
AcDbEntity
  8
0
 62
     3
100
AcDbText
 10
1540.602415939688
 20
182.3007247110033
 30
0.0
 40
3.2
  1
光源色[色温度]
 41
0.8
  7
高3.2
100
AcDbText
  0
TEXT
  5
EDF
330
1F
100
AcDbEntity
  8
0
 62
     3
100
AcDbText
 10
1540.602415939688
 20
187.8007247110033
 30
0.0
 40
3.2
  1
定格　光束
  7
高3.2
100
AcDbText
  0
TEXT
  5
EE0
330
1F
100
AcDbEntity
  8
0
 62
     3
100
AcDbText
 10
1540.602415939688
 20
193.3007247110032
 30
0.0
 40
3.2
  1
光　　　源
  7
高3.2
100
AcDbText
  0
TEXT
  5
EE1
330
1F
100
AcDbEntity
  8
0
 62
     3
100
AcDbText
 10
1540.602415939688
 20
132.8007247110031
 30
0.0
 40
3.2
  1
照度
  7
高3.2
100
AcDbText
  0
LINE
  5
EE2
330
1F
100
AcDbEntity
  8
0
 62
     7
100
AcDbLine
 10
1539.102415939689
 20
186.8007247110033
 30
0.0
 11
1615.002415939688
 21
186.8007247110033
 31
0.0
  0
LINE
  5
EE3
330
1F
100
AcDbEntity
  8
0
 62
     7
100
AcDbLine
 10
1539.102415939689
 20
192.3007247110034
 30
0.0
 11
1615.002415939688
 21
192.3007247110034
 31
0.0
  0
LINE
  5
EE4
330
1F
100
AcDbEntity
  8
0
 62
     7
100
AcDbLine
 10
1539.102415939689
 20
208.8007247110034
 30
0.0
 11
1615.002415939689
 21
208.8007247110034
 31
0.0
  0
LINE
  5
EE5
330
1F
100
AcDbEntity
  8
0
100
AcDbLine
 10
1549.493406409356
 20
137.3007247110033
 30
0.0
 11
1549.493406409356
 21
109.8007247110033
 31
0.0
  0
TEXT
  5
EE6
330
1F
100
AcDbEntity
  8
0
 62
     3
100
AcDbText
 10
1550.993406409356
 20
132.8007247110031
 30
0.0
 40
3.2
  1
1m
  7
高3.2
100
AcDbText
  0
TEXT
  5
EE7
330
1F
100
AcDbEntity
  8
0
 62
     3
100
AcDbText
 10
1550.993406409356
 20
127.3007247110033
 30
0.0
 40
3.2
  1
2m
  7
高3.2
100
AcDbText
  0
TEXT
  5
EE8
330
1F
100
AcDbEntity
  8
0
 62
     3
100
AcDbText
 10
1550.993406409356
 20
121.8007247110033
 30
0.0
 40
3.2
  1
3m
  7
高3.2
100
AcDbText
  0
TEXT
  5
EE9
330
1F
100
AcDbEntity
  8
0
 62
     3
100
AcDbText
 10
1550.993406409356
 20
116.3007247110033
 30
0.0
 40
3.2
  1
4m
  7
高3.2
100
AcDbText
  0
TEXT
  5
EEA
330
1F
100
AcDbEntity
  8
0
 62
     3
100
AcDbText
 10
1550.993406409356
 20
110.8007247110033
 30
0.0
 40
3.2
  1
5m
  7
高3.2
100
AcDbText
  0
LINE
  5
EEB
330
1F
100
AcDbEntity
  8
0
 62
     3
100
AcDbLine
 10
1539.102415939688
 20
93.30072471100335
 30
0.0
 11
1615.002415939688
 21
93.30072471100335
 31
0.0
  0
TEXT
  5
EEC
330
1F
100
AcDbEntity
  8
0
 62
     3
100
AcDbText
 10
1565.530511512452
 20
193.3007247110032
 30
0.0
 40
3.2
  1
LED
 41
0.8
  7
高3.2
100
AcDbText
  0
TEXT
  5
EED
330
1F
100
AcDbEntity
  8
0
 62
     3
100
AcDbText
 10
1565.530511512452
 20
187.8007247110033
 30
0.0
 40
3.2
  1
2500Lm
 41
0.8
  7
高3.2
100
AcDbText
  0
TEXT
  5
EEE
330
1F
100
AcDbEntity
  8
0
 62
     3
100
AcDbText
 10
1565.530511512452
 20
182.3007247110033
 30
0.0
 40
3.2
  1
電球色 [3000K]
 41
0.8
  7
高3.2
100
AcDbText
  0
TEXT
  5
EEF
330
1F
100
AcDbEntity
  8
0
 62
     3
100
AcDbText
 10
1565.530511512451
 20
165.8007247110034
 30
0.0
 40
3.2
  1
AC100V (200V)
 41
0.8
  7
高3.2
100
AcDbText
  0
TEXT
  5
EF0
330
1F
100
AcDbEntity
  8
0
 62
     3
100
AcDbText
 10
1565.530511512451
 20
160.3007247110034
 30
0.0
 40
3.2
  1
50/60Hz
 41
0.8
  7
高3.2
100
AcDbText
  0
TEXT
  5
EF1
330
1F
100
AcDbEntity
  8
0
 62
     3
100
AcDbText
 10
1565.530511512451
 20
154.8007247110034
 30
0.0
 40
3.2
  1
AC100～240V
 41
0.8
  7
高3.2
100
AcDbText
  0
TEXT
  5
EF2
330
1F
100
AcDbEntity
  8
0
 62
     3
100
AcDbText
 10
1565.530511512451
 20
149.3007247110034
 30
0.0
 40
3.2
  1
0.22A (0.12A)
 41
0.8
  7
高3.2
100
AcDbText
  0
TEXT
  5
EF3
330
1F
100
AcDbEntity
  8
0
 62
     3
100
AcDbText
 10
1565.530511512451
 20
143.8007247110034
 30
0.0
 40
3.2
  1
21W (22W)
 41
0.8
  7
高3.2
100
AcDbText
  0
TEXT
  5
EF4
330
1F
100
AcDbEntity
  8
0
 62
     3
100
AcDbText
 10
1565.530511512451
 20
132.8007247110031
 30
0.0
 40
3.2
  1
750Lx
 41
0.8
  7
高3.2
100
AcDbText
  0
TEXT
  5
EF5
330
1F
100
AcDbEntity
  8
0
 62
     3
100
AcDbText
 10
1565.530511512451
 20
127.3007247110033
 30
0.0
 40
3.2
  1
200Lx
 41
0.8
  7
高3.2
100
AcDbText
  0
TEXT
  5
EF6
330
1F
100
AcDbEntity
  8
0
 62
     3
100
AcDbText
 10
1565.530511512451
 20
121.8007247110033
 30
0.0
 40
3.2
  1
95Lx
 41
0.8
  7
高3.2
100
AcDbText
  0
TEXT
  5
EF7
330
1F
100
AcDbEntity
  8
0
 62
     3
100
AcDbText
 10
1565.530511512451
 20
116.3007247110033
 30
0.0
 40
3.2
  1
55Lx
 41
0.8
  7
高3.2
100
AcDbText
  0
TEXT
  5
EF8
330
1F
100
AcDbEntity
  8
0
 62
     3
100
AcDbText
 10
1565.530511512451
 20
110.8007247110033
 30
0.0
 40
3.2
  1
35Lx
 41
0.8
  7
高3.2
100
AcDbText
  0
TEXT
  5
EF9
330
1F
100
AcDbEntity
  8
0
 62
     3
100
AcDbText
 10
1565.530511512451
 20
105.3007247110033
 30
0.0
 40
3.2
  1
50000時間
 41
0.8
  7
高3.2
100
AcDbText
  0
TEXT
  5
EFA
330
1F
100
AcDbEntity
  8
0
 62
     3
100
AcDbText
 10
1565.530511512451
 20
99.80072471100335
 30
0.0
 40
3.2
  1
-20～45℃
 41
0.8
  7
高3.2
100
AcDbText
  0
LINE
  5
EFB
330
1F
100
AcDbEntity
  8
0
 62
     3
100
AcDbLine
 10
1539.102415939689
 20
214.3007247110032
 30
0.0
 11
1539.102415939688
 21
93.30072471100335
 31
0.0
  0
LINE
  5
EFC
330
1F
100
AcDbEntity
  8
0
 62
     7
100
AcDbLine
 10
1564.030511512451
 20
93.30072471100335
 30
0.0
 11
1564.030511512453
 21
214.3007247110032
 31
0.0
  0
LINE
  5
EFD
330
1F
100
AcDbEntity
  8
0
 62
     3
100
AcDbLine
 10
1615.002415939688
 20
93.30072471100335
 30
0.0
 11
1615.002415939689
 21
214.3007247110032
 31
0.0
  0
TEXT
  5
EFE
330
1F
100
AcDbEntity
  8
0
 62
     3
100
AcDbText
 10
1558.270793421819
 20
218.9653754002105
 30
0.0
 40
4.5
  1
主　　仕　　様
  7
高4.5
100
AcDbText
  0
LINE
  5
EFF
330
1F
100
AcDbEntity
  8
0
100
AcDbLine
 10
1557.169879054063
 20
218.0996223163677
 30
0.0
 11
1595.762099333751
 21
218.0996223163677
 31
0.0
  0
TEXT
  5
F00
330
1F
100
AcDbEntity
  8
0
 62
     7
100
AcDbText
 10
1538.794453244056
 20
77.55301206878606
 30
0.0
 40
2.5
  1
注４）照度は当社実測値の為、使用環境下により異なります。
 41
0.8
  7
高2.5
100
AcDbText
  0
TEXT
  5
F01
330
1F
100
AcDbEntity
  8
0
 62
     7
100
AcDbText
 10
1538.794453244056
 20
74.55301206878606
 30
0.0
 40
2.5
  1
注５）球寿命は光束が70%%%に低下するまでの時間です。
 41
0.8
  7
高2.5
100
AcDbText
  0
TEXT
  5
F02
330
1F
100
AcDbEntity
  8
0
 62
     7
100
AcDbText
 10
1538.794453244056
 20
71.55301206878608
 30
0.0
 40
2.5
  1
　　　表示は設計値であり、製品の寿命を保証するものではありません。
 41
0.8
  7
高2.5
100
AcDbText
  0
TEXT
  5
F03
330
1F
100
AcDbEntity
  8
0
 62
     7
100
AcDbText
 10
1538.794453244056
 20
80.55301206878608
 30
0.0
 40
2.5
  1
注３）()内数値は入力200Vでの値です。
 41
0.8
  7
高2.5
100
AcDbText
  0
TEXT
  5
F04
330
1F
100
AcDbEntity
  8
0
 62
     7
100
AcDbText
 10
1538.794453244056
 20
83.55301206878605
 30
0.0
 40
2.5
  1
注２）LEDの光源色、明るさにはバラツキがあります。
 41
0.8
  7
高2.5
100
AcDbText
  0
TEXT
  5
F05
330
1F
100
AcDbEntity
  8
0
 62
     7
100
AcDbText
 10
1538.794453244056
 20
86.55301206878609
 30
0.0
 40
2.5
  1
注１）当器具のLED素子交換はできません。
 41
0.8
  7
高2.5
100
AcDbText
  0
TEXT
  5
F06
330
1F
100
AcDbEntity
  8
0
 62
     7
100
AcDbText
 10
1538.794453244056
 20
68.55301206878607
 30
0.0
 40
2.5
  1
注６）安全にご使用いただくため、取扱説明書をご参照ください。
 41
0.8
  7
高2.5
100
AcDbText
  0
TEXT
  5
F07
330
1F
100
AcDbEntity
  8
0
 62
     3
100
AcDbText
 10
1540.602415939688
 20
209.8007247110032
 30
0.0
 40
3.2
  1
型　　　式
  7
高3.2
100
AcDbText
  0
LINE
  5
F08
330
1F
100
AcDbEntity
  8
0
 62
     3
100
AcDbLine
 10
1539.102415939689
 20
214.3007247110032
 30
0.0
 11
1615.002415939689
 21
214.3007247110032
 31
0.0
  0
TEXT
  5
F09
330
1F
100
AcDbEntity
  8
0
 62
     3
100
AcDbText
 10
1565.530511512453
 20
209.8007247110032
 30
0.0
 40
3.2
  1
L20W-JW110-30K
 41
0.8
  7
高3.2
100
AcDbText
  0
TEXT
  5
F0A
330
1F
100
AcDbEntity
  8
0
 62
     7
100
AcDbText
 10
1538.794453244056
 20
65.55301206878596
 30
0.0
 40
2.5
  1
注７）仕様変更は予告なく行う場合があります。予めご了承ください。
 41
0.8
  7
高2.5
100
AcDbText
  0
TEXT
  5
F0B
330
1F
100
AcDbEntity
  8
0
 62
     3
100
AcDbText
 10
1540.602415939688
 20
198.8007247110034
 30
0.0
 40
3.2
  1
口金サイズ
  7
高3.2
100
AcDbText
  0
LINE
  5
F0C
330
1F
100
AcDbEntity
  8
0
 62
     7
100
AcDbLine
 10
1539.102415939689
 20
197.8007247110034
 30
0.0
 11
1615.002415939688
 21
197.8007247110034
 31
0.0
  0
TEXT
  5
F0D
330
1F
100
AcDbEntity
  8
0
 62
     3
100
AcDbText
 10
1565.530511512452
 20
198.8007247110034
 30
0.0
 40
3.2
  1
E26
 41
0.8
  7
高3.2
100
AcDbText
  0
LINE
  5
F0E
330
1F
100
AcDbEntity
  8
0
 62
     7
100
AcDbLine
 10
1539.102415939688
 20
104.3007247110033
 30
0.0
 11
1615.002415939688
 21
104.3007247110033
 31
0.0
  0
TEXT
  5
F10
330
1F
100
AcDbEntity
  8
0
 62
     3
100
AcDbText
 10
1540.602415939689
 20
204.3007247110034
 30
0.0
 40
3.2
  1
使用　場所
  7
高3.2
100
AcDbText
  0
TEXT
  5
F11
330
1F
100
AcDbEntity
  8
0
 62
     3
100
AcDbText
 10
1565.530511512454
 20
204.3007247110034
 30
0.0
 40
3.2
  1
屋外型
  7
高3.2
100
AcDbText
  0
LINE
  5
F12
330
1F
100
AcDbEntity
  8
0
 62
     7
100
AcDbLine
 10
1539.102415939689
 20
203.3007247110035
 30
0.0
 11
1615.002415939689
 21
203.3007247110035
 31
0.0
  0
LINE
  5
F13
330
1F
100
AcDbEntity
  8
0
  6
CENTER
100
AcDbLine
 10
1489.190356612622
 20
200.5249578925063
 30
0.0
 11
1489.190356612622
 21
110.0665921971895
 31
0.0
  0
TEXT
  5
F21
330
1F
100
AcDbEntity
  8
0
 62
     3
100
AcDbText
 10
1540.602415939688
 20
171.3007247110033
 30
0.0
 40
3.2
  1
照射　角度
  7
高3.2
100
AcDbText
  0
TEXT
  5
F22
330
1F
100
AcDbEntity
  8
0
 62
     3
100
AcDbText
 10
1565.530511512451
 20
171.3007247110033
 30
0.0
 40
3.2
  1
110\U+00B0[1/2ビーム角] 170\U+00B0[1/10ビーム角]
 41
0.6
  7
高3.2
100
AcDbText
  0
TEXT
  5
F23
330
1F
100
AcDbEntity
  8
0
 62
     3
100
AcDbText
 10
1540.602415939688
 20
176.8007247110033
 30
0.0
 40
3.2
  1
平均演色評価数
 41
0.8
  7
高3.2
100
AcDbText
  0
LINE
  5
F24
330
1F
100
AcDbEntity
  8
0
 62
     7
100
AcDbLine
 10
1539.102415939689
 20
181.3007247110033
 30
0.0
 11
1615.002415939688
 21
181.3007247110033
 31
0.0
  0
TEXT
  5
F25
330
1F
100
AcDbEntity
  8
0
 62
     3
100
AcDbText
 10
1565.530511512452
 20
176.8007247110033
 30
0.0
 40
3.2
  1
Ra81
 41
0.8
  7
高3.2
100
AcDbText
  0
LINE
  5
F26
330
1F
100
AcDbEntity
  8
0
 62
     7
100
AcDbLine
 10
1539.102415939688
 20
142.8007247110033
 30
0.0
 11
1615.002415939688
 21
142.8007247110033
 31
0.0
  0
TEXT
  5
F27
330
1F
100
AcDbEntity
  8
0
 62
     3
100
AcDbText
 10
1540.602415939688
 20
138.3007247110033
 30
0.0
 40
3.2
  1
固有エネルギー消費効率
 41
0.5
  7
高3.2
100
AcDbText
  0
TEXT
  5
F28
330
1F
100
AcDbEntity
  8
0
 62
     3
100
AcDbText
 10
1565.530511512451
 20
138.3007247110033
 30
0.0
 40
3.2
  1
119.0Lm/W (113.6Lm/W)
 41
0.7
  7
高3.2
100
AcDbText
  0
ARC
  5
F29
330
1F
100
AcDbEntity
  8
0
 62
     3
100
AcDbCircle
 10
1479.819546237292
 20
128.0897528424434
 30
0.0
 40
40.0
100
AcDbArc
 50
10.1758181680144
 51
37.63915830588472
  0
ARC
  5
F2A
330
1F
100
AcDbEntity
  8
0
 62
     3
100
AcDbCircle
 10
1498.561166987952
 20
128.0897528424434
 30
0.0
 40
40.0
100
AcDbArc
 50
142.3608416941153
 51
169.8241818319855
  0
LINE
  5
F2B
330
1F
100
AcDbEntity
  8
0
 62
     3
100
AcDbLine
 10
1519.190355942069
 20
131.656526197457
 30
0.0
 11
1519.190355942069
 21
135.1565267711517
 31
0.0
  0
LINE
  5
F2C
330
1F
100
AcDbEntity
  8
0
 62
     3
100
AcDbLine
 10
1459.190357283174
 20
135.1565267711517
 30
0.0
 11
1459.190357283174
 21
131.656526197457
 31
0.0
  0
ARC
  5
F2D
330
1F
100
AcDbEntity
  8
0
 62
     3
100
AcDbCircle
 10
1518.590356612622
 20
130.9065265327331
 30
0.0
 40
0.5
100
AcDbArc
 50
270.0
 51
0.0
  0
ARC
  5
F2E
330
1F
100
AcDbEntity
  8
0
 62
     3
100
AcDbCircle
 10
1459.790356612622
 20
130.9065265327331
 30
0.0
 40
0.5
100
AcDbArc
 50
180.0
 51
270.0
  0
LINE
  5
F2F
330
1F
100
AcDbEntity
  8
0
 62
     3
100
AcDbLine
 10
1459.290357113301
 20
131.656526197457
 30
0.0
 11
1459.290357113301
 21
130.9065265401837
 31
0.0
  0
LINE
  5
F30
330
1F
100
AcDbEntity
  8
0
 62
     3
100
AcDbLine
 10
1519.090356111943
 20
130.9065265401837
 30
0.0
 11
1519.090356111943
 21
131.656526197457
 31
0.0
  0
LINE
  5
F31
330
1F
100
AcDbEntity
  8
0
 62
     3
100
AcDbLine
 10
1460.690356597721
 20
130.4065264582273
 30
0.0
 11
1461.402406722723
 21
128.4501865326997
 31
0.0
  0
LINE
  5
F32
330
1F
100
AcDbEntity
  8
0
 62
     3
100
AcDbLine
 10
1516.97830650252
 20
128.4501865326997
 30
0.0
 11
1517.690356627523
 21
130.4065264582273
 31
0.0
  0
ARC
  5
F33
330
1F
100
AcDbEntity
  8
0
 62
     3
100
AcDbCircle
 10
1463.751637737735
 20
129.3052367672867
 30
0.0
 40
2.499999999999994
100
AcDbArc
 50
200.0000000000017
 51
226.5012027359662
  0
ARC
  5
F34
330
1F
100
AcDbEntity
  8
0
 62
     3
100
AcDbCircle
 10
1514.629075487507
 20
129.3052367672867
 30
0.0
 40
2.500000000000009
100
AcDbArc
 50
313.4987972640339
 51
339.9999999999983
  0
ARC
  5
F35
330
1F
100
AcDbEntity
  8
0
 62
     3
100
AcDbCircle
 10
1489.190356612622
 20
156.1131801411113
 30
0.0
 40
39.45665360837843
100
AcDbArc
 50
226.5012027359662
 51
313.4987972640339
  0
LINE
  5
F36
330
1F
100
AcDbEntity
  8
0
 62
     3
100
AcDbLine
 10
1486.39644849342
 20
138.15652726289
 30
0.0
 11
1486.39644849342
 21
151.827279087865
 31
0.0
  0
LINE
  5
F37
330
1F
100
AcDbEntity
  8
0
 62
     3
100
AcDbLine
 10
1491.984264731823
 20
151.8265601068374
 30
0.0
 11
1491.984264731823
 21
138.15652726289
 31
0.0
  0
LINE
  5
F38
330
1F
100
AcDbEntity
  8
0
 62
     3
100
AcDbLine
 10
1494.384264845817
 20
148.5810452014733
 30
0.0
 11
1494.384264845817
 21
151.2567471533652
 31
0.0
  0
LINE
  5
F39
330
1F
100
AcDbEntity
  8
0
 62
     3
100
AcDbLine
 10
1483.996448379426
 20
151.255707797372
 30
0.0
 11
1483.996448379426
 21
148.5502641468879
 31
0.0
  0
LINE
  5
F3A
330
1F
100
AcDbEntity
  8
0
 62
     3
100
AcDbLine
 10
1499.490356810807
 20
152.3511256843444
 30
0.0
 11
1499.490356810807
 21
138.15652726289
 31
0.0
  0
LINE
  5
F3B
330
1F
100
AcDbEntity
  8
0
 62
     3
100
AcDbLine
 10
1478.890356414436
 20
138.15652726289
 30
0.0
 11
1478.890356414436
 21
152.349635568225
 31
0.0
  0
ARC
  5
F3C
330
1F
100
AcDbEntity
  8
0
 62
     3
100
AcDbCircle
 10
1497.079909665347
 20
138.2105372519763
 30
0.0
 40
32.19
100
AcDbArc
 50
137.6553040872007
 51
152.836002264238
  0
ARC
  5
F3D
330
1F
100
AcDbEntity
  8
0
 62
     3
100
AcDbCircle
 10
1481.300803559896
 20
138.2105372519766
 30
0.0
 40
32.19
100
AcDbArc
 50
27.16399773576199
 51
42.34469591279927
  0
LINE
  5
F3E
330
1F
100
AcDbEntity
  8
0
 62
     3
100
AcDbLine
 10
1501.89035645914
 20
150.2899784415599
 30
0.0
 11
1501.89035645914
 21
150.7047746151324
 31
0.0
  0
LINE
  5
F3F
330
1F
100
AcDbEntity
  8
0
 62
     3
100
AcDbLine
 10
1476.490356766104
 20
150.7084104984637
 30
0.0
 11
1476.490356766104
 21
150.2851020365592
 31
0.0
  0
ARC
  5
F40
330
1F
100
AcDbEntity
  8
0
 62
     3
100
AcDbCircle
 10
1510.635915107035
 20
164.9452960972876
 30
0.0
 40
7.500000000000013
100
AcDbArc
 50
204.3451593950735
 51
222.3446959127993
  0
ARC
  5
F41
330
1F
100
AcDbEntity
  8
0
 62
     3
100
AcDbCircle
 10
1467.744798118209
 20
164.9452960972878
 30
0.0
 40
7.5
100
AcDbArc
 50
317.6553040872007
 51
335.6548406049265
  0
ARC
  5
F42
330
1F
100
AcDbEntity
  8
0
 62
     3
100
AcDbCircle
 10
1499.518665902095
 20
150.5686848466432
 30
0.0
 40
27.37500000000001
100
AcDbArc
 50
144.6512872097999
 51
155.6548406049264
  0
ARC
  5
F43
330
1F
100
AcDbEntity
  8
0
 62
     3
100
AcDbCircle
 10
1478.862047323149
 20
150.5686848466434
 30
0.0
 40
27.375
100
AcDbArc
 50
24.34515939507349
 51
35.34871279020003
  0
LINE
  5
F44
330
1F
100
AcDbEntity
  8
0
 62
     3
100
AcDbLine
 10
1500.190356553017
 20
166.4065267711517
 30
0.0
 11
1499.477620974599
 21
175.1969341009494
 31
0.0
  0
LINE
  5
F45
330
1F
100
AcDbEntity
  8
0
 62
     3
100
AcDbLine
 10
1478.903092250644
 20
175.1969341009494
 30
0.0
 11
1478.190356672226
 21
166.4065267711517
 31
0.0
  0
ARC
  5
F46
330
1F
100
AcDbEntity
  8
0
 62
     3
100
AcDbCircle
 10
1479.401456915143
 20
175.1565265327333
 30
0.0
 40
0.5000000000000117
100
AcDbArc
 50
90.0
 51
175.3645365731028
  0
ARC
  5
F47
330
1F
100
AcDbEntity
  8
0
 62
     3
100
AcDbCircle
 10
1498.979256310101
 20
175.1565265327333
 30
0.0
 40
0.5
100
AcDbArc
 50
4.635463426897148
 51
90.0
  0
LINE
  5
F48
330
1F
100
AcDbEntity
  8
0
 62
     3
100
AcDbLine
 10
1497.690357074558
 20
175.6565268903609
 30
0.0
 11
1496.190356828689
 21
183.6565282016631
 31
0.0
  0
LINE
  5
F49
330
1F
100
AcDbEntity
  8
0
 62
     3
100
AcDbLine
 10
1482.190356396555
 20
183.6565282016631
 30
0.0
 11
1480.690356150686
 21
175.6565268903609
 31
0.0
  0
ARC
  5
F4A
330
1F
100
AcDbEntity
  8
0
 62
     3
100
AcDbCircle
 10
1510.702572173646
 20
151.9065265327331
 30
0.0
 40
0.9999999999999994
100
AcDbArc
 50
37.63915830588472
 51
62.57479087344434
  0
LINE
  5
F4B
330
1F
100
AcDbEntity
  8
0
 62
     3
100
AcDbLine
 10
1467.678140655576
 20
152.9065254896518
 30
0.0
 11
1467.583315253674
 21
152.902021613681
 31
0.0
  0
LINE
  5
F4E
330
1F
100
AcDbEntity
  8
0
 62
     3
100
AcDbLine
 10
1459.190357283174
 20
135.1565267711517
 30
0.0
 11
1519.190355942069
 21
135.1565267711517
 31
0.0
  0
LINE
  5
F51
330
1F
100
AcDbEntity
  8
0
 62
     3
100
AcDbLine
 10
1459.861686259924
 20
138.15652726289
 30
0.0
 11
1461.331153095185
 21
138.15652726289
 31
0.0
  0
SPLINE
  5
F54
330
1F
100
AcDbEntity
  8
0
 62
     3
100
AcDbSpline
210
0.0
220
0.0
230
1.0
 70
     8
 71
     3
 72
    16
 73
    12
 74
     0
 42
0.0000000001
 43
0.0000000001
 40
0.0
 40
0.0
 40
0.0
 40
0.0
 40
0.2500000000000077
 40
0.2500000000000077
 40
0.3750000000000085
 40
0.3750000000000085
 40
0.5000000000000096
 40
0.5000000000000096
 40
0.7500000000000047
 40
0.7500000000000047
 40
1.0
 40
1.0
 40
1.0
 40
1.0
 10
1467.105015198641
 20
150.3882621347709
 30
0.0
 10
1467.250075006587
 20
150.5536028738984
 30
0.0
 10
1467.390312657234
 20
150.7276412310518
 30
0.0
 10
1467.596517641764
 20
150.9967859508303
 30
0.0
 10
1467.664822103696
 20
151.088381505293
 30
0.0
 10
1467.797521230151
 20
151.2707554558526
 30
0.0
 10
1467.862148747891
 20
151.3618198237418
 30
0.0
 10
1468.051128146199
 20
151.6346510713554
 30
0.0
 10
1468.170810865643
 20
151.8161593212733
 30
0.0
 10
1468.394772989944
 20
152.1778634539807
 30
0.0
 10
1468.495429727514
 20
152.3519777107521
 30
0.0
 10
1468.580078772159
 20
152.5172130376127
 30
0.0
  0
SPLINE
  5
F55
330
1F
100
AcDbEntity
  8
0
 62
     3
100
AcDbSpline
210
0.0
220
0.0
230
1.0
 70
     8
 71
     3
 72
    12
 73
     8
 74
     0
 42
0.0000000001
 43
0.0000000001
 40
0.0
 40
0.0
 40
0.0
 40
0.0
 40
0.5000000000000002
 40
0.5000000000000002
 40
0.7500000000000001
 40
0.7500000000000001
 40
1.0
 40
1.0
 40
1.0
 40
1.0
 10
1461.929688362321
 20
138.1565265327276
 30
0.0
 10
1462.464655842412
 20
140.3448405140029
 30
0.0
 10
1463.16605186781
 20
142.4575885118358
 30
0.0
 10
1464.459760180931
 20
145.5170068500438
 30
0.0
 10
1464.931485120041
 20
146.5184292257255
 30
0.0
 10
1465.957187930238
 20
148.4839274769178
 30
0.0
 10
1466.512493416661
 20
149.4498499556509
 30
0.0
 10
1467.105015198641
 20
150.3882621347709
 30
0.0
  0
LINE
  5
F56
330
1F
100
AcDbEntity
  8
0
 62
     3
100
AcDbLine
 10
1461.929688036858
 20
138.15652726289
 30
0.0
 11
1466.160852268754
 21
138.15652726289
 31
0.0
  0
LINE
  5
F5B
330
1F
100
AcDbEntity
  8
0
 62
     3
100
AcDbLine
 10
1467.285729751407
 20
138.15652726289
 30
0.0
 11
1473.768248960792
 21
138.15652726289
 31
0.0
  0
LINE
  5
F60
330
1F
100
AcDbEntity
  8
0
 62
     3
100
AcDbLine
 10
1475.283792980431
 20
138.15652726289
 30
0.0
 11
1483.235779490738
 21
138.15652726289
 31
0.0
  0
LINE
  5
F65
330
1F
100
AcDbEntity
  8
0
 62
     3
100
AcDbLine
 10
1484.959193312048
 20
138.15652726289
 30
0.0
 11
1493.421519913195
 21
138.15652726289
 31
0.0
  0
LINE
  5
F6A
330
1F
100
AcDbEntity
  8
0
 62
     3
100
AcDbLine
 10
1495.144933734505
 20
138.15652726289
 30
0.0
 11
1503.096920244812
 21
138.15652726289
 31
0.0
  0
LINE
  5
F6F
330
1F
100
AcDbEntity
  8
0
 62
     3
100
AcDbLine
 10
1504.612464264451
 20
138.15652726289
 30
0.0
 11
1511.094983473836
 21
138.15652726289
 31
0.0
  0
LINE
  5
F74
330
1F
100
AcDbEntity
  8
0
 62
     3
100
AcDbLine
 10
1512.219860956489
 20
138.15652726289
 30
0.0
 11
1516.451025188385
 21
138.15652726289
 31
0.0
  0
LINE
  5
F77
330
1F
100
AcDbEntity
  8
0
 62
     3
100
AcDbLine
 10
1517.049560130059
 20
138.15652726289
 30
0.0
 11
1518.519026965319
 21
138.15652726289
 31
0.0
  0
SPLINE
  5
F79
330
1F
100
AcDbEntity
  8
0
 62
     3
100
AcDbSpline
210
0.0
220
0.0
230
1.0
 70
     8
 71
     3
 72
    16
 73
    12
 74
     0
 42
0.0000000001
 43
0.0000000001
 40
0.0
 40
0.0
 40
0.0
 40
0.0
 40
0.1250000000000009
 40
0.1250000000000009
 40
0.2500000000000017
 40
0.2500000000000017
 40
0.5000000000000011
 40
0.5000000000000011
 40
0.7500000000000006
 40
0.7500000000000006
 40
1.0
 40
1.0
 40
1.0
 40
1.0
 10
1511.473668404913
 20
152.5172130376124
 30
0.0
 10
1511.535495801017
 20
152.4345405057431
 30
0.0
 10
1511.598865092657
 20
152.3494907007239
 30
0.0
 10
1511.728002856769
 20
152.1754413539599
 30
0.0
 10
1511.794128343925
 20
152.0859565235191
 30
0.0
 10
1511.993048118614
 20
151.8155701217399
 30
0.0
 10
1512.125224391504
 20
151.6343351459634
 30
0.0
 10
1512.388527933208
 20
151.2699494189758
 30
0.0
 10
1512.520992106443
 20
151.0848909067138
 30
0.0
 10
1512.774445431654
 20
150.7274473345355
 30
0.0
 10
1512.896400913631
 20
150.553739071764
 30
0.0
 10
1513.011559997905
 20
150.3882621347709
 30
0.0
  0
LINE
  5
F7B
330
1F
100
AcDbEntity
  8
0
 62
     3
100
AcDbLine
 10
1459.190357283174
 20
131.656526197457
 30
0.0
 11
1519.190355942069
 21
131.656526197457
 31
0.0
  0
LINE
  5
F7C
330
1F
100
AcDbEntity
  8
0
 62
     3
100
AcDbLine
 10
1518.590356961309
 20
130.4065264582273
 30
0.0
 11
1459.790356263934
 21
130.4065264582273
 31
0.0
  0
LINE
  5
F7D
330
1F
100
AcDbEntity
  8
0
 62
     3
100
AcDbLine
 10
1485.915554726912
 20
150.3882627755042
 30
0.0
 11
1485.915554726912
 21
138.15652726289
 31
0.0
  0
LINE
  5
F7E
330
1F
100
AcDbEntity
  8
0
 62
     3
100
AcDbLine
 10
1492.465158498331
 20
150.3882627755042
 30
0.0
 11
1492.465158498331
 21
138.15652726289
 31
0.0
  0
LINE
  5
F7F
330
1F
100
AcDbEntity
  8
0
 62
     3
100
AcDbLine
 10
1478.037527569054
 20
150.3882627755042
 30
0.0
 11
1478.037527569054
 21
138.15652726289
 31
0.0
  0
LINE
  5
F80
330
1F
100
AcDbEntity
  8
0
 62
     3
100
AcDbLine
 10
1500.343185656189
 20
150.3882627755042
 30
0.0
 11
1500.343185656189
 21
138.15652726289
 31
0.0
  0
LINE
  5
F8B
330
1F
100
AcDbEntity
  8
0
 62
     3
100
AcDbLine
 10
1490.667971007011
 20
152.9065254896518
 30
0.0
 11
1490.667971007011
 21
138.15652726289
 31
0.0
  0
LINE
  5
F8D
330
1F
100
AcDbEntity
  8
0
 62
     3
100
AcDbLine
 10
1487.712742218232
 20
152.9065254896518
 30
0.0
 11
1487.712742218232
 21
138.15652726289
 31
0.0
  0
LINE
  5
F8F
330
1F
100
AcDbEntity
  8
0
 62
     3
100
AcDbLine
 10
1506.876017705022
 20
150.3882627755042
 30
0.0
 11
1506.876017705022
 21
138.15652726289
 31
0.0
  0
LINE
  5
F90
330
1F
100
AcDbEntity
  8
0
 62
     3
100
AcDbLine
 10
1471.504695520221
 20
150.3882627755042
 30
0.0
 11
1471.504695520221
 21
138.15652726289
 31
0.0
  0
LINE
  5
FA4
330
1F
100
AcDbEntity
  8
0
 62
     3
100
AcDbLine
 10
1495.168391421853
 20
152.9065254896518
 30
0.0
 11
1495.168391421853
 21
138.15652726289
 31
0.0
  0
LINE
  5
FA6
330
1F
100
AcDbEntity
  8
0
 62
     3
100
AcDbLine
 10
1483.21232180339
 20
152.9065254896518
 30
0.0
 11
1483.21232180339
 21
138.15652726289
 31
0.0
  0
LINE
  5
FA8
330
1F
100
AcDbEntity
  8
0
 62
     3
100
AcDbLine
 10
1505.617860511362
 20
152.6361625462409
 30
0.0
 11
1505.617860511362
 21
138.15652726289
 31
0.0
  0
LINE
  5
FAB
330
1F
100
AcDbEntity
  8
0
 62
     3
100
AcDbLine
 10
1472.762852713882
 20
152.6361625462409
 30
0.0
 11
1472.762852713882
 21
138.15652726289
 31
0.0
  0
LINE
  5
FB6
330
1F
100
AcDbEntity
  8
0
 62
     3
100
AcDbLine
 10
1501.19035671693
 20
166.4065267711517
 30
0.0
 11
1477.190356508314
 21
166.4065267711517
 31
0.0
  0
LINE
  5
FB7
330
1F
100
AcDbEntity
  8
0
 62
     3
100
AcDbLine
 10
1467.105015919029
 20
150.3882627755042
 30
0.0
 11
1467.105015919029
 21
142.0755822010996
 31
0.0
  0
LINE
  5
FB8
330
1F
100
AcDbEntity
  8
0
 62
     3
100
AcDbLine
 10
1511.588144854127
 20
140.9065272479888
 30
0.0
 11
1515.250755280672
 21
140.9065272479888
 31
0.0
  0
LINE
  5
FBD
330
1F
100
AcDbEntity
  8
0
 62
     3
100
AcDbLine
 10
1479.401456930159
 20
175.6565268903609
 30
0.0
 11
1498.979256310101
 21
175.6565265327333
 31
0.0
  0
SPLINE
  5
FBE
330
1F
100
AcDbEntity
  8
0
 62
     3
100
AcDbSpline
210
0.0
220
0.0
230
1.0
 70
     8
 71
     3
 72
     8
 73
     4
 74
     0
 42
0.0000000001
 43
0.0000000001
 40
0.0
 40
0.0
 40
0.0
 40
0.0
 40
1.0
 40
1.0
 40
1.0
 40
1.0
 10
1468.64837272127
 20
152.6361635608634
 30
0.0
 10
1468.626035271429
 20
152.6011005276391
 30
0.0
 10
1468.602811062341
 20
152.5615865732422
 30
0.0
 10
1468.580078772158
 20
152.5172130376124
 30
0.0
  0
LINE
  5
FBF
330
1F
100
AcDbEntity
  8
0
 62
     3
100
AcDbLine
 10
1468.648372024714
 20
152.6361625462409
 30
0.0
 11
1468.648372024714
 21
146.5746574078193
 31
0.0
  0
LINE
  5
FC4
330
1F
100
AcDbEntity
  8
0
 62
     3
100
AcDbLine
 10
1496.190356828689
 20
183.6565282016631
 30
0.0
 11
1482.190356396555
 21
183.6565282016631
 31
0.0
  0
ARC
  5
FC7
330
1F
100
AcDbEntity
  8
0
 62
     3
100
AcDbCircle
 10
1508.35859285208
 20
151.935773906164
 30
0.0
 40
0.9712502188386331
100
AcDbArc
 50
358.2744232031414
 51
88.16395982530194
  0
LINE
  5
FC8
330
1F
100
AcDbEntity
  8
0
 62
     3
100
AcDbLine
 10
1509.329402625977
 20
151.9065271883842
 30
0.0
 11
1509.329402625977
 21
147.5476152151161
 31
0.0
  0
ARC
  5
FCB
330
1F
100
AcDbEntity
  8
0
 62
     3
100
AcDbCircle
 10
1508.95712586962
 20
151.9357702897865
 30
0.0
 40
0.9712538950090999
100
AcDbArc
 50
358.2746431688677
 51
88.16385321110287
  0
LINE
  5
FCC
330
1F
100
AcDbEntity
  8
0
 62
     3
100
AcDbLine
 10
1509.927939430295
 20
146.078710579936
 30
0.0
 11
1509.927939430295
 21
151.9065271883842
 31
0.0
  0
LINE
  5
FCD
330
1F
100
AcDbEntity
  8
0
 62
     3
100
AcDbLine
 10
1513.011559650718
 20
150.3882627755042
 30
0.0
 11
1513.011559650718
 21
145.5306611775991
 31
0.0
  0
LINE
  5
FCF
330
1F
100
AcDbEntity
  8
0
 62
     3
100
AcDbLine
 10
1513.011559650718
 20
143.2823926031228
 30
0.0
 11
1513.011559650718
 21
140.9065272479888
 31
0.0
  0
LINE
  5
FD0
330
1F
100
AcDbEntity
  8
0
 62
     3
100
AcDbLine
 10
1511.369153663932
 20
152.6361625462409
 30
0.0
 11
1511.369153663931
 21
141.7454637571344
 31
0.0
  0
LINE
  5
FD2
330
1F
100
AcDbEntity
  8
0
 62
     3
100
AcDbLine
 10
1465.369153574525
 20
150.3882627755042
 30
0.0
 11
1465.369153574525
 21
148.468521023605
 31
0.0
  0
LINE
  5
FD4
330
1F
100
AcDbEntity
  8
0
 62
     3
100
AcDbLine
 10
1467.011559561311
 20
152.6361625462409
 30
0.0
 11
1467.011559561311
 21
151.3023037284251
 31
0.0
  0
LINE
  5
FD7
330
1F
100
AcDbEntity
  8
0
 62
     3
100
AcDbLine
 10
1467.695943817912
 20
152.9065254896518
 30
0.0
 11
1510.684769407331
 21
152.9065254896518
 31
0.0
  0
LINE
  5
FDA
330
1F
100
AcDbEntity
  8
0
100
AcDbLine
 10
1494.857023362622
 20
188.128928201663
 30
0.0
 11
1494.857023362622
 21
188.303745701663
 31
0.0
  0
LINE
  5
FDB
330
1F
100
AcDbEntity
  8
0
100
AcDbLine
 10
1494.857023362622
 20
190.1289282016632
 30
0.0
 11
1494.857023362622
 21
190.3037457016633
 31
0.0
  0
LINE
  5
FDC
330
1F
100
AcDbEntity
  8
0
100
AcDbLine
 10
1494.857023362622
 20
192.128928201663
 30
0.0
 11
1494.857023362622
 21
192.3037457016633
 31
0.0
  0
LINE
  5
FDD
330
1F
100
AcDbEntity
  8
0
100
AcDbLine
 10
1483.523689862622
 20
187.0929487016631
 30
0.0
 11
1483.523689862622
 21
187.3035397016631
 31
0.0
  0
LINE
  5
FDE
330
1F
100
AcDbEntity
  8
0
100
AcDbLine
 10
1483.523689862622
 20
189.129133701663
 30
0.0
 11
1483.523689862622
 21
189.3035397016631
 31
0.0
  0
LINE
  5
FDF
330
1F
100
AcDbEntity
  8
0
100
AcDbLine
 10
1483.523689862622
 20
191.1291337016631
 30
0.0
 11
1483.523689862622
 21
191.3035397016631
 31
0.0
  0
LINE
  5
FE0
330
1F
100
AcDbEntity
  8
0
100
AcDbLine
 10
1486.440356612622
 20
195.9065282016631
 30
0.0
 11
1485.190356612622
 21
193.9065282016631
 31
0.0
  0
LINE
  5
FE1
330
1F
100
AcDbEntity
  8
0
100
AcDbLine
 10
1491.940356612622
 20
195.9065282016631
 30
0.0
 11
1493.190356612622
 21
193.9065282016631
 31
0.0
  0
ARC
  5
FE2
330
1F
100
AcDbEntity
  8
0
100
AcDbCircle
 10
1495.02068086262
 20
191.216336701663
 30
0.0
 40
0.6666665
100
AcDbArc
 50
275.4047930000005
 51
84.59520699999947
  0
ARC
  5
FE3
330
1F
100
AcDbEntity
  8
0
100
AcDbCircle
 10
1495.107023362622
 20
192.128928201663
 30
0.0
 40
0.25
100
AcDbArc
 50
180.0
 51
264.5952069999994
  0
ARC
  5
FE4
330
1F
100
AcDbEntity
  8
0
100
AcDbCircle
 10
1495.107023362622
 20
190.3037457016633
 30
0.0
 40
0.25
100
AcDbArc
 50
95.40479300000056
 51
180.0
  0
ARC
  5
FE5
330
1F
100
AcDbEntity
  8
0
100
AcDbCircle
 10
1483.357829862621
 20
192.216336701663
 30
0.0
 40
0.6666665
100
AcDbArc
 50
90.0
 51
264.7334589999744
  0
ARC
  5
FE6
330
1F
100
AcDbEntity
  8
0
100
AcDbCircle
 10
1483.273689862622
 20
191.3035397016631
 30
0.0
 40
0.25
100
AcDbArc
 50
0.0
 51
84.73345899997436
  0
ARC
  5
FE7
330
1F
100
AcDbEntity
  8
0
100
AcDbCircle
 10
1483.357829862621
 20
190.216336701663
 30
0.0
 40
0.6666665
100
AcDbArc
 50
95.26654100002565
 51
264.7334589999744
  0
ARC
  5
FE8
330
1F
100
AcDbEntity
  8
0
100
AcDbCircle
 10
1483.273689862622
 20
191.1291337016631
 30
0.0
 40
0.25
100
AcDbArc
 50
275.2665410000256
 51
0.0
  0
ARC
  5
FE9
330
1F
100
AcDbEntity
  8
0
100
AcDbCircle
 10
1483.273689862622
 20
189.3035397016631
 30
0.0
 40
0.25
100
AcDbArc
 50
0.0
 51
84.73345899997436
  0
ARC
  5
FEA
330
1F
100
AcDbEntity
  8
0
100
AcDbCircle
 10
1483.357829862621
 20
188.216336701663
 30
0.0
 40
0.6666665
100
AcDbArc
 50
95.26654100002565
 51
264.7334589999744
  0
ARC
  5
FEB
330
1F
100
AcDbEntity
  8
0
100
AcDbCircle
 10
1483.273689862622
 20
189.129133701663
 30
0.0
 40
0.25
100
AcDbArc
 50
275.2665410000256
 51
0.0
  0
ARC
  5
FEC
330
1F
100
AcDbEntity
  8
0
100
AcDbCircle
 10
1483.273689862622
 20
187.3035397016631
 30
0.0
 40
0.25
100
AcDbArc
 50
0.0
 51
84.73345899997436
  0
ARC
  5
FED
330
1F
100
AcDbEntity
  8
0
100
AcDbCircle
 10
1483.273689862622
 20
187.0929487016631
 30
0.0
 40
0.25
100
AcDbArc
 50
273.1848630000111
 51
0.0
  0
ARC
  5
FEE
330
1F
100
AcDbEntity
  8
0
100
AcDbCircle
 10
1495.107023362622
 20
188.128928201663
 30
0.0
 40
0.25
100
AcDbArc
 50
180.0
 51
264.5952069999994
  0
ARC
  5
FEF
330
1F
100
AcDbEntity
  8
0
100
AcDbCircle
 10
1495.02068086262
 20
189.216336701663
 30
0.0
 40
0.6666665
100
AcDbArc
 50
275.4047930000005
 51
84.59520699999947
  0
ARC
  5
FF0
330
1F
100
AcDbEntity
  8
0
100
AcDbCircle
 10
1495.107023362622
 20
190.1289282016632
 30
0.0
 40
0.25
100
AcDbArc
 50
180.0
 51
264.5952069999994
  0
ARC
  5
FF1
330
1F
100
AcDbEntity
  8
0
100
AcDbCircle
 10
1495.107023362622
 20
188.303745701663
 30
0.0
 40
0.25
100
AcDbArc
 50
95.40479300000056
 51
180.0
  0
LINE
  5
FF2
330
1F
100
AcDbEntity
  8
0
100
AcDbLine
 10
1483.298805862622
 20
186.8437277016633
 30
0.0
 11
1494.961656862621
 21
187.8803852016631
 31
0.0
  0
LINE
  5
FF3
330
1F
100
AcDbEntity
  8
0
100
AcDbLine
 10
1483.414782362622
 20
187.5521072016631
 30
0.0
 11
1495.077633862622
 21
188.5521072016631
 31
0.0
  0
LINE
  5
FF4
330
1F
100
AcDbEntity
  8
0
100
AcDbLine
 10
1483.300877362622
 20
188.8805662016631
 30
0.0
 11
1494.963728362622
 21
189.880566201663
 31
0.0
  0
LINE
  5
FF5
330
1F
100
AcDbEntity
  8
0
100
AcDbLine
 10
1483.414782362622
 20
189.5521072016631
 30
0.0
 11
1495.077633862622
 21
190.5521072016631
 31
0.0
  0
LINE
  5
FF6
330
1F
100
AcDbEntity
  8
0
100
AcDbLine
 10
1483.300877362622
 20
190.8805662016631
 30
0.0
 11
1494.963728362622
 21
191.8805662016631
 31
0.0
  0
LINE
  5
FF7
330
1F
100
AcDbEntity
  8
0
100
AcDbLine
 10
1483.414782362622
 20
191.5521072016631
 30
0.0
 11
1495.080239299027
 21
192.5523305978374
 31
0.0
  0
LINE
  5
FF8
330
1F
100
AcDbEntity
  8
0
100
AcDbLine
 10
1495.190356862622
 20
183.6565282016631
 30
0.0
 11
1495.190356862622
 21
185.9065282016631
 31
0.0
  0
LINE
  5
FF9
330
1F
100
AcDbEntity
  8
0
100
AcDbLine
 10
1483.190356862622
 20
183.6565282016631
 30
0.0
 11
1483.190356862622
 21
185.9065282016631
 31
0.0
  0
ARC
  5
FFA
330
1F
100
AcDbEntity
  8
0
100
AcDbCircle
 10
1495.02068086262
 20
187.198193701663
 30
0.0
 40
0.6666665
100
AcDbArc
 50
275.4047930000005
 51
84.59520699999947
  0
LINE
  5
FFB
330
1F
100
AcDbEntity
  8
0
100
AcDbLine
 10
1487.759940968867
 20
185.9065282016631
 30
0.0
 11
1495.077633862622
 21
186.533964201663
 31
0.0
  0
LINE
  5
FFC
330
1F
100
AcDbEntity
  8
0
100
AcDbLine
 10
1483.190356862622
 20
185.9065282016631
 30
0.0
 11
1495.190356862622
 21
185.9065282016631
 31
0.0
  0
ARC
  5
FFD
330
1F
100
AcDbEntity
  8
0
100
AcDbCircle
 10
1483.386958327242
 20
186.3683301144094
 30
0.0
 40
0.501909496331008
100
AcDbArc
 50
100.3671454662602
 51
246.9392441098637
  0
ARC
  5
FFE
330
1F
100
AcDbEntity
  8
0
100
AcDbCircle
 10
1495.397762916114
 20
186.2676337757461
 30
0.0
 40
0.4164306744936348
100
AcDbArc
 50
140.2413360786323
 51
240.1284900251101
  0
LINE
  5
FFF
330
1F
100
AcDbEntity
  8
0
100
AcDbLine
 10
1484.463881612622
 20
193.9065282016631
 30
0.0
 11
1493.916831612622
 21
193.9065282016631
 31
0.0
  0
LINE
  5
1000
330
1F
100
AcDbEntity
  8
0
100
AcDbLine
 10
1486.440356612622
 20
195.9065282016631
 30
0.0
 11
1491.940356612622
 21
195.9065282016631
 31
0.0
  0
LINE
  5
1001
330
1F
100
AcDbEntity
  8
0
100
AcDbLine
 10
1483.357829862621
 20
192.8830032016631
 30
0.0
 11
1495.066088939984
 21
192.8830032016631
 31
0.0
  0
ARC
  5
1002
330
1F
100
AcDbEntity
  8
0
100
AcDbCircle
 10
1495.107023362622
 20
192.3037457016633
 30
0.0
 40
0.25
100
AcDbArc
 50
95.40479300000056
 51
180.0
  0
ARC
  5
1003
330
1F
100
AcDbEntity
  8
0
100
AcDbCircle
 10
1495.066088939984
 20
192.7173641340257
 30
0.0
 40
0.1656390676375283
100
AcDbArc
 50
274.9006872474713
 51
90.0
  0
ARC
  5
1004
330
1F
100
AcDbEntity
  8
0
100
AcDbCircle
 10
1493.916831612622
 20
192.8830032016631
 30
0.0
 40
1.023525000000117
100
AcDbArc
 50
0.0
 51
90.0
  0
ARC
  5
1005
330
1F
100
AcDbEntity
  8
0
100
AcDbCircle
 10
1484.463881612622
 20
192.8830032016631
 30
0.0
 40
1.023525000000117
100
AcDbArc
 50
90.0
 51
180.0
  0
ARC
  5
1006
330
1F
100
AcDbEntity
  8
0
100
AcDbCircle
 10
1489.190356612622
 20
193.506528201663
 30
0.0
 40
3.650000000000004
100
AcDbArc
 50
41.11209043917217
 51
138.8879095608277
  0
ARC
  5
1141
330
1F
100
AcDbEntity
  8
0
 62
     3
100
AcDbCircle
 10
1468.258598431274
 20
151.3657413147693
 30
0.0
 40
1.791417930400025
100
AcDbArc
 50
134.0519606635549
 51
140.0011914591693
  0
ARC
  5
1144
330
1F
100
AcDbEntity
  8
0
 62
     3
100
AcDbCircle
 10
1498.354709752569
 20
128.1804043781789
 30
0.0
 40
39.76475682581522
100
AcDbArc
 50
142.2643265873357
 51
165.47049612596
  0
ARC
  5
1147
330
1F
100
AcDbEntity
  8
0
 62
     3
100
AcDbCircle
 10
1467.710663340427
 20
151.9165058639893
 30
0.0
 40
1.003320404598345
100
AcDbArc
 50
134.1700415450915
 51
143.2217790960849
  0
ARC
  5
1148
330
1F
100
AcDbEntity
  8
0
 62
     3
100
AcDbCircle
 10
1467.695876213031
 20
151.9053080401144
 30
0.0
 40
1.001218494882309
100
AcDbArc
 50
89.99614715344133
 51
133.116451109706
  0
ARC
  5
1149
330
1F
100
AcDbEntity
  8
0
 62
     3
100
AcDbCircle
 10
1468.697506752879
 20
151.9956163933322
 30
0.0
 40
0.9109205087348252
100
AcDbArc
 50
90.28680493950913
 51
135.3167658410515
  0
ARC
  5
114A
330
1F
100
AcDbEntity
  8
0
 62
     3
100
AcDbCircle
 10
1468.624734191062
 20
151.8884155852413
 30
0.0
 40
0.9432037290090221
100
AcDbArc
 50
127.5544348802732
 51
138.1900953401487
  0
ARC
  5
114B
330
1F
100
AcDbEntity
  8
0
 62
     3
100
AcDbCircle
 10
1474.568955866182
 20
146.5635684083401
 30
0.0
 40
8.923665168256746
100
AcDbArc
 50
138.1506118873656
 51
154.6211776087508
  0
ARC
  5
114C
330
1F
100
AcDbEntity
  8
0
 62
     3
100
AcDbCircle
 10
1501.431935607528
 20
128.4003491905231
 30
0.0
 40
41.27051936530476
100
AcDbArc
 50
147.8068374803816
 51
166.3260844061367
  0
ARC
  5
114D
330
1F
100
AcDbEntity
  8
0
 62
     3
100
AcDbCircle
 10
1469.296041661969
 20
151.9956171800077
 30
0.0
 40
0.9109197125843312
100
AcDbArc
 50
90.28668598108657
 51
135.3167859077416
  0
ARC
  5
1154
330
1F
100
AcDbEntity
  8
0
 62
     3
100
AcDbCircle
 10
1512.026766068131
 20
129.1799443616435
 30
0.0
 40
46.73607933646946
100
AcDbArc
 50
153.0129578885092
 51
168.926408980059
  0
ARC
  5
1155
330
1F
100
AcDbEntity
  8
0
 62
     3
100
AcDbCircle
 10
1474.564054559604
 20
149.5223804599041
 30
0.0
 40
4.272890738210067
100
AcDbArc
 50
133.2199802229
 51
168.308302081144
  0
ARC
  5
1156
330
1F
100
AcDbEntity
  8
0
 62
     3
100
AcDbCircle
 10
1472.18314730643
 20
152.2225808496146
 30
0.0
 40
0.6842989705920079
100
AcDbArc
 50
91.84390155520324
 51
142.8151186451123
  0
ARC
  5
1157
330
1F
100
AcDbEntity
  8
0
 62
     3
100
AcDbCircle
 10
1473.308017335346
 20
152.2225968427766
 30
0.0
 40
0.6842827015557719
100
AcDbArc
 50
91.84320545610347
 51
142.8157660867363
  0
ARC
  5
1158
330
1F
100
AcDbEntity
  8
0
 62
     3
100
AcDbCircle
 10
1467.809880781959
 20
153.932309925466
 30
0.0
 40
5.119758684458799
100
AcDbArc
 50
316.1931499021788
 51
345.3350775750828
  0
ARC
  5
1159
330
1F
100
AcDbEntity
  8
0
 62
     3
100
AcDbCircle
 10
1513.151657615439
 20
129.1799397982297
 30
0.0
 40
46.73609319698747
100
AcDbArc
 50
153.0129602635166
 51
168.926406605048
  0
ARC
  5
115A
330
1F
100
AcDbEntity
  8
0
 62
     3
100
AcDbCircle
 10
1538.284536516528
 20
130.0577997274567
 30
0.0
 40
65.02261727017597
100
AcDbArc
 50
161.7799368284392
 51
172.8450884628185
  0
ARC
  5
115C
330
1F
100
AcDbEntity
  8
0
 62
     3
100
AcDbCircle
 10
1478.523448829542
 20
150.7476136702338
 30
0.0
 40
2.033469996604738
100
AcDbArc
 50
157.6132793897488
 51
190.1786730781306
  0
ARC
  5
115D
330
1F
100
AcDbEntity
  8
0
 62
     3
100
AcDbCircle
 10
1479.342805131356
 20
150.6029297948335
 30
0.0
 40
2.851756635839928
100
AcDbArc
 50
134.5224381869902
 51
161.1974539376307
  0
ARC
  5
115E
330
1F
100
AcDbEntity
  8
0
 62
     3
100
AcDbCircle
 10
1477.749574207997
 20
152.4735414324703
 30
0.0
 40
0.4377182537863711
100
AcDbArc
 50
98.43349747713036
 51
158.1904627866648
  0
ARC
  5
115F
330
1F
100
AcDbEntity
  8
0
 62
     3
100
AcDbCircle
 10
1479.265398035778
 20
152.4733602824294
 30
0.0
 40
0.4380449347016164
100
AcDbArc
 50
98.56012430552569
 51
158.1820404638191
  0
ARC
  5
1160
330
1F
100
AcDbEntity
  8
0
 62
     3
100
AcDbCircle
 10
1477.904095429782
 20
152.3857851637954
 30
0.0
 40
0.9869232610040196
100
AcDbArc
 50
357.9008675123823
 51
14.69632556926078
  0
ARC
  5
1161
330
1F
100
AcDbEntity
  8
0
 62
     3
100
AcDbCircle
 10
1475.655576055902
 20
152.5900607722879
 30
0.0
 40
3.243702860421138
100
AcDbArc
 50
317.2507043674642
 51
355.74930421344
  0
ARC
  5
1162
330
1F
100
AcDbEntity
  8
0
 62
     3
100
AcDbCircle
 10
1539.800096302596
 20
130.0577952167189
 30
0.0
 40
65.02263304207516
100
AcDbArc
 50
161.7799366242479
 51
172.8450862014917
  0
ARC
  5
1163
330
1F
100
AcDbEntity
  8
0
 62
     3
100
AcDbCircle
 10
1668.886118907186
 20
129.7943523730975
 30
0.0
 40
185.8385710619025
100
AcDbArc
 50
173.6376364482612
 51
177.4209920260493
  0
ARC
  5
1164
330
1F
100
AcDbEntity
  8
0
 62
     3
100
AcDbCircle
 10
1659.986784594282
 20
130.6249159946568
 30
0.0
 40
175.1895628840905
100
AcDbArc
 50
173.5226048952703
 51
177.5360259540667
  0
ARC
  5
1165
330
1F
100
AcDbEntity
  8
0
 62
     3
100
AcDbCircle
 10
1486.062350335803
 20
151.2659718235101
 30
0.0
 40
2.065927453613352
100
AcDbArc
 50
174.2120638218065
 51
205.1411818352064
  0
ARC
  5
1166
330
1F
100
AcDbEntity
  8
0
 62
     3
100
AcDbCircle
 10
1486.068956686589
 20
151.3156360928151
 30
0.0
 40
2.068098020900438
100
AcDbArc
 50
140.3182533495993
 51
175.5995700513446
  0
ARC
  5
1167
330
1F
100
AcDbEntity
  8
0
 62
     3
100
AcDbCircle
 10
1484.844840475206
 20
151.8800140390273
 30
0.0
 40
1.552503918597086
100
AcDbArc
 50
358.0534210353942
 51
29.14697549967534
  0
ARC
  5
1168
330
1F
100
AcDbEntity
  8
0
 62
     3
100
AcDbCircle
 10
1483.946705788341
 20
151.8460768478126
 30
0.0
 40
2.44981482501499
100
AcDbArc
 50
323.4822505950652
 51
359.56035743301
  0
ARC
  5
1169
330
1F
100
AcDbEntity
  8
0
 62
     3
100
AcDbCircle
 10
1484.891432459012
 20
152.6154450401037
 30
0.0
 40
0.4146082347566097
100
AcDbArc
 50
135.4071700152345
 51
177.1356613190253
  0
ARC
  5
116A
330
1F
100
AcDbEntity
  8
0
 62
     3
100
AcDbCircle
 10
1486.614645235127
 20
152.6155333009809
 30
0.0
 40
0.4144032908085224
100
AcDbArc
 50
135.3963695168423
 51
177.1464618174501
  0
ARC
  5
116B
330
1F
100
AcDbEntity
  8
0
 62
     3
100
AcDbCircle
 10
1318.394358481668
 20
130.6249496820958
 30
0.0
 40
175.1891317965625
100
AcDbArc
 50
2.463969324084732
 51
6.477399497014402
  0
ARC
  5
116C
330
1F
100
AcDbEntity
  8
0
 62
     3
100
AcDbCircle
 10
1494.431091472146
 20
151.8451130948542
 30
0.0
 40
2.446897078040278
100
AcDbArc
 50
180.4344351489089
 51
216.5402139672524
  0
ARC
  5
116D
330
1F
100
AcDbEntity
  8
0
 62
     3
100
AcDbCircle
 10
1493.5425915197
 20
151.8783428651384
 30
0.0
 40
1.55918691370581
100
AcDbArc
 50
150.9196409376156
 51
181.9032222281869
  0
ARC
  5
116E
330
1F
100
AcDbEntity
  8
0
 62
     3
100
AcDbCircle
 10
1491.765867198457
 20
152.6154450401027
 30
0.0
 40
0.4146082347589302
100
AcDbArc
 50
2.864338681096278
 51
44.59282998466486
  0
ARC
  5
116F
330
1F
100
AcDbEntity
  8
0
 62
     3
100
AcDbCircle
 10
1493.488095725538
 20
152.6151995887418
 30
0.0
 40
0.4158041020192871
100
AcDbArc
 50
2.889958469817151
 51
44.47777806710481
  0
ARC
  5
1170
330
1F
100
AcDbEntity
  8
0
 62
     3
100
AcDbCircle
 10
1492.171703291308
 20
151.2589343413312
 30
0.0
 40
2.212562635561325
100
AcDbArc
 50
359.94336130519
 51
38.49591675739079
  0
ARC
  5
1171
330
1F
100
AcDbEntity
  8
0
 62
     3
100
AcDbCircle
 10
1492.49308105555
 20
151.2265914884882
 30
0.0
 40
1.891424196919725
100
AcDbArc
 50
333.6900726257564
 51
0.913526185834222
  0
ARC
  5
1172
330
1F
100
AcDbEntity
  8
0
 62
     3
100
AcDbCircle
 10
1320.117491537432
 20
130.6249250431556
 30
0.0
 40
175.1894132944566
100
AcDbArc
 50
2.463973189099534
 51
6.477397470064526
  0
ARC
  5
1173
330
1F
100
AcDbEntity
  8
0
 62
     3
100
AcDbCircle
 10
1438.580632252115
 20
130.0577997274631
 30
0.0
 40
65.02261727015262
100
AcDbArc
 50
7.154911537178396
 51
18.22006317156169
  0
ARC
  5
1174
330
1F
100
AcDbEntity
  8
0
 62
     3
100
AcDbCircle
 10
1502.724308969605
 20
152.5895189800573
 30
0.0
 40
3.242726927885531
100
AcDbArc
 50
184.2159773696354
 51
222.7521990110584
  0
ARC
  5
1175
330
1F
100
AcDbEntity
  8
0
 62
     3
100
AcDbCircle
 10
1500.332465656815
 20
152.4020056213012
 30
0.0
 40
0.8436305930036112
100
AcDbArc
 50
163.8853801477531
 51
183.4576400872314
  0
ARC
  5
1176
330
1F
100
AcDbEntity
  8
0
 62
     3
100
AcDbCircle
 10
1499.115259398093
 20
152.4732899040131
 30
0.0
 40
0.4381228887347853
100
AcDbArc
 50
21.8237923640799
 51
81.43398480698179
  0
ARC
  5
1177
330
1F
100
AcDbEntity
  8
0
 62
     3
100
AcDbCircle
 10
1500.631194286281
 20
152.4736113851298
 30
0.0
 40
0.4376409539628371
100
AcDbArc
 50
21.80372280616174
 51
81.5723169300757
  0
ARC
  5
1178
330
1F
100
AcDbEntity
  8
0
 62
     3
100
AcDbCircle
 10
1499.859543469679
 20
150.7478571682407
 30
0.0
 40
2.03126992409803
100
AcDbArc
 50
349.803206260732
 51
22.40512203150557
  0
ARC
  5
1179
330
1F
100
AcDbEntity
  8
0
 62
     3
100
AcDbCircle
 10
1499.040632851432
 20
150.6046435462696
 30
0.0
 40
2.848624299995636
100
AcDbArc
 50
18.78777084861155
 51
45.4924663850994
  0
ARC
  5
117A
330
1F
100
AcDbEntity
  8
0
 62
     3
100
AcDbCircle
 10
1440.096140278928
 20
130.0577915260148
 30
0.0
 40
65.02265443779525
100
AcDbArc
 50
7.154914709514794
 51
18.22005999921225
  0
ARC
  5
117B
330
1F
100
AcDbEntity
  8
0
 62
     3
100
AcDbCircle
 10
1465.229068840269
 20
129.1799443616816
 30
0.0
 40
46.73607933635617
100
AcDbArc
 50
11.07359101992056
 51
26.98704211150914
  0
ARC
  5
117C
330
1F
100
AcDbEntity
  8
0
 62
     3
100
AcDbCircle
 10
1510.570891219068
 20
153.932340376528
 30
0.0
 40
5.119822180773768
100
AcDbArc
 50
194.6650769866066
 51
223.8066407093547
  0
ARC
  5
117D
330
1F
100
AcDbEntity
  8
0
 62
     3
100
AcDbCircle
 10
1505.072687601861
 20
152.2225808496135
 30
0.0
 40
0.6842989705932384
100
AcDbArc
 50
37.18488135492898
 51
88.15609844476176
  0
ARC
  5
117E
330
1F
100
AcDbEntity
  8
0
 62
     3
100
AcDbCircle
 10
1506.197574206848
 20
152.2225968427757
 30
0.0
 40
0.6842827015570289
100
AcDbArc
 50
37.18423391327644
 51
88.15679454382276
  0
ARC
  5
117F
330
1F
100
AcDbEntity
  8
0
 62
     3
100
AcDbCircle
 10
1503.816648287574
 20
149.5223746512718
 30
0.0
 40
4.272902078048224
100
AcDbArc
 50
11.69174599113631
 51
46.77997170482761
  0
ARC
  5
1180
330
1F
100
AcDbEntity
  8
0
 62
     3
100
AcDbCircle
 10
1466.353945466144
 20
129.1799446985443
 30
0.0
 40
46.73608069042553
100
AcDbArc
 50
11.07359118633736
 51
26.9870408027247
  0
ARC
  5
1181
330
1F
100
AcDbEntity
  8
0
 62
     3
100
AcDbCircle
 10
1475.664827778139
 20
128.1864289094901
 30
0.0
 40
41.98710182015
100
AcDbArc
 50
13.73645168020505
 51
16.12467558610317
  0
ARC
  5
1182
330
1F
100
AcDbEntity
  8
0
 62
     3
100
AcDbCircle
 10
1476.26322710093
 20
128.1863926641896
 30
0.0
 40
41.98724246707052
100
AcDbArc
 50
13.73645568075087
 51
16.12467158553642
  0
ARC
  5
1183
330
1F
100
AcDbEntity
  8
0
 62
     3
100
AcDbCircle
 10
1514.623586997165
 20
139.482777434512
 30
0.0
 40
1.424036981135512
100
AcDbArc
 50
14.83738022915504
 51
88.84789447731121
  0
ARC
  5
1184
330
1F
100
AcDbEntity
  8
0
 62
     3
100
AcDbCircle
 10
1515.222117382453
 20
139.4827712420479
 30
0.0
 40
1.424043270185405
100
AcDbArc
 50
14.83757094257058
 51
88.84770376387409
  0
ARC
  5
1185
330
1F
100
AcDbEntity
  8
0
 62
     3
100
AcDbCircle
 10
1479.826904517656
 20
128.0907560008244
 30
0.0
 40
39.97999673757076
100
AcDbArc
 50
14.58228641800204
 51
33.8980290864758
  0
ARC
  5
1186
330
1F
100
AcDbEntity
  8
0
 62
     3
100
AcDbCircle
 10
1510.670049886013
 20
151.9165058650363
 30
0.0
 40
1.003320403013256
100
AcDbArc
 50
36.77822089692225
 51
45.82995846228016
  0
ARC
  5
1187
330
1F
100
AcDbEntity
  8
0
 62
     3
100
AcDbCircle
 10
1510.684837035463
 20
151.9053081679112
 30
0.0
 40
1.001218367086996
100
AcDbArc
 50
46.88348649771492
 51
90.00385417763981
  0
CIRCLE
  5
1188
330
1F
100
AcDbEntity
  8
0
 62
     3
100
AcDbCircle
 10
1512.769027569875
 20
144.4065267998622
 30
0.0
 40
1.149999783702893
  0
TEXT
  5
1922
330
1F
100
AcDbEntity
  8
0
 62
     4
100
AcDbText
 10
1507.62398532805
 20
178.1399861783936
 30
0.0
 40
3.0
  1
PC
100
AcDbText
1001
ACAD
1000
MTEXTBEGIN
1070
    73
1070
     1
1070
    44
1040
1.0
1070
    74
1070
     0
1000
MTEXTEND
  0
TEXT
  5
1927
330
1F
100
AcDbEntity
  8
0
 62
     4
100
AcDbText
 10
1510.352014967637
 20
165.5206137479911
 30
0.0
 40
3.0
  1
シリコン
100
AcDbText
1001
ACAD
1000
MTEXTBEGIN
1070
    73
1070
     1
1070
    44
1040
1.0
1070
    74
1070
     0
1000
MTEXTEND
  0
TEXT
  5
192A
330
1F
100
AcDbEntity
  8
0
 62
     4
100
AcDbText
 10
1521.191560511031
 20
156.3927964730286
 30
0.0
 40
3.0
  1
MDC
100
AcDbText
1001
ACAD
1000
MTEXTBEGIN
1070
    73
1070
     1
1070
    44
1040
1.0
1070
    74
1070
     0
1000
MTEXTEND
  0
TEXT
  5
192B
330
1F
100
AcDbEntity
  8
0
 62
     4
100
AcDbText
 10
1521.191560511031
 20
151.3927964730286
 30
0.0
 40
3.0
  1
(白塗装)
100
AcDbText
1001
ACAD
1000
MTEXTBEGIN
1070
    73
1070
     1
1070
    44
1040
1.0
1070
    74
1070
     0
1000
MTEXTEND
  0
TEXT
  5
192E
330
1F
100
AcDbEntity
  8
0
 62
     4
100
AcDbText
 10
1521.335945221512
 20
112.8721888342891
 30
0.0
 40
3.0
  1
PC
100
AcDbText
1001
ACAD
1000
MTEXTBEGIN
1070
    73
1070
     1
1070
    44
1040
1.0
1070
    74
1070
     0
1000
MTEXTEND
  0
TEXT
  5
192F
330
1F
100
AcDbEntity
  8
0
 62
     4
100
AcDbText
 10
1521.335945221512
 20
107.8721888342891
 30
0.0
 40
3.0
  1
(乳白)
100
AcDbText
1001
ACAD
1000
MTEXTBEGIN
1070
    73
1070
     1
1070
    44
1040
1.0
1070
    74
1070
     0
1000
MTEXTEND
  0
LINE
  5
1932
330
1F
100
AcDbEntity
  8
0
100
AcDbLine
 10
1458.940357283174
 20
131.656526197457
 30
0.0
 11
1455.795484517773
 21
131.656526197457
 31
0.0
  0
LINE
  5
1933
330
1F
100
AcDbEntity
  8
0
100
AcDbLine
 10
1488.940356612622
 20
197.1565282016618
 30
0.0
 11
1455.795484517773
 21
197.1565282016618
 31
0.0
  0
LINE
  5
1934
330
1F
100
AcDbEntity
  8
0
100
AcDbLine
 10
1457.045484517773
 20
134.156526197457
 30
0.0
 11
1457.045484517773
 21
194.6565282016618
 31
0.0
  0
LINE
  5
1938
330
1F
100
AcDbEntity
  8
0
100
AcDbLine
 10
1478.190356672226
 20
166.6565267711517
 30
0.0
 11
1478.190356672226
 21
208.8829942986997
 31
0.0
  0
LINE
  5
1939
330
1F
100
AcDbEntity
  8
0
100
AcDbLine
 10
1500.190356553017
 20
166.6565267711517
 30
0.0
 11
1500.190356553017
 21
208.8829942986997
 31
0.0
  0
LINE
  5
193A
330
1F
100
AcDbEntity
  8
0
100
AcDbLine
 10
1480.690356672226
 20
207.6329942986997
 30
0.0
 11
1497.690356553017
 21
207.6329942986997
 31
0.0
  0
LINE
  5
193E
330
1F
100
AcDbEntity
  8
0
100
AcDbLine
 10
1476.940356508314
 20
166.4065267711517
 30
0.0
 11
1462.178820183803
 21
166.4065267711517
 31
0.0
  0
LINE
  5
193F
330
1F
100
AcDbEntity
  8
0
100
AcDbLine
 10
1478.107023279288
 20
197.1564186912255
 30
0.0
 11
1462.178820183803
 21
197.1564186912255
 31
0.0
  0
LINE
  5
1940
330
1F
100
AcDbEntity
  8
0
100
AcDbLine
 10
1463.428820183803
 20
168.9065267711517
 30
0.0
 11
1463.428820183803
 21
194.6564186912255
 31
0.0
  0
LINE
  5
1944
330
1F
100
AcDbEntity
  8
0
100
AcDbLine
 10
1488.905041032334
 20
197.1564186912256
 30
0.0
 11
1449.605581724947
 21
197.1564186912256
 31
0.0
  0
LINE
  5
1945
330
1F
100
AcDbEntity
  8
0
100
AcDbLine
 10
1488.989172525353
 20
116.6565567303552
 30
0.0
 11
1449.605581724947
 21
116.6565567303552
 31
0.0
  0
LINE
  5
1946
330
1F
100
AcDbEntity
  8
0
100
AcDbLine
 10
1450.855581724947
 20
194.6564186912256
 30
0.0
 11
1450.855581724947
 21
119.1565567303552
 31
0.0
  0
LINE
  5
194A
330
1F
100
AcDbEntity
  8
0
100
AcDbLine
 10
1459.190357283174
 20
131.406526197457
 30
0.0
 11
1459.190357283174
 21
101.8495129919465
 31
0.0
  0
LINE
  5
194B
330
1F
100
AcDbEntity
  8
0
100
AcDbLine
 10
1519.190355942069
 20
131.406526197457
 30
0.0
 11
1519.190355942069
 21
101.8495129919465
 31
0.0
  0
LINE
  5
194C
330
1F
100
AcDbEntity
  8
0
100
AcDbLine
 10
1461.690357283174
 20
103.0995129919465
 30
0.0
 11
1516.690355942069
 21
103.0995129919465
 31
0.0
  0
LINE
  5
1950
330
1F
100
AcDbEntity
  8
0
100
AcDbLine
 10
1495.690356608473
 20
190.1808523111615
 30
0.0
 11
1495.690356608473
 21
203.5346447210753
 31
0.0
  0
LINE
  5
1951
330
1F
100
AcDbEntity
  8
0
100
AcDbLine
 10
1482.690356652264
 20
191.1435450038375
 30
0.0
 11
1482.690356652264
 21
203.5346447210753
 31
0.0
  0
LINE
  5
1952
330
1F
100
AcDbEntity
  8
0
100
AcDbLine
 10
1493.190356608473
 20
202.2846447210753
 30
0.0
 11
1485.190356652264
 21
202.2846447210753
 31
0.0
  0
LINE
  5
1956
330
1F
100
AcDbEntity
  8
0
 62
     3
100
AcDbLine
 10
1485.082104642225
 20
274.0222146889937
 30
0.0
 11
1485.063477112225
 21
274.1414824589936
 31
0.0
  0
LINE
  5
1957
330
1F
100
AcDbEntity
  8
0
 62
     3
100
AcDbLine
 10
1485.063477112225
 20
274.1414824589936
 30
0.0
 11
1485.041105932225
 21
274.2556872389937
 31
0.0
  0
LINE
  5
1958
330
1F
100
AcDbEntity
  8
0
 62
     3
100
AcDbLine
 10
1485.041105932225
 20
274.2556872389937
 30
0.0
 11
1485.015164002225
 21
274.3639462989936
 31
0.0
  0
LINE
  5
1959
330
1F
100
AcDbEntity
  8
0
 62
     3
100
AcDbLine
 10
1485.015164002225
 20
274.3639462989936
 30
0.0
 11
1484.985851862225
 21
274.4654228489936
 31
0.0
  0
LINE
  5
195A
330
1F
100
AcDbEntity
  8
0
 62
     3
100
AcDbLine
 10
1484.985851862225
 20
274.4654228489936
 30
0.0
 11
1484.953396052225
 21
274.5593325289935
 31
0.0
  0
LINE
  5
195B
330
1F
100
AcDbEntity
  8
0
 62
     3
100
AcDbLine
 10
1484.953396052225
 20
274.5593325289935
 30
0.0
 11
1484.918047462225
 21
274.6449494689934
 31
0.0
  0
LINE
  5
195C
330
1F
100
AcDbEntity
  8
0
 62
     3
100
AcDbLine
 10
1484.918047462225
 20
274.6449494689934
 30
0.0
 11
1484.880079312225
 21
274.7216118789936
 31
0.0
  0
LINE
  5
195D
330
1F
100
AcDbEntity
  8
0
 62
     3
100
AcDbLine
 10
1484.880079312225
 20
274.7216118789936
 30
0.0
 11
1484.839785062225
 21
274.7887272189937
 31
0.0
  0
LINE
  5
195E
330
1F
100
AcDbEntity
  8
0
 62
     3
100
AcDbLine
 10
1484.839785062225
 20
274.7887272189937
 30
0.0
 11
1484.797476192225
 21
274.8457767089935
 31
0.0
  0
LINE
  5
195F
330
1F
100
AcDbEntity
  8
0
 62
     3
100
AcDbLine
 10
1484.797476192225
 20
274.8457767089935
 30
0.0
 11
1484.753479702225
 21
274.8923193789935
 31
0.0
  0
LINE
  5
1960
330
1F
100
AcDbEntity
  8
0
 62
     3
100
AcDbLine
 10
1484.753479702225
 20
274.8923193789935
 30
0.0
 11
1484.708135682225
 21
274.9279954989936
 31
0.0
  0
LINE
  5
1961
330
1F
100
AcDbEntity
  8
0
 62
     3
100
AcDbLine
 10
1484.708135682225
 20
274.9279954989936
 30
0.0
 11
1484.661794612225
 21
274.9525292889937
 31
0.0
  0
LINE
  5
1962
330
1F
100
AcDbEntity
  8
0
 62
     3
100
AcDbLine
 10
1484.661794612225
 20
274.9525292889937
 30
0.0
 11
1484.614814672225
 21
274.9657311389935
 31
0.0
  0
LINE
  5
1963
330
1F
100
AcDbEntity
  8
0
 62
     3
100
AcDbLine
 10
1484.614814672225
 20
274.9657311389935
 30
0.0
 11
1484.567559012225
 21
274.9674989789937
 31
0.0
  0
LINE
  5
1964
330
1F
100
AcDbEntity
  8
0
 62
     3
100
AcDbLine
 10
1484.567559012225
 20
274.9674989789937
 30
0.0
 11
1484.520392882225
 21
274.9578191689936
 31
0.0
  0
LINE
  5
1965
330
1F
100
AcDbEntity
  8
0
 62
     3
100
AcDbLine
 10
1484.520392882225
 20
274.9578191689936
 30
0.0
 11
1484.473680852225
 21
274.9367665089936
 31
0.0
  0
LINE
  5
1966
330
1F
100
AcDbEntity
  8
0
 62
     3
100
AcDbLine
 10
1484.473680852225
 20
274.9367665089936
 30
0.0
 11
1484.427783992225
 21
274.9045037389935
 31
0.0
  0
LINE
  5
1967
330
1F
100
AcDbEntity
  8
0
 62
     3
100
AcDbLine
 10
1484.427783992225
 20
274.9045037389935
 30
0.0
 11
1484.383057052225
 21
274.8612802289936
 31
0.0
  0
LINE
  5
1968
330
1F
100
AcDbEntity
  8
0
 62
     3
100
AcDbLine
 10
1484.383057052225
 20
274.8612802289936
 30
0.0
 11
1484.339845742225
 21
274.8074300689936
 31
0.0
  0
LINE
  5
1969
330
1F
100
AcDbEntity
  8
0
 62
     3
100
AcDbLine
 10
1484.339845742225
 20
274.8074300689936
 30
0.0
 11
1484.298484082225
 21
274.7433694989935
 31
0.0
  0
LINE
  5
196A
330
1F
100
AcDbEntity
  8
0
 62
     3
100
AcDbLine
 10
1484.298484082225
 20
274.7433694989935
 30
0.0
 11
1484.259291762225
 21
274.6695936789937
 31
0.0
  0
LINE
  5
196B
330
1F
100
AcDbEntity
  8
0
 62
     3
100
AcDbLine
 10
1484.259291762225
 20
274.6695936789937
 30
0.0
 11
1484.222571722225
 21
274.5866728489934
 31
0.0
  0
LINE
  5
196C
330
1F
100
AcDbEntity
  8
0
 62
     3
100
AcDbLine
 10
1484.222571722225
 20
274.5866728489934
 30
0.0
 11
1484.188607792225
 21
274.4952479389935
 31
0.0
  0
LINE
  5
196D
330
1F
100
AcDbEntity
  8
0
 62
     3
100
AcDbLine
 10
1484.188607792225
 20
274.4952479389935
 30
0.0
 11
1484.157662492225
 21
274.3960256389937
 31
0.0
  0
LINE
  5
196E
330
1F
100
AcDbEntity
  8
0
 62
     3
100
AcDbLine
 10
1484.157662492225
 20
274.3960256389937
 30
0.0
 11
1484.129975012225
 21
274.2897728689936
 31
0.0
  0
LINE
  5
196F
330
1F
100
AcDbEntity
  8
0
 62
     3
100
AcDbLine
 10
1484.129975012225
 20
274.2897728689936
 30
0.0
 11
1484.105759362225
 21
274.1773109089936
 31
0.0
  0
LINE
  5
1970
330
1F
100
AcDbEntity
  8
0
 62
     3
100
AcDbLine
 10
1484.105759362225
 20
274.1773109089936
 30
0.0
 11
1484.085202722225
 21
274.0595090289937
 31
0.0
  0
LINE
  5
1971
330
1F
100
AcDbEntity
  8
0
 62
     3
100
AcDbLine
 10
1484.085202722225
 20
274.0595090289937
 30
0.0
 11
1484.068463982225
 21
273.9372777889937
 31
0.0
  0
LINE
  5
1972
330
1F
100
AcDbEntity
  8
0
 62
     3
100
AcDbLine
 10
1484.068463982225
 20
273.9372777889937
 30
0.0
 11
1484.055672522225
 21
273.8115619689936
 31
0.0
  0
LINE
  5
1973
330
1F
100
AcDbEntity
  8
0
 62
     3
100
AcDbLine
 10
1484.055672522225
 20
273.8115619689936
 30
0.0
 11
1484.046927212225
 21
273.6833332889937
 31
0.0
  0
LINE
  5
1974
330
1F
100
AcDbEntity
  8
0
 62
     3
100
AcDbLine
 10
1484.046927212225
 20
273.6833332889937
 30
0.0
 11
1484.042295652225
 21
273.5535828789934
 31
0.0
  0
LINE
  5
1975
330
1F
100
AcDbEntity
  8
0
 62
     3
100
AcDbLine
 10
1484.042295652225
 20
273.5535828789934
 30
0.0
 11
1484.041813642225
 21
273.4233136489936
 31
0.0
  0
LINE
  5
1976
330
1F
100
AcDbEntity
  8
0
 62
     3
100
AcDbLine
 10
1484.041813642225
 20
273.4233136489936
 30
0.0
 11
1484.045484902225
 21
273.2935325289936
 31
0.0
  0
LINE
  5
1977
330
1F
100
AcDbEntity
  8
0
 62
     3
100
AcDbLine
 10
1484.045484902225
 20
273.2935325289936
 30
0.0
 11
1484.053281062225
 21
273.1652426389937
 31
0.0
  0
LINE
  5
1978
330
1F
100
AcDbEntity
  8
0
 62
     3
100
AcDbLine
 10
1484.053281062225
 20
273.1652426389937
 30
0.0
 11
1484.065141862225
 21
273.0394355989937
 31
0.0
  0
LINE
  5
1979
330
1F
100
AcDbEntity
  8
0
 62
     3
100
AcDbLine
 10
1484.065141862225
 20
273.0394355989937
 30
0.0
 11
1484.080975622225
 21
272.9170838289937
 31
0.0
  0
LINE
  5
197A
330
1F
100
AcDbEntity
  8
0
 62
     3
100
AcDbLine
 10
1484.080975622225
 20
272.9170838289937
 30
0.0
 11
1484.100659942225
 21
272.7991330589937
 31
0.0
  0
LINE
  5
197B
330
1F
100
AcDbEntity
  8
0
 62
     3
100
AcDbLine
 10
1484.100659942225
 20
272.7991330589937
 30
0.0
 11
1484.124042702225
 21
272.6864949889937
 31
0.0
  0
LINE
  5
197C
330
1F
100
AcDbEntity
  8
0
 62
     3
100
AcDbLine
 10
1484.124042702225
 20
272.6864949889937
 30
0.0
 11
1484.150943132225
 21
272.5800402289936
 31
0.0
  0
LINE
  5
197D
330
1F
100
AcDbEntity
  8
0
 62
     3
100
AcDbLine
 10
1484.150943132225
 20
272.5800402289936
 30
0.0
 11
1484.181153332225
 21
272.4805916389937
 31
0.0
  0
LINE
  5
197E
330
1F
100
AcDbEntity
  8
0
 62
     3
100
AcDbLine
 10
1484.181153332225
 20
272.4805916389937
 30
0.0
 11
1484.214439782225
 21
272.3889179089935
 31
0.0
  0
LINE
  5
197F
330
1F
100
AcDbEntity
  8
0
 62
     3
100
AcDbLine
 10
1484.214439782225
 20
272.3889179089935
 30
0.0
 11
1484.250545182225
 21
272.3057276089936
 31
0.0
  0
LINE
  5
1980
330
1F
100
AcDbEntity
  8
0
 62
     3
100
AcDbLine
 10
1484.250545182225
 20
272.3057276089936
 30
0.0
 11
1484.289190482225
 21
272.2316637789936
 31
0.0
  0
LINE
  5
1981
330
1F
100
AcDbEntity
  8
0
 62
     3
100
AcDbLine
 10
1484.289190482225
 20
272.2316637789936
 30
0.0
 11
1484.330076962225
 21
272.1672988889936
 31
0.0
  0
LINE
  5
1982
330
1F
100
AcDbEntity
  8
0
 62
     3
100
AcDbLine
 10
1484.330076962225
 20
272.1672988889936
 30
0.0
 11
1484.372888582225
 21
272.1131304389937
 31
0.0
  0
LINE
  5
1983
330
1F
100
AcDbEntity
  8
0
 62
     3
100
AcDbLine
 10
1484.372888582225
 20
272.1131304389937
 30
0.0
 11
1484.417294442225
 21
272.0695771189937
 31
0.0
  0
LINE
  5
1984
330
1F
100
AcDbEntity
  8
0
 62
     3
100
AcDbLine
 10
1484.417294442225
 20
272.0695771189937
 30
0.0
 11
1484.462951292225
 21
272.0369755889935
 31
0.0
  0
LINE
  5
1985
330
1F
100
AcDbEntity
  8
0
 62
     3
100
AcDbLine
 10
1484.462951292225
 20
272.0369755889935
 30
0.0
 11
1484.509506252225
 21
272.0155778289936
 31
0.0
  0
LINE
  5
1986
330
1F
100
AcDbEntity
  8
0
 62
     3
100
AcDbLine
 10
1484.509506252225
 20
272.0155778289936
 30
0.0
 11
1484.556599462225
 21
272.0055492489937
 31
0.0
  0
LINE
  5
1987
330
1F
100
AcDbEntity
  8
0
 62
     3
100
AcDbLine
 10
1484.556599462225
 20
272.0055492489937
 30
0.0
 11
1484.603866912225
 21
272.0069673489936
 31
0.0
  0
LINE
  5
1988
330
1F
100
AcDbEntity
  8
0
 62
     3
100
AcDbLine
 10
1484.603866912225
 20
272.0069673489936
 30
0.0
 11
1484.650943252225
 21
272.0198211689935
 31
0.0
  0
LINE
  5
1989
330
1F
100
AcDbEntity
  8
0
 62
     3
100
AcDbLine
 10
1484.650943252225
 20
272.0198211689935
 30
0.0
 11
1484.697464612225
 21
272.0440113689936
 31
0.0
  0
LINE
  5
198A
330
1F
100
AcDbEntity
  8
0
 62
     3
100
AcDbLine
 10
1484.697464612225
 20
272.0440113689936
 30
0.0
 11
1484.743071402225
 21
272.0793509489937
 31
0.0
  0
LINE
  5
198B
330
1F
100
AcDbEntity
  8
0
 62
     3
100
AcDbLine
 10
1484.743071402225
 20
272.0793509489937
 30
0.0
 11
1484.787411102225
 21
272.1255667689936
 31
0.0
  0
LINE
  5
198C
330
1F
100
AcDbEntity
  8
0
 62
     3
100
AcDbLine
 10
1484.787411102225
 20
272.1255667689936
 30
0.0
 11
1484.830140992225
 21
272.1823016089936
 31
0.0
  0
LINE
  5
198D
330
1F
100
AcDbEntity
  8
0
 62
     3
100
AcDbLine
 10
1484.830140992225
 20
272.1823016089936
 30
0.0
 11
1484.870930792225
 21
272.2491169189934
 31
0.0
  0
LINE
  5
198E
330
1F
100
AcDbEntity
  8
0
 62
     3
100
AcDbLine
 10
1484.870930792225
 20
272.2491169189934
 30
0.0
 11
1484.909465222225
 21
272.3254962689937
 31
0.0
  0
LINE
  5
198F
330
1F
100
AcDbEntity
  8
0
 62
     3
100
AcDbLine
 10
1484.909465222225
 20
272.3254962689937
 30
0.0
 11
1484.945446422225
 21
272.4108492789936
 31
0.0
  0
LINE
  5
1990
330
1F
100
AcDbEntity
  8
0
 62
     3
100
AcDbLine
 10
1484.945446422225
 20
272.4108492789936
 30
0.0
 11
1484.978596282225
 21
272.5045162089934
 31
0.0
  0
LINE
  5
1991
330
1F
100
AcDbEntity
  8
0
 62
     3
100
AcDbLine
 10
1484.978596282225
 20
272.5045162089934
 30
0.0
 11
1485.008658562225
 21
272.6057730689937
 31
0.0
  0
LINE
  5
1992
330
1F
100
AcDbEntity
  8
0
 62
     3
100
AcDbLine
 10
1485.008658562225
 20
272.6057730689937
 30
0.0
 11
1485.035400912225
 21
272.7138371889937
 31
0.0
  0
LINE
  5
1993
330
1F
100
AcDbEntity
  8
0
 62
     3
100
AcDbLine
 10
1485.035400912225
 20
272.7138371889937
 30
0.0
 11
1485.058616612225
 21
272.8278732989936
 31
0.0
  0
LINE
  5
1994
330
1F
100
AcDbEntity
  8
0
 62
     3
100
AcDbLine
 10
1485.058616612225
 20
272.8278732989936
 30
0.0
 11
1485.078126222225
 21
272.9469999489936
 31
0.0
  0
LINE
  5
1995
330
1F
100
AcDbEntity
  8
0
100
AcDbLine
 10
1501.275675238026
 20
177.0792023868261
 30
0.0
 11
1504.49898532805
 21
179.6399861783936
 31
0.0
1001
ACAD
1000
DSTYLE
1002
{
1070
   147
1040
0.625
1070
    77
1070
     0
1002
}
  0
LINE
  5
1996
330
1F
100
AcDbEntity
  8
0
100
AcDbLine
 10
1504.49898532805
 20
179.6399861783936
 30
0.0
 11
1506.99898532805
 21
179.6399861783936
 31
0.0
1001
ACAD
1000
DSTYLE
1002
{
1070
   147
1040
0.625
1070
    77
1070
     0
1002
}
  0
LINE
  5
1997
330
1F
100
AcDbEntity
  8
0
  6
ByBlock
 62
     0
370
    -2
100
AcDbLine
 10
1501.692366381887
 20
176.554704858821
 30
0.0
 11
1499.318222409297
 21
175.5240887500459
 31
0.0
  0
LINE
  5
1998
330
1F
100
AcDbEntity
  8
0
  6
ByBlock
 62
     0
370
    -2
100
AcDbLine
 10
1499.318222409297
 20
175.5240887500459
 30
0.0
 11
1500.858984094164
 21
177.6036999148313
 31
0.0
  0
LINE
  5
1999
330
1F
100
AcDbEntity
  8
0
  6
ByBlock
 62
     0
370
    -2
100
AcDbLine
 10
1499.318222409297
 20
175.5240887500459
 30
0.0
 11
1501.275675238026
 21
177.0792023868261
 31
0.0
  0
LINE
  5
199A
330
1F
100
AcDbEntity
  8
0
100
AcDbLine
 10
1505.533382212584
 20
163.0358343597835
 30
0.0
 11
1507.627014967637
 21
167.0206137479911
 31
0.0
1001
ACAD
1000
DSTYLE
1002
{
1070
   147
1040
0.625
1070
    77
1070
     0
1002
}
  0
LINE
  5
199B
330
1F
100
AcDbEntity
  8
0
100
AcDbLine
 10
1507.627014967637
 20
167.0206137479911
 30
0.0
 11
1510.127014967637
 21
167.0206137479911
 31
0.0
1001
ACAD
1000
DSTYLE
1002
{
1070
   147
1040
0.625
1070
    77
1070
     0
1002
}
  0
LINE
  5
199C
330
1F
100
AcDbEntity
  8
0
  6
ByBlock
 62
     0
370
    -2
100
AcDbLine
 10
1506.126386448695
 20
162.7242655195406
 30
0.0
 11
1504.370590635668
 21
160.8227108321299
 31
0.0
  0
LINE
  5
199D
330
1F
100
AcDbEntity
  8
0
  6
ByBlock
 62
     0
370
    -2
100
AcDbLine
 10
1504.370590635668
 20
160.8227108321299
 30
0.0
 11
1504.940377976472
 21
163.3474032000265
 31
0.0
  0
LINE
  5
199E
330
1F
100
AcDbEntity
  8
0
  6
ByBlock
 62
     0
370
    -2
100
AcDbLine
 10
1504.370590635668
 20
160.8227108321299
 30
0.0
 11
1505.533382212584
 21
163.0358343597835
 31
0.0
  0
LINE
  5
199F
330
1F
100
AcDbEntity
  8
0
100
AcDbLine
 10
1514.408236828292
 20
152.4617363976278
 30
0.0
 11
1518.066560511031
 21
157.8927964730286
 31
0.0
1001
ACAD
1000
DSTYLE
1002
{
1070
   147
1040
0.625
1070
    77
1070
     0
1002
}
  0
LINE
  5
19A0
330
1F
100
AcDbEntity
  8
0
100
AcDbLine
 10
1518.066560511031
 20
157.8927964730286
 30
0.0
 11
1520.566560511031
 21
157.8927964730286
 31
0.0
1001
ACAD
1000
DSTYLE
1002
{
1070
   147
1040
0.625
1070
    77
1070
     0
1002
}
  0
LINE
  5
19A1
330
1F
100
AcDbEntity
  8
0
  6
ByBlock
 62
     0
370
    -2
100
AcDbLine
 10
1514.963822011867
 20
152.0874981445739
 30
0.0
 11
1513.011559650718
 21
150.3882627755042
 31
0.0
  0
LINE
  5
19A2
330
1F
100
AcDbEntity
  8
0
  6
ByBlock
 62
     0
370
    -2
100
AcDbLine
 10
1513.011559650718
 20
150.3882627755042
 30
0.0
 11
1513.852651644718
 21
152.8359746506817
 31
0.0
  0
LINE
  5
19A3
330
1F
100
AcDbEntity
  8
0
  6
ByBlock
 62
     0
370
    -2
100
AcDbLine
 10
1513.011559650718
 20
150.3882627755042
 30
0.0
 11
1514.408236828292
 21
152.4617363976278
 31
0.0
  0
LINE
  5
19A4
330
1F
100
AcDbEntity
  8
0
100
AcDbLine
 10
1512.553524259105
 20
121.2777831739267
 30
0.0
 11
1518.210945221512
 21
114.3721888342891
 31
0.0
1001
ACAD
1000
DSTYLE
1002
{
1070
   147
1040
0.625
1070
    77
1070
     0
1002
}
  0
LINE
  5
19A5
330
1F
100
AcDbEntity
  8
0
100
AcDbLine
 10
1518.210945221512
 20
114.3721888342891
 30
0.0
 11
1520.710945221512
 21
114.3721888342891
 31
0.0
1001
ACAD
1000
DSTYLE
1002
{
1070
   147
1040
0.625
1070
    77
1070
     0
1002
}
  0
LINE
  5
19A6
330
1F
100
AcDbEntity
  8
0
  6
ByBlock
 62
     0
370
    -2
100
AcDbLine
 10
1512.035343400676
 20
120.8532625452003
 30
0.0
 11
1510.969190566027
 21
123.211661853932
 31
0.0
  0
LINE
  5
19A7
330
1F
100
AcDbEntity
  8
0
  6
ByBlock
 62
     0
370
    -2
100
AcDbLine
 10
1510.969190566027
 20
123.211661853932
 30
0.0
 11
1513.071705117533
 21
121.7023038026532
 31
0.0
  0
LINE
  5
19A8
330
1F
100
AcDbEntity
  8
0
  6
ByBlock
 62
     0
370
    -2
100
AcDbLine
 10
1510.969190566027
 20
123.211661853932
 30
0.0
 11
1512.553524259105
 21
121.2777831739267
 31
0.0
  0
TEXT
  5
19A9
330
1F
100
AcDbEntity
  8
0
 62
     4
100
AcDbText
 10
1456.420484517773
 20
163.0299656860214
 30
0.0
 40
3.0
  1
131
 50
90.0
100
AcDbText
  0
LINE
  5
19AA
330
1F
100
AcDbEntity
  8
0
  6
ByBlock
 62
     0
370
    -2
100
AcDbLine
 10
1456.375612017773
 20
194.6565282016618
 30
0.0
 11
1457.045484517773
 21
197.1565282016618
 31
0.0
  0
LINE
  5
19AB
330
1F
100
AcDbEntity
  8
0
  6
ByBlock
 62
     0
370
    -2
100
AcDbLine
 10
1457.045484517773
 20
197.1565282016618
 30
0.0
 11
1457.715357017773
 21
194.6565282016618
 31
0.0
  0
LINE
  5
19AC
330
1F
100
AcDbEntity
  8
0
  6
ByBlock
 62
     0
370
    -2
100
AcDbLine
 10
1457.045484517773
 20
197.1565282016618
 30
0.0
 11
1457.045484517773
 21
194.6565282016618
 31
0.0
  0
LINE
  5
19AD
330
1F
100
AcDbEntity
  8
0
  6
ByBlock
 62
     0
370
    -2
100
AcDbLine
 10
1457.715357017773
 20
134.156526197457
 30
0.0
 11
1457.045484517773
 21
131.656526197457
 31
0.0
  0
LINE
  5
19AE
330
1F
100
AcDbEntity
  8
0
  6
ByBlock
 62
     0
370
    -2
100
AcDbLine
 10
1457.045484517773
 20
131.656526197457
 30
0.0
 11
1456.375612017773
 21
134.156526197457
 31
0.0
  0
LINE
  5
19AF
330
1F
100
AcDbEntity
  8
0
  6
ByBlock
 62
     0
370
    -2
100
AcDbLine
 10
1457.045484517773
 20
131.656526197457
 30
0.0
 11
1457.045484517773
 21
134.156526197457
 31
0.0
  0
TEXT
  5
19B0
330
1F
100
AcDbEntity
  8
0
 62
     4
100
AcDbText
 10
1485.064938939496
 20
208.2579942986997
 30
0.0
 40
3.0
  1
\U+220544
100
AcDbText
  0
LINE
  5
19B1
330
1F
100
AcDbEntity
  8
0
  6
ByBlock
 62
     0
370
    -2
100
AcDbLine
 10
1497.690356553017
 20
208.3028667986997
 30
0.0
 11
1500.190356553017
 21
207.6329942986997
 31
0.0
  0
LINE
  5
19B2
330
1F
100
AcDbEntity
  8
0
  6
ByBlock
 62
     0
370
    -2
100
AcDbLine
 10
1500.190356553017
 20
207.6329942986997
 30
0.0
 11
1497.690356553017
 21
206.9631217986997
 31
0.0
  0
LINE
  5
19B3
330
1F
100
AcDbEntity
  8
0
  6
ByBlock
 62
     0
370
    -2
100
AcDbLine
 10
1500.190356553017
 20
207.6329942986997
 30
0.0
 11
1497.690356553017
 21
207.6329942986997
 31
0.0
  0
LINE
  5
19B4
330
1F
100
AcDbEntity
  8
0
  6
ByBlock
 62
     0
370
    -2
100
AcDbLine
 10
1480.690356672226
 20
206.9631217986997
 30
0.0
 11
1478.190356672226
 21
207.6329942986997
 31
0.0
  0
LINE
  5
19B5
330
1F
100
AcDbEntity
  8
0
  6
ByBlock
 62
     0
370
    -2
100
AcDbLine
 10
1478.190356672226
 20
207.6329942986997
 30
0.0
 11
1480.690356672226
 21
208.3028667986997
 31
0.0
  0
LINE
  5
19B6
330
1F
100
AcDbEntity
  8
0
  6
ByBlock
 62
     0
370
    -2
100
AcDbLine
 10
1478.190356672226
 20
207.6329942986997
 30
0.0
 11
1480.690356672226
 21
207.6329942986997
 31
0.0
  0
TEXT
  5
19B7
330
1F
100
AcDbEntity
  8
0
 62
     4
100
AcDbText
 10
1462.803820183803
 20
178.2215657546616
 30
0.0
 40
3.0
  1
61.5
 50
90.0
100
AcDbText
  0
LINE
  5
19B8
330
1F
100
AcDbEntity
  8
0
  6
ByBlock
 62
     0
370
    -2
100
AcDbLine
 10
1462.758947683803
 20
194.6564186912255
 30
0.0
 11
1463.428820183803
 21
197.1564186912255
 31
0.0
  0
LINE
  5
19B9
330
1F
100
AcDbEntity
  8
0
  6
ByBlock
 62
     0
370
    -2
100
AcDbLine
 10
1463.428820183803
 20
197.1564186912255
 30
0.0
 11
1464.098692683803
 21
194.6564186912255
 31
0.0
  0
LINE
  5
19BA
330
1F
100
AcDbEntity
  8
0
  6
ByBlock
 62
     0
370
    -2
100
AcDbLine
 10
1463.428820183803
 20
197.1564186912255
 30
0.0
 11
1463.428820183803
 21
194.6564186912255
 31
0.0
  0
LINE
  5
19BB
330
1F
100
AcDbEntity
  8
0
  6
ByBlock
 62
     0
370
    -2
100
AcDbLine
 10
1464.098692683803
 20
168.9065267711517
 30
0.0
 11
1463.428820183803
 21
166.4065267711517
 31
0.0
  0
LINE
  5
19BC
330
1F
100
AcDbEntity
  8
0
  6
ByBlock
 62
     0
370
    -2
100
AcDbLine
 10
1463.428820183803
 20
166.4065267711517
 30
0.0
 11
1462.758947683803
 21
168.9065267711517
 31
0.0
  0
LINE
  5
19BD
330
1F
100
AcDbEntity
  8
0
  6
ByBlock
 62
     0
370
    -2
100
AcDbLine
 10
1463.428820183803
 20
166.4065267711517
 30
0.0
 11
1463.428820183803
 21
168.9065267711517
 31
0.0
  0
TEXT
  5
19BE
330
1F
100
AcDbEntity
  8
0
 62
     4
100
AcDbText
 10
1450.230581724947
 20
157.3231504789503
 30
0.0
 40
3.0
  1
161
 50
90.0
100
AcDbText
  0
LINE
  5
19BF
330
1F
100
AcDbEntity
  8
0
  6
ByBlock
 62
     0
370
    -2
100
AcDbLine
 10
1451.525454224947
 20
119.1565567303552
 30
0.0
 11
1450.855581724947
 21
116.6565567303552
 31
0.0
  0
LINE
  5
19C0
330
1F
100
AcDbEntity
  8
0
  6
ByBlock
 62
     0
370
    -2
100
AcDbLine
 10
1450.855581724947
 20
116.6565567303552
 30
0.0
 11
1450.185709224947
 21
119.1565567303552
 31
0.0
  0
LINE
  5
19C1
330
1F
100
AcDbEntity
  8
0
  6
ByBlock
 62
     0
370
    -2
100
AcDbLine
 10
1450.855581724947
 20
116.6565567303552
 30
0.0
 11
1450.855581724947
 21
119.1565567303552
 31
0.0
  0
LINE
  5
19C2
330
1F
100
AcDbEntity
  8
0
  6
ByBlock
 62
     0
370
    -2
100
AcDbLine
 10
1450.185709224947
 20
194.6564186912256
 30
0.0
 11
1450.855581724947
 21
197.1564186912256
 31
0.0
  0
LINE
  5
19C3
330
1F
100
AcDbEntity
  8
0
  6
ByBlock
 62
     0
370
    -2
100
AcDbLine
 10
1450.855581724947
 20
197.1564186912256
 30
0.0
 11
1451.525454224947
 21
194.6564186912256
 31
0.0
  0
LINE
  5
19C4
330
1F
100
AcDbEntity
  8
0
  6
ByBlock
 62
     0
370
    -2
100
AcDbLine
 10
1450.855581724947
 20
197.1564186912256
 30
0.0
 11
1450.855581724947
 21
194.6564186912256
 31
0.0
  0
TEXT
  5
19C5
330
1F
100
AcDbEntity
  8
0
 62
     4
100
AcDbText
 10
1484.983527252317
 20
103.7245129919465
 30
0.0
 40
3.0
  1
\U+2205120
100
AcDbText
  0
LINE
  5
19C6
330
1F
100
AcDbEntity
  8
0
  6
ByBlock
 62
     0
370
    -2
100
AcDbLine
 10
1516.690355942069
 20
103.7693854919465
 30
0.0
 11
1519.190355942069
 21
103.0995129919465
 31
0.0
  0
LINE
  5
19C7
330
1F
100
AcDbEntity
  8
0
  6
ByBlock
 62
     0
370
    -2
100
AcDbLine
 10
1519.190355942069
 20
103.0995129919465
 30
0.0
 11
1516.690355942069
 21
102.4296404919465
 31
0.0
  0
LINE
  5
19C8
330
1F
100
AcDbEntity
  8
0
  6
ByBlock
 62
     0
370
    -2
100
AcDbLine
 10
1519.190355942069
 20
103.0995129919465
 30
0.0
 11
1516.690355942069
 21
103.0995129919465
 31
0.0
  0
LINE
  5
19C9
330
1F
100
AcDbEntity
  8
0
  6
ByBlock
 62
     0
370
    -2
100
AcDbLine
 10
1461.690357283174
 20
102.4296404919465
 30
0.0
 11
1459.190357283174
 21
103.0995129919465
 31
0.0
  0
LINE
  5
19CA
330
1F
100
AcDbEntity
  8
0
  6
ByBlock
 62
     0
370
    -2
100
AcDbLine
 10
1459.190357283174
 20
103.0995129919465
 30
0.0
 11
1461.690357283174
 21
103.7693854919465
 31
0.0
  0
LINE
  5
19CB
330
1F
100
AcDbEntity
  8
0
  6
ByBlock
 62
     0
370
    -2
100
AcDbLine
 10
1459.190357283174
 20
103.0995129919465
 30
0.0
 11
1461.690357283174
 21
103.0995129919465
 31
0.0
  0
TEXT
  5
19CC
330
1F
100
AcDbEntity
  8
0
 62
     4
100
AcDbText
 10
1485.350312417696
 20
202.9096447210753
 30
0.0
 40
3.0
  1
E26
100
AcDbText
  0
LINE
  5
19CD
330
1F
100
AcDbEntity
  8
0
  6
ByBlock
 62
     0
370
    -2
100
AcDbLine
 10
1485.190356652264
 20
201.6147722210753
 30
0.0
 11
1482.690356652264
 21
202.2846447210753
 31
0.0
  0
LINE
  5
19CE
330
1F
100
AcDbEntity
  8
0
  6
ByBlock
 62
     0
370
    -2
100
AcDbLine
 10
1482.690356652264
 20
202.2846447210753
 30
0.0
 11
1485.190356652264
 21
202.9545172210753
 31
0.0
  0
LINE
  5
19CF
330
1F
100
AcDbEntity
  8
0
  6
ByBlock
 62
     0
370
    -2
100
AcDbLine
 10
1482.690356652264
 20
202.2846447210753
 30
0.0
 11
1485.190356652264
 21
202.2846447210753
 31
0.0
  0
LINE
  5
19D0
330
1F
100
AcDbEntity
  8
0
  6
ByBlock
 62
     0
370
    -2
100
AcDbLine
 10
1493.190356608473
 20
202.9545172210753
 30
0.0
 11
1495.690356608473
 21
202.2846447210753
 31
0.0
  0
LINE
  5
19D1
330
1F
100
AcDbEntity
  8
0
  6
ByBlock
 62
     0
370
    -2
100
AcDbLine
 10
1495.690356608473
 20
202.2846447210753
 30
0.0
 11
1493.190356608473
 21
201.6147722210753
 31
0.0
  0
LINE
  5
19D2
330
1F
100
AcDbEntity
  8
0
  6
ByBlock
 62
     0
370
    -2
100
AcDbLine
 10
1495.690356608473
 20
202.2846447210753
 30
0.0
 11
1493.190356608473
 21
202.2846447210753
 31
0.0
  0
ENDSEC
  0
SECTION
  2
OBJECTS
  0
DICTIONARY
  5
C
330
0
100
AcDbDictionary
281
     1
  3
ACAD_2007HEADERVARS_RT
350
19D6
  3
ACAD_COLOR
350
73
  3
ACAD_GROUP
350
D
  3
ACAD_LAYOUT
350
1A
  3
ACAD_MATERIAL
350
72
  3
ACAD_MLEADERSTYLE
350
168
  3
ACAD_MLINESTYLE
350
17
  3
ACAD_PLOTSETTINGS
350
19
  3
ACAD_PLOTSTYLENAME
350
E
  3
ACAD_SCALELIST
350
156
  3
ACAD_TABLESTYLE
350
86
  3
ACAD_VISUALSTYLE
350
99
  3
ACDB_RECOMPOSE_DATA
350
19D4
  3
AcDbVariableDictionary
350
66
  3
AEC_PROPERTY_SET_DEFS
350
DF7
  3
DWGPROPS
350
19D5
  0
DICTIONARY
  5
829
330
8
100
AcDbDictionary
280
     1
281
     1
  0
DICTIONARY
  5
DD
330
2
100
AcDbDictionary
280
     1
281
     1
  3
ACAD_LAYERSTATES
360
DE
  0
DICTIONARY
  5
81D
330
10
100
AcDbDictionary
280
     1
281
     1
  3
ADSK_XREC_LAYER_RECONCILED
360
1086
  0
DICTIONARY
  5
31A
330
1F
100
AcDbDictionary
280
     1
281
     1
  3
ACAD_SORTENTS
360
31B
  0
DICTIONARY
  5
B94
330
ACA
100
AcDbDictionary
280
     1
281
     1
  3
ACAD_SORTENTS
360
B95
  0
DICTIONARY
  5
19D6
102
{ACAD_REACTORS
330
C
102
}
330
C
100
AcDbDictionary
281
     1
  3
DIMARCSYM
350
19D8
  3
DIMFXL
350
19D7
  3
DIMJOGANG
350
19D9
  0
DICTIONARY
  5
73
102
{ACAD_REACTORS
330
C
102
}
330
C
100
AcDbDictionary
281
     1
  0
DICTIONARY
  5
D
102
{ACAD_REACTORS
330
C
102
}
330
C
100
AcDbDictionary
281
     1
  0
DICTIONARY
  5
1A
102
{ACAD_REACTORS
330
C
102
}
330
C
100
AcDbDictionary
281
     1
  3
Model
350
22
  3
レイアウト1
350
59
  3
レイアウト2
350
5E
  0
DICTIONARY
  5
72
102
{ACAD_REACTORS
330
C
102
}
330
C
100
AcDbDictionary
281
     1
  3
ByBlock
350
97
  3
ByLayer
350
96
  3
Global
350
98
  0
DICTIONARY
  5
168
102
{ACAD_REACTORS
330
C
102
}
330
C
100
AcDbDictionary
281
     1
  3
Standard
350
169
  0
DICTIONARY
  5
17
102
{ACAD_REACTORS
330
C
102
}
330
C
100
AcDbDictionary
281
     1
  3
Standard
350
18
  0
DICTIONARY
  5
19
102
{ACAD_REACTORS
330
C
102
}
330
C
100
AcDbDictionary
281
     1
  0
ACDBDICTIONARYWDFLT
  5
E
102
{ACAD_REACTORS
330
C
102
}
330
C
100
AcDbDictionary
281
     1
  3
Normal
350
F
100
AcDbDictionaryWithDefault
340
F
  0
DICTIONARY
  5
156
102
{ACAD_REACTORS
330
C
102
}
330
C
100
AcDbDictionary
281
     1
  3
A0
350
157
  3
A1
350
158
  3
A2
350
159
  3
A3
350
15A
  3
A4
350
15B
  3
A5
350
15C
  3
A6
350
15D
  3
A7
350
15E
  3
A8
350
15F
  3
A9
350
160
  3
B0
350
161
  3
B1
350
162
  3
B2
350
163
  3
B3
350
164
  3
B4
350
165
  3
B5
350
166
  3
B6
350
167
  0
DICTIONARY
  5
86
102
{ACAD_REACTORS
330
C
102
}
330
C
100
AcDbDictionary
281
     1
  3
Standard
350
87
  0
DICTIONARY
  5
99
102
{ACAD_REACTORS
330
C
102
}
330
C
100
AcDbDictionary
281
     1
  3
2dWireframe
350
9F
  3
3D Hidden
350
A1
  3
3dWireframe
350
A0
  3
Basic
350
9E
  3
Brighten
350
A5
  3
ColorChange
350
A9
  3
Conceptual
350
A2
  3
Dim
350
A4
  3
EdgeColorOff
350
155
  3
Facepattern
350
A8
  3
Flat
350
9A
  3
FlatWithEdges
350
9B
  3
Gouraud
350
9C
  3
GouraudWithEdges
350
9D
  3
Hidden
350
14D
  3
JitterOff
350
153
  3
Linepattern
350
A7
  3
OverhangOff
350
154
  3
Realistic
350
A3
  3
Shaded
350
152
  3
Shaded with edges
350
151
  3
Shades of Gray
350
14E
  3
Sketchy
350
14F
  3
Thicken
350
A6
  3
Wireframe
350
14C
  3
X-Ray
350
150
  0
XRECORD
  5
19D4
102
{ACAD_REACTORS
330
C
102
}
330
C
100
AcDbXrecord
280
     1
 90
        1
330
87
  0
DICTIONARY
  5
66
102
{ACAD_REACTORS
330
C
102
}
330
C
100
AcDbDictionary
281
     1
  3
CANNOSCALE
350
245
  3
CMLEADERSTYLE
350
243
  3
CTABLESTYLE
350
89
  3
DIMASSOC
350
67
  3
HIDETEXT
350
6B
  3
INDEXCTL
350
870
  3
LAYEREVAL
350
247
  3
LAYERNOTIFY
350
248
  3
LIGHTINGUNITS
350
246
  3
MSLTSCALE
350
244
  3
SORTENTS
350
86F
  3
XCLIPFRAME
350
189D
  0
DICTIONARY
  5
DF7
102
{ACAD_REACTORS
330
C
102
}
330
C
100
AcDbDictionary
281
     1
  0
XRECORD
  5
19D5
102
{ACAD_REACTORS
330
C
102
}
330
C
100
AcDbXrecord
280
     1
  1
DWGPROPS COOKIE
  2

  3

  4

  6

  7

  8
imamura
  9

300
=
301
=
302
=
303
=
304
=
305
=
306
=
307
=
308
=
309
=
 40
0.1510412962962963
 41
2458317.40978706
 42
2459048.604441887
  1

 90
        0
  0
DICTIONARY
  5
DE
102
{ACAD_REACTORS
330
DD
102
}
330
DD
100
AcDbDictionary
281
     1
  0
XRECORD
  5
1086
102
{ACAD_REACTORS
330
81D
102
}
330
81D
100
AcDbXrecord
280
     1
290
     1
  0
SORTENTSTABLE
  5
31B
102
{ACAD_REACTORS
330
31A
102
}
330
31A
100
AcDbSortentsTable
330
1F
331
FF0
  5
197F
331
FFB
  5
198A
331
EEA
  5
F37
331
114C
  5
199D
331
EFB
  5
F48
331
115D
  5
19A7
331
F24
  5
117A
331
116E
  5
19B8
331
F35
  5
1926
331
117F
  5
19C9
331
F46
  5
1937
331
E96
  5
ED5
331
199F
  5
1167
331
19B0
  5
114B
331
EC9
  5
F08
331
1958
  5
E8F
331
19C1
  5
FF8
331
F09
  5
F74
331
EDA
  5
F27
331
19D2
  5
FA6
331
198B
  5
EC2
331
197A
  5
EB1
331
1969
  5
EA0
331
EB8
  5
EF7
331
EA7
  5
EE6
331
E85
  5
E85
331
E74
  5
E74
331
E6B
  5
E6B
331
E5A
  5
E5A
331
E49
  5
E49
331
E38
  5
E38
331
FBD
  5
195B
331
FDF
  5
196E
331
E27
  5
E27
331
E16
  5
E16
331
E05
  5
E05
331
FE0
  5
196F
331
FF1
  5
1980
331
FFC
  5
198B
331
EEB
  5
F38
331
114D
  5
199E
331
EFC
  5
F49
331
115E
  5
19A8
331
F25
  5
117B
331
116F
  5
19B9
331
F36
  5
1927
331
1180
  5
19CA
331
F47
  5
1938
331
E97
  5
ED6
331
19A0
  5
1168
331
19B1
  5
1148
331
ECA
  5
F09
331
1959
  5
E90
331
19C2
  5
FF3
331
F0A
  5
F77
331
EDB
  5
F28
331
198C
  5
EC3
331
197B
  5
EB2
331
196A
  5
EA1
331
EB9
  5
EF8
331
EA8
  5
EE7
331
E86
  5
E86
331
E75
  5
E75
331
E6C
  5
E6C
331
E5B
  5
E5B
331
E4A
  5
E4A
331
E39
  5
E39
331
E28
  5
E28
331
FBE
  5
195C
331
FCF
  5
1964
331
E17
  5
E17
331
E06
  5
E06
331
FD0
  5
1965
331
FE1
  5
1970
331
FF2
  5
1981
331
FFD
  5
198C
331
EEC
  5
F39
331
EFD
  5
F4A
331
115F
  5
19A9
331
F26
  5
117C
331
1170
  5
19BA
331
F37
  5
1928
331
1927
  5
1170
331
1181
  5
19CB
331
F48
  5
1939
331
1938
  5
1004
331
E98
  5
ED7
331
19A1
  5
1164
331
F6A
  5
1945
331
19B2
  5
1149
331
195A
  5
E91
331
ECB
  5
F0A
331
19C3
  5
FF4
331
F0B
  5
F79
331
EDC
  5
F29
331
198D
  5
EC4
331
197C
  5
EB3
331
196B
  5
EA2
331
EBA
  5
EF9
331
EA9
  5
EE8
331
E87
  5
E87
331
E76
  5
E76
331
E6D
  5
E6D
331
E5C
  5
E5C
331
E4B
  5
E4B
331
E3A
  5
E3A
331
E29
  5
E29
331
E18
  5
E18
331
FBF
  5
195D
331
E07
  5
E07
331
FE2
  5
1971
331
FF3
  5
1982
331
FFE
  5
198D
331
EED
  5
F3A
331
EFE
  5
F4B
331
1160
  5
19AA
331
F27
  5
117D
331
1171
  5
19BB
331
F38
  5
1929
331
1182
  5
19CC
331
F49
  5
193A
331
1939
  5
1005
331
E99
  5
ED8
331
19A2
  5
1165
331
194A
  5
FCF
331
19B3
  5
114A
331
ECC
  5
F0B
331
195B
  5
E92
331
19C4
  5
FF5
331
F0C
  5
F7B
331
EDD
  5
F2A
331
198E
  5
EC5
331
197D
  5
EB4
331
196C
  5
EA3
331
EBB
  5
EFA
331
EAA
  5
EE9
331
E88
  5
E88
331
E77
  5
E77
331
E6E
  5
E6E
331
E5D
  5
E5D
331
E4C
  5
E4C
331
E3B
  5
E3B
331
E2A
  5
E2A
331
E19
  5
E19
331
E08
  5
E08
331
FD2
  5
1966
331
FE3
  5
1972
331
FF4
  5
1983
331
FFF
  5
198E
331
EEE
  5
F3B
331
EFF
  5
F4E
331
1161
  5
19AB
331
F28
  5
117E
331
1172
  5
19BC
331
F39
  5
192A
331
1183
  5
19CD
331
F4A
  5
193B
331
193A
  5
1006
331
E9A
  5
ED9
331
F5B
  5
1942
331
19A3
  5
1166
331
194B
  5
FD0
331
19B4
  5
1141
331
ECD
  5
F0C
331
19C5
  5
FE9
331
F0D
  5
F7C
331
196D
  5
EA4
331
EDE
  5
F2B
331
198F
  5
EC6
331
197E
  5
EB5
331
195C
  5
E93
331
EBC
  5
EFB
331
EAB
  5
EEA
331
E89
  5
E89
331
E78
  5
E78
331
E6F
  5
E6F
331
E5E
  5
E5E
331
E4D
  5
E4D
331
E3C
  5
E3C
331
E2B
  5
E2B
331
E1A
  5
E1A
331
E09
  5
E09
331
1990
  5
EC7
331
FE4
  5
1973
331
FF5
  5
1984
331
F00
  5
F51
331
EEF
  5
F3C
331
1162
  5
19AC
331
F29
  5
117F
331
1173
  5
19BD
331
F3A
  5
192B
331
192A
  5
1169
331
1184
  5
19CE
331
F4B
  5
193C
331
E9B
  5
EDA
331
19A4
  5
1160
331
194C
  5
FDA
331
19B5
  5
1144
331
ECE
  5
F0D
331
195D
  5
E94
331
19C6
  5
FE1
331
F0E
  5
F7D
331
EDF
  5
F2C
331
197F
  5
EB6
331
196E
  5
EA5
331
EBD
  5
EFC
331
EAC
  5
EEB
331
E8A
  5
E8A
331
E79
  5
E79
331
E5F
  5
E5F
331
E4E
  5
E4E
331
E3D
  5
E3D
331
E2C
  5
E2C
331
E1B
  5
E1B
331
E0A
  5
E0A
331
EE0
  5
F2D
331
1991
  5
EC8
331
1980
  5
EB7
331
FD4
  5
1967
331
FE5
  5
1974
331
FF6
  5
1985
331
1141
  5
1996
331
EF0
  5
F3D
331
F01
  5
F54
331
1163
  5
19AD
331
F2A
  5
1180
331
1174
  5
19BE
331
F3B
  5
192C
331
192B
  5
116A
331
1185
  5
19CF
331
E9C
  5
EDB
331
19A5
  5
1161
331
19B6
  5
1147
331
ECF
  5
F0E
331
195E
  5
E95
331
19C7
  5
FE2
331
196F
  5
EA6
331
EBE
  5
EFD
331
EAD
  5
EEC
331
E8B
  5
E8B
331
E7A
  5
E7A
331
E60
  5
E60
331
E4F
  5
E4F
331
E3E
  5
E3E
331
E2D
  5
E2D
331
E1C
  5
E1C
331
E0B
  5
E0B
331
ED0
  5
F10
331
19C8
  5
FE8
331
F10
  5
FBF
331
1970
  5
EA7
331
EE1
  5
F2E
331
1992
  5
EC9
331
1981
  5
EB8
331
FC4
  5
195E
331
FE6
  5
1975
331
FF7
  5
1986
331
F02
  5
F55
331
EF1
  5
F3E
331
1164
  5
19AE
331
F2B
  5
1181
331
1175
  5
19BF
331
F3C
  5
192D
331
1186
  5
19D0
331
19A6
  5
115D
331
F6F
  5
1946
331
19B7
  5
1003
331
195F
  5
E96
331
EBF
  5
EFE
331
EAE
  5
EED
331
E9D
  5
EDC
331
E7B
  5
E7B
331
E61
  5
E61
331
E50
  5
E50
331
E3F
  5
E3F
331
E2E
  5
E2E
331
E1D
  5
E1D
331
E0C
  5
E0C
331
DFB
  5
DFB
331
EC0
  5
EFF
331
19B8
  5
1000
331
ED1
  5
F11
331
1960
  5
E97
331
F79
  5
1949
331
19C9
  5
FDB
331
F11
  5
FC4
331
EE2
  5
F2F
331
1993
  5
ECA
331
1982
  5
EB9
331
1971
  5
EA8
331
FE7
  5
1976
331
1154
  5
199F
331
F03
  5
F56
331
EF2
  5
F3F
331
1165
  5
19AF
331
F2C
  5
1182
331
1176
  5
19C0
331
F3D
  5
192E
331
E8D
  5
ECC
331
1187
  5
19D1
331
F4E
  5
193D
331
193E
  5
FFA
331
19A7
  5
115E
331
EAF
  5
EEE
331
E9E
  5
EDD
331
E7C
  5
E7C
331
E62
  5
E62
331
E51
  5
E51
331
E40
  5
E40
331
E2F
  5
E2F
331
E1E
  5
E1E
331
E0D
  5
E0D
331
DFC
  5
DFC
331
1188
  5
19D2
331
F60
  5
1943
331
19A8
  5
115F
331
1950
  5
F7E
331
EB0
  5
EEF
331
19B9
  5
1001
331
ED2
  5
F12
331
19CA
  5
FDC
331
F12
  5
FC7
331
1972
  5
EA9
331
EE3
  5
F30
331
F8B
  5
1950
331
FA4
  5
1954
331
1994
  5
ECB
331
1983
  5
EBA
331
1961
  5
E98
331
EC1
  5
F00
331
FD7
  5
1968
331
FE8
  5
1977
331
1144
  5
1997
331
EF3
  5
F40
331
1155
  5
19A0
331
F04
  5
F5B
331
1166
  5
19B0
331
F2D
  5
1183
331
1177
  5
19C1
331
F3E
  5
192F
331
192E
  5
1162
331
E8E
  5
ECD
331
193F
  5
FFB
331
E9F
  5
EDE
331
E7D
  5
E7D
331
E63
  5
E63
331
E52
  5
E52
331
E41
  5
E41
331
E30
  5
E30
331
E1F
  5
E1F
331
E0E
  5
E0E
331
DFD
  5
DFD
331
1178
  5
19C2
331
1000
  5
198F
331
1940
  5
FFC
331
1998
  5
1172
331
EA0
  5
EDF
331
19A9
  5
115C
331
1951
  5
F7F
331
19BA
  5
1002
331
ED3
  5
F13
331
1962
  5
E99
331
F7B
  5
194A
331
19CB
  5
FE0
331
F13
  5
FCD
331
EE4
  5
F31
331
1995
  5
1174
331
1984
  5
EBB
331
1973
  5
EAA
331
EC2
  5
F01
331
EB1
  5
EF0
331
FB6
  5
1958
331
FC7
  5
195F
331
FE9
  5
1978
331
1156
  5
19A1
331
F05
  5
F60
331
EF4
  5
F41
331
1167
  5
19B1
331
F2E
  5
1184
331
F3F
  5
1930
331
192F
  5
1163
331
E8F
  5
ECE
331
E7E
  5
E7E
331
E64
  5
E64
331
E53
  5
E53
331
E42
  5
E42
331
E31
  5
E31
331
E20
  5
E20
331
E0F
  5
E0F
331
DFE
  5
DFE
331
1168
  5
19B2
331
1179
  5
19C3
331
F40
  5
1931
331
E90
  5
ECF
331
1001
  5
1990
331
F51
  5
193E
331
1999
  5
1173
331
19AA
  5
1158
331
1952
  5
F80
331
19BB
  5
FFD
331
ED4
  5
F21
331
1963
  5
E9A
331
F7C
  5
194B
331
19CC
  5
FB7
331
EE5
  5
F32
331
F8D
  5
1951
331
FA6
  5
1955
331
1996
  5
1175
331
1985
  5
EBC
331
1974
  5
EAB
331
EC3
  5
F02
331
EB2
  5
EF1
331
EA1
  5
EE0
331
FB7
  5
1959
331
FC8
  5
1960
331
FEA
  5
1979
331
1157
  5
19A2
331
F06
  5
F65
331
EF5
  5
F42
331
F2F
  5
1185
331
E7F
  5
E7F
331
E65
  5
E65
331
E54
  5
E54
331
E43
  5
E43
331
E32
  5
E32
331
E21
  5
E21
331
E10
  5
E10
331
DFF
  5
DFF
331
1158
  5
19A3
331
1169
  5
19B3
331
F30
  5
1186
331
117A
  5
19C4
331
F41
  5
1932
331
E91
  5
ED0
331
1002
  5
1991
331
199A
  5
116E
331
19AB
  5
1159
331
F74
  5
1947
331
19BC
  5
FFE
331
1964
  5
E9B
331
ED5
  5
F22
331
F7D
  5
194C
331
19CD
  5
FA8
331
EE6
  5
F33
331
1997
  5
1171
331
1986
  5
EBD
331
1975
  5
EAC
331
EC4
  5
F03
331
EB3
  5
EF2
331
EA2
  5
EE1
331
E80
  5
E80
331
FB8
  5
195A
331
FDA
  5
1969
331
FEB
  5
197A
331
1147
  5
1998
331
EF6
  5
F43
331
F07
  5
F6A
331
E66
  5
E66
331
E55
  5
E55
331
E44
  5
E44
331
E33
  5
E33
331
E22
  5
E22
331
E11
  5
E11
331
E00
  5
E00
331
1148
  5
1999
331
1159
  5
19A4
331
116A
  5
19B4
331
F31
  5
1187
331
117B
  5
19C5
331
F42
  5
1933
331
1932
  5
114C
331
E92
  5
ED1
331
1003
  5
1992
331
199B
  5
116F
331
19AC
  5
115A
331
19BD
  5
FFF
331
ED6
  5
F23
331
1965
  5
E9C
331
F7E
  5
194D
331
19CE
  5
FAB
331
EE7
  5
F34
331
FA8
  5
1956
331
F8F
  5
1952
331
1987
  5
EBE
331
1976
  5
EAD
331
EC5
  5
F04
331
EB4
  5
EF3
331
EA3
  5
EE2
331
E81
  5
E81
331
E70
  5
E70
331
FDB
  5
196A
331
FEC
  5
197B
331
EF7
  5
F44
331
E67
  5
E67
331
E56
  5
E56
331
E45
  5
E45
331
E34
  5
E34
331
E23
  5
E23
331
E12
  5
E12
331
E01
  5
E01
331
FF8
  5
1987
331
1149
  5
199A
331
EF8
  5
F45
331
115A
  5
19A5
331
F21
  5
1177
331
116B
  5
19B5
331
F32
  5
1188
331
1922
  5
1176
331
117C
  5
19C6
331
F43
  5
1934
331
1933
  5
114D
331
E93
  5
ED2
331
1004
  5
1993
331
1944
  5
FEC
331
F54
  5
193F
331
199C
  5
116B
331
F65
  5
1944
331
19AD
  5
1155
331
19BE
  5
FF9
331
ED7
  5
F24
331
F7F
  5
194E
331
19CF
  5
FB6
331
1977
  5
EAE
331
F90
  5
1953
331
1988
  5
EBF
331
1966
  5
E9D
331
EC6
  5
F05
331
EB5
  5
EF4
331
EA4
  5
EE3
331
E82
  5
E82
331
E71
  5
E71
331
E68
  5
E68
331
FCB
  5
1961
331
FDC
  5
196B
331
FED
  5
197C
331
E57
  5
E57
331
E46
  5
E46
331
E35
  5
E35
331
E24
  5
E24
331
E13
  5
E13
331
E02
  5
E02
331
FF9
  5
1988
331
EE8
  5
F35
331
114A
  5
199B
331
EF9
  5
F46
331
F22
  5
1178
331
116C
  5
19B6
331
F33
  5
1922
331
117D
  5
19C7
331
F44
  5
1935
331
1934
  5
1154
331
E94
  5
ED3
331
1005
  5
1994
331
1945
  5
FED
331
F55
  5
1940
331
199D
  5
116C
331
19AE
  5
1156
331
EC7
  5
F06
331
F77
  5
1948
331
19BF
  5
FF6
331
1967
  5
E9E
331
ED8
  5
F25
331
F80
  5
194F
331
19D0
  5
F90
331
1989
  5
EC0
331
1978
  5
EAF
331
1956
  5
E8D
331
EB6
  5
EF5
331
EA5
  5
EE4
331
E83
  5
E83
331
E72
  5
E72
331
E69
  5
E69
331
E58
  5
E58
331
FCC
  5
1962
331
FDD
  5
196C
331
FEE
  5
197D
331
E47
  5
E47
331
E36
  5
E36
331
E25
  5
E25
331
E14
  5
E14
331
E03
  5
E03
331
FFA
  5
1989
331
EE9
  5
F36
331
114B
  5
199C
331
EFA
  5
F47
331
115C
  5
19A6
331
F23
  5
1179
331
116D
  5
19B7
331
F34
  5
1923
331
117E
  5
19C8
331
F45
  5
1936
331
E95
  5
ED4
331
1006
  5
1995
331
1946
  5
FF0
331
F56
  5
1941
331
199E
  5
116D
331
19AF
  5
1157
331
EC8
  5
F07
331
19C0
  5
FF7
331
F08
  5
F6F
331
1968
  5
E9F
331
ED9
  5
F26
331
19D1
  5
FA4
331
FAB
  5
1957
331
198A
  5
EC1
331
1979
  5
EB0
331
1957
  5
E8E
331
EB7
  5
EF6
331
EA6
  5
EE5
331
E84
  5
E84
331
E73
  5
E73
331
E6A
  5
E6A
331
E59
  5
E59
331
E48
  5
E48
331
FCD
  5
1963
331
FDE
  5
196D
331
FEF
  5
197E
331
E37
  5
E37
331
E26
  5
E26
331
E15
  5
E15
331
E04
  5
E04
  0
SORTENTSTABLE
  5
B95
102
{ACAD_REACTORS
330
B94
102
}
330
B94
100
AcDbSortentsTable
330
ACA
  0
XRECORD
  5
19D8
102
{ACAD_REACTORS
330
19D6
102
}
330
19D6
100
AcDbXrecord
280
     1
 70
     2
  0
XRECORD
  5
19D7
102
{ACAD_REACTORS
330
19D6
102
}
330
19D6
100
AcDbXrecord
280
     1
 40
1.25
  0
XRECORD
  5
19D9
102
{ACAD_REACTORS
330
19D6
102
}
330
19D6
100
AcDbXrecord
280
     1
 40
1.570796326794896
  0
LAYOUT
  5
22
102
{ACAD_XDICTIONARY
360
19DA
102
}
102
{ACAD_REACTORS
330
1A
102
}
330
1A
100
AcDbPlotSettings
  1

  2
none_device
  4
ANSI_A_(8.50_x_11.00_Inches)
  6

 40
6.349999904632567
 41
19.04999923706055
 42
6.350006103515625
 43
19.04998779296875
 44
215.8999938964844
 45
279.3999938964844
 46
0.0
 47
0.0
 48
0.0
 49
0.0
140
0.0
141
0.0
142
1.0
143
2.584895464708373
 70
 11952
 72
     0
 73
     1
 74
     0
  7

 75
     0
147
0.3868628397755418
148
0.0
149
0.0
100
AcDbLayout
  1
Model
 70
     1
 71
     0
 10
0.0
 20
0.0
 11
12.0
 21
9.0
 12
0.0
 22
0.0
 32
0.0
 14
0.0
 24
0.0
 34
0.0
 15
0.0
 25
0.0
 35
0.0
146
0.0
 13
0.0
 23
0.0
 33
0.0
 16
1.0
 26
0.0
 36
0.0
 17
0.0
 27
1.0
 37
0.0
 76
     0
330
1F
331
94
  0
LAYOUT
  5
59
102
{ACAD_XDICTIONARY
360
19DC
102
}
102
{ACAD_REACTORS
330
1A
102
}
330
1A
100
AcDbPlotSettings
  1

  2
None
  4

  6

 40
0.0
 41
0.0
 42
0.0
 43
0.0
 44
0.0
 45
0.0
 46
0.0
 47
0.0
 48
0.0
 49
0.0
140
0.0
141
0.0
142
1.0
143
1.0
 70
   688
 72
     0
 73
     0
 74
     5
  7

 75
    16
147
1.0
148
0.0
149
0.0
100
AcDbLayout
  1
レイアウト1
 70
     1
 71
     1
 10
0.0
 20
0.0
 11
12.0
 21
9.0
 12
0.0
 22
0.0
 32
0.0
 14
0.0
 24
0.0
 34
0.0
 15
0.0
 25
0.0
 35
0.0
146
0.0
 13
0.0
 23
0.0
 33
0.0
 16
1.0
 26
0.0
 36
0.0
 17
0.0
 27
1.0
 37
0.0
 76
     0
330
58
  0
LAYOUT
  5
5E
102
{ACAD_XDICTIONARY
360
19DE
102
}
102
{ACAD_REACTORS
330
1A
102
}
330
1A
100
AcDbPlotSettings
  1

  2
None
  4

  6

 40
0.0
 41
0.0
 42
0.0
 43
0.0
 44
0.0
 45
0.0
 46
0.0
 47
0.0
 48
0.0
 49
0.0
140
0.0
141
0.0
142
1.0
143
1.0
 70
   688
 72
     0
 73
     0
 74
     5
  7

 75
    16
147
1.0
148
0.0
149
0.0
100
AcDbLayout
  1
レイアウト2
 70
     1
 71
     2
 10
0.0
 20
0.0
 11
12.0
 21
9.0
 12
0.0
 22
0.0
 32
0.0
 14
0.0
 24
0.0
 34
0.0
 15
0.0
 25
0.0
 35
0.0
146
0.0
 13
0.0
 23
0.0
 33
0.0
 16
1.0
 26
0.0
 36
0.0
 17
0.0
 27
1.0
 37
0.0
 76
     0
330
5D
  0
MATERIAL
  5
97
102
{ACAD_XDICTIONARY
360
1098
102
}
102
{ACAD_REACTORS
330
72
102
}
330
72
100
AcDbMaterial
  1
ByBlock
 73
     1
 78
     1
172
     1
176
     1
270
     1
274
     1
  0
MATERIAL
  5
96
102
{ACAD_XDICTIONARY
360
1096
102
}
102
{ACAD_REACTORS
330
72
102
}
330
72
100
AcDbMaterial
  1
ByLayer
 73
     1
 78
     1
172
     1
176
     1
270
     1
274
     1
  0
MATERIAL
  5
98
102
{ACAD_XDICTIONARY
360
109A
102
}
102
{ACAD_REACTORS
330
72
102
}
330
72
100
AcDbMaterial
  1
Global
 73
     1
 78
     1
172
     1
176
     1
270
     1
274
     1
  0
MLEADERSTYLE
  5
169
102
{ACAD_REACTORS
330
168
102
}
330
168
100
AcDbMLeaderStyle
170
     2
171
     1
172
     0
 90
        2
 40
0.0
 41
0.0
173
     1
 91
-1056964608
340
14
 92
       -2
290
     1
 42
2.0
291
     1
 43
0.36
  3
Standard
 44
4.0
300

342
11
174
     1
178
     6
175
     1
176
     0
 93
-1056964608
 45
4.0
292
     0
297
     0
 46
4.0
 94
-1056964608
 47
1.0
 49
1.0
140
1.0
293
     1
141
0.0
294
     1
177
     0
142
1.0
295
     0
296
     0
143
0.125
1001
ACAD_MLEADERVER
1070
     2
  0
MLINESTYLE
  5
18
102
{ACAD_REACTORS
330
17
102
}
330
17
100
AcDbMlineStyle
  2
STANDARD
 70
     0
  3

 62
   256
 51
90.0
 52
90.0
 71
     2
 49
0.5
 62
   256
  6
BYLAYER
 49
-0.5
 62
   256
  6
BYLAYER
  0
ACDBPLACEHOLDER
  5
F
102
{ACAD_REACTORS
330
E
102
}
330
E
  0
SCALE
  5
157
102
{ACAD_REACTORS
330
156
102
}
330
156
100
AcDbScale
 70
     0
300
1:1
140
1.0
141
1.0
290
     1
  0
SCALE
  5
158
102
{ACAD_REACTORS
330
156
102
}
330
156
100
AcDbScale
 70
     0
300
1:2
140
1.0
141
2.0
290
     0
  0
SCALE
  5
159
102
{ACAD_REACTORS
330
156
102
}
330
156
100
AcDbScale
 70
     0
300
1:4
140
1.0
141
4.0
290
     0
  0
SCALE
  5
15A
102
{ACAD_REACTORS
330
156
102
}
330
156
100
AcDbScale
 70
     0
300
1:5
140
1.0
141
5.0
290
     0
  0
SCALE
  5
15B
102
{ACAD_REACTORS
330
156
102
}
330
156
100
AcDbScale
 70
     0
300
1:8
140
1.0
141
8.0
290
     0
  0
SCALE
  5
15C
102
{ACAD_REACTORS
330
156
102
}
330
156
100
AcDbScale
 70
     0
300
1:10
140
1.0
141
10.0
290
     0
  0
SCALE
  5
15D
102
{ACAD_REACTORS
330
156
102
}
330
156
100
AcDbScale
 70
     0
300
1:16
140
1.0
141
16.0
290
     0
  0
SCALE
  5
15E
102
{ACAD_REACTORS
330
156
102
}
330
156
100
AcDbScale
 70
     0
300
1:20
140
1.0
141
20.0
290
     0
  0
SCALE
  5
15F
102
{ACAD_REACTORS
330
156
102
}
330
156
100
AcDbScale
 70
     0
300
1:30
140
1.0
141
30.0
290
     0
  0
SCALE
  5
160
102
{ACAD_REACTORS
330
156
102
}
330
156
100
AcDbScale
 70
     0
300
1:40
140
1.0
141
40.0
290
     0
  0
SCALE
  5
161
102
{ACAD_REACTORS
330
156
102
}
330
156
100
AcDbScale
 70
     0
300
1:50
140
1.0
141
50.0
290
     0
  0
SCALE
  5
162
102
{ACAD_REACTORS
330
156
102
}
330
156
100
AcDbScale
 70
     0
300
1:100
140
1.0
141
100.0
290
     0
  0
SCALE
  5
163
102
{ACAD_REACTORS
330
156
102
}
330
156
100
AcDbScale
 70
     0
300
2:1
140
2.0
141
1.0
290
     0
  0
SCALE
  5
164
102
{ACAD_REACTORS
330
156
102
}
330
156
100
AcDbScale
 70
     0
300
4:1
140
4.0
141
1.0
290
     0
  0
SCALE
  5
165
102
{ACAD_REACTORS
330
156
102
}
330
156
100
AcDbScale
 70
     0
300
8:1
140
8.0
141
1.0
290
     0
  0
SCALE
  5
166
102
{ACAD_REACTORS
330
156
102
}
330
156
100
AcDbScale
 70
     0
300
10:1
140
10.0
141
1.0
290
     0
  0
SCALE
  5
167
102
{ACAD_REACTORS
330
156
102
}
330
156
100
AcDbScale
 70
     0
300
100:1
140
100.0
141
1.0
290
     0
  0
TABLESTYLE
  5
87
102
{ACAD_XDICTIONARY
360
821
102
}
102
{ACAD_REACTORS
330
86
102
}
330
86
100
AcDbTableStyle
  3
Standard
 70
     0
 71
     0
 40
0.06
 41
0.06
280
     0
281
     0
  7
Standard
140
0.18
170
     2
 62
     0
 63
     7
283
     0
274
    -2
284
     1
 64
     0
275
    -2
285
     1
 65
     0
276
    -2
286
     1
 66
     0
277
    -2
287
     1
 67
     0
278
    -2
288
     1
 68
     0
279
    -2
289
     1
 69
     0
  7
Standard
140
0.25
170
     5
 62
     0
 63
     7
283
     0
274
    -2
284
     1
 64
     0
275
    -2
285
     1
 65
     0
276
    -2
286
     1
 66
     0
277
    -2
287
     1
 67
     0
278
    -2
288
     1
 68
     0
279
    -2
289
     1
 69
     0
  7
Standard
140
0.18
170
     5
 62
     0
 63
     7
283
     0
274
    -2
284
     1
 64
     0
275
    -2
285
     1
 65
     0
276
    -2
286
     1
 66
     0
277
    -2
287
     1
 67
     0
278
    -2
288
     1
 68
     0
279
    -2
289
     1
 69
     0
  0
VISUALSTYLE
  5
9F
102
{ACAD_XDICTIONARY
360
19EB
102
}
102
{ACAD_REACTORS
330
99
102
}
330
99
100
AcDbVisualStyle
  2

 70
     4
 71
     0
 72
     2
 73
     1
 90
        0
 40
-0.6
 41
-30.0
 62
     5
 63
     7
 74
     1
 91
        4
 64
     7
 65
   257
 75
     1
175
     1
 42
1.0
 92
        0
 66
   257
 43
1.0
 76
     1
 77
     6
 78
     2
 67
     7
 79
     5
170
     0
171
     0
290
     0
174
     0
 93
        1
 44
0.0
173
     0
291
     0
 45
0.0
1001
ACAD
1000
AcDbSavedByObjectVersion
1070
     0
  0
VISUALSTYLE
  5
A1
102
{ACAD_XDICTIONARY
360
19EF
102
}
102
{ACAD_REACTORS
330
99
102
}
330
99
100
AcDbVisualStyle
  2

 70
     6
 71
     1
 72
     2
 73
     2
 90
        0
 40
-0.6
 41
-30.0
 62
     5
 63
     7
 74
     2
 91
        2
 64
     7
 65
   257
 75
     2
175
     1
 42
40.0
 92
        0
 66
   257
 43
1.0
 76
     1
 77
     6
 78
     2
 67
     7
 79
     3
170
     0
171
     0
290
     0
174
     0
 93
        1
 44
0.0
173
     0
291
     0
 45
0.0
1001
ACAD
1000
AcDbSavedByObjectVersion
1070
     0
  0
VISUALSTYLE
  5
A0
102
{ACAD_XDICTIONARY
360
19ED
102
}
102
{ACAD_REACTORS
330
99
102
}
330
99
100
AcDbVisualStyle
  2

 70
     5
 71
     0
 72
     2
 73
     1
 90
        0
 40
-0.6
 41
-30.0
 62
     5
 63
     7
 74
     1
 91
        4
 64
     7
 65
   257
 75
     1
175
     1
 42
1.0
 92
        0
 66
   257
 43
1.0
 76
     1
 77
     6
 78
     2
 67
     7
 79
     5
170
     0
171
     0
290
     0
174
     0
 93
        1
 44
0.0
173
     0
291
     0
 45
0.0
1001
ACAD
1000
AcDbSavedByObjectVersion
1070
     0
  0
VISUALSTYLE
  5
9E
102
{ACAD_XDICTIONARY
360
19E9
102
}
102
{ACAD_REACTORS
330
99
102
}
330
99
100
AcDbVisualStyle
  2

 70
     7
 71
     1
 72
     0
 73
     1
 90
        0
 40
-0.6
 41
-30.0
 62
     5
 63
     7
 74
     0
 91
        4
 64
     7
 65
   257
 75
     1
175
     1
 42
1.0
 92
        8
 66
     7
 43
1.0
 76
     1
 77
     6
 78
     2
 67
     7
 79
     5
170
     0
171
     0
290
     0
174
     0
 93
        1
 44
0.0
173
     0
291
     1
 45
0.0
1001
ACAD
1000
AcDbSavedByObjectVersion
1070
     0
  0
VISUALSTYLE
  5
A5
102
{ACAD_XDICTIONARY
360
19F7
102
}
102
{ACAD_REACTORS
330
99
102
}
330
99
100
AcDbVisualStyle
  2

 70
    12
 71
     2
 72
     2
 73
     1
 90
        0
 40
-0.6
 41
-30.0
 62
     5
 63
     7
 74
     1
 91
        4
 64
     7
 65
   257
 75
     1
175
     1
 42
1.0
 92
        8
 66
     7
 43
1.0
 76
     1
 77
     6
 78
     2
 67
     7
 79
     5
170
     0
171
     0
290
     0
174
     0
 93
        1
 44
50.0
173
     0
291
     1
 45
0.0
1001
ACAD
1000
AcDbSavedByObjectVersion
1070
     0
  0
VISUALSTYLE
  5
A9
102
{ACAD_XDICTIONARY
360
19FF
102
}
102
{ACAD_REACTORS
330
99
102
}
330
99
100
AcDbVisualStyle
  2

 70
    16
 71
     2
 72
     2
 73
     3
 90
        0
 40
-0.6
 41
-30.0
 62
     5
 63
     8
 74
     1
 91
        4
 64
     7
 65
   257
 75
     1
175
     1
 42
1.0
 92
        8
 66
     8
 43
1.0
 76
     1
 77
     6
 78
     2
 67
     7
 79
     5
170
     0
171
     0
290
     0
174
     0
 93
        1
 44
0.0
173
     0
291
     1
 45
0.0
1001
ACAD
1000
AcDbSavedByObjectVersion
1070
     0
  0
VISUALSTYLE
  5
A2
102
{ACAD_XDICTIONARY
360
19F1
102
}
102
{ACAD_REACTORS
330
99
102
}
330
99
100
AcDbVisualStyle
  2

 70
     9
 71
     3
 72
     2
 73
     1
 90
        0
 40
-0.6
 41
-30.0
 62
     5
 63
     7
 74
     2
 91
        2
 64
     7
 65
   257
 75
     1
175
     1
 42
40.0
 92
        8
 66
     7
 43
1.0
 76
     1
 77
     6
 78
     2
 67
     7
 79
     3
170
     0
171
     0
290
     0
174
     0
 93
        1
 44
0.0
173
     0
291
     0
 45
0.0
1001
ACAD
1000
AcDbSavedByObjectVersion
1070
     0
  0
VISUALSTYLE
  5
A4
102
{ACAD_XDICTIONARY
360
19F5
102
}
102
{ACAD_REACTORS
330
99
102
}
330
99
100
AcDbVisualStyle
  2

 70
    11
 71
     2
 72
     2
 73
     1
 90
        0
 40
-0.6
 41
-30.0
 62
     5
 63
     7
 74
     1
 91
        4
 64
     7
 65
   257
 75
     1
175
     1
 42
1.0
 92
        8
 66
     7
 43
1.0
 76
     1
 77
     6
 78
     2
 67
     7
 79
     5
170
     0
171
     0
290
     0
174
     0
 93
        1
 44
-50.0
173
     0
291
     1
 45
0.0
1001
ACAD
1000
AcDbSavedByObjectVersion
1070
     0
  0
VISUALSTYLE
  5
155
102
{ACAD_XDICTIONARY
360
1A13
102
}
102
{ACAD_REACTORS
330
99
102
}
330
99
100
AcDbVisualStyle
  2

 70
    22
 71
     2
 72
     2
 73
     0
 90
        0
 40
-0.6
 41
-30.0
 62
     5
 63
     7
 74
     1
 91
        4
 64
     7
 65
   257
 75
     1
175
     1
 42
1.0
 92
        8
 66
     7
 43
1.0
 76
     1
 77
     6
 78
     2
 67
     7
 79
     5
170
     0
171
     0
290
     0
174
     0
 93
        1
 44
0.0
173
     0
291
     1
 45
0.0
1001
ACAD
1000
AcDbSavedByObjectVersion
1070
     0
  0
VISUALSTYLE
  5
A8
102
{ACAD_XDICTIONARY
360
19FD
102
}
102
{ACAD_REACTORS
330
99
102
}
330
99
100
AcDbVisualStyle
  2

 70
    15
 71
     2
 72
     2
 73
     1
 90
        0
 40
-0.6
 41
-30.0
 62
     5
 63
     7
 74
     1
 91
        4
 64
     7
 65
   257
 75
     1
175
     1
 42
1.0
 92
        8
 66
     7
 43
1.0
 76
     1
 77
     6
 78
     2
 67
     7
 79
     5
170
     0
171
     0
290
     0
174
     0
 93
        1
 44
0.0
173
     0
291
     1
 45
0.0
1001
ACAD
1000
AcDbSavedByObjectVersion
1070
     0
  0
VISUALSTYLE
  5
9A
102
{ACAD_XDICTIONARY
360
19E1
102
}
102
{ACAD_REACTORS
330
99
102
}
330
99
100
AcDbVisualStyle
  2

 70
     0
 71
     2
 72
     1
 73
     1
 90
        2
 40
-0.6
 41
30.0
 62
     5
 63
     7
 74
     0
 91
        4
 64
     7
 65
   257
 75
     1
175
     1
 42
1.0
 92
        8
 66
     7
 43
1.0
 76
     1
 77
     6
 78
     2
 67
     7
 79
     5
170
     0
171
     0
290
     0
174
     0
 93
        1
 44
0.0
173
     0
291
     1
 45
0.0
1001
ACAD
1000
AcDbSavedByObjectVersion
1070
     0
  0
VISUALSTYLE
  5
9B
102
{ACAD_XDICTIONARY
360
19E3
102
}
102
{ACAD_REACTORS
330
99
102
}
330
99
100
AcDbVisualStyle
  2

 70
     1
 71
     2
 72
     1
 73
     1
 90
        2
 40
-0.6
 41
30.0
 62
     5
 63
     7
 74
     1
 91
        4
 64
     7
 65
   257
 75
     1
175
     1
 42
1.0
 92
        0
 66
   257
 43
1.0
 76
     1
 77
     6
 78
     2
 67
     7
 79
     5
170
     0
171
     0
290
     0
174
     0
 93
        1
 44
0.0
173
     0
291
     1
 45
0.0
1001
ACAD
1000
AcDbSavedByObjectVersion
1070
     0
  0
VISUALSTYLE
  5
9C
102
{ACAD_XDICTIONARY
360
19E5
102
}
102
{ACAD_REACTORS
330
99
102
}
330
99
100
AcDbVisualStyle
  2

 70
     2
 71
     2
 72
     2
 73
     1
 90
        2
 40
-0.6
 41
30.0
 62
     5
 63
     7
 74
     0
 91
        4
 64
     7
 65
   257
 75
     1
175
     1
 42
1.0
 92
        0
 66
     7
 43
1.0
 76
     1
 77
     6
 78
     2
 67
     7
 79
     5
170
     0
171
     0
290
     0
174
     0
 93
        1
 44
0.0
173
     0
291
     1
 45
0.0
1001
ACAD
1000
AcDbSavedByObjectVersion
1070
     0
  0
VISUALSTYLE
  5
9D
102
{ACAD_XDICTIONARY
360
19E7
102
}
102
{ACAD_REACTORS
330
99
102
}
330
99
100
AcDbVisualStyle
  2

 70
     3
 71
     2
 72
     2
 73
     1
 90
        2
 40
-0.6
 41
30.0
 62
     5
 63
     7
 74
     1
 91
        4
 64
     7
 65
   257
 75
     1
175
     1
 42
1.0
 92
        0
 66
   257
 43
1.0
 76
     1
 77
     6
 78
     2
 67
     7
 79
     5
170
     0
171
     0
290
     0
174
     0
 93
        1
 44
0.0
173
     0
291
     1
 45
0.0
1001
ACAD
1000
AcDbSavedByObjectVersion
1070
     0
  0
VISUALSTYLE
  5
14D
102
{ACAD_XDICTIONARY
360
1A03
102
}
102
{ACAD_REACTORS
330
99
102
}
330
99
100
AcDbVisualStyle
  2

 70
     6
 71
     1
 72
     2
 73
     2
 90
        0
 40
-0.6
 41
-30.0
 62
     5
 63
     7
 74
     2
 91
        2
 64
     7
 65
   257
 75
     2
175
     1
 42
40.0
 92
        0
 66
   257
 43
1.0
 76
     1
 77
     6
 78
     2
 67
     7
 79
     3
170
     0
171
     0
290
     0
174
     0
 93
        1
 44
0.0
173
     0
291
     0
 45
0.0
1001
ACAD
1000
AcDbSavedByObjectVersion
1070
     0
  0
VISUALSTYLE
  5
153
102
{ACAD_XDICTIONARY
360
1A0F
102
}
102
{ACAD_REACTORS
330
99
102
}
330
99
100
AcDbVisualStyle
  2

 70
    20
 71
     2
 72
     2
 73
     0
 90
        0
 40
-0.6
 41
-30.0
 62
     5
 63
     7
 74
     1
 91
        4
 64
     7
 65
   257
 75
     1
175
     1
 42
1.0
 92
       10
 66
     7
 43
1.0
 76
     1
 77
     6
 78
     2
 67
     7
 79
     5
170
     0
171
     0
290
     0
174
     0
 93
        1
 44
0.0
173
     0
291
     1
 45
0.0
1001
ACAD
1000
AcDbSavedByObjectVersion
1070
     0
  0
VISUALSTYLE
  5
A7
102
{ACAD_XDICTIONARY
360
19FB
102
}
102
{ACAD_REACTORS
330
99
102
}
330
99
100
AcDbVisualStyle
  2

 70
    14
 71
     2
 72
     2
 73
     1
 90
        0
 40
-0.6
 41
-30.0
 62
     5
 63
     7
 74
     1
 91
        4
 64
     7
 65
   257
 75
     7
175
     7
 42
1.0
 92
        8
 66
     7
 43
1.0
 76
     1
 77
     6
 78
     2
 67
     7
 79
     5
170
     0
171
     0
290
     0
174
     0
 93
        1
 44
0.0
173
     0
291
     1
 45
0.0
1001
ACAD
1000
AcDbSavedByObjectVersion
1070
     0
  0
VISUALSTYLE
  5
154
102
{ACAD_XDICTIONARY
360
1A11
102
}
102
{ACAD_REACTORS
330
99
102
}
330
99
100
AcDbVisualStyle
  2

 70
    21
 71
     2
 72
     2
 73
     0
 90
        0
 40
-0.6
 41
-30.0
 62
     5
 63
     7
 74
     1
 91
        4
 64
     7
 65
   257
 75
     1
175
     1
 42
1.0
 92
        9
 66
     7
 43
1.0
 76
     1
 77
     6
 78
     2
 67
     7
 79
     5
170
     0
171
     0
290
     0
174
     0
 93
        1
 44
0.0
173
     0
291
     1
 45
0.0
1001
ACAD
1000
AcDbSavedByObjectVersion
1070
     0
  0
VISUALSTYLE
  5
A3
102
{ACAD_XDICTIONARY
360
19F3
102
}
102
{ACAD_REACTORS
330
99
102
}
330
99
100
AcDbVisualStyle
  2

 70
     8
 71
     2
 72
     2
 73
     1
 90
        0
 40
-0.6
 41
-30.0
 62
     5
 63
     7
 74
     1
 91
        0
 64
     7
 65
   257
 75
     1
175
     1
 42
1.0
 92
        8
 66
     8
 43
1.0
 76
     1
 77
     6
 78
     2
 67
     7
 79
     5
170
     0
171
     0
290
     0
174
     0
 93
       13
 44
0.0
173
     0
291
     0
 45
0.0
1001
ACAD
1000
AcDbSavedByObjectVersion
1070
     0
  0
VISUALSTYLE
  5
152
102
{ACAD_XDICTIONARY
360
1A0D
102
}
102
{ACAD_REACTORS
330
99
102
}
330
99
100
AcDbVisualStyle
  2

 70
    27
 71
     2
 72
     2
 73
     1
 90
        2
 40
-0.6
 41
30.0
 62
     5
 63
     7
 74
     0
 91
        4
 64
     7
 65
   257
 75
     1
175
     1
 42
1.0
 92
        8
 66
   257
 43
1.0
 76
     1
 77
     6
 78
     2
 67
     8
 79
     3
170
     0
171
     0
290
     0
174
     0
 93
        5
 44
0.0
173
     0
291
     0
 45
0.0
1001
ACAD
1000
AcDbSavedByObjectVersion
1070
     0
  0
VISUALSTYLE
  5
151
102
{ACAD_XDICTIONARY
360
1A0B
102
}
102
{ACAD_REACTORS
330
99
102
}
330
99
100
AcDbVisualStyle
  2

 70
    26
 71
     2
 72
     2
 73
     1
 90
        2
 40
-0.6
 41
30.0
 62
     5
 63
     7
 74
     1
 91
       10
 64
     7
 65
   257
 75
     2
175
     1
 42
1.0
 92
        8
 66
   257
 43
1.0
 76
     1
 77
     6
 78
     2
 67
     7
 79
     3
170
     0
171
     0
290
     0
174
     0
 93
        5
 44
0.0
173
     0
291
     0
 45
0.0
1001
ACAD
1000
AcDbSavedByObjectVersion
1070
     0
  0
VISUALSTYLE
  5
14E
102
{ACAD_XDICTIONARY
360
1A05
102
}
102
{ACAD_REACTORS
330
99
102
}
330
99
100
AcDbVisualStyle
  2

 70
    23
 71
     2
 72
     2
 73
     3
 90
        0
 40
-0.6
 41
-30.0
 62
     5
 63
     7
 74
     2
 91
        2
 64
     7
 65
     7
 75
     1
175
     1
 42
40.0
 92
        8
 66
     7
 43
1.0
 76
     1
 77
     6
 78
     2
 67
     7
 79
     3
170
     0
171
     0
290
     0
174
     0
 93
        1
 44
0.0
173
     0
291
     0
 45
0.0
1001
ACAD
1000
AcDbSavedByObjectVersion
1070
     0
  0
VISUALSTYLE
  5
14F
102
{ACAD_XDICTIONARY
360
1A07
102
}
102
{ACAD_REACTORS
330
99
102
}
330
99
100
AcDbVisualStyle
  2

 70
    24
 71
     1
 72
     2
 73
     2
 90
        0
 40
-0.6
 41
-30.0
 62
     5
 63
     7
 74
     2
 91
        2
 64
     7
 65
     7
 75
     1
175
     1
 42
40.0
 92
       11
 66
     7
 43
1.0
 76
     1
 77
     6
 78
     2
 67
     7
 79
     6
170
     0
171
     0
290
     0
174
     0
 93
        1
 44
0.0
173
     0
291
     0
 45
0.0
1001
ACAD
1000
AcDbSavedByObjectVersion
1070
     0
  0
VISUALSTYLE
  5
A6
102
{ACAD_XDICTIONARY
360
19F9
102
}
102
{ACAD_REACTORS
330
99
102
}
330
99
100
AcDbVisualStyle
  2

 70
    13
 71
     2
 72
     2
 73
     1
 90
        0
 40
-0.6
 41
-30.0
 62
     5
 63
     7
 74
     1
 91
        4
 64
     7
 65
   257
 75
     1
175
     1
 42
1.0
 92
       12
 66
     7
 43
1.0
 76
     1
 77
     6
 78
     2
 67
     7
 79
     5
170
     0
171
     0
290
     0
174
     0
 93
        1
 44
0.0
173
     0
291
     1
 45
0.0
1001
ACAD
1000
AcDbSavedByObjectVersion
1070
     0
  0
VISUALSTYLE
  5
14C
102
{ACAD_XDICTIONARY
360
1A01
102
}
102
{ACAD_REACTORS
330
99
102
}
330
99
100
AcDbVisualStyle
  2

 70
     5
 71
     0
 72
     2
 73
     0
 90
        0
 40
-0.6
 41
-30.0
 62
     5
 63
     7
 74
     1
 91
        4
 64
     7
 65
   257
 75
     1
175
     1
 42
1.0
 92
        0
 66
   257
 43
1.0
 76
     1
 77
     6
 78
     2
 67
     7
 79
     3
170
     0
171
     0
290
     0
174
     0
 93
        1
 44
0.0
173
     0
291
     0
 45
0.0
1001
ACAD
1000
AcDbSavedByObjectVersion
1070
     0
  0
VISUALSTYLE
  5
150
102
{ACAD_XDICTIONARY
360
1A09
102
}
102
{ACAD_REACTORS
330
99
102
}
330
99
100
AcDbVisualStyle
  2

 70
    25
 71
     2
 72
     2
 73
     1
 90
        1
 40
0.5
 41
-30.0
 62
     5
 63
     7
 74
     1
 91
        0
 64
     7
 65
   257
 75
     1
175
     1
 42
1.0
 92
        8
 66
     7
 43
1.0
 76
     1
 77
     6
 78
     2
 67
     7
 79
     3
170
     0
171
     0
290
     0
174
     0
 93
       13
 44
0.0
173
     0
291
     0
 45
0.0
1001
ACAD
1000
AcDbSavedByObjectVersion
1070
     0
  0
DICTIONARYVAR
  5
245
102
{ACAD_REACTORS
330
66
102
}
330
66
100
DictionaryVariables
280
     0
  1
1:1
  0
DICTIONARYVAR
  5
243
102
{ACAD_REACTORS
330
66
102
}
330
66
100
DictionaryVariables
280
     0
  1
STANDARD
  0
DICTIONARYVAR
  5
89
102
{ACAD_REACTORS
330
66
102
}
330
66
100
DictionaryVariables
280
     0
  1
STANDARD
  0
DICTIONARYVAR
  5
67
102
{ACAD_REACTORS
330
66
102
}
330
66
100
DictionaryVariables
280
     0
  1
2
  0
DICTIONARYVAR
  5
6B
102
{ACAD_REACTORS
330
66
102
}
330
66
100
DictionaryVariables
280
     0
  1
1
  0
DICTIONARYVAR
  5
870
102
{ACAD_REACTORS
330
66
102
}
330
66
100
DictionaryVariables
280
     0
  1
0
  0
DICTIONARYVAR
  5
247
102
{ACAD_REACTORS
330
66
102
}
330
66
100
DictionaryVariables
280
     0
  1
1
  0
DICTIONARYVAR
  5
248
102
{ACAD_REACTORS
330
66
102
}
330
66
100
DictionaryVariables
280
     0
  1
15
  0
DICTIONARYVAR
  5
246
102
{ACAD_REACTORS
330
66
102
}
330
66
100
DictionaryVariables
280
     0
  1
0
  0
DICTIONARYVAR
  5
244
102
{ACAD_REACTORS
330
66
102
}
330
66
100
DictionaryVariables
280
     0
  1
0
  0
DICTIONARYVAR
  5
86F
102
{ACAD_REACTORS
330
66
102
}
330
66
100
DictionaryVariables
280
     0
  1
127
  0
DICTIONARYVAR
  5
189D
102
{ACAD_REACTORS
330
66
102
}
330
66
100
DictionaryVariables
280
     0
  1
2
  0
DICTIONARY
  5
19DA
330
22
100
AcDbDictionary
280
     1
281
     1
  3
ACAD_XREC_ROUNDTRIP
360
19DB
  0
DICTIONARY
  5
19DC
330
59
100
AcDbDictionary
280
     1
281
     1
  3
ACAD_XREC_ROUNDTRIP
360
19DD
  0
DICTIONARY
  5
19DE
330
5E
100
AcDbDictionary
280
     1
281
     1
  3
ACAD_XREC_ROUNDTRIP
360
19DF
  0
DICTIONARY
  5
1098
330
97
100
AcDbDictionary
280
     1
281
     1
  3
ACAD_XREC_ROUNDTRIP
360
1099
  0
DICTIONARY
  5
1096
330
96
100
AcDbDictionary
280
     1
281
     1
  3
ACAD_XREC_ROUNDTRIP
360
1097
  0
DICTIONARY
  5
109A
330
98
100
AcDbDictionary
280
     1
281
     1
  3
ACAD_XREC_ROUNDTRIP
360
109B
  0
DICTIONARY
  5
821
330
87
100
AcDbDictionary
280
     1
281
     1
  3
ACAD_ROUNDTRIP_2008_TABLESTYLE_CELLSTYLEMAP
360
19D3
  3
ACAD_XREC_ROUNDTRIP
360
19E0
  0
DICTIONARY
  5
19EB
330
9F
100
AcDbDictionary
280
     1
281
     1
  3
ACAD_XREC_ROUNDTRIP
360
19EC
  0
DICTIONARY
  5
19EF
330
A1
100
AcDbDictionary
280
     1
281
     1
  3
ACAD_XREC_ROUNDTRIP
360
19F0
  0
DICTIONARY
  5
19ED
330
A0
100
AcDbDictionary
280
     1
281
     1
  3
ACAD_XREC_ROUNDTRIP
360
19EE
  0
DICTIONARY
  5
19E9
330
9E
100
AcDbDictionary
280
     1
281
     1
  3
ACAD_XREC_ROUNDTRIP
360
19EA
  0
DICTIONARY
  5
19F7
330
A5
100
AcDbDictionary
280
     1
281
     1
  3
ACAD_XREC_ROUNDTRIP
360
19F8
  0
DICTIONARY
  5
19FF
330
A9
100
AcDbDictionary
280
     1
281
     1
  3
ACAD_XREC_ROUNDTRIP
360
1A00
  0
DICTIONARY
  5
19F1
330
A2
100
AcDbDictionary
280
     1
281
     1
  3
ACAD_XREC_ROUNDTRIP
360
19F2
  0
DICTIONARY
  5
19F5
330
A4
100
AcDbDictionary
280
     1
281
     1
  3
ACAD_XREC_ROUNDTRIP
360
19F6
  0
DICTIONARY
  5
1A13
330
155
100
AcDbDictionary
280
     1
281
     1
  3
ACAD_XREC_ROUNDTRIP
360
1A14
  0
DICTIONARY
  5
19FD
330
A8
100
AcDbDictionary
280
     1
281
     1
  3
ACAD_XREC_ROUNDTRIP
360
19FE
  0
DICTIONARY
  5
19E1
330
9A
100
AcDbDictionary
280
     1
281
     1
  3
ACAD_XREC_ROUNDTRIP
360
19E2
  0
DICTIONARY
  5
19E3
330
9B
100
AcDbDictionary
280
     1
281
     1
  3
ACAD_XREC_ROUNDTRIP
360
19E4
  0
DICTIONARY
  5
19E5
330
9C
100
AcDbDictionary
280
     1
281
     1
  3
ACAD_XREC_ROUNDTRIP
360
19E6
  0
DICTIONARY
  5
19E7
330
9D
100
AcDbDictionary
280
     1
281
     1
  3
ACAD_XREC_ROUNDTRIP
360
19E8
  0
DICTIONARY
  5
1A03
330
14D
100
AcDbDictionary
280
     1
281
     1
  3
ACAD_XREC_ROUNDTRIP
360
1A04
  0
DICTIONARY
  5
1A0F
330
153
100
AcDbDictionary
280
     1
281
     1
  3
ACAD_XREC_ROUNDTRIP
360
1A10
  0
DICTIONARY
  5
19FB
330
A7
100
AcDbDictionary
280
     1
281
     1
  3
ACAD_XREC_ROUNDTRIP
360
19FC
  0
DICTIONARY
  5
1A11
330
154
100
AcDbDictionary
280
     1
281
     1
  3
ACAD_XREC_ROUNDTRIP
360
1A12
  0
DICTIONARY
  5
19F3
330
A3
100
AcDbDictionary
280
     1
281
     1
  3
ACAD_XREC_ROUNDTRIP
360
19F4
  0
DICTIONARY
  5
1A0D
330
152
100
AcDbDictionary
280
     1
281
     1
  3
ACAD_XREC_ROUNDTRIP
360
1A0E
  0
DICTIONARY
  5
1A0B
330
151
100
AcDbDictionary
280
     1
281
     1
  3
ACAD_XREC_ROUNDTRIP
360
1A0C
  0
DICTIONARY
  5
1A05
330
14E
100
AcDbDictionary
280
     1
281
     1
  3
ACAD_XREC_ROUNDTRIP
360
1A06
  0
DICTIONARY
  5
1A07
330
14F
100
AcDbDictionary
280
     1
281
     1
  3
ACAD_XREC_ROUNDTRIP
360
1A08
  0
DICTIONARY
  5
19F9
330
A6
100
AcDbDictionary
280
     1
281
     1
  3
ACAD_XREC_ROUNDTRIP
360
19FA
  0
DICTIONARY
  5
1A01
330
14C
100
AcDbDictionary
280
     1
281
     1
  3
ACAD_XREC_ROUNDTRIP
360
1A02
  0
DICTIONARY
  5
1A09
330
150
100
AcDbDictionary
280
     1
281
     1
  3
ACAD_XREC_ROUNDTRIP
360
1A0A
  0
XRECORD
  5
19DB
102
{ACAD_REACTORS
330
19DA
102
}
330
19DA
100
AcDbXrecord
280
     1
102
SHADEPLOT
 70
     0
102
SHADEPLOTRESLEVEL
 70
     2
102
SHADEPLOTCUSTOMDPI
 70
   300
  0
XRECORD
  5
19DD
102
{ACAD_REACTORS
330
19DC
102
}
330
19DC
100
AcDbXrecord
280
     1
102
SHADEPLOT
 70
     0
102
SHADEPLOTRESLEVEL
 70
     2
102
SHADEPLOTCUSTOMDPI
 70
   300
  0
XRECORD
  5
19DF
102
{ACAD_REACTORS
330
19DE
102
}
330
19DE
100
AcDbXrecord
280
     1
102
SHADEPLOT
 70
     0
102
SHADEPLOTRESLEVEL
 70
     2
102
SHADEPLOTCUSTOMDPI
 70
   300
  0
XRECORD
  5
1099
102
{ACAD_REACTORS
330
1098
102
}
330
1098
100
AcDbXrecord
280
     1
102
MATERIAL
148
0.0
149
0.0
149
0.0
 93
        0
 94
      127
282
     0
 72
     1
 77
     1
171
     1
175
     1
179
     1
273
     0
  0
XRECORD
  5
1097
102
{ACAD_REACTORS
330
1096
102
}
330
1096
100
AcDbXrecord
280
     1
102
MATERIAL
148
0.0
149
0.0
149
0.0
 93
        0
 94
      127
282
     0
 72
     1
 77
     1
171
     1
175
     1
179
     1
273
     0
  0
XRECORD
  5
109B
102
{ACAD_REACTORS
330
109A
102
}
330
109A
100
AcDbXrecord
280
     1
102
MATERIAL
148
0.0
149
0.0
149
0.0
 93
        0
 94
      127
282
     0
 72
     1
 77
     1
171
     1
175
     1
179
     1
273
     0
  0
CELLSTYLEMAP
  5
19D3
102
{ACAD_REACTORS
330
821
102
}
330
821
100
AcDbCellStyleMap
 90
        3
300
CELLSTYLE
  1
TABLEFORMAT_BEGIN
 90
        5
170
     1
 91
        0
 92
    32768
 62
   257
 93
        1
300
CONTENTFORMAT
  1
CONTENTFORMAT_BEGIN
 90
        0
 91
        0
 92
      512
 93
        0
300

 40
0.0
140
1.0
 94
        5
 62
     0
340
11
144
0.25
309
CONTENTFORMAT_END
171
     1
301
MARGIN
  1
CELLMARGIN_BEGIN
 40
0.06
 40
0.06
 40
0.06
 40
0.06
 40
0.18
 40
0.18
309
CELLMARGIN_END
 94
        6
 95
        1
302
GRIDFORMAT
  1
GRIDFORMAT_BEGIN
 90
        0
 91
        1
 62
     0
 92
       -2
340
0
 93
        0
 40
0.045
309
GRIDFORMAT_END
 95
        2
302
GRIDFORMAT
  1
GRIDFORMAT_BEGIN
 90
        0
 91
        1
 62
     0
 92
       -2
340
0
 93
        0
 40
0.045
309
GRIDFORMAT_END
 95
        4
302
GRIDFORMAT
  1
GRIDFORMAT_BEGIN
 90
        0
 91
        1
 62
     0
 92
       -2
340
0
 93
        0
 40
0.045
309
GRIDFORMAT_END
 95
        8
302
GRIDFORMAT
  1
GRIDFORMAT_BEGIN
 90
        0
 91
        1
 62
     0
 92
       -2
340
0
 93
        0
 40
0.045
309
GRIDFORMAT_END
 95
       16
302
GRIDFORMAT
  1
GRIDFORMAT_BEGIN
 90
        0
 91
        1
 62
     0
 92
       -2
340
0
 93
        0
 40
0.045
309
GRIDFORMAT_END
 95
       32
302
GRIDFORMAT
  1
GRIDFORMAT_BEGIN
 90
        0
 91
        1
 62
     0
 92
       -2
340
0
 93
        0
 40
0.045
309
GRIDFORMAT_END
309
TABLEFORMAT_END
  1
CELLSTYLE_BEGIN
 90
        1
 91
        1
300
_TITLE
309
CELLSTYLE_END
300
CELLSTYLE
  1
TABLEFORMAT_BEGIN
 90
        5
170
     1
 91
        0
 92
        0
 62
   257
 93
        1
300
CONTENTFORMAT
  1
CONTENTFORMAT_BEGIN
 90
        0
 91
        0
 92
      512
 93
        0
300

 40
0.0
140
1.0
 94
        5
 62
     0
340
11
144
0.18
309
CONTENTFORMAT_END
171
     1
301
MARGIN
  1
CELLMARGIN_BEGIN
 40
0.06
 40
0.06
 40
0.06
 40
0.06
 40
0.18
 40
0.18
309
CELLMARGIN_END
 94
        6
 95
        1
302
GRIDFORMAT
  1
GRIDFORMAT_BEGIN
 90
        0
 91
        1
 62
     0
 92
       -2
340
0
 93
        0
 40
0.045
309
GRIDFORMAT_END
 95
        2
302
GRIDFORMAT
  1
GRIDFORMAT_BEGIN
 90
        0
 91
        1
 62
     0
 92
       -2
340
0
 93
        0
 40
0.045
309
GRIDFORMAT_END
 95
        4
302
GRIDFORMAT
  1
GRIDFORMAT_BEGIN
 90
        0
 91
        1
 62
     0
 92
       -2
340
0
 93
        0
 40
0.045
309
GRIDFORMAT_END
 95
        8
302
GRIDFORMAT
  1
GRIDFORMAT_BEGIN
 90
        0
 91
        1
 62
     0
 92
       -2
340
0
 93
        0
 40
0.045
309
GRIDFORMAT_END
 95
       16
302
GRIDFORMAT
  1
GRIDFORMAT_BEGIN
 90
        0
 91
        1
 62
     0
 92
       -2
340
0
 93
        0
 40
0.045
309
GRIDFORMAT_END
 95
       32
302
GRIDFORMAT
  1
GRIDFORMAT_BEGIN
 90
        0
 91
        1
 62
     0
 92
       -2
340
0
 93
        0
 40
0.045
309
GRIDFORMAT_END
309
TABLEFORMAT_END
  1
CELLSTYLE_BEGIN
 90
        2
 91
        1
300
_HEADER
309
CELLSTYLE_END
300
CELLSTYLE
  1
TABLEFORMAT_BEGIN
 90
        5
170
     1
 91
        0
 92
        0
 62
   257
 93
        1
300
CONTENTFORMAT
  1
CONTENTFORMAT_BEGIN
 90
        0
 91
        0
 92
      512
 93
        0
300

 40
0.0
140
1.0
 94
        2
 62
     0
340
11
144
0.18
309
CONTENTFORMAT_END
171
     1
301
MARGIN
  1
CELLMARGIN_BEGIN
 40
0.06
 40
0.06
 40
0.06
 40
0.06
 40
0.18
 40
0.18
309
CELLMARGIN_END
 94
        6
 95
        1
302
GRIDFORMAT
  1
GRIDFORMAT_BEGIN
 90
        0
 91
        1
 62
     0
 92
       -2
340
0
 93
        0
 40
0.045
309
GRIDFORMAT_END
 95
        2
302
GRIDFORMAT
  1
GRIDFORMAT_BEGIN
 90
        0
 91
        1
 62
     0
 92
       -2
340
0
 93
        0
 40
0.045
309
GRIDFORMAT_END
 95
        4
302
GRIDFORMAT
  1
GRIDFORMAT_BEGIN
 90
        0
 91
        1
 62
     0
 92
       -2
340
0
 93
        0
 40
0.045
309
GRIDFORMAT_END
 95
        8
302
GRIDFORMAT
  1
GRIDFORMAT_BEGIN
 90
        0
 91
        1
 62
     0
 92
       -2
340
0
 93
        0
 40
0.045
309
GRIDFORMAT_END
 95
       16
302
GRIDFORMAT
  1
GRIDFORMAT_BEGIN
 90
        0
 91
        1
 62
     0
 92
       -2
340
0
 93
        0
 40
0.045
309
GRIDFORMAT_END
 95
       32
302
GRIDFORMAT
  1
GRIDFORMAT_BEGIN
 90
        0
 91
        1
 62
     0
 92
       -2
340
0
 93
        0
 40
0.045
309
GRIDFORMAT_END
309
TABLEFORMAT_END
  1
CELLSTYLE_BEGIN
 90
        3
 91
        2
300
_DATA
309
CELLSTYLE_END
  0
XRECORD
  5
19E0
102
{ACAD_REACTORS
330
821
102
}
330
821
100
AcDbXrecord
280
     1
102
ACAD_ROUNDTRIP_PRE2007_TABLESTYLE
 90
      512
 91
        0
  1

 92
      512
 93
        0
  2

 94
      512
 95
        0
  3

  0
XRECORD
  5
19EC
102
{ACAD_REACTORS
330
19EB
102
}
330
19EB
100
AcDbXrecord
280
     1
102
RTVSPropertyOp0
 70
     1
102
RTVSPropertyOp1
 70
     1
102
RTVSPropertyOp2
 70
     1
102
RTVSPropertyOp3
 70
     1
102
RTVSPropertyOp4
 70
     1
102
RTVSPropertyOp5
 70
     1
102
RTVSPropertyOp6
 70
     1
102
RTVSPropertyOp7
 70
     1
102
RTVSPropertyOp8
 70
     1
102
RTVSPropertyOp9
 70
     1
102
RTVSPropertyOp10
 70
     1
102
RTVSPropertyOp11
 70
     1
102
RTVSPropertyOp12
 70
     1
102
RTVSPropertyOp13
 70
     1
102
RTVSPropertyOp14
 70
     1
102
RTVSPropertyOp15
 70
     1
102
RTVSPropertyOp16
 70
     1
102
RTVSPropertyOp17
 70
     1
102
RTVSPropertyOp18
 70
     1
102
RTVSPropertyOp19
 70
     1
102
RTVSPropertyOp20
 70
     1
102
RTVSPropertyOp21
 70
     1
102
RTVSPropertyOp22
 70
     1
102
RTVSPropertyOp23
 70
     1
102
RTVSPropertyOp24
 70
     1
102
RTVSPropertyOp25
 70
     1
102
RTVSPropertyOp26
 70
     1
102
RTVSPropertyOp27
 70
     1
102
RTVSPropertyOp28
 70
     1
102
RTVSPropertyOp29
 70
     1
102
RTVSPropertyOp30
 70
     1
102
RTVSPropertyOp31
 70
     1
102
RTVSPropertyOp32
 70
     1
  0
XRECORD
  5
19F0
102
{ACAD_REACTORS
330
19EF
102
}
330
19EF
100
AcDbXrecord
280
     1
102
RTVSPropertyOp0
 70
     1
102
RTVSPropertyOp1
 70
     1
102
RTVSPropertyOp2
 70
     1
102
RTVSPropertyOp3
 70
     1
102
RTVSPropertyOp4
 70
     1
102
RTVSPropertyOp5
 70
     1
102
RTVSPropertyOp6
 70
     1
102
RTVSPropertyOp7
 70
     1
102
RTVSPropertyOp8
 70
     1
102
RTVSPropertyOp9
 70
     1
102
RTVSPropertyOp10
 70
     1
102
RTVSPropertyOp11
 70
     1
102
RTVSPropertyOp12
 70
     1
102
RTVSPropertyOp13
 70
     1
102
RTVSPropertyOp14
 70
     1
102
RTVSPropertyOp15
 70
     1
102
RTVSPropertyOp16
 70
     1
102
RTVSPropertyOp17
 70
     1
102
RTVSPropertyOp18
 70
     1
102
RTVSPropertyOp19
 70
     1
102
RTVSPropertyOp20
 70
     1
102
RTVSPropertyOp21
 70
     1
102
RTVSPropertyOp22
 70
     1
102
RTVSPropertyOp23
 70
     1
102
RTVSPropertyOp24
 70
     1
102
RTVSPropertyOp25
 70
     1
102
RTVSPropertyOp26
 70
     1
102
RTVSPropertyOp27
 70
     1
102
RTVSPropertyOp28
 70
     1
102
RTVSPropertyOp29
 70
     1
102
RTVSPropertyOp30
 70
     1
102
RTVSPropertyOp31
 70
     1
102
RTVSPropertyOp32
 70
     1
  0
XRECORD
  5
19EE
102
{ACAD_REACTORS
330
19ED
102
}
330
19ED
100
AcDbXrecord
280
     1
102
RTVSPropertyOp0
 70
     1
102
RTVSPropertyOp1
 70
     1
102
RTVSPropertyOp2
 70
     1
102
RTVSPropertyOp3
 70
     1
102
RTVSPropertyOp4
 70
     1
102
RTVSPropertyOp5
 70
     1
102
RTVSPropertyOp6
 70
     1
102
RTVSPropertyOp7
 70
     1
102
RTVSPropertyOp8
 70
     1
102
RTVSPropertyOp9
 70
     1
102
RTVSPropertyOp10
 70
     1
102
RTVSPropertyOp11
 70
     1
102
RTVSPropertyOp12
 70
     1
102
RTVSPropertyOp13
 70
     1
102
RTVSPropertyOp14
 70
     1
102
RTVSPropertyOp15
 70
     1
102
RTVSPropertyOp16
 70
     1
102
RTVSPropertyOp17
 70
     1
102
RTVSPropertyOp18
 70
     1
102
RTVSPropertyOp19
 70
     1
102
RTVSPropertyOp20
 70
     1
102
RTVSPropertyOp21
 70
     1
102
RTVSPropertyOp22
 70
     1
102
RTVSPropertyOp23
 70
     1
102
RTVSPropertyOp24
 70
     1
102
RTVSPropertyOp25
 70
     1
102
RTVSPropertyOp26
 70
     1
102
RTVSPropertyOp27
 70
     1
102
RTVSPropertyOp28
 70
     1
102
RTVSPropertyOp29
 70
     1
102
RTVSPropertyOp30
 70
     1
102
RTVSPropertyOp31
 70
     1
102
RTVSPropertyOp32
 70
     1
  0
XRECORD
  5
19EA
102
{ACAD_REACTORS
330
19E9
102
}
330
19E9
100
AcDbXrecord
280
     1
102
RTVSPropertyOp0
 70
     1
102
RTVSPropertyOp1
 70
     1
102
RTVSPropertyOp2
 70
     1
102
RTVSPropertyOp3
 70
     1
102
RTVSPropertyOp4
 70
     1
102
RTVSPropertyOp5
 70
     1
102
RTVSPropertyOp6
 70
     1
102
RTVSPropertyOp7
 70
     1
102
RTVSPropertyOp8
 70
     1
102
RTVSPropertyOp9
 70
     1
102
RTVSPropertyOp10
 70
     1
102
RTVSPropertyOp11
 70
     1
102
RTVSPropertyOp12
 70
     1
102
RTVSPropertyOp13
 70
     1
102
RTVSPropertyOp14
 70
     1
102
RTVSPropertyOp15
 70
     1
102
RTVSPropertyOp16
 70
     1
102
RTVSPropertyOp17
 70
     1
102
RTVSPropertyOp18
 70
     1
102
RTVSPropertyOp19
 70
     1
102
RTVSPropertyOp20
 70
     1
102
RTVSPropertyOp21
 70
     1
102
RTVSPropertyOp22
 70
     1
102
RTVSPropertyOp23
 70
     1
102
RTVSPropertyOp24
 70
     1
102
RTVSPropertyOp25
 70
     1
102
RTVSPropertyOp26
 70
     1
102
RTVSPropertyOp27
 70
     1
102
RTVSPropertyOp28
 70
     1
102
RTVSPropertyOp29
 70
     1
102
RTVSPropertyOp30
 70
     1
102
RTVSPropertyOp31
 70
     1
102
RTVSPropertyOp32
 70
     1
  0
XRECORD
  5
19F8
102
{ACAD_REACTORS
330
19F7
102
}
330
19F7
100
AcDbXrecord
280
     1
102
RTVSPropertyOp0
 70
     1
102
RTVSPropertyOp1
 70
     1
102
RTVSPropertyOp2
 70
     1
102
RTVSPropertyOp3
 70
     1
102
RTVSPropertyOp4
 70
     1
102
RTVSPropertyOp5
 70
     1
102
RTVSPropertyOp6
 70
     1
102
RTVSPropertyOp7
 70
     1
102
RTVSPropertyOp8
 70
     1
102
RTVSPropertyOp9
 70
     1
102
RTVSPropertyOp10
 70
     1
102
RTVSPropertyOp11
 70
     1
102
RTVSPropertyOp12
 70
     1
102
RTVSPropertyOp13
 70
     1
102
RTVSPropertyOp14
 70
     1
102
RTVSPropertyOp15
 70
     1
102
RTVSPropertyOp16
 70
     1
102
RTVSPropertyOp17
 70
     1
102
RTVSPropertyOp18
 70
     1
102
RTVSPropertyOp19
 70
     1
102
RTVSPropertyOp20
 70
     1
102
RTVSPropertyOp21
 70
     1
102
RTVSPropertyOp22
 70
     1
102
RTVSPropertyOp23
 70
     1
102
RTVSPropertyOp24
 70
     1
102
RTVSPropertyOp25
 70
     1
102
RTVSPropertyOp26
 70
     1
102
RTVSPropertyOp27
 70
     1
102
RTVSPropertyOp28
 70
     1
102
RTVSPropertyOp29
 70
     1
102
RTVSPropertyOp30
 70
     1
102
RTVSPropertyOp31
 70
     1
102
RTVSPropertyOp32
 70
     1
  0
XRECORD
  5
1A00
102
{ACAD_REACTORS
330
19FF
102
}
330
19FF
100
AcDbXrecord
280
     1
102
RTVSPropertyOp0
 70
     1
102
RTVSPropertyOp1
 70
     1
102
RTVSPropertyOp2
 70
     1
102
RTVSPropertyOp3
 70
     1
102
RTVSPropertyOp4
 70
     1
102
RTVSPropertyOp5
 70
     1
102
RTVSPropertyOp6
 70
     1
102
RTVSPropertyOp7
 70
     1
102
RTVSPropertyOp8
 70
     1
102
RTVSPropertyOp9
 70
     1
102
RTVSPropertyOp10
 70
     1
102
RTVSPropertyOp11
 70
     1
102
RTVSPropertyOp12
 70
     1
102
RTVSPropertyOp13
 70
     1
102
RTVSPropertyOp14
 70
     1
102
RTVSPropertyOp15
 70
     1
102
RTVSPropertyOp16
 70
     1
102
RTVSPropertyOp17
 70
     1
102
RTVSPropertyOp18
 70
     1
102
RTVSPropertyOp19
 70
     1
102
RTVSPropertyOp20
 70
     1
102
RTVSPropertyOp21
 70
     1
102
RTVSPropertyOp22
 70
     1
102
RTVSPropertyOp23
 70
     1
102
RTVSPropertyOp24
 70
     1
102
RTVSPropertyOp25
 70
     1
102
RTVSPropertyOp26
 70
     1
102
RTVSPropertyOp27
 70
     1
102
RTVSPropertyOp28
 70
     1
102
RTVSPropertyOp29
 70
     1
102
RTVSPropertyOp30
 70
     1
102
RTVSPropertyOp31
 70
     1
102
RTVSPropertyOp32
 70
     1
  0
XRECORD
  5
19F2
102
{ACAD_REACTORS
330
19F1
102
}
330
19F1
100
AcDbXrecord
280
     1
102
RTVSPropertyOp0
 70
     1
102
RTVSPropertyOp1
 70
     1
102
RTVSPropertyOp2
 70
     1
102
RTVSPropertyOp3
 70
     1
102
RTVSPropertyOp4
 70
     1
102
RTVSPropertyOp5
 70
     1
102
RTVSPropertyOp6
 70
     1
102
RTVSPropertyOp7
 70
     1
102
RTVSPropertyOp8
 70
     1
102
RTVSPropertyOp9
 70
     1
102
RTVSPropertyOp10
 70
     1
102
RTVSPropertyOp11
 70
     1
102
RTVSPropertyOp12
 70
     1
102
RTVSPropertyOp13
 70
     1
102
RTVSPropertyOp14
 70
     1
102
RTVSPropertyOp15
 70
     1
102
RTVSPropertyOp16
 70
     1
102
RTVSPropertyOp17
 70
     1
102
RTVSPropertyOp18
 70
     1
102
RTVSPropertyOp19
 70
     1
102
RTVSPropertyOp20
 70
     1
102
RTVSPropertyOp21
 70
     1
102
RTVSPropertyOp22
 70
     1
102
RTVSPropertyOp23
 70
     1
102
RTVSPropertyOp24
 70
     1
102
RTVSPropertyOp25
 70
     1
102
RTVSPropertyOp26
 70
     1
102
RTVSPropertyOp27
 70
     1
102
RTVSPropertyOp28
 70
     1
102
RTVSPropertyOp29
 70
     1
102
RTVSPropertyOp30
 70
     1
102
RTVSPropertyOp31
 70
     1
102
RTVSPropertyOp32
 70
     1
  0
XRECORD
  5
19F6
102
{ACAD_REACTORS
330
19F5
102
}
330
19F5
100
AcDbXrecord
280
     1
102
RTVSPropertyOp0
 70
     1
102
RTVSPropertyOp1
 70
     1
102
RTVSPropertyOp2
 70
     1
102
RTVSPropertyOp3
 70
     1
102
RTVSPropertyOp4
 70
     1
102
RTVSPropertyOp5
 70
     1
102
RTVSPropertyOp6
 70
     1
102
RTVSPropertyOp7
 70
     1
102
RTVSPropertyOp8
 70
     1
102
RTVSPropertyOp9
 70
     1
102
RTVSPropertyOp10
 70
     1
102
RTVSPropertyOp11
 70
     1
102
RTVSPropertyOp12
 70
     1
102
RTVSPropertyOp13
 70
     1
102
RTVSPropertyOp14
 70
     1
102
RTVSPropertyOp15
 70
     1
102
RTVSPropertyOp16
 70
     1
102
RTVSPropertyOp17
 70
     1
102
RTVSPropertyOp18
 70
     1
102
RTVSPropertyOp19
 70
     1
102
RTVSPropertyOp20
 70
     1
102
RTVSPropertyOp21
 70
     1
102
RTVSPropertyOp22
 70
     1
102
RTVSPropertyOp23
 70
     1
102
RTVSPropertyOp24
 70
     1
102
RTVSPropertyOp25
 70
     1
102
RTVSPropertyOp26
 70
     1
102
RTVSPropertyOp27
 70
     1
102
RTVSPropertyOp28
 70
     1
102
RTVSPropertyOp29
 70
     1
102
RTVSPropertyOp30
 70
     1
102
RTVSPropertyOp31
 70
     1
102
RTVSPropertyOp32
 70
     1
  0
XRECORD
  5
1A14
102
{ACAD_REACTORS
330
1A13
102
}
330
1A13
100
AcDbXrecord
280
     1
102
RTVSPropertyOp0
 70
     0
102
RTVSPropertyOp1
 70
     0
102
RTVSPropertyOp2
 70
     0
102
RTVSPropertyOp3
 70
     0
102
RTVSPropertyOp4
 70
     0
102
RTVSPropertyOp5
 70
     0
102
RTVSPropertyOp6
 70
     0
102
RTVSPropertyOp7
 70
     0
102
RTVSPropertyOp8
 70
     0
102
RTVSPropertyOp9
 70
     0
102
RTVSPropertyOp10
 70
     0
102
RTVSPropertyOp11
 70
     0
102
RTVSPropertyOp12
 70
     0
102
RTVSPropertyOp13
 70
     0
102
RTVSPropertyOp14
 70
     2
102
RTVSPropertyOp15
 70
     0
102
RTVSPropertyOp16
 70
     0
102
RTVSPropertyOp17
 70
     0
102
RTVSPropertyOp18
 70
     0
102
RTVSPropertyOp19
 70
     0
102
RTVSPropertyOp20
 70
     0
102
RTVSPropertyOp21
 70
     0
102
RTVSPropertyOp22
 70
     0
102
RTVSPropertyOp23
 70
     0
102
RTVSPropertyOp24
 70
     0
102
RTVSPropertyOp25
 70
     0
102
RTVSPropertyOp26
 70
     0
102
RTVSPropertyOp27
 70
     0
102
RTVSPropertyOp28
 70
     1
102
RTVSPropertyOp29
 70
     1
102
RTVSPropertyOp30
 70
     1
102
RTVSPropertyOp31
 70
     1
102
RTVSPropertyOp32
 70
     1
  0
XRECORD
  5
19FE
102
{ACAD_REACTORS
330
19FD
102
}
330
19FD
100
AcDbXrecord
280
     1
102
RTVSPropertyOp0
 70
     1
102
RTVSPropertyOp1
 70
     1
102
RTVSPropertyOp2
 70
     1
102
RTVSPropertyOp3
 70
     1
102
RTVSPropertyOp4
 70
     1
102
RTVSPropertyOp5
 70
     1
102
RTVSPropertyOp6
 70
     1
102
RTVSPropertyOp7
 70
     1
102
RTVSPropertyOp8
 70
     1
102
RTVSPropertyOp9
 70
     1
102
RTVSPropertyOp10
 70
     1
102
RTVSPropertyOp11
 70
     1
102
RTVSPropertyOp12
 70
     1
102
RTVSPropertyOp13
 70
     1
102
RTVSPropertyOp14
 70
     1
102
RTVSPropertyOp15
 70
     1
102
RTVSPropertyOp16
 70
     1
102
RTVSPropertyOp17
 70
     1
102
RTVSPropertyOp18
 70
     1
102
RTVSPropertyOp19
 70
     1
102
RTVSPropertyOp20
 70
     1
102
RTVSPropertyOp21
 70
     1
102
RTVSPropertyOp22
 70
     1
102
RTVSPropertyOp23
 70
     1
102
RTVSPropertyOp24
 70
     1
102
RTVSPropertyOp25
 70
     1
102
RTVSPropertyOp26
 70
     1
102
RTVSPropertyOp27
 70
     1
102
RTVSPropertyOp28
 70
     1
102
RTVSPropertyOp29
 70
     1
102
RTVSPropertyOp30
 70
     1
102
RTVSPropertyOp31
 70
     1
102
RTVSPropertyOp32
 70
     1
  0
XRECORD
  5
19E2
102
{ACAD_REACTORS
330
19E1
102
}
330
19E1
100
AcDbXrecord
280
     1
102
RTVSPropertyOp0
 70
     1
102
RTVSPropertyOp1
 70
     1
102
RTVSPropertyOp2
 70
     1
102
RTVSPropertyOp3
 70
     1
102
RTVSPropertyOp4
 70
     1
102
RTVSPropertyOp5
 70
     1
102
RTVSPropertyOp6
 70
     1
102
RTVSPropertyOp7
 70
     1
102
RTVSPropertyOp8
 70
     1
102
RTVSPropertyOp9
 70
     1
102
RTVSPropertyOp10
 70
     1
102
RTVSPropertyOp11
 70
     1
102
RTVSPropertyOp12
 70
     1
102
RTVSPropertyOp13
 70
     1
102
RTVSPropertyOp14
 70
     1
102
RTVSPropertyOp15
 70
     1
102
RTVSPropertyOp16
 70
     1
102
RTVSPropertyOp17
 70
     1
102
RTVSPropertyOp18
 70
     1
102
RTVSPropertyOp19
 70
     1
102
RTVSPropertyOp20
 70
     1
102
RTVSPropertyOp21
 70
     1
102
RTVSPropertyOp22
 70
     1
102
RTVSPropertyOp23
 70
     1
102
RTVSPropertyOp24
 70
     1
102
RTVSPropertyOp25
 70
     1
102
RTVSPropertyOp26
 70
     1
102
RTVSPropertyOp27
 70
     1
102
RTVSPropertyOp28
 70
     1
102
RTVSPropertyOp29
 70
     1
102
RTVSPropertyOp30
 70
     1
102
RTVSPropertyOp31
 70
     1
102
RTVSPropertyOp32
 70
     1
  0
XRECORD
  5
19E4
102
{ACAD_REACTORS
330
19E3
102
}
330
19E3
100
AcDbXrecord
280
     1
102
RTVSPropertyOp0
 70
     1
102
RTVSPropertyOp1
 70
     1
102
RTVSPropertyOp2
 70
     1
102
RTVSPropertyOp3
 70
     1
102
RTVSPropertyOp4
 70
     1
102
RTVSPropertyOp5
 70
     1
102
RTVSPropertyOp6
 70
     1
102
RTVSPropertyOp7
 70
     1
102
RTVSPropertyOp8
 70
     1
102
RTVSPropertyOp9
 70
     1
102
RTVSPropertyOp10
 70
     1
102
RTVSPropertyOp11
 70
     1
102
RTVSPropertyOp12
 70
     1
102
RTVSPropertyOp13
 70
     1
102
RTVSPropertyOp14
 70
     1
102
RTVSPropertyOp15
 70
     1
102
RTVSPropertyOp16
 70
     1
102
RTVSPropertyOp17
 70
     1
102
RTVSPropertyOp18
 70
     1
102
RTVSPropertyOp19
 70
     1
102
RTVSPropertyOp20
 70
     1
102
RTVSPropertyOp21
 70
     1
102
RTVSPropertyOp22
 70
     1
102
RTVSPropertyOp23
 70
     1
102
RTVSPropertyOp24
 70
     1
102
RTVSPropertyOp25
 70
     1
102
RTVSPropertyOp26
 70
     1
102
RTVSPropertyOp27
 70
     1
102
RTVSPropertyOp28
 70
     1
102
RTVSPropertyOp29
 70
     1
102
RTVSPropertyOp30
 70
     1
102
RTVSPropertyOp31
 70
     1
102
RTVSPropertyOp32
 70
     1
  0
XRECORD
  5
19E6
102
{ACAD_REACTORS
330
19E5
102
}
330
19E5
100
AcDbXrecord
280
     1
102
RTVSPropertyOp0
 70
     1
102
RTVSPropertyOp1
 70
     1
102
RTVSPropertyOp2
 70
     1
102
RTVSPropertyOp3
 70
     1
102
RTVSPropertyOp4
 70
     1
102
RTVSPropertyOp5
 70
     1
102
RTVSPropertyOp6
 70
     1
102
RTVSPropertyOp7
 70
     1
102
RTVSPropertyOp8
 70
     1
102
RTVSPropertyOp9
 70
     1
102
RTVSPropertyOp10
 70
     1
102
RTVSPropertyOp11
 70
     1
102
RTVSPropertyOp12
 70
     1
102
RTVSPropertyOp13
 70
     1
102
RTVSPropertyOp14
 70
     1
102
RTVSPropertyOp15
 70
     1
102
RTVSPropertyOp16
 70
     1
102
RTVSPropertyOp17
 70
     1
102
RTVSPropertyOp18
 70
     1
102
RTVSPropertyOp19
 70
     1
102
RTVSPropertyOp20
 70
     1
102
RTVSPropertyOp21
 70
     1
102
RTVSPropertyOp22
 70
     1
102
RTVSPropertyOp23
 70
     1
102
RTVSPropertyOp24
 70
     1
102
RTVSPropertyOp25
 70
     1
102
RTVSPropertyOp26
 70
     1
102
RTVSPropertyOp27
 70
     1
102
RTVSPropertyOp28
 70
     1
102
RTVSPropertyOp29
 70
     1
102
RTVSPropertyOp30
 70
     1
102
RTVSPropertyOp31
 70
     1
102
RTVSPropertyOp32
 70
     1
  0
XRECORD
  5
19E8
102
{ACAD_REACTORS
330
19E7
102
}
330
19E7
100
AcDbXrecord
280
     1
102
RTVSPropertyOp0
 70
     1
102
RTVSPropertyOp1
 70
     1
102
RTVSPropertyOp2
 70
     1
102
RTVSPropertyOp3
 70
     1
102
RTVSPropertyOp4
 70
     1
102
RTVSPropertyOp5
 70
     1
102
RTVSPropertyOp6
 70
     1
102
RTVSPropertyOp7
 70
     1
102
RTVSPropertyOp8
 70
     1
102
RTVSPropertyOp9
 70
     1
102
RTVSPropertyOp10
 70
     1
102
RTVSPropertyOp11
 70
     1
102
RTVSPropertyOp12
 70
     1
102
RTVSPropertyOp13
 70
     1
102
RTVSPropertyOp14
 70
     1
102
RTVSPropertyOp15
 70
     1
102
RTVSPropertyOp16
 70
     1
102
RTVSPropertyOp17
 70
     1
102
RTVSPropertyOp18
 70
     1
102
RTVSPropertyOp19
 70
     1
102
RTVSPropertyOp20
 70
     1
102
RTVSPropertyOp21
 70
     1
102
RTVSPropertyOp22
 70
     1
102
RTVSPropertyOp23
 70
     1
102
RTVSPropertyOp24
 70
     1
102
RTVSPropertyOp25
 70
     1
102
RTVSPropertyOp26
 70
     1
102
RTVSPropertyOp27
 70
     1
102
RTVSPropertyOp28
 70
     1
102
RTVSPropertyOp29
 70
     1
102
RTVSPropertyOp30
 70
     1
102
RTVSPropertyOp31
 70
     1
102
RTVSPropertyOp32
 70
     1
  0
XRECORD
  5
1A04
102
{ACAD_REACTORS
330
1A03
102
}
330
1A03
100
AcDbXrecord
280
     1
102
RTVSPropertyOp0
 70
     1
102
RTVSPropertyOp1
 70
     1
102
RTVSPropertyOp2
 70
     1
102
RTVSPropertyOp3
 70
     1
102
RTVSPropertyOp4
 70
     1
102
RTVSPropertyOp5
 70
     1
102
RTVSPropertyOp6
 70
     1
102
RTVSPropertyOp7
 70
     1
102
RTVSPropertyOp8
 70
     1
102
RTVSPropertyOp9
 70
     1
102
RTVSPropertyOp10
 70
     1
102
RTVSPropertyOp11
 70
     1
102
RTVSPropertyOp12
 70
     1
102
RTVSPropertyOp13
 70
     1
102
RTVSPropertyOp14
 70
     1
102
RTVSPropertyOp15
 70
     1
102
RTVSPropertyOp16
 70
     1
102
RTVSPropertyOp17
 70
     1
102
RTVSPropertyOp18
 70
     1
102
RTVSPropertyOp19
 70
     1
102
RTVSPropertyOp20
 70
     1
102
RTVSPropertyOp21
 70
     1
102
RTVSPropertyOp22
 70
     1
102
RTVSPropertyOp23
 70
     1
102
RTVSPropertyOp24
 70
     1
102
RTVSPropertyOp25
 70
     1
102
RTVSPropertyOp26
 70
     1
102
RTVSPropertyOp27
 70
     1
102
RTVSPropertyOp28
 70
     1
102
RTVSPropertyOp29
 70
     1
102
RTVSPropertyOp30
 70
     1
102
RTVSPropertyOp31
 70
     1
102
RTVSPropertyOp32
 70
     1
  0
XRECORD
  5
1A10
102
{ACAD_REACTORS
330
1A0F
102
}
330
1A0F
100
AcDbXrecord
280
     1
102
RTVSPropertyOp0
 70
     0
102
RTVSPropertyOp1
 70
     0
102
RTVSPropertyOp2
 70
     0
102
RTVSPropertyOp3
 70
     0
102
RTVSPropertyOp4
 70
     0
102
RTVSPropertyOp5
 70
     0
102
RTVSPropertyOp6
 70
     0
102
RTVSPropertyOp7
 70
     0
102
RTVSPropertyOp8
 70
     0
102
RTVSPropertyOp9
 70
     0
102
RTVSPropertyOp10
 70
     0
102
RTVSPropertyOp11
 70
     0
102
RTVSPropertyOp12
 70
     0
102
RTVSPropertyOp13
 70
     0
102
RTVSPropertyOp14
 70
     2
102
RTVSPropertyOp15
 70
     0
102
RTVSPropertyOp16
 70
     0
102
RTVSPropertyOp17
 70
     0
102
RTVSPropertyOp18
 70
     0
102
RTVSPropertyOp19
 70
     0
102
RTVSPropertyOp20
 70
     0
102
RTVSPropertyOp21
 70
     0
102
RTVSPropertyOp22
 70
     0
102
RTVSPropertyOp23
 70
     0
102
RTVSPropertyOp24
 70
     0
102
RTVSPropertyOp25
 70
     0
102
RTVSPropertyOp26
 70
     0
102
RTVSPropertyOp27
 70
     0
102
RTVSPropertyOp28
 70
     1
102
RTVSPropertyOp29
 70
     1
102
RTVSPropertyOp30
 70
     1
102
RTVSPropertyOp31
 70
     1
102
RTVSPropertyOp32
 70
     1
  0
XRECORD
  5
19FC
102
{ACAD_REACTORS
330
19FB
102
}
330
19FB
100
AcDbXrecord
280
     1
102
RTVSPropertyOp0
 70
     1
102
RTVSPropertyOp1
 70
     1
102
RTVSPropertyOp2
 70
     1
102
RTVSPropertyOp3
 70
     1
102
RTVSPropertyOp4
 70
     1
102
RTVSPropertyOp5
 70
     1
102
RTVSPropertyOp6
 70
     1
102
RTVSPropertyOp7
 70
     1
102
RTVSPropertyOp8
 70
     1
102
RTVSPropertyOp9
 70
     1
102
RTVSPropertyOp10
 70
     1
102
RTVSPropertyOp11
 70
     1
102
RTVSPropertyOp12
 70
     1
102
RTVSPropertyOp13
 70
     1
102
RTVSPropertyOp14
 70
     1
102
RTVSPropertyOp15
 70
     1
102
RTVSPropertyOp16
 70
     1
102
RTVSPropertyOp17
 70
     1
102
RTVSPropertyOp18
 70
     1
102
RTVSPropertyOp19
 70
     1
102
RTVSPropertyOp20
 70
     1
102
RTVSPropertyOp21
 70
     1
102
RTVSPropertyOp22
 70
     1
102
RTVSPropertyOp23
 70
     1
102
RTVSPropertyOp24
 70
     1
102
RTVSPropertyOp25
 70
     1
102
RTVSPropertyOp26
 70
     1
102
RTVSPropertyOp27
 70
     1
102
RTVSPropertyOp28
 70
     1
102
RTVSPropertyOp29
 70
     1
102
RTVSPropertyOp30
 70
     1
102
RTVSPropertyOp31
 70
     1
102
RTVSPropertyOp32
 70
     1
  0
XRECORD
  5
1A12
102
{ACAD_REACTORS
330
1A11
102
}
330
1A11
100
AcDbXrecord
280
     1
102
RTVSPropertyOp0
 70
     0
102
RTVSPropertyOp1
 70
     0
102
RTVSPropertyOp2
 70
     0
102
RTVSPropertyOp3
 70
     0
102
RTVSPropertyOp4
 70
     0
102
RTVSPropertyOp5
 70
     0
102
RTVSPropertyOp6
 70
     0
102
RTVSPropertyOp7
 70
     0
102
RTVSPropertyOp8
 70
     0
102
RTVSPropertyOp9
 70
     0
102
RTVSPropertyOp10
 70
     0
102
RTVSPropertyOp11
 70
     0
102
RTVSPropertyOp12
 70
     0
102
RTVSPropertyOp13
 70
     0
102
RTVSPropertyOp14
 70
     2
102
RTVSPropertyOp15
 70
     0
102
RTVSPropertyOp16
 70
     0
102
RTVSPropertyOp17
 70
     0
102
RTVSPropertyOp18
 70
     0
102
RTVSPropertyOp19
 70
     0
102
RTVSPropertyOp20
 70
     0
102
RTVSPropertyOp21
 70
     0
102
RTVSPropertyOp22
 70
     0
102
RTVSPropertyOp23
 70
     0
102
RTVSPropertyOp24
 70
     0
102
RTVSPropertyOp25
 70
     0
102
RTVSPropertyOp26
 70
     0
102
RTVSPropertyOp27
 70
     0
102
RTVSPropertyOp28
 70
     1
102
RTVSPropertyOp29
 70
     1
102
RTVSPropertyOp30
 70
     1
102
RTVSPropertyOp31
 70
     1
102
RTVSPropertyOp32
 70
     1
  0
XRECORD
  5
19F4
102
{ACAD_REACTORS
330
19F3
102
}
330
19F3
100
AcDbXrecord
280
     1
102
RTVSPropertyOp0
 70
     1
102
RTVSPropertyOp1
 70
     1
102
RTVSPropertyOp2
 70
     1
102
RTVSPropertyOp3
 70
     1
102
RTVSPropertyOp4
 70
     1
102
RTVSPropertyOp5
 70
     1
102
RTVSPropertyOp6
 70
     1
102
RTVSPropertyOp7
 70
     1
102
RTVSPropertyOp8
 70
     1
102
RTVSPropertyOp9
 70
     1
102
RTVSPropertyOp10
 70
     1
102
RTVSPropertyOp11
 70
     1
102
RTVSPropertyOp12
 70
     1
102
RTVSPropertyOp13
 70
     1
102
RTVSPropertyOp14
 70
     1
102
RTVSPropertyOp15
 70
     1
102
RTVSPropertyOp16
 70
     1
102
RTVSPropertyOp17
 70
     1
102
RTVSPropertyOp18
 70
     1
102
RTVSPropertyOp19
 70
     1
102
RTVSPropertyOp20
 70
     1
102
RTVSPropertyOp21
 70
     1
102
RTVSPropertyOp22
 70
     1
102
RTVSPropertyOp23
 70
     1
102
RTVSPropertyOp24
 70
     1
102
RTVSPropertyOp25
 70
     1
102
RTVSPropertyOp26
 70
     1
102
RTVSPropertyOp27
 70
     1
102
RTVSPropertyOp28
 70
     1
102
RTVSPropertyOp29
 70
     1
102
RTVSPropertyOp30
 70
     1
102
RTVSPropertyOp31
 70
     1
102
RTVSPropertyOp32
 70
     1
  0
XRECORD
  5
1A0E
102
{ACAD_REACTORS
330
1A0D
102
}
330
1A0D
100
AcDbXrecord
280
     1
102
RTVSPropertyOp0
 70
     1
102
RTVSPropertyOp1
 70
     1
102
RTVSPropertyOp2
 70
     1
102
RTVSPropertyOp3
 70
     1
102
RTVSPropertyOp4
 70
     1
102
RTVSPropertyOp5
 70
     1
102
RTVSPropertyOp6
 70
     1
102
RTVSPropertyOp7
 70
     1
102
RTVSPropertyOp8
 70
     1
102
RTVSPropertyOp9
 70
     1
102
RTVSPropertyOp10
 70
     1
102
RTVSPropertyOp11
 70
     1
102
RTVSPropertyOp12
 70
     1
102
RTVSPropertyOp13
 70
     1
102
RTVSPropertyOp14
 70
     1
102
RTVSPropertyOp15
 70
     1
102
RTVSPropertyOp16
 70
     1
102
RTVSPropertyOp17
 70
     1
102
RTVSPropertyOp18
 70
     1
102
RTVSPropertyOp19
 70
     1
102
RTVSPropertyOp20
 70
     1
102
RTVSPropertyOp21
 70
     1
102
RTVSPropertyOp22
 70
     1
102
RTVSPropertyOp23
 70
     1
102
RTVSPropertyOp24
 70
     1
102
RTVSPropertyOp25
 70
     1
102
RTVSPropertyOp26
 70
     1
102
RTVSPropertyOp27
 70
     1
102
RTVSPropertyOp28
 70
     1
102
RTVSPropertyOp29
 70
     1
102
RTVSPropertyOp30
 70
     1
102
RTVSPropertyOp31
 70
     1
102
RTVSPropertyOp32
 70
     1
  0
XRECORD
  5
1A0C
102
{ACAD_REACTORS
330
1A0B
102
}
330
1A0B
100
AcDbXrecord
280
     1
102
RTVSPropertyOp0
 70
     1
102
RTVSPropertyOp1
 70
     1
102
RTVSPropertyOp2
 70
     1
102
RTVSPropertyOp3
 70
     1
102
RTVSPropertyOp4
 70
     1
102
RTVSPropertyOp5
 70
     1
102
RTVSPropertyOp6
 70
     1
102
RTVSPropertyOp7
 70
     1
102
RTVSPropertyOp8
 70
     1
102
RTVSPropertyOp9
 70
     1
102
RTVSPropertyOp10
 70
     1
102
RTVSPropertyOp11
 70
     1
102
RTVSPropertyOp12
 70
     1
102
RTVSPropertyOp13
 70
     1
102
RTVSPropertyOp14
 70
     1
102
RTVSPropertyOp15
 70
     1
102
RTVSPropertyOp16
 70
     1
102
RTVSPropertyOp17
 70
     1
102
RTVSPropertyOp18
 70
     1
102
RTVSPropertyOp19
 70
     1
102
RTVSPropertyOp20
 70
     1
102
RTVSPropertyOp21
 70
     1
102
RTVSPropertyOp22
 70
     1
102
RTVSPropertyOp23
 70
     1
102
RTVSPropertyOp24
 70
     1
102
RTVSPropertyOp25
 70
     1
102
RTVSPropertyOp26
 70
     1
102
RTVSPropertyOp27
 70
     1
102
RTVSPropertyOp28
 70
     1
102
RTVSPropertyOp29
 70
     1
102
RTVSPropertyOp30
 70
     1
102
RTVSPropertyOp31
 70
     1
102
RTVSPropertyOp32
 70
     1
  0
XRECORD
  5
1A06
102
{ACAD_REACTORS
330
1A05
102
}
330
1A05
100
AcDbXrecord
280
     1
102
RTVSPropertyOp0
 70
     1
102
RTVSPropertyOp1
 70
     1
102
RTVSPropertyOp2
 70
     1
102
RTVSPropertyOp3
 70
     1
102
RTVSPropertyOp4
 70
     1
102
RTVSPropertyOp5
 70
     1
102
RTVSPropertyOp6
 70
     1
102
RTVSPropertyOp7
 70
     1
102
RTVSPropertyOp8
 70
     1
102
RTVSPropertyOp9
 70
     1
102
RTVSPropertyOp10
 70
     1
102
RTVSPropertyOp11
 70
     1
102
RTVSPropertyOp12
 70
     1
102
RTVSPropertyOp13
 70
     1
102
RTVSPropertyOp14
 70
     1
102
RTVSPropertyOp15
 70
     1
102
RTVSPropertyOp16
 70
     1
102
RTVSPropertyOp17
 70
     1
102
RTVSPropertyOp18
 70
     1
102
RTVSPropertyOp19
 70
     1
102
RTVSPropertyOp20
 70
     1
102
RTVSPropertyOp21
 70
     1
102
RTVSPropertyOp22
 70
     1
102
RTVSPropertyOp23
 70
     1
102
RTVSPropertyOp24
 70
     1
102
RTVSPropertyOp25
 70
     1
102
RTVSPropertyOp26
 70
     1
102
RTVSPropertyOp27
 70
     1
102
RTVSPropertyOp28
 70
     1
102
RTVSPropertyOp29
 70
     1
102
RTVSPropertyOp30
 70
     1
102
RTVSPropertyOp31
 70
     1
102
RTVSPropertyOp32
 70
     1
  0
XRECORD
  5
1A08
102
{ACAD_REACTORS
330
1A07
102
}
330
1A07
100
AcDbXrecord
280
     1
102
RTVSPropertyOp0
 70
     1
102
RTVSPropertyOp1
 70
     1
102
RTVSPropertyOp2
 70
     1
102
RTVSPropertyOp3
 70
     1
102
RTVSPropertyOp4
 70
     1
102
RTVSPropertyOp5
 70
     1
102
RTVSPropertyOp6
 70
     1
102
RTVSPropertyOp7
 70
     1
102
RTVSPropertyOp8
 70
     1
102
RTVSPropertyOp9
 70
     1
102
RTVSPropertyOp10
 70
     1
102
RTVSPropertyOp11
 70
     1
102
RTVSPropertyOp12
 70
     1
102
RTVSPropertyOp13
 70
     1
102
RTVSPropertyOp14
 70
     1
102
RTVSPropertyOp15
 70
     1
102
RTVSPropertyOp16
 70
     1
102
RTVSPropertyOp17
 70
     1
102
RTVSPropertyOp18
 70
     1
102
RTVSPropertyOp19
 70
     1
102
RTVSPropertyOp20
 70
     1
102
RTVSPropertyOp21
 70
     1
102
RTVSPropertyOp22
 70
     1
102
RTVSPropertyOp23
 70
     1
102
RTVSPropertyOp24
 70
     1
102
RTVSPropertyOp25
 70
     1
102
RTVSPropertyOp26
 70
     1
102
RTVSPropertyOp27
 70
     1
102
RTVSPropertyOp28
 70
     1
102
RTVSPropertyOp29
 70
     1
102
RTVSPropertyOp30
 70
     1
102
RTVSPropertyOp31
 70
     1
102
RTVSPropertyOp32
 70
     1
  0
XRECORD
  5
19FA
102
{ACAD_REACTORS
330
19F9
102
}
330
19F9
100
AcDbXrecord
280
     1
102
RTVSPropertyOp0
 70
     1
102
RTVSPropertyOp1
 70
     1
102
RTVSPropertyOp2
 70
     1
102
RTVSPropertyOp3
 70
     1
102
RTVSPropertyOp4
 70
     1
102
RTVSPropertyOp5
 70
     1
102
RTVSPropertyOp6
 70
     1
102
RTVSPropertyOp7
 70
     1
102
RTVSPropertyOp8
 70
     1
102
RTVSPropertyOp9
 70
     1
102
RTVSPropertyOp10
 70
     1
102
RTVSPropertyOp11
 70
     1
102
RTVSPropertyOp12
 70
     1
102
RTVSPropertyOp13
 70
     1
102
RTVSPropertyOp14
 70
     1
102
RTVSPropertyOp15
 70
     1
102
RTVSPropertyOp16
 70
     1
102
RTVSPropertyOp17
 70
     1
102
RTVSPropertyOp18
 70
     1
102
RTVSPropertyOp19
 70
     1
102
RTVSPropertyOp20
 70
     1
102
RTVSPropertyOp21
 70
     1
102
RTVSPropertyOp22
 70
     1
102
RTVSPropertyOp23
 70
     1
102
RTVSPropertyOp24
 70
     1
102
RTVSPropertyOp25
 70
     1
102
RTVSPropertyOp26
 70
     1
102
RTVSPropertyOp27
 70
     1
102
RTVSPropertyOp28
 70
     1
102
RTVSPropertyOp29
 70
     1
102
RTVSPropertyOp30
 70
     1
102
RTVSPropertyOp31
 70
     1
102
RTVSPropertyOp32
 70
     1
  0
XRECORD
  5
1A02
102
{ACAD_REACTORS
330
1A01
102
}
330
1A01
100
AcDbXrecord
280
     1
102
RTVSPropertyOp0
 70
     1
102
RTVSPropertyOp1
 70
     1
102
RTVSPropertyOp2
 70
     1
102
RTVSPropertyOp3
 70
     1
102
RTVSPropertyOp4
 70
     1
102
RTVSPropertyOp5
 70
     1
102
RTVSPropertyOp6
 70
     1
102
RTVSPropertyOp7
 70
     1
102
RTVSPropertyOp8
 70
     1
102
RTVSPropertyOp9
 70
     1
102
RTVSPropertyOp10
 70
     1
102
RTVSPropertyOp11
 70
     1
102
RTVSPropertyOp12
 70
     1
102
RTVSPropertyOp13
 70
     1
102
RTVSPropertyOp14
 70
     1
102
RTVSPropertyOp15
 70
     1
102
RTVSPropertyOp16
 70
     1
102
RTVSPropertyOp17
 70
     1
102
RTVSPropertyOp18
 70
     1
102
RTVSPropertyOp19
 70
     1
102
RTVSPropertyOp20
 70
     1
102
RTVSPropertyOp21
 70
     1
102
RTVSPropertyOp22
 70
     1
102
RTVSPropertyOp23
 70
     1
102
RTVSPropertyOp24
 70
     1
102
RTVSPropertyOp25
 70
     1
102
RTVSPropertyOp26
 70
     1
102
RTVSPropertyOp27
 70
     1
102
RTVSPropertyOp28
 70
     1
102
RTVSPropertyOp29
 70
     1
102
RTVSPropertyOp30
 70
     1
102
RTVSPropertyOp31
 70
     1
102
RTVSPropertyOp32
 70
     1
  0
XRECORD
  5
1A0A
102
{ACAD_REACTORS
330
1A09
102
}
330
1A09
100
AcDbXrecord
280
     1
102
RTVSPropertyOp0
 70
     1
102
RTVSPropertyOp1
 70
     1
102
RTVSPropertyOp2
 70
     1
102
RTVSPropertyOp3
 70
     1
102
RTVSPropertyOp4
 70
     1
102
RTVSPropertyOp5
 70
     1
102
RTVSPropertyOp6
 70
     1
102
RTVSPropertyOp7
 70
     1
102
RTVSPropertyOp8
 70
     1
102
RTVSPropertyOp9
 70
     1
102
RTVSPropertyOp10
 70
     1
102
RTVSPropertyOp11
 70
     1
102
RTVSPropertyOp12
 70
     1
102
RTVSPropertyOp13
 70
     1
102
RTVSPropertyOp14
 70
     1
102
RTVSPropertyOp15
 70
     1
102
RTVSPropertyOp16
 70
     1
102
RTVSPropertyOp17
 70
     1
102
RTVSPropertyOp18
 70
     1
102
RTVSPropertyOp19
 70
     1
102
RTVSPropertyOp20
 70
     1
102
RTVSPropertyOp21
 70
     1
102
RTVSPropertyOp22
 70
     1
102
RTVSPropertyOp23
 70
     1
102
RTVSPropertyOp24
 70
     1
102
RTVSPropertyOp25
 70
     1
102
RTVSPropertyOp26
 70
     1
102
RTVSPropertyOp27
 70
     1
102
RTVSPropertyOp28
 70
     1
102
RTVSPropertyOp29
 70
     1
102
RTVSPropertyOp30
 70
     1
102
RTVSPropertyOp31
 70
     1
102
RTVSPropertyOp32
 70
     1
  0
ENDSEC
  0
EOF
