  0
SECTION
  2
HEADER
  9
$ACADVER
  1
AC1015
  9
$ACADMAINTVER
 70
    20
  9
$DWGCODEPAGE
  3
ANSI_932
  9
$INSBASE
 10
0.0
 20
0.0
 30
0.0
  9
$EXTMIN
 10
-312.293714
 20
-485.7627950000001
 30
0.0
  9
$EXTMAX
 10
92.706286
 20
-211.762795
 30
0.0
  9
$LIMMIN
 10
-312.294701
 20
-485.763787
  9
$LIMMAX
 10
92.76969200000001
 20
-211.706428
  9
$ORTHOMODE
 70
     0
  9
$REGENMODE
 70
     1
  9
$FILLMODE
 70
     1
  9
$QTEXTMODE
 70
     0
  9
$MIRRTEXT
 70
     0
  9
$LTSCALE
 40
6.751039999999997
  9
$ATTMODE
 70
     1
  9
$TEXTSIZE
 40
3.2
  9
$TRACEWID
 40
0.05
  9
$TEXTSTYLE
  7
高3.2
  9
$CLAYER
  8
0
  9
$CELTYPE
  6
CONTINUOUS
  9
$CECOLOR
 62
   256
  9
$CELTSCALE
 40
1.0
  9
$DISPSILH
 70
     0
  9
$DIMSCALE
 40
1.0
  9
$DIMASZ
 40
2.5
  9
$DIMEXO
 40
0.25
  9
$DIMDLI
 40
0.2
  9
$DIMRND
 40
0.0
  9
$DIMDLE
 40
0.0
  9
$DIMEXE
 40
1.25
  9
$DIMTP
 40
0.0
  9
$DIMTM
 40
0.0
  9
$DIMTXT
 40
3.0
  9
$DIMCEN
 40
0.0
  9
$DIMTSZ
 40
0.0
  9
$DIMTOL
 70
     0
  9
$DIMLIM
 70
     0
  9
$DIMTIH
 70
     0
  9
$DIMTOH
 70
     0
  9
$DIMSE1
 70
     0
  9
$DIMSE2
 70
     0
  9
$DIMTAD
 70
     3
  9
$DIMZIN
 70
     8
  9
$DIMBLK
  1
Open30
  9
$DIMASO
 70
     1
  9
$DIMSHO
 70
     1
  9
$DIMPOST
  1

  9
$DIMAPOST
  1

  9
$DIMALT
 70
     0
  9
$DIMALTD
 70
     3
  9
$DIMALTF
 40
0.03937007874016
  9
$DIMLFAC
 40
1.0
  9
$DIMTOFL
 70
     1
  9
$DIMTVP
 40
0.0
  9
$DIMTIX
 70
     0
  9
$DIMSOXD
 70
     0
  9
$DIMSAH
 70
     0
  9
$DIMBLK1
  1

  9
$DIMBLK2
  1

  9
$DIMSTYLE
  2
1：1
  9
$DIMCLRD
 70
     0
  9
$DIMCLRE
 70
     0
  9
$DIMCLRT
 70
     4
  9
$DIMTFAC
 40
1.0
  9
$DIMGAP
 40
0.625
  9
$DIMJUST
 70
     0
  9
$DIMSD1
 70
     0
  9
$DIMSD2
 70
     0
  9
$DIMTOLJ
 70
     0
  9
$DIMTZIN
 70
     8
  9
$DIMALTZ
 70
     0
  9
$DIMALTTZ
 70
     0
  9
$DIMUPT
 70
     1
  9
$DIMDEC
 70
     2
  9
$DIMTDEC
 70
     2
  9
$DIMALTU
 70
     2
  9
$DIMALTTD
 70
     3
  9
$DIMTXSTY
  7
STANDARD
  9
$DIMAUNIT
 70
     0
  9
$DIMADEC
 70
     1
  9
$DIMALTRND
 40
0.0
  9
$DIMAZIN
 70
     2
  9
$DIMDSEP
 70
    46
  9
$DIMATFIT
 70
     0
  9
$DIMFRAC
 70
     0
  9
$DIMLDRBLK
  1
Open30
  9
$DIMLUNIT
 70
     2
  9
$DIMLWD
 70
    -2
  9
$DIMLWE
 70
    -2
  9
$DIMTMOVE
 70
     0
  9
$LUNITS
 70
     2
  9
$LUPREC
 70
     4
  9
$SKETCHINC
 40
0.1
  9
$FILLETRAD
 40
0.0
  9
$AUNITS
 70
     0
  9
$AUPREC
 70
     0
  9
$MENU
  1
.
  9
$ELEVATION
 40
0.0
  9
$PELEVATION
 40
0.0
  9
$THICKNESS
 40
0.0
  9
$LIMCHECK
 70
     0
  9
$CHAMFERA
 40
0.0
  9
$CHAMFERB
 40
0.0
  9
$CHAMFERC
 40
0.0
  9
$CHAMFERD
 40
0.0
  9
$SKPOLY
 70
     0
  9
$TDCREATE
 40
2455646.749497639
  9
$TDUCREATE
 40
2455646.374497639
  9
$TDUPDATE
 40
2458219.624619190
  9
$TDUUPDATE
 40
2458219.249619190
  9
$TDINDWG
 40
0.0154729398
  9
$TDUSRTIMER
 40
0.0154725926
  9
$USRTIMER
 70
     1
  9
$ANGBASE
 50
0.0
  9
$ANGDIR
 70
     0
  9
$PDMODE
 70
     0
  9
$PDSIZE
 40
0.0
  9
$PLINEWID
 40
0.0
  9
$SPLFRAME
 70
     0
  9
$SPLINETYPE
 70
     6
  9
$SPLINESEGS
 70
     8
  9
$HANDSEED
  5
ABD
  9
$SURFTAB1
 70
     6
  9
$SURFTAB2
 70
     6
  9
$SURFTYPE
 70
     6
  9
$SURFU
 70
     6
  9
$SURFV
 70
     6
  9
$UCSBASE
  2

  9
$UCSNAME
  2

  9
$UCSORG
 10
0.0
 20
0.0
 30
0.0
  9
$UCSXDIR
 10
1.0
 20
0.0
 30
0.0
  9
$UCSYDIR
 10
0.0
 20
1.0
 30
0.0
  9
$UCSORTHOREF
  2

  9
$UCSORTHOVIEW
 70
     0
  9
$UCSORGTOP
 10
0.0
 20
0.0
 30
0.0
  9
$UCSORGBOTTOM
 10
0.0
 20
0.0
 30
0.0
  9
$UCSORGLEFT
 10
0.0
 20
0.0
 30
0.0
  9
$UCSORGRIGHT
 10
0.0
 20
0.0
 30
0.0
  9
$UCSORGFRONT
 10
0.0
 20
0.0
 30
0.0
  9
$UCSORGBACK
 10
0.0
 20
0.0
 30
0.0
  9
$PUCSBASE
  2

  9
$PUCSNAME
  2

  9
$PUCSORG
 10
0.0
 20
0.0
 30
0.0
  9
$PUCSXDIR
 10
1.0
 20
0.0
 30
0.0
  9
$PUCSYDIR
 10
0.0
 20
1.0
 30
0.0
  9
$PUCSORTHOREF
  2

  9
$PUCSORTHOVIEW
 70
     0
  9
$PUCSORGTOP
 10
0.0
 20
0.0
 30
0.0
  9
$PUCSORGBOTTOM
 10
0.0
 20
0.0
 30
0.0
  9
$PUCSORGLEFT
 10
0.0
 20
0.0
 30
0.0
  9
$PUCSORGRIGHT
 10
0.0
 20
0.0
 30
0.0
  9
$PUCSORGFRONT
 10
0.0
 20
0.0
 30
0.0
  9
$PUCSORGBACK
 10
0.0
 20
0.0
 30
0.0
  9
$USERI1
 70
     0
  9
$USERI2
 70
     0
  9
$USERI3
 70
     0
  9
$USERI4
 70
     0
  9
$USERI5
 70
     0
  9
$USERR1
 40
0.0
  9
$USERR2
 40
0.0
  9
$USERR3
 40
0.0
  9
$USERR4
 40
0.0
  9
$USERR5
 40
0.0
  9
$WORLDVIEW
 70
     1
  9
$SHADEDGE
 70
     3
  9
$SHADEDIF
 70
    70
  9
$TILEMODE
 70
     1
  9
$MAXACTVP
 70
    64
  9
$PINSBASE
 10
0.0
 20
0.0
 30
0.0
  9
$PLIMCHECK
 70
     0
  9
$PEXTMIN
 10
1.000000000000000E+20
 20
1.000000000000000E+20
 30
1.000000000000000E+20
  9
$PEXTMAX
 10
-1.000000000000000E+20
 20
-1.000000000000000E+20
 30
-1.000000000000000E+20
  9
$PLIMMIN
 10
0.0
 20
0.0
  9
$PLIMMAX
 10
12.0
 20
9.0
  9
$UNITMODE
 70
     0
  9
$VISRETAIN
 70
     1
  9
$PLINEGEN
 70
     0
  9
$PSLTSCALE
 70
     1
  9
$TREEDEPTH
 70
  3020
  9
$CMLSTYLE
  2
Standard
  9
$CMLJUST
 70
     0
  9
$CMLSCALE
 40
1.0
  9
$PROXYGRAPHICS
 70
     1
  9
$MEASUREMENT
 70
     0
  9
$CELWEIGHT
370
    -1
  9
$ENDCAPS
280
     0
  9
$JOINSTYLE
280
     0
  9
$LWDISPLAY
290
     0
  9
$INSUNITS
 70
     0
  9
$HYPERLINKBASE
  1

  9
$STYLESHEET
  1

  9
$XEDIT
290
     1
  9
$CEPSNTYPE
380
     0
  9
$PSTYLEMODE
290
     1
  9
$FINGERPRINTGUID
  2
{AC36ED71-3E3C-45D7-8E53-AF3B908923A3}
  9
$VERSIONGUID
  2
{09A974F6-7306-4601-B5FA-7FB2D9514BC8}
  9
$EXTNAMES
290
     1
  9
$PSVPSCALE
 40
0.0
  9
$OLESTARTUP
290
     0
  0
ENDSEC
  0
SECTION
  2
CLASSES
  0
CLASS
  1
ACDBDICTIONARYWDFLT
  2
AcDbDictionaryWithDefault
  3
ObjectDBX Classes
 90
        0
280
     0
281
     0
  0
CLASS
  1
MATERIAL
  2
AcDbMaterial
  3
ObjectDBX Classes
 90
     1153
280
     0
281
     0
  0
CLASS
  1
VISUALSTYLE
  2
AcDbVisualStyle
  3
ObjectDBX Classes
 90
     4095
280
     0
281
     0
  0
CLASS
  1
TABLESTYLE
  2
AcDbTableStyle
  3
ObjectDBX Classes
 90
     4095
280
     0
281
     0
  0
CLASS
  1
DICTIONARYVAR
  2
AcDbDictionaryVar
  3
ObjectDBX Classes
 90
        0
280
     0
281
     0
  0
CLASS
  1
ACDBPLACEHOLDER
  2
AcDbPlaceHolder
  3
ObjectDBX Classes
 90
        0
280
     0
281
     0
  0
CLASS
  1
LAYOUT
  2
AcDbLayout
  3
ObjectDBX Classes
 90
        0
280
     0
281
     0
  0
CLASS
  1
SCALE
  2
AcDbScale
  3
ObjectDBX Classes
 90
     1153
280
     0
281
     0
  0
CLASS
  1
MLEADERSTYLE
  2
AcDbMLeaderStyle
  3
ACDB_MLEADERSTYLE_CLASS
 90
     4095
280
     0
281
     0
  0
CLASS
  1
SORTENTSTABLE
  2
AcDbSortentsTable
  3
ObjectDBX Classes
 90
        0
280
     0
281
     0
  0
CLASS
  1
CELLSTYLEMAP
  2
AcDbCellStyleMap
  3
ObjectDBX Classes
 90
     1152
280
     0
281
     0
  0
ENDSEC
  0
SECTION
  2
TABLES
  0
TABLE
  2
VPORT
  5
8
330
0
100
AcDbSymbolTable
 70
     1
  0
VPORT
  5
56
330
8
100
AcDbSymbolTableRecord
100
AcDbViewportTableRecord
  2
*Active
 70
     0
 10
0.0
 20
0.0
 11
1.0
 21
1.0
 12
-124.4468990946979
 22
-386.0604464299379
 13
0.0
 23
0.0
 14
1.0
 24
1.0
 15
0.0
 25
0.0
 16
0.0
 26
0.0
 36
1.0
 17
0.0
 27
0.0
 37
0.0
 40
559.7177382136866
 41
1.5111441307578
 42
50.0
 43
0.0
 44
0.0
 50
0.0
 51
0.0
 71
     0
 72
   100
 73
     1
 74
     1
 75
     0
 76
     0
 77
     0
 78
     0
281
     0
 65
     1
110
0.0
120
0.0
130
0.0
111
1.0
121
0.0
131
0.0
112
0.0
122
1.0
132
0.0
 79
     0
146
0.0
  0
ENDTAB
  0
TABLE
  2
LTYPE
  5
5
330
0
100
AcDbSymbolTable
 70
     3
  0
LTYPE
  5
28
330
5
100
AcDbSymbolTableRecord
100
AcDbLinetypeTableRecord
  2
ByBlock
 70
     0
  3

 72
    65
 73
     0
 40
0.0
  0
LTYPE
  5
29
330
5
100
AcDbSymbolTableRecord
100
AcDbLinetypeTableRecord
  2
ByLayer
 70
     0
  3

 72
    65
 73
     0
 40
0.0
  0
LTYPE
  5
2A
330
5
100
AcDbSymbolTableRecord
100
AcDbLinetypeTableRecord
  2
CONTINUOUS
 70
     0
  3
Solid-line
 72
    65
 73
     0
 40
0.0
  0
LTYPE
  5
4F
330
5
100
AcDbSymbolTableRecord
100
AcDbLinetypeTableRecord
  2
PHANTOM
 70
     0
  3
PHANTOM
 72
    65
 73
     6
 40
2.5
 49
1.25
 74
     0
 49
-0.25
 74
     0
 49
0.25
 74
     0
 49
-0.25
 74
     0
 49
0.25
 74
     0
 49
-0.25
 74
     0
  0
ENDTAB
  0
TABLE
  2
LAYER
  5
2
102
{ACAD_XDICTIONARY
360
644
102
}
330
0
100
AcDbSymbolTable
 70
     2
  0
LAYER
  5
25
102
{ACAD_XDICTIONARY
360
828
102
}
330
2
100
AcDbSymbolTableRecord
100
AcDbLayerTableRecord
  2
0
 70
     0
 62
     7
  6
CONTINUOUS
370
    -3
390
F
  0
LAYER
  5
630
330
2
100
AcDbSymbolTableRecord
100
AcDbLayerTableRecord
  2
Defpoints
 70
     0
 62
     7
  6
CONTINUOUS
290
     0
370
    -3
390
F
  0
ENDTAB
  0
TABLE
  2
STYLE
  5
3
330
0
100
AcDbSymbolTable
 70
     6
  0
STYLE
  5
26
330
3
100
AcDbSymbolTableRecord
100
AcDbTextStyleTableRecord
  2
STANDARD
 70
     0
 40
0.0
 41
1.0
 50
0.0
 71
     0
 42
0.2
  3
TXT
  4
BIGFONT
  0
STYLE
  5
631
330
3
100
AcDbSymbolTableRecord
100
AcDbTextStyleTableRecord
  2
高3.2
 70
     0
 40
3.2
 41
1.0
 50
0.0
 71
     0
 42
3.2
  3
txt.shx
  4
bigfont.shx
  0
STYLE
  5
632
330
3
100
AcDbSymbolTableRecord
100
AcDbTextStyleTableRecord
  2
高6.3
 70
     0
 40
6.299999999999998
 41
1.0
 50
0.0
 71
     0
 42
6.299999999999998
  3
txt.shx
  4
bigfont.shx
  0
STYLE
  5
633
330
3
100
AcDbSymbolTableRecord
100
AcDbTextStyleTableRecord
  2
高2.5
 70
     0
 40
2.5
 41
1.0
 50
0.0
 71
     0
 42
0.2
  3
txt.shx
  4
bigfont.shx
  0
STYLE
  5
634
330
3
100
AcDbSymbolTableRecord
100
AcDbTextStyleTableRecord
  2
高4.5
 70
     0
 40
4.5
 41
1.0
 50
0.0
 71
     0
 42
6.299999999999998
  3
txt.shx
  4
bigfont.shx
  0
STYLE
  5
635
330
3
100
AcDbSymbolTableRecord
100
AcDbTextStyleTableRecord
  2
高2
 70
     0
 40
2.0
 41
1.0
 50
0.0
 71
     0
 42
2.0
  3
txt.shx
  4
bigfont.shx
  0
ENDTAB
  0
TABLE
  2
VIEW
  5
6
330
0
100
AcDbSymbolTable
 70
     0
  0
ENDTAB
  0
TABLE
  2
UCS
  5
7
330
0
100
AcDbSymbolTable
 70
     0
  0
ENDTAB
  0
TABLE
  2
APPID
  5
9
330
0
100
AcDbSymbolTable
 70
     9
  0
APPID
  5
27
330
9
100
AcDbSymbolTableRecord
100
AcDbRegAppTableRecord
  2
ACAD
 70
     0
  0
APPID
  5
640
330
9
100
AcDbSymbolTableRecord
100
AcDbRegAppTableRecord
  2
ACAD_DSTYLE_DIMJOGGED_JOGANGLE_SYMBOL
 70
     0
  0
APPID
  5
641
330
9
100
AcDbSymbolTableRecord
100
AcDbRegAppTableRecord
  2
ACAD_DSTYLE_DIMJAG
 70
     0
  0
APPID
  5
642
330
9
100
AcDbSymbolTableRecord
100
AcDbRegAppTableRecord
  2
ACAD_DSTYLE_DIMBREAK
 70
     0
  0
APPID
  5
643
330
9
100
AcDbSymbolTableRecord
100
AcDbRegAppTableRecord
  2
ACAD_DSTYLE_DIMTALN
 70
     0
  0
APPID
  5
77A
330
9
100
AcDbSymbolTableRecord
100
AcDbRegAppTableRecord
  2
ACAD_EXEMPT_FROM_CAD_STANDARDS
 70
     0
  0
APPID
  5
870
330
9
100
AcDbSymbolTableRecord
100
AcDbRegAppTableRecord
  2
ACAD_MLEADERVER
 70
     0
  0
APPID
  5
871
330
9
100
AcDbSymbolTableRecord
100
AcDbRegAppTableRecord
  2
ACAD_DSTYLE_DIMARC_LENGTH_SYMBOL
 70
     0
  0
APPID
  5
872
330
9
100
AcDbSymbolTableRecord
100
AcDbRegAppTableRecord
  2
ACAD_DSTYLE_DIMEXT_LENGTH
 70
     0
  0
ENDTAB
  0
TABLE
  2
DIMSTYLE
  5
A
330
0
100
AcDbSymbolTable
 70
     3
100
AcDbDimStyleTable
 71
     3
340
636
340
569
340
63A
  0
DIMSTYLE
105
569
330
A
100
AcDbSymbolTableRecord
100
AcDbDimStyleTableRecord
  2
Standard
 70
     0
340
26
  0
DIMSTYLE
105
636
330
A
100
AcDbSymbolTableRecord
100
AcDbDimStyleTableRecord
  2
1：1
 70
     0
 41
2.5
 42
0.25
 43
0.2
 44
1.25
 73
     0
 74
     0
 77
     3
 78
     8
 79
     2
140
3.0
141
0.0
143
0.03937007874016
147
0.625
171
     3
172
     1
178
     4
179
     1
271
     2
272
     2
274
     3
283
     0
284
     8
288
     1
289
     0
340
26
341
5A0
342
5A0
1001
ACAD_DSTYLE_DIMARC_LENGTH_SYMBOL
1070
   379
1070
     2
1001
ACAD_DSTYLE_DIMEXT_LENGTH
1070
   378
1040
1.25
1001
ACAD_DSTYLE_DIMJOGGED_JOGANGLE_SYMBOL
1070
   384
1040
1.570796326794896
  0
DIMSTYLE
105
63A
330
A
100
AcDbSymbolTableRecord
100
AcDbDimStyleTableRecord
  2
1／2
 70
     0
 41
2.5
 42
0.25
 43
0.2
 44
1.25
 73
     0
 74
     0
 77
     3
 78
     8
 79
     2
140
3.0
141
0.0
143
0.03937007874016
144
2.0
147
0.625
171
     3
172
     1
178
     4
179
     1
271
     2
272
     2
274
     3
283
     0
284
     8
288
     1
289
     0
340
26
341
5A0
342
5A0
1001
ACAD_DSTYLE_DIMARC_LENGTH_SYMBOL
1070
   379
1070
     2
1001
ACAD_DSTYLE_DIMEXT_LENGTH
1070
   378
1040
1.25
1001
ACAD_DSTYLE_DIMJOGGED_JOGANGLE_SYMBOL
1070
   384
1040
1.570796326794896
  0
ENDTAB
  0
TABLE
  2
BLOCK_RECORD
  5
1
330
0
100
AcDbSymbolTable
 70
     6
  0
BLOCK_RECORD
  5
36
102
{ACAD_XDICTIONARY
360
7C9
102
}
330
1
100
AcDbSymbolTableRecord
100
AcDbBlockTableRecord
  2
*Model_Space
340
39
  0
BLOCK_RECORD
  5
32
330
1
100
AcDbSymbolTableRecord
100
AcDbBlockTableRecord
  2
*Paper_Space
340
35
  0
BLOCK_RECORD
  5
5A0
330
1
100
AcDbSymbolTableRecord
100
AcDbBlockTableRecord
  2
_Open30
340
0
102
{BLKREFS
331
913
331
914
331
91C
331
91D
331
925
331
926
331
92E
331
92F
102
}
  0
BLOCK_RECORD
  5
756
330
1
100
AcDbSymbolTableRecord
100
AcDbBlockTableRecord
  2
*D1
340
0
  0
BLOCK_RECORD
  5
762
330
1
100
AcDbSymbolTableRecord
100
AcDbBlockTableRecord
  2
*D2
340
0
  0
BLOCK_RECORD
  5
76E
330
1
100
AcDbSymbolTableRecord
100
AcDbBlockTableRecord
  2
*D3
340
0
  0
BLOCK_RECORD
  5
785
330
1
100
AcDbSymbolTableRecord
100
AcDbBlockTableRecord
  2
*D4
340
0
  0
BLOCK_RECORD
  5
937
330
1
100
AcDbSymbolTableRecord
100
AcDbBlockTableRecord
  2
_DotSmall
340
0
  0
ENDTAB
  0
ENDSEC
  0
SECTION
  2
BLOCKS
  0
BLOCK
  5
37
330
36
100
AcDbEntity
  8
0
100
AcDbBlockBegin
  2
*Model_Space
 70
     0
 10
0.0
 20
0.0
 30
0.0
  3
*Model_Space
  1

  0
ENDBLK
  5
38
330
36
100
AcDbEntity
  8
0
100
AcDbBlockEnd
  0
BLOCK
  5
33
330
32
100
AcDbEntity
 67
     1
  8
0
100
AcDbBlockBegin
  2
*Paper_Space
 70
     0
 10
0.0
 20
0.0
 30
0.0
  3
*Paper_Space
  1

  0
ENDBLK
  5
34
330
32
100
AcDbEntity
 67
     1
  8
0
100
AcDbBlockEnd
  0
BLOCK
  5
5A1
330
5A0
100
AcDbEntity
  8
0
100
AcDbBlockBegin
  2
_Open30
 70
     0
 10
0.0
 20
0.0
 30
0.0
  3
_Open30
  1

  0
LINE
  5
5A2
330
5A0
100
AcDbEntity
  8
0
  6
ByBlock
 62
     0
370
    -2
100
AcDbLine
 10
-1.0
 20
0.267949
 30
0.0
 11
0.0
 21
0.0
 31
0.0
  0
LINE
  5
5A3
330
5A0
100
AcDbEntity
  8
0
  6
ByBlock
 62
     0
370
    -2
100
AcDbLine
 10
0.0
 20
0.0
 30
0.0
 11
-1.0
 21
-0.267949
 31
0.0
  0
LINE
  5
5A4
330
5A0
100
AcDbEntity
  8
0
  6
ByBlock
 62
     0
370
    -2
100
AcDbLine
 10
0.0
 20
0.0
 30
0.0
 11
-1.0
 21
0.0
 31
0.0
  0
ENDBLK
  5
5A5
330
5A0
100
AcDbEntity
  8
0
100
AcDbBlockEnd
  0
BLOCK
  5
757
330
756
100
AcDbEntity
  8
0
100
AcDbBlockBegin
  2
*D1
 70
     1
 10
0.0
 20
0.0
 30
0.0
  3
*D1
  1

  0
LINE
  5
910
330
756
100
AcDbEntity
  8
0
 62
     0
370
    -2
100
AcDbLine
 10
-201.382624
 20
-265.30284
 30
0.0
 11
-201.382624
 21
-288.810126
 31
0.0
  0
LINE
  5
911
330
756
100
AcDbEntity
  8
0
 62
     0
370
    -2
100
AcDbLine
 10
-26.382624
 20
-265.30284
 30
0.0
 11
-26.382624
 21
-288.810126
 31
0.0
  0
LINE
  5
912
330
756
100
AcDbEntity
  8
0
 62
     0
370
    -2
100
AcDbLine
 10
-198.882624
 20
-287.560126
 30
0.0
 11
-28.882624
 21
-287.560126
 31
0.0
  0
INSERT
  5
913
330
756
100
AcDbEntity
  8
0
 62
     0
370
    -2
100
AcDbBlockReference
  2
_Open30
 10
-201.382624
 20
-287.560126
 30
0.0
 41
2.5
 42
2.5
 43
2.5
 50
180.0
  0
INSERT
  5
914
330
756
100
AcDbEntity
  8
0
 62
     0
370
    -2
100
AcDbBlockReference
  2
_Open30
 10
-26.382624
 20
-287.560126
 30
0.0
 41
2.5
 42
2.5
 43
2.5
  0
MTEXT
  5
915
330
756
100
AcDbEntity
  8
0
 62
     4
100
AcDbMText
 10
-113.882624
 20
-285.4351259999999
 30
0.0
 40
3.0
 41
0.0
 71
     5
 72
     1
  1
350
 73
     1
 44
1.0
1001
ACAD
1000
MTEXTBEGIN
1070
    73
1070
     1
1070
    44
1040
1.0
1070
    74
1070
     0
1000
MTEXTEND
  0
POINT
  5
916
330
756
100
AcDbEntity
  8
Defpoints
 62
     0
100
AcDbPoint
 10
-201.382624
 20
-265.05284
 30
0.0
  0
POINT
  5
917
330
756
100
AcDbEntity
  8
Defpoints
 62
     0
100
AcDbPoint
 10
-26.382624
 20
-265.05284
 30
0.0
  0
POINT
  5
918
330
756
100
AcDbEntity
  8
Defpoints
 62
     0
100
AcDbPoint
 10
-26.382624
 20
-287.560126
 30
0.0
  0
ENDBLK
  5
758
330
756
100
AcDbEntity
  8
0
100
AcDbBlockEnd
  0
BLOCK
  5
763
330
762
100
AcDbEntity
  8
0
100
AcDbBlockBegin
  2
*D2
 70
     1
 10
0.0
 20
0.0
 30
0.0
  3
*D2
  1

  0
LINE
  5
919
330
762
100
AcDbEntity
  8
0
 62
     0
370
    -2
100
AcDbLine
 10
-190.303486
 20
-277.034073
 30
0.0
 11
-212.067489
 21
-277.034073
 31
0.0
  0
LINE
  5
91A
330
762
100
AcDbEntity
  8
0
 62
     0
370
    -2
100
AcDbLine
 10
-190.303486
 20
-247.295754
 30
0.0
 11
-212.067489
 21
-247.295754
 31
0.0
  0
LINE
  5
91B
330
762
100
AcDbEntity
  8
0
 62
     0
370
    -2
100
AcDbLine
 10
-210.817489
 20
-274.534073
 30
0.0
 11
-210.817489
 21
-249.795754
 31
0.0
  0
INSERT
  5
91C
330
762
100
AcDbEntity
  8
0
 62
     0
370
    -2
100
AcDbBlockReference
  2
_Open30
 10
-210.817489
 20
-277.034073
 30
0.0
 41
2.5
 42
2.5
 43
2.5
 50
270.0
  0
INSERT
  5
91D
330
762
100
AcDbEntity
  8
0
 62
     0
370
    -2
100
AcDbBlockReference
  2
_Open30
 10
-210.817489
 20
-247.295754
 30
0.0
 41
2.5
 42
2.5
 43
2.5
 50
90.0
  0
MTEXT
  5
91E
330
762
100
AcDbEntity
  8
0
 62
     4
100
AcDbMText
 10
-212.942489
 20
-262.1649135
 30
0.0
 40
3.0
 41
0.0
 71
     5
 72
     1
  1
60
 11
0.0000000000000001
 21
1.0
 31
0.0
 73
     1
 44
1.0
1001
ACAD
1000
MTEXTBEGIN
1070
    73
1070
     1
1070
    44
1040
1.0
1070
    74
1070
     0
1000
MTEXTEND
  0
POINT
  5
91F
330
762
100
AcDbEntity
  8
Defpoints
 62
     0
100
AcDbPoint
 10
-190.053486
 20
-277.034073
 30
0.0
  0
POINT
  5
920
330
762
100
AcDbEntity
  8
Defpoints
 62
     0
100
AcDbPoint
 10
-190.053486
 20
-247.295754
 30
0.0
  0
POINT
  5
921
330
762
100
AcDbEntity
  8
Defpoints
 62
     0
100
AcDbPoint
 10
-210.817489
 20
-247.295754
 30
0.0
  0
ENDBLK
  5
764
330
762
100
AcDbEntity
  8
0
100
AcDbBlockEnd
  0
BLOCK
  5
76F
330
76E
100
AcDbEntity
  8
0
100
AcDbBlockBegin
  2
*D3
 70
     1
 10
0.0
 20
0.0
 30
0.0
  3
*D3
  1

  0
LINE
  5
922
330
76E
100
AcDbEntity
  8
0
 62
     0
370
    -2
100
AcDbLine
 10
-114.132624
 20
-279.164914
 30
0.0
 11
-220.004057
 21
-279.164914
 31
0.0
  0
LINE
  5
923
330
76E
100
AcDbEntity
  8
0
 62
     0
370
    -2
100
AcDbLine
 10
-114.132624
 20
-245.164914
 30
0.0
 11
-220.004057
 21
-245.164914
 31
0.0
  0
LINE
  5
924
330
76E
100
AcDbEntity
  8
0
 62
     0
370
    -2
100
AcDbLine
 10
-218.754057
 20
-276.664914
 30
0.0
 11
-218.754057
 21
-247.664914
 31
0.0
  0
INSERT
  5
925
330
76E
100
AcDbEntity
  8
0
 62
     0
370
    -2
100
AcDbBlockReference
  2
_Open30
 10
-218.754057
 20
-279.164914
 30
0.0
 41
2.5
 42
2.5
 43
2.5
 50
270.0
  0
INSERT
  5
926
330
76E
100
AcDbEntity
  8
0
 62
     0
370
    -2
100
AcDbBlockReference
  2
_Open30
 10
-218.754057
 20
-245.164914
 30
0.0
 41
2.5
 42
2.5
 43
2.5
 50
90.0
  0
MTEXT
  5
927
330
76E
100
AcDbEntity
  8
0
 62
     4
100
AcDbMText
 10
-220.879057
 20
-262.164914
 30
0.0
 40
3.0
 41
0.0
 71
     5
 72
     1
  1
68
 11
0.0000000000000001
 21
1.0
 31
0.0
 73
     1
 44
1.0
1001
ACAD
1000
MTEXTBEGIN
1070
    73
1070
     1
1070
    44
1040
1.0
1070
    74
1070
     0
1000
MTEXTEND
  0
POINT
  5
928
330
76E
100
AcDbEntity
  8
Defpoints
 62
     0
100
AcDbPoint
 10
-113.882624
 20
-279.164914
 30
0.0
  0
POINT
  5
929
330
76E
100
AcDbEntity
  8
Defpoints
 62
     0
100
AcDbPoint
 10
-113.882624
 20
-245.164914
 30
0.0
  0
POINT
  5
92A
330
76E
100
AcDbEntity
  8
Defpoints
 62
     0
100
AcDbPoint
 10
-218.754057
 20
-245.164914
 30
0.0
  0
ENDBLK
  5
770
330
76E
100
AcDbEntity
  8
0
100
AcDbBlockEnd
  0
BLOCK
  5
786
330
785
100
AcDbEntity
  8
0
100
AcDbBlockBegin
  2
*D4
 70
     1
 10
0.0
 20
0.0
 30
0.0
  3
*D4
  1

  0
LINE
  5
92B
330
785
100
AcDbEntity
  8
0
 62
     0
370
    -2
100
AcDbLine
 10
-199.132624
 20
-359.433281
 30
0.0
 11
-213.866421
 21
-359.433281
 31
0.0
  0
LINE
  5
92C
330
785
100
AcDbEntity
  8
0
 62
     0
370
    -2
100
AcDbLine
 10
-199.132624
 20
-300.422172
 30
0.0
 11
-213.866421
 21
-300.422172
 31
0.0
  0
LINE
  5
92D
330
785
100
AcDbEntity
  8
0
 62
     0
370
    -2
100
AcDbLine
 10
-212.616421
 20
-356.933281
 30
0.0
 11
-212.616421
 21
-302.9221720000001
 31
0.0
  0
INSERT
  5
92E
330
785
100
AcDbEntity
  8
0
 62
     0
370
    -2
100
AcDbBlockReference
  2
_Open30
 10
-212.616421
 20
-359.433281
 30
0.0
 41
2.5
 42
2.5
 43
2.5
 50
270.0
  0
INSERT
  5
92F
330
785
100
AcDbEntity
  8
0
 62
     0
370
    -2
100
AcDbBlockReference
  2
_Open30
 10
-212.616421
 20
-300.422172
 30
0.0
 41
2.5
 42
2.5
 43
2.5
 50
90.0
  0
MTEXT
  5
930
330
785
100
AcDbEntity
  8
0
 62
     4
100
AcDbMText
 10
-214.741421
 20
-329.9277265000001
 30
0.0
 40
3.0
 41
0.0
 71
     5
 72
     1
  1
118
 11
0.0000000000000001
 21
1.0
 31
0.0
 73
     1
 44
1.0
1001
ACAD
1000
MTEXTBEGIN
1070
    73
1070
     1
1070
    44
1040
1.0
1070
    74
1070
     0
1000
MTEXTEND
  0
POINT
  5
931
330
785
100
AcDbEntity
  8
Defpoints
 62
     0
100
AcDbPoint
 10
-198.882624
 20
-359.433281
 30
0.0
  0
POINT
  5
932
330
785
100
AcDbEntity
  8
Defpoints
 62
     0
100
AcDbPoint
 10
-198.882624
 20
-300.422172
 30
0.0
  0
POINT
  5
933
330
785
100
AcDbEntity
  8
Defpoints
 62
     0
100
AcDbPoint
 10
-212.616421
 20
-300.422172
 30
0.0
  0
ENDBLK
  5
787
330
785
100
AcDbEntity
  8
0
100
AcDbBlockEnd
  0
BLOCK
  5
939
330
937
100
AcDbEntity
  8
0
100
AcDbBlockBegin
  2
_DotSmall
 70
     0
 10
0.0
 20
0.0
 30
0.0
  3
_DotSmall
  1

  0
LWPOLYLINE
  5
938
330
937
100
AcDbEntity
  8
0
  6
ByBlock
 62
     0
100
AcDbPolyline
 90
        2
 70
     1
 43
0.5
 10
-0.0625
 20
0.0
 42
1.0
 10
0.0625
 20
0.0
 42
1.0
  0
ENDBLK
  5
93A
330
937
100
AcDbEntity
  8
0
100
AcDbBlockEnd
  0
ENDSEC
  0
SECTION
  2
ENTITIES
  0
ARC
  5
93
330
36
100
AcDbEntity
  8
0
 62
     3
100
AcDbCircle
 10
46.51784099999999
 20
-293.704829
 30
0.0
 40
0.5
100
AcDbArc
 50
0.0
 51
90.0
  0
ARC
  5
94
330
36
100
AcDbEntity
  8
0
 62
     3
100
AcDbCircle
 10
46.51784099999999
 20
-293.704829
 30
0.0
 40
0.5
100
AcDbArc
 50
270.0
 51
0.0
  0
TEXT
  5
95
330
36
100
AcDbEntity
  8
0
 62
     3
100
AcDbText
 10
34.97999814643818
 20
-337.7361129340019
 30
0.0
 40
3.2
  1
2Pプラグ
  7
高3.2
100
AcDbText
  0
TEXT
  5
96
330
36
100
AcDbEntity
  8
0
 62
     3
100
AcDbText
 10
31.88289542151213
 20
-345.6857949340018
 30
0.0
 40
3.2
  1
15A 125V
  7
高3.2
100
AcDbText
  0
LINE
  5
97
330
36
100
AcDbEntity
  8
0
100
AcDbLine
 10
34.63752869455516
 20
-338.4306211544541
 30
0.0
 11
52.17908350626135
 21
-338.4306211544541
 31
0.0
  0
LINE
  5
98
330
36
100
AcDbEntity
  8
0
100
AcDbLine
 10
31.88289542151213
 20
-346.4729202386717
 30
0.0
 11
54.46862962282534
 21
-346.4729202386717
 31
0.0
  0
LINE
  5
99
330
36
100
AcDbEntity
  8
0
100
AcDbLine
 10
39.917841
 20
-292.204829
 30
0.0
 11
45.11784099999998
 21
-292.204829
 31
0.0
  0
LINE
  5
9A
330
36
100
AcDbEntity
  8
0
100
AcDbLine
 10
39.917841
 20
-295.204829
 30
0.0
 11
45.11784099999998
 21
-295.204829
 31
0.0
  0
LINE
  5
9B
330
36
100
AcDbEntity
  8
0
100
AcDbLine
 10
39.917841
 20
-301.204829
 30
0.0
 11
45.11784099999998
 21
-301.204829
 31
0.0
  0
LINE
  5
9C
330
36
100
AcDbEntity
  8
0
100
AcDbLine
 10
39.917841
 20
-300.204829
 30
0.0
 11
45.11784099999998
 21
-300.204829
 31
0.0
  0
LINE
  5
9D
330
36
100
AcDbEntity
  8
0
100
AcDbLine
 10
38.517841
 20
-297.204829
 30
0.0
 11
46.51784099999999
 21
-297.204829
 31
0.0
  0
LINE
  5
9E
330
36
100
AcDbEntity
  8
0
100
AcDbLine
 10
38.517841
 20
-298.204829
 30
0.0
 11
46.51784099999999
 21
-298.204829
 31
0.0
  0
LINE
  5
9F
330
36
100
AcDbEntity
  8
0
100
AcDbLine
 10
46.51784099999999
 20
-294.204829
 30
0.0
 11
38.517841
 21
-294.204829
 31
0.0
  0
LINE
  5
A0
330
36
100
AcDbEntity
  8
0
100
AcDbLine
 10
46.51784099999999
 20
-293.204829
 30
0.0
 11
38.517841
 21
-293.204829
 31
0.0
  0
LINE
  5
A1
330
36
100
AcDbEntity
  8
0
100
AcDbLine
 10
46.51784099999999
 20
-290.204829
 30
0.0
 11
38.517841
 21
-290.204829
 31
0.0
  0
LINE
  5
A2
330
36
100
AcDbEntity
  8
0
100
AcDbLine
 10
45.11784099999998
 20
-291.204829
 30
0.0
 11
45.11784099999998
 21
-292.204829
 31
0.0
  0
LINE
  5
A3
330
36
100
AcDbEntity
  8
0
100
AcDbLine
 10
39.917841
 20
-291.204829
 30
0.0
 11
45.11784099999998
 21
-291.204829
 31
0.0
  0
LINE
  5
A4
330
36
100
AcDbEntity
  8
0
100
AcDbLine
 10
39.917841
 20
-295.204829
 30
0.0
 11
39.917841
 21
-296.204829
 31
0.0
  0
LINE
  5
A5
330
36
100
AcDbEntity
  8
0
100
AcDbLine
 10
39.917841
 20
-296.204829
 30
0.0
 11
45.11784099999998
 21
-296.204829
 31
0.0
  0
LINE
  5
A6
330
36
100
AcDbEntity
  8
0
100
AcDbLine
 10
39.917841
 20
-300.204829
 30
0.0
 11
39.917841
 21
-301.204829
 31
0.0
  0
LINE
  5
A7
330
36
100
AcDbEntity
  8
0
100
AcDbLine
 10
45.11784099999998
 20
-300.204829
 30
0.0
 11
45.11784099999998
 21
-301.204829
 31
0.0
  0
LINE
  5
A8
330
36
100
AcDbEntity
  8
0
100
AcDbLine
 10
36.517841
 20
-304.204829
 30
0.0
 11
48.51784099999999
 21
-304.204829
 31
0.0
  0
ARC
  5
A9
330
36
100
AcDbEntity
  8
0
100
AcDbCircle
 10
-144.662174
 20
-259.361514
 30
0.0
 40
0.7860000000000003
100
AcDbArc
 50
270.0
 51
0.0
  0
LINE
  5
AA
330
36
100
AcDbEntity
  8
0
100
AcDbLine
 10
-144.218743
 20
-260.010486
 30
0.0
 11
-145.710174
 21
-259.413914
 31
0.0
  0
LINE
  5
AB
330
36
100
AcDbEntity
  8
0
100
AcDbLine
 10
-144.662174
 20
-260.147514
 30
0.0
 11
-150.426174
 21
-260.147514
 31
0.0
  0
ARC
  5
AC
330
36
100
AcDbEntity
  8
0
100
AcDbCircle
 10
-150.426174
 20
-259.361514
 30
0.0
 40
0.7860000000000003
100
AcDbArc
 50
180.0
 51
270.0
  0
LINE
  5
AD
330
36
100
AcDbEntity
  8
0
100
AcDbLine
 10
-149.378174
 20
-259.413914
 30
0.0
 11
-150.869605
 21
-260.010486
 31
0.0
  0
LINE
  5
AE
330
36
100
AcDbEntity
  8
0
100
AcDbLine
 10
-151.212174
 20
-258.313514
 30
0.0
 11
-151.212174
 21
-259.361514
 31
0.0
  0
ARC
  5
AF
330
36
100
AcDbEntity
  8
0
100
AcDbCircle
 10
-150.426174
 20
-258.313514
 30
0.0
 40
0.7860000000000003
100
AcDbArc
 50
90.0
 51
180.0
  0
LINE
  5
B0
330
36
100
AcDbEntity
  8
0
100
AcDbLine
 10
-149.378174
 20
-258.261114
 30
0.0
 11
-150.869605
 21
-257.6645410000001
 31
0.0
  0
LINE
  5
B1
330
36
100
AcDbEntity
  8
0
100
AcDbLine
 10
-144.662174
 20
-257.527514
 30
0.0
 11
-150.426174
 21
-257.527514
 31
0.0
  0
ARC
  5
B2
330
36
100
AcDbEntity
  8
0
100
AcDbCircle
 10
-144.662174
 20
-258.313514
 30
0.0
 40
0.7860000000000003
100
AcDbArc
 50
0.0
 51
90.0
  0
LINE
  5
B3
330
36
100
AcDbEntity
  8
0
100
AcDbLine
 10
-145.710174
 20
-258.261114
 30
0.0
 11
-144.218743
 21
-257.6645410000001
 31
0.0
  0
LINE
  5
B4
330
36
100
AcDbEntity
  8
0
100
AcDbLine
 10
-143.876174
 20
-258.313514
 30
0.0
 11
-143.876174
 21
-259.361514
 31
0.0
  0
LINE
  5
B5
330
36
100
AcDbEntity
  8
0
100
AcDbLine
 10
-143.876174
 20
-264.968314
 30
0.0
 11
-143.876174
 21
-266.016314
 31
0.0
  0
LINE
  5
B6
330
36
100
AcDbEntity
  8
0
100
AcDbLine
 10
-145.264774
 20
-266.068714
 30
0.0
 11
-144.18366
 21
-266.639868
 31
0.0
  0
LINE
  5
B7
330
36
100
AcDbEntity
  8
0
100
AcDbLine
 10
-144.662174
 20
-266.802314
 30
0.0
 11
-150.426174
 21
-266.802314
 31
0.0
  0
ARC
  5
B8
330
36
100
AcDbEntity
  8
0
100
AcDbCircle
 10
-150.426174
 20
-266.016314
 30
0.0
 40
0.7860000000000003
100
AcDbArc
 50
180.0
 51
270.0
  0
LINE
  5
B9
330
36
100
AcDbEntity
  8
0
100
AcDbLine
 10
-149.823574
 20
-266.068714
 30
0.0
 11
-150.904688
 21
-266.639868
 31
0.0
  0
LINE
  5
BA
330
36
100
AcDbEntity
  8
0
100
AcDbLine
 10
-151.212174
 20
-264.968314
 30
0.0
 11
-151.212174
 21
-266.016314
 31
0.0
  0
LINE
  5
BB
330
36
100
AcDbEntity
  8
0
100
AcDbLine
 10
-149.823574
 20
-264.915914
 30
0.0
 11
-150.904688
 21
-264.344759
 31
0.0
  0
ARC
  5
BC
330
36
100
AcDbEntity
  8
0
100
AcDbCircle
 10
-150.426174
 20
-264.968314
 30
0.0
 40
0.7860000000000003
100
AcDbArc
 50
90.0
 51
180.0
  0
LINE
  5
BD
330
36
100
AcDbEntity
  8
0
100
AcDbLine
 10
-150.426174
 20
-264.182314
 30
0.0
 11
-144.662174
 21
-264.182314
 31
0.0
  0
LINE
  5
BE
330
36
100
AcDbEntity
  8
0
100
AcDbLine
 10
-145.264774
 20
-264.915914
 30
0.0
 11
-144.18366
 21
-264.344759
 31
0.0
  0
ARC
  5
BF
330
36
100
AcDbEntity
  8
0
100
AcDbCircle
 10
-144.662174
 20
-264.968314
 30
0.0
 40
0.7860000000000003
100
AcDbArc
 50
0.0
 51
90.0
  0
ARC
  5
C0
330
36
100
AcDbEntity
  8
0
100
AcDbCircle
 10
-144.662174
 20
-266.016314
 30
0.0
 40
0.7860000000000003
100
AcDbArc
 50
270.0
 51
0.0
  0
ARC
  5
C1
330
36
100
AcDbEntity
  8
0
100
AcDbCircle
 10
-129.990174
 20
-264.968314
 30
0.0
 40
0.7860000000000003
100
AcDbArc
 50
90.0
 51
180.0
  0
LINE
  5
C2
330
36
100
AcDbEntity
  8
0
100
AcDbLine
 10
-129.387574
 20
-264.915914
 30
0.0
 11
-130.468688
 21
-264.344759
 31
0.0
  0
LINE
  5
C3
330
36
100
AcDbEntity
  8
0
100
AcDbLine
 10
-130.776174
 20
-264.968314
 30
0.0
 11
-130.776174
 21
-266.016314
 31
0.0
  0
ARC
  5
C4
330
36
100
AcDbEntity
  8
0
100
AcDbCircle
 10
-129.990174
 20
-266.016314
 30
0.0
 40
0.7860000000000003
100
AcDbArc
 50
180.0
 51
270.0
  0
LINE
  5
C5
330
36
100
AcDbEntity
  8
0
100
AcDbLine
 10
-129.387574
 20
-266.068714
 30
0.0
 11
-130.468688
 21
-266.639868
 31
0.0
  0
LINE
  5
C6
330
36
100
AcDbEntity
  8
0
100
AcDbLine
 10
-129.990174
 20
-266.802314
 30
0.0
 11
-124.226174
 21
-266.802314
 31
0.0
  0
LINE
  5
C7
330
36
100
AcDbEntity
  8
0
100
AcDbLine
 10
-124.828774
 20
-266.068714
 30
0.0
 11
-123.74766
 21
-266.639868
 31
0.0
  0
ARC
  5
C8
330
36
100
AcDbEntity
  8
0
100
AcDbCircle
 10
-124.226174
 20
-266.016314
 30
0.0
 40
0.7860000000000003
100
AcDbArc
 50
270.0
 51
0.0
  0
LINE
  5
C9
330
36
100
AcDbEntity
  8
0
100
AcDbLine
 10
-123.440174
 20
-264.968314
 30
0.0
 11
-123.440174
 21
-266.016314
 31
0.0
  0
LINE
  5
CA
330
36
100
AcDbEntity
  8
0
100
AcDbLine
 10
-124.828774
 20
-264.915914
 30
0.0
 11
-123.74766
 21
-264.344759
 31
0.0
  0
LINE
  5
CB
330
36
100
AcDbEntity
  8
0
100
AcDbLine
 10
-124.226174
 20
-264.182314
 30
0.0
 11
-129.990174
 21
-264.182314
 31
0.0
  0
ARC
  5
CC
330
36
100
AcDbEntity
  8
0
100
AcDbCircle
 10
-124.226174
 20
-264.968314
 30
0.0
 40
0.7860000000000003
100
AcDbArc
 50
0.0
 51
90.0
  0
LINE
  5
CD
330
36
100
AcDbEntity
  8
0
100
AcDbLine
 10
-123.440174
 20
-258.313514
 30
0.0
 11
-123.440174
 21
-259.361514
 31
0.0
  0
ARC
  5
CE
330
36
100
AcDbEntity
  8
0
100
AcDbCircle
 10
-124.226174
 20
-259.361514
 30
0.0
 40
0.7860000000000003
100
AcDbArc
 50
270.0
 51
0.0
  0
LINE
  5
CF
330
36
100
AcDbEntity
  8
0
100
AcDbLine
 10
-125.274174
 20
-259.413914
 30
0.0
 11
-123.782743
 21
-260.010486
 31
0.0
  0
LINE
  5
D0
330
36
100
AcDbEntity
  8
0
100
AcDbLine
 10
-129.990174
 20
-260.147514
 30
0.0
 11
-124.226174
 21
-260.147514
 31
0.0
  0
LINE
  5
D1
330
36
100
AcDbEntity
  8
0
100
AcDbLine
 10
-130.433605
 20
-260.010486
 30
0.0
 11
-128.942174
 21
-259.413914
 31
0.0
  0
ARC
  5
D2
330
36
100
AcDbEntity
  8
0
100
AcDbCircle
 10
-129.990174
 20
-259.361514
 30
0.0
 40
0.7860000000000003
100
AcDbArc
 50
180.0
 51
270.0
  0
LINE
  5
D3
330
36
100
AcDbEntity
  8
0
100
AcDbLine
 10
-130.776174
 20
-258.313514
 30
0.0
 11
-130.776174
 21
-259.361514
 31
0.0
  0
ARC
  5
D4
330
36
100
AcDbEntity
  8
0
100
AcDbCircle
 10
-129.990174
 20
-258.313514
 30
0.0
 40
0.7860000000000003
100
AcDbArc
 50
90.0
 51
180.0
  0
LINE
  5
D5
330
36
100
AcDbEntity
  8
0
100
AcDbLine
 10
-128.942174
 20
-258.261114
 30
0.0
 11
-130.433605
 21
-257.6645410000001
 31
0.0
  0
LINE
  5
D6
330
36
100
AcDbEntity
  8
0
100
AcDbLine
 10
-129.990174
 20
-257.527514
 30
0.0
 11
-124.226174
 21
-257.527514
 31
0.0
  0
LINE
  5
D7
330
36
100
AcDbEntity
  8
0
100
AcDbLine
 10
-125.274174
 20
-258.261114
 30
0.0
 11
-123.782743
 21
-257.6645410000001
 31
0.0
  0
ARC
  5
D8
330
36
100
AcDbEntity
  8
0
100
AcDbCircle
 10
-124.226174
 20
-258.313514
 30
0.0
 40
0.7860000000000003
100
AcDbArc
 50
0.0
 51
90.0
  0
ARC
  5
D9
330
36
100
AcDbEntity
  8
0
100
AcDbCircle
 10
-83.00365300000001
 20
-259.361514
 30
0.0
 40
0.7860000000000003
100
AcDbArc
 50
180.0
 51
270.0
  0
LINE
  5
DA
330
36
100
AcDbEntity
  8
0
100
AcDbLine
 10
-83.447084
 20
-260.010486
 30
0.0
 11
-81.955653
 21
-259.413914
 31
0.0
  0
LINE
  5
DB
330
36
100
AcDbEntity
  8
0
100
AcDbLine
 10
-83.00365300000001
 20
-260.147514
 30
0.0
 11
-77.239653
 21
-260.147514
 31
0.0
  0
ARC
  5
DC
330
36
100
AcDbEntity
  8
0
100
AcDbCircle
 10
-77.239653
 20
-259.361514
 30
0.0
 40
0.7860000000000003
100
AcDbArc
 50
270.0
 51
0.0
  0
LINE
  5
DD
330
36
100
AcDbEntity
  8
0
100
AcDbLine
 10
-78.287653
 20
-259.413914
 30
0.0
 11
-76.796222
 21
-260.010486
 31
0.0
  0
LINE
  5
DE
330
36
100
AcDbEntity
  8
0
100
AcDbLine
 10
-76.453653
 20
-258.313514
 30
0.0
 11
-76.453653
 21
-259.361514
 31
0.0
  0
ARC
  5
DF
330
36
100
AcDbEntity
  8
0
100
AcDbCircle
 10
-77.239653
 20
-258.313514
 30
0.0
 40
0.7860000000000003
100
AcDbArc
 50
0.0
 51
90.0
  0
LINE
  5
E0
330
36
100
AcDbEntity
  8
0
100
AcDbLine
 10
-78.287653
 20
-258.261114
 30
0.0
 11
-76.796222
 21
-257.6645410000001
 31
0.0
  0
LINE
  5
E1
330
36
100
AcDbEntity
  8
0
100
AcDbLine
 10
-83.00365300000001
 20
-257.527514
 30
0.0
 11
-77.239653
 21
-257.527514
 31
0.0
  0
ARC
  5
E2
330
36
100
AcDbEntity
  8
0
100
AcDbCircle
 10
-83.00365300000001
 20
-258.313514
 30
0.0
 40
0.7860000000000003
100
AcDbArc
 50
90.0
 51
180.0
  0
LINE
  5
E3
330
36
100
AcDbEntity
  8
0
100
AcDbLine
 10
-81.955653
 20
-258.261114
 30
0.0
 11
-83.447084
 21
-257.6645410000001
 31
0.0
  0
LINE
  5
E4
330
36
100
AcDbEntity
  8
0
100
AcDbLine
 10
-83.789653
 20
-258.313514
 30
0.0
 11
-83.789653
 21
-259.361514
 31
0.0
  0
LINE
  5
E5
330
36
100
AcDbEntity
  8
0
100
AcDbLine
 10
-83.789653
 20
-264.968314
 30
0.0
 11
-83.789653
 21
-266.016314
 31
0.0
  0
LINE
  5
E6
330
36
100
AcDbEntity
  8
0
100
AcDbLine
 10
-82.40105300000001
 20
-266.068714
 30
0.0
 11
-83.482167
 21
-266.639868
 31
0.0
  0
LINE
  5
E7
330
36
100
AcDbEntity
  8
0
100
AcDbLine
 10
-83.00365300000001
 20
-266.802314
 30
0.0
 11
-77.239653
 21
-266.802314
 31
0.0
  0
ARC
  5
E8
330
36
100
AcDbEntity
  8
0
100
AcDbCircle
 10
-77.239653
 20
-266.016314
 30
0.0
 40
0.7860000000000003
100
AcDbArc
 50
270.0
 51
0.0
  0
LINE
  5
E9
330
36
100
AcDbEntity
  8
0
100
AcDbLine
 10
-77.842253
 20
-266.068714
 30
0.0
 11
-76.761139
 21
-266.639868
 31
0.0
  0
LINE
  5
EA
330
36
100
AcDbEntity
  8
0
100
AcDbLine
 10
-76.453653
 20
-264.968314
 30
0.0
 11
-76.453653
 21
-266.016314
 31
0.0
  0
LINE
  5
EB
330
36
100
AcDbEntity
  8
0
100
AcDbLine
 10
-77.842253
 20
-264.915914
 30
0.0
 11
-76.761139
 21
-264.344759
 31
0.0
  0
ARC
  5
EC
330
36
100
AcDbEntity
  8
0
100
AcDbCircle
 10
-77.239653
 20
-264.968314
 30
0.0
 40
0.7860000000000003
100
AcDbArc
 50
0.0
 51
90.0
  0
LINE
  5
ED
330
36
100
AcDbEntity
  8
0
100
AcDbLine
 10
-77.239653
 20
-264.182314
 30
0.0
 11
-83.00365300000001
 21
-264.182314
 31
0.0
  0
LINE
  5
EE
330
36
100
AcDbEntity
  8
0
100
AcDbLine
 10
-82.40105300000001
 20
-264.915914
 30
0.0
 11
-83.482167
 21
-264.344759
 31
0.0
  0
ARC
  5
EF
330
36
100
AcDbEntity
  8
0
100
AcDbCircle
 10
-83.00365300000001
 20
-264.968314
 30
0.0
 40
0.7860000000000003
100
AcDbArc
 50
90.0
 51
180.0
  0
ARC
  5
F0
330
36
100
AcDbEntity
  8
0
100
AcDbCircle
 10
-83.00365300000001
 20
-266.016314
 30
0.0
 40
0.7860000000000003
100
AcDbArc
 50
180.0
 51
270.0
  0
ARC
  5
F1
330
36
100
AcDbEntity
  8
0
100
AcDbCircle
 10
-97.67565300000001
 20
-264.968314
 30
0.0
 40
0.7860000000000003
100
AcDbArc
 50
0.0
 51
90.0
  0
LINE
  5
F2
330
36
100
AcDbEntity
  8
0
100
AcDbLine
 10
-98.278253
 20
-264.915914
 30
0.0
 11
-97.19713900000002
 21
-264.344759
 31
0.0
  0
LINE
  5
F3
330
36
100
AcDbEntity
  8
0
100
AcDbLine
 10
-96.88965299999999
 20
-264.968314
 30
0.0
 11
-96.88965299999999
 21
-266.016314
 31
0.0
  0
ARC
  5
F4
330
36
100
AcDbEntity
  8
0
100
AcDbCircle
 10
-97.67565300000001
 20
-266.016314
 30
0.0
 40
0.7860000000000003
100
AcDbArc
 50
270.0
 51
0.0
  0
LINE
  5
F5
330
36
100
AcDbEntity
  8
0
100
AcDbLine
 10
-98.278253
 20
-266.068714
 30
0.0
 11
-97.19713900000002
 21
-266.639868
 31
0.0
  0
LINE
  5
F6
330
36
100
AcDbEntity
  8
0
100
AcDbLine
 10
-97.67565300000001
 20
-266.802314
 30
0.0
 11
-103.439653
 21
-266.802314
 31
0.0
  0
LINE
  5
F7
330
36
100
AcDbEntity
  8
0
100
AcDbLine
 10
-102.837053
 20
-266.068714
 30
0.0
 11
-103.918167
 21
-266.639868
 31
0.0
  0
ARC
  5
F8
330
36
100
AcDbEntity
  8
0
100
AcDbCircle
 10
-103.439653
 20
-266.016314
 30
0.0
 40
0.7860000000000003
100
AcDbArc
 50
180.0
 51
270.0
  0
LINE
  5
F9
330
36
100
AcDbEntity
  8
0
100
AcDbLine
 10
-104.225653
 20
-264.968314
 30
0.0
 11
-104.225653
 21
-266.016314
 31
0.0
  0
LINE
  5
FA
330
36
100
AcDbEntity
  8
0
100
AcDbLine
 10
-102.837053
 20
-264.915914
 30
0.0
 11
-103.918167
 21
-264.344759
 31
0.0
  0
LINE
  5
FB
330
36
100
AcDbEntity
  8
0
100
AcDbLine
 10
-103.439653
 20
-264.182314
 30
0.0
 11
-97.67565300000001
 21
-264.182314
 31
0.0
  0
ARC
  5
FC
330
36
100
AcDbEntity
  8
0
100
AcDbCircle
 10
-103.439653
 20
-264.968314
 30
0.0
 40
0.7860000000000003
100
AcDbArc
 50
90.0
 51
180.0
  0
LINE
  5
FD
330
36
100
AcDbEntity
  8
0
100
AcDbLine
 10
-104.225653
 20
-258.313514
 30
0.0
 11
-104.225653
 21
-259.361514
 31
0.0
  0
ARC
  5
FE
330
36
100
AcDbEntity
  8
0
100
AcDbCircle
 10
-103.439653
 20
-259.361514
 30
0.0
 40
0.7860000000000003
100
AcDbArc
 50
180.0
 51
270.0
  0
LINE
  5
FF
330
36
100
AcDbEntity
  8
0
100
AcDbLine
 10
-102.391653
 20
-259.413914
 30
0.0
 11
-103.883084
 21
-260.010486
 31
0.0
  0
LINE
  5
100
330
36
100
AcDbEntity
  8
0
100
AcDbLine
 10
-97.67565300000001
 20
-260.147514
 30
0.0
 11
-103.439653
 21
-260.147514
 31
0.0
  0
LINE
  5
101
330
36
100
AcDbEntity
  8
0
100
AcDbLine
 10
-97.232222
 20
-260.010486
 30
0.0
 11
-98.723653
 21
-259.413914
 31
0.0
  0
ARC
  5
102
330
36
100
AcDbEntity
  8
0
100
AcDbCircle
 10
-97.67565300000001
 20
-259.361514
 30
0.0
 40
0.7860000000000003
100
AcDbArc
 50
270.0
 51
0.0
  0
LINE
  5
103
330
36
100
AcDbEntity
  8
0
100
AcDbLine
 10
-96.88965299999999
 20
-258.313514
 30
0.0
 11
-96.88965299999999
 21
-259.361514
 31
0.0
  0
ARC
  5
104
330
36
100
AcDbEntity
  8
0
100
AcDbCircle
 10
-97.67565300000001
 20
-258.313514
 30
0.0
 40
0.7860000000000003
100
AcDbArc
 50
0.0
 51
90.0
  0
LINE
  5
105
330
36
100
AcDbEntity
  8
0
100
AcDbLine
 10
-98.723653
 20
-258.261114
 30
0.0
 11
-97.232222
 21
-257.6645410000001
 31
0.0
  0
LINE
  5
106
330
36
100
AcDbEntity
  8
0
100
AcDbLine
 10
-97.67565300000001
 20
-257.527514
 30
0.0
 11
-103.439653
 21
-257.527514
 31
0.0
  0
LINE
  5
107
330
36
100
AcDbEntity
  8
0
100
AcDbLine
 10
-102.391653
 20
-258.261114
 30
0.0
 11
-103.883084
 21
-257.6645410000001
 31
0.0
  0
ARC
  5
108
330
36
100
AcDbEntity
  8
0
100
AcDbCircle
 10
-103.439653
 20
-258.313514
 30
0.0
 40
0.7860000000000003
100
AcDbArc
 50
90.0
 51
180.0
  0
LINE
  5
109
330
36
100
AcDbEntity
  8
0
 62
     3
100
AcDbLine
 10
46.51784099999999
 20
-289.204829
 30
0.0
 11
38.517841
 21
-289.204829
 31
0.0
  0
LINE
  5
113
330
36
100
AcDbEntity
  8
0
100
AcDbLine
 10
-152.000451
 20
-266.433193
 30
0.0
 11
-151.845331
 21
-266.433193
 31
0.0
  0
LINE
  5
114
330
36
100
AcDbEntity
  8
0
100
AcDbLine
 10
-152.000451
 20
-266.377193
 30
0.0
 11
-152.000451
 21
-266.433193
 31
0.0
  0
LINE
  5
115
330
36
100
AcDbEntity
  8
0
100
AcDbLine
 10
-152.849971
 20
-266.303833
 30
0.0
 11
-152.073811
 21
-266.303833
 31
0.0
  0
ARC
  5
116
330
36
100
AcDbEntity
  8
0
100
AcDbCircle
 10
-152.073811
 20
-266.377193
 30
0.0
 40
0.07336
100
AcDbArc
 50
0.0
 51
90.0
  0
LINE
  5
117
330
36
100
AcDbEntity
  8
0
100
AcDbLine
 10
-152.849967
 20
-264.452423
 30
0.0
 11
-152.073807
 21
-264.452437
 31
0.0
  0
LINE
  5
118
330
36
100
AcDbEntity
  8
0
100
AcDbLine
 10
-152.000446
 20
-264.379078
 30
0.0
 11
-152.000445
 21
-264.323078
 31
0.0
  0
ARC
  5
119
330
36
100
AcDbEntity
  8
0
100
AcDbCircle
 10
-152.073806
 20
-264.379077
 30
0.0
 40
0.07336
100
AcDbArc
 50
269.999
 51
359.999
  0
LINE
  5
11A
330
36
100
AcDbEntity
  8
0
100
AcDbLine
 10
-152.000445
 20
-264.323078
 30
0.0
 11
-151.845325
 21
-264.323081
 31
0.0
  0
LINE
  5
11B
330
36
100
AcDbEntity
  8
0
100
AcDbLine
 10
-151.845336
 20
-264.9956410000001
 30
0.0
 11
-151.845325
 21
-264.323081
 31
0.0
  0
LINE
  5
11C
330
36
100
AcDbEntity
  8
0
100
AcDbLine
 10
-152.56847
 20
-266.105593
 30
0.0
 11
-152.073811
 21
-266.105593
 31
0.0
  0
ARC
  5
11D
330
36
100
AcDbEntity
  8
0
100
AcDbCircle
 10
-152.073811
 20
-266.032233
 30
0.0
 40
0.07336
100
AcDbArc
 50
270.0
 51
0.0
  0
LINE
  5
11E
330
36
100
AcDbEntity
  8
0
100
AcDbLine
 10
-151.845331
 20
-266.433193
 30
0.0
 11
-151.845331
 21
-265.976233
 31
0.0
  0
LINE
  5
11F
330
36
100
AcDbEntity
  8
0
100
AcDbLine
 10
-152.073781
 20
-262.820495
 30
0.0
 11
-152.849941
 21
-262.820495
 31
0.0
  0
LINE
  5
120
330
36
100
AcDbEntity
  8
0
100
AcDbLine
 10
-152.9017409999999
 20
-262.872295
 30
0.0
 11
-152.9017409999999
 21
-262.928295
 31
0.0
  0
LINE
  5
121
330
36
100
AcDbEntity
  8
0
100
AcDbLine
 10
-152.9017409999999
 20
-262.928295
 30
0.0
 11
-153.078421
 21
-262.928295
 31
0.0
  0
LINE
  5
122
330
36
100
AcDbEntity
  8
0
100
AcDbLine
 10
-153.078421
 20
-262.928295
 30
0.0
 11
-153.078421
 21
-262.298855
 31
0.0
  0
LINE
  5
123
330
36
100
AcDbEntity
  8
0
100
AcDbLine
 10
-151.845301
 20
-262.928295
 30
0.0
 11
-152.021981
 21
-262.928295
 31
0.0
  0
LINE
  5
124
330
36
100
AcDbEntity
  8
0
100
AcDbLine
 10
-152.021981
 20
-262.872295
 30
0.0
 11
-152.021981
 21
-262.928295
 31
0.0
  0
ARC
  5
125
330
36
100
AcDbEntity
  8
0
100
AcDbCircle
 10
-152.073781
 20
-262.872295
 30
0.0
 40
0.0518
100
AcDbArc
 50
0.0
 51
90.0
  0
ARC
  5
126
330
36
100
AcDbEntity
  8
0
100
AcDbCircle
 10
-152.461891
 20
-263.589292
 30
0.0
 40
0.61656
100
AcDbArc
 50
136.75288
 51
42.82312
  0
ARC
  5
127
330
36
100
AcDbEntity
  8
0
100
AcDbCircle
 10
-152.476409
 20
-267.513185
 30
0.0
 40
4.368
100
AcDbArc
 50
83.86600599999999
 51
87.69403399999999
  0
LINE
  5
128
330
36
100
AcDbEntity
  8
0
100
AcDbLine
 10
-152.301741
 20
-263.441159
 30
0.0
 11
-152.300659
 21
-263.148723
 31
0.0
  0
LINE
  5
16B
330
36
100
AcDbEntity
  8
0
100
AcDbLine
 10
-152.620939
 20
-263.439978
 30
0.0
 11
-152.619857
 21
-263.147541
 31
0.0
  0
ARC
  5
16C
330
36
100
AcDbEntity
  8
0
100
AcDbCircle
 10
-152.476409
 20
-267.513185
 30
0.0
 40
4.368
100
AcDbArc
 50
91.88196600000001
 51
95.70999399999998
  0
ARC
  5
16D
330
36
100
AcDbEntity
  8
0
100
AcDbCircle
 10
-152.849966
 20
-264.379063
 30
0.0
 40
0.07336
100
AcDbArc
 50
179.999028
 51
269.999
  0
LINE
  5
16E
330
36
100
AcDbEntity
  8
0
100
AcDbLine
 10
-153.078445
 20
-264.323059
 30
0.0
 11
-152.923325
 21
-264.323062
 31
0.0
  0
LINE
  5
16F
330
36
100
AcDbEntity
  8
0
100
AcDbLine
 10
-153.078456
 20
-264.995619
 30
0.0
 11
-153.078445
 21
-264.323059
 31
0.0
  0
LINE
  5
170
330
36
100
AcDbEntity
  8
0
100
AcDbLine
 10
-152.923326
 20
-264.379062
 30
0.0
 11
-152.923325
 21
-264.323062
 31
0.0
  0
ARC
  5
171
330
36
100
AcDbEntity
  8
0
100
AcDbCircle
 10
-152.849971
 20
-264.939629
 30
0.0
 40
0.07336
100
AcDbArc
 50
89.999803
 51
179.999774
  0
LINE
  5
172
330
36
100
AcDbEntity
  8
0
100
AcDbLine
 10
-152.849971
 20
-264.866269
 30
0.0
 11
-152.073811
 21
-264.866271
 31
0.0
  0
ARC
  5
173
330
36
100
AcDbEntity
  8
0
100
AcDbCircle
 10
-152.073815
 20
-264.939637
 30
0.0
 40
0.07336
100
AcDbArc
 50
359.999
 51
89.999
  0
LINE
  5
174
330
36
100
AcDbEntity
  8
0
100
AcDbLine
 10
-152.000456
 20
-264.995638
 30
0.0
 11
-151.845336
 21
-264.9956410000001
 31
0.0
  0
LINE
  5
175
330
36
100
AcDbEntity
  8
0
100
AcDbLine
 10
-152.000455
 20
-264.939638
 30
0.0
 11
-152.000456
 21
-264.995638
 31
0.0
  0
LINE
  5
176
330
36
100
AcDbEntity
  8
0
100
AcDbLine
 10
-153.078456
 20
-264.995619
 30
0.0
 11
-152.923336
 21
-264.995622
 31
0.0
  0
LINE
  5
177
330
36
100
AcDbEntity
  8
0
100
AcDbLine
 10
-152.923335
 20
-264.939622
 30
0.0
 11
-152.923336
 21
-264.995622
 31
0.0
  0
LINE
  5
178
330
36
100
AcDbEntity
  8
0
100
AcDbLine
 10
-151.845301
 20
-262.928295
 30
0.0
 11
-151.845301
 21
-262.298855
 31
0.0
  0
ARC
  5
179
330
36
100
AcDbEntity
  8
0
100
AcDbCircle
 10
-152.849941
 20
-262.872295
 30
0.0
 40
0.0518
100
AcDbArc
 50
90.0
 51
180.0
  0
LINE
  5
17A
330
36
100
AcDbEntity
  8
0
100
AcDbLine
 10
-152.000451
 20
-265.976233
 30
0.0
 11
-151.845331
 21
-265.976233
 31
0.0
  0
LINE
  5
17B
330
36
100
AcDbEntity
  8
0
100
AcDbLine
 10
-152.000451
 20
-266.032233
 30
0.0
 11
-152.000451
 21
-265.976233
 31
0.0
  0
LINE
  5
17C
330
36
100
AcDbEntity
  8
0
100
AcDbLine
 10
-152.56847
 20
-266.105593
 30
0.0
 11
-151.845331
 21
-265.653631
 31
0.0
  0
LINE
  5
17D
330
36
100
AcDbEntity
  8
0
100
AcDbLine
 10
-151.845331
 20
-265.653631
 30
0.0
 11
-151.845331
 21
-265.350993
 31
0.0
  0
LINE
  5
17E
330
36
100
AcDbEntity
  8
0
100
AcDbLine
 10
-152.806851
 20
-265.350993
 30
0.0
 11
-151.845331
 21
-265.350993
 31
0.0
  0
ARC
  5
17F
330
36
100
AcDbEntity
  8
0
100
AcDbCircle
 10
-152.806851
 20
-265.234513
 30
0.0
 40
0.11648
100
AcDbArc
 50
173.651426
 51
270.0
  0
LINE
  5
180
330
36
100
AcDbEntity
  8
0
100
AcDbLine
 10
-153.078451
 20
-265.221633
 30
0.0
 11
-152.922616
 21
-265.221633
 31
0.0
  0
LINE
  5
181
330
36
100
AcDbEntity
  8
0
100
AcDbLine
 10
-153.078451
 20
-265.678593
 30
0.0
 11
-153.078451
 21
-265.221633
 31
0.0
  0
LINE
  5
182
330
36
100
AcDbEntity
  8
0
100
AcDbLine
 10
-153.078451
 20
-265.678593
 30
0.0
 11
-152.923331
 21
-265.678593
 31
0.0
  0
LINE
  5
183
330
36
100
AcDbEntity
  8
0
100
AcDbLine
 10
-152.923331
 20
-265.678593
 30
0.0
 11
-152.923331
 21
-265.622593
 31
0.0
  0
ARC
  5
184
330
36
100
AcDbEntity
  8
0
100
AcDbCircle
 10
-152.849971
 20
-265.622593
 30
0.0
 40
0.07336
100
AcDbArc
 50
90.0
 51
180.0
  0
LINE
  5
185
330
36
100
AcDbEntity
  8
0
100
AcDbLine
 10
-152.519931
 20
-265.549233
 30
0.0
 11
-152.849971
 21
-265.549233
 31
0.0
  0
LINE
  5
186
330
36
100
AcDbEntity
  8
0
100
AcDbLine
 10
-152.519931
 20
-265.549233
 30
0.0
 11
-153.078451
 21
-265.915762
 31
0.0
  0
LINE
  5
187
330
36
100
AcDbEntity
  8
0
100
AcDbLine
 10
-153.078451
 20
-266.433193
 30
0.0
 11
-153.078451
 21
-265.915762
 31
0.0
  0
LINE
  5
188
330
36
100
AcDbEntity
  8
0
100
AcDbLine
 10
-153.078451
 20
-266.433193
 30
0.0
 11
-152.923331
 21
-266.433193
 31
0.0
  0
LINE
  5
189
330
36
100
AcDbEntity
  8
0
100
AcDbLine
 10
-152.923331
 20
-266.377193
 30
0.0
 11
-152.923331
 21
-266.433193
 31
0.0
  0
ARC
  5
18A
330
36
100
AcDbEntity
  8
0
100
AcDbCircle
 10
-152.849971
 20
-266.377193
 30
0.0
 40
0.07336
100
AcDbArc
 50
90.0
 51
180.0
  0
LINE
  5
18B
330
36
100
AcDbEntity
  8
0
100
AcDbLine
 10
-152.923331
 20
-261.292
 30
0.0
 11
-152.923331
 21
-261.348
 31
0.0
  0
ARC
  5
18C
330
36
100
AcDbEntity
  8
0
100
AcDbCircle
 10
-152.849971
 20
-261.292
 30
0.0
 40
0.07336
100
AcDbArc
 50
90.0
 51
180.0
  0
LINE
  5
18D
330
36
100
AcDbEntity
  8
0
100
AcDbLine
 10
-152.849971
 20
-261.21864
 30
0.0
 11
-152.073811
 21
-261.21864
 31
0.0
  0
LINE
  5
18E
330
36
100
AcDbEntity
  8
0
100
AcDbLine
 10
-151.845331
 20
-260.67544
 30
0.0
 11
-151.845331
 21
-261.348
 31
0.0
  0
LINE
  5
18F
330
36
100
AcDbEntity
  8
0
100
AcDbLine
 10
-152.000451
 20
-260.67544
 30
0.0
 11
-151.845331
 21
-260.67544
 31
0.0
  0
LINE
  5
190
330
36
100
AcDbEntity
  8
0
100
AcDbLine
 10
-152.000451
 20
-260.7314399999999
 30
0.0
 11
-152.000451
 21
-260.67544
 31
0.0
  0
ARC
  5
191
330
36
100
AcDbEntity
  8
0
100
AcDbCircle
 10
-152.073811
 20
-260.7314399999999
 30
0.0
 40
0.07336
100
AcDbArc
 50
270.0
 51
0.0
  0
LINE
  5
192
330
36
100
AcDbEntity
  8
0
100
AcDbLine
 10
-153.078421
 20
-261.608935
 30
0.0
 11
-153.078421
 21
-262.238375
 31
0.0
  0
LINE
  5
193
330
36
100
AcDbEntity
  8
0
100
AcDbLine
 10
-153.078421
 20
-261.608935
 30
0.0
 11
-152.922275
 21
-261.608935
 31
0.0
  0
LINE
  5
194
330
36
100
AcDbEntity
  8
0
100
AcDbLine
 10
-152.922275
 20
-261.655602
 30
0.0
 11
-152.922275
 21
-261.608935
 31
0.0
  0
ARC
  5
195
330
36
100
AcDbEntity
  8
0
100
AcDbCircle
 10
-152.849941
 20
-261.643375
 30
0.0
 40
0.07336
100
AcDbArc
 50
189.5940679999999
 51
270.0
  0
LINE
  5
196
330
36
100
AcDbEntity
  8
0
100
AcDbLine
 10
-152.849941
 20
-261.716735
 30
0.0
 11
-152.073781
 21
-261.716735
 31
0.0
  0
ARC
  5
197
330
36
100
AcDbEntity
  8
0
100
AcDbCircle
 10
-152.073781
 20
-261.643375
 30
0.0
 40
0.07336
100
AcDbArc
 50
270.0
 51
350.405932
  0
LINE
  5
198
330
36
100
AcDbEntity
  8
0
100
AcDbLine
 10
-152.001447
 20
-261.655602
 30
0.0
 11
-152.001447
 21
-261.608935
 31
0.0
  0
LINE
  5
199
330
36
100
AcDbEntity
  8
0
100
AcDbLine
 10
-152.001447
 20
-261.608935
 30
0.0
 11
-151.845301
 21
-261.608935
 31
0.0
  0
LINE
  5
19A
330
36
100
AcDbEntity
  8
0
100
AcDbLine
 10
-151.845301
 20
-261.608935
 30
0.0
 11
-151.845301
 21
-262.238375
 31
0.0
  0
ARC
  5
19B
330
36
100
AcDbEntity
  8
0
100
AcDbCircle
 10
-152.849971
 20
-260.7314399999999
 30
0.0
 40
0.07336
100
AcDbArc
 50
180.0
 51
270.0
  0
LINE
  5
19C
330
36
100
AcDbEntity
  8
0
100
AcDbLine
 10
-152.849971
 20
-260.8048
 30
0.0
 11
-152.073811
 21
-260.8048
 31
0.0
  0
LINE
  5
19D
330
36
100
AcDbEntity
  8
0
100
AcDbLine
 10
-153.078451
 20
-260.67544
 30
0.0
 11
-152.923331
 21
-260.67544
 31
0.0
  0
LINE
  5
19E
330
36
100
AcDbEntity
  8
0
100
AcDbLine
 10
-152.923331
 20
-260.7314399999999
 30
0.0
 11
-152.923331
 21
-260.67544
 31
0.0
  0
LINE
  5
19F
330
36
100
AcDbEntity
  8
0
100
AcDbLine
 10
-153.078451
 20
-260.67544
 30
0.0
 11
-153.078451
 21
-261.348
 31
0.0
  0
LINE
  5
1A0
330
36
100
AcDbEntity
  8
0
100
AcDbLine
 10
-153.078451
 20
-261.348
 30
0.0
 11
-152.923331
 21
-261.348
 31
0.0
  0
LINE
  5
1A1
330
36
100
AcDbEntity
  8
0
100
AcDbLine
 10
-152.000451
 20
-260.424777
 30
0.0
 11
-151.845331
 21
-260.424777
 31
0.0
  0
ARC
  5
1A2
330
36
100
AcDbEntity
  8
0
100
AcDbCircle
 10
-152.073811
 20
-260.368777
 30
0.0
 40
0.07336
100
AcDbArc
 50
0.0
 51
90.0
  0
LINE
  5
1A3
330
36
100
AcDbEntity
  8
0
100
AcDbLine
 10
-152.000451
 20
-260.368777
 30
0.0
 11
-152.000451
 21
-260.424777
 31
0.0
  0
LINE
  5
1A4
330
36
100
AcDbEntity
  8
0
100
AcDbLine
 10
-151.845331
 20
-259.698546
 30
0.0
 11
-151.845331
 21
-260.424777
 31
0.0
  0
LINE
  5
1A5
330
36
100
AcDbEntity
  8
0
100
AcDbLine
 10
-152.849971
 20
-260.295417
 30
0.0
 11
-152.073811
 21
-260.295417
 31
0.0
  0
LINE
  5
1A6
330
36
100
AcDbEntity
  8
0
100
AcDbLine
 10
-152.880211
 20
-259.881577
 30
0.0
 11
-152.043571
 21
-259.881577
 31
0.0
  0
LINE
  5
1A7
330
36
100
AcDbEntity
  8
0
100
AcDbLine
 10
-152.043571
 20
-259.881577
 30
0.0
 11
-152.043571
 21
-259.825157
 31
0.0
  0
ARC
  5
1A8
330
36
100
AcDbEntity
  8
0
100
AcDbCircle
 10
-152.461891
 20
-260.11365
 30
0.0
 40
0.508153
100
AcDbArc
 50
34.591955
 51
145.408045
  0
ARC
  5
1A9
330
36
100
AcDbEntity
  8
0
100
AcDbCircle
 10
-152.332531
 20
-259.698546
 30
0.0
 40
0.4872
100
AcDbArc
 50
0.0
 51
72.691251
  0
ARC
  5
1AA
330
36
100
AcDbEntity
  8
0
100
AcDbCircle
 10
-152.591251
 20
-259.698546
 30
0.0
 40
0.4872
100
AcDbArc
 50
107.308749
 51
180.0
  0
ARC
  5
1AB
330
36
100
AcDbEntity
  8
0
100
AcDbCircle
 10
-152.461891
 20
-260.11365
 30
0.0
 40
0.9219929999999999
100
AcDbArc
 50
72.691251
 51
107.308566
  0
LINE
  5
1AC
330
36
100
AcDbEntity
  8
0
100
AcDbLine
 10
-153.078451
 20
-259.698546
 30
0.0
 11
-153.078451
 21
-260.424777
 31
0.0
  0
LINE
  5
1AD
330
36
100
AcDbEntity
  8
0
100
AcDbLine
 10
-153.078451
 20
-260.424777
 30
0.0
 11
-152.923331
 21
-260.424777
 31
0.0
  0
LINE
  5
1AE
330
36
100
AcDbEntity
  8
0
100
AcDbLine
 10
-152.923331
 20
-260.368777
 30
0.0
 11
-152.923331
 21
-260.424777
 31
0.0
  0
ARC
  5
1AF
330
36
100
AcDbEntity
  8
0
100
AcDbCircle
 10
-152.849971
 20
-260.368777
 30
0.0
 40
0.07336
100
AcDbArc
 50
90.0
 51
180.0
  0
ARC
  5
1B0
330
36
100
AcDbEntity
  8
0
100
AcDbCircle
 10
-152.073811
 20
-261.292
 30
0.0
 40
0.07336
100
AcDbArc
 50
0.0
 51
90.0
  0
LINE
  5
1B1
330
36
100
AcDbEntity
  8
0
100
AcDbLine
 10
-152.000451
 20
-261.292
 30
0.0
 11
-152.000451
 21
-261.348
 31
0.0
  0
LINE
  5
1B2
330
36
100
AcDbEntity
  8
0
100
AcDbLine
 10
-152.000451
 20
-261.348
 30
0.0
 11
-151.845331
 21
-261.348
 31
0.0
  0
ARC
  5
1B3
330
36
100
AcDbEntity
  8
0
100
AcDbCircle
 10
-152.4640729999999
 20
-258.534288
 30
0.0
 40
0.61656
100
AcDbArc
 50
300.35784
 51
233.008079
  0
ARC
  5
1B4
330
36
100
AcDbEntity
  8
0
100
AcDbCircle
 10
-152.540345
 20
-259.850274
 30
0.0
 40
0.8746729999999999
100
AcDbArc
 50
63.675284
 51
109.690635
  0
ARC
  5
1B5
330
36
100
AcDbEntity
  8
0
100
AcDbCircle
 10
-152.452373
 20
-257.854777
 30
0.0
 40
0.818138
100
AcDbArc
 50
239.334413
 51
299.361467
  0
ARC
  5
1B6
330
36
100
AcDbEntity
  8
0
100
AcDbCircle
 10
-152.452372
 20
-259.213799
 30
0.0
 40
0.818138
100
AcDbArc
 50
60.37227300000001
 51
120.840525
  0
ARC
  5
1B7
330
36
100
AcDbEntity
  8
0
100
AcDbCircle
 10
-152.847935
 20
-258.53389
 30
0.0
 40
0.032822
100
AcDbArc
 50
136.621771
 51
228.589269
  0
ARC
  5
1B8
330
36
100
AcDbEntity
  8
0
100
AcDbCircle
 10
-152.075846
 20
-258.53389
 30
0.0
 40
0.041922
100
AcDbArc
 50
305.965123
 51
48.221816
  0
LINE
  5
1B9
330
36
100
AcDbEntity
  8
0
100
AcDbLine
 10
-152.880211
 20
-259.881577
 30
0.0
 11
-152.880211
 21
-259.825157
 31
0.0
  0
LINE
  5
1BA
330
36
100
AcDbEntity
  8
0
100
AcDbLine
 10
-152.922275
 20
-262.238375
 30
0.0
 11
-153.078421
 21
-262.238375
 31
0.0
  0
ARC
  5
1BB
330
36
100
AcDbEntity
  8
0
100
AcDbCircle
 10
-152.849941
 20
-262.203935
 30
0.0
 40
0.07336
100
AcDbArc
 50
90.0
 51
170.405932
  0
LINE
  5
1BC
330
36
100
AcDbEntity
  8
0
100
AcDbLine
 10
-152.922275
 20
-262.191709
 30
0.0
 11
-152.922275
 21
-262.238375
 31
0.0
  0
LINE
  5
1BD
330
36
100
AcDbEntity
  8
0
100
AcDbLine
 10
-152.560981
 20
-262.130575
 30
0.0
 11
-152.849941
 21
-262.130575
 31
0.0
  0
LINE
  5
1BE
330
36
100
AcDbEntity
  8
0
100
AcDbLine
 10
-152.001447
 20
-262.191709
 30
0.0
 11
-152.001447
 21
-262.238375
 31
0.0
  0
ARC
  5
1BF
330
36
100
AcDbEntity
  8
0
100
AcDbCircle
 10
-152.073781
 20
-262.203935
 30
0.0
 40
0.07336
100
AcDbArc
 50
9.594068
 51
90.0
  0
LINE
  5
1C0
330
36
100
AcDbEntity
  8
0
100
AcDbLine
 10
-152.073781
 20
-262.130575
 30
0.0
 11
-152.362741
 21
-262.130575
 31
0.0
  0
LINE
  5
1C1
330
36
100
AcDbEntity
  8
0
100
AcDbLine
 10
-152.001447
 20
-262.238375
 30
0.0
 11
-151.845301
 21
-262.238375
 31
0.0
  0
LINE
  5
1C2
330
36
100
AcDbEntity
  8
0
100
AcDbLine
 10
-152.922275
 20
-262.345522
 30
0.0
 11
-152.922275
 21
-262.298855
 31
0.0
  0
ARC
  5
1C3
330
36
100
AcDbEntity
  8
0
100
AcDbCircle
 10
-152.849941
 20
-262.333295
 30
0.0
 40
0.07336
100
AcDbArc
 50
189.5940679999999
 51
270.0
  0
LINE
  5
1C4
330
36
100
AcDbEntity
  8
0
100
AcDbLine
 10
-152.560981
 20
-262.406655
 30
0.0
 11
-152.849941
 21
-262.406655
 31
0.0
  0
LINE
  5
1C5
330
36
100
AcDbEntity
  8
0
100
AcDbLine
 10
-152.560981
 20
-262.130575
 30
0.0
 11
-152.560981
 21
-262.406655
 31
0.0
  0
LINE
  5
1C6
330
36
100
AcDbEntity
  8
0
100
AcDbLine
 10
-152.362741
 20
-262.130575
 30
0.0
 11
-152.362741
 21
-262.406655
 31
0.0
  0
LINE
  5
1C7
330
36
100
AcDbEntity
  8
0
100
AcDbLine
 10
-152.073781
 20
-262.406655
 30
0.0
 11
-152.362741
 21
-262.406655
 31
0.0
  0
ARC
  5
1C8
330
36
100
AcDbEntity
  8
0
100
AcDbCircle
 10
-152.073781
 20
-262.333295
 30
0.0
 40
0.07336
100
AcDbArc
 50
270.0
 51
350.405932
  0
LINE
  5
1C9
330
36
100
AcDbEntity
  8
0
100
AcDbLine
 10
-152.001447
 20
-262.345522
 30
0.0
 11
-152.001447
 21
-262.298855
 31
0.0
  0
LINE
  5
1CA
330
36
100
AcDbEntity
  8
0
100
AcDbLine
 10
-152.001447
 20
-262.298855
 30
0.0
 11
-151.845301
 21
-262.298855
 31
0.0
  0
LINE
  5
1CB
330
36
100
AcDbEntity
  8
0
100
AcDbLine
 10
-152.922275
 20
-262.298855
 30
0.0
 11
-153.078421
 21
-262.298855
 31
0.0
  0
LINE
  5
1CC
330
36
100
AcDbEntity
  8
0
100
AcDbLine
 10
-104.904295
 20
-266.361966
 30
0.0
 11
-104.749175
 21
-266.361966
 31
0.0
  0
LINE
  5
1CD
330
36
100
AcDbEntity
  8
0
100
AcDbLine
 10
-104.904295
 20
-266.305966
 30
0.0
 11
-104.904295
 21
-266.361966
 31
0.0
  0
LINE
  5
1CE
330
36
100
AcDbEntity
  8
0
100
AcDbLine
 10
-105.753815
 20
-266.232606
 30
0.0
 11
-104.977655
 21
-266.232606
 31
0.0
  0
ARC
  5
1CF
330
36
100
AcDbEntity
  8
0
100
AcDbCircle
 10
-104.977655
 20
-266.305966
 30
0.0
 40
0.07336
100
AcDbArc
 50
0.0
 51
90.0
  0
LINE
  5
1D0
330
36
100
AcDbEntity
  8
0
100
AcDbLine
 10
-105.753811
 20
-264.381196
 30
0.0
 11
-104.977651
 21
-264.381209
 31
0.0
  0
LINE
  5
1D1
330
36
100
AcDbEntity
  8
0
100
AcDbLine
 10
-104.90429
 20
-264.307851
 30
0.0
 11
-104.904289
 21
-264.251851
 31
0.0
  0
ARC
  5
1D2
330
36
100
AcDbEntity
  8
0
100
AcDbCircle
 10
-104.97765
 20
-264.307849
 30
0.0
 40
0.07336
100
AcDbArc
 50
269.999
 51
359.999
  0
LINE
  5
1D3
330
36
100
AcDbEntity
  8
0
100
AcDbLine
 10
-104.904289
 20
-264.251851
 30
0.0
 11
-104.749169
 21
-264.251853
 31
0.0
  0
LINE
  5
1D4
330
36
100
AcDbEntity
  8
0
100
AcDbLine
 10
-104.749181
 20
-264.924413
 30
0.0
 11
-104.749169
 21
-264.251853
 31
0.0
  0
LINE
  5
1D5
330
36
100
AcDbEntity
  8
0
100
AcDbLine
 10
-105.472314
 20
-266.034366
 30
0.0
 11
-104.977655
 21
-266.034366
 31
0.0
  0
ARC
  5
1D6
330
36
100
AcDbEntity
  8
0
100
AcDbCircle
 10
-104.977655
 20
-265.961006
 30
0.0
 40
0.07336
100
AcDbArc
 50
270.0
 51
0.0
  0
LINE
  5
1D7
330
36
100
AcDbEntity
  8
0
100
AcDbLine
 10
-104.749175
 20
-266.361966
 30
0.0
 11
-104.749175
 21
-265.905006
 31
0.0
  0
LINE
  5
1D8
330
36
100
AcDbEntity
  8
0
100
AcDbLine
 10
-104.977626
 20
-262.749268
 30
0.0
 11
-105.753786
 21
-262.749268
 31
0.0
  0
LINE
  5
1D9
330
36
100
AcDbEntity
  8
0
100
AcDbLine
 10
-105.805586
 20
-262.801068
 30
0.0
 11
-105.805586
 21
-262.857068
 31
0.0
  0
LINE
  5
1DA
330
36
100
AcDbEntity
  8
0
100
AcDbLine
 10
-105.805586
 20
-262.857068
 30
0.0
 11
-105.982266
 21
-262.857068
 31
0.0
  0
LINE
  5
1DB
330
36
100
AcDbEntity
  8
0
100
AcDbLine
 10
-105.982266
 20
-262.857068
 30
0.0
 11
-105.982266
 21
-262.227628
 31
0.0
  0
LINE
  5
1DC
330
36
100
AcDbEntity
  8
0
100
AcDbLine
 10
-104.749146
 20
-262.857068
 30
0.0
 11
-104.925826
 21
-262.857068
 31
0.0
  0
LINE
  5
1DD
330
36
100
AcDbEntity
  8
0
100
AcDbLine
 10
-104.925826
 20
-262.801068
 30
0.0
 11
-104.925826
 21
-262.857068
 31
0.0
  0
ARC
  5
1DE
330
36
100
AcDbEntity
  8
0
100
AcDbCircle
 10
-104.977626
 20
-262.801068
 30
0.0
 40
0.0518
100
AcDbArc
 50
0.0
 51
90.0
  0
ARC
  5
1DF
330
36
100
AcDbEntity
  8
0
100
AcDbCircle
 10
-105.365735
 20
-263.518065
 30
0.0
 40
0.61656
100
AcDbArc
 50
136.75288
 51
42.82312
  0
ARC
  5
1E0
330
36
100
AcDbEntity
  8
0
100
AcDbCircle
 10
-105.380254
 20
-267.441958
 30
0.0
 40
4.368
100
AcDbArc
 50
83.86600599999999
 51
87.69403399999999
  0
LINE
  5
1E1
330
36
100
AcDbEntity
  8
0
100
AcDbLine
 10
-105.205586
 20
-263.369932
 30
0.0
 11
-105.204504
 21
-263.077495
 31
0.0
  0
LINE
  5
224
330
36
100
AcDbEntity
  8
0
100
AcDbLine
 10
-105.524783
 20
-263.368751
 30
0.0
 11
-105.523701
 21
-263.076314
 31
0.0
  0
ARC
  5
225
330
36
100
AcDbEntity
  8
0
100
AcDbCircle
 10
-105.380254
 20
-267.441958
 30
0.0
 40
4.368
100
AcDbArc
 50
91.88196600000001
 51
95.70999399999998
  0
ARC
  5
226
330
36
100
AcDbEntity
  8
0
100
AcDbCircle
 10
-105.75381
 20
-264.307836
 30
0.0
 40
0.07336
100
AcDbArc
 50
179.999028
 51
269.999
  0
LINE
  5
227
330
36
100
AcDbEntity
  8
0
100
AcDbLine
 10
-105.982289
 20
-264.251832
 30
0.0
 11
-105.827169
 21
-264.251834
 31
0.0
  0
LINE
  5
228
330
36
100
AcDbEntity
  8
0
100
AcDbLine
 10
-105.982301
 20
-264.924392
 30
0.0
 11
-105.982289
 21
-264.251832
 31
0.0
  0
LINE
  5
229
330
36
100
AcDbEntity
  8
0
100
AcDbLine
 10
-105.82717
 20
-264.307834
 30
0.0
 11
-105.827169
 21
-264.251834
 31
0.0
  0
ARC
  5
22A
330
36
100
AcDbEntity
  8
0
100
AcDbCircle
 10
-105.753816
 20
-264.868401
 30
0.0
 40
0.07336
100
AcDbArc
 50
89.999803
 51
179.999774
  0
LINE
  5
22B
330
36
100
AcDbEntity
  8
0
100
AcDbLine
 10
-105.753816
 20
-264.795041
 30
0.0
 11
-104.977656
 21
-264.795044
 31
0.0
  0
ARC
  5
22C
330
36
100
AcDbEntity
  8
0
100
AcDbCircle
 10
-104.97766
 20
-264.868409
 30
0.0
 40
0.07336
100
AcDbArc
 50
359.999
 51
89.999
  0
LINE
  5
22D
330
36
100
AcDbEntity
  8
0
100
AcDbLine
 10
-104.904301
 20
-264.924411
 30
0.0
 11
-104.749181
 21
-264.924413
 31
0.0
  0
LINE
  5
22E
330
36
100
AcDbEntity
  8
0
100
AcDbLine
 10
-104.9043
 20
-264.868411
 30
0.0
 11
-104.904301
 21
-264.924411
 31
0.0
  0
LINE
  5
22F
330
36
100
AcDbEntity
  8
0
100
AcDbLine
 10
-105.982301
 20
-264.924392
 30
0.0
 11
-105.827181
 21
-264.924394
 31
0.0
  0
LINE
  5
230
330
36
100
AcDbEntity
  8
0
100
AcDbLine
 10
-105.82718
 20
-264.868394
 30
0.0
 11
-105.827181
 21
-264.924394
 31
0.0
  0
LINE
  5
231
330
36
100
AcDbEntity
  8
0
100
AcDbLine
 10
-104.749146
 20
-262.857068
 30
0.0
 11
-104.749146
 21
-262.227628
 31
0.0
  0
ARC
  5
232
330
36
100
AcDbEntity
  8
0
100
AcDbCircle
 10
-105.753786
 20
-262.801068
 30
0.0
 40
0.0518
100
AcDbArc
 50
90.0
 51
180.0
  0
LINE
  5
233
330
36
100
AcDbEntity
  8
0
100
AcDbLine
 10
-104.904295
 20
-265.905006
 30
0.0
 11
-104.749175
 21
-265.905006
 31
0.0
  0
LINE
  5
234
330
36
100
AcDbEntity
  8
0
100
AcDbLine
 10
-104.904295
 20
-265.961006
 30
0.0
 11
-104.904295
 21
-265.905006
 31
0.0
  0
LINE
  5
235
330
36
100
AcDbEntity
  8
0
100
AcDbLine
 10
-105.472314
 20
-266.034366
 30
0.0
 11
-104.749175
 21
-265.582404
 31
0.0
  0
LINE
  5
236
330
36
100
AcDbEntity
  8
0
100
AcDbLine
 10
-104.749175
 20
-265.582404
 30
0.0
 11
-104.749175
 21
-265.279766
 31
0.0
  0
LINE
  5
237
330
36
100
AcDbEntity
  8
0
100
AcDbLine
 10
-105.710695
 20
-265.279766
 30
0.0
 11
-104.749175
 21
-265.279766
 31
0.0
  0
ARC
  5
238
330
36
100
AcDbEntity
  8
0
100
AcDbCircle
 10
-105.710695
 20
-265.163286
 30
0.0
 40
0.11648
100
AcDbArc
 50
173.651426
 51
270.0
  0
LINE
  5
239
330
36
100
AcDbEntity
  8
0
100
AcDbLine
 10
-105.982295
 20
-265.150406
 30
0.0
 11
-105.826461
 21
-265.150406
 31
0.0
  0
LINE
  5
23A
330
36
100
AcDbEntity
  8
0
100
AcDbLine
 10
-105.982295
 20
-265.607366
 30
0.0
 11
-105.982295
 21
-265.150406
 31
0.0
  0
LINE
  5
23B
330
36
100
AcDbEntity
  8
0
100
AcDbLine
 10
-105.982295
 20
-265.607366
 30
0.0
 11
-105.827175
 21
-265.607366
 31
0.0
  0
LINE
  5
23C
330
36
100
AcDbEntity
  8
0
100
AcDbLine
 10
-105.827175
 20
-265.607366
 30
0.0
 11
-105.827175
 21
-265.551366
 31
0.0
  0
ARC
  5
23D
330
36
100
AcDbEntity
  8
0
100
AcDbCircle
 10
-105.753815
 20
-265.551366
 30
0.0
 40
0.07336
100
AcDbArc
 50
90.0
 51
180.0
  0
LINE
  5
23E
330
36
100
AcDbEntity
  8
0
100
AcDbLine
 10
-105.423776
 20
-265.478006
 30
0.0
 11
-105.753815
 21
-265.478006
 31
0.0
  0
LINE
  5
23F
330
36
100
AcDbEntity
  8
0
100
AcDbLine
 10
-105.423776
 20
-265.478006
 30
0.0
 11
-105.982295
 21
-265.844534
 31
0.0
  0
LINE
  5
240
330
36
100
AcDbEntity
  8
0
100
AcDbLine
 10
-105.982295
 20
-266.361966
 30
0.0
 11
-105.982295
 21
-265.844534
 31
0.0
  0
LINE
  5
241
330
36
100
AcDbEntity
  8
0
100
AcDbLine
 10
-105.982295
 20
-266.361966
 30
0.0
 11
-105.827175
 21
-266.361966
 31
0.0
  0
LINE
  5
242
330
36
100
AcDbEntity
  8
0
100
AcDbLine
 10
-105.827175
 20
-266.305966
 30
0.0
 11
-105.827175
 21
-266.361966
 31
0.0
  0
ARC
  5
243
330
36
100
AcDbEntity
  8
0
100
AcDbCircle
 10
-105.753815
 20
-266.305966
 30
0.0
 40
0.07336
100
AcDbArc
 50
90.0
 51
180.0
  0
LINE
  5
244
330
36
100
AcDbEntity
  8
0
100
AcDbLine
 10
-105.827175
 20
-261.220773
 30
0.0
 11
-105.827175
 21
-261.276773
 31
0.0
  0
ARC
  5
245
330
36
100
AcDbEntity
  8
0
100
AcDbCircle
 10
-105.753815
 20
-261.220773
 30
0.0
 40
0.07336
100
AcDbArc
 50
90.0
 51
180.0
  0
LINE
  5
246
330
36
100
AcDbEntity
  8
0
100
AcDbLine
 10
-105.753815
 20
-261.147413
 30
0.0
 11
-104.977655
 21
-261.147413
 31
0.0
  0
LINE
  5
247
330
36
100
AcDbEntity
  8
0
100
AcDbLine
 10
-104.749175
 20
-260.604213
 30
0.0
 11
-104.749175
 21
-261.276773
 31
0.0
  0
LINE
  5
248
330
36
100
AcDbEntity
  8
0
100
AcDbLine
 10
-104.904295
 20
-260.604213
 30
0.0
 11
-104.749175
 21
-260.604213
 31
0.0
  0
LINE
  5
249
330
36
100
AcDbEntity
  8
0
100
AcDbLine
 10
-104.904295
 20
-260.660213
 30
0.0
 11
-104.904295
 21
-260.604213
 31
0.0
  0
ARC
  5
24A
330
36
100
AcDbEntity
  8
0
100
AcDbCircle
 10
-104.977655
 20
-260.660213
 30
0.0
 40
0.07336
100
AcDbArc
 50
270.0
 51
0.0
  0
LINE
  5
24B
330
36
100
AcDbEntity
  8
0
100
AcDbLine
 10
-105.982266
 20
-261.537708
 30
0.0
 11
-105.982266
 21
-262.167148
 31
0.0
  0
LINE
  5
24C
330
36
100
AcDbEntity
  8
0
100
AcDbLine
 10
-105.982266
 20
-261.537708
 30
0.0
 11
-105.826119
 21
-261.537708
 31
0.0
  0
LINE
  5
24D
330
36
100
AcDbEntity
  8
0
100
AcDbLine
 10
-105.826119
 20
-261.584375
 30
0.0
 11
-105.826119
 21
-261.537708
 31
0.0
  0
ARC
  5
24E
330
36
100
AcDbEntity
  8
0
100
AcDbCircle
 10
-105.753786
 20
-261.572148
 30
0.0
 40
0.07336
100
AcDbArc
 50
189.5940679999999
 51
270.0
  0
LINE
  5
24F
330
36
100
AcDbEntity
  8
0
100
AcDbLine
 10
-105.753786
 20
-261.645508
 30
0.0
 11
-104.977626
 21
-261.645508
 31
0.0
  0
ARC
  5
250
330
36
100
AcDbEntity
  8
0
100
AcDbCircle
 10
-104.977626
 20
-261.572148
 30
0.0
 40
0.07336
100
AcDbArc
 50
270.0
 51
350.405932
  0
LINE
  5
251
330
36
100
AcDbEntity
  8
0
100
AcDbLine
 10
-104.905292
 20
-261.584375
 30
0.0
 11
-104.905292
 21
-261.537708
 31
0.0
  0
LINE
  5
252
330
36
100
AcDbEntity
  8
0
100
AcDbLine
 10
-104.905292
 20
-261.537708
 30
0.0
 11
-104.749146
 21
-261.537708
 31
0.0
  0
LINE
  5
253
330
36
100
AcDbEntity
  8
0
100
AcDbLine
 10
-104.749146
 20
-261.537708
 30
0.0
 11
-104.749146
 21
-262.167148
 31
0.0
  0
ARC
  5
254
330
36
100
AcDbEntity
  8
0
100
AcDbCircle
 10
-105.753815
 20
-260.660213
 30
0.0
 40
0.07336
100
AcDbArc
 50
180.0
 51
270.0
  0
LINE
  5
255
330
36
100
AcDbEntity
  8
0
100
AcDbLine
 10
-105.753815
 20
-260.733573
 30
0.0
 11
-104.977655
 21
-260.733573
 31
0.0
  0
LINE
  5
256
330
36
100
AcDbEntity
  8
0
100
AcDbLine
 10
-105.982295
 20
-260.604213
 30
0.0
 11
-105.827175
 21
-260.604213
 31
0.0
  0
LINE
  5
257
330
36
100
AcDbEntity
  8
0
100
AcDbLine
 10
-105.827175
 20
-260.660213
 30
0.0
 11
-105.827175
 21
-260.604213
 31
0.0
  0
LINE
  5
258
330
36
100
AcDbEntity
  8
0
100
AcDbLine
 10
-105.982295
 20
-260.604213
 30
0.0
 11
-105.982295
 21
-261.276773
 31
0.0
  0
LINE
  5
259
330
36
100
AcDbEntity
  8
0
100
AcDbLine
 10
-105.982295
 20
-261.276773
 30
0.0
 11
-105.827175
 21
-261.276773
 31
0.0
  0
LINE
  5
25A
330
36
100
AcDbEntity
  8
0
100
AcDbLine
 10
-104.904295
 20
-260.353549
 30
0.0
 11
-104.749175
 21
-260.353549
 31
0.0
  0
ARC
  5
25B
330
36
100
AcDbEntity
  8
0
100
AcDbCircle
 10
-104.977655
 20
-260.297549
 30
0.0
 40
0.07336
100
AcDbArc
 50
0.0
 51
90.0
  0
LINE
  5
25C
330
36
100
AcDbEntity
  8
0
100
AcDbLine
 10
-104.904295
 20
-260.297549
 30
0.0
 11
-104.904295
 21
-260.353549
 31
0.0
  0
LINE
  5
25D
330
36
100
AcDbEntity
  8
0
100
AcDbLine
 10
-104.749175
 20
-259.627319
 30
0.0
 11
-104.749175
 21
-260.353549
 31
0.0
  0
LINE
  5
25E
330
36
100
AcDbEntity
  8
0
100
AcDbLine
 10
-105.753815
 20
-260.224189
 30
0.0
 11
-104.977655
 21
-260.224189
 31
0.0
  0
LINE
  5
25F
330
36
100
AcDbEntity
  8
0
100
AcDbLine
 10
-105.784055
 20
-259.810349
 30
0.0
 11
-104.947415
 21
-259.810349
 31
0.0
  0
LINE
  5
260
330
36
100
AcDbEntity
  8
0
100
AcDbLine
 10
-104.947415
 20
-259.810349
 30
0.0
 11
-104.947415
 21
-259.75393
 31
0.0
  0
ARC
  5
261
330
36
100
AcDbEntity
  8
0
100
AcDbCircle
 10
-105.365735
 20
-260.042423
 30
0.0
 40
0.508153
100
AcDbArc
 50
34.591955
 51
145.408045
  0
ARC
  5
262
330
36
100
AcDbEntity
  8
0
100
AcDbCircle
 10
-105.236375
 20
-259.627319
 30
0.0
 40
0.4872
100
AcDbArc
 50
0.0
 51
72.691251
  0
ARC
  5
263
330
36
100
AcDbEntity
  8
0
100
AcDbCircle
 10
-105.495095
 20
-259.627319
 30
0.0
 40
0.4872
100
AcDbArc
 50
107.308749
 51
180.0
  0
ARC
  5
264
330
36
100
AcDbEntity
  8
0
100
AcDbCircle
 10
-105.365735
 20
-260.042423
 30
0.0
 40
0.9219929999999999
100
AcDbArc
 50
72.691251
 51
107.308566
  0
LINE
  5
265
330
36
100
AcDbEntity
  8
0
100
AcDbLine
 10
-105.982295
 20
-259.627319
 30
0.0
 11
-105.982295
 21
-260.353549
 31
0.0
  0
LINE
  5
266
330
36
100
AcDbEntity
  8
0
100
AcDbLine
 10
-105.982295
 20
-260.353549
 30
0.0
 11
-105.827175
 21
-260.353549
 31
0.0
  0
LINE
  5
267
330
36
100
AcDbEntity
  8
0
100
AcDbLine
 10
-105.827175
 20
-260.297549
 30
0.0
 11
-105.827175
 21
-260.353549
 31
0.0
  0
ARC
  5
268
330
36
100
AcDbEntity
  8
0
100
AcDbCircle
 10
-105.753815
 20
-260.297549
 30
0.0
 40
0.07336
100
AcDbArc
 50
90.0
 51
180.0
  0
ARC
  5
269
330
36
100
AcDbEntity
  8
0
100
AcDbCircle
 10
-104.977655
 20
-261.220773
 30
0.0
 40
0.07336
100
AcDbArc
 50
0.0
 51
90.0
  0
LINE
  5
26A
330
36
100
AcDbEntity
  8
0
100
AcDbLine
 10
-104.904295
 20
-261.220773
 30
0.0
 11
-104.904295
 21
-261.276773
 31
0.0
  0
LINE
  5
26B
330
36
100
AcDbEntity
  8
0
100
AcDbLine
 10
-104.904295
 20
-261.276773
 30
0.0
 11
-104.749175
 21
-261.276773
 31
0.0
  0
ARC
  5
26C
330
36
100
AcDbEntity
  8
0
100
AcDbCircle
 10
-105.367917
 20
-258.46306
 30
0.0
 40
0.61656
100
AcDbArc
 50
300.35784
 51
233.008079
  0
ARC
  5
26D
330
36
100
AcDbEntity
  8
0
100
AcDbCircle
 10
-105.444189
 20
-259.779047
 30
0.0
 40
0.8746729999999999
100
AcDbArc
 50
63.675284
 51
109.690635
  0
ARC
  5
26E
330
36
100
AcDbEntity
  8
0
100
AcDbCircle
 10
-105.356217
 20
-257.78355
 30
0.0
 40
0.818138
100
AcDbArc
 50
239.334413
 51
299.361467
  0
ARC
  5
26F
330
36
100
AcDbEntity
  8
0
100
AcDbCircle
 10
-105.356217
 20
-259.142571
 30
0.0
 40
0.818138
100
AcDbArc
 50
60.37227300000001
 51
120.840525
  0
ARC
  5
270
330
36
100
AcDbEntity
  8
0
100
AcDbCircle
 10
-105.751779
 20
-258.462662
 30
0.0
 40
0.032822
100
AcDbArc
 50
136.621771
 51
228.589269
  0
ARC
  5
271
330
36
100
AcDbEntity
  8
0
100
AcDbCircle
 10
-104.97969
 20
-258.462662
 30
0.0
 40
0.041922
100
AcDbArc
 50
305.965123
 51
48.221816
  0
LINE
  5
272
330
36
100
AcDbEntity
  8
0
100
AcDbLine
 10
-105.784055
 20
-259.810349
 30
0.0
 11
-105.784055
 21
-259.75393
 31
0.0
  0
LINE
  5
273
330
36
100
AcDbEntity
  8
0
100
AcDbLine
 10
-105.826119
 20
-262.167148
 30
0.0
 11
-105.982266
 21
-262.167148
 31
0.0
  0
ARC
  5
274
330
36
100
AcDbEntity
  8
0
100
AcDbCircle
 10
-105.753786
 20
-262.132708
 30
0.0
 40
0.07336
100
AcDbArc
 50
90.0
 51
170.405932
  0
LINE
  5
275
330
36
100
AcDbEntity
  8
0
100
AcDbLine
 10
-105.826119
 20
-262.120481
 30
0.0
 11
-105.826119
 21
-262.167148
 31
0.0
  0
LINE
  5
276
330
36
100
AcDbEntity
  8
0
100
AcDbLine
 10
-105.464826
 20
-262.059348
 30
0.0
 11
-105.753786
 21
-262.059348
 31
0.0
  0
LINE
  5
277
330
36
100
AcDbEntity
  8
0
100
AcDbLine
 10
-104.905292
 20
-262.120481
 30
0.0
 11
-104.905292
 21
-262.167148
 31
0.0
  0
ARC
  5
278
330
36
100
AcDbEntity
  8
0
100
AcDbCircle
 10
-104.977626
 20
-262.132708
 30
0.0
 40
0.07336
100
AcDbArc
 50
9.594068
 51
90.0
  0
LINE
  5
279
330
36
100
AcDbEntity
  8
0
100
AcDbLine
 10
-104.977626
 20
-262.059348
 30
0.0
 11
-105.266586
 21
-262.059348
 31
0.0
  0
LINE
  5
27A
330
36
100
AcDbEntity
  8
0
100
AcDbLine
 10
-104.905292
 20
-262.167148
 30
0.0
 11
-104.749146
 21
-262.167148
 31
0.0
  0
LINE
  5
27B
330
36
100
AcDbEntity
  8
0
100
AcDbLine
 10
-105.826119
 20
-262.274295
 30
0.0
 11
-105.826119
 21
-262.227628
 31
0.0
  0
ARC
  5
27C
330
36
100
AcDbEntity
  8
0
100
AcDbCircle
 10
-105.753786
 20
-262.262068
 30
0.0
 40
0.07336
100
AcDbArc
 50
189.5940679999999
 51
270.0
  0
LINE
  5
27D
330
36
100
AcDbEntity
  8
0
100
AcDbLine
 10
-105.464826
 20
-262.335428
 30
0.0
 11
-105.753786
 21
-262.335428
 31
0.0
  0
LINE
  5
27E
330
36
100
AcDbEntity
  8
0
100
AcDbLine
 10
-105.464826
 20
-262.059348
 30
0.0
 11
-105.464826
 21
-262.335428
 31
0.0
  0
LINE
  5
27F
330
36
100
AcDbEntity
  8
0
100
AcDbLine
 10
-105.266586
 20
-262.059348
 30
0.0
 11
-105.266586
 21
-262.335428
 31
0.0
  0
LINE
  5
280
330
36
100
AcDbEntity
  8
0
100
AcDbLine
 10
-104.977626
 20
-262.335428
 30
0.0
 11
-105.266586
 21
-262.335428
 31
0.0
  0
ARC
  5
281
330
36
100
AcDbEntity
  8
0
100
AcDbCircle
 10
-104.977626
 20
-262.262068
 30
0.0
 40
0.07336
100
AcDbArc
 50
270.0
 51
350.405932
  0
LINE
  5
282
330
36
100
AcDbEntity
  8
0
100
AcDbLine
 10
-104.905292
 20
-262.274295
 30
0.0
 11
-104.905292
 21
-262.227628
 31
0.0
  0
LINE
  5
283
330
36
100
AcDbEntity
  8
0
100
AcDbLine
 10
-104.905292
 20
-262.227628
 30
0.0
 11
-104.749146
 21
-262.227628
 31
0.0
  0
LINE
  5
284
330
36
100
AcDbEntity
  8
0
100
AcDbLine
 10
-105.826119
 20
-262.227628
 30
0.0
 11
-105.982266
 21
-262.227628
 31
0.0
  0
LINE
  5
285
330
36
100
AcDbEntity
  8
0
 62
     3
100
AcDbLine
 10
39.917841
 20
-278.4393
 30
0.0
 11
39.917841
 21
-289.204829
 31
0.0
  0
LINE
  5
286
330
36
100
AcDbEntity
  8
0
 62
     3
100
AcDbLine
 10
45.11784099999998
 20
-279.254967
 30
0.0
 11
45.11784099999998
 21
-289.204829
 31
0.0
  0
ARC
  5
287
330
36
100
AcDbEntity
  8
0
 62
     3
100
AcDbCircle
 10
-47.30163899999999
 20
-338.973779
 30
0.0
 40
100.0
100
AcDbArc
 50
11.986985
 51
18.523253
  0
ARC
  5
288
330
36
100
AcDbEntity
  8
0
 62
     3
100
AcDbCircle
 10
132.337322
 20
-338.973779
 30
0.0
 40
100.0
100
AcDbArc
 50
161.476747
 51
168.013015
  0
LINE
  5
289
330
36
100
AcDbEntity
  8
0
 62
     3
100
AcDbLine
 10
34.517841
 20
-318.204829
 30
0.0
 11
34.517841
 21
-320.204829
 31
0.0
  0
LINE
  5
28A
330
36
100
AcDbEntity
  8
0
 62
     3
100
AcDbLine
 10
34.517841
 20
-320.204829
 30
0.0
 11
50.51784099999999
 21
-320.204829
 31
0.0
  0
LINE
  5
28B
330
36
100
AcDbEntity
  8
0
 62
     3
100
AcDbLine
 10
50.51784099999999
 20
-318.204829
 30
0.0
 11
50.51784099999999
 21
-320.204829
 31
0.0
  0
LINE
  5
28C
330
36
100
AcDbEntity
  8
0
 62
     3
100
AcDbLine
 10
48.51784099999999
 20
-304.204829
 30
0.0
 11
47.517841
 21
-307.204829
 31
0.0
  0
LINE
  5
28D
330
36
100
AcDbEntity
  8
0
 62
     3
100
AcDbLine
 10
48.51784099999999
 20
-303.204829
 30
0.0
 11
48.51784099999999
 21
-304.204829
 31
0.0
  0
LINE
  5
28E
330
36
100
AcDbEntity
  8
0
 62
     3
100
AcDbLine
 10
36.517841
 20
-303.204829
 30
0.0
 11
48.51784099999999
 21
-303.204829
 31
0.0
  0
LINE
  5
28F
330
36
100
AcDbEntity
  8
0
 62
     3
100
AcDbLine
 10
36.517841
 20
-304.204829
 30
0.0
 11
37.517841
 21
-307.204829
 31
0.0
  0
LINE
  5
290
330
36
100
AcDbEntity
  8
0
 62
     3
100
AcDbLine
 10
36.517841
 20
-303.204829
 30
0.0
 11
36.517841
 21
-304.204829
 31
0.0
  0
LINE
  5
291
330
36
100
AcDbEntity
  8
0
 62
     3
100
AcDbLine
 10
39.017841
 20
-298.204829
 30
0.0
 11
39.017841
 21
-303.204829
 31
0.0
  0
LINE
  5
292
330
36
100
AcDbEntity
  8
0
 62
     3
100
AcDbLine
 10
46.01784099999998
 20
-298.204829
 30
0.0
 11
46.01784099999998
 21
-303.204829
 31
0.0
  0
LINE
  5
293
330
36
100
AcDbEntity
  8
0
 62
     3
100
AcDbLine
 10
46.01784099999998
 20
-294.204829
 30
0.0
 11
46.01784099999998
 21
-297.204829
 31
0.0
  0
ARC
  5
294
330
36
100
AcDbEntity
  8
0
 62
     3
100
AcDbCircle
 10
46.51784099999999
 20
-297.704829
 30
0.0
 40
0.5
100
AcDbArc
 50
0.0
 51
90.0
  0
ARC
  5
295
330
36
100
AcDbEntity
  8
0
 62
     3
100
AcDbCircle
 10
46.51784099999999
 20
-297.704829
 30
0.0
 40
0.5
100
AcDbArc
 50
270.0
 51
0.0
  0
ARC
  5
296
330
36
100
AcDbEntity
  8
0
 62
     3
100
AcDbCircle
 10
38.517841
 20
-297.704829
 30
0.0
 40
0.5
100
AcDbArc
 50
180.0
 51
270.0
  0
ARC
  5
297
330
36
100
AcDbEntity
  8
0
 62
     3
100
AcDbCircle
 10
38.517841
 20
-297.704829
 30
0.0
 40
0.5
100
AcDbArc
 50
90.0
 51
180.0
  0
LINE
  5
298
330
36
100
AcDbEntity
  8
0
 62
     3
100
AcDbLine
 10
39.017841
 20
-294.204829
 30
0.0
 11
39.017841
 21
-297.204829
 31
0.0
  0
ARC
  5
299
330
36
100
AcDbEntity
  8
0
 62
     3
100
AcDbCircle
 10
38.517841
 20
-293.704829
 30
0.0
 40
0.5
100
AcDbArc
 50
180.0
 51
270.0
  0
ARC
  5
29A
330
36
100
AcDbEntity
  8
0
 62
     3
100
AcDbCircle
 10
38.517841
 20
-293.704829
 30
0.0
 40
0.5
100
AcDbArc
 50
90.0
 51
180.0
  0
LINE
  5
29B
330
36
100
AcDbEntity
  8
0
 62
     3
100
AcDbLine
 10
39.017841
 20
-290.204829
 30
0.0
 11
39.017841
 21
-293.204829
 31
0.0
  0
LINE
  5
29C
330
36
100
AcDbEntity
  8
0
 62
     3
100
AcDbLine
 10
46.01784099999998
 20
-290.204829
 30
0.0
 11
46.01784099999998
 21
-293.204829
 31
0.0
  0
ARC
  5
29D
330
36
100
AcDbEntity
  8
0
 62
     3
100
AcDbCircle
 10
46.51784099999999
 20
-289.704829
 30
0.0
 40
0.5
100
AcDbArc
 50
270.0
 51
0.0
  0
ARC
  5
29E
330
36
100
AcDbEntity
  8
0
 62
     3
100
AcDbCircle
 10
46.51784099999999
 20
-289.704829
 30
0.0
 40
0.5
100
AcDbArc
 50
0.0
 51
90.0
  0
ARC
  5
29F
330
36
100
AcDbEntity
  8
0
 62
     3
100
AcDbCircle
 10
38.517841
 20
-289.704829
 30
0.0
 40
0.5
100
AcDbArc
 50
90.0
 51
180.0
  0
ARC
  5
2A0
330
36
100
AcDbEntity
  8
0
 62
     3
100
AcDbCircle
 10
38.517841
 20
-289.704829
 30
0.0
 40
0.5
100
AcDbArc
 50
180.0
 51
270.0
  0
LINE
  5
2A1
330
36
100
AcDbEntity
  8
0
100
AcDbLine
 10
38.517841
 20
-329.204829
 30
0.0
 11
39.517841
 21
-329.204829
 31
0.0
  0
LINE
  5
2A2
330
36
100
AcDbEntity
  8
0
100
AcDbLine
 10
45.51784099999999
 20
-329.204829
 30
0.0
 11
46.51784099999999
 21
-329.204829
 31
0.0
  0
LINE
  5
2A3
330
36
100
AcDbEntity
  8
0
100
AcDbLine
 10
38.517841
 20
-329.204829
 30
0.0
 11
38.767841
 21
-330.204829
 31
0.0
  0
LINE
  5
2A4
330
36
100
AcDbEntity
  8
0
100
AcDbLine
 10
38.767841
 20
-330.204829
 30
0.0
 11
39.267841
 21
-330.204829
 31
0.0
  0
LINE
  5
2A5
330
36
100
AcDbEntity
  8
0
100
AcDbLine
 10
39.517841
 20
-329.204829
 30
0.0
 11
39.267841
 21
-330.204829
 31
0.0
  0
LINE
  5
2A6
330
36
100
AcDbEntity
  8
0
100
AcDbLine
 10
45.51784099999999
 20
-329.204829
 30
0.0
 11
45.767841
 21
-330.204829
 31
0.0
  0
LINE
  5
2A7
330
36
100
AcDbEntity
  8
0
100
AcDbLine
 10
46.51784099999999
 20
-329.204829
 30
0.0
 11
46.267841
 21
-330.204829
 31
0.0
  0
LINE
  5
2A8
330
36
100
AcDbEntity
  8
0
100
AcDbLine
 10
45.767841
 20
-330.204829
 30
0.0
 11
46.267841
 21
-330.204829
 31
0.0
  0
LINE
  5
2A9
330
36
100
AcDbEntity
  8
0
100
AcDbLine
 10
46.51784099999999
 20
-320.204829
 30
0.0
 11
46.51784099999999
 21
-329.204829
 31
0.0
  0
LINE
  5
2AA
330
36
100
AcDbEntity
  8
0
100
AcDbLine
 10
45.51784099999999
 20
-320.204829
 30
0.0
 11
45.51784099999999
 21
-329.204829
 31
0.0
  0
LINE
  5
2AB
330
36
100
AcDbEntity
  8
0
100
AcDbLine
 10
39.517841
 20
-320.204829
 30
0.0
 11
39.517841
 21
-329.204829
 31
0.0
  0
LINE
  5
2AC
330
36
100
AcDbEntity
  8
0
100
AcDbLine
 10
38.517841
 20
-320.204829
 30
0.0
 11
38.517841
 21
-329.204829
 31
0.0
  0
LINE
  5
2AD
330
36
100
AcDbEntity
  8
0
100
AcDbLine
 10
34.517841
 20
-318.204829
 30
0.0
 11
50.51784099999999
 21
-318.204829
 31
0.0
  0
LINE
  5
2AE
330
36
100
AcDbEntity
  8
0
100
AcDbLine
 10
37.517841
 20
-307.204829
 30
0.0
 11
47.517841
 21
-307.204829
 31
0.0
  0
LINE
  5
2AF
330
36
100
AcDbEntity
  8
0
100
AcDbLine
 10
45.11784099999998
 20
-295.204829
 30
0.0
 11
45.11784099999998
 21
-296.204829
 31
0.0
  0
LINE
  5
2B0
330
36
100
AcDbEntity
  8
0
100
AcDbLine
 10
39.917841
 20
-291.204829
 30
0.0
 11
39.917841
 21
-292.204829
 31
0.0
  0
CIRCLE
  5
2B1
330
36
100
AcDbEntity
  8
0
100
AcDbCircle
 10
-137.326174
 20
-262.164914
 30
0.0
 40
1.833999999999999
  0
CIRCLE
  5
2B2
330
36
100
AcDbEntity
  8
0
100
AcDbCircle
 10
-90.339653
 20
-262.164914
 30
0.0
 40
1.833999999999999
  0
TEXT
  5
2B3
330
36
100
AcDbEntity
  8
0
100
AcDbText
 10
-147.996739
 20
-268.626511
 30
0.0
 40
1.370249999999999
  1
N
 50
90.00000300000001
100
AcDbText
  0
TEXT
  5
2B4
330
36
100
AcDbEntity
  8
0
100
AcDbText
 10
-147.271391
 20
-268.733421
 30
0.0
 40
1.370249999999999
  1
N
 50
90.00000300000001
100
AcDbText
  0
LINE
  5
2B5
330
36
100
AcDbEntity
  8
0
100
AcDbLine
 10
-149.378174
 20
-259.413914
 30
0.0
 11
-145.710174
 21
-259.413914
 31
0.0
  0
LINE
  5
2B6
330
36
100
AcDbEntity
  8
0
100
AcDbLine
 10
-145.710174
 20
-258.261114
 30
0.0
 11
-149.378174
 21
-258.261114
 31
0.0
  0
LINE
  5
2B7
330
36
100
AcDbEntity
  8
0
100
AcDbLine
 10
-149.378174
 20
-258.261114
 30
0.0
 11
-149.378174
 21
-259.413914
 31
0.0
  0
LINE
  5
2B8
330
36
100
AcDbEntity
  8
0
100
AcDbLine
 10
-145.710174
 20
-258.261114
 30
0.0
 11
-145.710174
 21
-259.413914
 31
0.0
  0
LINE
  5
2B9
330
36
100
AcDbEntity
  8
0
100
AcDbLine
 10
-145.264774
 20
-264.915914
 30
0.0
 11
-149.823574
 21
-264.915914
 31
0.0
  0
LINE
  5
2BA
330
36
100
AcDbEntity
  8
0
100
AcDbLine
 10
-145.264774
 20
-266.068714
 30
0.0
 11
-149.823574
 21
-266.068714
 31
0.0
  0
LINE
  5
2BB
330
36
100
AcDbEntity
  8
0
100
AcDbLine
 10
-149.823574
 20
-264.915914
 30
0.0
 11
-149.823574
 21
-266.068714
 31
0.0
  0
LINE
  5
2BC
330
36
100
AcDbEntity
  8
0
100
AcDbLine
 10
-145.264774
 20
-266.068714
 30
0.0
 11
-145.264774
 21
-264.915914
 31
0.0
  0
TEXT
  5
2BD
330
36
100
AcDbEntity
  8
0
100
AcDbText
 10
-121.187295
 20
-265.116069
 30
0.0
 40
1.212749999999997
  1
125V 15A
 50
90.00000300000001
 41
0.595513
100
AcDbText
  0
TEXT
  5
2BE
330
36
100
AcDbEntity
  8
0
100
AcDbText
 10
-128.496739
 20
-268.626511
 30
0.0
 40
1.370249999999999
  1
N
 50
90.00000300000001
100
AcDbText
  0
TEXT
  5
2BF
330
36
100
AcDbEntity
  8
0
100
AcDbText
 10
-126.518071
 20
-268.907768
 30
0.0
 40
1.370249999999999
  1
N
 50
90.00000300000001
100
AcDbText
  0
LINE
  5
2C0
330
36
100
AcDbEntity
  8
0
100
AcDbLine
 10
-125.274174
 20
-259.413914
 30
0.0
 11
-128.942174
 21
-259.413914
 31
0.0
  0
LINE
  5
2C1
330
36
100
AcDbEntity
  8
0
100
AcDbLine
 10
-128.942174
 20
-258.261114
 30
0.0
 11
-125.274174
 21
-258.261114
 31
0.0
  0
LINE
  5
2C2
330
36
100
AcDbEntity
  8
0
100
AcDbLine
 10
-128.942174
 20
-258.261114
 30
0.0
 11
-128.942174
 21
-259.413914
 31
0.0
  0
LINE
  5
2C3
330
36
100
AcDbEntity
  8
0
100
AcDbLine
 10
-125.274174
 20
-258.261114
 30
0.0
 11
-125.274174
 21
-259.413914
 31
0.0
  0
LINE
  5
2C4
330
36
100
AcDbEntity
  8
0
100
AcDbLine
 10
-129.387574
 20
-264.915914
 30
0.0
 11
-124.828774
 21
-264.915914
 31
0.0
  0
LINE
  5
2C5
330
36
100
AcDbEntity
  8
0
100
AcDbLine
 10
-129.387574
 20
-266.068714
 30
0.0
 11
-129.387574
 21
-264.915914
 31
0.0
  0
LINE
  5
2C6
330
36
100
AcDbEntity
  8
0
100
AcDbLine
 10
-129.387574
 20
-266.068714
 30
0.0
 11
-124.828774
 21
-266.068714
 31
0.0
  0
LINE
  5
2C7
330
36
100
AcDbEntity
  8
0
100
AcDbLine
 10
-124.828774
 20
-264.915914
 30
0.0
 11
-124.828774
 21
-266.068714
 31
0.0
  0
TEXT
  5
2C8
330
36
100
AcDbEntity
  8
0
100
AcDbText
 10
-131.687295
 20
-264.751114
 30
0.0
 40
0.8
  1
<PS>E JET
 50
90.00000300000001
 41
1.054620999999996
100
AcDbText
  0
CIRCLE
  5
2C9
330
36
100
AcDbEntity
  8
0
100
AcDbCircle
 10
-132.092699
 20
-265.733582
 30
0.0
 40
0.405404
  0
LINE
  5
2CA
330
36
100
AcDbEntity
  8
0
100
AcDbLine
 10
-132.498103
 20
-265.733582
 30
0.0
 11
-131.687295
 21
-265.733582
 31
0.0
  0
LINE
  5
2CB
330
36
100
AcDbEntity
  8
0
100
AcDbLine
 10
-131.687295
 20
-265.733582
 30
0.0
 11
-132.406852
 21
-266.150814
 31
0.0
  0
LINE
  5
2CC
330
36
100
AcDbEntity
  8
0
100
AcDbLine
 10
-132.498103
 20
-265.733582
 30
0.0
 11
-131.78253
 21
-265.328178
 31
0.0
  0
TEXT
  5
2CD
330
36
100
AcDbEntity
  8
0
100
AcDbText
 10
-100.900583
 20
-268.555283
 30
0.0
 40
1.370249999999999
  1
N
 50
90.00000300000001
100
AcDbText
  0
TEXT
  5
2CE
330
36
100
AcDbEntity
  8
0
100
AcDbText
 10
-99.76192500000001
 20
-268.555283
 30
0.0
 40
1.370249999999999
  1
N
 50
90.00000300000001
100
AcDbText
  0
LINE
  5
2CF
330
36
100
AcDbEntity
  8
0
100
AcDbLine
 10
-102.391653
 20
-259.413914
 30
0.0
 11
-98.723653
 21
-259.413914
 31
0.0
  0
LINE
  5
2D0
330
36
100
AcDbEntity
  8
0
100
AcDbLine
 10
-98.723653
 20
-258.261114
 30
0.0
 11
-102.391653
 21
-258.261114
 31
0.0
  0
LINE
  5
2D1
330
36
100
AcDbEntity
  8
0
100
AcDbLine
 10
-102.391653
 20
-258.261114
 30
0.0
 11
-102.391653
 21
-259.413914
 31
0.0
  0
LINE
  5
2D2
330
36
100
AcDbEntity
  8
0
100
AcDbLine
 10
-98.723653
 20
-258.261114
 30
0.0
 11
-98.723653
 21
-259.413914
 31
0.0
  0
LINE
  5
2D3
330
36
100
AcDbEntity
  8
0
100
AcDbLine
 10
-98.278253
 20
-264.915914
 30
0.0
 11
-102.837053
 21
-264.915914
 31
0.0
  0
LINE
  5
2D4
330
36
100
AcDbEntity
  8
0
100
AcDbLine
 10
-98.278253
 20
-266.068714
 30
0.0
 11
-102.837053
 21
-266.068714
 31
0.0
  0
LINE
  5
2D5
330
36
100
AcDbEntity
  8
0
100
AcDbLine
 10
-102.837053
 20
-264.915914
 30
0.0
 11
-102.837053
 21
-266.068714
 31
0.0
  0
LINE
  5
2D6
330
36
100
AcDbEntity
  8
0
100
AcDbLine
 10
-98.278253
 20
-266.068714
 30
0.0
 11
-98.278253
 21
-264.915914
 31
0.0
  0
TEXT
  5
2D7
330
36
100
AcDbEntity
  8
0
100
AcDbText
 10
-74.09113999999998
 20
-264.647689
 30
0.0
 40
1.212749999999997
  1
125V 15A
 50
89.999996
 41
0.595513
100
AcDbText
  0
TEXT
  5
2D8
330
36
100
AcDbEntity
  8
0
100
AcDbText
 10
-84.591139
 20
-266.119613
 30
0.0
 40
0.8
  1
<PS>E JET
 50
90.00000300000001
 41
1.054620999999996
100
AcDbText
  0
CIRCLE
  5
2D9
330
36
100
AcDbEntity
  8
0
100
AcDbCircle
 10
-84.99654300000001
 20
-258.525017
 30
0.0
 40
0.405404
  0
LINE
  5
2DA
330
36
100
AcDbEntity
  8
0
100
AcDbLine
 10
-85.401948
 20
-258.525017
 30
0.0
 11
-84.591139
 21
-258.525017
 31
0.0
  0
LINE
  5
2DB
330
36
100
AcDbEntity
  8
0
100
AcDbLine
 10
-84.591139
 20
-258.525017
 30
0.0
 11
-85.310696
 21
-258.107786
 31
0.0
  0
LINE
  5
2DC
330
36
100
AcDbEntity
  8
0
100
AcDbLine
 10
-85.401948
 20
-258.525017
 30
0.0
 11
-84.686374
 21
-258.930422
 31
0.0
  0
LINE
  5
2DD
330
36
100
AcDbEntity
  8
0
100
AcDbLine
 10
-78.287653
 20
-259.413914
 30
0.0
 11
-81.955653
 21
-259.413914
 31
0.0
  0
LINE
  5
2DE
330
36
100
AcDbEntity
  8
0
100
AcDbLine
 10
-81.955653
 20
-258.261114
 30
0.0
 11
-78.287653
 21
-258.261114
 31
0.0
  0
LINE
  5
2DF
330
36
100
AcDbEntity
  8
0
100
AcDbLine
 10
-81.955653
 20
-258.261114
 30
0.0
 11
-81.955653
 21
-259.413914
 31
0.0
  0
LINE
  5
2E0
330
36
100
AcDbEntity
  8
0
100
AcDbLine
 10
-78.287653
 20
-258.261114
 30
0.0
 11
-78.287653
 21
-259.413914
 31
0.0
  0
LINE
  5
2E1
330
36
100
AcDbEntity
  8
0
100
AcDbLine
 10
-82.40105300000001
 20
-264.915914
 30
0.0
 11
-77.842253
 21
-264.915914
 31
0.0
  0
LINE
  5
2E2
330
36
100
AcDbEntity
  8
0
100
AcDbLine
 10
-82.40105300000001
 20
-266.068714
 30
0.0
 11
-77.842253
 21
-266.068714
 31
0.0
  0
LINE
  5
2E3
330
36
100
AcDbEntity
  8
0
100
AcDbLine
 10
-82.40105300000001
 20
-266.068714
 30
0.0
 11
-82.40105300000001
 21
-264.915914
 31
0.0
  0
LINE
  5
2E4
330
36
100
AcDbEntity
  8
0
100
AcDbLine
 10
-77.842253
 20
-264.915914
 30
0.0
 11
-77.842253
 21
-266.068714
 31
0.0
  0
TEXT
  5
2E5
330
36
100
AcDbEntity
  8
0
100
AcDbText
 10
-79.487977
 20
-268.8521399999999
 30
0.0
 40
1.370249999999999
  1
N
 50
90.00000300000001
100
AcDbText
  0
ARC
  5
2E6
330
36
100
AcDbEntity
  8
0
 62
     3
100
AcDbCircle
 10
-113.882624
 20
-604.6832809999997
 30
0.0
 40
258.25
100
AcDbArc
 50
86.49096
 51
86.59479899999999
  0
LINE
  5
2E7
330
36
100
AcDbEntity
  8
0
 62
     3
100
AcDbLine
 10
-125.757624
 20
-355.372464
 30
0.0
 11
-125.757624
 21
-355.872464
 31
0.0
  0
LINE
  5
2E8
330
36
100
AcDbEntity
  8
0
 62
     3
100
AcDbLine
 10
-132.007624
 20
-355.372464
 30
0.0
 11
-132.007624
 21
-355.858228
 31
0.0
  0
LINE
  5
2E9
330
36
100
AcDbEntity
  8
0
 62
     3
100
AcDbLine
 10
-78.88262399999998
 20
-409.3256339999999
 30
0.0
 11
-78.88262399999998
 21
-402.075634
 31
0.0
  0
LINE
  5
2EA
330
36
100
AcDbEntity
  8
0
 62
     3
100
AcDbLine
 10
-78.88262399999998
 20
-409.3256339999999
 30
0.0
 11
-78.88262399999998
 21
-413.2361879999998
 31
0.0
  0
LINE
  5
2EB
330
36
100
AcDbEntity
  8
0
 62
     3
100
AcDbLine
 10
-148.882624
 20
-413.2361879999998
 30
0.0
 11
-148.882624
 21
-402.075634
 31
0.0
  0
LINE
  5
2EC
330
36
100
AcDbEntity
  8
0
 62
     3
100
AcDbLine
 10
-78.88262399999998
 20
-414.3256339999998
 30
0.0
 11
-149.002756
 21
-414.3256339999998
 31
0.0
  0
LINE
  5
2ED
330
36
100
AcDbEntity
  8
0
 62
     3
100
AcDbLine
 10
-131.382624
 20
-409.0756339999998
 30
0.0
 11
-126.382624
 21
-409.0756339999998
 31
0.0
  0
LINE
  5
2EE
330
36
100
AcDbEntity
  8
0
 62
     3
100
AcDbLine
 10
-148.882624
 20
-394.325634
 30
0.0
 11
-148.882624
 21
-401.575634
 31
0.0
  0
LINE
  5
2EF
330
36
100
AcDbEntity
  8
0
 62
     3
100
AcDbLine
 10
-148.882624
 20
-394.325634
 30
0.0
 11
-148.882624
 21
-390.415081
 31
0.0
  0
LINE
  5
2F0
330
36
100
AcDbEntity
  8
0
 62
     3
100
AcDbLine
 10
-78.88262399999998
 20
-390.415081
 30
0.0
 11
-78.88262399999998
 21
-401.575634
 31
0.0
  0
LINE
  5
2F1
330
36
100
AcDbEntity
  8
0
 62
     3
100
AcDbLine
 10
-96.382624
 20
-394.575634
 30
0.0
 11
-101.382624
 21
-394.575634
 31
0.0
  0
LINE
  5
2F2
330
36
100
AcDbEntity
  8
0
 62
     3
100
AcDbLine
 10
-149.382624
 20
-401.575634
 30
0.0
 11
-149.382624
 21
-402.075634
 31
0.0
  0
LINE
  5
2F3
330
36
100
AcDbEntity
  8
0
 62
     3
100
AcDbLine
 10
-131.382624
 20
-394.575634
 30
0.0
 11
-126.382624
 21
-394.575634
 31
0.0
  0
LINE
  5
2F4
330
36
100
AcDbEntity
  8
0
 62
     3
100
AcDbLine
 10
-96.382624
 20
-409.0756339999998
 30
0.0
 11
-101.382624
 21
-409.0756339999998
 31
0.0
  0
LINE
  5
2F5
330
36
100
AcDbEntity
  8
0
 62
     3
100
AcDbLine
 10
-78.38262399999995
 20
-402.075634
 30
0.0
 11
-78.38262399999995
 21
-401.575634
 31
0.0
  0
TEXT
  5
309
330
36
100
AcDbEntity
  8
0
 62
     3
100
AcDbText
 10
55.92494628709232
 20
-474.6265639999998
 30
0.0
 40
3.2
  1
1996.12.18
  7
高3.2
100
AcDbText
  0
TEXT
  5
30A
330
36
100
AcDbEntity
  8
0
 62
     3
100
AcDbText
 10
27.374388
 20
-474.4155089999998
 30
0.0
 40
3.2
  1
1/2
  7
高3.2
100
AcDbText
  0
LINE
  5
30B
330
36
100
AcDbEntity
  8
0
 62
     3
100
AcDbLine
 10
2.199133
 20
-381.827533
 30
0.0
 11
2.199133
 21
-410.627533
 31
0.0
  0
LINE
  5
30C
330
36
100
AcDbEntity
  8
0
 62
     3
100
AcDbLine
 10
2.199133
 20
-410.627533
 30
0.0
 11
78.66844399999997
 21
-410.627533
 31
0.0
  0
LINE
  5
30D
330
36
100
AcDbEntity
  8
0
 62
     3
100
AcDbLine
 10
78.66844399999997
 20
-381.827533
 30
0.0
 11
78.66844399999997
 21
-410.627533
 31
0.0
  0
LINE
  5
30E
330
36
100
AcDbEntity
  8
0
 62
     3
100
AcDbLine
 10
2.199133
 20
-381.827533
 30
0.0
 11
78.66844399999997
 21
-381.827533
 31
0.0
  0
TEXT
  5
30F
330
36
100
AcDbEntity
  8
0
 62
     3
100
AcDbText
 10
16.328031
 20
-388.095714
 30
0.0
 40
4.5
  1
電工ドラム（屋内型）
  7
高4.5
100
AcDbText
  0
LINE
  5
310
330
36
100
AcDbEntity
  8
0
 62
     3
100
AcDbLine
 10
-78.88262399999998
 20
-334.989237
 30
0.0
 11
-79.87435600000002
 21
-334.989237
 31
0.0
  0
LINE
  5
311
330
36
100
AcDbEntity
  8
0
 62
     3
100
AcDbLine
 10
-78.88262399999998
 20
-343.433281
 30
0.0
 11
-79.87435600000002
 21
-343.433281
 31
0.0
  0
ARC
  5
312
330
36
100
AcDbEntity
  8
0
 62
     3
100
AcDbCircle
 10
-155.185774
 20
-339.211259
 30
0.0
 40
7.586513
100
AcDbArc
 50
326.184746
 51
33.815254
  0
LINE
  5
313
330
36
100
AcDbEntity
  8
0
 62
     3
100
AcDbLine
 10
-79.87435600000002
 20
-334.989237
 30
0.0
 11
-79.87435600000002
 21
-343.433281
 31
0.0
  0
TEXT
  5
314
330
36
100
AcDbEntity
  8
0
 62
     3
100
AcDbText
 10
-0.67849
 20
-467.415509
 30
0.0
 40
3.2
  1
別　掲
  7
高3.2
100
AcDbText
  0
LINE
  5
315
330
36
100
AcDbEntity
  8
0
 62
     3
100
AcDbLine
 10
-297.293714
 20
-211.762795
 30
0.0
 11
-297.293714
 21
-485.7627950000001
 31
0.0
  0
LINE
  5
316
330
36
100
AcDbEntity
  8
0
 62
     3
100
AcDbLine
 10
92.706286
 20
-485.762795
 30
0.0
 11
92.706286
 21
-211.762795
 31
0.0
  0
LINE
  5
317
330
36
100
AcDbEntity
  8
0
 62
     3
100
AcDbLine
 10
-297.293714
 20
-211.762795
 30
0.0
 11
92.706286
 21
-211.762795
 31
0.0
  0
LINE
  5
318
330
36
100
AcDbEntity
  8
0
 62
     3
100
AcDbLine
 10
-297.293714
 20
-485.762795
 30
0.0
 11
92.706286
 21
-485.762795
 31
0.0
  0
LINE
  5
319
330
36
100
AcDbEntity
  8
0
 62
     3
100
AcDbLine
 10
-148.882624
 20
-356.933281
 30
0.0
 11
-148.882624
 21
-343.433281
 31
0.0
  0
ARC
  5
31A
330
36
100
AcDbEntity
  8
0
 62
     3
100
AcDbCircle
 10
-151.382624
 20
-351.247323
 30
0.0
 40
2.5
100
AcDbArc
 50
0.0
 51
90.0
  0
LINE
  5
31B
330
36
100
AcDbEntity
  8
0
 62
     3
100
AcDbLine
 10
-151.382624
 20
-348.747323
 30
0.0
 11
-153.882624
 21
-348.747323
 31
0.0
  0
LINE
  5
31C
330
36
100
AcDbEntity
  8
0
 62
     3
100
AcDbLine
 10
-172.258509
 20
-350.728508
 30
0.0
 11
-153.882624
 21
-348.747323
 31
0.0
  0
ARC
  5
31D
330
36
100
AcDbEntity
  8
0
 62
     3
100
AcDbCircle
 10
-151.382624
 20
-356.933281
 30
0.0
 40
2.5
100
AcDbArc
 50
318.555703
 51
0.0
  0
ARC
  5
31E
330
36
100
AcDbEntity
  8
0
 62
     3
100
AcDbCircle
 10
-151.382624
 20
-356.933281
 30
0.0
 40
2.5
100
AcDbArc
 50
270.0
 51
318.555703
  0
LINE
  5
31F
330
36
100
AcDbEntity
  8
0
 62
     3
100
AcDbLine
 10
-132.635626
 20
-359.433281
 30
0.0
 11
-138.882624
 21
-359.433281
 31
0.0
  0
ARC
  5
320
330
36
100
AcDbEntity
  8
0
 62
     3
100
AcDbCircle
 10
-132.635626
 20
-358.180279
 30
0.0
 40
1.253001999999999
100
AcDbArc
 50
270.0
 51
25.149305
  0
LINE
  5
321
330
36
100
AcDbEntity
  8
0
 62
     3
100
AcDbLine
 10
-131.501404
 20
-357.64778
 30
0.0
 11
-131.711385
 21
-357.200522
 31
0.0
  0
ARC
  5
322
330
36
100
AcDbEntity
  8
0
 62
     3
100
AcDbCircle
 10
-128.882624
 20
-355.872464
 30
0.0
 40
3.125
100
AcDbArc
 50
180.0
 51
205.149305
  0
ARC
  5
323
330
36
100
AcDbEntity
  8
0
 62
     3
100
AcDbCircle
 10
-128.882624
 20
-355.372464
 30
0.0
 40
3.125
100
AcDbArc
 50
0.0
 51
180.0
  0
LINE
  5
324
330
36
100
AcDbEntity
  8
0
 62
     3
100
AcDbLine
 10
-126.263843
 20
-357.64778
 30
0.0
 11
-126.053863
 21
-357.200522
 31
0.0
  0
ARC
  5
325
330
36
100
AcDbEntity
  8
0
 62
     3
100
AcDbCircle
 10
-128.882624
 20
-355.872464
 30
0.0
 40
3.125
100
AcDbArc
 50
334.850695
 51
0.0
  0
ARC
  5
326
330
36
100
AcDbEntity
  8
0
 62
     3
100
AcDbCircle
 10
-125.129622
 20
-358.180279
 30
0.0
 40
1.253001999999999
100
AcDbArc
 50
154.850695
 51
270.0
  0
LINE
  5
327
330
36
100
AcDbEntity
  8
0
 62
     3
100
AcDbLine
 10
-125.129622
 20
-359.433281
 30
0.0
 11
-113.882624
 21
-359.433281
 31
0.0
  0
LINE
  5
328
330
36
100
AcDbEntity
  8
0
 62
     3
100
AcDbLine
 10
-102.635626
 20
-359.433281
 30
0.0
 11
-113.882624
 21
-359.433281
 31
0.0
  0
ARC
  5
329
330
36
100
AcDbEntity
  8
0
 62
     3
100
AcDbCircle
 10
-102.635626
 20
-358.180279
 30
0.0
 40
1.253001999999999
100
AcDbArc
 50
270.0
 51
25.149305
  0
LINE
  5
32A
330
36
100
AcDbEntity
  8
0
 62
     3
100
AcDbLine
 10
-101.501404
 20
-357.64778
 30
0.0
 11
-101.711385
 21
-357.200522
 31
0.0
  0
ARC
  5
32B
330
36
100
AcDbEntity
  8
0
 62
     3
100
AcDbCircle
 10
-98.882624
 20
-355.872464
 30
0.0
 40
3.125
100
AcDbArc
 50
180.0
 51
205.149305
  0
ARC
  5
32C
330
36
100
AcDbEntity
  8
0
 62
     3
100
AcDbCircle
 10
-98.882624
 20
-355.372464
 30
0.0
 40
3.125
100
AcDbArc
 50
0.0
 51
180.0
  0
LINE
  5
32D
330
36
100
AcDbEntity
  8
0
 62
     3
100
AcDbLine
 10
-95.757624
 20
-355.372464
 30
0.0
 11
-95.757624
 21
-355.858228
 31
0.0
  0
ARC
  5
32E
330
36
100
AcDbEntity
  8
0
 62
     3
100
AcDbCircle
 10
-98.882624
 20
-355.872464
 30
0.0
 40
3.125
100
AcDbArc
 50
334.850695
 51
0.0
  0
LINE
  5
32F
330
36
100
AcDbEntity
  8
0
 62
     3
100
AcDbLine
 10
-96.26384299999999
 20
-357.64778
 30
0.0
 11
-96.05386300000001
 21
-357.200522
 31
0.0
  0
ARC
  5
330
330
36
100
AcDbEntity
  8
0
 62
     3
100
AcDbCircle
 10
-95.129622
 20
-358.180279
 30
0.0
 40
1.253001999999999
100
AcDbArc
 50
154.850695
 51
270.0
  0
LINE
  5
331
330
36
100
AcDbEntity
  8
0
 62
     3
100
AcDbLine
 10
-95.129622
 20
-359.433281
 30
0.0
 11
-88.882624
 21
-359.433281
 31
0.0
  0
LINE
  5
332
330
36
100
AcDbEntity
  8
0
 62
     3
100
AcDbLine
 10
-102.007624
 20
-355.372464
 30
0.0
 11
-102.007624
 21
-355.872464
 31
0.0
  0
ARC
  5
333
330
36
100
AcDbEntity
  8
0
 62
     3
100
AcDbCircle
 10
-88.882624
 20
-338.433281
 30
0.0
 40
21.0
100
AcDbArc
 50
270.0
 51
291.86529
  0
ARC
  5
334
330
36
100
AcDbEntity
  8
0
 62
     3
100
AcDbCircle
 10
-80.130622
 20
-360.242739
 30
0.0
 40
2.5
100
AcDbArc
 50
41.44429699999998
 51
111.86529
  0
ARC
  5
335
330
36
100
AcDbEntity
  8
0
 62
     3
100
AcDbCircle
 10
-76.38262399999998
 20
-356.933281
 30
0.0
 40
2.5
100
AcDbArc
 50
221.444297
 51
270.0
  0
LINE
  5
336
330
36
100
AcDbEntity
  8
0
 62
     3
100
AcDbLine
 10
-28.882624
 20
-359.433281
 30
0.0
 11
-76.38262399999998
 21
-359.433281
 31
0.0
  0
ARC
  5
337
330
36
100
AcDbEntity
  8
0
 62
     3
100
AcDbCircle
 10
-28.882624
 20
-356.933281
 30
0.0
 40
2.5
100
AcDbArc
 50
270.0
 51
0.0
  0
LINE
  5
338
330
36
100
AcDbEntity
  8
0
 62
     3
100
AcDbLine
 10
-26.382624
 20
-354.766489
 30
0.0
 11
-26.382624
 21
-356.933281
 31
0.0
  0
ARC
  5
339
330
36
100
AcDbEntity
  8
0
 62
     3
100
AcDbCircle
 10
-27.382624
 20
-354.766489
 30
0.0
 40
1.0
100
AcDbArc
 50
0.0
 51
83.84645799999999
  0
LINE
  5
33A
330
36
100
AcDbEntity
  8
0
 62
     3
100
AcDbLine
 10
-78.88262399999998
 20
-343.433281
 30
0.0
 11
-78.88262399999998
 21
-356.933281
 31
0.0
  0
ARC
  5
33B
330
36
100
AcDbEntity
  8
0
 62
     3
100
AcDbCircle
 10
-76.38262399999998
 20
-351.247323
 30
0.0
 40
2.5
100
AcDbArc
 50
90.0
 51
180.0
  0
LINE
  5
33C
330
36
100
AcDbEntity
  8
0
 62
     3
100
AcDbLine
 10
-76.38262399999998
 20
-348.747323
 30
0.0
 11
-73.88262399999998
 21
-348.747323
 31
0.0
  0
LINE
  5
33D
330
36
100
AcDbEntity
  8
0
 62
     3
100
AcDbLine
 10
-27.275431
 20
-353.77225
 30
0.0
 11
-73.88262399999998
 21
-348.747323
 31
0.0
  0
ARC
  5
33E
330
36
100
AcDbEntity
  8
0
 62
     3
100
AcDbCircle
 10
-76.38262399999998
 20
-356.933281
 30
0.0
 40
2.5
100
AcDbArc
 50
180.0
 51
221.444297
  0
LINE
  5
33F
330
36
100
AcDbEntity
  8
0
 62
     3
100
AcDbLine
 10
-83.882624
 20
-348.433281
 30
0.0
 11
-93.48201000000001
 21
-348.433281
 31
0.0
  0
ARC
  5
340
330
36
100
AcDbEntity
  8
0
 62
     3
100
AcDbCircle
 10
-98.65762400000001
 20
-356.399649
 30
0.0
 40
9.5
100
AcDbArc
 50
56.98890200000001
 51
86.49096
  0
LINE
  5
341
330
36
100
AcDbEntity
  8
0
 62
     3
100
AcDbLine
 10
-102.682604
 20
-346.889237
 30
0.0
 11
-99.67189500000001
 21
-346.889237
 31
0.0
  0
ARC
  5
342
330
36
100
AcDbEntity
  8
0
 62
     3
100
AcDbCircle
 10
-99.10762400000001
 20
-356.372464
 30
0.0
 40
9.5
100
AcDbArc
 50
86.59479899999999
 51
93.405201
  0
ARC
  5
343
330
36
100
AcDbEntity
  8
0
 62
     3
100
AcDbCircle
 10
-102.682604
 20
-351.889237
 30
0.0
 40
5.0
100
AcDbArc
 50
90.0
 51
115.594768
  0
ARC
  5
344
330
36
100
AcDbEntity
  8
0
 62
     3
100
AcDbCircle
 10
-113.882624
 20
-328.507513
 30
0.0
 40
20.925768
100
AcDbArc
 50
270.684529
 51
295.594768
  0
ARC
  5
345
330
36
100
AcDbEntity
  8
0
 62
     3
100
AcDbCircle
 10
-113.882624
 20
-328.507513
 30
0.0
 40
20.925768
100
AcDbArc
 50
244.405232
 51
270.684529
  0
ARC
  5
346
330
36
100
AcDbEntity
  8
0
 62
     3
100
AcDbCircle
 10
-125.082644
 20
-351.889237
 30
0.0
 40
5.0
100
AcDbArc
 50
64.405232
 51
90.0
  0
LINE
  5
347
330
36
100
AcDbEntity
  8
0
 62
     3
100
AcDbLine
 10
-125.082644
 20
-346.889237
 30
0.0
 11
-128.093352
 21
-346.889237
 31
0.0
  0
ARC
  5
348
330
36
100
AcDbEntity
  8
0
 62
     3
100
AcDbCircle
 10
-113.882624
 20
-604.6832809999997
 30
0.0
 40
258.25
100
AcDbArc
 50
93.405201
 51
93.50903999999999
  0
ARC
  5
349
330
36
100
AcDbEntity
  8
0
 62
     3
100
AcDbCircle
 10
-128.657624
 20
-356.372464
 30
0.0
 40
9.5
100
AcDbArc
 50
86.59479899999999
 51
93.405201
  0
ARC
  5
34A
330
36
100
AcDbEntity
  8
0
 62
     3
100
AcDbCircle
 10
-129.107624
 20
-356.399649
 30
0.0
 40
9.5
100
AcDbArc
 50
93.50903999999999
 51
123.011098
  0
LINE
  5
34B
330
36
100
AcDbEntity
  8
0
 62
     3
100
AcDbLine
 10
-143.882624
 20
-348.433281
 30
0.0
 11
-134.283238
 21
-348.433281
 31
0.0
  0
ARC
  5
34C
330
36
100
AcDbEntity
  8
0
 62
     3
100
AcDbCircle
 10
-143.882624
 20
-343.433281
 30
0.0
 40
5.0
100
AcDbArc
 50
180.0
 51
270.0
  0
LINE
  5
34D
330
36
100
AcDbEntity
  8
0
 62
     3
100
AcDbLine
 10
-148.882624
 20
-343.433281
 30
0.0
 11
-148.882624
 21
-334.989237
 31
0.0
  0
ARC
  5
34E
330
36
100
AcDbEntity
  8
0
 62
     3
100
AcDbCircle
 10
-146.382624
 20
-334.989237
 30
0.0
 40
2.5
100
AcDbArc
 50
90.0
 51
180.0
  0
LINE
  5
34F
330
36
100
AcDbEntity
  8
0
 62
     3
100
AcDbLine
 10
-113.882624
 20
-332.489237
 30
0.0
 11
-146.382624
 21
-332.489237
 31
0.0
  0
LINE
  5
350
330
36
100
AcDbEntity
  8
0
 62
     3
100
AcDbLine
 10
-81.382624
 20
-332.489237
 30
0.0
 11
-113.882624
 21
-332.489237
 31
0.0
  0
ARC
  5
351
330
36
100
AcDbEntity
  8
0
 62
     3
100
AcDbCircle
 10
-81.382624
 20
-334.989237
 30
0.0
 40
2.5
100
AcDbArc
 50
0.0
 51
90.0
  0
LINE
  5
352
330
36
100
AcDbEntity
  8
0
 62
     3
100
AcDbLine
 10
-78.88262399999998
 20
-334.989237
 30
0.0
 11
-78.88262399999998
 21
-343.433281
 31
0.0
  0
ARC
  5
353
330
36
100
AcDbEntity
  8
0
 62
     3
100
AcDbCircle
 10
-83.882624
 20
-343.433281
 30
0.0
 40
5.0
100
AcDbArc
 50
270.0
 51
0.0
  0
LINE
  5
354
330
36
100
AcDbEntity
  8
0
 62
     3
100
AcDbLine
 10
-62.882624
 20
-314.412075
 30
0.0
 11
-62.882624
 21
-345.443378
 31
0.0
  0
LINE
  5
355
330
36
100
AcDbEntity
  8
0
 62
     3
100
AcDbLine
 10
-58.006739
 20
-309.396481
 30
0.0
 11
-27.275431
 21
-306.083203
 31
0.0
  0
ARC
  5
356
330
36
100
AcDbEntity
  8
0
 62
     3
100
AcDbCircle
 10
-27.382624
 20
-305.088964
 30
0.0
 40
1.0
100
AcDbArc
 50
276.153542
 51
0.0
  0
LINE
  5
357
330
36
100
AcDbEntity
  8
0
 62
     3
100
AcDbLine
 10
-26.382624
 20
-305.106806
 30
0.0
 11
-26.382624
 21
-302.9221720000001
 31
0.0
  0
ARC
  5
358
330
36
100
AcDbEntity
  8
0
 62
     3
100
AcDbCircle
 10
-28.882624
 20
-302.9221720000001
 30
0.0
 40
2.5
100
AcDbArc
 50
0.0
 51
90.0
  0
LINE
  5
359
330
36
100
AcDbEntity
  8
0
 62
     3
100
AcDbLine
 10
-58.006739
 20
-300.422172
 30
0.0
 11
-28.882624
 21
-300.422172
 31
0.0
  0
LINE
  5
35A
330
36
100
AcDbEntity
  8
0
 62
     3
100
AcDbLine
 10
-58.006739
 20
-300.422172
 30
0.0
 11
-113.882624
 21
-300.422172
 31
0.0
  0
ARC
  5
35B
330
36
100
AcDbEntity
  8
0
 62
     3
100
AcDbCircle
 10
-198.882624
 20
-302.9221720000001
 30
0.0
 40
2.5
100
AcDbArc
 50
90.0
 51
180.0
  0
LINE
  5
35C
330
36
100
AcDbEntity
  8
0
 62
     3
100
AcDbLine
 10
-201.382624
 20
-305.106806
 30
0.0
 11
-201.382624
 21
-302.9221720000001
 31
0.0
  0
ARC
  5
35D
330
36
100
AcDbEntity
  8
0
 62
     3
100
AcDbCircle
 10
-200.382624
 20
-305.088964
 30
0.0
 40
1.0
100
AcDbArc
 50
180.0
 51
263.846458
  0
LINE
  5
35E
330
36
100
AcDbEntity
  8
0
 62
     3
100
AcDbLine
 10
-200.489817
 20
-306.083203
 30
0.0
 11
-196.382624
 21
-306.526017
 31
0.0
  0
LINE
  5
35F
330
36
100
AcDbEntity
  8
0
 62
     3
100
AcDbLine
 10
-196.382624
 20
-353.329436
 30
0.0
 11
-172.258509
 21
-350.728508
 31
0.0
  0
LINE
  5
360
330
36
100
AcDbEntity
  8
0
 62
     3
100
AcDbLine
 10
-200.489817
 20
-353.77225
 30
0.0
 11
-196.382624
 21
-353.329436
 31
0.0
  0
ARC
  5
361
330
36
100
AcDbEntity
  8
0
 62
     3
100
AcDbCircle
 10
-200.382624
 20
-354.766489
 30
0.0
 40
1.0
100
AcDbArc
 50
96.153542
 51
180.0
  0
LINE
  5
362
330
36
100
AcDbEntity
  8
0
 62
     3
100
AcDbLine
 10
-201.382624
 20
-354.766489
 30
0.0
 11
-201.382624
 21
-356.933281
 31
0.0
  0
ARC
  5
363
330
36
100
AcDbEntity
  8
0
 62
     3
100
AcDbCircle
 10
-198.882624
 20
-356.933281
 30
0.0
 40
2.5
100
AcDbArc
 50
180.0
 51
270.0
  0
LINE
  5
364
330
36
100
AcDbEntity
  8
0
 62
     3
100
AcDbLine
 10
-151.382624
 20
-359.433281
 30
0.0
 11
-198.882624
 21
-359.433281
 31
0.0
  0
ARC
  5
365
330
36
100
AcDbEntity
  8
0
 62
     3
100
AcDbCircle
 10
-169.882624
 20
-345.443378
 30
0.0
 40
5.0
100
AcDbArc
 50
276.153542
 51
0.0
  0
LINE
  5
366
330
36
100
AcDbEntity
  8
0
 62
     3
100
AcDbLine
 10
-164.882624
 20
-345.443378
 30
0.0
 11
-164.882624
 21
-314.377761
 31
0.0
  0
ARC
  5
367
330
36
100
AcDbEntity
  8
0
 62
     3
100
AcDbCircle
 10
-169.882496
 20
-314.377761
 30
0.0
 40
5.0
100
AcDbArc
 50
0.0
 51
77.148061
  0
ARC
  5
368
330
36
100
AcDbEntity
  8
0
 62
     3
100
AcDbCircle
 10
-147.634626
 20
-360.242739
 30
0.0
 40
2.5
100
AcDbArc
 50
68.13470999999998
 51
138.555703
  0
ARC
  5
369
330
36
100
AcDbEntity
  8
0
 62
     3
100
AcDbCircle
 10
-138.882624
 20
-338.433281
 30
0.0
 40
21.0
100
AcDbArc
 50
248.13471
 51
270.0
  0
ARC
  5
36A
330
36
100
AcDbEntity
  8
0
 62
     3
100
AcDbCircle
 10
-38.382624
 20
-259.276987
 30
0.0
 40
12.0
100
AcDbArc
 50
0.0
 51
86.79519599999997
  0
LINE
  5
36B
330
36
100
AcDbEntity
  8
0
 62
     3
100
AcDbLine
 10
-26.382624
 20
-259.276987
 30
0.0
 11
-26.382624
 21
-262.164914
 31
0.0
  0
ARC
  5
36C
330
36
100
AcDbEntity
  8
0
 62
     3
100
AcDbCircle
 10
-38.382624
 20
-265.05284
 30
0.0
 40
12.0
100
AcDbArc
 50
273.204804
 51
0.0
  0
ARC
  5
36D
330
36
100
AcDbEntity
  8
0
 62
     3
100
AcDbCircle
 10
-113.882624
 20
-1607.664914
 30
0.0
 40
1362.5
100
AcDbArc
 50
86.79519599999997
 51
93.204804
  0
ARC
  5
36E
330
36
100
AcDbEntity
  8
0
 62
     3
100
AcDbCircle
 10
-113.882624
 20
1083.335086
 30
0.0
 40
1362.5
100
AcDbArc
 50
266.795196
 51
273.204804
  0
ARC
  5
36F
330
36
100
AcDbEntity
  8
0
 62
     3
100
AcDbCircle
 10
-153.882624
 20
-413.2361879999998
 30
0.0
 40
5.0
100
AcDbArc
 50
268.311482
 51
0.0
  0
LINE
  5
370
330
36
100
AcDbEntity
  8
0
 62
     3
100
AcDbLine
 10
-33.382624
 20
-401.8256339999998
 30
0.0
 11
-26.382624
 21
-401.8256339999998
 31
0.0
  0
ARC
  5
371
330
36
100
AcDbEntity
  8
0
 62
     3
100
AcDbCircle
 10
-73.88262399999998
 20
-390.415081
 30
0.0
 40
5.0
100
AcDbArc
 50
88.31148199999999
 51
180.0
  0
LINE
  5
372
330
36
100
AcDbEntity
  8
0
 62
     3
100
AcDbLine
 10
-26.382624
 20
-404.7135609999998
 30
0.0
 11
-26.382624
 21
-401.8256339999998
 31
0.0
  0
ARC
  5
373
330
36
100
AcDbEntity
  8
0
 62
     3
100
AcDbCircle
 10
-38.382624
 20
-404.7135609999998
 30
0.0
 40
12.0
100
AcDbArc
 50
273.204804
 51
0.0
  0
ARC
  5
374
330
36
100
AcDbEntity
  8
0
 62
     3
100
AcDbCircle
 10
-38.382624
 20
-398.937708
 30
0.0
 40
12.0
100
AcDbArc
 50
0.0
 51
86.79519599999997
  0
ARC
  5
375
330
36
100
AcDbEntity
  8
0
 62
     3
100
AcDbCircle
 10
-82.88262399999998
 20
-390.325634
 30
0.0
 40
4.0
100
AcDbArc
 50
270.0
 51
0.0
  0
LINE
  5
376
330
36
100
AcDbEntity
  8
0
 62
     3
100
AcDbLine
 10
-148.882624
 20
-389.325634
 30
0.0
 11
-78.76249099999999
 21
-389.325634
 31
0.0
  0
ARC
  5
377
330
36
100
AcDbEntity
  8
0
 62
     3
100
AcDbCircle
 10
-144.882624
 20
-390.325634
 30
0.0
 40
4.0
100
AcDbArc
 50
180.0
 51
270.0
  0
ARC
  5
378
330
36
100
AcDbEntity
  8
0
 62
     3
100
AcDbCircle
 10
-153.882624
 20
-390.415081
 30
0.0
 40
5.0
100
AcDbArc
 50
0.0
 51
91.688518
  0
ARC
  5
379
330
36
100
AcDbEntity
  8
0
 62
     3
100
AcDbCircle
 10
-113.882624
 20
-1747.325634
 30
0.0
 40
1362.5
100
AcDbArc
 50
86.79519599999997
 51
93.204804
  0
ARC
  5
37A
330
36
100
AcDbEntity
  8
0
 62
     3
100
AcDbCircle
 10
-189.382624
 20
-398.937708
 30
0.0
 40
12.0
100
AcDbArc
 50
93.204804
 51
180.0
  0
ARC
  5
37B
330
36
100
AcDbEntity
  8
0
 62
     3
100
AcDbCircle
 10
-113.882624
 20
943.6743659999999
 30
0.0
 40
1362.5
100
AcDbArc
 50
266.795196
 51
273.204804
  0
LINE
  5
37C
330
36
100
AcDbEntity
  8
0
 62
     3
100
AcDbLine
 10
-201.382624
 20
-404.7135609999998
 30
0.0
 11
-201.382624
 21
-398.937708
 31
0.0
  0
ARC
  5
37D
330
36
100
AcDbEntity
  8
0
 62
     3
100
AcDbCircle
 10
-189.382624
 20
-404.7135609999998
 30
0.0
 40
12.0
100
AcDbArc
 50
180.0
 51
266.795196
  0
ARC
  5
37E
330
36
100
AcDbEntity
  8
0
 62
     3
100
AcDbCircle
 10
-189.382624
 20
-265.05284
 30
0.0
 40
12.0
100
AcDbArc
 50
180.0
 51
266.795196
  0
LINE
  5
37F
330
36
100
AcDbEntity
  8
0
 62
     3
100
AcDbLine
 10
-201.382624
 20
-265.05284
 30
0.0
 11
-201.382624
 21
-262.164914
 31
0.0
  0
ARC
  5
380
330
36
100
AcDbEntity
  8
0
 62
     3
100
AcDbCircle
 10
-189.382624
 20
-259.276987
 30
0.0
 40
12.0
100
AcDbArc
 50
93.204804
 51
180.0
  0
LINE
  5
381
330
36
100
AcDbEntity
  8
0
 62
     3
100
AcDbLine
 10
-201.382624
 20
-259.276987
 30
0.0
 11
-201.382624
 21
-262.164914
 31
0.0
  0
ARC
  5
382
330
36
100
AcDbEntity
  8
0
 62
     3
100
AcDbCircle
 10
-57.882624
 20
-314.412075
 30
0.0
 40
5.0
100
AcDbArc
 50
100.798319
 51
180.0
  0
ARC
  5
383
330
36
100
AcDbEntity
  8
0
 62
     3
100
AcDbCircle
 10
-57.882624
 20
-345.443378
 30
0.0
 40
5.0
100
AcDbArc
 50
180.0
 51
259.201681
  0
LINE
  5
384
330
36
100
AcDbEntity
  8
0
 62
     3
100
AcDbLine
 10
-73.88262399999998
 20
-311.1081299999999
 30
0.0
 11
-58.006739
 21
-309.396481
 31
0.0
  0
LINE
  5
385
330
36
100
AcDbEntity
  8
0
 62
     3
100
AcDbLine
 10
-113.882624
 20
-311.1081299999999
 30
0.0
 11
-73.88262399999998
 21
-311.1081299999999
 31
0.0
  0
LINE
  5
386
330
36
100
AcDbEntity
  8
0
 62
     3
100
AcDbLine
 10
-113.882624
 20
-311.1081299999999
 30
0.0
 11
-153.882624
 21
-311.1081299999999
 31
0.0
  0
LINE
  5
387
330
36
100
AcDbEntity
  8
0
 62
     3
100
AcDbLine
 10
-131.382624
 20
-402.075634
 30
0.0
 11
-131.382624
 21
-409.0756339999998
 31
0.0
  0
LINE
  5
388
330
36
100
AcDbEntity
  8
0
 62
     3
100
AcDbLine
 10
-131.382624
 20
-401.575634
 30
0.0
 11
-131.382624
 21
-394.575634
 31
0.0
  0
LINE
  5
389
330
36
100
AcDbEntity
  8
0
 62
     3
100
AcDbLine
 10
-126.382624
 20
-401.575634
 30
0.0
 11
-126.382624
 21
-394.575634
 31
0.0
  0
LINE
  5
38A
330
36
100
AcDbEntity
  8
0
 62
     3
100
AcDbLine
 10
-126.382624
 20
-402.075634
 30
0.0
 11
-126.382624
 21
-409.0756339999998
 31
0.0
  0
ARC
  5
38B
330
36
100
AcDbEntity
  8
0
 62
     3
100
AcDbCircle
 10
-126.132624
 20
-409.0756339999998
 30
0.0
 40
0.25
100
AcDbArc
 50
180.0
 51
270.0
  0
ARC
  5
38C
330
36
100
AcDbEntity
  8
0
 62
     3
100
AcDbCircle
 10
-131.632624
 20
-409.0756339999998
 30
0.0
 40
0.25
100
AcDbArc
 50
270.0
 51
0.0
  0
ARC
  5
38D
330
36
100
AcDbEntity
  8
0
 62
     3
100
AcDbCircle
 10
-126.132624
 20
-394.575634
 30
0.0
 40
0.25
100
AcDbArc
 50
90.0
 51
180.0
  0
ARC
  5
38E
330
36
100
AcDbEntity
  8
0
 62
     3
100
AcDbCircle
 10
-131.632624
 20
-394.575634
 30
0.0
 40
0.25
100
AcDbArc
 50
0.0
 51
90.0
  0
LINE
  5
38F
330
36
100
AcDbEntity
  8
0
 62
     3
100
AcDbLine
 10
-96.382624
 20
-402.075634
 30
0.0
 11
-96.382624
 21
-409.0756339999998
 31
0.0
  0
LINE
  5
390
330
36
100
AcDbEntity
  8
0
 62
     3
100
AcDbLine
 10
-101.382624
 20
-402.075634
 30
0.0
 11
-101.382624
 21
-409.0756339999998
 31
0.0
  0
ARC
  5
391
330
36
100
AcDbEntity
  8
0
 62
     3
100
AcDbCircle
 10
-101.632624
 20
-409.0756339999998
 30
0.0
 40
0.25
100
AcDbArc
 50
270.0
 51
0.0
  0
ARC
  5
392
330
36
100
AcDbEntity
  8
0
 62
     3
100
AcDbCircle
 10
-96.13262400000001
 20
-409.0756339999998
 30
0.0
 40
0.25
100
AcDbArc
 50
180.0
 51
270.0
  0
LINE
  5
393
330
36
100
AcDbEntity
  8
0
 62
     3
100
AcDbLine
 10
-96.382624
 20
-401.575634
 30
0.0
 11
-96.382624
 21
-394.575634
 31
0.0
  0
ARC
  5
394
330
36
100
AcDbEntity
  8
0
 62
     3
100
AcDbCircle
 10
-96.13262400000001
 20
-394.575634
 30
0.0
 40
0.25
100
AcDbArc
 50
90.0
 51
180.0
  0
ARC
  5
395
330
36
100
AcDbEntity
  8
0
 62
     3
100
AcDbCircle
 10
-101.632624
 20
-394.575634
 30
0.0
 40
0.25
100
AcDbArc
 50
0.0
 51
90.0
  0
LINE
  5
396
330
36
100
AcDbEntity
  8
0
 62
     3
100
AcDbLine
 10
-101.382624
 20
-401.575634
 30
0.0
 11
-101.382624
 21
-394.575634
 31
0.0
  0
LINE
  5
397
330
36
100
AcDbEntity
  8
0
 62
     3
100
AcDbLine
 10
-101.641342
 20
-402.075634
 30
0.0
 11
-101.641342
 21
-401.575634
 31
0.0
  0
LINE
  5
398
330
36
100
AcDbEntity
  8
0
 62
     3
100
AcDbLine
 10
-96.12390600000001
 20
-402.075634
 30
0.0
 11
-96.12390600000001
 21
-401.575634
 31
0.0
  0
LINE
  5
399
330
36
100
AcDbEntity
  8
0
 62
     3
100
AcDbLine
 10
-131.6413419999999
 20
-401.575634
 30
0.0
 11
-131.6413419999999
 21
-402.075634
 31
0.0
  0
LINE
  5
39A
330
36
100
AcDbEntity
  8
0
 62
     3
100
AcDbLine
 10
-126.123906
 20
-401.575634
 30
0.0
 11
-126.123906
 21
-402.075634
 31
0.0
  0
LINE
  5
39B
330
36
100
AcDbEntity
  8
0
 62
     3
100
AcDbLine
 10
-198.882624
 20
-300.422172
 30
0.0
 11
-113.882624
 21
-300.422172
 31
0.0
  0
LINE
  5
39C
330
36
100
AcDbEntity
  8
0
 62
     3
100
AcDbLine
 10
-153.882624
 20
-311.1081299999999
 30
0.0
 11
-196.382624
 21
-306.526017
 31
0.0
  0
LINE
  5
39D
330
36
100
AcDbEntity
  8
0
 62
     3
100
AcDbLine
 10
-26.382624
 20
-262.164914
 30
0.0
 11
-33.382624
 21
-262.164914
 31
0.0
  0
LINE
  5
39E
330
36
100
AcDbEntity
  8
0
 62
     3
100
AcDbLine
 10
-26.382624
 20
-265.05284
 30
0.0
 11
-26.382624
 21
-262.164914
 31
0.0
  0
LINE
  5
39F
330
36
100
AcDbEntity
  8
0
 62
     3
100
AcDbLine
 10
-194.382624
 20
-262.164914
 30
0.0
 11
-201.382624
 21
-262.164914
 31
0.0
  0
LINE
  5
3A0
330
36
100
AcDbEntity
  8
0
 62
     3
100
AcDbLine
 10
-194.382624
 20
-401.8256339999998
 30
0.0
 11
-201.382624
 21
-401.8256339999998
 31
0.0
  0
LINE
  5
3A1
330
36
100
AcDbEntity
  8
0
 62
     3
100
AcDbLine
 10
-26.382624
 20
-398.937708
 30
0.0
 11
-26.382624
 21
-401.8256339999998
 31
0.0
  0
LINE
  5
3A2
330
36
100
AcDbEntity
  8
0
 62
     3
100
AcDbLine
 10
-57.506739
 20
-402.075634
 30
0.0
 11
-57.506739
 21
-401.575634
 31
0.0
  0
LINE
  5
3A3
330
36
100
AcDbEntity
  8
0
 62
     3
100
AcDbLine
 10
-170.258509
 20
-401.575634
 30
0.0
 11
-170.258509
 21
-402.075634
 31
0.0
  0
LINE
  5
3A4
330
36
100
AcDbEntity
  8
0
 62
     3
100
AcDbLine
 10
-170.758509
 20
-266.793195
 30
0.0
 11
-170.758509
 21
-262.414914
 31
0.0
  0
LINE
  5
3A5
330
36
100
AcDbEntity
  8
0
 62
     3
100
AcDbLine
 10
-170.758509
 20
-257.582092
 30
0.0
 11
-170.758509
 21
-261.914914
 31
0.0
  0
ARC
  5
3A6
330
36
100
AcDbEntity
  8
0
 62
     3
100
AcDbCircle
 10
-113.882624
 20
-1607.664914
 30
0.0
 40
1355.5
100
AcDbArc
 50
92.58165899999999
 51
93.204804
  0
ARC
  5
3A7
330
36
100
AcDbEntity
  8
0
 62
     3
100
AcDbCircle
 10
-189.382624
 20
-259.276987
 30
0.0
 40
5.0
100
AcDbArc
 50
93.204804
 51
180.0
  0
LINE
  5
3A8
330
36
100
AcDbEntity
  8
0
 62
     3
100
AcDbLine
 10
-194.382624
 20
-259.276987
 30
0.0
 11
-194.382624
 21
-265.05284
 31
0.0
  0
ARC
  5
3A9
330
36
100
AcDbEntity
  8
0
 62
     3
100
AcDbCircle
 10
-189.382624
 20
-265.05284
 30
0.0
 40
5.0
100
AcDbArc
 50
180.0
 51
266.795196
  0
ARC
  5
3AA
330
36
100
AcDbEntity
  8
0
 62
     3
100
AcDbCircle
 10
-113.882624
 20
1083.335086
 30
0.0
 40
1355.5
100
AcDbArc
 50
266.795196
 51
267.418341
  0
LINE
  5
3AB
330
36
100
AcDbEntity
  8
0
 62
     3
100
AcDbLine
 10
-57.006739
 20
-257.582092
 30
0.0
 11
-57.006739
 21
-261.914914
 31
0.0
  0
ARC
  5
3AC
330
36
100
AcDbEntity
  8
0
 62
     3
100
AcDbCircle
 10
-113.882624
 20
-1607.664914
 30
0.0
 40
1355.5
100
AcDbArc
 50
86.79519599999997
 51
87.418341
  0
ARC
  5
3AD
330
36
100
AcDbEntity
  8
0
 62
     3
100
AcDbCircle
 10
-38.382624
 20
-259.276987
 30
0.0
 40
5.0
100
AcDbArc
 50
0.0
 51
86.79519599999997
  0
LINE
  5
3AE
330
36
100
AcDbEntity
  8
0
 62
     3
100
AcDbLine
 10
-33.382624
 20
-259.276987
 30
0.0
 11
-33.382624
 21
-265.05284
 31
0.0
  0
ARC
  5
3AF
330
36
100
AcDbEntity
  8
0
 62
     3
100
AcDbCircle
 10
-38.382624
 20
-265.05284
 30
0.0
 40
5.0
100
AcDbArc
 50
273.204804
 51
0.0
  0
ARC
  5
3B0
330
36
100
AcDbEntity
  8
0
 62
     3
100
AcDbCircle
 10
-113.882624
 20
1083.335086
 30
0.0
 40
1355.5
100
AcDbArc
 50
272.581659
 51
273.204804
  0
LINE
  5
3B1
330
36
100
AcDbEntity
  8
0
 62
     3
100
AcDbLine
 10
-57.006739
 20
-266.793195
 30
0.0
 11
-57.006739
 21
-262.414914
 31
0.0
  0
LINE
  5
3B2
330
36
100
AcDbEntity
  8
0
 62
     3
100
AcDbLine
 10
-82.88262399999998
 20
-394.325634
 30
0.0
 11
-96.13262400000001
 21
-394.325634
 31
0.0
  0
LINE
  5
3B3
330
36
100
AcDbEntity
  8
0
 62
     3
100
AcDbLine
 10
-101.632624
 20
-394.325634
 30
0.0
 11
-113.882624
 21
-394.325634
 31
0.0
  0
LINE
  5
3B4
330
36
100
AcDbEntity
  8
0
 62
     3
100
AcDbLine
 10
-82.88262399999998
 20
-409.3256339999999
 30
0.0
 11
-96.13262400000001
 21
-409.3256339999999
 31
0.0
  0
LINE
  5
3B5
330
36
100
AcDbEntity
  8
0
 62
     3
100
AcDbLine
 10
-101.632624
 20
-409.3256339999999
 30
0.0
 11
-113.882624
 21
-409.3256339999999
 31
0.0
  0
LINE
  5
3B6
330
36
100
AcDbEntity
  8
0
 62
     3
100
AcDbLine
 10
-144.882624
 20
-394.325634
 30
0.0
 11
-131.632624
 21
-394.325634
 31
0.0
  0
LINE
  5
3B7
330
36
100
AcDbEntity
  8
0
 62
     3
100
AcDbLine
 10
-126.132624
 20
-394.325634
 30
0.0
 11
-113.882624
 21
-394.325634
 31
0.0
  0
ARC
  5
3B8
330
36
100
AcDbEntity
  8
0
 62
     3
100
AcDbCircle
 10
-113.882624
 20
-1747.325634
 30
0.0
 40
1355.5
100
AcDbArc
 50
86.79519599999997
 51
87.418341
  0
ARC
  5
3B9
330
36
100
AcDbEntity
  8
0
 62
     3
100
AcDbCircle
 10
-38.382624
 20
-398.937708
 30
0.0
 40
5.0
100
AcDbArc
 50
0.0
 51
86.79519599999997
  0
LINE
  5
3BA
330
36
100
AcDbEntity
  8
0
 62
     3
100
AcDbLine
 10
-33.382624
 20
-404.7135609999998
 30
0.0
 11
-33.382624
 21
-401.8256339999998
 31
0.0
  0
ARC
  5
3BB
330
36
100
AcDbEntity
  8
0
 62
     3
100
AcDbCircle
 10
-38.382624
 20
-404.7135609999998
 30
0.0
 40
5.0
100
AcDbArc
 50
273.204804
 51
0.0
  0
ARC
  5
3BC
330
36
100
AcDbEntity
  8
0
 62
     3
100
AcDbCircle
 10
-113.882624
 20
943.6743659999999
 30
0.0
 40
1355.5
100
AcDbArc
 50
272.581659
 51
273.204804
  0
LINE
  5
3BD
330
36
100
AcDbEntity
  8
0
 62
     3
100
AcDbLine
 10
-57.006739
 20
-397.242813
 30
0.0
 11
-57.006739
 21
-401.575634
 31
0.0
  0
LINE
  5
3BE
330
36
100
AcDbEntity
  8
0
 62
     3
100
AcDbLine
 10
-33.382624
 20
-398.937708
 30
0.0
 11
-33.382624
 21
-401.8256339999998
 31
0.0
  0
LINE
  5
3BF
330
36
100
AcDbEntity
  8
0
 62
     3
100
AcDbLine
 10
-57.006739
 20
-406.4539159999998
 30
0.0
 11
-57.006739
 21
-402.075634
 31
0.0
  0
LINE
  5
3C0
330
36
100
AcDbEntity
  8
0
 62
     3
100
AcDbLine
 10
-170.758509
 20
-406.4539159999998
 30
0.0
 11
-170.758509
 21
-402.075634
 31
0.0
  0
LINE
  5
3C1
330
36
100
AcDbEntity
  8
0
 62
     3
100
AcDbLine
 10
-170.758509
 20
-397.242813
 30
0.0
 11
-170.758509
 21
-401.575634
 31
0.0
  0
LINE
  5
3C2
330
36
100
AcDbEntity
  8
0
 62
     3
100
AcDbLine
 10
-194.382624
 20
-404.7135609999998
 30
0.0
 11
-194.382624
 21
-401.8256339999998
 31
0.0
  0
ARC
  5
3C3
330
36
100
AcDbEntity
  8
0
 62
     3
100
AcDbCircle
 10
-113.882624
 20
-1747.325634
 30
0.0
 40
1355.5
100
AcDbArc
 50
92.58165899999999
 51
93.204804
  0
ARC
  5
3C4
330
36
100
AcDbEntity
  8
0
 62
     3
100
AcDbCircle
 10
-113.882624
 20
943.6743659999999
 30
0.0
 40
1355.5
100
AcDbArc
 50
266.795196
 51
267.418341
  0
LINE
  5
3C5
330
36
100
AcDbEntity
  8
0
 62
     3
100
AcDbLine
 10
-126.132624
 20
-409.3256339999999
 30
0.0
 11
-113.882624
 21
-409.3256339999999
 31
0.0
  0
LINE
  5
3C6
330
36
100
AcDbEntity
  8
0
 62
     3
100
AcDbLine
 10
-144.882624
 20
-409.3256339999999
 30
0.0
 11
-131.632624
 21
-409.3256339999999
 31
0.0
  0
ARC
  5
3C7
330
36
100
AcDbEntity
  8
0
 62
     3
100
AcDbCircle
 10
-144.882624
 20
-413.3256339999999
 30
0.0
 40
4.0
100
AcDbArc
 50
90.0
 51
180.0
  0
ARC
  5
3C8
330
36
100
AcDbEntity
  8
0
 62
     3
100
AcDbCircle
 10
-82.88262399999998
 20
-413.3256339999999
 30
0.0
 40
4.0
100
AcDbArc
 50
0.0
 51
90.0
  0
ARC
  5
3C9
330
36
100
AcDbEntity
  8
0
 62
     3
100
AcDbCircle
 10
-73.88262399999998
 20
-413.2361879999998
 30
0.0
 40
5.0
100
AcDbArc
 50
180.0
 51
271.6885180000001
  0
ARC
  5
3CA
330
36
100
AcDbEntity
  8
0
 62
     3
100
AcDbCircle
 10
-189.382624
 20
-398.937708
 30
0.0
 40
5.0
100
AcDbArc
 50
93.204804
 51
180.0
  0
ARC
  5
3CB
330
36
100
AcDbEntity
  8
0
 62
     3
100
AcDbCircle
 10
-189.382624
 20
-404.7135609999998
 30
0.0
 40
5.0
100
AcDbArc
 50
180.0
 51
266.795196
  0
LINE
  5
3CC
330
36
100
AcDbEntity
  8
0
 62
     3
100
AcDbLine
 10
-194.382624
 20
-398.937708
 30
0.0
 11
-194.382624
 21
-401.8256339999998
 31
0.0
  0
ARC
  5
3CD
330
36
100
AcDbEntity
  8
0
 62
     3
100
AcDbCircle
 10
-153.882624
 20
-258.414914
 30
0.0
 40
8.875
100
AcDbArc
 50
90.0
 51
180.0
  0
LINE
  5
3CE
330
36
100
AcDbEntity
  8
0
 62
     3
100
AcDbLine
 10
-153.882624
 20
-249.539914
 30
0.0
 11
-73.88262399999998
 21
-249.539914
 31
0.0
  0
LINE
  5
3CF
330
36
100
AcDbEntity
  8
0
 62
     3
100
AcDbLine
 10
-162.757624
 20
-265.914914
 30
0.0
 11
-162.757624
 21
-258.414914
 31
0.0
  0
ARC
  5
3D0
330
36
100
AcDbEntity
  8
0
 62
     3
100
AcDbCircle
 10
-153.882624
 20
-265.914914
 30
0.0
 40
8.875
100
AcDbArc
 50
180.0
 51
270.0
  0
ARC
  5
3D1
330
36
100
AcDbEntity
  8
0
 62
     3
100
AcDbCircle
 10
-73.88262399999998
 20
-258.414914
 30
0.0
 40
8.875
100
AcDbArc
 50
0.0
 51
90.0
  0
ARC
  5
3D2
330
36
100
AcDbEntity
  8
0
 62
     3
100
AcDbCircle
 10
-73.88262399999998
 20
-265.914914
 30
0.0
 40
8.875
100
AcDbArc
 50
270.0
 51
0.0
  0
LINE
  5
3D3
330
36
100
AcDbEntity
  8
0
 62
     3
100
AcDbLine
 10
-153.882624
 20
-274.789914
 30
0.0
 11
-73.88262399999998
 21
-274.789914
 31
0.0
  0
ARC
  5
3D4
330
36
100
AcDbEntity
  8
0
 62
     3
100
AcDbCircle
 10
-174.758509
 20
-266.793195
 30
0.0
 40
4.0
100
AcDbArc
 50
267.418341
 51
0.0
  0
ARC
  5
3D5
330
36
100
AcDbEntity
  8
0
 62
     3
100
AcDbCircle
 10
-174.758509
 20
-257.536632
 30
0.0
 40
4.0
100
AcDbArc
 50
0.0
 51
92.58165899999999
  0
ARC
  5
3D6
330
36
100
AcDbEntity
  8
0
 62
     3
100
AcDbCircle
 10
-53.006739
 20
-257.536632
 30
0.0
 40
4.0
100
AcDbArc
 50
87.418341
 51
180.0
  0
ARC
  5
3D7
330
36
100
AcDbEntity
  8
0
 62
     3
100
AcDbCircle
 10
-53.006739
 20
-266.793195
 30
0.0
 40
4.0
100
AcDbArc
 50
180.0
 51
272.581659
  0
LINE
  5
3D8
330
36
100
AcDbEntity
  8
0
 62
     3
100
AcDbLine
 10
-65.00762399999999
 20
-262.164914
 30
0.0
 11
-65.00762399999999
 21
-265.914914
 31
0.0
  0
LINE
  5
3D9
330
36
100
AcDbEntity
  8
0
 62
     3
100
AcDbLine
 10
-65.00762399999999
 20
-262.164914
 30
0.0
 11
-65.00762399999999
 21
-258.414914
 31
0.0
  0
ARC
  5
3DA
330
36
100
AcDbEntity
  8
0
 62
     3
100
AcDbCircle
 10
-53.006739
 20
-406.4539159999998
 30
0.0
 40
4.0
100
AcDbArc
 50
180.0
 51
272.581659
  0
ARC
  5
3DB
330
36
100
AcDbEntity
  8
0
 62
     3
100
AcDbCircle
 10
-53.006739
 20
-397.1973529999999
 30
0.0
 40
4.0
100
AcDbArc
 50
87.418341
 51
180.0
  0
ARC
  5
3DC
330
36
100
AcDbEntity
  8
0
 62
     3
100
AcDbCircle
 10
-174.758509
 20
-406.4539159999998
 30
0.0
 40
4.0
100
AcDbArc
 50
267.418341
 51
0.0
  0
ARC
  5
3DD
330
36
100
AcDbEntity
  8
0
 62
     3
100
AcDbCircle
 10
-174.758509
 20
-397.1973529999999
 30
0.0
 40
4.0
100
AcDbArc
 50
0.0
 51
92.58165899999999
  0
CIRCLE
  5
3DE
330
36
100
AcDbEntity
  8
0
 62
     3
100
AcDbCircle
 10
-113.882624
 20
-262.164914
 30
0.0
 40
4.0
  0
LINE
  5
3E1
330
36
100
AcDbEntity
  8
0
 62
     3
100
AcDbLine
 10
67.006923
 20
-469.097072
 30
0.0
 11
67.006923
 21
-446.0970719999998
 31
0.0
  0
LINE
  5
3E3
330
36
100
AcDbEntity
  8
0
 62
     3
100
AcDbLine
 10
13.953313
 20
-476.0970719999998
 30
0.0
 11
13.953313
 21
-462.0970719999998
 31
0.0
  0
TEXT
  5
3E5
330
36
100
AcDbEntity
  8
0
 62
     3
100
AcDbText
 10
43.017241
 20
-449.8919559999998
 30
0.0
 40
2.0
  1
A
 41
0.7
100
AcDbText
  0
TEXT
  5
3E6
330
36
100
AcDbEntity
  8
0
 62
     3
100
AcDbText
 10
45.552527
 20
-449.8919559999998
 30
0.0
 40
2.0
  1
P
 41
0.7
100
AcDbText
  0
TEXT
  5
3E7
330
36
100
AcDbEntity
  8
0
 62
     3
100
AcDbText
 10
48.08781299999999
 20
-449.8919559999998
 30
0.0
 40
2.0
  1
P
 41
0.7
100
AcDbText
  0
TEXT
  5
3E8
330
36
100
AcDbEntity
  8
0
 62
     3
100
AcDbText
 10
50.62309899999998
 20
-449.8919559999998
 30
0.0
 40
2.0
  1
D
 41
0.7
100
AcDbText
  0
TEXT
  5
3E9
330
36
100
AcDbEntity
  8
0
 62
     3
100
AcDbText
 10
55.991783
 20
-449.8919559999998
 30
0.0
 40
2.0
  1
C
 41
0.7
100
AcDbText
  0
TEXT
  5
3EA
330
36
100
AcDbEntity
  8
0
 62
     3
100
AcDbText
 10
58.527069
 20
-449.8919559999998
 30
0.0
 40
2.0
  1
H
 41
0.7
100
AcDbText
  0
TEXT
  5
3EB
330
36
100
AcDbEntity
  8
0
 62
     3
100
AcDbText
 10
61.062355
 20
-449.8919559999998
 30
0.0
 40
2.0
  1
C
 41
0.7
100
AcDbText
  0
TEXT
  5
3EC
330
36
100
AcDbEntity
  8
0
 62
     3
100
AcDbText
 10
63.597641
 20
-449.8919559999998
 30
0.0
 40
2.0
  1
K
 41
0.7
100
AcDbText
  0
TEXT
  5
3ED
330
36
100
AcDbEntity
  8
0
 62
     3
100
AcDbText
 10
69.271608
 20
-449.8919559999998
 30
0.0
 40
2.0
  1
DESN
 41
1.216762999999998
100
AcDbText
  0
TEXT
  5
3EE
330
36
100
AcDbEntity
  8
0
 62
     3
100
AcDbText
 10
-15.734751
 20
-479.2384539999998
 30
0.0
 40
2.0
  1
NICHIDO IND.CO.LTD
 41
1.274876
100
AcDbText
  0
LINE
  5
3EF
330
36
100
AcDbEntity
  8
0
 62
     3
100
AcDbLine
 10
-5.351722000000001
 20
-446.0970719999998
 30
0.0
 11
-5.351722
 21
-469.097072
 31
0.0
  0
LINE
  5
3F0
330
36
100
AcDbEntity
  8
0
 62
     3
100
AcDbLine
 10
41.006923
 20
-446.0970719999998
 30
0.0
 11
41.006923
 21
-485.762795
 31
0.0
  0
LINE
  5
3F5
330
36
100
AcDbEntity
  8
0
 62
     3
100
AcDbLine
 10
54.006923
 20
-446.0970719999998
 30
0.0
 11
54.006923
 21
-476.0970719999998
 31
0.0
  0
TEXT
  5
3F6
330
36
100
AcDbEntity
  8
0
 62
     3
100
AcDbText
 10
42.119368
 20
-475.2323849999998
 30
0.0
 40
3.2
  1
作成日
 41
1.017225999999997
100
AcDbText
  0
LINE
  5
3F7
330
36
100
AcDbEntity
  8
0
 62
     3
100
AcDbLine
 10
92.706286
 20
-446.0970719999998
 30
0.0
 11
-18.597156
 21
-446.0970719999998
 31
0.0
  0
LINE
  5
3F8
330
36
100
AcDbEntity
  8
0
 62
     3
100
AcDbLine
 10
80.006923
 20
-469.097072
 30
0.0
 11
80.006923
 21
-446.0970719999998
 31
0.0
  0
TEXT
  5
3F9
330
36
100
AcDbEntity
  8
0
 62
     3
100
AcDbText
 10
83.33072599999999
 20
-449.806137
 30
0.0
 40
1.8
  1
D
 41
0.666667
100
AcDbText
  0
TEXT
  5
3FA
330
36
100
AcDbEntity
  8
0
 62
     3
100
AcDbText
 10
86.147354
 20
-449.806137
 30
0.0
 40
1.8
  1
E
 41
0.666667
100
AcDbText
  0
TEXT
  5
3FB
330
36
100
AcDbEntity
  8
0
 62
     3
100
AcDbText
 10
88.96398299999999
 20
-449.806137
 30
0.0
 40
1.8
  1
F
 41
0.666667
100
AcDbText
  0
TEXT
  5
3FC
330
36
100
AcDbEntity
  8
0
 62
     3
100
AcDbText
 10
83.33072599999999
 20
-453.7986909999998
 30
0.0
 40
3.2
  1
製図
 41
1.076369
100
AcDbText
  0
LINE
  5
3FD
330
36
100
AcDbEntity
  8
0
 62
     3
100
AcDbLine
 10
-18.597156
 20
-446.0970719999998
 30
0.0
 11
-18.597156
 21
-485.762795
 31
0.0
  0
TEXT
  5
3FE
330
36
100
AcDbEntity
  8
0
 62
     3
100
AcDbText
 10
-17.220503
 20
-485.430329
 30
0.0
 40
5.0
  1
日動工業株式会社
 41
0.833333
100
AcDbText
  0
LINE
  5
3FF
330
36
100
AcDbEntity
  8
0
 62
     3
100
AcDbLine
 10
24.285248
 20
-462.0970719999998
 30
0.0
 11
24.285248
 21
-485.762795
 31
0.0
  0
LINE
  5
400
330
36
100
AcDbEntity
  8
0
 62
     3
100
AcDbLine
 10
24.285248
 20
-480.9299329999998
 30
0.0
 11
41.006923
 21
-480.9299329999998
 31
0.0
  0
TEXT
  5
401
330
36
100
AcDbEntity
  8
0
 62
     3
100
AcDbText
 10
24.87185
 20
-480.113503
 30
0.0
 40
3.2
  1
出図コード
 41
0.8356860000000001
100
AcDbText
  0
LINE
  5
403
330
36
100
AcDbEntity
  8
0
 62
     3
100
AcDbLine
 10
-18.597156
 20
-476.0970719999998
 30
0.0
 11
92.706286
 21
-476.0970719999998
 31
0.0
  0
LINE
  5
405
330
36
100
AcDbEntity
  8
0
 62
     3
100
AcDbLine
 10
-18.59715599999999
 20
-455.0970719999998
 30
0.0
 11
92.706286
 21
-455.0970719999998
 31
0.0
  0
LINE
  5
40B
330
36
100
AcDbEntity
  8
0
 62
     3
100
AcDbLine
 10
-18.597156
 20
-462.0970719999998
 30
0.0
 11
41.006923
 21
-462.0970719999998
 31
0.0
  0
LINE
  5
411
330
36
100
AcDbEntity
  8
0
 62
     3
100
AcDbLine
 10
-18.597156
 20
-469.097072
 30
0.0
 11
92.706286
 21
-469.097072
 31
0.0
  0
TEXT
  5
412
330
36
100
AcDbEntity
  8
0
 62
     3
100
AcDbText
 10
24.739301
 20
-485.2865798083321
 30
0.0
 40
3.2
  1
ZK-A3X
 41
0.8112849999999999
100
AcDbText
  0
TEXT
  5
413
330
36
100
AcDbEntity
  8
0
 62
     3
100
AcDbText
 10
-16.779759
 20
-449.9275459999998
 30
0.0
 40
2.0
  1
CONPONENTS
 41
0.5331600000000001
100
AcDbText
  0
TEXT
  5
414
330
36
100
AcDbEntity
  8
0
 62
     3
100
AcDbText
 10
-17.129486
 20
-468.859723
 30
0.0
 40
3.0
  1
材
 41
0.833333
100
AcDbText
  0
TEXT
  5
415
330
36
100
AcDbEntity
  8
0
 62
     3
100
AcDbText
 10
-9.593842999999999
 20
-468.859723
 30
0.0
 40
3.0
  1
質
 41
0.833333
100
AcDbText
  0
TEXT
  5
416
330
36
100
AcDbEntity
  8
0
 62
     3
100
AcDbText
 10
-17.041415
 20
-458.235198
 30
0.0
 40
2.0
  1
MODEL
 41
1.031072999999999
100
AcDbText
  0
TEXT
  5
417
330
36
100
AcDbEntity
  8
0
 62
     3
100
AcDbText
 10
-17.129486
 20
-465.177415
 30
0.0
 40
2.0
  1
MATERIAL
 41
0.659278
100
AcDbText
  0
TEXT
  5
418
330
36
100
AcDbEntity
  8
0
 62
     3
100
AcDbText
 10
14.177794
 20
-468.859723
 30
0.0
 40
3.0
  1
備
 41
0.833333
100
AcDbText
  0
TEXT
  5
419
330
36
100
AcDbEntity
  8
0
 62
     3
100
AcDbText
 10
20.910796
 20
-468.859723
 30
0.0
 40
3.0
  1
考
 41
0.833333
100
AcDbText
  0
TEXT
  5
41A
330
36
100
AcDbEntity
  8
0
 62
     3
100
AcDbText
 10
14.52150437302998
 20
-465.177415
 30
0.0
 40
2.0
  1
REMARKS
 41
0.675794
100
AcDbText
  0
TEXT
  5
41B
330
36
100
AcDbEntity
  8
0
 62
     3
100
AcDbText
 10
-15.539757
 20
-472.0975349999998
 30
0.0
 40
2.0
  1
3AD
 41
1.42614
100
AcDbText
  0
TEXT
  5
41C
330
36
100
AcDbEntity
  8
0
 62
     3
100
AcDbText
 10
-6.228777
 20
-471.9318019999998
 30
0.0
 40
2.0
  1
ANGLE
 41
1.669883999999996
100
AcDbText
  0
TEXT
  5
41D
330
36
100
AcDbEntity
  8
0
 62
     3
100
AcDbText
 10
14.70511
 20
-472.3086429999998
 30
0.0
 40
2.0
  1
SCALE
 41
0.7719630000000001
100
AcDbText
  0
TEXT
  5
41E
330
36
100
AcDbEntity
  8
0
 62
     3
100
AcDbText
 10
-15.853627
 20
-476.0970719999998
 30
0.0
 40
3.0
  1
第
 41
0.833333
100
AcDbText
  0
TEXT
  5
41F
330
36
100
AcDbEntity
  8
0
 62
     3
100
AcDbText
 10
-8.066777
 20
-476.0970719999998
 30
0.0
 40
3.0
  1
三
 41
0.833333
100
AcDbText
  0
TEXT
  5
420
330
36
100
AcDbEntity
  8
0
 62
     3
100
AcDbText
 10
-0.279927
 20
-476.0970719999998
 30
0.0
 40
3.0
  1
角
 41
0.833333
100
AcDbText
  0
TEXT
  5
421
330
36
100
AcDbEntity
  8
0
 62
     3
100
AcDbText
 10
7.506922999999997
 20
-476.0970719999998
 30
0.0
 40
3.0
  1
法
 41
0.833333
100
AcDbText
  0
TEXT
  5
422
330
36
100
AcDbEntity
  8
0
 62
     3
100
AcDbText
 10
14.568315
 20
-475.8086429999998
 30
0.0
 40
3.0
  1
尺
 41
0.833333
100
AcDbText
  0
TEXT
  5
423
330
36
100
AcDbEntity
  8
0
 62
     3
100
AcDbText
 10
21.301317
 20
-475.8086429999998
 30
0.0
 40
3.0
  1
度
 41
0.833333
100
AcDbText
  0
TEXT
  5
424
330
36
100
AcDbEntity
  8
0
 62
     3
100
AcDbText
 10
43.884587
 20
-453.639343
 30
0.0
 40
3.0
  1
承認
 41
1.089472999999999
100
AcDbText
  0
TEXT
  5
425
330
36
100
AcDbEntity
  8
0
 62
     3
100
AcDbText
 10
57.127467
 20
-453.697072
 30
0.0
 40
3.0
  1
検図
 41
0.931761
100
AcDbText
  0
TEXT
  5
426
330
36
100
AcDbEntity
  8
0
 62
     3
100
AcDbText
 10
70.127864
 20
-453.697072
 30
0.0
 40
3.0
  1
設
 41
0.833333
100
AcDbText
  0
TEXT
  5
427
330
36
100
AcDbEntity
  8
0
 62
     3
100
AcDbText
 10
74.61773199999997
 20
-453.697072
 30
0.0
 40
3.0
  1
計
 41
0.833333
100
AcDbText
  0
TEXT
  5
428
330
36
100
AcDbEntity
  8
0
 62
     3
100
AcDbText
 10
-16.709653
 20
-453.52452
 30
0.0
 40
3.0
  1
品
 41
0.833333
100
AcDbText
  0
TEXT
  5
429
330
36
100
AcDbEntity
  8
0
 62
     3
100
AcDbText
 10
-9.174011
 20
-453.52452
 30
0.0
 40
3.0
  1
名
 41
0.833333
100
AcDbText
  0
TEXT
  5
42A
330
36
100
AcDbEntity
  8
0
 62
     3
100
AcDbText
 10
-17.041415
 20
-461.7030002632517
 30
0.0
 40
3.0
  1
型
 41
0.833333
100
AcDbText
  0
TEXT
  5
42B
330
36
100
AcDbEntity
  8
0
 62
     3
100
AcDbText
 10
-9.493325
 20
-461.7030002632517
 30
0.0
 40
3.0
  1
式
 41
0.833333
100
AcDbText
  0
LINE
  5
42C
330
36
100
AcDbEntity
  8
0
100
AcDbLine
 10
-113.882624
 20
-401.575634
 30
0.0
 11
-76.38262399999998
 21
-401.575634
 31
0.0
  0
LINE
  5
42D
330
36
100
AcDbEntity
  8
0
100
AcDbLine
 10
-113.882624
 20
-402.075634
 30
0.0
 11
-76.38262399999998
 21
-402.075634
 31
0.0
  0
LINE
  5
42E
330
36
100
AcDbEntity
  8
0
100
AcDbLine
 10
-113.882624
 20
-401.575634
 30
0.0
 11
-151.382624
 21
-401.575634
 31
0.0
  0
LINE
  5
42F
330
36
100
AcDbEntity
  8
0
100
AcDbLine
 10
-113.882624
 20
-402.075634
 30
0.0
 11
-151.382624
 21
-402.075634
 31
0.0
  0
LINE
  5
430
330
36
100
AcDbEntity
  8
0
100
AcDbLine
 10
-170.758509
 20
-401.575634
 30
0.0
 11
-168.258509
 21
-401.575634
 31
0.0
  0
LINE
  5
431
330
36
100
AcDbEntity
  8
0
100
AcDbLine
 10
-170.758509
 20
-402.075634
 30
0.0
 11
-168.258509
 21
-402.075634
 31
0.0
  0
LINE
  5
432
330
36
100
AcDbEntity
  8
0
100
AcDbLine
 10
-59.506739
 20
-401.575634
 30
0.0
 11
-57.006739
 21
-401.575634
 31
0.0
  0
LINE
  5
433
330
36
100
AcDbEntity
  8
0
100
AcDbLine
 10
-57.006739
 20
-402.075634
 30
0.0
 11
-59.506739
 21
-402.075634
 31
0.0
  0
CIRCLE
  5
434
330
36
100
AcDbEntity
  8
0
100
AcDbCircle
 10
-29.882624
 20
-303.330898
 30
0.0
 40
0.8
  0
CIRCLE
  5
435
330
36
100
AcDbEntity
  8
0
100
AcDbCircle
 10
-67.94556599999999
 20
-316.422172
 30
0.0
 40
1.125
  0
CIRCLE
  5
436
330
36
100
AcDbEntity
  8
0
100
AcDbCircle
 10
-29.882624
 20
-356.524555
 30
0.0
 40
0.8
  0
CIRCLE
  5
437
330
36
100
AcDbEntity
  8
0
100
AcDbCircle
 10
-141.382624
 20
-354.433281
 30
0.0
 40
1.125
  0
CIRCLE
  5
438
330
36
100
AcDbEntity
  8
0
  6
PHANTOM
100
AcDbCircle
 10
-59.58461899999999
 20
-314.638014
 30
0.0
 40
3.0
  0
CIRCLE
  5
439
330
36
100
AcDbEntity
  8
0
  6
PHANTOM
100
AcDbCircle
 10
-59.58461899999999
 20
-320.638014
 30
0.0
 40
3.0
  0
CIRCLE
  5
43A
330
36
100
AcDbEntity
  8
0
  6
PHANTOM
100
AcDbCircle
 10
-59.58461899999999
 20
-326.638014
 30
0.0
 40
3.0
  0
CIRCLE
  5
43B
330
36
100
AcDbEntity
  8
0
  6
PHANTOM
100
AcDbCircle
 10
-59.58461899999999
 20
-332.638014
 30
0.0
 40
3.0
  0
CIRCLE
  5
43C
330
36
100
AcDbEntity
  8
0
  6
PHANTOM
100
AcDbCircle
 10
-59.58461899999999
 20
-338.638014
 30
0.0
 40
3.0
  0
CIRCLE
  5
43D
330
36
100
AcDbEntity
  8
0
  6
PHANTOM
100
AcDbCircle
 10
-59.58461899999999
 20
-344.638014
 30
0.0
 40
3.0
  0
CIRCLE
  5
43E
330
36
100
AcDbEntity
  8
0
  6
PHANTOM
100
AcDbCircle
 10
-168.180628
 20
-315.138014
 30
0.0
 40
3.0
  0
CIRCLE
  5
43F
330
36
100
AcDbEntity
  8
0
  6
PHANTOM
100
AcDbCircle
 10
-168.180628
 20
-321.138014
 30
0.0
 40
3.0
  0
CIRCLE
  5
440
330
36
100
AcDbEntity
  8
0
  6
PHANTOM
100
AcDbCircle
 10
-168.180628
 20
-327.138014
 30
0.0
 40
3.0
  0
CIRCLE
  5
441
330
36
100
AcDbEntity
  8
0
  6
PHANTOM
100
AcDbCircle
 10
-168.180628
 20
-333.138014
 30
0.0
 40
3.0
  0
CIRCLE
  5
442
330
36
100
AcDbEntity
  8
0
  6
PHANTOM
100
AcDbCircle
 10
-168.180628
 20
-339.138014
 30
0.0
 40
3.0
  0
CIRCLE
  5
443
330
36
100
AcDbEntity
  8
0
  6
PHANTOM
100
AcDbCircle
 10
-168.180628
 20
-345.138014
 30
0.0
 40
3.0
  0
LINE
  5
444
330
36
100
AcDbEntity
  8
0
100
AcDbLine
 10
2.199133
 20
-397.1875330000001
 30
0.0
 11
78.66844399999997
 21
-397.1875330000001
 31
0.0
  0
LINE
  5
445
330
36
100
AcDbEntity
  8
0
100
AcDbLine
 10
2.199133
 20
-403.907533
 30
0.0
 11
78.66844399999997
 21
-403.907533
 31
0.0
  0
LINE
  5
446
330
36
100
AcDbEntity
  8
0
100
AcDbLine
 10
30.999133
 20
-397.1875330000001
 30
0.0
 11
30.999133
 21
-410.627533
 31
0.0
  0
LINE
  5
447
330
36
100
AcDbEntity
  8
0
100
AcDbLine
 10
2.199133
 20
-389.507533
 30
0.0
 11
78.66844399999997
 21
-389.507533
 31
0.0
  0
LINE
  5
448
330
36
100
AcDbEntity
  8
0
  6
PHANTOM
100
AcDbLine
 10
-79.87435600000002
 20
-336.138014
 30
0.0
 11
-168.180628
 21
-342.138014
 31
0.0
  0
LINE
  5
449
330
36
100
AcDbEntity
  8
0
  6
PHANTOM
100
AcDbLine
 10
-79.87435600000002
 20
-342.138014
 30
0.0
 11
-168.180628
 21
-348.138014
 31
0.0
  0
LINE
  5
453
330
36
100
AcDbEntity
  8
0
  6
PHANTOM
100
AcDbLine
 10
-59.58461899999999
 20
-311.638014
 30
0.0
 11
-15.209417
 21
-311.638014
 31
0.0
  0
LINE
  5
454
330
36
100
AcDbEntity
  8
0
  6
PHANTOM
100
AcDbLine
 10
-59.58461899999999
 20
-317.638014
 30
0.0
 11
-14.807136
 21
-317.638014
 31
0.0
  0
LINE
  5
455
330
36
100
AcDbEntity
  8
0
100
AcDbLine
 10
-57.006739
 20
-261.914914
 30
0.0
 11
-65.00762399999999
 21
-261.914914
 31
0.0
  0
LINE
  5
456
330
36
100
AcDbEntity
  8
0
100
AcDbLine
 10
-57.006739
 20
-262.414914
 30
0.0
 11
-65.00762399999999
 21
-262.414914
 31
0.0
  0
LINE
  5
457
330
36
100
AcDbEntity
  8
0
100
AcDbLine
 10
-170.758509
 20
-261.914914
 30
0.0
 11
-162.757624
 21
-261.914914
 31
0.0
  0
LINE
  5
458
330
36
100
AcDbEntity
  8
0
100
AcDbLine
 10
-170.758509
 20
-262.414914
 30
0.0
 11
-162.757624
 21
-262.414914
 31
0.0
  0
CIRCLE
  5
460
330
36
100
AcDbEntity
  8
0
100
AcDbCircle
 10
-160.133749
 20
-256.557966
 30
0.0
 40
1.0
  0
CIRCLE
  5
461
330
36
100
AcDbEntity
  8
0
100
AcDbCircle
 10
-160.133749
 20
-267.771861
 30
0.0
 40
1.0
  0
CIRCLE
  5
462
330
36
100
AcDbEntity
  8
0
100
AcDbCircle
 10
-113.882624
 20
-251.664914
 30
0.0
 40
1.0
  0
CIRCLE
  5
463
330
36
100
AcDbEntity
  8
0
100
AcDbCircle
 10
-113.882624
 20
-272.664914
 30
0.0
 40
1.0
  0
CIRCLE
  5
464
330
36
100
AcDbEntity
  8
0
100
AcDbCircle
 10
-67.63149799999999
 20
-267.771861
 30
0.0
 40
1.0
  0
CIRCLE
  5
465
330
36
100
AcDbEntity
  8
0
100
AcDbCircle
 10
-67.63149799999999
 20
-256.557966
 30
0.0
 40
1.0
  0
ARC
  5
466
330
36
100
AcDbEntity
  8
0
100
AcDbCircle
 10
-60.006739
 20
-355.933281
 30
0.0
 40
1.0
100
AcDbArc
 50
270.0
 51
89.99999800000002
  0
ARC
  5
467
330
36
100
AcDbEntity
  8
0
100
AcDbCircle
 10
-60.006739
 20
-352.933281
 30
0.0
 40
1.0
100
AcDbArc
 50
270.0
 51
90.0
  0
LINE
  5
468
330
36
100
AcDbEntity
  8
0
100
AcDbLine
 10
-72.76475999999998
 20
-351.933281
 30
0.0
 11
-60.006739
 21
-351.933281
 31
0.0
  0
LINE
  5
469
330
36
100
AcDbEntity
  8
0
100
AcDbLine
 10
-72.76475999999998
 20
-353.933281
 30
0.0
 11
-64.437706
 21
-353.933281
 31
0.0
  0
LINE
  5
46A
330
36
100
AcDbEntity
  8
0
100
AcDbLine
 10
-72.87609499999998
 20
-354.933281
 30
0.0
 11
-64.437706
 21
-354.933281
 31
0.0
  0
LINE
  5
46B
330
36
100
AcDbEntity
  8
0
100
AcDbLine
 10
-72.76475999999998
 20
-356.933281
 30
0.0
 11
-60.006739
 21
-356.933281
 31
0.0
  0
ARC
  5
46C
330
36
100
AcDbEntity
  8
0
100
AcDbCircle
 10
-72.76475999999998
 20
-355.933281
 30
0.0
 40
1.0
100
AcDbArc
 50
90.0
 51
270.0
  0
ARC
  5
46D
330
36
100
AcDbEntity
  8
0
100
AcDbCircle
 10
-72.76475999999998
 20
-352.933281
 30
0.0
 40
1.0
100
AcDbArc
 50
90.00000199999998
 51
270.0
  0
LINE
  5
46E
330
36
100
AcDbEntity
  8
0
100
AcDbLine
 10
-155.000488
 20
-353.933281
 30
0.0
 11
-167.758509
 21
-353.933281
 31
0.0
  0
ARC
  5
46F
330
36
100
AcDbEntity
  8
0
100
AcDbCircle
 10
-155.000488
 20
-352.933281
 30
0.0
 40
1.0
100
AcDbArc
 50
270.0
 51
89.99999800000002
  0
LINE
  5
470
330
36
100
AcDbEntity
  8
0
100
AcDbLine
 10
-155.000488
 20
-351.933281
 30
0.0
 11
-167.758509
 21
-351.933281
 31
0.0
  0
ARC
  5
471
330
36
100
AcDbEntity
  8
0
100
AcDbCircle
 10
-167.758509
 20
-352.933281
 30
0.0
 40
1.0
100
AcDbArc
 50
90.0
 51
270.0
  0
LINE
  5
472
330
36
100
AcDbEntity
  8
0
100
AcDbLine
 10
-154.889152
 20
-354.933281
 30
0.0
 11
-167.758509
 21
-354.933281
 31
0.0
  0
ARC
  5
473
330
36
100
AcDbEntity
  8
0
100
AcDbCircle
 10
-167.758509
 20
-355.933281
 30
0.0
 40
1.0
100
AcDbArc
 50
90.00000199999998
 51
270.0
  0
LINE
  5
474
330
36
100
AcDbEntity
  8
0
100
AcDbLine
 10
-155.000488
 20
-356.933281
 30
0.0
 11
-167.758509
 21
-356.933281
 31
0.0
  0
ARC
  5
475
330
36
100
AcDbEntity
  8
0
100
AcDbCircle
 10
-155.000488
 20
-355.933281
 30
0.0
 40
1.0
100
AcDbArc
 50
270.0
 51
90.0
  0
LINE
  5
476
330
36
100
AcDbEntity
  8
0
100
AcDbLine
 10
-113.882624
 20
-305.922172
 30
0.0
 11
-167.758509
 21
-305.922172
 31
0.0
  0
LINE
  5
477
330
36
100
AcDbEntity
  8
0
100
AcDbLine
 10
-113.882624
 20
-304.9221720000001
 30
0.0
 11
-167.758509
 21
-304.9221720000001
 31
0.0
  0
LINE
  5
478
330
36
100
AcDbEntity
  8
0
100
AcDbLine
 10
-113.882624
 20
-302.9221720000001
 30
0.0
 11
-167.758509
 21
-302.9221720000001
 31
0.0
  0
ARC
  5
479
330
36
100
AcDbEntity
  8
0
100
AcDbCircle
 10
-167.758509
 20
-303.922172
 30
0.0
 40
1.0
100
AcDbArc
 50
90.0
 51
269.999998
  0
ARC
  5
47A
330
36
100
AcDbEntity
  8
0
100
AcDbCircle
 10
-167.758509
 20
-306.9221720000001
 30
0.0
 40
1.0
100
AcDbArc
 50
90.0
 51
270.0
  0
LINE
  5
47B
330
36
100
AcDbEntity
  8
0
100
AcDbLine
 10
-167.758509
 20
-307.922172
 30
0.0
 11
-60.006739
 21
-307.922172
 31
0.0
  0
LINE
  5
47C
330
36
100
AcDbEntity
  8
0
100
AcDbLine
 10
-113.882624
 20
-305.922172
 30
0.0
 11
-60.006739
 21
-305.922172
 31
0.0
  0
LINE
  5
47D
330
36
100
AcDbEntity
  8
0
100
AcDbLine
 10
-113.882624
 20
-304.9221720000001
 30
0.0
 11
-60.006739
 21
-304.9221720000001
 31
0.0
  0
LINE
  5
47E
330
36
100
AcDbEntity
  8
0
100
AcDbLine
 10
-113.882624
 20
-302.9221720000001
 30
0.0
 11
-60.006739
 21
-302.9221720000001
 31
0.0
  0
ARC
  5
47F
330
36
100
AcDbEntity
  8
0
100
AcDbCircle
 10
-60.006739
 20
-303.922172
 30
0.0
 40
1.0
100
AcDbArc
 50
270.000002
 51
90.0
  0
ARC
  5
480
330
36
100
AcDbEntity
  8
0
100
AcDbCircle
 10
-60.006739
 20
-306.9221720000001
 30
0.0
 40
1.0
100
AcDbArc
 50
270.0
 51
90.0
  0
LINE
  5
481
330
36
100
AcDbEntity
  8
0
 62
     7
100
AcDbLine
 10
-189.4708728446891
 20
-485.762795
 30
0.0
 11
-189.4708728446891
 21
-440.7627950000001
 31
0.0
  0
LINE
  5
482
330
36
100
AcDbEntity
  8
0
100
AcDbLine
 10
-246.7803806666667
 20
-485.762795
 30
0.0
 11
-246.7803806666667
 21
-440.7627950000001
 31
0.0
  0
LINE
  5
483
330
36
100
AcDbEntity
  8
0
100
AcDbLine
 10
-239.0429498333333
 20
-485.762795
 30
0.0
 11
-239.0429498333334
 21
-440.7627950000001
 31
0.0
  0
LINE
  5
484
330
36
100
AcDbEntity
  8
0
100
AcDbLine
 10
-218.8327606666666
 20
-485.762795
 30
0.0
 11
-218.8327606666666
 21
-440.7627950000001
 31
0.0
  0
LINE
  5
485
330
36
100
AcDbEntity
  8
0
100
AcDbLine
 10
-289.1673306666667
 20
-485.762795
 30
0.0
 11
-289.1673306666667
 21
-440.7627950000001
 31
0.0
  0
TEXT
  5
486
330
36
100
AcDbEntity
  8
0
 62
     3
100
AcDbText
 10
-245.2803806666667
 20
-450.262795
 30
0.0
 40
3.2
  1
1
 41
0.8
  7
高3.2
100
AcDbText
  0
TEXT
  5
487
330
36
100
AcDbEntity
  8
0
 62
     3
100
AcDbText
 10
-245.2803806666667
 20
-475.262795
 30
0.0
 40
3.2
  1
1
 41
0.8
  7
高3.2
100
AcDbText
  0
TEXT
  5
488
330
36
100
AcDbEntity
  8
0
 62
     3
100
AcDbText
 10
-245.2803806666667
 20
-455.262795
 30
0.0
 40
3.2
  1
1
 41
0.8
  7
高3.2
100
AcDbText
  0
TEXT
  5
489
330
36
100
AcDbEntity
  8
0
 62
     3
100
AcDbText
 10
-237.5429498333333
 20
-475.262795
 30
0.0
 40
3.2
  1
ABS樹脂
 41
0.8
  7
高3.2
100
AcDbText
  0
TEXT
  5
48A
330
36
100
AcDbEntity
  8
0
 62
     3
100
AcDbText
 10
-237.5429498333334
 20
-465.262795
 30
0.0
 40
3.2
  1
ABS樹脂
 41
0.8
  7
高3.2
100
AcDbText
  0
TEXT
  5
48B
330
36
100
AcDbEntity
  8
0
 62
     3
100
AcDbText
 10
-245.2803806666667
 20
-460.262795
 30
0.0
 40
3.2
  1
1
 41
0.8
  7
高3.2
100
AcDbText
  0
TEXT
  5
48C
330
36
100
AcDbEntity
  8
0
 62
     3
100
AcDbText
 10
-287.6673306666667
 20
-480.262795
 30
0.0
 40
3.2
  1
フレーム
 41
0.8
  7
高3.2
100
AcDbText
  0
TEXT
  5
48D
330
36
100
AcDbEntity
  8
0
 62
     3
100
AcDbText
 10
-287.6673306666667
 20
-475.262795
 30
0.0
 40
3.2
  1
コンセントパネル
 41
0.8
  7
高3.2
100
AcDbText
  0
TEXT
  5
48E
330
36
100
AcDbEntity
  8
0
 62
     3
100
AcDbText
 10
-287.6673306666667
 20
-460.262795
 30
0.0
 40
3.2
  1
線止め
 41
0.8
  7
高3.2
100
AcDbText
  0
TEXT
  5
48F
330
36
100
AcDbEntity
  8
0
 62
     3
100
AcDbText
 10
-287.6673306666667
 20
-455.262795
 30
0.0
 40
3.2
  1
ホールプラグ
 41
0.8
  7
高3.2
100
AcDbText
  0
TEXT
  5
490
330
36
100
AcDbEntity
  8
0
 62
     3
100
AcDbText
 10
-237.5429498333334
 20
-460.262795
 30
0.0
 40
3.2
  1
PA6
 41
0.8
  7
高3.2
100
AcDbText
  0
TEXT
  5
491
330
36
100
AcDbEntity
  8
0
 62
     3
100
AcDbText
 10
-237.5429498333333
 20
-480.262795
 30
0.0
 40
3.2
  1
ABS樹脂
 41
0.8
  7
高3.2
100
AcDbText
  0
TEXT
  5
492
330
36
100
AcDbEntity
  8
0
 62
     3
100
AcDbText
 10
-237.5429498333334
 20
-455.262795
 30
0.0
 40
3.2
  1
PP樹脂
 41
0.8
  7
高3.2
100
AcDbText
  0
TEXT
  5
493
330
36
100
AcDbEntity
  8
0
 62
     3
100
AcDbText
 10
-245.2803806666667
 20
-480.262795
 30
0.0
 40
3.2
  1
1式
 41
0.8
  7
高3.2
100
AcDbText
  0
TEXT
  5
494
330
36
100
AcDbEntity
  8
0
 62
     3
100
AcDbText
 10
-287.6673306666667
 20
-445.262795
 30
0.0
 40
3.2
  1
型式　取説表示シール
 41
0.8
  7
高3.2
100
AcDbText
  0
TEXT
  5
495
330
36
100
AcDbEntity
  8
0
 62
     3
100
AcDbText
 10
-245.2803806666667
 20
-445.262795
 30
0.0
 40
3.2
  1
各1
 41
0.8
  7
高3.2
100
AcDbText
  0
TEXT
  5
496
330
36
100
AcDbEntity
  8
0
 62
     3
100
AcDbText
 10
-237.5429498333334
 20
-470.262795
 30
0.0
 40
3.2
  1
ABS樹脂
 41
0.8
  7
高3.2
100
AcDbText
  0
TEXT
  5
497
330
36
100
AcDbEntity
  8
0
 62
     3
100
AcDbText
 10
-245.2803806666667
 20
-470.262795
 30
0.0
 40
3.2
  1
1
 41
0.8
  7
高3.2
100
AcDbText
  0
TEXT
  5
498
330
36
100
AcDbEntity
  8
0
 62
     3
100
AcDbText
 10
-287.6673306666667
 20
-470.262795
 30
0.0
 40
3.2
  1
電源ランプ
 41
0.8
  7
高3.2
100
AcDbText
  0
TEXT
  5
499
330
36
100
AcDbEntity
  8
0
 62
     3
100
AcDbText
 10
-217.3327606666666
 20
-470.262795
 30
0.0
 40
3.2
  1
100V用
 41
0.8
  7
高3.2
100
AcDbText
  0
TEXT
  5
49A
330
36
100
AcDbEntity
  8
0
 62
     3
100
AcDbText
 10
-295.793714
 20
-445.262795
 30
0.0
 40
3.2
  1
8
 41
0.8
  7
高3.2
100
AcDbText
  0
TEXT
  5
49B
330
36
100
AcDbEntity
  8
0
 62
     3
100
AcDbText
 10
-295.793714
 20
-450.262795
 30
0.0
 40
3.2
  1
7
 41
0.8
  7
高3.2
100
AcDbText
  0
TEXT
  5
49C
330
36
100
AcDbEntity
  8
0
 62
     3
100
AcDbText
 10
-295.793714
 20
-455.262795
 30
0.0
 40
3.2
  1
6
 41
0.8
  7
高3.2
100
AcDbText
  0
TEXT
  5
49D
330
36
100
AcDbEntity
  8
0
 62
     3
100
AcDbText
 10
-295.793714
 20
-460.262795
 30
0.0
 40
3.2
  1
5
 41
0.8
  7
高3.2
100
AcDbText
  0
TEXT
  5
49E
330
36
100
AcDbEntity
  8
0
 62
     3
100
AcDbText
 10
-295.793714
 20
-465.262795
 30
0.0
 40
3.2
  1
4
 41
0.8
  7
高3.2
100
AcDbText
  0
TEXT
  5
49F
330
36
100
AcDbEntity
  8
0
 62
     3
100
AcDbText
 10
-295.793714
 20
-470.262795
 30
0.0
 40
3.2
  1
3
 41
0.8
  7
高3.2
100
AcDbText
  0
TEXT
  5
4A0
330
36
100
AcDbEntity
  8
0
 62
     3
100
AcDbText
 10
-295.793714
 20
-475.262795
 30
0.0
 40
3.2
  1
2
 41
0.8
  7
高3.2
100
AcDbText
  0
TEXT
  5
4A1
330
36
100
AcDbEntity
  8
0
 62
     3
100
AcDbText
 10
-295.793714
 20
-480.262795
 30
0.0
 40
3.2
  1
1
 41
0.8
  7
高3.2
100
AcDbText
  0
TEXT
  5
4A2
330
36
100
AcDbEntity
  8
0
 62
     3
100
AcDbText
 10
-245.2803806666667
 20
-465.262795
 30
0.0
 40
3.2
  1
2式
 41
0.8
  7
高3.2
100
AcDbText
  0
ARC
  5
4A3
330
36
100
AcDbEntity
  8
0
100
AcDbCircle
 10
-60.506739
 20
-388.57005
 30
0.0
 40
1.0
100
AcDbArc
 50
0.0
 51
90.0
  0
LINE
  5
4A4
330
36
100
AcDbEntity
  8
0
100
AcDbLine
 10
-59.506739
 20
-401.575634
 30
0.0
 11
-59.506739
 21
-388.57005
 31
0.0
  0
LINE
  5
4A5
330
36
100
AcDbEntity
  8
0
100
AcDbLine
 10
-60.506739
 20
-387.57005
 30
0.0
 11
-75.38262399999998
 21
-387.57005
 31
0.0
  0
ARC
  5
4A6
330
36
100
AcDbEntity
  8
0
100
AcDbCircle
 10
-75.38262399999998
 20
-388.57005
 30
0.0
 40
1.0
100
AcDbArc
 50
90.0
 51
180.0
  0
LINE
  5
4A7
330
36
100
AcDbEntity
  8
0
100
AcDbLine
 10
-76.38262399999998
 20
-388.57005
 30
0.0
 11
-76.38262399999998
 21
-402.075634
 31
0.0
  0
LINE
  5
4A8
330
36
100
AcDbEntity
  8
0
100
AcDbLine
 10
-59.506739
 20
-401.575634
 30
0.0
 11
-59.506739
 21
-415.0812189999999
 31
0.0
  0
ARC
  5
4A9
330
36
100
AcDbEntity
  8
0
100
AcDbCircle
 10
-60.506739
 20
-415.0812189999999
 30
0.0
 40
1.0
100
AcDbArc
 50
270.0
 51
0.0
  0
LINE
  5
4AA
330
36
100
AcDbEntity
  8
0
100
AcDbLine
 10
-60.506739
 20
-416.0812189999998
 30
0.0
 11
-75.38262399999998
 21
-416.0812189999998
 31
0.0
  0
ARC
  5
4AB
330
36
100
AcDbEntity
  8
0
100
AcDbCircle
 10
-75.38262399999998
 20
-415.0812189999999
 30
0.0
 40
1.0
100
AcDbArc
 50
180.0
 51
270.0
  0
LINE
  5
4AC
330
36
100
AcDbEntity
  8
0
100
AcDbLine
 10
-76.38262399999998
 20
-415.0812189999999
 30
0.0
 11
-76.38262399999998
 21
-402.075634
 31
0.0
  0
LINE
  5
4AD
330
36
100
AcDbEntity
  8
0
100
AcDbLine
 10
-151.382624
 20
-415.0812189999999
 30
0.0
 11
-151.382624
 21
-388.57005
 31
0.0
  0
LINE
  5
4AE
330
36
100
AcDbEntity
  8
0
100
AcDbLine
 10
-167.258509
 20
-387.57005
 30
0.0
 11
-152.382624
 21
-387.57005
 31
0.0
  0
ARC
  5
4AF
330
36
100
AcDbEntity
  8
0
100
AcDbCircle
 10
-152.382624
 20
-388.57005
 30
0.0
 40
1.0
100
AcDbArc
 50
0.0
 51
90.0
  0
ARC
  5
4B0
330
36
100
AcDbEntity
  8
0
100
AcDbCircle
 10
-167.258509
 20
-388.57005
 30
0.0
 40
1.0
100
AcDbArc
 50
90.0
 51
180.0
  0
LINE
  5
4B1
330
36
100
AcDbEntity
  8
0
100
AcDbLine
 10
-168.258509
 20
-388.57005
 30
0.0
 11
-168.258509
 21
-415.0812189999999
 31
0.0
  0
LINE
  5
4B2
330
36
100
AcDbEntity
  8
0
100
AcDbLine
 10
-167.258509
 20
-416.0812189999998
 30
0.0
 11
-152.382624
 21
-416.0812189999998
 31
0.0
  0
ARC
  5
4B3
330
36
100
AcDbEntity
  8
0
100
AcDbCircle
 10
-152.382624
 20
-415.0812189999999
 30
0.0
 40
1.0
100
AcDbArc
 50
270.0
 51
0.0
  0
ARC
  5
4B4
330
36
100
AcDbEntity
  8
0
100
AcDbCircle
 10
-167.258509
 20
-415.0812189999999
 30
0.0
 40
1.0
100
AcDbArc
 50
180.0
 51
270.0
  0
LINE
  5
4B5
330
36
100
AcDbEntity
  8
0
 62
     3
100
AcDbLine
 10
92.60625
 20
-440.097072
 30
0.0
 11
41.006887
 21
-440.097072
 31
0.0
  0
TEXT
  5
4B6
330
36
100
AcDbEntity
  8
0
 62
     3
100
AcDbText
 10
46.44174988729059
 20
-445.540987
 30
0.0
 40
4.5
  1
コード
  7
高4.5
100
AcDbText
  0
LINE
  5
4B7
330
36
100
AcDbEntity
  8
0
 62
     3
100
AcDbLine
 10
67.006887
 20
-446.0970719999998
 30
0.0
 11
67.006887
 21
-440.097072
 31
0.0
  0
LINE
  5
4B8
330
36
100
AcDbEntity
  8
0
 62
     3
100
AcDbLine
 10
41.006887
 20
-446.0970719999998
 30
0.0
 11
41.006887
 21
-440.097072
 31
0.0
  0
TEXT
  5
4B9
330
36
100
AcDbEntity
  8
0
 62
     3
100
AcDbText
 10
-217.3327606666666
 20
-475.262795
 30
0.0
 40
3.2
  1
茶
 41
0.8
  7
高3.2
100
AcDbText
  0
TEXT
  5
4BA
330
36
100
AcDbEntity
  8
0
 62
     3
100
AcDbText
 10
-245.2803806666667
 20
-485.262795
 30
0.0
 40
3.2
  1
数
 41
0.8
  7
高3.2
100
AcDbText
  0
TEXT
  5
4BB
330
36
100
AcDbEntity
  8
0
 62
     3
100
AcDbText
 10
-295.793714
 20
-485.262795
 30
0.0
 40
3.2
  1
No
 41
0.8
  7
高3.2
100
AcDbText
  0
TEXT
  5
4BC
330
36
100
AcDbEntity
  8
0
 62
     3
100
AcDbText
 10
-287.6673306666667
 20
-485.262795
 30
0.0
 40
3.2
  1
部　　品　　名
 41
0.8
  7
高3.2
100
AcDbText
  0
TEXT
  5
4BD
330
36
100
AcDbEntity
  8
0
 62
     3
100
AcDbText
 10
-237.5429498333333
 20
-485.262795
 30
0.0
 40
3.2
  1
材　　質
 41
0.8
  7
高3.2
100
AcDbText
  0
TEXT
  5
4BE
330
36
100
AcDbEntity
  8
0
 62
     3
100
AcDbText
 10
-217.3327606666666
 20
-485.262795
 30
0.0
 40
3.2
  1
備　　　　考
 41
0.8
  7
高3.2
100
AcDbText
  0
TEXT
  5
4BF
330
36
100
AcDbEntity
  8
0
 62
     3
100
AcDbText
 10
22.942119
 20
-396.201388
 30
0.0
 40
4.5
  1
単相100V仕様
  7
高4.5
100
AcDbText
  0
TEXT
  5
4C0
330
36
100
AcDbEntity
  8
0
 62
     3
100
AcDbText
 10
7.531152
 20
-403.44071
 30
0.0
 40
4.5
  1
定格電圧
  7
高4.5
100
AcDbText
  0
TEXT
  5
4C1
330
36
100
AcDbEntity
  8
0
 62
     3
100
AcDbText
 10
7.531152
 20
-409.9687099999998
 30
0.0
 40
4.5
  1
定格電流
  7
高4.5
100
AcDbText
  0
TEXT
  5
4C2
330
36
100
AcDbEntity
  8
0
 62
     3
100
AcDbText
 10
46.365207
 20
-402.863893
 30
0.0
 40
4.5
  1
125V
  7
高4.5
100
AcDbText
  0
TEXT
  5
4C3
330
36
100
AcDbEntity
  8
0
 62
     3
100
AcDbText
 10
50.68093799999999
 20
-409.4945459999998
 30
0.0
 40
4.5
  1
8A
  7
高4.5
100
AcDbText
  0
LINE
  5
4C9
330
36
100
AcDbEntity
  8
0
100
AcDbLine
 10
-70.07987199999999
 20
-389.57005
 30
0.0
 11
-78.226462
 21
-378.158733
 31
0.0
  0
LINE
  5
4CA
330
36
100
AcDbEntity
  8
0
100
AcDbLine
 10
-78.226462
 20
-378.158733
 30
0.0
 11
-94.72646199999999
 21
-378.158733
 31
0.0
  0
TEXT
  5
4CB
330
36
100
AcDbEntity
  8
0
 62
     4
100
AcDbText
 10
-91.97646199999999
 20
-377.158733
 30
0.0
 40
3.2
  1
型式銘版
 41
0.716146
100
AcDbText
  0
LINE
  5
4D1
330
36
100
AcDbEntity
  8
0
100
AcDbLine
 10
-159.666665
 20
-389.57005
 30
0.0
 11
-153.177661
 21
-378.158733
 31
0.0
  0
LINE
  5
4D2
330
36
100
AcDbEntity
  8
0
100
AcDbLine
 10
-153.177661
 20
-378.158733
 30
0.0
 11
-128.427661
 21
-378.158733
 31
0.0
  0
TEXT
  5
4D3
330
36
100
AcDbEntity
  8
0
 62
     4
100
AcDbText
 10
-150.427661
 20
-377.158733
 30
0.0
 40
3.2
  1
取り扱いシール
 41
0.716146
100
AcDbText
  0
CIRCLE
  5
4E0
330
36
100
AcDbEntity
  8
0
100
AcDbCircle
 10
-58.95605699999999
 20
-371.401648
 30
0.0
 40
5.0
  0
TEXT
  5
4E1
330
36
100
AcDbEntity
  8
0
 62
     4
100
AcDbText
 10
-61.10305454711386
 20
-374.7220373348479
 30
0.0
 40
6.299999999999998
  1
8
  7
高6.3
100
AcDbText
  0
CIRCLE
  5
4E8
330
36
100
AcDbEntity
  8
0
100
AcDbCircle
 10
-107.837791
 20
-368.742579
 30
0.0
 40
5.0
  0
TEXT
  5
4E9
330
36
100
AcDbEntity
  8
0
 62
     4
100
AcDbText
 10
-109.9847885471138
 20
-372.0629683348477
 30
0.0
 40
6.299999999999998
  1
5
  7
高6.3
100
AcDbText
  0
CIRCLE
  5
4F0
330
36
100
AcDbEntity
  8
0
100
AcDbCircle
 10
-121.343463
 20
-368.861765
 30
0.0
 40
5.0
  0
TEXT
  5
4F1
330
36
100
AcDbEntity
  8
0
 62
     4
100
AcDbText
 10
-123.4904605471138
 20
-372.1821543348479
 30
0.0
 40
6.299999999999998
  1
6
  7
高6.3
100
AcDbText
  0
CIRCLE
  5
4F8
330
36
100
AcDbEntity
  8
0
100
AcDbCircle
 10
-170.559846
 20
-371.401648
 30
0.0
 40
5.0
  0
TEXT
  5
4F9
330
36
100
AcDbEntity
  8
0
 62
     4
100
AcDbText
 10
-172.7068435471139
 20
-374.7220373348479
 30
0.0
 40
6.299999999999998
  1
8
  7
高6.3
100
AcDbText
  0
LINE
  5
4FA
330
36
100
AcDbEntity
  8
0
 62
     3
100
AcDbLine
 10
-309.695638
 20
-345.2627950000001
 30
0.0
 11
-312.293714
 21
-346.7627950000002
 31
0.0
  0
LINE
  5
4FB
330
36
100
AcDbEntity
  8
0
 62
     3
100
AcDbLine
 10
-309.695638
 20
-345.2627950000001
 30
0.0
 11
-312.293714
 21
-343.762795
 31
0.0
  0
LINE
  5
4FC
330
36
100
AcDbEntity
  8
0
 62
     3
100
AcDbLine
 10
-312.293714
 20
-346.7627950000002
 30
0.0
 11
-312.293714
 21
-343.762795
 31
0.0
  0
ARC
  5
4FD
330
36
100
AcDbEntity
  8
0
 62
     3
100
AcDbCircle
 10
-129.669392
 20
-257.029714
 30
0.0
 40
2.62
100
AcDbArc
 50
90.0
 51
139.533253
  0
LINE
  5
4FE
330
36
100
AcDbEntity
  8
0
 62
     3
100
AcDbLine
 10
-129.669392
 20
-254.409714
 30
0.0
 11
-124.284957
 21
-254.409714
 31
0.0
  0
ARC
  5
4FF
330
36
100
AcDbEntity
  8
0
 62
     3
100
AcDbCircle
 10
-124.284957
 20
-257.029714
 30
0.0
 40
2.62
100
AcDbArc
 50
40.46674699999999
 51
90.0
  0
ARC
  5
500
330
36
100
AcDbEntity
  8
0
 62
     3
100
AcDbCircle
 10
-130.304574
 20
-262.164914
 30
0.0
 40
10.5324
100
AcDbArc
 50
319.533253
 51
40.46674699999999
  0
ARC
  5
501
330
36
100
AcDbEntity
  8
0
 62
     3
100
AcDbCircle
 10
-124.284957
 20
-267.300114
 30
0.0
 40
2.62
100
AcDbArc
 50
270.0
 51
319.533253
  0
LINE
  5
502
330
36
100
AcDbEntity
  8
0
 62
     3
100
AcDbLine
 10
-129.669392
 20
-269.920114
 30
0.0
 11
-124.284957
 21
-269.920114
 31
0.0
  0
ARC
  5
503
330
36
100
AcDbEntity
  8
0
 62
     3
100
AcDbCircle
 10
-129.669392
 20
-267.300114
 30
0.0
 40
2.62
100
AcDbArc
 50
220.466747
 51
270.0
  0
ARC
  5
504
330
36
100
AcDbEntity
  8
0
 62
     3
100
AcDbCircle
 10
-123.911774
 20
-262.164914
 30
0.0
 40
10.5324
100
AcDbArc
 50
139.533253
 51
220.466747
  0
ARC
  5
505
330
36
100
AcDbEntity
  8
0
 62
     3
100
AcDbCircle
 10
-144.982957
 20
-257.029714
 30
0.0
 40
2.62
100
AcDbArc
 50
40.46674699999999
 51
90.0
  0
ARC
  5
506
330
36
100
AcDbEntity
  8
0
 62
     3
100
AcDbCircle
 10
-151.002574
 20
-262.164914
 30
0.0
 40
10.5324
100
AcDbArc
 50
319.533253
 51
40.46674699999999
  0
ARC
  5
507
330
36
100
AcDbEntity
  8
0
 62
     3
100
AcDbCircle
 10
-144.982957
 20
-267.300114
 30
0.0
 40
2.62
100
AcDbArc
 50
270.0
 51
319.533253
  0
LINE
  5
508
330
36
100
AcDbEntity
  8
0
 62
     3
100
AcDbLine
 10
-144.982957
 20
-269.920114
 30
0.0
 11
-150.367392
 21
-269.920114
 31
0.0
  0
ARC
  5
509
330
36
100
AcDbEntity
  8
0
 62
     3
100
AcDbCircle
 10
-82.682871
 20
-257.029714
 30
0.0
 40
2.62
100
AcDbArc
 50
90.0
 51
139.533253
  0
LINE
  5
50A
330
36
100
AcDbEntity
  8
0
 62
     3
100
AcDbLine
 10
-97.99643600000001
 20
-254.409714
 30
0.0
 11
-103.380871
 21
-254.409714
 31
0.0
  0
ARC
  5
50B
330
36
100
AcDbEntity
  8
0
 62
     3
100
AcDbCircle
 10
-103.380871
 20
-257.029714
 30
0.0
 40
2.62
100
AcDbArc
 50
90.0
 51
139.533253
  0
ARC
  5
50C
330
36
100
AcDbEntity
  8
0
 62
     3
100
AcDbCircle
 10
-97.36125300000001
 20
-262.164914
 30
0.0
 40
10.5324
100
AcDbArc
 50
139.533253
 51
220.466747
  0
ARC
  5
50D
330
36
100
AcDbEntity
  8
0
 62
     3
100
AcDbCircle
 10
-97.99643600000001
 20
-257.029714
 30
0.0
 40
2.62
100
AcDbArc
 50
40.46674699999999
 51
90.0
  0
ARC
  5
50E
330
36
100
AcDbEntity
  8
0
 62
     3
100
AcDbCircle
 10
-104.016053
 20
-262.164914
 30
0.0
 40
10.5324
100
AcDbArc
 50
319.533253
 51
40.46674699999999
  0
ARC
  5
50F
330
36
100
AcDbEntity
  8
0
 62
     3
100
AcDbCircle
 10
-76.663253
 20
-262.164914
 30
0.0
 40
10.5324
100
AcDbArc
 50
139.533253
 51
220.466747
  0
ARC
  5
510
330
36
100
AcDbEntity
  8
0
 62
     3
100
AcDbCircle
 10
-83.318053
 20
-262.164914
 30
0.0
 40
10.5324
100
AcDbArc
 50
319.533253
 51
40.46674699999999
  0
ARC
  5
511
330
36
100
AcDbEntity
  8
0
 62
     3
100
AcDbCircle
 10
-77.29843599999998
 20
-257.029714
 30
0.0
 40
2.62
100
AcDbArc
 50
40.46674699999999
 51
90.0
  0
LINE
  5
512
330
36
100
AcDbEntity
  8
0
 62
     3
100
AcDbLine
 10
-82.682871
 20
-254.409714
 30
0.0
 11
-77.29843599999998
 21
-254.409714
 31
0.0
  0
ARC
  5
513
330
36
100
AcDbEntity
  8
0
 62
     3
100
AcDbCircle
 10
-77.29843599999998
 20
-267.300114
 30
0.0
 40
2.62
100
AcDbArc
 50
270.0
 51
319.533253
  0
LINE
  5
514
330
36
100
AcDbEntity
  8
0
 62
     3
100
AcDbLine
 10
-82.682871
 20
-269.920114
 30
0.0
 11
-77.29843599999998
 21
-269.920114
 31
0.0
  0
ARC
  5
515
330
36
100
AcDbEntity
  8
0
 62
     3
100
AcDbCircle
 10
-82.682871
 20
-267.300114
 30
0.0
 40
2.62
100
AcDbArc
 50
220.466747
 51
270.0
  0
ARC
  5
516
330
36
100
AcDbEntity
  8
0
 62
     3
100
AcDbCircle
 10
-103.380871
 20
-267.300114
 30
0.0
 40
2.62
100
AcDbArc
 50
220.466747
 51
270.0
  0
LINE
  5
517
330
36
100
AcDbEntity
  8
0
 62
     3
100
AcDbLine
 10
-97.99643600000001
 20
-269.920114
 30
0.0
 11
-103.380871
 21
-269.920114
 31
0.0
  0
ARC
  5
518
330
36
100
AcDbEntity
  8
0
 62
     3
100
AcDbCircle
 10
-97.99643600000001
 20
-267.300114
 30
0.0
 40
2.62
100
AcDbArc
 50
270.0
 51
319.533253
  0
LINE
  5
519
330
36
100
AcDbEntity
  8
0
 62
     3
100
AcDbLine
 10
-97.99643600000001
 20
-254.409714
 30
0.0
 11
-82.682871
 21
-254.409714
 31
0.0
  0
LINE
  5
51A
330
36
100
AcDbEntity
  8
0
 62
     3
100
AcDbLine
 10
-97.99643600000001
 20
-269.920114
 30
0.0
 11
-82.682871
 21
-269.920114
 31
0.0
  0
LINE
  5
51B
330
36
100
AcDbEntity
  8
0
 62
     3
100
AcDbLine
 10
-144.982957
 20
-254.409714
 30
0.0
 11
-129.669392
 21
-254.409714
 31
0.0
  0
LINE
  5
51C
330
36
100
AcDbEntity
  8
0
 62
     3
100
AcDbLine
 10
-144.982957
 20
-269.920114
 30
0.0
 11
-129.669392
 21
-269.920114
 31
0.0
  0
TEXT
  5
51D
330
36
100
AcDbEntity
  8
0
 62
     3
100
AcDbText
 10
-287.6673306666667
 20
-450.262795
 30
0.0
 40
3.2
  1
2Pプラグ付き電線
 41
0.8
  7
高3.2
100
AcDbText
  0
TEXT
  5
51E
330
36
100
AcDbEntity
  8
0
 62
     3
100
AcDbText
 10
-287.6673306666667
 20
-465.262795
 30
0.0
 40
3.2
  1
ワンタッチコンセント
 41
0.8
  7
高3.2
100
AcDbText
  0
TEXT
  5
51F
330
36
100
AcDbEntity
  8
0
 62
     3
100
AcDbText
 10
-217.3327606666666
 20
-465.262795
 30
0.0
 40
3.2
  1
2PO-W
 41
0.8
  7
高3.2
100
AcDbText
  0
CIRCLE
  5
526
330
36
100
AcDbEntity
  8
0
100
AcDbCircle
 10
-51.026039
 20
-233.963272
 30
0.0
 40
5.0
  0
TEXT
  5
527
330
36
100
AcDbEntity
  8
0
 62
     4
100
AcDbText
 10
-52.18193819433214
 20
-237.0320871492088
 30
0.0
 40
6.299999999999998
  1
1
  7
高6.3
100
AcDbText
  0
CIRCLE
  5
52E
330
36
100
AcDbEntity
  8
0
100
AcDbCircle
 10
-70.984404
 20
-233.963272
 30
0.0
 40
5.0
  0
TEXT
  5
52F
330
36
100
AcDbEntity
  8
0
 62
     4
100
AcDbText
 10
-73.13140154711388
 20
-237.2836613348479
 30
0.0
 40
6.299999999999998
  1
2
  7
高6.3
100
AcDbText
  0
CIRCLE
  5
536
330
36
100
AcDbEntity
  8
0
100
AcDbCircle
 10
-122.420249
 20
-233.963272
 30
0.0
 40
5.0
  0
TEXT
  5
537
330
36
100
AcDbEntity
  8
0
 62
     4
100
AcDbText
 10
-124.5672465471138
 20
-237.2836613348479
 30
0.0
 40
6.299999999999998
  1
3
  7
高6.3
100
AcDbText
  0
CIRCLE
  5
53E
330
36
100
AcDbEntity
  8
0
100
AcDbCircle
 10
-153.819125
 20
-233.963272
 30
0.0
 40
5.0
  0
TEXT
  5
53F
330
36
100
AcDbEntity
  8
0
 62
     4
100
AcDbText
 10
-155.9661225471139
 20
-237.2836613348479
 30
0.0
 40
6.299999999999998
  1
4
  7
高6.3
100
AcDbText
  0
TEXT
  5
540
330
36
100
AcDbEntity
  8
0
 62
     3
100
AcDbText
 10
-0.5361554089731726
 20
-453.708449
 30
0.0
 40
4.5
  1
ハンドリール
  7
高4.5
100
AcDbText
  0
TEXT
  5
541
330
36
100
AcDbEntity
  8
0
 62
     3
100
AcDbText
 10
-217.3327606666666
 20
-450.262795
 30
0.0
 40
3.2
  1
2.0sqx2cx10m
 41
0.8
  7
高3.2
100
AcDbText
  0
CIRCLE
  5
548
330
36
100
AcDbEntity
  8
0
100
AcDbCircle
 10
23.828442
 20
-269.594967
 30
0.0
 40
5.0
  0
TEXT
  5
549
330
36
100
AcDbEntity
  8
0
 62
     4
100
AcDbText
 10
21.68144445288613
 20
-272.9153563348479
 30
0.0
 40
6.299999999999998
  1
7
  7
高6.3
100
AcDbText
  0
ARC
  5
54A
330
36
100
AcDbEntity
  8
0
 62
     3
100
AcDbCircle
 10
-150.367392
 20
-257.029714
 30
0.0
 40
2.62
100
AcDbArc
 50
90.0
 51
139.533253
  0
ARC
  5
54B
330
36
100
AcDbEntity
  8
0
 62
     3
100
AcDbCircle
 10
-144.347774
 20
-262.164914
 30
0.0
 40
10.5324
100
AcDbArc
 50
139.533253
 51
220.466747
  0
LINE
  5
54C
330
36
100
AcDbEntity
  8
0
 62
     3
100
AcDbLine
 10
-144.982957
 20
-254.409714
 30
0.0
 11
-150.367392
 21
-254.409714
 31
0.0
  0
ARC
  5
54D
330
36
100
AcDbEntity
  8
0
 62
     3
100
AcDbCircle
 10
-150.367392
 20
-267.300114
 30
0.0
 40
2.62
100
AcDbArc
 50
220.466747
 51
270.0
  0
CIRCLE
  5
54E
330
36
100
AcDbEntity
  8
0
100
AcDbCircle
 10
-113.882624
 20
-272.664914
 30
0.0
 40
1.75
  0
CIRCLE
  5
54F
330
36
100
AcDbEntity
  8
0
100
AcDbCircle
 10
-113.882624
 20
-251.664914
 30
0.0
 40
1.75
  0
CIRCLE
  5
550
330
36
100
AcDbEntity
  8
0
100
AcDbCircle
 10
-160.133749
 20
-256.557966
 30
0.0
 40
1.75
  0
CIRCLE
  5
551
330
36
100
AcDbEntity
  8
0
100
AcDbCircle
 10
-160.133749
 20
-267.771861
 30
0.0
 40
1.75
  0
CIRCLE
  5
552
330
36
100
AcDbEntity
  8
0
100
AcDbCircle
 10
-67.63149799999999
 20
-256.557966
 30
0.0
 40
1.75
  0
CIRCLE
  5
553
330
36
100
AcDbEntity
  8
0
100
AcDbCircle
 10
-67.63149799999999
 20
-267.771861
 30
0.0
 40
1.75
  0
CIRCLE
  5
554
330
36
100
AcDbEntity
  8
0
100
AcDbCircle
 10
-29.882624
 20
-303.330898
 30
0.0
 40
2.0
  0
CIRCLE
  5
555
330
36
100
AcDbEntity
  8
0
100
AcDbCircle
 10
-67.94556599999999
 20
-316.422172
 30
0.0
 40
2.0
  0
CIRCLE
  5
556
330
36
100
AcDbEntity
  8
0
100
AcDbCircle
 10
-29.882624
 20
-356.524555
 30
0.0
 40
2.0
  0
CIRCLE
  5
557
330
36
100
AcDbEntity
  8
0
100
AcDbCircle
 10
-62.50121400000001
 20
-354.433281
 30
0.0
 40
1.125
  0
LINE
  5
558
330
36
100
AcDbEntity
  8
0
100
AcDbLine
 10
-60.56472199999999
 20
-354.933281
 30
0.0
 11
-60.006739
 21
-354.933281
 31
0.0
  0
LINE
  5
559
330
36
100
AcDbEntity
  8
0
100
AcDbLine
 10
-60.56472199999999
 20
-353.933281
 30
0.0
 11
-60.006739
 21
-353.933281
 31
0.0
  0
CIRCLE
  5
55A
330
36
100
AcDbEntity
  8
0
100
AcDbCircle
 10
-62.50121400000001
 20
-354.433281
 30
0.0
 40
2.0
  0
CIRCLE
  5
55B
330
36
100
AcDbEntity
  8
0
100
AcDbCircle
 10
-141.382624
 20
-354.433281
 30
0.0
 40
2.0
  0
TEXT
  5
565
330
36
100
AcDbEntity
  8
0
 62
     3
100
AcDbText
 10
-4.052230999999999
 20
-461.5392929999998
 30
0.0
 40
4.5
  1
HR-104-B-O
  7
高4.5
100
AcDbText
  0
TEXT
  5
566
330
36
100
AcDbEntity
  8
0
 62
     3
100
AcDbText
 10
42.71519824747678
 20
-485.0223259999999
 30
0.0
 40
6.299999999999998
  1
HR-104-B-O
 41
0.8
  7
高6.3
100
AcDbText
  0
TEXT
  5
567
330
36
100
AcDbEntity
  8
0
 62
     3
100
AcDbText
 10
71.6358127090532
 20
-445.598716
 30
0.0
 40
4.5
  1
5330
  7
高4.5
100
AcDbText
  0
TEXT
  5
568
330
36
100
AcDbEntity
  8
0
 62
     3
100
AcDbText
 10
-237.5429498333334
 20
-450.262795
 30
0.0
 40
3.2
  1
VCTF
 41
0.8
  7
高3.2
100
AcDbText
  0
LINE
  5
7E2
330
36
100
AcDbEntity
  8
0
 62
     3
100
AcDbLine
 10
-169.2606836780225
 20
-485.762795
 30
0.0
 11
-169.2606836780225
 21
-440.7627950000001
 31
0.0
  0
TEXT
  5
7E3
330
36
100
AcDbEntity
  8
0
 62
     3
100
AcDbText
 10
-187.9708728446892
 20
-475.262795
 30
0.0
 40
3.2
  1
-
 41
0.8
  7
高3.2
100
AcDbText
  0
TEXT
  5
7E4
330
36
100
AcDbEntity
  8
0
 62
     3
100
AcDbText
 10
-187.9708728446892
 20
-465.262795
 30
0.0
 40
3.2
  1
-
 41
0.8
  7
高3.2
100
AcDbText
  0
TEXT
  5
7E5
330
36
100
AcDbEntity
  8
0
 62
     3
100
AcDbText
 10
-187.9708728446892
 20
-460.262795
 30
0.0
 40
3.2
  1
-
 41
0.8
  7
高3.2
100
AcDbText
  0
TEXT
  5
7E6
330
36
100
AcDbEntity
  8
0
 62
     3
100
AcDbText
 10
-187.9708728446892
 20
-480.262795
 30
0.0
 40
3.2
  1
-
 41
0.8
  7
高3.2
100
AcDbText
  0
TEXT
  5
7E7
330
36
100
AcDbEntity
  8
0
 62
     3
100
AcDbText
 10
-187.9708728446892
 20
-455.262795
 30
0.0
 40
3.2
  1
-
 41
0.8
  7
高3.2
100
AcDbText
  0
TEXT
  5
7E8
330
36
100
AcDbEntity
  8
0
 62
     3
100
AcDbText
 10
-187.9708728446892
 20
-470.262795
 30
0.0
 40
3.2
  1
51812
 41
0.8
  7
高3.2
100
AcDbText
  0
TEXT
  5
7E9
330
36
100
AcDbEntity
  8
0
 62
     3
100
AcDbText
 10
-187.9708728446892
 20
-485.262795
 30
0.0
 40
3.2
  1
コード
 41
0.8
  7
高3.2
100
AcDbText
  0
TEXT
  5
7EA
330
36
100
AcDbEntity
  8
0
 62
     3
100
AcDbText
 10
-187.9708728446892
 20
-450.262795
 30
0.0
 40
3.2
  1
-
 41
0.8
  7
高3.2
100
AcDbText
  0
TEXT
  5
810
330
36
100
AcDbEntity
  8
0
 62
     3
100
AcDbText
 10
80.206286
 20
-221.262795
 30
0.0
 40
3.2
  1
担　当
  7
高3.2
100
AcDbText
  0
TEXT
  5
811
330
36
100
AcDbEntity
  8
0
 62
     3
100
AcDbText
 10
36.20628599999999
 20
-221.262795
 30
0.0
 40
3.2
  1
変更・追記内容
  7
高3.2
100
AcDbText
  0
TEXT
  5
812
330
36
100
AcDbEntity
  8
0
 62
     3
100
AcDbText
 10
11.31980100033924
 20
-225.9333335099083
 30
0.0
 40
2.0
  1
1
  7
高2
100
AcDbText
  0
TEXT
  5
813
330
36
100
AcDbEntity
  8
0
 62
     3
100
AcDbText
 10
11.01128952358193
 20
-231.1031502221812
 30
0.0
 40
2.0
  1
2
  7
高2
100
AcDbText
  0
TEXT
  5
814
330
36
100
AcDbEntity
  8
0
 62
     3
100
AcDbText
 10
18.20628599999999
 20
-221.262795
 30
0.0
 40
3.2
  1
日　付
  7
高3.2
100
AcDbText
  0
TEXT
  5
815
330
36
100
AcDbEntity
  8
0
 62
     3
100
AcDbText
 10
18.20628599999999
 20
-216.262795
 30
0.0
 40
3.2
  1
図　　　　面　　　　略　　　　歴
  7
高3.2
100
AcDbText
  0
TEXT
  5
816
330
36
100
AcDbEntity
  8
0
 62
     3
100
AcDbText
 10
8.206285999999991
 20
-221.262795
 30
0.0
 40
3.2
  1
記号
  7
高3.2
100
AcDbText
  0
LINE
  5
817
330
36
100
AcDbEntity
  8
0
100
AcDbLine
 10
11.70628599999999
 20
-227.9718989999999
 30
0.0
 11
9.806286000000012
 21
-231.262795
 31
0.0
  0
LINE
  5
818
330
36
100
AcDbEntity
  8
0
100
AcDbLine
 10
11.70628599999999
 20
-227.9718989999999
 30
0.0
 11
13.60628599999997
 21
-231.262795
 31
0.0
  0
LINE
  5
819
330
36
100
AcDbEntity
  8
0
100
AcDbLine
 10
9.806286000000012
 20
-231.262795
 30
0.0
 11
13.60628599999997
 21
-231.262795
 31
0.0
  0
LINE
  5
81A
330
36
100
AcDbEntity
  8
0
100
AcDbLine
 10
11.70628599999999
 20
-222.9718979999999
 30
0.0
 11
9.806286000000012
 21
-226.262795
 31
0.0
  0
LINE
  5
81B
330
36
100
AcDbEntity
  8
0
100
AcDbLine
 10
11.70628599999999
 20
-222.9718979999999
 30
0.0
 11
13.60628599999997
 21
-226.262795
 31
0.0
  0
LINE
  5
81C
330
36
100
AcDbEntity
  8
0
100
AcDbLine
 10
9.806286000000012
 20
-226.262795
 30
0.0
 11
13.60628599999997
 21
-226.262795
 31
0.0
  0
LINE
  5
81D
330
36
100
AcDbEntity
  8
0
 62
     3
100
AcDbLine
 10
6.706285999999991
 20
-216.762795
 30
0.0
 11
92.706286
 21
-216.762795
 31
0.0
  0
LINE
  5
81E
330
36
100
AcDbEntity
  8
0
 62
     3
100
AcDbLine
 10
6.706285999999991
 20
-221.762795
 30
0.0
 11
92.706286
 21
-221.762795
 31
0.0
  0
LINE
  5
81F
330
36
100
AcDbEntity
  8
0
 62
     7
100
AcDbLine
 10
6.706285999999991
 20
-226.762795
 30
0.0
 11
92.706286
 21
-226.762795
 31
0.0
  0
LINE
  5
820
330
36
100
AcDbEntity
  8
0
 62
     3
100
AcDbLine
 10
6.706285999999991
 20
-231.762795
 30
0.0
 11
92.706286
 21
-231.762795
 31
0.0
  0
LINE
  5
821
330
36
100
AcDbEntity
  8
0
 62
     7
100
AcDbLine
 10
78.70628599999993
 20
-231.762795
 30
0.0
 11
78.70628599999998
 21
-216.762795
 31
0.0
  0
LINE
  5
822
330
36
100
AcDbEntity
  8
0
 62
     7
100
AcDbLine
 10
34.70628599999999
 20
-231.762795
 30
0.0
 11
34.70628599999999
 21
-216.762795
 31
0.0
  0
LINE
  5
823
330
36
100
AcDbEntity
  8
0
 62
     7
100
AcDbLine
 10
16.70628599999999
 20
-231.762795
 30
0.0
 11
16.70628599999999
 21
-216.762795
 31
0.0
  0
LINE
  5
824
330
36
100
AcDbEntity
  8
0
 62
     3
100
AcDbLine
 10
6.706285999999991
 20
-231.762795
 30
0.0
 11
6.706285999999991
 21
-211.762795
 31
0.0
  0
TEXT
  5
825
330
36
100
AcDbEntity
  8
0
 62
     7
100
AcDbText
 10
80.206286
 20
-226.262795
 30
0.0
 40
2.5
  1
今村
  7
高2.5
100
AcDbText
  0
TEXT
  5
826
330
36
100
AcDbEntity
  8
0
 62
     7
100
AcDbText
 10
36.20628599999999
 20
-226.262795
 30
0.0
 40
2.5
  1
電源ランプ変更
  7
高2.5
100
AcDbText
  0
TEXT
  5
827
330
36
100
AcDbEntity
  8
0
 62
     7
100
AcDbText
 10
18.20628599999999
 20
-226.262795
 30
0.0
 40
2.5
  1
'12.11.27
  7
高2.5
100
AcDbText
  0
LINE
  5
89D
330
36
100
AcDbEntity
  8
0
 62
     7
100
AcDbLine
 10
-297.293714
 20
-480.762795
 30
0.0
 11
-169.2606836780224
 21
-480.762795
 31
0.0
  0
LINE
  5
89E
330
36
100
AcDbEntity
  8
0
 62
     7
100
AcDbLine
 10
-297.293714
 20
-475.762795
 30
0.0
 11
-169.2606836780224
 21
-475.762795
 31
0.0
  0
LINE
  5
89F
330
36
100
AcDbEntity
  8
0
 62
     7
100
AcDbLine
 10
-297.293714
 20
-470.762795
 30
0.0
 11
-169.2606836780225
 21
-470.762795
 31
0.0
  0
LINE
  5
8A0
330
36
100
AcDbEntity
  8
0
 62
     7
100
AcDbLine
 10
-297.293714
 20
-465.762795
 30
0.0
 11
-169.2606836780225
 21
-465.762795
 31
0.0
  0
LINE
  5
8A1
330
36
100
AcDbEntity
  8
0
 62
     7
100
AcDbLine
 10
-297.293714
 20
-460.762795
 30
0.0
 11
-169.2606836780225
 21
-460.762795
 31
0.0
  0
LINE
  5
8A2
330
36
100
AcDbEntity
  8
0
 62
     7
100
AcDbLine
 10
-297.293714
 20
-455.762795
 30
0.0
 11
-169.2606836780225
 21
-455.7627950000001
 31
0.0
  0
LINE
  5
8A3
330
36
100
AcDbEntity
  8
0
 62
     7
100
AcDbLine
 10
-297.293714
 20
-450.762795
 30
0.0
 11
-169.2606836780225
 21
-450.762795
 31
0.0
  0
LINE
  5
8A4
330
36
100
AcDbEntity
  8
0
 62
     7
100
AcDbLine
 10
-297.293714
 20
-445.762795
 30
0.0
 11
-169.2606836780225
 21
-445.762795
 31
0.0
  0
LINE
  5
8A5
330
36
100
AcDbEntity
  8
0
 62
     3
100
AcDbLine
 10
-297.293714
 20
-440.762795
 30
0.0
 11
-169.2606836780225
 21
-440.762795
 31
0.0
  0
LINE
  5
997
330
36
100
AcDbEntity
  8
0
100
AcDbLine
 10
-159.143883
 20
-387.566581
 30
0.0
 11
-159.666665
 21
-389.57005
 31
0.0
  0
LINE
  5
998
330
36
100
AcDbEntity
  8
0
100
AcDbLine
 10
-159.666665
 20
-389.57005
 30
0.0
 11
-158.212188
 21
-388.096386
 31
0.0
  0
LINE
  5
999
330
36
100
AcDbEntity
  8
0
100
AcDbLine
 10
-71.67809399999999
 20
-388.253664
 30
0.0
 11
-70.07987199999999
 21
-389.57005
 31
0.0
  0
LINE
  5
99A
330
36
100
AcDbEntity
  8
0
100
AcDbLine
 10
-70.07987199999999
 20
-389.57005
 30
0.0
 11
-70.80578
 21
-387.630915
 31
0.0
  0
LINE
  5
99B
330
36
100
AcDbEntity
  8
0
100
AcDbLine
 10
-14.564287
 20
-310.46331
 30
0.0
 11
-15.510622
 21
-312.329211
 31
0.0
  0
LINE
  5
99C
330
36
100
AcDbEntity
  8
0
100
AcDbLine
 10
-15.510622
 20
-312.329211
 30
0.0
 11
-15.649273
 21
-314.137399
 31
0.0
  0
LINE
  5
99D
330
36
100
AcDbEntity
  8
0
100
AcDbLine
 10
-15.649273
 20
-314.137399
 30
0.0
 11
-15.139597
 21
-315.178513
 31
0.0
  0
LINE
  5
99E
330
36
100
AcDbEntity
  8
0
100
AcDbLine
 10
-15.139597
 20
-315.178513
 30
0.0
 11
-14.65941
 21
-316.212248
 31
0.0
  0
LINE
  5
99F
330
36
100
AcDbEntity
  8
0
100
AcDbLine
 10
-14.65941
 20
-316.212248
 30
0.0
 11
-14.92171
 21
-317.902913
 31
0.0
  0
LINE
  5
9A0
330
36
100
AcDbEntity
  8
0
100
AcDbLine
 10
-14.92171
 20
-317.902913
 30
0.0
 11
-16.000036
 21
-319.627724
 31
0.0
  0
LINE
  5
9A1
330
36
100
AcDbEntity
  8
0
100
AcDbLine
 10
-105.524783
 20
-263.368751
 30
0.0
 11
-105.56019
 21
-263.374281
 31
0.0
  0
LINE
  5
9A2
330
36
100
AcDbEntity
  8
0
100
AcDbLine
 10
-105.56019
 20
-263.374281
 30
0.0
 11
-105.594094
 21
-263.380922
 31
0.0
  0
LINE
  5
9A3
330
36
100
AcDbEntity
  8
0
100
AcDbLine
 10
-105.594094
 20
-263.380922
 30
0.0
 11
-105.626233
 21
-263.388623
 31
0.0
  0
LINE
  5
9A4
330
36
100
AcDbEntity
  8
0
100
AcDbLine
 10
-105.626233
 20
-263.388623
 30
0.0
 11
-105.656358
 21
-263.397325
 31
0.0
  0
LINE
  5
9A5
330
36
100
AcDbEntity
  8
0
100
AcDbLine
 10
-105.656358
 20
-263.397325
 30
0.0
 11
-105.684237
 21
-263.40696
 31
0.0
  0
LINE
  5
9A6
330
36
100
AcDbEntity
  8
0
100
AcDbLine
 10
-105.684237
 20
-263.40696
 30
0.0
 11
-105.709654
 21
-263.417454
 31
0.0
  0
LINE
  5
9A7
330
36
100
AcDbEntity
  8
0
100
AcDbLine
 10
-105.709654
 20
-263.417454
 30
0.0
 11
-105.732413
 21
-263.428726
 31
0.0
  0
LINE
  5
9A8
330
36
100
AcDbEntity
  8
0
100
AcDbLine
 10
-105.732413
 20
-263.428726
 30
0.0
 11
-105.752337
 21
-263.440688
 31
0.0
  0
LINE
  5
9A9
330
36
100
AcDbEntity
  8
0
100
AcDbLine
 10
-105.752337
 20
-263.440688
 30
0.0
 11
-105.769273
 21
-263.453248
 31
0.0
  0
LINE
  5
9AA
330
36
100
AcDbEntity
  8
0
100
AcDbLine
 10
-105.769273
 20
-263.453248
 30
0.0
 11
-105.78309
 21
-263.466309
 31
0.0
  0
LINE
  5
9AB
330
36
100
AcDbEntity
  8
0
100
AcDbLine
 10
-105.78309
 20
-263.466309
 30
0.0
 11
-105.793682
 21
-263.479771
 31
0.0
  0
LINE
  5
9AC
330
36
100
AcDbEntity
  8
0
100
AcDbLine
 10
-105.793682
 20
-263.479771
 30
0.0
 11
-105.800965
 21
-263.493528
 31
0.0
  0
LINE
  5
9AD
330
36
100
AcDbEntity
  8
0
100
AcDbLine
 10
-105.800965
 20
-263.493528
 30
0.0
 11
-105.804884
 21
-263.507475
 31
0.0
  0
LINE
  5
9AE
330
36
100
AcDbEntity
  8
0
100
AcDbLine
 10
-105.804884
 20
-263.507475
 30
0.0
 11
-105.805409
 21
-263.521503
 31
0.0
  0
LINE
  5
9AF
330
36
100
AcDbEntity
  8
0
100
AcDbLine
 10
-105.805409
 20
-263.521503
 30
0.0
 11
-105.802535
 21
-263.535506
 31
0.0
  0
LINE
  5
9B0
330
36
100
AcDbEntity
  8
0
100
AcDbLine
 10
-105.802535
 20
-263.535506
 30
0.0
 11
-105.796285
 21
-263.549373
 31
0.0
  0
LINE
  5
9B1
330
36
100
AcDbEntity
  8
0
100
AcDbLine
 10
-105.796285
 20
-263.549373
 30
0.0
 11
-105.786708
 21
-263.562998
 31
0.0
  0
LINE
  5
9B2
330
36
100
AcDbEntity
  8
0
100
AcDbLine
 10
-105.786708
 20
-263.562998
 30
0.0
 11
-105.773876
 21
-263.5762759999999
 31
0.0
  0
LINE
  5
9B3
330
36
100
AcDbEntity
  8
0
100
AcDbLine
 10
-105.773876
 20
-263.5762759999999
 30
0.0
 11
-105.757889
 21
-263.589104
 31
0.0
  0
LINE
  5
9B4
330
36
100
AcDbEntity
  8
0
100
AcDbLine
 10
-105.757889
 20
-263.589104
 30
0.0
 11
-105.738872
 21
-263.601383
 31
0.0
  0
LINE
  5
9B5
330
36
100
AcDbEntity
  8
0
100
AcDbLine
 10
-105.738872
 20
-263.601383
 30
0.0
 11
-105.71697
 21
-263.613018
 31
0.0
  0
LINE
  5
9B6
330
36
100
AcDbEntity
  8
0
100
AcDbLine
 10
-105.71697
 20
-263.613018
 30
0.0
 11
-105.692354
 21
-263.623919
 31
0.0
  0
LINE
  5
9B7
330
36
100
AcDbEntity
  8
0
100
AcDbLine
 10
-105.692354
 20
-263.623919
 30
0.0
 11
-105.665212
 21
-263.634002
 31
0.0
  0
LINE
  5
9B8
330
36
100
AcDbEntity
  8
0
100
AcDbLine
 10
-105.665212
 20
-263.634002
 30
0.0
 11
-105.635756
 21
-263.643189
 31
0.0
  0
LINE
  5
9B9
330
36
100
AcDbEntity
  8
0
100
AcDbLine
 10
-105.635756
 20
-263.643189
 30
0.0
 11
-105.604213
 21
-263.651409
 31
0.0
  0
LINE
  5
9BA
330
36
100
AcDbEntity
  8
0
100
AcDbLine
 10
-105.604213
 20
-263.651409
 30
0.0
 11
-105.570827
 21
-263.658597
 31
0.0
  0
LINE
  5
9BB
330
36
100
AcDbEntity
  8
0
100
AcDbLine
 10
-105.570827
 20
-263.658597
 30
0.0
 11
-105.535855
 21
-263.6647
 31
0.0
  0
LINE
  5
9BC
330
36
100
AcDbEntity
  8
0
100
AcDbLine
 10
-105.535855
 20
-263.6647
 30
0.0
 11
-105.499568
 21
-263.669669
 31
0.0
  0
LINE
  5
9BD
330
36
100
AcDbEntity
  8
0
100
AcDbLine
 10
-105.499568
 20
-263.669669
 30
0.0
 11
-105.462247
 21
-263.673467
 31
0.0
  0
LINE
  5
9BE
330
36
100
AcDbEntity
  8
0
100
AcDbLine
 10
-105.462247
 20
-263.673467
 30
0.0
 11
-105.42418
 21
-263.676063
 31
0.0
  0
LINE
  5
9BF
330
36
100
AcDbEntity
  8
0
100
AcDbLine
 10
-105.42418
 20
-263.676063
 30
0.0
 11
-105.385661
 21
-263.677438
 31
0.0
  0
LINE
  5
9C0
330
36
100
AcDbEntity
  8
0
100
AcDbLine
 10
-105.385661
 20
-263.677438
 30
0.0
 11
-105.3469879999999
 21
-263.677581
 31
0.0
  0
LINE
  5
9C1
330
36
100
AcDbEntity
  8
0
100
AcDbLine
 10
-105.3469879999999
 20
-263.677581
 30
0.0
 11
-105.30846
 21
-263.676491
 31
0.0
  0
LINE
  5
9C2
330
36
100
AcDbEntity
  8
0
100
AcDbLine
 10
-105.30846
 20
-263.676491
 30
0.0
 11
-105.270375
 21
-263.674177
 31
0.0
  0
LINE
  5
9C3
330
36
100
AcDbEntity
  8
0
100
AcDbLine
 10
-105.270375
 20
-263.674177
 30
0.0
 11
-105.233027
 21
-263.670656
 31
0.0
  0
LINE
  5
9C4
330
36
100
AcDbEntity
  8
0
100
AcDbLine
 10
-105.233027
 20
-263.670656
 30
0.0
 11
-105.196704
 21
-263.665955
 31
0.0
  0
LINE
  5
9C5
330
36
100
AcDbEntity
  8
0
100
AcDbLine
 10
-105.196704
 20
-263.665955
 30
0.0
 11
-105.161689
 21
-263.660111
 31
0.0
  0
LINE
  5
9C6
330
36
100
AcDbEntity
  8
0
100
AcDbLine
 10
-105.161689
 20
-263.660111
 30
0.0
 11
-105.12825
 21
-263.65317
 31
0.0
  0
LINE
  5
9C7
330
36
100
AcDbEntity
  8
0
100
AcDbLine
 10
-105.12825
 20
-263.65317
 30
0.0
 11
-105.096647
 21
-263.645184
 31
0.0
  0
LINE
  5
9C8
330
36
100
AcDbEntity
  8
0
100
AcDbLine
 10
-105.096647
 20
-263.645184
 30
0.0
 11
-105.067124
 21
-263.636215
 31
0.0
  0
LINE
  5
9C9
330
36
100
AcDbEntity
  8
0
100
AcDbLine
 10
-105.067124
 20
-263.636215
 30
0.0
 11
-105.039908
 21
-263.626334
 31
0.0
  0
LINE
  5
9CA
330
36
100
AcDbEntity
  8
0
100
AcDbLine
 10
-105.039908
 20
-263.626334
 30
0.0
 11
-105.015212
 21
-263.615615
 31
0.0
  0
LINE
  5
9CB
330
36
100
AcDbEntity
  8
0
100
AcDbLine
 10
-105.015212
 20
-263.615615
 30
0.0
 11
-104.993225
 21
-263.604142
 31
0.0
  0
LINE
  5
9CC
330
36
100
AcDbEntity
  8
0
100
AcDbLine
 10
-104.993225
 20
-263.604142
 30
0.0
 11
-104.974117
 21
-263.592005
 31
0.0
  0
LINE
  5
9CD
330
36
100
AcDbEntity
  8
0
100
AcDbLine
 10
-104.974117
 20
-263.592005
 30
0.0
 11
-104.958036
 21
-263.579295
 31
0.0
  0
LINE
  5
9CE
330
36
100
AcDbEntity
  8
0
100
AcDbLine
 10
-104.958036
 20
-263.579295
 30
0.0
 11
-104.945106
 21
-263.566112
 31
0.0
  0
LINE
  5
9CF
330
36
100
AcDbEntity
  8
0
100
AcDbLine
 10
-104.945106
 20
-263.566112
 30
0.0
 11
-104.935428
 21
-263.552558
 31
0.0
  0
LINE
  5
9D0
330
36
100
AcDbEntity
  8
0
100
AcDbLine
 10
-104.935428
 20
-263.552558
 30
0.0
 11
-104.929075
 21
-263.538738
 31
0.0
  0
LINE
  5
9D1
330
36
100
AcDbEntity
  8
0
100
AcDbLine
 10
-104.929075
 20
-263.538738
 30
0.0
 11
-104.926098
 21
-263.524757
 31
0.0
  0
LINE
  5
9D2
330
36
100
AcDbEntity
  8
0
100
AcDbLine
 10
-104.926098
 20
-263.524757
 30
0.0
 11
-104.926519
 21
-263.510725
 31
0.0
  0
LINE
  5
9D3
330
36
100
AcDbEntity
  8
0
100
AcDbLine
 10
-104.926519
 20
-263.510725
 30
0.0
 11
-104.930335
 21
-263.496749
 31
0.0
  0
LINE
  5
9D4
330
36
100
AcDbEntity
  8
0
100
AcDbLine
 10
-104.930335
 20
-263.496749
 30
0.0
 11
-104.937516
 21
-263.482939
 31
0.0
  0
LINE
  5
9D5
330
36
100
AcDbEntity
  8
0
100
AcDbLine
 10
-104.937516
 20
-263.482939
 30
0.0
 11
-104.948008
 21
-263.469399
 31
0.0
  0
LINE
  5
9D6
330
36
100
AcDbEntity
  8
0
100
AcDbLine
 10
-104.948008
 20
-263.469399
 30
0.0
 11
-104.961728
 21
-263.456236
 31
0.0
  0
LINE
  5
9D7
330
36
100
AcDbEntity
  8
0
100
AcDbLine
 10
-104.961728
 20
-263.456236
 30
0.0
 11
-104.97857
 21
-263.4435509999999
 31
0.0
  0
LINE
  5
9D8
330
36
100
AcDbEntity
  8
0
100
AcDbLine
 10
-104.97857
 20
-263.4435509999999
 30
0.0
 11
-104.998406
 21
-263.431442
 31
0.0
  0
LINE
  5
9D9
330
36
100
AcDbEntity
  8
0
100
AcDbLine
 10
-104.998406
 20
-263.431442
 30
0.0
 11
-105.021081
 21
-263.420002
 31
0.0
  0
LINE
  5
9DA
330
36
100
AcDbEntity
  8
0
100
AcDbLine
 10
-105.021081
 20
-263.420002
 30
0.0
 11
-105.046419
 21
-263.4093200000001
 31
0.0
  0
LINE
  5
9DB
330
36
100
AcDbEntity
  8
0
100
AcDbLine
 10
-105.046419
 20
-263.4093200000001
 30
0.0
 11
-105.074226
 21
-263.399479
 31
0.0
  0
LINE
  5
9DC
330
36
100
AcDbEntity
  8
0
100
AcDbLine
 10
-105.074226
 20
-263.399479
 30
0.0
 11
-105.104286
 21
-263.390555
 31
0.0
  0
LINE
  5
9DD
330
36
100
AcDbEntity
  8
0
100
AcDbLine
 10
-105.104286
 20
-263.390555
 30
0.0
 11
-105.136367
 21
-263.382616
 31
0.0
  0
LINE
  5
9DE
330
36
100
AcDbEntity
  8
0
100
AcDbLine
 10
-105.136367
 20
-263.382616
 30
0.0
 11
-105.170221
 21
-263.375724
 31
0.0
  0
LINE
  5
9DF
330
36
100
AcDbEntity
  8
0
100
AcDbLine
 10
-105.170221
 20
-263.375724
 30
0.0
 11
-105.205586
 21
-263.369932
 31
0.0
  0
LINE
  5
9E0
330
36
100
AcDbEntity
  8
0
100
AcDbLine
 10
-152.620939
 20
-263.439978
 30
0.0
 11
-152.656346
 21
-263.445508
 31
0.0
  0
LINE
  5
9E1
330
36
100
AcDbEntity
  8
0
100
AcDbLine
 10
-152.656346
 20
-263.445508
 30
0.0
 11
-152.69025
 21
-263.45215
 31
0.0
  0
LINE
  5
9E2
330
36
100
AcDbEntity
  8
0
100
AcDbLine
 10
-152.69025
 20
-263.45215
 30
0.0
 11
-152.722389
 21
-263.459851
 31
0.0
  0
LINE
  5
9E3
330
36
100
AcDbEntity
  8
0
100
AcDbLine
 10
-152.722389
 20
-263.459851
 30
0.0
 11
-152.752514
 21
-263.468553
 31
0.0
  0
LINE
  5
9E4
330
36
100
AcDbEntity
  8
0
100
AcDbLine
 10
-152.752514
 20
-263.468553
 30
0.0
 11
-152.780393
 21
-263.478188
 31
0.0
  0
LINE
  5
9E5
330
36
100
AcDbEntity
  8
0
100
AcDbLine
 10
-152.780393
 20
-263.478188
 30
0.0
 11
-152.80581
 21
-263.488682
 31
0.0
  0
LINE
  5
9E6
330
36
100
AcDbEntity
  8
0
100
AcDbLine
 10
-152.80581
 20
-263.488682
 30
0.0
 11
-152.828568
 21
-263.499953
 31
0.0
  0
LINE
  5
9E7
330
36
100
AcDbEntity
  8
0
100
AcDbLine
 10
-152.828568
 20
-263.499953
 30
0.0
 11
-152.848493
 21
-263.511915
 31
0.0
  0
LINE
  5
9E8
330
36
100
AcDbEntity
  8
0
100
AcDbLine
 10
-152.848493
 20
-263.511915
 30
0.0
 11
-152.865429
 21
-263.524476
 31
0.0
  0
LINE
  5
9E9
330
36
100
AcDbEntity
  8
0
100
AcDbLine
 10
-152.865429
 20
-263.524476
 30
0.0
 11
-152.879246
 21
-263.537537
 31
0.0
  0
LINE
  5
9EA
330
36
100
AcDbEntity
  8
0
100
AcDbLine
 10
-152.879246
 20
-263.537537
 30
0.0
 11
-152.889837
 21
-263.550998
 31
0.0
  0
LINE
  5
9EB
330
36
100
AcDbEntity
  8
0
100
AcDbLine
 10
-152.889837
 20
-263.550998
 30
0.0
 11
-152.897121
 21
-263.564755
 31
0.0
  0
LINE
  5
9EC
330
36
100
AcDbEntity
  8
0
100
AcDbLine
 10
-152.897121
 20
-263.564755
 30
0.0
 11
-152.90104
 21
-263.578702
 31
0.0
  0
LINE
  5
9ED
330
36
100
AcDbEntity
  8
0
100
AcDbLine
 10
-152.90104
 20
-263.578702
 30
0.0
 11
-152.901565
 21
-263.592731
 31
0.0
  0
LINE
  5
9EE
330
36
100
AcDbEntity
  8
0
100
AcDbLine
 10
-152.901565
 20
-263.592731
 30
0.0
 11
-152.898691
 21
-263.606733
 31
0.0
  0
LINE
  5
9EF
330
36
100
AcDbEntity
  8
0
100
AcDbLine
 10
-152.898691
 20
-263.606733
 30
0.0
 11
-152.892441
 21
-263.6206
 31
0.0
  0
LINE
  5
9F0
330
36
100
AcDbEntity
  8
0
100
AcDbLine
 10
-152.892441
 20
-263.6206
 30
0.0
 11
-152.882863
 21
-263.634226
 31
0.0
  0
LINE
  5
9F1
330
36
100
AcDbEntity
  8
0
100
AcDbLine
 10
-152.882863
 20
-263.634226
 30
0.0
 11
-152.870032
 21
-263.647504
 31
0.0
  0
LINE
  5
9F2
330
36
100
AcDbEntity
  8
0
100
AcDbLine
 10
-152.870032
 20
-263.647504
 30
0.0
 11
-152.854045
 21
-263.660332
 31
0.0
  0
LINE
  5
9F3
330
36
100
AcDbEntity
  8
0
100
AcDbLine
 10
-152.854045
 20
-263.660332
 30
0.0
 11
-152.835028
 21
-263.672611
 31
0.0
  0
LINE
  5
9F4
330
36
100
AcDbEntity
  8
0
100
AcDbLine
 10
-152.835028
 20
-263.672611
 30
0.0
 11
-152.813126
 21
-263.684246
 31
0.0
  0
LINE
  5
9F5
330
36
100
AcDbEntity
  8
0
100
AcDbLine
 10
-152.813126
 20
-263.684246
 30
0.0
 11
-152.788509
 21
-263.695147
 31
0.0
  0
LINE
  5
9F6
330
36
100
AcDbEntity
  8
0
100
AcDbLine
 10
-152.788509
 20
-263.695147
 30
0.0
 11
-152.761368
 21
-263.70523
 31
0.0
  0
LINE
  5
9F7
330
36
100
AcDbEntity
  8
0
100
AcDbLine
 10
-152.761368
 20
-263.70523
 30
0.0
 11
-152.731912
 21
-263.714416
 31
0.0
  0
LINE
  5
9F8
330
36
100
AcDbEntity
  8
0
100
AcDbLine
 10
-152.731912
 20
-263.714416
 30
0.0
 11
-152.700369
 21
-263.722636
 31
0.0
  0
LINE
  5
9F9
330
36
100
AcDbEntity
  8
0
100
AcDbLine
 10
-152.700369
 20
-263.722636
 30
0.0
 11
-152.666982
 21
-263.729825
 31
0.0
  0
LINE
  5
9FA
330
36
100
AcDbEntity
  8
0
100
AcDbLine
 10
-152.666982
 20
-263.729825
 30
0.0
 11
-152.632011
 21
-263.735928
 31
0.0
  0
LINE
  5
9FB
330
36
100
AcDbEntity
  8
0
100
AcDbLine
 10
-152.632011
 20
-263.735928
 30
0.0
 11
-152.595724
 21
-263.740897
 31
0.0
  0
LINE
  5
9FC
330
36
100
AcDbEntity
  8
0
100
AcDbLine
 10
-152.595724
 20
-263.740897
 30
0.0
 11
-152.558403
 21
-263.744694
 31
0.0
  0
LINE
  5
9FD
330
36
100
AcDbEntity
  8
0
100
AcDbLine
 10
-152.558403
 20
-263.744694
 30
0.0
 11
-152.520336
 21
-263.74729
 31
0.0
  0
LINE
  5
9FE
330
36
100
AcDbEntity
  8
0
100
AcDbLine
 10
-152.520336
 20
-263.74729
 30
0.0
 11
-152.481817
 21
-263.748665
 31
0.0
  0
LINE
  5
9FF
330
36
100
AcDbEntity
  8
0
100
AcDbLine
 10
-152.481817
 20
-263.748665
 30
0.0
 11
-152.443144
 21
-263.748808
 31
0.0
  0
LINE
  5
A00
330
36
100
AcDbEntity
  8
0
100
AcDbLine
 10
-152.443144
 20
-263.748808
 30
0.0
 11
-152.404616
 21
-263.747719
 31
0.0
  0
LINE
  5
A01
330
36
100
AcDbEntity
  8
0
100
AcDbLine
 10
-152.404616
 20
-263.747719
 30
0.0
 11
-152.366531
 21
-263.745404
 31
0.0
  0
LINE
  5
A02
330
36
100
AcDbEntity
  8
0
100
AcDbLine
 10
-152.366531
 20
-263.745404
 30
0.0
 11
-152.329183
 21
-263.741883
 31
0.0
  0
LINE
  5
A03
330
36
100
AcDbEntity
  8
0
100
AcDbLine
 10
-152.329183
 20
-263.741883
 30
0.0
 11
-152.29286
 21
-263.737182
 31
0.0
  0
LINE
  5
A04
330
36
100
AcDbEntity
  8
0
100
AcDbLine
 10
-152.29286
 20
-263.737182
 30
0.0
 11
-152.257844
 21
-263.731339
 31
0.0
  0
LINE
  5
A05
330
36
100
AcDbEntity
  8
0
100
AcDbLine
 10
-152.257844
 20
-263.731339
 30
0.0
 11
-152.224405
 21
-263.724397
 31
0.0
  0
LINE
  5
A06
330
36
100
AcDbEntity
  8
0
100
AcDbLine
 10
-152.224405
 20
-263.724397
 30
0.0
 11
-152.192802
 21
-263.716411
 31
0.0
  0
LINE
  5
A07
330
36
100
AcDbEntity
  8
0
100
AcDbLine
 10
-152.192802
 20
-263.716411
 30
0.0
 11
-152.163279
 21
-263.707443
 31
0.0
  0
LINE
  5
A08
330
36
100
AcDbEntity
  8
0
100
AcDbLine
 10
-152.163279
 20
-263.707443
 30
0.0
 11
-152.1360639999999
 21
-263.697561
 31
0.0
  0
LINE
  5
A09
330
36
100
AcDbEntity
  8
0
100
AcDbLine
 10
-152.1360639999999
 20
-263.697561
 30
0.0
 11
-152.111367
 21
-263.686842
 31
0.0
  0
LINE
  5
A0A
330
36
100
AcDbEntity
  8
0
100
AcDbLine
 10
-152.111367
 20
-263.686842
 30
0.0
 11
-152.08938
 21
-263.67537
 31
0.0
  0
LINE
  5
A0B
330
36
100
AcDbEntity
  8
0
100
AcDbLine
 10
-152.08938
 20
-263.67537
 30
0.0
 11
-152.070272
 21
-263.663232
 31
0.0
  0
LINE
  5
A0C
330
36
100
AcDbEntity
  8
0
100
AcDbLine
 10
-152.070272
 20
-263.663232
 30
0.0
 11
-152.054191
 21
-263.650523
 31
0.0
  0
LINE
  5
A0D
330
36
100
AcDbEntity
  8
0
100
AcDbLine
 10
-152.054191
 20
-263.650523
 30
0.0
 11
-152.041262
 21
-263.63734
 31
0.0
  0
LINE
  5
A0E
330
36
100
AcDbEntity
  8
0
100
AcDbLine
 10
-152.041262
 20
-263.63734
 30
0.0
 11
-152.031583
 21
-263.623786
 31
0.0
  0
LINE
  5
A0F
330
36
100
AcDbEntity
  8
0
100
AcDbLine
 10
-152.031583
 20
-263.623786
 30
0.0
 11
-152.025231
 21
-263.609965
 31
0.0
  0
LINE
  5
A10
330
36
100
AcDbEntity
  8
0
100
AcDbLine
 10
-152.025231
 20
-263.609965
 30
0.0
 11
-152.022254
 21
-263.595984
 31
0.0
  0
LINE
  5
A11
330
36
100
AcDbEntity
  8
0
100
AcDbLine
 10
-152.022254
 20
-263.595984
 30
0.0
 11
-152.022675
 21
-263.581952
 31
0.0
  0
LINE
  5
A12
330
36
100
AcDbEntity
  8
0
100
AcDbLine
 10
-152.022675
 20
-263.581952
 30
0.0
 11
-152.026491
 21
-263.567977
 31
0.0
  0
LINE
  5
A13
330
36
100
AcDbEntity
  8
0
100
AcDbLine
 10
-152.026491
 20
-263.567977
 30
0.0
 11
-152.033672
 21
-263.554166
 31
0.0
  0
LINE
  5
A14
330
36
100
AcDbEntity
  8
0
100
AcDbLine
 10
-152.033672
 20
-263.554166
 30
0.0
 11
-152.044163
 21
-263.540627
 31
0.0
  0
LINE
  5
A15
330
36
100
AcDbEntity
  8
0
100
AcDbLine
 10
-152.044163
 20
-263.540627
 30
0.0
 11
-152.057883
 21
-263.527464
 31
0.0
  0
LINE
  5
A16
330
36
100
AcDbEntity
  8
0
100
AcDbLine
 10
-152.057883
 20
-263.527464
 30
0.0
 11
-152.074726
 21
-263.514779
 31
0.0
  0
LINE
  5
A17
330
36
100
AcDbEntity
  8
0
100
AcDbLine
 10
-152.074726
 20
-263.514779
 30
0.0
 11
-152.094562
 21
-263.502669
 31
0.0
  0
LINE
  5
A18
330
36
100
AcDbEntity
  8
0
100
AcDbLine
 10
-152.094562
 20
-263.502669
 30
0.0
 11
-152.117236
 21
-263.49123
 31
0.0
  0
LINE
  5
A19
330
36
100
AcDbEntity
  8
0
100
AcDbLine
 10
-152.117236
 20
-263.49123
 30
0.0
 11
-152.142575
 21
-263.480548
 31
0.0
  0
LINE
  5
A1A
330
36
100
AcDbEntity
  8
0
100
AcDbLine
 10
-152.142575
 20
-263.480548
 30
0.0
 11
-152.170382
 21
-263.470707
 31
0.0
  0
LINE
  5
A1B
330
36
100
AcDbEntity
  8
0
100
AcDbLine
 10
-152.170382
 20
-263.470707
 30
0.0
 11
-152.200442
 21
-263.461782
 31
0.0
  0
LINE
  5
A1C
330
36
100
AcDbEntity
  8
0
100
AcDbLine
 10
-152.200442
 20
-263.461782
 30
0.0
 11
-152.232523
 21
-263.453843
 31
0.0
  0
LINE
  5
A1D
330
36
100
AcDbEntity
  8
0
100
AcDbLine
 10
-152.232523
 20
-263.453843
 30
0.0
 11
-152.266376
 21
-263.446951
 31
0.0
  0
LINE
  5
A1E
330
36
100
AcDbEntity
  8
0
100
AcDbLine
 10
-152.266376
 20
-263.446951
 30
0.0
 11
-152.301741
 21
-263.441159
 31
0.0
  0
LINE
  5
A1F
330
36
100
AcDbEntity
  8
0
100
AcDbLine
 10
38.373425
 20
-279.178112
 30
0.0
 11
39.769591
 21
-278.492192
 31
0.0
  0
LINE
  5
A20
330
36
100
AcDbEntity
  8
0
100
AcDbLine
 10
39.769591
 20
-278.492192
 30
0.0
 11
41.153578
 21
-278.294034
 31
0.0
  0
LINE
  5
A21
330
36
100
AcDbEntity
  8
0
100
AcDbLine
 10
41.153578
 20
-278.294034
 30
0.0
 11
42.593961
 21
-278.872415
 31
0.0
  0
LINE
  5
A22
330
36
100
AcDbEntity
  8
0
100
AcDbLine
 10
42.593961
 20
-278.872415
 30
0.0
 11
44.021855
 21
-279.422583
 31
0.0
  0
LINE
  5
A23
330
36
100
AcDbEntity
  8
0
100
AcDbLine
 10
44.021855
 20
-279.422583
 30
0.0
 11
45.411407
 21
-279.129657
 31
0.0
  0
LINE
  5
A24
330
36
100
AcDbEntity
  8
0
100
AcDbLine
 10
45.411407
 20
-279.129657
 30
0.0
 11
46.802008
 21
-278.294034
 31
0.0
  0
LINE
  5
A25
330
36
100
AcDbEntity
  8
0
100
AcDbLine
 10
-114.132624
 20
-279.164914
 30
0.0
 11
-220.004057
 21
-279.164914
 31
0.0
  0
LINE
  5
A26
330
36
100
AcDbEntity
  8
0
100
AcDbLine
 10
-114.132624
 20
-245.164914
 30
0.0
 11
-220.004057
 21
-245.164914
 31
0.0
  0
LINE
  5
A27
330
36
100
AcDbEntity
  8
0
100
AcDbLine
 10
-218.754057
 20
-276.664914
 30
0.0
 11
-218.754057
 21
-247.664914
 31
0.0
  0
LINE
  5
A2B
330
36
100
AcDbEntity
  8
0
100
AcDbLine
 10
-201.382624
 20
-265.30284
 30
0.0
 11
-201.382624
 21
-288.810126
 31
0.0
  0
LINE
  5
A2C
330
36
100
AcDbEntity
  8
0
100
AcDbLine
 10
-26.382624
 20
-265.30284
 30
0.0
 11
-26.382624
 21
-288.810126
 31
0.0
  0
LINE
  5
A2D
330
36
100
AcDbEntity
  8
0
100
AcDbLine
 10
-198.882624
 20
-287.560126
 30
0.0
 11
-28.882624
 21
-287.560126
 31
0.0
  0
LINE
  5
A31
330
36
100
AcDbEntity
  8
0
100
AcDbLine
 10
-190.303486
 20
-277.034073
 30
0.0
 11
-212.067489
 21
-277.034073
 31
0.0
  0
LINE
  5
A32
330
36
100
AcDbEntity
  8
0
100
AcDbLine
 10
-190.303486
 20
-247.295754
 30
0.0
 11
-212.067489
 21
-247.295754
 31
0.0
  0
LINE
  5
A33
330
36
100
AcDbEntity
  8
0
100
AcDbLine
 10
-210.817489
 20
-274.534073
 30
0.0
 11
-210.817489
 21
-249.795754
 31
0.0
  0
LINE
  5
A37
330
36
100
AcDbEntity
  8
0
100
AcDbLine
 10
-199.132624
 20
-359.433281
 30
0.0
 11
-213.866421
 21
-359.433281
 31
0.0
  0
LINE
  5
A38
330
36
100
AcDbEntity
  8
0
100
AcDbLine
 10
-199.132624
 20
-300.422172
 30
0.0
 11
-213.866421
 21
-300.422172
 31
0.0
  0
LINE
  5
A39
330
36
100
AcDbEntity
  8
0
100
AcDbLine
 10
-212.616421
 20
-356.933281
 30
0.0
 11
-212.616421
 21
-302.9221720000001
 31
0.0
  0
LINE
  5
A3D
330
36
100
AcDbEntity
  8
0
  6
Continuous
100
AcDbLine
 10
38.045012718994
 20
-282.1660106875096
 30
0.0
 11
27.57409856201201
 21
-272.9070746249809
 31
0.0
1001
ACAD
1000
DSTYLE
1002
{
1070
   147
1040
0.625
1070
    77
1070
     0
1002
}
  0
LINE
  5
A3E
330
36
100
AcDbEntity
  8
0
  6
ByBlock
 62
     0
370
    -2
100
AcDbLine
 10
38.488750681997
 20
-281.6641882224423
 30
0.0
 11
39.917841
 21
-283.8220645
 31
0.0
  0
LINE
  5
A3F
330
36
100
AcDbEntity
  8
0
  6
ByBlock
 62
     0
370
    -2
100
AcDbLine
 10
39.917841
 20
-283.8220645
 30
0.0
 11
37.601274755991
 21
-282.6678331525769
 31
0.0
  0
LINE
  5
A40
330
36
100
AcDbEntity
  8
0
  6
ByBlock
 62
     0
370
    -2
100
AcDbLine
 10
39.917841
 20
-283.8220645
 30
0.0
 11
38.045012718994
 21
-282.1660106875096
 31
0.0
  0
LINE
  5
A41
330
36
100
AcDbEntity
  8
0
  6
Continuous
100
AcDbLine
 10
-145.9418879255742
 20
-341.0829198913392
 30
0.0
 11
-124.6582091488515
 21
-365.1184432173217
 31
0.0
1001
ACAD
1000
DSTYLE
1002
{
1070
   147
1040
0.625
1070
    77
1070
     0
1002
}
  0
LINE
  5
A42
330
36
100
AcDbEntity
  8
0
  6
ByBlock
 62
     0
370
    -2
100
AcDbLine
 10
-146.4433975897476
 20
-341.5270113492584
 30
0.0
 11
-147.599261
 21
-339.211259
 31
0.0
  0
LINE
  5
A43
330
36
100
AcDbEntity
  8
0
  6
ByBlock
 62
     0
370
    -2
100
AcDbLine
 10
-147.599261
 20
-339.211259
 30
0.0
 11
-145.4403782614008
 21
-340.6388284334198
 31
0.0
  0
LINE
  5
A44
330
36
100
AcDbEntity
  8
0
  6
ByBlock
 62
     0
370
    -2
100
AcDbLine
 10
-147.599261
 20
-339.211259
 30
0.0
 11
-145.9418879255742
 21
-341.0829198913392
 31
0.0
  0
LINE
  5
A45
330
36
100
AcDbEntity
  8
0
  6
Continuous
100
AcDbLine
 10
-81.72789706677418
 20
-345.1108940405376
 30
0.0
 11
-104.1307088664517
 21
-365.3873529189248
 31
0.0
1001
ACAD
1000
DSTYLE
1002
{
1070
   147
1040
0.625
1070
    77
1070
     0
1002
}
  0
LINE
  5
A46
330
36
100
AcDbEntity
  8
0
  6
ByBlock
 62
     0
370
    -2
100
AcDbLine
 10
-82.17741180337318
 20
-344.6142395652365
 30
0.0
 11
-79.87435600000002
 21
-343.433281
 31
0.0
  0
LINE
  5
A47
330
36
100
AcDbEntity
  8
0
  6
ByBlock
 62
     0
370
    -2
100
AcDbLine
 10
-79.87435600000002
 20
-343.433281
 30
0.0
 11
-81.27838233017518
 21
-345.6075485158387
 31
0.0
  0
LINE
  5
A48
330
36
100
AcDbEntity
  8
0
  6
ByBlock
 62
     0
370
    -2
100
AcDbLine
 10
-79.87435600000002
 20
-343.433281
 30
0.0
 11
-81.72789706677418
 21
-345.1108940405376
 31
0.0
  0
LINE
  5
A49
330
36
100
AcDbEntity
  8
0
  6
Continuous
100
AcDbLine
 10
-147.2990906946355
 20
-252.0577451165125
 30
0.0
 11
-152.1241413763548
 21
-238.6672097669751
 31
0.0
1001
ACAD
1000
DSTYLE
1002
{
1070
   147
1040
0.625
1070
    77
1070
     0
1002
}
  0
LINE
  5
A4A
330
36
100
AcDbEntity
  8
0
  6
ByBlock
 62
     0
370
    -2
100
AcDbLine
 10
-146.6688829842739
 20
-251.8306605330264
 30
0.0
 11
-146.4515988828129
 21
-254.409714
 31
0.0
  0
LINE
  5
A4B
330
36
100
AcDbEntity
  8
0
  6
ByBlock
 62
     0
370
    -2
100
AcDbLine
 10
-146.4515988828129
 20
-254.409714
 30
0.0
 11
-147.9292984049971
 21
-252.2848296999985
 31
0.0
  0
LINE
  5
A4C
330
36
100
AcDbEntity
  8
0
  6
ByBlock
 62
     0
370
    -2
100
AcDbLine
 10
-146.4515988828129
 20
-254.409714
 30
0.0
 11
-147.2990906946355
 21
-252.0577451165125
 31
0.0
  0
LINE
  5
A4D
330
36
100
AcDbEntity
  8
0
  6
Continuous
100
AcDbLine
 10
-115.5667989792108
 20
-255.8903758867089
 30
0.0
 11
-120.9286301388438
 21
-238.7355956659979
 31
0.0
1001
ACAD
1000
DSTYLE
1002
{
1070
   147
1040
0.625
1070
    77
1070
     0
1002
}
  0
LINE
  5
A4E
330
36
100
AcDbEntity
  8
0
  6
ByBlock
 62
     0
370
    -2
100
AcDbLine
 10
-114.9274293022206
 20
-255.6905369955949
 30
0.0
 11
-114.8209895486328
 21
-258.2765377197078
 31
0.0
  0
LINE
  5
A4F
330
36
100
AcDbEntity
  8
0
  6
ByBlock
 62
     0
370
    -2
100
AcDbLine
 10
-114.8209895486328
 20
-258.2765377197078
 30
0.0
 11
-116.2061686562011
 21
-256.0902147778228
 31
0.0
  0
LINE
  5
A50
330
36
100
AcDbEntity
  8
0
  6
ByBlock
 62
     0
370
    -2
100
AcDbLine
 10
-114.8209895486328
 20
-258.2765377197078
 30
0.0
 11
-115.5667989792108
 21
-255.8903758867089
 31
0.0
  0
LINE
  5
A51
330
36
100
AcDbEntity
  8
0
  6
Continuous
100
AcDbLine
 10
-80.2537531979128
 20
-247.4782305542946
 30
0.0
 11
-73.81245022996452
 21
-238.0866388914109
 31
0.0
1001
ACAD
1000
DSTYLE
1002
{
1070
   147
1040
0.625
1070
    77
1070
     0
1002
}
  0
LINE
  5
A52
330
36
100
AcDbEntity
  8
0
  6
ByBlock
 62
     0
370
    -2
100
AcDbLine
 10
-79.70132718031948
 20
-247.8571166339309
 30
0.0
 11
-81.66777631289507
 21
-249.539914
 31
0.0
  0
LINE
  5
A53
330
36
100
AcDbEntity
  8
0
  6
ByBlock
 62
     0
370
    -2
100
AcDbLine
 10
-81.66777631289507
 20
-249.539914
 30
0.0
 11
-80.80617921550613
 21
-247.0993444746582
 31
0.0
  0
LINE
  5
A54
330
36
100
AcDbEntity
  8
0
  6
ByBlock
 62
     0
370
    -2
100
AcDbLine
 10
-81.66777631289507
 20
-249.539914
 30
0.0
 11
-80.2537531979128
 21
-247.4782305542946
 31
0.0
  0
LINE
  5
A55
330
36
100
AcDbEntity
  8
0
  6
Continuous
100
AcDbLine
 10
-57.2418782860857
 20
-244.1548424436485
 30
0.0
 11
-53.62952403981289
 21
-238.2319797257023
 31
0.0
1001
ACAD
1000
DSTYLE
1002
{
1070
   147
1040
0.625
1070
    77
1070
     0
1002
}
  0
LINE
  5
A56
330
36
100
AcDbEntity
  8
0
  6
ByBlock
 62
     0
370
    -2
100
AcDbLine
 10
-56.6699803028886
 20
-244.5036430501149
 30
0.0
 11
-58.54362080599215
 21
-246.2891963064997
 31
0.0
  0
LINE
  5
A57
330
36
100
AcDbEntity
  8
0
  6
ByBlock
 62
     0
370
    -2
100
AcDbLine
 10
-58.54362080599215
 20
-246.2891963064997
 30
0.0
 11
-57.8137762692828
 21
-243.8060418371821
 31
0.0
  0
LINE
  5
A58
330
36
100
AcDbEntity
  8
0
  6
ByBlock
 62
     0
370
    -2
100
AcDbLine
 10
-58.54362080599215
 20
-246.2891963064997
 30
0.0
 11
-57.2418782860857
 21
-244.1548424436485
 31
0.0
  0
LINE
  5
A59
330
36
100
AcDbEntity
  8
0
  6
Continuous
100
AcDbLine
 10
-66.23955399999998
 20
-391.085275
 30
0.0
 11
-60.691217708048
 21
-376.0909141811041
 31
0.0
1001
ACAD
1000
DSTYLE
1002
{
1070
   341
1005
937
1070
   147
1040
0.625
1070
    77
1070
     0
1002
}
  0
LINE
  5
A5B
330
36
100
AcDbEntity
  8
0
  6
Continuous
100
AcDbLine
 10
-163.276348
 20
-391.085275
 30
0.0
 11
-168.8246850824107
 21
-376.0909141035679
 31
0.0
1001
ACAD
1000
DSTYLE
1002
{
1070
   341
1005
937
1070
   147
1040
0.625
1070
    77
1070
     0
1002
}
  0
TEXT
  5
A5D
330
36
100
AcDbEntity
  8
0
  6
Continuous
 62
     4
100
AcDbText
 10
-219.3790569999999
 20
-264.664914
 30
0.0
 40
3.0
  1
68
 50
90.0
100
AcDbText
  0
LINE
  5
A5E
330
36
100
AcDbEntity
  8
0
  6
ByBlock
 62
     0
370
    -2
100
AcDbLine
 10
-219.4239295
 20
-247.664914
 30
0.0
 11
-218.754057
 21
-245.164914
 31
0.0
  0
LINE
  5
A5F
330
36
100
AcDbEntity
  8
0
  6
ByBlock
 62
     0
370
    -2
100
AcDbLine
 10
-218.754057
 20
-245.164914
 30
0.0
 11
-218.0841845
 21
-247.664914
 31
0.0
  0
LINE
  5
A60
330
36
100
AcDbEntity
  8
0
  6
ByBlock
 62
     0
370
    -2
100
AcDbLine
 10
-218.754057
 20
-245.164914
 30
0.0
 11
-218.754057
 21
-247.664914
 31
0.0
  0
LINE
  5
A61
330
36
100
AcDbEntity
  8
0
  6
ByBlock
 62
     0
370
    -2
100
AcDbLine
 10
-218.0841845
 20
-276.664914
 30
0.0
 11
-218.754057
 21
-279.164914
 31
0.0
  0
LINE
  5
A62
330
36
100
AcDbEntity
  8
0
  6
ByBlock
 62
     0
370
    -2
100
AcDbLine
 10
-218.754057
 20
-279.164914
 30
0.0
 11
-219.4239295
 21
-276.664914
 31
0.0
  0
LINE
  5
A63
330
36
100
AcDbEntity
  8
0
  6
ByBlock
 62
     0
370
    -2
100
AcDbLine
 10
-218.754057
 20
-279.164914
 30
0.0
 11
-218.754057
 21
-276.664914
 31
0.0
  0
TEXT
  5
A64
330
36
100
AcDbEntity
  8
0
  6
Continuous
 62
     4
100
AcDbText
 10
-117.632624
 20
-286.935126
 30
0.0
 40
3.0
  1
350
100
AcDbText
  0
LINE
  5
A65
330
36
100
AcDbEntity
  8
0
  6
ByBlock
 62
     0
370
    -2
100
AcDbLine
 10
-28.882624
 20
-286.8902535
 30
0.0
 11
-26.382624
 21
-287.560126
 31
0.0
  0
LINE
  5
A66
330
36
100
AcDbEntity
  8
0
  6
ByBlock
 62
     0
370
    -2
100
AcDbLine
 10
-26.382624
 20
-287.560126
 30
0.0
 11
-28.882624
 21
-288.2299984999999
 31
0.0
  0
LINE
  5
A67
330
36
100
AcDbEntity
  8
0
  6
ByBlock
 62
     0
370
    -2
100
AcDbLine
 10
-26.382624
 20
-287.560126
 30
0.0
 11
-28.882624
 21
-287.560126
 31
0.0
  0
LINE
  5
A68
330
36
100
AcDbEntity
  8
0
  6
ByBlock
 62
     0
370
    -2
100
AcDbLine
 10
-198.882624
 20
-288.2299984999999
 30
0.0
 11
-201.382624
 21
-287.560126
 31
0.0
  0
LINE
  5
A69
330
36
100
AcDbEntity
  8
0
  6
ByBlock
 62
     0
370
    -2
100
AcDbLine
 10
-201.382624
 20
-287.560126
 30
0.0
 11
-198.882624
 21
-286.8902535
 31
0.0
  0
LINE
  5
A6A
330
36
100
AcDbEntity
  8
0
  6
ByBlock
 62
     0
370
    -2
100
AcDbLine
 10
-201.382624
 20
-287.560126
 30
0.0
 11
-198.882624
 21
-287.560126
 31
0.0
  0
TEXT
  5
A6B
330
36
100
AcDbEntity
  8
0
  6
Continuous
 62
     4
100
AcDbText
 10
-211.442489
 20
-264.4149135
 30
0.0
 40
3.0
  1
60
 50
90.0
100
AcDbText
  0
LINE
  5
A6C
330
36
100
AcDbEntity
  8
0
  6
ByBlock
 62
     0
370
    -2
100
AcDbLine
 10
-211.4873615
 20
-249.795754
 30
0.0
 11
-210.817489
 21
-247.295754
 31
0.0
  0
LINE
  5
A6D
330
36
100
AcDbEntity
  8
0
  6
ByBlock
 62
     0
370
    -2
100
AcDbLine
 10
-210.817489
 20
-247.295754
 30
0.0
 11
-210.1476165
 21
-249.795754
 31
0.0
  0
LINE
  5
A6E
330
36
100
AcDbEntity
  8
0
  6
ByBlock
 62
     0
370
    -2
100
AcDbLine
 10
-210.817489
 20
-247.295754
 30
0.0
 11
-210.817489
 21
-249.795754
 31
0.0
  0
LINE
  5
A6F
330
36
100
AcDbEntity
  8
0
  6
ByBlock
 62
     0
370
    -2
100
AcDbLine
 10
-210.1476165
 20
-274.534073
 30
0.0
 11
-210.817489
 21
-277.034073
 31
0.0
  0
LINE
  5
A70
330
36
100
AcDbEntity
  8
0
  6
ByBlock
 62
     0
370
    -2
100
AcDbLine
 10
-210.817489
 20
-277.034073
 30
0.0
 11
-211.4873615
 21
-274.534073
 31
0.0
  0
LINE
  5
A71
330
36
100
AcDbEntity
  8
0
  6
ByBlock
 62
     0
370
    -2
100
AcDbLine
 10
-210.817489
 20
-277.034073
 30
0.0
 11
-210.817489
 21
-274.534073
 31
0.0
  0
TEXT
  5
A72
330
36
100
AcDbEntity
  8
0
  6
Continuous
 62
     4
100
AcDbText
 10
-213.241421
 20
-332.9277265000001
 30
0.0
 40
3.0
  1
118
 50
90.0
100
AcDbText
  0
LINE
  5
A73
330
36
100
AcDbEntity
  8
0
  6
ByBlock
 62
     0
370
    -2
100
AcDbLine
 10
-213.2862935
 20
-302.9221720000001
 30
0.0
 11
-212.616421
 21
-300.422172
 31
0.0
  0
LINE
  5
A74
330
36
100
AcDbEntity
  8
0
  6
ByBlock
 62
     0
370
    -2
100
AcDbLine
 10
-212.616421
 20
-300.422172
 30
0.0
 11
-211.9465485
 21
-302.9221720000001
 31
0.0
  0
LINE
  5
A75
330
36
100
AcDbEntity
  8
0
  6
ByBlock
 62
     0
370
    -2
100
AcDbLine
 10
-212.616421
 20
-300.422172
 30
0.0
 11
-212.616421
 21
-302.9221720000001
 31
0.0
  0
LINE
  5
A76
330
36
100
AcDbEntity
  8
0
  6
ByBlock
 62
     0
370
    -2
100
AcDbLine
 10
-211.9465485
 20
-356.933281
 30
0.0
 11
-212.616421
 21
-359.433281
 31
0.0
  0
LINE
  5
A77
330
36
100
AcDbEntity
  8
0
  6
ByBlock
 62
     0
370
    -2
100
AcDbLine
 10
-212.616421
 20
-359.433281
 30
0.0
 11
-213.2862935
 21
-356.933281
 31
0.0
  0
LINE
  5
A78
330
36
100
AcDbEntity
  8
0
  6
ByBlock
 62
     0
370
    -2
100
AcDbLine
 10
-212.616421
 20
-359.433281
 30
0.0
 11
-212.616421
 21
-356.933281
 31
0.0
  0
ARC
  5
A79
330
36
100
AcDbEntity
  8
0
  6
ByBlock
 62
     0
100
AcDbCircle
 10
-66.23955399999998
 20
-391.085275
 30
0.0
 40
0.1562499999999836
100
AcDbArc
 50
69.69410529663116
 51
249.6941052966312
  0
ARC
  5
A7A
330
36
100
AcDbEntity
  8
0
  6
ByBlock
 62
     0
100
AcDbCircle
 10
-66.23955399999998
 20
-391.085275
 30
0.0
 40
0.1562499999999836
100
AcDbArc
 50
249.6941052966312
 51
69.69410529663116
  0
ARC
  5
A7B
330
36
100
AcDbEntity
  8
0
  6
ByBlock
 62
     0
100
AcDbCircle
 10
-163.276348
 20
-391.085275
 30
0.0
 40
0.1562499999999812
100
AcDbArc
 50
110.3058972636476
 51
290.3058972636476
  0
ARC
  5
A7C
330
36
100
AcDbEntity
  8
0
  6
ByBlock
 62
     0
100
AcDbCircle
 10
-163.276348
 20
-391.085275
 30
0.0
 40
0.1562499999999812
100
AcDbArc
 50
290.3058972636476
 51
110.3058972636476
  0
ENDSEC
  0
SECTION
  2
OBJECTS
  0
DICTIONARY
  5
C
330
0
100
AcDbDictionary
281
     1
  3
ACAD_2007HEADERVARS_RT
350
A80
  3
ACAD_COLOR
350
2F
  3
ACAD_GROUP
350
D
  3
ACAD_LAYOUT
350
2E
  3
ACAD_MATERIAL
350
10
  3
ACAD_MLEADERSTYLE
350
59D
  3
ACAD_MLINESTYLE
350
2B
  3
ACAD_PLOTSETTINGS
350
2D
  3
ACAD_PLOTSTYLENAME
350
E
  3
ACAD_SCALELIST
350
58B
  3
ACAD_TABLESTYLE
350
30
  3
ACAD_VISUALSTYLE
350
14
  3
AcadDim
350
93C
  3
ACDB_RECOMPOSE_DATA
350
A7E
  3
AcDbVariableDictionary
350
56B
  3
DWGPROPS
350
A7F
  0
DICTIONARY
  5
644
330
2
100
AcDbDictionary
280
     1
281
     1
  3
ACAD_LAYERSTATES
360
645
  0
DICTIONARY
  5
828
330
25
100
AcDbDictionary
280
     1
281
     1
  3
ADSK_XREC_LAYER_RECONCILED
360
829
  0
DICTIONARY
  5
7C9
330
36
100
AcDbDictionary
280
     1
281
     1
  3
ACAD_SORTENTS
360
7CA
  0
DICTIONARY
  5
A80
102
{ACAD_REACTORS
330
C
102
}
330
C
100
AcDbDictionary
281
     1
  3
DIMARCSYM
350
A82
  3
DIMFXL
350
A81
  3
DIMJOGANG
350
A83
  0
DICTIONARY
  5
2F
102
{ACAD_REACTORS
330
C
102
}
330
C
100
AcDbDictionary
281
     1
  0
DICTIONARY
  5
D
102
{ACAD_REACTORS
330
C
102
}
330
C
100
AcDbDictionary
281
     1
  0
DICTIONARY
  5
2E
102
{ACAD_REACTORS
330
C
102
}
330
C
100
AcDbDictionary
281
     1
  3
Model
350
39
  3
レイアウト1
350
35
  0
DICTIONARY
  5
10
102
{ACAD_REACTORS
330
C
102
}
330
C
100
AcDbDictionary
281
     1
  3
ByBlock
350
12
  3
ByLayer
350
11
  3
Global
350
13
  0
DICTIONARY
  5
59D
102
{ACAD_REACTORS
330
C
102
}
330
C
100
AcDbDictionary
281
     1
  3
Standard
350
59E
  0
DICTIONARY
  5
2B
102
{ACAD_REACTORS
330
C
102
}
330
C
100
AcDbDictionary
281
     1
  3
Standard
350
2C
  0
DICTIONARY
  5
2D
102
{ACAD_REACTORS
330
C
102
}
330
C
100
AcDbDictionary
281
     1
  0
ACDBDICTIONARYWDFLT
  5
E
102
{ACAD_REACTORS
330
C
102
}
330
C
100
AcDbDictionary
281
     1
  3
Normal
350
F
100
AcDbDictionaryWithDefault
340
F
  0
DICTIONARY
  5
58B
102
{ACAD_REACTORS
330
C
102
}
330
C
100
AcDbDictionary
281
     1
  3
A0
350
58C
  3
A1
350
58D
  3
A2
350
58E
  3
A3
350
58F
  3
A4
350
590
  3
A5
350
591
  3
A6
350
592
  3
A7
350
593
  3
A8
350
594
  3
A9
350
595
  3
B0
350
596
  3
B1
350
597
  3
B2
350
598
  3
B3
350
599
  3
B4
350
59A
  3
B5
350
59B
  3
B6
350
59C
  0
DICTIONARY
  5
30
102
{ACAD_REACTORS
330
C
102
}
330
C
100
AcDbDictionary
281
     1
  3
Standard
350
31
  0
DICTIONARY
  5
14
102
{ACAD_REACTORS
330
C
102
}
330
C
100
AcDbDictionary
281
     1
  3
2dWireframe
350
1A
  3
3D Hidden
350
1C
  3
3dWireframe
350
1B
  3
Basic
350
19
  3
Brighten
350
20
  3
ColorChange
350
24
  3
Conceptual
350
1D
  3
Dim
350
1F
  3
EdgeColorOff
350
58A
  3
Facepattern
350
23
  3
Flat
350
15
  3
FlatWithEdges
350
16
  3
Gouraud
350
17
  3
GouraudWithEdges
350
18
  3
Hidden
350
582
  3
JitterOff
350
588
  3
Linepattern
350
22
  3
OverhangOff
350
589
  3
Realistic
350
1E
  3
Shaded
350
587
  3
Shaded with edges
350
586
  3
Shades of Gray
350
583
  3
Sketchy
350
584
  3
Thicken
350
21
  3
Wireframe
350
581
  3
X-Ray
350
585
  0
XRECORD
  5
93C
102
{ACAD_REACTORS
330
C
102
}
330
C
100
AcDbXrecord
280
     1
 90
   990106
  3

 60
     0
 61
     0
 62
     1
 63
     3
 64
     0
 65
     0
 66
     0
 67
     3
 68
     1
 69
     0
 70
     0
 71
     0
 72
     0
 40
0.0
170
     0
  0
XRECORD
  5
A7E
102
{ACAD_REACTORS
330
C
102
}
330
C
100
AcDbXrecord
280
     1
 90
        1
330
31
  0
DICTIONARY
  5
56B
102
{ACAD_REACTORS
330
C
102
}
330
C
100
AcDbDictionary
281
     1
  3
CANNOSCALE
350
82D
  3
CMLEADERSTYLE
350
82C
  3
CTABLESTYLE
350
56C
  3
DIMASSOC
350
56F
  3
INDEXCTL
350
56E
  3
SORTENTS
350
56D
  3
XCLIPFRAME
350
944
  0
XRECORD
  5
A7F
102
{ACAD_REACTORS
330
C
102
}
330
C
100
AcDbXrecord
280
     1
  1
DWGPROPS COOKIE
  2

  3

  4

  6

  7

  8
kaiha
  9

300
=
301
=
302
=
303
=
304
=
305
=
306
=
307
=
308
=
309
=
 40
0.0154728472222222
 41
2455646.749497639
 42
2458219.62461919
  1

 90
        0
  0
DICTIONARY
  5
645
102
{ACAD_REACTORS
330
644
102
}
330
644
100
AcDbDictionary
281
     1
  0
XRECORD
  5
829
102
{ACAD_REACTORS
330
828
102
}
330
828
100
AcDbXrecord
280
     1
290
     1
  0
SORTENTSTABLE
  5
7CA
102
{ACAD_REACTORS
330
7C9
102
}
330
7C9
100
AcDbSortentsTable
330
36
331
A7A
  5
A5F
331
A5B
  5
A5D
331
470
  5
825
331
A1D
  5
224
331
9DF
  5
2DB
331
9FE
  5
1C3
331
265
  5
333
331
246
  5
311
331
95
  5
C9
331
227
  5
2DF
331
554
  5
A1A
331
101
  5
180
331
E2
  5
11F
331
C3
  5
F7
331
9AD
  5
2A9
331
A4
  5
D8
331
460
  5
815
331
A4B
  5
A6E
331
A6A
  5
B8
331
A2C
  5
B4
331
A0D
  5
1D2
331
9CF
  5
2CB
331
9EE
  5
1B3
331
255
  5
322
331
236
  5
2EE
331
1DF
  5
29A
331
81A
  5
A4B
331
F1
  5
170
331
D2
  5
106
331
99D
  5
7E6
331
B3
  5
E7
331
A79
  5
A5E
331
A1C
  5
1E1
331
9DE
  5
2DA
331
9FD
  5
1C2
331
9BF
  5
2BB
331
264
  5
332
331
245
  5
310
331
94
  5
C8
331
226
  5
2DE
331
1CF
  5
28A
331
7EA
  5
A40
331
553
  5
A19
331
100
  5
17F
331
E1
  5
11E
331
C2
  5
F6
331
9AC
  5
2A8
331
A3
  5
D7
331
A4A
  5
A6D
331
A69
  5
B7
331
A2B
  5
B3
331
A0C
  5
1D1
331
9CE
  5
2CA
331
9ED
  5
1B2
331
254
  5
321
331
235
  5
2ED
331
1DE
  5
299
331
819
  5
A4A
331
F0
  5
16F
331
D1
  5
105
331
99C
  5
7E5
331
B2
  5
E6
331
A59
  5
A60
331
A78
  5
9B
331
A1B
  5
1E0
331
9DD
  5
2D9
331
9FC
  5
1C1
331
9BE
  5
2BA
331
263
  5
331
331
244
  5
30F
331
93
  5
C7
331
225
  5
2DD
331
1CE
  5
289
331
457
  5
813
331
1B7
  5
272
331
7E9
  5
A3F
331
552
  5
A18
331
FF
  5
17E
331
E0
  5
11D
331
C1
  5
F5
331
9AB
  5
2A7
331
A2
  5
D6
331
A49
  5
A70
331
A68
  5
B6
331
A0B
  5
1D0
331
9CD
  5
2C9
331
9EC
  5
1B1
331
253
  5
320
331
234
  5
2EC
331
1DD
  5
298
331
447
  5
657
331
1A7
  5
262
331
818
  5
A49
331
EF
  5
16E
331
D0
  5
104
331
99B
  5
7E4
331
B1
  5
E5
331
A58
  5
A63
331
A39
  5
95
331
A1A
  5
1DF
331
9DC
  5
2D8
331
9FB
  5
1C0
331
9BD
  5
2B9
331
262
  5
330
331
243
  5
30E
331
224
  5
2DC
331
1CD
  5
288
331
456
  5
812
331
1B6
  5
271
331
437
  5
54F
331
197
  5
252
331
7E8
  5
A3E
331
551
  5
A17
331
FE
  5
17D
331
DF
  5
11C
331
C0
  5
F4
331
9AA
  5
2A6
331
A1
  5
D5
331
A48
  5
A73
331
A0A
  5
1CF
331
9CC
  5
2C8
331
9EB
  5
1B0
331
252
  5
31F
331
233
  5
2EB
331
1DC
  5
297
331
446
  5
656
331
1A6
  5
261
331
427
  5
527
331
187
  5
242
331
EE
  5
16D
331
CF
  5
103
331
99A
  5
9CD
331
B0
  5
E4
331
A38
  5
94
331
A19
  5
1DE
331
9DB
  5
2D7
331
9FA
  5
1BF
331
9BC
  5
2B8
331
261
  5
32F
331
242
  5
30D
331
1CC
  5
287
331
455
  5
811
331
1B5
  5
270
331
8A5
  5
3DC
331
436
  5
54E
331
196
  5
251
331
417
  5
513
331
177
  5
232
331
550
  5
A16
331
FD
  5
17C
331
DE
  5
11B
331
BF
  5
F3
331
9A9
  5
2A5
331
A0
  5
D4
331
A09
  5
1CE
331
9CB
  5
2C7
331
9EA
  5
1AF
331
251
  5
31E
331
232
  5
2EA
331
1DB
  5
296
331
445
  5
568
331
1A5
  5
260
331
426
  5
526
331
186
  5
241
331
ED
  5
16C
331
CE
  5
102
331
999
  5
9CC
331
AF
  5
E3
331
A18
  5
1DD
331
9DA
  5
2D6
331
9F9
  5
1BE
331
9BB
  5
2B7
331
260
  5
32E
331
241
  5
30C
331
1CB
  5
286
331
454
  5
810
331
1B4
  5
26F
331
8A4
  5
3DB
331
435
  5
54B
331
195
  5
250
331
416
  5
512
331
176
  5
231
331
3F7
  5
4F9
331
11F
  5
19B
331
FC
  5
17B
331
DD
  5
11A
331
BE
  5
F2
331
9A8
  5
2A4
331
9F
  5
D3
331
A08
  5
1CD
331
A27
  5
BF
331
9CA
  5
2C6
331
9E9
  5
1AE
331
26F
  5
33D
331
250
  5
31D
331
231
  5
2E9
331
1DA
  5
295
331
444
  5
567
331
1A4
  5
25F
331
425
  5
525
331
185
  5
240
331
EC
  5
16B
331
CD
  5
101
331
998
  5
9D2
331
9B7
  5
2B3
331
AE
  5
E2
331
A17
  5
1DC
331
9D9
  5
2D5
331
9F8
  5
1BD
331
367
  5
43F
331
9BA
  5
2B6
331
25F
  5
32D
331
240
  5
30B
331
1CA
  5
285
331
453
  5
7EA
331
1B3
  5
26E
331
8A3
  5
3DA
331
434
  5
54A
331
194
  5
24F
331
415
  5
511
331
175
  5
230
331
3F6
  5
4F8
331
11E
  5
19A
331
FB
  5
17A
331
DC
  5
119
331
BD
  5
F1
331
9A7
  5
2A3
331
9E
  5
D2
331
A07
  5
1CC
331
A26
  5
BE
331
357
  5
42F
331
9C9
  5
2C5
331
9E8
  5
1AD
331
26E
  5
33C
331
24F
  5
31C
331
230
  5
2E8
331
1D9
  5
294
331
443
  5
55D
331
1A3
  5
25E
331
424
  5
520
331
184
  5
23F
331
405
  5
50B
331
3CF
  5
4B7
331
EB
  5
128
331
CC
  5
100
331
997
  5
9D1
331
9B6
  5
2B2
331
AD
  5
E1
331
A16
  5
1DB
331
9D8
  5
2D4
331
9F7
  5
1BC
331
366
  5
43E
331
9B9
  5
2B5
331
347
  5
41F
331
25E
  5
32C
331
23F
  5
30A
331
1C9
  5
284
331
8A2
  5
3D9
331
1B2
  5
26D
331
433
  5
547
331
193
  5
24E
331
414
  5
510
331
174
  5
22F
331
3F5
  5
4F1
331
11D
  5
199
331
3DE
  5
4CA
331
3BF
  5
4A7
331
FA
  5
179
331
DB
  5
118
331
BC
  5
F0
331
9A6
  5
2A2
331
9D
  5
D1
331
A06
  5
1CB
331
A25
  5
BD
331
356
  5
42E
331
9C8
  5
2C4
331
9E7
  5
1AC
331
337
  5
403
331
26D
  5
33B
331
24E
  5
31B
331
22F
  5
2E7
331
1D8
  5
293
331
442
  5
55C
331
1A2
  5
25D
331
423
  5
51F
331
183
  5
23E
331
3CE
  5
4B6
331
3AF
  5
497
331
109
  5
188
331
EA
  5
127
331
CB
  5
FF
331
9B5
  5
2B1
331
AC
  5
E0
331
A15
  5
1DA
331
9D7
  5
2D3
331
9F6
  5
1BB
331
365
  5
43D
331
9B8
  5
2B4
331
346
  5
41E
331
327
  5
3EF
331
25D
  5
32B
331
23E
  5
309
331
1C8
  5
283
331
8A1
  5
3D8
331
1B1
  5
26C
331
432
  5
542
331
192
  5
24D
331
413
  5
50F
331
173
  5
22E
331
3DD
  5
4C9
331
11C
  5
198
331
3BE
  5
4A6
331
39F
  5
487
331
F9
  5
178
331
DA
  5
117
331
BB
  5
EF
331
9A5
  5
2A1
331
9C
  5
D0
331
A05
  5
1CA
331
A24
  5
18E
331
355
  5
42D
331
9C7
  5
2C3
331
9E6
  5
1AB
331
336
  5
402
331
317
  5
3D2
331
26C
  5
33A
331
24D
  5
318
331
22E
  5
2E6
331
1D7
  5
292
331
441
  5
55B
331
1A1
  5
25C
331
422
  5
51E
331
182
  5
23D
331
403
  5
50A
331
3CD
  5
4B5
331
3AE
  5
496
331
38F
  5
477
331
108
  5
187
331
E9
  5
126
331
CA
  5
FE
331
9B4
  5
2B0
331
AB
  5
DF
331
A14
  5
1D9
331
364
  5
43C
331
9D6
  5
2D2
331
9F5
  5
1BA
331
345
  5
41D
331
326
  5
3EE
331
25C
  5
32A
331
23D
  5
2F5
331
1C7
  5
282
331
8A0
  5
3D7
331
1B0
  5
26B
331
431
  5
53F
331
191
  5
24C
331
412
  5
50E
331
172
  5
22D
331
3DC
  5
4C4
331
11B
  5
197
331
3BD
  5
4A5
331
39E
  5
486
331
37F
  5
467
331
F8
  5
177
331
D9
  5
116
331
BA
  5
EE
331
9A4
  5
2A0
331
9B
  5
CF
331
A04
  5
1C9
331
A23
  5
18D
331
354
  5
42C
331
9C6
  5
2C2
331
9E5
  5
1AA
331
335
  5
401
331
316
  5
3D1
331
26B
  5
339
331
24C
  5
317
331
22D
  5
2E5
331
1D6
  5
291
331
1BF
  5
27A
331
440
  5
55A
331
1A0
  5
25B
331
421
  5
51D
331
181
  5
23C
331
3CC
  5
4B4
331
3AD
  5
495
331
38E
  5
476
331
E8
  5
125
331
C9
  5
FD
331
9B3
  5
2AF
331
AA
  5
DE
331
A13
  5
1D8
331
363
  5
43B
331
9D5
  5
2D1
331
9F4
  5
1B9
331
344
  5
41C
331
325
  5
3ED
331
2DF
  5
3AD
331
25B
  5
329
331
23C
  5
2F4
331
1C6
  5
281
331
1AF
  5
26A
331
430
  5
53E
331
190
  5
24B
331
411
  5
50D
331
171
  5
22C
331
3DB
  5
4C3
331
11A
  5
196
331
3BC
  5
4A4
331
39D
  5
485
331
37E
  5
466
331
D8
  5
115
331
B9
  5
ED
331
9A3
  5
29F
331
9A
  5
CE
331
A03
  5
1C8
331
A22
  5
18C
331
353
  5
42B
331
9C5
  5
2C1
331
9E4
  5
1A9
331
334
  5
400
331
315
  5
3D0
331
2CF
  5
39D
331
26A
  5
338
331
24B
  5
316
331
22C
  5
2E4
331
1D5
  5
290
331
1BE
  5
279
331
43F
  5
559
331
19F
  5
25A
331
420
  5
51C
331
180
  5
23B
331
401
  5
509
331
3CB
  5
4B3
331
3AC
  5
494
331
38D
  5
475
331
C8
  5
FC
331
537
  5
A09
331
9B2
  5
2AE
331
A9
  5
DD
331
A12
  5
1D7
331
362
  5
43A
331
9D4
  5
2D0
331
9F3
  5
1B8
331
343
  5
41B
331
324
  5
3EC
331
2F5
  5
3C3
331
2DE
  5
3AC
331
2BF
  5
38D
331
25A
  5
328
331
23B
  5
2F3
331
1C5
  5
280
331
1AE
  5
269
331
42F
  5
537
331
18F
  5
24A
331
170
  5
22B
331
3DA
  5
4C2
331
119
  5
195
331
3BB
  5
4A3
331
39C
  5
484
331
37D
  5
464
331
B8
  5
EC
331
527
  5
A05
331
9A2
  5
29E
331
99
  5
CD
331
A02
  5
1C7
331
A21
  5
18B
331
352
  5
42A
331
9C4
  5
2C0
331
9E3
  5
1A8
331
333
  5
3FF
331
314
  5
3CF
331
2CE
  5
39C
331
2AF
  5
37D
331
269
  5
337
331
24A
  5
315
331
22B
  5
2E3
331
1D4
  5
28F
331
1BD
  5
278
331
43E
  5
558
331
19E
  5
259
331
41F
  5
51B
331
17F
  5
23A
331
400
  5
508
331
128
  5
1A4
331
3CA
  5
4B2
331
3AB
  5
493
331
38C
  5
474
331
536
  5
A08
331
9B1
  5
2AD
331
A8
  5
DC
331
517
  5
9FB
331
A11
  5
1D6
331
361
  5
439
331
9D3
  5
2CF
331
9F2
  5
1B7
331
342
  5
41A
331
323
  5
3EB
331
2F4
  5
3C2
331
2DD
  5
3AB
331
2BE
  5
38C
331
29F
  5
36D
331
259
  5
327
331
23A
  5
2F2
331
1C4
  5
27F
331
1AD
  5
268
331
42E
  5
536
331
18E
  5
249
331
16F
  5
22A
331
3F0
  5
4F0
331
118
  5
194
331
3D9
  5
4C1
331
3BA
  5
4A2
331
39B
  5
483
331
37C
  5
463
331
526
  5
A04
331
9A1
  5
29D
331
98
  5
CC
331
507
  5
9EB
331
A01
  5
1C6
331
A20
  5
18A
331
351
  5
429
331
9C3
  5
2BF
331
9E2
  5
1A7
331
332
  5
3FE
331
313
  5
3CE
331
2CD
  5
39B
331
2AE
  5
37C
331
28F
  5
35D
331
268
  5
336
331
249
  5
314
331
22A
  5
2E2
331
1D3
  5
28E
331
1BC
  5
277
331
43D
  5
557
331
19D
  5
258
331
41E
  5
51A
331
17E
  5
239
331
3FF
  5
507
331
127
  5
1A3
331
3C9
  5
4B1
331
3AA
  5
492
331
38B
  5
473
331
516
  5
9FA
331
9B0
  5
2AC
331
A10
  5
1D5
331
360
  5
438
331
9D2
  5
2CE
331
9F1
  5
1B6
331
341
  5
419
331
322
  5
3EA
331
2F3
  5
3C1
331
2DC
  5
3AA
331
2BD
  5
38B
331
29E
  5
36C
331
27F
  5
34D
331
258
  5
326
331
239
  5
2F1
331
1C3
  5
27E
331
1AC
  5
267
331
42D
  5
535
331
18D
  5
248
331
16E
  5
229
331
3EF
  5
4EF
331
117
  5
193
331
3D8
  5
4C0
331
3B9
  5
4A1
331
39A
  5
482
331
37B
  5
462
331
506
  5
9EA
331
9A0
  5
7E9
331
A00
  5
1C5
331
36F
  5
447
331
9C2
  5
2BE
331
9E1
  5
1A6
331
350
  5
428
331
331
  5
3FD
331
312
  5
3CD
331
2CC
  5
39A
331
2AD
  5
37B
331
28E
  5
35C
331
568
  5
A25
331
248
  5
313
331
229
  5
2E1
331
1D2
  5
28D
331
1BB
  5
276
331
43C
  5
556
331
19C
  5
257
331
41D
  5
519
331
17D
  5
238
331
3FE
  5
506
331
126
  5
1A2
331
3E7
  5
4D3
331
3C8
  5
4B0
331
3A9
  5
491
331
38A
  5
472
331
515
  5
9F9
331
35F
  5
437
331
9D1
  5
2CD
331
9F0
  5
1B5
331
340
  5
418
331
321
  5
3E9
331
2F2
  5
3C0
331
2DB
  5
3A9
331
2BC
  5
38A
331
29D
  5
36B
331
27E
  5
34C
331
238
  5
2F0
331
1E1
  5
29C
331
1C2
  5
27D
331
1AB
  5
266
331
42C
  5
530
331
18C
  5
247
331
16D
  5
228
331
3EE
  5
4E9
331
116
  5
192
331
3D7
  5
4BF
331
3B8
  5
4A0
331
399
  5
481
331
37A
  5
45A
331
505
  5
9E9
331
36E
  5
446
331
9C1
  5
2BD
331
9E0
  5
1A5
331
34F
  5
427
331
330
  5
3FC
331
311
  5
3CC
331
2CB
  5
399
331
2AC
  5
37A
331
28D
  5
35B
331
228
  5
2E0
331
1D1
  5
28C
331
1BA
  5
275
331
43B
  5
555
331
19B
  5
256
331
41C
  5
518
331
17C
  5
237
331
3FD
  5
505
331
125
  5
1A1
331
3E6
  5
4D2
331
3C7
  5
4AF
331
3A8
  5
490
331
389
  5
471
331
514
  5
9F8
331
4BF
  5
9C7
331
35E
  5
436
331
9D0
  5
2CC
331
33F
  5
417
331
320
  5
3E8
331
2F1
  5
3BF
331
2DA
  5
3A8
331
2BB
  5
389
331
29C
  5
36A
331
27D
  5
34B
331
1E0
  5
29B
331
1C1
  5
27C
331
1AA
  5
265
331
42B
  5
52F
331
18B
  5
246
331
16C
  5
227
331
3ED
  5
4E8
331
115
  5
191
331
3D6
  5
4BE
331
3B7
  5
49F
331
398
  5
480
331
379
  5
459
331
504
  5
9E8
331
4AF
  5
9B7
331
36D
  5
445
331
9C0
  5
2BC
331
34E
  5
426
331
32F
  5
3FB
331
310
  5
3CB
331
2CA
  5
398
331
2AB
  5
379
331
28C
  5
35A
331
1D0
  5
28B
331
1B9
  5
274
331
43A
  5
554
331
19A
  5
255
331
41B
  5
517
331
17B
  5
236
331
3FC
  5
504
331
124
  5
1A0
331
3E5
  5
4D1
331
3C6
  5
4AE
331
3A7
  5
48F
331
388
  5
470
331
513
  5
9F7
331
4BE
  5
9C6
331
49F
  5
9A7
331
35D
  5
435
331
33E
  5
416
331
31F
  5
3E7
331
2F0
  5
3BE
331
2D9
  5
3A7
331
2BA
  5
388
331
29B
  5
369
331
27C
  5
34A
331
1C0
  5
27B
331
449
  5
7E3
331
1A9
  5
264
331
42A
  5
52E
331
18A
  5
245
331
40B
  5
50C
331
16B
  5
226
331
3EC
  5
4E7
331
114
  5
190
331
3D5
  5
4BD
331
3B6
  5
49E
331
397
  5
47F
331
378
  5
458
331
541
  5
A0D
331
503
  5
9E7
331
4AE
  5
9B6
331
48F
  5
997
331
36C
  5
444
331
34D
  5
425
331
32E
  5
3FA
331
30F
  5
3CA
331
2C9
  5
397
331
2AA
  5
378
331
28B
  5
359
331
458
  5
814
331
1B8
  5
273
331
439
  5
551
331
199
  5
254
331
41A
  5
516
331
17A
  5
235
331
3FB
  5
501
331
123
  5
19F
331
3C5
  5
4AD
331
3A6
  5
48E
331
387
  5
46F
331
512
  5
9F6
331
4BD
  5
9C5
331
49E
  5
9A6
331
47F
  5
987
331
35C
  5
434
331
33D
  5
415
331
31E
  5
3E5
331
2EF
  5
3BD
331
2D8
  5
3A6
331
2B9
  5
387
331
29A
  5
368
331
27B
  5
349
331
448
  5
7E2
331
1A8
  5
263
331
429
  5
52D
331
189
  5
244
331
3EB
  5
4E1
331
113
  5
18F
331
3D4
  5
4BC
331
3B5
  5
49D
331
396
  5
47E
331
377
  5
457
331
540
  5
A0C
331
502
  5
9E6
331
4AD
  5
9B5
331
48E
  5
996
331
46F
  5
824
331
36B
  5
443
331
34C
  5
424
331
32D
  5
3F9
331
30E
  5
3C9
331
2E7
  5
3B5
331
2C8
  5
396
331
2A9
  5
377
331
28A
  5
358
331
438
  5
550
331
198
  5
253
331
419
  5
515
331
179
  5
234
331
3FA
  5
500
331
122
  5
19E
331
3E3
  5
4CC
331
3C4
  5
4AC
331
3A5
  5
48D
331
386
  5
46E
331
54F
  5
A15
331
511
  5
9F5
331
4BC
  5
9C4
331
49D
  5
9A5
331
47E
  5
986
331
35B
  5
433
331
33C
  5
414
331
31D
  5
3E3
331
2EE
  5
3BC
331
2D7
  5
3A5
331
2B8
  5
386
331
299
  5
367
331
27A
  5
348
331
428
  5
528
331
188
  5
243
331
3EA
  5
4E0
331
3D3
  5
4BB
331
3B4
  5
49C
331
395
  5
47D
331
376
  5
456
331
53F
  5
A0B
331
501
  5
9E5
331
4CB
  5
9D0
331
4AC
  5
9B4
331
48D
  5
995
331
46E
  5
823
331
36A
  5
442
331
34B
  5
423
331
32C
  5
3F8
331
30D
  5
3C8
331
2E6
  5
3B4
331
2C7
  5
395
331
2A8
  5
376
331
289
  5
357
331
418
  5
514
331
178
  5
233
331
3F9
  5
4FD
331
121
  5
19D
331
3C3
  5
4AB
331
3A4
  5
48C
331
385
  5
46D
331
54E
  5
A14
331
52F
  5
A07
331
510
  5
9F4
331
4F1
  5
9DB
331
4BB
  5
9C3
331
49C
  5
9A4
331
47D
  5
985
331
35A
  5
432
331
33B
  5
413
331
31C
  5
3E0
331
2ED
  5
3BB
331
2D6
  5
3A4
331
2B7
  5
385
331
298
  5
366
331
279
  5
347
331
3E9
  5
4D5
331
3D2
  5
4BA
331
3B3
  5
49B
331
394
  5
47C
331
375
  5
455
331
53E
  5
A0A
331
51F
  5
A03
331
500
  5
9E4
331
4E1
  5
9D7
331
4CA
  5
9CF
331
4AB
  5
9B3
331
48C
  5
994
331
46D
  5
822
331
A77
  5
9A
331
369
  5
441
331
34A
  5
422
331
32B
  5
3F7
331
30C
  5
3C7
331
2E5
  5
3B3
331
2C6
  5
394
331
2A7
  5
375
331
288
  5
356
331
3F8
  5
4FC
331
120
  5
19C
331
3E1
  5
4CB
331
3C2
  5
4AA
331
3A3
  5
48B
331
827
  5
A58
331
384
  5
46C
331
54D
  5
A13
331
52E
  5
A06
331
50F
  5
9F3
331
4F0
  5
9DA
331
4BA
  5
9C2
331
49B
  5
9A3
331
47C
  5
8A6
331
A67
  5
BB
331
359
  5
431
331
33A
  5
40D
331
31B
  5
3DF
331
2EC
  5
3BA
331
2D5
  5
3A3
331
2B6
  5
384
331
297
  5
365
331
278
  5
346
331
3E8
  5
4D4
331
3D1
  5
4B9
331
3B2
  5
49A
331
393
  5
47B
331
817
  5
A48
331
374
  5
454
331
51E
  5
A02
331
4FF
  5
9E3
331
4E0
  5
9D6
331
4C9
  5
9CE
331
4AA
  5
9B2
331
48B
  5
993
331
46C
  5
821
331
A57
  5
A62
331
A76
  5
99
331
368
  5
440
331
349
  5
421
331
32A
  5
3F3
331
30B
  5
3C6
331
2E4
  5
3B2
331
2C5
  5
393
331
2A6
  5
374
331
287
  5
355
331
3C1
  5
4A9
331
3A2
  5
48A
331
826
  5
A57
331
383
  5
46B
331
7E7
  5
A3D
331
54C
  5
A12
331
50E
  5
9F2
331
4B9
  5
9C1
331
49A
  5
9A2
331
47B
  5
8A5
331
A47
  5
A72
331
A66
  5
BA
331
358
  5
430
331
339
  5
407
331
31A
  5
3DE
331
2EB
  5
3B9
331
2D4
  5
3A2
331
2B5
  5
383
331
296
  5
364
331
277
  5
345
331
3D0
  5
4B8
331
3B1
  5
499
331
392
  5
47A
331
816
  5
A47
331
373
  5
453
331
51D
  5
A01
331
4FE
  5
9E2
331
4A9
  5
9B1
331
48A
  5
992
331
46B
  5
820
331
A56
  5
A61
331
A75
  5
A1
331
A37
  5
93
331
348
  5
420
331
329
  5
3F2
331
30A
  5
3C5
331
2E3
  5
3B1
331
2C4
  5
392
331
2A5
  5
373
331
286
  5
354
331
3C0
  5
4A8
331
3A1
  5
489
331
825
  5
A56
331
382
  5
46A
331
7E6
  5
A2A
331
54B
  5
A11
331
50D
  5
9F1
331
4B8
  5
9C0
331
499
  5
9A1
331
47A
  5
8A4
331
A46
  5
A71
331
A65
  5
B9
331
338
  5
405
331
319
  5
3DD
331
2EA
  5
3B8
331
2D3
  5
3A1
331
2B4
  5
382
331
295
  5
363
331
276
  5
344
331
3B0
  5
498
331
391
  5
479
331
815
  5
A46
331
372
  5
44A
331
51C
  5
A00
331
4FD
  5
9E1
331
4A8
  5
9B0
331
489
  5
991
331
46A
  5
81F
331
A55
  5
A64
331
A74
  5
A0
331
328
  5
3F0
331
309
  5
3C4
331
2E2
  5
3B0
331
2C3
  5
391
331
2A4
  5
372
331
285
  5
353
331
3A0
  5
488
331
824
  5
A55
331
381
  5
469
331
7E5
  5
A29
331
54A
  5
A10
331
50C
  5
9F0
331
4B7
  5
9BF
331
498
  5
9A0
331
479
  5
8A3
331
A45
  5
A74
331
A64
  5
BC
331
318
  5
3D3
331
2E9
  5
3B7
331
2D2
  5
3A0
331
2B3
  5
381
331
294
  5
362
331
275
  5
343
331
390
  5
478
331
814
  5
A45
331
371
  5
449
331
51B
  5
9FF
331
4FC
  5
9E0
331
4A7
  5
9AF
331
488
  5
990
331
469
  5
81E
331
A54
  5
A67
331
A73
  5
9F
331
2E1
  5
3AF
331
2C2
  5
390
331
2A3
  5
371
331
284
  5
352
331
823
  5
A54
331
380
  5
468
331
7E4
  5
A28
331
549
  5
A0F
331
50B
  5
9EF
331
4B6
  5
9BE
331
497
  5
99F
331
478
  5
8A2
331
A44
  5
A77
331
A63
  5
C2
331
2E8
  5
3B6
331
2D1
  5
39F
331
2B2
  5
380
331
293
  5
361
331
274
  5
342
331
813
  5
A44
331
370
  5
448
331
51A
  5
9FE
331
4FB
  5
9DF
331
4A6
  5
9AE
331
487
  5
98F
331
468
  5
81D
331
A53
  5
A66
331
A72
  5
A5
331
2E0
  5
3AE
331
2C1
  5
38F
331
2A2
  5
370
331
283
  5
351
331
822
  5
A53
331
7E3
  5
A27
331
548
  5
A0E
331
50A
  5
9EE
331
4B5
  5
9BD
331
496
  5
99E
331
477
  5
8A1
331
A43
  5
A76
331
A62
  5
C1
331
2D0
  5
39E
331
2B1
  5
37F
331
292
  5
360
331
273
  5
341
331
812
  5
A43
331
55B
  5
A21
331
519
  5
9FD
331
4FA
  5
9DE
331
4A5
  5
9AD
331
486
  5
98E
331
467
  5
81C
331
A52
  5
A65
331
A71
  5
AE
331
A33
  5
AB
331
2C0
  5
38E
331
2A1
  5
36F
331
282
  5
350
331
821
  5
A52
331
7E2
  5
A26
331
509
  5
9ED
331
4D3
  5
9D5
331
4B4
  5
9BC
331
495
  5
99D
331
476
  5
8A0
331
A42
  5
A75
331
A61
  5
C0
331
2B0
  5
37E
331
291
  5
35F
331
272
  5
340
331
811
  5
A42
331
55A
  5
A20
331
107
  5
186
331
518
  5
9FC
331
4F9
  5
9DD
331
4C3
  5
9CB
331
4A4
  5
9AC
331
485
  5
98D
331
466
  5
81B
331
A51
  5
A68
331
A70
  5
AD
331
A32
  5
A7
331
2A0
  5
36E
331
281
  5
34F
331
820
  5
A51
331
F7
  5
176
331
508
  5
9EC
331
4E9
  5
9D9
331
4D2
  5
9D4
331
4B3
  5
9BB
331
494
  5
99C
331
475
  5
89F
331
A41
  5
A78
331
A60
  5
C5
331
290
  5
35E
331
271
  5
33F
331
810
  5
A41
331
89F
  5
3D6
331
559
  5
A1F
331
106
  5
185
331
E7
  5
124
331
4F8
  5
9DC
331
4C2
  5
9CA
331
4A3
  5
9AB
331
484
  5
98C
331
465
  5
81A
331
A50
  5
A6B
331
A6F
  5
AC
331
A31
  5
A6
331
280
  5
34E
331
81F
  5
A50
331
F6
  5
175
331
D7
  5
114
331
4E8
  5
9D8
331
4D1
  5
9D3
331
4B2
  5
9BA
331
493
  5
99B
331
474
  5
89E
331
A40
  5
A7B
331
A5F
  5
C4
331
270
  5
33E
331
558
  5
A1E
331
89E
  5
3D5
331
105
  5
184
331
E6
  5
123
331
C7
  5
FB
331
4C1
  5
9C9
331
4A2
  5
9AA
331
483
  5
98B
331
464
  5
819
331
A4F
  5
A6A
331
A6E
  5
B1
331
81E
  5
A4F
331
567
  5
A24
331
F5
  5
174
331
D6
  5
113
331
B7
  5
EB
331
4B1
  5
9B9
331
492
  5
99A
331
473
  5
89D
331
A3F
  5
A7A
331
A5E
  5
C3
331
557
  5
A1D
331
89D
  5
3D4
331
104
  5
183
331
E5
  5
122
331
C6
  5
FA
331
A7
  5
DB
331
4C0
  5
9C8
331
4A1
  5
9A9
331
482
  5
98A
331
463
  5
818
331
A4E
  5
A69
331
A6D
  5
B0
331
81D
  5
A4E
331
566
  5
A23
331
F4
  5
173
331
D5
  5
109
331
B6
  5
EA
331
4B0
  5
9B8
331
491
  5
999
331
A7C
  5
A5C
331
472
  5
827
331
A3E
  5
A79
331
A5D
  5
C6
331
A1F
  5
189
331
267
  5
335
331
97
  5
CB
331
556
  5
A1C
331
103
  5
182
331
E4
  5
121
331
C5
  5
F9
331
9AF
  5
2AB
331
A6
  5
DA
331
4A0
  5
9A8
331
481
  5
989
331
462
  5
817
331
A4D
  5
A6C
331
A6C
  5
AF
331
A0F
  5
1D4
331
257
  5
325
331
81C
  5
A4D
331
565
  5
A22
331
F3
  5
172
331
D4
  5
108
331
99F
  5
7E8
331
B5
  5
E9
331
490
  5
998
331
A7B
  5
A5A
331
A3D
  5
A7C
331
471
  5
826
331
A1E
  5
225
331
9FF
  5
1C4
331
266
  5
334
331
247
  5
312
331
96
  5
CA
331
555
  5
A1B
331
102
  5
181
331
E3
  5
120
331
C4
  5
F8
331
9AE
  5
2AA
331
A5
  5
D9
331
480
  5
988
331
461
  5
816
331
A4C
  5
A6F
331
A6B
  5
B2
331
A2D
  5
B5
331
A0E
  5
1D3
331
9EF
  5
1B4
331
256
  5
323
331
237
  5
2EF
331
81B
  5
A4C
331
F2
  5
171
331
D3
  5
107
331
99E
  5
7E7
331
B4
  5
E8
  0
XRECORD
  5
A82
102
{ACAD_REACTORS
330
A80
102
}
330
A80
100
AcDbXrecord
280
     1
 70
     2
  0
XRECORD
  5
A81
102
{ACAD_REACTORS
330
A80
102
}
330
A80
100
AcDbXrecord
280
     1
 40
1.25
  0
XRECORD
  5
A83
102
{ACAD_REACTORS
330
A80
102
}
330
A80
100
AcDbXrecord
280
     1
 40
1.570796326794896
  0
LAYOUT
  5
39
102
{ACAD_XDICTIONARY
360
AA7
102
}
102
{ACAD_REACTORS
330
2E
102
}
330
2E
100
AcDbPlotSettings
  1

  2
PDF Complete
  4

  6

 40
0.0
 41
0.0
 42
0.0
 43
0.0
 44
0.0
 45
0.0
 46
0.0
 47
0.0
 48
0.0
 49
0.0
140
0.0
141
0.0
142
1.0
143
1.0
 70
  1712
 72
     0
 73
     0
 74
     0
  7

 75
     0
147
1.0
148
0.0
149
0.0
100
AcDbLayout
  1
Model
 70
     1
 71
     0
 10
0.0
 20
0.0
 11
12.0
 21
9.0
 12
0.0
 22
0.0
 32
0.0
 14
0.0
 24
0.0
 34
0.0
 15
0.0
 25
0.0
 35
0.0
146
0.0
 13
0.0
 23
0.0
 33
0.0
 16
1.0
 26
0.0
 36
0.0
 17
0.0
 27
1.0
 37
0.0
 76
     0
330
36
331
56
  0
LAYOUT
  5
35
102
{ACAD_XDICTIONARY
360
AA5
102
}
102
{ACAD_REACTORS
330
2E
102
}
330
2E
100
AcDbPlotSettings
  1

  2
PDF Complete
  4

  6

 40
0.0
 41
0.0
 42
0.0
 43
0.0
 44
0.0
 45
0.0
 46
0.0
 47
0.0
 48
0.0
 49
0.0
140
0.0
141
0.0
142
1.0
143
1.0
 70
   688
 72
     0
 73
     0
 74
     5
  7

 75
    16
147
1.0
148
0.0
149
0.0
100
AcDbLayout
  1
レイアウト1
 70
     1
 71
     1
 10
0.0
 20
0.0
 11
12.0
 21
9.0
 12
0.0
 22
0.0
 32
0.0
 14
1.000000000000000E+20
 24
1.000000000000000E+20
 34
1.000000000000000E+20
 15
-1.000000000000000E+20
 25
-1.000000000000000E+20
 35
-1.000000000000000E+20
146
0.0
 13
0.0
 23
0.0
 33
0.0
 16
1.0
 26
0.0
 36
0.0
 17
0.0
 27
1.0
 37
0.0
 76
     0
330
32
  0
MATERIAL
  5
12
102
{ACAD_XDICTIONARY
360
573
102
}
102
{ACAD_REACTORS
330
10
102
}
330
10
100
AcDbMaterial
  1
ByBlock
  0
MATERIAL
  5
11
102
{ACAD_XDICTIONARY
360
571
102
}
102
{ACAD_REACTORS
330
10
102
}
330
10
100
AcDbMaterial
  1
ByLayer
  0
MATERIAL
  5
13
102
{ACAD_XDICTIONARY
360
575
102
}
102
{ACAD_REACTORS
330
10
102
}
330
10
100
AcDbMaterial
  1
Global
  0
MLEADERSTYLE
  5
59E
102
{ACAD_REACTORS
330
59D
102
}
330
59D
100
AcDbMLeaderStyle
170
     2
171
     1
172
     0
 90
        2
 40
0.0
 41
0.0
173
     1
 91
-1056964608
340
28
 92
       -2
290
     1
 42
0.09
291
     1
 43
0.36
  3
Standard
 44
0.18
300

342
26
174
     1
178
     6
175
     1
176
     0
 93
-1056964608
 45
0.18
292
     0
297
     0
 46
0.18
 94
-1056964608
 47
1.0
 49
1.0
140
1.0
293
     1
141
0.0
294
     1
177
     0
142
1.0
295
     0
296
     0
143
0.125
1001
ACAD_MLEADERVER
1070
     2
  0
MLINESTYLE
  5
2C
102
{ACAD_REACTORS
330
2B
102
}
330
2B
100
AcDbMlineStyle
  2
STANDARD
 70
     0
  3

 62
   256
 51
90.0
 52
90.0
 71
     2
 49
0.5
 62
   256
  6
BYLAYER
 49
-0.5
 62
   256
  6
BYLAYER
  0
ACDBPLACEHOLDER
  5
F
102
{ACAD_REACTORS
330
E
102
}
330
E
  0
SCALE
  5
58C
102
{ACAD_REACTORS
330
58B
102
}
330
58B
100
AcDbScale
 70
     0
300
1:1
140
1.0
141
1.0
290
     1
  0
SCALE
  5
58D
102
{ACAD_REACTORS
330
58B
102
}
330
58B
100
AcDbScale
 70
     0
300
1/128" = 1'-0"
140
0.0078125
141
12.0
290
     0
  0
SCALE
  5
58E
102
{ACAD_REACTORS
330
58B
102
}
330
58B
100
AcDbScale
 70
     0
300
1/64" = 1'-0"
140
0.015625
141
12.0
290
     0
  0
SCALE
  5
58F
102
{ACAD_REACTORS
330
58B
102
}
330
58B
100
AcDbScale
 70
     0
300
1/32" = 1'-0"
140
0.03125
141
12.0
290
     0
  0
SCALE
  5
590
102
{ACAD_REACTORS
330
58B
102
}
330
58B
100
AcDbScale
 70
     0
300
1/16" = 1'-0"
140
0.0625
141
12.0
290
     0
  0
SCALE
  5
591
102
{ACAD_REACTORS
330
58B
102
}
330
58B
100
AcDbScale
 70
     0
300
3/32" = 1'-0"
140
0.09375
141
12.0
290
     0
  0
SCALE
  5
592
102
{ACAD_REACTORS
330
58B
102
}
330
58B
100
AcDbScale
 70
     0
300
1/8" = 1'-0"
140
0.125
141
12.0
290
     0
  0
SCALE
  5
593
102
{ACAD_REACTORS
330
58B
102
}
330
58B
100
AcDbScale
 70
     0
300
3/16" = 1'-0"
140
0.1875
141
12.0
290
     0
  0
SCALE
  5
594
102
{ACAD_REACTORS
330
58B
102
}
330
58B
100
AcDbScale
 70
     0
300
1/4" = 1'-0"
140
0.25
141
12.0
290
     0
  0
SCALE
  5
595
102
{ACAD_REACTORS
330
58B
102
}
330
58B
100
AcDbScale
 70
     0
300
3/8" = 1'-0"
140
0.375
141
12.0
290
     0
  0
SCALE
  5
596
102
{ACAD_REACTORS
330
58B
102
}
330
58B
100
AcDbScale
 70
     0
300
1/2" = 1'-0"
140
0.5
141
12.0
290
     0
  0
SCALE
  5
597
102
{ACAD_REACTORS
330
58B
102
}
330
58B
100
AcDbScale
 70
     0
300
3/4" = 1'-0"
140
0.75
141
12.0
290
     0
  0
SCALE
  5
598
102
{ACAD_REACTORS
330
58B
102
}
330
58B
100
AcDbScale
 70
     0
300
1" = 1'-0"
140
1.0
141
12.0
290
     0
  0
SCALE
  5
599
102
{ACAD_REACTORS
330
58B
102
}
330
58B
100
AcDbScale
 70
     0
300
1-1/2" = 1'-0"
140
1.5
141
12.0
290
     0
  0
SCALE
  5
59A
102
{ACAD_REACTORS
330
58B
102
}
330
58B
100
AcDbScale
 70
     0
300
3" = 1'-0"
140
3.0
141
12.0
290
     0
  0
SCALE
  5
59B
102
{ACAD_REACTORS
330
58B
102
}
330
58B
100
AcDbScale
 70
     0
300
6" = 1'-0"
140
6.0
141
12.0
290
     0
  0
SCALE
  5
59C
102
{ACAD_REACTORS
330
58B
102
}
330
58B
100
AcDbScale
 70
     0
300
1'-0" = 1'-0"
140
12.0
141
12.0
290
     0
  0
TABLESTYLE
  5
31
102
{ACAD_XDICTIONARY
360
82F
102
}
102
{ACAD_REACTORS
330
30
102
}
330
30
100
AcDbTableStyle
  3
Standard
 70
     0
 71
     0
 40
0.06
 41
0.06
280
     0
281
     0
  7
STANDARD
140
0.18
170
     2
 62
     0
 63
     7
283
     0
274
    -2
284
     1
 64
     0
275
    -2
285
     1
 65
     0
276
    -2
286
     1
 66
     0
277
    -2
287
     1
 67
     0
278
    -2
288
     1
 68
     0
279
    -2
289
     1
 69
     0
  7
STANDARD
140
0.25
170
     5
 62
     0
 63
     7
283
     0
274
    -2
284
     1
 64
     0
275
    -2
285
     1
 65
     0
276
    -2
286
     1
 66
     0
277
    -2
287
     1
 67
     0
278
    -2
288
     1
 68
     0
279
    -2
289
     1
 69
     0
  7
STANDARD
140
0.18
170
     5
 62
     0
 63
     7
283
     0
274
    -2
284
     1
 64
     0
275
    -2
285
     1
 65
     0
276
    -2
286
     1
 66
     0
277
    -2
287
     1
 67
     0
278
    -2
288
     1
 68
     0
279
    -2
289
     1
 69
     0
  0
VISUALSTYLE
  5
1A
102
{ACAD_XDICTIONARY
360
A8E
102
}
102
{ACAD_REACTORS
330
14
102
}
330
14
100
AcDbVisualStyle
  2

 70
     4
 71
     0
 72
     2
 73
     0
 90
        0
 40
-0.6
 41
-30.0
 62
     5
 63
     7
 74
     1
 91
        4
 64
     7
 65
   257
 75
     1
175
     1
 42
1.0
 92
        0
 66
   257
 43
1.0
 76
     1
 77
     6
 78
     2
 67
     7
 79
     5
170
     0
171
     0
290
     0
174
     0
 93
        1
 44
0.0
173
     0
291
     0
 45
0.0
1001
ACAD
1000
AcDbSavedByObjectVersion
1070
     0
  0
VISUALSTYLE
  5
1C
102
{ACAD_XDICTIONARY
360
A92
102
}
102
{ACAD_REACTORS
330
14
102
}
330
14
100
AcDbVisualStyle
  2

 70
     6
 71
     1
 72
     2
 73
     2
 90
        0
 40
-0.6
 41
-30.0
 62
     5
 63
     7
 74
     2
 91
        2
 64
     7
 65
   257
 75
     2
175
     1
 42
40.0
 92
        0
 66
   257
 43
1.0
 76
     1
 77
     6
 78
     2
 67
     7
 79
     3
170
     0
171
     0
290
     0
174
     0
 93
        1
 44
0.0
173
     0
291
     0
 45
0.0
1001
ACAD
1000
AcDbSavedByObjectVersion
1070
     0
  0
VISUALSTYLE
  5
1B
102
{ACAD_XDICTIONARY
360
A90
102
}
102
{ACAD_REACTORS
330
14
102
}
330
14
100
AcDbVisualStyle
  2

 70
     5
 71
     0
 72
     2
 73
     0
 90
        0
 40
-0.6
 41
-30.0
 62
     5
 63
     7
 74
     1
 91
        4
 64
     7
 65
   257
 75
     1
175
     1
 42
1.0
 92
        0
 66
   257
 43
1.0
 76
     1
 77
     6
 78
     2
 67
     7
 79
     5
170
     0
171
     0
290
     0
174
     0
 93
        1
 44
0.0
173
     0
291
     0
 45
0.0
1001
ACAD
1000
AcDbSavedByObjectVersion
1070
     0
  0
VISUALSTYLE
  5
19
102
{ACAD_XDICTIONARY
360
A8C
102
}
102
{ACAD_REACTORS
330
14
102
}
330
14
100
AcDbVisualStyle
  2

 70
     7
 71
     1
 72
     0
 73
     1
 90
        0
 40
-0.6
 41
-30.0
 62
     5
 63
     7
 74
     0
 91
        4
 64
     7
 65
   257
 75
     1
175
     1
 42
1.0
 92
        8
 66
     7
 43
1.0
 76
     1
 77
     6
 78
     2
 67
     7
 79
     5
170
     0
171
     0
290
     0
174
     0
 93
        1
 44
0.0
173
     0
291
     1
 45
0.0
1001
ACAD
1000
AcDbSavedByObjectVersion
1070
     0
  0
VISUALSTYLE
  5
20
102
{ACAD_XDICTIONARY
360
A9A
102
}
102
{ACAD_REACTORS
330
14
102
}
330
14
100
AcDbVisualStyle
  2

 70
    12
 71
     2
 72
     2
 73
     0
 90
        0
 40
-0.6
 41
-30.0
 62
     5
 63
     7
 74
     1
 91
        4
 64
     7
 65
   257
 75
     1
175
     1
 42
1.0
 92
        8
 66
     7
 43
1.0
 76
     1
 77
     6
 78
     2
 67
     7
 79
     5
170
     0
171
     0
290
     0
174
     0
 93
        1
 44
50.0
173
     0
291
     1
 45
0.0
1001
ACAD
1000
AcDbSavedByObjectVersion
1070
     0
  0
VISUALSTYLE
  5
24
102
{ACAD_XDICTIONARY
360
AA2
102
}
102
{ACAD_REACTORS
330
14
102
}
330
14
100
AcDbVisualStyle
  2

 70
    16
 71
     2
 72
     2
 73
     3
 90
        0
 40
-0.6
 41
-30.0
 62
     5
 63
     8
 74
     1
 91
        4
 64
     7
 65
   257
 75
     1
175
     1
 42
1.0
 92
        8
 66
     8
 43
1.0
 76
     1
 77
     6
 78
     2
 67
     7
 79
     5
170
     0
171
     0
290
     0
174
     0
 93
        1
 44
0.0
173
     0
291
     1
 45
0.0
1001
ACAD
1000
AcDbSavedByObjectVersion
1070
     0
  0
VISUALSTYLE
  5
1D
102
{ACAD_XDICTIONARY
360
A94
102
}
102
{ACAD_REACTORS
330
14
102
}
330
14
100
AcDbVisualStyle
  2

 70
     9
 71
     3
 72
     2
 73
     0
 90
        0
 40
-0.6
 41
-30.0
 62
     5
 63
     7
 74
     2
 91
        2
 64
     7
 65
   257
 75
     1
175
     1
 42
40.0
 92
        8
 66
     7
 43
1.0
 76
     1
 77
     6
 78
     2
 67
     7
 79
     3
170
     0
171
     0
290
     0
174
     0
 93
        1
 44
0.0
173
     0
291
     0
 45
0.0
1001
ACAD
1000
AcDbSavedByObjectVersion
1070
     0
  0
VISUALSTYLE
  5
1F
102
{ACAD_XDICTIONARY
360
A98
102
}
102
{ACAD_REACTORS
330
14
102
}
330
14
100
AcDbVisualStyle
  2

 70
    11
 71
     2
 72
     2
 73
     0
 90
        0
 40
-0.6
 41
-30.0
 62
     5
 63
     7
 74
     1
 91
        4
 64
     7
 65
   257
 75
     1
175
     1
 42
1.0
 92
        8
 66
     7
 43
1.0
 76
     1
 77
     6
 78
     2
 67
     7
 79
     5
170
     0
171
     0
290
     0
174
     0
 93
        1
 44
-50.0
173
     0
291
     1
 45
0.0
1001
ACAD
1000
AcDbSavedByObjectVersion
1070
     0
  0
VISUALSTYLE
  5
58A
102
{ACAD_XDICTIONARY
360
ABB
102
}
102
{ACAD_REACTORS
330
14
102
}
330
14
100
AcDbVisualStyle
  2

 70
    22
 71
     2
 72
     2
 73
     0
 90
        0
 40
-0.6
 41
-30.0
 62
     5
 63
     7
 74
     1
 91
        4
 64
     7
 65
   257
 75
     1
175
     1
 42
1.0
 92
        8
 66
     7
 43
1.0
 76
     1
 77
     6
 78
     2
 67
     7
 79
     5
170
     0
171
     0
290
     0
174
     0
 93
        1
 44
0.0
173
     0
291
     1
 45
0.0
1001
ACAD
1000
AcDbSavedByObjectVersion
1070
     0
  0
VISUALSTYLE
  5
23
102
{ACAD_XDICTIONARY
360
AA0
102
}
102
{ACAD_REACTORS
330
14
102
}
330
14
100
AcDbVisualStyle
  2

 70
    15
 71
     2
 72
     2
 73
     0
 90
        0
 40
-0.6
 41
-30.0
 62
     5
 63
     7
 74
     1
 91
        4
 64
     7
 65
   257
 75
     1
175
     1
 42
1.0
 92
        8
 66
     7
 43
1.0
 76
     1
 77
     6
 78
     2
 67
     7
 79
     5
170
     0
171
     0
290
     0
174
     0
 93
        1
 44
0.0
173
     0
291
     1
 45
0.0
1001
ACAD
1000
AcDbSavedByObjectVersion
1070
     0
  0
VISUALSTYLE
  5
15
102
{ACAD_XDICTIONARY
360
A84
102
}
102
{ACAD_REACTORS
330
14
102
}
330
14
100
AcDbVisualStyle
  2

 70
     0
 71
     2
 72
     1
 73
     1
 90
        2
 40
-0.6
 41
30.0
 62
     5
 63
     7
 74
     0
 91
        4
 64
     7
 65
   257
 75
     1
175
     1
 42
1.0
 92
        8
 66
     7
 43
1.0
 76
     1
 77
     6
 78
     2
 67
     7
 79
     5
170
     0
171
     0
290
     0
174
     0
 93
       13
 44
0.0
173
     0
291
     1
 45
0.0
1001
ACAD
1000
AcDbSavedByObjectVersion
1070
     0
  0
VISUALSTYLE
  5
16
102
{ACAD_XDICTIONARY
360
A86
102
}
102
{ACAD_REACTORS
330
14
102
}
330
14
100
AcDbVisualStyle
  2

 70
     1
 71
     2
 72
     1
 73
     1
 90
        2
 40
-0.6
 41
30.0
 62
     5
 63
     7
 74
     1
 91
        4
 64
     7
 65
   257
 75
     1
175
     1
 42
1.0
 92
        0
 66
   257
 43
1.0
 76
     1
 77
     6
 78
     2
 67
     7
 79
     5
170
     0
171
     0
290
     0
174
     0
 93
       13
 44
0.0
173
     0
291
     1
 45
0.0
1001
ACAD
1000
AcDbSavedByObjectVersion
1070
     0
  0
VISUALSTYLE
  5
17
102
{ACAD_XDICTIONARY
360
A88
102
}
102
{ACAD_REACTORS
330
14
102
}
330
14
100
AcDbVisualStyle
  2

 70
     2
 71
     2
 72
     2
 73
     1
 90
        2
 40
-0.6
 41
30.0
 62
     5
 63
     7
 74
     0
 91
        4
 64
     7
 65
   257
 75
     1
175
     1
 42
1.0
 92
        0
 66
     7
 43
1.0
 76
     1
 77
     6
 78
     2
 67
     7
 79
     5
170
     0
171
     0
290
     0
174
     0
 93
       13
 44
0.0
173
     0
291
     1
 45
0.0
1001
ACAD
1000
AcDbSavedByObjectVersion
1070
     0
  0
VISUALSTYLE
  5
18
102
{ACAD_XDICTIONARY
360
A8A
102
}
102
{ACAD_REACTORS
330
14
102
}
330
14
100
AcDbVisualStyle
  2

 70
     3
 71
     2
 72
     2
 73
     1
 90
        2
 40
-0.6
 41
30.0
 62
     5
 63
     7
 74
     1
 91
        4
 64
     7
 65
   257
 75
     1
175
     1
 42
1.0
 92
        0
 66
   257
 43
1.0
 76
     1
 77
     6
 78
     2
 67
     7
 79
     5
170
     0
171
     0
290
     0
174
     0
 93
       13
 44
0.0
173
     0
291
     1
 45
0.0
1001
ACAD
1000
AcDbSavedByObjectVersion
1070
     0
  0
VISUALSTYLE
  5
582
102
{ACAD_XDICTIONARY
360
AAB
102
}
102
{ACAD_REACTORS
330
14
102
}
330
14
100
AcDbVisualStyle
  2

 70
     6
 71
     1
 72
     2
 73
     2
 90
        0
 40
-0.6
 41
-30.0
 62
     5
 63
     7
 74
     2
 91
        2
 64
     7
 65
   257
 75
     2
175
     1
 42
40.0
 92
        0
 66
   257
 43
1.0
 76
     1
 77
     6
 78
     2
 67
     7
 79
     3
170
     0
171
     0
290
     0
174
     0
 93
        1
 44
0.0
173
     0
291
     0
 45
0.0
1001
ACAD
1000
AcDbSavedByObjectVersion
1070
     0
  0
VISUALSTYLE
  5
588
102
{ACAD_XDICTIONARY
360
AB7
102
}
102
{ACAD_REACTORS
330
14
102
}
330
14
100
AcDbVisualStyle
  2

 70
    20
 71
     2
 72
     2
 73
     0
 90
        0
 40
-0.6
 41
-30.0
 62
     5
 63
     7
 74
     1
 91
        4
 64
     7
 65
   257
 75
     1
175
     1
 42
1.0
 92
       10
 66
     7
 43
1.0
 76
     1
 77
     6
 78
     2
 67
     7
 79
     5
170
     0
171
     0
290
     0
174
     0
 93
        1
 44
0.0
173
     0
291
     1
 45
0.0
1001
ACAD
1000
AcDbSavedByObjectVersion
1070
     0
  0
VISUALSTYLE
  5
22
102
{ACAD_XDICTIONARY
360
A9E
102
}
102
{ACAD_REACTORS
330
14
102
}
330
14
100
AcDbVisualStyle
  2

 70
    14
 71
     2
 72
     2
 73
     0
 90
        0
 40
-0.6
 41
-30.0
 62
     5
 63
     7
 74
     1
 91
        4
 64
     7
 65
   257
 75
     7
175
     7
 42
1.0
 92
        8
 66
     7
 43
1.0
 76
     1
 77
     6
 78
     2
 67
     7
 79
     5
170
     0
171
     0
290
     0
174
     0
 93
        1
 44
0.0
173
     0
291
     1
 45
0.0
1001
ACAD
1000
AcDbSavedByObjectVersion
1070
     0
  0
VISUALSTYLE
  5
589
102
{ACAD_XDICTIONARY
360
AB9
102
}
102
{ACAD_REACTORS
330
14
102
}
330
14
100
AcDbVisualStyle
  2

 70
    21
 71
     2
 72
     2
 73
     0
 90
        0
 40
-0.6
 41
-30.0
 62
     5
 63
     7
 74
     1
 91
        4
 64
     7
 65
   257
 75
     1
175
     1
 42
1.0
 92
        9
 66
     7
 43
1.0
 76
     1
 77
     6
 78
     2
 67
     7
 79
     5
170
     0
171
     0
290
     0
174
     0
 93
        1
 44
0.0
173
     0
291
     1
 45
0.0
1001
ACAD
1000
AcDbSavedByObjectVersion
1070
     0
  0
VISUALSTYLE
  5
1E
102
{ACAD_XDICTIONARY
360
A96
102
}
102
{ACAD_REACTORS
330
14
102
}
330
14
100
AcDbVisualStyle
  2

 70
     8
 71
     2
 72
     2
 73
     0
 90
        0
 40
-0.6
 41
-30.0
 62
     5
 63
     7
 74
     1
 91
        0
 64
     7
 65
   257
 75
     1
175
     1
 42
1.0
 92
        8
 66
     8
 43
1.0
 76
     1
 77
     6
 78
     2
 67
     7
 79
     5
170
     0
171
     0
290
     0
174
     0
 93
       13
 44
0.0
173
     0
291
     0
 45
0.0
1001
ACAD
1000
AcDbSavedByObjectVersion
1070
     0
  0
VISUALSTYLE
  5
587
102
{ACAD_XDICTIONARY
360
AB5
102
}
102
{ACAD_REACTORS
330
14
102
}
330
14
100
AcDbVisualStyle
  2

 70
    27
 71
     2
 72
     2
 73
     1
 90
        2
 40
-0.6
 41
30.0
 62
     5
 63
     7
 74
     0
 91
        4
 64
     7
 65
   257
 75
     1
175
     1
 42
1.0
 92
        8
 66
   257
 43
1.0
 76
     1
 77
     6
 78
     2
 67
     8
 79
     3
170
     0
171
     0
290
     0
174
     0
 93
        5
 44
0.0
173
     0
291
     0
 45
0.0
1001
ACAD
1000
AcDbSavedByObjectVersion
1070
     0
  0
VISUALSTYLE
  5
586
102
{ACAD_XDICTIONARY
360
AB3
102
}
102
{ACAD_REACTORS
330
14
102
}
330
14
100
AcDbVisualStyle
  2

 70
    26
 71
     2
 72
     2
 73
     1
 90
        2
 40
-0.6
 41
30.0
 62
     5
 63
     7
 74
     1
 91
       10
 64
     7
 65
   257
 75
     2
175
     1
 42
1.0
 92
        8
 66
   257
 43
1.0
 76
     1
 77
     6
 78
     2
 67
     7
 79
     3
170
     0
171
     0
290
     0
174
     0
 93
        5
 44
0.0
173
     0
291
     0
 45
0.0
1001
ACAD
1000
AcDbSavedByObjectVersion
1070
     0
  0
VISUALSTYLE
  5
583
102
{ACAD_XDICTIONARY
360
AAD
102
}
102
{ACAD_REACTORS
330
14
102
}
330
14
100
AcDbVisualStyle
  2

 70
    23
 71
     2
 72
     2
 73
     3
 90
        0
 40
-0.6
 41
-30.0
 62
     5
 63
     7
 74
     2
 91
        2
 64
     7
 65
     7
 75
     1
175
     1
 42
40.0
 92
        8
 66
     7
 43
1.0
 76
     1
 77
     6
 78
     2
 67
     7
 79
     3
170
     0
171
     0
290
     0
174
     0
 93
        1
 44
0.0
173
     0
291
     0
 45
0.0
1001
ACAD
1000
AcDbSavedByObjectVersion
1070
     0
  0
VISUALSTYLE
  5
584
102
{ACAD_XDICTIONARY
360
AAF
102
}
102
{ACAD_REACTORS
330
14
102
}
330
14
100
AcDbVisualStyle
  2

 70
    24
 71
     1
 72
     2
 73
     2
 90
        0
 40
-0.6
 41
-30.0
 62
     5
 63
     7
 74
     2
 91
        2
 64
     7
 65
     7
 75
     1
175
     1
 42
40.0
 92
       11
 66
     7
 43
1.0
 76
     1
 77
     6
 78
     2
 67
     7
 79
     6
170
     0
171
     0
290
     0
174
     0
 93
        1
 44
0.0
173
     0
291
     0
 45
0.0
1001
ACAD
1000
AcDbSavedByObjectVersion
1070
     0
  0
VISUALSTYLE
  5
21
102
{ACAD_XDICTIONARY
360
A9C
102
}
102
{ACAD_REACTORS
330
14
102
}
330
14
100
AcDbVisualStyle
  2

 70
    13
 71
     2
 72
     2
 73
     0
 90
        0
 40
-0.6
 41
-30.0
 62
     5
 63
     7
 74
     1
 91
        4
 64
     7
 65
   257
 75
     1
175
     1
 42
1.0
 92
       12
 66
     7
 43
1.0
 76
     1
 77
     6
 78
     2
 67
     7
 79
     5
170
     0
171
     0
290
     0
174
     0
 93
        1
 44
0.0
173
     0
291
     1
 45
0.0
1001
ACAD
1000
AcDbSavedByObjectVersion
1070
     0
  0
VISUALSTYLE
  5
581
102
{ACAD_XDICTIONARY
360
AA9
102
}
102
{ACAD_REACTORS
330
14
102
}
330
14
100
AcDbVisualStyle
  2

 70
     5
 71
     0
 72
     2
 73
     0
 90
        0
 40
-0.6
 41
-30.0
 62
     5
 63
     7
 74
     1
 91
        4
 64
     7
 65
   257
 75
     1
175
     1
 42
1.0
 92
        0
 66
   257
 43
1.0
 76
     1
 77
     6
 78
     2
 67
     7
 79
     3
170
     0
171
     0
290
     0
174
     0
 93
        1
 44
0.0
173
     0
291
     0
 45
0.0
1001
ACAD
1000
AcDbSavedByObjectVersion
1070
     0
  0
VISUALSTYLE
  5
585
102
{ACAD_XDICTIONARY
360
AB1
102
}
102
{ACAD_REACTORS
330
14
102
}
330
14
100
AcDbVisualStyle
  2

 70
    25
 71
     2
 72
     2
 73
     1
 90
        1
 40
0.5
 41
-30.0
 62
     5
 63
     7
 74
     1
 91
        0
 64
     7
 65
   257
 75
     1
175
     1
 42
1.0
 92
        8
 66
     7
 43
1.0
 76
     1
 77
     6
 78
     2
 67
     7
 79
     3
170
     0
171
     0
290
     0
174
     0
 93
       13
 44
0.0
173
     0
291
     0
 45
0.0
1001
ACAD
1000
AcDbSavedByObjectVersion
1070
     0
  0
DICTIONARYVAR
  5
82D
102
{ACAD_REACTORS
330
56B
102
}
330
56B
100
DictionaryVariables
280
     0
  1
1:1
  0
DICTIONARYVAR
  5
82C
102
{ACAD_REACTORS
330
56B
102
}
330
56B
100
DictionaryVariables
280
     0
  1
STANDARD
  0
DICTIONARYVAR
  5
56C
102
{ACAD_REACTORS
330
56B
102
}
330
56B
100
DictionaryVariables
280
     0
  1
STANDARD
  0
DICTIONARYVAR
  5
56F
102
{ACAD_REACTORS
330
56B
102
}
330
56B
100
DictionaryVariables
280
     0
  1
1
  0
DICTIONARYVAR
  5
56E
102
{ACAD_REACTORS
330
56B
102
}
330
56B
100
DictionaryVariables
280
     0
  1
0
  0
DICTIONARYVAR
  5
56D
102
{ACAD_REACTORS
330
56B
102
}
330
56B
100
DictionaryVariables
280
     0
  1
127
  0
DICTIONARYVAR
  5
944
102
{ACAD_REACTORS
330
56B
102
}
330
56B
100
DictionaryVariables
280
     0
  1
2
  0
DICTIONARY
  5
AA7
330
39
100
AcDbDictionary
280
     1
281
     1
  3
ACAD_XREC_ROUNDTRIP
360
AA8
  0
DICTIONARY
  5
AA5
330
35
100
AcDbDictionary
280
     1
281
     1
  3
ACAD_XREC_ROUNDTRIP
360
AA6
  0
DICTIONARY
  5
573
330
12
100
AcDbDictionary
280
     1
281
     1
  3
ACAD_XREC_ROUNDTRIP
360
574
  0
DICTIONARY
  5
571
330
11
100
AcDbDictionary
280
     1
281
     1
  3
ACAD_XREC_ROUNDTRIP
360
572
  0
DICTIONARY
  5
575
330
13
100
AcDbDictionary
280
     1
281
     1
  3
ACAD_XREC_ROUNDTRIP
360
576
  0
DICTIONARY
  5
82F
330
31
100
AcDbDictionary
280
     1
281
     1
  3
ACAD_ROUNDTRIP_2008_TABLESTYLE_CELLSTYLEMAP
360
A7D
  3
ACAD_XREC_ROUNDTRIP
360
AA4
  0
DICTIONARY
  5
A8E
330
1A
100
AcDbDictionary
280
     1
281
     1
  3
ACAD_XREC_ROUNDTRIP
360
A8F
  0
DICTIONARY
  5
A92
330
1C
100
AcDbDictionary
280
     1
281
     1
  3
ACAD_XREC_ROUNDTRIP
360
A93
  0
DICTIONARY
  5
A90
330
1B
100
AcDbDictionary
280
     1
281
     1
  3
ACAD_XREC_ROUNDTRIP
360
A91
  0
DICTIONARY
  5
A8C
330
19
100
AcDbDictionary
280
     1
281
     1
  3
ACAD_XREC_ROUNDTRIP
360
A8D
  0
DICTIONARY
  5
A9A
330
20
100
AcDbDictionary
280
     1
281
     1
  3
ACAD_XREC_ROUNDTRIP
360
A9B
  0
DICTIONARY
  5
AA2
330
24
100
AcDbDictionary
280
     1
281
     1
  3
ACAD_XREC_ROUNDTRIP
360
AA3
  0
DICTIONARY
  5
A94
330
1D
100
AcDbDictionary
280
     1
281
     1
  3
ACAD_XREC_ROUNDTRIP
360
A95
  0
DICTIONARY
  5
A98
330
1F
100
AcDbDictionary
280
     1
281
     1
  3
ACAD_XREC_ROUNDTRIP
360
A99
  0
DICTIONARY
  5
ABB
330
58A
100
AcDbDictionary
280
     1
281
     1
  3
ACAD_XREC_ROUNDTRIP
360
ABC
  0
DICTIONARY
  5
AA0
330
23
100
AcDbDictionary
280
     1
281
     1
  3
ACAD_XREC_ROUNDTRIP
360
AA1
  0
DICTIONARY
  5
A84
330
15
100
AcDbDictionary
280
     1
281
     1
  3
ACAD_XREC_ROUNDTRIP
360
A85
  0
DICTIONARY
  5
A86
330
16
100
AcDbDictionary
280
     1
281
     1
  3
ACAD_XREC_ROUNDTRIP
360
A87
  0
DICTIONARY
  5
A88
330
17
100
AcDbDictionary
280
     1
281
     1
  3
ACAD_XREC_ROUNDTRIP
360
A89
  0
DICTIONARY
  5
A8A
330
18
100
AcDbDictionary
280
     1
281
     1
  3
ACAD_XREC_ROUNDTRIP
360
A8B
  0
DICTIONARY
  5
AAB
330
582
100
AcDbDictionary
280
     1
281
     1
  3
ACAD_XREC_ROUNDTRIP
360
AAC
  0
DICTIONARY
  5
AB7
330
588
100
AcDbDictionary
280
     1
281
     1
  3
ACAD_XREC_ROUNDTRIP
360
AB8
  0
DICTIONARY
  5
A9E
330
22
100
AcDbDictionary
280
     1
281
     1
  3
ACAD_XREC_ROUNDTRIP
360
A9F
  0
DICTIONARY
  5
AB9
330
589
100
AcDbDictionary
280
     1
281
     1
  3
ACAD_XREC_ROUNDTRIP
360
ABA
  0
DICTIONARY
  5
A96
330
1E
100
AcDbDictionary
280
     1
281
     1
  3
ACAD_XREC_ROUNDTRIP
360
A97
  0
DICTIONARY
  5
AB5
330
587
100
AcDbDictionary
280
     1
281
     1
  3
ACAD_XREC_ROUNDTRIP
360
AB6
  0
DICTIONARY
  5
AB3
330
586
100
AcDbDictionary
280
     1
281
     1
  3
ACAD_XREC_ROUNDTRIP
360
AB4
  0
DICTIONARY
  5
AAD
330
583
100
AcDbDictionary
280
     1
281
     1
  3
ACAD_XREC_ROUNDTRIP
360
AAE
  0
DICTIONARY
  5
AAF
330
584
100
AcDbDictionary
280
     1
281
     1
  3
ACAD_XREC_ROUNDTRIP
360
AB0
  0
DICTIONARY
  5
A9C
330
21
100
AcDbDictionary
280
     1
281
     1
  3
ACAD_XREC_ROUNDTRIP
360
A9D
  0
DICTIONARY
  5
AA9
330
581
100
AcDbDictionary
280
     1
281
     1
  3
ACAD_XREC_ROUNDTRIP
360
AAA
  0
DICTIONARY
  5
AB1
330
585
100
AcDbDictionary
280
     1
281
     1
  3
ACAD_XREC_ROUNDTRIP
360
AB2
  0
XRECORD
  5
AA8
102
{ACAD_REACTORS
330
AA7
102
}
330
AA7
100
AcDbXrecord
280
     1
102
SHADEPLOT
 70
     0
102
SHADEPLOTRESLEVEL
 70
     2
102
SHADEPLOTCUSTOMDPI
 70
   300
  0
XRECORD
  5
AA6
102
{ACAD_REACTORS
330
AA5
102
}
330
AA5
100
AcDbXrecord
280
     1
102
SHADEPLOT
 70
     0
102
SHADEPLOTRESLEVEL
 70
     2
102
SHADEPLOTCUSTOMDPI
 70
   300
  0
XRECORD
  5
574
102
{ACAD_REACTORS
330
573
102
}
330
573
100
AcDbXrecord
280
     1
102
MATERIAL
148
0.0
149
0.0
149
0.0
 93
        0
 94
      127
282
     0
 72
     1
 77
     1
171
     1
175
     1
179
     1
273
     0
  0
XRECORD
  5
572
102
{ACAD_REACTORS
330
571
102
}
330
571
100
AcDbXrecord
280
     1
102
MATERIAL
148
0.0
149
0.0
149
0.0
 93
        0
 94
      127
282
     0
 72
     1
 77
     1
171
     1
175
     1
179
     1
273
     0
  0
XRECORD
  5
576
102
{ACAD_REACTORS
330
575
102
}
330
575
100
AcDbXrecord
280
     1
102
MATERIAL
148
0.0
149
0.0
149
0.0
 93
        0
 94
      127
282
     0
 72
     1
 77
     1
171
     1
175
     1
179
     1
273
     0
  0
CELLSTYLEMAP
  5
A7D
102
{ACAD_REACTORS
330
82F
102
}
330
82F
100
AcDbCellStyleMap
 90
        3
300
CELLSTYLE
  1
TABLEFORMAT_BEGIN
 90
        5
170
     1
 91
        0
 92
    32768
 62
   257
 93
        1
300
CONTENTFORMAT
  1
CONTENTFORMAT_BEGIN
 90
        0
 91
        0
 92
      512
 93
        0
300

 40
0.0
140
1.0
 94
        5
 62
     0
340
26
144
0.25
309
CONTENTFORMAT_END
171
     1
301
MARGIN
  1
CELLMARGIN_BEGIN
 40
0.06
 40
0.06
 40
0.06
 40
0.06
 40
0.18
 40
0.18
309
CELLMARGIN_END
 94
        6
 95
        1
302
GRIDFORMAT
  1
GRIDFORMAT_BEGIN
 90
        0
 91
        1
 62
     0
 92
       -2
340
0
 93
        0
 40
0.045
309
GRIDFORMAT_END
 95
        2
302
GRIDFORMAT
  1
GRIDFORMAT_BEGIN
 90
        0
 91
        1
 62
     0
 92
       -2
340
0
 93
        0
 40
0.045
309
GRIDFORMAT_END
 95
        4
302
GRIDFORMAT
  1
GRIDFORMAT_BEGIN
 90
        0
 91
        1
 62
     0
 92
       -2
340
0
 93
        0
 40
0.045
309
GRIDFORMAT_END
 95
        8
302
GRIDFORMAT
  1
GRIDFORMAT_BEGIN
 90
        0
 91
        1
 62
     0
 92
       -2
340
0
 93
        0
 40
0.045
309
GRIDFORMAT_END
 95
       16
302
GRIDFORMAT
  1
GRIDFORMAT_BEGIN
 90
        0
 91
        1
 62
     0
 92
       -2
340
0
 93
        0
 40
0.045
309
GRIDFORMAT_END
 95
       32
302
GRIDFORMAT
  1
GRIDFORMAT_BEGIN
 90
        0
 91
        1
 62
     0
 92
       -2
340
0
 93
        0
 40
0.045
309
GRIDFORMAT_END
309
TABLEFORMAT_END
  1
CELLSTYLE_BEGIN
 90
        1
 91
        1
300
_TITLE
309
CELLSTYLE_END
300
CELLSTYLE
  1
TABLEFORMAT_BEGIN
 90
        5
170
     1
 91
        0
 92
        0
 62
   257
 93
        1
300
CONTENTFORMAT
  1
CONTENTFORMAT_BEGIN
 90
        0
 91
        0
 92
      512
 93
        0
300

 40
0.0
140
1.0
 94
        5
 62
     0
340
26
144
0.18
309
CONTENTFORMAT_END
171
     1
301
MARGIN
  1
CELLMARGIN_BEGIN
 40
0.06
 40
0.06
 40
0.06
 40
0.06
 40
0.18
 40
0.18
309
CELLMARGIN_END
 94
        6
 95
        1
302
GRIDFORMAT
  1
GRIDFORMAT_BEGIN
 90
        0
 91
        1
 62
     0
 92
       -2
340
0
 93
        0
 40
0.045
309
GRIDFORMAT_END
 95
        2
302
GRIDFORMAT
  1
GRIDFORMAT_BEGIN
 90
        0
 91
        1
 62
     0
 92
       -2
340
0
 93
        0
 40
0.045
309
GRIDFORMAT_END
 95
        4
302
GRIDFORMAT
  1
GRIDFORMAT_BEGIN
 90
        0
 91
        1
 62
     0
 92
       -2
340
0
 93
        0
 40
0.045
309
GRIDFORMAT_END
 95
        8
302
GRIDFORMAT
  1
GRIDFORMAT_BEGIN
 90
        0
 91
        1
 62
     0
 92
       -2
340
0
 93
        0
 40
0.045
309
GRIDFORMAT_END
 95
       16
302
GRIDFORMAT
  1
GRIDFORMAT_BEGIN
 90
        0
 91
        1
 62
     0
 92
       -2
340
0
 93
        0
 40
0.045
309
GRIDFORMAT_END
 95
       32
302
GRIDFORMAT
  1
GRIDFORMAT_BEGIN
 90
        0
 91
        1
 62
     0
 92
       -2
340
0
 93
        0
 40
0.045
309
GRIDFORMAT_END
309
TABLEFORMAT_END
  1
CELLSTYLE_BEGIN
 90
        2
 91
        1
300
_HEADER
309
CELLSTYLE_END
300
CELLSTYLE
  1
TABLEFORMAT_BEGIN
 90
        5
170
     1
 91
        0
 92
        0
 62
   257
 93
        1
300
CONTENTFORMAT
  1
CONTENTFORMAT_BEGIN
 90
        0
 91
        0
 92
      512
 93
        0
300

 40
0.0
140
1.0
 94
        2
 62
     0
340
26
144
0.18
309
CONTENTFORMAT_END
171
     1
301
MARGIN
  1
CELLMARGIN_BEGIN
 40
0.06
 40
0.06
 40
0.06
 40
0.06
 40
0.18
 40
0.18
309
CELLMARGIN_END
 94
        6
 95
        1
302
GRIDFORMAT
  1
GRIDFORMAT_BEGIN
 90
        0
 91
        1
 62
     0
 92
       -2
340
0
 93
        0
 40
0.045
309
GRIDFORMAT_END
 95
        2
302
GRIDFORMAT
  1
GRIDFORMAT_BEGIN
 90
        0
 91
        1
 62
     0
 92
       -2
340
0
 93
        0
 40
0.045
309
GRIDFORMAT_END
 95
        4
302
GRIDFORMAT
  1
GRIDFORMAT_BEGIN
 90
        0
 91
        1
 62
     0
 92
       -2
340
0
 93
        0
 40
0.045
309
GRIDFORMAT_END
 95
        8
302
GRIDFORMAT
  1
GRIDFORMAT_BEGIN
 90
        0
 91
        1
 62
     0
 92
       -2
340
0
 93
        0
 40
0.045
309
GRIDFORMAT_END
 95
       16
302
GRIDFORMAT
  1
GRIDFORMAT_BEGIN
 90
        0
 91
        1
 62
     0
 92
       -2
340
0
 93
        0
 40
0.045
309
GRIDFORMAT_END
 95
       32
302
GRIDFORMAT
  1
GRIDFORMAT_BEGIN
 90
        0
 91
        1
 62
     0
 92
       -2
340
0
 93
        0
 40
0.045
309
GRIDFORMAT_END
309
TABLEFORMAT_END
  1
CELLSTYLE_BEGIN
 90
        3
 91
        2
300
_DATA
309
CELLSTYLE_END
  0
XRECORD
  5
AA4
102
{ACAD_REACTORS
330
82F
102
}
330
82F
100
AcDbXrecord
280
     1
102
ACAD_ROUNDTRIP_PRE2007_TABLESTYLE
 90
      512
 91
        0
  1

 92
      512
 93
        0
  2

 94
      512
 95
        0
  3

  0
XRECORD
  5
A8F
102
{ACAD_REACTORS
330
A8E
102
}
330
A8E
100
AcDbXrecord
280
     1
102
RTVSPropertyOp0
 70
     1
102
RTVSPropertyOp1
 70
     1
102
RTVSPropertyOp2
 70
     1
102
RTVSPropertyOp3
 70
     1
102
RTVSPropertyOp4
 70
     1
102
RTVSPropertyOp5
 70
     1
102
RTVSPropertyOp6
 70
     1
102
RTVSPropertyOp7
 70
     1
102
RTVSPropertyOp8
 70
     1
102
RTVSPropertyOp9
 70
     1
102
RTVSPropertyOp10
 70
     1
102
RTVSPropertyOp11
 70
     1
102
RTVSPropertyOp12
 70
     1
102
RTVSPropertyOp13
 70
     1
102
RTVSPropertyOp14
 70
     1
102
RTVSPropertyOp15
 70
     1
102
RTVSPropertyOp16
 70
     1
102
RTVSPropertyOp17
 70
     1
102
RTVSPropertyOp18
 70
     1
102
RTVSPropertyOp19
 70
     1
102
RTVSPropertyOp20
 70
     1
102
RTVSPropertyOp21
 70
     1
102
RTVSPropertyOp22
 70
     1
102
RTVSPropertyOp23
 70
     1
102
RTVSPropertyOp24
 70
     1
102
RTVSPropertyOp25
 70
     1
102
RTVSPropertyOp26
 70
     1
102
RTVSPropertyOp27
 70
     1
102
RTVSPropertyOp28
 70
     1
102
RTVSPropertyOp29
 70
     1
102
RTVSPropertyOp30
 70
     1
102
RTVSPropertyOp31
 70
     1
102
RTVSPropertyOp32
 70
     1
  0
XRECORD
  5
A93
102
{ACAD_REACTORS
330
A92
102
}
330
A92
100
AcDbXrecord
280
     1
102
RTVSPropertyOp0
 70
     1
102
RTVSPropertyOp1
 70
     1
102
RTVSPropertyOp2
 70
     1
102
RTVSPropertyOp3
 70
     1
102
RTVSPropertyOp4
 70
     1
102
RTVSPropertyOp5
 70
     1
102
RTVSPropertyOp6
 70
     1
102
RTVSPropertyOp7
 70
     1
102
RTVSPropertyOp8
 70
     1
102
RTVSPropertyOp9
 70
     1
102
RTVSPropertyOp10
 70
     1
102
RTVSPropertyOp11
 70
     1
102
RTVSPropertyOp12
 70
     1
102
RTVSPropertyOp13
 70
     1
102
RTVSPropertyOp14
 70
     1
102
RTVSPropertyOp15
 70
     1
102
RTVSPropertyOp16
 70
     1
102
RTVSPropertyOp17
 70
     1
102
RTVSPropertyOp18
 70
     1
102
RTVSPropertyOp19
 70
     1
102
RTVSPropertyOp20
 70
     1
102
RTVSPropertyOp21
 70
     1
102
RTVSPropertyOp22
 70
     1
102
RTVSPropertyOp23
 70
     1
102
RTVSPropertyOp24
 70
     1
102
RTVSPropertyOp25
 70
     1
102
RTVSPropertyOp26
 70
     1
102
RTVSPropertyOp27
 70
     1
102
RTVSPropertyOp28
 70
     1
102
RTVSPropertyOp29
 70
     1
102
RTVSPropertyOp30
 70
     1
102
RTVSPropertyOp31
 70
     1
102
RTVSPropertyOp32
 70
     1
  0
XRECORD
  5
A91
102
{ACAD_REACTORS
330
A90
102
}
330
A90
100
AcDbXrecord
280
     1
102
RTVSPropertyOp0
 70
     1
102
RTVSPropertyOp1
 70
     1
102
RTVSPropertyOp2
 70
     1
102
RTVSPropertyOp3
 70
     1
102
RTVSPropertyOp4
 70
     1
102
RTVSPropertyOp5
 70
     1
102
RTVSPropertyOp6
 70
     1
102
RTVSPropertyOp7
 70
     1
102
RTVSPropertyOp8
 70
     1
102
RTVSPropertyOp9
 70
     1
102
RTVSPropertyOp10
 70
     1
102
RTVSPropertyOp11
 70
     1
102
RTVSPropertyOp12
 70
     1
102
RTVSPropertyOp13
 70
     1
102
RTVSPropertyOp14
 70
     1
102
RTVSPropertyOp15
 70
     1
102
RTVSPropertyOp16
 70
     1
102
RTVSPropertyOp17
 70
     1
102
RTVSPropertyOp18
 70
     1
102
RTVSPropertyOp19
 70
     1
102
RTVSPropertyOp20
 70
     1
102
RTVSPropertyOp21
 70
     1
102
RTVSPropertyOp22
 70
     1
102
RTVSPropertyOp23
 70
     1
102
RTVSPropertyOp24
 70
     1
102
RTVSPropertyOp25
 70
     1
102
RTVSPropertyOp26
 70
     1
102
RTVSPropertyOp27
 70
     1
102
RTVSPropertyOp28
 70
     1
102
RTVSPropertyOp29
 70
     1
102
RTVSPropertyOp30
 70
     1
102
RTVSPropertyOp31
 70
     1
102
RTVSPropertyOp32
 70
     1
  0
XRECORD
  5
A8D
102
{ACAD_REACTORS
330
A8C
102
}
330
A8C
100
AcDbXrecord
280
     1
102
RTVSPropertyOp0
 70
     1
102
RTVSPropertyOp1
 70
     1
102
RTVSPropertyOp2
 70
     1
102
RTVSPropertyOp3
 70
     1
102
RTVSPropertyOp4
 70
     1
102
RTVSPropertyOp5
 70
     1
102
RTVSPropertyOp6
 70
     1
102
RTVSPropertyOp7
 70
     1
102
RTVSPropertyOp8
 70
     1
102
RTVSPropertyOp9
 70
     1
102
RTVSPropertyOp10
 70
     1
102
RTVSPropertyOp11
 70
     1
102
RTVSPropertyOp12
 70
     1
102
RTVSPropertyOp13
 70
     1
102
RTVSPropertyOp14
 70
     1
102
RTVSPropertyOp15
 70
     1
102
RTVSPropertyOp16
 70
     1
102
RTVSPropertyOp17
 70
     1
102
RTVSPropertyOp18
 70
     1
102
RTVSPropertyOp19
 70
     1
102
RTVSPropertyOp20
 70
     1
102
RTVSPropertyOp21
 70
     1
102
RTVSPropertyOp22
 70
     1
102
RTVSPropertyOp23
 70
     1
102
RTVSPropertyOp24
 70
     1
102
RTVSPropertyOp25
 70
     1
102
RTVSPropertyOp26
 70
     1
102
RTVSPropertyOp27
 70
     1
102
RTVSPropertyOp28
 70
     1
102
RTVSPropertyOp29
 70
     1
102
RTVSPropertyOp30
 70
     1
102
RTVSPropertyOp31
 70
     1
102
RTVSPropertyOp32
 70
     1
  0
XRECORD
  5
A9B
102
{ACAD_REACTORS
330
A9A
102
}
330
A9A
100
AcDbXrecord
280
     1
102
RTVSPropertyOp0
 70
     1
102
RTVSPropertyOp1
 70
     1
102
RTVSPropertyOp2
 70
     1
102
RTVSPropertyOp3
 70
     1
102
RTVSPropertyOp4
 70
     1
102
RTVSPropertyOp5
 70
     1
102
RTVSPropertyOp6
 70
     1
102
RTVSPropertyOp7
 70
     1
102
RTVSPropertyOp8
 70
     1
102
RTVSPropertyOp9
 70
     1
102
RTVSPropertyOp10
 70
     1
102
RTVSPropertyOp11
 70
     1
102
RTVSPropertyOp12
 70
     1
102
RTVSPropertyOp13
 70
     1
102
RTVSPropertyOp14
 70
     1
102
RTVSPropertyOp15
 70
     1
102
RTVSPropertyOp16
 70
     1
102
RTVSPropertyOp17
 70
     1
102
RTVSPropertyOp18
 70
     1
102
RTVSPropertyOp19
 70
     1
102
RTVSPropertyOp20
 70
     1
102
RTVSPropertyOp21
 70
     1
102
RTVSPropertyOp22
 70
     1
102
RTVSPropertyOp23
 70
     1
102
RTVSPropertyOp24
 70
     1
102
RTVSPropertyOp25
 70
     1
102
RTVSPropertyOp26
 70
     1
102
RTVSPropertyOp27
 70
     1
102
RTVSPropertyOp28
 70
     1
102
RTVSPropertyOp29
 70
     1
102
RTVSPropertyOp30
 70
     1
102
RTVSPropertyOp31
 70
     1
102
RTVSPropertyOp32
 70
     1
  0
XRECORD
  5
AA3
102
{ACAD_REACTORS
330
AA2
102
}
330
AA2
100
AcDbXrecord
280
     1
102
RTVSPropertyOp0
 70
     1
102
RTVSPropertyOp1
 70
     1
102
RTVSPropertyOp2
 70
     1
102
RTVSPropertyOp3
 70
     1
102
RTVSPropertyOp4
 70
     1
102
RTVSPropertyOp5
 70
     1
102
RTVSPropertyOp6
 70
     1
102
RTVSPropertyOp7
 70
     1
102
RTVSPropertyOp8
 70
     1
102
RTVSPropertyOp9
 70
     1
102
RTVSPropertyOp10
 70
     1
102
RTVSPropertyOp11
 70
     1
102
RTVSPropertyOp12
 70
     1
102
RTVSPropertyOp13
 70
     1
102
RTVSPropertyOp14
 70
     1
102
RTVSPropertyOp15
 70
     1
102
RTVSPropertyOp16
 70
     1
102
RTVSPropertyOp17
 70
     1
102
RTVSPropertyOp18
 70
     1
102
RTVSPropertyOp19
 70
     1
102
RTVSPropertyOp20
 70
     1
102
RTVSPropertyOp21
 70
     1
102
RTVSPropertyOp22
 70
     1
102
RTVSPropertyOp23
 70
     1
102
RTVSPropertyOp24
 70
     1
102
RTVSPropertyOp25
 70
     1
102
RTVSPropertyOp26
 70
     1
102
RTVSPropertyOp27
 70
     1
102
RTVSPropertyOp28
 70
     1
102
RTVSPropertyOp29
 70
     1
102
RTVSPropertyOp30
 70
     1
102
RTVSPropertyOp31
 70
     1
102
RTVSPropertyOp32
 70
     1
  0
XRECORD
  5
A95
102
{ACAD_REACTORS
330
A94
102
}
330
A94
100
AcDbXrecord
280
     1
102
RTVSPropertyOp0
 70
     1
102
RTVSPropertyOp1
 70
     1
102
RTVSPropertyOp2
 70
     1
102
RTVSPropertyOp3
 70
     1
102
RTVSPropertyOp4
 70
     1
102
RTVSPropertyOp5
 70
     1
102
RTVSPropertyOp6
 70
     1
102
RTVSPropertyOp7
 70
     1
102
RTVSPropertyOp8
 70
     1
102
RTVSPropertyOp9
 70
     1
102
RTVSPropertyOp10
 70
     1
102
RTVSPropertyOp11
 70
     1
102
RTVSPropertyOp12
 70
     1
102
RTVSPropertyOp13
 70
     1
102
RTVSPropertyOp14
 70
     1
102
RTVSPropertyOp15
 70
     1
102
RTVSPropertyOp16
 70
     1
102
RTVSPropertyOp17
 70
     1
102
RTVSPropertyOp18
 70
     1
102
RTVSPropertyOp19
 70
     1
102
RTVSPropertyOp20
 70
     1
102
RTVSPropertyOp21
 70
     1
102
RTVSPropertyOp22
 70
     1
102
RTVSPropertyOp23
 70
     1
102
RTVSPropertyOp24
 70
     1
102
RTVSPropertyOp25
 70
     1
102
RTVSPropertyOp26
 70
     1
102
RTVSPropertyOp27
 70
     1
102
RTVSPropertyOp28
 70
     1
102
RTVSPropertyOp29
 70
     1
102
RTVSPropertyOp30
 70
     1
102
RTVSPropertyOp31
 70
     1
102
RTVSPropertyOp32
 70
     1
  0
XRECORD
  5
A99
102
{ACAD_REACTORS
330
A98
102
}
330
A98
100
AcDbXrecord
280
     1
102
RTVSPropertyOp0
 70
     1
102
RTVSPropertyOp1
 70
     1
102
RTVSPropertyOp2
 70
     1
102
RTVSPropertyOp3
 70
     1
102
RTVSPropertyOp4
 70
     1
102
RTVSPropertyOp5
 70
     1
102
RTVSPropertyOp6
 70
     1
102
RTVSPropertyOp7
 70
     1
102
RTVSPropertyOp8
 70
     1
102
RTVSPropertyOp9
 70
     1
102
RTVSPropertyOp10
 70
     1
102
RTVSPropertyOp11
 70
     1
102
RTVSPropertyOp12
 70
     1
102
RTVSPropertyOp13
 70
     1
102
RTVSPropertyOp14
 70
     1
102
RTVSPropertyOp15
 70
     1
102
RTVSPropertyOp16
 70
     1
102
RTVSPropertyOp17
 70
     1
102
RTVSPropertyOp18
 70
     1
102
RTVSPropertyOp19
 70
     1
102
RTVSPropertyOp20
 70
     1
102
RTVSPropertyOp21
 70
     1
102
RTVSPropertyOp22
 70
     1
102
RTVSPropertyOp23
 70
     1
102
RTVSPropertyOp24
 70
     1
102
RTVSPropertyOp25
 70
     1
102
RTVSPropertyOp26
 70
     1
102
RTVSPropertyOp27
 70
     1
102
RTVSPropertyOp28
 70
     1
102
RTVSPropertyOp29
 70
     1
102
RTVSPropertyOp30
 70
     1
102
RTVSPropertyOp31
 70
     1
102
RTVSPropertyOp32
 70
     1
  0
XRECORD
  5
ABC
102
{ACAD_REACTORS
330
ABB
102
}
330
ABB
100
AcDbXrecord
280
     1
102
RTVSPropertyOp0
 70
     0
102
RTVSPropertyOp1
 70
     0
102
RTVSPropertyOp2
 70
     0
102
RTVSPropertyOp3
 70
     0
102
RTVSPropertyOp4
 70
     0
102
RTVSPropertyOp5
 70
     0
102
RTVSPropertyOp6
 70
     0
102
RTVSPropertyOp7
 70
     0
102
RTVSPropertyOp8
 70
     0
102
RTVSPropertyOp9
 70
     0
102
RTVSPropertyOp10
 70
     0
102
RTVSPropertyOp11
 70
     0
102
RTVSPropertyOp12
 70
     0
102
RTVSPropertyOp13
 70
     0
102
RTVSPropertyOp14
 70
     2
102
RTVSPropertyOp15
 70
     0
102
RTVSPropertyOp16
 70
     0
102
RTVSPropertyOp17
 70
     0
102
RTVSPropertyOp18
 70
     0
102
RTVSPropertyOp19
 70
     0
102
RTVSPropertyOp20
 70
     0
102
RTVSPropertyOp21
 70
     0
102
RTVSPropertyOp22
 70
     0
102
RTVSPropertyOp23
 70
     0
102
RTVSPropertyOp24
 70
     0
102
RTVSPropertyOp25
 70
     0
102
RTVSPropertyOp26
 70
     0
102
RTVSPropertyOp27
 70
     0
102
RTVSPropertyOp28
 70
     0
102
RTVSPropertyOp29
 70
     0
102
RTVSPropertyOp30
 70
     0
102
RTVSPropertyOp31
 70
     0
102
RTVSPropertyOp32
 70
     0
  0
XRECORD
  5
AA1
102
{ACAD_REACTORS
330
AA0
102
}
330
AA0
100
AcDbXrecord
280
     1
102
RTVSPropertyOp0
 70
     1
102
RTVSPropertyOp1
 70
     1
102
RTVSPropertyOp2
 70
     1
102
RTVSPropertyOp3
 70
     1
102
RTVSPropertyOp4
 70
     1
102
RTVSPropertyOp5
 70
     1
102
RTVSPropertyOp6
 70
     1
102
RTVSPropertyOp7
 70
     1
102
RTVSPropertyOp8
 70
     1
102
RTVSPropertyOp9
 70
     1
102
RTVSPropertyOp10
 70
     1
102
RTVSPropertyOp11
 70
     1
102
RTVSPropertyOp12
 70
     1
102
RTVSPropertyOp13
 70
     1
102
RTVSPropertyOp14
 70
     1
102
RTVSPropertyOp15
 70
     1
102
RTVSPropertyOp16
 70
     1
102
RTVSPropertyOp17
 70
     1
102
RTVSPropertyOp18
 70
     1
102
RTVSPropertyOp19
 70
     1
102
RTVSPropertyOp20
 70
     1
102
RTVSPropertyOp21
 70
     1
102
RTVSPropertyOp22
 70
     1
102
RTVSPropertyOp23
 70
     1
102
RTVSPropertyOp24
 70
     1
102
RTVSPropertyOp25
 70
     1
102
RTVSPropertyOp26
 70
     1
102
RTVSPropertyOp27
 70
     1
102
RTVSPropertyOp28
 70
     1
102
RTVSPropertyOp29
 70
     1
102
RTVSPropertyOp30
 70
     1
102
RTVSPropertyOp31
 70
     1
102
RTVSPropertyOp32
 70
     1
  0
XRECORD
  5
A85
102
{ACAD_REACTORS
330
A84
102
}
330
A84
100
AcDbXrecord
280
     1
102
RTVSPropertyOp0
 70
     1
102
RTVSPropertyOp1
 70
     1
102
RTVSPropertyOp2
 70
     1
102
RTVSPropertyOp3
 70
     1
102
RTVSPropertyOp4
 70
     1
102
RTVSPropertyOp5
 70
     1
102
RTVSPropertyOp6
 70
     1
102
RTVSPropertyOp7
 70
     1
102
RTVSPropertyOp8
 70
     1
102
RTVSPropertyOp9
 70
     1
102
RTVSPropertyOp10
 70
     1
102
RTVSPropertyOp11
 70
     1
102
RTVSPropertyOp12
 70
     1
102
RTVSPropertyOp13
 70
     1
102
RTVSPropertyOp14
 70
     1
102
RTVSPropertyOp15
 70
     1
102
RTVSPropertyOp16
 70
     1
102
RTVSPropertyOp17
 70
     1
102
RTVSPropertyOp18
 70
     1
102
RTVSPropertyOp19
 70
     1
102
RTVSPropertyOp20
 70
     1
102
RTVSPropertyOp21
 70
     1
102
RTVSPropertyOp22
 70
     1
102
RTVSPropertyOp23
 70
     1
102
RTVSPropertyOp24
 70
     1
102
RTVSPropertyOp25
 70
     1
102
RTVSPropertyOp26
 70
     1
102
RTVSPropertyOp27
 70
     1
102
RTVSPropertyOp28
 70
     1
102
RTVSPropertyOp29
 70
     1
102
RTVSPropertyOp30
 70
     1
102
RTVSPropertyOp31
 70
     1
102
RTVSPropertyOp32
 70
     1
  0
XRECORD
  5
A87
102
{ACAD_REACTORS
330
A86
102
}
330
A86
100
AcDbXrecord
280
     1
102
RTVSPropertyOp0
 70
     1
102
RTVSPropertyOp1
 70
     1
102
RTVSPropertyOp2
 70
     1
102
RTVSPropertyOp3
 70
     1
102
RTVSPropertyOp4
 70
     1
102
RTVSPropertyOp5
 70
     1
102
RTVSPropertyOp6
 70
     1
102
RTVSPropertyOp7
 70
     1
102
RTVSPropertyOp8
 70
     1
102
RTVSPropertyOp9
 70
     1
102
RTVSPropertyOp10
 70
     1
102
RTVSPropertyOp11
 70
     1
102
RTVSPropertyOp12
 70
     1
102
RTVSPropertyOp13
 70
     1
102
RTVSPropertyOp14
 70
     1
102
RTVSPropertyOp15
 70
     1
102
RTVSPropertyOp16
 70
     1
102
RTVSPropertyOp17
 70
     1
102
RTVSPropertyOp18
 70
     1
102
RTVSPropertyOp19
 70
     1
102
RTVSPropertyOp20
 70
     1
102
RTVSPropertyOp21
 70
     1
102
RTVSPropertyOp22
 70
     1
102
RTVSPropertyOp23
 70
     1
102
RTVSPropertyOp24
 70
     1
102
RTVSPropertyOp25
 70
     1
102
RTVSPropertyOp26
 70
     1
102
RTVSPropertyOp27
 70
     1
102
RTVSPropertyOp28
 70
     1
102
RTVSPropertyOp29
 70
     1
102
RTVSPropertyOp30
 70
     1
102
RTVSPropertyOp31
 70
     1
102
RTVSPropertyOp32
 70
     1
  0
XRECORD
  5
A89
102
{ACAD_REACTORS
330
A88
102
}
330
A88
100
AcDbXrecord
280
     1
102
RTVSPropertyOp0
 70
     1
102
RTVSPropertyOp1
 70
     1
102
RTVSPropertyOp2
 70
     1
102
RTVSPropertyOp3
 70
     1
102
RTVSPropertyOp4
 70
     1
102
RTVSPropertyOp5
 70
     1
102
RTVSPropertyOp6
 70
     1
102
RTVSPropertyOp7
 70
     1
102
RTVSPropertyOp8
 70
     1
102
RTVSPropertyOp9
 70
     1
102
RTVSPropertyOp10
 70
     1
102
RTVSPropertyOp11
 70
     1
102
RTVSPropertyOp12
 70
     1
102
RTVSPropertyOp13
 70
     1
102
RTVSPropertyOp14
 70
     1
102
RTVSPropertyOp15
 70
     1
102
RTVSPropertyOp16
 70
     1
102
RTVSPropertyOp17
 70
     1
102
RTVSPropertyOp18
 70
     1
102
RTVSPropertyOp19
 70
     1
102
RTVSPropertyOp20
 70
     1
102
RTVSPropertyOp21
 70
     1
102
RTVSPropertyOp22
 70
     1
102
RTVSPropertyOp23
 70
     1
102
RTVSPropertyOp24
 70
     1
102
RTVSPropertyOp25
 70
     1
102
RTVSPropertyOp26
 70
     1
102
RTVSPropertyOp27
 70
     1
102
RTVSPropertyOp28
 70
     1
102
RTVSPropertyOp29
 70
     1
102
RTVSPropertyOp30
 70
     1
102
RTVSPropertyOp31
 70
     1
102
RTVSPropertyOp32
 70
     1
  0
XRECORD
  5
A8B
102
{ACAD_REACTORS
330
A8A
102
}
330
A8A
100
AcDbXrecord
280
     1
102
RTVSPropertyOp0
 70
     1
102
RTVSPropertyOp1
 70
     1
102
RTVSPropertyOp2
 70
     1
102
RTVSPropertyOp3
 70
     1
102
RTVSPropertyOp4
 70
     1
102
RTVSPropertyOp5
 70
     1
102
RTVSPropertyOp6
 70
     1
102
RTVSPropertyOp7
 70
     1
102
RTVSPropertyOp8
 70
     1
102
RTVSPropertyOp9
 70
     1
102
RTVSPropertyOp10
 70
     1
102
RTVSPropertyOp11
 70
     1
102
RTVSPropertyOp12
 70
     1
102
RTVSPropertyOp13
 70
     1
102
RTVSPropertyOp14
 70
     1
102
RTVSPropertyOp15
 70
     1
102
RTVSPropertyOp16
 70
     1
102
RTVSPropertyOp17
 70
     1
102
RTVSPropertyOp18
 70
     1
102
RTVSPropertyOp19
 70
     1
102
RTVSPropertyOp20
 70
     1
102
RTVSPropertyOp21
 70
     1
102
RTVSPropertyOp22
 70
     1
102
RTVSPropertyOp23
 70
     1
102
RTVSPropertyOp24
 70
     1
102
RTVSPropertyOp25
 70
     1
102
RTVSPropertyOp26
 70
     1
102
RTVSPropertyOp27
 70
     1
102
RTVSPropertyOp28
 70
     1
102
RTVSPropertyOp29
 70
     1
102
RTVSPropertyOp30
 70
     1
102
RTVSPropertyOp31
 70
     1
102
RTVSPropertyOp32
 70
     1
  0
XRECORD
  5
AAC
102
{ACAD_REACTORS
330
AAB
102
}
330
AAB
100
AcDbXrecord
280
     1
102
RTVSPropertyOp0
 70
     1
102
RTVSPropertyOp1
 70
     1
102
RTVSPropertyOp2
 70
     1
102
RTVSPropertyOp3
 70
     1
102
RTVSPropertyOp4
 70
     1
102
RTVSPropertyOp5
 70
     1
102
RTVSPropertyOp6
 70
     1
102
RTVSPropertyOp7
 70
     1
102
RTVSPropertyOp8
 70
     1
102
RTVSPropertyOp9
 70
     1
102
RTVSPropertyOp10
 70
     1
102
RTVSPropertyOp11
 70
     1
102
RTVSPropertyOp12
 70
     1
102
RTVSPropertyOp13
 70
     1
102
RTVSPropertyOp14
 70
     1
102
RTVSPropertyOp15
 70
     1
102
RTVSPropertyOp16
 70
     1
102
RTVSPropertyOp17
 70
     1
102
RTVSPropertyOp18
 70
     1
102
RTVSPropertyOp19
 70
     1
102
RTVSPropertyOp20
 70
     1
102
RTVSPropertyOp21
 70
     1
102
RTVSPropertyOp22
 70
     1
102
RTVSPropertyOp23
 70
     1
102
RTVSPropertyOp24
 70
     1
102
RTVSPropertyOp25
 70
     1
102
RTVSPropertyOp26
 70
     1
102
RTVSPropertyOp27
 70
     1
102
RTVSPropertyOp28
 70
     1
102
RTVSPropertyOp29
 70
     1
102
RTVSPropertyOp30
 70
     1
102
RTVSPropertyOp31
 70
     1
102
RTVSPropertyOp32
 70
     1
  0
XRECORD
  5
AB8
102
{ACAD_REACTORS
330
AB7
102
}
330
AB7
100
AcDbXrecord
280
     1
102
RTVSPropertyOp0
 70
     0
102
RTVSPropertyOp1
 70
     0
102
RTVSPropertyOp2
 70
     0
102
RTVSPropertyOp3
 70
     0
102
RTVSPropertyOp4
 70
     0
102
RTVSPropertyOp5
 70
     0
102
RTVSPropertyOp6
 70
     0
102
RTVSPropertyOp7
 70
     0
102
RTVSPropertyOp8
 70
     0
102
RTVSPropertyOp9
 70
     0
102
RTVSPropertyOp10
 70
     0
102
RTVSPropertyOp11
 70
     0
102
RTVSPropertyOp12
 70
     0
102
RTVSPropertyOp13
 70
     0
102
RTVSPropertyOp14
 70
     2
102
RTVSPropertyOp15
 70
     0
102
RTVSPropertyOp16
 70
     0
102
RTVSPropertyOp17
 70
     0
102
RTVSPropertyOp18
 70
     0
102
RTVSPropertyOp19
 70
     0
102
RTVSPropertyOp20
 70
     0
102
RTVSPropertyOp21
 70
     0
102
RTVSPropertyOp22
 70
     0
102
RTVSPropertyOp23
 70
     0
102
RTVSPropertyOp24
 70
     0
102
RTVSPropertyOp25
 70
     0
102
RTVSPropertyOp26
 70
     0
102
RTVSPropertyOp27
 70
     0
102
RTVSPropertyOp28
 70
     0
102
RTVSPropertyOp29
 70
     0
102
RTVSPropertyOp30
 70
     0
102
RTVSPropertyOp31
 70
     0
102
RTVSPropertyOp32
 70
     0
  0
XRECORD
  5
A9F
102
{ACAD_REACTORS
330
A9E
102
}
330
A9E
100
AcDbXrecord
280
     1
102
RTVSPropertyOp0
 70
     1
102
RTVSPropertyOp1
 70
     1
102
RTVSPropertyOp2
 70
     1
102
RTVSPropertyOp3
 70
     1
102
RTVSPropertyOp4
 70
     1
102
RTVSPropertyOp5
 70
     1
102
RTVSPropertyOp6
 70
     1
102
RTVSPropertyOp7
 70
     1
102
RTVSPropertyOp8
 70
     1
102
RTVSPropertyOp9
 70
     1
102
RTVSPropertyOp10
 70
     1
102
RTVSPropertyOp11
 70
     1
102
RTVSPropertyOp12
 70
     1
102
RTVSPropertyOp13
 70
     1
102
RTVSPropertyOp14
 70
     1
102
RTVSPropertyOp15
 70
     1
102
RTVSPropertyOp16
 70
     1
102
RTVSPropertyOp17
 70
     1
102
RTVSPropertyOp18
 70
     1
102
RTVSPropertyOp19
 70
     1
102
RTVSPropertyOp20
 70
     1
102
RTVSPropertyOp21
 70
     1
102
RTVSPropertyOp22
 70
     1
102
RTVSPropertyOp23
 70
     1
102
RTVSPropertyOp24
 70
     1
102
RTVSPropertyOp25
 70
     1
102
RTVSPropertyOp26
 70
     1
102
RTVSPropertyOp27
 70
     1
102
RTVSPropertyOp28
 70
     1
102
RTVSPropertyOp29
 70
     1
102
RTVSPropertyOp30
 70
     1
102
RTVSPropertyOp31
 70
     1
102
RTVSPropertyOp32
 70
     1
  0
XRECORD
  5
ABA
102
{ACAD_REACTORS
330
AB9
102
}
330
AB9
100
AcDbXrecord
280
     1
102
RTVSPropertyOp0
 70
     0
102
RTVSPropertyOp1
 70
     0
102
RTVSPropertyOp2
 70
     0
102
RTVSPropertyOp3
 70
     0
102
RTVSPropertyOp4
 70
     0
102
RTVSPropertyOp5
 70
     0
102
RTVSPropertyOp6
 70
     0
102
RTVSPropertyOp7
 70
     0
102
RTVSPropertyOp8
 70
     0
102
RTVSPropertyOp9
 70
     0
102
RTVSPropertyOp10
 70
     0
102
RTVSPropertyOp11
 70
     0
102
RTVSPropertyOp12
 70
     0
102
RTVSPropertyOp13
 70
     0
102
RTVSPropertyOp14
 70
     2
102
RTVSPropertyOp15
 70
     0
102
RTVSPropertyOp16
 70
     0
102
RTVSPropertyOp17
 70
     0
102
RTVSPropertyOp18
 70
     0
102
RTVSPropertyOp19
 70
     0
102
RTVSPropertyOp20
 70
     0
102
RTVSPropertyOp21
 70
     0
102
RTVSPropertyOp22
 70
     0
102
RTVSPropertyOp23
 70
     0
102
RTVSPropertyOp24
 70
     0
102
RTVSPropertyOp25
 70
     0
102
RTVSPropertyOp26
 70
     0
102
RTVSPropertyOp27
 70
     0
102
RTVSPropertyOp28
 70
     0
102
RTVSPropertyOp29
 70
     0
102
RTVSPropertyOp30
 70
     0
102
RTVSPropertyOp31
 70
     0
102
RTVSPropertyOp32
 70
     0
  0
XRECORD
  5
A97
102
{ACAD_REACTORS
330
A96
102
}
330
A96
100
AcDbXrecord
280
     1
102
RTVSPropertyOp0
 70
     1
102
RTVSPropertyOp1
 70
     1
102
RTVSPropertyOp2
 70
     1
102
RTVSPropertyOp3
 70
     1
102
RTVSPropertyOp4
 70
     1
102
RTVSPropertyOp5
 70
     1
102
RTVSPropertyOp6
 70
     1
102
RTVSPropertyOp7
 70
     1
102
RTVSPropertyOp8
 70
     1
102
RTVSPropertyOp9
 70
     1
102
RTVSPropertyOp10
 70
     1
102
RTVSPropertyOp11
 70
     1
102
RTVSPropertyOp12
 70
     1
102
RTVSPropertyOp13
 70
     1
102
RTVSPropertyOp14
 70
     1
102
RTVSPropertyOp15
 70
     1
102
RTVSPropertyOp16
 70
     1
102
RTVSPropertyOp17
 70
     1
102
RTVSPropertyOp18
 70
     1
102
RTVSPropertyOp19
 70
     1
102
RTVSPropertyOp20
 70
     1
102
RTVSPropertyOp21
 70
     1
102
RTVSPropertyOp22
 70
     1
102
RTVSPropertyOp23
 70
     1
102
RTVSPropertyOp24
 70
     1
102
RTVSPropertyOp25
 70
     1
102
RTVSPropertyOp26
 70
     1
102
RTVSPropertyOp27
 70
     1
102
RTVSPropertyOp28
 70
     1
102
RTVSPropertyOp29
 70
     1
102
RTVSPropertyOp30
 70
     1
102
RTVSPropertyOp31
 70
     1
102
RTVSPropertyOp32
 70
     1
  0
XRECORD
  5
AB6
102
{ACAD_REACTORS
330
AB5
102
}
330
AB5
100
AcDbXrecord
280
     1
102
RTVSPropertyOp0
 70
     1
102
RTVSPropertyOp1
 70
     1
102
RTVSPropertyOp2
 70
     1
102
RTVSPropertyOp3
 70
     1
102
RTVSPropertyOp4
 70
     1
102
RTVSPropertyOp5
 70
     1
102
RTVSPropertyOp6
 70
     1
102
RTVSPropertyOp7
 70
     1
102
RTVSPropertyOp8
 70
     1
102
RTVSPropertyOp9
 70
     1
102
RTVSPropertyOp10
 70
     1
102
RTVSPropertyOp11
 70
     1
102
RTVSPropertyOp12
 70
     1
102
RTVSPropertyOp13
 70
     1
102
RTVSPropertyOp14
 70
     1
102
RTVSPropertyOp15
 70
     1
102
RTVSPropertyOp16
 70
     1
102
RTVSPropertyOp17
 70
     1
102
RTVSPropertyOp18
 70
     1
102
RTVSPropertyOp19
 70
     1
102
RTVSPropertyOp20
 70
     1
102
RTVSPropertyOp21
 70
     1
102
RTVSPropertyOp22
 70
     1
102
RTVSPropertyOp23
 70
     1
102
RTVSPropertyOp24
 70
     1
102
RTVSPropertyOp25
 70
     1
102
RTVSPropertyOp26
 70
     1
102
RTVSPropertyOp27
 70
     1
102
RTVSPropertyOp28
 70
     1
102
RTVSPropertyOp29
 70
     1
102
RTVSPropertyOp30
 70
     1
102
RTVSPropertyOp31
 70
     1
102
RTVSPropertyOp32
 70
     1
  0
XRECORD
  5
AB4
102
{ACAD_REACTORS
330
AB3
102
}
330
AB3
100
AcDbXrecord
280
     1
102
RTVSPropertyOp0
 70
     1
102
RTVSPropertyOp1
 70
     1
102
RTVSPropertyOp2
 70
     1
102
RTVSPropertyOp3
 70
     1
102
RTVSPropertyOp4
 70
     1
102
RTVSPropertyOp5
 70
     1
102
RTVSPropertyOp6
 70
     1
102
RTVSPropertyOp7
 70
     1
102
RTVSPropertyOp8
 70
     1
102
RTVSPropertyOp9
 70
     1
102
RTVSPropertyOp10
 70
     1
102
RTVSPropertyOp11
 70
     1
102
RTVSPropertyOp12
 70
     1
102
RTVSPropertyOp13
 70
     1
102
RTVSPropertyOp14
 70
     1
102
RTVSPropertyOp15
 70
     1
102
RTVSPropertyOp16
 70
     1
102
RTVSPropertyOp17
 70
     1
102
RTVSPropertyOp18
 70
     1
102
RTVSPropertyOp19
 70
     1
102
RTVSPropertyOp20
 70
     1
102
RTVSPropertyOp21
 70
     1
102
RTVSPropertyOp22
 70
     1
102
RTVSPropertyOp23
 70
     1
102
RTVSPropertyOp24
 70
     1
102
RTVSPropertyOp25
 70
     1
102
RTVSPropertyOp26
 70
     1
102
RTVSPropertyOp27
 70
     1
102
RTVSPropertyOp28
 70
     1
102
RTVSPropertyOp29
 70
     1
102
RTVSPropertyOp30
 70
     1
102
RTVSPropertyOp31
 70
     1
102
RTVSPropertyOp32
 70
     1
  0
XRECORD
  5
AAE
102
{ACAD_REACTORS
330
AAD
102
}
330
AAD
100
AcDbXrecord
280
     1
102
RTVSPropertyOp0
 70
     1
102
RTVSPropertyOp1
 70
     1
102
RTVSPropertyOp2
 70
     1
102
RTVSPropertyOp3
 70
     1
102
RTVSPropertyOp4
 70
     1
102
RTVSPropertyOp5
 70
     1
102
RTVSPropertyOp6
 70
     1
102
RTVSPropertyOp7
 70
     1
102
RTVSPropertyOp8
 70
     1
102
RTVSPropertyOp9
 70
     1
102
RTVSPropertyOp10
 70
     1
102
RTVSPropertyOp11
 70
     1
102
RTVSPropertyOp12
 70
     1
102
RTVSPropertyOp13
 70
     1
102
RTVSPropertyOp14
 70
     1
102
RTVSPropertyOp15
 70
     1
102
RTVSPropertyOp16
 70
     1
102
RTVSPropertyOp17
 70
     1
102
RTVSPropertyOp18
 70
     1
102
RTVSPropertyOp19
 70
     1
102
RTVSPropertyOp20
 70
     1
102
RTVSPropertyOp21
 70
     1
102
RTVSPropertyOp22
 70
     1
102
RTVSPropertyOp23
 70
     1
102
RTVSPropertyOp24
 70
     1
102
RTVSPropertyOp25
 70
     1
102
RTVSPropertyOp26
 70
     1
102
RTVSPropertyOp27
 70
     1
102
RTVSPropertyOp28
 70
     1
102
RTVSPropertyOp29
 70
     1
102
RTVSPropertyOp30
 70
     1
102
RTVSPropertyOp31
 70
     1
102
RTVSPropertyOp32
 70
     1
  0
XRECORD
  5
AB0
102
{ACAD_REACTORS
330
AAF
102
}
330
AAF
100
AcDbXrecord
280
     1
102
RTVSPropertyOp0
 70
     1
102
RTVSPropertyOp1
 70
     1
102
RTVSPropertyOp2
 70
     1
102
RTVSPropertyOp3
 70
     1
102
RTVSPropertyOp4
 70
     1
102
RTVSPropertyOp5
 70
     1
102
RTVSPropertyOp6
 70
     1
102
RTVSPropertyOp7
 70
     1
102
RTVSPropertyOp8
 70
     1
102
RTVSPropertyOp9
 70
     1
102
RTVSPropertyOp10
 70
     1
102
RTVSPropertyOp11
 70
     1
102
RTVSPropertyOp12
 70
     1
102
RTVSPropertyOp13
 70
     1
102
RTVSPropertyOp14
 70
     1
102
RTVSPropertyOp15
 70
     1
102
RTVSPropertyOp16
 70
     1
102
RTVSPropertyOp17
 70
     1
102
RTVSPropertyOp18
 70
     1
102
RTVSPropertyOp19
 70
     1
102
RTVSPropertyOp20
 70
     1
102
RTVSPropertyOp21
 70
     1
102
RTVSPropertyOp22
 70
     1
102
RTVSPropertyOp23
 70
     1
102
RTVSPropertyOp24
 70
     1
102
RTVSPropertyOp25
 70
     1
102
RTVSPropertyOp26
 70
     1
102
RTVSPropertyOp27
 70
     1
102
RTVSPropertyOp28
 70
     1
102
RTVSPropertyOp29
 70
     1
102
RTVSPropertyOp30
 70
     1
102
RTVSPropertyOp31
 70
     1
102
RTVSPropertyOp32
 70
     1
  0
XRECORD
  5
A9D
102
{ACAD_REACTORS
330
A9C
102
}
330
A9C
100
AcDbXrecord
280
     1
102
RTVSPropertyOp0
 70
     1
102
RTVSPropertyOp1
 70
     1
102
RTVSPropertyOp2
 70
     1
102
RTVSPropertyOp3
 70
     1
102
RTVSPropertyOp4
 70
     1
102
RTVSPropertyOp5
 70
     1
102
RTVSPropertyOp6
 70
     1
102
RTVSPropertyOp7
 70
     1
102
RTVSPropertyOp8
 70
     1
102
RTVSPropertyOp9
 70
     1
102
RTVSPropertyOp10
 70
     1
102
RTVSPropertyOp11
 70
     1
102
RTVSPropertyOp12
 70
     1
102
RTVSPropertyOp13
 70
     1
102
RTVSPropertyOp14
 70
     1
102
RTVSPropertyOp15
 70
     1
102
RTVSPropertyOp16
 70
     1
102
RTVSPropertyOp17
 70
     1
102
RTVSPropertyOp18
 70
     1
102
RTVSPropertyOp19
 70
     1
102
RTVSPropertyOp20
 70
     1
102
RTVSPropertyOp21
 70
     1
102
RTVSPropertyOp22
 70
     1
102
RTVSPropertyOp23
 70
     1
102
RTVSPropertyOp24
 70
     1
102
RTVSPropertyOp25
 70
     1
102
RTVSPropertyOp26
 70
     1
102
RTVSPropertyOp27
 70
     1
102
RTVSPropertyOp28
 70
     1
102
RTVSPropertyOp29
 70
     1
102
RTVSPropertyOp30
 70
     1
102
RTVSPropertyOp31
 70
     1
102
RTVSPropertyOp32
 70
     1
  0
XRECORD
  5
AAA
102
{ACAD_REACTORS
330
AA9
102
}
330
AA9
100
AcDbXrecord
280
     1
102
RTVSPropertyOp0
 70
     1
102
RTVSPropertyOp1
 70
     1
102
RTVSPropertyOp2
 70
     1
102
RTVSPropertyOp3
 70
     1
102
RTVSPropertyOp4
 70
     1
102
RTVSPropertyOp5
 70
     1
102
RTVSPropertyOp6
 70
     1
102
RTVSPropertyOp7
 70
     1
102
RTVSPropertyOp8
 70
     1
102
RTVSPropertyOp9
 70
     1
102
RTVSPropertyOp10
 70
     1
102
RTVSPropertyOp11
 70
     1
102
RTVSPropertyOp12
 70
     1
102
RTVSPropertyOp13
 70
     1
102
RTVSPropertyOp14
 70
     1
102
RTVSPropertyOp15
 70
     1
102
RTVSPropertyOp16
 70
     1
102
RTVSPropertyOp17
 70
     1
102
RTVSPropertyOp18
 70
     1
102
RTVSPropertyOp19
 70
     1
102
RTVSPropertyOp20
 70
     1
102
RTVSPropertyOp21
 70
     1
102
RTVSPropertyOp22
 70
     1
102
RTVSPropertyOp23
 70
     1
102
RTVSPropertyOp24
 70
     1
102
RTVSPropertyOp25
 70
     1
102
RTVSPropertyOp26
 70
     1
102
RTVSPropertyOp27
 70
     1
102
RTVSPropertyOp28
 70
     1
102
RTVSPropertyOp29
 70
     1
102
RTVSPropertyOp30
 70
     1
102
RTVSPropertyOp31
 70
     1
102
RTVSPropertyOp32
 70
     1
  0
XRECORD
  5
AB2
102
{ACAD_REACTORS
330
AB1
102
}
330
AB1
100
AcDbXrecord
280
     1
102
RTVSPropertyOp0
 70
     1
102
RTVSPropertyOp1
 70
     1
102
RTVSPropertyOp2
 70
     1
102
RTVSPropertyOp3
 70
     1
102
RTVSPropertyOp4
 70
     1
102
RTVSPropertyOp5
 70
     1
102
RTVSPropertyOp6
 70
     1
102
RTVSPropertyOp7
 70
     1
102
RTVSPropertyOp8
 70
     1
102
RTVSPropertyOp9
 70
     1
102
RTVSPropertyOp10
 70
     1
102
RTVSPropertyOp11
 70
     1
102
RTVSPropertyOp12
 70
     1
102
RTVSPropertyOp13
 70
     1
102
RTVSPropertyOp14
 70
     1
102
RTVSPropertyOp15
 70
     1
102
RTVSPropertyOp16
 70
     1
102
RTVSPropertyOp17
 70
     1
102
RTVSPropertyOp18
 70
     1
102
RTVSPropertyOp19
 70
     1
102
RTVSPropertyOp20
 70
     1
102
RTVSPropertyOp21
 70
     1
102
RTVSPropertyOp22
 70
     1
102
RTVSPropertyOp23
 70
     1
102
RTVSPropertyOp24
 70
     1
102
RTVSPropertyOp25
 70
     1
102
RTVSPropertyOp26
 70
     1
102
RTVSPropertyOp27
 70
     1
102
RTVSPropertyOp28
 70
     1
102
RTVSPropertyOp29
 70
     1
102
RTVSPropertyOp30
 70
     1
102
RTVSPropertyOp31
 70
     1
102
RTVSPropertyOp32
 70
     1
  0
ENDSEC
  0
EOF
