  0
SECTION
  2
HEADER
  9
$ACADVER
  1
AC1015
  9
$ACADMAINTVER
 70
    20
  9
$DWGCODEPAGE
  3
ANSI_932
  9
$INSBASE
 10
0.0
 20
0.0
 30
0.0
  9
$EXTMIN
 10
-205.0133595264679
 20
-135.5095391625302
 30
-0.0015258207003583
  9
$EXTMAX
 10
200.0083242387837
 20
144.3401674656024
 30
0.0000000349246037
  9
$LIMMIN
 10
-205.001
 20
-135.501
  9
$LIMMAX
 10
200.026864
 20
144.331627
  9
$ORTHOMODE
 70
     1
  9
$REGENMODE
 70
     1
  9
$FILLMODE
 70
     1
  9
$QTEXTMODE
 70
     0
  9
$MIRRTEXT
 70
     0
  9
$LTSCALE
 40
6.750430999999997
  9
$ATTMODE
 70
     1
  9
$TEXTSIZE
 40
3.2
  9
$TRACEWID
 40
0.05
  9
$TEXTSTYLE
  7
高3.2
  9
$CLAYER
  8
0
  9
$CELTYPE
  6
ByLayer
  9
$CECOLOR
 62
   256
  9
$CELTSCALE
 40
1.0
  9
$DISPSILH
 70
     0
  9
$DIMSCALE
 40
1.0
  9
$DIMASZ
 40
2.5
  9
$DIMEXO
 40
0.25
  9
$DIMDLI
 40
0.2
  9
$DIMRND
 40
0.0
  9
$DIMDLE
 40
0.0
  9
$DIMEXE
 40
1.25
  9
$DIMTP
 40
0.0
  9
$DIMTM
 40
0.0
  9
$DIMTXT
 40
3.0
  9
$DIMCEN
 40
0.0
  9
$DIMTSZ
 40
0.0
  9
$DIMTOL
 70
     0
  9
$DIMLIM
 70
     0
  9
$DIMTIH
 70
     0
  9
$DIMTOH
 70
     0
  9
$DIMSE1
 70
     0
  9
$DIMSE2
 70
     0
  9
$DIMTAD
 70
     3
  9
$DIMZIN
 70
     8
  9
$DIMBLK
  1
Open30
  9
$DIMASO
 70
     1
  9
$DIMSHO
 70
     1
  9
$DIMPOST
  1

  9
$DIMAPOST
  1

  9
$DIMALT
 70
     0
  9
$DIMALTD
 70
     3
  9
$DIMALTF
 40
0.03937007874016
  9
$DIMLFAC
 40
2.0
  9
$DIMTOFL
 70
     1
  9
$DIMTVP
 40
0.0
  9
$DIMTIX
 70
     0
  9
$DIMSOXD
 70
     0
  9
$DIMSAH
 70
     0
  9
$DIMBLK1
  1

  9
$DIMBLK2
  1

  9
$DIMSTYLE
  2
1／2
  9
$DIMCLRD
 70
     0
  9
$DIMCLRE
 70
     0
  9
$DIMCLRT
 70
     4
  9
$DIMTFAC
 40
1.0
  9
$DIMGAP
 40
0.625
  9
$DIMJUST
 70
     0
  9
$DIMSD1
 70
     0
  9
$DIMSD2
 70
     0
  9
$DIMTOLJ
 70
     0
  9
$DIMTZIN
 70
     8
  9
$DIMALTZ
 70
     0
  9
$DIMALTTZ
 70
     0
  9
$DIMUPT
 70
     1
  9
$DIMDEC
 70
     2
  9
$DIMTDEC
 70
     2
  9
$DIMALTU
 70
     2
  9
$DIMALTTD
 70
     3
  9
$DIMTXSTY
  7
STANDARD
  9
$DIMAUNIT
 70
     0
  9
$DIMADEC
 70
     1
  9
$DIMALTRND
 40
0.0
  9
$DIMAZIN
 70
     2
  9
$DIMDSEP
 70
    46
  9
$DIMATFIT
 70
     0
  9
$DIMFRAC
 70
     0
  9
$DIMLDRBLK
  1
Open30
  9
$DIMLUNIT
 70
     2
  9
$DIMLWD
 70
    -2
  9
$DIMLWE
 70
    -2
  9
$DIMTMOVE
 70
     0
  9
$LUNITS
 70
     2
  9
$LUPREC
 70
     4
  9
$SKETCHINC
 40
0.1
  9
$FILLETRAD
 40
0.0
  9
$AUNITS
 70
     0
  9
$AUPREC
 70
     0
  9
$MENU
  1
.
  9
$ELEVATION
 40
0.0
  9
$PELEVATION
 40
0.0
  9
$THICKNESS
 40
0.0
  9
$LIMCHECK
 70
     0
  9
$CHAMFERA
 40
0.0
  9
$CHAMFERB
 40
0.0
  9
$CHAMFERC
 40
0.0
  9
$CHAMFERD
 40
0.0
  9
$SKPOLY
 70
     0
  9
$TDCREATE
 40
2455469.478062060
  9
$TDUCREATE
 40
2455469.103062061
  9
$TDUPDATE
 40
2457885.717942442
  9
$TDUUPDATE
 40
2457885.342942442
  9
$TDINDWG
 40
0.1401188310
  9
$TDUSRTIMER
 40
0.1400964931
  9
$USRTIMER
 70
     1
  9
$ANGBASE
 50
0.0
  9
$ANGDIR
 70
     0
  9
$PDMODE
 70
     0
  9
$PDSIZE
 40
0.0
  9
$PLINEWID
 40
0.0
  9
$SPLFRAME
 70
     0
  9
$SPLINETYPE
 70
     6
  9
$SPLINESEGS
 70
     8
  9
$HANDSEED
  5
16EF
  9
$SURFTAB1
 70
     6
  9
$SURFTAB2
 70
     6
  9
$SURFTYPE
 70
     6
  9
$SURFU
 70
     6
  9
$SURFV
 70
     6
  9
$UCSBASE
  2

  9
$UCSNAME
  2

  9
$UCSORG
 10
0.0
 20
0.0
 30
0.0
  9
$UCSXDIR
 10
1.0
 20
0.0
 30
0.0
  9
$UCSYDIR
 10
0.0
 20
1.0
 30
0.0
  9
$UCSORTHOREF
  2

  9
$UCSORTHOVIEW
 70
     0
  9
$UCSORGTOP
 10
0.0
 20
0.0
 30
0.0
  9
$UCSORGBOTTOM
 10
0.0
 20
0.0
 30
0.0
  9
$UCSORGLEFT
 10
0.0
 20
0.0
 30
0.0
  9
$UCSORGRIGHT
 10
0.0
 20
0.0
 30
0.0
  9
$UCSORGFRONT
 10
0.0
 20
0.0
 30
0.0
  9
$UCSORGBACK
 10
0.0
 20
0.0
 30
0.0
  9
$PUCSBASE
  2

  9
$PUCSNAME
  2

  9
$PUCSORG
 10
0.0
 20
0.0
 30
0.0
  9
$PUCSXDIR
 10
1.0
 20
0.0
 30
0.0
  9
$PUCSYDIR
 10
0.0
 20
1.0
 30
0.0
  9
$PUCSORTHOREF
  2

  9
$PUCSORTHOVIEW
 70
     0
  9
$PUCSORGTOP
 10
0.0
 20
0.0
 30
0.0
  9
$PUCSORGBOTTOM
 10
0.0
 20
0.0
 30
0.0
  9
$PUCSORGLEFT
 10
0.0
 20
0.0
 30
0.0
  9
$PUCSORGRIGHT
 10
0.0
 20
0.0
 30
0.0
  9
$PUCSORGFRONT
 10
0.0
 20
0.0
 30
0.0
  9
$PUCSORGBACK
 10
0.0
 20
0.0
 30
0.0
  9
$USERI1
 70
     0
  9
$USERI2
 70
     0
  9
$USERI3
 70
     0
  9
$USERI4
 70
     0
  9
$USERI5
 70
     0
  9
$USERR1
 40
0.0
  9
$USERR2
 40
0.0
  9
$USERR3
 40
0.0
  9
$USERR4
 40
0.0
  9
$USERR5
 40
0.0
  9
$WORLDVIEW
 70
     1
  9
$SHADEDGE
 70
     3
  9
$SHADEDIF
 70
    70
  9
$TILEMODE
 70
     1
  9
$MAXACTVP
 70
    64
  9
$PINSBASE
 10
0.0
 20
0.0
 30
0.0
  9
$PLIMCHECK
 70
     0
  9
$PEXTMIN
 10
1.000000000000000E+20
 20
1.000000000000000E+20
 30
1.000000000000000E+20
  9
$PEXTMAX
 10
-1.000000000000000E+20
 20
-1.000000000000000E+20
 30
-1.000000000000000E+20
  9
$PLIMMIN
 10
0.0
 20
0.0
  9
$PLIMMAX
 10
12.0
 20
9.0
  9
$UNITMODE
 70
     0
  9
$VISRETAIN
 70
     1
  9
$PLINEGEN
 70
     0
  9
$PSLTSCALE
 70
     1
  9
$TREEDEPTH
 70
  3020
  9
$CMLSTYLE
  2
Standard
  9
$CMLJUST
 70
     0
  9
$CMLSCALE
 40
1.0
  9
$PROXYGRAPHICS
 70
     1
  9
$MEASUREMENT
 70
     0
  9
$CELWEIGHT
370
    -1
  9
$ENDCAPS
280
     0
  9
$JOINSTYLE
280
     0
  9
$LWDISPLAY
290
     0
  9
$INSUNITS
 70
     0
  9
$HYPERLINKBASE
  1

  9
$STYLESHEET
  1

  9
$XEDIT
290
     1
  9
$CEPSNTYPE
380
     0
  9
$PSTYLEMODE
290
     1
  9
$FINGERPRINTGUID
  2
{C68648A1-2556-47A7-BF42-E11CD367FBE1}
  9
$VERSIONGUID
  2
{D91AA5A5-7E2A-4D16-BBA9-EA90F0FDDA07}
  9
$EXTNAMES
290
     1
  9
$PSVPSCALE
 40
0.0
  9
$OLESTARTUP
290
     0
  0
ENDSEC
  0
SECTION
  2
CLASSES
  0
CLASS
  1
ACDBDICTIONARYWDFLT
  2
AcDbDictionaryWithDefault
  3
ObjectDBX Classes
 90
        0
280
     0
281
     0
  0
CLASS
  1
MATERIAL
  2
AcDbMaterial
  3
ObjectDBX Classes
 90
     1153
280
     0
281
     0
  0
CLASS
  1
VISUALSTYLE
  2
AcDbVisualStyle
  3
ObjectDBX Classes
 90
     4095
280
     0
281
     0
  0
CLASS
  1
TABLESTYLE
  2
AcDbTableStyle
  3
ObjectDBX Classes
 90
     4095
280
     0
281
     0
  0
CLASS
  1
DICTIONARYVAR
  2
AcDbDictionaryVar
  3
ObjectDBX Classes
 90
        0
280
     0
281
     0
  0
CLASS
  1
ACDBPLACEHOLDER
  2
AcDbPlaceHolder
  3
ObjectDBX Classes
 90
        0
280
     0
281
     0
  0
CLASS
  1
LAYOUT
  2
AcDbLayout
  3
ObjectDBX Classes
 90
        0
280
     0
281
     0
  0
CLASS
  1
SCALE
  2
AcDbScale
  3
ObjectDBX Classes
 90
     1153
280
     0
281
     0
  0
CLASS
  1
MLEADERSTYLE
  2
AcDbMLeaderStyle
  3
ACDB_MLEADERSTYLE_CLASS
 90
     4095
280
     0
281
     0
  0
CLASS
  1
CELLSTYLEMAP
  2
AcDbCellStyleMap
  3
ObjectDBX Classes
 90
     1152
280
     0
281
     0
  0
CLASS
  1
SORTENTSTABLE
  2
AcDbSortentsTable
  3
ObjectDBX Classes
 90
        0
280
     0
281
     0
  0
CLASS
  1
AEC_REFEDIT_STATUS_TRACKER
  2
AecDbRefEditStatusTracker
  3
AecArchBase60|Product Desc: Autodesk Architectural Desktop 2007 |Company: Autodesk,Inc. |WEB Address: www.autodesk.com
 90
      129
280
     0
281
     0
  0
CLASS
  1
NPOCOLLECTION
  2
AcDbImpNonPersistentObjectsCollection
  3
ObjectDBX Classes
 90
     1153
280
     0
281
     0
  0
ENDSEC
  0
SECTION
  2
TABLES
  0
TABLE
  2
VPORT
  5
8
330
0
100
AcDbSymbolTable
 70
     1
  0
VPORT
  5
57
330
8
100
AcDbSymbolTableRecord
100
AcDbViewportTableRecord
  2
*Active
 70
     0
 10
0.0
 20
0.0
 11
1.0
 21
1.0
 12
46.99508459427431
 22
-40.56269985518793
 13
0.0
 23
0.0
 14
1.0
 24
1.0
 15
0.0
 25
0.0
 16
0.0
 26
0.0
 36
1.0
 17
0.0
 27
0.0
 37
0.0
 40
855.8193970816933
 41
1.087179487179487
 42
50.0
 43
0.0
 44
0.0
 50
0.0
 51
0.0
 71
     0
 72
   100
 73
     1
 74
     1
 75
     0
 76
     0
 77
     0
 78
     0
281
     0
 65
     1
110
0.0
120
0.0
130
0.0
111
1.0
121
0.0
131
0.0
112
0.0
122
1.0
132
0.0
 79
     0
146
0.0
  0
ENDTAB
  0
TABLE
  2
LTYPE
  5
5
330
0
100
AcDbSymbolTable
 70
     3
  0
LTYPE
  5
28
330
5
100
AcDbSymbolTableRecord
100
AcDbLinetypeTableRecord
  2
ByBlock
 70
     0
  3

 72
    65
 73
     0
 40
0.0
  0
LTYPE
  5
29
330
5
100
AcDbSymbolTableRecord
100
AcDbLinetypeTableRecord
  2
ByLayer
 70
     0
  3

 72
    65
 73
     0
 40
0.0
  0
LTYPE
  5
2A
330
5
100
AcDbSymbolTableRecord
100
AcDbLinetypeTableRecord
  2
CONTINUOUS
 70
     0
  3
Solid-line
 72
    65
 73
     0
 40
0.0
  0
LTYPE
  5
4C
330
5
100
AcDbSymbolTableRecord
100
AcDbLinetypeTableRecord
  2
HIDDEN
 70
     0
  3
HIDDEN
 72
    65
 73
     2
 40
0.375
 49
0.25
 74
     0
 49
-0.125
 74
     0
  0
ENDTAB
  0
TABLE
  2
LAYER
  5
2
102
{ACAD_XDICTIONARY
360
542
102
}
330
0
100
AcDbSymbolTable
 70
     2
  0
LAYER
  5
25
102
{ACAD_XDICTIONARY
360
9C5
102
}
330
2
100
AcDbSymbolTableRecord
100
AcDbLayerTableRecord
  2
0
 70
     0
 62
     7
  6
CONTINUOUS
370
    -3
390
F
  0
LAYER
  5
534
330
2
100
AcDbSymbolTableRecord
100
AcDbLayerTableRecord
  2
Defpoints
 70
     0
 62
     7
  6
CONTINUOUS
290
     0
370
    -3
390
F
  0
ENDTAB
  0
TABLE
  2
STYLE
  5
3
330
0
100
AcDbSymbolTable
 70
     7
  0
STYLE
  5
26
330
3
100
AcDbSymbolTableRecord
100
AcDbTextStyleTableRecord
  2
STANDARD
 70
     0
 40
0.0
 41
1.0
 50
0.0
 71
     0
 42
0.2
  3
TXT
  4
BIGFONT
  0
STYLE
  5
535
330
3
100
AcDbSymbolTableRecord
100
AcDbTextStyleTableRecord
  2
高3.2
 70
     0
 40
3.2
 41
1.0
 50
0.0
 71
     0
 42
3.2
  3
txt.shx
  4
bigfont.shx
  0
STYLE
  5
536
330
3
100
AcDbSymbolTableRecord
100
AcDbTextStyleTableRecord
  2
高6.3
 70
     0
 40
6.299999999999998
 41
1.0
 50
0.0
 71
     0
 42
6.299999999999998
  3
txt.shx
  4
bigfont.shx
  0
STYLE
  5
537
330
3
100
AcDbSymbolTableRecord
100
AcDbTextStyleTableRecord
  2
高2.5
 70
     0
 40
2.5
 41
1.0
 50
0.0
 71
     0
 42
0.2
  3
txt.shx
  4
bigfont.shx
  0
STYLE
  5
538
330
3
100
AcDbSymbolTableRecord
100
AcDbTextStyleTableRecord
  2
高4.5
 70
     0
 40
4.5
 41
1.0
 50
0.0
 71
     0
 42
6.299999999999998
  3
txt.shx
  4
bigfont.shx
  0
STYLE
  5
86B
330
3
100
AcDbSymbolTableRecord
100
AcDbTextStyleTableRecord
  2
高2
 70
     0
 40
2.0
 41
1.0
 50
0.0
 71
     0
 42
6.299999999999998
  3
txt.shx
  4
bigfont.shx
  0
ENDTAB
  0
TABLE
  2
VIEW
  5
6
330
0
100
AcDbSymbolTable
 70
     0
  0
ENDTAB
  0
TABLE
  2
UCS
  5
7
330
0
100
AcDbSymbolTable
 70
     0
  0
ENDTAB
  0
TABLE
  2
APPID
  5
9
330
0
100
AcDbSymbolTable
 70
    10
  0
APPID
  5
27
330
9
100
AcDbSymbolTableRecord
100
AcDbRegAppTableRecord
  2
ACAD
 70
     0
  0
APPID
  5
541
330
9
100
AcDbSymbolTableRecord
100
AcDbRegAppTableRecord
  2
ACAD_DSTYLE_DIMJOGGED_JOGANGLE_SYMBOL
 70
     0
  0
APPID
  5
740
330
9
100
AcDbSymbolTableRecord
100
AcDbRegAppTableRecord
  2
ACAD_DSTYLE_DIMARC_LENGTH_SYMBOL
 70
     0
  0
APPID
  5
741
330
9
100
AcDbSymbolTableRecord
100
AcDbRegAppTableRecord
  2
ACAD_DSTYLE_DIMEXT_LENGTH
 70
     0
  0
APPID
  5
86E
330
9
100
AcDbSymbolTableRecord
100
AcDbRegAppTableRecord
  2
ACAD_DSTYLE_DIMJAG
 70
     0
  0
APPID
  5
86F
330
9
100
AcDbSymbolTableRecord
100
AcDbRegAppTableRecord
  2
ACAD_DSTYLE_DIMBREAK
 70
     0
  0
APPID
  5
870
330
9
100
AcDbSymbolTableRecord
100
AcDbRegAppTableRecord
  2
ACAD_DSTYLE_DIMTALN
 70
     0
  0
APPID
  5
97F
330
9
100
AcDbSymbolTableRecord
100
AcDbRegAppTableRecord
  2
ACAD_EXEMPT_FROM_CAD_STANDARDS
 70
     0
  0
APPID
  5
A0F
330
9
100
AcDbSymbolTableRecord
100
AcDbRegAppTableRecord
  2
ACAD_MLEADERVER
 70
     0
  0
APPID
  5
1599
330
9
100
AcDbSymbolTableRecord
100
AcDbRegAppTableRecord
  2
ACAD_PSEXT
 70
     0
  0
ENDTAB
  0
TABLE
  2
DIMSTYLE
  5
A
330
0
100
AcDbSymbolTable
 70
    12
100
AcDbDimStyleTable
 71
     2
340
53D
340
539
  0
DIMSTYLE
105
4BC
330
A
100
AcDbSymbolTableRecord
100
AcDbDimStyleTableRecord
  2
Standard
 70
     0
340
26
  0
DIMSTYLE
105
539
330
A
100
AcDbSymbolTableRecord
100
AcDbDimStyleTableRecord
  2
1：1
 70
     0
 41
2.5
 42
0.25
 43
0.2
 44
1.25
 73
     0
 74
     0
 77
     3
 78
     8
 79
     2
140
3.0
141
0.0
143
0.03937007874016
147
0.625
171
     3
172
     1
178
     4
179
     1
271
     2
272
     2
274
     3
283
     0
284
     8
288
     1
289
     0
340
26
341
4BE
342
4BE
1001
ACAD_DSTYLE_DIMARC_LENGTH_SYMBOL
1070
   379
1070
     2
1001
ACAD_DSTYLE_DIMEXT_LENGTH
1070
   378
1040
1.25
1001
ACAD_DSTYLE_DIMJOGGED_JOGANGLE_SYMBOL
1070
   384
1040
1.570796326794896
  0
DIMSTYLE
105
53D
330
A
100
AcDbSymbolTableRecord
100
AcDbDimStyleTableRecord
  2
1／2
 70
     0
 41
2.5
 42
0.25
 43
0.2
 44
1.25
 73
     0
 74
     0
 77
     3
 78
     8
 79
     2
140
3.0
141
0.0
143
0.03937007874016
144
2.0
147
0.625
171
     3
172
     1
178
     4
179
     1
271
     2
272
     2
274
     3
283
     0
284
     8
288
     1
289
     0
340
26
341
4BE
342
4BE
1001
ACAD_DSTYLE_DIMARC_LENGTH_SYMBOL
1070
   379
1070
     2
1001
ACAD_DSTYLE_DIMEXT_LENGTH
1070
   378
1040
1.25
1001
ACAD_DSTYLE_DIMJOGGED_JOGANGLE_SYMBOL
1070
   384
1040
1.570796326794896
  0
DIMSTYLE
105
10F7
330
A
100
AcDbSymbolTableRecord
100
AcDbDimStyleTableRecord
  2
2：1
 70
     0
 41
2.5
 42
0.25
 43
0.2
 44
1.25
 73
     0
 74
     0
 77
     3
 78
     8
 79
     2
140
3.0
141
0.0
143
0.03937007874016
144
0.5
147
0.625
171
     3
172
     1
178
     4
179
     1
271
     2
272
     2
274
     3
283
     0
284
     8
288
     1
289
     0
340
26
341
4BE
342
4BE
1001
ACAD_DSTYLE_DIMARC_LENGTH_SYMBOL
1070
   379
1070
     2
1001
ACAD_DSTYLE_DIMEXT_LENGTH
1070
   378
1040
1.25
1001
ACAD_DSTYLE_DIMJOGGED_JOGANGLE_SYMBOL
1070
   384
1040
1.570796326794896
  0
DIMSTYLE
105
10F8
330
A
100
AcDbSymbolTableRecord
100
AcDbDimStyleTableRecord
  2
5：1
 70
     0
 41
2.5
 42
0.25
 43
0.2
 44
1.25
 73
     0
 74
     0
 77
     3
 78
     8
 79
     2
140
3.0
141
0.0
143
0.03937007874016
144
0.2
147
0.625
171
     3
172
     1
178
     4
179
     1
271
     2
272
     2
274
     3
283
     0
284
     8
288
     1
289
     0
340
26
341
4BE
342
4BE
1001
ACAD_DSTYLE_DIMARC_LENGTH_SYMBOL
1070
   379
1070
     2
1001
ACAD_DSTYLE_DIMEXT_LENGTH
1070
   378
1040
1.25
1001
ACAD_DSTYLE_DIMJOGGED_JOGANGLE_SYMBOL
1070
   384
1040
1.570796326794896
  0
DIMSTYLE
105
10F9
330
A
100
AcDbSymbolTableRecord
100
AcDbDimStyleTableRecord
  2
10：1
 70
     0
 41
2.5
 42
0.25
 43
0.2
 44
1.25
 73
     0
 74
     0
 77
     3
 78
     8
 79
     2
140
3.0
141
0.0
143
0.03937007874016
144
0.1
147
0.625
171
     3
172
     1
178
     4
179
     1
271
     2
272
     2
274
     3
283
     0
284
     8
288
     1
289
     0
340
26
341
4BE
342
4BE
1001
ACAD_DSTYLE_DIMARC_LENGTH_SYMBOL
1070
   379
1070
     2
1001
ACAD_DSTYLE_DIMEXT_LENGTH
1070
   378
1040
1.25
1001
ACAD_DSTYLE_DIMJOGGED_JOGANGLE_SYMBOL
1070
   384
1040
1.570796326794896
  0
DIMSTYLE
105
10FA
330
A
100
AcDbSymbolTableRecord
100
AcDbDimStyleTableRecord
  2
1／5
 70
     0
 41
2.5
 42
0.25
 43
0.2
 44
1.25
 73
     0
 74
     0
 77
     3
 78
     8
 79
     2
140
3.0
141
0.0
143
0.03937007874016
144
5.0
147
0.625
171
     3
172
     1
178
     4
179
     1
271
     2
272
     2
274
     3
283
     0
284
     8
288
     1
289
     0
340
26
341
4BE
342
4BE
1001
ACAD_DSTYLE_DIMARC_LENGTH_SYMBOL
1070
   379
1070
     2
1001
ACAD_DSTYLE_DIMEXT_LENGTH
1070
   378
1040
1.25
1001
ACAD_DSTYLE_DIMJOGGED_JOGANGLE_SYMBOL
1070
   384
1040
1.570796326794896
  0
DIMSTYLE
105
10FB
330
A
100
AcDbSymbolTableRecord
100
AcDbDimStyleTableRecord
  2
1／10
 70
     0
 41
2.5
 42
0.25
 43
0.2
 44
1.25
 73
     0
 74
     0
 77
     3
 78
     8
 79
     2
140
3.0
141
0.0
143
0.03937007874016
144
10.0
147
0.625
171
     3
172
     1
178
     4
179
     1
271
     2
272
     2
274
     3
283
     0
284
     8
288
     1
289
     0
340
26
341
4BE
342
4BE
1001
ACAD_DSTYLE_DIMARC_LENGTH_SYMBOL
1070
   379
1070
     2
1001
ACAD_DSTYLE_DIMEXT_LENGTH
1070
   378
1040
1.25
1001
ACAD_DSTYLE_DIMJOGGED_JOGANGLE_SYMBOL
1070
   384
1040
1.570796326794896
  0
DIMSTYLE
105
10FC
330
A
100
AcDbSymbolTableRecord
100
AcDbDimStyleTableRecord
  2
1／4
 70
     0
 41
2.5
 42
0.25
 43
0.2
 44
1.25
 73
     0
 74
     0
 77
     3
 78
     8
 79
     2
140
3.0
141
0.0
143
0.03937007874016
144
4.0
147
0.625
171
     3
172
     1
178
     4
179
     1
271
     2
272
     2
274
     3
283
     0
284
     8
288
     1
289
     0
340
26
341
4BE
342
4BE
1001
ACAD_DSTYLE_DIMARC_LENGTH_SYMBOL
1070
   379
1070
     2
1001
ACAD_DSTYLE_DIMEXT_LENGTH
1070
   378
1040
1.25
1001
ACAD_DSTYLE_DIMJOGGED_JOGANGLE_SYMBOL
1070
   384
1040
1.570796326794896
  0
DIMSTYLE
105
10FD
330
A
100
AcDbSymbolTableRecord
100
AcDbDimStyleTableRecord
  2
1／3
 70
     0
 41
2.5
 42
0.25
 43
0.2
 44
1.25
 73
     0
 74
     0
 77
     3
 78
     8
 79
     2
140
3.0
141
0.0
143
0.03937007874016
144
3.0
147
0.625
171
     3
172
     1
178
     4
179
     1
271
     2
272
     2
274
     3
283
     0
284
     8
288
     1
289
     0
340
26
341
4BE
342
4BE
1001
ACAD_DSTYLE_DIMARC_LENGTH_SYMBOL
1070
   379
1070
     2
1001
ACAD_DSTYLE_DIMEXT_LENGTH
1070
   378
1040
1.25
1001
ACAD_DSTYLE_DIMJOGGED_JOGANGLE_SYMBOL
1070
   384
1040
1.570796326794896
  0
DIMSTYLE
105
10FE
330
A
100
AcDbSymbolTableRecord
100
AcDbDimStyleTableRecord
  2
FREE
 70
     0
 41
2.5
 42
0.25
 43
0.2
 44
1.25
 73
     0
 74
     0
 77
     3
 78
     8
 79
     2
140
3.0
141
0.0
143
0.03937007874016
147
0.625
171
     3
172
     1
178
     4
179
     1
271
     2
272
     2
274
     3
283
     0
284
     8
288
     1
289
     0
340
26
341
4BE
342
4BE
1001
ACAD_DSTYLE_DIMBREAK
1070
   391
1040
3.75
1001
ACAD_DSTYLE_DIMJAG
1070
   388
1040
1.5
1001
ACAD_DSTYLE_DIMTALN
1070
   392
1070
     0
1001
ACAD_DSTYLE_DIMARC_LENGTH_SYMBOL
1070
   379
1070
     2
1001
ACAD_DSTYLE_DIMEXT_LENGTH
1070
   378
1040
1.25
1001
ACAD_DSTYLE_DIMJOGGED_JOGANGLE_SYMBOL
1070
   384
1040
1.570796326794896
  0
ENDTAB
  0
TABLE
  2
BLOCK_RECORD
  5
1
330
0
100
AcDbSymbolTable
 70
    28
  0
BLOCK_RECORD
  5
36
102
{ACAD_XDICTIONARY
360
AB5
102
}
330
1
100
AcDbSymbolTableRecord
100
AcDbBlockTableRecord
  2
*Model_Space
340
39
  0
BLOCK_RECORD
  5
32
330
1
100
AcDbSymbolTableRecord
100
AcDbBlockTableRecord
  2
*Paper_Space
340
35
  0
BLOCK_RECORD
  5
4BE
330
1
100
AcDbSymbolTableRecord
100
AcDbBlockTableRecord
  2
_Open30
340
0
102
{BLKREFS
331
1083
331
1090
331
1091
331
109E
331
109F
331
10AC
331
10AD
331
10BA
331
10BB
331
10C8
331
10C9
331
10D6
331
10D7
331
10E4
331
10E5
331
10F0
331
10F1
331
1074
331
1075
331
1082
331
11D8
331
11D9
331
11E3
331
11E4
331
11EE
331
11EF
331
11F9
331
11FA
331
1204
331
1205
331
120F
331
1210
331
121A
331
121B
331
1225
331
1226
331
1230
331
1231
331
1239
331
123A
331
1521
331
1522
331
152A
331
152B
331
1533
331
1534
331
153C
331
153D
331
1545
331
1546
331
154E
331
154F
102
}
  0
BLOCK_RECORD
  5
620
330
1
100
AcDbSymbolTableRecord
100
AcDbBlockTableRecord
  2
*D1
340
0
  0
BLOCK_RECORD
  5
64A
330
1
100
AcDbSymbolTableRecord
100
AcDbBlockTableRecord
  2
*D2
340
0
  0
BLOCK_RECORD
  5
668
330
1
100
AcDbSymbolTableRecord
100
AcDbBlockTableRecord
  2
*D3
340
0
  0
BLOCK_RECORD
  5
686
330
1
100
AcDbSymbolTableRecord
100
AcDbBlockTableRecord
  2
*D4
340
0
  0
BLOCK_RECORD
  5
6F0
330
1
100
AcDbSymbolTableRecord
100
AcDbBlockTableRecord
  2
*D5
340
0
  0
BLOCK_RECORD
  5
6FB
330
1
100
AcDbSymbolTableRecord
100
AcDbBlockTableRecord
  2
*D6
340
0
  0
BLOCK_RECORD
  5
106D
330
1
100
AcDbSymbolTableRecord
100
AcDbBlockTableRecord
  2
*D7
340
0
  0
BLOCK_RECORD
  5
107B
330
1
100
AcDbSymbolTableRecord
100
AcDbBlockTableRecord
  2
*D8
340
0
  0
BLOCK_RECORD
  5
1089
330
1
100
AcDbSymbolTableRecord
100
AcDbBlockTableRecord
  2
*D9
340
0
  0
BLOCK_RECORD
  5
1097
330
1
100
AcDbSymbolTableRecord
100
AcDbBlockTableRecord
  2
*D10
340
0
  0
BLOCK_RECORD
  5
10A5
330
1
100
AcDbSymbolTableRecord
100
AcDbBlockTableRecord
  2
*D11
340
0
  0
BLOCK_RECORD
  5
10B3
330
1
100
AcDbSymbolTableRecord
100
AcDbBlockTableRecord
  2
*D12
340
0
  0
BLOCK_RECORD
  5
10C1
330
1
100
AcDbSymbolTableRecord
100
AcDbBlockTableRecord
  2
*D13
340
0
  0
BLOCK_RECORD
  5
10CF
330
1
100
AcDbSymbolTableRecord
100
AcDbBlockTableRecord
  2
*D14
340
0
  0
BLOCK_RECORD
  5
10DD
330
1
100
AcDbSymbolTableRecord
100
AcDbBlockTableRecord
  2
*D15
340
0
  0
BLOCK_RECORD
  5
10EB
330
1
100
AcDbSymbolTableRecord
100
AcDbBlockTableRecord
  2
*D16
340
0
  0
BLOCK_RECORD
  5
1149
330
1
100
AcDbSymbolTableRecord
100
AcDbBlockTableRecord
  2
*D17
340
0
  0
BLOCK_RECORD
  5
1157
330
1
100
AcDbSymbolTableRecord
100
AcDbBlockTableRecord
  2
*D18
340
0
  0
BLOCK_RECORD
  5
1165
330
1
100
AcDbSymbolTableRecord
100
AcDbBlockTableRecord
  2
*D19
340
0
  0
BLOCK_RECORD
  5
1173
330
1
100
AcDbSymbolTableRecord
100
AcDbBlockTableRecord
  2
*D20
340
0
  0
BLOCK_RECORD
  5
1181
330
1
100
AcDbSymbolTableRecord
100
AcDbBlockTableRecord
  2
*D21
340
0
  0
BLOCK_RECORD
  5
118F
330
1
100
AcDbSymbolTableRecord
100
AcDbBlockTableRecord
  2
*D22
340
0
  0
BLOCK_RECORD
  5
119D
330
1
100
AcDbSymbolTableRecord
100
AcDbBlockTableRecord
  2
*D23
340
0
  0
BLOCK_RECORD
  5
11AB
330
1
100
AcDbSymbolTableRecord
100
AcDbBlockTableRecord
  2
*D24
340
0
  0
BLOCK_RECORD
  5
11B9
330
1
100
AcDbSymbolTableRecord
100
AcDbBlockTableRecord
  2
*D25
340
0
  0
BLOCK_RECORD
  5
11C7
330
1
100
AcDbSymbolTableRecord
100
AcDbBlockTableRecord
  2
*D26
340
0
  0
ENDTAB
  0
ENDSEC
  0
SECTION
  2
BLOCKS
  0
BLOCK
  5
37
330
36
100
AcDbEntity
  8
0
100
AcDbBlockBegin
  2
*Model_Space
 70
     0
 10
0.0
 20
0.0
 30
0.0
  3
*Model_Space
  1

  0
ENDBLK
  5
38
330
36
100
AcDbEntity
  8
0
100
AcDbBlockEnd
  0
BLOCK
  5
33
330
32
100
AcDbEntity
 67
     1
  8
0
100
AcDbBlockBegin
  2
*Paper_Space
 70
     0
 10
0.0
 20
0.0
 30
0.0
  3
*Paper_Space
  1

  0
ENDBLK
  5
34
330
32
100
AcDbEntity
 67
     1
  8
0
100
AcDbBlockEnd
  0
BLOCK
  5
4BF
330
4BE
100
AcDbEntity
  8
0
100
AcDbBlockBegin
  2
_Open30
 70
     0
 10
0.0
 20
0.0
 30
0.0
  3
_Open30
  1

  0
LINE
  5
4C0
330
4BE
100
AcDbEntity
  8
0
  6
ByBlock
 62
     0
370
    -2
100
AcDbLine
 10
-1.0
 20
0.267949
 30
0.0
 11
0.0
 21
0.0
 31
0.0
  0
LINE
  5
4C1
330
4BE
100
AcDbEntity
  8
0
  6
ByBlock
 62
     0
370
    -2
100
AcDbLine
 10
0.0
 20
0.0
 30
0.0
 11
-1.0
 21
-0.267949
 31
0.0
  0
LINE
  5
4C2
330
4BE
100
AcDbEntity
  8
0
  6
ByBlock
 62
     0
370
    -2
100
AcDbLine
 10
0.0
 20
0.0
 30
0.0
 11
-1.0
 21
0.0
 31
0.0
  0
ENDBLK
  5
4C3
330
4BE
100
AcDbEntity
  8
0
100
AcDbBlockEnd
  0
BLOCK
  5
62A
330
620
100
AcDbEntity
  8
0
100
AcDbBlockBegin
  2
*D1
 70
     1
 10
0.0
 20
0.0
 30
0.0
  3
*D1
  1

  0
LINE
  5
1530
330
620
100
AcDbEntity
  8
0
 62
     0
370
    -2
100
AcDbLine
 10
-162.3948402745006
 20
18.86805540055278
 30
0.0
 11
-162.3948402745006
 21
9.321189400552789
 31
0.0
  0
LINE
  5
1531
330
620
100
AcDbEntity
  8
0
 62
     0
370
    -2
100
AcDbLine
 10
-108.3948402745006
 20
18.86805540055278
 30
0.0
 11
-108.3948402745006
 21
9.321189400552789
 31
0.0
  0
LINE
  5
1532
330
620
100
AcDbEntity
  8
0
 62
     0
370
    -2
100
AcDbLine
 10
-159.8948402745006
 20
10.57118940055279
 30
0.0
 11
-110.8948402745006
 21
10.57118940055279
 31
0.0
  0
INSERT
  5
1533
330
620
100
AcDbEntity
  8
0
 62
     0
370
    -2
100
AcDbBlockReference
  2
_Open30
 10
-162.3948402745006
 20
10.57118940055279
 30
0.0
 41
2.5
 42
2.5
 43
2.5
 50
180.0
  0
INSERT
  5
1534
330
620
100
AcDbEntity
  8
0
 62
     0
370
    -2
100
AcDbBlockReference
  2
_Open30
 10
-108.3948402745006
 20
10.57118940055279
 30
0.0
 41
2.5
 42
2.5
 43
2.5
  0
MTEXT
  5
1535
330
620
100
AcDbEntity
  8
0
 62
     4
100
AcDbMText
 10
-135.3948402745006
 20
12.69618940055279
 30
0.0
 40
3.0
 41
0.0
 71
     5
 72
     1
  1
108
 73
     1
 44
1.0
1001
ACAD
1000
MTEXTBEGIN
1070
    73
1070
     1
1070
    44
1040
1.0
1070
    74
1070
     0
1000
MTEXTEND
  0
POINT
  5
1536
330
620
100
AcDbEntity
  8
Defpoints
 62
     0
100
AcDbPoint
 10
-162.3948402745006
 20
19.11805540055278
 30
0.0
  0
POINT
  5
1537
330
620
100
AcDbEntity
  8
Defpoints
 62
     0
100
AcDbPoint
 10
-108.3948402745006
 20
19.11805540055278
 30
0.0
  0
POINT
  5
1538
330
620
100
AcDbEntity
  8
Defpoints
 62
     0
100
AcDbPoint
 10
-108.3948402745006
 20
10.57118940055279
 30
0.0
  0
ENDBLK
  5
62B
330
620
100
AcDbEntity
  8
0
100
AcDbBlockEnd
  0
BLOCK
  5
654
330
64A
100
AcDbEntity
  8
0
100
AcDbBlockBegin
  2
*D2
 70
     1
 10
0.0
 20
0.0
 30
0.0
  3
*D2
  1

  0
LINE
  5
1539
330
64A
100
AcDbEntity
  8
0
 62
     0
370
    -2
100
AcDbLine
 10
-162.6448402745006
 20
19.11805540055278
 30
0.0
 11
-178.9124832745006
 21
19.11805540055278
 31
0.0
  0
LINE
  5
153A
330
64A
100
AcDbEntity
  8
0
 62
     0
370
    -2
100
AcDbLine
 10
-135.6448402745006
 20
111.6180554005527
 30
0.0
 11
-178.9124832745005
 21
111.6180554005527
 31
0.0
  0
LINE
  5
153B
330
64A
100
AcDbEntity
  8
0
 62
     0
370
    -2
100
AcDbLine
 10
-177.6624832745006
 20
21.61805540055278
 30
0.0
 11
-177.6624832745006
 21
109.1180554005527
 31
0.0
  0
INSERT
  5
153C
330
64A
100
AcDbEntity
  8
0
 62
     0
370
    -2
100
AcDbBlockReference
  2
_Open30
 10
-177.6624832745006
 20
19.11805540055278
 30
0.0
 41
2.5
 42
2.5
 43
2.5
 50
270.0
  0
INSERT
  5
153D
330
64A
100
AcDbEntity
  8
0
 62
     0
370
    -2
100
AcDbBlockReference
  2
_Open30
 10
-177.6624832745006
 20
111.6180554005527
 30
0.0
 41
2.5
 42
2.5
 43
2.5
 50
90.0
  0
MTEXT
  5
153E
330
64A
100
AcDbEntity
  8
0
 62
     4
100
AcDbMText
 10
-179.7874832745006
 20
65.36805540055272
 30
0.0
 40
3.0
 41
0.0
 71
     5
 72
     1
  1
184
 11
0.0000000000000001
 21
1.0
 31
0.0
 73
     1
 44
1.0
1001
ACAD
1000
MTEXTBEGIN
1070
    73
1070
     1
1070
    44
1040
1.0
1070
    74
1070
     0
1000
MTEXTEND
  0
POINT
  5
153F
330
64A
100
AcDbEntity
  8
Defpoints
 62
     0
100
AcDbPoint
 10
-162.3948402745006
 20
19.11805540055278
 30
0.0
  0
POINT
  5
1540
330
64A
100
AcDbEntity
  8
Defpoints
 62
     0
100
AcDbPoint
 10
-135.3948402745006
 20
111.6180554005527
 30
0.0
  0
POINT
  5
1541
330
64A
100
AcDbEntity
  8
Defpoints
 62
     0
100
AcDbPoint
 10
-177.6624832745006
 20
111.6180554005527
 30
0.0
  0
ENDBLK
  5
655
330
64A
100
AcDbEntity
  8
0
100
AcDbBlockEnd
  0
BLOCK
  5
672
330
668
100
AcDbEntity
  8
0
100
AcDbBlockBegin
  2
*D3
 70
     1
 10
0.0
 20
0.0
 30
0.0
  3
*D3
  1

  0
LINE
  5
1542
330
668
100
AcDbEntity
  8
0
 62
     0
370
    -2
100
AcDbLine
 10
-167.8948402745007
 20
78.86805540055279
 30
0.0
 11
-167.8948402745007
 21
0.7336334005527903
 31
0.0
  0
LINE
  5
1543
330
668
100
AcDbEntity
  8
0
 62
     0
370
    -2
100
AcDbLine
 10
-102.8948402745006
 20
78.86805540055279
 30
0.0
 11
-102.8948402745006
 21
0.7336334005527903
 31
0.0
  0
LINE
  5
1544
330
668
100
AcDbEntity
  8
0
 62
     0
370
    -2
100
AcDbLine
 10
-165.3948402745007
 20
1.983633400552791
 30
0.0
 11
-105.3948402745006
 21
1.983633400552791
 31
0.0
  0
INSERT
  5
1545
330
668
100
AcDbEntity
  8
0
 62
     0
370
    -2
100
AcDbBlockReference
  2
_Open30
 10
-167.8948402745007
 20
1.983633400552791
 30
0.0
 41
2.5
 42
2.5
 43
2.5
 50
180.0
  0
INSERT
  5
1546
330
668
100
AcDbEntity
  8
0
 62
     0
370
    -2
100
AcDbBlockReference
  2
_Open30
 10
-102.8948402745006
 20
1.983633400552791
 30
0.0
 41
2.5
 42
2.5
 43
2.5
  0
MTEXT
  5
1547
330
668
100
AcDbEntity
  8
0
 62
     4
100
AcDbMText
 10
-135.3948402745006
 20
4.108633400552791
 30
0.0
 40
3.0
 41
0.0
 71
     5
 72
     1
  1
\U+03C6130
 73
     1
 44
1.0
1001
ACAD
1000
MTEXTBEGIN
1070
    73
1070
     1
1070
    44
1040
1.0
1070
    74
1070
     0
1000
MTEXTEND
  0
POINT
  5
1548
330
668
100
AcDbEntity
  8
Defpoints
 62
     0
100
AcDbPoint
 10
-167.8948402745007
 20
79.11805540055279
 30
0.0
  0
POINT
  5
1549
330
668
100
AcDbEntity
  8
Defpoints
 62
     0
100
AcDbPoint
 10
-102.8948402745006
 20
79.11805540055279
 30
0.0
  0
POINT
  5
154A
330
668
100
AcDbEntity
  8
Defpoints
 62
     0
100
AcDbPoint
 10
-102.8948402745006
 20
1.983633400552791
 30
0.0
  0
ENDBLK
  5
673
330
668
100
AcDbEntity
  8
0
100
AcDbBlockEnd
  0
BLOCK
  5
690
330
686
100
AcDbEntity
  8
0
100
AcDbBlockBegin
  2
*D4
 70
     1
 10
0.0
 20
0.0
 30
0.0
  3
*D4
  1

  0
LINE
  5
154B
330
686
100
AcDbEntity
  8
0
 62
     0
370
    -2
100
AcDbLine
 10
-28.34138562274335
 20
49.86805540055279
 30
0.0
 11
-28.34138562274336
 21
6.574872400552791
 31
0.0
  0
LINE
  5
154C
330
686
100
AcDbEntity
  8
0
 62
     0
370
    -2
100
AcDbLine
 10
119.1586143772567
 20
53.86805540055277
 30
0.0
 11
119.1586143772567
 21
6.574872400552791
 31
0.0
  0
LINE
  5
154D
330
686
100
AcDbEntity
  8
0
 62
     0
370
    -2
100
AcDbLine
 10
-25.84138562274336
 20
7.82487240055279
 30
0.0
 11
116.6586143772567
 21
7.82487240055279
 31
0.0
  0
INSERT
  5
154E
330
686
100
AcDbEntity
  8
0
 62
     0
370
    -2
100
AcDbBlockReference
  2
_Open30
 10
-28.34138562274336
 20
7.82487240055279
 30
0.0
 41
2.5
 42
2.5
 43
2.5
 50
180.0
  0
INSERT
  5
154F
330
686
100
AcDbEntity
  8
0
 62
     0
370
    -2
100
AcDbBlockReference
  2
_Open30
 10
119.1586143772567
 20
7.82487240055279
 30
0.0
 41
2.5
 42
2.5
 43
2.5
  0
MTEXT
  5
1550
330
686
100
AcDbEntity
  8
0
 62
     4
100
AcDbMText
 10
45.40861437725666
 20
9.94987240055279
 30
0.0
 40
3.0
 41
0.0
 71
     5
 72
     1
  1
283
 73
     1
 44
1.0
1001
ACAD
1000
MTEXTBEGIN
1070
    73
1070
     1
1070
    44
1040
1.0
1070
    74
1070
     0
1000
MTEXTEND
  0
POINT
  5
1551
330
686
100
AcDbEntity
  8
Defpoints
 62
     0
100
AcDbPoint
 10
-28.34138562274335
 20
50.1180554005528
 30
0.0
  0
POINT
  5
1552
330
686
100
AcDbEntity
  8
Defpoints
 62
     0
100
AcDbPoint
 10
119.1586143772567
 20
54.11805540055278
 30
0.0
  0
POINT
  5
1553
330
686
100
AcDbEntity
  8
Defpoints
 62
     0
100
AcDbPoint
 10
119.1586143772567
 20
7.82487240055279
 30
0.0
  0
ENDBLK
  5
691
330
686
100
AcDbEntity
  8
0
100
AcDbBlockEnd
  0
BLOCK
  5
6F9
330
6F0
100
AcDbEntity
  8
0
100
AcDbBlockBegin
  2
*D5
 70
     1
 10
0.0
 20
0.0
 30
0.0
  3
*D5
  1

  0
LINE
  5
151E
330
6F0
100
AcDbEntity
  8
0
 62
     0
370
    -2
100
AcDbLine
 10
101.5011481808398
 20
-59.90299871106903
 30
0.0
 11
111.9361501808398
 21
-59.90299871106903
 31
0.0
  0
LINE
  5
151F
330
6F0
100
AcDbEntity
  8
0
 62
     0
370
    -2
100
AcDbLine
 10
89.7202191808398
 20
-12.77098971106903
 30
0.0
 11
111.9361501808398
 21
-12.77098971106903
 31
0.0
  0
LINE
  5
1520
330
6F0
100
AcDbEntity
  8
0
 62
     0
370
    -2
100
AcDbLine
 10
110.6861501808398
 20
-57.40299871106903
 30
0.0
 11
110.6861501808398
 21
-15.27098971106903
 31
0.0
  0
INSERT
  5
1521
330
6F0
100
AcDbEntity
  8
0
 62
     0
370
    -2
100
AcDbBlockReference
  2
_Open30
 10
110.6861501808398
 20
-59.90299871106903
 30
0.0
 41
2.5
 42
2.5
 43
2.5
 50
270.0
  0
INSERT
  5
1522
330
6F0
100
AcDbEntity
  8
0
 62
     0
370
    -2
100
AcDbBlockReference
  2
_Open30
 10
110.6861501808398
 20
-12.77098971106903
 30
0.0
 41
2.5
 42
2.5
 43
2.5
 50
90.0
  0
MTEXT
  5
1523
330
6F0
100
AcDbEntity
  8
0
 62
     4
100
AcDbMText
 10
108.5611501808398
 20
-36.33699421106902
 30
0.0
 40
3.0
 41
0.0
 71
     5
 72
     1
  1
310
 11
0.0000000000000001
 21
1.0
 31
0.0
 73
     1
 44
1.0
1001
ACAD
1000
MTEXTBEGIN
1070
    73
1070
     1
1070
    44
1040
1.0
1070
    74
1070
     0
1000
MTEXTEND
  0
POINT
  5
1524
330
6F0
100
AcDbEntity
  8
Defpoints
 62
     0
100
AcDbPoint
 10
101.2511481808398
 20
-59.90299871106903
 30
0.0
  0
POINT
  5
1525
330
6F0
100
AcDbEntity
  8
Defpoints
 62
     0
100
AcDbPoint
 10
89.47021918083981
 20
-12.77098971106903
 30
0.0
  0
POINT
  5
1526
330
6F0
100
AcDbEntity
  8
Defpoints
 62
     0
100
AcDbPoint
 10
110.6861501808398
 20
-12.77098971106903
 30
0.0
  0
ENDBLK
  5
6FA
330
6F0
100
AcDbEntity
  8
0
100
AcDbBlockEnd
  0
BLOCK
  5
704
330
6FB
100
AcDbEntity
  8
0
100
AcDbBlockBegin
  2
*D6
 70
     1
 10
0.0
 20
0.0
 30
0.0
  3
*D6
  1

  0
LINE
  5
1527
330
6FB
100
AcDbEntity
  8
0
 62
     0
370
    -2
100
AcDbLine
 10
31.41581118083984
 20
-57.65299871106903
 30
0.0
 11
31.41581118083984
 21
-68.27985471106903
 31
0.0
  0
LINE
  5
1528
330
6FB
100
AcDbEntity
  8
0
 62
     0
370
    -2
100
AcDbLine
 10
103.7511481808398
 20
-57.65299871106903
 30
0.0
 11
103.7511481808398
 21
-68.27985471106903
 31
0.0
  0
LINE
  5
1529
330
6FB
100
AcDbEntity
  8
0
 62
     0
370
    -2
100
AcDbLine
 10
33.91581118083984
 20
-67.02985471106903
 30
0.0
 11
101.2511481808398
 21
-67.02985471106903
 31
0.0
  0
INSERT
  5
152A
330
6FB
100
AcDbEntity
  8
0
 62
     0
370
    -2
100
AcDbBlockReference
  2
_Open30
 10
31.41581118083984
 20
-67.02985471106903
 30
0.0
 41
2.5
 42
2.5
 43
2.5
 50
180.0
  0
INSERT
  5
152B
330
6FB
100
AcDbEntity
  8
0
 62
     0
370
    -2
100
AcDbBlockReference
  2
_Open30
 10
103.7511481808398
 20
-67.02985471106903
 30
0.0
 41
2.5
 42
2.5
 43
2.5
  0
MTEXT
  5
152C
330
6FB
100
AcDbEntity
  8
0
 62
     4
100
AcDbMText
 10
67.58347968083981
 20
-64.90485471106904
 30
0.0
 40
3.0
 41
0.0
 71
     5
 72
     1
  1
400
 73
     1
 44
1.0
1001
ACAD
1000
MTEXTBEGIN
1070
    73
1070
     1
1070
    44
1040
1.0
1070
    74
1070
     0
1000
MTEXTEND
  0
POINT
  5
152D
330
6FB
100
AcDbEntity
  8
Defpoints
 62
     0
100
AcDbPoint
 10
31.41581118083984
 20
-57.40299871106903
 30
0.0
  0
POINT
  5
152E
330
6FB
100
AcDbEntity
  8
Defpoints
 62
     0
100
AcDbPoint
 10
103.7511481808398
 20
-57.40299871106903
 30
0.0
  0
POINT
  5
152F
330
6FB
100
AcDbEntity
  8
Defpoints
 62
     0
100
AcDbPoint
 10
103.7511481808398
 20
-67.02985471106903
 30
0.0
  0
ENDBLK
  5
705
330
6FB
100
AcDbEntity
  8
0
100
AcDbBlockEnd
  0
BLOCK
  5
106E
330
106D
100
AcDbEntity
  8
0
100
AcDbBlockBegin
  2
*D7
 70
     1
 10
0.0
 20
0.0
 30
0.0
  3
*D7
  1

  0
LINE
  5
106F
330
106D
100
AcDbEntity
  8
0
 62
     0
370
    -2
100
AcDbLine
 10
-178.2339678749101
 20
-812.0370112307897
 30
0.0
 11
-178.2339678749101
 21
-814.9466426527986
 31
0.0
  0
LINE
  5
1070
330
106D
100
AcDbEntity
  8
0
 62
     0
370
    -2
100
AcDbLine
 10
-180.6911549290304
 20
-812.0370112307897
 30
0.0
 11
-180.6911549290304
 21
-814.9466426527986
 31
0.0
  0
LINE
  5
1071
330
106D
100
AcDbEntity
  8
0
 62
     0
370
    -2
100
AcDbLine
 10
-175.7339678749101
 20
-813.6966426527985
 30
0.0
 11
-173.2339678749101
 21
-813.6966426527985
 31
0.0
  0
LINE
  5
1072
330
106D
100
AcDbEntity
  8
0
 62
     0
370
    -2
100
AcDbLine
 10
-183.1911549290304
 20
-813.6966426527985
 30
0.0
 11
-195.9411549290304
 21
-813.6966426527985
 31
0.0
  0
LINE
  5
1073
330
106D
100
AcDbEntity
  8
0
 62
     0
370
    -2
100
AcDbLine
 10
-178.2339678749101
 20
-813.6966426527985
 30
0.0
 11
-180.6911549290304
 21
-813.6966426527985
 31
0.0
  0
INSERT
  5
1074
330
106D
100
AcDbEntity
  8
0
 62
     0
370
    -2
100
AcDbBlockReference
  2
_Open30
 10
-178.2339678749101
 20
-813.6966426527985
 30
0.0
 41
2.5
 42
2.5
 43
2.5
 50
180.0
  0
INSERT
  5
1075
330
106D
100
AcDbEntity
  8
0
 62
     0
370
    -2
100
AcDbBlockReference
  2
_Open30
 10
-180.6911549290304
 20
-813.6966426527985
 30
0.0
 41
2.5
 42
2.5
 43
2.5
  0
MTEXT
  5
1076
330
106D
100
AcDbEntity
  8
0
 62
     4
100
AcDbMText
 10
-190.8161549290304
 20
-811.5716426527985
 30
0.0
 40
3.0
 41
0.0
 71
     5
 72
     1
  1
2.46
 73
     1
 44
1.0
1001
ACAD
1000
MTEXTBEGIN
1070
    73
1070
     1
1070
    44
1040
1.0
1070
    74
1070
     0
1000
MTEXTEND
  0
POINT
  5
1077
330
106D
100
AcDbEntity
  8
Defpoints
 62
     0
100
AcDbPoint
 10
-178.2339678749101
 20
-811.7870112307898
 30
0.0
  0
POINT
  5
1078
330
106D
100
AcDbEntity
  8
Defpoints
 62
     0
100
AcDbPoint
 10
-180.6911549290304
 20
-811.7870112307898
 30
0.0
  0
POINT
  5
1079
330
106D
100
AcDbEntity
  8
Defpoints
 62
     0
100
AcDbPoint
 10
-180.6911549290304
 20
-813.6966426527985
 30
0.0
  0
ENDBLK
  5
107A
330
106D
100
AcDbEntity
  8
0
100
AcDbBlockEnd
  0
BLOCK
  5
107C
330
107B
100
AcDbEntity
  8
0
100
AcDbBlockBegin
  2
*D8
 70
     1
 10
0.0
 20
0.0
 30
0.0
  3
*D8
  1

  0
LINE
  5
107D
330
107B
100
AcDbEntity
  8
0
 62
     0
370
    -2
100
AcDbLine
 10
-176.5958429688369
 20
-817.4931008035521
 30
0.0
 11
-176.5958429688369
 21
-820.0389928730155
 31
0.0
  0
LINE
  5
107E
330
107B
100
AcDbEntity
  8
0
 62
     0
370
    -2
100
AcDbLine
 10
-179.6900787669798
 20
-817.4931008035521
 30
0.0
 11
-179.6900787669798
 21
-820.0389928730155
 31
0.0
  0
LINE
  5
107F
330
107B
100
AcDbEntity
  8
0
 62
     0
370
    -2
100
AcDbLine
 10
-174.0958429688369
 20
-818.7889928730154
 30
0.0
 11
-171.5958429688369
 21
-818.7889928730154
 31
0.0
  0
LINE
  5
1080
330
107B
100
AcDbEntity
  8
0
 62
     0
370
    -2
100
AcDbLine
 10
-182.1900787669798
 20
-818.7889928730154
 30
0.0
 11
-196.0234121003131
 21
-818.7889928730154
 31
0.0
  0
LINE
  5
1081
330
107B
100
AcDbEntity
  8
0
 62
     0
370
    -2
100
AcDbLine
 10
-176.5958429688369
 20
-818.7889928730154
 30
0.0
 11
-179.6900787669798
 21
-818.7889928730154
 31
0.0
  0
INSERT
  5
1082
330
107B
100
AcDbEntity
  8
0
 62
     0
370
    -2
100
AcDbBlockReference
  2
_Open30
 10
-176.5958429688369
 20
-818.7889928730154
 30
0.0
 41
2.5
 42
2.5
 43
2.5
 50
180.0
  0
INSERT
  5
1083
330
107B
100
AcDbEntity
  8
0
 62
     0
370
    -2
100
AcDbBlockReference
  2
_Open30
 10
-179.6900787669798
 20
-818.7889928730154
 30
0.0
 41
2.5
 42
2.5
 43
2.5
  0
MTEXT
  5
1084
330
107B
100
AcDbEntity
  8
0
 62
     4
100
AcDbMText
 10
-190.8150787669798
 20
-816.9139928730155
 30
0.0
 40
2.5
 41
0.0
 71
     5
 72
     1
  1
15.47
  7
高2.5
 73
     1
 44
1.0
1001
ACAD
1000
MTEXTBEGIN
1070
    73
1070
     1
1070
    44
1040
1.0
1070
    74
1070
     0
1000
MTEXTEND
  0
POINT
  5
1085
330
107B
100
AcDbEntity
  8
Defpoints
 62
     0
100
AcDbPoint
 10
-176.5958429688369
 20
-817.2431008035522
 30
0.0
  0
POINT
  5
1086
330
107B
100
AcDbEntity
  8
Defpoints
 62
     0
100
AcDbPoint
 10
-179.6900787669798
 20
-817.2431008035522
 30
0.0
  0
POINT
  5
1087
330
107B
100
AcDbEntity
  8
Defpoints
 62
     0
100
AcDbPoint
 10
-179.6900787669798
 20
-818.7889928730154
 30
0.0
  0
ENDBLK
  5
1088
330
107B
100
AcDbEntity
  8
0
100
AcDbBlockEnd
  0
BLOCK
  5
108A
330
1089
100
AcDbEntity
  8
0
100
AcDbBlockBegin
  2
*D9
 70
     1
 10
0.0
 20
0.0
 30
0.0
  3
*D9
  1

  0
LINE
  5
108B
330
1089
100
AcDbEntity
  8
0
 62
     0
370
    -2
100
AcDbLine
 10
-174.8667113607514
 20
-822.9491905193986
 30
0.0
 11
-174.8667113607514
 21
-825.2222781817659
 31
0.0
  0
LINE
  5
108C
330
1089
100
AcDbEntity
  8
0
 62
     0
370
    -2
100
AcDbLine
 10
-178.8710163139432
 20
-822.9491905193986
 30
0.0
 11
-178.8710163139432
 21
-825.2222781817659
 31
0.0
  0
LINE
  5
108D
330
1089
100
AcDbEntity
  8
0
 62
     0
370
    -2
100
AcDbLine
 10
-172.3667113607514
 20
-823.9722781817658
 30
0.0
 11
-169.8667113607514
 21
-823.9722781817658
 31
0.0
  0
LINE
  5
108E
330
1089
100
AcDbEntity
  8
0
 62
     0
370
    -2
100
AcDbLine
 10
-181.3710163139432
 20
-823.9722781817658
 30
0.0
 11
-193.1210163139432
 21
-823.9722781817658
 31
0.0
  0
LINE
  5
108F
330
1089
100
AcDbEntity
  8
0
 62
     0
370
    -2
100
AcDbLine
 10
-174.8667113607514
 20
-823.9722781817658
 30
0.0
 11
-178.8710163139432
 21
-823.9722781817658
 31
0.0
  0
INSERT
  5
1090
330
1089
100
AcDbEntity
  8
0
 62
     0
370
    -2
100
AcDbBlockReference
  2
_Open30
 10
-174.8667113607514
 20
-823.9722781817658
 30
0.0
 41
2.5
 42
2.5
 43
2.5
 50
180.0
  0
INSERT
  5
1091
330
1089
100
AcDbEntity
  8
0
 62
     0
370
    -2
100
AcDbBlockReference
  2
_Open30
 10
-178.8710163139432
 20
-823.9722781817658
 30
0.0
 41
2.5
 42
2.5
 43
2.5
  0
MTEXT
  5
1092
330
1089
100
AcDbEntity
  8
0
 62
     4
100
AcDbMText
 10
-188.4960163139432
 20
-821.7472781817658
 30
0.0
 40
3.2
 41
0.0
 71
     5
 72
     1
  1
8.01
  7
高3.2
 73
     1
 44
1.0
1001
ACAD
1000
MTEXTBEGIN
1070
    73
1070
     1
1070
    44
1040
1.0
1070
    74
1070
     0
1000
MTEXTEND
  0
POINT
  5
1093
330
1089
100
AcDbEntity
  8
Defpoints
 62
     0
100
AcDbPoint
 10
-174.8667113607514
 20
-822.6991905193985
 30
0.0
  0
POINT
  5
1094
330
1089
100
AcDbEntity
  8
Defpoints
 62
     0
100
AcDbPoint
 10
-178.8710163139432
 20
-822.6991905193985
 30
0.0
  0
POINT
  5
1095
330
1089
100
AcDbEntity
  8
Defpoints
 62
     0
100
AcDbPoint
 10
-178.8710163139432
 20
-823.9722781817658
 30
0.0
  0
ENDBLK
  5
1096
330
1089
100
AcDbEntity
  8
0
100
AcDbBlockEnd
  0
BLOCK
  5
1098
330
1097
100
AcDbEntity
  8
0
100
AcDbBlockBegin
  2
*D10
 70
     1
 10
0.0
 20
0.0
 30
0.0
  3
*D10
  1

  0
LINE
  5
1099
330
1097
100
AcDbEntity
  8
0
 62
     0
370
    -2
100
AcDbLine
 10
-174.9577180627636
 20
-828.2234104874302
 30
0.0
 11
-174.9577180627636
 21
-830.0418239948866
 31
0.0
  0
LINE
  5
109A
330
1097
100
AcDbEntity
  8
0
 62
     0
370
    -2
100
AcDbLine
 10
-179.6900787669798
 20
-828.2234104874302
 30
0.0
 11
-179.6900787669798
 21
-830.0418239948866
 31
0.0
  0
LINE
  5
109B
330
1097
100
AcDbEntity
  8
0
 62
     0
370
    -2
100
AcDbLine
 10
-172.4577180627636
 20
-828.7918239948865
 30
0.0
 11
-169.9577180627637
 21
-828.7918239948865
 31
0.0
  0
LINE
  5
109C
330
1097
100
AcDbEntity
  8
0
 62
     0
370
    -2
100
AcDbLine
 10
-182.1900787669798
 20
-828.7918239948865
 30
0.0
 11
-203.9400787669798
 21
-828.7918239948865
 31
0.0
  0
LINE
  5
109D
330
1097
100
AcDbEntity
  8
0
 62
     0
370
    -2
100
AcDbLine
 10
-174.9577180627636
 20
-828.7918239948865
 30
0.0
 11
-179.6900787669798
 21
-828.7918239948865
 31
0.0
  0
INSERT
  5
109E
330
1097
100
AcDbEntity
  8
0
 62
     0
370
    -2
100
AcDbBlockReference
  2
_Open30
 10
-174.9577180627636
 20
-828.7918239948865
 30
0.0
 41
2.5
 42
2.5
 43
2.5
 50
180.0
  0
INSERT
  5
109F
330
1097
100
AcDbEntity
  8
0
 62
     0
370
    -2
100
AcDbBlockReference
  2
_Open30
 10
-179.6900787669798
 20
-828.7918239948865
 30
0.0
 41
2.5
 42
2.5
 43
2.5
  0
MTEXT
  5
10A0
330
1097
100
AcDbEntity
  8
0
 62
     4
100
AcDbMText
 10
-194.3150787669798
 20
-825.9168239948866
 30
0.0
 40
4.5
 41
0.0
 71
     5
 72
     1
  1
47.32
  7
高4.5
 73
     1
 44
1.0
1001
ACAD
1000
MTEXTBEGIN
1070
    73
1070
     1
1070
    44
1040
1.0
1070
    74
1070
     0
1000
MTEXTEND
  0
POINT
  5
10A1
330
1097
100
AcDbEntity
  8
Defpoints
 62
     0
100
AcDbPoint
 10
-174.9577180627636
 20
-827.9734104874302
 30
0.0
  0
POINT
  5
10A2
330
1097
100
AcDbEntity
  8
Defpoints
 62
     0
100
AcDbPoint
 10
-179.6900787669798
 20
-827.9734104874302
 30
0.0
  0
POINT
  5
10A3
330
1097
100
AcDbEntity
  8
Defpoints
 62
     0
100
AcDbPoint
 10
-179.6900787669798
 20
-828.7918239948865
 30
0.0
  0
ENDBLK
  5
10A4
330
1097
100
AcDbEntity
  8
0
100
AcDbBlockEnd
  0
BLOCK
  5
10A6
330
10A5
100
AcDbEntity
  8
0
100
AcDbBlockBegin
  2
*D11
 70
     1
 10
0.0
 20
0.0
 30
0.0
  3
*D11
  1

  0
LINE
  5
10A7
330
10A5
100
AcDbEntity
  8
0
 62
     0
370
    -2
100
AcDbLine
 10
-153.4800817947562
 20
-812.0370112307897
 30
0.0
 11
-153.4800817947562
 21
-814.9466426527986
 31
0.0
  0
LINE
  5
10A8
330
10A5
100
AcDbEntity
  8
0
 62
     0
370
    -2
100
AcDbLine
 10
-155.9372688488765
 20
-812.0370112307897
 30
0.0
 11
-155.9372688488765
 21
-814.9466426527986
 31
0.0
  0
LINE
  5
10A9
330
10A5
100
AcDbEntity
  8
0
 62
     0
370
    -2
100
AcDbLine
 10
-150.9800817947562
 20
-813.6966426527985
 30
0.0
 11
-148.4800817947562
 21
-813.6966426527985
 31
0.0
  0
LINE
  5
10AA
330
10A5
100
AcDbEntity
  8
0
 62
     0
370
    -2
100
AcDbLine
 10
-158.4372688488765
 20
-813.6966426527985
 30
0.0
 11
-180.0372688488765
 21
-813.6966426527985
 31
0.0
  0
LINE
  5
10AB
330
10A5
100
AcDbEntity
  8
0
 62
     0
370
    -2
100
AcDbLine
 10
-153.4800817947562
 20
-813.6966426527985
 30
0.0
 11
-155.9372688488765
 21
-813.6966426527985
 31
0.0
  0
INSERT
  5
10AC
330
10A5
100
AcDbEntity
  8
0
 62
     0
370
    -2
100
AcDbBlockReference
  2
_Open30
 10
-153.4800817947562
 20
-813.6966426527985
 30
0.0
 41
2.5
 42
2.5
 43
2.5
 50
180.0
  0
INSERT
  5
10AD
330
10A5
100
AcDbEntity
  8
0
 62
     0
370
    -2
100
AcDbBlockReference
  2
_Open30
 10
-155.9372688488765
 20
-813.6966426527985
 30
0.0
 41
2.5
 42
2.5
 43
2.5
  0
MTEXT
  5
10AE
330
10A5
100
AcDbEntity
  8
0
 62
     4
100
AcDbMText
 10
-170.4872688488765
 20
-809.9216426527986
 30
0.0
 40
6.299999999999998
 41
0.0
 71
     5
 72
     1
  1
0.25
  7
高6.3
 73
     1
 44
1.0
1001
ACAD
1000
MTEXTBEGIN
1070
    73
1070
     1
1070
    44
1040
1.0
1070
    74
1070
     0
1000
MTEXTEND
  0
POINT
  5
10AF
330
10A5
100
AcDbEntity
  8
Defpoints
 62
     0
100
AcDbPoint
 10
-153.4800817947562
 20
-811.7870112307898
 30
0.0
  0
POINT
  5
10B0
330
10A5
100
AcDbEntity
  8
Defpoints
 62
     0
100
AcDbPoint
 10
-155.9372688488765
 20
-811.7870112307898
 30
0.0
  0
POINT
  5
10B1
330
10A5
100
AcDbEntity
  8
Defpoints
 62
     0
100
AcDbPoint
 10
-155.9372688488765
 20
-813.6966426527985
 30
0.0
  0
ENDBLK
  5
10B2
330
10A5
100
AcDbEntity
  8
0
100
AcDbBlockEnd
  0
BLOCK
  5
10B4
330
10B3
100
AcDbEntity
  8
0
100
AcDbBlockBegin
  2
*D12
 70
     1
 10
0.0
 20
0.0
 30
0.0
  3
*D12
  1

  0
LINE
  5
10B5
330
10B3
100
AcDbEntity
  8
0
 62
     0
370
    -2
100
AcDbLine
 10
-151.841956888683
 20
-817.4931008035521
 30
0.0
 11
-151.841956888683
 21
-820.0389928730155
 31
0.0
  0
LINE
  5
10B6
330
10B3
100
AcDbEntity
  8
0
 62
     0
370
    -2
100
AcDbLine
 10
-154.9361926868259
 20
-817.4931008035521
 30
0.0
 11
-154.9361926868259
 21
-820.0389928730155
 31
0.0
  0
LINE
  5
10B7
330
10B3
100
AcDbEntity
  8
0
 62
     0
370
    -2
100
AcDbLine
 10
-149.341956888683
 20
-818.7889928730154
 30
0.0
 11
-146.841956888683
 21
-818.7889928730154
 31
0.0
  0
LINE
  5
10B8
330
10B3
100
AcDbEntity
  8
0
 62
     0
370
    -2
100
AcDbLine
 10
-157.4361926868259
 20
-818.7889928730154
 30
0.0
 11
-169.4361926868259
 21
-818.7889928730154
 31
0.0
  0
LINE
  5
10B9
330
10B3
100
AcDbEntity
  8
0
 62
     0
370
    -2
100
AcDbLine
 10
-151.841956888683
 20
-818.7889928730154
 30
0.0
 11
-154.9361926868259
 21
-818.7889928730154
 31
0.0
  0
INSERT
  5
10BA
330
10B3
100
AcDbEntity
  8
0
 62
     0
370
    -2
100
AcDbBlockReference
  2
_Open30
 10
-151.841956888683
 20
-818.7889928730154
 30
0.0
 41
2.5
 42
2.5
 43
2.5
 50
180.0
  0
INSERT
  5
10BB
330
10B3
100
AcDbEntity
  8
0
 62
     0
370
    -2
100
AcDbBlockReference
  2
_Open30
 10
-154.9361926868259
 20
-818.7889928730154
 30
0.0
 41
2.5
 42
2.5
 43
2.5
  0
MTEXT
  5
10BC
330
10B3
100
AcDbEntity
  8
0
 62
     4
100
AcDbMText
 10
-164.8111926868259
 20
-816.6639928730154
 30
0.0
 40
3.0
 41
0.0
 71
     5
 72
     1
  1
1.55
 73
     1
 44
1.0
1001
ACAD
1000
MTEXTBEGIN
1070
    73
1070
     1
1070
    44
1040
1.0
1070
    74
1070
     0
1000
MTEXTEND
  0
POINT
  5
10BD
330
10B3
100
AcDbEntity
  8
Defpoints
 62
     0
100
AcDbPoint
 10
-151.841956888683
 20
-817.2431008035522
 30
0.0
  0
POINT
  5
10BE
330
10B3
100
AcDbEntity
  8
Defpoints
 62
     0
100
AcDbPoint
 10
-154.9361926868259
 20
-817.2431008035522
 30
0.0
  0
POINT
  5
10BF
330
10B3
100
AcDbEntity
  8
Defpoints
 62
     0
100
AcDbPoint
 10
-154.9361926868259
 20
-818.7889928730154
 30
0.0
  0
ENDBLK
  5
10C0
330
10B3
100
AcDbEntity
  8
0
100
AcDbBlockEnd
  0
BLOCK
  5
10C2
330
10C1
100
AcDbEntity
  8
0
100
AcDbBlockBegin
  2
*D13
 70
     1
 10
0.0
 20
0.0
 30
0.0
  3
*D13
  1

  0
LINE
  5
10C3
330
10C1
100
AcDbEntity
  8
0
 62
     0
370
    -2
100
AcDbLine
 10
-150.1128252805975
 20
-822.9491905193986
 30
0.0
 11
-150.1128252805975
 21
-825.2222781817659
 31
0.0
  0
LINE
  5
10C4
330
10C1
100
AcDbEntity
  8
0
 62
     0
370
    -2
100
AcDbLine
 10
-154.1171302337894
 20
-822.9491905193986
 30
0.0
 11
-154.1171302337894
 21
-825.2222781817659
 31
0.0
  0
LINE
  5
10C5
330
10C1
100
AcDbEntity
  8
0
 62
     0
370
    -2
100
AcDbLine
 10
-147.6128252805976
 20
-823.9722781817658
 30
0.0
 11
-145.1128252805975
 21
-823.9722781817658
 31
0.0
  0
LINE
  5
10C6
330
10C1
100
AcDbEntity
  8
0
 62
     0
370
    -2
100
AcDbLine
 10
-156.6171302337894
 20
-823.9722781817658
 30
0.0
 11
-164.9504635671227
 21
-823.9722781817658
 31
0.0
  0
LINE
  5
10C7
330
10C1
100
AcDbEntity
  8
0
 62
     0
370
    -2
100
AcDbLine
 10
-150.1128252805975
 20
-823.9722781817658
 30
0.0
 11
-154.1171302337894
 21
-823.9722781817658
 31
0.0
  0
INSERT
  5
10C8
330
10C1
100
AcDbEntity
  8
0
 62
     0
370
    -2
100
AcDbBlockReference
  2
_Open30
 10
-150.1128252805975
 20
-823.9722781817658
 30
0.0
 41
2.5
 42
2.5
 43
2.5
 50
180.0
  0
INSERT
  5
10C9
330
10C1
100
AcDbEntity
  8
0
 62
     0
370
    -2
100
AcDbBlockReference
  2
_Open30
 10
-154.1171302337894
 20
-823.9722781817658
 30
0.0
 41
2.5
 42
2.5
 43
2.5
  0
MTEXT
  5
10CA
330
10C1
100
AcDbEntity
  8
0
 62
     4
100
AcDbMText
 10
-162.4921302337894
 20
-822.3472781817658
 30
0.0
 40
2.0
 41
0.0
 71
     5
 72
     1
  1
0.8
  7
高2
 73
     1
 44
1.0
1001
ACAD
1000
MTEXTBEGIN
1070
    73
1070
     1
1070
    44
1040
1.0
1070
    74
1070
     0
1000
MTEXTEND
  0
POINT
  5
10CB
330
10C1
100
AcDbEntity
  8
Defpoints
 62
     0
100
AcDbPoint
 10
-150.1128252805975
 20
-822.6991905193985
 30
0.0
  0
POINT
  5
10CC
330
10C1
100
AcDbEntity
  8
Defpoints
 62
     0
100
AcDbPoint
 10
-154.1171302337894
 20
-822.6991905193985
 30
0.0
  0
POINT
  5
10CD
330
10C1
100
AcDbEntity
  8
Defpoints
 62
     0
100
AcDbPoint
 10
-154.1171302337894
 20
-823.9722781817658
 30
0.0
  0
ENDBLK
  5
10CE
330
10C1
100
AcDbEntity
  8
0
100
AcDbBlockEnd
  0
BLOCK
  5
10D0
330
10CF
100
AcDbEntity
  8
0
100
AcDbBlockBegin
  2
*D14
 70
     1
 10
0.0
 20
0.0
 30
0.0
  3
*D14
  1

  0
LINE
  5
10D1
330
10CF
100
AcDbEntity
  8
0
 62
     0
370
    -2
100
AcDbLine
 10
-150.2038319826098
 20
-828.2234104874302
 30
0.0
 11
-150.2038319826098
 21
-830.0418239948866
 31
0.0
  0
LINE
  5
10D2
330
10CF
100
AcDbEntity
  8
0
 62
     0
370
    -2
100
AcDbLine
 10
-154.9361926868259
 20
-828.2234104874302
 30
0.0
 11
-154.9361926868259
 21
-830.0418239948866
 31
0.0
  0
LINE
  5
10D3
330
10CF
100
AcDbEntity
  8
0
 62
     0
370
    -2
100
AcDbLine
 10
-147.7038319826099
 20
-828.7918239948865
 30
0.0
 11
-145.2038319826098
 21
-828.7918239948865
 31
0.0
  0
LINE
  5
10D4
330
10CF
100
AcDbEntity
  8
0
 62
     0
370
    -2
100
AcDbLine
 10
-157.4361926868259
 20
-828.7918239948865
 30
0.0
 11
-172.1861926868259
 21
-828.7918239948865
 31
0.0
  0
LINE
  5
10D5
330
10CF
100
AcDbEntity
  8
0
 62
     0
370
    -2
100
AcDbLine
 10
-150.2038319826098
 20
-828.7918239948865
 30
0.0
 11
-154.9361926868259
 21
-828.7918239948865
 31
0.0
  0
INSERT
  5
10D6
330
10CF
100
AcDbEntity
  8
0
 62
     0
370
    -2
100
AcDbBlockReference
  2
_Open30
 10
-150.2038319826098
 20
-828.7918239948865
 30
0.0
 41
2.5
 42
2.5
 43
2.5
 50
180.0
  0
INSERT
  5
10D7
330
10CF
100
AcDbEntity
  8
0
 62
     0
370
    -2
100
AcDbBlockReference
  2
_Open30
 10
-154.9361926868259
 20
-828.7918239948865
 30
0.0
 41
2.5
 42
2.5
 43
2.5
  0
MTEXT
  5
10D8
330
10CF
100
AcDbEntity
  8
0
 62
     4
100
AcDbMText
 10
-166.0611926868259
 20
-826.6668239948867
 30
0.0
 40
3.0
 41
0.0
 71
     5
 72
     1
  1
18.93
 73
     1
 44
1.0
1001
ACAD
1000
MTEXTBEGIN
1070
    73
1070
     1
1070
    44
1040
1.0
1070
    74
1070
     0
1000
MTEXTEND
  0
POINT
  5
10D9
330
10CF
100
AcDbEntity
  8
Defpoints
 62
     0
100
AcDbPoint
 10
-150.2038319826098
 20
-827.9734104874302
 30
0.0
  0
POINT
  5
10DA
330
10CF
100
AcDbEntity
  8
Defpoints
 62
     0
100
AcDbPoint
 10
-154.9361926868259
 20
-827.9734104874302
 30
0.0
  0
POINT
  5
10DB
330
10CF
100
AcDbEntity
  8
Defpoints
 62
     0
100
AcDbPoint
 10
-154.9361926868259
 20
-828.7918239948865
 30
0.0
  0
ENDBLK
  5
10DC
330
10CF
100
AcDbEntity
  8
0
100
AcDbBlockEnd
  0
BLOCK
  5
10DE
330
10DD
100
AcDbEntity
  8
0
100
AcDbBlockBegin
  2
*D15
 70
     1
 10
0.0
 20
0.0
 30
0.0
  3
*D15
  1

  0
LINE
  5
10DF
330
10DD
100
AcDbEntity
  8
0
 62
     0
370
    -2
100
AcDbLine
 10
-153.0082588337482
 20
-833.2792506940199
 30
0.0
 11
-153.0082588337482
 21
-835.5891717708955
 31
0.0
  0
LINE
  5
10E0
330
10DD
100
AcDbEntity
  8
0
 62
     0
370
    -2
100
AcDbLine
 10
-157.5969340358961
 20
-833.2792506940199
 30
0.0
 11
-157.5969340358961
 21
-835.5891717708955
 31
0.0
  0
LINE
  5
10E1
330
10DD
100
AcDbEntity
  8
0
 62
     0
370
    -2
100
AcDbLine
 10
-150.5082588337482
 20
-834.3391717708955
 30
0.0
 11
-148.0082588337482
 21
-834.3391717708955
 31
0.0
  0
LINE
  5
10E2
330
10DD
100
AcDbEntity
  8
0
 62
     0
370
    -2
100
AcDbLine
 10
-160.0969340358961
 20
-834.3391717708955
 30
0.0
 11
-174.8469340358961
 21
-834.3391717708955
 31
0.0
  0
LINE
  5
10E3
330
10DD
100
AcDbEntity
  8
0
 62
     0
370
    -2
100
AcDbLine
 10
-153.0082588337482
 20
-834.3391717708955
 30
0.0
 11
-157.5969340358961
 21
-834.3391717708955
 31
0.0
  0
INSERT
  5
10E4
330
10DD
100
AcDbEntity
  8
0
 62
     0
370
    -2
100
AcDbBlockReference
  2
_Open30
 10
-153.0082588337482
 20
-834.3391717708955
 30
0.0
 41
2.5
 42
2.5
 43
2.5
 50
180.0
  0
INSERT
  5
10E5
330
10DD
100
AcDbEntity
  8
0
 62
     0
370
    -2
100
AcDbBlockReference
  2
_Open30
 10
-157.5969340358961
 20
-834.3391717708955
 30
0.0
 41
2.5
 42
2.5
 43
2.5
  0
MTEXT
  5
10E6
330
10DD
100
AcDbEntity
  8
0
 62
     4
100
AcDbMText
 10
-168.7219340358961
 20
-832.2141717708955
 30
0.0
 40
3.0
 41
0.0
 71
     5
 72
     1
  1
13.77
 73
     1
 44
1.0
1001
ACAD
1000
MTEXTBEGIN
1070
    73
1070
     1
1070
    44
1040
1.0
1070
    74
1070
     0
1000
MTEXTEND
  0
POINT
  5
10E7
330
10DD
100
AcDbEntity
  8
Defpoints
 62
     0
100
AcDbPoint
 10
-153.0082588337482
 20
-833.0292506940201
 30
0.0
  0
POINT
  5
10E8
330
10DD
100
AcDbEntity
  8
Defpoints
 62
     0
100
AcDbPoint
 10
-157.5969340358961
 20
-833.0292506940201
 30
0.0
  0
POINT
  5
10E9
330
10DD
100
AcDbEntity
  8
Defpoints
 62
     0
100
AcDbPoint
 10
-157.5969340358961
 20
-834.3391717708955
 30
0.0
  0
ENDBLK
  5
10EA
330
10DD
100
AcDbEntity
  8
0
100
AcDbBlockEnd
  0
BLOCK
  5
10EC
330
10EB
100
AcDbEntity
  8
0
100
AcDbBlockBegin
  2
*D16
 70
     1
 10
0.0
 20
0.0
 30
0.0
  3
*D16
  1

  0
LINE
  5
10ED
330
10EB
100
AcDbEntity
  8
0
 62
     0
370
    -2
100
AcDbLine
 10
-160.1045416668985
 20
-802.3497593757458
 30
0.0
 11
-160.1045416668985
 21
-794.9532258978079
 31
0.0
  0
LINE
  5
10EE
330
10EB
100
AcDbEntity
  8
0
 62
     0
370
    -2
100
AcDbLine
 10
-170.0430160363884
 20
-802.3497593757458
 30
0.0
 11
-170.0430160363884
 21
-794.9532258978079
 31
0.0
  0
LINE
  5
10EF
330
10EB
100
AcDbEntity
  8
0
 62
     0
370
    -2
100
AcDbLine
 10
-162.6045416668985
 20
-796.2032258978077
 30
0.0
 11
-167.5430160363885
 21
-796.2032258978077
 31
0.0
  0
INSERT
  5
10F0
330
10EB
100
AcDbEntity
  8
0
 62
     0
370
    -2
100
AcDbBlockReference
  2
_Open30
 10
-160.1045416668985
 20
-796.2032258978077
 30
0.0
 41
2.5
 42
2.5
 43
2.5
  0
INSERT
  5
10F1
330
10EB
100
AcDbEntity
  8
0
 62
     0
370
    -2
100
AcDbBlockReference
  2
_Open30
 10
-170.0430160363884
 20
-796.2032258978077
 30
0.0
 41
2.5
 42
2.5
 43
2.5
 50
180.0
  0
MTEXT
  5
10F2
330
10EB
100
AcDbEntity
  8
0
 62
     4
100
AcDbMText
 10
-165.0737788516435
 20
-793.1282258978077
 30
0.0
 40
3.0
 41
0.0
 71
     5
 72
     1
  1
9.94\H0.7X;\S+0^ -0.02;
 73
     1
 44
1.0
1001
ACAD
1000
MTEXTBEGIN
1070
    73
1070
     1
1070
    44
1040
1.0
1070
    74
1070
     0
1000
MTEXTEND
  0
POINT
  5
10F3
330
10EB
100
AcDbEntity
  8
Defpoints
 62
     0
100
AcDbPoint
 10
-160.1045416668985
 20
-802.5997593757455
 30
0.0
  0
POINT
  5
10F4
330
10EB
100
AcDbEntity
  8
Defpoints
 62
     0
100
AcDbPoint
 10
-170.0430160363884
 20
-802.5997593757455
 30
0.0
  0
POINT
  5
10F5
330
10EB
100
AcDbEntity
  8
Defpoints
 62
     0
100
AcDbPoint
 10
-170.0430160363884
 20
-796.2032258978077
 30
0.0
  0
ENDBLK
  5
10F6
330
10EB
100
AcDbEntity
  8
0
100
AcDbBlockEnd
  0
BLOCK
  5
114A
330
1149
100
AcDbEntity
  8
0
100
AcDbBlockBegin
  2
*D17
 70
     1
 10
0.0
 20
0.0
 30
0.0
  3
*D17
  1

  0
LINE
  5
11D3
330
1149
100
AcDbEntity
  8
0
 62
     0
370
    -2
100
AcDbLine
 10
448.0184655055463
 20
78.16994408993503
 30
0.0
 11
448.0184655055463
 21
75.2603126679262
 31
0.0
  0
LINE
  5
11D4
330
1149
100
AcDbEntity
  8
0
 62
     0
370
    -2
100
AcDbLine
 10
445.5612784514261
 20
78.16994408993503
 30
0.0
 11
445.5612784514261
 21
75.2603126679262
 31
0.0
  0
LINE
  5
11D5
330
1149
100
AcDbEntity
  8
0
 62
     0
370
    -2
100
AcDbLine
 10
450.5184655055463
 20
76.5103126679262
 30
0.0
 11
453.0184655055463
 21
76.5103126679262
 31
0.0
  0
LINE
  5
11D6
330
1149
100
AcDbEntity
  8
0
 62
     0
370
    -2
100
AcDbLine
 10
443.0612784514257
 20
76.5103126679262
 30
0.0
 11
430.3112784514262
 21
76.5103126679262
 31
0.0
  0
LINE
  5
11D7
330
1149
100
AcDbEntity
  8
0
 62
     0
370
    -2
100
AcDbLine
 10
448.0184655055463
 20
76.5103126679262
 30
0.0
 11
445.5612784514261
 21
76.5103126679262
 31
0.0
  0
INSERT
  5
11D8
330
1149
100
AcDbEntity
  8
0
 62
     0
370
    -2
100
AcDbBlockReference
  2
_Open30
 10
448.0184655055463
 20
76.5103126679262
 30
0.0
 41
2.5
 42
2.5
 43
2.5
 50
180.0
  0
INSERT
  5
11D9
330
1149
100
AcDbEntity
  8
0
 62
     0
370
    -2
100
AcDbBlockReference
  2
_Open30
 10
445.5612784514261
 20
76.5103126679262
 30
0.0
 41
2.5
 42
2.5
 43
2.5
  0
MTEXT
  5
11DA
330
1149
100
AcDbEntity
  8
0
 62
     4
100
AcDbMText
 10
435.4362784514258
 20
78.6353126679262
 30
0.0
 40
3.0
 41
0.0
 71
     5
 72
     1
  1
2.46
 73
     1
 44
1.0
1001
ACAD
1000
MTEXTBEGIN
1070
    73
1070
     1
1070
    44
1040
1.0
1070
    74
1070
     0
1000
MTEXTEND
  0
POINT
  5
11DB
330
1149
100
AcDbEntity
  8
Defpoints
 62
     0
100
AcDbPoint
 10
448.0184655055463
 20
78.41994408993503
 30
0.0
  0
POINT
  5
11DC
330
1149
100
AcDbEntity
  8
Defpoints
 62
     0
100
AcDbPoint
 10
445.5612784514261
 20
78.41994408993503
 30
0.0
  0
POINT
  5
11DD
330
1149
100
AcDbEntity
  8
Defpoints
 62
     0
100
AcDbPoint
 10
445.5612784514261
 20
76.5103126679262
 30
0.0
  0
ENDBLK
  5
114B
330
1149
100
AcDbEntity
  8
0
100
AcDbBlockEnd
  0
BLOCK
  5
1158
330
1157
100
AcDbEntity
  8
0
100
AcDbBlockBegin
  2
*D18
 70
     1
 10
0.0
 20
0.0
 30
0.0
  3
*D18
  1

  0
LINE
  5
11DE
330
1157
100
AcDbEntity
  8
0
 62
     0
370
    -2
100
AcDbLine
 10
449.6565904116193
 20
72.71385451717264
 30
0.0
 11
449.6565904116193
 21
70.16796244770933
 31
0.0
  0
LINE
  5
11DF
330
1157
100
AcDbEntity
  8
0
 62
     0
370
    -2
100
AcDbLine
 10
446.5623546134766
 20
72.71385451717264
 30
0.0
 11
446.5623546134766
 21
70.16796244770933
 31
0.0
  0
LINE
  5
11E0
330
1157
100
AcDbEntity
  8
0
 62
     0
370
    -2
100
AcDbLine
 10
452.1565904116195
 20
71.41796244770933
 30
0.0
 11
454.6565904116195
 21
71.41796244770933
 31
0.0
  0
LINE
  5
11E1
330
1157
100
AcDbEntity
  8
0
 62
     0
370
    -2
100
AcDbLine
 10
444.0623546134766
 20
71.41796244770933
 30
0.0
 11
430.2290212801432
 21
71.41796244770933
 31
0.0
  0
LINE
  5
11E2
330
1157
100
AcDbEntity
  8
0
 62
     0
370
    -2
100
AcDbLine
 10
449.6565904116193
 20
71.41796244770933
 30
0.0
 11
446.5623546134766
 21
71.41796244770933
 31
0.0
  0
INSERT
  5
11E3
330
1157
100
AcDbEntity
  8
0
 62
     0
370
    -2
100
AcDbBlockReference
  2
_Open30
 10
449.6565904116193
 20
71.41796244770933
 30
0.0
 41
2.5
 42
2.5
 43
2.5
 50
180.0
  0
INSERT
  5
11E4
330
1157
100
AcDbEntity
  8
0
 62
     0
370
    -2
100
AcDbBlockReference
  2
_Open30
 10
446.5623546134766
 20
71.41796244770933
 30
0.0
 41
2.5
 42
2.5
 43
2.5
  0
MTEXT
  5
11E5
330
1157
100
AcDbEntity
  8
0
 62
     4
100
AcDbMText
 10
435.4373546134766
 20
73.29296244770933
 30
0.0
 40
2.5
 41
0.0
 71
     5
 72
     1
  1
15.47
  7
高2.5
 73
     1
 44
1.0
1001
ACAD
1000
MTEXTBEGIN
1070
    73
1070
     1
1070
    44
1040
1.0
1070
    74
1070
     0
1000
MTEXTEND
  0
POINT
  5
11E6
330
1157
100
AcDbEntity
  8
Defpoints
 62
     0
100
AcDbPoint
 10
449.6565904116193
 20
72.96385451717267
 30
0.0
  0
POINT
  5
11E7
330
1157
100
AcDbEntity
  8
Defpoints
 62
     0
100
AcDbPoint
 10
446.5623546134766
 20
72.96385451717267
 30
0.0
  0
POINT
  5
11E8
330
1157
100
AcDbEntity
  8
Defpoints
 62
     0
100
AcDbPoint
 10
446.5623546134766
 20
71.41796244770933
 30
0.0
  0
ENDBLK
  5
1159
330
1157
100
AcDbEntity
  8
0
100
AcDbBlockEnd
  0
BLOCK
  5
1166
330
1165
100
AcDbEntity
  8
0
100
AcDbBlockBegin
  2
*D19
 70
     1
 10
0.0
 20
0.0
 30
0.0
  3
*D19
  1

  0
LINE
  5
11E9
330
1165
100
AcDbEntity
  8
0
 62
     0
370
    -2
100
AcDbLine
 10
451.3857220197046
 20
67.25776480132617
 30
0.0
 11
451.3857220197046
 21
64.98467713895888
 31
0.0
  0
LINE
  5
11EA
330
1165
100
AcDbEntity
  8
0
 62
     0
370
    -2
100
AcDbLine
 10
447.3814170665131
 20
67.25776480132617
 30
0.0
 11
447.3814170665131
 21
64.98467713895888
 31
0.0
  0
LINE
  5
11EB
330
1165
100
AcDbEntity
  8
0
 62
     0
370
    -2
100
AcDbLine
 10
453.885722019705
 20
66.23467713895888
 30
0.0
 11
456.3857220197048
 21
66.23467713895888
 31
0.0
  0
LINE
  5
11EC
330
1165
100
AcDbEntity
  8
0
 62
     0
370
    -2
100
AcDbLine
 10
444.8814170665131
 20
66.23467713895888
 30
0.0
 11
433.1314170665131
 21
66.23467713895888
 31
0.0
  0
LINE
  5
11ED
330
1165
100
AcDbEntity
  8
0
 62
     0
370
    -2
100
AcDbLine
 10
451.3857220197046
 20
66.23467713895888
 30
0.0
 11
447.3814170665131
 21
66.23467713895888
 31
0.0
  0
INSERT
  5
11EE
330
1165
100
AcDbEntity
  8
0
 62
     0
370
    -2
100
AcDbBlockReference
  2
_Open30
 10
451.3857220197046
 20
66.23467713895888
 30
0.0
 41
2.5
 42
2.5
 43
2.5
 50
180.0
  0
INSERT
  5
11EF
330
1165
100
AcDbEntity
  8
0
 62
     0
370
    -2
100
AcDbBlockReference
  2
_Open30
 10
447.3814170665131
 20
66.23467713895888
 30
0.0
 41
2.5
 42
2.5
 43
2.5
  0
MTEXT
  5
11F0
330
1165
100
AcDbEntity
  8
0
 62
     4
100
AcDbMText
 10
437.7564170665131
 20
68.45967713895888
 30
0.0
 40
3.2
 41
0.0
 71
     5
 72
     1
  1
8.01
  7
高3.2
 73
     1
 44
1.0
1001
ACAD
1000
MTEXTBEGIN
1070
    73
1070
     1
1070
    44
1040
1.0
1070
    74
1070
     0
1000
MTEXTEND
  0
POINT
  5
11F1
330
1165
100
AcDbEntity
  8
Defpoints
 62
     0
100
AcDbPoint
 10
451.3857220197046
 20
67.50776480132618
 30
0.0
  0
POINT
  5
11F2
330
1165
100
AcDbEntity
  8
Defpoints
 62
     0
100
AcDbPoint
 10
447.3814170665131
 20
67.50776480132618
 30
0.0
  0
POINT
  5
11F3
330
1165
100
AcDbEntity
  8
Defpoints
 62
     0
100
AcDbPoint
 10
447.3814170665131
 20
66.23467713895888
 30
0.0
  0
ENDBLK
  5
1167
330
1165
100
AcDbEntity
  8
0
100
AcDbBlockEnd
  0
BLOCK
  5
1174
330
1173
100
AcDbEntity
  8
0
100
AcDbBlockBegin
  2
*D20
 70
     1
 10
0.0
 20
0.0
 30
0.0
  3
*D20
  1

  0
LINE
  5
11F4
330
1173
100
AcDbEntity
  8
0
 62
     0
370
    -2
100
AcDbLine
 10
451.2947153176928
 20
61.98354483329456
 30
0.0
 11
451.2947153176928
 21
60.16513132583813
 31
0.0
  0
LINE
  5
11F5
330
1173
100
AcDbEntity
  8
0
 62
     0
370
    -2
100
AcDbLine
 10
446.5623546134766
 20
61.98354483329456
 30
0.0
 11
446.5623546134766
 21
60.16513132583813
 31
0.0
  0
LINE
  5
11F6
330
1173
100
AcDbEntity
  8
0
 62
     0
370
    -2
100
AcDbLine
 10
453.7947153176927
 20
61.41513132583813
 30
0.0
 11
456.2947153176928
 21
61.41513132583813
 31
0.0
  0
LINE
  5
11F7
330
1173
100
AcDbEntity
  8
0
 62
     0
370
    -2
100
AcDbLine
 10
444.0623546134766
 20
61.41513132583813
 30
0.0
 11
422.3123546134766
 21
61.41513132583813
 31
0.0
  0
LINE
  5
11F8
330
1173
100
AcDbEntity
  8
0
 62
     0
370
    -2
100
AcDbLine
 10
451.2947153176928
 20
61.41513132583813
 30
0.0
 11
446.5623546134766
 21
61.41513132583813
 31
0.0
  0
INSERT
  5
11F9
330
1173
100
AcDbEntity
  8
0
 62
     0
370
    -2
100
AcDbBlockReference
  2
_Open30
 10
451.2947153176928
 20
61.41513132583813
 30
0.0
 41
2.5
 42
2.5
 43
2.5
 50
180.0
  0
INSERT
  5
11FA
330
1173
100
AcDbEntity
  8
0
 62
     0
370
    -2
100
AcDbBlockReference
  2
_Open30
 10
446.5623546134766
 20
61.41513132583813
 30
0.0
 41
2.5
 42
2.5
 43
2.5
  0
MTEXT
  5
11FB
330
1173
100
AcDbEntity
  8
0
 62
     4
100
AcDbMText
 10
431.9373546134766
 20
64.29013132583816
 30
0.0
 40
4.5
 41
0.0
 71
     5
 72
     1
  1
47.32
  7
高4.5
 73
     1
 44
1.0
1001
ACAD
1000
MTEXTBEGIN
1070
    73
1070
     1
1070
    44
1040
1.0
1070
    74
1070
     0
1000
MTEXTEND
  0
POINT
  5
11FC
330
1173
100
AcDbEntity
  8
Defpoints
 62
     0
100
AcDbPoint
 10
451.2947153176928
 20
62.23354483329456
 30
0.0
  0
POINT
  5
11FD
330
1173
100
AcDbEntity
  8
Defpoints
 62
     0
100
AcDbPoint
 10
446.5623546134766
 20
62.23354483329456
 30
0.0
  0
POINT
  5
11FE
330
1173
100
AcDbEntity
  8
Defpoints
 62
     0
100
AcDbPoint
 10
446.5623546134766
 20
61.41513132583813
 30
0.0
  0
ENDBLK
  5
1175
330
1173
100
AcDbEntity
  8
0
100
AcDbBlockEnd
  0
BLOCK
  5
1182
330
1181
100
AcDbEntity
  8
0
100
AcDbBlockBegin
  2
*D21
 70
     1
 10
0.0
 20
0.0
 30
0.0
  3
*D21
  1

  0
LINE
  5
11FF
330
1181
100
AcDbEntity
  8
0
 62
     0
370
    -2
100
AcDbLine
 10
472.7723515857001
 20
78.16994408993503
 30
0.0
 11
472.7723515857001
 21
75.2603126679262
 31
0.0
  0
LINE
  5
1200
330
1181
100
AcDbEntity
  8
0
 62
     0
370
    -2
100
AcDbLine
 10
470.3151645315799
 20
78.16994408993503
 30
0.0
 11
470.3151645315799
 21
75.2603126679262
 31
0.0
  0
LINE
  5
1201
330
1181
100
AcDbEntity
  8
0
 62
     0
370
    -2
100
AcDbLine
 10
475.2723515857002
 20
76.5103126679262
 30
0.0
 11
477.7723515857003
 21
76.5103126679262
 31
0.0
  0
LINE
  5
1202
330
1181
100
AcDbEntity
  8
0
 62
     0
370
    -2
100
AcDbLine
 10
467.8151645315799
 20
76.5103126679262
 30
0.0
 11
446.2151645315798
 21
76.5103126679262
 31
0.0
  0
LINE
  5
1203
330
1181
100
AcDbEntity
  8
0
 62
     0
370
    -2
100
AcDbLine
 10
472.7723515857001
 20
76.5103126679262
 30
0.0
 11
470.3151645315799
 21
76.5103126679262
 31
0.0
  0
INSERT
  5
1204
330
1181
100
AcDbEntity
  8
0
 62
     0
370
    -2
100
AcDbBlockReference
  2
_Open30
 10
472.7723515857001
 20
76.5103126679262
 30
0.0
 41
2.5
 42
2.5
 43
2.5
 50
180.0
  0
INSERT
  5
1205
330
1181
100
AcDbEntity
  8
0
 62
     0
370
    -2
100
AcDbBlockReference
  2
_Open30
 10
470.3151645315799
 20
76.5103126679262
 30
0.0
 41
2.5
 42
2.5
 43
2.5
  0
MTEXT
  5
1206
330
1181
100
AcDbEntity
  8
0
 62
     4
100
AcDbMText
 10
455.7651645315798
 20
80.2853126679262
 30
0.0
 40
6.299999999999998
 41
0.0
 71
     5
 72
     1
  1
0.25
  7
高6.3
 73
     1
 44
1.0
1001
ACAD
1000
MTEXTBEGIN
1070
    73
1070
     1
1070
    44
1040
1.0
1070
    74
1070
     0
1000
MTEXTEND
  0
POINT
  5
1207
330
1181
100
AcDbEntity
  8
Defpoints
 62
     0
100
AcDbPoint
 10
472.7723515857001
 20
78.41994408993503
 30
0.0
  0
POINT
  5
1208
330
1181
100
AcDbEntity
  8
Defpoints
 62
     0
100
AcDbPoint
 10
470.3151645315799
 20
78.41994408993503
 30
0.0
  0
POINT
  5
1209
330
1181
100
AcDbEntity
  8
Defpoints
 62
     0
100
AcDbPoint
 10
470.3151645315799
 20
76.5103126679262
 30
0.0
  0
ENDBLK
  5
1183
330
1181
100
AcDbEntity
  8
0
100
AcDbBlockEnd
  0
BLOCK
  5
1190
330
118F
100
AcDbEntity
  8
0
100
AcDbBlockBegin
  2
*D22
 70
     1
 10
0.0
 20
0.0
 30
0.0
  3
*D22
  1

  0
LINE
  5
120A
330
118F
100
AcDbEntity
  8
0
 62
     0
370
    -2
100
AcDbLine
 10
474.4104764917732
 20
72.71385451717264
 30
0.0
 11
474.4104764917732
 21
70.16796244770933
 31
0.0
  0
LINE
  5
120B
330
118F
100
AcDbEntity
  8
0
 62
     0
370
    -2
100
AcDbLine
 10
471.3162406936302
 20
72.71385451717264
 30
0.0
 11
471.3162406936302
 21
70.16796244770933
 31
0.0
  0
LINE
  5
120C
330
118F
100
AcDbEntity
  8
0
 62
     0
370
    -2
100
AcDbLine
 10
476.9104764917734
 20
71.41796244770933
 30
0.0
 11
479.4104764917732
 21
71.41796244770933
 31
0.0
  0
LINE
  5
120D
330
118F
100
AcDbEntity
  8
0
 62
     0
370
    -2
100
AcDbLine
 10
468.8162406936305
 20
71.41796244770933
 30
0.0
 11
456.8162406936305
 21
71.41796244770933
 31
0.0
  0
LINE
  5
120E
330
118F
100
AcDbEntity
  8
0
 62
     0
370
    -2
100
AcDbLine
 10
474.4104764917732
 20
71.41796244770933
 30
0.0
 11
471.3162406936302
 21
71.41796244770933
 31
0.0
  0
INSERT
  5
120F
330
118F
100
AcDbEntity
  8
0
 62
     0
370
    -2
100
AcDbBlockReference
  2
_Open30
 10
474.4104764917732
 20
71.41796244770933
 30
0.0
 41
2.5
 42
2.5
 43
2.5
 50
180.0
  0
INSERT
  5
1210
330
118F
100
AcDbEntity
  8
0
 62
     0
370
    -2
100
AcDbBlockReference
  2
_Open30
 10
471.3162406936302
 20
71.41796244770933
 30
0.0
 41
2.5
 42
2.5
 43
2.5
  0
MTEXT
  5
1211
330
118F
100
AcDbEntity
  8
0
 62
     4
100
AcDbMText
 10
461.4412406936303
 20
73.54296244770933
 30
0.0
 40
3.0
 41
0.0
 71
     5
 72
     1
  1
1.55
 73
     1
 44
1.0
1001
ACAD
1000
MTEXTBEGIN
1070
    73
1070
     1
1070
    44
1040
1.0
1070
    74
1070
     0
1000
MTEXTEND
  0
POINT
  5
1212
330
118F
100
AcDbEntity
  8
Defpoints
 62
     0
100
AcDbPoint
 10
474.4104764917732
 20
72.96385451717267
 30
0.0
  0
POINT
  5
1213
330
118F
100
AcDbEntity
  8
Defpoints
 62
     0
100
AcDbPoint
 10
471.3162406936302
 20
72.96385451717267
 30
0.0
  0
POINT
  5
1214
330
118F
100
AcDbEntity
  8
Defpoints
 62
     0
100
AcDbPoint
 10
471.3162406936302
 20
71.41796244770933
 30
0.0
  0
ENDBLK
  5
1191
330
118F
100
AcDbEntity
  8
0
100
AcDbBlockEnd
  0
BLOCK
  5
119E
330
119D
100
AcDbEntity
  8
0
100
AcDbBlockBegin
  2
*D23
 70
     1
 10
0.0
 20
0.0
 30
0.0
  3
*D23
  1

  0
LINE
  5
1215
330
119D
100
AcDbEntity
  8
0
 62
     0
370
    -2
100
AcDbLine
 10
476.1396080998586
 20
67.25776480132617
 30
0.0
 11
476.1396080998586
 21
64.98467713895888
 31
0.0
  0
LINE
  5
1216
330
119D
100
AcDbEntity
  8
0
 62
     0
370
    -2
100
AcDbLine
 10
472.1353031466671
 20
67.25776480132617
 30
0.0
 11
472.1353031466671
 21
64.98467713895888
 31
0.0
  0
LINE
  5
1217
330
119D
100
AcDbEntity
  8
0
 62
     0
370
    -2
100
AcDbLine
 10
478.6396080998588
 20
66.23467713895888
 30
0.0
 11
481.1396080998587
 21
66.23467713895888
 31
0.0
  0
LINE
  5
1218
330
119D
100
AcDbEntity
  8
0
 62
     0
370
    -2
100
AcDbLine
 10
469.6353031466671
 20
66.23467713895888
 30
0.0
 11
461.3019698133335
 21
66.23467713895888
 31
0.0
  0
LINE
  5
1219
330
119D
100
AcDbEntity
  8
0
 62
     0
370
    -2
100
AcDbLine
 10
476.1396080998586
 20
66.23467713895888
 30
0.0
 11
472.1353031466671
 21
66.23467713895888
 31
0.0
  0
INSERT
  5
121A
330
119D
100
AcDbEntity
  8
0
 62
     0
370
    -2
100
AcDbBlockReference
  2
_Open30
 10
476.1396080998586
 20
66.23467713895888
 30
0.0
 41
2.5
 42
2.5
 43
2.5
 50
180.0
  0
INSERT
  5
121B
330
119D
100
AcDbEntity
  8
0
 62
     0
370
    -2
100
AcDbBlockReference
  2
_Open30
 10
472.1353031466671
 20
66.23467713895888
 30
0.0
 41
2.5
 42
2.5
 43
2.5
  0
MTEXT
  5
121C
330
119D
100
AcDbEntity
  8
0
 62
     4
100
AcDbMText
 10
463.7603031466671
 20
67.85967713895889
 30
0.0
 40
2.0
 41
0.0
 71
     5
 72
     1
  1
0.8
  7
高2
 73
     1
 44
1.0
1001
ACAD
1000
MTEXTBEGIN
1070
    73
1070
     1
1070
    44
1040
1.0
1070
    74
1070
     0
1000
MTEXTEND
  0
POINT
  5
121D
330
119D
100
AcDbEntity
  8
Defpoints
 62
     0
100
AcDbPoint
 10
476.1396080998586
 20
67.50776480132618
 30
0.0
  0
POINT
  5
121E
330
119D
100
AcDbEntity
  8
Defpoints
 62
     0
100
AcDbPoint
 10
472.1353031466671
 20
67.50776480132618
 30
0.0
  0
POINT
  5
121F
330
119D
100
AcDbEntity
  8
Defpoints
 62
     0
100
AcDbPoint
 10
472.1353031466671
 20
66.23467713895888
 30
0.0
  0
ENDBLK
  5
119F
330
119D
100
AcDbEntity
  8
0
100
AcDbBlockEnd
  0
BLOCK
  5
11AC
330
11AB
100
AcDbEntity
  8
0
100
AcDbBlockBegin
  2
*D24
 70
     1
 10
0.0
 20
0.0
 30
0.0
  3
*D24
  1

  0
LINE
  5
1220
330
11AB
100
AcDbEntity
  8
0
 62
     0
370
    -2
100
AcDbLine
 10
476.0486013978465
 20
61.98354483329456
 30
0.0
 11
476.0486013978465
 21
60.16513132583813
 31
0.0
  0
LINE
  5
1221
330
11AB
100
AcDbEntity
  8
0
 62
     0
370
    -2
100
AcDbLine
 10
471.3162406936302
 20
61.98354483329456
 30
0.0
 11
471.3162406936302
 21
60.16513132583813
 31
0.0
  0
LINE
  5
1222
330
11AB
100
AcDbEntity
  8
0
 62
     0
370
    -2
100
AcDbLine
 10
478.5486013978465
 20
61.41513132583813
 30
0.0
 11
481.0486013978465
 21
61.41513132583813
 31
0.0
  0
LINE
  5
1223
330
11AB
100
AcDbEntity
  8
0
 62
     0
370
    -2
100
AcDbLine
 10
468.8162406936305
 20
61.41513132583813
 30
0.0
 11
454.0662406936305
 21
61.41513132583813
 31
0.0
  0
LINE
  5
1224
330
11AB
100
AcDbEntity
  8
0
 62
     0
370
    -2
100
AcDbLine
 10
476.0486013978465
 20
61.41513132583813
 30
0.0
 11
471.3162406936302
 21
61.41513132583813
 31
0.0
  0
INSERT
  5
1225
330
11AB
100
AcDbEntity
  8
0
 62
     0
370
    -2
100
AcDbBlockReference
  2
_Open30
 10
476.0486013978465
 20
61.41513132583813
 30
0.0
 41
2.5
 42
2.5
 43
2.5
 50
180.0
  0
INSERT
  5
1226
330
11AB
100
AcDbEntity
  8
0
 62
     0
370
    -2
100
AcDbBlockReference
  2
_Open30
 10
471.3162406936302
 20
61.41513132583813
 30
0.0
 41
2.5
 42
2.5
 43
2.5
  0
MTEXT
  5
1227
330
11AB
100
AcDbEntity
  8
0
 62
     4
100
AcDbMText
 10
460.1912406936305
 20
63.54013132583816
 30
0.0
 40
3.0
 41
0.0
 71
     5
 72
     1
  1
18.93
 73
     1
 44
1.0
1001
ACAD
1000
MTEXTBEGIN
1070
    73
1070
     1
1070
    44
1040
1.0
1070
    74
1070
     0
1000
MTEXTEND
  0
POINT
  5
1228
330
11AB
100
AcDbEntity
  8
Defpoints
 62
     0
100
AcDbPoint
 10
476.0486013978465
 20
62.23354483329456
 30
0.0
  0
POINT
  5
1229
330
11AB
100
AcDbEntity
  8
Defpoints
 62
     0
100
AcDbPoint
 10
471.3162406936302
 20
62.23354483329456
 30
0.0
  0
POINT
  5
122A
330
11AB
100
AcDbEntity
  8
Defpoints
 62
     0
100
AcDbPoint
 10
471.3162406936302
 20
61.41513132583813
 30
0.0
  0
ENDBLK
  5
11AD
330
11AB
100
AcDbEntity
  8
0
100
AcDbBlockEnd
  0
BLOCK
  5
11BA
330
11B9
100
AcDbEntity
  8
0
100
AcDbBlockBegin
  2
*D25
 70
     1
 10
0.0
 20
0.0
 30
0.0
  3
*D25
  1

  0
LINE
  5
122B
330
11B9
100
AcDbEntity
  8
0
 62
     0
370
    -2
100
AcDbLine
 10
473.2441745467083
 20
56.92770462670478
 30
0.0
 11
473.2441745467083
 21
54.61778354982925
 31
0.0
  0
LINE
  5
122C
330
11B9
100
AcDbEntity
  8
0
 62
     0
370
    -2
100
AcDbLine
 10
468.6554993445604
 20
56.92770462670478
 30
0.0
 11
468.6554993445604
 21
54.61778354982925
 31
0.0
  0
LINE
  5
122D
330
11B9
100
AcDbEntity
  8
0
 62
     0
370
    -2
100
AcDbLine
 10
475.7441745467082
 20
55.86778354982925
 30
0.0
 11
478.2441745467083
 21
55.86778354982925
 31
0.0
  0
LINE
  5
122E
330
11B9
100
AcDbEntity
  8
0
 62
     0
370
    -2
100
AcDbLine
 10
466.1554993445603
 20
55.86778354982925
 30
0.0
 11
451.4054993445603
 21
55.86778354982925
 31
0.0
  0
LINE
  5
122F
330
11B9
100
AcDbEntity
  8
0
 62
     0
370
    -2
100
AcDbLine
 10
473.2441745467083
 20
55.86778354982925
 30
0.0
 11
468.6554993445604
 21
55.86778354982925
 31
0.0
  0
INSERT
  5
1230
330
11B9
100
AcDbEntity
  8
0
 62
     0
370
    -2
100
AcDbBlockReference
  2
_Open30
 10
473.2441745467083
 20
55.86778354982925
 30
0.0
 41
2.5
 42
2.5
 43
2.5
 50
180.0
  0
INSERT
  5
1231
330
11B9
100
AcDbEntity
  8
0
 62
     0
370
    -2
100
AcDbBlockReference
  2
_Open30
 10
468.6554993445604
 20
55.86778354982925
 30
0.0
 41
2.5
 42
2.5
 43
2.5
  0
MTEXT
  5
1232
330
11B9
100
AcDbEntity
  8
0
 62
     4
100
AcDbMText
 10
457.5304993445604
 20
57.99278354982925
 30
0.0
 40
3.0
 41
0.0
 71
     5
 72
     1
  1
13.77
 73
     1
 44
1.0
1001
ACAD
1000
MTEXTBEGIN
1070
    73
1070
     1
1070
    44
1040
1.0
1070
    74
1070
     0
1000
MTEXTEND
  0
POINT
  5
1233
330
11B9
100
AcDbEntity
  8
Defpoints
 62
     0
100
AcDbPoint
 10
473.2441745467083
 20
57.17770462670478
 30
0.0
  0
POINT
  5
1234
330
11B9
100
AcDbEntity
  8
Defpoints
 62
     0
100
AcDbPoint
 10
468.6554993445604
 20
57.17770462670478
 30
0.0
  0
POINT
  5
1235
330
11B9
100
AcDbEntity
  8
Defpoints
 62
     0
100
AcDbPoint
 10
468.6554993445604
 20
55.86778354982925
 30
0.0
  0
ENDBLK
  5
11BB
330
11B9
100
AcDbEntity
  8
0
100
AcDbBlockEnd
  0
BLOCK
  5
11C8
330
11C7
100
AcDbEntity
  8
0
100
AcDbBlockBegin
  2
*D26
 70
     1
 10
0.0
 20
0.0
 30
0.0
  3
*D26
  1

  0
LINE
  5
1236
330
11C7
100
AcDbEntity
  8
0
 62
     0
370
    -2
100
AcDbLine
 10
466.1478917135578
 20
87.85719594497914
 30
0.0
 11
466.1478917135578
 21
95.25372942291687
 31
0.0
  0
LINE
  5
1237
330
11C7
100
AcDbEntity
  8
0
 62
     0
370
    -2
100
AcDbLine
 10
456.2094173440678
 20
87.85719594497914
 30
0.0
 11
456.2094173440678
 21
95.25372942291687
 31
0.0
  0
LINE
  5
1238
330
11C7
100
AcDbEntity
  8
0
 62
     0
370
    -2
100
AcDbLine
 10
463.6478917135579
 20
94.00372942291687
 30
0.0
 11
458.709417344068
 21
94.00372942291687
 31
0.0
  0
INSERT
  5
1239
330
11C7
100
AcDbEntity
  8
0
 62
     0
370
    -2
100
AcDbBlockReference
  2
_Open30
 10
466.1478917135578
 20
94.00372942291687
 30
0.0
 41
2.5
 42
2.5
 43
2.5
  0
INSERT
  5
123A
330
11C7
100
AcDbEntity
  8
0
 62
     0
370
    -2
100
AcDbBlockReference
  2
_Open30
 10
456.2094173440678
 20
94.00372942291687
 30
0.0
 41
2.5
 42
2.5
 43
2.5
 50
180.0
  0
MTEXT
  5
123B
330
11C7
100
AcDbEntity
  8
0
 62
     4
100
AcDbMText
 10
461.1786545288127
 20
97.07872942291686
 30
0.0
 40
3.0
 41
0.0
 71
     5
 72
     1
  1
9.94\H0.7X;\S+0^ -0.02;
 73
     1
 44
1.0
1001
ACAD
1000
MTEXTBEGIN
1070
    73
1070
     1
1070
    44
1040
1.0
1070
    74
1070
     0
1000
MTEXTEND
  0
POINT
  5
123C
330
11C7
100
AcDbEntity
  8
Defpoints
 62
     0
100
AcDbPoint
 10
466.1478917135578
 20
87.60719594497913
 30
0.0
  0
POINT
  5
123D
330
11C7
100
AcDbEntity
  8
Defpoints
 62
     0
100
AcDbPoint
 10
456.2094173440678
 20
87.60719594497913
 30
0.0
  0
POINT
  5
123E
330
11C7
100
AcDbEntity
  8
Defpoints
 62
     0
100
AcDbPoint
 10
456.2094173440678
 20
94.00372942291687
 30
0.0
  0
ENDBLK
  5
11C9
330
11C7
100
AcDbEntity
  8
0
100
AcDbBlockEnd
  0
ENDSEC
  0
SECTION
  2
ENTITIES
  0
LINE
  5
B0
330
36
100
AcDbEntity
  8
0
 62
     3
100
AcDbLine
 10
174.300637
 20
-118.834277
 30
0.0
 11
174.300637
 21
-95.83427699999999
 31
0.0
  0
LINE
  5
B2
330
36
100
AcDbEntity
  8
0
 62
     3
100
AcDbLine
 10
121.247027
 20
-125.834277
 30
0.0
 11
121.247027
 21
-111.834277
 31
0.0
  0
TEXT
  5
B4
330
36
100
AcDbEntity
  8
0
 62
     3
100
AcDbText
 10
150.310955
 20
-99.62916100000001
 30
0.0
 40
2.0
  1
A
 41
0.7
100
AcDbText
  0
TEXT
  5
B5
330
36
100
AcDbEntity
  8
0
 62
     3
100
AcDbText
 10
152.846241
 20
-99.62916100000001
 30
0.0
 40
2.0
  1
P
 41
0.7
100
AcDbText
  0
TEXT
  5
B6
330
36
100
AcDbEntity
  8
0
 62
     3
100
AcDbText
 10
155.381527
 20
-99.62916100000001
 30
0.0
 40
2.0
  1
P
 41
0.7
100
AcDbText
  0
TEXT
  5
B7
330
36
100
AcDbEntity
  8
0
 62
     3
100
AcDbText
 10
157.916813
 20
-99.62916100000001
 30
0.0
 40
2.0
  1
D
 41
0.7
100
AcDbText
  0
TEXT
  5
B8
330
36
100
AcDbEntity
  8
0
 62
     3
100
AcDbText
 10
163.285496
 20
-99.62916100000001
 30
0.0
 40
2.0
  1
C
 41
0.7
100
AcDbText
  0
TEXT
  5
B9
330
36
100
AcDbEntity
  8
0
 62
     3
100
AcDbText
 10
165.820783
 20
-99.62916100000001
 30
0.0
 40
2.0
  1
H
 41
0.7
100
AcDbText
  0
TEXT
  5
BA
330
36
100
AcDbEntity
  8
0
 62
     3
100
AcDbText
 10
168.356069
 20
-99.62916100000001
 30
0.0
 40
2.0
  1
C
 41
0.7
100
AcDbText
  0
TEXT
  5
BB
330
36
100
AcDbEntity
  8
0
 62
     3
100
AcDbText
 10
170.891355
 20
-99.62916100000001
 30
0.0
 40
2.0
  1
K
 41
0.7
100
AcDbText
  0
TEXT
  5
BC
330
36
100
AcDbEntity
  8
0
 62
     3
100
AcDbText
 10
176.565322
 20
-99.62916100000001
 30
0.0
 40
2.0
  1
DESN
 41
1.216762999999998
100
AcDbText
  0
TEXT
  5
BD
330
36
100
AcDbEntity
  8
0
 62
     3
100
AcDbText
 10
91.558963
 20
-128.975659
 30
0.0
 40
2.0
  1
NICHIDO IND.CO.LTD
 41
1.274876
100
AcDbText
  0
LINE
  5
BE
330
36
100
AcDbEntity
  8
0
 62
     3
100
AcDbLine
 10
101.941992
 20
-95.83427699999999
 30
0.0
 11
101.941992
 21
-118.834277
 31
0.0
  0
LINE
  5
BF
330
36
100
AcDbEntity
  8
0
 62
     3
100
AcDbLine
 10
148.300637
 20
-95.83427699999999
 30
0.0
 11
148.300637
 21
-135.5
 31
0.0
  0
LINE
  5
C4
330
36
100
AcDbEntity
  8
0
 62
     3
100
AcDbLine
 10
161.300637
 20
-95.83427699999999
 30
0.0
 11
161.300637
 21
-125.834277
 31
0.0
  0
TEXT
  5
C5
330
36
100
AcDbEntity
  8
0
 62
     3
100
AcDbText
 10
149.413081
 20
-124.969591
 30
0.0
 40
3.2
  1
作成日
 41
1.017225999999997
100
AcDbText
  0
LINE
  5
C6
330
36
100
AcDbEntity
  8
0
 62
     3
100
AcDbLine
 10
200.0
 20
-95.83427699999999
 30
0.0
 11
88.696558
 21
-95.83427699999999
 31
0.0
  0
LINE
  5
C7
330
36
100
AcDbEntity
  8
0
 62
     3
100
AcDbLine
 10
187.300637
 20
-118.834277
 30
0.0
 11
187.300637
 21
-95.83427699999999
 31
0.0
  0
TEXT
  5
C8
330
36
100
AcDbEntity
  8
0
 62
     3
100
AcDbText
 10
190.62444
 20
-99.54334299999999
 30
0.0
 40
1.8
  1
D
 41
0.666667
100
AcDbText
  0
TEXT
  5
C9
330
36
100
AcDbEntity
  8
0
 62
     3
100
AcDbText
 10
193.441068
 20
-99.54334299999999
 30
0.0
 40
1.8
  1
E
 41
0.666667
100
AcDbText
  0
TEXT
  5
CA
330
36
100
AcDbEntity
  8
0
 62
     3
100
AcDbText
 10
196.257696
 20
-99.54334299999999
 30
0.0
 40
1.8
  1
F
 41
0.666667
100
AcDbText
  0
TEXT
  5
CB
330
36
100
AcDbEntity
  8
0
 62
     3
100
AcDbText
 10
190.62444
 20
-103.535896
 30
0.0
 40
3.2
  1
製図
 41
1.076369
100
AcDbText
  0
LINE
  5
CC
330
36
100
AcDbEntity
  8
0
 62
     3
100
AcDbLine
 10
88.696558
 20
-95.83427699999999
 30
0.0
 11
88.696558
 21
-135.5
 31
0.0
  0
TEXT
  5
CD
330
36
100
AcDbEntity
  8
0
 62
     3
100
AcDbText
 10
90.07321000000001
 20
-135.167535
 30
0.0
 40
5.0
  1
日動工業株式会社
 41
0.833333
100
AcDbText
  0
LINE
  5
CE
330
36
100
AcDbEntity
  8
0
 62
     3
100
AcDbLine
 10
131.578961
 20
-111.834277
 30
0.0
 11
131.578961
 21
-135.5
 31
0.0
  0
LINE
  5
CF
330
36
100
AcDbEntity
  8
0
 62
     3
100
AcDbLine
 10
131.578961
 20
-130.667139
 30
0.0
 11
148.300637
 21
-130.667139
 31
0.0
  0
TEXT
  5
D0
330
36
100
AcDbEntity
  8
0
 62
     3
100
AcDbText
 10
132.165563
 20
-129.850708
 30
0.0
 40
3.2
  1
出図コード
 41
0.8356860000000001
100
AcDbText
  0
LINE
  5
E8
330
36
100
AcDbEntity
  8
0
 62
     3
100
AcDbLine
 10
88.696558
 20
-125.834277
 30
0.0
 11
200.0
 21
-125.834277
 31
0.0
  0
LINE
  5
EA
330
36
100
AcDbEntity
  8
0
 62
     3
100
AcDbLine
 10
88.696558
 20
-104.834277
 30
0.0
 11
200.0
 21
-104.834277
 31
0.0
  0
LINE
  5
F0
330
36
100
AcDbEntity
  8
0
 62
     3
100
AcDbLine
 10
88.696558
 20
-111.834277
 30
0.0
 11
148.300637
 21
-111.834277
 31
0.0
  0
LINE
  5
F6
330
36
100
AcDbEntity
  8
0
 62
     3
100
AcDbLine
 10
88.696558
 20
-118.834277
 30
0.0
 11
200.0
 21
-118.834277
 31
0.0
  0
LINE
  5
FA
330
36
100
AcDbEntity
  8
0
 62
     3
100
AcDbLine
 10
200.0
 20
138.555361
 30
0.0
 11
200.0
 21
-135.5
 31
0.0
  0
LINE
  5
FB
330
36
100
AcDbEntity
  8
0
 62
     3
100
AcDbLine
 10
-190.0
 20
138.555361
 30
0.0
 11
-190.0
 21
-135.5
 31
0.0
  0
LINE
  5
FC
330
36
100
AcDbEntity
  8
0
 62
     3
100
AcDbLine
 10
200.0
 20
-135.5
 30
0.0
 11
-190.0
 21
-135.5
 31
0.0
  0
TEXT
  5
FF
330
36
100
AcDbEntity
  8
0
 62
     3
100
AcDbText
 10
132.0330149999999
 20
-135.1342850927469
 30
0.0
 40
3.2
  1
ZK-A3X
 41
0.8112849999999999
100
AcDbText
  0
LINE
  5
100
330
36
100
AcDbEntity
  8
0
 62
     2
100
AcDbLine
 10
-12.225111
 20
140.995363
 30
0.0
 11
-11.602614
 21
140.670409
 31
0.0
  0
LINE
  5
101
330
36
100
AcDbEntity
  8
0
 62
     2
100
AcDbLine
 10
-12.225111
 20
135.665891
 30
0.0
 11
-11.602614
 21
135.990846
 31
0.0
  0
LINE
  5
102
330
36
100
AcDbEntity
  8
0
 62
     2
100
AcDbLine
 10
-11.602614
 20
140.670409
 30
0.0
 11
-11.602614
 21
135.990846
 31
0.0
  0
LINE
  5
103
330
36
100
AcDbEntity
  8
0
 62
     2
100
AcDbLine
 10
-10.02616
 20
135.665891
 30
0.0
 11
-10.648657
 21
135.990846
 31
0.0
  0
LINE
  5
104
330
36
100
AcDbEntity
  8
0
 62
     2
100
AcDbLine
 10
-10.648657
 20
138.843501
 30
0.0
 11
-10.648657
 21
135.990846
 31
0.0
  0
LINE
  5
105
330
36
100
AcDbEntity
  8
0
 62
     2
100
AcDbLine
 10
-6.394928
 20
140.995363
 30
0.0
 11
-7.017425
 21
140.670409
 31
0.0
  0
LINE
  5
106
330
36
100
AcDbEntity
  8
0
 62
     2
100
AcDbLine
 10
-8.593878
 20
140.995363
 30
0.0
 11
-7.971381
 21
140.670409
 31
0.0
  0
LINE
  5
107
330
36
100
AcDbEntity
  8
0
 62
     2
100
AcDbLine
 10
-7.971381
 20
140.670409
 30
0.0
 11
-7.971381
 21
138.609927
 31
0.0
  0
LINE
  5
108
330
36
100
AcDbEntity
  8
0
 62
     2
100
AcDbLine
 10
-7.017425
 20
140.670409
 30
0.0
 11
-7.017425
 21
135.363661
 31
0.0
  0
LINE
  5
109
330
36
100
AcDbEntity
  8
0
 62
     2
100
AcDbLine
 10
-6.087359999999997
 20
140.995359
 30
0.0
 11
-5.464865
 21
140.670401
 31
0.0
  0
LINE
  5
10A
330
36
100
AcDbEntity
  8
0
 62
     2
100
AcDbLine
 10
-6.087470999999997
 20
135.665962
 30
0.0
 11
-5.464963
 21
135.990895
 31
0.0
  0
LINE
  5
10B
330
36
100
AcDbEntity
  8
0
 62
     2
100
AcDbLine
 10
-5.464865
 20
140.670401
 30
0.0
 11
-5.464865
 21
135.990895
 31
0.0
  0
LINE
  5
10C
330
36
100
AcDbEntity
  8
0
 62
     2
100
AcDbLine
 10
-3.33088
 20
140.995326
 30
0.0
 11
-3.953380999999998
 21
140.67038
 31
0.0
  0
LINE
  5
10D
330
36
100
AcDbEntity
  8
0
 62
     2
100
AcDbLine
 10
-3.953380999999998
 20
140.67038
 30
0.0
 11
-3.953380999999998
 21
135.990874
 31
0.0
  0
LINE
  5
10E
330
36
100
AcDbEntity
  8
0
 62
     2
100
AcDbLine
 10
-3.33088
 20
135.665929
 30
0.0
 11
-3.953380999999998
 21
135.990874
 31
0.0
  0
LINE
  5
10F
330
36
100
AcDbEntity
  8
0
 62
     2
100
AcDbLine
 10
1.940911
 20
140.995267
 30
0.0
 11
2.563406999999999
 21
140.67031
 31
0.0
  0
LINE
  5
110
330
36
100
AcDbEntity
  8
0
 62
     2
100
AcDbLine
 10
2.563406999999999
 20
140.67031
 30
0.0
 11
2.563324999999998
 21
135.990805
 31
0.0
  0
LINE
  5
111
330
36
100
AcDbEntity
  8
0
 62
     2
100
AcDbLine
 10
1.940817999999999
 20
135.66587
 30
0.0
 11
2.563324999999998
 21
135.990805
 31
0.0
  0
LINE
  5
112
330
36
100
AcDbEntity
  8
0
 62
     2
100
AcDbLine
 10
4.729855
 20
140.995267
 30
0.0
 11
4.107358999999997
 21
140.67031
 31
0.0
  0
LINE
  5
113
330
36
100
AcDbEntity
  8
0
 62
     2
100
AcDbLine
 10
4.729948
 20
135.66587
 30
0.0
 11
4.107441
 21
135.990805
 31
0.0
  0
LINE
  5
114
330
36
100
AcDbEntity
  8
0
 62
     2
100
AcDbLine
 10
5.020894999999998
 20
140.995267
 30
0.0
 11
5.643391
 21
140.67031
 31
0.0
  0
LINE
  5
115
330
36
100
AcDbEntity
  8
0
 62
     2
100
AcDbLine
 10
5.020801999999997
 20
135.66587
 30
0.0
 11
5.643308999999997
 21
135.990805
 31
0.0
  0
LINE
  5
116
330
36
100
AcDbEntity
  8
0
 62
     2
100
AcDbLine
 10
7.809839
 20
140.995267
 30
0.0
 11
7.187342999999997
 21
140.67031
 31
0.0
  0
LINE
  5
117
330
36
100
AcDbEntity
  8
0
 62
     2
100
AcDbLine
 10
7.187342999999997
 20
140.67031
 30
0.0
 11
7.187425
 21
135.990805
 31
0.0
  0
LINE
  5
118
330
36
100
AcDbEntity
  8
0
 62
     2
100
AcDbLine
 10
7.809932
 20
135.66587
 30
0.0
 11
7.187425
 21
135.990805
 31
0.0
  0
LINE
  5
119
330
36
100
AcDbEntity
  8
0
 62
     2
100
AcDbLine
 10
5.643355
 20
138.631549
 30
0.0
 11
4.107394999999998
 21
138.631549
 31
0.0
  0
LINE
  5
11A
330
36
100
AcDbEntity
  8
0
 62
     2
100
AcDbLine
 10
5.643345
 20
138.029705
 30
0.0
 11
4.107406
 21
138.029705
 31
0.0
  0
LINE
  5
11B
330
36
100
AcDbEntity
  8
0
 62
     2
100
AcDbLine
 10
5.643391
 20
140.67031
 30
0.0
 11
5.643355
 21
138.631549
 31
0.0
  0
LINE
  5
11C
330
36
100
AcDbEntity
  8
0
 62
     2
100
AcDbLine
 10
5.643345
 20
138.029705
 30
0.0
 11
5.643308999999997
 21
135.990805
 31
0.0
  0
LINE
  5
11D
330
36
100
AcDbEntity
  8
0
 62
     2
100
AcDbLine
 10
4.107358999999997
 20
140.67031
 30
0.0
 11
4.107394999999998
 21
138.631549
 31
0.0
  0
LINE
  5
11E
330
36
100
AcDbEntity
  8
0
 62
     2
100
AcDbLine
 10
4.107406
 20
138.029705
 30
0.0
 11
4.107441
 21
135.990805
 31
0.0
  0
LINE
  5
11F
330
36
100
AcDbEntity
  8
0
 62
     2
100
AcDbLine
 10
8.105494999999999
 20
140.995267
 30
0.0
 11
8.727991000000001
 21
140.67031
 31
0.0
  0
LINE
  5
120
330
36
100
AcDbEntity
  8
0
 62
     2
100
AcDbLine
 10
8.727991000000001
 20
140.67031
 30
0.0
 11
8.727909
 21
135.990805
 31
0.0
  0
LINE
  5
121
330
36
100
AcDbEntity
  8
0
 62
     2
100
AcDbLine
 10
8.105401999999997
 20
135.66587
 30
0.0
 11
8.727909
 21
135.990805
 31
0.0
  0
LINE
  5
122
330
36
100
AcDbEntity
  8
0
 62
     2
100
AcDbLine
 10
10.861939
 20
140.995267
 30
0.0
 11
10.239443
 21
140.67031
 31
0.0
  0
LINE
  5
123
330
36
100
AcDbEntity
  8
0
 62
     2
100
AcDbLine
 10
10.239443
 20
140.67031
 30
0.0
 11
10.239524
 21
135.990805
 31
0.0
  0
LINE
  5
124
330
36
100
AcDbEntity
  8
0
 62
     2
100
AcDbLine
 10
10.862032
 20
135.66587
 30
0.0
 11
10.239524
 21
135.990805
 31
0.0
  0
LINE
  5
125
330
36
100
AcDbEntity
  8
0
 62
     2
100
AcDbLine
 10
11.168166
 20
140.995267
 30
0.0
 11
11.790662
 21
140.67031
 31
0.0
  0
LINE
  5
126
330
36
100
AcDbEntity
  8
0
 62
     2
100
AcDbLine
 10
11.790662
 20
140.67031
 30
0.0
 11
11.790581
 21
135.990805
 31
0.0
  0
LINE
  5
127
330
36
100
AcDbEntity
  8
0
 62
     2
100
AcDbLine
 10
11.168073
 20
135.66587
 30
0.0
 11
11.790581
 21
135.990805
 31
0.0
  0
ARC
  5
128
330
36
100
AcDbEntity
  8
0
 62
     2
100
AcDbCircle
 10
-0.047534
 20
138.344041
 30
0.0
 40
2.980408
100
AcDbArc
 50
97.701524
 51
270.0
  0
ARC
  5
129
330
36
100
AcDbEntity
  8
0
 62
     2
100
AcDbCircle
 10
18.353325
 20
138.314103
 30
0.0
 40
3.012775999999998
100
AcDbArc
 50
0.31425
 51
69.00558199999998
  0
ARC
  5
12A
330
36
100
AcDbEntity
  8
0
 62
     2
100
AcDbCircle
 10
19.011432
 20
138.314103
 30
0.0
 40
3.012775999999998
100
AcDbArc
 50
110.994418
 51
148.116611
  0
ARC
  5
12B
330
36
100
AcDbEntity
  8
0
 62
     2
100
AcDbCircle
 10
18.353325
 20
138.347151
 30
0.0
 40
3.012775999999998
100
AcDbArc
 50
290.994418
 51
359.68575
  0
ARC
  5
12C
330
36
100
AcDbEntity
  8
0
 62
     2
100
AcDbCircle
 10
19.011432
 20
138.347151
 30
0.0
 40
3.012775999999998
100
AcDbArc
 50
211.883389
 51
249.005582
  0
ARC
  5
12D
330
36
100
AcDbEntity
  8
0
 62
     2
100
AcDbCircle
 10
18.682379
 20
139.563206
 30
0.0
 40
1.734386999999999
100
AcDbArc
 50
64.365172
 51
115.634828
  0
ARC
  5
12E
330
36
100
AcDbEntity
  8
0
 62
     2
100
AcDbCircle
 10
18.682379
 20
137.098048
 30
0.0
 40
1.734386999999999
100
AcDbArc
 50
244.365172
 51
295.634828
  0
ARC
  5
12F
330
36
100
AcDbEntity
  8
0
 62
     2
100
AcDbCircle
 10
18.682379
 20
139.596152
 30
0.0
 40
0.8512219999999999
100
AcDbArc
 50
19.486606
 51
160.513394
  0
ARC
  5
130
330
36
100
AcDbEntity
  8
0
 62
     2
100
AcDbCircle
 10
18.682379
 20
137.065103
 30
0.0
 40
0.8512219999999999
100
AcDbArc
 50
199.4866059999999
 51
340.513394
  0
ARC
  5
131
330
36
100
AcDbEntity
  8
0
 62
     3
100
AcDbCircle
 10
11.907418
 20
106.576256
 30
0.0
 40
37.20000000000001
100
AcDbArc
 50
69.50571500000001
 51
81.689988
  0
ARC
  5
132
330
36
100
AcDbEntity
  8
0
 62
     3
100
AcDbCircle
 10
11.907418
 20
170.084998
 30
0.0
 40
37.20000000000001
100
AcDbArc
 50
278.310012
 51
290.494285
  0
ARC
  5
133
330
36
100
AcDbEntity
  8
0
 62
     3
100
AcDbCircle
 10
23.776281
 20
138.330627
 30
0.0
 40
3.299999999999998
100
AcDbArc
 50
290.494285
 51
69.50571500000001
  0
ARC
  5
134
330
36
100
AcDbEntity
  8
0
 62
     3
100
AcDbCircle
 10
-15.223719
 20
138.330627
 30
0.0
 40
3.299999999999998
100
AcDbArc
 50
110.494285
 51
249.505715
  0
ARC
  5
135
330
36
100
AcDbEntity
  8
0
 62
     3
100
AcDbCircle
 10
-3.354855999999998
 20
106.576256
 30
0.0
 40
37.20000000000001
100
AcDbArc
 50
98.31001200000001
 51
110.494285
  0
ARC
  5
136
330
36
100
AcDbEntity
  8
0
 62
     3
100
AcDbCircle
 10
-3.354855999999998
 20
170.084998
 30
0.0
 40
37.20000000000001
100
AcDbArc
 50
249.505715
 51
261.689988
  0
ARC
  5
137
330
36
100
AcDbEntity
  8
0
 62
     3
100
AcDbCircle
 10
4.276280999999999
 20
54.330627
 30
0.0
 40
90.0
100
AcDbArc
 50
81.689988
 51
98.31001200000001
  0
ARC
  5
138
330
36
100
AcDbEntity
  8
0
 62
     3
100
AcDbCircle
 10
4.276280999999999
 20
222.330627
 30
0.0
 40
90.0
100
AcDbArc
 50
261.689988
 51
278.310012
  0
ARC
  5
139
330
36
100
AcDbEntity
  8
0
 62
     3
100
AcDbCircle
 10
4.276280999999999
 20
54.330627
 30
0.0
 40
89.1
100
AcDbArc
 50
81.689988
 51
98.31001200000001
  0
ARC
  5
13A
330
36
100
AcDbEntity
  8
0
 62
     3
100
AcDbCircle
 10
4.276280999999999
 20
222.330627
 30
0.0
 40
89.1
100
AcDbArc
 50
261.689988
 51
278.310012
  0
ARC
  5
13B
330
36
100
AcDbEntity
  8
0
 62
     3
100
AcDbCircle
 10
11.907418
 20
170.084998
 30
0.0
 40
36.3
100
AcDbArc
 50
278.310012
 51
290.494285
  0
ARC
  5
13C
330
36
100
AcDbEntity
  8
0
 62
     3
100
AcDbCircle
 10
11.907418
 20
106.576256
 30
0.0
 40
36.3
100
AcDbArc
 50
69.50571500000001
 51
81.689988
  0
ARC
  5
13D
330
36
100
AcDbEntity
  8
0
 62
     3
100
AcDbCircle
 10
23.776281
 20
138.330627
 30
0.0
 40
2.399999999999999
100
AcDbArc
 50
290.494285
 51
69.50571500000001
  0
ARC
  5
13E
330
36
100
AcDbEntity
  8
0
 62
     3
100
AcDbCircle
 10
-15.223719
 20
138.330627
 30
0.0
 40
2.399999999999999
100
AcDbArc
 50
110.494285
 51
249.505715
  0
ARC
  5
13F
330
36
100
AcDbEntity
  8
0
 62
     3
100
AcDbCircle
 10
-3.354855999999998
 20
106.576256
 30
0.0
 40
36.3
100
AcDbArc
 50
98.31001200000001
 51
110.494285
  0
ARC
  5
140
330
36
100
AcDbEntity
  8
0
 62
     3
100
AcDbCircle
 10
-3.354855999999998
 20
170.084998
 30
0.0
 40
36.3
100
AcDbArc
 50
249.505715
 51
261.689988
  0
LINE
  5
141
330
36
100
AcDbEntity
  8
0
 62
     2
100
AcDbLine
 10
10.86194
 20
135.363661
 30
0.0
 11
8.105494
 21
135.363661
 31
0.0
  0
LINE
  5
142
330
36
100
AcDbEntity
  8
0
 62
     2
100
AcDbLine
 10
10.86194
 20
135.665891
 30
0.0
 11
10.86194
 21
135.363661
 31
0.0
  0
LINE
  5
143
330
36
100
AcDbEntity
  8
0
 62
     2
100
AcDbLine
 10
7.809841
 20
141.297452
 30
0.0
 11
5.020894
 21
141.297452
 31
0.0
  0
LINE
  5
144
330
36
100
AcDbEntity
  8
0
 62
     2
100
AcDbLine
 10
7.809841
 20
141.297452
 30
0.0
 11
7.809841
 21
140.995363
 31
0.0
  0
LINE
  5
145
330
36
100
AcDbEntity
  8
0
 62
     2
100
AcDbLine
 10
7.809841
 20
135.665891
 30
0.0
 11
7.809841
 21
135.36352
 31
0.0
  0
LINE
  5
146
330
36
100
AcDbEntity
  8
0
 62
     2
100
AcDbLine
 10
7.809841
 20
135.36352
 30
0.0
 11
5.020894
 21
135.36352
 31
0.0
  0
LINE
  5
147
330
36
100
AcDbEntity
  8
0
 62
     2
100
AcDbLine
 10
10.86194
 20
141.297593
 30
0.0
 11
10.86194
 21
140.995363
 31
0.0
  0
LINE
  5
148
330
36
100
AcDbEntity
  8
0
 62
     2
100
AcDbLine
 10
10.86194
 20
141.297593
 30
0.0
 11
8.105494
 21
141.297593
 31
0.0
  0
LINE
  5
149
330
36
100
AcDbEntity
  8
0
 62
     2
100
AcDbLine
 10
8.105494
 20
141.297593
 30
0.0
 11
8.105494
 21
140.995363
 31
0.0
  0
LINE
  5
14A
330
36
100
AcDbEntity
  8
0
 62
     2
100
AcDbLine
 10
11.168165
 20
135.665891
 30
0.0
 11
11.168165
 21
135.363661
 31
0.0
  0
LINE
  5
14B
330
36
100
AcDbEntity
  8
0
 62
     2
100
AcDbLine
 10
14.00288
 20
135.363661
 30
0.0
 11
11.168165
 21
135.363661
 31
0.0
  0
LINE
  5
14C
330
36
100
AcDbEntity
  8
0
 62
     2
100
AcDbLine
 10
13.302114
 20
140.343637
 30
0.0
 11
13.302114
 21
136.317617
 31
0.0
  0
LINE
  5
14D
330
36
100
AcDbEntity
  8
0
 62
     2
100
AcDbLine
 10
13.302114
 20
136.317617
 30
0.0
 11
13.573612
 21
136.317617
 31
0.0
  0
ARC
  5
14E
330
36
100
AcDbEntity
  8
0
 62
     2
100
AcDbCircle
 10
12.185347
 20
138.330627
 30
0.0
 40
2.445299
100
AcDbArc
 50
304.591955
 51
55.408045
  0
LINE
  5
14F
330
36
100
AcDbEntity
  8
0
 62
     2
100
AcDbLine
 10
14.00288
 20
141.297593
 30
0.0
 11
11.168165
 21
141.297593
 31
0.0
  0
LINE
  5
150
330
36
100
AcDbEntity
  8
0
 62
     2
100
AcDbLine
 10
11.168165
 20
141.297593
 30
0.0
 11
11.168165
 21
140.995363
 31
0.0
  0
LINE
  5
151
330
36
100
AcDbEntity
  8
0
 62
     2
100
AcDbLine
 10
8.105494
 20
135.665891
 30
0.0
 11
8.105494
 21
135.363661
 31
0.0
  0
LINE
  5
152
330
36
100
AcDbEntity
  8
0
 62
     2
100
AcDbLine
 10
13.302114
 20
140.343637
 30
0.0
 11
13.573612
 21
140.343637
 31
0.0
  0
LINE
  5
153
330
36
100
AcDbEntity
  8
0
 62
     2
100
AcDbLine
 10
-3.330970999999999
 20
135.665891
 30
0.0
 11
-3.330976999999998
 21
135.363633
 31
0.0
  0
LINE
  5
154
330
36
100
AcDbEntity
  8
0
 62
     2
100
AcDbLine
 10
-6.087422
 20
135.363689
 30
0.0
 11
-3.330976999999998
 21
135.363641
 31
0.0
  0
LINE
  5
155
330
36
100
AcDbEntity
  8
0
 62
     2
100
AcDbLine
 10
-12.225111
 20
135.363661
 30
0.0
 11
-10.02616
 21
135.363661
 31
0.0
  0
ARC
  5
156
330
36
100
AcDbEntity
  8
0
 62
     2
100
AcDbCircle
 10
-19.342172
 20
138.400494
 30
0.0
 40
21.019379
100
AcDbArc
 50
353.866006
 51
357.694034
  0
LINE
  5
157
330
36
100
AcDbEntity
  8
0
 62
     2
100
AcDbLine
 10
0.252943
 20
137.559969
 30
0.0
 11
1.660186999999999
 21
137.554762
 31
0.0
  0
LINE
  5
19A
330
36
100
AcDbEntity
  8
0
 62
     2
100
AcDbLine
 10
0.258626
 20
139.09599
 30
0.0
 11
1.665869999999999
 21
139.090783
 31
0.0
  0
ARC
  5
19B
330
36
100
AcDbEntity
  8
0
 62
     2
100
AcDbCircle
 10
-19.342172
 20
138.400494
 30
0.0
 40
21.019379
100
AcDbArc
 50
1.881965999999999
 51
5.709994
  0
LINE
  5
19C
330
36
100
AcDbEntity
  8
0
 62
     2
100
AcDbLine
 10
-3.330873
 20
141.297565
 30
0.0
 11
-3.330877999999998
 21
140.995363
 31
0.0
  0
LINE
  5
19D
330
36
100
AcDbEntity
  8
0
 62
     2
100
AcDbLine
 10
-6.087318999999999
 20
141.297622
 30
0.0
 11
-3.330873
 21
141.297574
 31
0.0
  0
LINE
  5
19E
330
36
100
AcDbEntity
  8
0
 62
     2
100
AcDbLine
 10
-6.087416999999997
 20
135.665891
 30
0.0
 11
-6.087422
 21
135.363689
 31
0.0
  0
LINE
  5
19F
330
36
100
AcDbEntity
  8
0
 62
     2
100
AcDbLine
 10
-6.087318999999999
 20
141.297622
 30
0.0
 11
-6.087323999999997
 21
140.995363
 31
0.0
  0
LINE
  5
1A0
330
36
100
AcDbEntity
  8
0
 62
     2
100
AcDbLine
 10
-10.02616
 20
135.665891
 30
0.0
 11
-10.02616
 21
135.363661
 31
0.0
  0
LINE
  5
1A1
330
36
100
AcDbEntity
  8
0
 62
     2
100
AcDbLine
 10
-10.648657
 20
138.843501
 30
0.0
 11
-8.473757
 21
135.363661
 31
0.0
  0
LINE
  5
1A2
330
36
100
AcDbEntity
  8
0
 62
     2
100
AcDbLine
 10
-8.473757
 20
135.363661
 30
0.0
 11
-7.017425
 21
135.363661
 31
0.0
  0
LINE
  5
1A3
330
36
100
AcDbEntity
  8
0
 62
     2
100
AcDbLine
 10
-6.394928
 20
141.297593
 30
0.0
 11
-6.394928
 21
140.995363
 31
0.0
  0
LINE
  5
1A4
330
36
100
AcDbEntity
  8
0
 62
     2
100
AcDbLine
 10
-8.593878
 20
141.297593
 30
0.0
 11
-6.394928
 21
141.297593
 31
0.0
  0
LINE
  5
1A5
330
36
100
AcDbEntity
  8
0
 62
     2
100
AcDbLine
 10
-8.593878
 20
141.297593
 30
0.0
 11
-8.593878
 21
140.995363
 31
0.0
  0
LINE
  5
1A6
330
36
100
AcDbEntity
  8
0
 62
     2
100
AcDbLine
 10
-7.971381
 20
138.609927
 30
0.0
 11
-9.735161999999997
 21
141.297593
 31
0.0
  0
LINE
  5
1A7
330
36
100
AcDbEntity
  8
0
 62
     2
100
AcDbLine
 10
-12.225111
 20
141.297593
 30
0.0
 11
-9.735161999999997
 21
141.297593
 31
0.0
  0
LINE
  5
1A8
330
36
100
AcDbEntity
  8
0
 62
     2
100
AcDbLine
 10
1.940909999999995
 20
141.297452
 30
0.0
 11
4.729855999999998
 21
141.297452
 31
0.0
  0
LINE
  5
1A9
330
36
100
AcDbEntity
  8
0
 62
     2
100
AcDbLine
 10
1.940909999999995
 20
140.995363
 30
0.0
 11
1.940909999999995
 21
141.297452
 31
0.0
  0
LINE
  5
1AA
330
36
100
AcDbEntity
  8
0
 62
     2
100
AcDbLine
 10
1.940909999999995
 20
135.36352
 30
0.0
 11
1.940909999999995
 21
135.665891
 31
0.0
  0
LINE
  5
1AB
330
36
100
AcDbEntity
  8
0
 62
     2
100
AcDbLine
 10
1.940909999999995
 20
135.36352
 30
0.0
 11
4.729855999999998
 21
135.36352
 31
0.0
  0
LINE
  5
1AC
330
36
100
AcDbEntity
  8
0
 62
     2
100
AcDbLine
 10
5.020894
 20
135.665891
 30
0.0
 11
5.020894
 21
135.36352
 31
0.0
  0
LINE
  5
1AD
330
36
100
AcDbEntity
  8
0
 62
     2
100
AcDbLine
 10
4.729855999999998
 20
135.665891
 30
0.0
 11
4.729855999999998
 21
135.36352
 31
0.0
  0
LINE
  5
1AE
330
36
100
AcDbEntity
  8
0
 62
     2
100
AcDbLine
 10
4.729855999999998
 20
140.995363
 30
0.0
 11
4.729855999999998
 21
141.297452
 31
0.0
  0
LINE
  5
1AF
330
36
100
AcDbEntity
  8
0
 62
     2
100
AcDbLine
 10
5.020894
 20
140.995363
 30
0.0
 11
5.020894
 21
141.297452
 31
0.0
  0
LINE
  5
1B0
330
36
100
AcDbEntity
  8
0
 62
     2
100
AcDbLine
 10
-12.225111
 20
135.665891
 30
0.0
 11
-12.225111
 21
135.363661
 31
0.0
  0
LINE
  5
1B1
330
36
100
AcDbEntity
  8
0
 62
     2
100
AcDbLine
 10
-12.225111
 20
141.297593
 30
0.0
 11
-12.225111
 21
140.995363
 31
0.0
  0
ARC
  5
1B2
330
36
100
AcDbEntity
  8
0
 62
     2
100
AcDbCircle
 10
14.30288
 20
138.953124
 30
0.0
 40
2.344468999999999
100
AcDbArc
 50
17.308749
 51
23.765071
  0
ARC
  5
1B3
330
36
100
AcDbEntity
  8
0
 62
     2
100
AcDbCircle
 10
12.305347
 20
138.330627
 30
0.0
 40
4.436751
100
AcDbArc
 50
342.691251
 51
17.308566
  0
ARC
  5
1B4
330
36
100
AcDbEntity
  8
0
 62
     2
100
AcDbCircle
 10
14.30288
 20
137.70813
 30
0.0
 40
2.344468999999999
100
AcDbArc
 50
336.234929
 51
342.691251
  0
ARC
  5
1B5
330
36
100
AcDbEntity
  8
0
 62
     2
100
AcDbCircle
 10
14.00288
 20
138.953124
 30
0.0
 40
2.344468999999999
100
AcDbArc
 50
17.308749
 51
90.0
  0
ARC
  5
1B6
330
36
100
AcDbEntity
  8
0
 62
     2
100
AcDbCircle
 10
12.005347
 20
138.330627
 30
0.0
 40
4.436751
100
AcDbArc
 50
342.691251
 51
17.308566
  0
ARC
  5
1B7
330
36
100
AcDbEntity
  8
0
 62
     2
100
AcDbCircle
 10
14.00288
 20
137.70813
 30
0.0
 40
2.344468999999999
100
AcDbArc
 50
270.0
 51
342.691251
  0
ARC
  5
1B8
330
36
100
AcDbEntity
  8
0
 62
     2
100
AcDbCircle
 10
-0.4598920000000001
 20
138.330627
 30
0.0
 40
2.966965999999997
100
AcDbArc
 50
46.75287999999999
 51
89.749998
  0
ARC
  5
1B9
330
36
100
AcDbEntity
  8
0
 62
     2
100
AcDbCircle
 10
-0.4598920000000001
 20
138.330627
 30
0.0
 40
2.966965999999997
100
AcDbArc
 50
273.976333
 51
312.82312
  0
ARC
  5
1BA
330
36
100
AcDbEntity
  8
0
 62
     2
100
AcDbCircle
 10
15.885548
 20
138.284825
 30
0.0
 40
3.936983999999998
100
AcDbArc
 50
0.6665840000000001
 51
23.903928
  0
ARC
  5
1BB
330
36
100
AcDbEntity
  8
0
 62
     2
100
AcDbCircle
 10
21.479209
 20
138.284825
 30
0.0
 40
3.936983999999998
100
AcDbArc
 50
156.096072
 51
179.333416
  0
ARC
  5
1BC
330
36
100
AcDbEntity
  8
0
 62
     2
100
AcDbCircle
 10
15.885548
 20
138.376429
 30
0.0
 40
3.936983999999998
100
AcDbArc
 50
336.096072
 51
359.333416
  0
ARC
  5
1BD
330
36
100
AcDbEntity
  8
0
 62
     2
100
AcDbCircle
 10
21.479209
 20
138.376429
 30
0.0
 40
3.936983999999998
100
AcDbArc
 50
180.666584
 51
203.903928
  0
LINE
  5
1BE
330
36
100
AcDbEntity
  8
0
 62
     3
100
AcDbLine
 10
28.656725
 20
138.555361
 30
0.0
 11
200.0
 21
138.555361
 31
0.0
  0
LINE
  5
1BF
330
36
100
AcDbEntity
  8
0
 62
     3
100
AcDbLine
 10
-19.897309
 20
138.555361
 30
0.0
 11
-190.0
 21
138.555361
 31
0.0
  0
TEXT
  5
1C0
330
36
100
AcDbEntity
  8
0
 62
     3
100
AcDbText
 10
103.3413015923365
 20
-103.714824
 30
0.0
 40
4.5
  1
キセノンサーチライト
 41
0.8
  7
高4.5
100
AcDbText
  0
TEXT
  5
1C1
330
36
100
AcDbEntity
  8
0
 62
     3
100
AcDbText
 10
104.0803664993086
 20
-110.714824
 30
0.0
 40
4.5
  1
HIDL-35W-BA
 41
0.8
  7
高4.5
100
AcDbText
  0
TEXT
  5
1C2
330
36
100
AcDbEntity
  8
0
 62
     3
100
AcDbText
 10
149.448334
 20
-134.6322945265037
 30
0.0
 40
6.299999999999998
  1
HIDL-35W-BA
 41
0.7
  7
高6.3
100
AcDbText
  0
TEXT
  5
1C3
330
36
100
AcDbEntity
  8
0
 62
     3
100
AcDbText
 10
164.884185
 20
-125.0617011215691
 30
0.0
 40
3.2
  1
2008.4.15
  7
高3.2
100
AcDbText
  0
TEXT
  5
1C4
330
36
100
AcDbEntity
  8
0
 62
     3
100
AcDbText
 10
134.897613
 20
-125.0617011215691
 30
0.0
 40
3.2
  1
1/2
  7
高3.2
100
AcDbText
  0
TEXT
  5
1C5
330
36
100
AcDbEntity
  8
0
 62
     3
100
AcDbText
 10
105.96244
 20
-117.8060939663153
 30
0.0
 40
3.2
  1
別　掲
  7
高3.2
100
AcDbText
  0
CIRCLE
  5
1C6
330
36
100
AcDbEntity
  8
0
 62
     3
100
AcDbCircle
 10
-135.3948402745006
 20
79.11805540055279
 30
0.0
 40
24.5
  0
CIRCLE
  5
1C7
330
36
100
AcDbEntity
  8
0
 62
     3
100
AcDbCircle
 10
-135.3948402745006
 20
79.11805540055279
 30
0.0
 40
29.0
  0
CIRCLE
  5
1C8
330
36
100
AcDbEntity
  8
0
 62
     3
100
AcDbCircle
 10
-135.3948402745006
 20
79.11805540055279
 30
0.0
 40
32.5
  0
LINE
  5
1C9
330
36
100
AcDbEntity
  8
0
 62
     3
100
AcDbLine
 10
-108.3948402745006
 20
19.11805540055278
 30
0.0
 11
-135.3948402745006
 21
19.11805540055278
 31
0.0
  0
LINE
  5
1CA
330
36
100
AcDbEntity
  8
0
 62
     3
100
AcDbLine
 10
-109.8356152745006
 20
37.01918440055279
 30
0.0
 11
-108.3948402745006
 21
19.11805540055278
 31
0.0
  0
LINE
  5
1CB
330
36
100
AcDbEntity
  8
0
 62
     3
100
AcDbLine
 10
-162.3948402745006
 20
19.11805540055278
 30
0.0
 11
-135.3948402745006
 21
19.11805540055278
 31
0.0
  0
LINE
  5
1CD
330
36
100
AcDbEntity
  8
0
 62
     3
100
AcDbLine
 10
-160.9540652745006
 20
37.01918440055279
 30
0.0
 11
-162.3948402745006
 21
19.11805540055278
 31
0.0
  0
ARC
  5
1CE
330
36
100
AcDbEntity
  8
0
 62
     3
100
AcDbCircle
 10
-117.8573802745006
 20
44.11805540055278
 30
0.0
 40
2.5
100
AcDbArc
 50
145.6181299999999
 51
270.0
  0
ARC
  5
1CF
330
36
100
AcDbEntity
  8
0
 62
     3
100
AcDbCircle
 10
-152.9323002745006
 20
44.11805540055278
 30
0.0
 40
2.5
100
AcDbArc
 50
270.0
 51
34.38187000000008
  0
LINE
  5
1D0
330
36
100
AcDbEntity
  8
0
 62
     3
100
AcDbLine
 10
-155.9701812745007
 20
41.61805540055278
 30
0.0
 11
-114.8194982745006
 21
41.61805540055278
 31
0.0
  0
ARC
  5
1D1
330
36
100
AcDbEntity
  8
0
 62
     3
100
AcDbCircle
 10
-20.84138562274335
 20
81.95459440055278
 30
0.0
 40
29.663462
100
AcDbArc
 50
62.92828699999994
 51
90.0
  0
ARC
  5
1D2
330
36
100
AcDbEntity
  8
0
 62
     3
100
AcDbCircle
 10
-20.84138562274335
 20
76.28151740055277
 30
0.0
 40
29.663462
100
AcDbArc
 50
270.0
 51
297.0717129999999
  0
ARC
  5
1D3
330
36
100
AcDbEntity
  8
0
 62
     3
100
AcDbCircle
 10
-39.84985562274335
 20
50.33323340055278
 30
0.0
 40
66.519479
100
AcDbArc
 50
38.35410200000007
 51
60.74443300000011
  0
ARC
  5
1D4
330
36
100
AcDbEntity
  8
0
 62
     3
100
AcDbCircle
 10
-3.472623622743345
 20
79.11805540055279
 30
0.0
 40
20.131238
100
AcDbArc
 50
321.6458979999999
 51
38.35410200000007
  0
LINE
  5
1D5
330
36
100
AcDbEntity
  8
0
 62
     3
100
AcDbLine
 10
119.1586143772567
 20
70.82866540055277
 30
0.0
 11
119.1586143772567
 21
54.11805540055278
 31
0.0
  0
LINE
  5
1D6
330
36
100
AcDbEntity
  8
0
 62
     3
100
AcDbLine
 10
4.158614377256653
 20
30.61805540055279
 30
0.0
 11
4.158614377256653
 21
19.11805540055278
 31
0.0
  0
LINE
  5
1D7
330
36
100
AcDbEntity
  8
0
 62
     3
100
AcDbLine
 10
102.1586143772566
 20
34.11805540055279
 30
0.0
 11
102.1586143772566
 21
19.11805540055278
 31
0.0
  0
LINE
  5
1D8
330
36
100
AcDbEntity
  8
0
 62
     3
100
AcDbLine
 10
4.158614377256653
 20
19.11805540055278
 30
0.0
 11
102.1586143772566
 21
19.11805540055278
 31
0.0
  0
ARC
  5
1D9
330
36
100
AcDbEntity
  8
0
 62
     3
100
AcDbCircle
 10
8.158614377256652
 20
37.61805540055279
 30
0.0
 40
4.0
100
AcDbArc
 50
95.21590899999997
 51
180.0
  0
ARC
  5
1DA
330
36
100
AcDbEntity
  8
0
 62
     3
100
AcDbCircle
 10
101.1586143772566
 20
40.61805540055279
 30
0.0
 40
1.0
100
AcDbArc
 50
0.0
 51
90.0
  0
LINE
  5
1DB
330
36
100
AcDbEntity
  8
0
 62
     3
100
AcDbLine
 10
108.1586143772566
 20
72.86805540055278
 30
0.0
 11
108.1586143772566
 21
35.36805540055279
 31
0.0
  0
LINE
  5
1DC
330
36
100
AcDbEntity
  8
0
 62
     3
100
AcDbLine
 10
94.15861437725665
 20
72.86805540055278
 30
0.0
 11
94.15861437725665
 21
41.61805540055278
 31
0.0
  0
LINE
  5
1DD
330
36
100
AcDbEntity
  8
0
 62
     3
100
AcDbLine
 10
107.4715663772566
 20
72.86805540055278
 30
0.0
 11
108.1586143772566
 21
72.86805540055278
 31
0.0
  0
LINE
  5
1DE
330
36
100
AcDbEntity
  8
0
 62
     3
100
AcDbLine
 10
108.1586143772566
 20
35.36805540055279
 30
0.0
 11
102.1586143772566
 21
35.36805540055279
 31
0.0
  0
LINE
  5
1DF
330
36
100
AcDbEntity
  8
0
 62
     3
100
AcDbLine
 10
88.89928537725664
 20
71.55322340055279
 30
0.0
 11
84.15861437725665
 21
70.36805540055278
 31
0.0
  0
LINE
  5
1E0
330
36
100
AcDbEntity
  8
0
 62
     3
100
AcDbLine
 10
117.7432673772566
 20
72.32627440055278
 30
0.0
 11
108.1586143772566
 21
72.86805540055278
 31
0.0
  0
ARC
  5
1E1
330
36
100
AcDbEntity
  8
0
 62
     3
100
AcDbCircle
 10
117.6586143772566
 20
70.82866540055277
 30
0.0
 40
1.5
100
AcDbArc
 50
0.0
 51
86.76474799999999
  0
LINE
  5
1E2
330
36
100
AcDbEntity
  8
0
 62
     3
100
AcDbLine
 10
119.1586143772567
 20
37.40744640055279
 30
0.0
 11
119.1586143772567
 21
54.11805540055278
 31
0.0
  0
LINE
  5
1E3
330
36
100
AcDbEntity
  8
0
 62
     3
100
AcDbLine
 10
117.7432673772566
 20
35.90983640055279
 30
0.0
 11
108.1586143772566
 21
35.36805540055279
 31
0.0
  0
ARC
  5
1E4
330
36
100
AcDbEntity
  8
0
 62
     3
100
AcDbCircle
 10
117.6586143772566
 20
37.40744640055279
 30
0.0
 40
1.5
100
AcDbArc
 50
273.235252
 51
0.0
  0
ARC
  5
1E5
330
36
100
AcDbEntity
  8
0
 62
     3
100
AcDbCircle
 10
86.47392937725667
 20
81.25464840055277
 30
0.0
 40
10.0
100
AcDbArc
 50
284.0362430000001
 51
0.0
  0
ARC
  5
1E6
330
36
100
AcDbEntity
  8
0
 62
     3
100
AcDbCircle
 10
107.4715663772566
 20
73.86805540055279
 30
0.0
 40
1.0
100
AcDbArc
 50
180.0
 51
270.0
  0
LINE
  5
1E7
330
36
100
AcDbEntity
  8
0
 62
     3
100
AcDbLine
 10
107.4715663772566
 20
72.86805540055278
 30
0.0
 11
91.92049337725666
 21
72.86805540055278
 31
0.0
  0
LINE
  5
1E8
330
36
100
AcDbEntity
  8
0
 62
     3
100
AcDbLine
 10
23.85106937725666
 20
83.23477540055279
 30
0.0
 11
28.87661337725666
 21
75.10836240055278
 31
0.0
  0
LINE
  5
1E9
330
36
100
AcDbEntity
  8
0
 62
     3
100
AcDbLine
 10
106.4715663772566
 20
88.46232940055278
 30
0.0
 11
106.4715663772566
 21
73.86805540055279
 31
0.0
  0
LINE
  5
1EA
330
36
100
AcDbEntity
  8
0
 62
     3
100
AcDbLine
 10
96.47392937725664
 20
85.87364140055278
 30
0.0
 11
96.47392937725664
 21
81.25464840055277
 31
0.0
  0
ARC
  5
1EB
330
36
100
AcDbEntity
  8
0
 62
     3
100
AcDbCircle
 10
37.38164937725664
 20
80.36805540055279
 30
0.0
 40
10.0
100
AcDbArc
 50
211.7335190000001
 51
270.0
  0
ARC
  5
1EC
330
36
100
AcDbEntity
  8
0
 62
     3
100
AcDbCircle
 10
90.47156637725668
 20
88.46232940055278
 30
0.0
 40
16.0
100
AcDbArc
 50
0.0
 51
88.62880899999991
  0
LINE
  5
1ED
330
36
100
AcDbEntity
  8
0
 62
     3
100
AcDbLine
 10
-21.34138562274335
 20
111.6180554005527
 30
0.0
 11
-20.84138562274335
 21
111.6180554005527
 31
0.0
  0
LINE
  5
1EE
330
36
100
AcDbEntity
  8
0
 62
     3
100
AcDbLine
 10
-21.34138562274335
 20
46.61805540055278
 30
0.0
 11
-20.84138562274335
 21
46.61805540055278
 31
0.0
  0
LINE
  5
1EF
330
36
100
AcDbEntity
  8
0
 62
     3
100
AcDbLine
 10
-23.34138562274334
 20
48.61805540055279
 30
0.0
 11
-23.34138562274334
 21
109.6180554005527
 31
0.0
  0
LINE
  5
1F0
330
36
100
AcDbEntity
  8
0
 62
     3
100
AcDbLine
 10
-28.34138562274335
 20
108.1180554005527
 30
0.0
 11
-23.34138562274334
 21
108.1180554005527
 31
0.0
  0
LINE
  5
1F1
330
36
100
AcDbEntity
  8
0
 62
     3
100
AcDbLine
 10
-28.34138562274335
 20
50.1180554005528
 30
0.0
 11
-23.34138562274334
 21
50.1180554005528
 31
0.0
  0
LINE
  5
1F2
330
36
100
AcDbEntity
  8
0
 62
     3
100
AcDbLine
 10
-28.34138562274335
 20
108.1180554005527
 30
0.0
 11
-28.34138562274335
 21
50.1180554005528
 31
0.0
  0
ARC
  5
1F3
330
36
100
AcDbEntity
  8
0
 62
     3
100
AcDbCircle
 10
-135.3948402745006
 20
54.11805540055278
 30
0.0
 40
17.697728
100
AcDbArc
 50
329.646113
 51
352.334112
  0
ARC
  5
1F4
330
36
100
AcDbEntity
  8
0
 62
     3
100
AcDbCircle
 10
-135.3948402745006
 20
54.11805540055278
 30
0.0
 40
17.697728
100
AcDbArc
 50
187.6658879999999
 51
210.353887
  0
ARC
  5
1F5
330
36
100
AcDbEntity
  8
0
 62
     3
100
AcDbCircle
 10
90.47392937725666
 20
85.87364140055278
 30
0.0
 40
6.0
100
AcDbArc
 50
0.0
 51
89.47596799999994
  0
ARC
  5
1F6
330
36
100
AcDbEntity
  8
0
 62
     3
100
AcDbCircle
 10
28.95409037725666
 20
86.39059040055277
 30
0.0
 40
6.0
100
AcDbArc
 50
89.47596799999994
 51
211.7335190000001
  0
LINE
  5
1F7
330
36
100
AcDbEntity
  8
0
 62
     3
100
AcDbLine
 10
90.52880537725664
 20
91.87339040055276
 30
0.0
 11
29.00896637725665
 21
92.39034040055278
 31
0.0
  0
LINE
  5
1F8
330
36
100
AcDbEntity
  8
0
 62
     3
100
AcDbLine
 10
9.158614377256654
 20
43.0952814005528
 30
0.0
 11
9.158614377256654
 21
45.68183440055276
 31
0.0
  0
ARC
  5
1F9
330
36
100
AcDbEntity
  8
0
 62
     3
100
AcDbCircle
 10
1.158614377256653
 20
45.68183440055276
 30
0.0
 40
8.0
100
AcDbArc
 50
0.0
 51
123.3879649999999
  0
ARC
  5
1FA
330
36
100
AcDbEntity
  8
0
 62
     3
100
AcDbCircle
 10
-39.84985562274335
 20
107.9028774005527
 30
0.0
 40
66.519479
100
AcDbArc
 50
299.2555669999999
 51
321.6458979999999
  0
LINE
  5
1FB
330
36
100
AcDbEntity
  8
0
 62
     3
100
AcDbLine
 10
-7.341385622743344
 20
108.3680554005527
 30
0.0
 11
-7.341385622743344
 21
49.86805540055278
 31
0.0
  0
LINE
  5
1FC
330
36
100
AcDbEntity
  8
0
 62
     3
100
AcDbLine
 10
94.47156637725667
 20
95.30535740055279
 30
0.0
 11
94.47156637725667
 21
103.9542634005528
 31
0.0
  0
LINE
  5
1FD
330
36
100
AcDbEntity
  8
0
 62
     3
100
AcDbLine
 10
97.40354437725669
 20
92.30612940055278
 30
0.0
 11
106.0502163772566
 21
92.11002340055278
 31
0.0
  0
ARC
  5
1FE
330
36
100
AcDbEntity
  8
0
 62
     3
100
AcDbCircle
 10
97.47156637725666
 20
95.30535740055279
 30
0.0
 40
3.0
100
AcDbArc
 50
180.0
 51
268.7007600000001
  0
LINE
  5
1FF
330
36
100
AcDbEntity
  8
0
 62
     3
100
AcDbLine
 10
74.42117437725666
 20
96.82839540055276
 30
0.0
 11
39.06692837725666
 21
97.63022640055279
 31
0.0
  0
LINE
  5
200
330
36
100
AcDbEntity
  8
0
 62
     3
100
AcDbLine
 10
23.21569137725665
 20
105.9917884005528
 30
0.0
 11
-4.397634622743345
 21
106.6180554005527
 31
0.0
  0
ARC
  5
201
330
36
100
AcDbEntity
  8
0
 62
     3
100
AcDbCircle
 10
74.88636037725666
 20
117.3393214005527
 30
0.0
 40
20.5162
100
AcDbArc
 50
268.7007600000001
 51
321.106612
  0
ARC
  5
202
330
36
100
AcDbEntity
  8
0
 62
     3
100
AcDbCircle
 10
39.52207737725665
 20
117.6986544005528
 30
0.0
 40
20.073589
100
AcDbArc
 50
215.675752
 51
268.7007600000001
  0
ARC
  5
203
330
36
100
AcDbEntity
  8
0
 62
     3
100
AcDbCircle
 10
36.04620637725665
 20
119.9851644005527
 30
0.0
 40
16.042067
100
AcDbArc
 50
241.5995470000001
 51
295.8019740000001
  0
LINE
  5
204
330
36
100
AcDbEntity
  8
0
 62
     3
100
AcDbLine
 10
23.21569137725665
 20
105.9917884005528
 30
0.0
 11
28.41609937725665
 21
105.8738434005528
 31
0.0
  0
LINE
  5
205
330
36
100
AcDbEntity
  8
0
 62
     3
100
AcDbLine
 10
43.02871037725664
 20
105.5424304005528
 30
0.0
 11
90.85443837725666
 21
104.4577484005528
 31
0.0
  0
ARC
  5
206
330
36
100
AcDbEntity
  8
0
 62
     3
100
AcDbCircle
 10
35.02656437725665
 20
94.12203740055279
 30
0.0
 40
12.535134
100
AcDbArc
 50
59.14234799999992
 51
116.3422709999999
  0
LINE
  5
207
330
36
100
AcDbEntity
  8
0
100
AcDbLine
 10
84.15861437725665
 20
70.36805540055278
 30
0.0
 11
84.15861437725665
 21
41.61805540055278
 31
0.0
  0
LINE
  5
208
330
36
100
AcDbEntity
  8
0
 62
     3
100
AcDbLine
 10
8.658614377256652
 20
35.11805540055279
 30
0.0
 11
101.1586143772566
 21
35.11805540055279
 31
0.0
  0
ARC
  5
209
330
36
100
AcDbEntity
  8
0
 62
     3
100
AcDbCircle
 10
101.1586143772566
 20
34.11805540055279
 30
0.0
 40
1.0
100
AcDbArc
 50
0.0
 51
90.0
  0
ARC
  5
20A
330
36
100
AcDbEntity
  8
0
 62
     3
100
AcDbCircle
 10
8.658614377256652
 20
30.61805540055279
 30
0.0
 40
4.5
100
AcDbArc
 50
90.0
 51
180.0
  0
LINE
  5
20B
330
36
100
AcDbEntity
  8
0
 62
     3
100
AcDbLine
 10
102.1586143772566
 20
40.61805540055279
 30
0.0
 11
102.1586143772566
 21
34.11805540055279
 31
0.0
  0
LINE
  5
20C
330
36
100
AcDbEntity
  8
0
 62
     3
100
AcDbLine
 10
4.158614377256653
 20
37.61805540055279
 30
0.0
 11
4.158614377256653
 21
30.61805540055279
 31
0.0
  0
ARC
  5
20D
330
36
100
AcDbEntity
  8
0
 62
     3
100
AcDbCircle
 10
7.65861437725665
 20
43.0952814005528
 30
0.0
 40
1.5
100
AcDbArc
 50
275.215909
 51
0.0
  0
LINE
  5
20E
330
36
100
AcDbEntity
  8
0
100
AcDbLine
 10
11.06045637725665
 20
41.6014924005528
 30
0.0
 11
100.0749073772566
 21
41.6014924005528
 31
0.0
  0
ARC
  5
20F
330
36
100
AcDbEntity
  8
0
 62
     3
100
AcDbCircle
 10
-155.9701812745007
 20
36.61805540055279
 30
0.0
 40
5.0
100
AcDbArc
 50
90.0
 51
175.39846
  0
ARC
  5
210
330
36
100
AcDbEntity
  8
0
 62
     3
100
AcDbCircle
 10
-114.8194982745006
 20
36.61805540055279
 30
0.0
 40
5.0
100
AcDbArc
 50
4.60153999999999
 51
90.0
  0
LINE
  5
211
330
36
100
AcDbEntity
  8
0
100
AcDbLine
 10
-157.0048642745007
 20
35.11805540055279
 30
0.0
 11
-112.7309492745006
 21
35.11805540055279
 31
0.0
  0
LINE
  5
212
330
36
100
AcDbEntity
  8
0
 62
     3
100
AcDbLine
 10
84.15861437725665
 20
70.36805540055278
 30
0.0
 11
37.38164937725664
 21
70.36805540055278
 31
0.0
  0
TEXT
  5
219
330
36
100
AcDbEntity
  8
0
 62
     3
100
AcDbText
 10
126.8598958253576
 20
-54.13201927106739
 30
0.0
 40
3.2
  1
充電　時間
  7
高3.2
100
AcDbText
  0
TEXT
  5
21D
330
36
100
AcDbEntity
  8
0
 62
     3
100
AcDbText
 10
126.8598958253576
 20
5.867980728932592
 30
0.0
 40
3.2
  1
型　　　式
  7
高3.2
100
AcDbText
  0
TEXT
  5
21E
330
36
100
AcDbEntity
  8
0
 62
     3
100
AcDbText
 10
126.8598958253576
 20
-9.132019271067408
 30
0.0
 40
3.2
  1
消費　電力
  7
高3.2
100
AcDbText
  0
TEXT
  5
222
330
36
100
AcDbEntity
  8
0
 62
     3
100
AcDbText
 10
126.8598958253576
 20
-49.13201927106739
 30
0.0
 40
3.2
  1
バッテリー
  7
高3.2
100
AcDbText
  0
TEXT
  5
223
330
36
100
AcDbEntity
  8
0
 62
     3
100
AcDbText
 10
126.8598958253576
 20
-59.13201927106739
 30
0.0
 40
3.2
  1
点灯　時間
  7
高3.2
100
AcDbText
  0
TEXT
  5
228
330
36
100
AcDbEntity
  8
0
 62
     3
100
AcDbText
 10
129.7755353141859
 20
12.88778631207081
 30
0.0
 40
4.5
  1
主　　　仕　　　様（防雨型）
 41
0.833333
100
AcDbText
  0
LINE
  5
229
330
36
100
AcDbEntity
  8
0
100
AcDbLine
 10
189.8633056380103
 20
12.10815521085919
 30
0.0
 11
129.7105573937386
 21
12.10815521085919
 31
0.0
  0
LINE
  5
22B
330
36
100
AcDbEntity
  8
0
 62
     3
100
AcDbLine
 10
195.3695444294532
 20
10.36798072893259
 30
0.0
 11
195.3695444294532
 21
-74.63201927106739
 31
0.0
  0
LINE
  5
22C
330
36
100
AcDbEntity
  8
0
 62
     3
100
AcDbLine
 10
125.6439713246457
 20
10.36798072893259
 30
0.0
 11
125.6439713246457
 21
-74.63201927106739
 31
0.0
  0
LINE
  5
22D
330
36
100
AcDbEntity
  8
0
100
AcDbLine
 10
152.9507003246457
 20
-74.63201927106739
 30
0.0
 11
152.9507003246457
 21
10.36798072893259
 31
0.0
  0
TEXT
  5
22F
330
36
100
AcDbEntity
  8
0
 62
     3
100
AcDbText
 10
126.8598958253576
 20
-74.1320192710674
 30
0.0
 40
3.2
  1
本体　質量
  7
高3.2
100
AcDbText
  0
LINE
  5
234
330
36
100
AcDbEntity
  8
0
 62
     3
100
AcDbLine
 10
124.2209743772566
 20
26.32667940055279
 30
0.0
 11
125.7748673772566
 21
30.00695140055279
 31
0.0
  0
LINE
  5
235
330
36
100
AcDbEntity
  8
0
 62
     3
100
AcDbLine
 10
125.7748673772566
 20
30.00695140055279
 30
0.0
 11
127.9748673772566
 21
22.72819140055279
 31
0.0
  0
LINE
  5
236
330
36
100
AcDbEntity
  8
0
 62
     3
100
AcDbLine
 10
127.9748673772566
 20
22.72819140055279
 30
0.0
 11
130.1748673772566
 21
30.00695140055279
 31
0.0
  0
LINE
  5
237
330
36
100
AcDbEntity
  8
0
 62
     3
100
AcDbLine
 10
130.1748673772566
 20
30.00695140055279
 30
0.0
 11
132.3748673772566
 21
22.72819140055279
 31
0.0
  0
LINE
  5
238
330
36
100
AcDbEntity
  8
0
 62
     3
100
AcDbLine
 10
132.3748673772566
 20
22.72819140055279
 30
0.0
 11
134.5748673772566
 21
30.00695140055279
 31
0.0
  0
LINE
  5
239
330
36
100
AcDbEntity
  8
0
 62
     3
100
AcDbLine
 10
134.5748673772566
 20
30.00695140055279
 30
0.0
 11
136.7748673772567
 21
22.72819140055279
 31
0.0
  0
LINE
  5
23A
330
36
100
AcDbEntity
  8
0
 62
     3
100
AcDbLine
 10
136.7748673772567
 20
22.72819140055279
 30
0.0
 11
138.9748673772566
 21
26.44345340055279
 31
0.0
  0
LINE
  5
23B
330
36
100
AcDbEntity
  8
0
 62
     3
100
AcDbLine
 10
138.9748673772566
 20
26.44345340055279
 30
0.0
 11
144.4207379148808
 21
26.44345340055279
 31
0.0
  0
LINE
  5
23C
330
36
100
AcDbEntity
  8
0
 62
     3
100
AcDbLine
 10
124.2702793772566
 20
26.44345340055279
 30
0.0
 11
107.8157503772566
 21
26.44345340055279
 31
0.0
  0
TEXT
  5
23F
330
36
100
AcDbEntity
  8
0
 62
     3
100
AcDbText
 10
154.1555712758299
 20
5.867980728932592
 30
0.0
 40
3.2
  1
HIDL-35W-BA
  7
高3.2
100
AcDbText
  0
TEXT
  5
240
330
36
100
AcDbEntity
  8
0
 62
     3
100
AcDbText
 10
126.8598958253576
 20
0.8679807289326022
 30
0.0
 40
3.2
  1
入力　電圧
  7
高3.2
100
AcDbText
  0
TEXT
  5
244
330
36
100
AcDbEntity
  8
0
 62
     3
100
AcDbText
 10
154.1555712758299
 20
0.8679807289326022
 30
0.0
 40
3.2
  1
DC12V/DC24V
  7
高3.2
100
AcDbText
  0
TEXT
  5
245
330
36
100
AcDbEntity
  8
0
 62
     3
100
AcDbText
 10
154.1555712758299
 20
-9.132019271067408
 30
0.0
 40
3.2
  1
35W
  7
高3.2
100
AcDbText
  0
TEXT
  5
246
330
36
100
AcDbEntity
  8
0
 62
     3
100
AcDbText
 10
126.8598958253576
 20
-14.13201927106741
 30
0.0
 40
3.2
  1
仕様バルブ
  7
高3.2
100
AcDbText
  0
TEXT
  5
247
330
36
100
AcDbEntity
  8
0
 62
     3
100
AcDbText
 10
154.1555712758299
 20
-14.13201927106741
 30
0.0
 40
3.2
  1
H.I.Dキセノン　GE
  7
高3.2
100
AcDbText
  0
TEXT
  5
248
330
36
100
AcDbEntity
  8
0
 62
     3
100
AcDbText
 10
126.8598958253576
 20
-19.13201927106742
 30
0.0
 40
3.2
  1
照度
  7
高3.2
100
AcDbText
  0
TEXT
  5
249
330
36
100
AcDbEntity
  8
0
 62
     3
100
AcDbText
 10
154.1555712758299
 20
-49.13201927106739
 30
0.0
 40
3.2
  1
14.4V6400mAh
  7
高3.2
100
AcDbText
  0
TEXT
  5
24A
330
36
100
AcDbEntity
  8
0
 62
     3
100
AcDbText
 10
154.1555712758299
 20
-54.13201927106739
 30
0.0
 40
3.2
  1
4～6時間
  7
高3.2
100
AcDbText
  0
TEXT
  5
24B
330
36
100
AcDbEntity
  8
0
 62
     3
100
AcDbText
 10
154.1555712758299
 20
-59.13201927106739
 30
0.0
 40
3.2
  1
連続120分（満充電時）
  7
高3.2
100
AcDbText
  0
TEXT
  5
24C
330
36
100
AcDbEntity
  8
0
 62
     3
100
AcDbText
 10
126.8598958253576
 20
-64.13201927106739
 30
0.0
 40
3.2
  1
バルブ寿命
  7
高3.2
100
AcDbText
  0
TEXT
  5
24D
330
36
100
AcDbEntity
  8
0
 62
     3
100
AcDbText
 10
154.1555712758299
 20
-64.13201927106739
 30
0.0
 40
3.2
  1
2500\U+00B1500時間
  7
高3.2
100
AcDbText
  0
TEXT
  5
24E
330
36
100
AcDbEntity
  8
0
 62
     3
100
AcDbText
 10
154.1555712758299
 20
-74.1320192710674
 30
0.0
 40
3.2
  1
2.5kg
  7
高3.2
100
AcDbText
  0
LINE
  5
24F
330
36
100
AcDbEntity
  8
0
 62
     3
100
AcDbLine
 10
195.3695444294532
 20
-74.63201927106739
 30
0.0
 11
125.6439713246457
 21
-74.63201927106739
 31
0.0
  0
LINE
  5
250
330
36
100
AcDbEntity
  8
0
 62
     3
100
AcDbLine
 10
-55.34309860937643
 20
109.1180554005527
 30
0.0
 11
-55.34309860937643
 21
49.11805540055278
 31
0.0
  0
LINE
  5
251
330
36
100
AcDbEntity
  8
0
 62
     3
100
AcDbLine
 10
-60.11671660937643
 20
107.1180554005527
 30
0.0
 11
-60.11671660937643
 21
51.11805540055278
 31
0.0
  0
LINE
  5
252
330
36
100
AcDbEntity
  8
0
 62
     3
100
AcDbLine
 10
-60.11671660937643
 20
107.1180554005527
 30
0.0
 11
-55.34309860937643
 21
109.1180554005527
 31
0.0
  0
LINE
  5
253
330
36
100
AcDbEntity
  8
0
 62
     3
100
AcDbLine
 10
-60.11671660937643
 20
51.11805540055278
 30
0.0
 11
-55.34309860937643
 21
49.11805540055278
 31
0.0
  0
LINE
  5
254
330
36
100
AcDbEntity
  8
0
 62
     3
100
AcDbLine
 10
-47.06801260937642
 20
109.1180554005527
 30
0.0
 11
-47.06801260937642
 21
83.66227440055281
 31
0.0
  0
LINE
  5
255
330
36
100
AcDbEntity
  8
0
 62
     3
100
AcDbLine
 10
-55.34309860937643
 20
109.1180554005527
 30
0.0
 11
-47.06801260937642
 21
109.1180554005527
 31
0.0
  0
LINE
  5
256
330
36
100
AcDbEntity
  8
0
 62
     3
100
AcDbLine
 10
-45.63096160937642
 20
83.66227440055281
 30
0.0
 11
-45.63096160937642
 21
74.57383640055278
 31
0.0
  0
LINE
  5
257
330
36
100
AcDbEntity
  8
0
 62
     3
100
AcDbLine
 10
-47.06801260937642
 20
74.57383640055278
 30
0.0
 11
-47.06801260937642
 21
49.11805540055278
 31
0.0
  0
LINE
  5
258
330
36
100
AcDbEntity
  8
0
 62
     3
100
AcDbLine
 10
-55.34309860937643
 20
49.11805540055278
 30
0.0
 11
-47.06801260937642
 21
49.11805540055278
 31
0.0
  0
ARC
  5
259
330
36
100
AcDbEntity
  8
0
 62
     3
100
AcDbCircle
 10
-21.34138562274335
 20
109.6180554005527
 30
0.0
 40
2.0
100
AcDbArc
 50
90.0
 51
180.0
  0
ARC
  5
25A
330
36
100
AcDbEntity
  8
0
 62
     3
100
AcDbCircle
 10
-21.34138562274335
 20
48.61805540055279
 30
0.0
 40
2.0
100
AcDbArc
 50
180.0
 51
270.0
  0
LINE
  5
25B
330
36
100
AcDbEntity
  8
0
 62
     3
100
AcDbLine
 10
-82.48784553714031
 20
109.1180554005527
 30
0.0
 11
-82.48784553714031
 21
49.11805540055278
 31
0.0
  0
LINE
  5
25C
330
36
100
AcDbEntity
  8
0
 62
     3
100
AcDbLine
 10
-87.26146353714032
 20
107.1180554005527
 30
0.0
 11
-87.26146353714032
 21
51.11805540055278
 31
0.0
  0
LINE
  5
25D
330
36
100
AcDbEntity
  8
0
 62
     3
100
AcDbLine
 10
-87.26146353714032
 20
107.1180554005527
 30
0.0
 11
-82.48784553714031
 21
109.1180554005527
 31
0.0
  0
LINE
  5
25E
330
36
100
AcDbEntity
  8
0
 62
     3
100
AcDbLine
 10
-87.26146353714032
 20
51.11805540055278
 30
0.0
 11
-82.48784553714031
 21
49.11805540055278
 31
0.0
  0
LINE
  5
25F
330
36
100
AcDbEntity
  8
0
 62
     3
100
AcDbLine
 10
-74.21275953714031
 20
109.1180554005527
 30
0.0
 11
-74.21275953714031
 21
83.66227440055281
 31
0.0
  0
LINE
  5
260
330
36
100
AcDbEntity
  8
0
 62
     3
100
AcDbLine
 10
-82.48784553714031
 20
109.1180554005527
 30
0.0
 11
-74.21275953714031
 21
109.1180554005527
 31
0.0
  0
LINE
  5
261
330
36
100
AcDbEntity
  8
0
 62
     3
100
AcDbLine
 10
-72.77570853714031
 20
83.66227440055281
 30
0.0
 11
-72.77570853714031
 21
74.57383640055278
 31
0.0
  0
LINE
  5
262
330
36
100
AcDbEntity
  8
0
 62
     3
100
AcDbLine
 10
-74.21275953714031
 20
74.57383640055278
 30
0.0
 11
-74.21275953714031
 21
49.11805540055278
 31
0.0
  0
LINE
  5
263
330
36
100
AcDbEntity
  8
0
 62
     3
100
AcDbLine
 10
-82.48784553714031
 20
49.11805540055278
 30
0.0
 11
-74.21275953714031
 21
49.11805540055278
 31
0.0
  0
ARC
  5
264
330
36
100
AcDbEntity
  8
0
100
AcDbCircle
 10
-87.26146353714032
 20
79.11805540055279
 30
0.0
 40
2.306909
100
AcDbArc
 50
307.258124
 51
52.74187600000002
  0
ARC
  5
265
330
36
100
AcDbEntity
  8
0
100
AcDbCircle
 10
-87.26146353714032
 20
83.1180554005528
 30
0.0
 40
2.306909
100
AcDbArc
 50
307.258124
 51
52.74187600000002
  0
ARC
  5
266
330
36
100
AcDbEntity
  8
0
100
AcDbCircle
 10
-87.26146353714032
 20
87.11805540055278
 30
0.0
 40
2.306909
100
AcDbArc
 50
307.258124
 51
52.74187600000002
  0
ARC
  5
267
330
36
100
AcDbEntity
  8
0
100
AcDbCircle
 10
-87.26146353714032
 20
91.11805540055279
 30
0.0
 40
2.306909
100
AcDbArc
 50
307.258124
 51
52.74187600000002
  0
ARC
  5
268
330
36
100
AcDbEntity
  8
0
100
AcDbCircle
 10
-87.26146353714032
 20
95.11805540055279
 30
0.0
 40
2.306909
100
AcDbArc
 50
307.258124
 51
52.74187600000002
  0
ARC
  5
269
330
36
100
AcDbEntity
  8
0
100
AcDbCircle
 10
-87.26146353714032
 20
99.11805540055276
 30
0.0
 40
2.306909
100
AcDbArc
 50
307.258124
 51
52.74187600000002
  0
ARC
  5
26A
330
36
100
AcDbEntity
  8
0
100
AcDbCircle
 10
-87.26146353714032
 20
103.1180554005528
 30
0.0
 40
2.306909
100
AcDbArc
 50
307.258124
 51
52.74187600000002
  0
ARC
  5
26B
330
36
100
AcDbEntity
  8
0
100
AcDbCircle
 10
-87.26146353714032
 20
55.1180554005528
 30
0.0
 40
2.306909
100
AcDbArc
 50
307.258124
 51
52.74187600000002
  0
ARC
  5
26C
330
36
100
AcDbEntity
  8
0
100
AcDbCircle
 10
-87.26146353714032
 20
59.11805540055278
 30
0.0
 40
2.306909
100
AcDbArc
 50
307.258124
 51
52.74187600000002
  0
ARC
  5
26D
330
36
100
AcDbEntity
  8
0
100
AcDbCircle
 10
-87.26146353714032
 20
63.11805540055278
 30
0.0
 40
2.306909
100
AcDbArc
 50
307.258124
 51
52.74187600000002
  0
ARC
  5
26E
330
36
100
AcDbEntity
  8
0
100
AcDbCircle
 10
-87.26146353714032
 20
67.11805540055279
 30
0.0
 40
2.306909
100
AcDbArc
 50
307.258124
 51
52.74187600000002
  0
ARC
  5
26F
330
36
100
AcDbEntity
  8
0
100
AcDbCircle
 10
-87.26146353714032
 20
71.11805540055278
 30
0.0
 40
2.306909
100
AcDbArc
 50
307.258124
 51
52.74187600000002
  0
ARC
  5
270
330
36
100
AcDbEntity
  8
0
100
AcDbCircle
 10
-87.26146353714032
 20
75.11805540055279
 30
0.0
 40
2.306909
100
AcDbArc
 50
307.258124
 51
52.74187600000002
  0
LINE
  5
271
330
36
100
AcDbEntity
  8
0
100
AcDbLine
 10
-85.86484453714032
 20
104.9541614005528
 30
0.0
 11
-85.86484453714032
 21
53.28194940055277
 31
0.0
  0
LINE
  5
272
330
36
100
AcDbEntity
  8
0
 62
     3
100
AcDbLine
 10
-130.8730622745007
 20
80.6180554005528
 30
0.0
 11
-133.3296952745007
 21
80.6180554005528
 31
0.0
  0
LINE
  5
273
330
36
100
AcDbEntity
  8
0
 62
     3
100
AcDbLine
 10
-130.8730622745007
 20
77.61805540055279
 30
0.0
 11
-133.3296952745007
 21
77.61805540055279
 31
0.0
  0
LINE
  5
274
330
36
100
AcDbEntity
  8
0
 62
     3
100
AcDbLine
 10
-133.8948402745006
 20
83.6398334005528
 30
0.0
 11
-133.8948402745006
 21
81.18319940055279
 31
0.0
  0
LINE
  5
275
330
36
100
AcDbEntity
  8
0
 62
     3
100
AcDbLine
 10
-136.8948402745006
 20
83.6398334005528
 30
0.0
 11
-136.8948402745006
 21
81.18319940055279
 31
0.0
  0
ARC
  5
276
330
36
100
AcDbEntity
  8
0
 62
     3
100
AcDbCircle
 10
-130.8730622745007
 20
79.11805540055279
 30
0.0
 40
1.5
100
AcDbArc
 50
270.0
 51
90.0
  0
ARC
  5
277
330
36
100
AcDbEntity
  8
0
 62
     3
100
AcDbCircle
 10
-135.3948402745006
 20
83.6398334005528
 30
0.0
 40
1.5
100
AcDbArc
 50
0.0
 51
180.0
  0
ARC
  5
278
330
36
100
AcDbEntity
  8
0
 62
     3
100
AcDbCircle
 10
-135.3948402745006
 20
79.11805540055279
 30
0.0
 40
2.552415
100
AcDbArc
 50
35.99246100000004
 51
54.00753899999997
  0
ARC
  5
279
330
36
100
AcDbEntity
  8
0
 62
     3
100
AcDbCircle
 10
-135.3948402745006
 20
74.59627740055279
 30
0.0
 40
1.5
100
AcDbArc
 50
180.0
 51
0.0
  0
LINE
  5
27A
330
36
100
AcDbEntity
  8
0
 62
     3
100
AcDbLine
 10
-133.8948402745006
 20
74.59627740055279
 30
0.0
 11
-133.8948402745006
 21
77.0529114005528
 31
0.0
  0
LINE
  5
27B
330
36
100
AcDbEntity
  8
0
 62
     3
100
AcDbLine
 10
-136.8948402745006
 20
74.59627740055279
 30
0.0
 11
-136.8948402745006
 21
77.0529114005528
 31
0.0
  0
ARC
  5
27C
330
36
100
AcDbEntity
  8
0
 62
     3
100
AcDbCircle
 10
-139.9166182745007
 20
79.11805540055279
 30
0.0
 40
1.5
100
AcDbArc
 50
90.0
 51
270.0
  0
LINE
  5
27D
330
36
100
AcDbEntity
  8
0
 62
     3
100
AcDbLine
 10
-139.9166182745007
 20
80.6180554005528
 30
0.0
 11
-137.4599842745007
 21
80.6180554005528
 31
0.0
  0
LINE
  5
27E
330
36
100
AcDbEntity
  8
0
 62
     3
100
AcDbLine
 10
-139.9166182745007
 20
77.61805540055279
 30
0.0
 11
-137.4599842745007
 21
77.61805540055279
 31
0.0
  0
ARC
  5
27F
330
36
100
AcDbEntity
  8
0
 62
     3
100
AcDbCircle
 10
-135.3948402745006
 20
79.11805540055279
 30
0.0
 40
2.552415
100
AcDbArc
 50
125.992461
 51
144.0075389999998
  0
ARC
  5
280
330
36
100
AcDbEntity
  8
0
 62
     3
100
AcDbCircle
 10
-135.3948402745006
 20
79.11805540055279
 30
0.0
 40
2.552415
100
AcDbArc
 50
215.992461
 51
234.0075389999999
  0
ARC
  5
281
330
36
100
AcDbEntity
  8
0
 62
     3
100
AcDbCircle
 10
-135.3948402745006
 20
79.11805540055279
 30
0.0
 40
2.552415
100
AcDbArc
 50
305.9924609999999
 51
324.007539
  0
LINE
  5
282
330
36
100
AcDbEntity
  8
0
 62
     3
100
AcDbLine
 10
33.91581118083982
 20
-59.90299871106903
 30
0.0
 11
101.2511481808398
 21
-59.90299871106903
 31
0.0
  0
LINE
  5
283
330
36
100
AcDbEntity
  8
0
 62
     3
100
AcDbLine
 10
45.69674118083982
 20
-12.77098971106903
 30
0.0
 11
89.47021918083981
 21
-12.77098971106903
 31
0.0
  0
LINE
  5
284
330
36
100
AcDbEntity
  8
0
 62
     3
100
AcDbLine
 10
103.7511481808398
 20
-22.74182271106903
 30
0.0
 11
103.7511481808398
 21
-57.40299871106903
 31
0.0
  0
LINE
  5
285
330
36
100
AcDbEntity
  8
0
 62
     3
100
AcDbLine
 10
31.41581118083984
 20
-24.14182271106904
 30
0.0
 11
31.41581118083984
 21
-58.80299871106902
 31
0.0
  0
LINE
  5
286
330
36
100
AcDbEntity
  8
0
 62
     3
100
AcDbLine
 10
90.80907418083985
 20
-13.15971771106903
 30
0.0
 11
102.5900031808398
 21
-20.63055071106905
 31
0.0
  0
LINE
  5
287
330
36
100
AcDbEntity
  8
0
 62
     3
100
AcDbLine
 10
44.35788618083982
 20
-13.15971771106903
 30
0.0
 11
32.57695618083983
 21
-20.63055071106905
 31
0.0
  0
LINE
  5
288
330
36
100
AcDbEntity
  8
0
 62
     3
100
AcDbLine
 10
53.54246218083982
 20
-16.73069971106903
 30
0.0
 11
81.62449818083983
 21
-16.73069971106903
 31
0.0
  0
LINE
  5
289
330
36
100
AcDbEntity
  8
0
 62
     3
100
AcDbLine
 10
53.54246218083982
 20
-23.35544571106902
 30
0.0
 11
81.62449818083983
 21
-23.35544571106902
 31
0.0
  0
ARC
  5
28A
330
36
100
AcDbEntity
  8
0
 62
     3
100
AcDbCircle
 10
81.62449818083983
 20
-20.04307271106903
 30
0.0
 40
3.312373
100
AcDbArc
 50
270.0
 51
90.0
  0
ARC
  5
28B
330
36
100
AcDbEntity
  8
0
 62
     3
100
AcDbCircle
 10
53.54246218083982
 20
-20.04307271106903
 30
0.0
 40
3.312373
100
AcDbArc
 50
90.0
 51
270.0
  0
ARC
  5
28C
330
36
100
AcDbEntity
  8
0
 62
     3
100
AcDbCircle
 10
101.2511481808398
 20
-57.40299871106903
 30
0.0
 40
2.5
100
AcDbArc
 50
270.0
 51
0.0
  0
ARC
  5
28D
330
36
100
AcDbEntity
  8
0
 62
     3
100
AcDbCircle
 10
33.91581118083982
 20
-57.40299871106903
 30
0.0
 40
2.5
100
AcDbArc
 50
180.0
 51
270.0
  0
ARC
  5
28E
330
36
100
AcDbEntity
  8
0
 62
     3
100
AcDbCircle
 10
33.91581118083982
 20
-22.74182271106903
 30
0.0
 40
2.5
100
AcDbArc
 50
122.380678
 51
180.0
  0
ARC
  5
28F
330
36
100
AcDbEntity
  8
0
 62
     3
100
AcDbCircle
 10
101.2511481808398
 20
-22.74182271106903
 30
0.0
 40
2.5
100
AcDbArc
 50
0.0
 51
57.61932200000002
  0
ARC
  5
290
330
36
100
AcDbEntity
  8
0
 62
     3
100
AcDbCircle
 10
89.47021918083981
 20
-15.27098971106903
 30
0.0
 40
2.5
100
AcDbArc
 50
57.61932200000002
 51
90.0
  0
ARC
  5
291
330
36
100
AcDbEntity
  8
0
 62
     3
100
AcDbCircle
 10
45.69674118083982
 20
-15.27098971106903
 30
0.0
 40
2.5
100
AcDbArc
 50
90.0
 51
122.380678
  0
CIRCLE
  5
298
330
36
100
AcDbEntity
  8
0
100
AcDbCircle
 10
-117.4085052745006
 20
125.2936567896572
 30
0.0
 40
5.0
  0
TEXT
  5
299
330
36
100
AcDbEntity
  8
0
 62
     4
100
AcDbText
 10
-118.5371428693431
 20
122.5065815549989
 30
0.0
 40
6.299999999999998
  1
1
  7
高6.3
100
AcDbText
  0
CIRCLE
  5
2A0
330
36
100
AcDbEntity
  8
0
100
AcDbCircle
 10
-84.7214225371403
 20
125.2936567896572
 30
0.0
 40
5.0
  0
TEXT
  5
2A1
330
36
100
AcDbEntity
  8
0
 62
     4
100
AcDbText
 10
-86.76192279453017
 20
122.1589996269312
 30
0.0
 40
6.299999999999998
  1
2
  7
高6.3
100
AcDbText
  0
CIRCLE
  5
2A8
330
36
100
AcDbEntity
  8
0
100
AcDbCircle
 10
-57.57667560937642
 20
125.2936567896572
 30
0.0
 40
5.0
  0
TEXT
  5
2A9
330
36
100
AcDbEntity
  8
0
 62
     4
100
AcDbText
 10
-59.54699145714221
 20
122.0357360581326
 30
0.0
 40
6.299999999999998
  1
3
  7
高6.3
100
AcDbText
  0
CIRCLE
  5
2B8
330
36
100
AcDbEntity
  8
0
100
AcDbCircle
 10
40.21932837725666
 20
132.1319094005528
 30
0.0
 40
5.0
  0
TEXT
  5
2B9
330
36
100
AcDbEntity
  8
0
 62
     4
100
AcDbText
 10
37.89655149567555
 20
129.0713767790538
 30
0.0
 40
6.299999999999998
  1
4
  7
高6.3
100
AcDbText
  0
CIRCLE
  5
2C0
330
36
100
AcDbEntity
  8
0
100
AcDbCircle
 10
137.4271253772565
 20
92.08923840055279
 30
0.0
 40
5.0
  0
TEXT
  5
2C1
330
36
100
AcDbEntity
  8
0
 62
     4
100
AcDbText
 10
135.4103223775793
 20
88.74892794621095
 30
0.0
 40
6.299999999999998
  1
5
  7
高6.3
100
AcDbText
  0
CIRCLE
  5
2C8
330
36
100
AcDbEntity
  8
0
100
AcDbCircle
 10
137.4271253772565
 20
73.58558240055278
 30
0.0
 40
5.0
  0
TEXT
  5
2C9
330
36
100
AcDbEntity
  8
0
 62
     4
100
AcDbText
 10
135.4492294699627
 20
70.51325718504243
 30
0.0
 40
6.299999999999998
  1
6
  7
高6.3
100
AcDbText
  0
CIRCLE
  5
2D0
330
36
100
AcDbEntity
  8
0
100
AcDbCircle
 10
137.4271253772565
 20
41.13185740055278
 30
0.0
 40
5.0
  0
TEXT
  5
2D1
330
36
100
AcDbEntity
  8
0
 62
     4
100
AcDbText
 10
135.6037412248537
 20
37.58776924458017
 30
0.0
 40
6.299999999999998
  1
7
  7
高6.3
100
AcDbText
  0
CIRCLE
  5
2D8
330
36
100
AcDbEntity
  8
0
100
AcDbCircle
 10
21.26673106314342
 20
-7.425456776611093
 30
0.0
 40
5.0
  0
TEXT
  5
2D9
330
36
100
AcDbEntity
  8
0
 62
     4
100
AcDbText
 10
19.14359947564413
 20
-10.20879804713641
 30
0.0
 40
6.299999999999998
  1
8
  7
高6.3
100
AcDbText
  0
LINE
  5
2DF
330
36
100
AcDbEntity
  8
0
100
AcDbLine
 10
35.87948337725665
 20
106.6281204005528
 30
0.0
 11
39.73156137725664
 21
113.6572194005527
 31
0.0
  0
LINE
  5
2E0
330
36
100
AcDbEntity
  8
0
100
AcDbLine
 10
39.73156137725664
 20
113.6572194005527
 30
0.0
 11
56.23156137725665
 21
113.6572194005527
 31
0.0
  0
TEXT
  5
2E1
330
36
100
AcDbEntity
  8
0
 62
     4
100
AcDbText
 10
42.48156137725664
 20
114.6572194005527
 30
0.0
 40
3.2
  1
スイッチ
 41
0.716146
100
AcDbText
  0
TEXT
  5
2E2
330
36
100
AcDbEntity
  8
0
 62
     3
100
AcDbText
 10
90.513954
 20
-99.66475199999999
 30
0.0
 40
2.0
  1
CONPONENTS
 41
0.5331600000000001
100
AcDbText
  0
TEXT
  5
2E3
330
36
100
AcDbEntity
  8
0
 62
     3
100
AcDbText
 10
90.164228
 20
-118.596928
 30
0.0
 40
3.0
  1
材
 41
0.833333
100
AcDbText
  0
TEXT
  5
2E4
330
36
100
AcDbEntity
  8
0
 62
     3
100
AcDbText
 10
97.69987
 20
-118.596928
 30
0.0
 40
3.0
  1
質
 41
0.833333
100
AcDbText
  0
TEXT
  5
2E5
330
36
100
AcDbEntity
  8
0
 62
     3
100
AcDbText
 10
90.25229799999999
 20
-107.972404
 30
0.0
 40
2.0
  1
MODEL
 41
1.031072999999999
100
AcDbText
  0
TEXT
  5
2E6
330
36
100
AcDbEntity
  8
0
 62
     3
100
AcDbText
 10
90.164228
 20
-114.91462
 30
0.0
 40
2.0
  1
MATERIAL
 41
0.659278
100
AcDbText
  0
TEXT
  5
2E7
330
36
100
AcDbEntity
  8
0
 62
     3
100
AcDbText
 10
121.471508
 20
-118.596928
 30
0.0
 40
3.0
  1
備
 41
0.833333
100
AcDbText
  0
TEXT
  5
2E8
330
36
100
AcDbEntity
  8
0
 62
     3
100
AcDbText
 10
128.20451
 20
-118.596928
 30
0.0
 40
3.0
  1
考
 41
0.833333
100
AcDbText
  0
TEXT
  5
2E9
330
36
100
AcDbEntity
  8
0
 62
     3
100
AcDbText
 10
121.8250823571179
 20
-114.91462
 30
0.0
 40
2.0
  1
REMARKS
 41
0.675794
100
AcDbText
  0
TEXT
  5
2EA
330
36
100
AcDbEntity
  8
0
 62
     3
100
AcDbText
 10
91.75395700000001
 20
-121.834741
 30
0.0
 40
2.0
  1
3AD
 41
1.42614
100
AcDbText
  0
TEXT
  5
2EB
330
36
100
AcDbEntity
  8
0
 62
     3
100
AcDbText
 10
101.064937
 20
-121.669007
 30
0.0
 40
2.0
  1
ANGLE
 41
1.669883999999995
100
AcDbText
  0
TEXT
  5
2EC
330
36
100
AcDbEntity
  8
0
 62
     3
100
AcDbText
 10
121.998824
 20
-122.045848
 30
0.0
 40
2.0
  1
SCALE
 41
0.7719630000000001
100
AcDbText
  0
TEXT
  5
2ED
330
36
100
AcDbEntity
  8
0
 62
     3
100
AcDbText
 10
91.440087
 20
-125.834277
 30
0.0
 40
3.0
  1
第
 41
0.833333
100
AcDbText
  0
TEXT
  5
2EE
330
36
100
AcDbEntity
  8
0
 62
     3
100
AcDbText
 10
99.22693700000001
 20
-125.834277
 30
0.0
 40
3.0
  1
三
 41
0.833333
100
AcDbText
  0
TEXT
  5
2EF
330
36
100
AcDbEntity
  8
0
 62
     3
100
AcDbText
 10
107.013787
 20
-125.834277
 30
0.0
 40
3.0
  1
角
 41
0.833333
100
AcDbText
  0
TEXT
  5
2F0
330
36
100
AcDbEntity
  8
0
 62
     3
100
AcDbText
 10
114.800637
 20
-125.834277
 30
0.0
 40
3.0
  1
法
 41
0.833333
100
AcDbText
  0
TEXT
  5
2F1
330
36
100
AcDbEntity
  8
0
 62
     3
100
AcDbText
 10
121.862029
 20
-125.545848
 30
0.0
 40
3.0
  1
尺
 41
0.833333
100
AcDbText
  0
TEXT
  5
2F2
330
36
100
AcDbEntity
  8
0
 62
     3
100
AcDbText
 10
128.59503
 20
-125.545848
 30
0.0
 40
3.0
  1
度
 41
0.833333
100
AcDbText
  0
TEXT
  5
2F3
330
36
100
AcDbEntity
  8
0
 62
     3
100
AcDbText
 10
151.178301
 20
-103.376549
 30
0.0
 40
3.0
  1
承認
 41
1.089472999999999
100
AcDbText
  0
TEXT
  5
2F4
330
36
100
AcDbEntity
  8
0
 62
     3
100
AcDbText
 10
164.421181
 20
-103.434277
 30
0.0
 40
3.0
  1
検図
 41
0.931761
100
AcDbText
  0
TEXT
  5
2F5
330
36
100
AcDbEntity
  8
0
 62
     3
100
AcDbText
 10
177.421578
 20
-103.434277
 30
0.0
 40
3.0
  1
設
 41
0.833333
100
AcDbText
  0
TEXT
  5
2F6
330
36
100
AcDbEntity
  8
0
 62
     3
100
AcDbText
 10
181.9114459999999
 20
-103.434277
 30
0.0
 40
3.0
  1
計
 41
0.833333
100
AcDbText
  0
TEXT
  5
2F7
330
36
100
AcDbEntity
  8
0
 62
     3
100
AcDbText
 10
90.584061
 20
-103.261725
 30
0.0
 40
3.0
  1
品
 41
0.833333
100
AcDbText
  0
TEXT
  5
2F8
330
36
100
AcDbEntity
  8
0
 62
     3
100
AcDbText
 10
98.119703
 20
-103.261725
 30
0.0
 40
3.0
  1
名
 41
0.833333
100
AcDbText
  0
TEXT
  5
2F9
330
36
100
AcDbEntity
  8
0
 62
     3
100
AcDbText
 10
90.25229799999999
 20
-111.5534651309982
 30
0.0
 40
3.0
  1
型
 41
0.833333
100
AcDbText
  0
TEXT
  5
2FA
330
36
100
AcDbEntity
  8
0
 62
     3
100
AcDbText
 10
97.800389
 20
-111.5534651309982
 30
0.0
 40
3.0
  1
式
 41
0.833333
100
AcDbText
  0
LINE
  5
302
330
36
100
AcDbEntity
  8
0
100
AcDbLine
 10
99.26078137725664
 20
29.03439740055279
 30
0.0
 11
75.57260337725665
 21
29.03439740055279
 31
0.0
  0
LINE
  5
303
330
36
100
AcDbEntity
  8
0
100
AcDbLine
 10
99.26078137725664
 20
27.7590594005528
 30
0.0
 11
75.57260337725665
 21
27.7590594005528
 31
0.0
  0
ARC
  5
304
330
36
100
AcDbEntity
  8
0
100
AcDbCircle
 10
99.26078137725664
 20
28.39672840055279
 30
0.0
 40
0.6376689999999999
100
AcDbArc
 50
270.0
 51
90.0
  0
ARC
  5
305
330
36
100
AcDbEntity
  8
0
100
AcDbCircle
 10
75.57260337725665
 20
28.39672840055279
 30
0.0
 40
0.6376689999999999
100
AcDbArc
 50
90.0
 51
270.0
  0
LINE
  5
306
330
36
100
AcDbEntity
  8
0
100
AcDbLine
 10
99.26078137725664
 20
26.5343974005528
 30
0.0
 11
75.57260337725665
 21
26.5343974005528
 31
0.0
  0
LINE
  5
307
330
36
100
AcDbEntity
  8
0
100
AcDbLine
 10
99.26078137725664
 20
25.25905940055279
 30
0.0
 11
75.57260337725665
 21
25.25905940055279
 31
0.0
  0
ARC
  5
308
330
36
100
AcDbEntity
  8
0
100
AcDbCircle
 10
99.26078137725664
 20
25.89672840055279
 30
0.0
 40
0.6376689999999999
100
AcDbArc
 50
270.0
 51
90.0
  0
ARC
  5
309
330
36
100
AcDbEntity
  8
0
100
AcDbCircle
 10
75.57260337725665
 20
25.89672840055279
 30
0.0
 40
0.6376689999999999
100
AcDbArc
 50
90.0
 51
270.0
  0
LINE
  5
30A
330
36
100
AcDbEntity
  8
0
100
AcDbLine
 10
99.26078137725664
 20
24.03439740055278
 30
0.0
 11
75.57260337725665
 21
24.03439740055278
 31
0.0
  0
LINE
  5
30B
330
36
100
AcDbEntity
  8
0
100
AcDbLine
 10
99.26078137725664
 20
22.75905940055279
 30
0.0
 11
75.57260337725665
 21
22.75905940055279
 31
0.0
  0
ARC
  5
30C
330
36
100
AcDbEntity
  8
0
100
AcDbCircle
 10
99.26078137725664
 20
23.39672840055278
 30
0.0
 40
0.6376689999999999
100
AcDbArc
 50
270.0
 51
90.0
  0
ARC
  5
30D
330
36
100
AcDbEntity
  8
0
100
AcDbCircle
 10
75.57260337725665
 20
23.39672840055278
 30
0.0
 40
0.6376689999999999
100
AcDbArc
 50
90.0
 51
270.0
  0
LINE
  5
30E
330
36
100
AcDbEntity
  8
0
100
AcDbLine
 10
99.26078137725664
 20
31.53439740055279
 30
0.0
 11
75.57260337725665
 21
31.53439740055279
 31
0.0
  0
LINE
  5
30F
330
36
100
AcDbEntity
  8
0
100
AcDbLine
 10
99.26078137725664
 20
30.2590594005528
 30
0.0
 11
75.57260337725665
 21
30.2590594005528
 31
0.0
  0
ARC
  5
310
330
36
100
AcDbEntity
  8
0
100
AcDbCircle
 10
99.26078137725664
 20
30.89672840055279
 30
0.0
 40
0.6376689999999999
100
AcDbArc
 50
270.0
 51
90.0
  0
ARC
  5
311
330
36
100
AcDbEntity
  8
0
100
AcDbCircle
 10
75.57260337725665
 20
30.89672840055279
 30
0.0
 40
0.6376689999999999
100
AcDbArc
 50
90.0
 51
270.0
  0
LINE
  5
312
330
36
100
AcDbEntity
  8
0
100
AcDbLine
 10
7.056446377256655
 20
29.03439740055279
 30
0.0
 11
30.74462437725666
 21
29.03439740055279
 31
0.0
  0
LINE
  5
313
330
36
100
AcDbEntity
  8
0
100
AcDbLine
 10
7.056446377256655
 20
27.7590594005528
 30
0.0
 11
30.74462437725666
 21
27.7590594005528
 31
0.0
  0
ARC
  5
314
330
36
100
AcDbEntity
  8
0
100
AcDbCircle
 10
7.056446377256655
 20
28.39672840055279
 30
0.0
 40
0.6376689999999999
100
AcDbArc
 50
90.0
 51
270.0
  0
ARC
  5
315
330
36
100
AcDbEntity
  8
0
100
AcDbCircle
 10
30.74462437725666
 20
28.39672840055279
 30
0.0
 40
0.6376689999999999
100
AcDbArc
 50
270.0
 51
90.0
  0
LINE
  5
316
330
36
100
AcDbEntity
  8
0
100
AcDbLine
 10
7.056446377256655
 20
26.5343974005528
 30
0.0
 11
30.74462437725666
 21
26.5343974005528
 31
0.0
  0
LINE
  5
317
330
36
100
AcDbEntity
  8
0
100
AcDbLine
 10
7.056446377256655
 20
25.25905940055279
 30
0.0
 11
30.74462437725666
 21
25.25905940055279
 31
0.0
  0
ARC
  5
318
330
36
100
AcDbEntity
  8
0
100
AcDbCircle
 10
7.056446377256655
 20
25.89672840055279
 30
0.0
 40
0.6376689999999999
100
AcDbArc
 50
90.0
 51
270.0
  0
ARC
  5
319
330
36
100
AcDbEntity
  8
0
100
AcDbCircle
 10
30.74462437725666
 20
25.89672840055279
 30
0.0
 40
0.6376689999999999
100
AcDbArc
 50
270.0
 51
90.0
  0
LINE
  5
31A
330
36
100
AcDbEntity
  8
0
100
AcDbLine
 10
7.056446377256655
 20
24.03439740055278
 30
0.0
 11
30.74462437725666
 21
24.03439740055278
 31
0.0
  0
LINE
  5
31B
330
36
100
AcDbEntity
  8
0
100
AcDbLine
 10
7.056446377256655
 20
22.75905940055279
 30
0.0
 11
30.74462437725666
 21
22.75905940055279
 31
0.0
  0
ARC
  5
31C
330
36
100
AcDbEntity
  8
0
100
AcDbCircle
 10
7.056446377256655
 20
23.39672840055278
 30
0.0
 40
0.6376689999999999
100
AcDbArc
 50
90.0
 51
270.0
  0
ARC
  5
31D
330
36
100
AcDbEntity
  8
0
100
AcDbCircle
 10
30.74462437725666
 20
23.39672840055278
 30
0.0
 40
0.6376689999999999
100
AcDbArc
 50
270.0
 51
90.0
  0
LINE
  5
31E
330
36
100
AcDbEntity
  8
0
100
AcDbLine
 10
7.056446377256655
 20
31.53439740055279
 30
0.0
 11
30.74462437725666
 21
31.53439740055279
 31
0.0
  0
LINE
  5
31F
330
36
100
AcDbEntity
  8
0
100
AcDbLine
 10
7.056446377256655
 20
30.2590594005528
 30
0.0
 11
30.74462437725666
 21
30.2590594005528
 31
0.0
  0
ARC
  5
320
330
36
100
AcDbEntity
  8
0
100
AcDbCircle
 10
7.056446377256655
 20
30.89672840055279
 30
0.0
 40
0.6376689999999999
100
AcDbArc
 50
90.0
 51
270.0
  0
ARC
  5
321
330
36
100
AcDbEntity
  8
0
100
AcDbCircle
 10
30.74462437725666
 20
30.89672840055279
 30
0.0
 40
0.6376689999999999
100
AcDbArc
 50
270.0
 51
90.0
  0
LINE
  5
322
330
36
100
AcDbEntity
  8
0
100
AcDbLine
 10
77.01322237725666
 20
61.91197340055278
 30
0.0
 11
77.01322237725666
 21
47.00983440055277
 31
0.0
  0
LINE
  5
323
330
36
100
AcDbEntity
  8
0
100
AcDbLine
 10
73.59217137725664
 20
61.91197340055278
 30
0.0
 11
73.59217137725664
 21
47.00983440055277
 31
0.0
  0
ARC
  5
324
330
36
100
AcDbEntity
  8
0
100
AcDbCircle
 10
75.30269637725666
 20
47.00983440055277
 30
0.0
 40
1.710525
100
AcDbArc
 50
180.0
 51
0.0
  0
ARC
  5
325
330
36
100
AcDbEntity
  8
0
100
AcDbCircle
 10
75.30269637725666
 20
61.91197340055278
 30
0.0
 40
1.710525
100
AcDbArc
 50
0.0
 51
180.0
  0
LINE
  5
326
330
36
100
AcDbEntity
  8
0
100
AcDbLine
 10
68.21262237725665
 20
61.91197340055278
 30
0.0
 11
68.21262237725665
 21
47.00983440055277
 31
0.0
  0
LINE
  5
327
330
36
100
AcDbEntity
  8
0
100
AcDbLine
 10
71.63367337725666
 20
61.91197340055278
 30
0.0
 11
71.63367337725666
 21
47.00983440055277
 31
0.0
  0
ARC
  5
328
330
36
100
AcDbEntity
  8
0
100
AcDbCircle
 10
69.92314837725665
 20
47.00983440055277
 30
0.0
 40
1.710525
100
AcDbArc
 50
180.0
 51
0.0
  0
ARC
  5
329
330
36
100
AcDbEntity
  8
0
100
AcDbCircle
 10
69.92314837725665
 20
61.91197340055278
 30
0.0
 40
1.710525
100
AcDbArc
 50
0.0
 51
180.0
  0
LINE
  5
32A
330
36
100
AcDbEntity
  8
0
100
AcDbLine
 10
62.83307437725664
 20
61.91197340055278
 30
0.0
 11
62.83307437725664
 21
47.00983440055277
 31
0.0
  0
LINE
  5
32B
330
36
100
AcDbEntity
  8
0
100
AcDbLine
 10
66.25412437725666
 20
61.91197340055278
 30
0.0
 11
66.25412437725666
 21
47.00983440055277
 31
0.0
  0
ARC
  5
32C
330
36
100
AcDbEntity
  8
0
100
AcDbCircle
 10
64.54359937725666
 20
47.00983440055277
 30
0.0
 40
1.710525
100
AcDbArc
 50
180.0
 51
0.0
  0
ARC
  5
32D
330
36
100
AcDbEntity
  8
0
100
AcDbCircle
 10
64.54359937725666
 20
61.91197340055278
 30
0.0
 40
1.710525
100
AcDbArc
 50
0.0
 51
180.0
  0
LINE
  5
32E
330
36
100
AcDbEntity
  8
0
100
AcDbLine
 10
29.36342337725664
 20
61.91197340055278
 30
0.0
 11
29.36342337725664
 21
47.00983440055277
 31
0.0
  0
LINE
  5
32F
330
36
100
AcDbEntity
  8
0
100
AcDbLine
 10
25.94237237725665
 20
61.91197340055278
 30
0.0
 11
25.94237237725665
 21
47.00983440055277
 31
0.0
  0
ARC
  5
330
330
36
100
AcDbEntity
  8
0
100
AcDbCircle
 10
27.65289737725665
 20
47.00983440055277
 30
0.0
 40
1.710525
100
AcDbArc
 50
180.0
 51
0.0
  0
ARC
  5
331
330
36
100
AcDbEntity
  8
0
100
AcDbCircle
 10
27.65289737725665
 20
61.91197340055278
 30
0.0
 40
1.710525
100
AcDbArc
 50
0.0
 51
180.0
  0
LINE
  5
332
330
36
100
AcDbEntity
  8
0
100
AcDbLine
 10
20.56282337725663
 20
61.91197340055278
 30
0.0
 11
20.56282337725663
 21
47.00983440055277
 31
0.0
  0
LINE
  5
333
330
36
100
AcDbEntity
  8
0
100
AcDbLine
 10
23.98387437725665
 20
61.91197340055278
 30
0.0
 11
23.98387437725665
 21
47.00983440055277
 31
0.0
  0
ARC
  5
334
330
36
100
AcDbEntity
  8
0
100
AcDbCircle
 10
22.27334937725665
 20
47.00983440055277
 30
0.0
 40
1.710525
100
AcDbArc
 50
180.0
 51
0.0
  0
ARC
  5
335
330
36
100
AcDbEntity
  8
0
100
AcDbCircle
 10
22.27334937725665
 20
61.91197340055278
 30
0.0
 40
1.710525
100
AcDbArc
 50
0.0
 51
180.0
  0
LINE
  5
336
330
36
100
AcDbEntity
  8
0
100
AcDbLine
 10
15.18327537725665
 20
61.91197340055278
 30
0.0
 11
15.18327537725665
 21
47.00983440055277
 31
0.0
  0
LINE
  5
337
330
36
100
AcDbEntity
  8
0
100
AcDbLine
 10
18.60432537725666
 20
61.91197340055278
 30
0.0
 11
18.60432537725666
 21
47.00983440055277
 31
0.0
  0
ARC
  5
338
330
36
100
AcDbEntity
  8
0
100
AcDbCircle
 10
16.89380037725665
 20
47.00983440055277
 30
0.0
 40
1.710525
100
AcDbArc
 50
180.0
 51
0.0
  0
ARC
  5
339
330
36
100
AcDbEntity
  8
0
100
AcDbCircle
 10
16.89380037725665
 20
61.91197340055278
 30
0.0
 40
1.710525
100
AcDbArc
 50
0.0
 51
180.0
  0
LINE
  5
33A
330
36
100
AcDbEntity
  8
0
100
AcDbLine
 10
110.9507733772566
 20
55.61805540055278
 30
0.0
 11
117.6586143772566
 21
55.61805540055278
 31
0.0
  0
LINE
  5
33B
330
36
100
AcDbEntity
  8
0
100
AcDbLine
 10
110.9507733772566
 20
52.6180554005528
 30
0.0
 11
117.6586143772566
 21
52.6180554005528
 31
0.0
  0
ARC
  5
33C
330
36
100
AcDbEntity
  8
0
100
AcDbCircle
 10
110.9507733772566
 20
54.11805540055278
 30
0.0
 40
1.5
100
AcDbArc
 50
90.0
 51
270.0
  0
LINE
  5
33D
330
36
100
AcDbEntity
  8
0
100
AcDbLine
 10
110.9507733772566
 20
63.11805540055278
 30
0.0
 11
117.6586143772566
 21
63.11805540055278
 31
0.0
  0
ARC
  5
33E
330
36
100
AcDbEntity
  8
0
100
AcDbCircle
 10
110.9507733772566
 20
61.61805540055278
 30
0.0
 40
1.5
100
AcDbArc
 50
90.0
 51
270.0
  0
LINE
  5
33F
330
36
100
AcDbEntity
  8
0
100
AcDbLine
 10
110.9507733772566
 20
60.1180554005528
 30
0.0
 11
117.6586143772566
 21
60.1180554005528
 31
0.0
  0
LINE
  5
340
330
36
100
AcDbEntity
  8
0
100
AcDbLine
 10
110.9507733772566
 20
70.61805540055278
 30
0.0
 11
117.6586143772566
 21
70.61805540055278
 31
0.0
  0
LINE
  5
341
330
36
100
AcDbEntity
  8
0
100
AcDbLine
 10
110.9507733772566
 20
67.61805540055282
 30
0.0
 11
117.6586143772566
 21
67.61805540055282
 31
0.0
  0
LINE
  5
342
330
36
100
AcDbEntity
  8
0
100
AcDbLine
 10
110.9507733772566
 20
45.1180554005528
 30
0.0
 11
117.6586143772566
 21
45.1180554005528
 31
0.0
  0
ARC
  5
343
330
36
100
AcDbEntity
  8
0
100
AcDbCircle
 10
110.9507733772566
 20
46.61805540055278
 30
0.0
 40
1.5
100
AcDbArc
 50
90.0
 51
270.0
  0
LINE
  5
344
330
36
100
AcDbEntity
  8
0
100
AcDbLine
 10
110.9507733772566
 20
48.11805540055278
 30
0.0
 11
117.6586143772566
 21
48.11805540055278
 31
0.0
  0
LINE
  5
345
330
36
100
AcDbEntity
  8
0
100
AcDbLine
 10
110.9507733772566
 20
37.61805540055279
 30
0.0
 11
117.6586143772566
 21
37.61805540055279
 31
0.0
  0
ARC
  5
346
330
36
100
AcDbEntity
  8
0
100
AcDbCircle
 10
110.9507733772566
 20
39.11805540055279
 30
0.0
 40
1.5
100
AcDbArc
 50
90.0
 51
270.0
  0
LINE
  5
347
330
36
100
AcDbEntity
  8
0
100
AcDbLine
 10
110.9507733772566
 20
40.61805540055279
 30
0.0
 11
117.6586143772566
 21
40.61805540055279
 31
0.0
  0
ARC
  5
348
330
36
100
AcDbEntity
  8
0
100
AcDbCircle
 10
110.9507733772566
 20
69.11805540055278
 30
0.0
 40
1.5
100
AcDbArc
 50
90.0
 51
270.0
  0
ARC
  5
349
330
36
100
AcDbEntity
  8
0
100
AcDbCircle
 10
117.6586143772566
 20
69.11805540055278
 30
0.0
 40
1.5
100
AcDbArc
 50
270.0
 51
90.0
  0
ARC
  5
34A
330
36
100
AcDbEntity
  8
0
100
AcDbCircle
 10
117.6586143772566
 20
61.61805540055278
 30
0.0
 40
1.5
100
AcDbArc
 50
270.0
 51
90.0
  0
ARC
  5
34B
330
36
100
AcDbEntity
  8
0
100
AcDbCircle
 10
117.6586143772566
 20
54.11805540055278
 30
0.0
 40
1.5
100
AcDbArc
 50
270.0
 51
90.0
  0
ARC
  5
34C
330
36
100
AcDbEntity
  8
0
100
AcDbCircle
 10
117.6586143772566
 20
46.61805540055278
 30
0.0
 40
1.5
100
AcDbArc
 50
270.0
 51
90.0
  0
ARC
  5
34D
330
36
100
AcDbEntity
  8
0
100
AcDbCircle
 10
117.6586143772566
 20
39.11805540055279
 30
0.0
 40
1.5
100
AcDbArc
 50
270.0
 51
90.0
  0
LINE
  5
34E
330
36
100
AcDbEntity
  8
0
100
AcDbLine
 10
98.30594237725666
 20
86.53541740055279
 30
0.0
 11
104.1176573772566
 21
86.53541740055279
 31
0.0
  0
LINE
  5
34F
330
36
100
AcDbEntity
  8
0
100
AcDbLine
 10
98.30594237725666
 20
84.82759940055283
 30
0.0
 11
104.1176573772566
 21
84.82759940055283
 31
0.0
  0
LINE
  5
350
330
36
100
AcDbEntity
  8
0
100
AcDbLine
 10
97.47574837725666
 20
88.57759940055283
 30
0.0
 11
104.0831973772566
 21
88.57759940055283
 31
0.0
  0
LINE
  5
351
330
36
100
AcDbEntity
  8
0
100
AcDbLine
 10
97.47574837725666
 20
90.28541740055279
 30
0.0
 11
104.0831973772566
 21
90.28541740055279
 31
0.0
  0
LINE
  5
352
330
36
100
AcDbEntity
  8
0
100
AcDbLine
 10
98.32783837725664
 20
81.07759940055281
 30
0.0
 11
104.1176573772566
 21
81.07759940055281
 31
0.0
  0
LINE
  5
353
330
36
100
AcDbEntity
  8
0
100
AcDbLine
 10
98.32783837725664
 20
82.78541740055278
 30
0.0
 11
104.1176573772566
 21
82.78541740055278
 31
0.0
  0
LINE
  5
354
330
36
100
AcDbEntity
  8
0
100
AcDbLine
 10
97.92255237725663
 20
77.32759940055281
 30
0.0
 11
104.1176573772566
 21
77.32759940055281
 31
0.0
  0
LINE
  5
355
330
36
100
AcDbEntity
  8
0
100
AcDbLine
 10
97.92255237725663
 20
79.03541740055278
 30
0.0
 11
104.1176573772566
 21
79.03541740055278
 31
0.0
  0
LINE
  5
356
330
36
100
AcDbEntity
  8
0
100
AcDbLine
 10
96.16722137725666
 20
73.57759940055281
 30
0.0
 11
104.1176573772566
 21
73.57759940055281
 31
0.0
  0
LINE
  5
357
330
36
100
AcDbEntity
  8
0
100
AcDbLine
 10
96.16722137725666
 20
75.28541740055278
 30
0.0
 11
104.1176573772566
 21
75.28541740055278
 31
0.0
  0
ARC
  5
358
330
36
100
AcDbEntity
  8
0
100
AcDbCircle
 10
104.0831973772566
 20
89.43150840055277
 30
0.0
 40
0.8539089999999999
100
AcDbArc
 50
270.0
 51
90.0
  0
ARC
  5
359
330
36
100
AcDbEntity
  8
0
100
AcDbCircle
 10
104.1176573772566
 20
85.68150840055277
 30
0.0
 40
0.8539089999999999
100
AcDbArc
 50
270.0
 51
90.0
  0
ARC
  5
35A
330
36
100
AcDbEntity
  8
0
100
AcDbCircle
 10
104.1176573772566
 20
81.93150840055279
 30
0.0
 40
0.8539089999999999
100
AcDbArc
 50
270.0
 51
90.0
  0
ARC
  5
35B
330
36
100
AcDbEntity
  8
0
100
AcDbCircle
 10
104.1176573772566
 20
78.18150840055277
 30
0.0
 40
0.8539089999999999
100
AcDbArc
 50
270.0
 51
90.0
  0
ARC
  5
35C
330
36
100
AcDbEntity
  8
0
100
AcDbCircle
 10
104.1176573772566
 20
74.43150840055277
 30
0.0
 40
0.8539089999999999
100
AcDbArc
 50
270.0
 51
90.0
  0
ARC
  5
35D
330
36
100
AcDbEntity
  8
0
100
AcDbCircle
 10
97.92255237725663
 20
78.18150840055277
 30
0.0
 40
0.8539089999999999
100
AcDbArc
 50
90.0
 51
270.0
  0
ARC
  5
35E
330
36
100
AcDbEntity
  8
0
100
AcDbCircle
 10
98.32783837725664
 20
81.93150840055279
 30
0.0
 40
0.8539089999999999
100
AcDbArc
 50
90.0
 51
270.0
  0
ARC
  5
35F
330
36
100
AcDbEntity
  8
0
100
AcDbCircle
 10
98.30594237725666
 20
85.68150840055277
 30
0.0
 40
0.8539089999999999
100
AcDbArc
 50
90.0
 51
270.0
  0
ARC
  5
360
330
36
100
AcDbEntity
  8
0
100
AcDbCircle
 10
97.47574837725666
 20
89.43150840055277
 30
0.0
 40
0.8539089999999999
100
AcDbArc
 50
90.0
 51
270.0
  0
ARC
  5
361
330
36
100
AcDbEntity
  8
0
100
AcDbCircle
 10
96.16722137725666
 20
74.43150840055277
 30
0.0
 40
0.8539089999999999
100
AcDbArc
 50
90.0
 51
270.0
  0
LINE
  5
362
330
36
100
AcDbEntity
  8
0
100
AcDbLine
 10
-19.50625762274334
 20
80.39915240055279
 30
0.0
 11
-8.119138622743346
 21
79.92861040055281
 31
0.0
  0
LINE
  5
363
330
36
100
AcDbEntity
  8
0
100
AcDbLine
 10
-19.50625762274334
 20
77.8369584005528
 30
0.0
 11
-8.119138622743346
 21
78.30750040055278
 31
0.0
  0
ARC
  5
364
330
36
100
AcDbEntity
  8
0
100
AcDbCircle
 10
-19.55919562274335
 20
79.11805540055279
 30
0.0
 40
1.282191
100
AcDbArc
 50
87.63375200000002
 51
272.366248
  0
LINE
  5
365
330
36
100
AcDbEntity
  8
0
100
AcDbLine
 10
-19.42014462274334
 20
95.3028984005528
 30
0.0
 11
-8.093588622743347
 21
94.03917740055277
 31
0.0
  0
LINE
  5
366
330
36
100
AcDbEntity
  8
0
100
AcDbLine
 10
-19.59887462274334
 20
92.74694540055278
 30
0.0
 11
-8.206670622743343
 21
92.42201540055276
 31
0.0
  0
ARC
  5
367
330
36
100
AcDbEntity
  8
0
100
AcDbCircle
 10
-19.56231862274335
 20
94.02861440055279
 30
0.0
 40
1.282191
100
AcDbArc
 50
83.6337520000001
 51
268.366248
  0
ARC
  5
368
330
36
100
AcDbEntity
  8
0
100
AcDbCircle
 10
-19.57167362274335
 20
106.4396094005527
 30
0.0
 40
1.282191
100
AcDbArc
 50
79.63375200000007
 51
264.3662479999999
  0
LINE
  5
369
330
36
100
AcDbEntity
  8
0
100
AcDbLine
 10
-19.34095662274334
 20
107.7008714005528
 30
0.0
 11
-8.130143622743347
 21
105.6501284005528
 31
0.0
  0
LINE
  5
36A
330
36
100
AcDbEntity
  8
0
100
AcDbLine
 10
-19.69754462274335
 20
105.1636114005528
 30
0.0
 11
-8.355758622743344
 21
104.0447944005528
 31
0.0
  0
LINE
  5
36B
330
36
100
AcDbEntity
  8
0
100
AcDbLine
 10
-19.42014462274334
 20
62.9332124005528
 30
0.0
 11
-8.093588622743347
 21
64.19693340055278
 31
0.0
  0
LINE
  5
36C
330
36
100
AcDbEntity
  8
0
100
AcDbLine
 10
-19.59887462274334
 20
65.48916640055278
 30
0.0
 11
-8.206670622743343
 21
65.81409540055279
 31
0.0
  0
ARC
  5
36D
330
36
100
AcDbEntity
  8
0
100
AcDbCircle
 10
-19.56231862274335
 20
64.2074964005528
 30
0.0
 40
1.282191
100
AcDbArc
 50
91.633752
 51
276.3662479999999
  0
ARC
  5
36E
330
36
100
AcDbEntity
  8
0
100
AcDbCircle
 10
-19.57167362274335
 20
51.79650240055277
 30
0.0
 40
1.282191
100
AcDbArc
 50
95.63375200000006
 51
280.3662479999999
  0
LINE
  5
36F
330
36
100
AcDbEntity
  8
0
100
AcDbLine
 10
-19.34095662274334
 20
50.53523940055278
 30
0.0
 11
-8.130143622743347
 21
52.58598340055278
 31
0.0
  0
LINE
  5
370
330
36
100
AcDbEntity
  8
0
100
AcDbLine
 10
-19.69754462274335
 20
53.07249940055278
 30
0.0
 11
-8.355758622743344
 21
54.1913174005528
 31
0.0
  0
ARC
  5
371
330
36
100
AcDbEntity
  8
0
100
AcDbCircle
 10
-8.276118622743346
 20
104.8521224005528
 30
0.0
 40
0.811247
100
AcDbArc
 50
264.3662479999999
 51
79.63375200000007
  0
ARC
  5
372
330
36
100
AcDbEntity
  8
0
100
AcDbCircle
 10
-8.183541622743348
 20
93.23293240055278
 30
0.0
 40
0.811247
100
AcDbArc
 50
268.366248
 51
83.6337520000001
  0
ARC
  5
373
330
36
100
AcDbEntity
  8
0
100
AcDbCircle
 10
-8.152632622743347
 20
79.11805540055279
 30
0.0
 40
0.811247
100
AcDbArc
 50
272.366248
 51
87.63375200000002
  0
ARC
  5
374
330
36
100
AcDbEntity
  8
0
100
AcDbCircle
 10
-8.183541622743348
 20
65.0031784005528
 30
0.0
 40
0.811247
100
AcDbArc
 50
276.3662479999999
 51
91.633752
  0
ARC
  5
375
330
36
100
AcDbEntity
  8
0
100
AcDbCircle
 10
-8.276118622743346
 20
53.38398840055278
 30
0.0
 40
0.811247
100
AcDbArc
 50
280.3662479999999
 51
95.63375200000006
  0
ARC
  5
376
330
36
100
AcDbEntity
  8
0
100
AcDbCircle
 10
14.79631737725664
 20
101.0606004005528
 30
0.0
 40
3.620820999999998
100
AcDbArc
 50
232.3057600000001
 51
88.70076
  0
LINE
  5
377
330
36
100
AcDbEntity
  8
0
100
AcDbLine
 10
5.672134377256652
 20
103.5352314005528
 30
0.0
 11
12.58237537725665
 21
98.1954994005528
 31
0.0
  0
LINE
  5
378
330
36
100
AcDbEntity
  8
0
100
AcDbLine
 10
6.147725377256655
 20
104.8785024005528
 30
0.0
 11
14.87841637725662
 21
104.6804914005527
 31
0.0
  0
ARC
  5
379
330
36
100
AcDbEntity
  8
0
100
AcDbCircle
 10
6.130720377256657
 20
104.1286954005528
 30
0.0
 40
0.75
100
AcDbArc
 50
88.70076
 51
232.3057600000001
  0
CIRCLE
  5
37A
330
36
100
AcDbEntity
  8
0
100
AcDbCircle
 10
98.28012437725668
 20
95.92072040055278
 30
0.0
 40
2.25
  0
LINE
  5
37B
330
36
100
AcDbEntity
  8
0
100
AcDbLine
 10
145.8393224933489
 20
28.48088240055279
 30
0.0
 11
145.8393224933489
 21
24.46940040055279
 31
0.0
  0
LINE
  5
37C
330
36
100
AcDbEntity
  8
0
100
AcDbLine
 10
159.5893224933489
 20
24.22514140055279
 30
0.0
 11
159.5893224933489
 21
28.72514140055279
 31
0.0
  0
LINE
  5
37D
330
36
100
AcDbEntity
  8
0
100
AcDbLine
 10
156.6001034933489
 20
28.97514140055278
 30
0.0
 11
156.6001034933489
 21
23.97514140055279
 31
0.0
  0
LINE
  5
37E
330
36
100
AcDbEntity
  8
0
100
AcDbLine
 10
161.0893224933489
 20
27.97514140055279
 30
0.0
 11
161.0893224933489
 21
24.97514140055279
 31
0.0
  0
LINE
  5
37F
330
36
100
AcDbEntity
  8
0
100
AcDbLine
 10
162.5893224933489
 20
27.22514140055279
 30
0.0
 11
161.0893224933489
 21
27.22514140055279
 31
0.0
  0
LINE
  5
380
330
36
100
AcDbEntity
  8
0
100
AcDbLine
 10
162.5893224933489
 20
25.72514140055279
 30
0.0
 11
161.0893224933489
 21
25.72514140055279
 31
0.0
  0
LINE
  5
381
330
36
100
AcDbEntity
  8
0
100
AcDbLine
 10
161.0893224933489
 20
27.97514140055279
 30
0.0
 11
159.5893224933489
 21
27.97514140055279
 31
0.0
  0
LINE
  5
382
330
36
100
AcDbEntity
  8
0
100
AcDbLine
 10
161.0893224933489
 20
24.97514140055279
 30
0.0
 11
159.5893224933489
 21
24.97514140055279
 31
0.0
  0
LINE
  5
383
330
36
100
AcDbEntity
  8
0
100
AcDbLine
 10
159.3393224933489
 20
28.97514140055278
 30
0.0
 11
156.6001034933489
 21
28.97514140055278
 31
0.0
  0
LINE
  5
384
330
36
100
AcDbEntity
  8
0
100
AcDbLine
 10
159.3393224933489
 20
23.97514140055279
 30
0.0
 11
156.6001034933489
 21
23.97514140055279
 31
0.0
  0
LINE
  5
385
330
36
100
AcDbEntity
  8
0
100
AcDbLine
 10
146.0835164933489
 20
28.73081440055279
 30
0.0
 11
156.6001034933489
 21
28.97514140055278
 31
0.0
  0
LINE
  5
386
330
36
100
AcDbEntity
  8
0
100
AcDbLine
 10
146.0835164933489
 20
24.21946840055281
 30
0.0
 11
156.6001034933489
 21
23.97514140055279
 31
0.0
  0
ARC
  5
387
330
36
100
AcDbEntity
  8
0
100
AcDbCircle
 10
159.3393224933489
 20
28.72514140055279
 30
0.0
 40
0.25
100
AcDbArc
 50
0.0
 51
90.0
  0
ARC
  5
388
330
36
100
AcDbEntity
  8
0
100
AcDbCircle
 10
159.3393224933489
 20
24.22514140055279
 30
0.0
 40
0.25
100
AcDbArc
 50
270.0
 51
0.0
  0
ARC
  5
389
330
36
100
AcDbEntity
  8
0
100
AcDbCircle
 10
146.0893224933489
 20
24.46940040055279
 30
0.0
 40
0.25
100
AcDbArc
 50
180.0
 51
268.6691140000001
  0
ARC
  5
38A
330
36
100
AcDbEntity
  8
0
100
AcDbCircle
 10
146.0893224933489
 20
28.48088240055279
 30
0.0
 40
0.25
100
AcDbArc
 50
91.33088599999991
 51
180.0
  0
ARC
  5
38B
330
36
100
AcDbEntity
  8
0
100
AcDbCircle
 10
162.5893224933489
 20
26.47514140055279
 30
0.0
 40
0.75
100
AcDbArc
 50
0.0
 51
90.0
  0
ARC
  5
38C
330
36
100
AcDbEntity
  8
0
100
AcDbCircle
 10
162.5893224933489
 20
26.47514140055279
 30
0.0
 40
0.75
100
AcDbArc
 50
270.0
 51
0.0
  0
LINE
  5
38D
330
36
100
AcDbEntity
  8
0
100
AcDbLine
 10
153.4409744933489
 20
27.00857540055279
 30
0.0
 11
153.4409744933489
 21
25.94170640055279
 31
0.0
  0
LINE
  5
38E
330
36
100
AcDbEntity
  8
0
100
AcDbLine
 10
153.4409744933489
 20
27.00857540055279
 30
0.0
 11
156.6001034933489
 21
27.00857540055279
 31
0.0
  0
LINE
  5
38F
330
36
100
AcDbEntity
  8
0
100
AcDbLine
 10
153.4409744933489
 20
25.94170640055279
 30
0.0
 11
156.6001034933489
 21
25.94170640055279
 31
0.0
  0
LINE
  5
390
330
36
100
AcDbEntity
  8
0
100
AcDbLine
 10
145.754901493349
 20
27.32661740055279
 30
0.0
 11
142.0523313173041
 21
27.32661740055279
 31
0.0
  0
LINE
  5
391
330
36
100
AcDbEntity
  8
0
100
AcDbLine
 10
145.754901493349
 20
25.56028940055279
 30
0.0
 11
143.0896813093631
 21
25.56028940055278
 31
0.0
  0
LINE
  5
392
330
36
100
AcDbEntity
  8
0
100
AcDbLine
 10
104.9873273772566
 20
28.13618440055279
 30
0.0
 11
104.9873273772566
 21
24.81409840055279
 31
0.0
  0
LINE
  5
393
330
36
100
AcDbEntity
  8
0
100
AcDbLine
 10
104.9873273772566
 20
28.13618440055279
 30
0.0
 11
101.9330513772566
 21
28.68816240055279
 31
0.0
  0
LINE
  5
394
330
36
100
AcDbEntity
  8
0
100
AcDbLine
 10
104.9873273772566
 20
24.81409840055279
 30
0.0
 11
101.9330513772566
 21
24.26212040055279
 31
0.0
  0
LINE
  5
3A7
330
36
100
AcDbEntity
  8
0
100
AcDbLine
 10
108.2794888844898
 20
27.32661740055279
 30
0.0
 11
104.9873273772566
 21
27.32661740055279
 31
0.0
  0
LINE
  5
3A8
330
36
100
AcDbEntity
  8
0
100
AcDbLine
 10
109.3168388765488
 20
25.56028940055278
 30
0.0
 11
104.9873273772566
 21
25.56028940055279
 31
0.0
  0
LINE
  5
3A9
330
36
100
AcDbEntity
  8
0
100
AcDbLine
 10
-53.74292860937642
 20
103.5870764005528
 30
0.0
 11
-47.06801260937642
 21
103.5870764005528
 31
0.0
  0
LINE
  5
3AA
330
36
100
AcDbEntity
  8
0
100
AcDbLine
 10
-53.74292860937642
 20
101.9746654005527
 30
0.0
 11
-47.06801260937642
 21
101.9746654005527
 31
0.0
  0
LINE
  5
3AB
330
36
100
AcDbEntity
  8
0
100
AcDbLine
 10
-53.74292860937642
 20
101.9746654005527
 30
0.0
 11
-53.74292860937642
 21
103.5870764005528
 31
0.0
  0
LINE
  5
3AC
330
36
100
AcDbEntity
  8
0
100
AcDbLine
 10
-53.74292860937642
 20
96.38497040055277
 30
0.0
 11
-53.74292860937642
 21
94.77255840055278
 31
0.0
  0
LINE
  5
3AD
330
36
100
AcDbEntity
  8
0
100
AcDbLine
 10
-53.74292860937642
 20
94.77255840055278
 30
0.0
 11
-47.06801260937642
 21
94.77255840055278
 31
0.0
  0
LINE
  5
3AE
330
36
100
AcDbEntity
  8
0
100
AcDbLine
 10
-53.74292860937642
 20
96.38497040055277
 30
0.0
 11
-47.06801260937642
 21
96.38497040055277
 31
0.0
  0
LINE
  5
3AF
330
36
100
AcDbEntity
  8
0
100
AcDbLine
 10
-53.74292860937642
 20
54.6490344005528
 30
0.0
 11
-47.06801260937642
 21
54.6490344005528
 31
0.0
  0
LINE
  5
3B0
330
36
100
AcDbEntity
  8
0
100
AcDbLine
 10
-53.74292860937642
 20
56.26144640055278
 30
0.0
 11
-47.06801260937642
 21
56.26144640055278
 31
0.0
  0
LINE
  5
3B1
330
36
100
AcDbEntity
  8
0
100
AcDbLine
 10
-53.74292860937642
 20
56.26144640055278
 30
0.0
 11
-53.74292860937642
 21
54.6490344005528
 31
0.0
  0
LINE
  5
3B2
330
36
100
AcDbEntity
  8
0
100
AcDbLine
 10
-53.74292860937642
 20
61.8511404005528
 30
0.0
 11
-53.74292860937642
 21
63.4635524005528
 31
0.0
  0
LINE
  5
3B3
330
36
100
AcDbEntity
  8
0
100
AcDbLine
 10
-53.74292860937642
 20
63.4635524005528
 30
0.0
 11
-47.06801260937642
 21
63.4635524005528
 31
0.0
  0
LINE
  5
3B4
330
36
100
AcDbEntity
  8
0
100
AcDbLine
 10
-53.74292860937642
 20
61.8511404005528
 30
0.0
 11
-47.06801260937642
 21
61.8511404005528
 31
0.0
  0
LINE
  5
3B5
330
36
100
AcDbEntity
  8
0
100
AcDbLine
 10
-45.63096160937642
 20
83.66227440055281
 30
0.0
 11
-47.06801260937642
 21
83.66227440055281
 31
0.0
  0
LINE
  5
3B6
330
36
100
AcDbEntity
  8
0
100
AcDbLine
 10
-45.63096160937642
 20
74.57383640055278
 30
0.0
 11
-47.06801260937642
 21
74.57383640055278
 31
0.0
  0
LINE
  5
3B7
330
36
100
AcDbEntity
  8
0
100
AcDbLine
 10
-45.63096160937642
 20
108.1180554005527
 30
0.0
 11
-45.63096160937642
 21
109.1180554005527
 31
0.0
  0
LINE
  5
3B8
330
36
100
AcDbEntity
  8
0
100
AcDbLine
 10
-47.06801260937642
 20
109.1180554005527
 30
0.0
 11
-45.63096160937642
 21
109.1180554005527
 31
0.0
  0
LINE
  5
3B9
330
36
100
AcDbEntity
  8
0
100
AcDbLine
 10
-45.63096160937642
 20
108.1180554005527
 30
0.0
 11
-47.06801260937642
 21
108.1180554005527
 31
0.0
  0
LINE
  5
3BA
330
36
100
AcDbEntity
  8
0
100
AcDbLine
 10
-47.06801260937642
 20
49.11805540055278
 30
0.0
 11
-45.63096160937642
 21
49.11805540055278
 31
0.0
  0
LINE
  5
3BB
330
36
100
AcDbEntity
  8
0
100
AcDbLine
 10
-45.63096160937642
 20
50.1180554005528
 30
0.0
 11
-45.63096160937642
 21
49.11805540055278
 31
0.0
  0
LINE
  5
3BC
330
36
100
AcDbEntity
  8
0
100
AcDbLine
 10
-45.63096160937642
 20
50.1180554005528
 30
0.0
 11
-47.06801260937642
 21
50.1180554005528
 31
0.0
  0
LINE
  5
3BD
330
36
100
AcDbEntity
  8
0
100
AcDbLine
 10
-20.84138562274335
 20
111.6180554005527
 30
0.0
 11
-20.84138562274335
 21
46.61805540055278
 31
0.0
  0
LINE
  5
3BE
330
36
100
AcDbEntity
  8
0
100
AcDbLine
 10
14.06257637725665
 20
96.10388240055279
 30
0.0
 11
0.6027633772566539
 21
106.5046474005527
 31
0.0
  0
ARC
  5
3BF
330
36
100
AcDbEntity
  8
0
100
AcDbCircle
 10
15.28547137725665
 20
97.68645240055278
 30
0.0
 40
2.0
100
AcDbArc
 50
232.3057600000001
 51
339.863697
  0
LINE
  5
3C0
330
36
100
AcDbEntity
  8
0
100
AcDbLine
 10
17.16322437725665
 20
96.99794340055277
 30
0.0
 11
20.48368637725666
 21
106.0537494005528
 31
0.0
  0
LINE
  5
3C1
330
36
100
AcDbEntity
  8
0
100
AcDbLine
 10
-80.88767553714033
 20
103.5870764005528
 30
0.0
 11
-74.21275953714031
 21
103.5870764005528
 31
0.0
  0
LINE
  5
3C2
330
36
100
AcDbEntity
  8
0
100
AcDbLine
 10
-80.88767553714033
 20
101.9746654005527
 30
0.0
 11
-74.21275953714031
 21
101.9746654005527
 31
0.0
  0
LINE
  5
3C3
330
36
100
AcDbEntity
  8
0
100
AcDbLine
 10
-80.88767553714033
 20
101.9746654005527
 30
0.0
 11
-80.88767553714033
 21
103.5870764005528
 31
0.0
  0
LINE
  5
3C4
330
36
100
AcDbEntity
  8
0
100
AcDbLine
 10
-80.88767553714033
 20
96.38497040055277
 30
0.0
 11
-80.88767553714033
 21
94.77255840055278
 31
0.0
  0
LINE
  5
3C5
330
36
100
AcDbEntity
  8
0
100
AcDbLine
 10
-80.88767553714033
 20
94.77255840055278
 30
0.0
 11
-74.21275953714031
 21
94.77255840055278
 31
0.0
  0
LINE
  5
3C6
330
36
100
AcDbEntity
  8
0
100
AcDbLine
 10
-80.88767553714033
 20
96.38497040055277
 30
0.0
 11
-74.21275953714031
 21
96.38497040055277
 31
0.0
  0
LINE
  5
3C7
330
36
100
AcDbEntity
  8
0
100
AcDbLine
 10
-80.88767553714033
 20
54.6490344005528
 30
0.0
 11
-74.21275953714031
 21
54.6490344005528
 31
0.0
  0
LINE
  5
3C8
330
36
100
AcDbEntity
  8
0
100
AcDbLine
 10
-80.88767553714033
 20
56.26144640055278
 30
0.0
 11
-74.21275953714031
 21
56.26144640055278
 31
0.0
  0
LINE
  5
3C9
330
36
100
AcDbEntity
  8
0
100
AcDbLine
 10
-80.88767553714033
 20
56.26144640055278
 30
0.0
 11
-80.88767553714033
 21
54.6490344005528
 31
0.0
  0
LINE
  5
3CA
330
36
100
AcDbEntity
  8
0
100
AcDbLine
 10
-80.88767553714033
 20
61.8511404005528
 30
0.0
 11
-80.88767553714033
 21
63.4635524005528
 31
0.0
  0
LINE
  5
3CB
330
36
100
AcDbEntity
  8
0
100
AcDbLine
 10
-80.88767553714033
 20
63.4635524005528
 30
0.0
 11
-74.21275953714031
 21
63.4635524005528
 31
0.0
  0
LINE
  5
3CC
330
36
100
AcDbEntity
  8
0
100
AcDbLine
 10
-80.88767553714033
 20
61.8511404005528
 30
0.0
 11
-74.21275953714031
 21
61.8511404005528
 31
0.0
  0
LINE
  5
3CD
330
36
100
AcDbEntity
  8
0
100
AcDbLine
 10
-72.77570853714031
 20
83.66227440055281
 30
0.0
 11
-74.21275953714031
 21
83.66227440055281
 31
0.0
  0
LINE
  5
3CE
330
36
100
AcDbEntity
  8
0
100
AcDbLine
 10
-72.77570853714031
 20
74.57383640055278
 30
0.0
 11
-74.21275953714031
 21
74.57383640055278
 31
0.0
  0
LINE
  5
3CF
330
36
100
AcDbEntity
  8
0
100
AcDbLine
 10
-72.77570853714031
 20
108.1180554005527
 30
0.0
 11
-72.77570853714031
 21
109.1180554005527
 31
0.0
  0
LINE
  5
3D0
330
36
100
AcDbEntity
  8
0
100
AcDbLine
 10
-74.21275953714031
 20
109.1180554005527
 30
0.0
 11
-72.77570853714031
 21
109.1180554005527
 31
0.0
  0
LINE
  5
3D1
330
36
100
AcDbEntity
  8
0
100
AcDbLine
 10
-72.77570853714031
 20
108.1180554005527
 30
0.0
 11
-74.21275953714031
 21
108.1180554005527
 31
0.0
  0
LINE
  5
3D2
330
36
100
AcDbEntity
  8
0
100
AcDbLine
 10
-74.21275953714031
 20
49.11805540055278
 30
0.0
 11
-72.77570853714031
 21
49.11805540055278
 31
0.0
  0
LINE
  5
3D3
330
36
100
AcDbEntity
  8
0
100
AcDbLine
 10
-72.77570853714031
 20
50.1180554005528
 30
0.0
 11
-72.77570853714031
 21
49.11805540055278
 31
0.0
  0
LINE
  5
3D4
330
36
100
AcDbEntity
  8
0
100
AcDbLine
 10
-72.77570853714031
 20
50.1180554005528
 30
0.0
 11
-74.21275953714031
 21
50.1180554005528
 31
0.0
  0
LINE
  5
3D5
330
36
100
AcDbEntity
  8
0
100
AcDbLine
 10
101.7861973772566
 20
110.5575794005527
 30
0.0
 11
69.79807437725665
 21
110.5575794005527
 31
0.0
  0
LINE
  5
3D6
330
36
100
AcDbEntity
  8
0
100
AcDbLine
 10
69.66941437725665
 20
115.8399004005527
 30
0.0
 11
82.97814537725667
 21
115.8399004005527
 31
0.0
  0
ARC
  5
3D7
330
36
100
AcDbEntity
  8
0
100
AcDbCircle
 10
82.97814537725667
 20
118.5955344005527
 30
0.0
 40
2.755634
100
AcDbArc
 50
270.0
 51
90.0
  0
ARC
  5
3D8
330
36
100
AcDbEntity
  8
0
100
AcDbCircle
 10
69.79807437725665
 20
113.2003064005527
 30
0.0
 40
2.642726999999998
100
AcDbArc
 50
87.20948699999993
 51
270.0
  0
ARC
  5
3D9
330
36
100
AcDbEntity
  8
0
100
AcDbCircle
 10
101.7861973772566
 20
108.5575794005527
 30
0.0
 40
2.0
100
AcDbArc
 50
335.72123
 51
90.0
  0
ARC
  5
3DA
330
36
100
AcDbEntity
  8
0
100
AcDbCircle
 10
82.97814537725667
 20
118.5955344005527
 30
0.0
 40
3.755633999999998
100
AcDbArc
 50
270.0
 51
90.0
  0
LINE
  5
3DB
330
36
100
AcDbEntity
  8
0
100
AcDbLine
 10
69.69665537725666
 20
114.8399004005527
 30
0.0
 11
82.97814537725667
 21
114.8399004005527
 31
0.0
  0
ARC
  5
3DC
330
36
100
AcDbEntity
  8
0
100
AcDbCircle
 10
69.79807437725665
 20
113.2003064005527
 30
0.0
 40
1.642727
100
AcDbArc
 50
87.20948699999993
 51
270.0
  0
LINE
  5
3DD
330
36
100
AcDbEntity
  8
0
100
AcDbLine
 10
101.7861973772566
 20
111.5575794005527
 30
0.0
 11
69.79807437725665
 21
111.5575794005527
 31
0.0
  0
ARC
  5
3DE
330
36
100
AcDbEntity
  8
0
100
AcDbCircle
 10
101.7861973772566
 20
108.5575794005527
 30
0.0
 40
3.0
100
AcDbArc
 50
335.72123
 51
90.0
  0
ARC
  5
3DF
330
36
100
AcDbEntity
  8
0
100
AcDbCircle
 10
27.20888037725667
 20
116.3511684005527
 30
0.0
 40
5.0
100
AcDbArc
 50
90.0
 51
155.638145
  0
LINE
  5
3E0
330
36
100
AcDbEntity
  8
0
100
AcDbLine
 10
22.65408837725666
 20
118.4136594005527
 30
0.0
 11
14.79631737725664
 21
101.0606004005528
 31
0.0
  0
ARC
  5
3E1
330
36
100
AcDbEntity
  8
0
100
AcDbCircle
 10
27.20888037725667
 20
116.3511684005527
 30
0.0
 40
6.0
100
AcDbArc
 50
90.0
 51
155.638145
  0
LINE
  5
3E2
330
36
100
AcDbEntity
  8
0
100
AcDbLine
 10
21.74312937725664
 20
118.8261574005528
 30
0.0
 11
13.88535937725664
 21
101.4730984005528
 31
0.0
  0
LINE
  5
3E3
330
36
100
AcDbEntity
  8
0
100
AcDbLine
 10
104.5208643772566
 20
107.3240494005528
 30
0.0
 11
99.19168037725665
 21
95.50954440055278
 31
0.0
  0
LINE
  5
3E4
330
36
100
AcDbEntity
  8
0
100
AcDbLine
 10
103.6093093772566
 20
107.7352254005527
 30
0.0
 11
98.28012437725668
 21
95.92072040055278
 31
0.0
  0
LINE
  5
3E5
330
36
100
AcDbEntity
  8
0
  6
HIDDEN
 62
    15
100
AcDbLine
 10
89.47021918083981
 20
-12.77098971106903
 30
0.0
 11
90.1960791808398
 21
-12.77098971106903
 31
0.0
  0
LINE
  5
3E6
330
36
100
AcDbEntity
  8
0
  6
HIDDEN
 62
    15
100
AcDbLine
 10
90.80907418083985
 20
-13.15971771106903
 30
0.0
 11
90.1960791808398
 21
-12.77098971106903
 31
0.0
  0
LINE
  5
3E7
330
36
100
AcDbEntity
  8
0
  6
HIDDEN
 62
    15
100
AcDbLine
 10
44.35788618083982
 20
-13.15971771106903
 30
0.0
 11
44.97088118083982
 21
-12.77098971106903
 31
0.0
  0
LINE
  5
3E8
330
36
100
AcDbEntity
  8
0
100
AcDbLine
 10
27.20888037725667
 20
122.3511684005528
 30
0.0
 11
82.97814537725667
 21
122.3511684005528
 31
0.0
  0
LINE
  5
3E9
330
36
100
AcDbEntity
  8
0
100
AcDbLine
 10
82.97814537725667
 20
121.3511684005528
 30
0.0
 11
27.20888037725667
 21
121.3511684005528
 31
0.0
  0
LINE
  5
3EA
330
36
100
AcDbEntity
  8
0
100
AcDbLine
 10
34.90747937725667
 20
32.48159840055279
 30
0.0
 11
71.40974837725664
 21
32.48159840055279
 31
0.0
  0
ARC
  5
3EB
330
36
100
AcDbEntity
  8
0
100
AcDbCircle
 10
71.40974837725664
 20
30.98159840055279
 30
0.0
 40
1.5
100
AcDbArc
 50
0.0
 51
90.0
  0
LINE
  5
3EC
330
36
100
AcDbEntity
  8
0
100
AcDbLine
 10
72.90974837725666
 20
22.79105740055278
 30
0.0
 11
72.90974837725666
 21
30.98159840055279
 31
0.0
  0
ARC
  5
3ED
330
36
100
AcDbEntity
  8
0
100
AcDbCircle
 10
71.40974837725664
 20
22.79105740055278
 30
0.0
 40
1.5
100
AcDbArc
 50
270.0
 51
0.0
  0
LINE
  5
3EE
330
36
100
AcDbEntity
  8
0
100
AcDbLine
 10
34.90747937725667
 20
21.2910574005528
 30
0.0
 11
71.40974837725664
 21
21.2910574005528
 31
0.0
  0
ARC
  5
3EF
330
36
100
AcDbEntity
  8
0
100
AcDbCircle
 10
34.90747937725667
 20
22.79105740055278
 30
0.0
 40
1.5
100
AcDbArc
 50
180.0
 51
270.0
  0
LINE
  5
3F0
330
36
100
AcDbEntity
  8
0
100
AcDbLine
 10
33.40747937725666
 20
22.79105740055278
 30
0.0
 11
33.40747937725666
 21
30.98159840055279
 31
0.0
  0
ARC
  5
3F1
330
36
100
AcDbEntity
  8
0
100
AcDbCircle
 10
34.90747937725667
 20
30.98159840055279
 30
0.0
 40
1.5
100
AcDbArc
 50
90.0
 51
180.0
  0
LINE
  5
3F2
330
36
100
AcDbEntity
  8
0
100
AcDbLine
 10
42.46168918083983
 20
-30.18483371106903
 30
0.0
 11
92.70527118083981
 21
-30.18483371106903
 31
0.0
  0
LINE
  5
3F3
330
36
100
AcDbEntity
  8
0
100
AcDbLine
 10
42.46168918083983
 20
-54.04903571106904
 30
0.0
 11
92.70527118083981
 21
-54.04903571106904
 31
0.0
  0
LINE
  5
3F4
330
36
100
AcDbEntity
  8
0
100
AcDbLine
 10
95.70527118083985
 20
-51.04903571106905
 30
0.0
 11
95.70527118083985
 21
-33.18483371106901
 31
0.0
  0
LINE
  5
3F5
330
36
100
AcDbEntity
  8
0
100
AcDbLine
 10
39.46168918083983
 20
-33.18483371106901
 30
0.0
 11
39.46168918083983
 21
-51.04903571106905
 31
0.0
  0
ARC
  5
3F6
330
36
100
AcDbEntity
  8
0
100
AcDbCircle
 10
92.70527118083981
 20
-33.18483371106901
 30
0.0
 40
3.0
100
AcDbArc
 50
0.0
 51
90.0
  0
ARC
  5
3F7
330
36
100
AcDbEntity
  8
0
100
AcDbCircle
 10
92.70527118083981
 20
-51.04903571106905
 30
0.0
 40
3.0
100
AcDbArc
 50
270.0
 51
0.0
  0
ARC
  5
3F8
330
36
100
AcDbEntity
  8
0
100
AcDbCircle
 10
42.46168918083983
 20
-51.04903571106905
 30
0.0
 40
3.0
100
AcDbArc
 50
180.0
 51
270.0
  0
ARC
  5
3F9
330
36
100
AcDbEntity
  8
0
100
AcDbCircle
 10
42.46168918083983
 20
-33.18483371106901
 30
0.0
 40
3.0
100
AcDbArc
 50
90.0
 51
180.0
  0
LINE
  5
3FA
330
36
100
AcDbEntity
  8
0
100
AcDbLine
 10
42.46168918083983
 20
-31.18483371106901
 30
0.0
 11
92.70527118083981
 21
-31.18483371106901
 31
0.0
  0
ARC
  5
3FB
330
36
100
AcDbEntity
  8
0
100
AcDbCircle
 10
42.46168918083983
 20
-33.18483371106901
 30
0.0
 40
2.0
100
AcDbArc
 50
90.0
 51
180.0
  0
LINE
  5
3FC
330
36
100
AcDbEntity
  8
0
100
AcDbLine
 10
40.46168918083981
 20
-33.18483371106901
 30
0.0
 11
40.46168918083981
 21
-51.04903571106905
 31
0.0
  0
ARC
  5
3FD
330
36
100
AcDbEntity
  8
0
100
AcDbCircle
 10
42.46168918083983
 20
-51.04903571106905
 30
0.0
 40
2.0
100
AcDbArc
 50
180.0
 51
270.0
  0
LINE
  5
3FE
330
36
100
AcDbEntity
  8
0
100
AcDbLine
 10
42.46168918083983
 20
-53.04903571106904
 30
0.0
 11
92.70527118083981
 21
-53.04903571106904
 31
0.0
  0
ARC
  5
3FF
330
36
100
AcDbEntity
  8
0
100
AcDbCircle
 10
92.70527118083981
 20
-51.04903571106905
 30
0.0
 40
2.0
100
AcDbArc
 50
270.0
 51
0.0
  0
LINE
  5
400
330
36
100
AcDbEntity
  8
0
100
AcDbLine
 10
94.70527118083984
 20
-51.04903571106905
 30
0.0
 11
94.70527118083984
 21
-33.18483371106901
 31
0.0
  0
ARC
  5
401
330
36
100
AcDbEntity
  8
0
100
AcDbCircle
 10
92.70527118083981
 20
-33.18483371106901
 30
0.0
 40
2.0
100
AcDbArc
 50
0.0
 51
90.0
  0
LINE
  5
402
330
36
100
AcDbEntity
  8
0
100
AcDbLine
 10
-202.401924
 20
5.0
 30
0.0
 11
-205.0
 21
3.5
 31
0.0
  0
LINE
  5
403
330
36
100
AcDbEntity
  8
0
100
AcDbLine
 10
-202.401924
 20
5.0
 30
0.0
 11
-205.0
 21
6.5
 31
0.0
  0
LINE
  5
404
330
36
100
AcDbEntity
  8
0
100
AcDbLine
 10
-205.0
 20
3.5
 30
0.0
 11
-205.0
 21
6.5
 31
0.0
  0
LINE
  5
40A
330
36
100
AcDbEntity
  8
0
100
AcDbLine
 10
52.11921637725668
 20
19.11805540055278
 30
0.0
 11
58.33299437725665
 21
11.28679040055279
 31
0.0
  0
LINE
  5
40B
330
36
100
AcDbEntity
  8
0
100
AcDbLine
 10
58.33299437725665
 20
11.28679040055279
 30
0.0
 11
88.58299437725666
 21
11.28679040055279
 31
0.0
  0
TEXT
  5
40C
330
36
100
AcDbEntity
  8
0
 62
     4
100
AcDbText
 10
61.08299437725666
 20
12.28679040055279
 30
0.0
 40
3.2
  1
１／４インチめねじ
 41
0.716146
100
AcDbText
  0
TEXT
  5
40D
330
36
100
AcDbEntity
  8
0
 62
     3
100
AcDbText
 10
34.81757319516612
 20
-76.421962711069
 30
0.0
 40
4.5
  1
ケースサイズ　400x310x150
 41
0.833333
100
AcDbText
  0
TEXT
  5
40F
330
36
100
AcDbEntity
  8
0
 62
     3
100
AcDbText
 10
-78.66977767040889
 20
-115.0
 30
0.0
 40
3.2
  1
1
 41
0.8
  7
高3.2
100
AcDbText
  0
TEXT
  5
410
330
36
100
AcDbEntity
  8
0
 62
     3
100
AcDbText
 10
-120.7148049439338
 20
-130.0
 30
0.0
 40
3.2
  1
GE(4300K)
 41
0.8
  7
高3.2
100
AcDbText
  0
TEXT
  5
411
330
36
100
AcDbEntity
  8
0
 62
     3
100
AcDbText
 10
-120.7148049439337
 20
-110.0
 30
0.0
 40
3.2
  1
(ランプ本体内蔵)HIDL-B
 41
0.8
  7
高3.2
100
AcDbText
  0
TEXT
  5
412
330
36
100
AcDbEntity
  8
0
 62
     3
100
AcDbText
 10
-120.7148049439338
 20
-119.9999999999999
 30
0.0
 40
3.2
  1
透明成形品
 41
0.8
  7
高3.2
100
AcDbText
  0
TEXT
  5
413
330
36
100
AcDbEntity
  8
0
 62
     3
100
AcDbText
 10
-120.7148049439338
 20
-125.0
 30
0.0
 40
3.2
  1
成形品
 41
0.8
  7
高3.2
100
AcDbText
  0
TEXT
  5
414
330
36
100
AcDbEntity
  8
0
 62
     3
100
AcDbText
 10
-120.7148049439337
 20
-105.0
 30
0.0
 40
3.2
  1
成形品
 41
0.8
  7
高3.2
100
AcDbText
  0
TEXT
  5
415
330
36
100
AcDbEntity
  8
0
 62
     3
100
AcDbText
 10
-120.7148049439338
 20
-115.0
 30
0.0
 40
3.2
  1
成形品（黒）
 41
0.8
  7
高3.2
100
AcDbText
  0
TEXT
  5
416
330
36
100
AcDbEntity
  8
0
 62
     3
100
AcDbText
 10
-120.7148049439337
 20
-95.0
 30
0.0
 40
3.2
  1
成形品
 41
0.8
  7
高3.2
100
AcDbText
  0
TEXT
  5
417
330
36
100
AcDbEntity
  8
0
 62
     3
100
AcDbText
 10
-78.66977767040889
 20
-105.0
 30
0.0
 40
3.2
  1
1
 41
0.8
  7
高3.2
100
AcDbText
  0
TEXT
  5
419
330
36
100
AcDbEntity
  8
0
 62
     3
100
AcDbText
 10
-78.66977767040889
 20
-125.0
 30
0.0
 40
3.2
  1
1
 41
0.8
  7
高3.2
100
AcDbText
  0
TEXT
  5
41A
330
36
100
AcDbEntity
  8
0
 62
     3
100
AcDbText
 10
-78.66977767040889
 20
-119.9999999999999
 30
0.0
 40
3.2
  1
1
 41
0.8
  7
高3.2
100
AcDbText
  0
TEXT
  5
41B
330
36
100
AcDbEntity
  8
0
 62
     3
100
AcDbText
 10
-78.66977767040889
 20
-110.0
 30
0.0
 40
3.2
  1
1
 41
0.8
  7
高3.2
100
AcDbText
  0
TEXT
  5
41C
330
36
100
AcDbEntity
  8
0
 62
     3
100
AcDbText
 10
-78.66977767040889
 20
-129.9999999999999
 30
0.0
 40
3.2
  1
1
 41
0.8
  7
高3.2
100
AcDbText
  0
TEXT
  5
41D
330
36
100
AcDbEntity
  8
0
 62
     3
100
AcDbText
 10
-78.66977767040889
 20
-100.0
 30
0.0
 40
3.2
  1
1
 41
0.8
  7
高3.2
100
AcDbText
  0
TEXT
  5
41E
330
36
100
AcDbEntity
  8
0
 62
     3
100
AcDbText
 10
-78.66977767040889
 20
-80.0
 30
0.0
 40
3.2
  1
1
 41
0.8
  7
高3.2
100
AcDbText
  0
TEXT
  5
41F
330
36
100
AcDbEntity
  8
0
 62
     3
100
AcDbText
 10
-78.66977767040889
 20
-85.0
 30
0.0
 40
3.2
  1
1
 41
0.8
  7
高3.2
100
AcDbText
  0
TEXT
  5
420
330
36
100
AcDbEntity
  8
0
 62
     3
100
AcDbText
 10
-78.66977767040889
 20
-95.0
 30
0.0
 40
3.2
  1
1
 41
0.8
  7
高3.2
100
AcDbText
  0
TEXT
  5
421
330
36
100
AcDbEntity
  8
0
 62
     3
100
AcDbText
 10
-143.8290240369109
 20
-95.0
 30
0.0
 40
3.2
  1
HDPE樹脂
 41
0.8
  7
高3.2
100
AcDbText
  0
TEXT
  5
423
330
36
100
AcDbEntity
  8
0
 62
     3
100
AcDbText
 10
-180.2589155191566
 20
-130.0
 30
0.0
 40
3.2
  1
HIDキセノン球
 41
0.8
  7
高3.2
100
AcDbText
  0
TEXT
  5
424
330
36
100
AcDbEntity
  8
0
 62
     3
100
AcDbText
 10
-180.2589155191566
 20
-110.0
 30
0.0
 40
3.2
  1
リチウムバッテリー
 41
0.8
  7
高3.2
100
AcDbText
  0
TEXT
  5
425
330
36
100
AcDbEntity
  8
0
 62
     3
100
AcDbText
 10
-180.2589155191566
 20
-120.0
 30
0.0
 40
3.2
  1
プロテクトレンズ
 41
0.8
  7
高3.2
100
AcDbText
  0
TEXT
  5
426
330
36
100
AcDbEntity
  8
0
 62
     3
100
AcDbText
 10
-180.2589155191566
 20
-125.0
 30
0.0
 40
3.2
  1
拡散レンズ
 41
0.8
  7
高3.2
100
AcDbText
  0
TEXT
  5
428
330
36
100
AcDbEntity
  8
0
 62
     3
100
AcDbText
 10
-180.2589155191566
 20
-105.0
 30
0.0
 40
3.2
  1
バッテリーキャップ
 41
0.8
  7
高3.2
100
AcDbText
  0
TEXT
  5
429
330
36
100
AcDbEntity
  8
0
 62
     3
100
AcDbText
 10
-180.2589155191566
 20
-100.0
 30
0.0
 40
3.2
  1
予備バッテリーケーブル
 41
0.8
  7
高3.2
100
AcDbText
  0
TEXT
  5
42A
330
36
100
AcDbEntity
  8
0
 62
     3
100
AcDbText
 10
-180.2589155191566
 20
-115.0
 30
0.0
 40
3.2
  1
ショルダーベルト
 41
0.8
  7
高3.2
100
AcDbText
  0
TEXT
  5
42B
330
36
100
AcDbEntity
  8
0
 62
     3
100
AcDbText
 10
-180.2589155191566
 20
-95.0
 30
0.0
 40
3.2
  1
収納ハードケース
 41
0.8
  7
高3.2
100
AcDbText
  0
TEXT
  5
42C
330
36
100
AcDbEntity
  8
0
 62
     3
100
AcDbText
 10
-188.5
 20
-130.0
 30
0.0
 40
3.2
  1
1
 41
0.8
  7
高3.2
100
AcDbText
  0
TEXT
  5
42D
330
36
100
AcDbEntity
  8
0
 62
     3
100
AcDbText
 10
-188.5
 20
-120.0
 30
0.0
 40
3.2
  1
3
 41
0.8
  7
高3.2
100
AcDbText
  0
TEXT
  5
42E
330
36
100
AcDbEntity
  8
0
 62
     3
100
AcDbText
 10
-188.5
 20
-125.0
 30
0.0
 40
3.2
  1
2
 41
0.8
  7
高3.2
100
AcDbText
  0
TEXT
  5
42F
330
36
100
AcDbEntity
  8
0
 62
     3
100
AcDbText
 10
-188.5
 20
-115.0
 30
0.0
 40
3.2
  1
4
 41
0.8
  7
高3.2
100
AcDbText
  0
TEXT
  5
430
330
36
100
AcDbEntity
  8
0
 62
     3
100
AcDbText
 10
-188.5
 20
-110.0
 30
0.0
 40
3.2
  1
5
 41
0.8
  7
高3.2
100
AcDbText
  0
TEXT
  5
431
330
36
100
AcDbEntity
  8
0
 62
     3
100
AcDbText
 10
-188.5
 20
-105.0
 30
0.0
 40
3.2
  1
6
 41
0.8
  7
高3.2
100
AcDbText
  0
TEXT
  5
432
330
36
100
AcDbEntity
  8
0
 62
     3
100
AcDbText
 10
-188.5
 20
-100.0
 30
0.0
 40
3.2
  1
7
 41
0.8
  7
高3.2
100
AcDbText
  0
TEXT
  5
433
330
36
100
AcDbEntity
  8
0
 62
     3
100
AcDbText
 10
-188.5
 20
-95.0
 30
0.0
 40
3.2
  1
8
 41
0.8
  7
高3.2
100
AcDbText
  0
TEXT
  5
434
330
36
100
AcDbEntity
  8
0
 62
     3
100
AcDbText
 10
-188.5
 20
-90.0
 30
0.0
 40
3.2
  1
9
 41
0.8
  7
高3.2
100
AcDbText
  0
TEXT
  5
436
330
36
100
AcDbEntity
  8
0
 62
     3
100
AcDbText
 10
-143.8290240369109
 20
-100.0
 30
0.0
 40
3.2
  1
カールコード
 41
0.8
  7
高3.2
100
AcDbText
  0
TEXT
  5
439
330
36
100
AcDbEntity
  8
0
 62
     3
100
AcDbText
 10
-143.8290240369109
 20
-105.0
 30
0.0
 40
3.2
  1
耐衝撃PA樹脂
 41
0.8
  7
高3.2
100
AcDbText
  0
TEXT
  5
43A
330
36
100
AcDbEntity
  8
0
 62
     3
100
AcDbText
 10
-78.66977767040889
 20
-135.0
 30
0.0
 40
3.2
  1
個数
 41
0.8
  7
高3.2
100
AcDbText
  0
TEXT
  5
43B
330
36
100
AcDbEntity
  8
0
 62
     3
100
AcDbText
 10
-120.7148049439338
 20
-135.0
 30
0.0
 40
3.2
  1
備　　　　考
 41
0.8
  7
高3.2
100
AcDbText
  0
TEXT
  5
43C
330
36
100
AcDbEntity
  8
0
 62
     3
100
AcDbText
 10
-143.8290240369109
 20
-135.0
 30
0.0
 40
3.2
  1
材　　　質
 41
0.8
  7
高3.2
100
AcDbText
  0
TEXT
  5
43D
330
36
100
AcDbEntity
  8
0
 62
     3
100
AcDbText
 10
-180.2589155191566
 20
-135.0
 30
0.0
 40
3.2
  1
部　　品　　名
 41
0.8
  7
高3.2
100
AcDbText
  0
TEXT
  5
43E
330
36
100
AcDbEntity
  8
0
 62
     3
100
AcDbText
 10
-188.5
 20
-135.0
 30
0.0
 40
3.2
  1
No
 41
0.8
  7
高3.2
100
AcDbText
  0
LINE
  5
43F
330
36
100
AcDbEntity
  8
0
100
AcDbLine
 10
34.81757319516612
 20
-77.44765918991084
 30
0.0
 11
102.1655705050395
 21
-77.44765918991084
 31
0.0
  0
TEXT
  5
440
330
36
100
AcDbEntity
  8
0
 62
     3
100
AcDbText
 10
153.4895723890372
 20
-95.27819200000001
 30
0.0
 40
4.5
  1
コード
  7
高4.5
100
AcDbText
  0
LINE
  5
441
330
36
100
AcDbEntity
  8
0
 62
     3
100
AcDbLine
 10
174.3006
 20
-95.83427699999999
 30
0.0
 11
174.3006
 21
-89.834277
 31
0.0
  0
LINE
  5
442
330
36
100
AcDbEntity
  8
0
 62
     3
100
AcDbLine
 10
148.3006
 20
-95.83427699999999
 30
0.0
 11
148.3006
 21
-89.834277
 31
0.0
  0
TEXT
  5
443
330
36
100
AcDbEntity
  8
0
 62
     3
100
AcDbText
 10
177.2971772796397
 20
-95.33592099999999
 30
0.0
 40
4.5
  1
12000
  7
高4.5
100
AcDbText
  0
LINE
  5
444
330
36
100
AcDbEntity
  8
0
 62
     3
100
AcDbLine
 10
19.22275128925955
 20
-130.4999999999999
 30
0.0
 11
-190.0
 21
-130.5
 31
0.0
  0
LINE
  5
445
330
36
100
AcDbEntity
  8
0
100
AcDbLine
 10
19.22275128925951
 20
-65.5
 30
0.0
 11
-190.0
 21
-65.5
 31
0.0
  0
LINE
  5
446
330
36
100
AcDbEntity
  8
0
100
AcDbLine
 10
19.22275128925958
 20
-80.5
 30
0.0
 11
-190.0
 21
-80.5
 31
0.0
  0
LINE
  5
447
330
36
100
AcDbEntity
  8
0
100
AcDbLine
 10
19.22275128925955
 20
-90.5
 30
0.0
 11
-190.0
 21
-90.5
 31
0.0
  0
LINE
  5
448
330
36
100
AcDbEntity
  8
0
100
AcDbLine
 10
19.22275128925955
 20
-95.5
 30
0.0
 11
-190.0
 21
-95.5
 31
0.0
  0
LINE
  5
449
330
36
100
AcDbEntity
  8
0
100
AcDbLine
 10
19.22275128925955
 20
-100.5
 30
0.0
 11
-190.0
 21
-100.5
 31
0.0
  0
LINE
  5
44A
330
36
100
AcDbEntity
  8
0
100
AcDbLine
 10
19.22275128925955
 20
-105.5
 30
0.0
 11
-190.0
 21
-105.5
 31
0.0
  0
LINE
  5
44B
330
36
100
AcDbEntity
  8
0
100
AcDbLine
 10
19.22275128925955
 20
-110.5
 30
0.0
 11
-190.0
 21
-110.5
 31
0.0
  0
LINE
  5
44C
330
36
100
AcDbEntity
  8
0
100
AcDbLine
 10
19.22275128925955
 20
-115.5
 30
0.0
 11
-190.0
 21
-115.5
 31
0.0
  0
LINE
  5
44D
330
36
100
AcDbEntity
  8
0
100
AcDbLine
 10
19.22275128925955
 20
-120.4999999999999
 30
0.0
 11
-190.0
 21
-120.5
 31
0.0
  0
LINE
  5
44E
330
36
100
AcDbEntity
  8
0
100
AcDbLine
 10
19.22275128925955
 20
-125.5
 30
0.0
 11
-190.0
 21
-125.5
 31
0.0
  0
LINE
  5
44F
330
36
100
AcDbEntity
  8
0
100
AcDbLine
 10
19.22275128925958
 20
-85.50000000000002
 30
0.0
 11
-190.0
 21
-85.5
 31
0.0
  0
LINE
  5
450
330
36
100
AcDbEntity
  8
0
 62
     3
100
AcDbLine
 10
199.899964
 20
-89.834277
 30
0.0
 11
148.3006
 21
-89.834277
 31
0.0
  0
LINE
  5
453
330
36
100
AcDbEntity
  8
0
 62
     7
100
AcDbLine
 10
19.22275128925951
 20
-50.5
 30
0.0
 11
-190.0
 21
-50.49999999999999
 31
0.0
  0
LINE
  5
454
330
36
100
AcDbEntity
  8
0
100
AcDbLine
 10
19.22275128925951
 20
-55.5
 30
0.0
 11
-190.0
 21
-55.5
 31
0.0
  0
TEXT
  5
455
330
36
100
AcDbEntity
  8
0
 62
     3
100
AcDbText
 10
-78.66977767040888
 20
-55.0
 30
0.0
 40
3.2
  1
1式
 41
0.8
  7
高3.2
100
AcDbText
  0
TEXT
  5
456
330
36
100
AcDbEntity
  8
0
 62
     3
100
AcDbText
 10
-78.66977767040888
 20
-60.0
 30
0.0
 40
3.2
  1
1
 41
0.8
  7
高3.2
100
AcDbText
  0
TEXT
  5
457
330
36
100
AcDbEntity
  8
0
 62
     3
100
AcDbText
 10
-78.66977767040888
 20
-65.0
 30
0.0
 40
3.2
  1
1式
 41
0.8
  7
高3.2
100
AcDbText
  0
TEXT
  5
458
330
36
100
AcDbEntity
  8
0
 62
     3
100
AcDbText
 10
-143.8290240369109
 20
-65.0
 30
0.0
 40
3.2
  1
NB-3A
 41
0.8
  7
高3.2
100
AcDbText
  0
TEXT
  5
459
330
36
100
AcDbEntity
  8
0
 62
     3
100
AcDbText
 10
-188.5
 20
-60.0
 30
0.0
 40
3.2
  1
OP
 41
0.8
  7
高3.2
100
AcDbText
  0
TEXT
  5
45A
330
36
100
AcDbEntity
  8
0
 62
     3
100
AcDbText
 10
-188.5
 20
-55.0
 30
0.0
 40
3.2
  1
OP
 41
0.8
  7
高3.2
100
AcDbText
  0
TEXT
  5
45B
330
36
100
AcDbEntity
  8
0
 62
     3
100
AcDbText
 10
-188.5
 20
-85.0
 30
0.0
 40
3.2
  1
付属
 41
0.8
  7
高3.2
100
AcDbText
  0
TEXT
  5
45C
330
36
100
AcDbEntity
  8
0
 62
     3
100
AcDbText
 10
-188.5
 20
-80.0
 30
0.0
 40
3.2
  1
付属
 41
0.8
  7
高3.2
100
AcDbText
  0
TEXT
  5
45D
330
36
100
AcDbEntity
  8
0
 62
     3
100
AcDbText
 10
-188.5
 20
-65.0
 30
0.0
 40
3.2
  1
OP
 41
0.8
  7
高3.2
100
AcDbText
  0
TEXT
  5
45E
330
36
100
AcDbEntity
  8
0
 62
     3
100
AcDbText
 10
-188.5
 20
-75.0
 30
0.0
 40
3.2
  1
OP
 41
0.8
  7
高3.2
100
AcDbText
  0
TEXT
  5
45F
330
36
100
AcDbEntity
  8
0
 62
     3
100
AcDbText
 10
-180.2589155191566
 20
-75.0
 30
0.0
 40
3.2
  1
ショルダーバッテリー
 41
0.8
  7
高3.2
100
AcDbText
  0
TEXT
  5
460
330
36
100
AcDbEntity
  8
0
 62
     3
100
AcDbText
 10
-120.7148049439337
 20
-75.0
 30
0.0
 40
3.2
  1
17AH用　収納バッグ付き
 41
0.8
  7
高3.2
100
AcDbText
  0
TEXT
  5
461
330
36
100
AcDbEntity
  8
0
 62
     3
100
AcDbText
 10
-180.2589155191566
 20
-65.0
 30
0.0
 40
3.2
  1
急速充電器
 41
0.8
  7
高3.2
100
AcDbText
  0
TEXT
  5
462
330
36
100
AcDbEntity
  8
0
 62
     3
100
AcDbText
 10
-120.7148049439337
 20
-65.0
 30
0.0
 40
3.2
  1
ショルダーバッテリー用
 41
0.8
  7
高3.2
100
AcDbText
  0
TEXT
  5
463
330
36
100
AcDbEntity
  8
0
 62
     3
100
AcDbText
 10
-120.7148049439337
 20
-60.0
 30
0.0
 40
3.2
  1
HIDL-CA
 41
0.8
  7
高3.2
100
AcDbText
  0
TEXT
  5
464
330
36
100
AcDbEntity
  8
0
 62
     3
100
AcDbText
 10
-180.2589155191566
 20
-55.0
 30
0.0
 40
3.2
  1
100V用安定器
 41
0.8
  7
高3.2
100
AcDbText
  0
TEXT
  5
465
330
36
100
AcDbEntity
  8
0
 62
     3
100
AcDbText
 10
-180.2589155191566
 20
-60.0
 30
0.0
 40
3.2
  1
シガーアダプタ
 41
0.8
  7
高3.2
100
AcDbText
  0
TEXT
  5
466
330
36
100
AcDbEntity
  8
0
 62
     3
100
AcDbText
 10
-120.7148049439337
 20
-55.0
 30
0.0
 40
3.2
  1
HID-PW-1
 41
0.8
  7
高3.2
100
AcDbText
  0
TEXT
  5
467
330
36
100
AcDbEntity
  8
0
 62
     3
100
AcDbText
 10
-180.2589155191566
 20
-85.0
 30
0.0
 40
3.2
  1
バッテリーケース
 41
0.8
  7
高3.2
100
AcDbText
  0
TEXT
  5
468
330
36
100
AcDbEntity
  8
0
 62
     3
100
AcDbText
 10
-180.2589155191566
 20
-80.0
 30
0.0
 40
3.2
  1
ACアダプタ
 41
0.8
  7
高3.2
100
AcDbText
  0
TEXT
  5
469
330
36
100
AcDbEntity
  8
0
 62
     3
100
AcDbText
 10
-120.7148049439337
 20
-85.0
 30
0.0
 40
3.2
  1
HIDL-BC
 41
0.8
  7
高3.2
100
AcDbText
  0
TEXT
  5
46A
330
36
100
AcDbEntity
  8
0
 62
     3
100
AcDbText
 10
-120.7148049439337
 20
-80.0
 30
0.0
 40
3.2
  1
HIDL-AD
 41
0.8
  7
高3.2
100
AcDbText
  0
LINE
  5
46B
330
36
100
AcDbEntity
  8
0
100
AcDbLine
 10
19.22275128925951
 20
-60.5
 30
0.0
 11
-190.0
 21
-60.5
 31
0.0
  0
TEXT
  5
46C
330
36
100
AcDbEntity
  8
0
 62
     3
100
AcDbText
 10
-120.7148049439337
 20
-100.0
 30
0.0
 40
3.2
  1
シガープラグ付き
 41
0.8
  7
高3.2
100
AcDbText
  0
TEXT
  5
46D
330
36
100
AcDbEntity
  8
0
 62
     3
100
AcDbText
 10
-78.66977767040889
 20
-75.0
 30
0.0
 40
3.2
  1
1
 41
0.8
  7
高3.2
100
AcDbText
  0
TEXT
  5
46E
330
36
100
AcDbEntity
  8
0
 62
     3
100
AcDbText
 10
154.1555712758299
 20
-19.13201927106742
 30
0.0
 40
3.2
  1
4144Lx
  7
高3.2
100
AcDbText
  0
TEXT
  5
470
330
36
100
AcDbEntity
  8
0
 62
     3
100
AcDbText
 10
126.8598958253576
 20
-44.13201927106739
 30
0.0
 40
3.2
  1
定格　光束
  7
高3.2
100
AcDbText
  0
TEXT
  5
471
330
36
100
AcDbEntity
  8
0
 62
     3
100
AcDbText
 10
154.1555712758299
 20
-44.13201927106739
 30
0.0
 40
3.2
  1
3200Lm
  7
高3.2
100
AcDbText
  0
TEXT
  5
472
330
36
100
AcDbEntity
  8
0
 62
     3
100
AcDbText
 10
-143.8290240369109
 20
-115.0
 30
0.0
 40
3.2
  1
PA繊維
 41
0.8
  7
高3.2
100
AcDbText
  0
TEXT
  5
473
330
36
100
AcDbEntity
  8
0
 62
     3
100
AcDbText
 10
-143.8290240369109
 20
-130.0
 30
0.0
 40
3.2
  1
強化ガラス
 41
0.8
  7
高3.2
100
AcDbText
  0
TEXT
  5
474
330
36
100
AcDbEntity
  8
0
 62
     3
100
AcDbText
 10
-143.8290240369109
 20
-119.9999999999999
 30
0.0
 40
3.2
  1
PC樹脂
 41
0.8
  7
高3.2
100
AcDbText
  0
TEXT
  5
475
330
36
100
AcDbEntity
  8
0
 62
     3
100
AcDbText
 10
-143.8290240369109
 20
-125.0
 30
0.0
 40
3.2
  1
PC樹脂
 41
0.8
  7
高3.2
100
AcDbText
  0
LINE
  5
478
330
36
100
AcDbEntity
  8
0
100
AcDbLine
 10
19.22275128925958
 20
-75.5
 30
0.0
 11
-190.0
 21
-75.5
 31
0.0
  0
TEXT
  5
479
330
36
100
AcDbEntity
  8
0
 62
     3
100
AcDbText
 10
-78.66977767040889
 20
-90.0
 30
0.0
 40
3.2
  1
1
 41
0.8
  7
高3.2
100
AcDbText
  0
TEXT
  5
47B
330
36
100
AcDbEntity
  8
0
 62
     3
100
AcDbText
 10
-180.2589155191566
 20
-90.0
 30
0.0
 40
3.2
  1
レンズ固定枠
 41
0.8
  7
高3.2
100
AcDbText
  0
TEXT
  5
47C
330
36
100
AcDbEntity
  8
0
 62
     3
100
AcDbText
 10
-143.8290240369109
 20
-90.0
 30
0.0
 40
3.2
  1
耐衝撃PA樹脂
 41
0.8
  7
高3.2
100
AcDbText
  0
TEXT
  5
47D
330
36
100
AcDbEntity
  8
0
 62
     3
100
AcDbText
 10
-120.7148049439337
 20
-90.0
 30
0.0
 40
3.2
  1
成形品（緑）
 41
0.8
  7
高3.2
100
AcDbText
  0
CIRCLE
  5
48C
330
36
100
AcDbEntity
  8
0
100
AcDbCircle
 10
-17.82862362274334
 20
124.8468017896572
 30
0.0
 40
5.0
  0
TEXT
  5
48D
330
36
100
AcDbEntity
  8
0
 62
     4
100
AcDbText
 10
-19.9626423400166
 20
121.9056029618309
 30
0.0
 40
6.299999999999998
  1
9
  7
高6.3
100
AcDbText
  0
TEXT
  5
48E
330
36
100
AcDbEntity
  8
0
100
AcDbText
 10
125.5
 20
124.055361
 30
0.0
 40
2.5
  1
'10,6,2
  7
高2.5
100
AcDbText
  0
TEXT
  5
48F
330
36
100
AcDbEntity
  8
0
100
AcDbText
 10
143.5
 20
124.055361
 30
0.0
 40
2.5
  1
部品名　レンズ固定枠追加
  7
高2.5
100
AcDbText
  0
TEXT
  5
490
330
36
100
AcDbEntity
  8
0
100
AcDbText
 10
187.4999999999999
 20
124.055361
 30
0.0
 40
2.5
  1
牧田
  7
高2.5
100
AcDbText
  0
LINE
  5
491
330
36
100
AcDbEntity
  8
0
 62
     3
100
AcDbLine
 10
19.22275128925958
 20
-135.5
 30
0.0
 11
19.22275128925958
 21
-45.49999999999999
 31
0.0
  0
LINE
  5
492
330
36
100
AcDbEntity
  8
0
100
AcDbLine
 10
-72.55920520454086
 20
-45.49999999999999
 30
0.0
 11
-72.55920520454084
 21
-135.5
 31
0.0
  0
LINE
  5
493
330
36
100
AcDbEntity
  8
0
100
AcDbLine
 10
-80.16977767040888
 20
-45.49999999999999
 30
0.0
 11
-80.1697776704089
 21
-135.5
 31
0.0
  0
LINE
  5
494
330
36
100
AcDbEntity
  8
0
100
AcDbLine
 10
-122.2148049439337
 20
-45.49999999999999
 30
0.0
 11
-122.2148049439338
 21
-135.5
 31
0.0
  0
LINE
  5
495
330
36
100
AcDbEntity
  8
0
100
AcDbLine
 10
-145.3290240369109
 20
-45.49999999999999
 30
0.0
 11
-145.3290240369109
 21
-135.5
 31
0.0
  0
LINE
  5
496
330
36
100
AcDbEntity
  8
0
100
AcDbLine
 10
-181.7589155191566
 20
-45.49999999999999
 30
0.0
 11
-181.7589155191566
 21
-135.5
 31
0.0
  0
TEXT
  5
497
330
36
100
AcDbEntity
  8
0
 62
     3
100
AcDbText
 10
-71.05920520454084
 20
-135.0
 30
0.0
 40
3.2
  1
コード
 41
0.8
  7
高3.2
100
AcDbText
  0
TEXT
  5
4A9
330
36
100
AcDbEntity
  8
0
 62
     3
100
AcDbText
 10
-71.05920520454084
 20
-55.0
 30
0.0
 40
3.2
  1
53419
 41
0.8
  7
高3.2
100
AcDbText
  0
TEXT
  5
4AA
330
36
100
AcDbEntity
  8
0
 62
     3
100
AcDbText
 10
-71.05920520454084
 20
-60.0
 30
0.0
 40
3.2
  1
12030
 41
0.8
  7
高3.2
100
AcDbText
  0
TEXT
  5
4AB
330
36
100
AcDbEntity
  8
0
 62
     3
100
AcDbText
 10
-71.05920520454084
 20
-65.0
 30
0.0
 40
3.2
  1
25500
 41
0.8
  7
高3.2
100
AcDbText
  0
TEXT
  5
4AE
330
36
100
AcDbEntity
  8
0
 62
     3
100
AcDbText
 10
-71.05920520454084
 20
-80.0
 30
0.0
 40
3.2
  1
53321
 41
0.8
  7
高3.2
100
AcDbText
  0
TEXT
  5
4AF
330
36
100
AcDbEntity
  8
0
 62
     3
100
AcDbText
 10
-71.05920520454084
 20
-85.0
 30
0.0
 40
3.2
  1
53527
 41
0.8
  7
高3.2
100
AcDbText
  0
TEXT
  5
4B0
330
36
100
AcDbEntity
  8
0
 62
     3
100
AcDbText
 10
-71.05920520454084
 20
-95.0
 30
0.0
 40
3.2
  1
53325
 41
0.8
  7
高3.2
100
AcDbText
  0
TEXT
  5
4B1
330
36
100
AcDbEntity
  8
0
 62
     3
100
AcDbText
 10
-71.05920520454084
 20
-100.0
 30
0.0
 40
3.2
  1
53562
 41
0.8
  7
高3.2
100
AcDbText
  0
TEXT
  5
4B2
330
36
100
AcDbEntity
  8
0
 62
     3
100
AcDbText
 10
-71.05920520454084
 20
-110.0
 30
0.0
 40
3.2
  1
53320
 41
0.8
  7
高3.2
100
AcDbText
  0
TEXT
  5
4B3
330
36
100
AcDbEntity
  8
0
 62
     3
100
AcDbText
 10
-71.05920520454084
 20
-115.0
 30
0.0
 40
3.2
  1
53323
 41
0.8
  7
高3.2
100
AcDbText
  0
TEXT
  5
4B6
330
36
100
AcDbEntity
  8
0
 62
     3
100
AcDbText
 10
-71.05920520454084
 20
-129.9999999999999
 30
0.0
 40
3.2
  1
53322
 41
0.8
  7
高3.2
100
AcDbText
  0
TEXT
  5
4B7
330
36
100
AcDbEntity
  8
0
 62
     3
100
AcDbText
 10
-71.05920520454084
 20
-119.9999999999999
 30
0.0
 40
3.2
  1
53608
 41
0.8
  7
高3.2
100
AcDbText
  0
TEXT
  5
4B8
330
36
100
AcDbEntity
  8
0
 62
     3
100
AcDbText
 10
-71.05920520454084
 20
-125.0
 30
0.0
 40
3.2
  1
53324
 41
0.8
  7
高3.2
100
AcDbText
  0
TEXT
  5
4B9
330
36
100
AcDbEntity
  8
0
 62
     3
100
AcDbText
 10
-71.05920520454084
 20
-105.0
 30
0.0
 40
3.2
  1
54248
 41
0.8
  7
高3.2
100
AcDbText
  0
TEXT
  5
4BB
330
36
100
AcDbEntity
  8
0
 62
     3
100
AcDbText
 10
-71.05920520454084
 20
-90.0
 30
0.0
 40
3.2
  1
54247
 41
0.8
  7
高3.2
100
AcDbText
  0
TEXT
  5
987
330
36
100
AcDbEntity
  8
0
 62
     3
100
AcDbText
 10
-188.5
 20
-70.0
 30
0.0
 40
3.2
  1
OP
 41
0.8
  7
高3.2
100
AcDbText
  0
TEXT
  5
988
330
36
100
AcDbEntity
  8
0
 62
     3
100
AcDbText
 10
-180.2589155191566
 20
-70.0
 30
0.0
 40
3.2
  1
ショルダーバッテリー
 41
0.8
  7
高3.2
100
AcDbText
  0
TEXT
  5
989
330
36
100
AcDbEntity
  8
0
 62
     3
100
AcDbText
 10
-120.7148049439337
 20
-70.00000000000001
 30
0.0
 40
3.2
  1
7AH用収　納バッグ付き
 41
0.8
  7
高3.2
100
AcDbText
  0
TEXT
  5
98A
330
36
100
AcDbEntity
  8
0
 62
     3
100
AcDbText
 10
-78.66977767040888
 20
-70.00000000000001
 30
0.0
 40
3.2
  1
1
 41
0.8
  7
高3.2
100
AcDbText
  0
LINE
  5
98B
330
36
100
AcDbEntity
  8
0
100
AcDbLine
 10
19.22275128925955
 20
-70.50000000000003
 30
0.0
 11
-190.0
 21
-70.5
 31
0.0
  0
TEXT
  5
98C
330
36
100
AcDbEntity
  8
0
 62
     3
100
AcDbText
 10
-71.05920520454084
 20
-70.00000000000001
 30
0.0
 40
3.2
  1
12050
 41
0.8
  7
高3.2
100
AcDbText
  0
TEXT
  5
98D
330
36
100
AcDbEntity
  8
0
 62
     3
100
AcDbText
 10
-71.05920520454084
 20
-75.0
 30
0.0
 40
3.2
  1
12051
 41
0.8
  7
高3.2
100
AcDbText
  0
TEXT
  5
994
330
36
100
AcDbEntity
  8
0
 62
     3
100
AcDbText
 10
-56.28286352691369
 20
-129.9999999999999
 30
0.0
 40
3.2
  1
HID-35W　HIDL-35W-BA/HIDL-35X用替球(キセノン球)
 41
0.6
  7
高3.2
100
AcDbText
  0
TEXT
  5
995
330
36
100
AcDbEntity
  8
0
 62
     3
100
AcDbText
 10
-56.28286352691369
 20
-110.0
 30
0.0
 40
3.2
  1
HIDL-B HIDL-35W/LEDL-24W兼用予備バッテリー
 41
0.6
  7
高3.2
100
AcDbText
  0
TEXT
  5
996
330
36
100
AcDbEntity
  8
0
 62
     3
100
AcDbText
 10
-56.28286352691369
 20
-119.9999999999999
 30
0.0
 40
3.2
  1
プロテクトレンズ(透明)HIDL-35W-BA用
 41
0.6
  7
高3.2
100
AcDbText
  0
TEXT
  5
997
330
36
100
AcDbEntity
  8
0
 62
     3
100
AcDbText
 10
-56.28286352691369
 20
-125.0
 30
0.0
 40
3.2
  1
HIDL-L　HIDL-35W用拡散レンズ
 41
0.6
  7
高3.2
100
AcDbText
  0
TEXT
  5
998
330
36
100
AcDbEntity
  8
0
 62
     3
100
AcDbText
 10
-56.28286352691369
 20
-105.0
 30
0.0
 40
3.2
  1
バッテリーキャップ(HIDL-35W-BA/LEDL-24W用)
 41
0.6
  7
高3.2
100
AcDbText
  0
TEXT
  5
999
330
36
100
AcDbEntity
  8
0
 62
     3
100
AcDbText
 10
-56.28286352691369
 20
-100.0
 30
0.0
 40
3.2
  1
HIDL-DC1M　予備バッテリー接続ケーブル
 41
0.6
  7
高3.2
100
AcDbText
  0
TEXT
  5
99A
330
36
100
AcDbEntity
  8
0
 62
     3
100
AcDbText
 10
-56.28286352691369
 20
-115.0
 30
0.0
 40
3.2
  1
HIDL-SB　HIDL-35W/LEDL-24W用ショルダーベルト
 41
0.6
  7
高3.2
100
AcDbText
  0
TEXT
  5
99B
330
36
100
AcDbEntity
  8
0
 62
     3
100
AcDbText
 10
-56.28286352691369
 20
-95.0
 30
0.0
 40
3.2
  1
HIDL-C　HIDL-35W用収納ケース
 41
0.6
  7
高3.2
100
AcDbText
  0
TEXT
  5
99C
330
36
100
AcDbEntity
  8
0
 62
     3
100
AcDbText
 10
-56.28286352691369
 20
-135.0
 30
0.0
 40
3.2
  1
コード番号名称
 41
0.6
  7
高3.2
100
AcDbText
  0
TEXT
  5
99D
330
36
100
AcDbEntity
  8
0
 62
     3
100
AcDbText
 10
-56.28286352691369
 20
-75.0
 30
0.0
 40
3.2
  1
HIDL-SB-17AH　17AH用バッテリーショルダー
 41
0.6
  7
高3.2
100
AcDbText
  0
TEXT
  5
99E
330
36
100
AcDbEntity
  8
0
 62
     3
100
AcDbText
 10
-56.28286352691369
 20
-65.0
 30
0.0
 40
3.2
  1
NB-3Aバッテリーライト用充電器
 41
0.6
  7
高3.2
100
AcDbText
  0
TEXT
  5
99F
330
36
100
AcDbEntity
  8
0
 62
     3
100
AcDbText
 10
-56.28286352691369
 20
-55.0
 30
0.0
 40
3.2
  1
HID-PW-1　スーパーサーチライト1灯用安定器
 41
0.6
  7
高3.2
100
AcDbText
  0
TEXT
  5
9A0
330
36
100
AcDbEntity
  8
0
 62
     3
100
AcDbText
 10
-56.28286352691369
 20
-60.0
 30
0.0
 40
3.2
  1
HIDL-CA　HIDL-35W-BA用100V安定器接続アダプター
 41
0.6
  7
高3.2
100
AcDbText
  0
TEXT
  5
9A1
330
36
100
AcDbEntity
  8
0
 62
     3
100
AcDbText
 10
-56.28286352691369
 20
-85.0
 30
0.0
 40
3.2
  1
HIDL-BC　HIDL-35W/LEDL-24W用バッテリーケース
 41
0.6
  7
高3.2
100
AcDbText
  0
TEXT
  5
9A2
330
36
100
AcDbEntity
  8
0
 62
     3
100
AcDbText
 10
-56.28286352691369
 20
-80.0
 30
0.0
 40
3.2
  1
HIDL-AD　HIDL-35W/LEDL-24W用ACアダプター
 41
0.6
  7
高3.2
100
AcDbText
  0
TEXT
  5
9A3
330
36
100
AcDbEntity
  8
0
 62
     3
100
AcDbText
 10
-56.28286352691369
 20
-90.0
 30
0.0
 40
3.2
  1
レンズ固定枠(緑)(HIDL-35W-BA用)
 41
0.6
  7
高3.2
100
AcDbText
  0
LINE
  5
9A4
330
36
100
AcDbEntity
  8
0
100
AcDbLine
 10
-57.7828635269137
 20
-45.49999999999999
 30
0.0
 11
-57.78286352691369
 21
-135.5
 31
0.0
  0
TEXT
  5
9A5
330
36
100
AcDbEntity
  8
0
 62
     3
100
AcDbText
 10
-56.28286352691369
 20
-70.00000000000001
 30
0.0
 40
3.2
  1
HIDL-SB-7AH　7AH用バッテリーショルダー
 41
0.6
  7
高3.2
100
AcDbText
  0
LINE
  5
AC3
330
36
100
AcDbEntity
  8
0
100
AcDbLine
 10
195.3695444294532
 20
-64.63201927106739
 30
0.0
 11
125.6439713246457
 21
-64.63201927106739
 31
0.0
  0
LINE
  5
AC4
330
36
100
AcDbEntity
  8
0
100
AcDbLine
 10
195.3695444294532
 20
-59.63201927106739
 30
0.0
 11
125.6439713246457
 21
-59.63201927106739
 31
0.0
  0
LINE
  5
AC5
330
36
100
AcDbEntity
  8
0
100
AcDbLine
 10
195.3695444294532
 20
-54.63201927106739
 30
0.0
 11
125.6439713246457
 21
-54.63201927106739
 31
0.0
  0
LINE
  5
AC6
330
36
100
AcDbEntity
  8
0
100
AcDbLine
 10
195.3695444294532
 20
-49.63201927106739
 30
0.0
 11
125.6439713246457
 21
-49.63201927106739
 31
0.0
  0
LINE
  5
AC7
330
36
100
AcDbEntity
  8
0
100
AcDbLine
 10
195.3695444294532
 20
-44.63201927106739
 30
0.0
 11
125.6439713246457
 21
-44.63201927106739
 31
0.0
  0
LINE
  5
AC8
330
36
100
AcDbEntity
  8
0
100
AcDbLine
 10
195.3695444294532
 20
-39.63201927106739
 30
0.0
 11
125.6439713246457
 21
-39.63201927106739
 31
0.0
  0
LINE
  5
AC9
330
36
100
AcDbEntity
  8
0
100
AcDbLine
 10
195.3695444294532
 20
-34.6320192710674
 30
0.0
 11
136.3695017697496
 21
-34.6320192710674
 31
0.0
  0
LINE
  5
ACA
330
36
100
AcDbEntity
  8
0
100
AcDbLine
 10
195.3695444294532
 20
-29.63201927106739
 30
0.0
 11
136.3695017697496
 21
-29.63201927106739
 31
0.0
  0
LINE
  5
ACB
330
36
100
AcDbEntity
  8
0
100
AcDbLine
 10
195.3695444294532
 20
-24.63201927106741
 30
0.0
 11
136.3695017697496
 21
-24.63201927106741
 31
0.0
  0
LINE
  5
ACC
330
36
100
AcDbEntity
  8
0
100
AcDbLine
 10
195.3695444294532
 20
-19.63201927106743
 30
0.0
 11
136.3695017697496
 21
-19.63201927106743
 31
0.0
  0
LINE
  5
ACD
330
36
100
AcDbEntity
  8
0
100
AcDbLine
 10
195.3695444294532
 20
-14.63201927106741
 30
0.0
 11
125.6439713246457
 21
-14.63201927106741
 31
0.0
  0
LINE
  5
ACF
330
36
100
AcDbEntity
  8
0
100
AcDbLine
 10
195.3695444294532
 20
-9.632019271067408
 30
0.0
 11
125.6439713246457
 21
-9.632019271067408
 31
0.0
  0
LINE
  5
AD0
330
36
100
AcDbEntity
  8
0
100
AcDbLine
 10
195.3695444294532
 20
0.3679807289325918
 30
0.0
 11
125.6439713246457
 21
0.3679807289325918
 31
0.0
  0
LINE
  5
AD1
330
36
100
AcDbEntity
  8
0
100
AcDbLine
 10
195.3695444294532
 20
5.36798072893259
 30
0.0
 11
125.6439713246457
 21
5.36798072893259
 31
0.0
  0
LINE
  5
AD2
330
36
100
AcDbEntity
  8
0
 62
     3
100
AcDbLine
 10
195.3695444294532
 20
10.36798072893259
 30
0.0
 11
125.6439713246457
 21
10.36798072893259
 31
0.0
  0
LINE
  5
AE3
330
36
100
AcDbEntity
  8
0
100
AcDbLine
 10
136.3695017697496
 20
-39.63201927106739
 30
0.0
 11
136.3695017697496
 21
-14.63201927106741
 31
0.0
  0
TEXT
  5
AE4
330
36
100
AcDbEntity
  8
0
 62
     3
100
AcDbText
 10
138.1625600225319
 20
-19.13201927106742
 30
0.0
 40
3.2
  1
10m
  7
高3.2
100
AcDbText
  0
TEXT
  5
AE9
330
36
100
AcDbEntity
  8
0
 62
     3
100
AcDbText
 10
138.1625600225319
 20
-24.1320192710674
 30
0.0
 40
3.2
  1
50m
  7
高3.2
100
AcDbText
  0
TEXT
  5
AEA
330
36
100
AcDbEntity
  8
0
 62
     3
100
AcDbText
 10
138.1625600225319
 20
-29.1320192710674
 30
0.0
 40
3.2
  1
100m
  7
高3.2
100
AcDbText
  0
TEXT
  5
AEB
330
36
100
AcDbEntity
  8
0
 62
     3
100
AcDbText
 10
138.1625600225319
 20
-34.13201927106739
 30
0.0
 40
3.2
  1
300m
  7
高3.2
100
AcDbText
  0
TEXT
  5
AEC
330
36
100
AcDbEntity
  8
0
 62
     3
100
AcDbText
 10
138.1625600225319
 20
-39.13201927106739
 30
0.0
 40
3.2
  1
600m
  7
高3.2
100
AcDbText
  0
TEXT
  5
AED
330
36
100
AcDbEntity
  8
0
 62
     3
100
AcDbText
 10
154.1555712758299
 20
-24.1320192710674
 30
0.0
 40
3.2
  1
166Lx
  7
高3.2
100
AcDbText
  0
TEXT
  5
AEE
330
36
100
AcDbEntity
  8
0
 62
     3
100
AcDbText
 10
154.1555712758299
 20
-29.13201927106738
 30
0.0
 40
3.2
  1
41.4Lx
  7
高3.2
100
AcDbText
  0
TEXT
  5
AEF
330
36
100
AcDbEntity
  8
0
 62
     3
100
AcDbText
 10
154.1555712758299
 20
-34.13201927106739
 30
0.0
 40
3.2
  1
4.6Lx
  7
高3.2
100
AcDbText
  0
TEXT
  5
AF0
330
36
100
AcDbEntity
  8
0
 62
     3
100
AcDbText
 10
154.1555712758299
 20
-39.13201927106739
 30
0.0
 40
3.2
  1
1.2Lx
  7
高3.2
100
AcDbText
  0
TEXT
  5
AFA
330
36
100
AcDbEntity
  8
0
100
AcDbText
 10
125.5
 20
119.055361
 30
0.0
 40
2.5
  1
'11.12.12
  7
高2.5
100
AcDbText
  0
TEXT
  5
AFB
330
36
100
AcDbEntity
  8
0
100
AcDbText
 10
143.5
 20
119.055361
 30
0.0
 40
2.5
  1
照度値追加変更
  7
高2.5
100
AcDbText
  0
TEXT
  5
AFC
330
36
100
AcDbEntity
  8
0
100
AcDbText
 10
187.4999999999999
 20
119.055361
 30
0.0
 40
2.5
  1
今村
  7
高2.5
100
AcDbText
  0
TEXT
  5
BB3
330
36
100
AcDbEntity
  8
0
 62
     3
100
AcDbText
 10
126.8598958253576
 20
-4.132019271067406
 30
0.0
 40
3.2
  1
充電　電圧
  7
高3.2
100
AcDbText
  0
TEXT
  5
BB4
330
36
100
AcDbEntity
  8
0
 62
     3
100
AcDbText
 10
154.1555712758299
 20
-4.132019271067406
 30
0.0
 40
3.2
  1
AC100V
  7
高3.2
100
AcDbText
  0
LINE
  5
BB5
330
36
100
AcDbEntity
  8
0
100
AcDbLine
 10
195.3695444294532
 20
-4.632019271067398
 30
0.0
 11
125.6439713246457
 21
-4.632019271067398
 31
0.0
  0
ARC
  5
BC2
330
36
100
AcDbEntity
  8
0
100
AcDbCircle
 10
141.3067687033554
 20
25.12286560154747
 30
0.0
 40
1.835787825593533
100
AcDbArc
 50
308.895382358779
 51
44.64524362910387
  0
ARC
  5
BC3
330
36
100
AcDbEntity
  8
0
100
AcDbCircle
 10
143.3659112281568
 20
27.503673503533
 30
0.0
 40
1.325458805771855
100
AcDbArc
 50
117.1528644326135
 51
235.3801177099214
  0
ARC
  5
BC4
330
36
100
AcDbEntity
  8
0
100
AcDbCircle
 10
107.5339262705411
 20
25.12286560154747
 30
0.0
 40
1.835787825593533
100
AcDbArc
 50
308.895382358779
 51
44.64524362910409
  0
ARC
  5
BC5
330
36
100
AcDbEntity
  8
0
100
AcDbCircle
 10
109.5930687953425
 20
27.503673503533
 30
0.0
 40
1.325458805771855
100
AcDbArc
 50
117.1528644326137
 51
235.3801177099211
  0
TEXT
  5
CEE
330
36
100
AcDbEntity
  8
0
100
AcDbText
 10
126.3091201516792
 20
-77.81142647873443
 30
0.0
 40
2.5
  1
注１）：照度は反射率などを含む当社実測値の為、
  7
高2.5
100
AcDbText
  0
TEXT
  5
DE5
330
36
100
AcDbEntity
  8
0
100
AcDbText
 10
126.3091201516792
 20
-80.639155250685
 30
0.0
 40
2.5
  1
　　　　使用環境下により異なります。
  7
高2.5
100
AcDbText
  0
TEXT
  5
FED
330
36
100
AcDbEntity
  8
0
 62
     3
100
AcDbText
 10
126.8598958253576
 20
-69.13201927106739
 30
0.0
 40
3.2
  1
防水　規格
  7
高3.2
100
AcDbText
  0
TEXT
  5
FEE
330
36
100
AcDbEntity
  8
0
 62
     3
100
AcDbText
 10
154.1555712758299
 20
-69.13201927106739
 30
0.0
 40
3.2
  1
IP55
  7
高3.2
100
AcDbText
  0
LINE
  5
FEF
330
36
100
AcDbEntity
  8
0
100
AcDbLine
 10
195.3695444294532
 20
-69.63201927106739
 30
0.0
 11
125.6439713246457
 21
-69.63201927106739
 31
0.0
  0
TEXT
  5
1134
330
36
100
AcDbEntity
  8
0
 62
     3
100
AcDbText
 10
187.5
 20
129.055361
 30
0.0
 40
3.2
  1
担　当
  7
高3.2
100
AcDbText
  0
TEXT
  5
1135
330
36
100
AcDbEntity
  8
0
 62
     3
100
AcDbText
 10
143.5
 20
129.055361
 30
0.0
 40
3.2
  1
変更・追記内容
  7
高3.2
100
AcDbText
  0
TEXT
  5
1136
330
36
100
AcDbEntity
  8
0
 62
     3
100
AcDbText
 10
118.6135150003392
 20
124.3848224900917
 30
0.0
 40
2.0
  1
1
  7
高2
100
AcDbText
  0
TEXT
  5
1137
330
36
100
AcDbEntity
  8
0
 62
     3
100
AcDbText
 10
118.3050035235819
 20
119.2150057778188
 30
0.0
 40
2.0
  1
2
  7
高2
100
AcDbText
  0
TEXT
  5
1138
330
36
100
AcDbEntity
  8
0
 62
     3
100
AcDbText
 10
125.5
 20
129.055361
 30
0.0
 40
3.2
  1
日　付
  7
高3.2
100
AcDbText
  0
TEXT
  5
1139
330
36
100
AcDbEntity
  8
0
 62
     3
100
AcDbText
 10
125.5
 20
134.055361
 30
0.0
 40
3.2
  1
図　　　　面　　　　略　　　　歴
  7
高3.2
100
AcDbText
  0
TEXT
  5
113A
330
36
100
AcDbEntity
  8
0
 62
     3
100
AcDbText
 10
115.5
 20
129.055361
 30
0.0
 40
3.2
  1
記号
  7
高3.2
100
AcDbText
  0
LINE
  5
113B
330
36
100
AcDbEntity
  8
0
100
AcDbLine
 10
119.0
 20
122.3462570000001
 30
0.0
 11
117.1
 21
119.055361
 31
0.0
  0
LINE
  5
113C
330
36
100
AcDbEntity
  8
0
100
AcDbLine
 10
119.0
 20
122.3462570000001
 30
0.0
 11
120.9
 21
119.055361
 31
0.0
  0
LINE
  5
113D
330
36
100
AcDbEntity
  8
0
100
AcDbLine
 10
117.1
 20
119.055361
 30
0.0
 11
120.9
 21
119.055361
 31
0.0
  0
LINE
  5
113E
330
36
100
AcDbEntity
  8
0
100
AcDbLine
 10
119.0
 20
127.3462580000001
 30
0.0
 11
117.1
 21
124.055361
 31
0.0
  0
LINE
  5
113F
330
36
100
AcDbEntity
  8
0
100
AcDbLine
 10
119.0
 20
127.3462580000001
 30
0.0
 11
120.9
 21
124.055361
 31
0.0
  0
LINE
  5
1140
330
36
100
AcDbEntity
  8
0
100
AcDbLine
 10
117.1
 20
124.055361
 30
0.0
 11
120.9
 21
124.055361
 31
0.0
  0
LINE
  5
1141
330
36
100
AcDbEntity
  8
0
 62
     3
100
AcDbLine
 10
114.0
 20
133.555361
 30
0.0
 11
200.0
 21
133.555361
 31
0.0
  0
LINE
  5
1142
330
36
100
AcDbEntity
  8
0
 62
     3
100
AcDbLine
 10
114.0
 20
128.555361
 30
0.0
 11
200.0
 21
128.555361
 31
0.0
  0
LINE
  5
1143
330
36
100
AcDbEntity
  8
0
 62
     7
100
AcDbLine
 10
114.0
 20
123.555361
 30
0.0
 11
200.0
 21
123.555361
 31
0.0
  0
LINE
  5
1144
330
36
100
AcDbEntity
  8
0
 62
     7
100
AcDbLine
 10
114.0
 20
118.555361
 30
0.0
 11
200.0
 21
118.555361
 31
0.0
  0
LINE
  5
1145
330
36
100
AcDbEntity
  8
0
 62
     7
100
AcDbLine
 10
185.9999999999999
 20
108.555361
 30
0.0
 11
186.0
 21
133.555361
 31
0.0
  0
LINE
  5
1146
330
36
100
AcDbEntity
  8
0
 62
     7
100
AcDbLine
 10
142.0
 20
108.555361
 30
0.0
 11
142.0
 21
133.555361
 31
0.0
  0
LINE
  5
1147
330
36
100
AcDbEntity
  8
0
 62
     7
100
AcDbLine
 10
124.0
 20
108.555361
 30
0.0
 11
124.0
 21
133.555361
 31
0.0
  0
LINE
  5
1148
330
36
100
AcDbEntity
  8
0
 62
     3
100
AcDbLine
 10
114.0
 20
108.555361
 30
0.0
 11
114.0
 21
138.555361
 31
0.0
  0
TEXT
  5
123F
330
36
100
AcDbEntity
  8
0
100
AcDbText
 10
125.5
 20
114.055361
 30
0.0
 40
2.5
  1
'14.02.21
  7
高2.5
100
AcDbText
  0
TEXT
  5
1240
330
36
100
AcDbEntity
  8
0
100
AcDbText
 10
143.5
 20
114.055361
 30
0.0
 40
2.5
  1
バッテリー容量変更No.4665
 41
0.8
  7
高2.5
100
AcDbText
  0
TEXT
  5
1241
330
36
100
AcDbEntity
  8
0
100
AcDbText
 10
187.4999999999999
 20
114.055361
 30
0.0
 40
2.5
  1
今村
  7
高2.5
100
AcDbText
  0
TEXT
  5
1242
330
36
100
AcDbEntity
  8
0
 62
     3
100
AcDbText
 10
118.3050035235819
 20
114.2150057778188
 30
0.0
 40
2.0
  1
3
  7
高2
100
AcDbText
  0
LINE
  5
1243
330
36
100
AcDbEntity
  8
0
100
AcDbLine
 10
119.0
 20
117.3462570000001
 30
0.0
 11
117.1
 21
114.055361
 31
0.0
  0
LINE
  5
1244
330
36
100
AcDbEntity
  8
0
100
AcDbLine
 10
119.0
 20
117.3462570000001
 30
0.0
 11
120.9
 21
114.055361
 31
0.0
  0
LINE
  5
1245
330
36
100
AcDbEntity
  8
0
100
AcDbLine
 10
117.1
 20
114.055361
 30
0.0
 11
120.9
 21
114.055361
 31
0.0
  0
LINE
  5
1246
330
36
100
AcDbEntity
  8
0
 62
     7
100
AcDbLine
 10
114.0
 20
113.555361
 30
0.0
 11
200.0
 21
113.555361
 31
0.0
  0
LINE
  5
1348
330
36
100
AcDbEntity
  8
0
 62
     3
100
AcDbLine
 10
19.22275128925951
 20
-45.49999999999999
 30
0.0
 11
-190.0
 21
-45.49999999999999
 31
0.0
  0
TEXT
  5
1349
330
36
100
AcDbEntity
  8
0
 62
     3
100
AcDbText
 10
-78.66977767040888
 20
-50.0
 30
0.0
 40
3.2
  1
-
 41
0.8
  7
高3.2
100
AcDbText
  0
TEXT
  5
134A
330
36
100
AcDbEntity
  8
0
 62
     3
100
AcDbText
 10
-188.5
 20
-50.0
 30
0.0
 40
3.2
  1
OP
 41
0.8
  7
高3.2
100
AcDbText
  0
TEXT
  5
134B
330
36
100
AcDbEntity
  8
0
 62
     3
100
AcDbText
 10
-180.2589155191566
 20
-50.0
 30
0.0
 40
3.2
  1
予備バッテリー
 41
0.8
  7
高3.2
100
AcDbText
  0
TEXT
  5
134C
330
36
100
AcDbEntity
  8
0
 62
     3
100
AcDbText
 10
-120.7148049439337
 20
-50.0
 30
0.0
 40
3.2
  1
HIDL-B-96　9.6Ah
 41
0.8
  7
高3.2
100
AcDbText
  0
TEXT
  5
134D
330
36
100
AcDbEntity
  8
0
 62
     3
100
AcDbText
 10
-71.05920520454084
 20
-50.0
 30
0.0
 40
3.2
  1
56525
 41
0.8
  7
高3.2
100
AcDbText
  0
TEXT
  5
134E
330
36
100
AcDbEntity
  8
0
 62
     3
100
AcDbText
 10
-56.28286352691369
 20
-50.0
 30
0.0
 40
3.2
  1
HIDL-35W-BA用　大容量リチウムイオンバッテリー
 41
0.6
  7
高3.2
100
AcDbText
  0
TEXT
  5
144D
330
36
100
AcDbEntity
  8
0
100
AcDbText
 10
125.5
 20
109.055361
 30
0.0
 40
2.5
  1
'17.03.08
  7
高2.5
100
AcDbText
  0
TEXT
  5
144E
330
36
100
AcDbEntity
  8
0
100
AcDbText
 10
143.5
 20
109.055361
 30
0.0
 40
2.5
  1
バッテリー容量変更No.5501
 41
0.8
  7
高2.5
100
AcDbText
  0
TEXT
  5
144F
330
36
100
AcDbEntity
  8
0
 62
     3
100
AcDbText
 10
118.3050035235819
 20
109.2150057778188
 30
0.0
 40
2.0
  1
4
  7
高2
100
AcDbText
  0
LINE
  5
1450
330
36
100
AcDbEntity
  8
0
100
AcDbLine
 10
119.0
 20
112.3462570000001
 30
0.0
 11
117.1
 21
109.055361
 31
0.0
  0
LINE
  5
1451
330
36
100
AcDbEntity
  8
0
100
AcDbLine
 10
119.0
 20
112.3462570000001
 30
0.0
 11
120.9
 21
109.055361
 31
0.0
  0
LINE
  5
1452
330
36
100
AcDbEntity
  8
0
100
AcDbLine
 10
117.1
 20
109.055361
 30
0.0
 11
120.9
 21
109.055361
 31
0.0
  0
LINE
  5
1453
330
36
100
AcDbEntity
  8
0
 62
     3
100
AcDbLine
 10
114.0
 20
108.555361
 30
0.0
 11
200.0
 21
108.555361
 31
0.0
  0
TEXT
  5
1457
330
36
100
AcDbEntity
  8
0
100
AcDbText
 10
187.4999999999999
 20
109.055361
 30
0.0
 40
2.5
  1
今村
  7
高2.5
100
AcDbText
  0
LINE
  5
15B6
330
36
100
AcDbEntity
  8
0
100
AcDbLine
 10
53.78214937725665
 20
17.88442640055278
 30
0.0
 11
52.11921637725668
 21
19.11805540055278
 31
0.0
  0
LINE
  5
15B7
330
36
100
AcDbEntity
  8
0
100
AcDbLine
 10
52.11921637725668
 20
19.11805540055278
 30
0.0
 11
52.94254337725664
 21
17.21823440055279
 31
0.0
  0
LINE
  5
15B8
330
36
100
AcDbEntity
  8
0
100
AcDbLine
 10
36.37069637725665
 20
108.6395614005527
 30
0.0
 11
35.87948337725665
 21
106.6281204005528
 31
0.0
  0
LINE
  5
15B9
330
36
100
AcDbEntity
  8
0
100
AcDbLine
 10
35.87948337725665
 20
106.6281204005528
 30
0.0
 11
37.31060737725665
 21
108.1244734005528
 31
0.0
  0
LINE
  5
15BA
330
36
100
AcDbEntity
  8
0
 62
     2
100
AcDbLine
 10
0.258626
 20
139.09599
 30
0.0
 11
0.232015
 21
139.266372
 31
0.0
  0
LINE
  5
15BB
330
36
100
AcDbEntity
  8
0
 62
     2
100
AcDbLine
 10
0.232015
 20
139.266372
 30
0.0
 11
0.200056
 21
139.429522
 31
0.0
  0
LINE
  5
15BC
330
36
100
AcDbEntity
  8
0
 62
     2
100
AcDbLine
 10
0.200056
 20
139.429522
 30
0.0
 11
0.162997
 21
139.584178
 31
0.0
  0
LINE
  5
15BD
330
36
100
AcDbEntity
  8
0
 62
     2
100
AcDbLine
 10
0.162997
 20
139.584178
 30
0.0
 11
0.121122
 21
139.729144
 31
0.0
  0
LINE
  5
15BE
330
36
100
AcDbEntity
  8
0
 62
     2
100
AcDbLine
 10
0.121122
 20
139.729144
 30
0.0
 11
0.074757
 21
139.863301
 31
0.0
  0
LINE
  5
15BF
330
36
100
AcDbEntity
  8
0
 62
     2
100
AcDbLine
 10
0.074757
 20
139.863301
 30
0.0
 11
0.024259
 21
139.985611
 31
0.0
  0
LINE
  5
15C0
330
36
100
AcDbEntity
  8
0
 62
     2
100
AcDbLine
 10
0.024259
 20
139.985611
 30
0.0
 11
-0.029982
 21
140.095128
 31
0.0
  0
LINE
  5
15C1
330
36
100
AcDbEntity
  8
0
 62
     2
100
AcDbLine
 10
-0.029982
 20
140.095128
 30
0.0
 11
-0.087545
 21
140.191007
 31
0.0
  0
LINE
  5
15C2
330
36
100
AcDbEntity
  8
0
 62
     2
100
AcDbLine
 10
-0.087545
 20
140.191007
 30
0.0
 11
-0.147986
 21
140.272507
 31
0.0
  0
LINE
  5
15C3
330
36
100
AcDbEntity
  8
0
 62
     2
100
AcDbLine
 10
-0.147986
 20
140.272507
 30
0.0
 11
-0.210838
 21
140.338996
 31
0.0
  0
LINE
  5
15C4
330
36
100
AcDbEntity
  8
0
 62
     2
100
AcDbLine
 10
-0.210838
 20
140.338996
 30
0.0
 11
-0.275615
 21
140.389962
 31
0.0
  0
LINE
  5
15C5
330
36
100
AcDbEntity
  8
0
 62
     2
100
AcDbLine
 10
-0.275615
 20
140.389962
 30
0.0
 11
-0.341817
 21
140.42501
 31
0.0
  0
LINE
  5
15C6
330
36
100
AcDbEntity
  8
0
 62
     2
100
AcDbLine
 10
-0.341817
 20
140.42501
 30
0.0
 11
-0.4089310000000001
 21
140.44387
 31
0.0
  0
LINE
  5
15C7
330
36
100
AcDbEntity
  8
0
 62
     2
100
AcDbLine
 10
-0.4089310000000001
 20
140.44387
 30
0.0
 11
-0.4764390000000003
 21
140.446396
 31
0.0
  0
LINE
  5
15C8
330
36
100
AcDbEntity
  8
0
 62
     2
100
AcDbLine
 10
-0.4764390000000003
 20
140.446396
 30
0.0
 11
-0.543819
 21
140.432567
 31
0.0
  0
LINE
  5
15C9
330
36
100
AcDbEntity
  8
0
 62
     2
100
AcDbLine
 10
-0.543819
 20
140.432567
 30
0.0
 11
-0.6105510000000001
 21
140.402492
 31
0.0
  0
LINE
  5
15CA
330
36
100
AcDbEntity
  8
0
 62
     2
100
AcDbLine
 10
-0.6105510000000001
 20
140.402492
 30
0.0
 11
-0.676118
 21
140.356403
 31
0.0
  0
LINE
  5
15CB
330
36
100
AcDbEntity
  8
0
 62
     2
100
AcDbLine
 10
-0.676118
 20
140.356403
 30
0.0
 11
-0.7400130000000003
 21
140.294655
 31
0.0
  0
LINE
  5
15CC
330
36
100
AcDbEntity
  8
0
 62
     2
100
AcDbLine
 10
-0.7400130000000003
 20
140.294655
 30
0.0
 11
-0.801744
 21
140.217726
 31
0.0
  0
LINE
  5
15CD
330
36
100
AcDbEntity
  8
0
 62
     2
100
AcDbLine
 10
-0.801744
 20
140.217726
 30
0.0
 11
-0.8608319999999999
 21
140.126211
 31
0.0
  0
LINE
  5
15CE
330
36
100
AcDbEntity
  8
0
 62
     2
100
AcDbLine
 10
-0.8608319999999999
 20
140.126211
 30
0.0
 11
-0.9168209999999998
 21
140.020817
 31
0.0
  0
LINE
  5
15CF
330
36
100
AcDbEntity
  8
0
 62
     2
100
AcDbLine
 10
-0.9168209999999998
 20
140.020817
 30
0.0
 11
-0.969278
 21
139.902358
 31
0.0
  0
LINE
  5
15D0
330
36
100
AcDbEntity
  8
0
 62
     2
100
AcDbLine
 10
-0.969278
 20
139.902358
 30
0.0
 11
-1.017797999999997
 21
139.771751
 31
0.0
  0
LINE
  5
15D1
330
36
100
AcDbEntity
  8
0
 62
     2
100
AcDbLine
 10
-1.017797999999997
 20
139.771751
 30
0.0
 11
-1.062006
 21
139.630005
 31
0.0
  0
LINE
  5
15D2
330
36
100
AcDbEntity
  8
0
 62
     2
100
AcDbLine
 10
-1.062006
 20
139.630005
 30
0.0
 11
-1.101558999999999
 21
139.478216
 31
0.0
  0
LINE
  5
15D3
330
36
100
AcDbEntity
  8
0
 62
     2
100
AcDbLine
 10
-1.101558999999999
 20
139.478216
 30
0.0
 11
-1.136152999999997
 21
139.317556
 31
0.0
  0
LINE
  5
15D4
330
36
100
AcDbEntity
  8
0
 62
     2
100
AcDbLine
 10
-1.136152999999997
 20
139.317556
 30
0.0
 11
-1.16552
 21
139.149267
 31
0.0
  0
LINE
  5
15D5
330
36
100
AcDbEntity
  8
0
 62
     2
100
AcDbLine
 10
-1.16552
 20
139.149267
 30
0.0
 11
-1.189432
 21
138.974651
 31
0.0
  0
LINE
  5
15D6
330
36
100
AcDbEntity
  8
0
 62
     2
100
AcDbLine
 10
-1.189432
 20
138.974651
 30
0.0
 11
-1.207705999999999
 21
138.795057
 31
0.0
  0
LINE
  5
15D7
330
36
100
AcDbEntity
  8
0
 62
     2
100
AcDbLine
 10
-1.207705999999999
 20
138.795057
 30
0.0
 11
-1.220199
 21
138.611873
 31
0.0
  0
LINE
  5
15D8
330
36
100
AcDbEntity
  8
0
 62
     2
100
AcDbLine
 10
-1.220199
 20
138.611873
 30
0.0
 11
-1.226814999999997
 21
138.426516
 31
0.0
  0
LINE
  5
15D9
330
36
100
AcDbEntity
  8
0
 62
     2
100
AcDbLine
 10
-1.226814999999997
 20
138.426516
 30
0.0
 11
-1.227504
 21
138.240417
 31
0.0
  0
LINE
  5
15DA
330
36
100
AcDbEntity
  8
0
 62
     2
100
AcDbLine
 10
-1.227504
 20
138.240417
 30
0.0
 11
-1.222258999999997
 21
138.055015
 31
0.0
  0
LINE
  5
15DB
330
36
100
AcDbEntity
  8
0
 62
     2
100
AcDbLine
 10
-1.222258999999997
 20
138.055015
 30
0.0
 11
-1.211122
 21
137.871744
 31
0.0
  0
LINE
  5
15DC
330
36
100
AcDbEntity
  8
0
 62
     2
100
AcDbLine
 10
-1.211122
 20
137.871744
 30
0.0
 11
-1.194177999999997
 21
137.692019
 31
0.0
  0
LINE
  5
15DD
330
36
100
AcDbEntity
  8
0
 62
     2
100
AcDbLine
 10
-1.194177999999997
 20
137.692019
 30
0.0
 11
-1.171558
 21
137.517231
 31
0.0
  0
LINE
  5
15DE
330
36
100
AcDbEntity
  8
0
 62
     2
100
AcDbLine
 10
-1.171558
 20
137.517231
 30
0.0
 11
-1.143437999999999
 21
137.34873
 31
0.0
  0
LINE
  5
15DF
330
36
100
AcDbEntity
  8
0
 62
     2
100
AcDbLine
 10
-1.143437999999999
 20
137.34873
 30
0.0
 11
-1.110033999999997
 21
137.187819
 31
0.0
  0
LINE
  5
15E0
330
36
100
AcDbEntity
  8
0
 62
     2
100
AcDbLine
 10
-1.110033999999997
 20
137.187819
 30
0.0
 11
-1.071604999999999
 21
137.03574
 31
0.0
  0
LINE
  5
15E1
330
36
100
AcDbEntity
  8
0
 62
     2
100
AcDbLine
 10
-1.071604999999999
 20
137.03574
 30
0.0
 11
-1.028446999999999
 21
136.893671
 31
0.0
  0
LINE
  5
15E2
330
36
100
AcDbEntity
  8
0
 62
     2
100
AcDbLine
 10
-1.028446999999999
 20
136.893671
 30
0.0
 11
-0.9808949999999999
 21
136.762708
 31
0.0
  0
LINE
  5
15E3
330
36
100
AcDbEntity
  8
0
 62
     2
100
AcDbLine
 10
-0.9808949999999999
 20
136.762708
 30
0.0
 11
-0.929316
 21
136.643865
 31
0.0
  0
LINE
  5
15E4
330
36
100
AcDbEntity
  8
0
 62
     2
100
AcDbLine
 10
-0.929316
 20
136.643865
 30
0.0
 11
-0.874108
 21
136.53806
 31
0.0
  0
LINE
  5
15E5
330
36
100
AcDbEntity
  8
0
 62
     2
100
AcDbLine
 10
-0.874108
 20
136.53806
 30
0.0
 11
-0.815699
 21
136.44611
 31
0.0
  0
LINE
  5
15E6
330
36
100
AcDbEntity
  8
0
 62
     2
100
AcDbLine
 10
-0.815699
 20
136.44611
 30
0.0
 11
-0.75454
 21
136.368726
 31
0.0
  0
LINE
  5
15E7
330
36
100
AcDbEntity
  8
0
 62
     2
100
AcDbLine
 10
-0.75454
 20
136.368726
 30
0.0
 11
-0.6911030000000002
 21
136.306507
 31
0.0
  0
LINE
  5
15E8
330
36
100
AcDbEntity
  8
0
 62
     2
100
AcDbLine
 10
-0.6911030000000002
 20
136.306507
 30
0.0
 11
-0.625879
 21
136.259934
 31
0.0
  0
LINE
  5
15E9
330
36
100
AcDbEntity
  8
0
 62
     2
100
AcDbLine
 10
-0.625879
 20
136.259934
 30
0.0
 11
-0.559372
 21
136.229366
 31
0.0
  0
LINE
  5
15EA
330
36
100
AcDbEntity
  8
0
 62
     2
100
AcDbLine
 10
-0.559372
 20
136.229366
 30
0.0
 11
-0.492096
 21
136.215039
 31
0.0
  0
LINE
  5
15EB
330
36
100
AcDbEntity
  8
0
 62
     2
100
AcDbLine
 10
-0.492096
 20
136.215039
 30
0.0
 11
-0.424571
 21
136.217065
 31
0.0
  0
LINE
  5
15EC
330
36
100
AcDbEntity
  8
0
 62
     2
100
AcDbLine
 10
-0.424571
 20
136.217065
 30
0.0
 11
-0.357319
 21
136.235427
 31
0.0
  0
LINE
  5
15ED
330
36
100
AcDbEntity
  8
0
 62
     2
100
AcDbLine
 10
-0.357319
 20
136.235427
 30
0.0
 11
-0.29086
 21
136.269985
 31
0.0
  0
LINE
  5
15EE
330
36
100
AcDbEntity
  8
0
 62
     2
100
AcDbLine
 10
-0.29086
 20
136.269985
 30
0.0
 11
-0.225707
 21
136.32047
 31
0.0
  0
LINE
  5
15EF
330
36
100
AcDbEntity
  8
0
 62
     2
100
AcDbLine
 10
-0.225707
 20
136.32047
 30
0.0
 11
-0.162365
 21
136.386493
 31
0.0
  0
LINE
  5
15F0
330
36
100
AcDbEntity
  8
0
 62
     2
100
AcDbLine
 10
-0.162365
 20
136.386493
 30
0.0
 11
-0.101322
 21
136.4675419999999
 31
0.0
  0
LINE
  5
15F1
330
36
100
AcDbEntity
  8
0
 62
     2
100
AcDbLine
 10
-0.101322
 20
136.4675419999999
 30
0.0
 11
-0.043051
 21
136.562993
 31
0.0
  0
LINE
  5
15F2
330
36
100
AcDbEntity
  8
0
 62
     2
100
AcDbLine
 10
-0.043051
 20
136.562993
 30
0.0
 11
0.011998
 21
136.672106
 31
0.0
  0
LINE
  5
15F3
330
36
100
AcDbEntity
  8
0
 62
     2
100
AcDbLine
 10
0.011998
 20
136.672106
 30
0.0
 11
0.0634
 21
136.794039
 31
0.0
  0
LINE
  5
15F4
330
36
100
AcDbEntity
  8
0
 62
     2
100
AcDbLine
 10
0.0634
 20
136.794039
 30
0.0
 11
0.110757
 21
136.927849
 31
0.0
  0
LINE
  5
15F5
330
36
100
AcDbEntity
  8
0
 62
     2
100
AcDbLine
 10
0.110757
 20
136.927849
 30
0.0
 11
0.153703
 21
137.072502
 31
0.0
  0
LINE
  5
15F6
330
36
100
AcDbEntity
  8
0
 62
     2
100
AcDbLine
 10
0.153703
 20
137.072502
 30
0.0
 11
0.191906
 21
137.226879
 31
0.0
  0
LINE
  5
15F7
330
36
100
AcDbEntity
  8
0
 62
     2
100
AcDbLine
 10
0.191906
 20
137.226879
 30
0.0
 11
0.225072
 21
137.389788
 31
0.0
  0
LINE
  5
15F8
330
36
100
AcDbEntity
  8
0
 62
     2
100
AcDbLine
 10
0.225072
 20
137.389788
 30
0.0
 11
0.252943
 21
137.559969
 31
0.0
  0
LINE
  5
15F9
330
36
100
AcDbEntity
  8
0
100
AcDbLine
 10
-28.34138562274335
 20
49.86805540055279
 30
0.0
 11
-28.34138562274336
 21
6.574872400552791
 31
0.0
  0
LINE
  5
15FA
330
36
100
AcDbEntity
  8
0
100
AcDbLine
 10
119.1586143772567
 20
53.86805540055277
 30
0.0
 11
119.1586143772567
 21
6.574872400552791
 31
0.0
  0
LINE
  5
15FB
330
36
100
AcDbEntity
  8
0
100
AcDbLine
 10
-25.84138562274336
 20
7.82487240055279
 30
0.0
 11
116.6586143772567
 21
7.82487240055279
 31
0.0
  0
LINE
  5
15FF
330
36
100
AcDbEntity
  8
0
100
AcDbLine
 10
101.5011481808398
 20
-59.90299871106903
 30
0.0
 11
111.9361501808398
 21
-59.90299871106903
 31
0.0
  0
LINE
  5
1600
330
36
100
AcDbEntity
  8
0
100
AcDbLine
 10
89.7202191808398
 20
-12.77098971106903
 30
0.0
 11
111.9361501808398
 21
-12.77098971106903
 31
0.0
  0
LINE
  5
1601
330
36
100
AcDbEntity
  8
0
100
AcDbLine
 10
110.6861501808398
 20
-57.40299871106903
 30
0.0
 11
110.6861501808398
 21
-15.27098971106903
 31
0.0
  0
LINE
  5
1605
330
36
100
AcDbEntity
  8
0
100
AcDbLine
 10
31.41581118083984
 20
-57.65299871106903
 30
0.0
 11
31.41581118083984
 21
-68.27985471106903
 31
0.0
  0
LINE
  5
1606
330
36
100
AcDbEntity
  8
0
100
AcDbLine
 10
103.7511481808398
 20
-57.65299871106903
 30
0.0
 11
103.7511481808398
 21
-68.27985471106903
 31
0.0
  0
LINE
  5
1607
330
36
100
AcDbEntity
  8
0
100
AcDbLine
 10
33.91581118083984
 20
-67.02985471106903
 30
0.0
 11
101.2511481808398
 21
-67.02985471106903
 31
0.0
  0
LINE
  5
160B
330
36
100
AcDbEntity
  8
0
100
AcDbLine
 10
-162.6448402745006
 20
19.11805540055278
 30
0.0
 11
-178.9124832745006
 21
19.11805540055278
 31
0.0
  0
LINE
  5
160C
330
36
100
AcDbEntity
  8
0
100
AcDbLine
 10
-135.6448402745006
 20
111.6180554005527
 30
0.0
 11
-178.9124832745005
 21
111.6180554005527
 31
0.0
  0
LINE
  5
160D
330
36
100
AcDbEntity
  8
0
100
AcDbLine
 10
-177.6624832745006
 20
21.61805540055278
 30
0.0
 11
-177.6624832745006
 21
109.1180554005527
 31
0.0
  0
LINE
  5
1611
330
36
100
AcDbEntity
  8
0
100
AcDbLine
 10
-162.3948402745006
 20
18.86805540055278
 30
0.0
 11
-162.3948402745006
 21
9.321189400552789
 31
0.0
  0
LINE
  5
1612
330
36
100
AcDbEntity
  8
0
100
AcDbLine
 10
-108.3948402745006
 20
18.86805540055278
 30
0.0
 11
-108.3948402745006
 21
9.321189400552789
 31
0.0
  0
LINE
  5
1613
330
36
100
AcDbEntity
  8
0
100
AcDbLine
 10
-159.8948402745006
 20
10.57118940055279
 30
0.0
 11
-110.8948402745006
 21
10.57118940055279
 31
0.0
  0
LINE
  5
1617
330
36
100
AcDbEntity
  8
0
100
AcDbLine
 10
-167.8948402745007
 20
78.86805540055279
 30
0.0
 11
-167.8948402745007
 21
0.7336334005527903
 31
0.0
  0
LINE
  5
1618
330
36
100
AcDbEntity
  8
0
100
AcDbLine
 10
-102.8948402745006
 20
78.86805540055279
 30
0.0
 11
-102.8948402745006
 21
0.7336334005527903
 31
0.0
  0
LINE
  5
1619
330
36
100
AcDbEntity
  8
0
100
AcDbLine
 10
-165.3948402745007
 20
1.983633400552791
 30
0.0
 11
-105.3948402745006
 21
1.983633400552791
 31
0.0
  0
LINE
  5
161D
330
36
100
AcDbEntity
  8
0
100
AcDbLine
 10
99.2972433718949
 20
54.0399041979357
 30
0.0
 11
133.8878551664954
 21
88.55744475210462
 31
0.0
1001
ACAD
1000
DSTYLE
1002
{
1070
   147
1040
0.625
1070
    77
1070
     0
1002
}
  0
LINE
  5
161E
330
36
100
AcDbEntity
  8
0
  6
ByBlock
 62
     0
370
    -2
100
AcDbLine
 10
99.77041366004893
 20
53.56573224108409
 30
0.0
 11
97.52760826651437
 21
52.27400737371159
 31
0.0
  0
LINE
  5
161F
330
36
100
AcDbEntity
  8
0
  6
ByBlock
 62
     0
370
    -2
100
AcDbLine
 10
97.52760826651437
 20
52.27400737371159
 30
0.0
 11
98.82407308374089
 21
54.51407615478732
 31
0.0
  0
LINE
  5
1620
330
36
100
AcDbEntity
  8
0
  6
ByBlock
 62
     0
370
    -2
100
AcDbLine
 10
97.52760826651437
 20
52.27400737371159
 30
0.0
 11
99.2972433718949
 21
54.0399041979357
 31
0.0
  0
LINE
  5
1621
330
36
100
AcDbEntity
  8
0
100
AcDbLine
 10
120.8693493812949
 20
55.94107096438058
 30
0.0
 11
134.00565536918
 21
69.93955127289719
 31
0.0
1001
ACAD
1000
DSTYLE
1002
{
1070
   147
1040
0.625
1070
    77
1070
     0
1002
}
  0
LINE
  5
1622
330
36
100
AcDbEntity
  8
0
  6
ByBlock
 62
     0
370
    -2
100
AcDbLine
 10
121.357824578607
 20
55.48268123078354
 30
0.0
 11
119.1586143772567
 21
54.11805540055278
 31
0.0
  0
LINE
  5
1623
330
36
100
AcDbEntity
  8
0
  6
ByBlock
 62
     0
370
    -2
100
AcDbLine
 10
119.1586143772567
 20
54.11805540055278
 30
0.0
 11
120.3808741839828
 21
56.39946069797762
 31
0.0
  0
LINE
  5
1624
330
36
100
AcDbEntity
  8
0
  6
ByBlock
 62
     0
370
    -2
100
AcDbLine
 10
119.1586143772567
 20
54.11805540055278
 30
0.0
 11
120.8693493812949
 21
55.94107096438058
 31
0.0
  0
LINE
  5
1625
330
36
100
AcDbEntity
  8
0
100
AcDbLine
 10
131.5401253205648
 20
32.10124620984631
 30
0.0
 11
134.6966094906401
 21
36.94326778196573
 31
0.0
1001
ACAD
1000
DSTYLE
1002
{
1070
   147
1040
0.625
1070
    77
1070
     0
1002
}
  0
LINE
  5
1626
330
36
100
AcDbEntity
  8
0
  6
ByBlock
 62
     0
370
    -2
100
AcDbLine
 10
132.1012895204202
 20
31.73542670919481
 30
0.0
 11
130.1748673772566
 21
30.00695140055279
 31
0.0
  0
LINE
  5
1627
330
36
100
AcDbEntity
  8
0
  6
ByBlock
 62
     0
370
    -2
100
AcDbLine
 10
130.1748673772566
 20
30.00695140055279
 30
0.0
 11
130.9789611207094
 21
32.46706571049781
 31
0.0
  0
LINE
  5
1628
330
36
100
AcDbEntity
  8
0
  6
ByBlock
 62
     0
370
    -2
100
AcDbLine
 10
130.1748673772566
 20
30.00695140055279
 30
0.0
 11
131.5401253205648
 21
32.10124620984631
 31
0.0
  0
LINE
  5
1629
330
36
100
AcDbEntity
  8
0
100
AcDbLine
 10
-132.7334707250704
 20
83.27157433507874
 30
0.0
 11
-119.1215844635566
 21
120.5962788304098
 31
0.0
1001
ACAD
1000
DSTYLE
1002
{
1070
   147
1040
0.625
1070
    77
1070
     0
1002
}
  0
LINE
  5
162A
330
36
100
AcDbEntity
  8
0
  6
ByBlock
 62
     0
370
    -2
100
AcDbLine
 10
-132.1041418616692
 20
83.04206540726456
 30
0.0
 11
-133.5900103195984
 21
80.92288535545504
 31
0.0
  0
LINE
  5
162B
330
36
100
AcDbEntity
  8
0
  6
ByBlock
 62
     0
370
    -2
100
AcDbLine
 10
-133.5900103195984
 20
80.92288535545504
 30
0.0
 11
-133.3627995884715
 21
83.50108326289293
 31
0.0
  0
LINE
  5
162C
330
36
100
AcDbEntity
  8
0
  6
ByBlock
 62
     0
370
    -2
100
AcDbLine
 10
-133.5900103195984
 20
80.92288535545504
 30
0.0
 11
-132.7334707250704
 21
83.27157433507874
 31
0.0
  0
LINE
  5
162D
330
36
100
AcDbEntity
  8
0
100
AcDbLine
 10
-79.2664785672412
 20
111.4441296646011
 30
0.0
 11
-82.8890704769385
 21
120.6415082615603
 31
0.0
1001
ACAD
1000
DSTYLE
1002
{
1070
   147
1040
0.625
1070
    77
1070
     0
1002
}
  0
LINE
  5
162E
330
36
100
AcDbEntity
  8
0
  6
ByBlock
 62
     0
370
    -2
100
AcDbLine
 10
-78.64320929426368
 20
111.6896181156906
 30
0.0
 11
-78.35030253714029
 21
109.1180554005527
 31
0.0
  0
LINE
  5
162F
330
36
100
AcDbEntity
  8
0
  6
ByBlock
 62
     0
370
    -2
100
AcDbLine
 10
-78.35030253714029
 20
109.1180554005527
 30
0.0
 11
-79.88974784021872
 21
111.1986412135116
 31
0.0
  0
LINE
  5
1630
330
36
100
AcDbEntity
  8
0
  6
ByBlock
 62
     0
370
    -2
100
AcDbLine
 10
-78.35030253714029
 20
109.1180554005527
 30
0.0
 11
-79.2664785672412
 21
111.4441296646011
 31
0.0
  0
LINE
  5
1631
330
36
100
AcDbEntity
  8
0
100
AcDbLine
 10
-52.12173163947731
 20
111.4441296646011
 30
0.0
 11
-55.74432354917462
 21
120.6415082615603
 31
0.0
1001
ACAD
1000
DSTYLE
1002
{
1070
   147
1040
0.625
1070
    77
1070
     0
1002
}
  0
LINE
  5
1632
330
36
100
AcDbEntity
  8
0
  6
ByBlock
 62
     0
370
    -2
100
AcDbLine
 10
-51.4984623664998
 20
111.6896181156906
 30
0.0
 11
-51.20555560937642
 21
109.1180554005527
 31
0.0
  0
LINE
  5
1633
330
36
100
AcDbEntity
  8
0
  6
ByBlock
 62
     0
370
    -2
100
AcDbLine
 10
-51.20555560937642
 20
109.1180554005527
 30
0.0
 11
-52.74500091245484
 21
111.1986412135116
 31
0.0
  0
LINE
  5
1634
330
36
100
AcDbEntity
  8
0
  6
ByBlock
 62
     0
370
    -2
100
AcDbLine
 10
-51.20555560937642
 20
109.1180554005527
 30
0.0
 11
-52.12173163947731
 21
111.4441296646011
 31
0.0
  0
LINE
  5
1635
330
36
100
AcDbEntity
  8
0
100
AcDbLine
 10
-14.57187164543685
 20
113.2017308691892
 30
0.0
 11
-16.48195715256671
 21
120.0315666533319
 31
0.0
1001
ACAD
1000
DSTYLE
1002
{
1070
   147
1040
0.625
1070
    77
1070
     0
1002
}
  0
LINE
  5
1636
330
36
100
AcDbEntity
  8
0
  6
ByBlock
 62
     0
370
    -2
100
AcDbLine
 10
-13.92675292566523
 20
113.3821498361979
 30
0.0
 11
-13.89853841034853
 21
110.7941133010266
 31
0.0
  0
LINE
  5
1637
330
36
100
AcDbEntity
  8
0
  6
ByBlock
 62
     0
370
    -2
100
AcDbLine
 10
-13.89853841034853
 20
110.7941133010266
 30
0.0
 11
-15.21699036520846
 21
113.0213119021806
 31
0.0
  0
LINE
  5
1638
330
36
100
AcDbEntity
  8
0
  6
ByBlock
 62
     0
370
    -2
100
AcDbLine
 10
-13.89853841034853
 20
110.7941133010266
 30
0.0
 11
-14.57187164543685
 21
113.2017308691892
 31
0.0
  0
LINE
  5
1639
330
36
100
AcDbEntity
  8
0
100
AcDbLine
 10
44.54802060468402
 20
124.524066679171
 30
0.0
 11
42.69198934939008
 21
127.7861128433163
 31
0.0
1001
ACAD
1000
DSTYLE
1002
{
1070
   147
1040
0.625
1070
    77
1070
     0
1002
}
  0
LINE
  5
163A
330
36
100
AcDbEntity
  8
0
  6
ByBlock
 62
     0
370
    -2
100
AcDbLine
 10
45.13024652554149
 20
124.8553401965821
 30
0.0
 11
45.78435109075075
 21
122.3511684005528
 31
0.0
  0
LINE
  5
163B
330
36
100
AcDbEntity
  8
0
  6
ByBlock
 62
     0
370
    -2
100
AcDbLine
 10
45.78435109075075
 20
122.3511684005528
 30
0.0
 11
43.96579468382655
 21
124.1927931617599
 31
0.0
  0
LINE
  5
163C
330
36
100
AcDbEntity
  8
0
  6
ByBlock
 62
     0
370
    -2
100
AcDbLine
 10
45.78435109075075
 20
122.3511684005528
 30
0.0
 11
44.54802060468402
 21
124.524066679171
 31
0.0
  0
LINE
  5
163D
330
36
100
AcDbEntity
  8
0
100
AcDbLine
 10
36.27738148779697
 20
-15.68942854926896
 30
0.0
 11
25.64681044922914
 21
-9.836868100211242
 31
0.0
1001
ACAD
1000
DSTYLE
1002
{
1070
   147
1040
0.625
1070
    77
1070
     0
1002
}
  0
LINE
  5
163E
330
36
100
AcDbEntity
  8
0
  6
ByBlock
 62
     0
370
    -2
100
AcDbLine
 10
36.60044911417065
 20
-15.10260960355782
 30
0.0
 11
38.46742118083983
 21
-16.89513421106904
 31
0.0
  0
LINE
  5
163F
330
36
100
AcDbEntity
  8
0
  6
ByBlock
 62
     0
370
    -2
100
AcDbLine
 10
38.46742118083983
 20
-16.89513421106904
 30
0.0
 11
35.9543138614233
 21
-16.2762474949801
 31
0.0
  0
LINE
  5
1640
330
36
100
AcDbEntity
  8
0
  6
ByBlock
 62
     0
370
    -2
100
AcDbLine
 10
38.46742118083983
 20
-16.89513421106904
 30
0.0
 11
36.27738148779697
 21
-15.68942854926896
 31
0.0
  0
TEXT
  5
1641
330
36
100
AcDbEntity
  8
0
 62
     4
100
AcDbText
 10
41.40861437725667
 20
8.44987240055279
 30
0.0
 40
3.0
  1
283
100
AcDbText
  0
LINE
  5
1642
330
36
100
AcDbEntity
  8
0
  6
ByBlock
 62
     0
370
    -2
100
AcDbLine
 10
116.6586143772567
 20
8.49474490055279
 30
0.0
 11
119.1586143772567
 21
7.82487240055279
 31
0.0
  0
LINE
  5
1643
330
36
100
AcDbEntity
  8
0
  6
ByBlock
 62
     0
370
    -2
100
AcDbLine
 10
119.1586143772567
 20
7.82487240055279
 30
0.0
 11
116.6586143772567
 21
7.154999900552789
 31
0.0
  0
LINE
  5
1644
330
36
100
AcDbEntity
  8
0
  6
ByBlock
 62
     0
370
    -2
100
AcDbLine
 10
119.1586143772567
 20
7.82487240055279
 30
0.0
 11
116.6586143772567
 21
7.82487240055279
 31
0.0
  0
LINE
  5
1645
330
36
100
AcDbEntity
  8
0
  6
ByBlock
 62
     0
370
    -2
100
AcDbLine
 10
-25.84138562274336
 20
7.154999900552789
 30
0.0
 11
-28.34138562274336
 21
7.82487240055279
 31
0.0
  0
LINE
  5
1646
330
36
100
AcDbEntity
  8
0
  6
ByBlock
 62
     0
370
    -2
100
AcDbLine
 10
-28.34138562274336
 20
7.82487240055279
 30
0.0
 11
-25.84138562274336
 21
8.49474490055279
 31
0.0
  0
LINE
  5
1647
330
36
100
AcDbEntity
  8
0
  6
ByBlock
 62
     0
370
    -2
100
AcDbLine
 10
-28.34138562274336
 20
7.82487240055279
 30
0.0
 11
-25.84138562274336
 21
7.82487240055279
 31
0.0
  0
TEXT
  5
1648
330
36
100
AcDbEntity
  8
0
 62
     4
100
AcDbText
 10
110.0611501808398
 20
-39.58699421106902
 30
0.0
 40
3.0
  1
310
 50
90.0
100
AcDbText
  0
LINE
  5
1649
330
36
100
AcDbEntity
  8
0
  6
ByBlock
 62
     0
370
    -2
100
AcDbLine
 10
110.0162776808398
 20
-15.27098971106903
 30
0.0
 11
110.6861501808398
 21
-12.77098971106903
 31
0.0
  0
LINE
  5
164A
330
36
100
AcDbEntity
  8
0
  6
ByBlock
 62
     0
370
    -2
100
AcDbLine
 10
110.6861501808398
 20
-12.77098971106903
 30
0.0
 11
111.3560226808398
 21
-15.27098971106903
 31
0.0
  0
LINE
  5
164B
330
36
100
AcDbEntity
  8
0
  6
ByBlock
 62
     0
370
    -2
100
AcDbLine
 10
110.6861501808398
 20
-12.77098971106903
 30
0.0
 11
110.6861501808398
 21
-15.27098971106903
 31
0.0
  0
LINE
  5
164C
330
36
100
AcDbEntity
  8
0
  6
ByBlock
 62
     0
370
    -2
100
AcDbLine
 10
111.3560226808398
 20
-57.40299871106903
 30
0.0
 11
110.6861501808398
 21
-59.90299871106903
 31
0.0
  0
LINE
  5
164D
330
36
100
AcDbEntity
  8
0
  6
ByBlock
 62
     0
370
    -2
100
AcDbLine
 10
110.6861501808398
 20
-59.90299871106903
 30
0.0
 11
110.0162776808398
 21
-57.40299871106903
 31
0.0
  0
LINE
  5
164E
330
36
100
AcDbEntity
  8
0
  6
ByBlock
 62
     0
370
    -2
100
AcDbLine
 10
110.6861501808398
 20
-59.90299871106903
 30
0.0
 11
110.6861501808398
 21
-57.40299871106903
 31
0.0
  0
TEXT
  5
164F
330
36
100
AcDbEntity
  8
0
 62
     4
100
AcDbText
 10
64.08347968083981
 20
-66.40485471106903
 30
0.0
 40
3.0
  1
400
100
AcDbText
  0
LINE
  5
1650
330
36
100
AcDbEntity
  8
0
  6
ByBlock
 62
     0
370
    -2
100
AcDbLine
 10
101.2511481808398
 20
-66.35998221106904
 30
0.0
 11
103.7511481808398
 21
-67.02985471106903
 31
0.0
  0
LINE
  5
1651
330
36
100
AcDbEntity
  8
0
  6
ByBlock
 62
     0
370
    -2
100
AcDbLine
 10
103.7511481808398
 20
-67.02985471106903
 30
0.0
 11
101.2511481808398
 21
-67.69972721106903
 31
0.0
  0
LINE
  5
1652
330
36
100
AcDbEntity
  8
0
  6
ByBlock
 62
     0
370
    -2
100
AcDbLine
 10
103.7511481808398
 20
-67.02985471106903
 30
0.0
 11
101.2511481808398
 21
-67.02985471106903
 31
0.0
  0
LINE
  5
1653
330
36
100
AcDbEntity
  8
0
  6
ByBlock
 62
     0
370
    -2
100
AcDbLine
 10
33.91581118083984
 20
-67.69972721106903
 30
0.0
 11
31.41581118083984
 21
-67.02985471106903
 31
0.0
  0
LINE
  5
1654
330
36
100
AcDbEntity
  8
0
  6
ByBlock
 62
     0
370
    -2
100
AcDbLine
 10
31.41581118083984
 20
-67.02985471106903
 30
0.0
 11
33.91581118083984
 21
-66.35998221106904
 31
0.0
  0
LINE
  5
1655
330
36
100
AcDbEntity
  8
0
  6
ByBlock
 62
     0
370
    -2
100
AcDbLine
 10
31.41581118083984
 20
-67.02985471106903
 30
0.0
 11
33.91581118083984
 21
-67.02985471106903
 31
0.0
  0
TEXT
  5
1656
330
36
100
AcDbEntity
  8
0
 62
     4
100
AcDbText
 10
-178.2874832745006
 20
61.86805540055272
 30
0.0
 40
3.0
  1
184
 50
90.0
100
AcDbText
  0
LINE
  5
1657
330
36
100
AcDbEntity
  8
0
  6
ByBlock
 62
     0
370
    -2
100
AcDbLine
 10
-178.3323557745005
 20
109.1180554005527
 30
0.0
 11
-177.6624832745006
 21
111.6180554005527
 31
0.0
  0
LINE
  5
1658
330
36
100
AcDbEntity
  8
0
  6
ByBlock
 62
     0
370
    -2
100
AcDbLine
 10
-177.6624832745006
 20
111.6180554005527
 30
0.0
 11
-176.9926107745005
 21
109.1180554005527
 31
0.0
  0
LINE
  5
1659
330
36
100
AcDbEntity
  8
0
  6
ByBlock
 62
     0
370
    -2
100
AcDbLine
 10
-177.6624832745006
 20
111.6180554005527
 30
0.0
 11
-177.6624832745006
 21
109.1180554005527
 31
0.0
  0
LINE
  5
165A
330
36
100
AcDbEntity
  8
0
  6
ByBlock
 62
     0
370
    -2
100
AcDbLine
 10
-176.9926107745006
 20
21.61805540055278
 30
0.0
 11
-177.6624832745006
 21
19.11805540055278
 31
0.0
  0
LINE
  5
165B
330
36
100
AcDbEntity
  8
0
  6
ByBlock
 62
     0
370
    -2
100
AcDbLine
 10
-177.6624832745006
 20
19.11805540055278
 30
0.0
 11
-178.3323557745006
 21
21.61805540055278
 31
0.0
  0
LINE
  5
165C
330
36
100
AcDbEntity
  8
0
  6
ByBlock
 62
     0
370
    -2
100
AcDbLine
 10
-177.6624832745006
 20
19.11805540055278
 30
0.0
 11
-177.6624832745006
 21
21.61805540055278
 31
0.0
  0
TEXT
  5
165D
330
36
100
AcDbEntity
  8
0
 62
     4
100
AcDbText
 10
-138.6448402745006
 20
11.19618940055279
 30
0.0
 40
3.0
  1
108
100
AcDbText
  0
LINE
  5
165E
330
36
100
AcDbEntity
  8
0
  6
ByBlock
 62
     0
370
    -2
100
AcDbLine
 10
-110.8948402745006
 20
11.24106190055279
 30
0.0
 11
-108.3948402745006
 21
10.57118940055279
 31
0.0
  0
LINE
  5
165F
330
36
100
AcDbEntity
  8
0
  6
ByBlock
 62
     0
370
    -2
100
AcDbLine
 10
-108.3948402745006
 20
10.57118940055279
 30
0.0
 11
-110.8948402745006
 21
9.901316900552789
 31
0.0
  0
LINE
  5
1660
330
36
100
AcDbEntity
  8
0
  6
ByBlock
 62
     0
370
    -2
100
AcDbLine
 10
-108.3948402745006
 20
10.57118940055279
 30
0.0
 11
-110.8948402745006
 21
10.57118940055279
 31
0.0
  0
LINE
  5
1661
330
36
100
AcDbEntity
  8
0
  6
ByBlock
 62
     0
370
    -2
100
AcDbLine
 10
-159.8948402745006
 20
9.901316900552789
 30
0.0
 11
-162.3948402745006
 21
10.57118940055279
 31
0.0
  0
LINE
  5
1662
330
36
100
AcDbEntity
  8
0
  6
ByBlock
 62
     0
370
    -2
100
AcDbLine
 10
-162.3948402745006
 20
10.57118940055279
 30
0.0
 11
-159.8948402745006
 21
11.24106190055279
 31
0.0
  0
LINE
  5
1663
330
36
100
AcDbEntity
  8
0
  6
ByBlock
 62
     0
370
    -2
100
AcDbLine
 10
-162.3948402745006
 20
10.57118940055279
 30
0.0
 11
-159.8948402745006
 21
10.57118940055279
 31
0.0
  0
TEXT
  5
1664
330
36
100
AcDbEntity
  8
0
 62
     4
100
AcDbText
 10
-140.7448402745006
 20
2.608633400552791
 30
0.0
 40
3.0
  1
\U+03C6130
100
AcDbText
  0
LINE
  5
1665
330
36
100
AcDbEntity
  8
0
  6
ByBlock
 62
     0
370
    -2
100
AcDbLine
 10
-105.3948402745006
 20
2.653505900552791
 30
0.0
 11
-102.8948402745006
 21
1.983633400552791
 31
0.0
  0
LINE
  5
1666
330
36
100
AcDbEntity
  8
0
  6
ByBlock
 62
     0
370
    -2
100
AcDbLine
 10
-102.8948402745006
 20
1.983633400552791
 30
0.0
 11
-105.3948402745006
 21
1.313760900552791
 31
0.0
  0
LINE
  5
1667
330
36
100
AcDbEntity
  8
0
  6
ByBlock
 62
     0
370
    -2
100
AcDbLine
 10
-102.8948402745006
 20
1.983633400552791
 30
0.0
 11
-105.3948402745006
 21
1.983633400552791
 31
0.0
  0
LINE
  5
1668
330
36
100
AcDbEntity
  8
0
  6
ByBlock
 62
     0
370
    -2
100
AcDbLine
 10
-165.3948402745007
 20
1.31376090055279
 30
0.0
 11
-167.8948402745007
 21
1.983633400552791
 31
0.0
  0
LINE
  5
1669
330
36
100
AcDbEntity
  8
0
  6
ByBlock
 62
     0
370
    -2
100
AcDbLine
 10
-167.8948402745007
 20
1.983633400552791
 30
0.0
 11
-165.3948402745007
 21
2.65350590055279
 31
0.0
  0
LINE
  5
166A
330
36
100
AcDbEntity
  8
0
  6
ByBlock
 62
     0
370
    -2
100
AcDbLine
 10
-167.8948402745007
 20
1.983633400552791
 30
0.0
 11
-165.3948402745007
 21
1.98363340055279
 31
0.0
  0
ENDSEC
  0
SECTION
  2
OBJECTS
  0
DICTIONARY
  5
C
330
0
100
AcDbDictionary
281
     1
  3
ACAD_2007HEADERVARS_RT
350
16B1
  3
ACAD_COLOR
350
2F
  3
ACAD_GROUP
350
D
  3
ACAD_LAYOUT
350
2E
  3
ACAD_MATERIAL
350
10
  3
ACAD_MLEADERSTYLE
350
7A8
  3
ACAD_MLINESTYLE
350
2B
  3
ACAD_PLOTSETTINGS
350
2D
  3
ACAD_PLOTSTYLENAME
350
E
  3
ACAD_SCALELIST
350
796
  3
ACAD_TABLESTYLE
350
30
  3
ACAD_VISUALSTYLE
350
14
  3
ACDB_RECOMPOSE_DATA
350
16AF
  3
AcDbVariableDictionary
350
72A
  3
DWGPROPS
350
16B0
  0
DICTIONARY
  5
542
330
2
100
AcDbDictionary
280
     1
281
     1
  3
ACAD_LAYERSTATES
360
543
  0
DICTIONARY
  5
9C5
330
25
100
AcDbDictionary
280
     1
281
     1
  3
ADSK_XREC_LAYER_RECONCILED
360
9C6
  0
DICTIONARY
  5
AB5
330
36
100
AcDbDictionary
280
     1
281
     1
  3
ACAD_SORTENTS
360
AB6
  0
DICTIONARY
  5
16B1
102
{ACAD_REACTORS
330
C
102
}
330
C
100
AcDbDictionary
281
     1
  3
DIMARCSYM
350
16B3
  3
DIMFXL
350
16B2
  3
DIMJOGANG
350
16B4
  0
DICTIONARY
  5
2F
102
{ACAD_REACTORS
330
C
102
}
330
C
100
AcDbDictionary
281
     1
  0
DICTIONARY
  5
D
102
{ACAD_REACTORS
330
C
102
}
330
C
100
AcDbDictionary
281
     1
  0
DICTIONARY
  5
2E
102
{ACAD_REACTORS
330
C
102
}
330
C
100
AcDbDictionary
281
     1
  3
Model
350
39
  3
レイアウト1
350
35
  0
DICTIONARY
  5
10
102
{ACAD_REACTORS
330
C
102
}
330
C
100
AcDbDictionary
281
     1
  3
ByBlock
350
12
  3
ByLayer
350
11
  3
Global
350
13
  0
DICTIONARY
  5
7A8
102
{ACAD_REACTORS
330
C
102
}
330
C
100
AcDbDictionary
281
     1
  3
Standard
350
7A9
  0
DICTIONARY
  5
2B
102
{ACAD_REACTORS
330
C
102
}
330
C
100
AcDbDictionary
281
     1
  3
Standard
350
2C
  0
DICTIONARY
  5
2D
102
{ACAD_REACTORS
330
C
102
}
330
C
100
AcDbDictionary
281
     1
  0
ACDBDICTIONARYWDFLT
  5
E
102
{ACAD_REACTORS
330
C
102
}
330
C
100
AcDbDictionary
281
     1
  3
Normal
350
F
100
AcDbDictionaryWithDefault
340
F
  0
DICTIONARY
  5
796
102
{ACAD_REACTORS
330
C
102
}
330
C
100
AcDbDictionary
281
     1
  3
A0
350
797
  3
A1
350
798
  3
A2
350
799
  3
A3
350
79A
  3
A4
350
79B
  3
A5
350
79C
  3
A6
350
79D
  3
A7
350
79E
  3
A8
350
79F
  3
A9
350
7A0
  3
B0
350
7A1
  3
B1
350
7A2
  3
B2
350
7A3
  3
B3
350
7A4
  3
B4
350
7A5
  3
B5
350
7A6
  3
B6
350
7A7
  0
DICTIONARY
  5
30
102
{ACAD_REACTORS
330
C
102
}
330
C
100
AcDbDictionary
281
     1
  3
Standard
350
31
  3
部品表
350
10FF
  0
DICTIONARY
  5
14
102
{ACAD_REACTORS
330
C
102
}
330
C
100
AcDbDictionary
281
     1
  3
2dWireframe
350
1A
  3
3D Hidden
350
1C
  3
3dWireframe
350
1B
  3
Basic
350
19
  3
Brighten
350
20
  3
ColorChange
350
24
  3
Conceptual
350
1D
  3
Dim
350
1F
  3
EdgeColorOff
350
795
  3
Facepattern
350
23
  3
Flat
350
15
  3
FlatWithEdges
350
16
  3
Gouraud
350
17
  3
GouraudWithEdges
350
18
  3
Hidden
350
78D
  3
JitterOff
350
793
  3
Linepattern
350
22
  3
OverhangOff
350
794
  3
Realistic
350
1E
  3
Shaded
350
792
  3
Shaded with edges
350
791
  3
Shades of Gray
350
78E
  3
Sketchy
350
78F
  3
Thicken
350
21
  3
Wireframe
350
78C
  3
X-Ray
350
790
  0
XRECORD
  5
16AF
102
{ACAD_REACTORS
330
C
102
}
330
C
100
AcDbXrecord
280
     1
 90
        1
330
31
330
10FF
  0
DICTIONARY
  5
72A
102
{ACAD_REACTORS
330
C
102
}
330
C
100
AcDbDictionary
281
     1
  3
CANNOSCALE
350
9CC
  3
CMLEADERSTYLE
350
9CB
  3
CTABLESTYLE
350
72B
  3
DIMASSOC
350
72E
  3
INDEXCTL
350
72D
  3
SORTENTS
350
72C
  3
XCLIPFRAME
350
1556
  0
XRECORD
  5
16B0
102
{ACAD_REACTORS
330
C
102
}
330
C
100
AcDbXrecord
280
     1
  1
DWGPROPS COOKIE
  2

  3

  4

  6

  7

  8
imamura
  9

300
=
301
=
302
=
303
=
304
=
305
=
306
=
307
=
308
=
309
=
 40
0.140118599537037
 41
2455469.47806206
 42
2457885.717942442
  1

 90
        0
  0
DICTIONARY
  5
543
102
{ACAD_REACTORS
330
542
102
}
330
542
100
AcDbDictionary
281
     1
  0
XRECORD
  5
9C6
102
{ACAD_REACTORS
330
9C5
102
}
330
9C5
100
AcDbXrecord
280
     1
290
     1
  0
SORTENTSTABLE
  5
AB6
102
{ACAD_REACTORS
330
AB5
102
}
330
AB5
100
AcDbSortentsTable
330
36
331
494
  5
15C5
331
BC2
  5
162A
331
490
  5
15C1
331
1AF
  5
272
331
9A3
  5
15FF
331
1145
  5
1650
331
48C
  5
15BD
331
1AB
  5
26E
331
1141
  5
164C
331
1E6
  5
2C9
331
15CC
  5
1FC
331
1A7
  5
26A
331
1E2
  5
2C1
331
15C8
  5
1F8
331
25C
  5
35A
331
1A3
  5
24D
331
21D
  5
314
331
1645
  5
125
331
1606
  5
10F
331
258
  5
356
331
219
  5
313
331
1641
  5
12B
331
4BB
  5
15E2
331
414
  5
AEB
331
392
  5
46E
331
3D5
  5
996
331
44F
  5
1246
331
38E
  5
46A
331
410
  5
ADF
331
3D1
  5
98C
331
44B
  5
1242
331
38A
  5
466
331
40C
  5
ADC
331
31C
  5
3EA
331
357
  5
42D
331
318
  5
3E6
331
353
  5
429
331
2D9
  5
3AF
331
314
  5
3E2
331
310
  5
3DE
331
ACA
  5
346
331
134
  5
1C5
331
130
  5
1C1
331
99F
  5
15FB
331
99B
  5
15F7
331
113D
  5
1648
331
47C
  5
15BB
331
997
  5
15F3
331
1139
  5
1644
331
478
  5
15B8
331
1DE
  5
2B9
331
15C4
  5
1F4
331
19F
  5
249
331
1135
  5
1640
331
474
  5
15B6
331
1DA
  5
2A9
331
15C0
  5
1F0
331
163D
  5
1605
331
254
  5
352
331
19B
  5
245
331
AFA
  5
1610
331
470
  5
15B2
331
250
  5
34E
331
1D6
  5
2A1
331
15BC
  5
1EC
331
1639
  5
1619
331
211
  5
311
331
15FA
  5
123
331
15B8
  5
3B0
331
24C
  5
33B
331
1D2
  5
299
331
1635
  5
161D
331
20D
  5
30D
331
15F6
  5
23C
331
248
  5
337
331
1631
  5
1621
331
209
  5
309
331
15F2
  5
238
331
1668
  5
B8
331
3CD
  5
988
331
447
  5
1148
331
386
  5
462
331
3C9
  5
4B8
331
443
  5
1144
331
382
  5
45E
331
404
  5
AD7
331
3C5
  5
4B2
331
43F
  5
1140
331
37E
  5
45A
331
400
  5
AD3
331
3C1
  5
4AE
331
43B
  5
113C
331
37A
  5
456
331
3FC
  5
ACF
331
34F
  5
424
331
28E
  5
38C
331
3F8
  5
ACB
331
2D1
  5
3AD
331
34B
  5
41F
331
28A
  5
388
331
30C
  5
3DA
331
347
  5
41B
331
286
  5
384
331
308
  5
3D6
331
AC6
  5
342
331
2C9
  5
3AB
331
343
  5
416
331
282
  5
380
331
304
  5
3D0
331
12C
  5
1BD
331
128
  5
1B9
331
1450
  5
1666
331
124
  5
1B5
331
120
  5
1B1
331
98B
  5
15ED
331
FED
  5
163C
331
46C
  5
15AF
331
987
  5
15E3
331
468
  5
15AB
331
1CE
  5
291
331
157
  5
1E9
331
DE5
  5
163B
331
464
  5
15A7
331
AEE
  5
160D
331
1CA
  5
28E
331
244
  5
333
331
153
  5
1E5
331
162D
  5
1625
331
205
  5
304
331
15EE
  5
234
331
AEA
  5
1609
331
460
  5
1457
331
1C6
  5
28A
331
240
  5
332
331
14F
  5
1E1
331
201
  5
2FC
331
15EA
  5
22B
331
1664
  5
C8
331
1C2
  5
286
331
23C
  5
330
331
14B
  5
1DD
331
1625
  5
1631
331
1FD
  5
2F4
331
15E6
  5
222
331
1660
  5
102
331
238
  5
322
331
1621
  5
1635
331
1F9
  5
2EC
331
15E2
  5
212
331
165C
  5
109
331
1658
  5
10B
331
3BD
  5
497
331
376
  5
450
331
3B9
  5
493
331
433
  5
1137
331
372
  5
44C
331
3F4
  5
AC7
331
3B5
  5
48F
331
42F
  5
FEF
331
36E
  5
448
331
3F0
  5
AC3
331
3B1
  5
48B
331
42B
  5
CEE
331
36A
  5
444
331
3EC
  5
ABE
331
33F
  5
412
331
27E
  5
37C
331
3E8
  5
ABA
331
2C1
  5
3A9
331
33B
  5
40D
331
27A
  5
378
331
337
  5
405
331
276
  5
374
331
2F8
  5
3CB
331
2B9
  5
3A7
331
333
  5
401
331
272
  5
370
331
2F4
  5
3C7
331
11C
  5
1AD
331
CD
  5
143
331
134C
  5
1660
331
2F0
  5
3C3
331
118
  5
1A9
331
C9
  5
13F
331
1348
  5
165C
331
114
  5
1A5
331
C5
  5
13B
331
110
  5
1A1
331
4B7
  5
15D5
331
4B3
  5
15D3
331
45C
  5
1450
331
4AF
  5
15CF
331
458
  5
134E
331
1BE
  5
282
331
147
  5
1D9
331
4AB
  5
15CD
331
454
  5
134A
331
1BA
  5
27E
331
234
  5
31E
331
143
  5
1D5
331
161D
  5
1639
331
1F5
  5
2E6
331
15DE
  5
20E
331
450
  5
1348
331
AD2
  5
34D
331
1B6
  5
27A
331
1F1
  5
2E2
331
13F
  5
1D1
331
15DA
  5
20A
331
1654
  5
112
331
1619
  5
B4
331
1B2
  5
275
331
22C
  5
31B
331
13B
  5
1CC
331
1ED
  5
2DA
331
15D6
  5
206
331
1650
  5
114
331
228
  5
318
331
1E9
  5
2D0
331
15D2
  5
202
331
1611
  5
C9
331
164C
  5
11B
331
1648
  5
121
331
3AD
  5
479
331
366
  5
440
331
3A9
  5
473
331
423
  5
BB3
331
362
  5
43B
331
3E4
  5
AB4
331
41F
  5
AFE
331
35E
  5
434
331
3E0
  5
9A3
331
41B
  5
AFA
331
35A
  5
430
331
3DC
  5
99D
331
32F
  5
3FD
331
26E
  5
36C
331
3D8
  5
999
331
2A9
  5
395
331
32B
  5
3F9
331
26A
  5
368
331
2EC
  5
3BF
331
327
  5
3F5
331
266
  5
364
331
1244
  5
1659
331
2E8
  5
3BB
331
2A1
  5
393
331
323
  5
3F1
331
262
  5
360
331
1240
  5
1655
331
2E4
  5
3B7
331
10C
  5
19D
331
BD
  5
137
331
2E0
  5
3B3
331
108
  5
157
331
B9
  5
133
331
104
  5
153
331
B5
  5
12F
331
100
  5
14F
331
497
  5
15CA
331
BC5
  5
162D
331
493
  5
15C4
331
48F
  5
15C0
331
1AE
  5
271
331
1144
  5
164F
331
9A2
  5
15FE
331
1AA
  5
26D
331
15CF
  5
1FF
331
160D
  5
106
331
1140
  5
164B
331
1E5
  5
2C8
331
15CB
  5
1FB
331
25F
  5
35D
331
1A6
  5
269
331
1E1
  5
2C0
331
25B
  5
359
331
1A2
  5
24C
331
1644
  5
12A
331
1605
  5
10E
331
1640
  5
1604
331
1601
  5
11A
331
417
  5
AEE
331
413
  5
AE9
331
391
  5
46D
331
3D4
  5
995
331
44E
  5
1245
331
38D
  5
469
331
40F
  5
ADE
331
3D0
  5
98B
331
44A
  5
1241
331
389
  5
465
331
40B
  5
ADB
331
31F
  5
3ED
331
31B
  5
3E9
331
299
  5
391
331
356
  5
42C
331
317
  5
3E5
331
2D8
  5
3AE
331
352
  5
428
331
291
  5
38F
331
313
  5
3E1
331
FC
  5
14D
331
ACD
  5
349
331
137
  5
1C8
331
AC9
  5
345
331
133
  5
1C4
331
F0
  5
149
331
99E
  5
15FA
331
99A
  5
15F6
331
113C
  5
1647
331
47B
  5
15BA
331
BB5
  5
1615
331
15C7
  5
1F7
331
1138
  5
1643
331
996
  5
15F2
331
1DD
  5
2B8
331
15C3
  5
1F3
331
257
  5
355
331
19E
  5
248
331
1134
  5
163F
331
473
  5
15B5
331
1D9
  5
2A8
331
15BF
  5
1EF
331
163C
  5
1618
331
253
  5
351
331
19A
  5
244
331
24F
  5
33E
331
1D5
  5
2A0
331
15BB
  5
1EB
331
1638
  5
161C
331
210
  5
310
331
15F9
  5
122
331
24B
  5
33A
331
1D1
  5
298
331
1634
  5
1620
331
20C
  5
30C
331
15F5
  5
23B
331
1630
  5
1624
331
208
  5
307
331
15F1
  5
237
331
3CC
  5
987
331
446
  5
1147
331
385
  5
461
331
3C8
  5
4B7
331
442
  5
1143
331
381
  5
45D
331
403
  5
AD6
331
3C4
  5
4B1
331
43E
  5
113F
331
37D
  5
459
331
3FF
  5
AD2
331
3C0
  5
4AB
331
43A
  5
113B
331
379
  5
455
331
3FB
  5
ACE
331
34E
  5
423
331
28D
  5
38B
331
30F
  5
3DD
331
2D0
  5
3AC
331
34A
  5
41E
331
289
  5
387
331
30B
  5
3D9
331
346
  5
41A
331
285
  5
383
331
307
  5
3D5
331
AC5
  5
341
331
12F
  5
1C0
331
2C8
  5
3AA
331
342
  5
415
331
281
  5
37F
331
1457
  5
166A
331
303
  5
3CF
331
12B
  5
1BC
331
1453
  5
1669
331
127
  5
1B8
331
E8
  5
147
331
123
  5
1B4
331
D0
  5
146
331
98A
  5
15EC
331
46B
  5
15AE
331
15B7
  5
AD9
331
467
  5
15AA
331
1CD
  5
290
331
247
  5
336
331
156
  5
1E8
331
AED
  5
160C
331
463
  5
15A6
331
1C9
  5
28D
331
162C
  5
1628
331
204
  5
301
331
152
  5
1E4
331
15ED
  5
22F
331
1667
  5
C4
331
AE9
  5
1608
331
1C5
  5
289
331
23F
  5
331
331
14E
  5
1E0
331
1628
  5
1630
331
200
  5
2F9
331
15E9
  5
229
331
1663
  5
F6
331
1C1
  5
285
331
23B
  5
32F
331
14A
  5
1DC
331
1624
  5
1634
331
1FC
  5
2F1
331
15E5
  5
21E
331
165F
  5
FC
331
1620
  5
1638
331
1F8
  5
2E9
331
15E1
  5
211
331
165B
  5
108
331
3BC
  5
496
331
436
  5
1139
331
375
  5
44F
331
3F7
  5
ACA
331
3B8
  5
492
331
432
  5
1136
331
371
  5
44B
331
3F3
  5
AC6
331
3B4
  5
48E
331
42E
  5
FEE
331
36D
  5
447
331
3EF
  5
AC1
331
3B0
  5
47D
331
42A
  5
BC5
331
369
  5
443
331
3EB
  5
ABD
331
33E
  5
411
331
27D
  5
37B
331
2C0
  5
3A8
331
144F
  5
1665
331
33A
  5
40C
331
279
  5
377
331
336
  5
404
331
275
  5
373
331
2F7
  5
3CA
331
11F
  5
1B0
331
2B8
  5
39E
331
332
  5
400
331
271
  5
36F
331
2F3
  5
3C6
331
11B
  5
1AC
331
CC
  5
142
331
134B
  5
165F
331
117
  5
1A8
331
C8
  5
13E
331
113
  5
1A4
331
C4
  5
13A
331
4B6
  5
15D4
331
45F
  5
1453
331
4B2
  5
15D2
331
45B
  5
144F
331
4AE
  5
15CE
331
457
  5
134D
331
1BD
  5
281
331
237
  5
321
331
146
  5
1D8
331
4AA
  5
15CC
331
453
  5
1349
331
1B9
  5
27D
331
1F4
  5
2E5
331
142
  5
1D4
331
15DD
  5
20D
331
1657
  5
10A
331
AD1
  5
34C
331
1B5
  5
279
331
22F
  5
31D
331
13E
  5
1D0
331
1F0
  5
2E1
331
15D9
  5
209
331
1653
  5
111
331
1618
  5
B2
331
1B1
  5
274
331
22B
  5
31A
331
13A
  5
1CB
331
1EC
  5
2D9
331
15D5
  5
205
331
164F
  5
117
331
1E8
  5
2CF
331
15D1
  5
201
331
164B
  5
120
331
3AC
  5
478
331
426
  5
BC2
331
365
  5
43F
331
3E7
  5
AB9
331
3A8
  5
472
331
3E3
  5
9A6
331
361
  5
43A
331
41E
  5
AFD
331
35D
  5
433
331
3DF
  5
9A2
331
41A
  5
AF0
331
359
  5
42F
331
3DB
  5
99C
331
32E
  5
3FC
331
26D
  5
36B
331
2EF
  5
3C2
331
2A8
  5
394
331
32A
  5
3F8
331
269
  5
367
331
2EB
  5
3BE
331
326
  5
3F4
331
265
  5
363
331
1243
  5
1658
331
2E7
  5
3BA
331
10F
  5
1A0
331
2A0
  5
392
331
322
  5
3F0
331
261
  5
35F
331
2E3
  5
3B6
331
10B
  5
19C
331
BC
  5
136
331
107
  5
156
331
B8
  5
132
331
103
  5
152
331
B4
  5
12E
331
B0
  5
12C
331
496
  5
15C9
331
BC4
  5
162C
331
492
  5
15C3
331
9A5
  5
1601
331
1147
  5
1652
331
48E
  5
15BF
331
1AD
  5
270
331
1143
  5
164E
331
9A1
  5
15FD
331
223
  5
317
331
1A9
  5
26C
331
15CE
  5
1FE
331
160C
  5
105
331
1E4
  5
2C7
331
15CA
  5
1FA
331
25E
  5
35C
331
1A5
  5
24F
331
1647
  5
127
331
1E0
  5
2BF
331
25A
  5
358
331
1A1
  5
24B
331
1643
  5
129
331
1600
  5
119
331
4B9
  5
15D7
331
416
  5
AED
331
394
  5
470
331
3D7
  5
998
331
412
  5
AE4
331
390
  5
46C
331
3D3
  5
994
331
44D
  5
1244
331
38C
  5
468
331
449
  5
1240
331
388
  5
464
331
40A
  5
ADA
331
31E
  5
3EC
331
2DF
  5
3B2
331
31A
  5
3E8
331
298
  5
390
331
355
  5
42B
331
316
  5
3E4
331
FF
  5
14E
331
351
  5
426
331
290
  5
38E
331
312
  5
3E0
331
FB
  5
14C
331
1148
  5
1653
331
ACC
  5
348
331
136
  5
1C7
331
AC8
  5
344
331
132
  5
1C3
331
113F
  5
164A
331
99D
  5
15F9
331
113B
  5
1646
331
999
  5
15F5
331
BB4
  5
1614
331
15C6
  5
1F6
331
1137
  5
1642
331
995
  5
15F1
331
1DC
  5
2B7
331
15C2
  5
1F2
331
163F
  5
1603
331
256
  5
354
331
19D
  5
247
331
AFC
  5
1612
331
472
  5
15B4
331
163B
  5
1617
331
252
  5
350
331
1D8
  5
2A7
331
15BE
  5
1EE
331
24E
  5
33D
331
1D4
  5
29F
331
15BA
  5
1EA
331
1637
  5
161B
331
20F
  5
30F
331
15F8
  5
240
331
24A
  5
339
331
1D0
  5
297
331
1633
  5
161F
331
20B
  5
30B
331
15F4
  5
23A
331
15F0
  5
236
331
166A
  5
BA
331
3CF
  5
98A
331
3CB
  5
4BB
331
445
  5
1146
331
384
  5
460
331
3C7
  5
4B6
331
441
  5
1142
331
380
  5
45C
331
402
  5
AD5
331
3C3
  5
4B0
331
43D
  5
113E
331
37C
  5
458
331
3FE
  5
AD1
331
439
  5
113A
331
378
  5
454
331
3FA
  5
ACD
331
34D
  5
421
331
28C
  5
38A
331
30E
  5
3DC
331
349
  5
41D
331
288
  5
386
331
30A
  5
3D8
331
345
  5
419
331
284
  5
382
331
306
  5
3D4
331
AC4
  5
340
331
12E
  5
1BF
331
341
  5
414
331
280
  5
37E
331
302
  5
3CE
331
12A
  5
1BB
331
1452
  5
1668
331
126
  5
1B7
331
122
  5
1B3
331
98D
  5
15EF
331
FEF
  5
163E
331
46E
  5
15B1
331
989
  5
15E5
331
46A
  5
15AD
331
15B6
  5
AD8
331
AF0
  5
160F
331
466
  5
15A9
331
246
  5
335
331
155
  5
1E7
331
162F
  5
1623
331
207
  5
306
331
AEC
  5
160B
331
462
  5
15A5
331
1C8
  5
28C
331
162B
  5
1627
331
203
  5
300
331
151
  5
1E3
331
15EC
  5
22D
331
1666
  5
BF
331
1C4
  5
288
331
1627
  5
162F
331
1FF
  5
2F8
331
14D
  5
1DF
331
15E8
  5
228
331
1662
  5
D0
331
1C0
  5
284
331
23A
  5
324
331
149
  5
1DB
331
1623
  5
1633
331
1FB
  5
2F0
331
15E4
  5
21D
331
123F
  5
1654
331
165E
  5
FB
331
15E0
  5
210
331
165A
  5
107
331
3BF
  5
4AA
331
3BB
  5
495
331
3F6
  5
AC9
331
374
  5
44E
331
3B7
  5
491
331
431
  5
1135
331
370
  5
44A
331
3F2
  5
AC5
331
3B3
  5
48D
331
42D
  5
FED
331
36C
  5
446
331
3EE
  5
AC0
331
429
  5
BC4
331
368
  5
442
331
3EA
  5
ABC
331
33D
  5
410
331
27C
  5
37A
331
339
  5
40B
331
278
  5
376
331
144E
  5
1664
331
2FA
  5
3CD
331
335
  5
403
331
274
  5
372
331
2F6
  5
3C9
331
11E
  5
1AF
331
CF
  5
145
331
331
  5
3FF
331
270
  5
36E
331
134E
  5
1662
331
2F2
  5
3C5
331
11A
  5
1AB
331
CB
  5
141
331
134A
  5
165E
331
116
  5
1A7
331
C7
  5
13D
331
112
  5
1A3
331
45E
  5
1452
331
4B1
  5
15D1
331
AE4
  5
1607
331
45A
  5
144E
331
456
  5
134C
331
1BC
  5
280
331
236
  5
320
331
145
  5
1D7
331
161F
  5
1637
331
1F7
  5
2E8
331
4A9
  5
15CB
331
1B8
  5
27C
331
1F3
  5
2E4
331
141
  5
1D3
331
15DC
  5
20C
331
1656
  5
10D
331
AD0
  5
34B
331
1B4
  5
277
331
1EF
  5
2E0
331
13D
  5
1CF
331
15D8
  5
208
331
1652
  5
116
331
1617
  5
B0
331
1B0
  5
273
331
1EB
  5
2D8
331
139
  5
1CA
331
15D4
  5
204
331
1613
  5
CE
331
164E
  5
11D
331
15D0
  5
200
331
164A
  5
11F
331
3AF
  5
47C
331
3AB
  5
475
331
425
  5
BB5
331
364
  5
43E
331
3E6
  5
AB8
331
3A7
  5
471
331
421
  5
B00
331
360
  5
439
331
3E2
  5
9A5
331
41D
  5
AFC
331
35C
  5
432
331
3DE
  5
9A1
331
419
  5
AEF
331
358
  5
42E
331
3DA
  5
99B
331
32D
  5
3FB
331
26C
  5
36A
331
2EE
  5
3C1
331
329
  5
3F7
331
268
  5
366
331
1246
  5
165B
331
2EA
  5
3BD
331
325
  5
3F3
331
264
  5
362
331
1242
  5
1657
331
2E6
  5
3B9
331
10E
  5
19F
331
BF
  5
139
331
321
  5
3EF
331
260
  5
35E
331
2E2
  5
3B5
331
10A
  5
19B
331
BB
  5
135
331
106
  5
155
331
B7
  5
131
331
102
  5
151
331
495
  5
15C8
331
BC3
  5
162B
331
491
  5
15C2
331
9A4
  5
1600
331
1146
  5
1651
331
48D
  5
15BE
331
1AC
  5
26F
331
1142
  5
164D
331
9A0
  5
15FC
331
1E7
  5
2CA
331
15CD
  5
1FD
331
222
  5
316
331
1A8
  5
26B
331
160B
  5
104
331
1E3
  5
2C2
331
15C9
  5
1F9
331
25D
  5
35B
331
1A4
  5
24E
331
21E
  5
315
331
1646
  5
126
331
1607
  5
110
331
259
  5
357
331
1A0
  5
24A
331
1642
  5
128
331
4B8
  5
15D6
331
415
  5
AEC
331
393
  5
46F
331
3D6
  5
997
331
411
  5
AE3
331
38F
  5
46B
331
3D2
  5
98D
331
44C
  5
1243
331
38B
  5
467
331
40D
  5
ADD
331
448
  5
123F
331
31D
  5
3EB
331
319
  5
3E7
331
354
  5
42A
331
315
  5
3E3
331
350
  5
425
331
311
  5
3DF
331
ACF
  5
34A
331
FA
  5
14B
331
ACB
  5
347
331
135
  5
1C6
331
F6
  5
14A
331
131
  5
1C2
331
99C
  5
15F8
331
113E
  5
1649
331
47D
  5
15BC
331
998
  5
15F4
331
113A
  5
1645
331
479
  5
15B9
331
BB3
  5
1613
331
1DF
  5
2BA
331
15C5
  5
1F5
331
994
  5
15F0
331
1136
  5
1641
331
475
  5
15B7
331
1DB
  5
2B2
331
15C1
  5
1F1
331
163E
  5
1602
331
255
  5
353
331
19C
  5
246
331
15FF
  5
118
331
AFB
  5
1611
331
471
  5
15B3
331
251
  5
34F
331
1D7
  5
2A2
331
15BD
  5
1ED
331
163A
  5
1616
331
212
  5
312
331
15FB
  5
124
331
15B9
  5
3B1
331
24D
  5
33C
331
1D3
  5
29A
331
1636
  5
161A
331
20E
  5
30E
331
15F7
  5
23F
331
249
  5
338
331
1632
  5
161E
331
20A
  5
30A
331
15F3
  5
239
331
1669
  5
B9
331
3CE
  5
989
331
387
  5
463
331
3CA
  5
4B9
331
444
  5
1145
331
383
  5
45F
331
3C6
  5
4B3
331
440
  5
1141
331
37F
  5
45B
331
401
  5
AD4
331
3C2
  5
4AF
331
43C
  5
113D
331
37B
  5
457
331
3FD
  5
AD0
331
28F
  5
38D
331
3F9
  5
ACC
331
34C
  5
420
331
28B
  5
389
331
30D
  5
3DB
331
348
  5
41C
331
287
  5
385
331
309
  5
3D7
331
AC7
  5
343
331
344
  5
417
331
283
  5
381
331
305
  5
3D1
331
AC3
  5
33F
331
12D
  5
1BE
331
340
  5
413
331
129
  5
1BA
331
EA
  5
148
331
1451
  5
1667
331
125
  5
1B6
331
121
  5
1B2
331
98C
  5
15EE
331
FEE
  5
163D
331
46D
  5
15B0
331
988
  5
15E4
331
469
  5
15AC
331
1CF
  5
292
331
AEF
  5
160E
331
465
  5
15A8
331
1CB
  5
28F
331
245
  5
334
331
154
  5
1E6
331
162E
  5
1622
331
206
  5
305
331
15EF
  5
235
331
AEB
  5
160A
331
461
  5
15A2
331
1C7
  5
28B
331
162A
  5
1626
331
202
  5
2FD
331
150
  5
1E2
331
15EB
  5
22C
331
1665
  5
BE
331
1C3
  5
287
331
1626
  5
162E
331
1FE
  5
2F5
331
14C
  5
1DE
331
15E7
  5
223
331
1661
  5
CF
331
239
  5
323
331
148
  5
1DA
331
1622
  5
1632
331
1FA
  5
2ED
331
15E3
  5
219
331
165D
  5
103
331
1659
  5
10C
331
3BE
  5
4A9
331
377
  5
453
331
3BA
  5
494
331
434
  5
1138
331
373
  5
44D
331
3F5
  5
AC8
331
3B6
  5
490
331
430
  5
1134
331
36F
  5
449
331
3F1
  5
AC4
331
3B2
  5
48C
331
42C
  5
DE5
331
36B
  5
445
331
3ED
  5
ABF
331
27F
  5
37D
331
428
  5
BC3
331
3E9
  5
ABB
331
33C
  5
40F
331
27B
  5
379
331
338
  5
40A
331
277
  5
375
331
144D
  5
1663
331
2F9
  5
3CC
331
334
  5
402
331
273
  5
371
331
2F5
  5
3C8
331
11D
  5
1AE
331
CE
  5
144
331
330
  5
3FE
331
134D
  5
1661
331
2F1
  5
3C4
331
119
  5
1AA
331
CA
  5
140
331
1349
  5
165D
331
115
  5
1A6
331
C6
  5
13C
331
111
  5
1A2
331
CEE
  5
163A
331
45D
  5
1451
331
4B0
  5
15D0
331
AE3
  5
1606
331
459
  5
144D
331
1BF
  5
283
331
455
  5
134B
331
1BB
  5
27F
331
235
  5
31F
331
144
  5
1D6
331
161E
  5
1636
331
1F6
  5
2E7
331
15DF
  5
20F
331
1B7
  5
27B
331
1F2
  5
2E3
331
140
  5
1D2
331
15DB
  5
20B
331
1655
  5
113
331
1B3
  5
276
331
22D
  5
31C
331
13C
  5
1CE
331
1EE
  5
2DF
331
15D7
  5
207
331
1651
  5
115
331
229
  5
319
331
138
  5
1C9
331
1EA
  5
2D1
331
15D3
  5
203
331
1612
  5
CA
331
164D
  5
11C
331
1649
  5
11E
331
3AE
  5
47B
331
367
  5
441
331
3AA
  5
474
331
424
  5
BB4
331
363
  5
43C
331
3E5
  5
AB7
331
420
  5
AFF
331
35F
  5
436
331
3E1
  5
9A4
331
41C
  5
AFB
331
35B
  5
431
331
3DD
  5
9A0
331
26F
  5
36D
331
3D9
  5
99A
331
32C
  5
3FA
331
26B
  5
369
331
2ED
  5
3C0
331
328
  5
3F6
331
267
  5
365
331
1245
  5
165A
331
2E9
  5
3BC
331
324
  5
3F2
331
263
  5
361
331
1241
  5
1656
331
2E5
  5
3B8
331
10D
  5
19E
331
BE
  5
138
331
320
  5
3EE
331
2E1
  5
3B4
331
109
  5
158
331
BA
  5
134
331
105
  5
154
331
B6
  5
130
331
101
  5
150
331
B2
  5
12D
  0
XRECORD
  5
16B3
102
{ACAD_REACTORS
330
16B1
102
}
330
16B1
100
AcDbXrecord
280
     1
 70
     2
  0
XRECORD
  5
16B2
102
{ACAD_REACTORS
330
16B1
102
}
330
16B1
100
AcDbXrecord
280
     1
 40
1.25
  0
XRECORD
  5
16B4
102
{ACAD_REACTORS
330
16B1
102
}
330
16B1
100
AcDbXrecord
280
     1
 40
1.570796326794896
  0
LAYOUT
  5
39
102
{ACAD_XDICTIONARY
360
16D8
102
}
102
{ACAD_REACTORS
330
2E
102
}
330
2E
100
AcDbPlotSettings
  1

  2
none_device
  4
Letter_(8.50_x_11.00_Inches)
  6

 40
6.349999904632568
 41
6.349999904632568
 42
6.350006103515625
 43
6.350006103515625
 44
215.8999938964844
 45
279.3999938964844
 46
0.0
 47
0.0
 48
0.0
 49
0.0
140
0.0
141
0.0
142
1.0
143
41.87749302478537
 70
 11952
 72
     0
 73
     1
 74
     0
  7

 75
     0
147
0.0238791753701241
148
5720.71958361379
149
4316.793253609365
100
AcDbLayout
  1
Model
 70
     1
 71
     0
 10
0.0
 20
0.0
 11
12.0
 21
9.0
 12
0.0
 22
0.0
 32
0.0
 14
0.0
 24
0.0
 34
0.0
 15
0.0
 25
0.0
 35
0.0
146
0.0
 13
0.0
 23
0.0
 33
0.0
 16
1.0
 26
0.0
 36
0.0
 17
0.0
 27
1.0
 37
0.0
 76
     0
330
36
331
57
1001
ACAD_PSEXT
1000
なし
1000
なし
1000
適切ではありません
1000
新しいプロッタ環境設定名を選択しない限り、レイアウトは印刷されません。
1070
     0
  0
LAYOUT
  5
35
102
{ACAD_XDICTIONARY
360
16D6
102
}
102
{ACAD_REACTORS
330
2E
102
}
330
2E
100
AcDbPlotSettings
  1

  2
DocuPrint 305
  4

  6

 40
0.0
 41
0.0
 42
0.0
 43
0.0
 44
0.0
 45
0.0
 46
0.0
 47
0.0
 48
0.0
 49
0.0
140
0.0
141
0.0
142
1.0
143
1.0
 70
   688
 72
     0
 73
     0
 74
     5
  7

 75
    16
147
1.0
148
0.0
149
0.0
100
AcDbLayout
  1
レイアウト1
 70
     1
 71
     1
 10
0.0
 20
0.0
 11
12.0
 21
9.0
 12
0.0
 22
0.0
 32
0.0
 14
1.000000000000000E+20
 24
1.000000000000000E+20
 34
1.000000000000000E+20
 15
-1.000000000000000E+20
 25
-1.000000000000000E+20
 35
-1.000000000000000E+20
146
0.0
 13
0.0
 23
0.0
 33
0.0
 16
1.0
 26
0.0
 36
0.0
 17
0.0
 27
1.0
 37
0.0
 76
     0
330
32
  0
MATERIAL
  5
12
102
{ACAD_XDICTIONARY
360
736
102
}
102
{ACAD_REACTORS
330
10
102
}
330
10
100
AcDbMaterial
  1
ByBlock
  0
MATERIAL
  5
11
102
{ACAD_XDICTIONARY
360
734
102
}
102
{ACAD_REACTORS
330
10
102
}
330
10
100
AcDbMaterial
  1
ByLayer
  0
MATERIAL
  5
13
102
{ACAD_XDICTIONARY
360
738
102
}
102
{ACAD_REACTORS
330
10
102
}
330
10
100
AcDbMaterial
  1
Global
  0
MLEADERSTYLE
  5
7A9
102
{ACAD_REACTORS
330
7A8
102
}
330
7A8
100
AcDbMLeaderStyle
170
     2
171
     1
172
     0
 90
        2
 40
0.0
 41
0.0
173
     1
 91
-1056964608
340
28
 92
       -2
290
     1
 42
0.09
291
     1
 43
0.36
  3
Standard
 44
0.18
300

342
26
174
     1
178
     6
175
     1
176
     0
 93
-1056964608
 45
0.18
292
     0
297
     0
 46
0.18
 94
-1056964608
 47
1.0
 49
1.0
140
1.0
293
     1
141
0.0
294
     1
177
     0
142
1.0
295
     0
296
     0
143
0.125
1001
ACAD
1000
AcRTDxfName
1000
MLEADERSTYLE
1001
ACAD_MLEADERVER
1070
     2
  0
MLINESTYLE
  5
2C
102
{ACAD_REACTORS
330
2B
102
}
330
2B
100
AcDbMlineStyle
  2
STANDARD
 70
     0
  3

 62
   256
 51
90.0
 52
90.0
 71
     2
 49
0.5
 62
   256
  6
BYLAYER
 49
-0.5
 62
   256
  6
BYLAYER
  0
ACDBPLACEHOLDER
  5
F
102
{ACAD_REACTORS
330
E
102
}
330
E
  0
SCALE
  5
797
102
{ACAD_REACTORS
330
796
102
}
330
796
100
AcDbScale
 70
     0
300
1:1
140
1.0
141
1.0
290
     1
1001
ACAD
1000
AcRTDxfName
1000
SCALE
  0
SCALE
  5
798
102
{ACAD_REACTORS
330
796
102
}
330
796
100
AcDbScale
 70
     0
300
1/128" = 1'-0"
140
0.0078125
141
12.0
290
     0
1001
ACAD
1000
AcRTDxfName
1000
SCALE
  0
SCALE
  5
799
102
{ACAD_REACTORS
330
796
102
}
330
796
100
AcDbScale
 70
     0
300
1/64" = 1'-0"
140
0.015625
141
12.0
290
     0
1001
ACAD
1000
AcRTDxfName
1000
SCALE
  0
SCALE
  5
79A
102
{ACAD_REACTORS
330
796
102
}
330
796
100
AcDbScale
 70
     0
300
1/32" = 1'-0"
140
0.03125
141
12.0
290
     0
1001
ACAD
1000
AcRTDxfName
1000
SCALE
  0
SCALE
  5
79B
102
{ACAD_REACTORS
330
796
102
}
330
796
100
AcDbScale
 70
     0
300
1/16" = 1'-0"
140
0.0625
141
12.0
290
     0
1001
ACAD
1000
AcRTDxfName
1000
SCALE
  0
SCALE
  5
79C
102
{ACAD_REACTORS
330
796
102
}
330
796
100
AcDbScale
 70
     0
300
3/32" = 1'-0"
140
0.09375
141
12.0
290
     0
1001
ACAD
1000
AcRTDxfName
1000
SCALE
  0
SCALE
  5
79D
102
{ACAD_REACTORS
330
796
102
}
330
796
100
AcDbScale
 70
     0
300
1/8" = 1'-0"
140
0.125
141
12.0
290
     0
1001
ACAD
1000
AcRTDxfName
1000
SCALE
  0
SCALE
  5
79E
102
{ACAD_REACTORS
330
796
102
}
330
796
100
AcDbScale
 70
     0
300
3/16" = 1'-0"
140
0.1875
141
12.0
290
     0
1001
ACAD
1000
AcRTDxfName
1000
SCALE
  0
SCALE
  5
79F
102
{ACAD_REACTORS
330
796
102
}
330
796
100
AcDbScale
 70
     0
300
1/4" = 1'-0"
140
0.25
141
12.0
290
     0
1001
ACAD
1000
AcRTDxfName
1000
SCALE
  0
SCALE
  5
7A0
102
{ACAD_REACTORS
330
796
102
}
330
796
100
AcDbScale
 70
     0
300
3/8" = 1'-0"
140
0.375
141
12.0
290
     0
1001
ACAD
1000
AcRTDxfName
1000
SCALE
  0
SCALE
  5
7A1
102
{ACAD_REACTORS
330
796
102
}
330
796
100
AcDbScale
 70
     0
300
1/2" = 1'-0"
140
0.5
141
12.0
290
     0
1001
ACAD
1000
AcRTDxfName
1000
SCALE
  0
SCALE
  5
7A2
102
{ACAD_REACTORS
330
796
102
}
330
796
100
AcDbScale
 70
     0
300
3/4" = 1'-0"
140
0.75
141
12.0
290
     0
1001
ACAD
1000
AcRTDxfName
1000
SCALE
  0
SCALE
  5
7A3
102
{ACAD_REACTORS
330
796
102
}
330
796
100
AcDbScale
 70
     0
300
1" = 1'-0"
140
1.0
141
12.0
290
     0
1001
ACAD
1000
AcRTDxfName
1000
SCALE
  0
SCALE
  5
7A4
102
{ACAD_REACTORS
330
796
102
}
330
796
100
AcDbScale
 70
     0
300
1-1/2" = 1'-0"
140
1.5
141
12.0
290
     0
1001
ACAD
1000
AcRTDxfName
1000
SCALE
  0
SCALE
  5
7A5
102
{ACAD_REACTORS
330
796
102
}
330
796
100
AcDbScale
 70
     0
300
3" = 1'-0"
140
3.0
141
12.0
290
     0
1001
ACAD
1000
AcRTDxfName
1000
SCALE
  0
SCALE
  5
7A6
102
{ACAD_REACTORS
330
796
102
}
330
796
100
AcDbScale
 70
     0
300
6" = 1'-0"
140
6.0
141
12.0
290
     0
1001
ACAD
1000
AcRTDxfName
1000
SCALE
  0
SCALE
  5
7A7
102
{ACAD_REACTORS
330
796
102
}
330
796
100
AcDbScale
 70
     0
300
1'-0" = 1'-0"
140
12.0
141
12.0
290
     0
1001
ACAD
1000
AcRTDxfName
1000
SCALE
  0
TABLESTYLE
  5
31
102
{ACAD_XDICTIONARY
360
9CE
102
}
102
{ACAD_REACTORS
330
30
102
}
330
30
100
AcDbTableStyle
  3
Standard
 70
     0
 71
     0
 40
0.06
 41
0.06
280
     0
281
     0
  7
STANDARD
140
0.18
170
     2
 62
     0
 63
     7
283
     0
274
    -2
284
     1
 64
     0
275
    -2
285
     1
 65
     0
276
    -2
286
     1
 66
     0
277
    -2
287
     1
 67
     0
278
    -2
288
     1
 68
     0
279
    -2
289
     1
 69
     0
  7
STANDARD
140
0.25
170
     5
 62
     0
 63
     7
283
     0
274
    -2
284
     1
 64
     0
275
    -2
285
     1
 65
     0
276
    -2
286
     1
 66
     0
277
    -2
287
     1
 67
     0
278
    -2
288
     1
 68
     0
279
    -2
289
     1
 69
     0
  7
STANDARD
140
0.18
170
     5
 62
     0
 63
     7
283
     0
274
    -2
284
     1
 64
     0
275
    -2
285
     1
 65
     0
276
    -2
286
     1
 66
     0
277
    -2
287
     1
 67
     0
278
    -2
288
     1
 68
     0
279
    -2
289
     1
 69
     0
  0
TABLESTYLE
  5
10FF
102
{ACAD_XDICTIONARY
360
1100
102
}
102
{ACAD_REACTORS
330
30
102
}
330
30
100
AcDbTableStyle
  3
Standard
 70
     1
 71
     0
 40
1.5
 41
0.5
280
     0
281
     0
  7
高3.2
140
0.18
170
     7
 62
     3
 63
     7
283
     0
274
    -2
284
     1
 64
     3
275
    -2
285
     1
 65
     7
276
    -2
286
     1
 66
     3
277
    -2
287
     1
 67
     3
278
    -2
288
     1
 68
     7
279
    -2
289
     1
 69
     3
  7
高3.2
140
0.25
170
     8
 62
     3
 63
     7
283
     0
274
    -2
284
     1
 64
     0
275
    -2
285
     1
 65
     0
276
    -2
286
     1
 66
     0
277
    -2
287
     1
 67
     0
278
    -2
288
     1
 68
     0
279
    -2
289
     1
 69
     0
  7
高3.2
140
0.18
170
     7
 62
     3
 63
     7
283
     0
274
    -2
284
     1
 64
     3
275
    -2
285
     1
 65
     7
276
    -2
286
     1
 66
     3
277
    -2
287
     1
 67
     3
278
    -2
288
     1
 68
     7
279
    -2
289
     1
 69
     3
  0
VISUALSTYLE
  5
1A
102
{ACAD_XDICTIONARY
360
16BF
102
}
102
{ACAD_REACTORS
330
14
102
}
330
14
100
AcDbVisualStyle
  2

 70
     4
 71
     0
 72
     2
 73
     0
 90
        0
 40
-0.6
 41
-30.0
 62
     5
 63
     7
 74
     1
 91
        4
 64
     7
 65
   257
 75
     1
175
     1
 42
1.0
 92
        0
 66
   257
 43
1.0
 76
     1
 77
     6
 78
     2
 67
     7
 79
     5
170
     0
171
     0
290
     0
174
     0
 93
        1
 44
0.0
173
     0
291
     0
 45
0.0
1001
ACAD
1000
AcDbSavedByObjectVersion
1070
     0
  0
VISUALSTYLE
  5
1C
102
{ACAD_XDICTIONARY
360
16C3
102
}
102
{ACAD_REACTORS
330
14
102
}
330
14
100
AcDbVisualStyle
  2

 70
     6
 71
     1
 72
     2
 73
     2
 90
        0
 40
-0.6
 41
-30.0
 62
     5
 63
     7
 74
     2
 91
        2
 64
     7
 65
   257
 75
     2
175
     1
 42
40.0
 92
        0
 66
   257
 43
1.0
 76
     1
 77
     6
 78
     2
 67
     7
 79
     3
170
     0
171
     0
290
     0
174
     0
 93
        1
 44
0.0
173
     0
291
     0
 45
0.0
1001
ACAD
1000
AcDbSavedByObjectVersion
1070
     0
  0
VISUALSTYLE
  5
1B
102
{ACAD_XDICTIONARY
360
16C1
102
}
102
{ACAD_REACTORS
330
14
102
}
330
14
100
AcDbVisualStyle
  2

 70
     5
 71
     0
 72
     2
 73
     0
 90
        0
 40
-0.6
 41
-30.0
 62
     5
 63
     7
 74
     1
 91
        4
 64
     7
 65
   257
 75
     1
175
     1
 42
1.0
 92
        0
 66
   257
 43
1.0
 76
     1
 77
     6
 78
     2
 67
     7
 79
     5
170
     0
171
     0
290
     0
174
     0
 93
        1
 44
0.0
173
     0
291
     0
 45
0.0
1001
ACAD
1000
AcDbSavedByObjectVersion
1070
     0
  0
VISUALSTYLE
  5
19
102
{ACAD_XDICTIONARY
360
16BD
102
}
102
{ACAD_REACTORS
330
14
102
}
330
14
100
AcDbVisualStyle
  2

 70
     7
 71
     1
 72
     0
 73
     1
 90
        0
 40
-0.6
 41
-30.0
 62
     5
 63
     7
 74
     0
 91
        4
 64
     7
 65
   257
 75
     1
175
     1
 42
1.0
 92
        8
 66
     7
 43
1.0
 76
     1
 77
     6
 78
     2
 67
     7
 79
     5
170
     0
171
     0
290
     0
174
     0
 93
        1
 44
0.0
173
     0
291
     1
 45
0.0
1001
ACAD
1000
AcDbSavedByObjectVersion
1070
     0
  0
VISUALSTYLE
  5
20
102
{ACAD_XDICTIONARY
360
16CB
102
}
102
{ACAD_REACTORS
330
14
102
}
330
14
100
AcDbVisualStyle
  2

 70
    12
 71
     2
 72
     2
 73
     0
 90
        0
 40
-0.6
 41
-30.0
 62
     5
 63
     7
 74
     1
 91
        4
 64
     7
 65
   257
 75
     1
175
     1
 42
1.0
 92
        8
 66
     7
 43
1.0
 76
     1
 77
     6
 78
     2
 67
     7
 79
     5
170
     0
171
     0
290
     0
174
     0
 93
        1
 44
50.0
173
     0
291
     1
 45
0.0
1001
ACAD
1000
AcDbSavedByObjectVersion
1070
     0
  0
VISUALSTYLE
  5
24
102
{ACAD_XDICTIONARY
360
16D3
102
}
102
{ACAD_REACTORS
330
14
102
}
330
14
100
AcDbVisualStyle
  2

 70
    16
 71
     2
 72
     2
 73
     3
 90
        0
 40
-0.6
 41
-30.0
 62
     5
 63
     8
 74
     1
 91
        4
 64
     7
 65
   257
 75
     1
175
     1
 42
1.0
 92
        8
 66
     8
 43
1.0
 76
     1
 77
     6
 78
     2
 67
     7
 79
     5
170
     0
171
     0
290
     0
174
     0
 93
        1
 44
0.0
173
     0
291
     1
 45
0.0
1001
ACAD
1000
AcDbSavedByObjectVersion
1070
     0
  0
VISUALSTYLE
  5
1D
102
{ACAD_XDICTIONARY
360
16C5
102
}
102
{ACAD_REACTORS
330
14
102
}
330
14
100
AcDbVisualStyle
  2

 70
     9
 71
     3
 72
     2
 73
     0
 90
        0
 40
-0.6
 41
-30.0
 62
     5
 63
     7
 74
     2
 91
        2
 64
     7
 65
   257
 75
     1
175
     1
 42
40.0
 92
        8
 66
     7
 43
1.0
 76
     1
 77
     6
 78
     2
 67
     7
 79
     3
170
     0
171
     0
290
     0
174
     0
 93
        1
 44
0.0
173
     0
291
     0
 45
0.0
1001
ACAD
1000
AcDbSavedByObjectVersion
1070
     0
  0
VISUALSTYLE
  5
1F
102
{ACAD_XDICTIONARY
360
16C9
102
}
102
{ACAD_REACTORS
330
14
102
}
330
14
100
AcDbVisualStyle
  2

 70
    11
 71
     2
 72
     2
 73
     0
 90
        0
 40
-0.6
 41
-30.0
 62
     5
 63
     7
 74
     1
 91
        4
 64
     7
 65
   257
 75
     1
175
     1
 42
1.0
 92
        8
 66
     7
 43
1.0
 76
     1
 77
     6
 78
     2
 67
     7
 79
     5
170
     0
171
     0
290
     0
174
     0
 93
        1
 44
-50.0
173
     0
291
     1
 45
0.0
1001
ACAD
1000
AcDbSavedByObjectVersion
1070
     0
  0
VISUALSTYLE
  5
795
102
{ACAD_XDICTIONARY
360
16EC
102
}
102
{ACAD_REACTORS
330
14
102
}
330
14
100
AcDbVisualStyle
  2

 70
    22
 71
     2
 72
     2
 73
     0
 90
        0
 40
-0.6
 41
-30.0
 62
     5
 63
     7
 74
     1
 91
        4
 64
     7
 65
   257
 75
     1
175
     1
 42
1.0
 92
        8
 66
     7
 43
1.0
 76
     1
 77
     6
 78
     2
 67
     7
 79
     5
170
     0
171
     0
290
     0
174
     0
 93
        1
 44
0.0
173
     0
291
     1
 45
0.0
1001
ACAD
1000
AcDbSavedByObjectVersion
1070
     0
  0
VISUALSTYLE
  5
23
102
{ACAD_XDICTIONARY
360
16D1
102
}
102
{ACAD_REACTORS
330
14
102
}
330
14
100
AcDbVisualStyle
  2

 70
    15
 71
     2
 72
     2
 73
     0
 90
        0
 40
-0.6
 41
-30.0
 62
     5
 63
     7
 74
     1
 91
        4
 64
     7
 65
   257
 75
     1
175
     1
 42
1.0
 92
        8
 66
     7
 43
1.0
 76
     1
 77
     6
 78
     2
 67
     7
 79
     5
170
     0
171
     0
290
     0
174
     0
 93
        1
 44
0.0
173
     0
291
     1
 45
0.0
1001
ACAD
1000
AcDbSavedByObjectVersion
1070
     0
  0
VISUALSTYLE
  5
15
102
{ACAD_XDICTIONARY
360
16B5
102
}
102
{ACAD_REACTORS
330
14
102
}
330
14
100
AcDbVisualStyle
  2

 70
     0
 71
     2
 72
     1
 73
     1
 90
        2
 40
-0.6
 41
30.0
 62
     5
 63
     7
 74
     0
 91
        4
 64
     7
 65
   257
 75
     1
175
     1
 42
1.0
 92
        8
 66
     7
 43
1.0
 76
     1
 77
     6
 78
     2
 67
     7
 79
     5
170
     0
171
     0
290
     0
174
     0
 93
       13
 44
0.0
173
     0
291
     1
 45
0.0
1001
ACAD
1000
AcDbSavedByObjectVersion
1070
     0
  0
VISUALSTYLE
  5
16
102
{ACAD_XDICTIONARY
360
16B7
102
}
102
{ACAD_REACTORS
330
14
102
}
330
14
100
AcDbVisualStyle
  2

 70
     1
 71
     2
 72
     1
 73
     1
 90
        2
 40
-0.6
 41
30.0
 62
     5
 63
     7
 74
     1
 91
        4
 64
     7
 65
   257
 75
     1
175
     1
 42
1.0
 92
        0
 66
   257
 43
1.0
 76
     1
 77
     6
 78
     2
 67
     7
 79
     5
170
     0
171
     0
290
     0
174
     0
 93
       13
 44
0.0
173
     0
291
     1
 45
0.0
1001
ACAD
1000
AcDbSavedByObjectVersion
1070
     0
  0
VISUALSTYLE
  5
17
102
{ACAD_XDICTIONARY
360
16B9
102
}
102
{ACAD_REACTORS
330
14
102
}
330
14
100
AcDbVisualStyle
  2

 70
     2
 71
     2
 72
     2
 73
     1
 90
        2
 40
-0.6
 41
30.0
 62
     5
 63
     7
 74
     0
 91
        4
 64
     7
 65
   257
 75
     1
175
     1
 42
1.0
 92
        0
 66
     7
 43
1.0
 76
     1
 77
     6
 78
     2
 67
     7
 79
     5
170
     0
171
     0
290
     0
174
     0
 93
       13
 44
0.0
173
     0
291
     1
 45
0.0
1001
ACAD
1000
AcDbSavedByObjectVersion
1070
     0
  0
VISUALSTYLE
  5
18
102
{ACAD_XDICTIONARY
360
16BB
102
}
102
{ACAD_REACTORS
330
14
102
}
330
14
100
AcDbVisualStyle
  2

 70
     3
 71
     2
 72
     2
 73
     1
 90
        2
 40
-0.6
 41
30.0
 62
     5
 63
     7
 74
     1
 91
        4
 64
     7
 65
   257
 75
     1
175
     1
 42
1.0
 92
        0
 66
   257
 43
1.0
 76
     1
 77
     6
 78
     2
 67
     7
 79
     5
170
     0
171
     0
290
     0
174
     0
 93
       13
 44
0.0
173
     0
291
     1
 45
0.0
1001
ACAD
1000
AcDbSavedByObjectVersion
1070
     0
  0
VISUALSTYLE
  5
78D
102
{ACAD_XDICTIONARY
360
16DC
102
}
102
{ACAD_REACTORS
330
14
102
}
330
14
100
AcDbVisualStyle
  2

 70
     6
 71
     1
 72
     2
 73
     2
 90
        0
 40
-0.6
 41
-30.0
 62
     5
 63
     7
 74
     2
 91
        2
 64
     7
 65
   257
 75
     2
175
     1
 42
40.0
 92
        0
 66
   257
 43
1.0
 76
     1
 77
     6
 78
     2
 67
     7
 79
     3
170
     0
171
     0
290
     0
174
     0
 93
        1
 44
0.0
173
     0
291
     0
 45
0.0
1001
ACAD
1000
AcDbSavedByObjectVersion
1070
     0
  0
VISUALSTYLE
  5
793
102
{ACAD_XDICTIONARY
360
16E8
102
}
102
{ACAD_REACTORS
330
14
102
}
330
14
100
AcDbVisualStyle
  2

 70
    20
 71
     2
 72
     2
 73
     0
 90
        0
 40
-0.6
 41
-30.0
 62
     5
 63
     7
 74
     1
 91
        4
 64
     7
 65
   257
 75
     1
175
     1
 42
1.0
 92
       10
 66
     7
 43
1.0
 76
     1
 77
     6
 78
     2
 67
     7
 79
     5
170
     0
171
     0
290
     0
174
     0
 93
        1
 44
0.0
173
     0
291
     1
 45
0.0
1001
ACAD
1000
AcDbSavedByObjectVersion
1070
     0
  0
VISUALSTYLE
  5
22
102
{ACAD_XDICTIONARY
360
16CF
102
}
102
{ACAD_REACTORS
330
14
102
}
330
14
100
AcDbVisualStyle
  2

 70
    14
 71
     2
 72
     2
 73
     0
 90
        0
 40
-0.6
 41
-30.0
 62
     5
 63
     7
 74
     1
 91
        4
 64
     7
 65
   257
 75
     7
175
     7
 42
1.0
 92
        8
 66
     7
 43
1.0
 76
     1
 77
     6
 78
     2
 67
     7
 79
     5
170
     0
171
     0
290
     0
174
     0
 93
        1
 44
0.0
173
     0
291
     1
 45
0.0
1001
ACAD
1000
AcDbSavedByObjectVersion
1070
     0
  0
VISUALSTYLE
  5
794
102
{ACAD_XDICTIONARY
360
16EA
102
}
102
{ACAD_REACTORS
330
14
102
}
330
14
100
AcDbVisualStyle
  2

 70
    21
 71
     2
 72
     2
 73
     0
 90
        0
 40
-0.6
 41
-30.0
 62
     5
 63
     7
 74
     1
 91
        4
 64
     7
 65
   257
 75
     1
175
     1
 42
1.0
 92
        9
 66
     7
 43
1.0
 76
     1
 77
     6
 78
     2
 67
     7
 79
     5
170
     0
171
     0
290
     0
174
     0
 93
        1
 44
0.0
173
     0
291
     1
 45
0.0
1001
ACAD
1000
AcDbSavedByObjectVersion
1070
     0
  0
VISUALSTYLE
  5
1E
102
{ACAD_XDICTIONARY
360
16C7
102
}
102
{ACAD_REACTORS
330
14
102
}
330
14
100
AcDbVisualStyle
  2

 70
     8
 71
     2
 72
     2
 73
     0
 90
        0
 40
-0.6
 41
-30.0
 62
     5
 63
     7
 74
     1
 91
        0
 64
     7
 65
   257
 75
     1
175
     1
 42
1.0
 92
        8
 66
     8
 43
1.0
 76
     1
 77
     6
 78
     2
 67
     7
 79
     5
170
     0
171
     0
290
     0
174
     0
 93
       13
 44
0.0
173
     0
291
     0
 45
0.0
1001
ACAD
1000
AcDbSavedByObjectVersion
1070
     0
  0
VISUALSTYLE
  5
792
102
{ACAD_XDICTIONARY
360
16E6
102
}
102
{ACAD_REACTORS
330
14
102
}
330
14
100
AcDbVisualStyle
  2

 70
    27
 71
     2
 72
     2
 73
     1
 90
        2
 40
-0.6
 41
30.0
 62
     5
 63
     7
 74
     0
 91
        4
 64
     7
 65
   257
 75
     1
175
     1
 42
1.0
 92
        8
 66
   257
 43
1.0
 76
     1
 77
     6
 78
     2
 67
     8
 79
     3
170
     0
171
     0
290
     0
174
     0
 93
        5
 44
0.0
173
     0
291
     0
 45
0.0
1001
ACAD
1000
AcDbSavedByObjectVersion
1070
     0
  0
VISUALSTYLE
  5
791
102
{ACAD_XDICTIONARY
360
16E4
102
}
102
{ACAD_REACTORS
330
14
102
}
330
14
100
AcDbVisualStyle
  2

 70
    26
 71
     2
 72
     2
 73
     1
 90
        2
 40
-0.6
 41
30.0
 62
     5
 63
     7
 74
     1
 91
       10
 64
     7
 65
   257
 75
     2
175
     1
 42
1.0
 92
        8
 66
   257
 43
1.0
 76
     1
 77
     6
 78
     2
 67
     7
 79
     3
170
     0
171
     0
290
     0
174
     0
 93
        5
 44
0.0
173
     0
291
     0
 45
0.0
1001
ACAD
1000
AcDbSavedByObjectVersion
1070
     0
  0
VISUALSTYLE
  5
78E
102
{ACAD_XDICTIONARY
360
16DE
102
}
102
{ACAD_REACTORS
330
14
102
}
330
14
100
AcDbVisualStyle
  2

 70
    23
 71
     2
 72
     2
 73
     3
 90
        0
 40
-0.6
 41
-30.0
 62
     5
 63
     7
 74
     2
 91
        2
 64
     7
 65
     7
 75
     1
175
     1
 42
40.0
 92
        8
 66
     7
 43
1.0
 76
     1
 77
     6
 78
     2
 67
     7
 79
     3
170
     0
171
     0
290
     0
174
     0
 93
        1
 44
0.0
173
     0
291
     0
 45
0.0
1001
ACAD
1000
AcDbSavedByObjectVersion
1070
     0
  0
VISUALSTYLE
  5
78F
102
{ACAD_XDICTIONARY
360
16E0
102
}
102
{ACAD_REACTORS
330
14
102
}
330
14
100
AcDbVisualStyle
  2

 70
    24
 71
     1
 72
     2
 73
     2
 90
        0
 40
-0.6
 41
-30.0
 62
     5
 63
     7
 74
     2
 91
        2
 64
     7
 65
     7
 75
     1
175
     1
 42
40.0
 92
       11
 66
     7
 43
1.0
 76
     1
 77
     6
 78
     2
 67
     7
 79
     6
170
     0
171
     0
290
     0
174
     0
 93
        1
 44
0.0
173
     0
291
     0
 45
0.0
1001
ACAD
1000
AcDbSavedByObjectVersion
1070
     0
  0
VISUALSTYLE
  5
21
102
{ACAD_XDICTIONARY
360
16CD
102
}
102
{ACAD_REACTORS
330
14
102
}
330
14
100
AcDbVisualStyle
  2

 70
    13
 71
     2
 72
     2
 73
     0
 90
        0
 40
-0.6
 41
-30.0
 62
     5
 63
     7
 74
     1
 91
        4
 64
     7
 65
   257
 75
     1
175
     1
 42
1.0
 92
       12
 66
     7
 43
1.0
 76
     1
 77
     6
 78
     2
 67
     7
 79
     5
170
     0
171
     0
290
     0
174
     0
 93
        1
 44
0.0
173
     0
291
     1
 45
0.0
1001
ACAD
1000
AcDbSavedByObjectVersion
1070
     0
  0
VISUALSTYLE
  5
78C
102
{ACAD_XDICTIONARY
360
16DA
102
}
102
{ACAD_REACTORS
330
14
102
}
330
14
100
AcDbVisualStyle
  2

 70
     5
 71
     0
 72
     2
 73
     0
 90
        0
 40
-0.6
 41
-30.0
 62
     5
 63
     7
 74
     1
 91
        4
 64
     7
 65
   257
 75
     1
175
     1
 42
1.0
 92
        0
 66
   257
 43
1.0
 76
     1
 77
     6
 78
     2
 67
     7
 79
     3
170
     0
171
     0
290
     0
174
     0
 93
        1
 44
0.0
173
     0
291
     0
 45
0.0
1001
ACAD
1000
AcDbSavedByObjectVersion
1070
     0
  0
VISUALSTYLE
  5
790
102
{ACAD_XDICTIONARY
360
16E2
102
}
102
{ACAD_REACTORS
330
14
102
}
330
14
100
AcDbVisualStyle
  2

 70
    25
 71
     2
 72
     2
 73
     1
 90
        1
 40
0.5
 41
-30.0
 62
     5
 63
     7
 74
     1
 91
        0
 64
     7
 65
   257
 75
     1
175
     1
 42
1.0
 92
        8
 66
     7
 43
1.0
 76
     1
 77
     6
 78
     2
 67
     7
 79
     3
170
     0
171
     0
290
     0
174
     0
 93
       13
 44
0.0
173
     0
291
     0
 45
0.0
1001
ACAD
1000
AcDbSavedByObjectVersion
1070
     0
  0
DICTIONARYVAR
  5
9CC
102
{ACAD_REACTORS
330
72A
102
}
330
72A
100
DictionaryVariables
280
     0
  1
1:1
  0
DICTIONARYVAR
  5
9CB
102
{ACAD_REACTORS
330
72A
102
}
330
72A
100
DictionaryVariables
280
     0
  1
STANDARD
  0
DICTIONARYVAR
  5
72B
102
{ACAD_REACTORS
330
72A
102
}
330
72A
100
DictionaryVariables
280
     0
  1
STANDARD
  0
DICTIONARYVAR
  5
72E
102
{ACAD_REACTORS
330
72A
102
}
330
72A
100
DictionaryVariables
280
     0
  1
1
  0
DICTIONARYVAR
  5
72D
102
{ACAD_REACTORS
330
72A
102
}
330
72A
100
DictionaryVariables
280
     0
  1
0
  0
DICTIONARYVAR
  5
72C
102
{ACAD_REACTORS
330
72A
102
}
330
72A
100
DictionaryVariables
280
     0
  1
127
  0
DICTIONARYVAR
  5
1556
102
{ACAD_REACTORS
330
72A
102
}
330
72A
100
DictionaryVariables
280
     0
  1
2
  0
DICTIONARY
  5
16D8
330
39
100
AcDbDictionary
280
     1
281
     1
  3
ACAD_XREC_ROUNDTRIP
360
16D9
  0
DICTIONARY
  5
16D6
330
35
100
AcDbDictionary
280
     1
281
     1
  3
ACAD_XREC_ROUNDTRIP
360
16D7
  0
DICTIONARY
  5
736
330
12
100
AcDbDictionary
280
     1
281
     1
  3
ACAD_XREC_ROUNDTRIP
360
737
  0
DICTIONARY
  5
734
330
11
100
AcDbDictionary
280
     1
281
     1
  3
ACAD_XREC_ROUNDTRIP
360
735
  0
DICTIONARY
  5
738
330
13
100
AcDbDictionary
280
     1
281
     1
  3
ACAD_XREC_ROUNDTRIP
360
739
  0
DICTIONARY
  5
9CE
330
31
100
AcDbDictionary
280
     1
281
     1
  3
ACAD_ROUNDTRIP_2008_TABLESTYLE_CELLSTYLEMAP
360
16AD
  3
ACAD_XREC_ROUNDTRIP
360
16D5
  0
DICTIONARY
  5
1100
330
10FF
100
AcDbDictionary
280
     1
281
     1
  3
ACAD_ROUNDTRIP_2008_TABLESTYLE_CELLSTYLEMAP
360
16AE
  3
ACAD_XREC_ROUNDTRIP
360
16EE
  0
DICTIONARY
  5
16BF
330
1A
100
AcDbDictionary
280
     1
281
     1
  3
ACAD_XREC_ROUNDTRIP
360
16C0
  0
DICTIONARY
  5
16C3
330
1C
100
AcDbDictionary
280
     1
281
     1
  3
ACAD_XREC_ROUNDTRIP
360
16C4
  0
DICTIONARY
  5
16C1
330
1B
100
AcDbDictionary
280
     1
281
     1
  3
ACAD_XREC_ROUNDTRIP
360
16C2
  0
DICTIONARY
  5
16BD
330
19
100
AcDbDictionary
280
     1
281
     1
  3
ACAD_XREC_ROUNDTRIP
360
16BE
  0
DICTIONARY
  5
16CB
330
20
100
AcDbDictionary
280
     1
281
     1
  3
ACAD_XREC_ROUNDTRIP
360
16CC
  0
DICTIONARY
  5
16D3
330
24
100
AcDbDictionary
280
     1
281
     1
  3
ACAD_XREC_ROUNDTRIP
360
16D4
  0
DICTIONARY
  5
16C5
330
1D
100
AcDbDictionary
280
     1
281
     1
  3
ACAD_XREC_ROUNDTRIP
360
16C6
  0
DICTIONARY
  5
16C9
330
1F
100
AcDbDictionary
280
     1
281
     1
  3
ACAD_XREC_ROUNDTRIP
360
16CA
  0
DICTIONARY
  5
16EC
330
795
100
AcDbDictionary
280
     1
281
     1
  3
ACAD_XREC_ROUNDTRIP
360
16ED
  0
DICTIONARY
  5
16D1
330
23
100
AcDbDictionary
280
     1
281
     1
  3
ACAD_XREC_ROUNDTRIP
360
16D2
  0
DICTIONARY
  5
16B5
330
15
100
AcDbDictionary
280
     1
281
     1
  3
ACAD_XREC_ROUNDTRIP
360
16B6
  0
DICTIONARY
  5
16B7
330
16
100
AcDbDictionary
280
     1
281
     1
  3
ACAD_XREC_ROUNDTRIP
360
16B8
  0
DICTIONARY
  5
16B9
330
17
100
AcDbDictionary
280
     1
281
     1
  3
ACAD_XREC_ROUNDTRIP
360
16BA
  0
DICTIONARY
  5
16BB
330
18
100
AcDbDictionary
280
     1
281
     1
  3
ACAD_XREC_ROUNDTRIP
360
16BC
  0
DICTIONARY
  5
16DC
330
78D
100
AcDbDictionary
280
     1
281
     1
  3
ACAD_XREC_ROUNDTRIP
360
16DD
  0
DICTIONARY
  5
16E8
330
793
100
AcDbDictionary
280
     1
281
     1
  3
ACAD_XREC_ROUNDTRIP
360
16E9
  0
DICTIONARY
  5
16CF
330
22
100
AcDbDictionary
280
     1
281
     1
  3
ACAD_XREC_ROUNDTRIP
360
16D0
  0
DICTIONARY
  5
16EA
330
794
100
AcDbDictionary
280
     1
281
     1
  3
ACAD_XREC_ROUNDTRIP
360
16EB
  0
DICTIONARY
  5
16C7
330
1E
100
AcDbDictionary
280
     1
281
     1
  3
ACAD_XREC_ROUNDTRIP
360
16C8
  0
DICTIONARY
  5
16E6
330
792
100
AcDbDictionary
280
     1
281
     1
  3
ACAD_XREC_ROUNDTRIP
360
16E7
  0
DICTIONARY
  5
16E4
330
791
100
AcDbDictionary
280
     1
281
     1
  3
ACAD_XREC_ROUNDTRIP
360
16E5
  0
DICTIONARY
  5
16DE
330
78E
100
AcDbDictionary
280
     1
281
     1
  3
ACAD_XREC_ROUNDTRIP
360
16DF
  0
DICTIONARY
  5
16E0
330
78F
100
AcDbDictionary
280
     1
281
     1
  3
ACAD_XREC_ROUNDTRIP
360
16E1
  0
DICTIONARY
  5
16CD
330
21
100
AcDbDictionary
280
     1
281
     1
  3
ACAD_XREC_ROUNDTRIP
360
16CE
  0
DICTIONARY
  5
16DA
330
78C
100
AcDbDictionary
280
     1
281
     1
  3
ACAD_XREC_ROUNDTRIP
360
16DB
  0
DICTIONARY
  5
16E2
330
790
100
AcDbDictionary
280
     1
281
     1
  3
ACAD_XREC_ROUNDTRIP
360
16E3
  0
XRECORD
  5
16D9
102
{ACAD_REACTORS
330
16D8
102
}
330
16D8
100
AcDbXrecord
280
     1
102
SHADEPLOT
 70
     0
102
SHADEPLOTRESLEVEL
 70
     2
102
SHADEPLOTCUSTOMDPI
 70
   300
  0
XRECORD
  5
16D7
102
{ACAD_REACTORS
330
16D6
102
}
330
16D6
100
AcDbXrecord
280
     1
102
SHADEPLOT
 70
     0
102
SHADEPLOTRESLEVEL
 70
     2
102
SHADEPLOTCUSTOMDPI
 70
   300
  0
XRECORD
  5
737
102
{ACAD_REACTORS
330
736
102
}
330
736
100
AcDbXrecord
280
     1
102
MATERIAL
148
0.0
149
0.0
149
0.0
 93
        0
 94
      127
282
     0
 72
     1
 77
     1
171
     1
175
     1
179
     1
273
     0
  0
XRECORD
  5
735
102
{ACAD_REACTORS
330
734
102
}
330
734
100
AcDbXrecord
280
     1
102
MATERIAL
148
0.0
149
0.0
149
0.0
 93
        0
 94
      127
282
     0
 72
     1
 77
     1
171
     1
175
     1
179
     1
273
     0
  0
XRECORD
  5
739
102
{ACAD_REACTORS
330
738
102
}
330
738
100
AcDbXrecord
280
     1
102
MATERIAL
148
0.0
149
0.0
149
0.0
 93
        0
 94
      127
282
     0
 72
     1
 77
     1
171
     1
175
     1
179
     1
273
     0
  0
CELLSTYLEMAP
  5
16AD
102
{ACAD_REACTORS
330
9CE
102
}
330
9CE
100
AcDbCellStyleMap
 90
        3
300
CELLSTYLE
  1
TABLEFORMAT_BEGIN
 90
        5
170
     1
 91
        0
 92
    32768
 62
   257
 93
        1
300
CONTENTFORMAT
  1
CONTENTFORMAT_BEGIN
 90
        0
 91
        0
 92
      512
 93
        0
300

 40
0.0
140
1.0
 94
        5
 62
     0
340
26
144
0.25
309
CONTENTFORMAT_END
171
     1
301
MARGIN
  1
CELLMARGIN_BEGIN
 40
0.06
 40
0.06
 40
0.06
 40
0.06
 40
0.18
 40
0.18
309
CELLMARGIN_END
 94
        6
 95
        1
302
GRIDFORMAT
  1
GRIDFORMAT_BEGIN
 90
        0
 91
        1
 62
     0
 92
       -2
340
0
 93
        0
 40
0.045
309
GRIDFORMAT_END
 95
        2
302
GRIDFORMAT
  1
GRIDFORMAT_BEGIN
 90
        0
 91
        1
 62
     0
 92
       -2
340
0
 93
        0
 40
0.045
309
GRIDFORMAT_END
 95
        4
302
GRIDFORMAT
  1
GRIDFORMAT_BEGIN
 90
        0
 91
        1
 62
     0
 92
       -2
340
0
 93
        0
 40
0.045
309
GRIDFORMAT_END
 95
        8
302
GRIDFORMAT
  1
GRIDFORMAT_BEGIN
 90
        0
 91
        1
 62
     0
 92
       -2
340
0
 93
        0
 40
0.045
309
GRIDFORMAT_END
 95
       16
302
GRIDFORMAT
  1
GRIDFORMAT_BEGIN
 90
        0
 91
        1
 62
     0
 92
       -2
340
0
 93
        0
 40
0.045
309
GRIDFORMAT_END
 95
       32
302
GRIDFORMAT
  1
GRIDFORMAT_BEGIN
 90
        0
 91
        1
 62
     0
 92
       -2
340
0
 93
        0
 40
0.045
309
GRIDFORMAT_END
309
TABLEFORMAT_END
  1
CELLSTYLE_BEGIN
 90
        1
 91
        1
300
_TITLE
309
CELLSTYLE_END
300
CELLSTYLE
  1
TABLEFORMAT_BEGIN
 90
        5
170
     1
 91
        0
 92
        0
 62
   257
 93
        1
300
CONTENTFORMAT
  1
CONTENTFORMAT_BEGIN
 90
        0
 91
        0
 92
      512
 93
        0
300

 40
0.0
140
1.0
 94
        5
 62
     0
340
26
144
0.18
309
CONTENTFORMAT_END
171
     1
301
MARGIN
  1
CELLMARGIN_BEGIN
 40
0.06
 40
0.06
 40
0.06
 40
0.06
 40
0.18
 40
0.18
309
CELLMARGIN_END
 94
        6
 95
        1
302
GRIDFORMAT
  1
GRIDFORMAT_BEGIN
 90
        0
 91
        1
 62
     0
 92
       -2
340
0
 93
        0
 40
0.045
309
GRIDFORMAT_END
 95
        2
302
GRIDFORMAT
  1
GRIDFORMAT_BEGIN
 90
        0
 91
        1
 62
     0
 92
       -2
340
0
 93
        0
 40
0.045
309
GRIDFORMAT_END
 95
        4
302
GRIDFORMAT
  1
GRIDFORMAT_BEGIN
 90
        0
 91
        1
 62
     0
 92
       -2
340
0
 93
        0
 40
0.045
309
GRIDFORMAT_END
 95
        8
302
GRIDFORMAT
  1
GRIDFORMAT_BEGIN
 90
        0
 91
        1
 62
     0
 92
       -2
340
0
 93
        0
 40
0.045
309
GRIDFORMAT_END
 95
       16
302
GRIDFORMAT
  1
GRIDFORMAT_BEGIN
 90
        0
 91
        1
 62
     0
 92
       -2
340
0
 93
        0
 40
0.045
309
GRIDFORMAT_END
 95
       32
302
GRIDFORMAT
  1
GRIDFORMAT_BEGIN
 90
        0
 91
        1
 62
     0
 92
       -2
340
0
 93
        0
 40
0.045
309
GRIDFORMAT_END
309
TABLEFORMAT_END
  1
CELLSTYLE_BEGIN
 90
        2
 91
        1
300
_HEADER
309
CELLSTYLE_END
300
CELLSTYLE
  1
TABLEFORMAT_BEGIN
 90
        5
170
     1
 91
        0
 92
        0
 62
   257
 93
        1
300
CONTENTFORMAT
  1
CONTENTFORMAT_BEGIN
 90
        0
 91
        0
 92
      512
 93
        0
300

 40
0.0
140
1.0
 94
        2
 62
     0
340
26
144
0.18
309
CONTENTFORMAT_END
171
     1
301
MARGIN
  1
CELLMARGIN_BEGIN
 40
0.06
 40
0.06
 40
0.06
 40
0.06
 40
0.18
 40
0.18
309
CELLMARGIN_END
 94
        6
 95
        1
302
GRIDFORMAT
  1
GRIDFORMAT_BEGIN
 90
        0
 91
        1
 62
     0
 92
       -2
340
0
 93
        0
 40
0.045
309
GRIDFORMAT_END
 95
        2
302
GRIDFORMAT
  1
GRIDFORMAT_BEGIN
 90
        0
 91
        1
 62
     0
 92
       -2
340
0
 93
        0
 40
0.045
309
GRIDFORMAT_END
 95
        4
302
GRIDFORMAT
  1
GRIDFORMAT_BEGIN
 90
        0
 91
        1
 62
     0
 92
       -2
340
0
 93
        0
 40
0.045
309
GRIDFORMAT_END
 95
        8
302
GRIDFORMAT
  1
GRIDFORMAT_BEGIN
 90
        0
 91
        1
 62
     0
 92
       -2
340
0
 93
        0
 40
0.045
309
GRIDFORMAT_END
 95
       16
302
GRIDFORMAT
  1
GRIDFORMAT_BEGIN
 90
        0
 91
        1
 62
     0
 92
       -2
340
0
 93
        0
 40
0.045
309
GRIDFORMAT_END
 95
       32
302
GRIDFORMAT
  1
GRIDFORMAT_BEGIN
 90
        0
 91
        1
 62
     0
 92
       -2
340
0
 93
        0
 40
0.045
309
GRIDFORMAT_END
309
TABLEFORMAT_END
  1
CELLSTYLE_BEGIN
 90
        3
 91
        2
300
_DATA
309
CELLSTYLE_END
  0
XRECORD
  5
16D5
102
{ACAD_REACTORS
330
9CE
102
}
330
9CE
100
AcDbXrecord
280
     1
102
ACAD_ROUNDTRIP_PRE2007_TABLESTYLE
 90
      512
 91
        0
  1

 92
      512
 93
        0
  2

 94
      512
 95
        0
  3

  0
CELLSTYLEMAP
  5
16AE
102
{ACAD_REACTORS
330
1100
102
}
330
1100
100
AcDbCellStyleMap
 90
        3
300
CELLSTYLE
  1
TABLEFORMAT_BEGIN
 90
        5
170
     1
 91
        0
 92
    32768
 62
   257
 93
        1
300
CONTENTFORMAT
  1
CONTENTFORMAT_BEGIN
 90
        0
 91
        0
 92
      512
 93
        0
300

 40
0.0
140
1.0
 94
        8
 62
     3
340
535
144
0.25
309
CONTENTFORMAT_END
171
     1
301
MARGIN
  1
CELLMARGIN_BEGIN
 40
0.5
 40
10.0
 40
0.06
 40
0.06
 40
0.18
 40
0.18
309
CELLMARGIN_END
 94
        6
 95
        1
302
GRIDFORMAT
  1
GRIDFORMAT_BEGIN
 90
        0
 91
        1
 62
     0
 92
       -2
340
0
 93
        0
 40
0.045
309
GRIDFORMAT_END
 95
        2
302
GRIDFORMAT
  1
GRIDFORMAT_BEGIN
 90
        0
 91
        1
 62
     0
 92
       -2
340
0
 93
        0
 40
0.045
309
GRIDFORMAT_END
 95
        4
302
GRIDFORMAT
  1
GRIDFORMAT_BEGIN
 90
        0
 91
        1
 62
     0
 92
       -2
340
0
 93
        0
 40
0.045
309
GRIDFORMAT_END
 95
        8
302
GRIDFORMAT
  1
GRIDFORMAT_BEGIN
 90
        0
 91
        1
 62
     0
 92
       -2
340
0
 93
        0
 40
0.045
309
GRIDFORMAT_END
 95
       16
302
GRIDFORMAT
  1
GRIDFORMAT_BEGIN
 90
        0
 91
        1
 62
     0
 92
       -2
340
0
 93
        0
 40
0.045
309
GRIDFORMAT_END
 95
       32
302
GRIDFORMAT
  1
GRIDFORMAT_BEGIN
 90
        0
 91
        1
 62
     0
 92
       -2
340
0
 93
        0
 40
0.045
309
GRIDFORMAT_END
309
TABLEFORMAT_END
  1
CELLSTYLE_BEGIN
 90
        1
 91
        1
300
_TITLE
309
CELLSTYLE_END
300
CELLSTYLE
  1
TABLEFORMAT_BEGIN
 90
        5
170
     1
 91
        0
 92
        0
 62
   257
 93
        1
300
CONTENTFORMAT
  1
CONTENTFORMAT_BEGIN
 90
        0
 91
        0
 92
      512
 93
        0
300

 40
0.0
140
1.0
 94
        7
 62
     3
340
535
144
0.18
309
CONTENTFORMAT_END
171
     1
301
MARGIN
  1
CELLMARGIN_BEGIN
 40
0.5
 40
1.5
 40
0.06
 40
0.06
 40
0.18
 40
0.18
309
CELLMARGIN_END
 94
        6
 95
        1
302
GRIDFORMAT
  1
GRIDFORMAT_BEGIN
 90
        0
 91
        1
 62
     3
 92
       -2
340
28
 93
        0
 40
0.045
309
GRIDFORMAT_END
 95
        2
302
GRIDFORMAT
  1
GRIDFORMAT_BEGIN
 90
        0
 91
        1
 62
     7
 92
       -2
340
28
 93
        0
 40
0.045
309
GRIDFORMAT_END
 95
        4
302
GRIDFORMAT
  1
GRIDFORMAT_BEGIN
 90
        0
 91
        1
 62
     3
 92
       -2
340
28
 93
        0
 40
0.045
309
GRIDFORMAT_END
 95
        8
302
GRIDFORMAT
  1
GRIDFORMAT_BEGIN
 90
        0
 91
        1
 62
     3
 92
       -2
340
28
 93
        0
 40
0.045
309
GRIDFORMAT_END
 95
       16
302
GRIDFORMAT
  1
GRIDFORMAT_BEGIN
 90
        0
 91
        1
 62
     7
 92
       -2
340
28
 93
        0
 40
0.045
309
GRIDFORMAT_END
 95
       32
302
GRIDFORMAT
  1
GRIDFORMAT_BEGIN
 90
        0
 91
        1
 62
     3
 92
       -2
340
28
 93
        0
 40
0.045
309
GRIDFORMAT_END
309
TABLEFORMAT_END
  1
CELLSTYLE_BEGIN
 90
        2
 91
        1
300
_HEADER
309
CELLSTYLE_END
300
CELLSTYLE
  1
TABLEFORMAT_BEGIN
 90
        5
170
     1
 91
        0
 92
        0
 62
   257
 93
        1
300
CONTENTFORMAT
  1
CONTENTFORMAT_BEGIN
 90
        0
 91
        0
 92
      512
 93
        0
300

 40
0.0
140
1.0
 94
        7
 62
     3
340
535
144
0.18
309
CONTENTFORMAT_END
171
     1
301
MARGIN
  1
CELLMARGIN_BEGIN
 40
0.5
 40
1.5
 40
0.06
 40
0.06
 40
0.18
 40
0.18
309
CELLMARGIN_END
 94
        6
 95
        1
302
GRIDFORMAT
  1
GRIDFORMAT_BEGIN
 90
        0
 91
        1
 62
     3
 92
       -2
340
28
 93
        0
 40
0.045
309
GRIDFORMAT_END
 95
        2
302
GRIDFORMAT
  1
GRIDFORMAT_BEGIN
 90
        0
 91
        1
 62
     7
 92
       -2
340
28
 93
        0
 40
0.045
309
GRIDFORMAT_END
 95
        4
302
GRIDFORMAT
  1
GRIDFORMAT_BEGIN
 90
        0
 91
        1
 62
     3
 92
       -2
340
28
 93
        0
 40
0.045
309
GRIDFORMAT_END
 95
        8
302
GRIDFORMAT
  1
GRIDFORMAT_BEGIN
 90
        0
 91
        1
 62
     3
 92
       -2
340
28
 93
        0
 40
0.045
309
GRIDFORMAT_END
 95
       16
302
GRIDFORMAT
  1
GRIDFORMAT_BEGIN
 90
        0
 91
        1
 62
     7
 92
       -2
340
28
 93
        0
 40
0.045
309
GRIDFORMAT_END
 95
       32
302
GRIDFORMAT
  1
GRIDFORMAT_BEGIN
 90
        0
 91
        1
 62
     3
 92
       -2
340
28
 93
        0
 40
0.045
309
GRIDFORMAT_END
309
TABLEFORMAT_END
  1
CELLSTYLE_BEGIN
 90
        3
 91
        2
300
_DATA
309
CELLSTYLE_END
  0
XRECORD
  5
16EE
102
{ACAD_REACTORS
330
1100
102
}
330
1100
100
AcDbXrecord
280
     1
102
ACAD_ROUNDTRIP_PRE2007_TABLESTYLE
 90
      512
 91
        0
  1

 92
      512
 93
        0
  2

 94
      512
 95
        0
  3

  0
XRECORD
  5
16C0
102
{ACAD_REACTORS
330
16BF
102
}
330
16BF
100
AcDbXrecord
280
     1
102
RTVSPropertyOp0
 70
     1
102
RTVSPropertyOp1
 70
     1
102
RTVSPropertyOp2
 70
     1
102
RTVSPropertyOp3
 70
     1
102
RTVSPropertyOp4
 70
     1
102
RTVSPropertyOp5
 70
     1
102
RTVSPropertyOp6
 70
     1
102
RTVSPropertyOp7
 70
     1
102
RTVSPropertyOp8
 70
     1
102
RTVSPropertyOp9
 70
     1
102
RTVSPropertyOp10
 70
     1
102
RTVSPropertyOp11
 70
     1
102
RTVSPropertyOp12
 70
     1
102
RTVSPropertyOp13
 70
     1
102
RTVSPropertyOp14
 70
     1
102
RTVSPropertyOp15
 70
     1
102
RTVSPropertyOp16
 70
     1
102
RTVSPropertyOp17
 70
     1
102
RTVSPropertyOp18
 70
     1
102
RTVSPropertyOp19
 70
     1
102
RTVSPropertyOp20
 70
     1
102
RTVSPropertyOp21
 70
     1
102
RTVSPropertyOp22
 70
     1
102
RTVSPropertyOp23
 70
     1
102
RTVSPropertyOp24
 70
     1
102
RTVSPropertyOp25
 70
     1
102
RTVSPropertyOp26
 70
     1
102
RTVSPropertyOp27
 70
     1
102
RTVSPropertyOp28
 70
     1
102
RTVSPropertyOp29
 70
     1
102
RTVSPropertyOp30
 70
     1
102
RTVSPropertyOp31
 70
     1
102
RTVSPropertyOp32
 70
     1
  0
XRECORD
  5
16C4
102
{ACAD_REACTORS
330
16C3
102
}
330
16C3
100
AcDbXrecord
280
     1
102
RTVSPropertyOp0
 70
     1
102
RTVSPropertyOp1
 70
     1
102
RTVSPropertyOp2
 70
     1
102
RTVSPropertyOp3
 70
     1
102
RTVSPropertyOp4
 70
     1
102
RTVSPropertyOp5
 70
     1
102
RTVSPropertyOp6
 70
     1
102
RTVSPropertyOp7
 70
     1
102
RTVSPropertyOp8
 70
     1
102
RTVSPropertyOp9
 70
     1
102
RTVSPropertyOp10
 70
     1
102
RTVSPropertyOp11
 70
     1
102
RTVSPropertyOp12
 70
     1
102
RTVSPropertyOp13
 70
     1
102
RTVSPropertyOp14
 70
     1
102
RTVSPropertyOp15
 70
     1
102
RTVSPropertyOp16
 70
     1
102
RTVSPropertyOp17
 70
     1
102
RTVSPropertyOp18
 70
     1
102
RTVSPropertyOp19
 70
     1
102
RTVSPropertyOp20
 70
     1
102
RTVSPropertyOp21
 70
     1
102
RTVSPropertyOp22
 70
     1
102
RTVSPropertyOp23
 70
     1
102
RTVSPropertyOp24
 70
     1
102
RTVSPropertyOp25
 70
     1
102
RTVSPropertyOp26
 70
     1
102
RTVSPropertyOp27
 70
     1
102
RTVSPropertyOp28
 70
     1
102
RTVSPropertyOp29
 70
     1
102
RTVSPropertyOp30
 70
     1
102
RTVSPropertyOp31
 70
     1
102
RTVSPropertyOp32
 70
     1
  0
XRECORD
  5
16C2
102
{ACAD_REACTORS
330
16C1
102
}
330
16C1
100
AcDbXrecord
280
     1
102
RTVSPropertyOp0
 70
     1
102
RTVSPropertyOp1
 70
     1
102
RTVSPropertyOp2
 70
     1
102
RTVSPropertyOp3
 70
     1
102
RTVSPropertyOp4
 70
     1
102
RTVSPropertyOp5
 70
     1
102
RTVSPropertyOp6
 70
     1
102
RTVSPropertyOp7
 70
     1
102
RTVSPropertyOp8
 70
     1
102
RTVSPropertyOp9
 70
     1
102
RTVSPropertyOp10
 70
     1
102
RTVSPropertyOp11
 70
     1
102
RTVSPropertyOp12
 70
     1
102
RTVSPropertyOp13
 70
     1
102
RTVSPropertyOp14
 70
     1
102
RTVSPropertyOp15
 70
     1
102
RTVSPropertyOp16
 70
     1
102
RTVSPropertyOp17
 70
     1
102
RTVSPropertyOp18
 70
     1
102
RTVSPropertyOp19
 70
     1
102
RTVSPropertyOp20
 70
     1
102
RTVSPropertyOp21
 70
     1
102
RTVSPropertyOp22
 70
     1
102
RTVSPropertyOp23
 70
     1
102
RTVSPropertyOp24
 70
     1
102
RTVSPropertyOp25
 70
     1
102
RTVSPropertyOp26
 70
     1
102
RTVSPropertyOp27
 70
     1
102
RTVSPropertyOp28
 70
     1
102
RTVSPropertyOp29
 70
     1
102
RTVSPropertyOp30
 70
     1
102
RTVSPropertyOp31
 70
     1
102
RTVSPropertyOp32
 70
     1
  0
XRECORD
  5
16BE
102
{ACAD_REACTORS
330
16BD
102
}
330
16BD
100
AcDbXrecord
280
     1
102
RTVSPropertyOp0
 70
     1
102
RTVSPropertyOp1
 70
     1
102
RTVSPropertyOp2
 70
     1
102
RTVSPropertyOp3
 70
     1
102
RTVSPropertyOp4
 70
     1
102
RTVSPropertyOp5
 70
     1
102
RTVSPropertyOp6
 70
     1
102
RTVSPropertyOp7
 70
     1
102
RTVSPropertyOp8
 70
     1
102
RTVSPropertyOp9
 70
     1
102
RTVSPropertyOp10
 70
     1
102
RTVSPropertyOp11
 70
     1
102
RTVSPropertyOp12
 70
     1
102
RTVSPropertyOp13
 70
     1
102
RTVSPropertyOp14
 70
     1
102
RTVSPropertyOp15
 70
     1
102
RTVSPropertyOp16
 70
     1
102
RTVSPropertyOp17
 70
     1
102
RTVSPropertyOp18
 70
     1
102
RTVSPropertyOp19
 70
     1
102
RTVSPropertyOp20
 70
     1
102
RTVSPropertyOp21
 70
     1
102
RTVSPropertyOp22
 70
     1
102
RTVSPropertyOp23
 70
     1
102
RTVSPropertyOp24
 70
     1
102
RTVSPropertyOp25
 70
     1
102
RTVSPropertyOp26
 70
     1
102
RTVSPropertyOp27
 70
     1
102
RTVSPropertyOp28
 70
     1
102
RTVSPropertyOp29
 70
     1
102
RTVSPropertyOp30
 70
     1
102
RTVSPropertyOp31
 70
     1
102
RTVSPropertyOp32
 70
     1
  0
XRECORD
  5
16CC
102
{ACAD_REACTORS
330
16CB
102
}
330
16CB
100
AcDbXrecord
280
     1
102
RTVSPropertyOp0
 70
     1
102
RTVSPropertyOp1
 70
     1
102
RTVSPropertyOp2
 70
     1
102
RTVSPropertyOp3
 70
     1
102
RTVSPropertyOp4
 70
     1
102
RTVSPropertyOp5
 70
     1
102
RTVSPropertyOp6
 70
     1
102
RTVSPropertyOp7
 70
     1
102
RTVSPropertyOp8
 70
     1
102
RTVSPropertyOp9
 70
     1
102
RTVSPropertyOp10
 70
     1
102
RTVSPropertyOp11
 70
     1
102
RTVSPropertyOp12
 70
     1
102
RTVSPropertyOp13
 70
     1
102
RTVSPropertyOp14
 70
     1
102
RTVSPropertyOp15
 70
     1
102
RTVSPropertyOp16
 70
     1
102
RTVSPropertyOp17
 70
     1
102
RTVSPropertyOp18
 70
     1
102
RTVSPropertyOp19
 70
     1
102
RTVSPropertyOp20
 70
     1
102
RTVSPropertyOp21
 70
     1
102
RTVSPropertyOp22
 70
     1
102
RTVSPropertyOp23
 70
     1
102
RTVSPropertyOp24
 70
     1
102
RTVSPropertyOp25
 70
     1
102
RTVSPropertyOp26
 70
     1
102
RTVSPropertyOp27
 70
     1
102
RTVSPropertyOp28
 70
     1
102
RTVSPropertyOp29
 70
     1
102
RTVSPropertyOp30
 70
     1
102
RTVSPropertyOp31
 70
     1
102
RTVSPropertyOp32
 70
     1
  0
XRECORD
  5
16D4
102
{ACAD_REACTORS
330
16D3
102
}
330
16D3
100
AcDbXrecord
280
     1
102
RTVSPropertyOp0
 70
     1
102
RTVSPropertyOp1
 70
     1
102
RTVSPropertyOp2
 70
     1
102
RTVSPropertyOp3
 70
     1
102
RTVSPropertyOp4
 70
     1
102
RTVSPropertyOp5
 70
     1
102
RTVSPropertyOp6
 70
     1
102
RTVSPropertyOp7
 70
     1
102
RTVSPropertyOp8
 70
     1
102
RTVSPropertyOp9
 70
     1
102
RTVSPropertyOp10
 70
     1
102
RTVSPropertyOp11
 70
     1
102
RTVSPropertyOp12
 70
     1
102
RTVSPropertyOp13
 70
     1
102
RTVSPropertyOp14
 70
     1
102
RTVSPropertyOp15
 70
     1
102
RTVSPropertyOp16
 70
     1
102
RTVSPropertyOp17
 70
     1
102
RTVSPropertyOp18
 70
     1
102
RTVSPropertyOp19
 70
     1
102
RTVSPropertyOp20
 70
     1
102
RTVSPropertyOp21
 70
     1
102
RTVSPropertyOp22
 70
     1
102
RTVSPropertyOp23
 70
     1
102
RTVSPropertyOp24
 70
     1
102
RTVSPropertyOp25
 70
     1
102
RTVSPropertyOp26
 70
     1
102
RTVSPropertyOp27
 70
     1
102
RTVSPropertyOp28
 70
     1
102
RTVSPropertyOp29
 70
     1
102
RTVSPropertyOp30
 70
     1
102
RTVSPropertyOp31
 70
     1
102
RTVSPropertyOp32
 70
     1
  0
XRECORD
  5
16C6
102
{ACAD_REACTORS
330
16C5
102
}
330
16C5
100
AcDbXrecord
280
     1
102
RTVSPropertyOp0
 70
     1
102
RTVSPropertyOp1
 70
     1
102
RTVSPropertyOp2
 70
     1
102
RTVSPropertyOp3
 70
     1
102
RTVSPropertyOp4
 70
     1
102
RTVSPropertyOp5
 70
     1
102
RTVSPropertyOp6
 70
     1
102
RTVSPropertyOp7
 70
     1
102
RTVSPropertyOp8
 70
     1
102
RTVSPropertyOp9
 70
     1
102
RTVSPropertyOp10
 70
     1
102
RTVSPropertyOp11
 70
     1
102
RTVSPropertyOp12
 70
     1
102
RTVSPropertyOp13
 70
     1
102
RTVSPropertyOp14
 70
     1
102
RTVSPropertyOp15
 70
     1
102
RTVSPropertyOp16
 70
     1
102
RTVSPropertyOp17
 70
     1
102
RTVSPropertyOp18
 70
     1
102
RTVSPropertyOp19
 70
     1
102
RTVSPropertyOp20
 70
     1
102
RTVSPropertyOp21
 70
     1
102
RTVSPropertyOp22
 70
     1
102
RTVSPropertyOp23
 70
     1
102
RTVSPropertyOp24
 70
     1
102
RTVSPropertyOp25
 70
     1
102
RTVSPropertyOp26
 70
     1
102
RTVSPropertyOp27
 70
     1
102
RTVSPropertyOp28
 70
     1
102
RTVSPropertyOp29
 70
     1
102
RTVSPropertyOp30
 70
     1
102
RTVSPropertyOp31
 70
     1
102
RTVSPropertyOp32
 70
     1
  0
XRECORD
  5
16CA
102
{ACAD_REACTORS
330
16C9
102
}
330
16C9
100
AcDbXrecord
280
     1
102
RTVSPropertyOp0
 70
     1
102
RTVSPropertyOp1
 70
     1
102
RTVSPropertyOp2
 70
     1
102
RTVSPropertyOp3
 70
     1
102
RTVSPropertyOp4
 70
     1
102
RTVSPropertyOp5
 70
     1
102
RTVSPropertyOp6
 70
     1
102
RTVSPropertyOp7
 70
     1
102
RTVSPropertyOp8
 70
     1
102
RTVSPropertyOp9
 70
     1
102
RTVSPropertyOp10
 70
     1
102
RTVSPropertyOp11
 70
     1
102
RTVSPropertyOp12
 70
     1
102
RTVSPropertyOp13
 70
     1
102
RTVSPropertyOp14
 70
     1
102
RTVSPropertyOp15
 70
     1
102
RTVSPropertyOp16
 70
     1
102
RTVSPropertyOp17
 70
     1
102
RTVSPropertyOp18
 70
     1
102
RTVSPropertyOp19
 70
     1
102
RTVSPropertyOp20
 70
     1
102
RTVSPropertyOp21
 70
     1
102
RTVSPropertyOp22
 70
     1
102
RTVSPropertyOp23
 70
     1
102
RTVSPropertyOp24
 70
     1
102
RTVSPropertyOp25
 70
     1
102
RTVSPropertyOp26
 70
     1
102
RTVSPropertyOp27
 70
     1
102
RTVSPropertyOp28
 70
     1
102
RTVSPropertyOp29
 70
     1
102
RTVSPropertyOp30
 70
     1
102
RTVSPropertyOp31
 70
     1
102
RTVSPropertyOp32
 70
     1
  0
XRECORD
  5
16ED
102
{ACAD_REACTORS
330
16EC
102
}
330
16EC
100
AcDbXrecord
280
     1
102
RTVSPropertyOp0
 70
     0
102
RTVSPropertyOp1
 70
     0
102
RTVSPropertyOp2
 70
     0
102
RTVSPropertyOp3
 70
     0
102
RTVSPropertyOp4
 70
     0
102
RTVSPropertyOp5
 70
     0
102
RTVSPropertyOp6
 70
     0
102
RTVSPropertyOp7
 70
     0
102
RTVSPropertyOp8
 70
     0
102
RTVSPropertyOp9
 70
     0
102
RTVSPropertyOp10
 70
     0
102
RTVSPropertyOp11
 70
     0
102
RTVSPropertyOp12
 70
     0
102
RTVSPropertyOp13
 70
     0
102
RTVSPropertyOp14
 70
     2
102
RTVSPropertyOp15
 70
     0
102
RTVSPropertyOp16
 70
     0
102
RTVSPropertyOp17
 70
     0
102
RTVSPropertyOp18
 70
     0
102
RTVSPropertyOp19
 70
     0
102
RTVSPropertyOp20
 70
     0
102
RTVSPropertyOp21
 70
     0
102
RTVSPropertyOp22
 70
     0
102
RTVSPropertyOp23
 70
     0
102
RTVSPropertyOp24
 70
     0
102
RTVSPropertyOp25
 70
     0
102
RTVSPropertyOp26
 70
     0
102
RTVSPropertyOp27
 70
     0
102
RTVSPropertyOp28
 70
     0
102
RTVSPropertyOp29
 70
     0
102
RTVSPropertyOp30
 70
     0
102
RTVSPropertyOp31
 70
     0
102
RTVSPropertyOp32
 70
     0
  0
XRECORD
  5
16D2
102
{ACAD_REACTORS
330
16D1
102
}
330
16D1
100
AcDbXrecord
280
     1
102
RTVSPropertyOp0
 70
     1
102
RTVSPropertyOp1
 70
     1
102
RTVSPropertyOp2
 70
     1
102
RTVSPropertyOp3
 70
     1
102
RTVSPropertyOp4
 70
     1
102
RTVSPropertyOp5
 70
     1
102
RTVSPropertyOp6
 70
     1
102
RTVSPropertyOp7
 70
     1
102
RTVSPropertyOp8
 70
     1
102
RTVSPropertyOp9
 70
     1
102
RTVSPropertyOp10
 70
     1
102
RTVSPropertyOp11
 70
     1
102
RTVSPropertyOp12
 70
     1
102
RTVSPropertyOp13
 70
     1
102
RTVSPropertyOp14
 70
     1
102
RTVSPropertyOp15
 70
     1
102
RTVSPropertyOp16
 70
     1
102
RTVSPropertyOp17
 70
     1
102
RTVSPropertyOp18
 70
     1
102
RTVSPropertyOp19
 70
     1
102
RTVSPropertyOp20
 70
     1
102
RTVSPropertyOp21
 70
     1
102
RTVSPropertyOp22
 70
     1
102
RTVSPropertyOp23
 70
     1
102
RTVSPropertyOp24
 70
     1
102
RTVSPropertyOp25
 70
     1
102
RTVSPropertyOp26
 70
     1
102
RTVSPropertyOp27
 70
     1
102
RTVSPropertyOp28
 70
     1
102
RTVSPropertyOp29
 70
     1
102
RTVSPropertyOp30
 70
     1
102
RTVSPropertyOp31
 70
     1
102
RTVSPropertyOp32
 70
     1
  0
XRECORD
  5
16B6
102
{ACAD_REACTORS
330
16B5
102
}
330
16B5
100
AcDbXrecord
280
     1
102
RTVSPropertyOp0
 70
     1
102
RTVSPropertyOp1
 70
     1
102
RTVSPropertyOp2
 70
     1
102
RTVSPropertyOp3
 70
     1
102
RTVSPropertyOp4
 70
     1
102
RTVSPropertyOp5
 70
     1
102
RTVSPropertyOp6
 70
     1
102
RTVSPropertyOp7
 70
     1
102
RTVSPropertyOp8
 70
     1
102
RTVSPropertyOp9
 70
     1
102
RTVSPropertyOp10
 70
     1
102
RTVSPropertyOp11
 70
     1
102
RTVSPropertyOp12
 70
     1
102
RTVSPropertyOp13
 70
     1
102
RTVSPropertyOp14
 70
     1
102
RTVSPropertyOp15
 70
     1
102
RTVSPropertyOp16
 70
     1
102
RTVSPropertyOp17
 70
     1
102
RTVSPropertyOp18
 70
     1
102
RTVSPropertyOp19
 70
     1
102
RTVSPropertyOp20
 70
     1
102
RTVSPropertyOp21
 70
     1
102
RTVSPropertyOp22
 70
     1
102
RTVSPropertyOp23
 70
     1
102
RTVSPropertyOp24
 70
     1
102
RTVSPropertyOp25
 70
     1
102
RTVSPropertyOp26
 70
     1
102
RTVSPropertyOp27
 70
     1
102
RTVSPropertyOp28
 70
     1
102
RTVSPropertyOp29
 70
     1
102
RTVSPropertyOp30
 70
     1
102
RTVSPropertyOp31
 70
     1
102
RTVSPropertyOp32
 70
     1
  0
XRECORD
  5
16B8
102
{ACAD_REACTORS
330
16B7
102
}
330
16B7
100
AcDbXrecord
280
     1
102
RTVSPropertyOp0
 70
     1
102
RTVSPropertyOp1
 70
     1
102
RTVSPropertyOp2
 70
     1
102
RTVSPropertyOp3
 70
     1
102
RTVSPropertyOp4
 70
     1
102
RTVSPropertyOp5
 70
     1
102
RTVSPropertyOp6
 70
     1
102
RTVSPropertyOp7
 70
     1
102
RTVSPropertyOp8
 70
     1
102
RTVSPropertyOp9
 70
     1
102
RTVSPropertyOp10
 70
     1
102
RTVSPropertyOp11
 70
     1
102
RTVSPropertyOp12
 70
     1
102
RTVSPropertyOp13
 70
     1
102
RTVSPropertyOp14
 70
     1
102
RTVSPropertyOp15
 70
     1
102
RTVSPropertyOp16
 70
     1
102
RTVSPropertyOp17
 70
     1
102
RTVSPropertyOp18
 70
     1
102
RTVSPropertyOp19
 70
     1
102
RTVSPropertyOp20
 70
     1
102
RTVSPropertyOp21
 70
     1
102
RTVSPropertyOp22
 70
     1
102
RTVSPropertyOp23
 70
     1
102
RTVSPropertyOp24
 70
     1
102
RTVSPropertyOp25
 70
     1
102
RTVSPropertyOp26
 70
     1
102
RTVSPropertyOp27
 70
     1
102
RTVSPropertyOp28
 70
     1
102
RTVSPropertyOp29
 70
     1
102
RTVSPropertyOp30
 70
     1
102
RTVSPropertyOp31
 70
     1
102
RTVSPropertyOp32
 70
     1
  0
XRECORD
  5
16BA
102
{ACAD_REACTORS
330
16B9
102
}
330
16B9
100
AcDbXrecord
280
     1
102
RTVSPropertyOp0
 70
     1
102
RTVSPropertyOp1
 70
     1
102
RTVSPropertyOp2
 70
     1
102
RTVSPropertyOp3
 70
     1
102
RTVSPropertyOp4
 70
     1
102
RTVSPropertyOp5
 70
     1
102
RTVSPropertyOp6
 70
     1
102
RTVSPropertyOp7
 70
     1
102
RTVSPropertyOp8
 70
     1
102
RTVSPropertyOp9
 70
     1
102
RTVSPropertyOp10
 70
     1
102
RTVSPropertyOp11
 70
     1
102
RTVSPropertyOp12
 70
     1
102
RTVSPropertyOp13
 70
     1
102
RTVSPropertyOp14
 70
     1
102
RTVSPropertyOp15
 70
     1
102
RTVSPropertyOp16
 70
     1
102
RTVSPropertyOp17
 70
     1
102
RTVSPropertyOp18
 70
     1
102
RTVSPropertyOp19
 70
     1
102
RTVSPropertyOp20
 70
     1
102
RTVSPropertyOp21
 70
     1
102
RTVSPropertyOp22
 70
     1
102
RTVSPropertyOp23
 70
     1
102
RTVSPropertyOp24
 70
     1
102
RTVSPropertyOp25
 70
     1
102
RTVSPropertyOp26
 70
     1
102
RTVSPropertyOp27
 70
     1
102
RTVSPropertyOp28
 70
     1
102
RTVSPropertyOp29
 70
     1
102
RTVSPropertyOp30
 70
     1
102
RTVSPropertyOp31
 70
     1
102
RTVSPropertyOp32
 70
     1
  0
XRECORD
  5
16BC
102
{ACAD_REACTORS
330
16BB
102
}
330
16BB
100
AcDbXrecord
280
     1
102
RTVSPropertyOp0
 70
     1
102
RTVSPropertyOp1
 70
     1
102
RTVSPropertyOp2
 70
     1
102
RTVSPropertyOp3
 70
     1
102
RTVSPropertyOp4
 70
     1
102
RTVSPropertyOp5
 70
     1
102
RTVSPropertyOp6
 70
     1
102
RTVSPropertyOp7
 70
     1
102
RTVSPropertyOp8
 70
     1
102
RTVSPropertyOp9
 70
     1
102
RTVSPropertyOp10
 70
     1
102
RTVSPropertyOp11
 70
     1
102
RTVSPropertyOp12
 70
     1
102
RTVSPropertyOp13
 70
     1
102
RTVSPropertyOp14
 70
     1
102
RTVSPropertyOp15
 70
     1
102
RTVSPropertyOp16
 70
     1
102
RTVSPropertyOp17
 70
     1
102
RTVSPropertyOp18
 70
     1
102
RTVSPropertyOp19
 70
     1
102
RTVSPropertyOp20
 70
     1
102
RTVSPropertyOp21
 70
     1
102
RTVSPropertyOp22
 70
     1
102
RTVSPropertyOp23
 70
     1
102
RTVSPropertyOp24
 70
     1
102
RTVSPropertyOp25
 70
     1
102
RTVSPropertyOp26
 70
     1
102
RTVSPropertyOp27
 70
     1
102
RTVSPropertyOp28
 70
     1
102
RTVSPropertyOp29
 70
     1
102
RTVSPropertyOp30
 70
     1
102
RTVSPropertyOp31
 70
     1
102
RTVSPropertyOp32
 70
     1
  0
XRECORD
  5
16DD
102
{ACAD_REACTORS
330
16DC
102
}
330
16DC
100
AcDbXrecord
280
     1
102
RTVSPropertyOp0
 70
     1
102
RTVSPropertyOp1
 70
     1
102
RTVSPropertyOp2
 70
     1
102
RTVSPropertyOp3
 70
     1
102
RTVSPropertyOp4
 70
     1
102
RTVSPropertyOp5
 70
     1
102
RTVSPropertyOp6
 70
     1
102
RTVSPropertyOp7
 70
     1
102
RTVSPropertyOp8
 70
     1
102
RTVSPropertyOp9
 70
     1
102
RTVSPropertyOp10
 70
     1
102
RTVSPropertyOp11
 70
     1
102
RTVSPropertyOp12
 70
     1
102
RTVSPropertyOp13
 70
     1
102
RTVSPropertyOp14
 70
     1
102
RTVSPropertyOp15
 70
     1
102
RTVSPropertyOp16
 70
     1
102
RTVSPropertyOp17
 70
     1
102
RTVSPropertyOp18
 70
     1
102
RTVSPropertyOp19
 70
     1
102
RTVSPropertyOp20
 70
     1
102
RTVSPropertyOp21
 70
     1
102
RTVSPropertyOp22
 70
     1
102
RTVSPropertyOp23
 70
     1
102
RTVSPropertyOp24
 70
     1
102
RTVSPropertyOp25
 70
     1
102
RTVSPropertyOp26
 70
     1
102
RTVSPropertyOp27
 70
     1
102
RTVSPropertyOp28
 70
     1
102
RTVSPropertyOp29
 70
     1
102
RTVSPropertyOp30
 70
     1
102
RTVSPropertyOp31
 70
     1
102
RTVSPropertyOp32
 70
     1
  0
XRECORD
  5
16E9
102
{ACAD_REACTORS
330
16E8
102
}
330
16E8
100
AcDbXrecord
280
     1
102
RTVSPropertyOp0
 70
     0
102
RTVSPropertyOp1
 70
     0
102
RTVSPropertyOp2
 70
     0
102
RTVSPropertyOp3
 70
     0
102
RTVSPropertyOp4
 70
     0
102
RTVSPropertyOp5
 70
     0
102
RTVSPropertyOp6
 70
     0
102
RTVSPropertyOp7
 70
     0
102
RTVSPropertyOp8
 70
     0
102
RTVSPropertyOp9
 70
     0
102
RTVSPropertyOp10
 70
     0
102
RTVSPropertyOp11
 70
     0
102
RTVSPropertyOp12
 70
     0
102
RTVSPropertyOp13
 70
     0
102
RTVSPropertyOp14
 70
     2
102
RTVSPropertyOp15
 70
     0
102
RTVSPropertyOp16
 70
     0
102
RTVSPropertyOp17
 70
     0
102
RTVSPropertyOp18
 70
     0
102
RTVSPropertyOp19
 70
     0
102
RTVSPropertyOp20
 70
     0
102
RTVSPropertyOp21
 70
     0
102
RTVSPropertyOp22
 70
     0
102
RTVSPropertyOp23
 70
     0
102
RTVSPropertyOp24
 70
     0
102
RTVSPropertyOp25
 70
     0
102
RTVSPropertyOp26
 70
     0
102
RTVSPropertyOp27
 70
     0
102
RTVSPropertyOp28
 70
     0
102
RTVSPropertyOp29
 70
     0
102
RTVSPropertyOp30
 70
     0
102
RTVSPropertyOp31
 70
     0
102
RTVSPropertyOp32
 70
     0
  0
XRECORD
  5
16D0
102
{ACAD_REACTORS
330
16CF
102
}
330
16CF
100
AcDbXrecord
280
     1
102
RTVSPropertyOp0
 70
     1
102
RTVSPropertyOp1
 70
     1
102
RTVSPropertyOp2
 70
     1
102
RTVSPropertyOp3
 70
     1
102
RTVSPropertyOp4
 70
     1
102
RTVSPropertyOp5
 70
     1
102
RTVSPropertyOp6
 70
     1
102
RTVSPropertyOp7
 70
     1
102
RTVSPropertyOp8
 70
     1
102
RTVSPropertyOp9
 70
     1
102
RTVSPropertyOp10
 70
     1
102
RTVSPropertyOp11
 70
     1
102
RTVSPropertyOp12
 70
     1
102
RTVSPropertyOp13
 70
     1
102
RTVSPropertyOp14
 70
     1
102
RTVSPropertyOp15
 70
     1
102
RTVSPropertyOp16
 70
     1
102
RTVSPropertyOp17
 70
     1
102
RTVSPropertyOp18
 70
     1
102
RTVSPropertyOp19
 70
     1
102
RTVSPropertyOp20
 70
     1
102
RTVSPropertyOp21
 70
     1
102
RTVSPropertyOp22
 70
     1
102
RTVSPropertyOp23
 70
     1
102
RTVSPropertyOp24
 70
     1
102
RTVSPropertyOp25
 70
     1
102
RTVSPropertyOp26
 70
     1
102
RTVSPropertyOp27
 70
     1
102
RTVSPropertyOp28
 70
     1
102
RTVSPropertyOp29
 70
     1
102
RTVSPropertyOp30
 70
     1
102
RTVSPropertyOp31
 70
     1
102
RTVSPropertyOp32
 70
     1
  0
XRECORD
  5
16EB
102
{ACAD_REACTORS
330
16EA
102
}
330
16EA
100
AcDbXrecord
280
     1
102
RTVSPropertyOp0
 70
     0
102
RTVSPropertyOp1
 70
     0
102
RTVSPropertyOp2
 70
     0
102
RTVSPropertyOp3
 70
     0
102
RTVSPropertyOp4
 70
     0
102
RTVSPropertyOp5
 70
     0
102
RTVSPropertyOp6
 70
     0
102
RTVSPropertyOp7
 70
     0
102
RTVSPropertyOp8
 70
     0
102
RTVSPropertyOp9
 70
     0
102
RTVSPropertyOp10
 70
     0
102
RTVSPropertyOp11
 70
     0
102
RTVSPropertyOp12
 70
     0
102
RTVSPropertyOp13
 70
     0
102
RTVSPropertyOp14
 70
     2
102
RTVSPropertyOp15
 70
     0
102
RTVSPropertyOp16
 70
     0
102
RTVSPropertyOp17
 70
     0
102
RTVSPropertyOp18
 70
     0
102
RTVSPropertyOp19
 70
     0
102
RTVSPropertyOp20
 70
     0
102
RTVSPropertyOp21
 70
     0
102
RTVSPropertyOp22
 70
     0
102
RTVSPropertyOp23
 70
     0
102
RTVSPropertyOp24
 70
     0
102
RTVSPropertyOp25
 70
     0
102
RTVSPropertyOp26
 70
     0
102
RTVSPropertyOp27
 70
     0
102
RTVSPropertyOp28
 70
     0
102
RTVSPropertyOp29
 70
     0
102
RTVSPropertyOp30
 70
     0
102
RTVSPropertyOp31
 70
     0
102
RTVSPropertyOp32
 70
     0
  0
XRECORD
  5
16C8
102
{ACAD_REACTORS
330
16C7
102
}
330
16C7
100
AcDbXrecord
280
     1
102
RTVSPropertyOp0
 70
     1
102
RTVSPropertyOp1
 70
     1
102
RTVSPropertyOp2
 70
     1
102
RTVSPropertyOp3
 70
     1
102
RTVSPropertyOp4
 70
     1
102
RTVSPropertyOp5
 70
     1
102
RTVSPropertyOp6
 70
     1
102
RTVSPropertyOp7
 70
     1
102
RTVSPropertyOp8
 70
     1
102
RTVSPropertyOp9
 70
     1
102
RTVSPropertyOp10
 70
     1
102
RTVSPropertyOp11
 70
     1
102
RTVSPropertyOp12
 70
     1
102
RTVSPropertyOp13
 70
     1
102
RTVSPropertyOp14
 70
     1
102
RTVSPropertyOp15
 70
     1
102
RTVSPropertyOp16
 70
     1
102
RTVSPropertyOp17
 70
     1
102
RTVSPropertyOp18
 70
     1
102
RTVSPropertyOp19
 70
     1
102
RTVSPropertyOp20
 70
     1
102
RTVSPropertyOp21
 70
     1
102
RTVSPropertyOp22
 70
     1
102
RTVSPropertyOp23
 70
     1
102
RTVSPropertyOp24
 70
     1
102
RTVSPropertyOp25
 70
     1
102
RTVSPropertyOp26
 70
     1
102
RTVSPropertyOp27
 70
     1
102
RTVSPropertyOp28
 70
     1
102
RTVSPropertyOp29
 70
     1
102
RTVSPropertyOp30
 70
     1
102
RTVSPropertyOp31
 70
     1
102
RTVSPropertyOp32
 70
     1
  0
XRECORD
  5
16E7
102
{ACAD_REACTORS
330
16E6
102
}
330
16E6
100
AcDbXrecord
280
     1
102
RTVSPropertyOp0
 70
     1
102
RTVSPropertyOp1
 70
     1
102
RTVSPropertyOp2
 70
     1
102
RTVSPropertyOp3
 70
     1
102
RTVSPropertyOp4
 70
     1
102
RTVSPropertyOp5
 70
     1
102
RTVSPropertyOp6
 70
     1
102
RTVSPropertyOp7
 70
     1
102
RTVSPropertyOp8
 70
     1
102
RTVSPropertyOp9
 70
     1
102
RTVSPropertyOp10
 70
     1
102
RTVSPropertyOp11
 70
     1
102
RTVSPropertyOp12
 70
     1
102
RTVSPropertyOp13
 70
     1
102
RTVSPropertyOp14
 70
     1
102
RTVSPropertyOp15
 70
     1
102
RTVSPropertyOp16
 70
     1
102
RTVSPropertyOp17
 70
     1
102
RTVSPropertyOp18
 70
     1
102
RTVSPropertyOp19
 70
     1
102
RTVSPropertyOp20
 70
     1
102
RTVSPropertyOp21
 70
     1
102
RTVSPropertyOp22
 70
     1
102
RTVSPropertyOp23
 70
     1
102
RTVSPropertyOp24
 70
     1
102
RTVSPropertyOp25
 70
     1
102
RTVSPropertyOp26
 70
     1
102
RTVSPropertyOp27
 70
     1
102
RTVSPropertyOp28
 70
     1
102
RTVSPropertyOp29
 70
     1
102
RTVSPropertyOp30
 70
     1
102
RTVSPropertyOp31
 70
     1
102
RTVSPropertyOp32
 70
     1
  0
XRECORD
  5
16E5
102
{ACAD_REACTORS
330
16E4
102
}
330
16E4
100
AcDbXrecord
280
     1
102
RTVSPropertyOp0
 70
     1
102
RTVSPropertyOp1
 70
     1
102
RTVSPropertyOp2
 70
     1
102
RTVSPropertyOp3
 70
     1
102
RTVSPropertyOp4
 70
     1
102
RTVSPropertyOp5
 70
     1
102
RTVSPropertyOp6
 70
     1
102
RTVSPropertyOp7
 70
     1
102
RTVSPropertyOp8
 70
     1
102
RTVSPropertyOp9
 70
     1
102
RTVSPropertyOp10
 70
     1
102
RTVSPropertyOp11
 70
     1
102
RTVSPropertyOp12
 70
     1
102
RTVSPropertyOp13
 70
     1
102
RTVSPropertyOp14
 70
     1
102
RTVSPropertyOp15
 70
     1
102
RTVSPropertyOp16
 70
     1
102
RTVSPropertyOp17
 70
     1
102
RTVSPropertyOp18
 70
     1
102
RTVSPropertyOp19
 70
     1
102
RTVSPropertyOp20
 70
     1
102
RTVSPropertyOp21
 70
     1
102
RTVSPropertyOp22
 70
     1
102
RTVSPropertyOp23
 70
     1
102
RTVSPropertyOp24
 70
     1
102
RTVSPropertyOp25
 70
     1
102
RTVSPropertyOp26
 70
     1
102
RTVSPropertyOp27
 70
     1
102
RTVSPropertyOp28
 70
     1
102
RTVSPropertyOp29
 70
     1
102
RTVSPropertyOp30
 70
     1
102
RTVSPropertyOp31
 70
     1
102
RTVSPropertyOp32
 70
     1
  0
XRECORD
  5
16DF
102
{ACAD_REACTORS
330
16DE
102
}
330
16DE
100
AcDbXrecord
280
     1
102
RTVSPropertyOp0
 70
     1
102
RTVSPropertyOp1
 70
     1
102
RTVSPropertyOp2
 70
     1
102
RTVSPropertyOp3
 70
     1
102
RTVSPropertyOp4
 70
     1
102
RTVSPropertyOp5
 70
     1
102
RTVSPropertyOp6
 70
     1
102
RTVSPropertyOp7
 70
     1
102
RTVSPropertyOp8
 70
     1
102
RTVSPropertyOp9
 70
     1
102
RTVSPropertyOp10
 70
     1
102
RTVSPropertyOp11
 70
     1
102
RTVSPropertyOp12
 70
     1
102
RTVSPropertyOp13
 70
     1
102
RTVSPropertyOp14
 70
     1
102
RTVSPropertyOp15
 70
     1
102
RTVSPropertyOp16
 70
     1
102
RTVSPropertyOp17
 70
     1
102
RTVSPropertyOp18
 70
     1
102
RTVSPropertyOp19
 70
     1
102
RTVSPropertyOp20
 70
     1
102
RTVSPropertyOp21
 70
     1
102
RTVSPropertyOp22
 70
     1
102
RTVSPropertyOp23
 70
     1
102
RTVSPropertyOp24
 70
     1
102
RTVSPropertyOp25
 70
     1
102
RTVSPropertyOp26
 70
     1
102
RTVSPropertyOp27
 70
     1
102
RTVSPropertyOp28
 70
     1
102
RTVSPropertyOp29
 70
     1
102
RTVSPropertyOp30
 70
     1
102
RTVSPropertyOp31
 70
     1
102
RTVSPropertyOp32
 70
     1
  0
XRECORD
  5
16E1
102
{ACAD_REACTORS
330
16E0
102
}
330
16E0
100
AcDbXrecord
280
     1
102
RTVSPropertyOp0
 70
     1
102
RTVSPropertyOp1
 70
     1
102
RTVSPropertyOp2
 70
     1
102
RTVSPropertyOp3
 70
     1
102
RTVSPropertyOp4
 70
     1
102
RTVSPropertyOp5
 70
     1
102
RTVSPropertyOp6
 70
     1
102
RTVSPropertyOp7
 70
     1
102
RTVSPropertyOp8
 70
     1
102
RTVSPropertyOp9
 70
     1
102
RTVSPropertyOp10
 70
     1
102
RTVSPropertyOp11
 70
     1
102
RTVSPropertyOp12
 70
     1
102
RTVSPropertyOp13
 70
     1
102
RTVSPropertyOp14
 70
     1
102
RTVSPropertyOp15
 70
     1
102
RTVSPropertyOp16
 70
     1
102
RTVSPropertyOp17
 70
     1
102
RTVSPropertyOp18
 70
     1
102
RTVSPropertyOp19
 70
     1
102
RTVSPropertyOp20
 70
     1
102
RTVSPropertyOp21
 70
     1
102
RTVSPropertyOp22
 70
     1
102
RTVSPropertyOp23
 70
     1
102
RTVSPropertyOp24
 70
     1
102
RTVSPropertyOp25
 70
     1
102
RTVSPropertyOp26
 70
     1
102
RTVSPropertyOp27
 70
     1
102
RTVSPropertyOp28
 70
     1
102
RTVSPropertyOp29
 70
     1
102
RTVSPropertyOp30
 70
     1
102
RTVSPropertyOp31
 70
     1
102
RTVSPropertyOp32
 70
     1
  0
XRECORD
  5
16CE
102
{ACAD_REACTORS
330
16CD
102
}
330
16CD
100
AcDbXrecord
280
     1
102
RTVSPropertyOp0
 70
     1
102
RTVSPropertyOp1
 70
     1
102
RTVSPropertyOp2
 70
     1
102
RTVSPropertyOp3
 70
     1
102
RTVSPropertyOp4
 70
     1
102
RTVSPropertyOp5
 70
     1
102
RTVSPropertyOp6
 70
     1
102
RTVSPropertyOp7
 70
     1
102
RTVSPropertyOp8
 70
     1
102
RTVSPropertyOp9
 70
     1
102
RTVSPropertyOp10
 70
     1
102
RTVSPropertyOp11
 70
     1
102
RTVSPropertyOp12
 70
     1
102
RTVSPropertyOp13
 70
     1
102
RTVSPropertyOp14
 70
     1
102
RTVSPropertyOp15
 70
     1
102
RTVSPropertyOp16
 70
     1
102
RTVSPropertyOp17
 70
     1
102
RTVSPropertyOp18
 70
     1
102
RTVSPropertyOp19
 70
     1
102
RTVSPropertyOp20
 70
     1
102
RTVSPropertyOp21
 70
     1
102
RTVSPropertyOp22
 70
     1
102
RTVSPropertyOp23
 70
     1
102
RTVSPropertyOp24
 70
     1
102
RTVSPropertyOp25
 70
     1
102
RTVSPropertyOp26
 70
     1
102
RTVSPropertyOp27
 70
     1
102
RTVSPropertyOp28
 70
     1
102
RTVSPropertyOp29
 70
     1
102
RTVSPropertyOp30
 70
     1
102
RTVSPropertyOp31
 70
     1
102
RTVSPropertyOp32
 70
     1
  0
XRECORD
  5
16DB
102
{ACAD_REACTORS
330
16DA
102
}
330
16DA
100
AcDbXrecord
280
     1
102
RTVSPropertyOp0
 70
     1
102
RTVSPropertyOp1
 70
     1
102
RTVSPropertyOp2
 70
     1
102
RTVSPropertyOp3
 70
     1
102
RTVSPropertyOp4
 70
     1
102
RTVSPropertyOp5
 70
     1
102
RTVSPropertyOp6
 70
     1
102
RTVSPropertyOp7
 70
     1
102
RTVSPropertyOp8
 70
     1
102
RTVSPropertyOp9
 70
     1
102
RTVSPropertyOp10
 70
     1
102
RTVSPropertyOp11
 70
     1
102
RTVSPropertyOp12
 70
     1
102
RTVSPropertyOp13
 70
     1
102
RTVSPropertyOp14
 70
     1
102
RTVSPropertyOp15
 70
     1
102
RTVSPropertyOp16
 70
     1
102
RTVSPropertyOp17
 70
     1
102
RTVSPropertyOp18
 70
     1
102
RTVSPropertyOp19
 70
     1
102
RTVSPropertyOp20
 70
     1
102
RTVSPropertyOp21
 70
     1
102
RTVSPropertyOp22
 70
     1
102
RTVSPropertyOp23
 70
     1
102
RTVSPropertyOp24
 70
     1
102
RTVSPropertyOp25
 70
     1
102
RTVSPropertyOp26
 70
     1
102
RTVSPropertyOp27
 70
     1
102
RTVSPropertyOp28
 70
     1
102
RTVSPropertyOp29
 70
     1
102
RTVSPropertyOp30
 70
     1
102
RTVSPropertyOp31
 70
     1
102
RTVSPropertyOp32
 70
     1
  0
XRECORD
  5
16E3
102
{ACAD_REACTORS
330
16E2
102
}
330
16E2
100
AcDbXrecord
280
     1
102
RTVSPropertyOp0
 70
     1
102
RTVSPropertyOp1
 70
     1
102
RTVSPropertyOp2
 70
     1
102
RTVSPropertyOp3
 70
     1
102
RTVSPropertyOp4
 70
     1
102
RTVSPropertyOp5
 70
     1
102
RTVSPropertyOp6
 70
     1
102
RTVSPropertyOp7
 70
     1
102
RTVSPropertyOp8
 70
     1
102
RTVSPropertyOp9
 70
     1
102
RTVSPropertyOp10
 70
     1
102
RTVSPropertyOp11
 70
     1
102
RTVSPropertyOp12
 70
     1
102
RTVSPropertyOp13
 70
     1
102
RTVSPropertyOp14
 70
     1
102
RTVSPropertyOp15
 70
     1
102
RTVSPropertyOp16
 70
     1
102
RTVSPropertyOp17
 70
     1
102
RTVSPropertyOp18
 70
     1
102
RTVSPropertyOp19
 70
     1
102
RTVSPropertyOp20
 70
     1
102
RTVSPropertyOp21
 70
     1
102
RTVSPropertyOp22
 70
     1
102
RTVSPropertyOp23
 70
     1
102
RTVSPropertyOp24
 70
     1
102
RTVSPropertyOp25
 70
     1
102
RTVSPropertyOp26
 70
     1
102
RTVSPropertyOp27
 70
     1
102
RTVSPropertyOp28
 70
     1
102
RTVSPropertyOp29
 70
     1
102
RTVSPropertyOp30
 70
     1
102
RTVSPropertyOp31
 70
     1
102
RTVSPropertyOp32
 70
     1
  0
ENDSEC
  0
EOF
