  0
SECTION
  2
HEADER
  9
$ACADVER
  1
AC1015
  9
$ACADMAINTVER
 70
    20
  9
$DWGCODEPAGE
  3
ANSI_932
  9
$INSBASE
 10
0.0
 20
0.0
 30
0.0
  9
$EXTMIN
 10
-205.0
 20
-140.6691129876555
 30
0.0
  9
$EXTMAX
 10
200.0
 20
138.5
 30
0.0
  9
$LIMMIN
 10
-205.001
 20
-135.51429041
  9
$LIMMAX
 10
200.02686365
 20
149.32976587
  9
$ORTHOMODE
 70
     1
  9
$REGENMODE
 70
     1
  9
$FILLMODE
 70
     1
  9
$QTEXTMODE
 70
     0
  9
$MIRRTEXT
 70
     0
  9
$LTSCALE
 40
6.75043106
  9
$ATTMODE
 70
     1
  9
$TEXTSIZE
 40
3.2
  9
$TRACEWID
 40
0.05
  9
$TEXTSTYLE
  7
高3.2
  9
$CLAYER
  8
0
  9
$CELTYPE
  6
CONTINUOUS
  9
$CECOLOR
 62
     7
  9
$CELTSCALE
 40
1.0
  9
$DISPSILH
 70
     0
  9
$DIMSCALE
 40
1.0
  9
$DIMASZ
 40
2.5
  9
$DIMEXO
 40
0.25
  9
$DIMDLI
 40
0.2
  9
$DIMRND
 40
0.0
  9
$DIMDLE
 40
0.0
  9
$DIMEXE
 40
1.25
  9
$DIMTP
 40
0.0
  9
$DIMTM
 40
0.0
  9
$DIMTXT
 40
2.5
  9
$DIMCEN
 40
0.0
  9
$DIMTSZ
 40
0.0
  9
$DIMTOL
 70
     0
  9
$DIMLIM
 70
     0
  9
$DIMTIH
 70
     0
  9
$DIMTOH
 70
     0
  9
$DIMSE1
 70
     0
  9
$DIMSE2
 70
     0
  9
$DIMTAD
 70
     3
  9
$DIMZIN
 70
     8
  9
$DIMBLK
  1
Open30
  9
$DIMASO
 70
     1
  9
$DIMSHO
 70
     1
  9
$DIMPOST
  1

  9
$DIMAPOST
  1

  9
$DIMALT
 70
     0
  9
$DIMALTD
 70
     3
  9
$DIMALTF
 40
0.03937007874016
  9
$DIMLFAC
 40
2.0
  9
$DIMTOFL
 70
     1
  9
$DIMTVP
 40
0.0
  9
$DIMTIX
 70
     0
  9
$DIMSOXD
 70
     0
  9
$DIMSAH
 70
     0
  9
$DIMBLK1
  1

  9
$DIMBLK2
  1

  9
$DIMSTYLE
  2
1／2
  9
$DIMCLRD
 70
     0
  9
$DIMCLRE
 70
     0
  9
$DIMCLRT
 70
     4
  9
$DIMTFAC
 40
1.0
  9
$DIMGAP
 40
0.625
  9
$DIMJUST
 70
     0
  9
$DIMSD1
 70
     0
  9
$DIMSD2
 70
     0
  9
$DIMTOLJ
 70
     0
  9
$DIMTZIN
 70
     8
  9
$DIMALTZ
 70
     0
  9
$DIMALTTZ
 70
     0
  9
$DIMUPT
 70
     1
  9
$DIMDEC
 70
     2
  9
$DIMTDEC
 70
     2
  9
$DIMALTU
 70
     2
  9
$DIMALTTD
 70
     3
  9
$DIMTXSTY
  7
STANDARD
  9
$DIMAUNIT
 70
     0
  9
$DIMADEC
 70
     1
  9
$DIMALTRND
 40
0.0
  9
$DIMAZIN
 70
     2
  9
$DIMDSEP
 70
    46
  9
$DIMATFIT
 70
     0
  9
$DIMFRAC
 70
     0
  9
$DIMLDRBLK
  1
Open30
  9
$DIMLUNIT
 70
     2
  9
$DIMLWD
 70
    -2
  9
$DIMLWE
 70
    -2
  9
$DIMTMOVE
 70
     0
  9
$LUNITS
 70
     2
  9
$LUPREC
 70
     4
  9
$SKETCHINC
 40
0.1
  9
$FILLETRAD
 40
0.0
  9
$AUNITS
 70
     0
  9
$AUPREC
 70
     0
  9
$MENU
  1
.
  9
$ELEVATION
 40
0.0
  9
$PELEVATION
 40
0.0
  9
$THICKNESS
 40
0.0
  9
$LIMCHECK
 70
     0
  9
$CHAMFERA
 40
0.0
  9
$CHAMFERB
 40
0.0
  9
$CHAMFERC
 40
0.0
  9
$CHAMFERD
 40
0.0
  9
$SKPOLY
 70
     0
  9
$TDCREATE
 40
2455541.547573414
  9
$TDUCREATE
 40
2455541.172573414
  9
$TDUPDATE
 40
2458296.675233414
  9
$TDUUPDATE
 40
2458296.300233414
  9
$TDINDWG
 40
0.1080825347
  9
$TDUSRTIMER
 40
0.1080769444
  9
$USRTIMER
 70
     1
  9
$ANGBASE
 50
0.0
  9
$ANGDIR
 70
     0
  9
$PDMODE
 70
     0
  9
$PDSIZE
 40
0.0
  9
$PLINEWID
 40
0.0
  9
$SPLFRAME
 70
     0
  9
$SPLINETYPE
 70
     6
  9
$SPLINESEGS
 70
     8
  9
$HANDSEED
  5
1502
  9
$SURFTAB1
 70
     6
  9
$SURFTAB2
 70
     6
  9
$SURFTYPE
 70
     6
  9
$SURFU
 70
     6
  9
$SURFV
 70
     6
  9
$UCSBASE
  2

  9
$UCSNAME
  2

  9
$UCSORG
 10
0.0
 20
0.0
 30
0.0
  9
$UCSXDIR
 10
1.0
 20
0.0
 30
0.0
  9
$UCSYDIR
 10
0.0
 20
1.0
 30
0.0
  9
$UCSORTHOREF
  2

  9
$UCSORTHOVIEW
 70
     0
  9
$UCSORGTOP
 10
0.0
 20
0.0
 30
0.0
  9
$UCSORGBOTTOM
 10
0.0
 20
0.0
 30
0.0
  9
$UCSORGLEFT
 10
0.0
 20
0.0
 30
0.0
  9
$UCSORGRIGHT
 10
0.0
 20
0.0
 30
0.0
  9
$UCSORGFRONT
 10
0.0
 20
0.0
 30
0.0
  9
$UCSORGBACK
 10
0.0
 20
0.0
 30
0.0
  9
$PUCSBASE
  2

  9
$PUCSNAME
  2

  9
$PUCSORG
 10
0.0
 20
0.0
 30
0.0
  9
$PUCSXDIR
 10
1.0
 20
0.0
 30
0.0
  9
$PUCSYDIR
 10
0.0
 20
1.0
 30
0.0
  9
$PUCSORTHOREF
  2

  9
$PUCSORTHOVIEW
 70
     0
  9
$PUCSORGTOP
 10
0.0
 20
0.0
 30
0.0
  9
$PUCSORGBOTTOM
 10
0.0
 20
0.0
 30
0.0
  9
$PUCSORGLEFT
 10
0.0
 20
0.0
 30
0.0
  9
$PUCSORGRIGHT
 10
0.0
 20
0.0
 30
0.0
  9
$PUCSORGFRONT
 10
0.0
 20
0.0
 30
0.0
  9
$PUCSORGBACK
 10
0.0
 20
0.0
 30
0.0
  9
$USERI1
 70
     0
  9
$USERI2
 70
     0
  9
$USERI3
 70
     0
  9
$USERI4
 70
     0
  9
$USERI5
 70
     0
  9
$USERR1
 40
0.0
  9
$USERR2
 40
0.0
  9
$USERR3
 40
0.0
  9
$USERR4
 40
0.0
  9
$USERR5
 40
0.0
  9
$WORLDVIEW
 70
     1
  9
$SHADEDGE
 70
     3
  9
$SHADEDIF
 70
    70
  9
$TILEMODE
 70
     1
  9
$MAXACTVP
 70
    64
  9
$PINSBASE
 10
0.0
 20
0.0
 30
0.0
  9
$PLIMCHECK
 70
     0
  9
$PEXTMIN
 10
1.000000000000000E+20
 20
1.000000000000000E+20
 30
1.000000000000000E+20
  9
$PEXTMAX
 10
-1.000000000000000E+20
 20
-1.000000000000000E+20
 30
-1.000000000000000E+20
  9
$PLIMMIN
 10
0.0
 20
0.0
  9
$PLIMMAX
 10
12.0
 20
9.0
  9
$UNITMODE
 70
     0
  9
$VISRETAIN
 70
     1
  9
$PLINEGEN
 70
     0
  9
$PSLTSCALE
 70
     1
  9
$TREEDEPTH
 70
  3020
  9
$CMLSTYLE
  2
Standard
  9
$CMLJUST
 70
     0
  9
$CMLSCALE
 40
1.0
  9
$PROXYGRAPHICS
 70
     1
  9
$MEASUREMENT
 70
     0
  9
$CELWEIGHT
370
    -1
  9
$ENDCAPS
280
     0
  9
$JOINSTYLE
280
     0
  9
$LWDISPLAY
290
     0
  9
$INSUNITS
 70
     0
  9
$HYPERLINKBASE
  1

  9
$STYLESHEET
  1

  9
$XEDIT
290
     1
  9
$CEPSNTYPE
380
     0
  9
$PSTYLEMODE
290
     1
  9
$FINGERPRINTGUID
  2
{5F632230-15F1-4743-9F2D-3ED28246E0F2}
  9
$VERSIONGUID
  2
{675DB987-ECEA-4F6B-BEA8-03B609B69B58}
  9
$EXTNAMES
290
     1
  9
$PSVPSCALE
 40
0.0
  9
$OLESTARTUP
290
     0
  0
ENDSEC
  0
SECTION
  2
CLASSES
  0
CLASS
  1
ACDBDICTIONARYWDFLT
  2
AcDbDictionaryWithDefault
  3
ObjectDBX Classes
 90
        0
280
     0
281
     0
  0
CLASS
  1
MATERIAL
  2
AcDbMaterial
  3
ObjectDBX Classes
 90
     1153
280
     0
281
     0
  0
CLASS
  1
VISUALSTYLE
  2
AcDbVisualStyle
  3
ObjectDBX Classes
 90
     4095
280
     0
281
     0
  0
CLASS
  1
TABLESTYLE
  2
AcDbTableStyle
  3
ObjectDBX Classes
 90
     4095
280
     0
281
     0
  0
CLASS
  1
SORTENTSTABLE
  2
AcDbSortentsTable
  3
ObjectDBX Classes
 90
        0
280
     0
281
     0
  0
CLASS
  1
DICTIONARYVAR
  2
AcDbDictionaryVar
  3
ObjectDBX Classes
 90
        0
280
     0
281
     0
  0
CLASS
  1
ACDBPLACEHOLDER
  2
AcDbPlaceHolder
  3
ObjectDBX Classes
 90
        0
280
     0
281
     0
  0
CLASS
  1
LAYOUT
  2
AcDbLayout
  3
ObjectDBX Classes
 90
        0
280
     0
281
     0
  0
CLASS
  1
SCALE
  2
AcDbScale
  3
ObjectDBX Classes
 90
     1153
280
     0
281
     0
  0
CLASS
  1
MLEADERSTYLE
  2
AcDbMLeaderStyle
  3
ACDB_MLEADERSTYLE_CLASS
 90
     4095
280
     0
281
     0
  0
CLASS
  1
CELLSTYLEMAP
  2
AcDbCellStyleMap
  3
ObjectDBX Classes
 90
     1152
280
     0
281
     0
  0
CLASS
  1
ACAD_EVALUATION_GRAPH
  2
AcDbEvalGraph
  3
ObjectDBX Classes
 90
     1153
280
     0
281
     0
  0
CLASS
  1
ACAECUSTOBJ
  2
AcAeEditorObj
  3
AcAeEditorObj
 90
     1024
280
     0
281
     0
  0
CLASS
  1
ACDB_DYNAMICBLOCKPURGEPREVENTER_VERSION
  2
AcDbDynamicBlockPurgePreventer
  3
ObjectDBX Classes
 90
     1153
280
     0
281
     0
  0
ENDSEC
  0
SECTION
  2
TABLES
  0
TABLE
  2
VPORT
  5
8
330
0
100
AcDbSymbolTable
 70
     1
  0
VPORT
  5
57
330
8
100
AcDbSymbolTableRecord
100
AcDbViewportTableRecord
  2
*Active
 70
     0
 10
0.0
 20
0.0
 11
1.0
 21
1.0
 12
57.77010850083235
 22
-9.856984028728561
 13
0.0
 23
0.0
 14
1.0
 24
1.0
 15
0.0
 25
0.0
 16
0.0
 26
0.0
 36
1.0
 17
0.0
 27
0.0
 37
0.0
 40
599.8433476501787
 41
1.204638472032742
 42
50.0
 43
0.0
 44
0.0
 50
0.0
 51
0.0
 71
     0
 72
  1000
 73
     1
 74
     1
 75
     0
 76
     0
 77
     0
 78
     0
281
     0
 65
     1
110
0.0
120
0.0
130
0.0
111
1.0
121
0.0
131
0.0
112
0.0
122
1.0
132
0.0
 79
     0
146
0.0
  0
ENDTAB
  0
TABLE
  2
LTYPE
  5
5
330
0
100
AcDbSymbolTable
 70
     7
  0
LTYPE
  5
28
330
5
100
AcDbSymbolTableRecord
100
AcDbLinetypeTableRecord
  2
ByBlock
 70
     0
  3

 72
    65
 73
     0
 40
0.0
  0
LTYPE
  5
29
330
5
100
AcDbSymbolTableRecord
100
AcDbLinetypeTableRecord
  2
ByLayer
 70
     0
  3

 72
    65
 73
     0
 40
0.0
  0
LTYPE
  5
2A
330
5
100
AcDbSymbolTableRecord
100
AcDbLinetypeTableRecord
  2
CONTINUOUS
 70
     0
  3
Solid-line
 72
    65
 73
     0
 40
0.0
  0
LTYPE
  5
3D
330
5
100
AcDbSymbolTableRecord
100
AcDbLinetypeTableRecord
  2
CENTER
 70
     0
  3
CENTER
 72
    65
 73
     4
 40
2.0
 49
1.25
 74
     0
 49
-0.25
 74
     0
 49
0.25
 74
     0
 49
-0.25
 74
     0
  0
LTYPE
  5
43
330
5
100
AcDbSymbolTableRecord
100
AcDbLinetypeTableRecord
  2
DASHED
 70
     0
  3
DASHED
 72
    65
 73
     2
 40
0.75
 49
0.5
 74
     0
 49
-0.25
 74
     0
  0
LTYPE
  5
4C
330
5
100
AcDbSymbolTableRecord
100
AcDbLinetypeTableRecord
  2
HIDDEN
 70
     0
  3
HIDDEN
 72
    65
 73
     2
 40
0.375
 49
0.25
 74
     0
 49
-0.125
 74
     0
  0
LTYPE
  5
4F
330
5
100
AcDbSymbolTableRecord
100
AcDbLinetypeTableRecord
  2
PHANTOM
 70
     0
  3
PHANTOM
 72
    65
 73
     6
 40
2.5
 49
1.25
 74
     0
 49
-0.25
 74
     0
 49
0.25
 74
     0
 49
-0.25
 74
     0
 49
0.25
 74
     0
 49
-0.25
 74
     0
  0
ENDTAB
  0
TABLE
  2
LAYER
  5
2
102
{ACAD_XDICTIONARY
360
55F
102
}
330
0
100
AcDbSymbolTable
 70
     2
  0
LAYER
  5
25
102
{ACAD_XDICTIONARY
360
996
102
}
330
2
100
AcDbSymbolTableRecord
100
AcDbLayerTableRecord
  2
0
 70
     0
 62
     7
  6
CONTINUOUS
370
    -3
390
F
  0
LAYER
  5
556
330
2
100
AcDbSymbolTableRecord
100
AcDbLayerTableRecord
  2
Defpoints
 70
     0
 62
     7
  6
CONTINUOUS
290
     0
370
    -3
390
F
  0
ENDTAB
  0
TABLE
  2
STYLE
  5
3
330
0
100
AcDbSymbolTable
 70
     6
  0
STYLE
  5
26
330
3
100
AcDbSymbolTableRecord
100
AcDbTextStyleTableRecord
  2
STANDARD
 70
     0
 40
0.0
 41
1.0
 50
0.0
 71
     0
 42
0.2
  3
TXT
  4
BIGFONT
  0
STYLE
  5
557
330
3
100
AcDbSymbolTableRecord
100
AcDbTextStyleTableRecord
  2
高3.2
 70
     0
 40
3.2
 41
1.0
 50
0.0
 71
     0
 42
3.2
  3
txt.shx
  4
bigfont.shx
  0
STYLE
  5
86E
330
3
100
AcDbSymbolTableRecord
100
AcDbTextStyleTableRecord
  2
高6.3
 70
     0
 40
6.299999999999998
 41
1.0
 50
0.0
 71
     0
 42
6.299999999999998
  3
txt.shx
  4
bigfont.shx
  0
STYLE
  5
86F
330
3
100
AcDbSymbolTableRecord
100
AcDbTextStyleTableRecord
  2
高2.5
 70
     0
 40
2.5
 41
1.0
 50
0.0
 71
     0
 42
0.2
  3
txt.shx
  4
bigfont.shx
  0
STYLE
  5
870
330
3
100
AcDbSymbolTableRecord
100
AcDbTextStyleTableRecord
  2
高4.5
 70
     0
 40
4.5
 41
1.0
 50
0.0
 71
     0
 42
6.299999999999998
  3
txt.shx
  4
bigfont.shx
  0
STYLE
  5
871
330
3
100
AcDbSymbolTableRecord
100
AcDbTextStyleTableRecord
  2
高2
 70
     0
 40
2.0
 41
1.0
 50
0.0
 71
     0
 42
6.299999999999998
  3
txt.shx
  4
bigfont.shx
  0
ENDTAB
  0
TABLE
  2
VIEW
  5
6
330
0
100
AcDbSymbolTable
 70
     0
  0
ENDTAB
  0
TABLE
  2
UCS
  5
7
330
0
100
AcDbSymbolTable
 70
     0
  0
ENDTAB
  0
TABLE
  2
APPID
  5
9
330
0
100
AcDbSymbolTable
 70
    13
  0
APPID
  5
27
330
9
100
AcDbSymbolTableRecord
100
AcDbRegAppTableRecord
  2
ACAD
 70
     0
  0
APPID
  5
55E
330
9
100
AcDbSymbolTableRecord
100
AcDbRegAppTableRecord
  2
ACAD_DSTYLE_DIMJOGGED_JOGANGLE_SYMBOL
 70
     0
  0
APPID
  5
6A6
330
9
100
AcDbSymbolTableRecord
100
AcDbRegAppTableRecord
  2
ACAD_DSTYLE_DIMARC_LENGTH_SYMBOL
 70
     0
  0
APPID
  5
6A7
330
9
100
AcDbSymbolTableRecord
100
AcDbRegAppTableRecord
  2
ACAD_DSTYLE_DIMEXT_LENGTH
 70
     0
  0
APPID
  5
790
330
9
100
AcDbSymbolTableRecord
100
AcDbRegAppTableRecord
  2
ACAD_EXEMPT_FROM_CAD_STANDARDS
 70
     0
  0
APPID
  5
876
330
9
100
AcDbSymbolTableRecord
100
AcDbRegAppTableRecord
  2
ACAD_DSTYLE_DIMJAG
 70
     0
  0
APPID
  5
877
330
9
100
AcDbSymbolTableRecord
100
AcDbRegAppTableRecord
  2
ACAD_DSTYLE_DIMBREAK
 70
     0
  0
APPID
  5
878
330
9
100
AcDbSymbolTableRecord
100
AcDbRegAppTableRecord
  2
ACAD_DSTYLE_DIMTALN
 70
     0
  0
APPID
  5
9E0
330
9
100
AcDbSymbolTableRecord
100
AcDbRegAppTableRecord
  2
ACAD_MLEADERVER
 70
     0
  0
APPID
  5
EAB
330
9
100
AcDbSymbolTableRecord
100
AcDbRegAppTableRecord
  2
ACAD_PSEXT
 70
     0
  0
APPID
  5
126A
330
9
100
AcDbSymbolTableRecord
100
AcDbRegAppTableRecord
  2
ACAUTHENVIRON
 70
     0
  0
APPID
  5
12DD
330
9
100
AcDbSymbolTableRecord
100
AcDbRegAppTableRecord
  2
AcDbDynamicBlockTrueName
 70
     0
  0
APPID
  5
12DE
330
9
100
AcDbSymbolTableRecord
100
AcDbRegAppTableRecord
  2
AcDbDynamicBlockGUID
 70
     0
  0
ENDTAB
  0
TABLE
  2
DIMSTYLE
  5
A
330
0
100
AcDbSymbolTable
 70
     8
100
AcDbDimStyleTable
 71
     2
340
55B
340
52A
  0
DIMSTYLE
105
52A
330
A
100
AcDbSymbolTableRecord
100
AcDbDimStyleTableRecord
  2
Standard
 70
     0
340
26
  0
DIMSTYLE
105
55B
330
A
100
AcDbSymbolTableRecord
100
AcDbDimStyleTableRecord
  2
1／2
 70
     0
 41
2.5
 42
0.25
 43
0.2
 44
1.25
 73
     0
 74
     0
 77
     3
 78
     8
 79
     2
140
2.5
141
0.0
143
0.03937007874016
144
2.0
147
0.625
171
     3
172
     1
178
     4
179
     1
271
     2
272
     2
274
     3
283
     0
284
     8
288
     1
289
     0
340
26
341
52C
342
52C
1001
ACAD_DSTYLE_DIMARC_LENGTH_SYMBOL
1070
   379
1070
     2
1001
ACAD_DSTYLE_DIMEXT_LENGTH
1070
   378
1040
1.25
1001
ACAD_DSTYLE_DIMJOGGED_JOGANGLE_SYMBOL
1070
   384
1040
1.570796326794896
  0
DIMSTYLE
105
DE3
330
A
100
AcDbSymbolTableRecord
100
AcDbDimStyleTableRecord
  2
1：1
 70
     0
 41
2.5
 42
0.25
 43
0.2
 44
1.25
 73
     0
 74
     0
 77
     3
 78
     8
 79
     2
140
3.0
141
0.0
143
0.03937007874016
147
0.625
171
     3
172
     1
178
     4
179
     1
271
     2
272
     2
274
     3
283
     0
284
     8
288
     1
289
     0
340
26
341
52C
342
52C
1001
ACAD_DSTYLE_DIMARC_LENGTH_SYMBOL
1070
   379
1070
     2
1001
ACAD_DSTYLE_DIMEXT_LENGTH
1070
   378
1040
1.25
1001
ACAD_DSTYLE_DIMJOGGED_JOGANGLE_SYMBOL
1070
   384
1040
1.570796326794896
  0
DIMSTYLE
105
EAA
330
A
100
AcDbSymbolTableRecord
100
AcDbDimStyleTableRecord
  2
FREE
 70
     0
 41
2.5
 42
0.25
 43
0.2
 44
1.25
 73
     0
 74
     0
 77
     3
 78
     8
 79
     2
140
3.0
141
0.0
143
0.03937007874016
147
0.625
171
     3
172
     1
178
     4
179
     1
271
     2
272
     2
274
     3
283
     0
284
     8
288
     1
289
     0
340
26
341
52C
342
52C
1001
ACAD_DSTYLE_DIMBREAK
1070
   391
1040
3.75
1001
ACAD_DSTYLE_DIMJAG
1070
   388
1040
1.5
1001
ACAD_DSTYLE_DIMTALN
1070
   392
1070
     0
1001
ACAD_DSTYLE_DIMARC_LENGTH_SYMBOL
1070
   379
1070
     2
1001
ACAD_DSTYLE_DIMEXT_LENGTH
1070
   378
1040
1.25
1001
ACAD_DSTYLE_DIMJOGGED_JOGANGLE_SYMBOL
1070
   384
1040
1.570796326794896
  0
DIMSTYLE
105
ED5
330
A
100
AcDbSymbolTableRecord
100
AcDbDimStyleTableRecord
  2
5：1
 70
     0
 41
2.5
 42
0.25
 43
0.2
 44
1.25
 73
     0
 74
     0
 77
     3
 78
     8
 79
     2
140
3.0
141
0.0
143
0.03937007874016
144
0.2
147
0.625
171
     3
172
     1
178
     4
179
     1
271
     2
272
     2
274
     3
283
     0
284
     8
288
     1
289
     0
340
26
341
52C
342
52C
1001
ACAD_DSTYLE_DIMARC_LENGTH_SYMBOL
1070
   379
1070
     2
1001
ACAD_DSTYLE_DIMEXT_LENGTH
1070
   378
1040
1.25
1001
ACAD_DSTYLE_DIMJOGGED_JOGANGLE_SYMBOL
1070
   384
1040
1.570796326794896
  0
DIMSTYLE
105
ED6
330
A
100
AcDbSymbolTableRecord
100
AcDbDimStyleTableRecord
  2
1／4
 70
     0
 41
2.5
 42
0.25
 43
0.2
 44
1.25
 73
     0
 74
     0
 77
     3
 78
     8
 79
     2
140
3.0
141
0.0
143
0.03937007874016
144
4.0
147
0.625
171
     3
172
     1
178
     4
179
     1
271
     2
272
     2
274
     3
283
     0
284
     8
288
     1
289
     0
340
26
341
52C
342
52C
1001
ACAD_DSTYLE_DIMARC_LENGTH_SYMBOL
1070
   379
1070
     2
1001
ACAD_DSTYLE_DIMEXT_LENGTH
1070
   378
1040
1.25
1001
ACAD_DSTYLE_DIMJOGGED_JOGANGLE_SYMBOL
1070
   384
1040
1.570796326794896
  0
DIMSTYLE
105
ED7
330
A
100
AcDbSymbolTableRecord
100
AcDbDimStyleTableRecord
  2
1／3
 70
     0
 41
2.5
 42
0.25
 43
0.2
 44
1.25
 73
     0
 74
     0
 77
     3
 78
     8
 79
     2
140
3.0
141
0.0
143
0.03937007874016
144
3.0
147
0.625
171
     3
172
     1
178
     4
179
     1
271
     2
272
     2
274
     3
283
     0
284
     8
288
     1
289
     0
340
26
341
52C
342
52C
1001
ACAD_DSTYLE_DIMARC_LENGTH_SYMBOL
1070
   379
1070
     2
1001
ACAD_DSTYLE_DIMEXT_LENGTH
1070
   378
1040
1.25
1001
ACAD_DSTYLE_DIMJOGGED_JOGANGLE_SYMBOL
1070
   384
1040
1.570796326794896
  0
ENDTAB
  0
TABLE
  2
BLOCK_RECORD
  5
1
330
0
100
AcDbSymbolTable
 70
    15
  0
BLOCK_RECORD
  5
36
102
{ACAD_XDICTIONARY
360
C5E
102
}
330
1
100
AcDbSymbolTableRecord
100
AcDbBlockTableRecord
  2
*Model_Space
340
39
  0
BLOCK_RECORD
  5
32
330
1
100
AcDbSymbolTableRecord
100
AcDbBlockTableRecord
  2
*Paper_Space
340
35
  0
BLOCK_RECORD
  5
52C
330
1
100
AcDbSymbolTableRecord
100
AcDbBlockTableRecord
  2
_Open30
340
0
102
{BLKREFS
331
113F
331
1140
331
1148
331
1149
331
1151
331
1152
331
115C
331
115D
331
1165
331
1166
331
116E
331
116F
331
1177
331
1178
331
1182
331
1183
102
}
  0
BLOCK_RECORD
  5
5AC
330
1
100
AcDbSymbolTableRecord
100
AcDbBlockTableRecord
  2
*D1
340
0
  0
BLOCK_RECORD
  5
5B8
330
1
100
AcDbSymbolTableRecord
100
AcDbBlockTableRecord
  2
*D2
340
0
  0
BLOCK_RECORD
  5
5C4
330
1
100
AcDbSymbolTableRecord
100
AcDbBlockTableRecord
  2
*D3
340
0
  0
BLOCK_RECORD
  5
5D2
330
1
100
AcDbSymbolTableRecord
100
AcDbBlockTableRecord
  2
*D4
340
0
  0
BLOCK_RECORD
  5
5DE
330
1
100
AcDbSymbolTableRecord
100
AcDbBlockTableRecord
  2
*D5
340
0
  0
BLOCK_RECORD
  5
5EA
330
1
100
AcDbSymbolTableRecord
100
AcDbBlockTableRecord
  2
*D6
340
0
  0
BLOCK_RECORD
  5
5F6
330
1
100
AcDbSymbolTableRecord
100
AcDbBlockTableRecord
  2
*D7
340
0
  0
BLOCK_RECORD
  5
602
330
1
100
AcDbSymbolTableRecord
100
AcDbBlockTableRecord
  2
*D8
340
0
  0
BLOCK_RECORD
  5
EAC
102
{ACAD_XDICTIONARY
360
ED0
102
}
330
1
100
AcDbSymbolTableRecord
100
AcDbBlockTableRecord
  2
A$C581E19D5
340
0
  0
BLOCK_RECORD
  5
EE4
102
{ACAD_XDICTIONARY
360
F45
102
}
330
1
100
AcDbSymbolTableRecord
100
AcDbBlockTableRecord
  2
A$C69AB00EB
340
0
  0
BLOCK_RECORD
  5
118B
102
{ACAD_XDICTIONARY
360
12D9
102
}
330
1
100
AcDbSymbolTableRecord
100
AcDbBlockTableRecord
  2
A$C2B8E7029
340
0
1001
AcDbDynamicBlockGUID
1000
{7B9BF93F-94C7-4625-8ECB-1F9FA81D1F4B}
  0
ENDTAB
  0
ENDSEC
  0
SECTION
  2
BLOCKS
  0
BLOCK
  5
37
330
36
100
AcDbEntity
  8
0
100
AcDbBlockBegin
  2
*Model_Space
 70
     0
 10
0.0
 20
0.0
 30
0.0
  3
*Model_Space
  1

  0
ENDBLK
  5
38
330
36
100
AcDbEntity
  8
0
100
AcDbBlockEnd
  0
BLOCK
  5
33
330
32
100
AcDbEntity
 67
     1
  8
0
100
AcDbBlockBegin
  2
*Paper_Space
 70
     0
 10
0.0
 20
0.0
 30
0.0
  3
*Paper_Space
  1

  0
ENDBLK
  5
34
330
32
100
AcDbEntity
 67
     1
  8
0
100
AcDbBlockEnd
  0
BLOCK
  5
52D
330
52C
100
AcDbEntity
  8
0
100
AcDbBlockBegin
  2
_Open30
 70
     0
 10
0.0
 20
0.0
 30
0.0
  3
_Open30
  1

  0
LINE
  5
52E
330
52C
100
AcDbEntity
  8
0
  6
ByBlock
 62
     0
370
    -2
100
AcDbLine
 10
-1.0
 20
0.267949
 30
0.0
 11
0.0
 21
0.0
 31
0.0
  0
LINE
  5
52F
330
52C
100
AcDbEntity
  8
0
  6
ByBlock
 62
     0
370
    -2
100
AcDbLine
 10
0.0
 20
0.0
 30
0.0
 11
-1.0
 21
-0.267949
 31
0.0
  0
LINE
  5
530
330
52C
100
AcDbEntity
  8
0
  6
ByBlock
 62
     0
370
    -2
100
AcDbLine
 10
0.0
 20
0.0
 30
0.0
 11
-1.0
 21
0.0
 31
0.0
  0
ENDBLK
  5
531
330
52C
100
AcDbEntity
  8
0
100
AcDbBlockEnd
  0
BLOCK
  5
5B6
330
5AC
100
AcDbEntity
  8
0
100
AcDbBlockBegin
  2
*D1
 70
     1
 10
0.0
 20
0.0
 30
0.0
  3
*D1
  1

  0
LINE
  5
114E
330
5AC
100
AcDbEntity
  8
0
 62
     0
370
    -2
100
AcDbLine
 10
65.09045623999999
 20
47.62974289999998
 30
0.0
 11
65.09045623999999
 21
53.74826721
 31
0.0
  0
LINE
  5
114F
330
5AC
100
AcDbEntity
  8
0
 62
     0
370
    -2
100
AcDbLine
 10
104.09045624
 20
38.12974290000001
 30
0.0
 11
104.09045624
 21
53.74826721
 31
0.0
  0
LINE
  5
1150
330
5AC
100
AcDbEntity
  8
0
 62
     0
370
    -2
100
AcDbLine
 10
67.59045623999999
 20
52.49826721
 30
0.0
 11
101.59045624
 21
52.49826721
 31
0.0
  0
INSERT
  5
1151
330
5AC
100
AcDbEntity
  8
0
 62
     0
370
    -2
100
AcDbBlockReference
  2
_Open30
 10
65.09045623999999
 20
52.49826721
 30
0.0
 41
2.5
 42
2.5
 43
2.5
 50
180.0
  0
INSERT
  5
1152
330
5AC
100
AcDbEntity
  8
0
 62
     0
370
    -2
100
AcDbBlockReference
  2
_Open30
 10
104.09045624
 20
52.49826721
 30
0.0
 41
2.5
 42
2.5
 43
2.5
  0
MTEXT
  5
1153
330
5AC
100
AcDbEntity
  8
0
 62
     4
100
AcDbMText
 10
84.59045623999999
 20
54.37326721
 30
0.0
 40
2.5
 41
0.0
 71
     5
 72
     1
  1
78
 73
     1
 44
1.0
1001
ACAD
1000
MTEXTBEGIN
1070
    73
1070
     1
1070
    44
1040
1.0
1070
    74
1070
     0
1000
MTEXTEND
  0
POINT
  5
1154
330
5AC
100
AcDbEntity
  8
Defpoints
 62
     0
100
AcDbPoint
 10
65.09045623999999
 20
47.37974289999999
 30
0.0
  0
POINT
  5
1155
330
5AC
100
AcDbEntity
  8
Defpoints
 62
     0
100
AcDbPoint
 10
104.09045624
 20
37.87974290000001
 30
0.0
  0
POINT
  5
1156
330
5AC
100
AcDbEntity
  8
Defpoints
 62
     0
100
AcDbPoint
 10
104.09045624
 20
52.49826721
 30
0.0
  0
ENDBLK
  5
5B7
330
5AC
100
AcDbEntity
  8
0
100
AcDbBlockEnd
  0
BLOCK
  5
5C2
330
5B8
100
AcDbEntity
  8
0
100
AcDbBlockBegin
  2
*D2
 70
     1
 10
0.0
 20
0.0
 30
0.0
  3
*D2
  1

  0
LINE
  5
1157
330
5B8
100
AcDbEntity
  8
0
 62
     0
370
    -2
100
AcDbLine
 10
83.34045623999999
 20
30.3797429
 30
0.0
 11
75.63034115999998
 21
30.3797429
 31
0.0
  0
LINE
  5
1158
330
5B8
100
AcDbEntity
  8
0
 62
     0
370
    -2
100
AcDbLine
 10
83.34045623999999
 20
45.3797429
 30
0.0
 11
75.63034116
 21
45.37974290000001
 31
0.0
  0
LINE
  5
1159
330
5B8
100
AcDbEntity
  8
0
 62
     0
370
    -2
100
AcDbLine
 10
76.88034116
 20
47.87974290000001
 30
0.0
 11
76.88034116
 21
50.37974290000001
 31
0.0
  0
LINE
  5
115A
330
5B8
100
AcDbEntity
  8
0
 62
     0
370
    -2
100
AcDbLine
 10
76.88034115999998
 20
27.8797429
 30
0.0
 11
76.88034115999998
 21
17.8797429
 31
0.0
  0
LINE
  5
115B
330
5B8
100
AcDbEntity
  8
0
 62
     0
370
    -2
100
AcDbLine
 10
76.88034116
 20
45.37974290000001
 30
0.0
 11
76.88034115999998
 21
30.3797429
 31
0.0
  0
INSERT
  5
115C
330
5B8
100
AcDbEntity
  8
0
 62
     0
370
    -2
100
AcDbBlockReference
  2
_Open30
 10
76.88034116
 20
45.37974290000001
 30
0.0
 41
2.5
 42
2.5
 43
2.5
 50
270.0
  0
INSERT
  5
115D
330
5B8
100
AcDbEntity
  8
0
 62
     0
370
    -2
100
AcDbBlockReference
  2
_Open30
 10
76.88034115999998
 20
30.3797429
 30
0.0
 41
2.5
 42
2.5
 43
2.5
 50
90.0
  0
MTEXT
  5
115E
330
5B8
100
AcDbEntity
  8
0
 62
     4
100
AcDbMText
 10
75.00534115999998
 20
21.62974290000001
 30
0.0
 40
2.5
 41
0.0
 71
     5
 72
     1
  1
\U+03C630
 11
0.0000000000000001
 21
1.0
 31
0.0
 73
     1
 44
1.0
1001
ACAD
1000
MTEXTBEGIN
1070
    73
1070
     1
1070
    44
1040
1.0
1070
    74
1070
     0
1000
MTEXTEND
  0
POINT
  5
115F
330
5B8
100
AcDbEntity
  8
Defpoints
 62
     0
100
AcDbPoint
 10
83.59045624
 20
30.3797429
 30
0.0
  0
POINT
  5
1160
330
5B8
100
AcDbEntity
  8
Defpoints
 62
     0
100
AcDbPoint
 10
83.59045624
 20
45.3797429
 30
0.0
  0
POINT
  5
1161
330
5B8
100
AcDbEntity
  8
Defpoints
 62
     0
100
AcDbPoint
 10
76.88034116
 20
45.37974290000001
 30
0.0
  0
ENDBLK
  5
5C3
330
5B8
100
AcDbEntity
  8
0
100
AcDbBlockEnd
  0
BLOCK
  5
5D0
330
5C4
100
AcDbEntity
  8
0
100
AcDbBlockBegin
  2
*D3
 70
     1
 10
0.0
 20
0.0
 30
0.0
  3
*D3
  1

  0
LINE
  5
117D
330
5C4
100
AcDbEntity
  8
0
 62
     0
370
    -2
100
AcDbLine
 10
-126.77960013
 20
-4.769468159999997
 30
0.0
 11
-126.77960013
 21
-11.02377905
 31
0.0
  0
LINE
  5
117E
330
5C4
100
AcDbEntity
  8
0
 62
     0
370
    -2
100
AcDbLine
 10
-125.77960013
 20
-4.769468159999997
 30
0.0
 11
-125.77960013
 21
-11.02377905
 31
0.0
  0
LINE
  5
117F
330
5C4
100
AcDbEntity
  8
0
 62
     0
370
    -2
100
AcDbLine
 10
-129.27960013
 20
-9.773779049999999
 30
0.0
 11
-131.77960013
 21
-9.773779049999999
 31
0.0
  0
LINE
  5
1180
330
5C4
100
AcDbEntity
  8
0
 62
     0
370
    -2
100
AcDbLine
 10
-123.27960013
 20
-9.773779049999999
 30
0.0
 11
-117.8629334633333
 21
-9.773779049999999
 31
0.0
  0
LINE
  5
1181
330
5C4
100
AcDbEntity
  8
0
 62
     0
370
    -2
100
AcDbLine
 10
-126.77960013
 20
-9.773779049999999
 30
0.0
 11
-125.77960013
 21
-9.773779049999999
 31
0.0
  0
INSERT
  5
1182
330
5C4
100
AcDbEntity
  8
0
 62
     0
370
    -2
100
AcDbBlockReference
  2
_Open30
 10
-126.77960013
 20
-9.773779049999999
 30
0.0
 41
2.5
 42
2.5
 43
2.5
  0
INSERT
  5
1183
330
5C4
100
AcDbEntity
  8
0
 62
     0
370
    -2
100
AcDbBlockReference
  2
_Open30
 10
-125.77960013
 20
-9.773779049999999
 30
0.0
 41
2.5
 42
2.5
 43
2.5
 50
180.0
  0
MTEXT
  5
1184
330
5C4
100
AcDbEntity
  8
0
 62
     4
100
AcDbMText
 10
-119.3212667966667
 20
-7.898779049999999
 30
0.0
 40
2.5
 41
0.0
 71
     5
 72
     1
  1
2
 73
     1
 44
1.0
1001
ACAD
1000
MTEXTBEGIN
1070
    73
1070
     1
1070
    44
1040
1.0
1070
    74
1070
     0
1000
MTEXTEND
  0
POINT
  5
1185
330
5C4
100
AcDbEntity
  8
Defpoints
 62
     0
100
AcDbPoint
 10
-126.77960013
 20
-4.519468159999997
 30
0.0
  0
POINT
  5
1186
330
5C4
100
AcDbEntity
  8
Defpoints
 62
     0
100
AcDbPoint
 10
-125.77960013
 20
-4.519468159999997
 30
0.0
  0
POINT
  5
1187
330
5C4
100
AcDbEntity
  8
Defpoints
 62
     0
100
AcDbPoint
 10
-125.77960013
 20
-9.773779049999999
 30
0.0
  0
ENDBLK
  5
5D1
330
5C4
100
AcDbEntity
  8
0
100
AcDbBlockEnd
  0
BLOCK
  5
5DC
330
5D2
100
AcDbEntity
  8
0
100
AcDbBlockBegin
  2
*D4
 70
     1
 10
0.0
 20
0.0
 30
0.0
  3
*D4
  1

  0
LINE
  5
1174
330
5D2
100
AcDbEntity
  8
0
 62
     0
370
    -2
100
AcDbLine
 10
-126.52960013
 20
9.35213274
 30
0.0
 11
-165.60010547
 21
9.35213274000001
 31
0.0
  0
LINE
  5
1175
330
5D2
100
AcDbEntity
  8
0
 62
     0
370
    -2
100
AcDbLine
 10
-126.52960013
 20
66.40735306999999
 30
0.0
 11
-165.60010547
 21
66.40735306999999
 31
0.0
  0
LINE
  5
1176
330
5D2
100
AcDbEntity
  8
0
 62
     0
370
    -2
100
AcDbLine
 10
-164.35010547
 20
11.85213274000001
 30
0.0
 11
-164.35010547
 21
63.90735306999999
 31
0.0
  0
INSERT
  5
1177
330
5D2
100
AcDbEntity
  8
0
 62
     0
370
    -2
100
AcDbBlockReference
  2
_Open30
 10
-164.35010547
 20
9.35213274000001
 30
0.0
 41
2.5
 42
2.5
 43
2.5
 50
270.0
  0
INSERT
  5
1178
330
5D2
100
AcDbEntity
  8
0
 62
     0
370
    -2
100
AcDbBlockReference
  2
_Open30
 10
-164.35010547
 20
66.40735306999999
 30
0.0
 41
2.5
 42
2.5
 43
2.5
 50
90.0
  0
MTEXT
  5
1179
330
5D2
100
AcDbEntity
  8
0
 62
     4
100
AcDbMText
 10
-166.22510547
 20
37.87974290499998
 30
0.0
 40
2.5
 41
0.0
 71
     5
 72
     1
  1
\U+03C6114
 11
0.0000000000000001
 21
1.0
 31
0.0
 73
     1
 44
1.0
1001
ACAD
1000
MTEXTBEGIN
1070
    73
1070
     1
1070
    44
1040
1.0
1070
    74
1070
     0
1000
MTEXTEND
  0
POINT
  5
117A
330
5D2
100
AcDbEntity
  8
Defpoints
 62
     0
100
AcDbPoint
 10
-126.27960013
 20
9.35213274
 30
0.0
  0
POINT
  5
117B
330
5D2
100
AcDbEntity
  8
Defpoints
 62
     0
100
AcDbPoint
 10
-126.27960013
 20
66.40735306999999
 30
0.0
  0
POINT
  5
117C
330
5D2
100
AcDbEntity
  8
Defpoints
 62
     0
100
AcDbPoint
 10
-164.35010547
 20
66.40735306999999
 30
0.0
  0
ENDBLK
  5
5DD
330
5D2
100
AcDbEntity
  8
0
100
AcDbBlockEnd
  0
BLOCK
  5
5E8
330
5DE
100
AcDbEntity
  8
0
100
AcDbBlockBegin
  2
*D5
 70
     1
 10
0.0
 20
0.0
 30
0.0
  3
*D5
  1

  0
LINE
  5
113C
330
5DE
100
AcDbEntity
  8
0
 62
     0
370
    -2
100
AcDbLine
 10
-60.20194448
 20
58.43435683
 30
0.0
 11
-60.20194448
 21
91.11005457
 31
0.0
  0
LINE
  5
113D
330
5DE
100
AcDbEntity
  8
0
 62
     0
370
    -2
100
AcDbLine
 10
32.10825563
 20
54.21292418
 30
0.0
 11
32.10825563
 21
91.11005457
 31
0.0
  0
LINE
  5
113E
330
5DE
100
AcDbEntity
  8
0
 62
     0
370
    -2
100
AcDbLine
 10
-57.70194448
 20
89.86005457
 30
0.0
 11
29.60825563
 21
89.86005457
 31
0.0
  0
INSERT
  5
113F
330
5DE
100
AcDbEntity
  8
0
 62
     0
370
    -2
100
AcDbBlockReference
  2
_Open30
 10
-60.20194448
 20
89.86005457
 30
0.0
 41
2.5
 42
2.5
 43
2.5
 50
180.0
  0
INSERT
  5
1140
330
5DE
100
AcDbEntity
  8
0
 62
     0
370
    -2
100
AcDbBlockReference
  2
_Open30
 10
32.10825563
 20
89.86005457
 30
0.0
 41
2.5
 42
2.5
 43
2.5
  0
MTEXT
  5
1141
330
5DE
100
AcDbEntity
  8
0
 62
     4
100
AcDbMText
 10
-14.046844425
 20
91.73505457
 30
0.0
 40
2.5
 41
0.0
 71
     5
 72
     1
  1
185
 73
     1
 44
1.0
1001
ACAD
1000
MTEXTBEGIN
1070
    73
1070
     1
1070
    44
1040
1.0
1070
    74
1070
     0
1000
MTEXTEND
  0
POINT
  5
1142
330
5DE
100
AcDbEntity
  8
Defpoints
 62
     0
100
AcDbPoint
 10
-60.20194448
 20
58.18435683
 30
0.0
  0
POINT
  5
1143
330
5DE
100
AcDbEntity
  8
Defpoints
 62
     0
100
AcDbPoint
 10
32.10825563
 20
53.96292418
 30
0.0
  0
POINT
  5
1144
330
5DE
100
AcDbEntity
  8
Defpoints
 62
     0
100
AcDbPoint
 10
32.10825563
 20
89.86005457
 30
0.0
  0
ENDBLK
  5
5E9
330
5DE
100
AcDbEntity
  8
0
100
AcDbBlockEnd
  0
BLOCK
  5
5F4
330
5EA
100
AcDbEntity
  8
0
100
AcDbBlockBegin
  2
*D6
 70
     1
 10
0.0
 20
0.0
 30
0.0
  3
*D6
  1

  0
LINE
  5
1145
330
5EA
100
AcDbEntity
  8
0
 62
     0
370
    -2
100
AcDbLine
 10
32.10825563
 20
52.52279092999999
 30
0.0
 11
32.10825563
 21
91.11005457
 31
0.0
  0
LINE
  5
1146
330
5EA
100
AcDbEntity
  8
0
 62
     0
370
    -2
100
AcDbLine
 10
115.09045624
 20
40.66552832999999
 30
0.0
 11
115.09045624
 21
91.11005457
 31
0.0
  0
LINE
  5
1147
330
5EA
100
AcDbEntity
  8
0
 62
     0
370
    -2
100
AcDbLine
 10
34.60825563
 20
89.86005457
 30
0.0
 11
112.59045624
 21
89.86005457
 31
0.0
  0
INSERT
  5
1148
330
5EA
100
AcDbEntity
  8
0
 62
     0
370
    -2
100
AcDbBlockReference
  2
_Open30
 10
32.10825563
 20
89.86005457
 30
0.0
 41
2.5
 42
2.5
 43
2.5
 50
180.0
  0
INSERT
  5
1149
330
5EA
100
AcDbEntity
  8
0
 62
     0
370
    -2
100
AcDbBlockReference
  2
_Open30
 10
115.09045624
 20
89.86005457
 30
0.0
 41
2.5
 42
2.5
 43
2.5
  0
MTEXT
  5
114A
330
5EA
100
AcDbEntity
  8
0
 62
     4
100
AcDbMText
 10
73.59935593500001
 20
91.73505457
 30
0.0
 40
2.5
 41
0.0
 71
     5
 72
     1
  1
165
 73
     1
 44
1.0
1001
ACAD
1000
MTEXTBEGIN
1070
    73
1070
     1
1070
    44
1040
1.0
1070
    74
1070
     0
1000
MTEXTEND
  0
POINT
  5
114B
330
5EA
100
AcDbEntity
  8
Defpoints
 62
     0
100
AcDbPoint
 10
32.10825563
 20
52.27279092999999
 30
0.0
  0
POINT
  5
114C
330
5EA
100
AcDbEntity
  8
Defpoints
 62
     0
100
AcDbPoint
 10
115.09045624
 20
40.41552832999999
 30
0.0
  0
POINT
  5
114D
330
5EA
100
AcDbEntity
  8
Defpoints
 62
     0
100
AcDbPoint
 10
115.09045624
 20
89.86005457
 30
0.0
  0
ENDBLK
  5
5F5
330
5EA
100
AcDbEntity
  8
0
100
AcDbBlockEnd
  0
BLOCK
  5
600
330
5F6
100
AcDbEntity
  8
0
100
AcDbBlockBegin
  2
*D7
 70
     1
 10
0.0
 20
0.0
 30
0.0
  3
*D7
  1

  0
LINE
  5
1162
330
5F6
100
AcDbEntity
  8
0
 62
     0
370
    -2
100
AcDbLine
 10
-50.50327966999999
 20
-4.519468159999997
 30
0.0
 11
-71.15757099999999
 21
-4.519468159999991
 31
0.0
  0
LINE
  5
1163
330
5F6
100
AcDbEntity
  8
0
 62
     0
370
    -2
100
AcDbLine
 10
-39.95761525000001
 20
14.53387523
 30
0.0
 11
-71.15757099999999
 21
14.53387523000001
 31
0.0
  0
LINE
  5
1164
330
5F6
100
AcDbEntity
  8
0
 62
     0
370
    -2
100
AcDbLine
 10
-69.90757099999999
 20
-2.019468159999992
 30
0.0
 11
-69.90757099999999
 21
12.03387523000001
 31
0.0
  0
INSERT
  5
1165
330
5F6
100
AcDbEntity
  8
0
 62
     0
370
    -2
100
AcDbBlockReference
  2
_Open30
 10
-69.90757099999999
 20
-4.519468159999992
 30
0.0
 41
2.5
 42
2.5
 43
2.5
 50
270.0
  0
INSERT
  5
1166
330
5F6
100
AcDbEntity
  8
0
 62
     0
370
    -2
100
AcDbBlockReference
  2
_Open30
 10
-69.90757099999999
 20
14.53387523000001
 30
0.0
 41
2.5
 42
2.5
 43
2.5
 50
90.0
  0
MTEXT
  5
1167
330
5F6
100
AcDbEntity
  8
0
 62
     4
100
AcDbMText
 10
-71.78257099999999
 20
5.007203534999996
 30
0.0
 40
2.5
 41
0.0
 71
     5
 72
     1
  1
38
 11
0.0000000000000001
 21
1.0
 31
0.0
 73
     1
 44
1.0
1001
ACAD
1000
MTEXTBEGIN
1070
    73
1070
     1
1070
    44
1040
1.0
1070
    74
1070
     0
1000
MTEXTEND
  0
POINT
  5
1168
330
5F6
100
AcDbEntity
  8
Defpoints
 62
     0
100
AcDbPoint
 10
-50.25327966999999
 20
-4.519468159999997
 30
0.0
  0
POINT
  5
1169
330
5F6
100
AcDbEntity
  8
Defpoints
 62
     0
100
AcDbPoint
 10
-39.70761525
 20
14.53387523
 30
0.0
  0
POINT
  5
116A
330
5F6
100
AcDbEntity
  8
Defpoints
 62
     0
100
AcDbPoint
 10
-69.90757099999999
 20
14.53387523000001
 30
0.0
  0
ENDBLK
  5
601
330
5F6
100
AcDbEntity
  8
0
100
AcDbBlockEnd
  0
BLOCK
  5
60C
330
602
100
AcDbEntity
  8
0
100
AcDbBlockBegin
  2
*D8
 70
     1
 10
0.0
 20
0.0
 30
0.0
  3
*D8
  1

  0
LINE
  5
116B
330
602
100
AcDbEntity
  8
0
 62
     0
370
    -2
100
AcDbLine
 10
-39.95761525000001
 20
14.53387523
 30
0.0
 11
-71.157571
 21
14.53387523000001
 31
0.0
  0
LINE
  5
116C
330
602
100
AcDbEntity
  8
0
 62
     0
370
    -2
100
AcDbLine
 10
-40.71229361999999
 20
61.18435683
 30
0.0
 11
-71.15757099999999
 21
61.18435683000001
 31
0.0
  0
LINE
  5
116D
330
602
100
AcDbEntity
  8
0
 62
     0
370
    -2
100
AcDbLine
 10
-69.907571
 20
17.03387523000001
 30
0.0
 11
-69.90757099999999
 21
58.68435683000001
 31
0.0
  0
INSERT
  5
116E
330
602
100
AcDbEntity
  8
0
 62
     0
370
    -2
100
AcDbBlockReference
  2
_Open30
 10
-69.907571
 20
14.53387523000001
 30
0.0
 41
2.5
 42
2.5
 43
2.5
 50
270.0
  0
INSERT
  5
116F
330
602
100
AcDbEntity
  8
0
 62
     0
370
    -2
100
AcDbBlockReference
  2
_Open30
 10
-69.90757099999999
 20
61.18435683000001
 30
0.0
 41
2.5
 42
2.5
 43
2.5
 50
90.0
  0
MTEXT
  5
1170
330
602
100
AcDbEntity
  8
0
 62
     4
100
AcDbMText
 10
-71.782571
 20
37.85911603000001
 30
0.0
 40
2.5
 41
0.0
 71
     5
 72
     1
  1
\U+03C694
 11
0.0000000000000001
 21
1.0
 31
0.0
 73
     1
 44
1.0
1001
ACAD
1000
MTEXTBEGIN
1070
    73
1070
     1
1070
    44
1040
1.0
1070
    74
1070
     0
1000
MTEXTEND
  0
POINT
  5
1171
330
602
100
AcDbEntity
  8
Defpoints
 62
     0
100
AcDbPoint
 10
-39.70761525
 20
14.53387523
 30
0.0
  0
POINT
  5
1172
330
602
100
AcDbEntity
  8
Defpoints
 62
     0
100
AcDbPoint
 10
-40.46229362
 20
61.18435683
 30
0.0
  0
POINT
  5
1173
330
602
100
AcDbEntity
  8
Defpoints
 62
     0
100
AcDbPoint
 10
-69.90757099999999
 20
61.18435683000001
 30
0.0
  0
ENDBLK
  5
60D
330
602
100
AcDbEntity
  8
0
100
AcDbBlockEnd
  0
BLOCK
  5
ED2
330
EAC
100
AcDbEntity
  8
0
 62
     7
100
AcDbBlockBegin
  2
A$C581E19D5
 70
     0
 10
0.0
 20
0.0
 30
0.0
  3
A$C581E19D5
  1

  0
TEXT
  5
EAD
330
EAC
100
AcDbEntity
  8
0
 62
     7
100
AcDbText
 10
11.49999912327384
 20
10.49999957986256
 30
0.0
 40
2.5
  1
`11.11.18
  7
高2.5
100
AcDbText
  0
TEXT
  5
EAE
330
EAC
100
AcDbEntity
  8
0
 62
     7
100
AcDbText
 10
73.49999912327374
 20
10.49999957986256
 30
0.0
 40
2.5
  1
牧田
  7
高2.5
100
AcDbText
  0
TEXT
  5
EAF
330
EAC
100
AcDbEntity
  8
0
 62
     7
100
AcDbText
 10
29.49999912327385
 20
10.49999957986256
 30
0.0
 40
2.5
  1
名称変更(FLR-27追加)
  7
高2.5
100
AcDbText
  0
TEXT
  5
EB0
330
EAC
100
AcDbEntity
  8
0
 62
     3
100
AcDbText
 10
73.49999912327382
 20
15.49999957986256
 30
0.0
 40
3.2
  1
担　当
  7
高3.2
100
AcDbText
  0
TEXT
  5
EB1
330
EAC
100
AcDbEntity
  8
0
 62
     3
100
AcDbText
 10
29.49999912327385
 20
15.49999957986256
 30
0.0
 40
3.2
  1
変更・追記内容
  7
高3.2
100
AcDbText
  0
TEXT
  5
EB2
330
EAC
100
AcDbEntity
  8
0
 62
     3
100
AcDbText
 10
4.613514123613028
 20
10.82946106995426
 30
0.0
 40
2.0
  1
1
  7
高2
100
AcDbText
  0
TEXT
  5
EB3
330
EAC
100
AcDbEntity
  8
0
 62
     3
100
AcDbText
 10
4.305002646855726
 20
5.659644357681357
 30
0.0
 40
2.0
  1
2
  7
高2
100
AcDbText
  0
TEXT
  5
EB4
330
EAC
100
AcDbEntity
  8
0
 62
     3
100
AcDbText
 10
11.49999912327384
 20
15.49999957986256
 30
0.0
 40
3.2
  1
日　付
  7
高3.2
100
AcDbText
  0
TEXT
  5
EB5
330
EAC
100
AcDbEntity
  8
0
 62
     3
100
AcDbText
 10
11.49999912327384
 20
20.49999957986256
 30
0.0
 40
3.2
  1
図　　　　面　　　　略　　　　歴
  7
高3.2
100
AcDbText
  0
TEXT
  5
EB6
330
EAC
100
AcDbEntity
  8
0
 62
     3
100
AcDbText
 10
1.499999123273838
 20
15.49999957986256
 30
0.0
 40
3.2
  1
記号
  7
高3.2
100
AcDbText
  0
LINE
  5
EB7
330
EAC
100
AcDbEntity
  8
0
 62
     7
100
AcDbLine
 10
4.999999123273838
 20
8.790895579862647
 30
0.0
 11
3.099999123273845
 21
5.499999579862558
 31
0.0
  0
LINE
  5
EB8
330
EAC
100
AcDbEntity
  8
0
 62
     7
100
AcDbLine
 10
4.999999123273838
 20
8.790895579862647
 30
0.0
 11
6.89999912327373
 21
5.499999579862558
 31
0.0
  0
LINE
  5
EB9
330
EAC
100
AcDbEntity
  8
0
 62
     7
100
AcDbLine
 10
3.099999123273845
 20
5.499999579862558
 30
0.0
 11
6.89999912327373
 21
5.499999579862558
 31
0.0
  0
LINE
  5
EBA
330
EAC
100
AcDbEntity
  8
0
 62
     7
100
AcDbLine
 10
4.999999123273838
 20
13.79089657986266
 30
0.0
 11
3.099999123273845
 21
10.49999957986256
 31
0.0
  0
LINE
  5
EBB
330
EAC
100
AcDbEntity
  8
0
 62
     7
100
AcDbLine
 10
4.999999123273838
 20
13.79089657986266
 30
0.0
 11
6.89999912327373
 21
10.49999957986256
 31
0.0
  0
LINE
  5
EBC
330
EAC
100
AcDbEntity
  8
0
 62
     7
100
AcDbLine
 10
3.099999123273845
 20
10.49999957986256
 30
0.0
 11
6.89999912327373
 21
10.49999957986256
 31
0.0
  0
LINE
  5
EBD
330
EAC
100
AcDbEntity
  8
0
 62
     3
100
AcDbLine
 10
-0.0000008767261619
 20
19.99999957986256
 30
0.0
 11
85.99999912327385
 21
19.99999957986256
 31
0.0
  0
LINE
  5
EBE
330
EAC
100
AcDbEntity
  8
0
 62
     3
100
AcDbLine
 10
-0.0000008767261619
 20
14.99999957986256
 30
0.0
 11
85.99999912327385
 21
14.99999957986256
 31
0.0
  0
LINE
  5
EBF
330
EAC
100
AcDbEntity
  8
0
 62
     7
100
AcDbLine
 10
-0.0000008767261619
 20
9.99999957986256
 30
0.0
 11
85.99999912327385
 21
9.99999957986256
 31
0.0
  0
LINE
  5
EC0
330
EAC
100
AcDbEntity
  8
0
 62
     7
100
AcDbLine
 10
-0.0000008767261619
 20
4.999999579862558
 30
0.0
 11
85.99999912327385
 21
4.999999579862558
 31
0.0
  0
LINE
  5
EC1
330
EAC
100
AcDbEntity
  8
0
 62
     7
100
AcDbLine
 10
71.99999912327356
 20
-0.0000004201374395
 30
0.0
 11
71.99999912327384
 21
19.99999957986256
 31
0.0
  0
LINE
  5
EC2
330
EAC
100
AcDbEntity
  8
0
 62
     7
100
AcDbLine
 10
27.99999912327385
 20
-0.0000004201374395
 30
0.0
 11
27.99999912327385
 21
19.99999957986256
 31
0.0
  0
LINE
  5
EC3
330
EAC
100
AcDbEntity
  8
0
 62
     7
100
AcDbLine
 10
9.999999123273823
 20
-0.0000004201374395
 30
0.0
 11
9.999999123273838
 21
19.99999957986256
 31
0.0
  0
LINE
  5
EC4
330
EAC
100
AcDbEntity
  8
0
 62
     3
100
AcDbLine
 10
-0.0000008767261477
 20
-0.0000004201374395
 30
0.0
 11
-0.0000008767261619
 21
24.99999957986256
 31
0.0
  0
TEXT
  5
EC5
330
EAC
100
AcDbEntity
  8
0
 62
     7
100
AcDbText
 10
11.49999912327384
 20
5.499999579862558
 30
0.0
 40
2.5
  1
`13.12.25
  7
高2.5
100
AcDbText
  0
TEXT
  5
EC6
330
EAC
100
AcDbEntity
  8
0
 62
     7
100
AcDbText
 10
73.49999912327374
 20
5.499999579862558
 30
0.0
 40
2.5
  1
今村
  7
高2.5
100
AcDbText
  0
TEXT
  5
EC7
330
EAC
100
AcDbEntity
  8
0
 62
     7
100
AcDbText
 10
29.49999912327385
 20
5.499999579862558
 30
0.0
 40
2.5
  1
球変更に伴いスプリング廃止
  7
高2.5
100
AcDbText
  0
TEXT
  5
EC8
330
EAC
100
AcDbEntity
  8
0
 62
     3
100
AcDbText
 10
4.305002646855726
 20
0.6596443576813586
 30
0.0
 40
2.0
  1
2
  7
高2
100
AcDbText
  0
LINE
  5
EC9
330
EAC
100
AcDbEntity
  8
0
 62
     7
100
AcDbLine
 10
4.999999123273838
 20
3.790895579862647
 30
0.0
 11
3.099999123273845
 21
0.4999995798625605
 31
0.0
  0
LINE
  5
ECA
330
EAC
100
AcDbEntity
  8
0
 62
     7
100
AcDbLine
 10
4.999999123273838
 20
3.790895579862647
 30
0.0
 11
6.89999912327373
 21
0.4999995798625605
 31
0.0
  0
LINE
  5
ECB
330
EAC
100
AcDbEntity
  8
0
 62
     7
100
AcDbLine
 10
3.099999123273845
 20
0.4999995798625605
 30
0.0
 11
6.89999912327373
 21
0.4999995798625605
 31
0.0
  0
LINE
  5
ECC
330
EAC
100
AcDbEntity
  8
0
 62
     3
100
AcDbLine
 10
-0.0000008767261619
 20
-0.0000004201374395
 30
0.0
 11
85.99999912327385
 21
-0.0000004201374395
 31
0.0
  0
TEXT
  5
ECD
330
EAC
100
AcDbEntity
  8
0
 62
     7
100
AcDbText
 10
11.49999912327384
 20
0.4999995798625605
 30
0.0
 40
2.5
  1
`14.04.17
  7
高2.5
100
AcDbText
  0
TEXT
  5
ECE
330
EAC
100
AcDbEntity
  8
0
 62
     7
100
AcDbText
 10
73.49999912327374
 20
0.4999995798625605
 30
0.0
 40
2.5
  1
今村
  7
高2.5
100
AcDbText
  0
TEXT
  5
ECF
330
EAC
100
AcDbEntity
  8
0
 62
     7
100
AcDbText
 10
29.49999912327385
 20
0.4999995798625605
 30
0.0
 40
2.5
  1
球変更に伴い仕様変更
  7
高2.5
100
AcDbText
  0
ENDBLK
  5
ED3
330
EAC
100
AcDbEntity
  8
0
 62
     7
100
AcDbBlockEnd
  0
BLOCK
  5
F47
330
EE4
100
AcDbEntity
  8
0
 62
     7
100
AcDbBlockBegin
  2
A$C69AB00EB
 70
     0
 10
0.0
 20
0.0
 30
0.0
  3
A$C69AB00EB
  1

  0
LINE
  5
EE5
330
EE4
100
AcDbEntity
  8
0
  6
CENTER
 62
     2
100
AcDbLine
 10
-79.38667961774945
 20
0.0
 30
0.0
 11
0.9450115049922873
 21
0.0
 31
0.0
  0
LINE
  5
EE6
330
EE4
100
AcDbEntity
  8
0
 62
     2
100
AcDbLine
 10
-35.31711514977068
 20
-9.800000000000068
 30
0.0
 11
-31.50000000000001
 21
-9.800000000000068
 31
0.0
  0
ARC
  5
EE7
330
EE4
100
AcDbEntity
  8
0
  6
Continuous
 62
     2
100
AcDbCircle
 10
-35.31711514977068
 20
-12.30000000000007
 30
0.0
 40
2.5
100
AcDbArc
 50
90.0
 51
166.504266719206
  0
LINE
  5
EE8
330
EE4
100
AcDbEntity
  8
0
 62
     2
100
AcDbLine
 10
-34.80291674448338
 20
-4.800000000000068
 30
0.0
 11
-31.50000000000001
 21
-4.800000000000068
 31
0.0
  0
ARC
  5
EE9
330
EE4
100
AcDbEntity
  8
0
  6
Continuous
 62
     2
100
AcDbCircle
 10
-34.80291674448338
 20
-12.30000000000007
 30
0.0
 40
7.5
100
AcDbArc
 50
90.0
 51
127.8543499325959
  0
LINE
  5
EEA
330
EE4
100
AcDbEntity
  8
0
 62
     2
100
AcDbLine
 10
-35.31711514977068
 20
9.800000000000011
 30
0.0
 11
-31.50000000000001
 21
9.800000000000011
 31
0.0
  0
ARC
  5
EEB
330
EE4
100
AcDbEntity
  8
0
  6
Continuous
 62
     2
100
AcDbCircle
 10
-35.31711514977068
 20
12.29999999999989
 30
0.0
 40
2.5
100
AcDbArc
 50
193.4957332807939
 51
270.0
  0
LINE
  5
EEC
330
EE4
100
AcDbEntity
  8
0
 62
     2
100
AcDbLine
 10
-34.80291674448338
 20
4.800000000000012
 30
0.0
 11
-31.50000000000001
 21
4.800000000000012
 31
0.0
  0
ARC
  5
EED
330
EE4
100
AcDbEntity
  8
0
  6
Continuous
 62
     2
100
AcDbCircle
 10
-34.80291674448338
 20
12.29999999999989
 30
0.0
 40
7.5
100
AcDbArc
 50
193.4957332807939
 51
270.0
  0
LINE
  5
EEE
330
EE4
100
AcDbEntity
  8
0
 62
     2
100
AcDbLine
 10
-14.00000000000001
 20
-6.949999999999986
 30
0.0
 11
-12.50000000000003
 21
-6.949999999999986
 31
0.0
  0
LINE
  5
EEF
330
EE4
100
AcDbEntity
  8
0
 62
     2
100
AcDbLine
 10
-14.00000000000001
 20
6.949999999999931
 30
0.0
 11
-12.50000000000003
 21
6.949999999999931
 31
0.0
  0
LINE
  5
EF0
330
EE4
100
AcDbEntity
  8
0
 62
     2
100
AcDbLine
 10
-31.50000000000001
 20
-11.85000000000008
 30
0.0
 11
-29.00000000000001
 21
-11.85000000000008
 31
0.0
  0
LINE
  5
EF1
330
EE4
100
AcDbEntity
  8
0
 62
     2
100
AcDbLine
 10
-31.50000000000001
 20
11.85000000000002
 30
0.0
 11
-29.00000000000001
 21
11.85000000000002
 31
0.0
  0
LINE
  5
EF2
330
EE4
100
AcDbEntity
  8
0
 62
     2
100
AcDbLine
 10
-29.00000000000001
 20
-12.5
 30
0.0
 11
-20.00000000000001
 21
-12.5
 31
0.0
  0
LINE
  5
EF3
330
EE4
100
AcDbEntity
  8
0
 62
     2
100
AcDbLine
 10
-29.00000000000001
 20
12.5
 30
0.0
 11
-20.00000000000001
 21
12.5
 31
0.0
  0
LINE
  5
EF4
330
EE4
100
AcDbEntity
  8
0
  6
Continuous
 62
     2
100
AcDbLine
 10
-9.999999999999976
 20
-6.25
 30
0.0
 11
-9.999999999999976
 21
6.250000000013186
 31
0.0
  0
LINE
  5
EF5
330
EE4
100
AcDbEntity
  8
0
 62
     2
100
AcDbLine
 10
-0.6038088011282455
 20
2.75
 30
0.0
 11
-2.499999999999976
 21
3.749999999999943
 31
0.0
  0
ARC
  5
EF6
330
EE4
100
AcDbEntity
  8
0
 62
     2
100
AcDbCircle
 10
-4.246485633180433
 20
5.845149405543452
 30
0.0
 40
0.6548505944565926
100
AcDbArc
 50
0.0
 51
187.4627940000037
  0
ARC
  5
EF7
330
EE4
100
AcDbEntity
  8
0
 62
     2
100
AcDbCircle
 10
-6.865888677984337
 20
5.845149405543452
 30
0.0
 40
0.6548505944565926
100
AcDbArc
 50
0.0
 51
187.4627940000037
  0
ARC
  5
EF8
330
EE4
100
AcDbEntity
  8
0
 62
     2
100
AcDbCircle
 10
-5.556187489071168
 20
6.82742529722833
 30
0.0
 40
0.982275891684889
100
AcDbArc
 50
216.8698979999915
 51
323.1301020000085
  0
ARC
  5
EF9
330
EE4
100
AcDbEntity
  8
0
 62
     2
100
AcDbCircle
 10
-8.175589866897546
 20
6.82742529722833
 30
0.0
 40
0.982275891684889
100
AcDbArc
 50
216.8698979999915
 51
323.1301020000085
  0
ARC
  5
EFA
330
EE4
100
AcDbEntity
  8
0
 62
     2
100
AcDbCircle
 10
-9.485291055810739
 20
5.845149405543452
 30
0.0
 40
0.6548505944565926
100
AcDbArc
 50
0.0
 51
141.8127481026578
  0
LINE
  5
EFB
330
EE4
100
AcDbEntity
  8
0
 62
     2
100
AcDbLine
 10
-0.6038088011282455
 20
-2.750000000000055
 30
0.0
 11
-2.499999999999976
 21
-3.75
 31
0.0
  0
ARC
  5
EFC
330
EE4
100
AcDbEntity
  8
0
 62
     2
100
AcDbCircle
 10
-6.211038083527789
 20
-5.845148738565741
 30
0.0
 40
0.6548505944565926
100
AcDbArc
 50
180.0
 51
7.462794000003704
  0
ARC
  5
EFD
330
EE4
100
AcDbEntity
  8
0
 62
     2
100
AcDbCircle
 10
-3.591635038723828
 20
-5.845148738565741
 30
0.0
 40
0.6548505944565926
100
AcDbArc
 50
180.0
 51
20.85648000000427
  0
ARC
  5
EFE
330
EE4
100
AcDbEntity
  8
0
 62
     2
100
AcDbCircle
 10
-4.901336227637036
 20
-6.827425297228217
 30
0.0
 40
0.982275891684889
100
AcDbArc
 50
36.86989799999151
 51
143.1301020000085
  0
ARC
  5
EFF
330
EE4
100
AcDbEntity
  8
0
 62
     2
100
AcDbCircle
 10
-7.520739272440928
 20
-6.827425297228217
 30
0.0
 40
0.982275891684889
100
AcDbArc
 50
36.86989799999151
 51
143.1301020000085
  0
ARC
  5
F00
330
EE4
100
AcDbEntity
  8
0
 62
     2
100
AcDbCircle
 10
-8.830440461354077
 20
-5.845148738565741
 30
0.0
 40
0.6548505944565926
100
AcDbArc
 50
180.0
 51
7.462794000003704
  0
LINE
  5
F01
330
EE4
100
AcDbEntity
  8
0
 62
     2
100
AcDbLine
 10
-2.499999999999976
 20
4.345149405543452
 30
0.0
 11
-2.499999999999976
 21
-4.345148738565626
 31
0.0
  0
ARC
  5
F02
330
EE4
100
AcDbEntity
  8
0
 62
     2
100
AcDbCircle
 10
-6.564234450961798
 20
0.0
 30
0.0
 40
6.564234450961798
100
AcDbArc
 50
335.2325125815905
 51
24.7674874184095
  0
LINE
  5
F03
330
EE4
100
AcDbEntity
  8
0
 62
     2
100
AcDbLine
 10
-0.6038088011283023
 20
2.75
 30
0.0
 11
-0.6038088011282455
 21
-2.750000000000055
 31
0.0
  0
LINE
  5
F04
330
EE4
100
AcDbEntity
  8
0
 62
     2
100
AcDbLine
 10
-2.955459149552943
 20
-6.00042111938319
 30
0.0
 11
-3.591635038723828
 21
5.845149405543452
 31
0.0
  0
LINE
  5
F05
330
EE4
100
AcDbEntity
  8
0
 62
     2
100
AcDbLine
 10
-4.246485633180433
 20
-5.845148738565741
 30
0.0
 11
-4.901336227637036
 21
5.845149405543452
 31
0.0
  0
LINE
  5
F06
330
EE4
100
AcDbEntity
  8
0
 62
     2
100
AcDbLine
 10
-5.556187489071168
 20
-5.845148738565741
 30
0.0
 11
-6.211038083527789
 21
5.845149405543452
 31
0.0
  0
LINE
  5
F07
330
EE4
100
AcDbEntity
  8
0
 62
     2
100
AcDbLine
 10
-6.865888677984337
 20
-5.845148738565741
 30
0.0
 11
-7.520739272440928
 21
5.845149405543452
 31
0.0
  0
LINE
  5
F08
330
EE4
100
AcDbEntity
  8
0
 62
     2
100
AcDbLine
 10
-8.175589866897546
 20
-5.845148738565741
 30
0.0
 11
-8.830440461354077
 21
5.845149405543452
 31
0.0
  0
LINE
  5
F09
330
EE4
100
AcDbEntity
  8
0
  6
Continuous
 62
     2
100
AcDbLine
 10
-9.999999999999976
 20
-6.25
 30
0.0
 11
-12.49999999999998
 21
-6.25
 31
0.0
  0
LINE
  5
F0A
330
EE4
100
AcDbEntity
  8
0
  6
Continuous
 62
     2
100
AcDbLine
 10
-9.999999999989476
 20
6.250000000013186
 30
0.0
 11
-12.49999999999998
 21
6.25
 31
0.0
  0
ARC
  5
F0B
330
EE4
100
AcDbEntity
  8
0
 62
     2
100
AcDbCircle
 10
-9.677160460940619
 20
-6.570970398824101
 30
0.0
 40
0.4637398420840256
100
AcDbArc
 50
45.87985868422378
 51
134.120141315767
  0
LINE
  5
F0C
330
EE4
100
AcDbEntity
  8
0
 62
     2
100
AcDbLine
 10
-9.485291055810641
 20
-5.845148738565741
 30
0.0
 11
-9.999999999999976
 21
3.343360924476143
 31
0.0
  0
ARC
  5
F0D
330
EE4
100
AcDbEntity
  8
0
  6
Continuous
 62
     2
100
AcDbCircle
 10
-3.999999999999936
 20
4.345149405543452
 30
0.0
 40
1.5
100
AcDbArc
 50
0.0
 51
74.07950097698503
  0
ARC
  5
F0E
330
EE4
100
AcDbEntity
  8
0
  6
Continuous
 62
     2
100
AcDbCircle
 10
-3.999999999999991
 20
-4.345148738565626
 30
0.0
 40
1.5
100
AcDbArc
 50
312.581616669148
 51
0.0
  0
LINE
  5
F0F
330
EE4
100
AcDbEntity
  8
0
  6
Continuous
 62
     2
100
AcDbLine
 10
-31.50000000000001
 20
-11.85000000000008
 30
0.0
 11
-31.50000000000001
 21
11.85000000000002
 31
0.0
  0
LINE
  5
F10
330
EE4
100
AcDbEntity
  8
0
  6
Continuous
 62
     2
100
AcDbLine
 10
-14.00000000000001
 20
7.499999999999943
 30
0.0
 11
-14.00000000000001
 21
-7.5
 31
0.0
  0
LINE
  5
F11
330
EE4
100
AcDbEntity
  8
0
  6
Continuous
 62
     2
100
AcDbLine
 10
-12.50000000000001
 20
6.949999999999931
 30
0.0
 11
-12.50000000000001
 21
-6.949999999999986
 31
0.0
  0
LINE
  5
F12
330
EE4
100
AcDbEntity
  8
0
  6
Continuous
 62
     2
100
AcDbLine
 10
-20.00000000000001
 20
12.5
 30
0.0
 11
-20.00000000000001
 21
-12.5
 31
0.0
  0
LINE
  5
F13
330
EE4
100
AcDbEntity
  8
0
  6
Continuous
 62
     2
100
AcDbLine
 10
-29.00000000000001
 20
12.5
 30
0.0
 11
-29.00000000000001
 21
-12.5
 31
0.0
  0
LINE
  5
F14
330
EE4
100
AcDbEntity
  8
0
  6
Continuous
 62
     2
100
AcDbLine
 10
-27.25000000000001
 20
-12.5
 30
0.0
 11
-27.25000000000001
 21
12.5
 31
0.0
  0
LINE
  5
F15
330
EE4
100
AcDbEntity
  8
0
  6
Continuous
 62
     2
100
AcDbLine
 10
-14.00000000000001
 20
7.499999999999943
 30
0.0
 11
-20.00000000000001
 21
12.5
 31
0.0
  0
LINE
  5
F16
330
EE4
100
AcDbEntity
  8
0
  6
Continuous
 62
     2
100
AcDbLine
 10
-14.00000000000001
 20
-7.5
 30
0.0
 11
-20.00000000000001
 21
-12.5
 31
0.0
  0
ARC
  5
F17
330
EE4
100
AcDbEntity
  8
0
  6
Continuous
 62
     2
100
AcDbCircle
 10
-64.25
 20
12.5
 30
0.0
 40
2.25
100
AcDbArc
 50
13.49573328079394
 51
193.4957332807939
  0
ARC
  5
F18
330
EE4
100
AcDbEntity
  8
0
  6
Continuous
 62
     2
100
AcDbCircle
 10
-58.25000000000001
 20
12.5
 30
0.0
 40
2.25
100
AcDbArc
 50
13.49573328079394
 51
193.4957332807939
  0
ARC
  5
F19
330
EE4
100
AcDbEntity
  8
0
  6
Continuous
 62
     2
100
AcDbCircle
 10
-52.25000000000001
 20
12.5
 30
0.0
 40
2.25
100
AcDbArc
 50
13.49573328079394
 51
193.4957332807939
  0
ARC
  5
F1A
330
EE4
100
AcDbEntity
  8
0
  6
Continuous
 62
     2
100
AcDbCircle
 10
-46.25
 20
12.5
 30
0.0
 40
2.25
100
AcDbArc
 50
13.49573328079394
 51
193.4957332807939
  0
ARC
  5
F1B
330
EE4
100
AcDbEntity
  8
0
  6
Continuous
 62
     2
100
AcDbCircle
 10
-40.25000000000001
 20
12.5
 30
0.0
 40
2.25
100
AcDbArc
 50
13.49573328079394
 51
193.4957332807939
  0
ARC
  5
F1C
330
EE4
100
AcDbEntity
  8
0
  6
Continuous
 62
     2
100
AcDbCircle
 10
-64.25
 20
-12.5
 30
0.0
 40
2.25
100
AcDbArc
 50
193.4957332807939
 51
13.49573328079394
  0
ARC
  5
F1D
330
EE4
100
AcDbEntity
  8
0
  6
Continuous
 62
     2
100
AcDbCircle
 10
-58.25000000000001
 20
-12.5
 30
0.0
 40
2.25
100
AcDbArc
 50
193.4957332807939
 51
13.49573328079394
  0
ARC
  5
F1E
330
EE4
100
AcDbEntity
  8
0
  6
Continuous
 62
     2
100
AcDbCircle
 10
-52.25000000000001
 20
-12.5
 30
0.0
 40
2.25
100
AcDbArc
 50
193.4957332807939
 51
13.49573328079394
  0
ARC
  5
F1F
330
EE4
100
AcDbEntity
  8
0
  6
Continuous
 62
     2
100
AcDbCircle
 10
-46.25
 20
-12.5
 30
0.0
 40
2.25
100
AcDbArc
 50
193.4957332807939
 51
13.49573328079394
  0
ARC
  5
F20
330
EE4
100
AcDbEntity
  8
0
  6
Continuous
 62
     2
100
AcDbCircle
 10
-40.25000000000001
 20
-12.5
 30
0.0
 40
2.25
100
AcDbArc
 50
193.4957332807939
 51
13.49573328079394
  0
LINE
  5
F21
330
EE4
100
AcDbEntity
  8
0
  6
Continuous
 62
     2
100
AcDbLine
 10
-67.88212857054384
 20
12.27508914306941
 30
0.0
 11
-62.06212857054381
 21
-11.97491085693059
 31
0.0
  0
LINE
  5
F22
330
EE4
100
AcDbEntity
  8
0
  6
Continuous
 62
     2
100
AcDbLine
 10
-72.25787142945614
 20
11.22491085693053
 30
0.0
 11
-66.43787142945615
 21
-13.02508914306958
 31
0.0
  0
LINE
  5
F23
330
EE4
100
AcDbEntity
  8
0
  6
Continuous
 62
     2
100
AcDbLine
 10
-62.06212857054381
 20
13.02508914306941
 30
0.0
 11
-56.06212857054384
 21
-11.97491085693059
 31
0.0
  0
LINE
  5
F24
330
EE4
100
AcDbEntity
  8
0
  6
Continuous
 62
     2
100
AcDbLine
 10
-66.43787142945615
 20
11.97491085693042
 30
0.0
 11
-60.43787142945616
 21
-13.02508914306958
 31
0.0
  0
LINE
  5
F25
330
EE4
100
AcDbEntity
  8
0
  6
Continuous
 62
     2
100
AcDbLine
 10
-56.06212857054384
 20
13.02508914306941
 30
0.0
 11
-50.06212857054382
 21
-11.97491085693059
 31
0.0
  0
LINE
  5
F26
330
EE4
100
AcDbEntity
  8
0
  6
Continuous
 62
     2
100
AcDbLine
 10
-60.43787142945616
 20
11.97491085693042
 30
0.0
 11
-54.43787142945616
 21
-13.02508914306958
 31
0.0
  0
LINE
  5
F27
330
EE4
100
AcDbEntity
  8
0
  6
Continuous
 62
     2
100
AcDbLine
 10
-50.06212857054382
 20
13.02508914306941
 30
0.0
 11
-44.06212857054383
 21
-11.97491085693059
 31
0.0
  0
LINE
  5
F28
330
EE4
100
AcDbEntity
  8
0
  6
Continuous
 62
     2
100
AcDbLine
 10
-54.43787142945616
 20
11.97491085693042
 30
0.0
 11
-48.43787142945616
 21
-13.02508914306958
 31
0.0
  0
LINE
  5
F29
330
EE4
100
AcDbEntity
  8
0
  6
Continuous
 62
     2
100
AcDbLine
 10
-44.06212857054383
 20
13.02508914306941
 30
0.0
 11
-38.06212857054383
 21
-11.97491085693059
 31
0.0
  0
LINE
  5
F2A
330
EE4
100
AcDbEntity
  8
0
  6
Continuous
 62
     2
100
AcDbLine
 10
-48.43787142945616
 20
11.97491085693042
 30
0.0
 11
-42.43787142945616
 21
-13.02508914306958
 31
0.0
  0
LINE
  5
F2B
330
EE4
100
AcDbEntity
  8
0
  6
Continuous
 62
     2
100
AcDbLine
 10
-38.06212857054383
 20
13.02508914306941
 30
0.0
 11
-37.74808340472198
 21
11.71656761881166
 31
0.0
  0
LINE
  5
F2C
330
EE4
100
AcDbEntity
  8
0
  6
Continuous
 62
     2
100
AcDbLine
 10
-42.43787142945616
 20
11.97491085693042
 30
0.0
 11
-42.09582150933725
 21
10.54970285643492
 31
0.0
  0
LINE
  5
F2D
330
EE4
100
AcDbEntity
  8
0
  6
Continuous
 62
     2
100
AcDbLine
 10
-67.88212857054381
 20
-12.27508914306958
 30
0.0
 11
-67.25
 21
-9.641220099136999
 31
0.0
  0
LINE
  5
F2E
330
EE4
100
AcDbEntity
  8
0
  6
Continuous
 62
     2
100
AcDbLine
 10
-64.93610717620715
 20
0.0
 30
0.0
 11
-64.25
 21
2.858779900862997
 31
0.0
  0
LINE
  5
F2F
330
EE4
100
AcDbEntity
  8
0
  6
Continuous
 62
     2
100
AcDbLine
 10
-67.24999999999997
 20
9.64122009913683
 30
0.0
 11
-66.43787142945615
 21
13.02508914306941
 31
0.0
  0
LINE
  5
F30
330
EE4
100
AcDbEntity
  8
0
  6
Continuous
 62
     2
100
AcDbLine
 10
-62.06212857054381
 20
-13.02508914306958
 30
0.0
 11
-61.25
 21
-9.641220099136999
 31
0.0
  0
LINE
  5
F31
330
EE4
100
AcDbEntity
  8
0
  6
Continuous
 62
     2
100
AcDbLine
 10
-58.93610717620715
 20
0.0000000000000568
 30
0.0
 11
-58.25000000000001
 21
2.858779900863168
 31
0.0
  0
LINE
  5
F32
330
EE4
100
AcDbEntity
  8
0
  6
Continuous
 62
     2
100
AcDbLine
 10
-64.25
 20
-2.858779900863168
 30
0.0
 11
-63.56389282379286
 21
0.0000000000000568
 31
0.0
  0
LINE
  5
F33
330
EE4
100
AcDbEntity
  8
0
  6
Continuous
 62
     2
100
AcDbLine
 10
-61.25
 20
9.641220099136944
 30
0.0
 11
-60.43787142945616
 21
13.02508914306941
 31
0.0
  0
LINE
  5
F34
330
EE4
100
AcDbEntity
  8
0
  6
Continuous
 62
     2
100
AcDbLine
 10
-56.06212857054384
 20
-13.02508914306958
 30
0.0
 11
-55.25000000000001
 21
-9.64122009913683
 31
0.0
  0
LINE
  5
F35
330
EE4
100
AcDbEntity
  8
0
  6
Continuous
 62
     2
100
AcDbLine
 10
-52.93610717620715
 20
0.0
 30
0.0
 11
-52.25000000000001
 21
2.858779900862997
 31
0.0
  0
LINE
  5
F36
330
EE4
100
AcDbEntity
  8
0
  6
Continuous
 62
     2
100
AcDbLine
 10
-58.25000000000001
 20
-2.858779900863168
 30
0.0
 11
-57.56389282379283
 21
0.0000000000000568
 31
0.0
  0
LINE
  5
F37
330
EE4
100
AcDbEntity
  8
0
  6
Continuous
 62
     2
100
AcDbLine
 10
-55.25000000000001
 20
9.64122009913683
 30
0.0
 11
-54.43787142945616
 21
13.02508914306941
 31
0.0
  0
LINE
  5
F38
330
EE4
100
AcDbEntity
  8
0
  6
Continuous
 62
     2
100
AcDbLine
 10
-50.06212857054382
 20
-13.02508914306958
 30
0.0
 11
-49.25
 21
-9.64122009913683
 31
0.0
  0
LINE
  5
F39
330
EE4
100
AcDbEntity
  8
0
  6
Continuous
 62
     2
100
AcDbLine
 10
-46.93610717620715
 20
0.0
 30
0.0
 11
-46.24999999999999
 21
2.858779900862997
 31
0.0
  0
LINE
  5
F3A
330
EE4
100
AcDbEntity
  8
0
  6
Continuous
 62
     2
100
AcDbLine
 10
-52.25000000000001
 20
-2.858779900863055
 30
0.0
 11
-51.56389282379286
 21
0.0000000000000568
 31
0.0
  0
LINE
  5
F3B
330
EE4
100
AcDbEntity
  8
0
  6
Continuous
 62
     2
100
AcDbLine
 10
-49.25
 20
9.641220099136944
 30
0.0
 11
-48.43787142945616
 21
13.02508914306941
 31
0.0
  0
LINE
  5
F3C
330
EE4
100
AcDbEntity
  8
0
  6
Continuous
 62
     2
100
AcDbLine
 10
-44.06212857054383
 20
-13.02508914306958
 30
0.0
 11
-43.24999999999998
 21
-9.641220099136999
 31
0.0
  0
LINE
  5
F3D
330
EE4
100
AcDbEntity
  8
0
  6
Continuous
 62
     2
100
AcDbLine
 10
-40.93610717620713
 20
0.0000000000000568
 30
0.0
 11
-39.40533904845946
 21
6.378200532282161
 31
0.0
  0
LINE
  5
F3E
330
EE4
100
AcDbEntity
  8
0
  6
Continuous
 62
     2
100
AcDbLine
 10
-46.25
 20
-2.858779900863055
 30
0.0
 11
-45.56389282379284
 21
0.0000000000000568
 31
0.0
  0
LINE
  5
F3F
330
EE4
100
AcDbEntity
  8
0
  6
Continuous
 62
     2
100
AcDbLine
 10
-43.25000000000001
 20
9.641220099136944
 30
0.0
 11
-42.43787142945616
 21
13.02508914306941
 31
0.0
  0
LINE
  5
F40
330
EE4
100
AcDbEntity
  8
0
  6
Continuous
 62
     2
100
AcDbLine
 10
-38.06212857054383
 20
-13.02508914306958
 30
0.0
 11
-37.74808340472198
 21
-11.71656761881183
 31
0.0
  0
ARC
  5
F41
330
EE4
100
AcDbEntity
  8
0
  6
Continuous
 62
     2
100
AcDbCircle
 10
-70.06999999999997
 20
-11.75
 30
0.0
 40
2.249999999999912
100
AcDbArc
 50
186.6242929294512
 51
6.624292929444647
  0
ARC
  5
F42
330
EE4
100
AcDbEntity
  8
0
  6
Continuous
 62
     2
100
AcDbCircle
 10
-70.06999999999999
 20
11.74999999999994
 30
0.0
 40
2.24999999999999
100
AcDbArc
 50
13.49573328079394
 51
193.4957332807939
  0
ARC
  5
F43
330
EE4
100
AcDbEntity
  8
0
  6
Continuous
 62
     2
100
AcDbCircle
 10
31.10654411764346
 20
0.0000000000000568
 30
0.0
 40
99.60654411764345
100
AcDbArc
 50
182.8453854565062
 51
186.6242929294512
  0
ARC
  5
F44
330
EE4
100
AcDbEntity
  8
0
  6
Continuous
 62
     2
100
AcDbCircle
 10
31.10654411764346
 20
0.0000000000000568
 30
0.0
 40
104.1065441176434
100
AcDbArc
 50
173.3757070705553
 51
186.6242929294512
  0
ENDBLK
  5
F48
330
EE4
100
AcDbEntity
  8
0
 62
     7
100
AcDbBlockEnd
  0
BLOCK
  5
11F7
330
118B
100
AcDbEntity
  8
0
 62
     7
100
AcDbBlockBegin
  2
A$C2B8E7029
 70
     0
 10
0.0
 20
0.0
 30
0.0
  3
A$C2B8E7029
  1

  0
LINE
  5
1270
330
118B
100
AcDbEntity
  8
0
  6
CENTER
 62
     7
100
AcDbLine
 10
29.37574372375582
 20
160.6633826154368
 30
0.0
 11
29.37574372375582
 21
0.0000003699533409
 31
0.0
  0
LINE
  5
1271
330
118B
100
AcDbEntity
  8
0
  6
HIDDEN
 62
     2
100
AcDbLine
 10
9.775743723755567
 20
75.52425367947927
 30
0.0
 11
9.775743723755567
 21
66.39002337993791
 31
0.0
  0
ARC
  5
1272
330
118B
100
AcDbEntity
  8
0
  6
HIDDEN
 62
     2
100
AcDbCircle
 10
4.775743723755454
 20
75.52425367947927
 30
0.0
 40
5.0
100
AcDbArc
 50
0.0
 51
76.50426671920605
  0
LINE
  5
1273
330
118B
100
AcDbEntity
  8
0
  6
HIDDEN
 62
     2
100
AcDbLine
 10
19.77574372375556
 20
74.49585686890467
 30
0.0
 11
19.77574372375556
 21
66.39002337993791
 31
0.0
  0
ARC
  5
1274
330
118B
100
AcDbEntity
  8
0
  6
HIDDEN
 62
     2
100
AcDbCircle
 10
4.775743723755454
 20
74.49585686890467
 30
0.0
 40
15.0
100
AcDbArc
 50
0.0
 51
37.85434993259588
  0
LINE
  5
1275
330
118B
100
AcDbEntity
  8
0
  6
HIDDEN
 62
     2
100
AcDbLine
 10
48.97574372375562
 20
75.52425367947927
 30
0.0
 11
48.97574372375562
 21
66.39002337993791
 31
0.0
  0
ARC
  5
1276
330
118B
100
AcDbEntity
  8
0
  6
HIDDEN
 62
     2
100
AcDbCircle
 10
53.97574372375562
 20
75.52425367947927
 30
0.0
 40
5.0
100
AcDbArc
 50
103.4957332807939
 51
180.0
  0
LINE
  5
1277
330
118B
100
AcDbEntity
  8
0
  6
HIDDEN
 62
     2
100
AcDbLine
 10
38.97574372375584
 20
74.49585686890467
 30
0.0
 11
38.97574372375573
 21
66.39002337993791
 31
0.0
  0
ARC
  5
1278
330
118B
100
AcDbEntity
  8
0
  6
HIDDEN
 62
     2
100
AcDbCircle
 10
53.97574372375562
 20
74.49585686890467
 30
0.0
 40
15.0
100
AcDbArc
 50
103.4957332807939
 51
180.0
  0
ARC
  5
1279
330
118B
100
AcDbEntity
  8
0
  6
HIDDEN
 62
     2
100
AcDbCircle
 10
54.37574372375582
 20
133.3900233799379
 30
0.0
 40
4.5
100
AcDbArc
 50
283.495733280794
 51
103.4957332807939
  0
ARC
  5
127A
330
118B
100
AcDbEntity
  8
0
  6
HIDDEN
 62
     2
100
AcDbCircle
 10
54.37574372375582
 20
121.3900233799379
 30
0.0
 40
4.5
100
AcDbArc
 50
283.495733280794
 51
103.4957332807939
  0
ARC
  5
127B
330
118B
100
AcDbEntity
  8
0
  6
HIDDEN
 62
     2
100
AcDbCircle
 10
54.37574372375582
 20
109.3900233799379
 30
0.0
 40
4.5
100
AcDbArc
 50
283.495733280794
 51
103.4957332807939
  0
ARC
  5
127C
330
118B
100
AcDbEntity
  8
0
  6
HIDDEN
 62
     2
100
AcDbCircle
 10
54.37574372375582
 20
97.39002337993792
 30
0.0
 40
4.5
100
AcDbArc
 50
283.495733280794
 51
103.4957332807939
  0
ARC
  5
127D
330
118B
100
AcDbEntity
  8
0
  6
HIDDEN
 62
     2
100
AcDbCircle
 10
54.37574372375582
 20
85.39002337993792
 30
0.0
 40
4.5
100
AcDbArc
 50
283.495733280794
 51
103.4957332807939
  0
ARC
  5
127E
330
118B
100
AcDbEntity
  8
0
  6
HIDDEN
 62
     2
100
AcDbCircle
 10
4.375743723755817
 20
133.3900233799379
 30
0.0
 40
4.5
100
AcDbArc
 50
103.4957332807939
 51
283.495733280794
  0
ARC
  5
127F
330
118B
100
AcDbEntity
  8
0
  6
HIDDEN
 62
     2
100
AcDbCircle
 10
4.375743723755817
 20
121.3900233799379
 30
0.0
 40
4.5
100
AcDbArc
 50
103.4957332807939
 51
283.495733280794
  0
ARC
  5
1280
330
118B
100
AcDbEntity
  8
0
  6
HIDDEN
 62
     2
100
AcDbCircle
 10
4.375743723755817
 20
109.3900233799379
 30
0.0
 40
4.5
100
AcDbArc
 50
103.4957332807939
 51
283.495733280794
  0
ARC
  5
1281
330
118B
100
AcDbEntity
  8
0
  6
HIDDEN
 62
     2
100
AcDbCircle
 10
4.375743723755817
 20
97.39002337993792
 30
0.0
 40
4.5
100
AcDbArc
 50
103.4957332807939
 51
283.495733280794
  0
ARC
  5
1282
330
118B
100
AcDbEntity
  8
0
  6
HIDDEN
 62
     2
100
AcDbCircle
 10
4.375743723755817
 20
85.39002337993792
 30
0.0
 40
4.5
100
AcDbArc
 50
103.4957332807939
 51
283.495733280794
  0
LINE
  5
1283
330
118B
100
AcDbEntity
  8
0
  6
HIDDEN
 62
     2
100
AcDbLine
 10
53.92592200989463
 20
140.6542805210256
 30
0.0
 11
5.425922009894634
 21
129.0142805210255
 31
0.0
  0
LINE
  5
1284
330
118B
100
AcDbEntity
  8
0
  6
HIDDEN
 62
     2
100
AcDbLine
 10
51.82556543761688
 20
149.4057662388502
 30
0.0
 11
3.325565437616546
 21
137.7657662388502
 31
0.0
  0
LINE
  5
1285
330
118B
100
AcDbEntity
  8
0
  6
HIDDEN
 62
     2
100
AcDbLine
 10
55.42592200989464
 20
129.0142805210255
 30
0.0
 11
5.425922009894634
 21
117.0142805210255
 31
0.0
  0
LINE
  5
1286
330
118B
100
AcDbEntity
  8
0
  6
HIDDEN
 62
     2
100
AcDbLine
 10
53.32556543761654
 20
137.7657662388502
 30
0.0
 11
3.325565437616546
 21
125.7657662388502
 31
0.0
  0
LINE
  5
1287
330
118B
100
AcDbEntity
  8
0
  6
HIDDEN
 62
     2
100
AcDbLine
 10
55.42592200989464
 20
117.0142805210255
 30
0.0
 11
5.425922009894634
 21
105.0142805210255
 31
0.0
  0
LINE
  5
1288
330
118B
100
AcDbEntity
  8
0
  6
HIDDEN
 62
     2
100
AcDbLine
 10
53.32556543761654
 20
125.7657662388502
 30
0.0
 11
3.325565437616546
 21
113.7657662388502
 31
0.0
  0
LINE
  5
1289
330
118B
100
AcDbEntity
  8
0
  6
HIDDEN
 62
     2
100
AcDbLine
 10
55.42592200989464
 20
105.0142805210255
 30
0.0
 11
5.425922009894634
 21
93.01428052102556
 31
0.0
  0
LINE
  5
128A
330
118B
100
AcDbEntity
  8
0
  6
HIDDEN
 62
     2
100
AcDbLine
 10
53.32556543761654
 20
113.7657662388502
 30
0.0
 11
3.325565437616546
 21
101.7657662388502
 31
0.0
  0
LINE
  5
128B
330
118B
100
AcDbEntity
  8
0
  6
HIDDEN
 62
     2
100
AcDbLine
 10
55.42592200989464
 20
93.01428052102556
 30
0.0
 11
5.425922009894634
 21
81.01428052102557
 31
0.0
  0
LINE
  5
128C
330
118B
100
AcDbEntity
  8
0
  6
HIDDEN
 62
     2
100
AcDbLine
 10
53.32556543761654
 20
101.7657662388502
 30
0.0
 11
3.325565437616546
 21
89.76576623885023
 31
0.0
  0
LINE
  5
128D
330
118B
100
AcDbEntity
  8
0
  6
HIDDEN
 62
     2
100
AcDbLine
 10
55.42592200989464
 20
81.01428052102557
 30
0.0
 11
52.80887896137904
 21
80.38619018938186
 31
0.0
  0
LINE
  5
128E
330
118B
100
AcDbEntity
  8
0
  6
HIDDEN
 62
     2
100
AcDbLine
 10
53.32556543761654
 20
89.76576623885023
 30
0.0
 11
50.47514943662543
 21
89.08166639861239
 31
0.0
  0
LINE
  5
128F
330
118B
100
AcDbEntity
  8
0
  6
HIDDEN
 62
     2
100
AcDbLine
 10
4.825565437616546
 20
140.6542805210255
 30
0.0
 11
10.09330352548158
 21
139.3900233799379
 31
0.0
  0
LINE
  5
1290
330
118B
100
AcDbEntity
  8
0
  6
HIDDEN
 62
     2
100
AcDbLine
 10
29.37574372375582
 20
134.7622377323522
 30
0.0
 11
35.09330352548159
 21
133.3900233799379
 31
0.0
  0
LINE
  5
1291
330
118B
100
AcDbEntity
  8
0
  6
HIDDEN
 62
     2
100
AcDbLine
 10
48.65818392202959
 20
139.3900233799378
 30
0.0
 11
55.42592200989464
 21
137.7657662388502
 31
0.0
  0
LINE
  5
1292
330
118B
100
AcDbEntity
  8
0
  6
HIDDEN
 62
     2
100
AcDbLine
 10
3.325565437616546
 20
129.0142805210255
 30
0.0
 11
10.09330352548158
 21
127.3900233799379
 31
0.0
  0
LINE
  5
1293
330
118B
100
AcDbEntity
  8
0
  6
HIDDEN
 62
     2
100
AcDbLine
 10
29.37574372375582
 20
122.7622377323522
 30
0.0
 11
35.09330352548216
 21
121.3900233799379
 31
0.0
  0
LINE
  5
1294
330
118B
100
AcDbEntity
  8
0
  6
HIDDEN
 62
     2
100
AcDbLine
 10
23.65818392202959
 20
133.3900233799379
 30
0.0
 11
29.37574372375582
 21
132.0178090275236
 31
0.0
  0
LINE
  5
1295
330
118B
100
AcDbEntity
  8
0
  6
HIDDEN
 62
     2
100
AcDbLine
 10
48.65818392202959
 20
127.3900233799379
 30
0.0
 11
55.42592200989464
 21
125.7657662388502
 31
0.0
  0
LINE
  5
1296
330
118B
100
AcDbEntity
  8
0
  6
HIDDEN
 62
     2
100
AcDbLine
 10
3.325565437616546
 20
117.0142805210255
 30
0.0
 11
10.09330352548215
 21
115.3900233799379
 31
0.0
  0
LINE
  5
1297
330
118B
100
AcDbEntity
  8
0
  6
HIDDEN
 62
     2
100
AcDbLine
 10
29.37574372375582
 20
110.7622377323522
 30
0.0
 11
35.09330352548159
 21
109.3900233799379
 31
0.0
  0
LINE
  5
1298
330
118B
100
AcDbEntity
  8
0
  6
HIDDEN
 62
     2
100
AcDbLine
 10
23.65818392202959
 20
121.3900233799379
 30
0.0
 11
29.37574372375582
 21
120.0178090275236
 31
0.0
  0
LINE
  5
1299
330
118B
100
AcDbEntity
  8
0
  6
HIDDEN
 62
     2
100
AcDbLine
 10
48.65818392202959
 20
115.3900233799379
 30
0.0
 11
55.42592200989464
 21
113.7657662388502
 31
0.0
  0
LINE
  5
129A
330
118B
100
AcDbEntity
  8
0
  6
HIDDEN
 62
     2
100
AcDbLine
 10
3.325565437616546
 20
105.0142805210255
 30
0.0
 11
10.09330352548215
 21
103.3900233799379
 31
0.0
  0
LINE
  5
129B
330
118B
100
AcDbEntity
  8
0
  6
HIDDEN
 62
     2
100
AcDbLine
 10
29.37574372375582
 20
98.76223773235221
 30
0.0
 11
35.09330352548159
 21
97.3900233799379
 31
0.0
  0
LINE
  5
129C
330
118B
100
AcDbEntity
  8
0
  6
HIDDEN
 62
     2
100
AcDbLine
 10
23.65818392202959
 20
109.3900233799379
 30
0.0
 11
29.37574372375582
 21
108.0178090275236
 31
0.0
  0
LINE
  5
129D
330
118B
100
AcDbEntity
  8
0
  6
HIDDEN
 62
     2
100
AcDbLine
 10
48.65818392202959
 20
103.3900233799379
 30
0.0
 11
55.42592200989464
 21
101.7657662388502
 31
0.0
  0
LINE
  5
129E
330
118B
100
AcDbEntity
  8
0
  6
HIDDEN
 62
     2
100
AcDbLine
 10
3.325565437616546
 20
93.01428052102556
 30
0.0
 11
10.09330352548158
 21
91.39002337993789
 31
0.0
  0
LINE
  5
129F
330
118B
100
AcDbEntity
  8
0
  6
HIDDEN
 62
     2
100
AcDbLine
 10
29.37574372375582
 20
86.7622377323522
 30
0.0
 11
42.13214478832003
 21
83.7007014768568
 31
0.0
  0
LINE
  5
12A0
330
118B
100
AcDbEntity
  8
0
  6
HIDDEN
 62
     2
100
AcDbLine
 10
23.65818392202959
 20
97.39002337993792
 30
0.0
 11
29.37574372375582
 21
96.01780902752361
 31
0.0
  0
LINE
  5
12A1
330
118B
100
AcDbEntity
  8
0
  6
HIDDEN
 62
     2
100
AcDbLine
 10
48.65818392202959
 20
91.39002337993792
 30
0.0
 11
55.42592200989464
 21
89.76576623885023
 31
0.0
  0
LINE
  5
12A2
330
118B
100
AcDbEntity
  8
0
  6
HIDDEN
 62
     2
100
AcDbLine
 10
3.325565437616546
 20
81.01428052102557
 30
0.0
 11
5.942608486132144
 21
80.38619018938186
 31
0.0
  0
ARC
  5
12A3
330
118B
100
AcDbEntity
  8
0
  6
HIDDEN
 62
     2
100
AcDbCircle
 10
5.87574372375559
 20
145.0300233799378
 30
0.0
 40
4.499999999999825
100
AcDbArc
 50
96.6242929294512
 51
276.6242929294447
  0
ARC
  5
12A4
330
118B
100
AcDbEntity
  8
0
  6
HIDDEN
 62
     2
100
AcDbCircle
 10
52.87574372375559
 20
145.0300233799379
 30
0.0
 40
4.499999999999981
100
AcDbArc
 50
283.4957332807941
 51
103.495733280794
  0
ARC
  5
12A5
330
118B
100
AcDbEntity
  8
0
  6
HIDDEN
 62
     2
100
AcDbCircle
 10
29.37574372375582
 20
-57.32306485534898
 30
0.0
 40
199.2130882352869
100
AcDbArc
 50
92.84538545650628
 51
96.62429292944468
  0
ARC
  5
12A6
330
118B
100
AcDbEntity
  8
0
  6
HIDDEN
 62
     2
100
AcDbCircle
 10
29.37574372375582
 20
-57.32306485534898
 30
0.0
 40
208.2130882352869
100
AcDbArc
 50
83.37570707055531
 51
96.62429292944468
  0
LINE
  5
12A7
330
118B
100
AcDbEntity
  8
0
  6
HIDDEN
 62
     2
100
AcDbLine
 10
29.37574372375582
 20
63.89002337993792
 30
0.0
 11
52.37574372375559
 21
63.89002337993791
 31
0.0
  0
LINE
  5
12A8
330
118B
100
AcDbEntity
  8
0
  6
HIDDEN
 62
     2
100
AcDbLine
 10
29.37574372375582
 20
61.39002337993791
 30
0.0
 11
53.37574372375593
 21
61.39002337993791
 31
0.0
  0
LINE
  5
12A9
330
118B
100
AcDbEntity
  8
0
  6
HIDDEN
 62
     2
100
AcDbLine
 10
29.37574372375582
 20
57.89002337993792
 30
0.0
 11
53.37574372375593
 21
57.89002337993792
 31
0.0
  0
LINE
  5
12AB
330
118B
100
AcDbEntity
  8
0
  6
HIDDEN
 62
     2
100
AcDbLine
 10
38.3757437237557
 20
66.39002337993791
 30
0.0
 11
51.37574372375604
 21
66.39002337993791
 31
0.0
  0
LINE
  5
12AC
330
118B
100
AcDbEntity
  8
0
  6
HIDDEN
 62
     2
100
AcDbLine
 10
29.37574372375582
 20
28.39002337993791
 30
0.0
 11
44.87574372375592
 21
28.39002337993792
 31
0.0
  0
LINE
  5
12B0
330
118B
100
AcDbEntity
  8
0
  6
HIDDEN
 62
     2
100
AcDbLine
 10
53.37574372375593
 20
57.89002337993792
 30
0.0
 11
53.37574372375593
 21
61.39002337993791
 31
0.0
  0
LINE
  5
12B1
330
118B
100
AcDbEntity
  8
0
  6
HIDDEN
 62
     2
100
AcDbLine
 10
51.37574372375604
 20
66.39002337993791
 30
0.0
 11
51.37574372375604
 21
63.89002337993791
 31
0.0
  0
LINE
  5
12B2
330
118B
100
AcDbEntity
  8
0
  6
HIDDEN
 62
     2
100
AcDbLine
 10
38.3757437237557
 20
66.39002337993791
 30
0.0
 11
38.3757437237557
 21
63.89002337993791
 31
0.0
  0
LINE
  5
12C8
330
118B
100
AcDbEntity
  8
0
  6
HIDDEN
 62
     2
100
AcDbLine
 10
41.87574372378207
 20
25.06999235885459
 30
0.0
 11
41.87574372378207
 21
28.39002337993792
 31
0.0
  0
LINE
  5
12D1
330
118B
100
AcDbEntity
  8
0
  6
HIDDEN
 62
     2
100
AcDbLine
 10
53.37574372375593
 20
58.39002337993791
 30
0.0
 11
52.37010804640158
 21
39.20135156228378
 31
0.0
  0
ARC
  5
12D3
330
118B
100
AcDbEntity
  8
0
  6
HIDDEN
 62
     2
100
AcDbCircle
 10
50.8757437237557
 20
28.39002337993804
 30
0.0
 40
6.0
100
AcDbArc
 50
112.0109885128317
 51
180.0000000000012
  0
ARC
  5
12D4
330
118B
100
AcDbEntity
  8
0
  6
HIDDEN
 62
     2
100
AcDbCircle
 10
46.37833083787405
 20
39.51536729974144
 30
0.0
 40
6.0
100
AcDbArc
 50
292.0109885128318
 51
357.0000000000003
  0
ARC
  5
12D7
330
118B
100
AcDbEntity
  8
0
  6
HIDDEN
 62
     2
100
AcDbCircle
 10
56.00074372375525
 20
63.89002337993791
 30
0.0
 40
3.624999999999423
100
AcDbArc
 50
180.0000000000085
 51
223.6028189727064
  0
ENDBLK
  5
11F8
330
118B
100
AcDbEntity
  8
0
 62
     7
100
AcDbBlockEnd
  0
ENDSEC
  0
SECTION
  2
ENTITIES
  0
LINE
  5
E4
330
36
100
AcDbEntity
  8
0
 62
     3
100
AcDbLine
 10
105.55012689
 20
-26.40309066
 30
0.0
 11
105.55012689
 21
-82.40309066000001
 31
0.0
  0
LINE
  5
E5
330
36
100
AcDbEntity
  8
0
 62
     3
100
AcDbLine
 10
105.55012689
 20
-26.40309066
 30
0.0
 11
195.7189044581371
 21
-26.40309066
 31
0.0
  0
TEXT
  5
E6
330
36
100
AcDbEntity
  8
0
 62
     3
100
AcDbText
 10
107.13019282
 20
-32.35992839
 30
0.0
 40
4.5
  1
型　　式
  7
高4.5
100
AcDbText
  0
TEXT
  5
E8
330
36
100
AcDbEntity
  8
0
 62
     3
100
AcDbText
 10
107.58906303
 20
-39.86626449
 30
0.0
 40
4.5
  1
定格電圧
  7
高4.5
100
AcDbText
  0
TEXT
  5
EC
330
36
100
AcDbEntity
  8
0
 62
     3
100
AcDbText
 10
107.14090126
 20
-46.50254179
 30
0.0
 40
4.5
  1
消費電力
  7
高4.5
100
AcDbText
  0
TEXT
  5
F0
330
36
100
AcDbEntity
  8
0
 62
     3
100
AcDbText
 10
107.30226083
 20
-53.1006642
 30
0.0
 40
4.5
  1
使用電球
  7
高4.5
100
AcDbText
  0
TEXT
  5
F4
330
36
100
AcDbEntity
  8
0
 62
     3
100
AcDbText
 10
107.01189607
 20
-60.88543392
 30
0.0
 40
4.5
  1
電源コード
  7
高4.5
100
AcDbText
  0
TEXT
  5
F9
330
36
100
AcDbEntity
  8
0
 62
     3
100
AcDbText
 10
145.2185181817126
 20
-39.82858437
 30
0.0
 40
4.5
  1
AC100V
  7
高4.5
100
AcDbText
  0
TEXT
  5
FA
330
36
100
AcDbEntity
  8
0
 62
     3
100
AcDbText
 10
106.57573964
 20
-67.76762755
 30
0.0
 40
4.5
  1
電線長さ
  7
高4.5
100
AcDbText
  0
LINE
  5
FE
330
36
100
AcDbEntity
  8
0
100
AcDbLine
 10
105.55012689
 20
-33.40309066
 30
0.0
 11
195.7189044581371
 21
-33.40309065999999
 31
0.0
  0
LINE
  5
FF
330
36
100
AcDbEntity
  8
0
100
AcDbLine
 10
105.55012689
 20
-40.40309065999998
 30
0.0
 11
195.7189044581371
 21
-40.40309065999998
 31
0.0
  0
LINE
  5
100
330
36
100
AcDbEntity
  8
0
100
AcDbLine
 10
105.55012689
 20
-47.40309066
 30
0.0
 11
195.7189044581371
 21
-47.40309066
 31
0.0
  0
LINE
  5
101
330
36
100
AcDbEntity
  8
0
100
AcDbLine
 10
105.55012689
 20
-54.40309066
 30
0.0
 11
195.7189044581371
 21
-54.40309066000001
 31
0.0
  0
LINE
  5
102
330
36
100
AcDbEntity
  8
0
100
AcDbLine
 10
105.55012689
 20
-61.40309066
 30
0.0
 11
195.7189044581371
 21
-61.40309065999999
 31
0.0
  0
LINE
  5
103
330
36
100
AcDbEntity
  8
0
100
AcDbLine
 10
105.55012689
 20
-68.40309066
 30
0.0
 11
195.7189044581371
 21
-68.40309066000002
 31
0.0
  0
LINE
  5
105
330
36
100
AcDbEntity
  8
0
100
AcDbLine
 10
105.55012689
 20
-75.40309066
 30
0.0
 11
195.7189044581371
 21
-75.40309066
 31
0.0
  0
TEXT
  5
106
330
36
100
AcDbEntity
  8
0
 62
     3
100
AcDbText
 10
107.13019282
 20
-74.31152143
 30
0.0
 40
4.5
  1
本体色
  7
高4.5
100
AcDbText
  0
TEXT
  5
109
330
36
100
AcDbEntity
  8
0
 62
     3
100
AcDbText
 10
147.3713136817127
 20
-74.84333478
 30
0.0
 40
4.5
  1
グリーン
  7
高4.5
100
AcDbText
  0
TEXT
  5
10A
330
36
100
AcDbEntity
  8
0
 62
     3
100
AcDbText
 10
106.90354448
 20
-81.64133693
 30
0.0
 40
4.5
  1
本体質量
  7
高4.5
100
AcDbText
  0
LINE
  5
10E
330
36
100
AcDbEntity
  8
0
 62
     3
100
AcDbLine
 10
105.55012689
 20
-82.40309066
 30
0.0
 11
195.7189044581371
 21
-82.40309066
 31
0.0
  0
LINE
  5
10F
330
36
100
AcDbEntity
  8
0
100
AcDbLine
 10
133.7537754232555
 20
-26.40309066
 30
0.0
 11
133.7537754232555
 21
-82.40309066000001
 31
0.0
  0
LINE
  5
111
330
36
100
AcDbEntity
  8
0
 62
     3
100
AcDbLine
 10
195.7189044581371
 20
-26.40309066
 30
0.0
 11
195.7189044581371
 21
-82.40309066
 31
0.0
  0
LINE
  5
150
330
36
100
AcDbEntity
  8
0
 62
     3
100
AcDbLine
 10
68.60509154999999
 20
2.326880839999998
 30
0.0
 11
68.25961848
 21
2.4359776
 31
0.0
  0
LINE
  5
151
330
36
100
AcDbEntity
  8
0
 62
     3
100
AcDbLine
 10
68.60509154999999
 20
3.181880839999998
 30
0.0
 11
68.25961848
 21
3.072784079999999
 31
0.0
  0
LINE
  5
152
330
36
100
AcDbEntity
  8
0
 62
     3
100
AcDbLine
 10
68.60509154999999
 20
9.56588084
 30
0.0
 11
68.25961848
 21
9.6749776
 31
0.0
  0
LINE
  5
153
330
36
100
AcDbEntity
  8
0
 62
     3
100
AcDbLine
 10
68.60509154999999
 20
10.42088084
 30
0.0
 11
68.25961848
 21
10.31178408
 31
0.0
  0
LINE
  5
154
330
36
100
AcDbEntity
  8
0
 62
     3
100
AcDbLine
 10
68.25961848
 20
2.4359776
 30
0.0
 11
68.25961848
 21
3.072784079999999
 31
0.0
  0
LINE
  5
155
330
36
100
AcDbEntity
  8
0
 62
     3
100
AcDbLine
 10
68.25961848
 20
9.6749776
 30
0.0
 11
68.25961848
 21
10.31178408
 31
0.0
  0
LINE
  5
156
330
36
100
AcDbEntity
  8
0
 62
     7
100
AcDbLine
 10
47.0592145
 20
32.20252027
 30
0.0
 11
47.16753266
 21
32.41001927
 31
0.0
  0
LINE
  5
157
330
36
100
AcDbEntity
  8
0
 62
     7
100
AcDbLine
 10
48.8357052
 20
32.20252027
 30
0.0
 11
48.72738704
 21
32.41001927
 31
0.0
  0
LINE
  5
158
330
36
100
AcDbEntity
  8
0
 62
     7
100
AcDbLine
 10
47.16753266
 20
32.41001927
 30
0.0
 11
48.72738704
 21
32.41001927
 31
0.0
  0
LINE
  5
159
330
36
100
AcDbEntity
  8
0
 62
     7
100
AcDbLine
 10
48.8357052
 20
32.93550376000001
 30
0.0
 11
48.72738704
 21
32.72800475
 31
0.0
  0
LINE
  5
15A
330
36
100
AcDbEntity
  8
0
 62
     7
100
AcDbLine
 10
47.77650189
 20
32.72800475
 30
0.0
 11
48.72738704
 21
32.72800475
 31
0.0
  0
LINE
  5
15B
330
36
100
AcDbEntity
  8
0
 62
     7
100
AcDbLine
 10
47.0592145
 20
34.1459146
 30
0.0
 11
47.16753266
 21
33.9384156
 31
0.0
  0
LINE
  5
15C
330
36
100
AcDbEntity
  8
0
 62
     7
100
AcDbLine
 10
47.0592145
 20
33.41293112000001
 30
0.0
 11
47.16753266
 21
33.62043012
 31
0.0
  0
LINE
  5
15D
330
36
100
AcDbEntity
  8
0
 62
     7
100
AcDbLine
 10
47.16753266
 20
33.62043012
 30
0.0
 11
47.85435983
 21
33.62043012
 31
0.0
  0
LINE
  5
15E
330
36
100
AcDbEntity
  8
0
 62
     7
100
AcDbLine
 10
47.16753266
 20
33.9384156
 30
0.0
 11
48.93644860000001
 21
33.9384156
 31
0.0
  0
LINE
  5
15F
330
36
100
AcDbEntity
  8
0
 62
     7
100
AcDbLine
 10
47.05921575
 20
34.24843708
 30
0.0
 11
47.16753534
 21
34.45593534
 31
0.0
  0
LINE
  5
160
330
36
100
AcDbEntity
  8
0
 62
     7
100
AcDbLine
 10
48.83568141
 20
34.24839995
 30
0.0
 11
48.72737049
 21
34.45590274
 31
0.0
  0
LINE
  5
161
330
36
100
AcDbEntity
  8
0
 62
     7
100
AcDbLine
 10
47.16753534
 20
34.45593534
 30
0.0
 11
48.72737049
 21
34.45593534
 31
0.0
  0
LINE
  5
162
330
36
100
AcDbEntity
  8
0
 62
     7
100
AcDbLine
 10
47.05922703
 20
35.16726394
 30
0.0
 11
47.16754228
 21
34.95976342
 31
0.0
  0
LINE
  5
163
330
36
100
AcDbEntity
  8
0
 62
     7
100
AcDbLine
 10
47.16754228
 20
34.95976342
 30
0.0
 11
48.72737743
 21
34.95976342
 31
0.0
  0
LINE
  5
164
330
36
100
AcDbEntity
  8
0
 62
     7
100
AcDbLine
 10
48.83569268
 20
35.16726394
 30
0.0
 11
48.72737743
 21
34.95976342
 31
0.0
  0
LINE
  5
165
330
36
100
AcDbEntity
  8
0
 62
     7
100
AcDbLine
 10
47.05924654999999
 20
36.92452748
 30
0.0
 11
47.16756542
 21
37.13202611
 31
0.0
  0
LINE
  5
166
330
36
100
AcDbEntity
  8
0
 62
     7
100
AcDbLine
 10
47.16756542
 20
37.13202611
 30
0.0
 11
48.72740057
 21
37.13199888
 31
0.0
  0
LINE
  5
167
330
36
100
AcDbEntity
  8
0
 62
     7
100
AcDbLine
 10
48.8357122
 20
36.92449647
 30
0.0
 11
48.72740057
 21
37.13199888
 31
0.0
  0
LINE
  5
168
330
36
100
AcDbEntity
  8
0
 62
     7
100
AcDbLine
 10
47.05924654999999
 20
37.85417556
 30
0.0
 11
47.16756542
 21
37.64667693
 31
0.0
  0
LINE
  5
169
330
36
100
AcDbEntity
  8
0
 62
     7
100
AcDbLine
 10
48.8357122
 20
37.85420656
 30
0.0
 11
48.72740057
 21
37.64670415
 31
0.0
  0
LINE
  5
16A
330
36
100
AcDbEntity
  8
0
 62
     7
100
AcDbLine
 10
47.05924654999999
 20
37.95118883
 30
0.0
 11
47.16756542
 21
38.15868746000001
 31
0.0
  0
LINE
  5
16B
330
36
100
AcDbEntity
  8
0
 62
     7
100
AcDbLine
 10
48.8357122
 20
37.95115782
 30
0.0
 11
48.72740057
 21
38.15866023
 31
0.0
  0
LINE
  5
16C
330
36
100
AcDbEntity
  8
0
 62
     7
100
AcDbLine
 10
47.05924654999999
 20
38.88083691
 30
0.0
 11
47.16756542
 21
38.67333828000001
 31
0.0
  0
LINE
  5
16D
330
36
100
AcDbEntity
  8
0
 62
     7
100
AcDbLine
 10
47.16756542
 20
38.67333828000001
 30
0.0
 11
48.72740057
 21
38.6733655
 31
0.0
  0
LINE
  5
16E
330
36
100
AcDbEntity
  8
0
 62
     7
100
AcDbLine
 10
48.8357122
 20
38.88086791
 30
0.0
 11
48.72740057
 21
38.6733655
 31
0.0
  0
LINE
  5
16F
330
36
100
AcDbEntity
  8
0
 62
     7
100
AcDbLine
 10
47.84715262
 20
38.15867559
 30
0.0
 11
47.84715262
 21
37.64668879
 31
0.0
  0
LINE
  5
170
330
36
100
AcDbEntity
  8
0
 62
     7
100
AcDbLine
 10
48.04776708
 20
38.15867209
 30
0.0
 11
48.04776708
 21
37.64669229
 31
0.0
  0
LINE
  5
171
330
36
100
AcDbEntity
  8
0
 62
     7
100
AcDbLine
 10
47.16756542
 20
38.15868746000001
 30
0.0
 11
47.84715262
 21
38.15867559
 31
0.0
  0
LINE
  5
172
330
36
100
AcDbEntity
  8
0
 62
     7
100
AcDbLine
 10
48.04776708
 20
38.15867209
 30
0.0
 11
48.72740057
 21
38.15866023
 31
0.0
  0
LINE
  5
173
330
36
100
AcDbEntity
  8
0
 62
     7
100
AcDbLine
 10
47.16756542
 20
37.64667693
 30
0.0
 11
47.84715262
 21
37.64668879
 31
0.0
  0
LINE
  5
174
330
36
100
AcDbEntity
  8
0
 62
     7
100
AcDbLine
 10
48.04776708
 20
37.64669229
 30
0.0
 11
48.72740057
 21
37.64670415
 31
0.0
  0
LINE
  5
175
330
36
100
AcDbEntity
  8
0
 62
     7
100
AcDbLine
 10
47.05924654999999
 20
38.97938887
 30
0.0
 11
47.16756542
 21
39.1868875
 31
0.0
  0
LINE
  5
176
330
36
100
AcDbEntity
  8
0
 62
     7
100
AcDbLine
 10
47.16756542
 20
39.1868875
 30
0.0
 11
48.72740057
 21
39.18686027
 31
0.0
  0
LINE
  5
177
330
36
100
AcDbEntity
  8
0
 62
     7
100
AcDbLine
 10
48.8357122
 20
38.97935786
 30
0.0
 11
48.72740057
 21
39.18686027
 31
0.0
  0
LINE
  5
178
330
36
100
AcDbEntity
  8
0
 62
     7
100
AcDbLine
 10
47.05924654999999
 20
39.89820328
 30
0.0
 11
47.16756542
 21
39.69070465
 31
0.0
  0
LINE
  5
179
330
36
100
AcDbEntity
  8
0
 62
     7
100
AcDbLine
 10
47.16756542
 20
39.69070465
 30
0.0
 11
48.72740057
 21
39.69073188
 31
0.0
  0
LINE
  5
17A
330
36
100
AcDbEntity
  8
0
 62
     7
100
AcDbLine
 10
48.8357122
 20
39.89823429
 30
0.0
 11
48.72740057
 21
39.69073188
 31
0.0
  0
LINE
  5
17B
330
36
100
AcDbEntity
  8
0
 62
     7
100
AcDbLine
 10
47.05924654999999
 20
40.00027927
 30
0.0
 11
47.16756542
 21
40.20777789
 31
0.0
  0
LINE
  5
17C
330
36
100
AcDbEntity
  8
0
 62
     7
100
AcDbLine
 10
47.16756542
 20
40.20777789
 30
0.0
 11
48.72740057
 21
40.20775067
 31
0.0
  0
LINE
  5
17D
330
36
100
AcDbEntity
  8
0
 62
     7
100
AcDbLine
 10
48.8357122
 20
40.00024825999999
 30
0.0
 11
48.72740057
 21
40.20775067
 31
0.0
  0
ARC
  5
17E
330
36
100
AcDbEntity
  8
0
 62
     7
100
AcDbCircle
 10
47.94298853999999
 20
36.26171259
 30
0.0
 40
0.99346948
100
AcDbArc
 50
187.7015235099999
 51
0.0
  0
ARC
  5
17F
330
36
100
AcDbEntity
  8
0
 62
     7
100
AcDbCircle
 10
47.95296788
 20
42.39533203999999
 30
0.0
 40
1.004258749999997
100
AcDbArc
 50
90.31425027
 51
159.00558245
  0
ARC
  5
180
330
36
100
AcDbEntity
  8
0
 62
     7
100
AcDbCircle
 10
47.95296788
 20
42.61470124
 30
0.0
 40
1.004258749999997
100
AcDbArc
 50
200.99441755
 51
238.11661102
  0
ARC
  5
181
330
36
100
AcDbEntity
  8
0
 62
     7
100
AcDbCircle
 10
47.94195182
 20
42.39533203999999
 30
0.0
 40
1.004258749999997
100
AcDbArc
 50
20.99441755
 51
89.68574973
  0
ARC
  5
182
330
36
100
AcDbEntity
  8
0
 62
     7
100
AcDbCircle
 10
47.94195182
 20
42.61470124
 30
0.0
 40
1.004258749999997
100
AcDbArc
 50
301.88338898
 51
339.00558245
  0
ARC
  5
183
330
36
100
AcDbEntity
  8
0
 62
     7
100
AcDbCircle
 10
47.53660014
 20
42.50501664
 30
0.0
 40
0.57812904
100
AcDbArc
 50
154.3651719
 51
205.6348281
  0
ARC
  5
184
330
36
100
AcDbEntity
  8
0
 62
     7
100
AcDbCircle
 10
48.35831955999999
 20
42.50501664
 30
0.0
 40
0.57812904
100
AcDbArc
 50
334.3651718999999
 51
25.6348281
  0
ARC
  5
185
330
36
100
AcDbEntity
  8
0
 62
     7
100
AcDbCircle
 10
47.52561839
 20
42.50501664
 30
0.0
 40
0.28374078
100
AcDbArc
 50
109.48660554
 51
250.51339446
  0
ARC
  5
186
330
36
100
AcDbEntity
  8
0
 62
     7
100
AcDbCircle
 10
48.36930131999999
 20
42.50501664
 30
0.0
 40
0.28374078
100
AcDbArc
 50
289.4866055400001
 51
70.51339446
  0
ARC
  5
187
330
36
100
AcDbEntity
  8
0
 62
     7
100
AcDbCircle
 10
75.94745985
 20
37.60104798
 30
0.0
 40
30.0
100
AcDbArc
 50
171.70524067
 51
180.0
  0
ARC
  5
188
330
36
100
AcDbEntity
  8
0
 62
     7
100
AcDbCircle
 10
19.94745985
 20
37.60104798
 30
0.0
 40
30.0
100
AcDbArc
 50
0.0
 51
8.294759329999997
  0
ARC
  5
189
330
36
100
AcDbEntity
  8
0
 62
     7
100
AcDbCircle
 10
19.94745985
 20
37.60104798
 30
0.0
 40
30.0
100
AcDbArc
 50
351.20258929
 51
0.0
  0
ARC
  5
18A
330
36
100
AcDbEntity
  8
0
 62
     7
100
AcDbCircle
 10
75.94745985
 20
37.60104798
 30
0.0
 40
30.0
100
AcDbArc
 50
180.0
 51
188.79741071
  0
ARC
  5
18B
330
36
100
AcDbEntity
  8
0
 62
     7
100
AcDbCircle
 10
75.94745985
 20
37.60104798
 30
0.0
 40
29.74
100
AcDbArc
 50
171.20258929
 51
180.0
  0
ARC
  5
18C
330
36
100
AcDbEntity
  8
0
 62
     7
100
AcDbCircle
 10
75.94745985
 20
37.60104798
 30
0.0
 40
29.74
100
AcDbArc
 50
180.0
 51
188.79741071
  0
ARC
  5
18D
330
36
100
AcDbEntity
  8
0
 62
     7
100
AcDbCircle
 10
19.94745985
 20
37.60104798
 30
0.0
 40
29.74
100
AcDbArc
 50
351.20258929
 51
0.0
  0
ARC
  5
18E
330
36
100
AcDbEntity
  8
0
 62
     7
100
AcDbCircle
 10
19.94745985
 20
37.60104798
 30
0.0
 40
29.74
100
AcDbArc
 50
0.0
 51
8.797410709999997
  0
ARC
  5
18F
330
36
100
AcDbEntity
  8
0
 62
     7
100
AcDbCircle
 10
55.16714109
 20
40.6306275
 30
0.0
 40
9.0
100
AcDbArc
 50
153.03942107
 51
171.70524067
  0
ARC
  5
190
330
36
100
AcDbEntity
  8
0
  6
HIDDEN
 62
     7
100
AcDbCircle
 10
75.94745985
 20
37.60104798
 30
0.0
 40
30.0
100
AcDbArc
 50
171.20258929
 51
171.70524067
  0
ARC
  5
191
330
36
100
AcDbEntity
  8
0
 62
     7
100
AcDbCircle
 10
40.72777862
 20
40.6306275
 30
0.0
 40
9.0
100
AcDbArc
 50
8.294759329999997
 51
26.96057893
  0
ARC
  5
192
330
36
100
AcDbEntity
  8
0
  6
HIDDEN
 62
     7
100
AcDbCircle
 10
19.94745985
 20
37.60104798
 30
0.0
 40
30.0
100
AcDbArc
 50
8.294759329999997
 51
8.797410709999997
  0
ARC
  5
193
330
36
100
AcDbEntity
  8
0
 62
     7
100
AcDbCircle
 10
47.94745985
 20
44.30298408
 30
0.0
 40
0.6400000000000004
100
AcDbArc
 50
26.96057893
 51
153.03942107
  0
ARC
  5
194
330
36
100
AcDbEntity
  8
0
 62
     7
100
AcDbCircle
 10
40.72777862
 20
40.6306275
 30
0.0
 40
8.74
100
AcDbArc
 50
8.294759329999997
 51
26.96057893
  0
ARC
  5
195
330
36
100
AcDbEntity
  8
0
 62
     7
100
AcDbCircle
 10
55.16714109
 20
40.6306275
 30
0.0
 40
8.74
100
AcDbArc
 50
153.03942107
 51
171.70524067
  0
ARC
  5
196
330
36
100
AcDbEntity
  8
0
 62
     7
100
AcDbCircle
 10
47.94745985
 20
30.90298408
 30
0.0
 40
0.9
100
AcDbArc
 50
206.96057893
 51
333.03942107
  0
ARC
  5
197
330
36
100
AcDbEntity
  8
0
 62
     7
100
AcDbCircle
 10
47.94745985
 20
30.90298408
 30
0.0
 40
0.6400000000000004
100
AcDbArc
 50
206.96057893
 51
333.03942107
  0
ARC
  5
198
330
36
100
AcDbEntity
  8
0
 62
     7
100
AcDbCircle
 10
55.16714109
 20
34.57534066
 30
0.0
 40
9.0
100
AcDbArc
 50
188.29475933
 51
206.96057893
  0
ARC
  5
199
330
36
100
AcDbEntity
  8
0
 62
     7
100
AcDbCircle
 10
55.16714109
 20
34.57534066
 30
0.0
 40
8.74
100
AcDbArc
 50
188.29475933
 51
206.96057893
  0
ARC
  5
19A
330
36
100
AcDbEntity
  8
0
 62
     7
100
AcDbCircle
 10
40.72777862
 20
34.57534066
 30
0.0
 40
8.74
100
AcDbArc
 50
333.03942107
 51
351.70524067
  0
ARC
  5
19B
330
36
100
AcDbEntity
  8
0
 62
     7
100
AcDbCircle
 10
40.72777862
 20
34.57534066
 30
0.0
 40
9.0
100
AcDbArc
 50
333.03942107
 51
351.70524067
  0
LINE
  5
19C
330
36
100
AcDbEntity
  8
0
 62
     3
100
AcDbLine
 10
35.33247456
 20
51.42093278
 30
0.0
 11
35.75190776
 21
51.42093278
 31
0.0
  0
LINE
  5
19D
330
36
100
AcDbEntity
  8
0
 62
     3
100
AcDbLine
 10
35.33247456
 20
50.90830969999998
 30
0.0
 11
35.79012215
 21
50.90830969999998
 31
0.0
  0
LINE
  5
19E
330
36
100
AcDbEntity
  8
0
 62
     3
100
AcDbLine
 10
35.33247456
 20
50.90830969999998
 30
0.0
 11
35.33247456
 21
51.42093278
 31
0.0
  0
ARC
  5
19F
330
36
100
AcDbEntity
  8
0
 62
     3
100
AcDbCircle
 10
33.65207852000001
 20
51.12277825
 30
0.0
 40
2.13125373
100
AcDbArc
 50
296.12262571
 51
354.22453696
  0
ARC
  5
1A0
330
36
100
AcDbEntity
  8
0
 62
     3
100
AcDbCircle
 10
33.65207852000001
 20
51.12277825
 30
0.0
 40
2.13125373
100
AcDbArc
 50
8.041846239999998
 51
63.87737428999999
  0
LINE
  5
1A1
330
36
100
AcDbEntity
  8
0
 62
     3
100
AcDbLine
 10
32.09045624
 20
50.00474289999999
 30
0.0
 11
34.59045624
 21
50.00474289999999
 31
0.0
  0
LINE
  5
1A2
330
36
100
AcDbEntity
  8
0
 62
     3
100
AcDbLine
 10
32.09045624
 20
52.50474289999999
 30
0.0
 11
34.59045624
 21
52.50474289999999
 31
0.0
  0
LINE
  5
1A3
330
36
100
AcDbEntity
  8
0
 62
     3
100
AcDbLine
 10
34.59045624
 20
48.3797429
 30
0.0
 11
34.59045624
 21
54.43397482
 31
0.0
  0
LINE
  5
1A4
330
36
100
AcDbEntity
  8
0
 62
     3
100
AcDbLine
 10
56.18810436
 20
39.28749712
 30
0.0
 11
56.18810436
 21
41.84383967
 31
0.0
  0
CIRCLE
  5
1A5
330
36
100
AcDbEntity
  8
0
 62
     3
100
AcDbCircle
 10
56.16770801
 20
36.91060723
 30
0.0
 40
1.267712909999997
  0
ARC
  5
1A6
330
36
100
AcDbEntity
  8
0
 62
     3
100
AcDbCircle
 10
56.18810436
 20
53.59050509999999
 30
0.0
 40
18.62927108
100
AcDbArc
 50
262.88356789
 51
277.11643211
  0
ARC
  5
1A7
330
36
100
AcDbEntity
  8
0
 62
     3
100
AcDbCircle
 10
56.18810436
 20
23.66898071
 30
0.0
 40
18.62927108
100
AcDbArc
 50
82.88356788999998
 51
97.11643211000001
  0
ARC
  5
1A8
330
36
100
AcDbEntity
  8
0
 62
     3
100
AcDbCircle
 10
58.46503997
 20
41.90666613
 30
0.0
 40
0.25
100
AcDbArc
 50
7.246192879999997
 51
82.88356788999998
  0
ARC
  5
1A9
330
36
100
AcDbEntity
  8
0
 62
     3
100
AcDbCircle
 10
26.79402727
 20
37.87974290000001
 30
0.0
 40
32.17599499
100
AcDbArc
 50
352.75380712
 51
7.246192879999997
  0
ARC
  5
1AA
330
36
100
AcDbEntity
  8
0
 62
     3
100
AcDbCircle
 10
53.91116875
 20
41.90666613
 30
0.0
 40
0.25
100
AcDbArc
 50
97.11643211000001
 51
172.75380712
  0
ARC
  5
1AB
330
36
100
AcDbEntity
  8
0
 62
     3
100
AcDbCircle
 10
58.46503997
 20
33.85281968000001
 30
0.0
 40
0.25
100
AcDbArc
 50
277.11643211
 51
352.75380712
  0
ARC
  5
1AC
330
36
100
AcDbEntity
  8
0
 62
     3
100
AcDbCircle
 10
53.91116875
 20
35.35281968
 30
0.0
 40
0.25
100
AcDbArc
 50
187.24619288
 51
262.88356789
  0
ARC
  5
1AD
330
36
100
AcDbEntity
  8
0
 62
     3
100
AcDbCircle
 10
85.58218145999999
 20
37.87974290000001
 30
0.0
 40
32.17599499
100
AcDbArc
 50
172.75380712
 51
187.24619288
  0
ARC
  5
1AE
330
36
100
AcDbEntity
  8
0
 62
     3
100
AcDbCircle
 10
58.46503997
 20
35.35281968
 30
0.0
 40
0.25
100
AcDbArc
 50
277.11643211
 51
352.75380712
  0
ARC
  5
1AF
330
36
100
AcDbEntity
  8
0
 62
     3
100
AcDbCircle
 10
56.18810436
 20
52.0905051
 30
0.0
 40
18.62927108
100
AcDbArc
 50
262.88356789
 51
277.11643211
  0
ARC
  5
1B0
330
36
100
AcDbEntity
  8
0
 62
     3
100
AcDbCircle
 10
53.91116875
 20
33.85281968000001
 30
0.0
 40
0.25
100
AcDbArc
 50
187.24619288
 51
262.88356789
  0
LINE
  5
1B1
330
36
100
AcDbEntity
  8
0
 62
     3
100
AcDbLine
 10
106.09045624
 20
48.12974289999999
 30
0.0
 11
106.59045624
 21
48.12974289999999
 31
0.0
  0
LINE
  5
1B2
330
36
100
AcDbEntity
  8
0
 62
     3
100
AcDbLine
 10
106.09045624
 20
27.6297429
 30
0.0
 11
106.59045624
 21
27.6297429
 31
0.0
  0
LINE
  5
1B3
330
36
100
AcDbEntity
  8
0
 62
     3
100
AcDbLine
 10
98.59045624
 20
18.3797429
 30
0.0
 11
92.86488936000001
 21
18.3797429
 31
0.0
  0
ARC
  5
1BF
330
36
100
AcDbEntity
  8
0
 62
     7
100
AcDbCircle
 10
113.88350921
 20
31.56881567
 30
0.0
 40
1.20694703
100
AcDbArc
 50
279.87290489
 51
80.12709511
  0
LINE
  5
1C0
330
36
100
AcDbEntity
  8
0
 62
     7
100
AcDbLine
 10
108.59045624
 20
43.00159736
 30
0.0
 11
113.68812666
 21
43.00159736
 31
0.0
  0
LINE
  5
1C1
330
36
100
AcDbEntity
  8
0
 62
     7
100
AcDbLine
 10
108.59045624
 20
42.59931995
 30
0.0
 11
113.68812666
 21
42.59931995
 31
0.0
  0
LINE
  5
1C2
330
36
100
AcDbEntity
  8
0
 62
     7
100
AcDbLine
 10
108.59045624
 20
48.12974289999999
 30
0.0
 11
108.59045624
 21
43.00159736
 31
0.0
  0
LINE
  5
1C3
330
36
100
AcDbEntity
  8
0
 62
     7
100
AcDbLine
 10
108.59045624
 20
43.00159736
 30
0.0
 11
108.59045624
 21
42.59931995
 31
0.0
  0
LINE
  5
1C4
330
36
100
AcDbEntity
  8
0
 62
     7
100
AcDbLine
 10
113.68812666
 20
43.00159736
 30
0.0
 11
113.68812666
 21
40.41552832999999
 31
0.0
  0
LINE
  5
1C5
330
36
100
AcDbEntity
  8
0
 62
     7
100
AcDbLine
 10
115.09045624
 20
40.41552832999999
 30
0.0
 11
113.68812666
 21
40.41552832999999
 31
0.0
  0
LINE
  5
1C6
330
36
100
AcDbEntity
  8
0
 62
     7
100
AcDbLine
 10
113.68812666
 20
40.41552832999999
 30
0.0
 11
113.68812666
 21
39.8797429
 31
0.0
  0
LINE
  5
1C7
330
36
100
AcDbEntity
  8
0
 62
     7
100
AcDbLine
 10
109.00749385
 20
41.02340825
 30
0.0
 11
106.59045624
 21
41.02340825
 31
0.0
  0
LINE
  5
1C8
330
36
100
AcDbEntity
  8
0
 62
     7
100
AcDbLine
 10
109.00749385
 20
41.02340825
 30
0.0
 11
109.00749385
 21
39.84084632
 31
0.0
  0
LINE
  5
1C9
330
36
100
AcDbEntity
  8
0
 62
     7
100
AcDbLine
 10
109.00749385
 20
41.02340825
 30
0.0
 11
113.68812666
 21
42.12370626
 31
0.0
  0
ARC
  5
1CA
330
36
100
AcDbEntity
  8
0
 62
     7
100
AcDbCircle
 10
101.47375971
 20
37.87974290000001
 30
0.0
 40
13.61669653
100
AcDbArc
 50
337.90489177
 51
0.0
  0
ARC
  5
1CB
330
36
100
AcDbEntity
  8
0
 62
     3
100
AcDbCircle
 10
98.59045624
 20
25.3797429
 30
0.0
 40
7.0
100
AcDbArc
 50
270.0
 51
0.0
  0
LINE
  5
1CC
330
36
100
AcDbEntity
  8
0
 62
     3
100
AcDbLine
 10
105.59045624
 20
25.3797429
 30
0.0
 11
105.59045624
 21
26.7637175
 31
0.0
  0
LINE
  5
1CD
330
36
100
AcDbEntity
  8
0
 62
     3
100
AcDbLine
 10
107.59045624
 20
25.3797429
 30
0.0
 11
107.59045624
 21
26.6297429
 31
0.0
  0
ARC
  5
1CE
330
36
100
AcDbEntity
  8
0
 62
     3
100
AcDbCircle
 10
98.59045624
 20
25.3797429
 30
0.0
 40
9.0
100
AcDbArc
 50
270.0
 51
0.0
  0
LINE
  5
1CF
330
36
100
AcDbEntity
  8
0
 62
     3
100
AcDbLine
 10
98.59045624
 20
16.3797429
 30
0.0
 11
89.65276815000001
 21
16.3797429
 31
0.0
  0
LINE
  5
1D0
330
36
100
AcDbEntity
  8
0
 62
     3
100
AcDbLine
 10
92.86488936000001
 20
18.3797429
 30
0.0
 11
89.65276815000001
 21
16.3797429
 31
0.0
  0
LINE
  5
1D1
330
36
100
AcDbEntity
  8
0
 62
     7
100
AcDbLine
 10
109.00749385
 20
30.3797429
 30
0.0
 11
109.00749385
 21
37.87974290000001
 31
0.0
  0
LINE
  5
1D2
330
36
100
AcDbEntity
  8
0
 62
     3
100
AcDbLine
 10
78.45857676
 20
-0.84164185
 30
0.0
 11
77.98357676000001
 21
-0.84164185
 31
0.0
  0
LINE
  5
1D3
330
36
100
AcDbEntity
  8
0
 62
     3
100
AcDbLine
 10
78.45857676
 20
13.57393068
 30
0.0
 11
77.98357676000001
 21
13.57393068
 31
0.0
  0
LINE
  5
1D4
330
36
100
AcDbEntity
  8
0
 62
     3
100
AcDbLine
 10
92.39914928999999
 20
10.64114441
 30
0.0
 11
92.39914928999999
 21
2.09114441
 31
0.0
  0
ARC
  5
1D5
330
36
100
AcDbEntity
  8
0
 62
     3
100
AcDbCircle
 10
81.82772943000001
 20
0.19114441
 30
0.0
 40
0.475
100
AcDbArc
 50
90.0
 51
180.0
  0
ARC
  5
1D6
330
36
100
AcDbEntity
  8
0
 62
     3
100
AcDbCircle
 10
81.82772943000001
 20
12.54114441
 30
0.0
 40
0.475
100
AcDbArc
 50
180.0
 51
270.0
  0
LINE
  5
1D7
330
36
100
AcDbEntity
  8
0
 62
     3
100
AcDbLine
 10
81.35272943
 20
0.19114441
 30
0.0
 11
81.35272943
 21
12.54114441
 31
0.0
  0
LINE
  5
1EA
330
36
100
AcDbEntity
  8
0
 62
     7
100
AcDbLine
 10
98.98872709
 20
2.667041579999998
 30
0.0
 11
98.98872709
 21
10.11508739
 31
0.0
  0
LINE
  5
1EB
330
36
100
AcDbEntity
  8
0
 62
     7
100
AcDbLine
 10
99.70950571999999
 20
2.667041579999998
 30
0.0
 11
99.70950571999999
 21
10.11508739
 31
0.0
  0
LINE
  5
1EC
330
36
100
AcDbEntity
  8
0
 62
     7
100
AcDbLine
 10
99.70950571999999
 20
5.82309826
 30
0.0
 11
98.98872709
 21
5.82309826
 31
0.0
  0
LINE
  5
1ED
330
36
100
AcDbEntity
  8
0
 62
     7
100
AcDbLine
 10
99.70950571999999
 20
8.46065474
 30
0.0
 11
98.98872709
 21
8.46065474
 31
0.0
  0
LINE
  5
1EE
330
36
100
AcDbEntity
  8
0
 62
     7
100
AcDbLine
 10
99.70950571999999
 20
9.691420599999997
 30
0.0
 11
98.98872709
 21
9.691420599999997
 31
0.0
  0
LINE
  5
1EF
330
36
100
AcDbEntity
  8
0
 62
     7
100
AcDbLine
 10
99.70950571999999
 20
3.09070837
 30
0.0
 11
98.98872709
 21
3.09070837
 31
0.0
  0
LINE
  5
1F0
330
36
100
AcDbEntity
  8
0
 62
     7
100
AcDbLine
 10
81.82772943000001
 20
6.36614441
 30
0.0
 11
81.82772943000001
 21
12.13237342
 31
0.0
  0
LINE
  5
1F1
330
36
100
AcDbEntity
  8
0
 62
     7
100
AcDbLine
 10
81.82772943000001
 20
6.36614441
 30
0.0
 11
81.82772943000001
 21
0.5999154000000001
 31
0.0
  0
LINE
  5
1F2
330
36
100
AcDbEntity
  8
0
 62
     3
100
AcDbLine
 10
77.94961847999998
 20
9.56588084
 30
0.0
 11
68.60509154999999
 21
9.56588084
 31
0.0
  0
LINE
  5
1F3
330
36
100
AcDbEntity
  8
0
 62
     3
100
AcDbLine
 10
77.94961847999998
 20
10.42088084
 30
0.0
 11
68.60509154999999
 21
10.42088084
 31
0.0
  0
LINE
  5
1F4
330
36
100
AcDbEntity
  8
0
 62
     3
100
AcDbLine
 10
77.94961847999998
 20
3.181880839999998
 30
0.0
 11
68.60509154999999
 21
3.181880839999998
 31
0.0
  0
LINE
  5
1F5
330
36
100
AcDbEntity
  8
0
 62
     3
100
AcDbLine
 10
77.94961847999998
 20
2.326880839999998
 30
0.0
 11
68.60509154999999
 21
2.326880839999998
 31
0.0
  0
ARC
  5
1F6
330
36
100
AcDbEntity
  8
0
 62
     7
100
AcDbCircle
 10
92.74749808000001
 20
2.591064489999999
 30
0.0
 40
0.2375
100
AcDbArc
 50
270.0
 51
0.0
  0
ARC
  5
1F7
330
36
100
AcDbEntity
  8
0
 62
     7
100
AcDbCircle
 10
92.74749808000001
 20
10.19106449
 30
0.0
 40
0.2375
100
AcDbArc
 50
0.0
 51
90.0
  0
LINE
  5
1F8
330
36
100
AcDbEntity
  8
0
  6
HIDDEN
 62
     7
100
AcDbLine
 10
92.98499808
 20
3.778564489999998
 30
0.0
 11
92.98499808
 21
3.507949979999998
 31
0.0
  0
LINE
  5
1F9
330
36
100
AcDbEntity
  8
0
  6
HIDDEN
 62
     7
100
AcDbLine
 10
92.98499808
 20
9.00356449
 30
0.0
 11
92.98499808
 21
9.274178989999999
 31
0.0
  0
LINE
  5
1FA
330
36
100
AcDbEntity
  8
0
 62
     7
100
AcDbLine
 10
98.03044846
 20
10.11508739
 30
0.0
 11
98.98872709
 21
10.11508739
 31
0.0
  0
LINE
  5
1FB
330
36
100
AcDbEntity
  8
0
 62
     7
100
AcDbLine
 10
96.34587213000001
 20
10.11508739
 30
0.0
 11
97.30966984
 21
10.11508739
 31
0.0
  0
LINE
  5
1FC
330
36
100
AcDbEntity
  8
0
 62
     7
100
AcDbLine
 10
94.66681487
 20
10.11508739
 30
0.0
 11
95.6250935
 21
10.11508739
 31
0.0
  0
LINE
  5
1FD
330
36
100
AcDbEntity
  8
0
 62
     7
100
AcDbLine
 10
92.98499808
 20
10.11508739
 30
0.0
 11
93.94603625
 21
10.11508739
 31
0.0
  0
LINE
  5
1FE
330
36
100
AcDbEntity
  8
0
 62
     7
100
AcDbLine
 10
92.98499808
 20
2.667041579999998
 30
0.0
 11
93.94603625
 21
2.667041579999998
 31
0.0
  0
LINE
  5
1FF
330
36
100
AcDbEntity
  8
0
 62
     7
100
AcDbLine
 10
94.66681487
 20
2.667041579999998
 30
0.0
 11
95.6250935
 21
2.667041579999998
 31
0.0
  0
LINE
  5
200
330
36
100
AcDbEntity
  8
0
 62
     7
100
AcDbLine
 10
96.34587213000001
 20
2.667041579999998
 30
0.0
 11
97.30966984
 21
2.667041579999998
 31
0.0
  0
LINE
  5
201
330
36
100
AcDbEntity
  8
0
 62
     7
100
AcDbLine
 10
98.03044846
 20
2.667041579999998
 30
0.0
 11
98.98872709
 21
2.667041579999998
 31
0.0
  0
LINE
  5
202
330
36
100
AcDbEntity
  8
0
 62
     7
100
AcDbLine
 10
93.94603625
 20
2.667041579999998
 30
0.0
 11
93.94603625
 21
10.11508739
 31
0.0
  0
LINE
  5
203
330
36
100
AcDbEntity
  8
0
 62
     7
100
AcDbLine
 10
94.66681487
 20
2.667041579999998
 30
0.0
 11
94.66681487
 21
10.11508739
 31
0.0
  0
LINE
  5
204
330
36
100
AcDbEntity
  8
0
 62
     7
100
AcDbLine
 10
95.6250935
 20
2.667041579999998
 30
0.0
 11
95.6250935
 21
10.11508739
 31
0.0
  0
LINE
  5
205
330
36
100
AcDbEntity
  8
0
 62
     7
100
AcDbLine
 10
96.34587213000001
 20
2.667041579999998
 30
0.0
 11
96.34587213000001
 21
10.11508739
 31
0.0
  0
LINE
  5
206
330
36
100
AcDbEntity
  8
0
 62
     7
100
AcDbLine
 10
97.30966984
 20
2.667041579999998
 30
0.0
 11
97.30966984
 21
10.11508739
 31
0.0
  0
LINE
  5
207
330
36
100
AcDbEntity
  8
0
 62
     7
100
AcDbLine
 10
98.03044846
 20
2.667041579999998
 30
0.0
 11
98.03044846
 21
10.11508739
 31
0.0
  0
LINE
  5
208
330
36
100
AcDbEntity
  8
0
 62
     7
100
AcDbLine
 10
98.03044846
 20
5.82309826
 30
0.0
 11
97.30966984
 21
5.82309826
 31
0.0
  0
LINE
  5
209
330
36
100
AcDbEntity
  8
0
 62
     7
100
AcDbLine
 10
96.34587213000001
 20
5.82309826
 30
0.0
 11
95.6250935
 21
5.82309826
 31
0.0
  0
LINE
  5
20A
330
36
100
AcDbEntity
  8
0
 62
     7
100
AcDbLine
 10
94.66681487
 20
5.82309826
 30
0.0
 11
93.94603625
 21
5.82309826
 31
0.0
  0
LINE
  5
20B
330
36
100
AcDbEntity
  8
0
 62
     7
100
AcDbLine
 10
98.03044846
 20
8.46065474
 30
0.0
 11
97.30966984
 21
8.46065474
 31
0.0
  0
LINE
  5
20C
330
36
100
AcDbEntity
  8
0
 62
     7
100
AcDbLine
 10
96.34587213000001
 20
8.46065474
 30
0.0
 11
95.6250935
 21
8.46065474
 31
0.0
  0
LINE
  5
20D
330
36
100
AcDbEntity
  8
0
 62
     7
100
AcDbLine
 10
94.66681487
 20
8.46065474
 30
0.0
 11
93.94603625
 21
8.46065474
 31
0.0
  0
LINE
  5
20E
330
36
100
AcDbEntity
  8
0
 62
     7
100
AcDbLine
 10
98.03044846
 20
9.691420599999997
 30
0.0
 11
97.30966984
 21
9.691420599999997
 31
0.0
  0
LINE
  5
20F
330
36
100
AcDbEntity
  8
0
 62
     7
100
AcDbLine
 10
96.34587213000001
 20
9.691420599999997
 30
0.0
 11
95.6250935
 21
9.691420599999997
 31
0.0
  0
LINE
  5
210
330
36
100
AcDbEntity
  8
0
 62
     7
100
AcDbLine
 10
94.66681487
 20
9.691420599999997
 30
0.0
 11
93.94603625
 21
9.691420599999997
 31
0.0
  0
LINE
  5
211
330
36
100
AcDbEntity
  8
0
 62
     7
100
AcDbLine
 10
94.66681487
 20
3.09070837
 30
0.0
 11
93.94603625
 21
3.09070837
 31
0.0
  0
LINE
  5
212
330
36
100
AcDbEntity
  8
0
 62
     7
100
AcDbLine
 10
96.34587213000001
 20
3.09070837
 30
0.0
 11
95.6250935
 21
3.09070837
 31
0.0
  0
LINE
  5
213
330
36
100
AcDbEntity
  8
0
 62
     7
100
AcDbLine
 10
98.03044846
 20
3.09070837
 30
0.0
 11
97.30966984
 21
3.09070837
 31
0.0
  0
LINE
  5
214
330
36
100
AcDbEntity
  8
0
 62
     7
100
AcDbLine
 10
92.98499808
 20
10.19106449
 30
0.0
 11
92.98499808
 21
2.591064489999999
 31
0.0
  0
LINE
  5
215
330
36
100
AcDbEntity
  8
0
 62
     3
100
AcDbLine
 10
115.59739334
 20
35.8797429
 30
0.0
 11
115.09045624
 21
35.8797429
 31
0.0
  0
LINE
  5
216
330
36
100
AcDbEntity
  8
0
 62
     3
100
AcDbLine
 10
115.69015693
 20
39.8797429
 30
0.0
 11
115.09045624
 21
39.8797429
 31
0.0
  0
LINE
  5
217
330
36
100
AcDbEntity
  8
0
 62
     3
100
AcDbLine
 10
115.27881153
 20
4.60129841
 30
0.0
 11
114.51560635
 21
4.60129841
 31
0.0
  0
LINE
  5
219
330
36
100
AcDbEntity
  8
0
 62
     3
100
AcDbLine
 10
30.01799097
 20
47.75130088
 30
0.0
 11
32.01270814
 21
47.75130088
 31
0.0
  0
LINE
  5
21A
330
36
100
AcDbEntity
  8
0
 62
     3
100
AcDbLine
 10
27.02243871
 20
52.27279092999999
 30
0.0
 11
32.01270814
 21
52.27279092999999
 31
0.0
  0
LINE
  5
21B
330
36
100
AcDbEntity
  8
0
 62
     3
100
AcDbLine
 10
27.02243871
 20
50.47981083999999
 30
0.0
 11
32.01270814
 21
50.47981083999999
 31
0.0
  0
LINE
  5
21C
330
36
100
AcDbEntity
  8
0
 62
     3
100
AcDbLine
 10
32.10825563
 20
21.79656162
 30
0.0
 11
32.10825563
 21
37.87974290000001
 31
0.0
  0
LINE
  5
21D
330
36
100
AcDbEntity
  8
0
 62
     3
100
AcDbLine
 10
32.10825563
 20
37.87974290000001
 30
0.0
 11
32.10825563
 21
53.96292418
 31
0.0
  0
LINE
  5
21E
330
36
100
AcDbEntity
  8
0
 62
     3
100
AcDbLine
 10
27.02243871
 20
49.37630088
 30
0.0
 11
30.01315922
 21
49.07873855
 31
0.0
  0
LINE
  5
21F
330
36
100
AcDbEntity
  8
0
 62
     3
100
AcDbLine
 10
30.01799097
 20
37.87974290000001
 30
0.0
 11
30.01799097
 21
49.07873855
 31
0.0
  0
LINE
  5
220
330
36
100
AcDbEntity
  8
0
 62
     3
100
AcDbLine
 10
27.02243871
 20
49.37630088
 30
0.0
 11
27.02243871
 21
53.37560762999999
 31
0.0
  0
LINE
  5
227
330
36
100
AcDbEntity
  8
0
 62
     3
100
AcDbLine
 10
-44.72840742
 20
-1.519468159999999
 30
0.0
 11
-41.47532163
 21
-1.519468159999999
 31
0.0
  0
ARC
  5
228
330
36
100
AcDbEntity
  8
0
 62
     3
100
AcDbCircle
 10
-41.82557953999999
 20
-3.01946816
 30
0.0
 40
1.5
100
AcDbArc
 50
270.0
 51
90.0
  0
LINE
  5
229
330
36
100
AcDbEntity
  8
0
 62
     3
100
AcDbLine
 10
-57.21671367999999
 20
46.95886269999999
 30
0.0
 11
-57.21671367999999
 21
46.13053279999999
 31
0.0
  0
LINE
  5
22A
330
36
100
AcDbEntity
  8
0
 62
     3
100
AcDbLine
 10
-57.21671367999999
 20
28.80062311
 30
0.0
 11
-57.21671367999999
 21
29.628953
 31
0.0
  0
LINE
  5
22B
330
36
100
AcDbEntity
  8
0
 62
     3
100
AcDbLine
 10
-50.25327966999999
 20
-4.519468159999997
 30
0.0
 11
-41.82557953999999
 21
-4.519468159999997
 31
0.0
  0
ARC
  5
22C
330
36
100
AcDbEntity
  8
0
 62
     3
100
AcDbCircle
 10
-44.32557953999999
 20
6.48053184
 30
0.0
 40
8.0
100
AcDbArc
 50
90.0
 51
269.99999879
  0
ARC
  5
22D
330
36
100
AcDbEntity
  8
0
 62
     3
100
AcDbCircle
 10
-50.25327966999999
 20
5.48053184
 30
0.0
 40
10.0
100
AcDbArc
 50
167.46492977
 51
270.0
  0
LINE
  5
22E
330
36
100
AcDbEntity
  8
0
  6
HIDDEN
 62
     3
100
AcDbLine
 10
-60.01491311
 20
7.650903389999997
 30
0.0
 11
-60.08160911
 21
7.350926229999998
 31
0.0
  0
ARC
  5
230
330
36
100
AcDbEntity
  8
0
 62
     3
100
AcDbCircle
 10
-57.20194448
 20
58.18435683
 30
0.0
 40
3.0
100
AcDbArc
 50
90.0
 51
213.4660853
  0
LINE
  5
231
330
36
100
AcDbEntity
  8
0
 62
     3
100
AcDbLine
 10
4.03717474
 20
62.72988355999999
 30
0.0
 11
-39.70761525
 21
61.22561058
 31
0.0
  0
ARC
  5
232
330
36
100
AcDbEntity
  8
0
 62
     3
100
AcDbCircle
 10
-39.06576407
 20
42.56035139
 30
0.0
 40
18.67629175
100
AcDbArc
 50
91.96948127
 51
166.37813
  0
LINE
  5
233
330
36
100
AcDbEntity
  8
0
 62
     3
100
AcDbLine
 10
-59.70458161999999
 20
56.53002695
 30
0.0
 11
-56.02633569
 21
50.37974290000001
 31
0.0
  0
LINE
  5
234
330
36
100
AcDbEntity
  8
0
 62
     3
100
AcDbLine
 10
-57.20194448
 20
61.18435683
 30
0.0
 11
-39.70761525
 21
61.18435683
 31
0.0
  0
ARC
  5
235
330
36
100
AcDbEntity
  8
0
 62
     3
100
AcDbCircle
 10
-39.06576407
 20
33.19913442
 30
0.0
 40
18.67629175
100
AcDbArc
 50
193.62187
 51
268.03051873
  0
LINE
  5
236
330
36
100
AcDbEntity
  8
0
 62
     3
100
AcDbLine
 10
-44.32557953999999
 20
14.48053184
 30
0.0
 11
-39.70761525
 21
14.53387523
 31
0.0
  0
LINE
  5
237
330
36
100
AcDbEntity
  8
0
 62
     3
100
AcDbLine
 10
-56.02633569
 20
25.3797429
 30
0.0
 11
-60.01491311
 21
7.650903389999997
 31
0.0
  0
LINE
  5
238
330
36
100
AcDbEntity
  8
0
 62
     3
100
AcDbLine
 10
-57.21671367999999
 20
29.628953
 30
0.0
 11
-57.21671367999999
 21
37.87974290000001
 31
0.0
  0
LINE
  5
239
330
36
100
AcDbEntity
  8
0
  6
HIDDEN
 62
     3
100
AcDbLine
 10
8.011015099999998
 20
63.22891105
 30
0.0
 11
8.011015099999998
 21
63.20405739
 31
0.0
  0
ARC
  5
23A
330
36
100
AcDbEntity
  8
0
 62
     3
100
AcDbCircle
 10
14.98836241
 20
13.09919162
 30
0.0
 40
1.0
100
AcDbArc
 50
281.40592272
 51
0.0
  0
ARC
  5
23B
330
36
100
AcDbEntity
  8
0
 62
     3
100
AcDbCircle
 10
18.47784447
 20
15.61328565
 30
0.0
 40
1.0
100
AcDbArc
 50
281.40592272
 51
0.0
  0
ARC
  5
23C
330
36
100
AcDbEntity
  8
0
 62
     3
100
AcDbCircle
 10
21.96627456
 20
18.13695981
 30
0.0
 40
1.0
100
AcDbArc
 50
281.40592272
 51
0.0
  0
LINE
  5
23D
330
36
100
AcDbEntity
  8
0
 62
     3
100
AcDbLine
 10
24.28789969
 20
19.33151416
 30
0.0
 11
22.96627456
 21
19.33151416
 31
0.0
  0
LINE
  5
23E
330
36
100
AcDbEntity
  8
0
 62
     3
100
AcDbLine
 10
24.63364852
 20
19.39318706
 30
0.0
 11
29.60652372
 21
21.22556065
 31
0.0
  0
ARC
  5
23F
330
36
100
AcDbEntity
  8
0
 62
     3
100
AcDbCircle
 10
24.28789969
 20
20.33151416
 30
0.0
 40
1.0
100
AcDbArc
 50
270.0
 51
290.22751402
  0
ARC
  5
240
330
36
100
AcDbEntity
  8
0
 62
     3
100
AcDbCircle
 10
20.38906178
 20
17.81876826
 30
0.0
 40
1.0
100
AcDbArc
 50
270.0
 51
281.40592272
  0
ARC
  5
241
330
36
100
AcDbEntity
  8
0
 62
     3
100
AcDbCircle
 10
16.90063169
 20
15.29509409
 30
0.0
 40
1.0
100
AcDbArc
 50
270.0
 51
281.40592272
  0
ARC
  5
242
330
36
100
AcDbEntity
  8
0
 62
     3
100
AcDbCircle
 10
30.4708958
 20
18.8797429
 30
0.0
 40
2.5
100
AcDbArc
 50
90.0
 51
110.22751402
  0
ARC
  5
243
330
36
100
AcDbEntity
  8
0
 62
     3
100
AcDbCircle
 10
31.6152233
 20
21.8797429
 30
0.0
 40
0.5
100
AcDbArc
 50
270.0
 51
0.0
  0
LINE
  5
244
330
36
100
AcDbEntity
  8
0
 62
     3
100
AcDbLine
 10
16.90063169
 20
14.29509409
 30
0.0
 11
15.98836241
 21
14.29509409
 31
0.0
  0
LINE
  5
245
330
36
100
AcDbEntity
  8
0
 62
     3
100
AcDbLine
 10
19.47784447
 20
15.61328565
 30
0.0
 11
19.47784447
 21
16.81017369
 31
0.0
  0
LINE
  5
246
330
36
100
AcDbEntity
  8
0
 62
     3
100
AcDbLine
 10
17.09839036
 20
14.31484336
 30
0.0
 11
18.67560314
 21
14.63303491
 31
0.0
  0
LINE
  5
247
330
36
100
AcDbEntity
  8
0
 62
     3
100
AcDbLine
 10
20.38906178
 20
16.81876826
 30
0.0
 11
19.47784447
 21
16.81876826
 31
0.0
  0
LINE
  5
248
330
36
100
AcDbEntity
  8
0
 62
     3
100
AcDbLine
 10
20.58682045
 20
16.83851752
 30
0.0
 11
22.16403323
 21
17.15670907
 31
0.0
  0
LINE
  5
249
330
36
100
AcDbEntity
  8
0
 62
     3
100
AcDbLine
 10
30.4708958
 20
21.3797429
 30
0.0
 11
31.6152233
 21
21.3797429
 31
0.0
  0
LINE
  5
24A
330
36
100
AcDbEntity
  8
0
 62
     3
100
AcDbLine
 10
14.98836241
 20
60.46481703
 30
0.0
 11
14.98836241
 21
62.45569313
 31
0.0
  0
LINE
  5
24B
330
36
100
AcDbEntity
  8
0
 62
     3
100
AcDbLine
 10
15.98836241
 20
62.66029418
 30
0.0
 11
15.98836241
 21
61.46340613999999
 31
0.0
  0
LINE
  5
24C
330
36
100
AcDbEntity
  8
0
 62
     3
100
AcDbLine
 10
18.47784447
 20
59.94159911
 30
0.0
 11
18.47784447
 21
58.95164581
 31
0.0
  0
LINE
  5
24D
330
36
100
AcDbEntity
  8
0
 62
     3
100
AcDbLine
 10
16.90063169
 20
61.46439171
 30
0.0
 11
15.98836241
 21
61.46439171
 31
0.0
  0
LINE
  5
24E
330
36
100
AcDbEntity
  8
0
 62
     3
100
AcDbLine
 10
19.47784447
 20
60.14620016
 30
0.0
 11
19.47784447
 21
58.94931211
 31
0.0
  0
LINE
  5
24F
330
36
100
AcDbEntity
  8
0
 62
     3
100
AcDbLine
 10
17.09839036
 20
61.44464245
 30
0.0
 11
18.67560314
 21
61.1264509
 31
0.0
  0
LINE
  5
250
330
36
100
AcDbEntity
  8
0
 62
     3
100
AcDbLine
 10
18.27728414
 20
60.18666179
 30
0.0
 11
16.89852348
 21
60.46481703
 31
0.0
  0
LINE
  5
251
330
36
100
AcDbEntity
  8
0
 62
     3
100
AcDbLine
 10
16.89852348
 20
60.46481703
 30
0.0
 11
14.98836241
 21
60.46481703
 31
0.0
  0
ARC
  5
252
330
36
100
AcDbEntity
  8
0
 62
     3
100
AcDbCircle
 10
14.98836241
 20
62.66029418
 30
0.0
 40
1.0
100
AcDbArc
 50
0.0
 51
78.59407727999998
  0
ARC
  5
253
330
36
100
AcDbEntity
  8
0
 62
     3
100
AcDbCircle
 10
18.47784447
 20
60.14620016
 30
0.0
 40
1.0
100
AcDbArc
 50
0.0
 51
78.59407727999998
  0
ARC
  5
254
330
36
100
AcDbEntity
  8
0
 62
     3
100
AcDbCircle
 10
14.73836241
 20
62.45569313
 30
0.0
 40
0.25
100
AcDbArc
 50
0.0
 51
78.59407727999998
  0
ARC
  5
255
330
36
100
AcDbEntity
  8
0
 62
     3
100
AcDbCircle
 10
18.22784447
 20
59.94159911
 30
0.0
 40
0.25
100
AcDbArc
 50
0.0
 51
78.59407727999998
  0
LINE
  5
256
330
36
100
AcDbEntity
  8
0
 62
     3
100
AcDbLine
 10
21.96627456
 20
57.41792494
 30
0.0
 11
21.96627456
 21
56.42797165000001
 31
0.0
  0
LINE
  5
257
330
36
100
AcDbEntity
  8
0
 62
     3
100
AcDbLine
 10
20.38906178
 20
58.94071754
 30
0.0
 11
19.47784447
 21
58.94071754
 31
0.0
  0
LINE
  5
258
330
36
100
AcDbEntity
  8
0
 62
     3
100
AcDbLine
 10
22.96627456
 20
57.62252598999999
 30
0.0
 11
22.96627456
 21
56.42563795
 31
0.0
  0
LINE
  5
259
330
36
100
AcDbEntity
  8
0
 62
     3
100
AcDbLine
 10
20.58682045
 20
58.92096827999999
 30
0.0
 11
22.16403323
 21
58.60277673
 31
0.0
  0
LINE
  5
25A
330
36
100
AcDbEntity
  8
0
 62
     3
100
AcDbLine
 10
21.76571422
 20
57.66298763
 30
0.0
 11
20.38695357
 21
57.94114286
 31
0.0
  0
LINE
  5
25B
330
36
100
AcDbEntity
  8
0
 62
     3
100
AcDbLine
 10
20.38695357
 20
57.94114286
 30
0.0
 11
18.47679249
 21
57.94114286
 31
0.0
  0
ARC
  5
25C
330
36
100
AcDbEntity
  8
0
 62
     3
100
AcDbCircle
 10
21.96627456
 20
57.62252598999999
 30
0.0
 40
1.0
100
AcDbArc
 50
0.0
 51
78.59407727999998
  0
ARC
  5
25D
330
36
100
AcDbEntity
  8
0
 62
     3
100
AcDbCircle
 10
21.71627456
 20
57.41792494
 30
0.0
 40
0.25
100
AcDbArc
 50
0.0
 51
78.59407727999998
  0
LINE
  5
25E
330
36
100
AcDbEntity
  8
0
 62
     3
100
AcDbLine
 10
18.47679249
 20
58.99206567
 30
0.0
 11
18.47679249
 21
57.94114286
 31
0.0
  0
LINE
  5
25F
330
36
100
AcDbEntity
  8
0
 62
     3
100
AcDbLine
 10
21.96627456
 20
56.42797165000001
 30
0.0
 11
21.96627456
 21
55.42797165
 31
0.0
  0
LINE
  5
260
330
36
100
AcDbEntity
  8
0
 62
     3
100
AcDbLine
 10
24.28789969
 20
56.42797165000001
 30
0.0
 11
22.96627456
 21
56.42797165000001
 31
0.0
  0
LINE
  5
261
330
36
100
AcDbEntity
  8
0
 62
     3
100
AcDbLine
 10
21.96627456
 20
55.42797165
 30
0.0
 11
24.33470278
 21
55.42797165
 31
0.0
  0
LINE
  5
262
330
36
100
AcDbEntity
  8
0
 62
     3
100
AcDbLine
 10
24.63364852
 20
56.36629875
 30
0.0
 11
29.60652372
 21
54.53392516
 31
0.0
  0
LINE
  5
263
330
36
100
AcDbEntity
  8
0
 62
     3
100
AcDbLine
 10
24.28789969
 20
55.42797165
 30
0.0
 11
29.25497688
 21
53.59773447
 31
0.0
  0
ARC
  5
264
330
36
100
AcDbEntity
  8
0
 62
     3
100
AcDbCircle
 10
24.28789969
 20
55.42797165
 30
0.0
 40
1.0
100
AcDbArc
 50
69.77248598
 51
90.0
  0
ARC
  5
265
330
36
100
AcDbEntity
  8
0
 62
     3
100
AcDbCircle
 10
20.38906178
 20
57.94071754
 30
0.0
 40
1.0
100
AcDbArc
 50
78.59407727999998
 51
90.0
  0
ARC
  5
266
330
36
100
AcDbEntity
  8
0
 62
     3
100
AcDbCircle
 10
16.90063169
 20
60.46439171
 30
0.0
 40
1.0
100
AcDbArc
 50
78.59407727999998
 51
90.0
  0
LINE
  5
267
330
36
100
AcDbEntity
  8
0
 62
     3
100
AcDbLine
 10
27.02940638
 20
53.37630088
 30
0.0
 11
29.25497688
 21
53.59773447
 31
0.0
  0
LINE
  5
269
330
36
100
AcDbEntity
  8
0
 62
     3
100
AcDbLine
 10
26.33465137
 20
45.58739625
 30
0.0
 11
29.63703364
 21
44.87974289999999
 31
0.0
  0
LINE
  5
26A
330
36
100
AcDbEntity
  8
0
 62
     3
100
AcDbLine
 10
26.53703364
 20
45.95310922
 30
0.0
 11
29.63703364
 21
45.28882349999999
 31
0.0
  0
LINE
  5
26B
330
36
100
AcDbEntity
  8
0
 62
     3
100
AcDbLine
 10
26.53703364
 20
46.9797429
 30
0.0
 11
26.53703364
 21
45.95310922
 31
0.0
  0
LINE
  5
26C
330
36
100
AcDbEntity
  8
0
 62
     3
100
AcDbLine
 10
26.13703364
 20
47.1297429
 30
0.0
 11
26.13703364
 21
45.83184684999999
 31
0.0
  0
ARC
  5
26D
330
36
100
AcDbEntity
  8
0
 62
     3
100
AcDbCircle
 10
26.38703364
 20
47.1297429
 30
0.0
 40
0.25
100
AcDbArc
 50
90.0
 51
180.0
  0
LINE
  5
26E
330
36
100
AcDbEntity
  8
0
 62
     3
100
AcDbLine
 10
32.03703364
 20
46.9797429
 30
0.0
 11
26.53703364
 21
46.9797429
 31
0.0
  0
LINE
  5
26F
330
36
100
AcDbEntity
  8
0
 62
     3
100
AcDbLine
 10
31.88703364
 20
47.37974289999999
 30
0.0
 11
26.38703364
 21
47.37974289999999
 31
0.0
  0
ARC
  5
270
330
36
100
AcDbEntity
  8
0
 62
     3
100
AcDbCircle
 10
30.4708958
 20
56.87974289999999
 30
0.0
 40
2.5
100
AcDbArc
 50
249.77248598
 51
270.0
  0
LINE
  5
271
330
36
100
AcDbEntity
  8
0
 62
     3
100
AcDbLine
 10
30.4708958
 20
54.37974289999999
 30
0.0
 11
31.6152233
 21
54.37974289999999
 31
0.0
  0
LINE
  5
272
330
36
100
AcDbEntity
  8
0
 62
     3
100
AcDbLine
 10
29.63703364
 20
45.28882349999999
 30
0.0
 11
29.63703364
 21
44.87974289999999
 31
0.0
  0
ARC
  5
273
330
36
100
AcDbEntity
  8
0
 62
     3
100
AcDbCircle
 10
31.6152233
 20
53.87974289999998
 30
0.0
 40
0.5
100
AcDbArc
 50
0.0
 51
90.0
  0
LINE
  5
274
330
36
100
AcDbEntity
  8
0
 62
     3
100
AcDbLine
 10
15.98836241
 20
13.09919162
 30
0.0
 11
15.98836241
 21
37.87974290000001
 31
0.0
  0
LINE
  5
275
330
36
100
AcDbEntity
  8
0
 62
     3
100
AcDbLine
 10
19.47784447
 20
16.81876826
 30
0.0
 11
19.47784447
 21
37.87974290000001
 31
0.0
  0
LINE
  5
276
330
36
100
AcDbEntity
  8
0
 62
     3
100
AcDbLine
 10
22.96627456
 20
18.13695981
 30
0.0
 11
22.96627456
 21
37.87974290000001
 31
0.0
  0
LINE
  5
277
330
36
100
AcDbEntity
  8
0
 62
     3
100
AcDbLine
 10
26.13703364
 20
45.60766001
 30
0.0
 11
26.13703364
 21
37.87974290000001
 31
0.0
  0
TEXT
  5
278
330
36
100
AcDbEntity
  8
0
 62
     3
100
AcDbText
 10
163.08247679
 20
-124.16652628
 30
0.0
 40
3.2
  1
2006.3.24
  7
高3.2
100
AcDbText
  0
LINE
  5
279
330
36
100
AcDbEntity
  8
0
 62
     3
100
AcDbLine
 10
-57.21671367999999
 20
46.13053279999999
 30
0.0
 11
-57.21671367999999
 21
37.87974290000001
 31
0.0
  0
LINE
  5
27A
330
36
100
AcDbEntity
  8
0
 62
     3
100
AcDbLine
 10
8.668120379999999
 20
62.70075581
 30
0.0
 11
14.79490736
 21
62.70075581
 31
0.0
  0
LINE
  5
27B
330
36
100
AcDbEntity
  8
0
 62
     3
100
AcDbLine
 10
10.26812038
 20
64.47848573
 30
0.0
 11
10.26812038
 21
63.70075581
 31
0.0
  0
LINE
  5
27C
330
36
100
AcDbEntity
  8
0
 62
     3
100
AcDbLine
 10
8.918120379999997
 20
65.20735306999999
 30
0.0
 11
10.01812038
 21
65.20735306999999
 31
0.0
  0
LINE
  5
27D
330
36
100
AcDbEntity
  8
0
  6
DASHED
 62
     3
100
AcDbLine
 10
9.268120379999999
 20
64.2297429
 30
0.0
 11
9.8382094
 21
63.71112216
 31
0.0
  0
LINE
  5
27E
330
36
100
AcDbEntity
  8
0
  6
DASHED
 62
     3
100
AcDbLine
 10
9.8382094
 20
63.71112216
 30
0.0
 11
10.26812038
 21
63.71112216
 31
0.0
  0
LINE
  5
27F
330
36
100
AcDbEntity
  8
0
  6
DASHED
 62
     3
100
AcDbLine
 10
8.668120379999999
 20
64.2297429
 30
0.0
 11
9.268120379999999
 21
64.2297429
 31
0.0
  0
LINE
  5
280
330
36
100
AcDbEntity
  8
0
 62
     3
100
AcDbLine
 10
10.26812038
 20
63.71112216
 30
0.0
 11
15.16638587
 21
63.64432042
 31
0.0
  0
ARC
  5
281
330
36
100
AcDbEntity
  8
0
 62
     3
100
AcDbCircle
 10
10.01812038
 20
64.95735307
 30
0.0
 40
0.25
100
AcDbArc
 50
0.0
 51
90.0
  0
LINE
  5
282
330
36
100
AcDbEntity
  8
0
 62
     3
100
AcDbLine
 10
11.77596602
 20
12.07233685
 30
0.0
 11
15.19322636
 21
12.11894089
 31
0.0
  0
ARC
  5
283
330
36
100
AcDbEntity
  8
0
 62
     3
100
AcDbCircle
 10
11.67596602
 20
10.33057476
 30
0.0
 40
0.1
100
AcDbArc
 50
0.0
 51
90.0
  0
LINE
  5
284
330
36
100
AcDbEntity
  8
0
 62
     3
100
AcDbLine
 10
11.77596602
 20
10.33057476
 30
0.0
 11
11.77596602
 21
37.87974290000001
 31
0.0
  0
LINE
  5
286
330
36
100
AcDbEntity
  8
0
 62
     3
100
AcDbLine
 10
5.13398042
 20
13.78762873
 30
0.0
 11
5.13398042
 21
37.87974290000001
 31
0.0
  0
LINE
  5
287
330
36
100
AcDbEntity
  8
0
 62
     3
100
AcDbLine
 10
6.808116029999997
 20
10.49654848
 30
0.0
 11
6.808116029999997
 21
37.87974290000001
 31
0.0
  0
ARC
  5
288
330
36
100
AcDbEntity
  8
0
 62
     3
100
AcDbCircle
 10
11.27596602
 20
9.85213274
 30
0.0
 40
0.5
100
AcDbArc
 50
270.0
 51
0.0
  0
LINE
  5
289
330
36
100
AcDbEntity
  8
0
 62
     3
100
AcDbLine
 10
7.42605128
 20
9.35213274
 30
0.0
 11
11.27596602
 21
9.35213274
 31
0.0
  0
ARC
  5
28A
330
36
100
AcDbEntity
  8
0
 62
     3
100
AcDbCircle
 10
7.42605128
 20
10.35213274
 30
0.0
 40
1.0
100
AcDbArc
 50
203.94539699
 51
270.0
  0
LINE
  5
28B
330
36
100
AcDbEntity
  8
0
 62
     3
100
AcDbLine
 10
11.77596602
 20
10.33057476
 30
0.0
 11
11.77596602
 21
9.85213274
 31
0.0
  0
LINE
  5
28C
330
36
100
AcDbEntity
  8
0
 62
     3
100
AcDbLine
 10
5.758145009999998
 20
11.84407198
 30
0.0
 11
6.512118609999999
 21
9.94626689
 31
0.0
  0
ARC
  5
28D
330
36
100
AcDbEntity
  8
0
 62
     3
100
AcDbCircle
 10
3.930279689999998
 20
11.03234028
 30
0.0
 40
2.0
100
AcDbArc
 50
23.94539699
 51
88.03051872999999
  0
LINE
  5
28E
330
36
100
AcDbEntity
  8
0
 62
     3
100
AcDbLine
 10
4.03717474
 20
13.02960225
 30
0.0
 11
-39.70761525
 21
14.53387523
 31
0.0
  0
LINE
  5
28F
330
36
100
AcDbEntity
  8
0
 62
     3
100
AcDbLine
 10
7.42605128
 20
66.40735306999999
 30
0.0
 11
11.27596602
 21
66.40735306999999
 31
0.0
  0
ARC
  5
290
330
36
100
AcDbEntity
  8
0
 62
     3
100
AcDbCircle
 10
11.27596602
 20
65.90735307
 30
0.0
 40
0.5
100
AcDbArc
 50
0.0
 51
90.0
  0
ARC
  5
291
330
36
100
AcDbEntity
  8
0
 62
     3
100
AcDbCircle
 10
11.52596602
 20
64.73162227
 30
0.0
 40
0.25
100
AcDbArc
 50
270.0
 51
0.0
  0
LINE
  5
292
330
36
100
AcDbEntity
  8
0
 62
     3
100
AcDbLine
 10
11.52596602
 20
64.48162227
 30
0.0
 11
10.26115271
 21
64.48162227
 31
0.0
  0
LINE
  5
293
330
36
100
AcDbEntity
  8
0
 62
     3
100
AcDbLine
 10
11.77596602
 20
65.90735307
 30
0.0
 11
11.77596602
 21
64.73162227
 31
0.0
  0
ARC
  5
294
330
36
100
AcDbEntity
  8
0
 62
     3
100
AcDbCircle
 10
3.930279689999998
 20
64.72714551999999
 30
0.0
 40
2.0
100
AcDbArc
 50
271.96948127
 51
336.05460301
  0
LINE
  5
295
330
36
100
AcDbEntity
  8
0
 62
     3
100
AcDbLine
 10
6.512118609999999
 20
65.81321891
 30
0.0
 11
5.758145009999998
 21
63.91541382999999
 31
0.0
  0
ARC
  5
296
330
36
100
AcDbEntity
  8
0
 62
     3
100
AcDbCircle
 10
7.42605128
 20
65.40735307
 30
0.0
 40
1.0
100
AcDbArc
 50
90.0
 51
156.05460301
  0
LINE
  5
297
330
36
100
AcDbEntity
  8
0
 62
     3
100
AcDbLine
 10
10.26812038
 20
64.48162227
 30
0.0
 11
10.26812038
 21
65.32891105
 31
0.0
  0
LINE
  5
299
330
36
100
AcDbEntity
  8
0
 62
     3
100
AcDbLine
 10
8.018120379999999
 20
62.3797429
 30
0.0
 11
8.018120379999999
 21
62.70075581
 31
0.0
  0
LINE
  5
29A
330
36
100
AcDbEntity
  8
0
 62
     3
100
AcDbLine
 10
8.518120379999999
 20
62.3797429
 30
0.0
 11
8.518120379999999
 21
61.87974289999999
 31
0.0
  0
LINE
  5
29B
330
36
100
AcDbEntity
  8
0
 62
     3
100
AcDbLine
 10
8.018120379999999
 20
61.87974289999999
 30
0.0
 11
8.518120379999999
 21
61.87974289999999
 31
0.0
  0
LINE
  5
29C
330
36
100
AcDbEntity
  8
0
 62
     3
100
AcDbLine
 10
8.668120379999999
 20
64.95735307
 30
0.0
 11
8.668120379999999
 21
62.70075581
 31
0.0
  0
LINE
  5
29D
330
36
100
AcDbEntity
  8
0
 62
     3
100
AcDbLine
 10
8.018120379999999
 20
62.70075581
 30
0.0
 11
8.018120379999999
 21
65.32891105
 31
0.0
  0
LINE
  5
29E
330
36
100
AcDbEntity
  8
0
 62
     3
100
AcDbLine
 10
10.26812038
 20
65.32891105
 30
0.0
 11
8.018120379999999
 21
65.32891105
 31
0.0
  0
LINE
  5
29F
330
36
100
AcDbEntity
  8
0
 62
     3
100
AcDbLine
 10
8.018120379999999
 20
62.3797429
 30
0.0
 11
8.518120379999999
 21
62.3797429
 31
0.0
  0
ARC
  5
2A0
330
36
100
AcDbEntity
  8
0
 62
     3
100
AcDbCircle
 10
8.918120379999997
 20
64.95735307
 30
0.0
 40
0.25
100
AcDbArc
 50
90.0
 51
180.0
  0
LINE
  5
2A1
330
36
100
AcDbEntity
  8
0
 62
     3
100
AcDbLine
 10
8.330928339999998
 20
65.09051282
 30
0.0
 11
8.330928339999998
 21
62.3797429
 31
0.0
  0
LINE
  5
2A2
330
36
100
AcDbEntity
  8
0
 62
     3
100
AcDbLine
 10
8.49952436
 20
65.02393295
 30
0.0
 11
8.49952436
 21
62.3797429
 31
0.0
  0
LINE
  5
2A3
330
36
100
AcDbEntity
  8
0
 62
     3
100
AcDbLine
 10
8.174524359999999
 20
65.01231083
 30
0.0
 11
8.174524359999999
 21
62.3797429
 31
0.0
  0
LINE
  5
2A4
330
36
100
AcDbEntity
  8
0
 62
     3
100
AcDbLine
 10
8.330928339999998
 20
65.09051282
 30
0.0
 11
7.98988188
 21
64.91998959
 31
0.0
  0
LINE
  5
2A5
330
36
100
AcDbEntity
  8
0
 62
     3
100
AcDbLine
 10
8.668120379999999
 20
64.95735307
 30
0.0
 11
8.330928339999998
 21
65.09051282
 31
0.0
  0
LINE
  5
2A6
330
36
100
AcDbEntity
  8
0
 62
     3
100
AcDbLine
 10
8.668120379999999
 20
62.70075581
 30
0.0
 11
8.518120379999999
 21
62.3797429
 31
0.0
  0
LINE
  5
2A7
330
36
100
AcDbEntity
  8
0
 62
     3
100
AcDbLine
 10
8.518120379999999
 20
61.87974289999999
 30
0.0
 11
8.518120379999999
 21
49.87974290000006
 31
0.0
  0
LINE
  5
2A9
330
36
100
AcDbEntity
  8
0
 62
     7
100
AcDbLine
 10
109.00749385
 20
46.37974289999998
 30
0.0
 11
109.00749385
 21
45.21584673
 31
0.0
  0
LINE
  5
2AA
330
36
100
AcDbEntity
  8
0
 62
     7
100
AcDbLine
 10
108.59045624
 20
44.94555341
 30
0.0
 11
109.75723576
 21
45.70177466999999
 31
0.0
  0
LINE
  5
2AB
330
36
100
AcDbEntity
  8
0
 62
     7
100
AcDbLine
 10
108.59045624
 20
44.94555341
 30
0.0
 11
109.75723576
 21
44.18933213999999
 31
0.0
  0
LINE
  5
2AC
330
36
100
AcDbEntity
  8
0
 62
     7
100
AcDbLine
 10
109.00749385
 20
44.67526009
 30
0.0
 11
109.00749385
 21
43.00159736
 31
0.0
  0
LINE
  5
2AD
330
36
100
AcDbEntity
  8
0
 62
     7
100
AcDbLine
 10
109.75723576
 20
45.70177466999999
 30
0.0
 11
112.02589955
 21
45.70177466999999
 31
0.0
  0
LINE
  5
2AE
330
36
100
AcDbEntity
  8
0
 62
     7
100
AcDbLine
 10
109.75723576
 20
44.18933213999999
 30
0.0
 11
112.02589955
 21
44.18933213999999
 31
0.0
  0
LINE
  5
2AF
330
36
100
AcDbEntity
  8
0
 62
     7
100
AcDbLine
 10
115.09045624
 20
45.3797429
 30
0.0
 11
115.09045624
 21
39.8797429
 31
0.0
  0
LINE
  5
2B0
330
36
100
AcDbEntity
  8
0
 62
     7
100
AcDbLine
 10
112.02589955
 20
46.37974289999998
 30
0.0
 11
112.02589955
 21
43.50305063999999
 31
0.0
  0
LINE
  5
2B1
330
36
100
AcDbEntity
  8
0
 62
     7
100
AcDbLine
 10
112.02589955
 20
43.50305063999999
 30
0.0
 11
115.09045624
 21
43.50305063999999
 31
0.0
  0
ARC
  5
2B2
330
36
100
AcDbEntity
  8
0
 62
     7
100
AcDbCircle
 10
111.12425112
 20
44.94555341
 30
0.0
 40
1.649376039999999
100
AcDbArc
 50
303.13819729
 51
56.86180270999999
  0
TEXT
  5
2B3
330
36
100
AcDbEntity
  8
0
 62
     3
100
AcDbText
 10
-153.6722782683026
 20
-49.27468510944787
 30
0.0
 40
2.5
  1
PS
  7
高2.5
100
AcDbText
  0
TEXT
  5
2B4
330
36
100
AcDbEntity
  8
0
 62
     3
100
AcDbText
 10
-152.7552780757962
 20
-52.11905739784322
 30
0.0
 40
2.5
  1
E
  7
高2.5
100
AcDbText
  0
CIRCLE
  5
2B5
330
36
100
AcDbEntity
  8
0
 62
     3
100
AcDbCircle
 10
-151.82535316
 20
-49.11528889
 30
0.0
 40
4.001592429999996
  0
TEXT
  5
2B6
330
36
100
AcDbEntity
  8
0
 62
     3
100
AcDbText
 10
-144.55445747
 20
-47.91021269
 30
0.0
 40
2.559999939999999
  1
定格電圧100V
 41
0.8333333299999999
100
AcDbText
  0
TEXT
  5
2B7
330
36
100
AcDbEntity
  8
0
 62
     3
100
AcDbText
 10
-138.13963665
 20
-59.53439888
 30
0.0
 40
4.5
  1
日動工業株式会社
 41
0.8333333299999999
100
AcDbText
  0
CIRCLE
  5
2B8
330
36
100
AcDbEntity
  8
0
 62
     3
100
AcDbCircle
 10
-142.02716983
 20
-57.54170764
 30
0.0
 40
1.86111683
  0
LINE
  5
2B9
330
36
100
AcDbEntity
  8
0
 62
     3
100
AcDbLine
 10
-142.02716983
 20
-55.68059081
 30
0.0
 11
-142.02716983
 21
-59.40282447
 31
0.0
  0
LINE
  5
2BA
330
36
100
AcDbEntity
  8
0
 62
     3
100
AcDbLine
 10
-142.02716983
 20
-59.40282447
 30
0.0
 11
-140.09682224
 21
-55.73799853
 31
0.0
  0
LINE
  5
2BB
330
36
100
AcDbEntity
  8
0
 62
     3
100
AcDbLine
 10
-142.02716983
 20
-55.68059081
 30
0.0
 11
-143.9575174199999
 21
-59.34541675
 31
0.0
  0
LINE
  5
2BC
330
36
100
AcDbEntity
  8
0
 62
     3
100
AcDbLine
 10
-160.9392405
 20
-60.84284214
 30
0.0
 11
-160.9392405
 21
-29.56429876
 31
0.0
  0
LINE
  5
2BD
330
36
100
AcDbEntity
  8
0
 62
     3
100
AcDbLine
 10
-85.04077540999999
 20
-60.84284214
 30
0.0
 11
-160.9392405
 21
-60.84284214
 31
0.0
  0
LINE
  5
2BE
330
36
100
AcDbEntity
  8
0
 62
     3
100
AcDbLine
 10
-85.04077540999999
 20
-29.56429876
 30
0.0
 11
-160.9392405
 21
-29.56429876
 31
0.0
  0
TEXT
  5
2BF
330
36
100
AcDbEntity
  8
0
 62
     3
100
AcDbText
 10
-144.79994759
 20
-51.32327960000001
 30
0.0
 40
2.559999939999999
  1
定格周波数50Hz/60Hz
 41
0.8333333299999999
100
AcDbText
  0
TEXT
  5
2C0
330
36
100
AcDbEntity
  8
0
 62
     4
100
AcDbText
 10
69.62838834999999
 20
-10.07716294
 30
0.0
 40
3.2
  1
2P防雨プラグ
  7
高3.2
100
AcDbText
  0
TEXT
  5
2C3
330
36
100
AcDbEntity
  8
0
 62
     3
100
AcDbText
 10
-140.57687111
 20
-37.54619865
 30
0.0
 40
6.30000019
  1
ハンドランプ
 41
0.8333333299999999
100
AcDbText
  0
LINE
  5
2C4
330
36
100
AcDbEntity
  8
0
 62
     3
100
AcDbLine
 10
-85.04077540999999
 20
-29.56429876
 30
0.0
 11
-85.04077540999999
 21
-60.84284214
 31
0.0
  0
LINE
  5
2C5
330
36
100
AcDbEntity
  8
0
 62
     7
100
AcDbLine
 10
69.64503990297121
 20
-11.07013294867136
 30
0.0
 11
94.69806692369116
 21
-11.07013294867136
 31
0.0
  0
LINE
  5
2C6
330
36
100
AcDbEntity
  8
0
  6
CENTER
 62
     7
100
AcDbLine
 10
-62.56448568999999
 20
37.87974290000001
 30
0.0
 11
103.30690882
 21
37.87974290000001
 31
0.0
  0
LINE
  5
2CC
330
36
100
AcDbEntity
  8
0
 62
     7
100
AcDbLine
 10
56.06256293
 20
33.09496023
 30
0.0
 11
41.32185412
 21
2.394697589999998
 31
0.0
  0
LINE
  5
2CD
330
36
100
AcDbEntity
  8
0
 62
     7
100
AcDbLine
 10
41.32185412
 20
2.394697589999998
 30
0.0
 11
16.57185412
 21
2.394697589999998
 31
0.0
  0
TEXT
  5
2CE
330
36
100
AcDbEntity
  8
0
 62
     4
100
AcDbText
 10
16.30627523826683
 20
3.394697589999998
 30
0.0
 40
3.2
  1
防雨型スイッチ
  7
高3.2
100
AcDbText
  0
TEXT
  5
2CF
330
36
100
AcDbEntity
  8
0
 62
     3
100
AcDbText
 10
152.3551124117127
 20
-67.57705095999999
 30
0.0
 40
4.5
  1
5m
  7
高4.5
100
AcDbText
  0
TEXT
  5
2D0
330
36
100
AcDbEntity
  8
0
 62
     3
100
AcDbText
 10
137.9664012517127
 20
-53.69746978
 30
0.0
 40
4.5
  1
蛍光灯（トルネード型）
  7
高4.5
100
AcDbText
  0
LINE
  5
2D1
330
36
100
AcDbEntity
  8
0
 62
     3
100
AcDbLine
 10
-147.43225985
 20
-43.98255853324565
 30
0.0
 11
-96.98083010615825
 21
-43.98255853324565
 31
0.0
  0
TEXT
  5
2D2
330
36
100
AcDbEntity
  8
0
 62
     3
100
AcDbText
 10
110.60490812
 20
-103.1333431
 30
0.0
 40
4.5
  1
ハンドランプ
  7
高4.5
100
AcDbText
  0
TEXT
  5
2D3
330
36
100
AcDbEntity
  8
0
 62
     3
100
AcDbText
 10
121.00445151
 20
-22.33241392
 30
0.0
 40
4.5
  1
主　仕　様（飛散防止型）
  7
高4.5
100
AcDbText
  0
TEXT
  5
2D4
330
36
100
AcDbEntity
  8
0
 62
     3
100
AcDbText
 10
136.4777974017127
 20
-60.91873388999999
 30
0.0
 40
4.5
  1
VCT 0.75sqx2c
  7
高4.5
100
AcDbText
  0
TEXT
  5
2D5
330
36
100
AcDbEntity
  8
0
 62
     3
100
AcDbText
 10
147.5377589517127
 20
-81.62226561
 30
0.0
 40
4.5
  1
1.0kg
  7
高4.5
100
AcDbText
  0
LINE
  5
2D7
330
36
100
AcDbEntity
  8
0
 62
     7
100
AcDbLine
 10
119.78450395
 20
-23.02669301
 30
0.0
 11
182.6279041283635
 21
-23.02669301
 31
0.0
  0
TEXT
  5
2D8
330
36
100
AcDbEntity
  8
0
 62
     3
100
AcDbText
 10
-147.43225985
 20
-43.33290109
 30
0.0
 40
4.5
  1
型式　HHL-27F-5M
 41
0.8333333299999999
100
AcDbText
  0
TEXT
  5
2D9
330
36
100
AcDbEntity
  8
0
 62
     3
100
AcDbText
 10
-120.94665238
 20
-47.74678683
 30
0.0
 40
2.559999939999999
  1
定格消費電力　25.4W
 41
0.8333333299999999
100
AcDbText
  0
TEXT
  5
2DA
330
36
100
AcDbEntity
  8
0
 62
     3
100
AcDbText
 10
-144.79994759
 20
-54.7913943
 30
0.0
 40
2.559999939999999
  1
適合ランプ　27W(F27W-T)
 41
0.8333333299999999
100
AcDbText
  0
TEXT
  5
2DB
330
36
100
AcDbEntity
  8
0
 62
     3
100
AcDbText
 10
103.117634173949
 20
-110.44744585
 30
0.0
 40
4.5
  1
HHL-27F-5M
  7
高4.5
100
AcDbText
  0
TEXT
  5
2DC
330
36
100
AcDbEntity
  8
0
 62
     3
100
AcDbText
 10
151.7830142785001
 20
-134.25781724
 30
0.0
 40
6.299999999999998
  1
HHL-27F-5M
 41
0.7
  7
高6.3
100
AcDbText
  0
TEXT
  5
2DD
330
36
100
AcDbEntity
  8
0
 62
     3
100
AcDbText
 10
139.1205386117127
 20
-32.69283227
 30
0.0
 40
4.5
  1
HHL-27F-5M
  7
高4.5
100
AcDbText
  0
TEXT
  5
2DE
330
36
100
AcDbEntity
  8
0
 62
     3
100
AcDbText
 10
150.7902887817127
 20
-46.48294148
 30
0.0
 40
4.5
  1
25.4W
  7
高4.5
100
AcDbText
  0
TEXT
  5
2DF
330
36
100
AcDbEntity
  8
0
100
AcDbText
 10
125.5
 20
124.0
 30
0.0
 40
2.5
  1
07.4.9
  7
高2.5
100
AcDbText
  0
TEXT
  5
2E0
330
36
100
AcDbEntity
  8
0
100
AcDbText
 10
143.5
 20
124.0
 30
0.0
 40
2.5
  1
型式変更HHL-32F→HHL-27F
 41
0.8
  7
高2.5
100
AcDbText
  0
TEXT
  5
2E5
330
36
100
AcDbEntity
  8
0
100
AcDbText
 10
187.5
 20
124.0
 30
0.0
 40
2.5
  1
牧田
  7
高2.5
100
AcDbText
  0
CIRCLE
  5
2E6
330
36
100
AcDbEntity
  8
0
 62
     3
100
AcDbCircle
 10
-126.27960013
 20
37.87974290000001
 30
0.0
 40
23.30461393
  0
CIRCLE
  5
2E7
330
36
100
AcDbEntity
  8
0
 62
     3
100
AcDbCircle
 10
-126.27960013
 20
37.87974290000001
 30
0.0
 40
28.52761016
  0
LINE
  5
2E8
330
36
100
AcDbEntity
  8
0
 62
     3
100
AcDbLine
 10
-125.77960013
 20
-4.519468159999997
 30
0.0
 11
-126.77960013
 21
-4.519468159999997
 31
0.0
  0
ARC
  5
2E9
330
36
100
AcDbEntity
  8
0
 62
     3
100
AcDbCircle
 10
-126.27960013
 20
37.87974290000001
 30
0.0
 40
12.5
100
AcDbArc
 50
357.70755722
 51
2.29244278
  0
ARC
  5
2EA
330
36
100
AcDbEntity
  8
0
 62
     3
100
AcDbCircle
 10
-126.27960013
 20
37.87974290000001
 30
0.0
 40
12.5
100
AcDbArc
 50
267.70755722
 51
272.29244278
  0
ARC
  5
2EB
330
36
100
AcDbEntity
  8
0
 62
     3
100
AcDbCircle
 10
-126.27960013
 20
37.87974290000001
 30
0.0
 40
12.5
100
AcDbArc
 50
87.70755722
 51
92.29244278000001
  0
ARC
  5
2EC
330
36
100
AcDbEntity
  8
0
 62
     3
100
AcDbCircle
 10
-126.27960013
 20
37.87974290000001
 30
0.0
 40
12.5
100
AcDbArc
 50
177.70755722
 51
182.2924427799999
  0
CIRCLE
  5
2ED
330
36
100
AcDbEntity
  8
0
 62
     3
100
AcDbCircle
 10
-126.27960013
 20
37.87974290000001
 30
0.0
 40
9.07911979
  0
LINE
  5
2EE
330
36
100
AcDbEntity
  8
0
  6
CENTER
 62
     7
100
AcDbLine
 10
-156.47121587
 20
37.87974290000001
 30
0.0
 11
-96.03002256000001
 21
37.87974290000001
 31
0.0
  0
LINE
  5
2EF
330
36
100
AcDbEntity
  8
0
  6
CENTER
 62
     7
100
AcDbLine
 10
-126.27960013
 20
-5.953621019999999
 30
0.0
 11
-126.27960013
 21
68.21294833
 31
0.0
  0
LINE
  5
2F0
330
36
100
AcDbEntity
  8
0
 62
     3
100
AcDbLine
 10
66.09045624
 20
30.3797429
 30
0.0
 11
101.09045624
 21
30.3797429
 31
0.0
  0
ARC
  5
2F1
330
36
100
AcDbEntity
  8
0
 62
     3
100
AcDbCircle
 10
115.27881153
 20
29.88820674
 30
0.0
 40
10.0
100
AcDbArc
 50
0.0
 51
90.0
  0
LINE
  5
2F2
330
36
100
AcDbEntity
  8
0
 62
     3
100
AcDbLine
 10
125.27881153
 20
14.60129841
 30
0.0
 11
125.27881153
 21
29.88820674
 31
0.0
  0
ARC
  5
2F3
330
36
100
AcDbEntity
  8
0
 62
     3
100
AcDbCircle
 10
115.27881153
 20
29.88820674
 30
0.0
 40
6.0
100
AcDbArc
 50
0.0
 51
90.0
  0
LINE
  5
2F4
330
36
100
AcDbEntity
  8
0
 62
     3
100
AcDbLine
 10
121.27881153
 20
14.40129875
 30
0.0
 11
121.27881153
 21
29.88820674
 31
0.0
  0
LINE
  5
2F5
330
36
100
AcDbEntity
  8
0
 62
     3
100
AcDbLine
 10
114.09045624
 20
30.3797429
 30
0.0
 11
109.00749385
 21
30.3797429
 31
0.0
  0
LINE
  5
2F6
330
36
100
AcDbEntity
  8
0
 62
     7
100
AcDbLine
 10
108.59045624
 20
32.75788845000001
 30
0.0
 11
114.09045624
 21
32.75788845000001
 31
0.0
  0
LINE
  5
2F7
330
36
100
AcDbEntity
  8
0
 62
     3
100
AcDbLine
 10
115.09045624
 20
31.3797429
 30
0.0
 11
115.09045624
 21
37.87974290000001
 31
0.0
  0
LINE
  5
2F8
330
36
100
AcDbEntity
  8
0
 62
     3
100
AcDbLine
 10
101.09045624
 20
44.1297429
 30
0.0
 11
106.59045624
 21
44.1297429
 31
0.0
  0
LINE
  5
2F9
330
36
100
AcDbEntity
  8
0
 62
     3
100
AcDbLine
 10
97.00516849999999
 20
44.1297429
 30
0.0
 11
101.09045624
 21
44.1297429
 31
0.0
  0
ARC
  5
2FA
330
36
100
AcDbEntity
  8
0
 62
     3
100
AcDbCircle
 10
101.09045624
 20
48.3797429
 30
0.0
 40
3.0
100
AcDbArc
 50
270.0
 51
0.0
  0
ARC
  5
2FB
330
36
100
AcDbEntity
  8
0
 62
     3
100
AcDbCircle
 10
105.09045624
 20
48.12974289999999
 30
0.0
 40
1.0
100
AcDbArc
 50
0.0
 51
180.0
  0
ARC
  5
2FC
330
36
100
AcDbEntity
  8
0
 62
     3
100
AcDbCircle
 10
107.59045624
 20
48.12974289999999
 30
0.0
 40
1.0
100
AcDbArc
 50
0.0
 51
180.0
  0
LINE
  5
2FD
330
36
100
AcDbEntity
  8
0
 62
     7
100
AcDbLine
 10
114.09045624
 20
46.37974289999998
 30
0.0
 11
109.00749385
 21
46.37974289999998
 31
0.0
  0
ARC
  5
2FE
330
36
100
AcDbEntity
  8
0
 62
     7
100
AcDbCircle
 10
114.09045624
 20
45.3797429
 30
0.0
 40
1.0
100
AcDbArc
 50
0.0
 51
90.0
  0
ARC
  5
2FF
330
36
100
AcDbEntity
  8
0
 62
     3
100
AcDbCircle
 10
115.27881153
 20
14.40129875
 30
0.0
 40
6.0
100
AcDbArc
 50
270.0
 51
0.0
  0
ARC
  5
300
330
36
100
AcDbEntity
  8
0
 62
     3
100
AcDbCircle
 10
115.27881153
 20
14.60129841
 30
0.0
 40
10.0
100
AcDbArc
 50
270.0
 51
0.0
  0
ARC
  5
301
330
36
100
AcDbEntity
  8
0
 62
     3
100
AcDbCircle
 10
101.09045624
 20
27.3797429
 30
0.0
 40
3.0
100
AcDbArc
 50
0.0
 51
90.0
  0
LINE
  5
302
330
36
100
AcDbEntity
  8
0
 62
     3
100
AcDbLine
 10
104.09045624
 20
37.87974290000001
 30
0.0
 11
104.09045624
 21
27.3797429
 31
0.0
  0
ARC
  5
303
330
36
100
AcDbEntity
  8
0
 62
     3
100
AcDbCircle
 10
105.09045624
 20
27.6297429
 30
0.0
 40
1.0
100
AcDbArc
 50
180.0
 51
0.0
  0
LINE
  5
304
330
36
100
AcDbEntity
  8
0
 62
     7
100
AcDbLine
 10
106.09045624
 20
27.6297429
 30
0.0
 11
106.09045624
 21
37.87974290000001
 31
0.0
  0
LINE
  5
305
330
36
100
AcDbEntity
  8
0
 62
     7
100
AcDbLine
 10
106.59045624
 20
27.6297429
 30
0.0
 11
106.59045624
 21
37.87974290000001
 31
0.0
  0
ARC
  5
306
330
36
100
AcDbEntity
  8
0
 62
     3
100
AcDbCircle
 10
107.59045624
 20
27.6297429
 30
0.0
 40
1.0
100
AcDbArc
 50
180.0
 51
0.0
  0
LINE
  5
307
330
36
100
AcDbEntity
  8
0
 62
     7
100
AcDbLine
 10
108.59045624
 20
27.6297429
 30
0.0
 11
108.59045624
 21
37.87974290000001
 31
0.0
  0
LINE
  5
308
330
36
100
AcDbEntity
  8
0
 62
     3
100
AcDbLine
 10
106.59045624
 20
44.1297429
 30
0.0
 11
106.59045624
 21
39.8797429
 31
0.0
  0
LINE
  5
309
330
36
100
AcDbEntity
  8
0
 62
     3
100
AcDbLine
 10
115.09045624
 20
39.8797429
 30
0.0
 11
100.64223966
 21
39.8797429
 31
0.0
  0
LINE
  5
30A
330
36
100
AcDbEntity
  8
0
 62
     3
100
AcDbLine
 10
108.59045624
 20
25.3797429
 30
0.0
 11
108.59045624
 21
27.6297429
 31
0.0
  0
ARC
  5
30B
330
36
100
AcDbEntity
  8
0
 62
     3
100
AcDbCircle
 10
98.59045624
 20
25.3797429
 30
0.0
 40
10.0
100
AcDbArc
 50
270.0
 51
0.0
  0
LINE
  5
30C
330
36
100
AcDbEntity
  8
0
 62
     3
100
AcDbLine
 10
104.59045624
 20
25.3797429
 30
0.0
 11
104.59045624
 21
26.7637175
 31
0.0
  0
ARC
  5
30D
330
36
100
AcDbEntity
  8
0
 62
     3
100
AcDbCircle
 10
98.59045624
 20
25.3797429
 30
0.0
 40
6.0
100
AcDbArc
 50
270.0
 51
0.0
  0
LINE
  5
30E
330
36
100
AcDbEntity
  8
0
 62
     3
100
AcDbLine
 10
98.59045624
 20
19.37974289999999
 30
0.0
 11
92.57901162999999
 21
19.37974289999999
 31
0.0
  0
LINE
  5
30F
330
36
100
AcDbEntity
  8
0
 62
     3
100
AcDbLine
 10
92.57901162999999
 20
19.37974289999999
 30
0.0
 11
88.59045624
 21
16.89630276
 31
0.0
  0
ARC
  5
310
330
36
100
AcDbEntity
  8
0
 62
     3
100
AcDbCircle
 10
89.06259279999998
 20
16.13802283
 30
0.0
 40
0.89325325
100
AcDbArc
 50
121.90810694
 51
238.09189306
  0
LINE
  5
311
330
36
100
AcDbEntity
  8
0
 62
     3
100
AcDbLine
 10
98.59045624
 20
15.3797429
 30
0.0
 11
88.59045624
 21
15.3797429
 31
0.0
  0
LINE
  5
312
330
36
100
AcDbEntity
  8
0
 62
     3
100
AcDbLine
 10
81.82772943000001
 20
12.06614441
 30
0.0
 11
90.97414929000001
 21
12.06614441
 31
0.0
  0
ARC
  5
313
330
36
100
AcDbEntity
  8
0
 62
     3
100
AcDbCircle
 10
90.97414929000001
 20
10.64114441
 30
0.0
 40
1.425
100
AcDbArc
 50
0.0
 51
90.0
  0
LINE
  5
314
330
36
100
AcDbEntity
  8
0
 62
     3
100
AcDbLine
 10
81.35272943
 20
12.54114441
 30
0.0
 11
81.35272943
 21
14.04893068
 31
0.0
  0
ARC
  5
315
330
36
100
AcDbEntity
  8
0
 62
     3
100
AcDbCircle
 10
79.90565309
 20
14.04893068
 30
0.0
 40
1.447076339999999
100
AcDbArc
 50
0.0
 51
180.0
  0
ARC
  5
316
330
36
100
AcDbEntity
  8
0
 62
     3
100
AcDbCircle
 10
79.90565309
 20
-1.316641849999999
 30
0.0
 40
1.447076339999999
100
AcDbArc
 50
180.0
 51
0.0
  0
LINE
  5
317
330
36
100
AcDbEntity
  8
0
 62
     3
100
AcDbLine
 10
81.35272943
 20
0.19114441
 30
0.0
 11
81.35272943
 21
-1.316641849999999
 31
0.0
  0
LINE
  5
318
330
36
100
AcDbEntity
  8
0
 62
     3
100
AcDbLine
 10
81.82772943000001
 20
0.6661444100000004
 30
0.0
 11
90.97414929000001
 21
0.6661444100000004
 31
0.0
  0
ARC
  5
319
330
36
100
AcDbEntity
  8
0
 62
     3
100
AcDbCircle
 10
90.97414929000001
 20
2.09114441
 30
0.0
 40
1.425
100
AcDbArc
 50
270.0
 51
0.0
  0
LINE
  5
31A
330
36
100
AcDbEntity
  8
0
 62
     3
100
AcDbLine
 10
90.12914111
 20
10.69081617
 30
0.0
 11
83.26928667999998
 21
10.69081617
 31
0.0
  0
ARC
  5
31B
330
36
100
AcDbEntity
  8
0
 62
     3
100
AcDbCircle
 10
83.26928667999998
 20
12.13237342
 30
0.0
 40
1.441557249999999
100
AcDbArc
 50
180.0
 51
270.0
  0
ARC
  5
31C
330
36
100
AcDbEntity
  8
0
 62
     3
100
AcDbCircle
 10
90.12914111
 20
9.26581617
 30
0.0
 40
1.425
100
AcDbArc
 50
11.01213078
 51
90.0
  0
ARC
  5
31D
330
36
100
AcDbEntity
  8
0
 62
     3
100
AcDbCircle
 10
75.63104391999998
 20
6.44448588
 30
0.0
 40
16.19506184
100
AcDbArc
 50
348.36800123
 51
11.01213078
  0
LINE
  5
31E
330
36
100
AcDbEntity
  8
0
 62
     3
100
AcDbLine
 10
90.09777001999999
 20
2.04147265
 30
0.0
 11
83.26928667999998
 21
2.04147265
 31
0.0
  0
ARC
  5
31F
330
36
100
AcDbEntity
  8
0
 62
     3
100
AcDbCircle
 10
83.26928667999998
 20
0.5999154000000001
 30
0.0
 40
1.441557249999999
100
AcDbArc
 50
90.0
 51
180.0
  0
ARC
  5
320
330
36
100
AcDbEntity
  8
0
 62
     3
100
AcDbCircle
 10
90.09777001999999
 20
3.46647265
 30
0.0
 40
1.425
100
AcDbArc
 50
270.0
 51
348.36800123
  0
LINE
  5
321
330
36
100
AcDbEntity
  8
0
 62
     3
100
AcDbLine
 10
115.27881153
 20
8.40129875
 30
0.0
 11
113.72057393
 21
8.40129875
 31
0.0
  0
LINE
  5
322
330
36
100
AcDbEntity
  8
0
 62
     3
100
AcDbLine
 10
31.99490875
 20
54.5555328
 30
0.0
 11
36.99490875
 21
54.5555328
 31
0.0
  0
LINE
  5
323
330
36
100
AcDbEntity
  8
0
 62
     3
100
AcDbLine
 10
37.09045624
 20
48.3797429
 30
0.0
 11
37.09045624
 21
54.43397482
 31
0.0
  0
LINE
  5
324
330
36
100
AcDbEntity
  8
0
 62
     3
100
AcDbLine
 10
34.59045624
 20
48.3797429
 30
0.0
 11
37.09045624
 21
48.3797429
 31
0.0
  0
LINE
  5
325
330
36
100
AcDbEntity
  8
0
 62
     3
100
AcDbLine
 10
34.59045624
 20
47.32868296
 30
0.0
 11
37.09045624
 21
47.32868296
 31
0.0
  0
LINE
  5
326
330
36
100
AcDbEntity
  8
0
 62
     3
100
AcDbLine
 10
34.59045624
 20
47.32868296
 30
0.0
 11
34.59045624
 21
37.87974290000001
 31
0.0
  0
LINE
  5
327
330
36
100
AcDbEntity
  8
0
 62
     3
100
AcDbLine
 10
34.59045624
 20
27.3797429
 30
0.0
 11
34.59045624
 21
37.87974290000001
 31
0.0
  0
LINE
  5
328
330
36
100
AcDbEntity
  8
0
 62
     3
100
AcDbLine
 10
34.59045624
 20
27.3797429
 30
0.0
 11
34.59045624
 21
24.3797429
 31
0.0
  0
LINE
  5
329
330
36
100
AcDbEntity
  8
0
 62
     3
100
AcDbLine
 10
32.10825563
 20
24.3797429
 30
0.0
 11
34.59045624
 21
24.3797429
 31
0.0
  0
ARC
  5
32A
330
36
100
AcDbEntity
  8
0
 62
     3
100
AcDbCircle
 10
38.09045624
 20
48.3797429
 30
0.0
 40
1.0
100
AcDbArc
 50
0.0
 51
180.0
  0
LINE
  5
32B
330
36
100
AcDbEntity
  8
0
 62
     3
100
AcDbLine
 10
39.09045624
 20
48.3797429
 30
0.0
 11
39.84045624
 21
48.3797429
 31
0.0
  0
LINE
  5
32C
330
36
100
AcDbEntity
  8
0
 62
     3
100
AcDbLine
 10
41.84045624
 20
48.3797429
 30
0.0
 11
42.59045624
 21
48.3797429
 31
0.0
  0
ARC
  5
32D
330
36
100
AcDbEntity
  8
0
 62
     3
100
AcDbCircle
 10
43.59045624
 20
48.3797429
 30
0.0
 40
1.0
100
AcDbArc
 50
0.0
 51
180.0
  0
ARC
  5
32E
330
36
100
AcDbEntity
  8
0
 62
     3
100
AcDbCircle
 10
40.84045624
 20
48.3797429
 30
0.0
 40
1.0
100
AcDbArc
 50
0.0
 51
180.0
  0
ARC
  5
32F
330
36
100
AcDbEntity
  8
0
 62
     3
100
AcDbCircle
 10
52.09045624
 20
48.3797429
 30
0.0
 40
1.0
100
AcDbArc
 50
0.0
 51
180.0
  0
ARC
  5
330
330
36
100
AcDbEntity
  8
0
 62
     3
100
AcDbCircle
 10
54.84045624
 20
48.3797429
 30
0.0
 40
1.0
100
AcDbArc
 50
0.0
 51
180.0
  0
ARC
  5
331
330
36
100
AcDbEntity
  8
0
 62
     3
100
AcDbCircle
 10
57.59045624
 20
48.3797429
 30
0.0
 40
1.0
100
AcDbArc
 50
0.0
 51
180.0
  0
ARC
  5
332
330
36
100
AcDbEntity
  8
0
 62
     3
100
AcDbCircle
 10
60.34045624
 20
48.3797429
 30
0.0
 40
1.0
100
AcDbArc
 50
0.0
 51
180.0
  0
LINE
  5
333
330
36
100
AcDbEntity
  8
0
 62
     3
100
AcDbLine
 10
58.59045624
 20
48.3797429
 30
0.0
 11
59.34045624
 21
48.3797429
 31
0.0
  0
LINE
  5
334
330
36
100
AcDbEntity
  8
0
 62
     3
100
AcDbLine
 10
55.84045624
 20
48.3797429
 30
0.0
 11
56.59045624
 21
48.3797429
 31
0.0
  0
LINE
  5
335
330
36
100
AcDbEntity
  8
0
 62
     3
100
AcDbLine
 10
53.09045624
 20
48.3797429
 30
0.0
 11
53.84045624
 21
48.3797429
 31
0.0
  0
LINE
  5
336
330
36
100
AcDbEntity
  8
0
 62
     3
100
AcDbLine
 10
66.09045624
 20
45.3797429
 30
0.0
 11
101.09045624
 21
45.3797429
 31
0.0
  0
LINE
  5
337
330
36
100
AcDbEntity
  8
0
 62
     3
100
AcDbLine
 10
44.59045624
 20
48.3797429
 30
0.0
 11
51.09045624
 21
48.3797429
 31
0.0
  0
LINE
  5
338
330
36
100
AcDbEntity
  8
0
 62
     3
100
AcDbLine
 10
63.09045624
 20
47.37974289999999
 30
0.0
 11
61.34045624
 21
48.3797429
 31
0.0
  0
ARC
  5
339
330
36
100
AcDbEntity
  8
0
 62
     3
100
AcDbCircle
 10
66.09045624
 20
46.37974289999998
 30
0.0
 40
1.0
100
AcDbArc
 50
180.0
 51
270.0
  0
LINE
  5
33A
330
36
100
AcDbEntity
  8
0
 62
     3
100
AcDbLine
 10
65.09045623999999
 20
46.37974289999998
 30
0.0
 11
65.09045623999999
 21
47.37974289999999
 31
0.0
  0
ARC
  5
33B
330
36
100
AcDbEntity
  8
0
 62
     3
100
AcDbCircle
 10
64.09045623999999
 20
47.37974289999999
 30
0.0
 40
1.0
100
AcDbArc
 50
0.0
 51
180.0
  0
LINE
  5
33C
330
36
100
AcDbEntity
  8
0
 62
     3
100
AcDbLine
 10
39.09045624
 20
27.3797429
 30
0.0
 11
39.84045624
 21
27.3797429
 31
0.0
  0
LINE
  5
33D
330
36
100
AcDbEntity
  8
0
 62
     3
100
AcDbLine
 10
41.84045624
 20
27.3797429
 30
0.0
 11
42.59045624
 21
27.3797429
 31
0.0
  0
LINE
  5
33E
330
36
100
AcDbEntity
  8
0
 62
     3
100
AcDbLine
 10
58.59045624
 20
27.3797429
 30
0.0
 11
59.34045624
 21
27.3797429
 31
0.0
  0
LINE
  5
33F
330
36
100
AcDbEntity
  8
0
 62
     3
100
AcDbLine
 10
55.84045624
 20
27.3797429
 30
0.0
 11
56.59045624
 21
27.3797429
 31
0.0
  0
LINE
  5
340
330
36
100
AcDbEntity
  8
0
 62
     3
100
AcDbLine
 10
53.09045624
 20
27.3797429
 30
0.0
 11
53.84045624
 21
27.3797429
 31
0.0
  0
LINE
  5
341
330
36
100
AcDbEntity
  8
0
 62
     3
100
AcDbLine
 10
65.09045623999999
 20
29.3797429
 30
0.0
 11
65.09045623999999
 21
28.3797429
 31
0.0
  0
LINE
  5
342
330
36
100
AcDbEntity
  8
0
 62
     3
100
AcDbLine
 10
34.59045624
 20
27.3797429
 30
0.0
 11
37.09045624
 21
27.3797429
 31
0.0
  0
LINE
  5
343
330
36
100
AcDbEntity
  8
0
 62
     3
100
AcDbLine
 10
44.59045624
 20
27.3797429
 30
0.0
 11
51.09045624
 21
27.3797429
 31
0.0
  0
ARC
  5
344
330
36
100
AcDbEntity
  8
0
 62
     3
100
AcDbCircle
 10
66.09045624
 20
29.3797429
 30
0.0
 40
1.0
100
AcDbArc
 50
90.0
 51
180.0
  0
ARC
  5
345
330
36
100
AcDbEntity
  8
0
 62
     3
100
AcDbCircle
 10
64.09045623999999
 20
28.3797429
 30
0.0
 40
1.0
100
AcDbArc
 50
180.0
 51
0.0
  0
LINE
  5
346
330
36
100
AcDbEntity
  8
0
 62
     3
100
AcDbLine
 10
63.09045624
 20
28.3797429
 30
0.0
 11
61.34045624
 21
27.3797429
 31
0.0
  0
ARC
  5
347
330
36
100
AcDbEntity
  8
0
 62
     3
100
AcDbCircle
 10
60.34045624
 20
27.3797429
 30
0.0
 40
1.0
100
AcDbArc
 50
180.0
 51
0.0
  0
ARC
  5
348
330
36
100
AcDbEntity
  8
0
 62
     3
100
AcDbCircle
 10
57.59045624
 20
27.3797429
 30
0.0
 40
1.0
100
AcDbArc
 50
180.0
 51
0.0
  0
ARC
  5
349
330
36
100
AcDbEntity
  8
0
 62
     3
100
AcDbCircle
 10
54.84045624
 20
27.3797429
 30
0.0
 40
1.0
100
AcDbArc
 50
180.0
 51
0.0
  0
ARC
  5
34A
330
36
100
AcDbEntity
  8
0
 62
     3
100
AcDbCircle
 10
52.09045624
 20
27.3797429
 30
0.0
 40
1.0
100
AcDbArc
 50
180.0
 51
0.0
  0
ARC
  5
34B
330
36
100
AcDbEntity
  8
0
 62
     3
100
AcDbCircle
 10
43.59045624
 20
27.3797429
 30
0.0
 40
1.0
100
AcDbArc
 50
180.0
 51
0.0
  0
ARC
  5
34C
330
36
100
AcDbEntity
  8
0
 62
     3
100
AcDbCircle
 10
40.84045624
 20
27.3797429
 30
0.0
 40
1.0
100
AcDbArc
 50
180.0
 51
0.0
  0
ARC
  5
34D
330
36
100
AcDbEntity
  8
0
 62
     3
100
AcDbCircle
 10
38.09045624
 20
27.3797429
 30
0.0
 40
1.0
100
AcDbArc
 50
180.0
 51
0.0
  0
LINE
  5
34E
330
36
100
AcDbEntity
  8
0
 62
     3
100
AcDbLine
 10
65.09045623999999
 20
46.37974289999998
 30
0.0
 11
65.09045623999999
 21
29.3797429
 31
0.0
  0
LINE
  5
34F
330
36
100
AcDbEntity
  8
0
 62
     3
100
AcDbLine
 10
52.14137778
 20
32.62974290000001
 30
0.0
 11
52.14137778
 21
43.12974289999998
 31
0.0
  0
ARC
  5
350
330
36
100
AcDbEntity
  8
0
 62
     3
100
AcDbCircle
 10
52.64137778
 20
32.62974290000001
 30
0.0
 40
0.5
100
AcDbArc
 50
180.0
 51
270.0
  0
LINE
  5
351
330
36
100
AcDbEntity
  8
0
 62
     3
100
AcDbLine
 10
59.73483094
 20
32.1297429
 30
0.0
 11
52.64137778
 21
32.1297429
 31
0.0
  0
ARC
  5
352
330
36
100
AcDbEntity
  8
0
 62
     3
100
AcDbCircle
 10
59.73483094
 20
32.62974290000001
 30
0.0
 40
0.5
100
AcDbArc
 50
270.0
 51
0.0
  0
LINE
  5
353
330
36
100
AcDbEntity
  8
0
 62
     3
100
AcDbLine
 10
60.23483094
 20
32.62974290000001
 30
0.0
 11
60.23483094
 21
43.12974289999998
 31
0.0
  0
ARC
  5
354
330
36
100
AcDbEntity
  8
0
 62
     3
100
AcDbCircle
 10
59.73483094
 20
43.12974289999998
 30
0.0
 40
0.5
100
AcDbArc
 50
0.0
 51
90.0
  0
LINE
  5
355
330
36
100
AcDbEntity
  8
0
 62
     3
100
AcDbLine
 10
52.64137778
 20
43.62974289999999
 30
0.0
 11
59.73483094
 21
43.62974289999999
 31
0.0
  0
LINE
  5
356
330
36
100
AcDbEntity
  8
0
 62
     7
100
AcDbLine
 10
100.91356297
 20
10.11508739
 30
0.0
 11
101.39408206
 21
10.11508739
 31
0.0
  0
LINE
  5
357
330
36
100
AcDbEntity
  8
0
 62
     7
100
AcDbLine
 10
100.91356297
 20
2.667041579999998
 30
0.0
 11
101.39408206
 21
2.667041579999998
 31
0.0
  0
ARC
  5
358
330
36
100
AcDbEntity
  8
0
 62
     3
100
AcDbCircle
 10
101.72658206
 20
2.68606449
 30
0.0
 40
0.3325
100
AcDbArc
 50
180.0
 51
270.0
  0
ARC
  5
359
330
36
100
AcDbEntity
  8
0
 62
     3
100
AcDbCircle
 10
101.72658206
 20
10.09606449
 30
0.0
 40
0.3325
100
AcDbArc
 50
90.0
 51
180.0
  0
ARC
  5
35A
330
36
100
AcDbEntity
  8
0
 62
     3
100
AcDbCircle
 10
102.10658206
 20
9.953564489999999
 30
0.0
 40
0.475
100
AcDbArc
 50
0.0
 51
90.0
  0
LINE
  5
35B
330
36
100
AcDbEntity
  8
0
 62
     3
100
AcDbLine
 10
112.05406661
 20
8.401298759999999
 30
0.0
 11
102.58158206
 21
8.401298759999999
 31
0.0
  0
LINE
  5
35C
330
36
100
AcDbEntity
  8
0
 62
     3
100
AcDbLine
 10
112.8490992
 20
4.60129841
 30
0.0
 11
102.58158206
 21
4.60129841
 31
0.0
  0
LINE
  5
35D
330
36
100
AcDbEntity
  8
0
 62
     3
100
AcDbLine
 10
102.58158206
 20
2.82856449
 30
0.0
 11
102.58158206
 21
9.953564489999999
 31
0.0
  0
LINE
  5
35E
330
36
100
AcDbEntity
  8
0
 62
     3
100
AcDbLine
 10
102.10658206
 20
10.42856449
 30
0.0
 11
101.72658206
 21
10.42856449
 31
0.0
  0
LINE
  5
35F
330
36
100
AcDbEntity
  8
0
 62
     7
100
AcDbLine
 10
99.70950571999999
 20
10.11508739
 30
0.0
 11
100.91356297
 21
10.11508739
 31
0.0
  0
LINE
  5
360
330
36
100
AcDbEntity
  8
0
 62
     7
100
AcDbLine
 10
99.70950571999999
 20
2.667041579999998
 30
0.0
 11
100.91356297
 21
2.667041579999998
 31
0.0
  0
ARC
  5
361
330
36
100
AcDbEntity
  8
0
 62
     3
100
AcDbCircle
 10
102.10658206
 20
2.82856449
 30
0.0
 40
0.475
100
AcDbArc
 50
270.0
 51
0.0
  0
LINE
  5
362
330
36
100
AcDbEntity
  8
0
  6
CENTER
 62
     7
100
AcDbLine
 10
103.30690882
 20
37.87974290000001
 30
0.0
 11
117.09813949
 21
37.87974290000001
 31
0.0
  0
ARC
  5
363
330
36
100
AcDbEntity
  8
0
  6
CENTER
 62
     3
100
AcDbCircle
 10
52.64137778
 20
43.12974289999998
 30
0.0
 40
0.5
100
AcDbArc
 50
90.0
 51
180.0
  0
CIRCLE
  5
36A
330
36
100
AcDbEntity
  8
0
 62
     7
100
AcDbCircle
 10
-18.64049911
 20
77.07670366000002
 30
0.0
 40
5.0
  0
TEXT
  5
36B
330
36
100
AcDbEntity
  8
0
 62
     4
100
AcDbText
 10
-22.00378421263202
 20
74.8116192036853
 30
0.0
 40
4.5
  1
03
  7
高4.5
100
AcDbText
  0
CIRCLE
  5
372
330
36
100
AcDbEntity
  8
0
 62
     7
100
AcDbCircle
 10
17.74136449
 20
77.07670366000002
 30
0.0
 40
5.0
  0
TEXT
  5
373
330
36
100
AcDbEntity
  8
0
 62
     4
100
AcDbText
 10
14.37807938736798
 20
74.8116192036853
 30
0.0
 40
4.5
  1
02
  7
高4.5
100
AcDbText
  0
CIRCLE
  5
37A
330
36
100
AcDbEntity
  8
0
 62
     7
100
AcDbCircle
 10
45.67293389999998
 20
77.07670366000002
 30
0.0
 40
5.0
  0
TEXT
  5
37B
330
36
100
AcDbEntity
  8
0
 62
     4
100
AcDbText
 10
42.89671683926825
 20
74.78643780659854
 30
0.0
 40
4.5
  1
10
  7
高4.5
100
AcDbText
  0
CIRCLE
  5
382
330
36
100
AcDbEntity
  8
0
 62
     7
100
AcDbCircle
 10
63.91237485
 20
77.07670366000002
 30
0.0
 40
5.0
  0
TEXT
  5
383
330
36
100
AcDbEntity
  8
0
 62
     4
100
AcDbText
 10
61.1927112160995
 20
74.82721281400927
 30
0.0
 40
4.5
  1
01
  7
高4.5
100
AcDbText
  0
CIRCLE
  5
38A
330
36
100
AcDbEntity
  8
0
 62
     7
100
AcDbCircle
 10
93.19249867000001
 20
77.07670366000002
 30
0.0
 40
5.0
  0
TEXT
  5
38B
330
36
100
AcDbEntity
  8
0
 62
     4
100
AcDbText
 10
89.82921357736797
 20
74.8116192036853
 30
0.0
 40
4.5
  1
07
  7
高4.5
100
AcDbText
  0
CIRCLE
  5
392
330
36
100
AcDbEntity
  8
0
 62
     7
100
AcDbCircle
 10
106.53251533
 20
77.07670366000002
 30
0.0
 40
5.0
  0
TEXT
  5
393
330
36
100
AcDbEntity
  8
0
 62
     4
100
AcDbText
 10
103.1692302273679
 20
74.8116192036853
 30
0.0
 40
4.5
  1
09
  7
高4.5
100
AcDbText
  0
CIRCLE
  5
39A
330
36
100
AcDbEntity
  8
0
 62
     7
100
AcDbCircle
 10
123.1129433
 20
77.07670366000002
 30
0.0
 40
5.0
  0
TEXT
  5
39B
330
36
100
AcDbEntity
  8
0
 62
     4
100
AcDbText
 10
119.749658197368
 20
74.8116192036853
 30
0.0
 40
4.5
  1
08
  7
高4.5
100
AcDbText
  0
TEXT
  5
39C
330
36
100
AcDbEntity
  8
0
 62
     3
100
AcDbText
 10
-134.09996684
 20
-27.36550615
 30
0.0
 40
4.5
  1
型式銘版
 41
0.8333333299999999
100
AcDbText
  0
LINE
  5
39D
330
36
100
AcDbEntity
  8
0
 62
     3
100
AcDbLine
 10
-134.09996684
 20
-27.36550615
 30
0.0
 11
-116.59996684
 21
-27.36550615
 31
0.0
  0
TEXT
  5
39E
330
36
100
AcDbEntity
  8
0
 62
     4
100
AcDbText
 10
-29.35437310000001
 20
-11.37736167
 30
0.0
 40
3.2
  1
90%%dSEC
  7
高3.2
100
AcDbText
  0
LINE
  5
39F
330
36
100
AcDbEntity
  8
0
100
AcDbLine
 10
-12.01718820926794
 20
-12.60873221969007
 30
0.0
 11
-29.49298989581518
 21
-12.60873221969007
 31
0.0
  0
LINE
  5
3A0
330
36
100
AcDbEntity
  8
0
 62
     3
100
AcDbLine
 10
-40.46229362
 20
38.3797429
 30
0.0
 11
-40.46229362
 21
37.3797429
 31
0.0
  0
LINE
  5
3A1
330
36
100
AcDbEntity
  8
0
 62
     3
100
AcDbLine
 10
8.018120379999999
 20
61.87974289999999
 30
0.0
 11
1.145045909999999
 21
61.87974289999999
 31
0.0
  0
LINE
  5
3A2
330
36
100
AcDbEntity
  8
0
 62
     3
100
AcDbLine
 10
1.145045909999999
 20
61.87974289999999
 30
0.0
 11
-39.68183987
 21
60.47605362
 31
0.0
  0
ARC
  5
3A3
330
36
100
AcDbEntity
  8
0
 62
     3
100
AcDbCircle
 10
-39.06576407
 20
42.56035139
 30
0.0
 40
17.92629175
100
AcDbArc
 50
91.96948127
 51
166.37813
  0
LINE
  5
3A4
330
36
100
AcDbEntity
  8
0
 62
     3
100
AcDbLine
 10
-56.46671367999999
 20
46.86835424
 30
0.0
 11
-56.46671367999999
 21
45.05553279999999
 31
0.0
  0
LINE
  5
3A5
330
36
100
AcDbEntity
  8
0
 62
     3
100
AcDbLine
 10
-56.46671367999999
 20
45.05553279999999
 30
0.0
 11
-56.46671367999999
 21
37.87974290000001
 31
0.0
  0
LINE
  5
3A6
330
36
100
AcDbEntity
  8
0
 62
     3
100
AcDbLine
 10
-55.31391782
 20
23.99036832
 30
0.0
 11
-59.0392985
 21
7.431412749999998
 31
0.0
  0
ARC
  5
3A7
330
36
100
AcDbEntity
  8
0
 62
     3
100
AcDbCircle
 10
-50.25327966999999
 20
5.48053184
 30
0.0
 40
9.0
100
AcDbArc
 50
167.46492977
 51
270.0
  0
ARC
  5
3A8
330
36
100
AcDbEntity
  8
0
 62
     3
100
AcDbCircle
 10
-44.32557953999999
 20
6.48053184
 30
0.0
 40
9.0
100
AcDbArc
 50
93.73519104999999
 51
269.99999879
  0
LINE
  5
3A9
330
36
100
AcDbEntity
  8
0
 62
     3
100
AcDbLine
 10
-50.25327966999999
 20
-3.51946816
 30
0.0
 11
-41.82557953999999
 21
-3.51946816
 31
0.0
  0
LINE
  5
3AA
330
36
100
AcDbEntity
  8
0
 62
     3
100
AcDbLine
 10
-44.72840742
 20
-2.51946816
 30
0.0
 11
-41.82557953999999
 21
-2.51946816
 31
0.0
  0
ARC
  5
3AB
330
36
100
AcDbEntity
  8
0
 62
     3
100
AcDbCircle
 10
-41.82557953999999
 20
-3.01946816
 30
0.0
 40
0.5
100
AcDbArc
 50
270.0
 51
90.0
  0
LINE
  5
3AC
330
36
100
AcDbEntity
  8
0
 62
     3
100
AcDbLine
 10
-57.21671367999999
 20
38.3797429
 30
0.0
 11
-40.46229362
 21
38.3797429
 31
0.0
  0
LINE
  5
3AD
330
36
100
AcDbEntity
  8
0
 62
     3
100
AcDbLine
 10
-57.21671367999999
 20
37.3797429
 30
0.0
 11
-40.46229362
 21
37.3797429
 31
0.0
  0
LINE
  5
3AE
330
36
100
AcDbEntity
  8
0
 62
     3
100
AcDbLine
 10
-102.98035056
 20
38.3797429
 30
0.0
 11
-113.77960013
 21
38.3797429
 31
0.0
  0
LINE
  5
3AF
330
36
100
AcDbEntity
  8
0
 62
     3
100
AcDbLine
 10
-102.98035056
 20
37.3797429
 30
0.0
 11
-113.77960013
 21
37.3797429
 31
0.0
  0
LINE
  5
3B0
330
36
100
AcDbEntity
  8
0
 62
     3
100
AcDbLine
 10
-125.77960013
 20
61.17899247
 30
0.0
 11
-125.77960013
 21
50.37974290000001
 31
0.0
  0
LINE
  5
3B1
330
36
100
AcDbEntity
  8
0
 62
     3
100
AcDbLine
 10
-126.77960013
 20
61.17899247
 30
0.0
 11
-126.77960013
 21
50.37974290000001
 31
0.0
  0
LINE
  5
3B2
330
36
100
AcDbEntity
  8
0
 62
     3
100
AcDbLine
 10
-149.57884969
 20
38.3797429
 30
0.0
 11
-138.77960013
 21
38.3797429
 31
0.0
  0
LINE
  5
3B3
330
36
100
AcDbEntity
  8
0
 62
     3
100
AcDbLine
 10
-149.57884969
 20
37.3797429
 30
0.0
 11
-138.77960013
 21
37.3797429
 31
0.0
  0
LINE
  5
3B4
330
36
100
AcDbEntity
  8
0
 62
     3
100
AcDbLine
 10
-126.77960013
 20
-4.519468159999997
 30
0.0
 11
-126.77960013
 21
25.3797429
 31
0.0
  0
LINE
  5
3B5
330
36
100
AcDbEntity
  8
0
 62
     3
100
AcDbLine
 10
-125.77960013
 20
-4.519468159999997
 30
0.0
 11
-125.77960013
 21
25.3797429
 31
0.0
  0
TEXT
  5
3B6
330
36
100
AcDbEntity
  8
0
 62
     3
100
AcDbText
 10
134.37261008
 20
-124.16652628
 30
0.0
 40
3.2
  1
1/2
  7
高3.2
100
AcDbText
  0
LINE
  5
3B7
330
36
100
AcDbEntity
  8
0
 62
     3
100
AcDbLine
 10
-202.40192379
 20
5.0
 30
0.0
 11
-205.0
 21
3.5
 31
0.0
  0
LINE
  5
3B8
330
36
100
AcDbEntity
  8
0
 62
     3
100
AcDbLine
 10
-202.40192379
 20
5.0
 30
0.0
 11
-205.0
 21
6.5
 31
0.0
  0
LINE
  5
3B9
330
36
100
AcDbEntity
  8
0
 62
     3
100
AcDbLine
 10
-205.0
 20
3.5
 30
0.0
 11
-205.0
 21
6.5
 31
0.0
  0
LINE
  5
3BA
330
36
100
AcDbEntity
  8
0
 62
     7
100
AcDbLine
 10
48.93644860000001
 20
39.89820365
 30
0.0
 11
48.93644860000001
 21
38.97938849
 31
0.0
  0
LINE
  5
3BB
330
36
100
AcDbEntity
  8
0
 62
     7
100
AcDbLine
 10
48.8357052
 20
39.89820365
 30
0.0
 11
48.93644860000001
 21
39.89820365
 31
0.0
  0
LINE
  5
3BC
330
36
100
AcDbEntity
  8
0
 62
     7
100
AcDbLine
 10
46.95851810999999
 20
38.88083728
 30
0.0
 11
46.95851810999999
 21
37.95118845
 31
0.0
  0
LINE
  5
3BD
330
36
100
AcDbEntity
  8
0
 62
     7
100
AcDbLine
 10
46.95851810999999
 20
38.88083728
 30
0.0
 11
47.0592145
 21
38.88083728
 31
0.0
  0
LINE
  5
3BE
330
36
100
AcDbEntity
  8
0
 62
     7
100
AcDbLine
 10
48.8357052
 20
38.88083728
 30
0.0
 11
48.93649561
 21
38.88083728
 31
0.0
  0
LINE
  5
3BF
330
36
100
AcDbEntity
  8
0
 62
     7
100
AcDbLine
 10
48.93649561
 20
38.88083728
 30
0.0
 11
48.93649561
 21
37.95118845
 31
0.0
  0
LINE
  5
3C0
330
36
100
AcDbEntity
  8
0
 62
     7
100
AcDbLine
 10
46.95847109999998
 20
39.89820365
 30
0.0
 11
47.0592145
 21
39.89820365
 31
0.0
  0
LINE
  5
3C1
330
36
100
AcDbEntity
  8
0
 62
     7
100
AcDbLine
 10
46.95847109999998
 20
39.89820365
 30
0.0
 11
46.95847109999998
 21
38.97938849
 31
0.0
  0
LINE
  5
3C2
330
36
100
AcDbEntity
  8
0
 62
     7
100
AcDbLine
 10
46.95847109999998
 20
38.97938849
 30
0.0
 11
47.0592145
 21
38.97938849
 31
0.0
  0
LINE
  5
3C3
330
36
100
AcDbEntity
  8
0
 62
     7
100
AcDbLine
 10
48.8357052
 20
40.00027889
 30
0.0
 11
48.93644860000001
 21
40.00027889
 31
0.0
  0
LINE
  5
3C4
330
36
100
AcDbEntity
  8
0
 62
     7
100
AcDbLine
 10
48.93644860000001
 20
40.94518392
 30
0.0
 11
48.93644860000001
 21
40.00027889
 31
0.0
  0
LINE
  5
3C5
330
36
100
AcDbEntity
  8
0
 62
     7
100
AcDbLine
 10
47.27645658
 20
40.71159504999999
 30
0.0
 11
48.61846312
 21
40.71159504999999
 31
0.0
  0
LINE
  5
3C6
330
36
100
AcDbEntity
  8
0
 62
     7
100
AcDbLine
 10
48.61846312
 20
40.71159504999999
 30
0.0
 11
48.61846312
 21
40.80209456
 31
0.0
  0
ARC
  5
3C7
330
36
100
AcDbEntity
  8
0
 62
     7
100
AcDbCircle
 10
47.94745985
 20
40.33933944
 30
0.0
 40
0.8150998000000001
100
AcDbArc
 50
34.59195527
 51
145.40804473
  0
LINE
  5
3C8
330
36
100
AcDbEntity
  8
0
 62
     7
100
AcDbLine
 10
46.95847109999998
 20
40.94518392
 30
0.0
 11
46.95847109999998
 21
40.00027889
 31
0.0
  0
LINE
  5
3C9
330
36
100
AcDbEntity
  8
0
 62
     7
100
AcDbLine
 10
46.95847109999998
 20
40.00027889
 30
0.0
 11
47.0592145
 21
40.00027889
 31
0.0
  0
LINE
  5
3CA
330
36
100
AcDbEntity
  8
0
 62
     7
100
AcDbLine
 10
48.8357052
 20
38.97938849
 30
0.0
 11
48.93644860000001
 21
38.97938849
 31
0.0
  0
LINE
  5
3CB
330
36
100
AcDbEntity
  8
0
 62
     7
100
AcDbLine
 10
47.27645658
 20
40.71159504999999
 30
0.0
 11
47.27645658
 21
40.80209456
 31
0.0
  0
LINE
  5
3CC
330
36
100
AcDbEntity
  8
0
 62
     7
100
AcDbLine
 10
48.8357052
 20
35.16723331
 30
0.0
 11
48.93645802
 21
35.16723155
 31
0.0
  0
LINE
  5
3CD
330
36
100
AcDbEntity
  8
0
 62
     7
100
AcDbLine
 10
48.93643919
 20
34.24841639
 30
0.0
 11
48.93645522999999
 21
35.16723155
 31
0.0
  0
LINE
  5
3CE
330
36
100
AcDbEntity
  8
0
 62
     7
100
AcDbLine
 10
48.93644860000001
 20
32.20252027
 30
0.0
 11
48.93644860000001
 21
32.93550376000001
 31
0.0
  0
ARC
  5
3CF
330
36
100
AcDbEntity
  8
0
 62
     7
100
AcDbCircle
 10
47.92417098
 20
29.83016661
 30
0.0
 40
7.006459819999999
100
AcDbArc
 50
83.86600618999997
 51
87.69403426
  0
LINE
  5
3D0
330
36
100
AcDbEntity
  8
0
 62
     7
100
AcDbLine
 10
48.20434606
 20
36.36187131
 30
0.0
 11
48.20608170999999
 21
36.83095268000001
 31
0.0
  0
LINE
  5
413
330
36
100
AcDbEntity
  8
0
 62
     7
100
AcDbLine
 10
47.69233904
 20
36.36376579
 30
0.0
 11
47.69407468999999
 21
36.83284716
 31
0.0
  0
ARC
  5
414
330
36
100
AcDbEntity
  8
0
 62
     7
100
AcDbCircle
 10
47.92417098
 20
29.83016661
 30
0.0
 40
7.006459819999999
100
AcDbArc
 50
91.88196574
 51
95.70999381
  0
LINE
  5
415
330
36
100
AcDbEntity
  8
0
 62
     7
100
AcDbLine
 10
46.95848052
 20
35.16726607
 30
0.0
 11
47.0592145
 21
35.16726431
 31
0.0
  0
LINE
  5
416
330
36
100
AcDbEntity
  8
0
 62
     7
100
AcDbLine
 10
46.95846169
 20
34.24845091
 30
0.0
 11
46.95847771999999
 21
35.16726607
 31
0.0
  0
LINE
  5
417
330
36
100
AcDbEntity
  8
0
 62
     7
100
AcDbLine
 10
48.8357052
 20
34.24841814
 30
0.0
 11
48.93643919
 21
34.24841639
 31
0.0
  0
LINE
  5
418
330
36
100
AcDbEntity
  8
0
 62
     7
100
AcDbLine
 10
46.95846169
 20
34.24845091
 30
0.0
 11
47.0592145
 21
34.24844915
 31
0.0
  0
LINE
  5
419
330
36
100
AcDbEntity
  8
0
 62
     7
100
AcDbLine
 10
48.8357052
 20
32.93550376000001
 30
0.0
 11
48.93644860000001
 21
32.93550376000001
 31
0.0
  0
LINE
  5
41A
330
36
100
AcDbEntity
  8
0
 62
     7
100
AcDbLine
 10
47.77650189
 20
32.72800475
 30
0.0
 11
48.93644860000001
 21
33.45297145
 31
0.0
  0
LINE
  5
41B
330
36
100
AcDbEntity
  8
0
 62
     7
100
AcDbLine
 10
48.93644860000001
 20
33.45297145
 30
0.0
 11
48.93644860000001
 21
33.9384156
 31
0.0
  0
LINE
  5
41C
330
36
100
AcDbEntity
  8
0
 62
     7
100
AcDbLine
 10
46.95847109999998
 20
34.1459146
 30
0.0
 11
47.0592145
 21
34.1459146
 31
0.0
  0
LINE
  5
41D
330
36
100
AcDbEntity
  8
0
 62
     7
100
AcDbLine
 10
46.95847109999998
 20
33.41293112000001
 30
0.0
 11
46.95847109999998
 21
34.1459146
 31
0.0
  0
LINE
  5
41E
330
36
100
AcDbEntity
  8
0
 62
     7
100
AcDbLine
 10
46.95847109999998
 20
33.41293112000001
 30
0.0
 11
47.0592145
 21
33.41293112000001
 31
0.0
  0
LINE
  5
41F
330
36
100
AcDbEntity
  8
0
 62
     7
100
AcDbLine
 10
47.85435983
 20
33.62043012
 30
0.0
 11
46.95847109999998
 21
33.03250314
 31
0.0
  0
LINE
  5
420
330
36
100
AcDbEntity
  8
0
 62
     7
100
AcDbLine
 10
46.95847109999998
 20
32.20252027
 30
0.0
 11
46.95847109999998
 21
33.03250314
 31
0.0
  0
LINE
  5
421
330
36
100
AcDbEntity
  8
0
 62
     7
100
AcDbLine
 10
46.95851810999999
 20
36.92452711
 30
0.0
 11
46.95851810999999
 21
37.85417593
 31
0.0
  0
LINE
  5
422
330
36
100
AcDbEntity
  8
0
 62
     7
100
AcDbLine
 10
47.0592145
 20
36.92452711
 30
0.0
 11
46.95851810999999
 21
36.92452711
 31
0.0
  0
LINE
  5
423
330
36
100
AcDbEntity
  8
0
 62
     7
100
AcDbLine
 10
48.93649561
 20
36.92452711
 30
0.0
 11
48.8357052
 21
36.92452711
 31
0.0
  0
LINE
  5
424
330
36
100
AcDbEntity
  8
0
 62
     7
100
AcDbLine
 10
48.93649561
 20
36.92452711
 30
0.0
 11
48.93649561
 21
37.85417593
 31
0.0
  0
LINE
  5
425
330
36
100
AcDbEntity
  8
0
 62
     7
100
AcDbLine
 10
48.8357052
 20
37.95118845
 30
0.0
 11
48.93649561
 21
37.95118845
 31
0.0
  0
LINE
  5
426
330
36
100
AcDbEntity
  8
0
 62
     7
100
AcDbLine
 10
48.8357052
 20
37.85417593
 30
0.0
 11
48.93649561
 21
37.85417593
 31
0.0
  0
LINE
  5
427
330
36
100
AcDbEntity
  8
0
 62
     7
100
AcDbLine
 10
47.0592145
 20
37.85417593
 30
0.0
 11
46.95851810999999
 21
37.85417593
 31
0.0
  0
LINE
  5
428
330
36
100
AcDbEntity
  8
0
 62
     7
100
AcDbLine
 10
47.0592145
 20
37.95118845
 30
0.0
 11
46.95851810999999
 21
37.95118845
 31
0.0
  0
LINE
  5
429
330
36
100
AcDbEntity
  8
0
 62
     7
100
AcDbLine
 10
48.8357052
 20
32.20252027
 30
0.0
 11
48.93644860000001
 21
32.20252027
 31
0.0
  0
LINE
  5
42A
330
36
100
AcDbEntity
  8
0
 62
     7
100
AcDbLine
 10
46.95847109999998
 20
32.20252027
 30
0.0
 11
47.0592145
 21
32.20252027
 31
0.0
  0
ARC
  5
42B
330
36
100
AcDbEntity
  8
0
 62
     7
100
AcDbCircle
 10
47.73996085
 20
41.04518392
 30
0.0
 40
0.78148975
100
AcDbArc
 50
107.30874898
 51
113.76507096
  0
ARC
  5
42C
330
36
100
AcDbEntity
  8
0
 62
     7
100
AcDbCircle
 10
47.94745985
 20
40.37933944
 30
0.0
 40
1.478916949999999
100
AcDbArc
 50
72.69125102
 51
107.30856644
  0
ARC
  5
42D
330
36
100
AcDbEntity
  8
0
 62
     7
100
AcDbCircle
 10
48.15495886
 20
41.04518392
 30
0.0
 40
0.78148975
100
AcDbArc
 50
66.23492903999999
 51
72.69125102
  0
ARC
  5
42E
330
36
100
AcDbEntity
  8
0
 62
     7
100
AcDbCircle
 10
47.73996085
 20
40.94518392
 30
0.0
 40
0.78148975
100
AcDbArc
 50
107.30874898
 51
180.0
  0
ARC
  5
42F
330
36
100
AcDbEntity
  8
0
 62
     7
100
AcDbCircle
 10
47.94745985
 20
40.27933943999999
 30
0.0
 40
1.478916949999999
100
AcDbArc
 50
72.69125102
 51
107.30856644
  0
ARC
  5
430
330
36
100
AcDbEntity
  8
0
 62
     7
100
AcDbCircle
 10
48.15495886
 20
40.94518392
 30
0.0
 40
0.78148975
100
AcDbArc
 50
0.0
 51
72.69125102
  0
ARC
  5
431
330
36
100
AcDbEntity
  8
0
 62
     7
100
AcDbCircle
 10
47.94745985
 20
36.12425993
 30
0.0
 40
0.98898875
100
AcDbArc
 50
136.75287961
 51
179.74999829
  0
ARC
  5
432
330
36
100
AcDbEntity
  8
0
 62
     7
100
AcDbCircle
 10
47.94745985
 20
36.12425993
 30
0.0
 40
0.98898875
100
AcDbArc
 50
3.976333149999998
 51
42.82312038999999
  0
ARC
  5
433
330
36
100
AcDbEntity
  8
0
 62
     7
100
AcDbCircle
 10
47.96272725
 20
41.57273991
 30
0.0
 40
1.312328099999997
100
AcDbArc
 50
90.66658406
 51
113.90392827
  0
ARC
  5
434
330
36
100
AcDbEntity
  8
0
 62
     7
100
AcDbCircle
 10
47.96272725
 20
43.43729337
 30
0.0
 40
1.312328099999997
100
AcDbArc
 50
246.09607173
 51
269.33341594
  0
ARC
  5
435
330
36
100
AcDbEntity
  8
0
 62
     7
100
AcDbCircle
 10
47.93219246
 20
41.57273991
 30
0.0
 40
1.312328099999997
100
AcDbArc
 50
66.09607173
 51
89.33341593999998
  0
ARC
  5
436
330
36
100
AcDbEntity
  8
0
 62
     7
100
AcDbCircle
 10
47.93219246
 20
43.43729337
 30
0.0
 40
1.312328099999997
100
AcDbArc
 50
270.66658406
 51
293.90392827
  0
LINE
  5
437
330
36
100
AcDbEntity
  8
0
 62
     3
100
AcDbLine
 10
-190.0
 20
138.5
 30
0.0
 11
-190.0
 21
-135.5
 31
0.0
  0
LINE
  5
438
330
36
100
AcDbEntity
  8
0
 62
     3
100
AcDbLine
 10
200.0
 20
-135.5
 30
0.0
 11
200.0
 21
138.5
 31
0.0
  0
LINE
  5
439
330
36
100
AcDbEntity
  8
0
 62
     3
100
AcDbLine
 10
-190.0
 20
138.5
 30
0.0
 11
200.0
 21
138.5
 31
0.0
  0
LINE
  5
43C
330
36
100
AcDbEntity
  8
0
 62
     3
100
AcDbLine
 10
200.0
 20
-135.5
 30
0.0
 11
-190.0
 21
-135.5
 31
0.0
  0
LINE
  5
446
330
36
100
AcDbEntity
  8
0
 62
     3
100
AcDbLine
 10
101.39408206
 20
10.09606449
 30
0.0
 11
101.39408206
 21
2.68606449
 31
0.0
  0
ARC
  5
447
330
36
100
AcDbEntity
  8
0
 62
     3
100
AcDbCircle
 10
86.60909546
 20
6.44495351
 30
0.0
 40
3.42046763
100
AcDbArc
 50
270.0
 51
91.33989785000002
  0
LINE
  5
448
330
36
100
AcDbEntity
  8
0
 62
     3
100
AcDbLine
 10
83.75956306
 20
9.86448588
 30
0.0
 11
86.68907795
 21
9.86448588
 31
0.0
  0
ARC
  5
449
330
36
100
AcDbEntity
  8
0
 62
     3
100
AcDbCircle
 10
83.75956306
 20
9.294485879999999
 30
0.0
 40
0.57
100
AcDbArc
 50
90.0
 51
180.0
  0
LINE
  5
44A
330
36
100
AcDbEntity
  8
0
 62
     3
100
AcDbLine
 10
83.18956306
 20
9.294485879999999
 30
0.0
 11
83.18956306
 21
3.59448588
 31
0.0
  0
ARC
  5
44B
330
36
100
AcDbEntity
  8
0
 62
     3
100
AcDbCircle
 10
83.75956306
 20
3.59448588
 30
0.0
 40
0.57
100
AcDbArc
 50
180.0
 51
270.0
  0
LINE
  5
44C
330
36
100
AcDbEntity
  8
0
 62
     3
100
AcDbLine
 10
83.75956306
 20
3.024485879999998
 30
0.0
 11
86.60909546
 21
3.024485879999998
 31
0.0
  0
LINE
  5
44D
330
36
100
AcDbEntity
  8
0
 62
     7
100
AcDbLine
 10
77.98357676000001
 20
-0.84164185
 30
0.0
 11
77.98357676000001
 21
6.36614441
 31
0.0
  0
LINE
  5
44E
330
36
100
AcDbEntity
  8
0
 62
     7
100
AcDbLine
 10
77.98357676000001
 20
13.57393068
 30
0.0
 11
77.98357676000001
 21
6.36614441
 31
0.0
  0
LINE
  5
44F
330
36
100
AcDbEntity
  8
0
 62
     3
100
AcDbLine
 10
78.45857676
 20
14.04893068
 30
0.0
 11
78.45857676
 21
-1.316641849999999
 31
0.0
  0
LINE
  5
450
330
36
100
AcDbEntity
  8
0
 62
     3
100
AcDbLine
 10
63.09045624
 20
47.37974289999999
 30
0.0
 11
63.09045624
 21
37.87974290000001
 31
0.0
  0
LINE
  5
451
330
36
100
AcDbEntity
  8
0
 62
     3
100
AcDbLine
 10
61.34045624
 20
48.3797429
 30
0.0
 11
61.34045624
 21
37.87974290000001
 31
0.0
  0
LINE
  5
452
330
36
100
AcDbEntity
  8
0
 62
     3
100
AcDbLine
 10
59.34045624
 20
48.3797429
 30
0.0
 11
59.34045624
 21
43.62974289999999
 31
0.0
  0
ARC
  5
453
330
36
100
AcDbEntity
  8
0
 62
     7
100
AcDbCircle
 10
47.94745985
 20
44.30298408
 30
0.0
 40
0.9
100
AcDbArc
 50
26.96057893
 51
153.03942107
  0
LINE
  5
454
330
36
100
AcDbEntity
  8
0
 62
     3
100
AcDbLine
 10
51.09045624
 20
48.3797429
 30
0.0
 11
51.09045624
 21
37.87974290000001
 31
0.0
  0
LINE
  5
455
330
36
100
AcDbEntity
  8
0
 62
     3
100
AcDbLine
 10
53.09045624
 20
48.3797429
 30
0.0
 11
53.09045624
 21
43.62974289999999
 31
0.0
  0
LINE
  5
456
330
36
100
AcDbEntity
  8
0
 62
     3
100
AcDbLine
 10
53.84045624
 20
48.3797429
 30
0.0
 11
53.84045624
 21
43.62974289999999
 31
0.0
  0
LINE
  5
457
330
36
100
AcDbEntity
  8
0
 62
     3
100
AcDbLine
 10
55.84045624
 20
48.3797429
 30
0.0
 11
55.84045624
 21
43.62974289999999
 31
0.0
  0
LINE
  5
458
330
36
100
AcDbEntity
  8
0
 62
     3
100
AcDbLine
 10
56.59045624
 20
48.3797429
 30
0.0
 11
56.59045624
 21
43.62974289999999
 31
0.0
  0
LINE
  5
459
330
36
100
AcDbEntity
  8
0
 62
     3
100
AcDbLine
 10
58.59045624
 20
48.3797429
 30
0.0
 11
58.59045624
 21
43.62974289999999
 31
0.0
  0
LINE
  5
45A
330
36
100
AcDbEntity
  8
0
 62
     3
100
AcDbLine
 10
37.09045624
 20
48.3797429
 30
0.0
 11
37.09045624
 21
37.87974290000001
 31
0.0
  0
LINE
  5
45B
330
36
100
AcDbEntity
  8
0
 62
     3
100
AcDbLine
 10
42.59045624
 20
48.3797429
 30
0.0
 11
42.59045624
 21
37.87974290000001
 31
0.0
  0
LINE
  5
45C
330
36
100
AcDbEntity
  8
0
 62
     3
100
AcDbLine
 10
41.84045624
 20
48.3797429
 30
0.0
 11
41.84045624
 21
37.87974290000001
 31
0.0
  0
LINE
  5
45D
330
36
100
AcDbEntity
  8
0
 62
     3
100
AcDbLine
 10
39.84045624
 20
48.3797429
 30
0.0
 11
39.84045624
 21
37.87974290000001
 31
0.0
  0
LINE
  5
45E
330
36
100
AcDbEntity
  8
0
 62
     3
100
AcDbLine
 10
44.59045624
 20
48.3797429
 30
0.0
 11
44.59045624
 21
37.87974290000001
 31
0.0
  0
LINE
  5
45F
330
36
100
AcDbEntity
  8
0
 62
     3
100
AcDbLine
 10
39.09045624
 20
48.3797429
 30
0.0
 11
39.09045624
 21
37.87974290000001
 31
0.0
  0
LINE
  5
460
330
36
100
AcDbEntity
  8
0
 62
     3
100
AcDbLine
 10
39.09045624
 20
27.3797429
 30
0.0
 11
39.09045624
 21
37.87974290000001
 31
0.0
  0
LINE
  5
461
330
36
100
AcDbEntity
  8
0
 62
     3
100
AcDbLine
 10
39.84045624
 20
27.3797429
 30
0.0
 11
39.84045624
 21
37.87974290000001
 31
0.0
  0
LINE
  5
462
330
36
100
AcDbEntity
  8
0
 62
     3
100
AcDbLine
 10
41.84045624
 20
27.3797429
 30
0.0
 11
41.84045624
 21
37.87974290000001
 31
0.0
  0
LINE
  5
463
330
36
100
AcDbEntity
  8
0
 62
     3
100
AcDbLine
 10
42.59045624
 20
27.3797429
 30
0.0
 11
42.59045624
 21
37.87974290000001
 31
0.0
  0
LINE
  5
464
330
36
100
AcDbEntity
  8
0
 62
     3
100
AcDbLine
 10
44.59045624
 20
27.3797429
 30
0.0
 11
44.59045624
 21
37.87974290000001
 31
0.0
  0
LINE
  5
465
330
36
100
AcDbEntity
  8
0
 62
     3
100
AcDbLine
 10
37.09045624
 20
27.3797429
 30
0.0
 11
37.09045624
 21
37.87974290000001
 31
0.0
  0
LINE
  5
466
330
36
100
AcDbEntity
  8
0
 62
     3
100
AcDbLine
 10
63.09045624
 20
28.3797429
 30
0.0
 11
63.09045624
 21
37.87974290000001
 31
0.0
  0
LINE
  5
467
330
36
100
AcDbEntity
  8
0
 62
     3
100
AcDbLine
 10
61.34045624
 20
27.3797429
 30
0.0
 11
61.34045624
 21
37.87974290000001
 31
0.0
  0
LINE
  5
468
330
36
100
AcDbEntity
  8
0
 62
     3
100
AcDbLine
 10
59.34045624
 20
27.3797429
 30
0.0
 11
59.34045624
 21
32.1297429
 31
0.0
  0
LINE
  5
469
330
36
100
AcDbEntity
  8
0
 62
     3
100
AcDbLine
 10
58.59045624
 20
27.3797429
 30
0.0
 11
58.59045624
 21
32.1297429
 31
0.0
  0
LINE
  5
46A
330
36
100
AcDbEntity
  8
0
 62
     3
100
AcDbLine
 10
56.59045624
 20
27.3797429
 30
0.0
 11
56.59045624
 21
32.1297429
 31
0.0
  0
LINE
  5
46B
330
36
100
AcDbEntity
  8
0
 62
     3
100
AcDbLine
 10
51.09045624
 20
27.3797429
 30
0.0
 11
51.09045624
 21
37.87974290000001
 31
0.0
  0
LINE
  5
46C
330
36
100
AcDbEntity
  8
0
 62
     3
100
AcDbLine
 10
55.84045624
 20
27.3797429
 30
0.0
 11
55.84045624
 21
32.1297429
 31
0.0
  0
LINE
  5
46D
330
36
100
AcDbEntity
  8
0
 62
     3
100
AcDbLine
 10
53.84045624
 20
27.3797429
 30
0.0
 11
53.84045624
 21
32.1297429
 31
0.0
  0
LINE
  5
46E
330
36
100
AcDbEntity
  8
0
 62
     3
100
AcDbLine
 10
53.09045624
 20
27.3797429
 30
0.0
 11
53.09045624
 21
32.1297429
 31
0.0
  0
LINE
  5
471
330
36
100
AcDbEntity
  8
0
 62
     3
100
AcDbLine
 10
174.30063652
 20
-118.83427747
 30
0.0
 11
174.30063652
 21
-95.83427746999999
 31
0.0
  0
LINE
  5
473
330
36
100
AcDbEntity
  8
0
 62
     3
100
AcDbLine
 10
121.24702709
 20
-125.83427747
 30
0.0
 11
121.24702709
 21
-111.83427747
 31
0.0
  0
TEXT
  5
475
330
36
100
AcDbEntity
  8
0
 62
     3
100
AcDbText
 10
150.31095462
 20
-99.6291614
 30
0.0
 40
2.0
  1
A
 41
0.6999999900000004
100
AcDbText
  0
TEXT
  5
476
330
36
100
AcDbEntity
  8
0
 62
     3
100
AcDbText
 10
152.84624081
 20
-99.6291614
 30
0.0
 40
2.0
  1
P
 41
0.6999999900000004
100
AcDbText
  0
TEXT
  5
477
330
36
100
AcDbEntity
  8
0
 62
     3
100
AcDbText
 10
155.381527
 20
-99.6291614
 30
0.0
 40
2.0
  1
P
 41
0.6999999900000004
100
AcDbText
  0
TEXT
  5
478
330
36
100
AcDbEntity
  8
0
 62
     3
100
AcDbText
 10
157.91681318
 20
-99.6291614
 30
0.0
 40
2.0
  1
D
 41
0.6999999900000004
100
AcDbText
  0
TEXT
  5
479
330
36
100
AcDbEntity
  8
0
 62
     3
100
AcDbText
 10
163.28549642
 20
-99.6291614
 30
0.0
 40
2.0
  1
C
 41
0.6999999900000004
100
AcDbText
  0
TEXT
  5
47A
330
36
100
AcDbEntity
  8
0
 62
     3
100
AcDbText
 10
165.82078261
 20
-99.6291614
 30
0.0
 40
2.0
  1
H
 41
0.6999999900000004
100
AcDbText
  0
TEXT
  5
47B
330
36
100
AcDbEntity
  8
0
 62
     3
100
AcDbText
 10
168.3560688
 20
-99.6291614
 30
0.0
 40
2.0
  1
C
 41
0.6999999900000004
100
AcDbText
  0
TEXT
  5
47C
330
36
100
AcDbEntity
  8
0
 62
     3
100
AcDbText
 10
170.89135499
 20
-99.6291614
 30
0.0
 40
2.0
  1
K
 41
0.6999999900000004
100
AcDbText
  0
TEXT
  5
47D
330
36
100
AcDbEntity
  8
0
 62
     3
100
AcDbText
 10
176.56532156
 20
-99.6291614
 30
0.0
 40
2.0
  1
DESN
 41
1.216762539999999
100
AcDbText
  0
TEXT
  5
47E
330
36
100
AcDbEntity
  8
0
 62
     3
100
AcDbText
 10
91.55896282
 20
-128.97565926
 30
0.0
 40
2.0
  1
NICHIDO IND.CO.LTD
 41
1.27487637
100
AcDbText
  0
LINE
  5
47F
330
36
100
AcDbEntity
  8
0
 62
     3
100
AcDbLine
 10
101.94199214
 20
-95.83427746999999
 30
0.0
 11
101.94199214
 21
-118.83427747
 31
0.0
  0
LINE
  5
480
330
36
100
AcDbEntity
  8
0
 62
     3
100
AcDbLine
 10
148.30063652
 20
-95.83427746999999
 30
0.0
 11
148.30063652
 21
-135.5
 31
0.0
  0
LINE
  5
485
330
36
100
AcDbEntity
  8
0
 62
     3
100
AcDbLine
 10
161.30063652
 20
-95.83427746999999
 30
0.0
 11
161.30063652
 21
-125.83427747
 31
0.0
  0
TEXT
  5
486
330
36
100
AcDbEntity
  8
0
 62
     3
100
AcDbText
 10
149.41308125
 20
-124.96959067
 30
0.0
 40
3.200000049999998
  1
作成日
 41
1.01722639
100
AcDbText
  0
LINE
  5
487
330
36
100
AcDbEntity
  8
0
 62
     3
100
AcDbLine
 10
200.0
 20
-95.83427746999999
 30
0.0
 11
88.69655749999997
 21
-95.83427746999999
 31
0.0
  0
LINE
  5
488
330
36
100
AcDbEntity
  8
0
 62
     3
100
AcDbLine
 10
187.30063652
 20
-118.83427747
 30
0.0
 11
187.30063652
 21
-95.83427746999999
 31
0.0
  0
TEXT
  5
489
330
36
100
AcDbEntity
  8
0
 62
     3
100
AcDbText
 10
190.62443982
 20
-99.5433429
 30
0.0
 40
1.799999949999999
  1
D
 41
0.66666671
100
AcDbText
  0
TEXT
  5
48A
330
36
100
AcDbEntity
  8
0
 62
     3
100
AcDbText
 10
193.44106804
 20
-99.5433429
 30
0.0
 40
1.799999949999999
  1
E
 41
0.66666671
100
AcDbText
  0
TEXT
  5
48B
330
36
100
AcDbEntity
  8
0
 62
     3
100
AcDbText
 10
196.25769626
 20
-99.5433429
 30
0.0
 40
1.799999949999999
  1
F
 41
0.66666671
100
AcDbText
  0
TEXT
  5
48C
330
36
100
AcDbEntity
  8
0
 62
     3
100
AcDbText
 10
190.62443982
 20
-103.53589621
 30
0.0
 40
3.200000049999998
  1
製図
 41
1.076368849999999
100
AcDbText
  0
LINE
  5
48D
330
36
100
AcDbEntity
  8
0
 62
     3
100
AcDbLine
 10
88.69655749999997
 20
-95.83427746999999
 30
0.0
 11
88.69655749999997
 21
-135.5
 31
0.0
  0
TEXT
  5
48E
330
36
100
AcDbEntity
  8
0
 62
     3
100
AcDbText
 10
90.07321036
 20
-135.16753452
 30
0.0
 40
5.0
  1
日動工業株式会社
 41
0.8333333299999999
100
AcDbText
  0
LINE
  5
48F
330
36
100
AcDbEntity
  8
0
 62
     3
100
AcDbLine
 10
131.57896145
 20
-111.83427747
 30
0.0
 11
131.57896145
 21
-135.5
 31
0.0
  0
LINE
  5
490
330
36
100
AcDbEntity
  8
0
 62
     3
100
AcDbLine
 10
131.57896145
 20
-130.66713874
 30
0.0
 11
148.30063652
 21
-130.66713874
 31
0.0
  0
TEXT
  5
491
330
36
100
AcDbEntity
  8
0
 62
     3
100
AcDbText
 10
132.16556339
 20
-129.85070813
 30
0.0
 40
3.200000049999998
  1
出図コード
 41
0.8356862900000001
100
AcDbText
  0
LINE
  5
493
330
36
100
AcDbEntity
  8
0
 62
     3
100
AcDbLine
 10
88.69655749999997
 20
-125.83427747
 30
0.0
 11
200.0
 21
-125.83427747
 31
0.0
  0
LINE
  5
495
330
36
100
AcDbEntity
  8
0
 62
     3
100
AcDbLine
 10
88.69655749999997
 20
-104.83427747
 30
0.0
 11
200.0
 21
-104.83427747
 31
0.0
  0
LINE
  5
49B
330
36
100
AcDbEntity
  8
0
 62
     3
100
AcDbLine
 10
88.69655749999997
 20
-111.83427747
 30
0.0
 11
148.30063652
 21
-111.83427747
 31
0.0
  0
LINE
  5
4A1
330
36
100
AcDbEntity
  8
0
 62
     3
100
AcDbLine
 10
88.69655749999997
 20
-118.83427747
 30
0.0
 11
200.0
 21
-118.83427747
 31
0.0
  0
TEXT
  5
4A2
330
36
100
AcDbEntity
  8
0
 62
     3
100
AcDbText
 10
132.03301508
 20
-135.1398934993291
 30
0.0
 40
3.200000049999998
  1
ZK-A3X
 41
0.8112849199999999
100
AcDbText
  0
TEXT
  5
4A3
330
36
100
AcDbEntity
  8
0
 62
     3
100
AcDbText
 10
90.51395445999999
 20
-99.66475167
 30
0.0
 40
2.0
  1
CONPONENTS
 41
0.53316033
100
AcDbText
  0
TEXT
  5
4A4
330
36
100
AcDbEntity
  8
0
 62
     3
100
AcDbText
 10
90.16422785000001
 20
-118.59692846
 30
0.0
 40
3.0
  1
材
 41
0.8333333299999999
100
AcDbText
  0
TEXT
  5
4A5
330
36
100
AcDbEntity
  8
0
 62
     3
100
AcDbText
 10
97.69987047
 20
-118.59692846
 30
0.0
 40
3.0
  1
質
 41
0.8333333299999999
100
AcDbText
  0
TEXT
  5
4A6
330
36
100
AcDbEntity
  8
0
 62
     3
100
AcDbText
 10
90.25229847
 20
-107.97240384
 30
0.0
 40
2.0
  1
MODEL
 41
1.031073209999997
100
AcDbText
  0
TEXT
  5
4A7
330
36
100
AcDbEntity
  8
0
 62
     3
100
AcDbText
 10
90.16422785000001
 20
-114.91462026
 30
0.0
 40
2.0
  1
MATERIAL
 41
0.65927843
100
AcDbText
  0
TEXT
  5
4A8
330
36
100
AcDbEntity
  8
0
 62
     3
100
AcDbText
 10
121.47150821
 20
-118.59692846
 30
0.0
 40
3.0
  1
備
 41
0.8333333299999999
100
AcDbText
  0
TEXT
  5
4A9
330
36
100
AcDbEntity
  8
0
 62
     3
100
AcDbText
 10
128.20450992
 20
-118.59692846
 30
0.0
 40
3.0
  1
考
 41
0.8333333299999999
100
AcDbText
  0
TEXT
  5
4AA
330
36
100
AcDbEntity
  8
0
 62
     3
100
AcDbText
 10
121.7961935243977
 20
-114.91462026
 30
0.0
 40
2.0
  1
REMARKS
 41
0.6757942400000001
100
AcDbText
  0
TEXT
  5
4AB
330
36
100
AcDbEntity
  8
0
 62
     3
100
AcDbText
 10
91.75395681999999
 20
-121.83474087
 30
0.0
 40
2.0
  1
3AD
 41
1.42613983
100
AcDbText
  0
TEXT
  5
4AC
330
36
100
AcDbEntity
  8
0
 62
     3
100
AcDbText
 10
101.06493652
 20
-121.66900731
 30
0.0
 40
2.0
  1
ANGLE
 41
1.66988373
100
AcDbText
  0
TEXT
  5
4AD
330
36
100
AcDbEntity
  8
0
 62
     3
100
AcDbText
 10
121.99882361
 20
-122.0458482
 30
0.0
 40
2.0
  1
SCALE
 41
0.7719631200000002
100
AcDbText
  0
TEXT
  5
4AE
330
36
100
AcDbEntity
  8
0
 62
     3
100
AcDbText
 10
91.44008659999999
 20
-125.83427747
 30
0.0
 40
3.0
  1
第
 41
0.8333333299999999
100
AcDbText
  0
TEXT
  5
4AF
330
36
100
AcDbEntity
  8
0
 62
     3
100
AcDbText
 10
99.22693657000001
 20
-125.83427747
 30
0.0
 40
3.0
  1
三
 41
0.8333333299999999
100
AcDbText
  0
TEXT
  5
4B0
330
36
100
AcDbEntity
  8
0
 62
     3
100
AcDbText
 10
107.01378655
 20
-125.83427747
 30
0.0
 40
3.0
  1
角
 41
0.8333333299999999
100
AcDbText
  0
TEXT
  5
4B1
330
36
100
AcDbEntity
  8
0
 62
     3
100
AcDbText
 10
114.80063652
 20
-125.83427747
 30
0.0
 40
3.0
  1
法
 41
0.8333333299999999
100
AcDbText
  0
TEXT
  5
4B2
330
36
100
AcDbEntity
  8
0
 62
     3
100
AcDbText
 10
121.86202857
 20
-125.5458482
 30
0.0
 40
3.0
  1
尺
 41
0.8333333299999999
100
AcDbText
  0
TEXT
  5
4B3
330
36
100
AcDbEntity
  8
0
 62
     3
100
AcDbText
 10
128.59503028
 20
-125.5458482
 30
0.0
 40
3.0
  1
度
 41
0.8333333299999999
100
AcDbText
  0
TEXT
  5
4B4
330
36
100
AcDbEntity
  8
0
 62
     3
100
AcDbText
 10
151.17830074
 20
-103.37654853
 30
0.0
 40
3.0
  1
承認
 41
1.0894733
100
AcDbText
  0
TEXT
  5
4B5
330
36
100
AcDbEntity
  8
0
 62
     3
100
AcDbText
 10
164.4211809599999
 20
-103.43427747
 30
0.0
 40
3.0
  1
検図
 41
0.931761
100
AcDbText
  0
TEXT
  5
4B6
330
36
100
AcDbEntity
  8
0
 62
     3
100
AcDbText
 10
177.42157769
 20
-103.43427747
 30
0.0
 40
3.0
  1
設
 41
0.8333333299999999
100
AcDbText
  0
TEXT
  5
4B7
330
36
100
AcDbEntity
  8
0
 62
     3
100
AcDbText
 10
181.91144585
 20
-103.43427747
 30
0.0
 40
3.0
  1
計
 41
0.8333333299999999
100
AcDbText
  0
TEXT
  5
4B8
330
36
100
AcDbEntity
  8
0
 62
     3
100
AcDbText
 10
90.58406097
 20
-103.26172509
 30
0.0
 40
3.0
  1
品
 41
0.8333333299999999
100
AcDbText
  0
TEXT
  5
4B9
330
36
100
AcDbEntity
  8
0
 62
     3
100
AcDbText
 10
98.11970311000001
 20
-103.26172509
 30
0.0
 40
3.0
  1
名
 41
0.8333333299999999
100
AcDbText
  0
TEXT
  5
4BA
330
36
100
AcDbEntity
  8
0
 62
     3
100
AcDbText
 10
90.25229847
 20
-111.4710382874475
 30
0.0
 40
3.0
  1
型
 41
0.8333333299999999
100
AcDbText
  0
TEXT
  5
4BB
330
36
100
AcDbEntity
  8
0
 62
     3
100
AcDbText
 10
97.80038893
 20
-111.4710382874475
 30
0.0
 40
3.0
  1
式
 41
0.8333333299999999
100
AcDbText
  0
TEXT
  5
4BC
330
36
100
AcDbEntity
  8
0
 62
     3
100
AcDbText
 10
-141.8336971695415
 20
-135.0
 30
0.0
 40
3.2
  1
数量
 41
0.8
  7
高3.2
100
AcDbText
  0
TEXT
  5
4BE
330
36
100
AcDbEntity
  8
0
 62
     3
100
AcDbText
 10
-133.58446516959
 20
-134.93876776
 30
0.0
 40
3.2
  1
材質  規格
 41
0.8
  7
高3.2
100
AcDbText
  0
TEXT
  5
4BF
330
36
100
AcDbEntity
  8
0
 62
     3
100
AcDbText
 10
-181.5249855848124
 20
-134.93876776
 30
0.0
 40
3.2
  1
品　　　　名
 41
0.8
  7
高3.2
100
AcDbText
  0
TEXT
  5
4C0
330
36
100
AcDbEntity
  8
0
 62
     3
100
AcDbText
 10
-188.5
 20
-135.0
 30
0.0
 40
3.2
  1
No
 41
0.8
  7
高3.2
100
AcDbText
  0
TEXT
  5
4C1
330
36
100
AcDbEntity
  8
0
 62
     3
100
AcDbText
 10
-133.58446516959
 20
-85.00000000000001
 30
0.0
 40
3.2
  1
タッピング　M3.5x12
 41
0.8
  7
高3.2
100
AcDbText
  0
LINE
  5
4C2
330
36
100
AcDbEntity
  8
0
 62
     7
100
AcDbLine
 10
-135.08446516959
 20
-135.43876776
 30
0.0
 11
-135.08446516959
 21
-80.50000000000002
 31
0.0
  0
LINE
  5
4C3
330
36
100
AcDbEntity
  8
0
 62
     7
100
AcDbLine
 10
-143.3336971695416
 20
-135.51329568
 30
0.0
 11
-143.3336971695416
 21
-80.5
 31
0.0
  0
LINE
  5
4C4
330
36
100
AcDbEntity
  8
0
 62
     7
100
AcDbLine
 10
-183.0249855848124
 20
-135.43876776
 30
0.0
 11
-183.0249855848125
 21
-80.50000000000002
 31
0.0
  0
TEXT
  5
4C5
330
36
100
AcDbEntity
  8
0
 62
     3
100
AcDbText
 10
-141.8336971695415
 20
-120.0
 30
0.0
 40
3.2
  1
1
 41
0.8
  7
高3.2
100
AcDbText
  0
TEXT
  5
4C6
330
36
100
AcDbEntity
  8
0
 62
     3
100
AcDbText
 10
-141.8336971695415
 20
-105.0
 30
0.0
 40
3.2
  1
1
 41
0.8
  7
高3.2
100
AcDbText
  0
TEXT
  5
4C7
330
36
100
AcDbEntity
  8
0
 62
     3
100
AcDbText
 10
-141.8336971695415
 20
-125.0
 30
0.0
 40
3.2
  1
1
 41
0.8
  7
高3.2
100
AcDbText
  0
TEXT
  5
4C8
330
36
100
AcDbEntity
  8
0
 62
     3
100
AcDbText
 10
-141.8336971695415
 20
-110.0
 30
0.0
 40
3.2
  1
1
 41
0.8
  7
高3.2
100
AcDbText
  0
TEXT
  5
4C9
330
36
100
AcDbEntity
  8
0
 62
     3
100
AcDbText
 10
-133.58446516959
 20
-125.0
 30
0.0
 40
3.2
  1
PC樹脂　黄色
 41
0.8
  7
高3.2
100
AcDbText
  0
TEXT
  5
4CA
330
36
100
AcDbEntity
  8
0
 62
     3
100
AcDbText
 10
-133.58446516959
 20
-120.0
 30
0.0
 40
3.2
  1
PC樹脂　透明
 41
0.8
  7
高3.2
100
AcDbText
  0
TEXT
  5
4CB
330
36
100
AcDbEntity
  8
0
 62
     3
100
AcDbText
 10
-133.58446516959
 20
-130.0
 30
0.0
 40
3.2
  1
PP樹脂
 41
0.8
  7
高3.2
100
AcDbText
  0
TEXT
  5
4CC
330
36
100
AcDbEntity
  8
0
 62
     3
100
AcDbText
 10
-141.8336971695415
 20
-130.0
 30
0.0
 40
3.2
  1
1式
 41
0.8
  7
高3.2
100
AcDbText
  0
TEXT
  5
4CD
330
36
100
AcDbEntity
  8
0
 62
     3
100
AcDbText
 10
-141.8336971695415
 20
-100.0
 30
0.0
 40
3.2
  1
1
 41
0.8
  7
高3.2
100
AcDbText
  0
TEXT
  5
4CE
330
36
100
AcDbEntity
  8
0
 62
     3
100
AcDbText
 10
-141.8336971695415
 20
-95.0
 30
0.0
 40
3.2
  1
1
 41
0.8
  7
高3.2
100
AcDbText
  0
TEXT
  5
4CF
330
36
100
AcDbEntity
  8
0
 62
     3
100
AcDbText
 10
-141.8336971695415
 20
-90.0
 30
0.0
 40
3.2
  1
1
 41
0.8
  7
高3.2
100
AcDbText
  0
TEXT
  5
4D0
330
36
100
AcDbEntity
  8
0
 62
     3
100
AcDbText
 10
-133.58446516959
 20
-100.0
 30
0.0
 40
3.2
  1
成形品　シリコン樹脂
 41
0.8
  7
高3.2
100
AcDbText
  0
TEXT
  5
4D1
330
36
100
AcDbEntity
  8
0
 62
     3
100
AcDbText
 10
-133.58446516959
 20
-95.0
 30
0.0
 40
3.2
  1
PP樹脂
 41
0.8
  7
高3.2
100
AcDbText
  0
TEXT
  5
4D2
330
36
100
AcDbEntity
  8
0
 62
     3
100
AcDbText
 10
-133.58446516959
 20
-90.0
 30
0.0
 40
3.2
  1
タッピング　M3x6
 41
0.8
  7
高3.2
100
AcDbText
  0
TEXT
  5
4D3
330
36
100
AcDbEntity
  8
0
 62
     3
100
AcDbText
 10
-133.58446516959
 20
-110.0
 30
0.0
 40
3.2
  1
VCT 0.75sqx2cx5m
 41
0.8
  7
高3.2
100
AcDbText
  0
TEXT
  5
4D4
330
36
100
AcDbEntity
  8
0
 62
     3
100
AcDbText
 10
-133.58446516959
 20
-105.0
 30
0.0
 40
3.2
  1
F27W-Tインバータ式
 41
0.8
  7
高3.2
100
AcDbText
  0
TEXT
  5
4D5
330
36
100
AcDbEntity
  8
0
 62
     3
100
AcDbText
 10
-188.4999999999999
 20
-130.0
 30
0.0
 40
3.2
  1
01
 41
0.8
  7
高3.2
100
AcDbText
  0
TEXT
  5
4D6
330
36
100
AcDbEntity
  8
0
 62
     3
100
AcDbText
 10
-188.4999999999999
 20
-125.0
 30
0.0
 40
3.2
  1
02
 41
0.8
  7
高3.2
100
AcDbText
  0
TEXT
  5
4D7
330
36
100
AcDbEntity
  8
0
 62
     3
100
AcDbText
 10
-188.5
 20
-120.0
 30
0.0
 40
3.2
  1
03
 41
0.8
  7
高3.2
100
AcDbText
  0
TEXT
  5
4D8
330
36
100
AcDbEntity
  8
0
 62
     3
100
AcDbText
 10
-188.5
 20
-115.0
 30
0.0
 40
3.2
  1
04
 41
0.8
  7
高3.2
100
AcDbText
  0
TEXT
  5
4D9
330
36
100
AcDbEntity
  8
0
 62
     3
100
AcDbText
 10
-188.5
 20
-110.0
 30
0.0
 40
3.2
  1
05
 41
0.8
  7
高3.2
100
AcDbText
  0
TEXT
  5
4DA
330
36
100
AcDbEntity
  8
0
 62
     3
100
AcDbText
 10
-181.5249855848124
 20
-130.0
 30
0.0
 40
3.2
  1
灯具本体
 41
0.8
  7
高3.2
100
AcDbText
  0
TEXT
  5
4DB
330
36
100
AcDbEntity
  8
0
 62
     3
100
AcDbText
 10
-188.5
 20
-105.0
 30
0.0
 40
3.2
  1
06
 41
0.8
  7
高3.2
100
AcDbText
  0
TEXT
  5
4DC
330
36
100
AcDbEntity
  8
0
 62
     3
100
AcDbText
 10
-181.5249855848124
 20
-125.0
 30
0.0
 40
3.2
  1
グローブソケット
 41
0.8
  7
高3.2
100
AcDbText
  0
TEXT
  5
4DD
330
36
100
AcDbEntity
  8
0
 62
     3
100
AcDbText
 10
-181.5249855848124
 20
-120.0
 30
0.0
 40
3.2
  1
ランプグローブ
 41
0.8
  7
高3.2
100
AcDbText
  0
TEXT
  5
4DE
330
36
100
AcDbEntity
  8
0
 62
     3
100
AcDbText
 10
-181.5249855848124
 20
-110.0
 30
0.0
 40
3.2
  1
防雨プラグ付き電線
 41
0.8
  7
高3.2
100
AcDbText
  0
TEXT
  5
4DF
330
36
100
AcDbEntity
  8
0
 62
     3
100
AcDbText
 10
-188.5
 20
-100.0
 30
0.0
 40
3.2
  1
07
 41
0.8
  7
高3.2
100
AcDbText
  0
TEXT
  5
4E0
330
36
100
AcDbEntity
  8
0
 62
     3
100
AcDbText
 10
-181.5249855848124
 20
-105.0
 30
0.0
 40
3.2
  1
蛍光ランプ
 41
0.8
  7
高3.2
100
AcDbText
  0
TEXT
  5
4E1
330
36
100
AcDbEntity
  8
0
 62
     3
100
AcDbText
 10
-188.5
 20
-95.0
 30
0.0
 40
3.2
  1
08
 41
0.8
  7
高3.2
100
AcDbText
  0
TEXT
  5
4E2
330
36
100
AcDbEntity
  8
0
 62
     3
100
AcDbText
 10
-188.5
 20
-90.0
 30
0.0
 40
3.2
  1
09
 41
0.8
  7
高3.2
100
AcDbText
  0
TEXT
  5
4E3
330
36
100
AcDbEntity
  8
0
 62
     3
100
AcDbText
 10
-181.5249855848124
 20
-100.0
 30
0.0
 40
3.2
  1
コーンパッキン
 41
0.8
  7
高3.2
100
AcDbText
  0
TEXT
  5
4E4
330
36
100
AcDbEntity
  8
0
 62
     3
100
AcDbText
 10
-181.5249855848124
 20
-95.0
 30
0.0
 40
3.2
  1
パッキン押えナット
 41
0.8
  7
高3.2
100
AcDbText
  0
TEXT
  5
4E5
330
36
100
AcDbEntity
  8
0
 62
     3
100
AcDbText
 10
-181.5249855848124
 20
-90.0
 30
0.0
 40
3.2
  1
ナット止めねじ
 41
0.8
  7
高3.2
100
AcDbText
  0
TEXT
  5
4E6
330
36
100
AcDbEntity
  8
0
 62
     3
100
AcDbText
 10
-141.8336971695415
 20
-85.00000000000001
 30
0.0
 40
3.2
  1
2
 41
0.8
  7
高3.2
100
AcDbText
  0
TEXT
  5
4E7
330
36
100
AcDbEntity
  8
0
 62
     3
100
AcDbText
 10
-181.5249855848124
 20
-85.00000000000003
 30
0.0
 40
3.2
  1
グローブソケット止めねじ
 41
0.8
  7
高3.2
100
AcDbText
  0
TEXT
  5
4E8
330
36
100
AcDbEntity
  8
0
 62
     3
100
AcDbText
 10
-188.5
 20
-85.00000000000003
 30
0.0
 40
3.2
  1
10
 41
0.8
  7
高3.2
100
AcDbText
  0
LINE
  5
4E9
330
36
100
AcDbEntity
  8
0
100
AcDbLine
 10
-93.55862493046402
 20
-135.5
 30
0.0
 11
-93.55862493046402
 21
-80.5
 31
0.0
  0
TEXT
  5
4EA
330
36
100
AcDbEntity
  8
0
 62
     3
100
AcDbText
 10
154.4316044097115
 20
-95.27819227
 30
0.0
 40
4.5
  1
コード
  7
高4.5
100
AcDbText
  0
LINE
  5
4EB
330
36
100
AcDbEntity
  8
0
 62
     3
100
AcDbLine
 10
174.30060038
 20
-95.83427746999999
 30
0.0
 11
174.30060038
 21
-89.83427747
 31
0.0
  0
LINE
  5
4EC
330
36
100
AcDbEntity
  8
0
 62
     3
100
AcDbLine
 10
148.30060038
 20
-95.83427746999999
 30
0.0
 11
148.30060038
 21
-89.83427747
 31
0.0
  0
TEXT
  5
4ED
330
36
100
AcDbEntity
  8
0
 62
     3
100
AcDbText
 10
179.1843369037808
 20
-95.2543422626528
 30
0.0
 40
4.5
  1
8851
  7
高4.5
100
AcDbText
  0
LINE
  5
4EE
330
36
100
AcDbEntity
  8
0
 62
     3
100
AcDbLine
 10
-25.93298225057675
 20
-80.5
 30
0.0
 11
-190.0
 21
-80.5
 31
0.0
  0
LINE
  5
4EF
330
36
100
AcDbEntity
  8
0
 62
     7
100
AcDbLine
 10
-25.93298225057675
 20
-85.5
 30
0.0
 11
-190.0
 21
-85.50000000000002
 31
0.0
  0
LINE
  5
4F0
330
36
100
AcDbEntity
  8
0
 62
     7
100
AcDbLine
 10
-25.93298225057675
 20
-110.5
 30
0.0
 11
-190.0
 21
-110.5
 31
0.0
  0
LINE
  5
4F1
330
36
100
AcDbEntity
  8
0
 62
     7
100
AcDbLine
 10
-93.55862493046402
 20
-115.5
 30
0.0
 11
-190.0
 21
-115.5
 31
0.0
  0
LINE
  5
4F2
330
36
100
AcDbEntity
  8
0
 62
     7
100
AcDbLine
 10
-25.93298225057675
 20
-120.5
 30
0.0
 11
-190.0
 21
-120.5
 31
0.0
  0
LINE
  5
4F3
330
36
100
AcDbEntity
  8
0
 62
     7
100
AcDbLine
 10
-25.93298225057675
 20
-125.5
 30
0.0
 11
-190.0
 21
-125.5
 31
0.0
  0
LINE
  5
4F4
330
36
100
AcDbEntity
  8
0
 62
     7
100
AcDbLine
 10
-25.93298225057675
 20
-105.5
 30
0.0
 11
-190.0
 21
-105.5
 31
0.0
  0
LINE
  5
4F5
330
36
100
AcDbEntity
  8
0
 62
     7
100
AcDbLine
 10
-25.93298225057675
 20
-100.5
 30
0.0
 11
-190.0
 21
-100.5
 31
0.0
  0
LINE
  5
4F6
330
36
100
AcDbEntity
  8
0
 62
     7
100
AcDbLine
 10
-25.93298225057675
 20
-90.50000000000002
 30
0.0
 11
-190.0
 21
-90.5
 31
0.0
  0
LINE
  5
4F7
330
36
100
AcDbEntity
  8
0
 62
     7
100
AcDbLine
 10
-25.93298225057675
 20
-95.49999999999998
 30
0.0
 11
-190.0
 21
-95.5
 31
0.0
  0
LINE
  5
4F8
330
36
100
AcDbEntity
  8
0
 62
     3
100
AcDbLine
 10
-25.93298225057675
 20
-130.5
 30
0.0
 11
-190.0
 21
-130.5
 31
0.0
  0
LINE
  5
4F9
330
36
100
AcDbEntity
  8
0
 62
     3
100
AcDbLine
 10
199.89996386
 20
-89.83427747
 30
0.0
 11
148.30060038
 21
-89.83427747
 31
0.0
  0
CIRCLE
  5
500
330
36
100
AcDbEntity
  8
0
 62
     7
100
AcDbCircle
 10
1.170638349999999
 20
77.07670366000002
 30
0.0
 40
5.0
  0
TEXT
  5
501
330
36
100
AcDbEntity
  8
0
 62
     4
100
AcDbText
 10
-2.192646752632014
 20
74.8116192036853
 30
0.0
 40
4.5
  1
04
  7
高4.5
100
AcDbText
  0
CIRCLE
  5
508
330
36
100
AcDbEntity
  8
0
 62
     7
100
AcDbCircle
 10
-47.50344423
 20
77.07670366000002
 30
0.0
 40
5.0
  0
TEXT
  5
509
330
36
100
AcDbEntity
  8
0
 62
     4
100
AcDbText
 10
-50.86672933263202
 20
74.8116192036853
 30
0.0
 40
4.5
  1
06
  7
高4.5
100
AcDbText
  0
CIRCLE
  5
510
330
36
100
AcDbEntity
  8
0
 62
     7
100
AcDbCircle
 10
138.32541319
 20
77.07670366000002
 30
0.0
 40
5.0
  0
TEXT
  5
511
330
36
100
AcDbEntity
  8
0
 62
     4
100
AcDbText
 10
134.962128097368
 20
74.8116192036853
 30
0.0
 40
4.5
  1
05
  7
高4.5
100
AcDbText
  0
TEXT
  5
512
330
36
100
AcDbEntity
  8
0
 62
     3
100
AcDbText
 10
-181.5249855848124
 20
-115.0
 30
0.0
 40
3.2
  1
平パッキン
 41
0.8
  7
高3.2
100
AcDbText
  0
TEXT
  5
513
330
36
100
AcDbEntity
  8
0
 62
     3
100
AcDbText
 10
-141.8336971695415
 20
-115.0
 30
0.0
 40
3.2
  1
1
 41
0.8
  7
高3.2
100
AcDbText
  0
TEXT
  5
514
330
36
100
AcDbEntity
  8
0
 62
     3
100
AcDbText
 10
-133.58446516959
 20
-115.0
 30
0.0
 40
3.2
  1
成形品　シリコン樹脂
 41
0.8
  7
高3.2
100
AcDbText
  0
TEXT
  5
515
330
36
100
AcDbEntity
  8
0
 62
     3
100
AcDbText
 10
-92.05862493046401
 20
-135.0
 30
0.0
 40
3.2
  1
コード
 41
0.8
  7
高3.2
100
AcDbText
  0
LINE
  5
516
330
36
100
AcDbEntity
  8
0
100
AcDbLine
 10
-76.11343265204637
 20
-135.5
 30
0.0
 11
-76.11343265204637
 21
-80.5
 31
0.0
  0
TEXT
  5
521
330
36
100
AcDbEntity
  8
0
 62
     3
100
AcDbText
 10
-92.05862493046401
 20
-105.0
 30
0.0
 40
3.2
  1
53350●
 41
0.8
  7
高3.2
100
AcDbText
  0
TEXT
  5
522
330
36
100
AcDbEntity
  8
0
 62
     3
100
AcDbText
 10
-92.05862493046401
 20
-110.0
 30
0.0
 40
3.2
  1
53309
 41
0.8
  7
高3.2
100
AcDbText
  0
TEXT
  5
523
330
36
100
AcDbEntity
  8
0
 62
     3
100
AcDbText
 10
-92.05862493046401
 20
-120.0
 30
0.0
 40
3.2
  1
53351
 41
0.8
  7
高3.2
100
AcDbText
  0
TEXT
  5
524
330
36
100
AcDbEntity
  8
0
 62
     3
100
AcDbText
 10
-92.05862493046401
 20
-85.00000000000001
 30
0.0
 40
3.2
  1
-
 41
0.8
  7
高3.2
100
AcDbText
  0
TEXT
  5
525
330
36
100
AcDbEntity
  8
0
 62
     3
100
AcDbText
 10
-92.05862493046401
 20
-90.0
 30
0.0
 40
3.2
  1
-
 41
0.8
  7
高3.2
100
AcDbText
  0
TEXT
  5
526
330
36
100
AcDbEntity
  8
0
 62
     3
100
AcDbText
 10
-92.05862493046401
 20
-95.0
 30
0.0
 40
3.2
  1
-
 41
0.8
  7
高3.2
100
AcDbText
  0
TEXT
  5
527
330
36
100
AcDbEntity
  8
0
 62
     3
100
AcDbText
 10
-92.05862493046401
 20
-100.0
 30
0.0
 40
3.2
  1
-
 41
0.8
  7
高3.2
100
AcDbText
  0
TEXT
  5
528
330
36
100
AcDbEntity
  8
0
 62
     3
100
AcDbText
 10
-92.05862493046401
 20
-125.0
 30
0.0
 40
3.2
  1
-
 41
0.8
  7
高3.2
100
AcDbText
  0
TEXT
  5
529
330
36
100
AcDbEntity
  8
0
 62
     3
100
AcDbText
 10
-92.05862493046401
 20
-130.0
 30
0.0
 40
3.2
  1
-
 41
0.8
  7
高3.2
100
AcDbText
  0
TEXT
  5
66A
330
36
100
AcDbEntity
  8
0
 62
     3
100
AcDbText
 10
105.9730201866582
 20
-117.7928407208978
 30
0.0
 40
3.2
  1
別掲
  7
高3.2
100
AcDbText
  0
TEXT
  5
98B
330
36
100
AcDbEntity
  8
0
 62
     3
100
AcDbText
 10
-74.61343265204639
 20
-135.0
 30
0.0
 40
3.2
  1
コード番号名称
 41
0.6
  7
高3.2
100
AcDbText
  0
LINE
  5
98C
330
36
100
AcDbEntity
  8
0
 62
     3
100
AcDbLine
 10
-25.93298225057675
 20
-135.5
 30
0.0
 11
-25.93298225057675
 21
-80.5
 31
0.0
  0
TEXT
  5
98D
330
36
100
AcDbEntity
  8
0
 62
     3
100
AcDbText
 10
-74.61343265204639
 20
-105.0
 30
0.0
 40
3.2
  1
F27W-T蛍光球27W(トルネードバルブ)
 41
0.6
  7
高3.2
100
AcDbText
  0
TEXT
  5
98E
330
36
100
AcDbEntity
  8
0
 62
     3
100
AcDbText
 10
-74.61343265204639
 20
-110.0
 30
0.0
 40
3.2
  1
VCT0.75x2x5M 防水プラグ付(AT用)
 41
0.6
  7
高3.2
100
AcDbText
  0
TEXT
  5
98F
330
36
100
AcDbEntity
  8
0
 62
     3
100
AcDbText
 10
-74.61343265204639
 20
-120.0
 30
0.0
 40
3.2
  1
HHL-27F-5M　透明カバー(パッキン付)
 41
0.6
  7
高3.2
100
AcDbText
  0
TEXT
  5
990
330
36
100
AcDbEntity
  8
0
 62
     3
100
AcDbText
 10
-74.61343265204639
 20
-85.0
 30
0.0
 40
3.2
  1
-
 41
0.6
  7
高3.2
100
AcDbText
  0
TEXT
  5
991
330
36
100
AcDbEntity
  8
0
 62
     3
100
AcDbText
 10
-74.61343265204639
 20
-90.0
 30
0.0
 40
3.2
  1
-
 41
0.6
  7
高3.2
100
AcDbText
  0
TEXT
  5
992
330
36
100
AcDbEntity
  8
0
 62
     3
100
AcDbText
 10
-74.61343265204639
 20
-95.0
 30
0.0
 40
3.2
  1
-
 41
0.6
  7
高3.2
100
AcDbText
  0
TEXT
  5
993
330
36
100
AcDbEntity
  8
0
 62
     3
100
AcDbText
 10
-74.61343265204639
 20
-100.0
 30
0.0
 40
3.2
  1
-
 41
0.6
  7
高3.2
100
AcDbText
  0
TEXT
  5
994
330
36
100
AcDbEntity
  8
0
 62
     3
100
AcDbText
 10
-74.61343265204639
 20
-125.0
 30
0.0
 40
3.2
  1
-
 41
0.6
  7
高3.2
100
AcDbText
  0
TEXT
  5
995
330
36
100
AcDbEntity
  8
0
 62
     3
100
AcDbText
 10
-74.61343265204639
 20
-130.0
 30
0.0
 40
3.2
  1
-
 41
0.6
  7
高3.2
100
AcDbText
  0
TEXT
  5
B4C
330
36
100
AcDbEntity
  8
0
 62
     3
100
AcDbText
 10
187.5
 20
129.0
 30
0.0
 40
3.2
  1
担　当
  7
高3.2
100
AcDbText
  0
TEXT
  5
B4D
330
36
100
AcDbEntity
  8
0
 62
     3
100
AcDbText
 10
143.5
 20
129.0
 30
0.0
 40
3.2
  1
変更・追記内容
  7
高3.2
100
AcDbText
  0
TEXT
  5
B4E
330
36
100
AcDbEntity
  8
0
 62
     3
100
AcDbText
 10
118.6135150003392
 20
124.3294614900917
 30
0.0
 40
2.0
  1
1
  7
高2
100
AcDbText
  0
TEXT
  5
B4F
330
36
100
AcDbEntity
  8
0
 62
     3
100
AcDbText
 10
118.3050035235819
 20
119.1596447778188
 30
0.0
 40
2.0
  1
2
  7
高2
100
AcDbText
  0
TEXT
  5
B50
330
36
100
AcDbEntity
  8
0
 62
     3
100
AcDbText
 10
125.5
 20
129.0
 30
0.0
 40
3.2
  1
日　付
  7
高3.2
100
AcDbText
  0
TEXT
  5
B51
330
36
100
AcDbEntity
  8
0
 62
     3
100
AcDbText
 10
125.5
 20
134.0
 30
0.0
 40
3.2
  1
図　　　　面　　　　略　　　　歴
  7
高3.2
100
AcDbText
  0
TEXT
  5
B52
330
36
100
AcDbEntity
  8
0
 62
     3
100
AcDbText
 10
115.5
 20
129.0
 30
0.0
 40
3.2
  1
記号
  7
高3.2
100
AcDbText
  0
LINE
  5
B53
330
36
100
AcDbEntity
  8
0
100
AcDbLine
 10
119.0
 20
122.2908960000001
 30
0.0
 11
117.1
 21
119.0
 31
0.0
  0
LINE
  5
B54
330
36
100
AcDbEntity
  8
0
100
AcDbLine
 10
119.0
 20
122.2908960000001
 30
0.0
 11
120.9
 21
119.0
 31
0.0
  0
LINE
  5
B55
330
36
100
AcDbEntity
  8
0
100
AcDbLine
 10
117.1
 20
119.0
 30
0.0
 11
120.9
 21
119.0
 31
0.0
  0
LINE
  5
B56
330
36
100
AcDbEntity
  8
0
100
AcDbLine
 10
119.0
 20
127.2908970000001
 30
0.0
 11
117.1
 21
124.0
 31
0.0
  0
LINE
  5
B57
330
36
100
AcDbEntity
  8
0
100
AcDbLine
 10
119.0
 20
127.2908970000001
 30
0.0
 11
120.9
 21
124.0
 31
0.0
  0
LINE
  5
B58
330
36
100
AcDbEntity
  8
0
100
AcDbLine
 10
117.1
 20
124.0
 30
0.0
 11
120.9
 21
124.0
 31
0.0
  0
LINE
  5
B59
330
36
100
AcDbEntity
  8
0
 62
     3
100
AcDbLine
 10
114.0
 20
133.5
 30
0.0
 11
200.0
 21
133.5
 31
0.0
  0
LINE
  5
B5A
330
36
100
AcDbEntity
  8
0
 62
     3
100
AcDbLine
 10
114.0
 20
128.5
 30
0.0
 11
200.0
 21
128.5
 31
0.0
  0
LINE
  5
B5B
330
36
100
AcDbEntity
  8
0
 62
     7
100
AcDbLine
 10
114.0
 20
123.5
 30
0.0
 11
200.0
 21
123.5
 31
0.0
  0
LINE
  5
B5C
330
36
100
AcDbEntity
  8
0
 62
     7
100
AcDbLine
 10
114.0
 20
118.5
 30
0.0
 11
200.0
 21
118.5
 31
0.0
  0
LINE
  5
B5D
330
36
100
AcDbEntity
  8
0
 62
     7
100
AcDbLine
 10
185.9999999999999
 20
113.5
 30
0.0
 11
186.0
 21
133.5
 31
0.0
  0
LINE
  5
B5E
330
36
100
AcDbEntity
  8
0
 62
     7
100
AcDbLine
 10
142.0
 20
113.5
 30
0.0
 11
142.0
 21
133.5
 31
0.0
  0
LINE
  5
B5F
330
36
100
AcDbEntity
  8
0
 62
     7
100
AcDbLine
 10
124.0
 20
113.5
 30
0.0
 11
124.0
 21
133.5
 31
0.0
  0
LINE
  5
B60
330
36
100
AcDbEntity
  8
0
 62
     3
100
AcDbLine
 10
114.0
 20
113.5
 30
0.0
 11
114.0
 21
138.5
 31
0.0
  0
TEXT
  5
EE3
330
36
100
AcDbEntity
  8
0
100
AcDbText
 10
-188.9617459819359
 20
-140.6691129876551
 30
0.0
 40
3.2
  1
コード番号末尾に●の記載がある物は過去に変更があった部品
  7
高3.2
100
AcDbText
  0
TEXT
  5
101C
330
36
100
AcDbEntity
  8
0
 62
     7
100
AcDbText
 10
125.5
 20
119.0
 30
0.0
 40
2.5
  1
`14.04.17
  7
高2.5
100
AcDbText
  0
TEXT
  5
101D
330
36
100
AcDbEntity
  8
0
 62
     7
100
AcDbText
 10
187.4999999999999
 20
119.0
 30
0.0
 40
2.5
  1
今村
  7
高2.5
100
AcDbText
  0
TEXT
  5
101E
330
36
100
AcDbEntity
  8
0
 62
     7
100
AcDbText
 10
143.5
 20
119.0
 30
0.0
 40
2.5
  1
球変更に伴い仕様変更
  7
高2.5
100
AcDbText
  0
LINE
  5
12E0
330
36
100
AcDbEntity
  8
0
  6
CENTER
 62
     7
100
AcDbLine
 10
-41.39177086774947
 20
37.87974290000002
 30
0.0
 11
38.93992025499228
 21
37.87974290000001
 31
0.0
  0
LINE
  5
12E1
330
36
100
AcDbEntity
  8
0
  6
HIDDEN
 62
     2
100
AcDbLine
 10
1.177793600229307
 20
28.07974289999989
 30
0.0
 11
5.13398042
 21
28.07974289999989
 31
0.0
  0
ARC
  5
12E2
330
36
100
AcDbEntity
  8
0
  6
HIDDEN
 62
     2
100
AcDbCircle
 10
1.177793600229307
 20
25.57974289999983
 30
0.0
 40
2.5
100
AcDbArc
 50
90.0
 51
166.5042667192059
  0
LINE
  5
12E3
330
36
100
AcDbEntity
  8
0
  6
HIDDEN
 62
     2
100
AcDbLine
 10
1.69199200551661
 20
33.07974289999989
 30
0.0
 11
5.13398042
 21
33.07974289999989
 31
0.0
  0
ARC
  5
12E4
330
36
100
AcDbEntity
  8
0
  6
HIDDEN
 62
     2
100
AcDbCircle
 10
1.69199200551661
 20
25.57974289999983
 30
0.0
 40
7.5
100
AcDbArc
 50
90.0
 51
127.8543499325959
  0
LINE
  5
12E5
330
36
100
AcDbEntity
  8
0
 62
     2
100
AcDbLine
 10
1.177793600229307
 20
47.6797428999999
 30
0.0
 11
5.744908749999986
 21
47.6797428999999
 31
0.0
  0
ARC
  5
12E6
330
36
100
AcDbEntity
  8
0
 62
     2
100
AcDbCircle
 10
1.177793600229307
 20
50.1797428999999
 30
0.0
 40
2.5
100
AcDbArc
 50
193.495733280794
 51
270.0
  0
LINE
  5
12E7
330
36
100
AcDbEntity
  8
0
 62
     2
100
AcDbLine
 10
1.69199200551661
 20
42.67974290000002
 30
0.0
 11
5.744908749999986
 21
42.67974289999997
 31
0.0
  0
ARC
  5
12E8
330
36
100
AcDbEntity
  8
0
 62
     2
100
AcDbCircle
 10
1.69199200551661
 20
50.1797428999999
 30
0.0
 40
7.5
100
AcDbArc
 50
193.495733280794
 51
270.0
  0
ARC
  5
12E9
330
36
100
AcDbEntity
  8
0
 62
     2
100
AcDbCircle
 10
-27.75509125000002
 20
50.37974290000001
 30
0.0
 40
2.25
100
AcDbArc
 50
13.49573328079404
 51
193.495733280794
  0
ARC
  5
12EA
330
36
100
AcDbEntity
  8
0
 62
     2
100
AcDbCircle
 10
-21.75509125000002
 20
50.37974290000001
 30
0.0
 40
2.25
100
AcDbArc
 50
13.49573328079404
 51
193.495733280794
  0
ARC
  5
12EB
330
36
100
AcDbEntity
  8
0
 62
     2
100
AcDbCircle
 10
-15.75509125000002
 20
50.37974290000001
 30
0.0
 40
2.25
100
AcDbArc
 50
13.49573328079404
 51
193.495733280794
  0
ARC
  5
12EC
330
36
100
AcDbEntity
  8
0
 62
     2
100
AcDbCircle
 10
-9.755091250000013
 20
50.37974290000001
 30
0.0
 40
2.25
100
AcDbArc
 50
13.49573328079404
 51
193.495733280794
  0
ARC
  5
12ED
330
36
100
AcDbEntity
  8
0
 62
     2
100
AcDbCircle
 10
-3.75509125000002
 20
50.37974290000001
 30
0.0
 40
2.25
100
AcDbArc
 50
13.49573328079404
 51
193.495733280794
  0
ARC
  5
12EE
330
36
100
AcDbEntity
  8
0
  6
HIDDEN
 62
     2
100
AcDbCircle
 10
-27.75509125000002
 20
25.37974290000001
 30
0.0
 40
2.25
100
AcDbArc
 50
193.495733280794
 51
13.49573328079404
  0
ARC
  5
12EF
330
36
100
AcDbEntity
  8
0
  6
HIDDEN
 62
     2
100
AcDbCircle
 10
-21.75509125000002
 20
25.37974290000001
 30
0.0
 40
2.25
100
AcDbArc
 50
193.495733280794
 51
13.49573328079404
  0
ARC
  5
12F0
330
36
100
AcDbEntity
  8
0
  6
HIDDEN
 62
     2
100
AcDbCircle
 10
-15.75509125000002
 20
25.37974290000001
 30
0.0
 40
2.25
100
AcDbArc
 50
193.495733280794
 51
13.49573328079404
  0
ARC
  5
12F1
330
36
100
AcDbEntity
  8
0
  6
HIDDEN
 62
     2
100
AcDbCircle
 10
-9.755091250000013
 20
25.37974290000001
 30
0.0
 40
2.25
100
AcDbArc
 50
193.495733280794
 51
13.49573328079404
  0
ARC
  5
12F2
330
36
100
AcDbEntity
  8
0
  6
HIDDEN
 62
     2
100
AcDbCircle
 10
-3.75509125000002
 20
25.37974290000001
 30
0.0
 40
2.25
100
AcDbArc
 50
193.495733280794
 51
13.49573328079404
  0
LINE
  5
12F3
330
36
100
AcDbEntity
  8
0
 62
     2
100
AcDbLine
 10
-31.38721982054387
 20
50.15483204306942
 30
0.0
 11
-28.44119842620719
 21
37.87974290000001
 31
0.0
  0
LINE
  5
12F4
330
36
100
AcDbEntity
  8
0
 62
     2
100
AcDbLine
 10
-35.76296267945617
 20
49.10465375693054
 30
0.0
 11
-33.06898407379286
 21
37.87974290000001
 31
0.0
  0
LINE
  5
12F5
330
36
100
AcDbEntity
  8
0
 62
     2
100
AcDbLine
 10
-25.56721982054384
 20
50.90483204306941
 30
0.0
 11
-22.44119842620717
 21
37.87974289999997
 31
0.0
  0
LINE
  5
12F6
330
36
100
AcDbEntity
  8
0
 62
     2
100
AcDbLine
 10
-29.94296267945617
 20
49.85465375693038
 30
0.0
 11
-27.06898407379287
 21
37.87974289999993
 31
0.0
  0
LINE
  5
12F7
330
36
100
AcDbEntity
  8
0
 62
     2
100
AcDbLine
 10
-19.56721982054383
 20
50.90483204306941
 30
0.0
 11
-16.44119842620716
 21
37.87974289999998
 31
0.0
  0
LINE
  5
12F8
330
36
100
AcDbEntity
  8
0
 62
     2
100
AcDbLine
 10
-23.94296267945617
 20
49.85465375693038
 30
0.0
 11
-21.06898407379286
 21
37.87974289999993
 31
0.0
  0
LINE
  5
12F9
330
36
100
AcDbEntity
  8
0
 62
     2
100
AcDbLine
 10
-13.56721982054382
 20
50.90483204306941
 30
0.0
 11
-10.44060416202142
 21
37.87726679922602
 31
0.0
  0
LINE
  5
12FA
330
36
100
AcDbEntity
  8
0
 62
     2
100
AcDbLine
 10
-17.94296267945617
 20
49.85465375693038
 30
0.0
 11
-15.06898407379287
 21
37.87974289999997
 31
0.0
  0
LINE
  5
12FB
330
36
100
AcDbEntity
  8
0
 62
     2
100
AcDbLine
 10
-7.56721982054384
 20
50.90483204306941
 30
0.0
 11
-4.441198426207166
 21
37.87974289999995
 31
0.0
  0
LINE
  5
12FC
330
36
100
AcDbEntity
  8
0
 62
     2
100
AcDbLine
 10
-11.94296267945617
 20
49.85465375693038
 30
0.0
 11
-9.068984073792872
 21
37.87974289999997
 31
0.0
  0
LINE
  5
12FD
330
36
100
AcDbEntity
  8
0
 62
     2
100
AcDbLine
 10
-1.56721982054384
 20
50.90483204306941
 30
0.0
 11
-1.253174654721988
 21
49.59631051881162
 31
0.0
  0
LINE
  5
12FE
330
36
100
AcDbEntity
  8
0
 62
     2
100
AcDbLine
 10
-5.942962679456172
 20
49.85465375693038
 30
0.0
 11
-5.600912759337248
 21
48.42944575643482
 31
0.0
  0
LINE
  5
12FF
330
36
100
AcDbEntity
  8
0
  6
HIDDEN
 62
     2
100
AcDbLine
 10
-31.38721982054383
 20
25.60465375693038
 30
0.0
 11
-30.75509125000002
 21
28.2385228008629
 31
0.0
  0
LINE
  5
1300
330
36
100
AcDbEntity
  8
0
 62
     2
100
AcDbLine
 10
-28.44119842620717
 20
37.87974290000001
 30
0.0
 11
-27.75509125000002
 21
40.73852280086289
 31
0.0
  0
LINE
  5
1301
330
36
100
AcDbEntity
  8
0
 62
     2
100
AcDbLine
 10
-30.75509124999999
 20
47.5209629991369
 30
0.0
 11
-29.94296267945617
 21
50.90483204306941
 31
0.0
  0
LINE
  5
1302
330
36
100
AcDbEntity
  8
0
  6
HIDDEN
 62
     2
100
AcDbLine
 10
-25.56721982054384
 20
24.85465375693038
 30
0.0
 11
-24.75509125000002
 21
28.2385228008629
 31
0.0
  0
LINE
  5
1303
330
36
100
AcDbEntity
  8
0
 62
     2
100
AcDbLine
 10
-22.44119842620716
 20
37.87974290000001
 30
0.0
 11
-21.75509125000002
 21
40.73852280086318
 31
0.0
  0
LINE
  5
1304
330
36
100
AcDbEntity
  8
0
  6
HIDDEN
 62
     2
100
AcDbLine
 10
-27.75509125000002
 20
35.0209629991369
 30
0.0
 11
-27.06898407379285
 21
37.87974290000001
 31
0.0
  0
LINE
  5
1305
330
36
100
AcDbEntity
  8
0
 62
     2
100
AcDbLine
 10
-24.75509125000002
 20
47.5209629991369
 30
0.0
 11
-23.94296267945617
 21
50.90483204306941
 31
0.0
  0
LINE
  5
1306
330
36
100
AcDbEntity
  8
0
  6
HIDDEN
 62
     2
100
AcDbLine
 10
-19.56721982054383
 20
24.85465375693038
 30
0.0
 11
-18.75509125000002
 21
28.23852280086319
 31
0.0
  0
LINE
  5
1307
330
36
100
AcDbEntity
  8
0
 62
     2
100
AcDbLine
 10
-16.44119842620716
 20
37.87974290000001
 30
0.0
 11
-15.75509125000001
 21
40.73852280086289
 31
0.0
  0
LINE
  5
1308
330
36
100
AcDbEntity
  8
0
  6
HIDDEN
 62
     2
100
AcDbLine
 10
-21.75509125000002
 20
35.0209629991369
 30
0.0
 11
-21.06898407379285
 21
37.87974290000001
 31
0.0
  0
LINE
  5
1309
330
36
100
AcDbEntity
  8
0
 62
     2
100
AcDbLine
 10
-18.75509125000002
 20
47.5209629991369
 30
0.0
 11
-17.94296267945617
 21
50.90483204306941
 31
0.0
  0
LINE
  5
130A
330
36
100
AcDbEntity
  8
0
  6
HIDDEN
 62
     2
100
AcDbLine
 10
-13.56721982054382
 20
24.85465375693038
 30
0.0
 11
-12.75509125000001
 21
28.23852280086319
 31
0.0
  0
LINE
  5
130B
330
36
100
AcDbEntity
  8
0
 62
     2
100
AcDbLine
 10
-10.44119842620716
 20
37.87974290000001
 30
0.0
 11
-9.755091250000006
 21
40.73852280086289
 31
0.0
  0
LINE
  5
130C
330
36
100
AcDbEntity
  8
0
  6
HIDDEN
 62
     2
100
AcDbLine
 10
-15.75509125000002
 20
35.0209629991369
 30
0.0
 11
-15.06898407379287
 21
37.87974290000001
 31
0.0
  0
LINE
  5
130D
330
36
100
AcDbEntity
  8
0
 62
     2
100
AcDbLine
 10
-12.75509125000001
 20
47.5209629991369
 30
0.0
 11
-11.94296267945617
 21
50.90483204306941
 31
0.0
  0
LINE
  5
130E
330
36
100
AcDbEntity
  8
0
  6
HIDDEN
 62
     2
100
AcDbLine
 10
-7.56721982054384
 20
24.85465375693038
 30
0.0
 11
-6.755091249999999
 21
28.2385228008629
 31
0.0
  0
LINE
  5
130F
330
36
100
AcDbEntity
  8
0
 62
     2
100
AcDbLine
 10
-4.441198426207151
 20
37.87974290000001
 30
0.0
 11
-2.910430298459459
 21
44.25794343228211
 31
0.0
  0
LINE
  5
1310
330
36
100
AcDbEntity
  8
0
  6
HIDDEN
 62
     2
100
AcDbLine
 10
-9.755091250000013
 20
35.0209629991369
 30
0.0
 11
-9.068984073792861
 21
37.87974290000001
 31
0.0
  0
LINE
  5
1311
330
36
100
AcDbEntity
  8
0
 62
     2
100
AcDbLine
 10
-6.755091250000013
 20
47.5209629991369
 30
0.0
 11
-5.942962679456172
 21
50.90483204306941
 31
0.0
  0
LINE
  5
1312
330
36
100
AcDbEntity
  8
0
  6
HIDDEN
 62
     2
100
AcDbLine
 10
-1.56721982054384
 20
24.85465375693038
 30
0.0
 11
-1.253174654721988
 21
26.16317528118818
 31
0.0
  0
ARC
  5
1313
330
36
100
AcDbEntity
  8
0
  6
HIDDEN
 62
     2
100
AcDbCircle
 10
-33.57509124999996
 20
26.1297428999999
 30
0.0
 40
2.249999999999912
100
AcDbArc
 50
186.6242929294512
 51
6.624292929444694
  0
ARC
  5
1314
330
36
100
AcDbEntity
  8
0
 62
     2
100
AcDbCircle
 10
-33.57509125000002
 20
49.6297428999999
 30
0.0
 40
2.24999999999999
100
AcDbArc
 50
13.49573328079404
 51
193.495733280794
  0
ARC
  5
1315
330
36
100
AcDbEntity
  8
0
  6
HIDDEN
 62
     2
100
AcDbCircle
 10
67.60145286764345
 20
37.87974290000001
 30
0.0
 40
99.60654411764345
100
AcDbArc
 50
182.8453854565062
 51
186.6242929294447
  0
ARC
  5
1316
330
36
100
AcDbEntity
  8
0
 62
     2
100
AcDbCircle
 10
67.60145286764345
 20
37.87974290000001
 30
0.0
 40
104.1065441176434
100
AcDbArc
 50
173.3757070705553
 51
180.0
  0
LINE
  5
1317
330
36
100
AcDbEntity
  8
0
 62
     2
100
AcDbLine
 10
6.994908749999982
 20
37.87974290000001
 30
0.0
 11
6.994908749999986
 21
49.37974289999989
 31
0.0
  0
LINE
  5
1318
330
36
100
AcDbEntity
  8
0
 62
     2
100
AcDbLine
 10
8.244908749999986
 20
37.87974290000001
 30
0.0
 11
8.244908749999986
 21
49.87974290000007
 31
0.0
  0
LINE
  5
1319
330
36
100
AcDbEntity
  8
0
 62
     2
100
AcDbLine
 10
9.994908749999986
 20
37.87974290000001
 30
0.0
 11
9.994908749999986
 21
49.87974290000007
 31
0.0
  0
LINE
  5
131A
330
36
100
AcDbEntity
  8
0
 62
     2
100
AcDbLine
 10
5.744908749999986
 20
42.37974289999995
 30
0.0
 11
5.744908749999986
 21
48.87974290000013
 31
0.0
  0
LINE
  5
131B
330
36
100
AcDbEntity
  8
0
 62
     2
100
AcDbLine
 10
24.74490874999999
 20
37.87974290000001
 30
0.0
 11
24.74490874999999
 21
45.62974290000006
 31
0.0
  0
LINE
  5
131C
330
36
100
AcDbEntity
  8
0
 62
     2
100
AcDbLine
 10
9.994908749999986
 20
49.87974290000007
 30
0.0
 11
8.244908749999986
 21
49.87974290000007
 31
0.0
  0
LINE
  5
131D
330
36
100
AcDbEntity
  8
0
 62
     2
100
AcDbLine
 10
5.744908749999986
 20
48.87974290000013
 30
0.0
 11
6.994908749999986
 21
48.87974290000013
 31
0.0
  0
LINE
  5
131E
330
36
100
AcDbEntity
  8
0
 62
     2
100
AcDbLine
 10
5.744908749999986
 20
42.37974289999995
 30
0.0
 11
6.994908749999986
 21
42.37974289999995
 31
0.0
  0
LINE
  5
131F
330
36
100
AcDbEntity
  8
0
 62
     2
100
AcDbLine
 10
26.13703364
 20
44.12974290001314
 30
0.0
 11
24.74490874999999
 21
44.12974290001314
 31
0.0
  0
LINE
  5
1320
330
36
100
AcDbEntity
  8
0
 62
     2
100
AcDbLine
 10
9.744908749999986
 20
49.87974290000007
 30
0.0
 11
19.33924465882705
 21
49.3769250613229
 31
0.0
  0
ARC
  5
1321
330
36
100
AcDbEntity
  8
0
 62
     2
100
AcDbCircle
 10
24.74490874999992
 20
48.62974289999995
 30
0.0
 40
3.0
100
AcDbArc
 50
202.0109885128319
 51
270.0000000000008
  0
ARC
  5
1322
330
36
100
AcDbEntity
  8
0
 62
     2
100
AcDbCircle
 10
19.18223679009823
 20
46.38103645705912
 30
0.0
 40
3.0
100
AcDbArc
 50
22.01098851283191
 51
87.00000000000009
  0
ARC
  5
1323
330
36
100
AcDbEntity
  8
0
 62
     2
100
AcDbCircle
 10
6.994908749999986
 20
51.19224289999973
 30
0.0
 40
1.812499999999711
100
AcDbArc
 50
270.0000000000081
 51
313.6028189727062
  0
LINE
  5
1324
330
36
100
AcDbEntity
  8
0
  6
HIDDEN
 62
     2
100
AcDbLine
 10
-4.441198426207166
 20
37.87974289999995
 30
0.0
 11
-1.56721982054384
 21
25.90483204306942
 31
0.0
  0
LINE
  5
1325
330
36
100
AcDbEntity
  8
0
  6
HIDDEN
 62
     2
100
AcDbLine
 10
-9.068984073792872
 20
37.87974289999997
 30
0.0
 11
-5.942962679456172
 21
24.85465375693038
 31
0.0
  0
LINE
  5
1326
330
36
100
AcDbEntity
  8
0
  6
HIDDEN
 62
     2
100
AcDbLine
 10
-10.44060416202142
 20
37.87726679922602
 30
0.0
 11
-7.56721982054384
 21
25.90483204306942
 31
0.0
  0
LINE
  5
1327
330
36
100
AcDbEntity
  8
0
  6
HIDDEN
 62
     2
100
AcDbLine
 10
-15.06898407379287
 20
37.87974289999997
 30
0.0
 11
-11.94296267945617
 21
24.85465375693038
 31
0.0
  0
LINE
  5
1328
330
36
100
AcDbEntity
  8
0
  6
HIDDEN
 62
     2
100
AcDbLine
 10
-16.44119842620716
 20
37.87974289999998
 30
0.0
 11
-13.56721982054382
 21
25.90483204306942
 31
0.0
  0
LINE
  5
1329
330
36
100
AcDbEntity
  8
0
  6
HIDDEN
 62
     2
100
AcDbLine
 10
-21.06898407379286
 20
37.87974289999993
 30
0.0
 11
-17.94296267945617
 21
24.85465375693038
 31
0.0
  0
LINE
  5
132A
330
36
100
AcDbEntity
  8
0
  6
HIDDEN
 62
     2
100
AcDbLine
 10
-22.44119842620717
 20
37.87974289999997
 30
0.0
 11
-19.56721982054383
 21
25.90483204306942
 31
0.0
  0
LINE
  5
132B
330
36
100
AcDbEntity
  8
0
  6
HIDDEN
 62
     2
100
AcDbLine
 10
-27.06898407379287
 20
37.87974289999993
 30
0.0
 11
-23.94296267945617
 21
24.85465375693038
 31
0.0
  0
LINE
  5
132C
330
36
100
AcDbEntity
  8
0
  6
HIDDEN
 62
     2
100
AcDbLine
 10
-28.44119842620719
 20
37.87974290000001
 30
0.0
 11
-25.56721982054384
 21
25.90483204306942
 31
0.0
  0
LINE
  5
132D
330
36
100
AcDbEntity
  8
0
  6
HIDDEN
 62
     2
100
AcDbLine
 10
-33.06898407379286
 20
37.87974290000001
 30
0.0
 11
-29.94296267945617
 21
24.85465375693038
 31
0.0
  0
ARC
  5
132E
330
36
100
AcDbEntity
  8
0
  6
HIDDEN
 62
     2
100
AcDbCircle
 10
67.60145286764345
 20
37.87974290000001
 30
0.0
 40
104.1065441176434
100
AcDbArc
 50
180.0
 51
186.6242929294447
  0
TEXT
  5
1335
330
36
100
AcDbEntity
  8
0
 62
     3
100
AcDbText
 10
118.3050035235819
 20
114.1596447778188
 30
0.0
 40
2.0
  1
3
  7
高2
100
AcDbText
  0
LINE
  5
1336
330
36
100
AcDbEntity
  8
0
100
AcDbLine
 10
119.0
 20
117.2908960000001
 30
0.0
 11
117.1
 21
114.0
 31
0.0
  0
LINE
  5
1337
330
36
100
AcDbEntity
  8
0
100
AcDbLine
 10
119.0
 20
117.2908960000001
 30
0.0
 11
120.9
 21
114.0
 31
0.0
  0
LINE
  5
1338
330
36
100
AcDbEntity
  8
0
100
AcDbLine
 10
117.1
 20
114.0
 30
0.0
 11
120.9
 21
114.0
 31
0.0
  0
LINE
  5
1339
330
36
100
AcDbEntity
  8
0
 62
     3
100
AcDbLine
 10
114.0
 20
113.5
 30
0.0
 11
200.0
 21
113.5
 31
0.0
  0
TEXT
  5
133A
330
36
100
AcDbEntity
  8
0
 62
     7
100
AcDbText
 10
125.5
 20
114.0
 30
0.0
 40
2.5
  1
`18.06.04
  7
高2.5
100
AcDbText
  0
TEXT
  5
133B
330
36
100
AcDbEntity
  8
0
 62
     7
100
AcDbText
 10
187.4999999999999
 20
114.0
 30
0.0
 40
2.5
  1
今村
  7
高2.5
100
AcDbText
  0
TEXT
  5
133C
330
36
100
AcDbEntity
  8
0
 62
     7
100
AcDbText
 10
143.5
 20
114.0
 30
0.0
 40
2.5
  1
球変更に伴い仕様変更 Lot1805
 41
0.8
  7
高2.5
100
AcDbText
  0
LINE
  5
1395
330
36
100
AcDbEntity
  8
0
 62
     7
100
AcDbLine
 10
47.69233904
 20
36.36376579
 30
0.0
 11
47.63554486
 21
36.35489554
 31
0.0
  0
LINE
  5
1396
330
36
100
AcDbEntity
  8
0
 62
     7
100
AcDbLine
 10
47.63554486
 20
36.35489554
 30
0.0
 11
47.58116162999999
 21
36.3442426
 31
0.0
  0
LINE
  5
1397
330
36
100
AcDbEntity
  8
0
 62
     7
100
AcDbLine
 10
47.58116162999999
 20
36.3442426
 30
0.0
 11
47.5296097
 21
36.3318893
 31
0.0
  0
LINE
  5
1398
330
36
100
AcDbEntity
  8
0
 62
     7
100
AcDbLine
 10
47.5296097
 20
36.3318893
 30
0.0
 11
47.48128753
 21
36.31793113
 31
0.0
  0
LINE
  5
1399
330
36
100
AcDbEntity
  8
0
 62
     7
100
AcDbLine
 10
47.48128753
 20
36.31793113
 30
0.0
 11
47.43656864
 21
36.30247599
 31
0.0
  0
LINE
  5
139A
330
36
100
AcDbEntity
  8
0
 62
     7
100
AcDbLine
 10
47.43656864
 20
36.30247599
 30
0.0
 11
47.39579866999998
 21
36.28564332
 31
0.0
  0
LINE
  5
139B
330
36
100
AcDbEntity
  8
0
 62
     7
100
AcDbLine
 10
47.39579866999998
 20
36.28564332
 30
0.0
 11
47.35929276
 21
36.26756325000001
 31
0.0
  0
LINE
  5
139C
330
36
100
AcDbEntity
  8
0
 62
     7
100
AcDbLine
 10
47.35929276
 20
36.26756325000001
 30
0.0
 11
47.32733307
 21
36.24837552000001
 31
0.0
  0
LINE
  5
139D
330
36
100
AcDbEntity
  8
0
 62
     7
100
AcDbLine
 10
47.32733307
 20
36.24837552000001
 30
0.0
 11
47.30016664999999
 21
36.22822843
 31
0.0
  0
LINE
  5
139E
330
36
100
AcDbEntity
  8
0
 62
     7
100
AcDbLine
 10
47.30016664999999
 20
36.22822843
 30
0.0
 11
47.27800347
 21
36.20727773
 31
0.0
  0
LINE
  5
139F
330
36
100
AcDbEntity
  8
0
 62
     7
100
AcDbLine
 10
47.27800347
 20
36.20727773
 30
0.0
 11
47.26101483999999
 21
36.18568533
 31
0.0
  0
LINE
  5
13A0
330
36
100
AcDbEntity
  8
0
 62
     7
100
AcDbLine
 10
47.26101483999999
 20
36.18568533
 30
0.0
 11
47.24933208
 21
36.16361816
 31
0.0
  0
LINE
  5
13A1
330
36
100
AcDbEntity
  8
0
 62
     7
100
AcDbLine
 10
47.24933208
 20
36.16361816
 30
0.0
 11
47.24304549
 21
36.14124676
 31
0.0
  0
LINE
  5
13A2
330
36
100
AcDbEntity
  8
0
 62
     7
100
AcDbLine
 10
47.24304549
 20
36.14124676
 30
0.0
 11
47.24220365999999
 21
36.11874406
 31
0.0
  0
LINE
  5
13A3
330
36
100
AcDbEntity
  8
0
 62
     7
100
AcDbLine
 10
47.24220365999999
 20
36.11874406
 30
0.0
 11
47.2468131
 21
36.096284
 31
0.0
  0
LINE
  5
13A4
330
36
100
AcDbEntity
  8
0
 62
     7
100
AcDbLine
 10
47.2468131
 20
36.096284
 30
0.0
 11
47.25683817
 21
36.07404018
 31
0.0
  0
LINE
  5
13A5
330
36
100
AcDbEntity
  8
0
 62
     7
100
AcDbLine
 10
47.25683817
 20
36.07404018
 30
0.0
 11
47.2722014
 21
36.05218453
 31
0.0
  0
LINE
  5
13A6
330
36
100
AcDbEntity
  8
0
 62
     7
100
AcDbLine
 10
47.2722014
 20
36.05218453
 30
0.0
 11
47.29278402
 21
36.03088599
 31
0.0
  0
LINE
  5
13A7
330
36
100
AcDbEntity
  8
0
 62
     7
100
AcDbLine
 10
47.29278402
 20
36.03088599
 30
0.0
 11
47.31842695
 21
36.01030917
 31
0.0
  0
LINE
  5
13A8
330
36
100
AcDbEntity
  8
0
 62
     7
100
AcDbLine
 10
47.31842695
 20
36.01030917
 30
0.0
 11
47.34893199
 21
35.99061314
 31
0.0
  0
LINE
  5
13A9
330
36
100
AcDbEntity
  8
0
 62
     7
100
AcDbLine
 10
47.34893199
 20
35.99061314
 30
0.0
 11
47.38406332999999
 21
35.97195013
 31
0.0
  0
LINE
  5
13AA
330
36
100
AcDbEntity
  8
0
 62
     7
100
AcDbLine
 10
47.38406332999999
 20
35.97195013
 30
0.0
 11
47.42354944
 21
35.9544644
 31
0.0
  0
LINE
  5
13AB
330
36
100
AcDbEntity
  8
0
 62
     7
100
AcDbLine
 10
47.42354944
 20
35.9544644
 30
0.0
 11
47.46708511
 21
35.9382911
 31
0.0
  0
LINE
  5
13AC
330
36
100
AcDbEntity
  8
0
 62
     7
100
AcDbLine
 10
47.46708511
 20
35.9382911
 30
0.0
 11
47.51433382
 21
35.92355524
 31
0.0
  0
LINE
  5
13AD
330
36
100
AcDbEntity
  8
0
 62
     7
100
AcDbLine
 10
47.51433382
 20
35.92355524
 30
0.0
 11
47.56493038
 21
35.91037073
 31
0.0
  0
LINE
  5
13AE
330
36
100
AcDbEntity
  8
0
 62
     7
100
AcDbLine
 10
47.56493038
 20
35.91037073
 30
0.0
 11
47.6184837
 21
35.89883947
 31
0.0
  0
LINE
  5
13AF
330
36
100
AcDbEntity
  8
0
 62
     7
100
AcDbLine
 10
47.6184837
 20
35.89883947
 30
0.0
 11
47.67457982999999
 21
35.88905059
 31
0.0
  0
LINE
  5
13B0
330
36
100
AcDbEntity
  8
0
 62
     7
100
AcDbLine
 10
47.67457982999999
 20
35.88905059
 30
0.0
 11
47.73278518
 21
35.88107976
 31
0.0
  0
LINE
  5
13B1
330
36
100
AcDbEntity
  8
0
 62
     7
100
AcDbLine
 10
47.73278518
 20
35.88107976
 30
0.0
 11
47.79264986
 21
35.87498859
 31
0.0
  0
LINE
  5
13B2
330
36
100
AcDbEntity
  8
0
 62
     7
100
AcDbLine
 10
47.79264986
 20
35.87498859
 30
0.0
 11
47.85371114
 21
35.87082416
 31
0.0
  0
LINE
  5
13B3
330
36
100
AcDbEntity
  8
0
 62
     7
100
AcDbLine
 10
47.85371114
 20
35.87082416
 30
0.0
 11
47.91549704
 21
35.86861865
 31
0.0
  0
LINE
  5
13B4
330
36
100
AcDbEntity
  8
0
 62
     7
100
AcDbLine
 10
47.91549704
 20
35.86861865
 30
0.0
 11
47.97753001
 21
35.86838912000001
 31
0.0
  0
LINE
  5
13B5
330
36
100
AcDbEntity
  8
0
 62
     7
100
AcDbLine
 10
47.97753001
 20
35.86838912000001
 30
0.0
 11
48.03933055
 21
35.87013734
 31
0.0
  0
LINE
  5
13B6
330
36
100
AcDbEntity
  8
0
 62
     7
100
AcDbLine
 10
48.03933055
 20
35.87013734
 30
0.0
 11
48.10042097
 21
35.87384979999999
 31
0.0
  0
LINE
  5
13B7
330
36
100
AcDbEntity
  8
0
 62
     7
100
AcDbLine
 10
48.10042097
 20
35.87384979999999
 30
0.0
 11
48.16032908
 21
35.87949780000001
 31
0.0
  0
LINE
  5
13B8
330
36
100
AcDbEntity
  8
0
 62
     7
100
AcDbLine
 10
48.16032908
 20
35.87949780000001
 30
0.0
 11
48.21859183
 21
35.88703768
 31
0.0
  0
LINE
  5
13B9
330
36
100
AcDbEntity
  8
0
 62
     7
100
AcDbLine
 10
48.21859183
 20
35.88703768
 30
0.0
 11
48.27475886
 21
35.89641117
 31
0.0
  0
LINE
  5
13BA
330
36
100
AcDbEntity
  8
0
 62
     7
100
AcDbLine
 10
48.27475886
 20
35.89641117
 30
0.0
 11
48.32839604
 21
35.90754582000001
 31
0.0
  0
LINE
  5
13BB
330
36
100
AcDbEntity
  8
0
 62
     7
100
AcDbLine
 10
48.32839604
 20
35.90754582000001
 30
0.0
 11
48.37908878
 21
35.92035555
 31
0.0
  0
LINE
  5
13BC
330
36
100
AcDbEntity
  8
0
 62
     7
100
AcDbLine
 10
48.37908878
 20
35.92035555
 30
0.0
 11
48.42644525
 21
35.93474136
 31
0.0
  0
LINE
  5
13BD
330
36
100
AcDbEntity
  8
0
 62
     7
100
AcDbLine
 10
48.42644525
 20
35.93474136
 30
0.0
 11
48.47009941
 21
35.95059205
 31
0.0
  0
LINE
  5
13BE
330
36
100
AcDbEntity
  8
0
 62
     7
100
AcDbLine
 10
48.47009941
 20
35.95059205
 30
0.0
 11
48.50971384000001
 21
35.9677851
 31
0.0
  0
LINE
  5
13BF
330
36
100
AcDbEntity
  8
0
 62
     7
100
AcDbLine
 10
48.50971384000001
 20
35.9677851
 30
0.0
 11
48.54498233000001
 21
35.98618762
 31
0.0
  0
LINE
  5
13C0
330
36
100
AcDbEntity
  8
0
 62
     7
100
AcDbLine
 10
48.54498233000001
 20
35.98618762
 30
0.0
 11
48.57563228
 21
36.00565737
 31
0.0
  0
LINE
  5
13C1
330
36
100
AcDbEntity
  8
0
 62
     7
100
AcDbLine
 10
48.57563228
 20
36.00565737
 30
0.0
 11
48.60142677999998
 21
36.02604386
 31
0.0
  0
LINE
  5
13C2
330
36
100
AcDbEntity
  8
0
 62
     7
100
AcDbLine
 10
48.60142677999998
 20
36.02604386
 30
0.0
 11
48.62216645
 21
36.0471895
 31
0.0
  0
LINE
  5
13C3
330
36
100
AcDbEntity
  8
0
 62
     7
100
AcDbLine
 10
48.62216645
 20
36.0471895
 30
0.0
 11
48.63769099
 21
36.06893086
 31
0.0
  0
LINE
  5
13C4
330
36
100
AcDbEntity
  8
0
 62
     7
100
AcDbLine
 10
48.63769099
 20
36.06893086
 30
0.0
 11
48.6478804
 21
36.09109989
 31
0.0
  0
LINE
  5
13C5
330
36
100
AcDbEntity
  8
0
 62
     7
100
AcDbLine
 10
48.6478804
 20
36.09109989
 30
0.0
 11
48.65265592
 21
36.11352523
 31
0.0
  0
LINE
  5
13C6
330
36
100
AcDbEntity
  8
0
 62
     7
100
AcDbLine
 10
48.65265592
 20
36.11352523
 30
0.0
 11
48.65198063
 21
36.13603354
 31
0.0
  0
LINE
  5
13C7
330
36
100
AcDbEntity
  8
0
 62
     7
100
AcDbLine
 10
48.65198063
 20
36.13603354
 30
0.0
 11
48.64585976
 21
36.15845084
 31
0.0
  0
LINE
  5
13C8
330
36
100
AcDbEntity
  8
0
 62
     7
100
AcDbLine
 10
48.64585976
 20
36.15845084
 30
0.0
 11
48.63434062
 21
36.18060387
 31
0.0
  0
LINE
  5
13C9
330
36
100
AcDbEntity
  8
0
 62
     7
100
AcDbLine
 10
48.63434062
 20
36.18060387
 30
0.0
 11
48.61751224999999
 21
36.20232139
 31
0.0
  0
LINE
  5
13CA
330
36
100
AcDbEntity
  8
0
 62
     7
100
AcDbLine
 10
48.61751224999999
 20
36.20232139
 30
0.0
 11
48.59550471
 21
36.22343553
 31
0.0
  0
LINE
  5
13CB
330
36
100
AcDbEntity
  8
0
 62
     7
100
AcDbLine
 10
48.59550471
 20
36.22343553
 30
0.0
 11
48.56848811999999
 21
36.2437831
 31
0.0
  0
LINE
  5
13CC
330
36
100
AcDbEntity
  8
0
 62
     7
100
AcDbLine
 10
48.56848811999999
 20
36.2437831
 30
0.0
 11
48.53667131
 21
36.26320682
 31
0.0
  0
LINE
  5
13CD
330
36
100
AcDbEntity
  8
0
 62
     7
100
AcDbLine
 10
48.53667131
 20
36.26320682
 30
0.0
 11
48.50030019
 21
36.28155654
 31
0.0
  0
LINE
  5
13CE
330
36
100
AcDbEntity
  8
0
 62
     7
100
AcDbLine
 10
48.50030019
 20
36.28155654
 30
0.0
 11
48.4596559
 21
36.29869045
 31
0.0
  0
LINE
  5
13CF
330
36
100
AcDbEntity
  8
0
 62
     7
100
AcDbLine
 10
48.4596559
 20
36.29869045
 30
0.0
 11
48.4150526
 21
36.31447609
 31
0.0
  0
LINE
  5
13D0
330
36
100
AcDbEntity
  8
0
 62
     7
100
AcDbLine
 10
48.4150526
 20
36.31447609
 30
0.0
 11
48.36683504999999
 21
36.32879147
 31
0.0
  0
LINE
  5
13D1
330
36
100
AcDbEntity
  8
0
 62
     7
100
AcDbLine
 10
48.36683504999999
 20
36.32879147
 30
0.0
 11
48.31537594
 21
36.34152592
 31
0.0
  0
LINE
  5
13D2
330
36
100
AcDbEntity
  8
0
 62
     7
100
AcDbLine
 10
48.31537594
 20
36.34152592
 30
0.0
 11
48.26107303
 21
36.35258101
 31
0.0
  0
LINE
  5
13D3
330
36
100
AcDbEntity
  8
0
 62
     7
100
AcDbLine
 10
48.26107303
 20
36.35258101
 30
0.0
 11
48.20434606
 21
36.36187131
 31
0.0
  0
LINE
  5
13D4
330
36
100
AcDbEntity
  8
0
 62
     3
100
AcDbLine
 10
55.67997866
 20
31.06006064
 30
0.0
 11
56.06256293
 21
33.09496023
 31
0.0
  0
LINE
  5
13D5
330
36
100
AcDbEntity
  8
0
 62
     3
100
AcDbLine
 10
56.06256293
 20
33.09496023
 30
0.0
 11
54.71378547
 21
31.5239776
 31
0.0
  0
LINE
  5
13D6
330
36
100
AcDbEntity
  8
0
 62
     7
100
AcDbLine
 10
112.12840512
 20
2.74092731
 30
0.0
 11
112.73480861
 21
4.077644489999999
 31
0.0
  0
LINE
  5
13D7
330
36
100
AcDbEntity
  8
0
 62
     7
100
AcDbLine
 10
112.73480861
 20
4.077644489999999
 30
0.0
 11
112.76433739
 21
5.32532646
 31
0.0
  0
LINE
  5
13D8
330
36
100
AcDbEntity
  8
0
 62
     7
100
AcDbLine
 10
112.76433739
 20
5.32532646
 30
0.0
 11
112.40158585
 21
5.94358594
 31
0.0
  0
LINE
  5
13D9
330
36
100
AcDbEntity
  8
0
 62
     7
100
AcDbLine
 10
112.40158585
 20
5.94358594
 30
0.0
 11
112.01009214
 21
6.556520909999997
 31
0.0
  0
LINE
  5
13DA
330
36
100
AcDbEntity
  8
0
 62
     7
100
AcDbLine
 10
112.01009214
 20
6.556520909999997
 30
0.0
 11
112.01489147
 21
8.29274479
 31
0.0
  0
LINE
  5
13DB
330
36
100
AcDbEntity
  8
0
 62
     7
100
AcDbLine
 10
112.01489147
 20
8.29274479
 30
0.0
 11
112.96399054
 21
10.16876407
 31
0.0
  0
LINE
  5
13DC
330
36
100
AcDbEntity
  8
0
 62
     7
100
AcDbLine
 10
113.79491409
 20
2.74092731
 30
0.0
 11
114.40131758
 21
4.077644489999999
 31
0.0
  0
LINE
  5
13DD
330
36
100
AcDbEntity
  8
0
 62
     7
100
AcDbLine
 10
114.40131758
 20
4.077644489999999
 30
0.0
 11
114.43084635
 21
5.32532646
 31
0.0
  0
LINE
  5
13DE
330
36
100
AcDbEntity
  8
0
 62
     7
100
AcDbLine
 10
114.43084635
 20
5.32532646
 30
0.0
 11
114.06809481
 21
5.94358594
 31
0.0
  0
LINE
  5
13DF
330
36
100
AcDbEntity
  8
0
 62
     7
100
AcDbLine
 10
114.06809481
 20
5.94358594
 30
0.0
 11
113.67660111
 21
6.556520909999997
 31
0.0
  0
LINE
  5
13E0
330
36
100
AcDbEntity
  8
0
 62
     7
100
AcDbLine
 10
113.67660111
 20
6.556520909999997
 30
0.0
 11
113.68140043
 21
8.29274479
 31
0.0
  0
LINE
  5
13E1
330
36
100
AcDbEntity
  8
0
 62
     7
100
AcDbLine
 10
113.68140043
 20
8.29274479
 30
0.0
 11
114.6304995
 21
10.16876407
 31
0.0
  0
LINE
  5
13E2
330
36
100
AcDbEntity
  8
0
 62
     3
100
AcDbLine
 10
97.63351769000001
 20
46.95796631
 30
0.0
 11
97.02600515
 21
44.44025165
 31
0.0
  0
LINE
  5
13E3
330
36
100
AcDbEntity
  8
0
 62
     3
100
AcDbLine
 10
97.02600515
 20
44.44025165
 30
0.0
 11
97.54491993000002
 21
42.60325234999998
 31
0.0
  0
LINE
  5
13E4
330
36
100
AcDbEntity
  8
0
 62
     3
100
AcDbLine
 10
97.54491993000002
 20
42.60325234999998
 30
0.0
 11
98.17484425000001
 21
42.21345428
 31
0.0
  0
LINE
  5
13E5
330
36
100
AcDbEntity
  8
0
 62
     3
100
AcDbLine
 10
98.17484425000001
 20
42.21345428
 30
0.0
 11
98.90073408000001
 21
41.85151381999999
 31
0.0
  0
LINE
  5
13E6
330
36
100
AcDbEntity
  8
0
 62
     3
100
AcDbLine
 10
98.90073408000001
 20
41.85151381999999
 30
0.0
 11
99.72429434
 21
41.25463857999998
 31
0.0
  0
LINE
  5
13E7
330
36
100
AcDbEntity
  8
0
 62
     3
100
AcDbLine
 10
99.72429434
 20
41.25463857999998
 30
0.0
 11
100.34514598
 21
40.49569967
 31
0.0
  0
LINE
  5
13E8
330
36
100
AcDbEntity
  8
0
 62
     3
100
AcDbLine
 10
100.34514598
 20
40.49569967
 30
0.0
 11
100.83694363
 21
39.25062808
 31
0.0
  0
LINE
  5
13E9
330
36
100
AcDbEntity
  8
0
 62
     3
100
AcDbLine
 10
100.83694363
 20
39.25062808
 30
0.0
 11
101.09045624
 21
37.87974290000001
 31
0.0
  0
LINE
  5
13EA
330
36
100
AcDbEntity
  8
0
 62
     7
100
AcDbLine
 10
65.09045623999999
 20
47.62974289999998
 30
0.0
 11
65.09045623999999
 21
53.74826721
 31
0.0
  0
LINE
  5
13EB
330
36
100
AcDbEntity
  8
0
 62
     7
100
AcDbLine
 10
104.09045624
 20
38.12974290000001
 30
0.0
 11
104.09045624
 21
53.74826721
 31
0.0
  0
LINE
  5
13EC
330
36
100
AcDbEntity
  8
0
 62
     7
100
AcDbLine
 10
67.59045623999999
 20
52.49826721
 30
0.0
 11
101.59045624
 21
52.49826721
 31
0.0
  0
LINE
  5
13F0
330
36
100
AcDbEntity
  8
0
 62
     7
100
AcDbLine
 10
83.34045623999999
 20
30.3797429
 30
0.0
 11
75.63034115999998
 21
30.3797429
 31
0.0
  0
LINE
  5
13F1
330
36
100
AcDbEntity
  8
0
 62
     7
100
AcDbLine
 10
83.34045623999999
 20
45.3797429
 30
0.0
 11
75.63034116
 21
45.37974290000001
 31
0.0
  0
LINE
  5
13F2
330
36
100
AcDbEntity
  8
0
 62
     7
100
AcDbLine
 10
76.88034116
 20
47.87974290000001
 30
0.0
 11
76.88034116
 21
50.37974290000001
 31
0.0
  0
LINE
  5
13F3
330
36
100
AcDbEntity
  8
0
 62
     7
100
AcDbLine
 10
76.88034115999998
 20
27.8797429
 30
0.0
 11
76.88034115999998
 21
17.8797429
 31
0.0
  0
LINE
  5
13F4
330
36
100
AcDbEntity
  8
0
 62
     7
100
AcDbLine
 10
76.88034116
 20
45.37974290000001
 30
0.0
 11
76.88034115999998
 21
30.3797429
 31
0.0
  0
LINE
  5
13F8
330
36
100
AcDbEntity
  8
0
 62
     7
100
AcDbLine
 10
-126.77960013
 20
-4.769468159999997
 30
0.0
 11
-126.77960013
 21
-11.02377905
 31
0.0
  0
LINE
  5
13F9
330
36
100
AcDbEntity
  8
0
 62
     7
100
AcDbLine
 10
-125.77960013
 20
-4.769468159999997
 30
0.0
 11
-125.77960013
 21
-11.02377905
 31
0.0
  0
LINE
  5
13FA
330
36
100
AcDbEntity
  8
0
 62
     7
100
AcDbLine
 10
-129.27960013
 20
-9.773779049999999
 30
0.0
 11
-131.77960013
 21
-9.773779049999999
 31
0.0
  0
LINE
  5
13FB
330
36
100
AcDbEntity
  8
0
 62
     7
100
AcDbLine
 10
-123.27960013
 20
-9.773779049999999
 30
0.0
 11
-117.8629334633333
 21
-9.773779049999999
 31
0.0
  0
LINE
  5
13FC
330
36
100
AcDbEntity
  8
0
 62
     7
100
AcDbLine
 10
-126.77960013
 20
-9.773779049999999
 30
0.0
 11
-125.77960013
 21
-9.773779049999999
 31
0.0
  0
LINE
  5
1400
330
36
100
AcDbEntity
  8
0
 62
     7
100
AcDbLine
 10
-126.52960013
 20
9.35213274
 30
0.0
 11
-165.60010547
 21
9.35213274000001
 31
0.0
  0
LINE
  5
1401
330
36
100
AcDbEntity
  8
0
 62
     7
100
AcDbLine
 10
-126.52960013
 20
66.40735306999999
 30
0.0
 11
-165.60010547
 21
66.40735306999999
 31
0.0
  0
LINE
  5
1402
330
36
100
AcDbEntity
  8
0
 62
     7
100
AcDbLine
 10
-164.35010547
 20
11.85213274000001
 30
0.0
 11
-164.35010547
 21
63.90735306999999
 31
0.0
  0
LINE
  5
1406
330
36
100
AcDbEntity
  8
0
 62
     7
100
AcDbLine
 10
-60.20194448
 20
58.43435683
 30
0.0
 11
-60.20194448
 21
91.11005457
 31
0.0
  0
LINE
  5
1407
330
36
100
AcDbEntity
  8
0
 62
     7
100
AcDbLine
 10
32.10825563
 20
54.21292418
 30
0.0
 11
32.10825563
 21
91.11005457
 31
0.0
  0
LINE
  5
1408
330
36
100
AcDbEntity
  8
0
 62
     7
100
AcDbLine
 10
-57.70194448
 20
89.86005457
 30
0.0
 11
29.60825563
 21
89.86005457
 31
0.0
  0
LINE
  5
140C
330
36
100
AcDbEntity
  8
0
 62
     7
100
AcDbLine
 10
32.10825563
 20
52.52279092999999
 30
0.0
 11
32.10825563
 21
91.11005457
 31
0.0
  0
LINE
  5
140D
330
36
100
AcDbEntity
  8
0
 62
     7
100
AcDbLine
 10
115.09045624
 20
40.66552832999999
 30
0.0
 11
115.09045624
 21
91.11005457
 31
0.0
  0
LINE
  5
140E
330
36
100
AcDbEntity
  8
0
 62
     7
100
AcDbLine
 10
34.60825563
 20
89.86005457
 30
0.0
 11
112.59045624
 21
89.86005457
 31
0.0
  0
LINE
  5
1412
330
36
100
AcDbEntity
  8
0
 62
     7
100
AcDbLine
 10
-50.50327966999999
 20
-4.519468159999997
 30
0.0
 11
-71.15757099999999
 21
-4.519468159999991
 31
0.0
  0
LINE
  5
1413
330
36
100
AcDbEntity
  8
0
 62
     7
100
AcDbLine
 10
-39.95761525000001
 20
14.53387523
 30
0.0
 11
-71.15757099999999
 21
14.53387523000001
 31
0.0
  0
LINE
  5
1414
330
36
100
AcDbEntity
  8
0
 62
     7
100
AcDbLine
 10
-69.90757099999999
 20
-2.019468159999992
 30
0.0
 11
-69.90757099999999
 21
12.03387523000001
 31
0.0
  0
LINE
  5
1418
330
36
100
AcDbEntity
  8
0
 62
     7
100
AcDbLine
 10
-39.95761525000001
 20
14.53387523
 30
0.0
 11
-71.157571
 21
14.53387523000001
 31
0.0
  0
LINE
  5
1419
330
36
100
AcDbEntity
  8
0
 62
     7
100
AcDbLine
 10
-40.71229361999999
 20
61.18435683
 30
0.0
 11
-71.15757099999999
 21
61.18435683000001
 31
0.0
  0
LINE
  5
141A
330
36
100
AcDbEntity
  8
0
 62
     7
100
AcDbLine
 10
-69.907571
 20
17.03387523000001
 30
0.0
 11
-69.90757099999999
 21
58.68435683000001
 31
0.0
  0
LINE
  5
141E
330
36
100
AcDbEntity
  8
0
  6
Continuous
 62
     7
100
AcDbLine
 10
122.2101484400921
 20
40.23107435979407
 30
0.0
 11
136.3218092998138
 21
72.49570251928516
 31
0.0
1001
ACAD
1000
DSTYLE
1002
{
1070
   147
1040
0.625
1070
    77
1070
     0
1002
}
  0
LINE
  5
141F
330
36
100
AcDbEntity
  8
0
  6
ByBlock
 62
     0
370
    -2
100
AcDbLine
 10
122.8238857774188
 20
39.96264253040833
 30
0.0
 11
121.2083464949991
 21
37.94057378943664
 31
0.0
  0
LINE
  5
1420
330
36
100
AcDbEntity
  8
0
  6
ByBlock
 62
     0
370
    -2
100
AcDbLine
 10
121.2083464949991
 20
37.94057378943664
 30
0.0
 11
121.5964111027654
 21
40.49950618917981
 31
0.0
  0
LINE
  5
1421
330
36
100
AcDbEntity
  8
0
  6
ByBlock
 62
     0
370
    -2
100
AcDbLine
 10
121.2083464949991
 20
37.94057378943664
 30
0.0
 11
122.2101484400921
 21
40.23107435979407
 31
0.0
  0
LINE
  5
1422
330
36
100
AcDbEntity
  8
0
  6
Continuous
 62
     7
100
AcDbLine
 10
115.6575155267418
 20
45.06458247691669
 30
0.0
 11
121.9788247265163
 21
72.20702450616666
 31
0.0
1001
ACAD
1000
DSTYLE
1002
{
1070
   147
1040
0.625
1070
    77
1070
     0
1002
}
  0
LINE
  5
1423
330
36
100
AcDbEntity
  8
0
  6
ByBlock
 62
     0
370
    -2
100
AcDbLine
 10
116.3099283565371
 20
44.9126395080935
 30
0.0
 11
115.09045624
 21
42.6297429
 31
0.0
  0
LINE
  5
1424
330
36
100
AcDbEntity
  8
0
  6
ByBlock
 62
     0
370
    -2
100
AcDbLine
 10
115.09045624
 20
42.6297429
 30
0.0
 11
115.0051026969466
 21
45.21652544573988
 31
0.0
  0
LINE
  5
1425
330
36
100
AcDbEntity
  8
0
  6
ByBlock
 62
     0
370
    -2
100
AcDbLine
 10
115.09045624
 20
42.6297429
 30
0.0
 11
115.6575155267418
 21
45.06458247691669
 31
0.0
  0
LINE
  5
1426
330
36
100
AcDbEntity
  8
0
  6
Continuous
 62
     7
100
AcDbLine
 10
110.5475365215005
 20
48.17799004415125
 30
0.0
 11
107.2205775969989
 21
72.1242729116975
 31
0.0
1001
ACAD
1000
DSTYLE
1002
{
1070
   147
1040
0.625
1070
    77
1070
     0
1002
}
  0
LINE
  5
1427
330
36
100
AcDbEntity
  8
0
  6
ByBlock
 62
     0
370
    -2
100
AcDbLine
 10
111.211035954789
 20
48.27017284234131
 30
0.0
 11
110.891567655
 21
45.70177466999999
 31
0.0
  0
LINE
  5
1428
330
36
100
AcDbEntity
  8
0
  6
ByBlock
 62
     0
370
    -2
100
AcDbLine
 10
110.891567655
 20
45.70177466999999
 30
0.0
 11
109.8840370882121
 21
48.0858072459612
 31
0.0
  0
LINE
  5
1429
330
36
100
AcDbEntity
  8
0
  6
ByBlock
 62
     0
370
    -2
100
AcDbLine
 10
110.891567655
 20
45.70177466999999
 30
0.0
 11
110.5475365215005
 21
48.17799004415125
 31
0.0
  0
LINE
  5
142A
330
36
100
AcDbEntity
  8
0
  6
Continuous
 62
     7
100
AcDbLine
 10
109.0884659842837
 20
43.55562525546618
 30
0.0
 11
95.46897442606683
 21
72.62500082489973
 31
0.0
1001
ACAD
1000
DSTYLE
1002
{
1070
   147
1040
0.625
1070
    77
1070
     0
1002
}
  0
LINE
  5
142B
330
36
100
AcDbEntity
  8
0
  6
ByBlock
 62
     0
370
    -2
100
AcDbLine
 10
109.6950623718242
 20
43.8398258692571
 30
0.0
 11
110.1491178762144
 21
41.29177509166471
 31
0.0
  0
LINE
  5
142C
330
36
100
AcDbEntity
  8
0
  6
ByBlock
 62
     0
370
    -2
100
AcDbLine
 10
110.1491178762144
 20
41.29177509166471
 30
0.0
 11
108.4818695967433
 21
43.27142464167526
 31
0.0
  0
LINE
  5
142D
330
36
100
AcDbEntity
  8
0
  6
ByBlock
 62
     0
370
    -2
100
AcDbLine
 10
110.1491178762144
 20
41.29177509166471
 30
0.0
 11
109.0884659842837
 21
43.55562525546618
 31
0.0
  0
LINE
  5
142E
330
36
100
AcDbEntity
  8
0
  6
Continuous
 62
     7
100
AcDbLine
 10
71.38923739806203
 20
47.80198823921208
 30
0.0
 11
65.14967435564178
 21
72.23221298157587
 31
0.0
1001
ACAD
1000
DSTYLE
1002
{
1070
   147
1040
0.625
1070
    77
1070
     0
1002
}
  0
LINE
  5
142F
330
36
100
AcDbEntity
  8
0
  6
ByBlock
 62
     0
370
    -2
100
AcDbLine
 10
72.03827561445857
 20
47.96775482183068
 30
0.0
 11
72.00788715088293
 21
45.3797429
 31
0.0
  0
LINE
  5
1430
330
36
100
AcDbEntity
  8
0
  6
ByBlock
 62
     0
370
    -2
100
AcDbLine
 10
72.00788715088293
 20
45.3797429
 30
0.0
 11
70.7401991816655
 21
47.63622165659348
 31
0.0
  0
LINE
  5
1431
330
36
100
AcDbEntity
  8
0
  6
ByBlock
 62
     0
370
    -2
100
AcDbLine
 10
72.00788715088293
 20
45.3797429
 30
0.0
 11
71.38923739806203
 21
47.80198823921208
 31
0.0
  0
LINE
  5
1432
330
36
100
AcDbEntity
  8
0
  6
Continuous
 62
     7
100
AcDbLine
 10
36.33896500137599
 20
54.68187224917686
 30
0.0
 11
43.74936722287258
 21
72.46152313930039
 31
0.0
1001
ACAD
1000
DSTYLE
1002
{
1070
   147
1040
0.625
1070
    77
1070
     0
1002
}
  0
LINE
  5
1433
330
36
100
AcDbEntity
  8
0
  6
ByBlock
 62
     0
370
    -2
100
AcDbLine
 10
36.95728150404646
 20
54.42416336539206
 30
0.0
 11
35.37718166281229
 21
52.37428198882707
 31
0.0
  0
LINE
  5
1434
330
36
100
AcDbEntity
  8
0
  6
ByBlock
 62
     0
370
    -2
100
AcDbLine
 10
35.37718166281229
 20
52.37428198882707
 30
0.0
 11
35.72064849870552
 21
54.93958113296167
 31
0.0
  0
LINE
  5
1435
330
36
100
AcDbEntity
  8
0
  6
ByBlock
 62
     0
370
    -2
100
AcDbLine
 10
35.37718166281229
 20
52.37428198882707
 30
0.0
 11
36.33896500137599
 21
54.68187224917686
 31
0.0
  0
LINE
  5
1436
330
36
100
AcDbEntity
  8
0
  6
Continuous
 62
     7
100
AcDbLine
 10
17.8639417472322
 20
63.78544036610915
 30
0.0
 11
17.7874744955356
 21
72.07691627778171
 31
0.0
1001
ACAD
1000
DSTYLE
1002
{
1070
   147
1040
0.625
1070
    77
1070
     0
1002
}
  0
LINE
  5
1437
330
36
100
AcDbEntity
  8
0
  6
ByBlock
 62
     0
370
    -2
100
AcDbLine
 10
18.53378576187121
 20
63.79161793104579
 30
0.0
 11
17.88699675
 21
61.285546675
 31
0.0
  0
LINE
  5
1438
330
36
100
AcDbEntity
  8
0
  6
ByBlock
 62
     0
370
    -2
100
AcDbLine
 10
17.88699675
 20
61.285546675
 30
0.0
 11
17.19409773259319
 21
63.77926280117253
 31
0.0
  0
LINE
  5
1439
330
36
100
AcDbEntity
  8
0
  6
ByBlock
 62
     0
370
    -2
100
AcDbLine
 10
17.88699675
 20
61.285546675
 30
0.0
 11
17.86394174723219
 21
63.78544036610915
 31
0.0
  0
LINE
  5
143A
330
36
100
AcDbEntity
  8
0
  6
Continuous
 62
     7
100
AcDbLine
 10
7.739274525821949
 20
67.39753784517285
 30
0.0
 11
3.978330058356096
 21
72.93945006965431
 31
0.0
1001
ACAD
1000
DSTYLE
1002
{
1070
   147
1040
0.625
1070
    77
1070
     0
1002
}
  0
LINE
  5
143B
330
36
100
AcDbEntity
  8
0
  6
ByBlock
 62
     0
370
    -2
100
AcDbLine
 10
8.29356100696172
 20
67.77369693795401
 30
0.0
 11
9.143120379999999
 21
65.32891105
 31
0.0
  0
LINE
  5
143C
330
36
100
AcDbEntity
  8
0
  6
ByBlock
 62
     0
370
    -2
100
AcDbLine
 10
9.143120379999999
 20
65.32891105
 30
0.0
 11
7.18498804468218
 21
67.0213787523917
 31
0.0
  0
LINE
  5
143D
330
36
100
AcDbEntity
  8
0
  6
ByBlock
 62
     0
370
    -2
100
AcDbLine
 10
9.143120379999999
 20
65.32891105
 30
0.0
 11
7.73927452582195
 21
67.39753784517285
 31
0.0
  0
LINE
  5
143E
330
36
100
AcDbEntity
  8
0
  6
Continuous
 62
     7
100
AcDbLine
 10
-17.96836455522172
 20
64.47419907140488
 30
0.0
 11
-18.37421050955654
 21
72.08379965719024
 31
0.0
1001
ACAD
1000
DSTYLE
1002
{
1070
   147
1040
0.625
1070
    77
1070
     0
1002
}
  0
LINE
  5
143F
330
36
100
AcDbEntity
  8
0
  6
ByBlock
 62
     0
370
    -2
100
AcDbLine
 10
-17.29944273789729
 20
64.50987495350499
 30
0.0
 11
-17.835220255
 21
61.97774706999999
 31
0.0
  0
LINE
  5
1440
330
36
100
AcDbEntity
  8
0
  6
ByBlock
 62
     0
370
    -2
100
AcDbLine
 10
-17.835220255
 20
61.97774706999999
 30
0.0
 11
-18.63728637254616
 21
64.43852318930478
 31
0.0
  0
LINE
  5
1441
330
36
100
AcDbEntity
  8
0
  6
ByBlock
 62
     0
370
    -2
100
AcDbLine
 10
-17.835220255
 20
61.97774706999999
 30
0.0
 11
-17.96836455522172
 21
64.47419907140488
 31
0.0
  0
LINE
  5
1442
330
36
100
AcDbEntity
  8
0
  6
Continuous
 62
     7
100
AcDbLine
 10
-35.25081201349983
 20
54.03708428286065
 30
0.0
 11
-44.96264919163014
 21
72.77038730225351
 31
0.0
1001
ACAD
1000
DSTYLE
1002
{
1070
   147
1040
0.625
1070
    77
1070
     0
1002
}
  0
LINE
  5
1443
330
36
100
AcDbEntity
  8
0
  6
ByBlock
 62
     0
370
    -2
100
AcDbLine
 10
-34.65610725895502
 20
54.34539487492335
 30
0.0
 11
-34.10018039306943
 21
51.81761432945607
 31
0.0
  0
LINE
  5
1444
330
36
100
AcDbEntity
  8
0
  6
ByBlock
 62
     0
370
    -2
100
AcDbLine
 10
-34.10018039306943
 20
51.81761432945607
 30
0.0
 11
-35.84551676804462
 21
53.72877369079795
 31
0.0
  0
LINE
  5
1445
330
36
100
AcDbEntity
  8
0
  6
ByBlock
 62
     0
370
    -2
100
AcDbLine
 10
-34.10018039306943
 20
51.81761432945607
 30
0.0
 11
-35.25081201349983
 21
54.03708428286065
 31
0.0
  0
TEXT
  5
1446
330
36
100
AcDbEntity
  8
0
  6
Continuous
 62
     4
100
AcDbText
 10
82.50712290666667
 20
53.12326721
 30
0.0
 40
2.5
  1
78
100
AcDbText
  0
LINE
  5
1447
330
36
100
AcDbEntity
  8
0
  6
ByBlock
 62
     0
370
    -2
100
AcDbLine
 10
101.59045624
 20
53.16813971
 30
0.0
 11
104.09045624
 21
52.49826721
 31
0.0
  0
LINE
  5
1448
330
36
100
AcDbEntity
  8
0
  6
ByBlock
 62
     0
370
    -2
100
AcDbLine
 10
104.09045624
 20
52.49826721
 30
0.0
 11
101.59045624
 21
51.82839471000001
 31
0.0
  0
LINE
  5
1449
330
36
100
AcDbEntity
  8
0
  6
ByBlock
 62
     0
370
    -2
100
AcDbLine
 10
104.09045624
 20
52.49826721
 30
0.0
 11
101.59045624
 21
52.49826721
 31
0.0
  0
LINE
  5
144A
330
36
100
AcDbEntity
  8
0
  6
ByBlock
 62
     0
370
    -2
100
AcDbLine
 10
67.59045623999999
 20
51.82839471
 30
0.0
 11
65.09045623999999
 21
52.49826721
 31
0.0
  0
LINE
  5
144B
330
36
100
AcDbEntity
  8
0
  6
ByBlock
 62
     0
370
    -2
100
AcDbLine
 10
65.09045623999999
 20
52.49826721
 30
0.0
 11
67.59045623999999
 21
53.16813971
 31
0.0
  0
LINE
  5
144C
330
36
100
AcDbEntity
  8
0
  6
ByBlock
 62
     0
370
    -2
100
AcDbLine
 10
65.09045623999999
 20
52.49826721
 30
0.0
 11
67.59045623999999
 21
52.49826721
 31
0.0
  0
TEXT
  5
144D
330
36
100
AcDbEntity
  8
0
  6
Continuous
 62
     4
100
AcDbText
 10
76.25534115999998
 20
18.00474290000001
 30
0.0
 40
2.5
  1
\U+03C630
 50
90.0
100
AcDbText
  0
LINE
  5
144E
330
36
100
AcDbEntity
  8
0
  6
ByBlock
 62
     0
370
    -2
100
AcDbLine
 10
76.21046865999999
 20
27.8797429
 30
0.0
 11
76.88034115999998
 21
30.3797429
 31
0.0
  0
LINE
  5
144F
330
36
100
AcDbEntity
  8
0
  6
ByBlock
 62
     0
370
    -2
100
AcDbLine
 10
76.88034115999998
 20
30.3797429
 30
0.0
 11
77.55021365999998
 21
27.8797429
 31
0.0
  0
LINE
  5
1450
330
36
100
AcDbEntity
  8
0
  6
ByBlock
 62
     0
370
    -2
100
AcDbLine
 10
76.88034115999998
 20
30.3797429
 30
0.0
 11
76.88034115999998
 21
27.8797429
 31
0.0
  0
LINE
  5
1451
330
36
100
AcDbEntity
  8
0
  6
ByBlock
 62
     0
370
    -2
100
AcDbLine
 10
77.55021366
 20
47.87974290000001
 30
0.0
 11
76.88034116
 21
45.37974290000001
 31
0.0
  0
LINE
  5
1452
330
36
100
AcDbEntity
  8
0
  6
ByBlock
 62
     0
370
    -2
100
AcDbLine
 10
76.88034116
 20
45.37974290000001
 30
0.0
 11
76.21046866
 21
47.87974290000001
 31
0.0
  0
LINE
  5
1453
330
36
100
AcDbEntity
  8
0
  6
ByBlock
 62
     0
370
    -2
100
AcDbLine
 10
76.88034116
 20
45.37974290000001
 30
0.0
 11
76.88034116
 21
47.87974290000001
 31
0.0
  0
TEXT
  5
1454
330
36
100
AcDbEntity
  8
0
  6
Continuous
 62
     4
100
AcDbText
 10
-120.15460013
 20
-9.148779049999999
 30
0.0
 40
2.5
  1
2
100
AcDbText
  0
LINE
  5
1455
330
36
100
AcDbEntity
  8
0
  6
ByBlock
 62
     0
370
    -2
100
AcDbLine
 10
-123.27960013
 20
-10.44365155
 30
0.0
 11
-125.77960013
 21
-9.773779049999999
 31
0.0
  0
LINE
  5
1456
330
36
100
AcDbEntity
  8
0
  6
ByBlock
 62
     0
370
    -2
100
AcDbLine
 10
-125.77960013
 20
-9.773779049999999
 30
0.0
 11
-123.27960013
 21
-9.103906549999999
 31
0.0
  0
LINE
  5
1457
330
36
100
AcDbEntity
  8
0
  6
ByBlock
 62
     0
370
    -2
100
AcDbLine
 10
-125.77960013
 20
-9.773779049999999
 30
0.0
 11
-123.27960013
 21
-9.773779049999999
 31
0.0
  0
LINE
  5
1458
330
36
100
AcDbEntity
  8
0
  6
ByBlock
 62
     0
370
    -2
100
AcDbLine
 10
-129.27960013
 20
-9.103906549999999
 30
0.0
 11
-126.77960013
 21
-9.773779049999999
 31
0.0
  0
LINE
  5
1459
330
36
100
AcDbEntity
  8
0
  6
ByBlock
 62
     0
370
    -2
100
AcDbLine
 10
-126.77960013
 20
-9.773779049999999
 30
0.0
 11
-129.27960013
 21
-10.44365155
 31
0.0
  0
LINE
  5
145A
330
36
100
AcDbEntity
  8
0
  6
ByBlock
 62
     0
370
    -2
100
AcDbLine
 10
-126.77960013
 20
-9.773779049999999
 30
0.0
 11
-129.27960013
 21
-9.773779049999999
 31
0.0
  0
TEXT
  5
145B
330
36
100
AcDbEntity
  8
0
  6
Continuous
 62
     4
100
AcDbText
 10
-164.97510547
 20
33.62974290499997
 30
0.0
 40
2.5
  1
\U+03C6114
 50
90.0
100
AcDbText
  0
LINE
  5
145C
330
36
100
AcDbEntity
  8
0
  6
ByBlock
 62
     0
370
    -2
100
AcDbLine
 10
-165.01997797
 20
63.90735306999999
 30
0.0
 11
-164.35010547
 21
66.40735306999999
 31
0.0
  0
LINE
  5
145D
330
36
100
AcDbEntity
  8
0
  6
ByBlock
 62
     0
370
    -2
100
AcDbLine
 10
-164.35010547
 20
66.40735306999999
 30
0.0
 11
-163.68023297
 21
63.90735306999999
 31
0.0
  0
LINE
  5
145E
330
36
100
AcDbEntity
  8
0
  6
ByBlock
 62
     0
370
    -2
100
AcDbLine
 10
-164.35010547
 20
66.40735306999999
 30
0.0
 11
-164.35010547
 21
63.90735306999999
 31
0.0
  0
LINE
  5
145F
330
36
100
AcDbEntity
  8
0
  6
ByBlock
 62
     0
370
    -2
100
AcDbLine
 10
-163.68023297
 20
11.85213274000001
 30
0.0
 11
-164.35010547
 21
9.35213274000001
 31
0.0
  0
LINE
  5
1460
330
36
100
AcDbEntity
  8
0
  6
ByBlock
 62
     0
370
    -2
100
AcDbLine
 10
-164.35010547
 20
9.35213274000001
 30
0.0
 11
-165.01997797
 21
11.85213274000001
 31
0.0
  0
LINE
  5
1461
330
36
100
AcDbEntity
  8
0
  6
ByBlock
 62
     0
370
    -2
100
AcDbLine
 10
-164.35010547
 20
9.35213274000001
 30
0.0
 11
-164.35010547
 21
11.85213274000001
 31
0.0
  0
TEXT
  5
1462
330
36
100
AcDbEntity
  8
0
  6
Continuous
 62
     4
100
AcDbText
 10
-16.96351109166666
 20
90.48505457
 30
0.0
 40
2.5
  1
185
100
AcDbText
  0
LINE
  5
1463
330
36
100
AcDbEntity
  8
0
  6
ByBlock
 62
     0
370
    -2
100
AcDbLine
 10
29.60825563
 20
90.52992706999999
 30
0.0
 11
32.10825563
 21
89.86005457
 31
0.0
  0
LINE
  5
1464
330
36
100
AcDbEntity
  8
0
  6
ByBlock
 62
     0
370
    -2
100
AcDbLine
 10
32.10825563
 20
89.86005457
 30
0.0
 11
29.60825563
 21
89.19018207
 31
0.0
  0
LINE
  5
1465
330
36
100
AcDbEntity
  8
0
  6
ByBlock
 62
     0
370
    -2
100
AcDbLine
 10
32.10825563
 20
89.86005457
 30
0.0
 11
29.60825563
 21
89.86005457
 31
0.0
  0
LINE
  5
1466
330
36
100
AcDbEntity
  8
0
  6
ByBlock
 62
     0
370
    -2
100
AcDbLine
 10
-57.70194448
 20
89.19018207
 30
0.0
 11
-60.20194448
 21
89.86005457
 31
0.0
  0
LINE
  5
1467
330
36
100
AcDbEntity
  8
0
  6
ByBlock
 62
     0
370
    -2
100
AcDbLine
 10
-60.20194448
 20
89.86005457
 30
0.0
 11
-57.70194448
 21
90.52992706999999
 31
0.0
  0
LINE
  5
1468
330
36
100
AcDbEntity
  8
0
  6
ByBlock
 62
     0
370
    -2
100
AcDbLine
 10
-60.20194448
 20
89.86005457
 30
0.0
 11
-57.70194448
 21
89.86005457
 31
0.0
  0
TEXT
  5
1469
330
36
100
AcDbEntity
  8
0
  6
Continuous
 62
     4
100
AcDbText
 10
70.68268926833333
 20
90.48505457
 30
0.0
 40
2.5
  1
165
100
AcDbText
  0
LINE
  5
146A
330
36
100
AcDbEntity
  8
0
  6
ByBlock
 62
     0
370
    -2
100
AcDbLine
 10
112.59045624
 20
90.52992706999999
 30
0.0
 11
115.09045624
 21
89.86005457
 31
0.0
  0
LINE
  5
146B
330
36
100
AcDbEntity
  8
0
  6
ByBlock
 62
     0
370
    -2
100
AcDbLine
 10
115.09045624
 20
89.86005457
 30
0.0
 11
112.59045624
 21
89.19018207
 31
0.0
  0
LINE
  5
146C
330
36
100
AcDbEntity
  8
0
  6
ByBlock
 62
     0
370
    -2
100
AcDbLine
 10
115.09045624
 20
89.86005457
 30
0.0
 11
112.59045624
 21
89.86005457
 31
0.0
  0
LINE
  5
146D
330
36
100
AcDbEntity
  8
0
  6
ByBlock
 62
     0
370
    -2
100
AcDbLine
 10
34.60825563
 20
89.19018207
 30
0.0
 11
32.10825563
 21
89.86005457
 31
0.0
  0
LINE
  5
146E
330
36
100
AcDbEntity
  8
0
  6
ByBlock
 62
     0
370
    -2
100
AcDbLine
 10
32.10825563
 20
89.86005457
 30
0.0
 11
34.60825563
 21
90.52992706999999
 31
0.0
  0
LINE
  5
146F
330
36
100
AcDbEntity
  8
0
  6
ByBlock
 62
     0
370
    -2
100
AcDbLine
 10
32.10825563
 20
89.86005457
 30
0.0
 11
34.60825563
 21
89.86005457
 31
0.0
  0
TEXT
  5
1470
330
36
100
AcDbEntity
  8
0
  6
Continuous
 62
     4
100
AcDbText
 10
-70.53257099999999
 20
2.923870201666663
 30
0.0
 40
2.5
  1
38
 50
90.0
100
AcDbText
  0
LINE
  5
1471
330
36
100
AcDbEntity
  8
0
  6
ByBlock
 62
     0
370
    -2
100
AcDbLine
 10
-70.57744349999999
 20
12.03387523000001
 30
0.0
 11
-69.90757099999999
 21
14.53387523000001
 31
0.0
  0
LINE
  5
1472
330
36
100
AcDbEntity
  8
0
  6
ByBlock
 62
     0
370
    -2
100
AcDbLine
 10
-69.90757099999999
 20
14.53387523000001
 30
0.0
 11
-69.23769849999999
 21
12.03387523000001
 31
0.0
  0
LINE
  5
1473
330
36
100
AcDbEntity
  8
0
  6
ByBlock
 62
     0
370
    -2
100
AcDbLine
 10
-69.90757099999999
 20
14.53387523000001
 30
0.0
 11
-69.90757099999999
 21
12.03387523000001
 31
0.0
  0
LINE
  5
1474
330
36
100
AcDbEntity
  8
0
  6
ByBlock
 62
     0
370
    -2
100
AcDbLine
 10
-69.23769849999999
 20
-2.019468159999992
 30
0.0
 11
-69.90757099999999
 21
-4.519468159999992
 31
0.0
  0
LINE
  5
1475
330
36
100
AcDbEntity
  8
0
  6
ByBlock
 62
     0
370
    -2
100
AcDbLine
 10
-69.90757099999999
 20
-4.519468159999992
 30
0.0
 11
-70.57744349999999
 21
-2.019468159999992
 31
0.0
  0
LINE
  5
1476
330
36
100
AcDbEntity
  8
0
  6
ByBlock
 62
     0
370
    -2
100
AcDbLine
 10
-69.90757099999999
 20
-4.519468159999992
 30
0.0
 11
-69.90757099999999
 21
-2.019468159999992
 31
0.0
  0
TEXT
  5
1477
330
36
100
AcDbEntity
  8
0
  6
Continuous
 62
     4
100
AcDbText
 10
-70.532571
 20
34.02578269666667
 30
0.0
 40
2.5
  1
\U+03C694
 50
90.0
100
AcDbText
  0
LINE
  5
1478
330
36
100
AcDbEntity
  8
0
  6
ByBlock
 62
     0
370
    -2
100
AcDbLine
 10
-70.57744349999999
 20
58.68435683000001
 30
0.0
 11
-69.90757099999999
 21
61.18435683000001
 31
0.0
  0
LINE
  5
1479
330
36
100
AcDbEntity
  8
0
  6
ByBlock
 62
     0
370
    -2
100
AcDbLine
 10
-69.90757099999999
 20
61.18435683000001
 30
0.0
 11
-69.23769849999999
 21
58.68435683000001
 31
0.0
  0
LINE
  5
147A
330
36
100
AcDbEntity
  8
0
  6
ByBlock
 62
     0
370
    -2
100
AcDbLine
 10
-69.90757099999999
 20
61.18435683000001
 30
0.0
 11
-69.90757099999999
 21
58.68435683000001
 31
0.0
  0
LINE
  5
147B
330
36
100
AcDbEntity
  8
0
  6
ByBlock
 62
     0
370
    -2
100
AcDbLine
 10
-69.23769850000001
 20
17.03387523000001
 30
0.0
 11
-69.907571
 21
14.53387523000001
 31
0.0
  0
LINE
  5
147C
330
36
100
AcDbEntity
  8
0
  6
ByBlock
 62
     0
370
    -2
100
AcDbLine
 10
-69.907571
 20
14.53387523000001
 30
0.0
 11
-70.5774435
 21
17.03387523000001
 31
0.0
  0
LINE
  5
147D
330
36
100
AcDbEntity
  8
0
  6
ByBlock
 62
     0
370
    -2
100
AcDbLine
 10
-69.907571
 20
14.53387523000001
 30
0.0
 11
-69.907571
 21
17.03387523000001
 31
0.0
  0
ENDSEC
  0
SECTION
  2
OBJECTS
  0
DICTIONARY
  5
C
330
0
100
AcDbDictionary
281
     1
  3
ACAD_2007HEADERVARS_RT
350
14C4
  3
ACAD_COLOR
350
2F
  3
ACAD_GROUP
350
D
  3
ACAD_LAYOUT
350
2E
  3
ACAD_MATERIAL
350
10
  3
ACAD_MLEADERSTYLE
350
6C8
  3
ACAD_MLINESTYLE
350
2B
  3
ACAD_PLOTSETTINGS
350
2D
  3
ACAD_PLOTSTYLENAME
350
E
  3
ACAD_SCALELIST
350
6B6
  3
ACAD_TABLESTYLE
350
30
  3
ACAD_VISUALSTYLE
350
14
  3
ACDB_RECOMPOSE_DATA
350
14C2
  3
AcDbVariableDictionary
350
67D
  3
DWGPROPS
350
14C3
  0
DICTIONARY
  5
55F
330
2
100
AcDbDictionary
280
     1
281
     1
  3
ACAD_LAYERSTATES
360
560
  0
DICTIONARY
  5
996
330
25
100
AcDbDictionary
280
     1
281
     1
  3
ADSK_XREC_LAYER_RECONCILED
360
997
  0
DICTIONARY
  5
C5E
330
36
100
AcDbDictionary
280
     1
281
     1
  3
ACAD_SORTENTS
360
C5F
  0
DICTIONARY
  5
ED0
330
EAC
100
AcDbDictionary
280
     1
281
     1
  3
ACAD_SORTENTS
360
ED1
  0
DICTIONARY
  5
F45
330
EE4
100
AcDbDictionary
280
     1
281
     1
  3
ACAD_SORTENTS
360
F46
  0
DICTIONARY
  5
12D9
330
118B
100
AcDbDictionary
280
     1
281
     1
  3
ACAD_SORTENTS
360
12DA
  0
DICTIONARY
  5
14C4
102
{ACAD_REACTORS
330
C
102
}
330
C
100
AcDbDictionary
281
     1
  3
DIMARCSYM
350
14C6
  3
DIMFXL
350
14C5
  3
DIMJOGANG
350
14C7
  0
DICTIONARY
  5
2F
102
{ACAD_REACTORS
330
C
102
}
330
C
100
AcDbDictionary
281
     1
  0
DICTIONARY
  5
D
102
{ACAD_REACTORS
330
C
102
}
330
C
100
AcDbDictionary
281
     1
  0
DICTIONARY
  5
2E
102
{ACAD_REACTORS
330
C
102
}
330
C
100
AcDbDictionary
281
     1
  3
Model
350
39
  3
レイアウト1
350
35
  0
DICTIONARY
  5
10
102
{ACAD_REACTORS
330
C
102
}
330
C
100
AcDbDictionary
281
     1
  3
ByBlock
350
12
  3
ByLayer
350
11
  3
Global
350
13
  0
DICTIONARY
  5
6C8
102
{ACAD_REACTORS
330
C
102
}
330
C
100
AcDbDictionary
281
     1
  3
Standard
350
6C9
  0
DICTIONARY
  5
2B
102
{ACAD_REACTORS
330
C
102
}
330
C
100
AcDbDictionary
281
     1
  3
Standard
350
2C
  0
DICTIONARY
  5
2D
102
{ACAD_REACTORS
330
C
102
}
330
C
100
AcDbDictionary
281
     1
  0
ACDBDICTIONARYWDFLT
  5
E
102
{ACAD_REACTORS
330
C
102
}
330
C
100
AcDbDictionary
281
     1
  3
Normal
350
F
100
AcDbDictionaryWithDefault
340
F
  0
DICTIONARY
  5
6B6
102
{ACAD_REACTORS
330
C
102
}
330
C
100
AcDbDictionary
281
     1
  3
A0
350
6B7
  3
A1
350
6B8
  3
A2
350
6B9
  3
A3
350
6BA
  3
A4
350
6BB
  3
A5
350
6BC
  3
A6
350
6BD
  3
A7
350
6BE
  3
A8
350
6BF
  3
A9
350
6C0
  3
B0
350
6C1
  3
B1
350
6C2
  3
B2
350
6C3
  3
B3
350
6C4
  3
B4
350
6C5
  3
B5
350
6C6
  3
B6
350
6C7
  0
DICTIONARY
  5
30
102
{ACAD_REACTORS
330
C
102
}
330
C
100
AcDbDictionary
281
     1
  3
Standard
350
31
  3
部品表
350
ED8
  0
DICTIONARY
  5
14
102
{ACAD_REACTORS
330
C
102
}
330
C
100
AcDbDictionary
281
     1
  3
2dWireframe
350
1A
  3
3D Hidden
350
1C
  3
3dWireframe
350
1B
  3
Basic
350
19
  3
Brighten
350
20
  3
ColorChange
350
24
  3
Conceptual
350
1D
  3
Dim
350
1F
  3
EdgeColorOff
350
6B5
  3
Facepattern
350
23
  3
Flat
350
15
  3
FlatWithEdges
350
16
  3
Gouraud
350
17
  3
GouraudWithEdges
350
18
  3
Hidden
350
6AD
  3
JitterOff
350
6B3
  3
Linepattern
350
22
  3
OverhangOff
350
6B4
  3
Realistic
350
1E
  3
Shaded
350
6B2
  3
Shaded with edges
350
6B1
  3
Shades of Gray
350
6AE
  3
Sketchy
350
6AF
  3
Thicken
350
21
  3
Wireframe
350
6AC
  3
X-Ray
350
6B0
  0
XRECORD
  5
14C2
102
{ACAD_REACTORS
330
C
102
}
330
C
100
AcDbXrecord
280
     1
 90
        1
330
31
330
ED8
  0
DICTIONARY
  5
67D
102
{ACAD_REACTORS
330
C
102
}
330
C
100
AcDbDictionary
281
     1
  3
CANNOSCALE
350
99D
  3
CMLEADERSTYLE
350
99C
  3
CTABLESTYLE
350
67E
  3
DIMASSOC
350
681
  3
INDEXCTL
350
680
  3
SORTENTS
350
67F
  3
XCLIPFRAME
350
133E
  0
XRECORD
  5
14C3
102
{ACAD_REACTORS
330
C
102
}
330
C
100
AcDbXrecord
280
     1
  1
DWGPROPS COOKIE
  2

  3

  4

  6

  7

  8
kaiha
  9

300
=
301
=
302
=
303
=
304
=
305
=
306
=
307
=
308
=
309
=
 40
0.108082349537037
 41
2455541.547573414
 42
2458296.675233414
  1

 90
        0
  0
DICTIONARY
  5
560
102
{ACAD_REACTORS
330
55F
102
}
330
55F
100
AcDbDictionary
281
     1
  0
XRECORD
  5
997
102
{ACAD_REACTORS
330
996
102
}
330
996
100
AcDbXrecord
280
     1
290
     1
  0
SORTENTSTABLE
  5
C5F
102
{ACAD_REACTORS
330
C5E
102
}
330
C5E
100
AcDbSortentsTable
330
36
331
450
  5
B58
331
2F2
  5
39E
331
2B3
  5
33F
331
27C
  5
30B
331
23D
  5
2C3
331
278
  5
307
331
239
  5
2BD
331
13BC
  5
4DC
331
13FB
  5
187
331
130F
  5
1460
331
13B8
  5
4D8
331
130B
  5
145C
331
13B4
  5
4D4
331
13F3
  5
193
331
133A
  5
147B
331
13B0
  5
4D0
331
1307
  5
1458
331
1435
  5
1411
331
1474
  5
153
331
1303
  5
1454
331
1431
  5
1415
331
1470
  5
15C
331
142D
  5
1419
331
146C
  5
16E
331
1429
  5
141D
331
1468
  5
175
331
1FE
  5
288
331
1BF
  5
24D
331
1FA
  5
283
331
B56
  5
13F0
331
416
  5
4F7
331
184
  5
20D
331
39F
  5
46E
331
1F6
  5
27F
331
180
  5
209
331
B52
  5
13EC
331
109
  5
1C2
331
39B
  5
46A
331
325
  5
413
331
1F2
  5
27B
331
1B3
  5
244
331
17C
  5
205
331
B4E
  5
13E8
331
105
  5
1C0
331
360
  5
459
331
321
  5
3CD
331
178
  5
201
331
393
  5
468
331
101
  5
1B2
331
35C
  5
455
331
4C6
  5
133A
331
31D
  5
3C9
331
48F
  5
1308
331
358
  5
451
331
501
  5
13C7
331
319
  5
3C5
331
4C2
  5
1336
331
48B
  5
1304
331
44C
  5
B54
331
2EE
  5
39A
331
2AF
  5
33B
331
4BE
  5
132A
331
487
  5
1300
331
448
  5
B50
331
2EA
  5
38A
331
2AB
  5
337
331
274
  5
303
331
235
  5
2B9
331
4F9
  5
13B1
331
4BA
  5
1327
331
2E6
  5
37A
331
2A7
  5
334
331
270
  5
2FF
331
231
  5
2B5
331
2A3
  5
330
331
26C
  5
2FB
331
22D
  5
2B2
331
229
  5
2AE
331
1336
  5
1477
331
13AC
  5
4CC
331
13EB
  5
19D
331
12FF
  5
1450
331
13A8
  5
4C8
331
13E7
  5
24A
331
132E
  5
1468
331
13A4
  5
4C4
331
13E3
  5
246
331
12FB
  5
144A
331
12F7
  5
1442
331
132A
  5
143F
331
13A0
  5
4C0
331
1425
  5
1421
331
1464
  5
177
331
12F3
  5
143A
331
1421
  5
1425
331
1460
  5
17E
331
145C
  5
180
331
1458
  5
189
331
1419
  5
E5
331
995
  5
13E5
331
1EE
  5
277
331
1AF
  5
240
331
991
  5
13E1
331
1EA
  5
273
331
1AB
  5
23C
331
98E
  5
13DE
331
3CE
  5
4B1
331
174
  5
1FD
331
1A7
  5
238
331
170
  5
1F9
331
3CA
  5
4AD
331
F9
  5
1AD
331
38B
  5
466
331
354
  5
44D
331
315
  5
3C1
331
1A3
  5
234
331
3C6
  5
4A9
331
16C
  5
1F5
331
350
  5
449
331
311
  5
3BD
331
66A
  5
13DA
331
3C2
  5
4A5
331
168
  5
1F1
331
383
  5
464
331
34C
  5
43C
331
4F5
  5
13AD
331
30D
  5
3B9
331
4B6
  5
1323
331
47F
  5
12FC
331
348
  5
436
331
4F1
  5
13A9
331
309
  5
3B5
331
4B2
  5
131F
331
47B
  5
12F8
331
43C
  5
B4D
331
2DE
  5
36A
331
29F
  5
32C
331
4ED
  5
13A5
331
4AE
  5
131B
331
477
  5
12F4
331
438
  5
995
331
2DA
  5
360
331
29B
  5
328
331
264
  5
2F4
331
4E9
  5
13A1
331
4AA
  5
1317
331
473
  5
12F1
331
434
  5
991
331
297
  5
325
331
260
  5
2F0
331
430
  5
98D
331
2D2
  5
359
331
293
  5
321
331
25C
  5
2EC
331
21D
  5
2A7
331
258
  5
2E8
331
219
  5
2A3
331
13DF
  5
26A
331
1326
  5
1447
331
139C
  5
4BB
331
13DB
  5
272
331
1322
  5
1474
331
1398
  5
4B7
331
13D7
  5
26E
331
12EF
  5
1436
331
131E
  5
1470
331
13D3
  5
4F3
331
12EB
  5
1432
331
131A
  5
146C
331
12E7
  5
142E
331
1454
  5
18F
331
12E3
  5
142A
331
1450
  5
19A
331
144C
  5
1A1
331
140D
  5
161
331
1448
  5
1A3
331
19F
  5
230
331
19B
  5
22B
331
526
  5
13D6
331
3BE
  5
4A1
331
164
  5
1ED
331
1D6
  5
264
331
197
  5
227
331
522
  5
13D2
331
3BA
  5
491
331
160
  5
1D7
331
37B
  5
462
331
344
  5
432
331
305
  5
3B1
331
1D2
  5
260
331
193
  5
21D
331
15C
  5
1D3
331
516
  5
13D0
331
3B6
  5
48D
331
E5
  5
1A7
331
340
  5
42E
331
301
  5
3AD
331
512
  5
13CC
331
3B2
  5
489
331
158
  5
1CF
331
373
  5
460
331
33C
  5
42A
331
4E5
  5
139D
331
2FD
  5
3A9
331
4A6
  5
1313
331
338
  5
426
331
4E1
  5
1399
331
2F9
  5
3A5
331
4A2
  5
130F
331
46B
  5
12EC
331
42C
  5
529
331
2CE
  5
355
331
28F
  5
31D
331
4DD
  5
1395
331
467
  5
12E8
331
428
  5
525
331
28B
  5
319
331
254
  5
2E0
331
215
  5
2A0
331
4D9
  5
1391
331
463
  5
12E4
331
424
  5
521
331
2C6
  5
350
331
287
  5
315
331
250
  5
2DC
331
211
  5
29C
331
420
  5
513
331
283
  5
312
331
24C
  5
2D8
331
20D
  5
297
331
248
  5
2D3
331
209
  5
293
331
13CF
  5
4EF
331
13CB
  5
4EB
331
13C7
  5
4E7
331
1406
  5
170
331
13C3
  5
4E3
331
1402
  5
17C
331
1316
  5
1467
331
1444
  5
1400
331
1312
  5
1463
331
1440
  5
1404
331
143C
  5
1408
331
147B
  5
F4
331
1438
  5
140C
331
1CE
  5
25C
331
1CA
  5
258
331
3AE
  5
485
331
154
  5
1CB
331
205
  5
28F
331
1C6
  5
254
331
18F
  5
219
331
3AA
  5
47D
331
150
  5
1C7
331
334
  5
422
331
201
  5
28B
331
1C2
  5
250
331
B5D
  5
13F7
331
41D
  5
510
331
18B
  5
214
331
3A6
  5
479
331
330
  5
41E
331
B59
  5
13F3
331
419
  5
500
331
3A2
  5
475
331
36B
  5
45E
331
4D5
  5
138D
331
32C
  5
41A
331
45F
  5
12E0
331
4D1
  5
1389
331
328
  5
416
331
45B
  5
F8B
331
2BE
  5
34A
331
4CD
  5
1385
331
457
  5
B5F
331
2BA
  5
346
331
244
  5
2CF
331
508
  5
13C8
331
4C9
  5
1381
331
453
  5
B5B
331
2F5
  5
3A1
331
2B6
  5
342
331
27F
  5
30E
331
240
  5
2C6
331
2F1
  5
39D
331
2B2
  5
33E
331
27B
  5
30A
331
23C
  5
2C0
331
238
  5
2BC
331
101E
  5
13FD
331
13BF
  5
4DF
331
13BB
  5
4DB
331
13FA
  5
186
331
130E
  5
145F
331
13B7
  5
4D7
331
130A
  5
145B
331
13B3
  5
4D3
331
13F2
  5
192
331
1477
  5
10A
331
1339
  5
147A
331
1306
  5
1457
331
1434
  5
1410
331
1473
  5
15B
331
1302
  5
1453
331
1430
  5
1414
331
146F
  5
168
331
142C
  5
1418
331
146B
  5
16A
331
1428
  5
141C
331
1FD
  5
287
331
187
  5
210
331
1F9
  5
282
331
B55
  5
13EF
331
415
  5
4F6
331
183
  5
20C
331
39E
  5
46D
331
1F5
  5
27E
331
B51
  5
13EB
331
17F
  5
208
331
39A
  5
469
331
363
  5
45C
331
324
  5
3D0
331
1F1
  5
27A
331
1B2
  5
243
331
B4D
  5
13E7
331
17B
  5
204
331
35F
  5
458
331
320
  5
3CC
331
392
  5
467
331
100
  5
1B1
331
35B
  5
454
331
4C5
  5
1339
331
31C
  5
3C8
331
48E
  5
1307
331
44F
  5
B57
331
500
  5
13B2
331
318
  5
3C4
331
4C1
  5
1335
331
48A
  5
1303
331
44B
  5
B53
331
2ED
  5
393
331
2AE
  5
33A
331
277
  5
306
331
486
  5
12FF
331
447
  5
B4F
331
2E9
  5
383
331
2AA
  5
336
331
273
  5
302
331
234
  5
2B8
331
4F8
  5
13B0
331
4B9
  5
1326
331
2E5
  5
373
331
2A6
  5
333
331
26F
  5
2FE
331
230
  5
2B4
331
2A2
  5
32F
331
26B
  5
2FA
331
22C
  5
2B1
331
228
  5
2AD
331
13AF
  5
4CF
331
1335
  5
1476
331
13AB
  5
4CB
331
13EA
  5
19C
331
12FE
  5
144F
331
13A7
  5
4C7
331
13E6
  5
249
331
12FA
  5
1448
331
132D
  5
143D
331
13A3
  5
4C3
331
13E2
  5
245
331
1467
  5
174
331
1329
  5
1445
331
12F6
  5
1440
331
1424
  5
1420
331
1463
  5
176
331
12F2
  5
1439
331
1420
  5
1424
331
145F
  5
17D
331
145B
  5
183
331
1418
  5
E4
331
994
  5
13E4
331
1ED
  5
276
331
1AE
  5
23F
331
177
  5
200
331
990
  5
13E0
331
1AA
  5
23B
331
98D
  5
13DD
331
3CD
  5
4B0
331
173
  5
1FC
331
357
  5
450
331
1A6
  5
237
331
3C9
  5
4AC
331
16F
  5
1F8
331
38A
  5
465
331
353
  5
44C
331
314
  5
3C0
331
1A2
  5
233
331
16B
  5
1F4
331
3C5
  5
4A8
331
F4
  5
1AC
331
34F
  5
448
331
310
  5
3BC
331
3C1
  5
4A4
331
F0
  5
1AB
331
382
  5
463
331
34B
  5
439
331
4F4
  5
13AC
331
30C
  5
3B8
331
4B5
  5
1322
331
47E
  5
12FB
331
4F0
  5
13A8
331
308
  5
3B4
331
4B1
  5
131E
331
47A
  5
12F7
331
2DD
  5
363
331
29E
  5
32B
331
267
  5
2F7
331
4EC
  5
13A4
331
4AD
  5
131A
331
476
  5
12F3
331
437
  5
994
331
2D9
  5
35F
331
29A
  5
327
331
263
  5
2F3
331
4E8
  5
13A0
331
4A9
  5
1316
331
433
  5
990
331
2D5
  5
35C
331
296
  5
324
331
25F
  5
2EF
331
220
  5
2AB
331
2D1
  5
358
331
292
  5
320
331
25B
  5
2EB
331
21C
  5
2A6
331
139F
  5
4BF
331
13DE
  5
269
331
1325
  5
144D
331
139B
  5
4BA
331
13DA
  5
271
331
1321
  5
1473
331
1397
  5
4B6
331
13D6
  5
26D
331
12EE
  5
1435
331
131D
  5
146F
331
13D2
  5
4F2
331
12EA
  5
1431
331
1457
  5
18E
331
1319
  5
146B
331
12E6
  5
142D
331
1453
  5
197
331
1414
  5
152
331
12E2
  5
1429
331
144F
  5
199
331
144B
  5
1A0
331
140C
  5
160
331
1408
  5
172
331
19E
  5
22E
331
167
  5
1F0
331
19A
  5
22A
331
163
  5
1EC
331
525
  5
13D5
331
3BD
  5
49B
331
EC
  5
1AA
331
347
  5
435
331
1D5
  5
263
331
196
  5
220
331
15F
  5
1D6
331
521
  5
13D1
331
3B9
  5
490
331
E8
  5
1A9
331
37A
  5
461
331
343
  5
431
331
304
  5
3B0
331
1D1
  5
25F
331
192
  5
21C
331
15B
  5
1D2
331
515
  5
13CF
331
3B5
  5
48C
331
E4
  5
1A6
331
33F
  5
42D
331
300
  5
3AC
331
511
  5
13CB
331
3B1
  5
488
331
372
  5
45F
331
33B
  5
429
331
4E4
  5
139C
331
2FC
  5
3A8
331
4A5
  5
1312
331
46E
  5
12EF
331
42F
  5
98C
331
4E0
  5
1398
331
2F8
  5
3A4
331
4A1
  5
130E
331
46A
  5
12EB
331
42B
  5
528
331
2CD
  5
354
331
28E
  5
31C
331
257
  5
2E7
331
4DC
  5
1394
331
466
  5
12E7
331
427
  5
524
331
28A
  5
318
331
253
  5
2DF
331
214
  5
29F
331
4D8
  5
1390
331
462
  5
12E3
331
423
  5
516
331
2C5
  5
34F
331
286
  5
314
331
24F
  5
2DB
331
210
  5
29B
331
282
  5
311
331
24B
  5
2D7
331
20C
  5
296
331
208
  5
292
331
13CE
  5
4EE
331
13CA
  5
4EA
331
13C6
  5
4E6
331
13C2
  5
4E2
331
1401
  5
17B
331
1447
  5
1A2
331
1315
  5
1466
331
1443
  5
13FF
331
1311
  5
1462
331
143F
  5
1403
331
143B
  5
1407
331
147A
  5
103
331
1CD
  5
25B
331
157
  5
1CE
331
1C9
  5
257
331
3AD
  5
480
331
153
  5
1CA
331
337
  5
425
331
204
  5
28E
331
1C5
  5
253
331
B60
  5
13FA
331
18E
  5
217
331
3A9
  5
47C
331
333
  5
421
331
200
  5
28A
331
1C1
  5
24F
331
B5C
  5
13F6
331
41C
  5
509
331
18A
  5
213
331
3A5
  5
478
331
32F
  5
41D
331
B58
  5
13F2
331
418
  5
4F9
331
3A1
  5
473
331
36A
  5
45D
331
4D4
  5
138C
331
32B
  5
419
331
45E
  5
11FB
331
4D0
  5
1388
331
45A
  5
F8A
331
2BD
  5
349
331
247
  5
2D2
331
4CC
  5
1384
331
495
  5
130C
331
456
  5
B5E
331
2B9
  5
345
331
243
  5
2CE
331
4C8
  5
133C
331
491
  5
130A
331
452
  5
B5A
331
2F4
  5
3A0
331
2B5
  5
341
331
27E
  5
30D
331
23F
  5
2C5
331
2F0
  5
39C
331
2B1
  5
33D
331
27A
  5
309
331
23B
  5
2BF
331
101D
  5
13FC
331
13BE
  5
4DE
331
13BA
  5
4DA
331
13F9
  5
185
331
130D
  5
145E
331
13B6
  5
4D6
331
133C
  5
147D
331
13B2
  5
4D2
331
13F1
  5
191
331
1309
  5
145A
331
1437
  5
140B
331
1476
  5
158
331
1338
  5
1479
331
1305
  5
1456
331
1433
  5
140F
331
1472
  5
15A
331
1301
  5
1452
331
142F
  5
1413
331
146E
  5
164
331
142B
  5
1417
331
146A
  5
169
331
1FC
  5
286
331
186
  5
20F
331
10F
  5
1C5
331
1F8
  5
281
331
B54
  5
13EE
331
414
  5
4F5
331
182
  5
20B
331
39D
  5
46C
331
327
  5
415
331
1F4
  5
27D
331
B50
  5
13EA
331
17E
  5
207
331
362
  5
45B
331
323
  5
3CF
331
1F0
  5
279
331
1B1
  5
242
331
17A
  5
203
331
B4C
  5
13E6
331
103
  5
1BF
331
35E
  5
457
331
31F
  5
3CB
331
3D0
  5
4B3
331
35A
  5
453
331
4C4
  5
1338
331
31B
  5
3C7
331
48D
  5
1306
331
44E
  5
B56
331
4C0
  5
132C
331
489
  5
1302
331
44A
  5
B52
331
2EC
  5
392
331
2AD
  5
339
331
276
  5
305
331
237
  5
2BB
331
4BC
  5
1329
331
485
  5
12FE
331
446
  5
B4E
331
2E8
  5
382
331
2A9
  5
335
331
272
  5
301
331
233
  5
2B7
331
4B8
  5
1325
331
2A5
  5
332
331
26E
  5
2FD
331
2E0
  5
372
331
2A1
  5
32E
331
26A
  5
2F9
331
22B
  5
2B0
331
13AE
  5
4CE
331
13AA
  5
4CA
331
13E9
  5
24C
331
12FD
  5
144E
331
13A6
  5
4C6
331
13E5
  5
248
331
12F9
  5
1446
331
132C
  5
143B
331
13A2
  5
4C2
331
13E1
  5
26C
331
1427
  5
141B
331
1466
  5
173
331
1328
  5
1443
331
12F5
  5
143E
331
1423
  5
141F
331
1462
  5
179
331
12F1
  5
1438
331
141F
  5
1423
331
145E
  5
182
331
145A
  5
18B
331
529
  5
13D9
331
993
  5
13E3
331
1EC
  5
275
331
1AD
  5
23E
331
176
  5
1FF
331
FF
  5
1B0
331
1A9
  5
23A
331
98C
  5
13DC
331
3CC
  5
4AF
331
172
  5
1FB
331
356
  5
44F
331
317
  5
3C3
331
1A5
  5
236
331
3C8
  5
4AB
331
16E
  5
1F7
331
352
  5
44B
331
313
  5
3BF
331
1A1
  5
232
331
3C4
  5
4A7
331
16A
  5
1F3
331
34E
  5
447
331
4F7
  5
13AF
331
30F
  5
3BB
331
3C0
  5
4A3
331
34A
  5
438
331
4F3
  5
13AB
331
30B
  5
3B7
331
4B4
  5
1321
331
47D
  5
12FA
331
4EF
  5
13A7
331
4B0
  5
131D
331
479
  5
12F6
331
2DC
  5
362
331
29D
  5
32A
331
266
  5
2F6
331
227
  5
2AC
331
4EB
  5
13A3
331
4AC
  5
1319
331
475
  5
12F2
331
436
  5
993
331
2D8
  5
35E
331
299
  5
326
331
262
  5
2F2
331
4A8
  5
1315
331
471
  5
12F0
331
432
  5
98F
331
2D4
  5
35B
331
295
  5
323
331
25E
  5
2EE
331
21F
  5
2AA
331
2D0
  5
357
331
291
  5
31F
331
25A
  5
2EA
331
21B
  5
2A5
331
139E
  5
4BE
331
13DD
  5
267
331
1324
  5
144B
331
139A
  5
4B9
331
13D9
  5
270
331
1320
  5
1472
331
1396
  5
4B5
331
13D5
  5
352
331
12ED
  5
1434
331
131C
  5
146E
331
13D1
  5
4F1
331
12E9
  5
1430
331
1456
  5
18D
331
1318
  5
146A
331
12E5
  5
142C
331
1452
  5
196
331
1413
  5
10F
331
12E1
  5
1428
331
144E
  5
198
331
144A
  5
19F
331
19D
  5
22D
331
166
  5
1EF
331
199
  5
229
331
524
  5
13D4
331
3BC
  5
495
331
162
  5
1EB
331
346
  5
434
331
307
  5
3B3
331
1D4
  5
262
331
195
  5
21F
331
3B8
  5
48F
331
15E
  5
1D5
331
342
  5
430
331
303
  5
3AF
331
1D0
  5
25E
331
191
  5
21B
331
514
  5
13CE
331
3B4
  5
48B
331
15A
  5
1D1
331
33E
  5
42C
331
4E7
  5
139F
331
2FF
  5
3AB
331
510
  5
13CA
331
3B0
  5
487
331
33A
  5
428
331
4E3
  5
139B
331
2FB
  5
3A7
331
4A4
  5
1311
331
46D
  5
12EE
331
42E
  5
98B
331
4DF
  5
1397
331
469
  5
12EA
331
EE3
  5
13FE
331
42A
  5
527
331
2CC
  5
353
331
28D
  5
31B
331
256
  5
2E6
331
217
  5
2A2
331
4DB
  5
1393
331
465
  5
12E6
331
426
  5
523
331
289
  5
317
331
252
  5
2DE
331
213
  5
29E
331
461
  5
12E2
331
422
  5
515
331
2C4
  5
34E
331
24E
  5
2DA
331
20F
  5
29A
331
2C0
  5
34C
331
281
  5
310
331
24A
  5
2D5
331
20B
  5
295
331
13CD
  5
4ED
331
13C9
  5
4E9
331
13C5
  5
4E5
331
13C1
  5
4E1
331
1400
  5
17A
331
1446
  5
1A5
331
1314
  5
1465
331
1442
  5
1402
331
1310
  5
1461
331
143E
  5
1406
331
147D
  5
FA
331
143A
  5
140A
331
1479
  5
102
331
1CC
  5
25A
331
156
  5
1CD
331
207
  5
291
331
1C8
  5
256
331
3AC
  5
47F
331
152
  5
1C9
331
336
  5
424
331
203
  5
28D
331
1C4
  5
252
331
B5F
  5
13F9
331
41F
  5
512
331
18D
  5
216
331
3A8
  5
47B
331
332
  5
420
331
1C0
  5
24E
331
B5B
  5
13F5
331
41B
  5
508
331
189
  5
212
331
3A4
  5
477
331
4D7
  5
138F
331
32E
  5
41C
331
3A0
  5
471
331
4D3
  5
138B
331
32A
  5
418
331
45D
  5
11FA
331
4CF
  5
1387
331
459
  5
F89
331
2BC
  5
348
331
246
  5
2D1
331
4CB
  5
1383
331
455
  5
B5D
331
2F7
  5
3A3
331
2B8
  5
344
331
242
  5
2CD
331
490
  5
1309
331
451
  5
B59
331
2F3
  5
39F
331
2B4
  5
340
331
27D
  5
30C
331
23E
  5
2C4
331
2B0
  5
33C
331
279
  5
308
331
23A
  5
2BE
331
101C
  5
13FB
331
13BD
  5
4DD
331
13FC
  5
188
331
13B9
  5
4D9
331
13F8
  5
184
331
130C
  5
145D
331
13B5
  5
4D5
331
13F4
  5
194
331
133B
  5
147C
331
13B1
  5
4D1
331
13F0
  5
190
331
1308
  5
1459
331
1436
  5
140E
331
1475
  5
154
331
1304
  5
1455
331
1432
  5
1412
331
1471
  5
159
331
1300
  5
1451
331
142E
  5
1416
331
146D
  5
163
331
142A
  5
141A
331
1469
  5
16F
331
1FF
  5
289
331
1FB
  5
284
331
185
  5
20E
331
B57
  5
13F1
331
417
  5
4F8
331
10E
  5
1C4
331
1F7
  5
280
331
181
  5
20A
331
B53
  5
13ED
331
413
  5
4F4
331
10A
  5
1C3
331
39C
  5
46B
331
326
  5
414
331
1F3
  5
27C
331
17D
  5
206
331
B4F
  5
13E9
331
106
  5
1C1
331
361
  5
45A
331
322
  5
3CE
331
1B0
  5
241
331
179
  5
202
331
35D
  5
456
331
102
  5
1B3
331
4C7
  5
133B
331
31E
  5
3CA
331
359
  5
452
331
4C3
  5
1337
331
31A
  5
3C6
331
48C
  5
1305
331
44D
  5
B55
331
2EF
  5
39B
331
4BF
  5
132B
331
488
  5
1301
331
449
  5
B51
331
2EB
  5
38B
331
2AC
  5
338
331
275
  5
304
331
236
  5
2BA
331
4BB
  5
1328
331
2E7
  5
37B
331
271
  5
300
331
232
  5
2B6
331
480
  5
12FD
331
2A4
  5
331
331
26D
  5
2FC
331
22E
  5
2B3
331
2A0
  5
32D
331
269
  5
2F8
331
22A
  5
2AF
331
1337
  5
1478
331
13AD
  5
4CD
331
13EC
  5
19E
331
13A9
  5
4C9
331
13E8
  5
24B
331
12FC
  5
144C
331
13A5
  5
4C5
331
13E4
  5
247
331
12F8
  5
1444
331
132B
  5
1441
331
13A1
  5
4C1
331
13E0
  5
26B
331
1426
  5
141E
331
1465
  5
178
331
12F4
  5
143C
331
1461
  5
17F
331
12F0
  5
1437
331
141E
  5
1426
331
145D
  5
181
331
1459
  5
18A
331
141A
  5
E6
331
528
  5
13D8
331
1EF
  5
278
331
992
  5
13E2
331
1EB
  5
274
331
1AC
  5
23D
331
175
  5
1FE
331
98F
  5
13DF
331
3CF
  5
4B2
331
FE
  5
1AF
331
1A8
  5
239
331
171
  5
1FA
331
98B
  5
13DB
331
3CB
  5
4AE
331
FA
  5
1AE
331
355
  5
44E
331
316
  5
3C2
331
1A4
  5
235
331
3C7
  5
4AA
331
16D
  5
1F6
331
351
  5
44A
331
312
  5
3BE
331
1A0
  5
231
331
3C3
  5
4A6
331
169
  5
1F2
331
34D
  5
446
331
4F6
  5
13AE
331
30E
  5
3BA
331
4B7
  5
1324
331
349
  5
437
331
4F2
  5
13AA
331
30A
  5
3B6
331
4B3
  5
1320
331
47C
  5
12F9
331
2DF
  5
36B
331
4EE
  5
13A6
331
4AF
  5
131C
331
478
  5
12F5
331
439
  5
B4C
331
2DB
  5
361
331
29C
  5
329
331
265
  5
2F5
331
4EA
  5
13A2
331
4AB
  5
1318
331
435
  5
992
331
2D7
  5
35D
331
261
  5
2F1
331
431
  5
98E
331
2D3
  5
35A
331
294
  5
322
331
25D
  5
2ED
331
21E
  5
2A9
331
290
  5
31E
331
259
  5
2E9
331
21A
  5
2A4
331
1327
  5
1449
331
139D
  5
4BC
331
13DC
  5
266
331
1323
  5
1475
331
1399
  5
4B8
331
13D8
  5
26F
331
131F
  5
1471
331
1395
  5
4B4
331
13D4
  5
351
331
12EC
  5
1433
331
131B
  5
146D
331
13D0
  5
4F0
331
12E8
  5
142F
331
1455
  5
18C
331
12E4
  5
142B
331
1451
  5
195
331
1412
  5
10E
331
12E0
  5
1427
331
144D
  5
19B
331
140E
  5
162
331
1449
  5
1A4
331
19C
  5
22C
331
527
  5
13D7
331
3BF
  5
4A2
331
165
  5
1EE
331
1D7
  5
265
331
198
  5
228
331
523
  5
13D3
331
3BB
  5
493
331
161
  5
1EA
331
345
  5
433
331
306
  5
3B2
331
1D3
  5
261
331
194
  5
21E
331
15D
  5
1D4
331
3B7
  5
48E
331
E6
  5
1A8
331
341
  5
42F
331
302
  5
3AE
331
190
  5
21A
331
513
  5
13CD
331
3B3
  5
48A
331
159
  5
1D0
331
33D
  5
42B
331
4E6
  5
139E
331
2FE
  5
3AA
331
4A7
  5
1314
331
339
  5
427
331
4E2
  5
139A
331
2FA
  5
3A6
331
4A3
  5
1310
331
46C
  5
12ED
331
42D
  5
66A
331
2CF
  5
356
331
4DE
  5
1396
331
468
  5
12E9
331
429
  5
526
331
28C
  5
31A
331
255
  5
2E5
331
216
  5
2A1
331
4DA
  5
1392
331
49B
  5
130D
331
464
  5
12E5
331
425
  5
522
331
288
  5
316
331
251
  5
2DD
331
212
  5
29D
331
460
  5
12E1
331
421
  5
514
331
2C3
  5
34D
331
284
  5
313
331
24D
  5
2D9
331
20E
  5
299
331
280
  5
30F
331
249
  5
2D4
331
20A
  5
294
331
13CC
  5
4EC
331
13C8
  5
4E8
331
1407
  5
171
331
13C4
  5
4E4
331
1317
  5
1469
331
13C0
  5
4E0
331
1445
  5
1401
331
1313
  5
1464
331
1441
  5
1405
331
143D
  5
1409
331
147C
  5
F9
331
1439
  5
140D
331
1478
  5
101
331
1CF
  5
25D
331
1CB
  5
259
331
3AF
  5
486
331
155
  5
1CC
331
206
  5
290
331
1C7
  5
255
331
3AB
  5
47E
331
151
  5
1C8
331
335
  5
423
331
202
  5
28C
331
1C3
  5
251
331
B5E
  5
13F8
331
41E
  5
511
331
18C
  5
215
331
3A7
  5
47A
331
331
  5
41F
331
188
  5
211
331
B5A
  5
13F4
331
41A
  5
501
331
111
  5
1C6
331
3A3
  5
476
331
4D6
  5
138E
331
32D
  5
41B
331
4D2
  5
138A
331
329
  5
417
331
45C
  5
F8C
331
2BF
  5
34B
331
4CE
  5
1386
331
458
  5
B60
331
2BB
  5
347
331
245
  5
2D0
331
509
  5
13C9
331
4CA
  5
1382
331
493
  5
130B
331
454
  5
B5C
331
2F6
  5
3A2
331
2B7
  5
343
331
241
  5
2CC
  0
SORTENTSTABLE
  5
ED1
102
{ACAD_REACTORS
330
ED0
102
}
330
ED0
100
AcDbSortentsTable
330
EAC
  0
SORTENTSTABLE
  5
F46
102
{ACAD_REACTORS
330
F45
102
}
330
F45
100
AcDbSortentsTable
330
EE4
  0
SORTENTSTABLE
  5
12DA
102
{ACAD_REACTORS
330
12D9
102
}
330
12D9
100
AcDbSortentsTable
330
118B
  0
XRECORD
  5
14C6
102
{ACAD_REACTORS
330
14C4
102
}
330
14C4
100
AcDbXrecord
280
     1
 70
     2
  0
XRECORD
  5
14C5
102
{ACAD_REACTORS
330
14C4
102
}
330
14C4
100
AcDbXrecord
280
     1
 40
1.25
  0
XRECORD
  5
14C7
102
{ACAD_REACTORS
330
14C4
102
}
330
14C4
100
AcDbXrecord
280
     1
 40
1.570796326794896
  0
LAYOUT
  5
39
102
{ACAD_XDICTIONARY
360
14EB
102
}
102
{ACAD_REACTORS
330
2E
102
}
330
2E
100
AcDbPlotSettings
  1

  2
PDF Complete
  4

  6

 40
0.0
 41
0.0
 42
0.0
 43
0.0
 44
0.0
 45
0.0
 46
0.0
 47
0.0
 48
0.0
 49
0.0
140
0.0
141
0.0
142
1.0
143
1.0
 70
  1712
 72
     0
 73
     0
 74
     0
  7

 75
     0
147
1.0
148
0.0
149
0.0
100
AcDbLayout
  1
Model
 70
     1
 71
     0
 10
0.0
 20
0.0
 11
12.0
 21
9.0
 12
0.0
 22
0.0
 32
0.0
 14
0.0
 24
0.0
 34
0.0
 15
0.0
 25
0.0
 35
0.0
146
0.0
 13
0.0
 23
0.0
 33
0.0
 16
1.0
 26
0.0
 36
0.0
 17
0.0
 27
1.0
 37
0.0
 76
     0
330
36
331
57
  0
LAYOUT
  5
35
102
{ACAD_XDICTIONARY
360
14E9
102
}
102
{ACAD_REACTORS
330
2E
102
}
330
2E
100
AcDbPlotSettings
  1

  2
PDF Complete
  4

  6

 40
0.0
 41
0.0
 42
0.0
 43
0.0
 44
0.0
 45
0.0
 46
0.0
 47
0.0
 48
0.0
 49
0.0
140
0.0
141
0.0
142
1.0
143
1.0
 70
   688
 72
     0
 73
     0
 74
     5
  7

 75
    16
147
1.0
148
0.0
149
0.0
100
AcDbLayout
  1
レイアウト1
 70
     1
 71
     1
 10
0.0
 20
0.0
 11
12.0
 21
9.0
 12
0.0
 22
0.0
 32
0.0
 14
1.000000000000000E+20
 24
1.000000000000000E+20
 34
1.000000000000000E+20
 15
-1.000000000000000E+20
 25
-1.000000000000000E+20
 35
-1.000000000000000E+20
146
0.0
 13
0.0
 23
0.0
 33
0.0
 16
1.0
 26
0.0
 36
0.0
 17
0.0
 27
1.0
 37
0.0
 76
     0
330
32
  0
MATERIAL
  5
12
102
{ACAD_XDICTIONARY
360
69C
102
}
102
{ACAD_REACTORS
330
10
102
}
330
10
100
AcDbMaterial
  1
ByBlock
  0
MATERIAL
  5
11
102
{ACAD_XDICTIONARY
360
69A
102
}
102
{ACAD_REACTORS
330
10
102
}
330
10
100
AcDbMaterial
  1
ByLayer
  0
MATERIAL
  5
13
102
{ACAD_XDICTIONARY
360
69E
102
}
102
{ACAD_REACTORS
330
10
102
}
330
10
100
AcDbMaterial
  1
Global
  0
MLEADERSTYLE
  5
6C9
102
{ACAD_REACTORS
330
6C8
102
}
330
6C8
100
AcDbMLeaderStyle
170
     2
171
     1
172
     0
 90
        2
 40
0.0
 41
0.0
173
     1
 91
-1056964608
340
28
 92
       -2
290
     1
 42
0.09
291
     1
 43
0.36
  3
Standard
 44
0.18
300

342
26
174
     1
178
     6
175
     1
176
     0
 93
-1056964608
 45
0.18
292
     0
297
     0
 46
0.18
 94
-1056964608
 47
1.0
 49
1.0
140
1.0
293
     1
141
0.0
294
     1
177
     0
142
1.0
295
     0
296
     0
143
0.125
1001
ACAD
1000
AcRTDxfName
1000
MLEADERSTYLE
1001
ACAD_MLEADERVER
1070
     2
  0
MLINESTYLE
  5
2C
102
{ACAD_REACTORS
330
2B
102
}
330
2B
100
AcDbMlineStyle
  2
STANDARD
 70
     0
  3

 62
   256
 51
90.0
 52
90.0
 71
     2
 49
0.5
 62
   256
  6
BYLAYER
 49
-0.5
 62
   256
  6
BYLAYER
  0
ACDBPLACEHOLDER
  5
F
102
{ACAD_REACTORS
330
E
102
}
330
E
  0
SCALE
  5
6B7
102
{ACAD_REACTORS
330
6B6
102
}
330
6B6
100
AcDbScale
 70
     0
300
1:1
140
1.0
141
1.0
290
     1
1001
ACAD
1000
AcRTDxfName
1000
SCALE
  0
SCALE
  5
6B8
102
{ACAD_REACTORS
330
6B6
102
}
330
6B6
100
AcDbScale
 70
     0
300
1/128" = 1'-0"
140
0.0078125
141
12.0
290
     0
1001
ACAD
1000
AcRTDxfName
1000
SCALE
  0
SCALE
  5
6B9
102
{ACAD_REACTORS
330
6B6
102
}
330
6B6
100
AcDbScale
 70
     0
300
1/64" = 1'-0"
140
0.015625
141
12.0
290
     0
1001
ACAD
1000
AcRTDxfName
1000
SCALE
  0
SCALE
  5
6BA
102
{ACAD_REACTORS
330
6B6
102
}
330
6B6
100
AcDbScale
 70
     0
300
1/32" = 1'-0"
140
0.03125
141
12.0
290
     0
1001
ACAD
1000
AcRTDxfName
1000
SCALE
  0
SCALE
  5
6BB
102
{ACAD_REACTORS
330
6B6
102
}
330
6B6
100
AcDbScale
 70
     0
300
1/16" = 1'-0"
140
0.0625
141
12.0
290
     0
1001
ACAD
1000
AcRTDxfName
1000
SCALE
  0
SCALE
  5
6BC
102
{ACAD_REACTORS
330
6B6
102
}
330
6B6
100
AcDbScale
 70
     0
300
3/32" = 1'-0"
140
0.09375
141
12.0
290
     0
1001
ACAD
1000
AcRTDxfName
1000
SCALE
  0
SCALE
  5
6BD
102
{ACAD_REACTORS
330
6B6
102
}
330
6B6
100
AcDbScale
 70
     0
300
1/8" = 1'-0"
140
0.125
141
12.0
290
     0
1001
ACAD
1000
AcRTDxfName
1000
SCALE
  0
SCALE
  5
6BE
102
{ACAD_REACTORS
330
6B6
102
}
330
6B6
100
AcDbScale
 70
     0
300
3/16" = 1'-0"
140
0.1875
141
12.0
290
     0
1001
ACAD
1000
AcRTDxfName
1000
SCALE
  0
SCALE
  5
6BF
102
{ACAD_REACTORS
330
6B6
102
}
330
6B6
100
AcDbScale
 70
     0
300
1/4" = 1'-0"
140
0.25
141
12.0
290
     0
1001
ACAD
1000
AcRTDxfName
1000
SCALE
  0
SCALE
  5
6C0
102
{ACAD_REACTORS
330
6B6
102
}
330
6B6
100
AcDbScale
 70
     0
300
3/8" = 1'-0"
140
0.375
141
12.0
290
     0
1001
ACAD
1000
AcRTDxfName
1000
SCALE
  0
SCALE
  5
6C1
102
{ACAD_REACTORS
330
6B6
102
}
330
6B6
100
AcDbScale
 70
     0
300
1/2" = 1'-0"
140
0.5
141
12.0
290
     0
1001
ACAD
1000
AcRTDxfName
1000
SCALE
  0
SCALE
  5
6C2
102
{ACAD_REACTORS
330
6B6
102
}
330
6B6
100
AcDbScale
 70
     0
300
3/4" = 1'-0"
140
0.75
141
12.0
290
     0
1001
ACAD
1000
AcRTDxfName
1000
SCALE
  0
SCALE
  5
6C3
102
{ACAD_REACTORS
330
6B6
102
}
330
6B6
100
AcDbScale
 70
     0
300
1" = 1'-0"
140
1.0
141
12.0
290
     0
1001
ACAD
1000
AcRTDxfName
1000
SCALE
  0
SCALE
  5
6C4
102
{ACAD_REACTORS
330
6B6
102
}
330
6B6
100
AcDbScale
 70
     0
300
1-1/2" = 1'-0"
140
1.5
141
12.0
290
     0
1001
ACAD
1000
AcRTDxfName
1000
SCALE
  0
SCALE
  5
6C5
102
{ACAD_REACTORS
330
6B6
102
}
330
6B6
100
AcDbScale
 70
     0
300
3" = 1'-0"
140
3.0
141
12.0
290
     0
1001
ACAD
1000
AcRTDxfName
1000
SCALE
  0
SCALE
  5
6C6
102
{ACAD_REACTORS
330
6B6
102
}
330
6B6
100
AcDbScale
 70
     0
300
6" = 1'-0"
140
6.0
141
12.0
290
     0
1001
ACAD
1000
AcRTDxfName
1000
SCALE
  0
SCALE
  5
6C7
102
{ACAD_REACTORS
330
6B6
102
}
330
6B6
100
AcDbScale
 70
     0
300
1'-0" = 1'-0"
140
12.0
141
12.0
290
     0
1001
ACAD
1000
AcRTDxfName
1000
SCALE
  0
TABLESTYLE
  5
31
102
{ACAD_XDICTIONARY
360
99F
102
}
102
{ACAD_REACTORS
330
30
102
}
330
30
100
AcDbTableStyle
  3
Standard
 70
     0
 71
     0
 40
0.06
 41
0.06
280
     0
281
     0
  7
STANDARD
140
0.18
170
     2
 62
     0
 63
     7
283
     0
274
    -2
284
     1
 64
     0
275
    -2
285
     1
 65
     0
276
    -2
286
     1
 66
     0
277
    -2
287
     1
 67
     0
278
    -2
288
     1
 68
     0
279
    -2
289
     1
 69
     0
  7
STANDARD
140
0.25
170
     5
 62
     0
 63
     7
283
     0
274
    -2
284
     1
 64
     0
275
    -2
285
     1
 65
     0
276
    -2
286
     1
 66
     0
277
    -2
287
     1
 67
     0
278
    -2
288
     1
 68
     0
279
    -2
289
     1
 69
     0
  7
STANDARD
140
0.18
170
     5
 62
     0
 63
     7
283
     0
274
    -2
284
     1
 64
     0
275
    -2
285
     1
 65
     0
276
    -2
286
     1
 66
     0
277
    -2
287
     1
 67
     0
278
    -2
288
     1
 68
     0
279
    -2
289
     1
 69
     0
  0
TABLESTYLE
  5
ED8
102
{ACAD_XDICTIONARY
360
ED9
102
}
102
{ACAD_REACTORS
330
30
102
}
330
30
100
AcDbTableStyle
  3
Standard
 70
     1
 71
     0
 40
1.5
 41
0.5
280
     0
281
     0
  7
高3.2
140
0.18
170
     7
 62
     3
 63
     7
283
     0
274
    -2
284
     1
 64
     3
275
    -2
285
     1
 65
     7
276
    -2
286
     1
 66
     3
277
    -2
287
     1
 67
     3
278
    -2
288
     1
 68
     7
279
    -2
289
     1
 69
     3
  7
高3.2
140
0.25
170
     8
 62
     3
 63
     7
283
     0
274
    -2
284
     1
 64
     0
275
    -2
285
     1
 65
     0
276
    -2
286
     1
 66
     0
277
    -2
287
     1
 67
     0
278
    -2
288
     1
 68
     0
279
    -2
289
     1
 69
     0
  7
高3.2
140
0.18
170
     7
 62
     3
 63
     7
283
     0
274
    -2
284
     1
 64
     3
275
    -2
285
     1
 65
     7
276
    -2
286
     1
 66
     3
277
    -2
287
     1
 67
     3
278
    -2
288
     1
 68
     7
279
    -2
289
     1
 69
     3
  0
VISUALSTYLE
  5
1A
102
{ACAD_XDICTIONARY
360
14D2
102
}
102
{ACAD_REACTORS
330
14
102
}
330
14
100
AcDbVisualStyle
  2

 70
     4
 71
     0
 72
     2
 73
     0
 90
        0
 40
-0.6
 41
-30.0
 62
     5
 63
     7
 74
     1
 91
        4
 64
     7
 65
   257
 75
     1
175
     1
 42
1.0
 92
        0
 66
   257
 43
1.0
 76
     1
 77
     6
 78
     2
 67
     7
 79
     5
170
     0
171
     0
290
     0
174
     0
 93
        1
 44
0.0
173
     0
291
     0
 45
0.0
1001
ACAD
1000
AcDbSavedByObjectVersion
1070
     0
  0
VISUALSTYLE
  5
1C
102
{ACAD_XDICTIONARY
360
14D6
102
}
102
{ACAD_REACTORS
330
14
102
}
330
14
100
AcDbVisualStyle
  2

 70
     6
 71
     1
 72
     2
 73
     2
 90
        0
 40
-0.6
 41
-30.0
 62
     5
 63
     7
 74
     2
 91
        2
 64
     7
 65
   257
 75
     2
175
     1
 42
40.0
 92
        0
 66
   257
 43
1.0
 76
     1
 77
     6
 78
     2
 67
     7
 79
     3
170
     0
171
     0
290
     0
174
     0
 93
        1
 44
0.0
173
     0
291
     0
 45
0.0
1001
ACAD
1000
AcDbSavedByObjectVersion
1070
     0
  0
VISUALSTYLE
  5
1B
102
{ACAD_XDICTIONARY
360
14D4
102
}
102
{ACAD_REACTORS
330
14
102
}
330
14
100
AcDbVisualStyle
  2

 70
     5
 71
     0
 72
     2
 73
     0
 90
        0
 40
-0.6
 41
-30.0
 62
     5
 63
     7
 74
     1
 91
        4
 64
     7
 65
   257
 75
     1
175
     1
 42
1.0
 92
        0
 66
   257
 43
1.0
 76
     1
 77
     6
 78
     2
 67
     7
 79
     5
170
     0
171
     0
290
     0
174
     0
 93
        1
 44
0.0
173
     0
291
     0
 45
0.0
1001
ACAD
1000
AcDbSavedByObjectVersion
1070
     0
  0
VISUALSTYLE
  5
19
102
{ACAD_XDICTIONARY
360
14D0
102
}
102
{ACAD_REACTORS
330
14
102
}
330
14
100
AcDbVisualStyle
  2

 70
     7
 71
     1
 72
     0
 73
     1
 90
        0
 40
-0.6
 41
-30.0
 62
     5
 63
     7
 74
     0
 91
        4
 64
     7
 65
   257
 75
     1
175
     1
 42
1.0
 92
        8
 66
     7
 43
1.0
 76
     1
 77
     6
 78
     2
 67
     7
 79
     5
170
     0
171
     0
290
     0
174
     0
 93
        1
 44
0.0
173
     0
291
     1
 45
0.0
1001
ACAD
1000
AcDbSavedByObjectVersion
1070
     0
  0
VISUALSTYLE
  5
20
102
{ACAD_XDICTIONARY
360
14DE
102
}
102
{ACAD_REACTORS
330
14
102
}
330
14
100
AcDbVisualStyle
  2

 70
    12
 71
     2
 72
     2
 73
     0
 90
        0
 40
-0.6
 41
-30.0
 62
     5
 63
     7
 74
     1
 91
        4
 64
     7
 65
   257
 75
     1
175
     1
 42
1.0
 92
        8
 66
     7
 43
1.0
 76
     1
 77
     6
 78
     2
 67
     7
 79
     5
170
     0
171
     0
290
     0
174
     0
 93
        1
 44
50.0
173
     0
291
     1
 45
0.0
1001
ACAD
1000
AcDbSavedByObjectVersion
1070
     0
  0
VISUALSTYLE
  5
24
102
{ACAD_XDICTIONARY
360
14E6
102
}
102
{ACAD_REACTORS
330
14
102
}
330
14
100
AcDbVisualStyle
  2

 70
    16
 71
     2
 72
     2
 73
     3
 90
        0
 40
-0.6
 41
-30.0
 62
     5
 63
     8
 74
     1
 91
        4
 64
     7
 65
   257
 75
     1
175
     1
 42
1.0
 92
        8
 66
     8
 43
1.0
 76
     1
 77
     6
 78
     2
 67
     7
 79
     5
170
     0
171
     0
290
     0
174
     0
 93
        1
 44
0.0
173
     0
291
     1
 45
0.0
1001
ACAD
1000
AcDbSavedByObjectVersion
1070
     0
  0
VISUALSTYLE
  5
1D
102
{ACAD_XDICTIONARY
360
14D8
102
}
102
{ACAD_REACTORS
330
14
102
}
330
14
100
AcDbVisualStyle
  2

 70
     9
 71
     3
 72
     2
 73
     0
 90
        0
 40
-0.6
 41
-30.0
 62
     5
 63
     7
 74
     2
 91
        2
 64
     7
 65
   257
 75
     1
175
     1
 42
40.0
 92
        8
 66
     7
 43
1.0
 76
     1
 77
     6
 78
     2
 67
     7
 79
     3
170
     0
171
     0
290
     0
174
     0
 93
        1
 44
0.0
173
     0
291
     0
 45
0.0
1001
ACAD
1000
AcDbSavedByObjectVersion
1070
     0
  0
VISUALSTYLE
  5
1F
102
{ACAD_XDICTIONARY
360
14DC
102
}
102
{ACAD_REACTORS
330
14
102
}
330
14
100
AcDbVisualStyle
  2

 70
    11
 71
     2
 72
     2
 73
     0
 90
        0
 40
-0.6
 41
-30.0
 62
     5
 63
     7
 74
     1
 91
        4
 64
     7
 65
   257
 75
     1
175
     1
 42
1.0
 92
        8
 66
     7
 43
1.0
 76
     1
 77
     6
 78
     2
 67
     7
 79
     5
170
     0
171
     0
290
     0
174
     0
 93
        1
 44
-50.0
173
     0
291
     1
 45
0.0
1001
ACAD
1000
AcDbSavedByObjectVersion
1070
     0
  0
VISUALSTYLE
  5
6B5
102
{ACAD_XDICTIONARY
360
14FF
102
}
102
{ACAD_REACTORS
330
14
102
}
330
14
100
AcDbVisualStyle
  2

 70
    22
 71
     2
 72
     2
 73
     0
 90
        0
 40
-0.6
 41
-30.0
 62
     5
 63
     7
 74
     1
 91
        4
 64
     7
 65
   257
 75
     1
175
     1
 42
1.0
 92
        8
 66
     7
 43
1.0
 76
     1
 77
     6
 78
     2
 67
     7
 79
     5
170
     0
171
     0
290
     0
174
     0
 93
        1
 44
0.0
173
     0
291
     1
 45
0.0
1001
ACAD
1000
AcDbSavedByObjectVersion
1070
     0
  0
VISUALSTYLE
  5
23
102
{ACAD_XDICTIONARY
360
14E4
102
}
102
{ACAD_REACTORS
330
14
102
}
330
14
100
AcDbVisualStyle
  2

 70
    15
 71
     2
 72
     2
 73
     0
 90
        0
 40
-0.6
 41
-30.0
 62
     5
 63
     7
 74
     1
 91
        4
 64
     7
 65
   257
 75
     1
175
     1
 42
1.0
 92
        8
 66
     7
 43
1.0
 76
     1
 77
     6
 78
     2
 67
     7
 79
     5
170
     0
171
     0
290
     0
174
     0
 93
        1
 44
0.0
173
     0
291
     1
 45
0.0
1001
ACAD
1000
AcDbSavedByObjectVersion
1070
     0
  0
VISUALSTYLE
  5
15
102
{ACAD_XDICTIONARY
360
14C8
102
}
102
{ACAD_REACTORS
330
14
102
}
330
14
100
AcDbVisualStyle
  2

 70
     0
 71
     2
 72
     1
 73
     1
 90
        2
 40
-0.6
 41
30.0
 62
     5
 63
     7
 74
     0
 91
        4
 64
     7
 65
   257
 75
     1
175
     1
 42
1.0
 92
        8
 66
     7
 43
1.0
 76
     1
 77
     6
 78
     2
 67
     7
 79
     5
170
     0
171
     0
290
     0
174
     0
 93
       13
 44
0.0
173
     0
291
     1
 45
0.0
1001
ACAD
1000
AcDbSavedByObjectVersion
1070
     0
  0
VISUALSTYLE
  5
16
102
{ACAD_XDICTIONARY
360
14CA
102
}
102
{ACAD_REACTORS
330
14
102
}
330
14
100
AcDbVisualStyle
  2

 70
     1
 71
     2
 72
     1
 73
     1
 90
        2
 40
-0.6
 41
30.0
 62
     5
 63
     7
 74
     1
 91
        4
 64
     7
 65
   257
 75
     1
175
     1
 42
1.0
 92
        0
 66
   257
 43
1.0
 76
     1
 77
     6
 78
     2
 67
     7
 79
     5
170
     0
171
     0
290
     0
174
     0
 93
       13
 44
0.0
173
     0
291
     1
 45
0.0
1001
ACAD
1000
AcDbSavedByObjectVersion
1070
     0
  0
VISUALSTYLE
  5
17
102
{ACAD_XDICTIONARY
360
14CC
102
}
102
{ACAD_REACTORS
330
14
102
}
330
14
100
AcDbVisualStyle
  2

 70
     2
 71
     2
 72
     2
 73
     1
 90
        2
 40
-0.6
 41
30.0
 62
     5
 63
     7
 74
     0
 91
        4
 64
     7
 65
   257
 75
     1
175
     1
 42
1.0
 92
        0
 66
     7
 43
1.0
 76
     1
 77
     6
 78
     2
 67
     7
 79
     5
170
     0
171
     0
290
     0
174
     0
 93
       13
 44
0.0
173
     0
291
     1
 45
0.0
1001
ACAD
1000
AcDbSavedByObjectVersion
1070
     0
  0
VISUALSTYLE
  5
18
102
{ACAD_XDICTIONARY
360
14CE
102
}
102
{ACAD_REACTORS
330
14
102
}
330
14
100
AcDbVisualStyle
  2

 70
     3
 71
     2
 72
     2
 73
     1
 90
        2
 40
-0.6
 41
30.0
 62
     5
 63
     7
 74
     1
 91
        4
 64
     7
 65
   257
 75
     1
175
     1
 42
1.0
 92
        0
 66
   257
 43
1.0
 76
     1
 77
     6
 78
     2
 67
     7
 79
     5
170
     0
171
     0
290
     0
174
     0
 93
       13
 44
0.0
173
     0
291
     1
 45
0.0
1001
ACAD
1000
AcDbSavedByObjectVersion
1070
     0
  0
VISUALSTYLE
  5
6AD
102
{ACAD_XDICTIONARY
360
14EF
102
}
102
{ACAD_REACTORS
330
14
102
}
330
14
100
AcDbVisualStyle
  2

 70
     6
 71
     1
 72
     2
 73
     2
 90
        0
 40
-0.6
 41
-30.0
 62
     5
 63
     7
 74
     2
 91
        2
 64
     7
 65
   257
 75
     2
175
     1
 42
40.0
 92
        0
 66
   257
 43
1.0
 76
     1
 77
     6
 78
     2
 67
     7
 79
     3
170
     0
171
     0
290
     0
174
     0
 93
        1
 44
0.0
173
     0
291
     0
 45
0.0
1001
ACAD
1000
AcDbSavedByObjectVersion
1070
     0
  0
VISUALSTYLE
  5
6B3
102
{ACAD_XDICTIONARY
360
14FB
102
}
102
{ACAD_REACTORS
330
14
102
}
330
14
100
AcDbVisualStyle
  2

 70
    20
 71
     2
 72
     2
 73
     0
 90
        0
 40
-0.6
 41
-30.0
 62
     5
 63
     7
 74
     1
 91
        4
 64
     7
 65
   257
 75
     1
175
     1
 42
1.0
 92
       10
 66
     7
 43
1.0
 76
     1
 77
     6
 78
     2
 67
     7
 79
     5
170
     0
171
     0
290
     0
174
     0
 93
        1
 44
0.0
173
     0
291
     1
 45
0.0
1001
ACAD
1000
AcDbSavedByObjectVersion
1070
     0
  0
VISUALSTYLE
  5
22
102
{ACAD_XDICTIONARY
360
14E2
102
}
102
{ACAD_REACTORS
330
14
102
}
330
14
100
AcDbVisualStyle
  2

 70
    14
 71
     2
 72
     2
 73
     0
 90
        0
 40
-0.6
 41
-30.0
 62
     5
 63
     7
 74
     1
 91
        4
 64
     7
 65
   257
 75
     7
175
     7
 42
1.0
 92
        8
 66
     7
 43
1.0
 76
     1
 77
     6
 78
     2
 67
     7
 79
     5
170
     0
171
     0
290
     0
174
     0
 93
        1
 44
0.0
173
     0
291
     1
 45
0.0
1001
ACAD
1000
AcDbSavedByObjectVersion
1070
     0
  0
VISUALSTYLE
  5
6B4
102
{ACAD_XDICTIONARY
360
14FD
102
}
102
{ACAD_REACTORS
330
14
102
}
330
14
100
AcDbVisualStyle
  2

 70
    21
 71
     2
 72
     2
 73
     0
 90
        0
 40
-0.6
 41
-30.0
 62
     5
 63
     7
 74
     1
 91
        4
 64
     7
 65
   257
 75
     1
175
     1
 42
1.0
 92
        9
 66
     7
 43
1.0
 76
     1
 77
     6
 78
     2
 67
     7
 79
     5
170
     0
171
     0
290
     0
174
     0
 93
        1
 44
0.0
173
     0
291
     1
 45
0.0
1001
ACAD
1000
AcDbSavedByObjectVersion
1070
     0
  0
VISUALSTYLE
  5
1E
102
{ACAD_XDICTIONARY
360
14DA
102
}
102
{ACAD_REACTORS
330
14
102
}
330
14
100
AcDbVisualStyle
  2

 70
     8
 71
     2
 72
     2
 73
     0
 90
        0
 40
-0.6
 41
-30.0
 62
     5
 63
     7
 74
     1
 91
        0
 64
     7
 65
   257
 75
     1
175
     1
 42
1.0
 92
        8
 66
     8
 43
1.0
 76
     1
 77
     6
 78
     2
 67
     7
 79
     5
170
     0
171
     0
290
     0
174
     0
 93
       13
 44
0.0
173
     0
291
     0
 45
0.0
1001
ACAD
1000
AcDbSavedByObjectVersion
1070
     0
  0
VISUALSTYLE
  5
6B2
102
{ACAD_XDICTIONARY
360
14F9
102
}
102
{ACAD_REACTORS
330
14
102
}
330
14
100
AcDbVisualStyle
  2

 70
    27
 71
     2
 72
     2
 73
     1
 90
        2
 40
-0.6
 41
30.0
 62
     5
 63
     7
 74
     0
 91
        4
 64
     7
 65
   257
 75
     1
175
     1
 42
1.0
 92
        8
 66
   257
 43
1.0
 76
     1
 77
     6
 78
     2
 67
     8
 79
     3
170
     0
171
     0
290
     0
174
     0
 93
        5
 44
0.0
173
     0
291
     0
 45
0.0
1001
ACAD
1000
AcDbSavedByObjectVersion
1070
     0
  0
VISUALSTYLE
  5
6B1
102
{ACAD_XDICTIONARY
360
14F7
102
}
102
{ACAD_REACTORS
330
14
102
}
330
14
100
AcDbVisualStyle
  2

 70
    26
 71
     2
 72
     2
 73
     1
 90
        2
 40
-0.6
 41
30.0
 62
     5
 63
     7
 74
     1
 91
       10
 64
     7
 65
   257
 75
     2
175
     1
 42
1.0
 92
        8
 66
   257
 43
1.0
 76
     1
 77
     6
 78
     2
 67
     7
 79
     3
170
     0
171
     0
290
     0
174
     0
 93
        5
 44
0.0
173
     0
291
     0
 45
0.0
1001
ACAD
1000
AcDbSavedByObjectVersion
1070
     0
  0
VISUALSTYLE
  5
6AE
102
{ACAD_XDICTIONARY
360
14F1
102
}
102
{ACAD_REACTORS
330
14
102
}
330
14
100
AcDbVisualStyle
  2

 70
    23
 71
     2
 72
     2
 73
     3
 90
        0
 40
-0.6
 41
-30.0
 62
     5
 63
     7
 74
     2
 91
        2
 64
     7
 65
     7
 75
     1
175
     1
 42
40.0
 92
        8
 66
     7
 43
1.0
 76
     1
 77
     6
 78
     2
 67
     7
 79
     3
170
     0
171
     0
290
     0
174
     0
 93
        1
 44
0.0
173
     0
291
     0
 45
0.0
1001
ACAD
1000
AcDbSavedByObjectVersion
1070
     0
  0
VISUALSTYLE
  5
6AF
102
{ACAD_XDICTIONARY
360
14F3
102
}
102
{ACAD_REACTORS
330
14
102
}
330
14
100
AcDbVisualStyle
  2

 70
    24
 71
     1
 72
     2
 73
     2
 90
        0
 40
-0.6
 41
-30.0
 62
     5
 63
     7
 74
     2
 91
        2
 64
     7
 65
     7
 75
     1
175
     1
 42
40.0
 92
       11
 66
     7
 43
1.0
 76
     1
 77
     6
 78
     2
 67
     7
 79
     6
170
     0
171
     0
290
     0
174
     0
 93
        1
 44
0.0
173
     0
291
     0
 45
0.0
1001
ACAD
1000
AcDbSavedByObjectVersion
1070
     0
  0
VISUALSTYLE
  5
21
102
{ACAD_XDICTIONARY
360
14E0
102
}
102
{ACAD_REACTORS
330
14
102
}
330
14
100
AcDbVisualStyle
  2

 70
    13
 71
     2
 72
     2
 73
     0
 90
        0
 40
-0.6
 41
-30.0
 62
     5
 63
     7
 74
     1
 91
        4
 64
     7
 65
   257
 75
     1
175
     1
 42
1.0
 92
       12
 66
     7
 43
1.0
 76
     1
 77
     6
 78
     2
 67
     7
 79
     5
170
     0
171
     0
290
     0
174
     0
 93
        1
 44
0.0
173
     0
291
     1
 45
0.0
1001
ACAD
1000
AcDbSavedByObjectVersion
1070
     0
  0
VISUALSTYLE
  5
6AC
102
{ACAD_XDICTIONARY
360
14ED
102
}
102
{ACAD_REACTORS
330
14
102
}
330
14
100
AcDbVisualStyle
  2

 70
     5
 71
     0
 72
     2
 73
     0
 90
        0
 40
-0.6
 41
-30.0
 62
     5
 63
     7
 74
     1
 91
        4
 64
     7
 65
   257
 75
     1
175
     1
 42
1.0
 92
        0
 66
   257
 43
1.0
 76
     1
 77
     6
 78
     2
 67
     7
 79
     3
170
     0
171
     0
290
     0
174
     0
 93
        1
 44
0.0
173
     0
291
     0
 45
0.0
1001
ACAD
1000
AcDbSavedByObjectVersion
1070
     0
  0
VISUALSTYLE
  5
6B0
102
{ACAD_XDICTIONARY
360
14F5
102
}
102
{ACAD_REACTORS
330
14
102
}
330
14
100
AcDbVisualStyle
  2

 70
    25
 71
     2
 72
     2
 73
     1
 90
        1
 40
0.5
 41
-30.0
 62
     5
 63
     7
 74
     1
 91
        0
 64
     7
 65
   257
 75
     1
175
     1
 42
1.0
 92
        8
 66
     7
 43
1.0
 76
     1
 77
     6
 78
     2
 67
     7
 79
     3
170
     0
171
     0
290
     0
174
     0
 93
       13
 44
0.0
173
     0
291
     0
 45
0.0
1001
ACAD
1000
AcDbSavedByObjectVersion
1070
     0
  0
DICTIONARYVAR
  5
99D
102
{ACAD_REACTORS
330
67D
102
}
330
67D
100
DictionaryVariables
280
     0
  1
1:1
  0
DICTIONARYVAR
  5
99C
102
{ACAD_REACTORS
330
67D
102
}
330
67D
100
DictionaryVariables
280
     0
  1
STANDARD
  0
DICTIONARYVAR
  5
67E
102
{ACAD_REACTORS
330
67D
102
}
330
67D
100
DictionaryVariables
280
     0
  1
STANDARD
  0
DICTIONARYVAR
  5
681
102
{ACAD_REACTORS
330
67D
102
}
330
67D
100
DictionaryVariables
280
     0
  1
1
  0
DICTIONARYVAR
  5
680
102
{ACAD_REACTORS
330
67D
102
}
330
67D
100
DictionaryVariables
280
     0
  1
0
  0
DICTIONARYVAR
  5
67F
102
{ACAD_REACTORS
330
67D
102
}
330
67D
100
DictionaryVariables
280
     0
  1
127
  0
DICTIONARYVAR
  5
133E
102
{ACAD_REACTORS
330
67D
102
}
330
67D
100
DictionaryVariables
280
     0
  1
2
  0
DICTIONARY
  5
14EB
330
39
100
AcDbDictionary
280
     1
281
     1
  3
ACAD_XREC_ROUNDTRIP
360
14EC
  0
DICTIONARY
  5
14E9
330
35
100
AcDbDictionary
280
     1
281
     1
  3
ACAD_XREC_ROUNDTRIP
360
14EA
  0
DICTIONARY
  5
69C
330
12
100
AcDbDictionary
280
     1
281
     1
  3
ACAD_XREC_ROUNDTRIP
360
69D
  0
DICTIONARY
  5
69A
330
11
100
AcDbDictionary
280
     1
281
     1
  3
ACAD_XREC_ROUNDTRIP
360
69B
  0
DICTIONARY
  5
69E
330
13
100
AcDbDictionary
280
     1
281
     1
  3
ACAD_XREC_ROUNDTRIP
360
69F
  0
DICTIONARY
  5
99F
330
31
100
AcDbDictionary
280
     1
281
     1
  3
ACAD_ROUNDTRIP_2008_TABLESTYLE_CELLSTYLEMAP
360
14C0
  3
ACAD_XREC_ROUNDTRIP
360
14E8
  0
DICTIONARY
  5
ED9
330
ED8
100
AcDbDictionary
280
     1
281
     1
  3
ACAD_ROUNDTRIP_2008_TABLESTYLE_CELLSTYLEMAP
360
14C1
  3
ACAD_XREC_ROUNDTRIP
360
1501
  0
DICTIONARY
  5
14D2
330
1A
100
AcDbDictionary
280
     1
281
     1
  3
ACAD_XREC_ROUNDTRIP
360
14D3
  0
DICTIONARY
  5
14D6
330
1C
100
AcDbDictionary
280
     1
281
     1
  3
ACAD_XREC_ROUNDTRIP
360
14D7
  0
DICTIONARY
  5
14D4
330
1B
100
AcDbDictionary
280
     1
281
     1
  3
ACAD_XREC_ROUNDTRIP
360
14D5
  0
DICTIONARY
  5
14D0
330
19
100
AcDbDictionary
280
     1
281
     1
  3
ACAD_XREC_ROUNDTRIP
360
14D1
  0
DICTIONARY
  5
14DE
330
20
100
AcDbDictionary
280
     1
281
     1
  3
ACAD_XREC_ROUNDTRIP
360
14DF
  0
DICTIONARY
  5
14E6
330
24
100
AcDbDictionary
280
     1
281
     1
  3
ACAD_XREC_ROUNDTRIP
360
14E7
  0
DICTIONARY
  5
14D8
330
1D
100
AcDbDictionary
280
     1
281
     1
  3
ACAD_XREC_ROUNDTRIP
360
14D9
  0
DICTIONARY
  5
14DC
330
1F
100
AcDbDictionary
280
     1
281
     1
  3
ACAD_XREC_ROUNDTRIP
360
14DD
  0
DICTIONARY
  5
14FF
330
6B5
100
AcDbDictionary
280
     1
281
     1
  3
ACAD_XREC_ROUNDTRIP
360
1500
  0
DICTIONARY
  5
14E4
330
23
100
AcDbDictionary
280
     1
281
     1
  3
ACAD_XREC_ROUNDTRIP
360
14E5
  0
DICTIONARY
  5
14C8
330
15
100
AcDbDictionary
280
     1
281
     1
  3
ACAD_XREC_ROUNDTRIP
360
14C9
  0
DICTIONARY
  5
14CA
330
16
100
AcDbDictionary
280
     1
281
     1
  3
ACAD_XREC_ROUNDTRIP
360
14CB
  0
DICTIONARY
  5
14CC
330
17
100
AcDbDictionary
280
     1
281
     1
  3
ACAD_XREC_ROUNDTRIP
360
14CD
  0
DICTIONARY
  5
14CE
330
18
100
AcDbDictionary
280
     1
281
     1
  3
ACAD_XREC_ROUNDTRIP
360
14CF
  0
DICTIONARY
  5
14EF
330
6AD
100
AcDbDictionary
280
     1
281
     1
  3
ACAD_XREC_ROUNDTRIP
360
14F0
  0
DICTIONARY
  5
14FB
330
6B3
100
AcDbDictionary
280
     1
281
     1
  3
ACAD_XREC_ROUNDTRIP
360
14FC
  0
DICTIONARY
  5
14E2
330
22
100
AcDbDictionary
280
     1
281
     1
  3
ACAD_XREC_ROUNDTRIP
360
14E3
  0
DICTIONARY
  5
14FD
330
6B4
100
AcDbDictionary
280
     1
281
     1
  3
ACAD_XREC_ROUNDTRIP
360
14FE
  0
DICTIONARY
  5
14DA
330
1E
100
AcDbDictionary
280
     1
281
     1
  3
ACAD_XREC_ROUNDTRIP
360
14DB
  0
DICTIONARY
  5
14F9
330
6B2
100
AcDbDictionary
280
     1
281
     1
  3
ACAD_XREC_ROUNDTRIP
360
14FA
  0
DICTIONARY
  5
14F7
330
6B1
100
AcDbDictionary
280
     1
281
     1
  3
ACAD_XREC_ROUNDTRIP
360
14F8
  0
DICTIONARY
  5
14F1
330
6AE
100
AcDbDictionary
280
     1
281
     1
  3
ACAD_XREC_ROUNDTRIP
360
14F2
  0
DICTIONARY
  5
14F3
330
6AF
100
AcDbDictionary
280
     1
281
     1
  3
ACAD_XREC_ROUNDTRIP
360
14F4
  0
DICTIONARY
  5
14E0
330
21
100
AcDbDictionary
280
     1
281
     1
  3
ACAD_XREC_ROUNDTRIP
360
14E1
  0
DICTIONARY
  5
14ED
330
6AC
100
AcDbDictionary
280
     1
281
     1
  3
ACAD_XREC_ROUNDTRIP
360
14EE
  0
DICTIONARY
  5
14F5
330
6B0
100
AcDbDictionary
280
     1
281
     1
  3
ACAD_XREC_ROUNDTRIP
360
14F6
  0
XRECORD
  5
14EC
102
{ACAD_REACTORS
330
14EB
102
}
330
14EB
100
AcDbXrecord
280
     1
102
SHADEPLOT
 70
     0
102
SHADEPLOTRESLEVEL
 70
     2
102
SHADEPLOTCUSTOMDPI
 70
   300
  0
XRECORD
  5
14EA
102
{ACAD_REACTORS
330
14E9
102
}
330
14E9
100
AcDbXrecord
280
     1
102
SHADEPLOT
 70
     0
102
SHADEPLOTRESLEVEL
 70
     2
102
SHADEPLOTCUSTOMDPI
 70
   300
  0
XRECORD
  5
69D
102
{ACAD_REACTORS
330
69C
102
}
330
69C
100
AcDbXrecord
280
     1
102
MATERIAL
148
0.0
149
0.0
149
0.0
 93
        0
 94
      127
282
     0
 72
     1
 77
     1
171
     1
175
     1
179
     1
273
     0
  0
XRECORD
  5
69B
102
{ACAD_REACTORS
330
69A
102
}
330
69A
100
AcDbXrecord
280
     1
102
MATERIAL
148
0.0
149
0.0
149
0.0
 93
        0
 94
      127
282
     0
 72
     1
 77
     1
171
     1
175
     1
179
     1
273
     0
  0
XRECORD
  5
69F
102
{ACAD_REACTORS
330
69E
102
}
330
69E
100
AcDbXrecord
280
     1
102
MATERIAL
148
0.0
149
0.0
149
0.0
 93
        0
 94
      127
282
     0
 72
     1
 77
     1
171
     1
175
     1
179
     1
273
     0
  0
CELLSTYLEMAP
  5
14C0
102
{ACAD_REACTORS
330
99F
102
}
330
99F
100
AcDbCellStyleMap
 90
        3
300
CELLSTYLE
  1
TABLEFORMAT_BEGIN
 90
        5
170
     1
 91
        0
 92
    32768
 62
   257
 93
        1
300
CONTENTFORMAT
  1
CONTENTFORMAT_BEGIN
 90
        0
 91
        0
 92
      512
 93
        0
300

 40
0.0
140
1.0
 94
        5
 62
     0
340
26
144
0.25
309
CONTENTFORMAT_END
171
     1
301
MARGIN
  1
CELLMARGIN_BEGIN
 40
0.06
 40
0.06
 40
0.06
 40
0.06
 40
0.18
 40
0.18
309
CELLMARGIN_END
 94
        6
 95
        1
302
GRIDFORMAT
  1
GRIDFORMAT_BEGIN
 90
        0
 91
        1
 62
     0
 92
       -2
340
0
 93
        0
 40
0.045
309
GRIDFORMAT_END
 95
        2
302
GRIDFORMAT
  1
GRIDFORMAT_BEGIN
 90
        0
 91
        1
 62
     0
 92
       -2
340
0
 93
        0
 40
0.045
309
GRIDFORMAT_END
 95
        4
302
GRIDFORMAT
  1
GRIDFORMAT_BEGIN
 90
        0
 91
        1
 62
     0
 92
       -2
340
0
 93
        0
 40
0.045
309
GRIDFORMAT_END
 95
        8
302
GRIDFORMAT
  1
GRIDFORMAT_BEGIN
 90
        0
 91
        1
 62
     0
 92
       -2
340
0
 93
        0
 40
0.045
309
GRIDFORMAT_END
 95
       16
302
GRIDFORMAT
  1
GRIDFORMAT_BEGIN
 90
        0
 91
        1
 62
     0
 92
       -2
340
0
 93
        0
 40
0.045
309
GRIDFORMAT_END
 95
       32
302
GRIDFORMAT
  1
GRIDFORMAT_BEGIN
 90
        0
 91
        1
 62
     0
 92
       -2
340
0
 93
        0
 40
0.045
309
GRIDFORMAT_END
309
TABLEFORMAT_END
  1
CELLSTYLE_BEGIN
 90
        1
 91
        1
300
_TITLE
309
CELLSTYLE_END
300
CELLSTYLE
  1
TABLEFORMAT_BEGIN
 90
        5
170
     1
 91
        0
 92
        0
 62
   257
 93
        1
300
CONTENTFORMAT
  1
CONTENTFORMAT_BEGIN
 90
        0
 91
        0
 92
      512
 93
        0
300

 40
0.0
140
1.0
 94
        5
 62
     0
340
26
144
0.18
309
CONTENTFORMAT_END
171
     1
301
MARGIN
  1
CELLMARGIN_BEGIN
 40
0.06
 40
0.06
 40
0.06
 40
0.06
 40
0.18
 40
0.18
309
CELLMARGIN_END
 94
        6
 95
        1
302
GRIDFORMAT
  1
GRIDFORMAT_BEGIN
 90
        0
 91
        1
 62
     0
 92
       -2
340
0
 93
        0
 40
0.045
309
GRIDFORMAT_END
 95
        2
302
GRIDFORMAT
  1
GRIDFORMAT_BEGIN
 90
        0
 91
        1
 62
     0
 92
       -2
340
0
 93
        0
 40
0.045
309
GRIDFORMAT_END
 95
        4
302
GRIDFORMAT
  1
GRIDFORMAT_BEGIN
 90
        0
 91
        1
 62
     0
 92
       -2
340
0
 93
        0
 40
0.045
309
GRIDFORMAT_END
 95
        8
302
GRIDFORMAT
  1
GRIDFORMAT_BEGIN
 90
        0
 91
        1
 62
     0
 92
       -2
340
0
 93
        0
 40
0.045
309
GRIDFORMAT_END
 95
       16
302
GRIDFORMAT
  1
GRIDFORMAT_BEGIN
 90
        0
 91
        1
 62
     0
 92
       -2
340
0
 93
        0
 40
0.045
309
GRIDFORMAT_END
 95
       32
302
GRIDFORMAT
  1
GRIDFORMAT_BEGIN
 90
        0
 91
        1
 62
     0
 92
       -2
340
0
 93
        0
 40
0.045
309
GRIDFORMAT_END
309
TABLEFORMAT_END
  1
CELLSTYLE_BEGIN
 90
        2
 91
        1
300
_HEADER
309
CELLSTYLE_END
300
CELLSTYLE
  1
TABLEFORMAT_BEGIN
 90
        5
170
     1
 91
        0
 92
        0
 62
   257
 93
        1
300
CONTENTFORMAT
  1
CONTENTFORMAT_BEGIN
 90
        0
 91
        0
 92
      512
 93
        0
300

 40
0.0
140
1.0
 94
        2
 62
     0
340
26
144
0.18
309
CONTENTFORMAT_END
171
     1
301
MARGIN
  1
CELLMARGIN_BEGIN
 40
0.06
 40
0.06
 40
0.06
 40
0.06
 40
0.18
 40
0.18
309
CELLMARGIN_END
 94
        6
 95
        1
302
GRIDFORMAT
  1
GRIDFORMAT_BEGIN
 90
        0
 91
        1
 62
     0
 92
       -2
340
0
 93
        0
 40
0.045
309
GRIDFORMAT_END
 95
        2
302
GRIDFORMAT
  1
GRIDFORMAT_BEGIN
 90
        0
 91
        1
 62
     0
 92
       -2
340
0
 93
        0
 40
0.045
309
GRIDFORMAT_END
 95
        4
302
GRIDFORMAT
  1
GRIDFORMAT_BEGIN
 90
        0
 91
        1
 62
     0
 92
       -2
340
0
 93
        0
 40
0.045
309
GRIDFORMAT_END
 95
        8
302
GRIDFORMAT
  1
GRIDFORMAT_BEGIN
 90
        0
 91
        1
 62
     0
 92
       -2
340
0
 93
        0
 40
0.045
309
GRIDFORMAT_END
 95
       16
302
GRIDFORMAT
  1
GRIDFORMAT_BEGIN
 90
        0
 91
        1
 62
     0
 92
       -2
340
0
 93
        0
 40
0.045
309
GRIDFORMAT_END
 95
       32
302
GRIDFORMAT
  1
GRIDFORMAT_BEGIN
 90
        0
 91
        1
 62
     0
 92
       -2
340
0
 93
        0
 40
0.045
309
GRIDFORMAT_END
309
TABLEFORMAT_END
  1
CELLSTYLE_BEGIN
 90
        3
 91
        2
300
_DATA
309
CELLSTYLE_END
  0
XRECORD
  5
14E8
102
{ACAD_REACTORS
330
99F
102
}
330
99F
100
AcDbXrecord
280
     1
102
ACAD_ROUNDTRIP_PRE2007_TABLESTYLE
 90
      512
 91
        0
  1

 92
      512
 93
        0
  2

 94
      512
 95
        0
  3

  0
CELLSTYLEMAP
  5
14C1
102
{ACAD_REACTORS
330
ED9
102
}
330
ED9
100
AcDbCellStyleMap
 90
        3
300
CELLSTYLE
  1
TABLEFORMAT_BEGIN
 90
        5
170
     1
 91
        0
 92
    32768
 62
   257
 93
        1
300
CONTENTFORMAT
  1
CONTENTFORMAT_BEGIN
 90
        0
 91
        0
 92
      512
 93
        0
300

 40
0.0
140
1.0
 94
        8
 62
     3
340
557
144
0.25
309
CONTENTFORMAT_END
171
     1
301
MARGIN
  1
CELLMARGIN_BEGIN
 40
0.5
 40
10.0
 40
0.06
 40
0.06
 40
0.18
 40
0.18
309
CELLMARGIN_END
 94
        6
 95
        1
302
GRIDFORMAT
  1
GRIDFORMAT_BEGIN
 90
        0
 91
        1
 62
     0
 92
       -2
340
0
 93
        0
 40
0.045
309
GRIDFORMAT_END
 95
        2
302
GRIDFORMAT
  1
GRIDFORMAT_BEGIN
 90
        0
 91
        1
 62
     0
 92
       -2
340
0
 93
        0
 40
0.045
309
GRIDFORMAT_END
 95
        4
302
GRIDFORMAT
  1
GRIDFORMAT_BEGIN
 90
        0
 91
        1
 62
     0
 92
       -2
340
0
 93
        0
 40
0.045
309
GRIDFORMAT_END
 95
        8
302
GRIDFORMAT
  1
GRIDFORMAT_BEGIN
 90
        0
 91
        1
 62
     0
 92
       -2
340
0
 93
        0
 40
0.045
309
GRIDFORMAT_END
 95
       16
302
GRIDFORMAT
  1
GRIDFORMAT_BEGIN
 90
        0
 91
        1
 62
     0
 92
       -2
340
0
 93
        0
 40
0.045
309
GRIDFORMAT_END
 95
       32
302
GRIDFORMAT
  1
GRIDFORMAT_BEGIN
 90
        0
 91
        1
 62
     0
 92
       -2
340
0
 93
        0
 40
0.045
309
GRIDFORMAT_END
309
TABLEFORMAT_END
  1
CELLSTYLE_BEGIN
 90
        1
 91
        1
300
_TITLE
309
CELLSTYLE_END
300
CELLSTYLE
  1
TABLEFORMAT_BEGIN
 90
        5
170
     1
 91
        0
 92
        0
 62
   257
 93
        1
300
CONTENTFORMAT
  1
CONTENTFORMAT_BEGIN
 90
        0
 91
        0
 92
      512
 93
        0
300

 40
0.0
140
1.0
 94
        7
 62
     3
340
557
144
0.18
309
CONTENTFORMAT_END
171
     1
301
MARGIN
  1
CELLMARGIN_BEGIN
 40
0.5
 40
1.5
 40
0.06
 40
0.06
 40
0.18
 40
0.18
309
CELLMARGIN_END
 94
        6
 95
        1
302
GRIDFORMAT
  1
GRIDFORMAT_BEGIN
 90
        0
 91
        1
 62
     3
 92
       -2
340
28
 93
        0
 40
0.045
309
GRIDFORMAT_END
 95
        2
302
GRIDFORMAT
  1
GRIDFORMAT_BEGIN
 90
        0
 91
        1
 62
     7
 92
       -2
340
28
 93
        0
 40
0.045
309
GRIDFORMAT_END
 95
        4
302
GRIDFORMAT
  1
GRIDFORMAT_BEGIN
 90
        0
 91
        1
 62
     3
 92
       -2
340
28
 93
        0
 40
0.045
309
GRIDFORMAT_END
 95
        8
302
GRIDFORMAT
  1
GRIDFORMAT_BEGIN
 90
        0
 91
        1
 62
     3
 92
       -2
340
28
 93
        0
 40
0.045
309
GRIDFORMAT_END
 95
       16
302
GRIDFORMAT
  1
GRIDFORMAT_BEGIN
 90
        0
 91
        1
 62
     7
 92
       -2
340
28
 93
        0
 40
0.045
309
GRIDFORMAT_END
 95
       32
302
GRIDFORMAT
  1
GRIDFORMAT_BEGIN
 90
        0
 91
        1
 62
     3
 92
       -2
340
28
 93
        0
 40
0.045
309
GRIDFORMAT_END
309
TABLEFORMAT_END
  1
CELLSTYLE_BEGIN
 90
        2
 91
        1
300
_HEADER
309
CELLSTYLE_END
300
CELLSTYLE
  1
TABLEFORMAT_BEGIN
 90
        5
170
     1
 91
        0
 92
        0
 62
   257
 93
        1
300
CONTENTFORMAT
  1
CONTENTFORMAT_BEGIN
 90
        0
 91
        0
 92
      512
 93
        0
300

 40
0.0
140
1.0
 94
        7
 62
     3
340
557
144
0.18
309
CONTENTFORMAT_END
171
     1
301
MARGIN
  1
CELLMARGIN_BEGIN
 40
0.5
 40
1.5
 40
0.06
 40
0.06
 40
0.18
 40
0.18
309
CELLMARGIN_END
 94
        6
 95
        1
302
GRIDFORMAT
  1
GRIDFORMAT_BEGIN
 90
        0
 91
        1
 62
     3
 92
       -2
340
28
 93
        0
 40
0.045
309
GRIDFORMAT_END
 95
        2
302
GRIDFORMAT
  1
GRIDFORMAT_BEGIN
 90
        0
 91
        1
 62
     7
 92
       -2
340
28
 93
        0
 40
0.045
309
GRIDFORMAT_END
 95
        4
302
GRIDFORMAT
  1
GRIDFORMAT_BEGIN
 90
        0
 91
        1
 62
     3
 92
       -2
340
28
 93
        0
 40
0.045
309
GRIDFORMAT_END
 95
        8
302
GRIDFORMAT
  1
GRIDFORMAT_BEGIN
 90
        0
 91
        1
 62
     3
 92
       -2
340
28
 93
        0
 40
0.045
309
GRIDFORMAT_END
 95
       16
302
GRIDFORMAT
  1
GRIDFORMAT_BEGIN
 90
        0
 91
        1
 62
     7
 92
       -2
340
28
 93
        0
 40
0.045
309
GRIDFORMAT_END
 95
       32
302
GRIDFORMAT
  1
GRIDFORMAT_BEGIN
 90
        0
 91
        1
 62
     3
 92
       -2
340
28
 93
        0
 40
0.045
309
GRIDFORMAT_END
309
TABLEFORMAT_END
  1
CELLSTYLE_BEGIN
 90
        3
 91
        2
300
_DATA
309
CELLSTYLE_END
  0
XRECORD
  5
1501
102
{ACAD_REACTORS
330
ED9
102
}
330
ED9
100
AcDbXrecord
280
     1
102
ACAD_ROUNDTRIP_PRE2007_TABLESTYLE
 90
      512
 91
        0
  1

 92
      512
 93
        0
  2

 94
      512
 95
        0
  3

  0
XRECORD
  5
14D3
102
{ACAD_REACTORS
330
14D2
102
}
330
14D2
100
AcDbXrecord
280
     1
102
RTVSPropertyOp0
 70
     1
102
RTVSPropertyOp1
 70
     1
102
RTVSPropertyOp2
 70
     1
102
RTVSPropertyOp3
 70
     1
102
RTVSPropertyOp4
 70
     1
102
RTVSPropertyOp5
 70
     1
102
RTVSPropertyOp6
 70
     1
102
RTVSPropertyOp7
 70
     1
102
RTVSPropertyOp8
 70
     1
102
RTVSPropertyOp9
 70
     1
102
RTVSPropertyOp10
 70
     1
102
RTVSPropertyOp11
 70
     1
102
RTVSPropertyOp12
 70
     1
102
RTVSPropertyOp13
 70
     1
102
RTVSPropertyOp14
 70
     1
102
RTVSPropertyOp15
 70
     1
102
RTVSPropertyOp16
 70
     1
102
RTVSPropertyOp17
 70
     1
102
RTVSPropertyOp18
 70
     1
102
RTVSPropertyOp19
 70
     1
102
RTVSPropertyOp20
 70
     1
102
RTVSPropertyOp21
 70
     1
102
RTVSPropertyOp22
 70
     1
102
RTVSPropertyOp23
 70
     1
102
RTVSPropertyOp24
 70
     1
102
RTVSPropertyOp25
 70
     1
102
RTVSPropertyOp26
 70
     1
102
RTVSPropertyOp27
 70
     1
102
RTVSPropertyOp28
 70
     1
102
RTVSPropertyOp29
 70
     1
102
RTVSPropertyOp30
 70
     1
102
RTVSPropertyOp31
 70
     1
102
RTVSPropertyOp32
 70
     1
  0
XRECORD
  5
14D7
102
{ACAD_REACTORS
330
14D6
102
}
330
14D6
100
AcDbXrecord
280
     1
102
RTVSPropertyOp0
 70
     1
102
RTVSPropertyOp1
 70
     1
102
RTVSPropertyOp2
 70
     1
102
RTVSPropertyOp3
 70
     1
102
RTVSPropertyOp4
 70
     1
102
RTVSPropertyOp5
 70
     1
102
RTVSPropertyOp6
 70
     1
102
RTVSPropertyOp7
 70
     1
102
RTVSPropertyOp8
 70
     1
102
RTVSPropertyOp9
 70
     1
102
RTVSPropertyOp10
 70
     1
102
RTVSPropertyOp11
 70
     1
102
RTVSPropertyOp12
 70
     1
102
RTVSPropertyOp13
 70
     1
102
RTVSPropertyOp14
 70
     1
102
RTVSPropertyOp15
 70
     1
102
RTVSPropertyOp16
 70
     1
102
RTVSPropertyOp17
 70
     1
102
RTVSPropertyOp18
 70
     1
102
RTVSPropertyOp19
 70
     1
102
RTVSPropertyOp20
 70
     1
102
RTVSPropertyOp21
 70
     1
102
RTVSPropertyOp22
 70
     1
102
RTVSPropertyOp23
 70
     1
102
RTVSPropertyOp24
 70
     1
102
RTVSPropertyOp25
 70
     1
102
RTVSPropertyOp26
 70
     1
102
RTVSPropertyOp27
 70
     1
102
RTVSPropertyOp28
 70
     1
102
RTVSPropertyOp29
 70
     1
102
RTVSPropertyOp30
 70
     1
102
RTVSPropertyOp31
 70
     1
102
RTVSPropertyOp32
 70
     1
  0
XRECORD
  5
14D5
102
{ACAD_REACTORS
330
14D4
102
}
330
14D4
100
AcDbXrecord
280
     1
102
RTVSPropertyOp0
 70
     1
102
RTVSPropertyOp1
 70
     1
102
RTVSPropertyOp2
 70
     1
102
RTVSPropertyOp3
 70
     1
102
RTVSPropertyOp4
 70
     1
102
RTVSPropertyOp5
 70
     1
102
RTVSPropertyOp6
 70
     1
102
RTVSPropertyOp7
 70
     1
102
RTVSPropertyOp8
 70
     1
102
RTVSPropertyOp9
 70
     1
102
RTVSPropertyOp10
 70
     1
102
RTVSPropertyOp11
 70
     1
102
RTVSPropertyOp12
 70
     1
102
RTVSPropertyOp13
 70
     1
102
RTVSPropertyOp14
 70
     1
102
RTVSPropertyOp15
 70
     1
102
RTVSPropertyOp16
 70
     1
102
RTVSPropertyOp17
 70
     1
102
RTVSPropertyOp18
 70
     1
102
RTVSPropertyOp19
 70
     1
102
RTVSPropertyOp20
 70
     1
102
RTVSPropertyOp21
 70
     1
102
RTVSPropertyOp22
 70
     1
102
RTVSPropertyOp23
 70
     1
102
RTVSPropertyOp24
 70
     1
102
RTVSPropertyOp25
 70
     1
102
RTVSPropertyOp26
 70
     1
102
RTVSPropertyOp27
 70
     1
102
RTVSPropertyOp28
 70
     1
102
RTVSPropertyOp29
 70
     1
102
RTVSPropertyOp30
 70
     1
102
RTVSPropertyOp31
 70
     1
102
RTVSPropertyOp32
 70
     1
  0
XRECORD
  5
14D1
102
{ACAD_REACTORS
330
14D0
102
}
330
14D0
100
AcDbXrecord
280
     1
102
RTVSPropertyOp0
 70
     1
102
RTVSPropertyOp1
 70
     1
102
RTVSPropertyOp2
 70
     1
102
RTVSPropertyOp3
 70
     1
102
RTVSPropertyOp4
 70
     1
102
RTVSPropertyOp5
 70
     1
102
RTVSPropertyOp6
 70
     1
102
RTVSPropertyOp7
 70
     1
102
RTVSPropertyOp8
 70
     1
102
RTVSPropertyOp9
 70
     1
102
RTVSPropertyOp10
 70
     1
102
RTVSPropertyOp11
 70
     1
102
RTVSPropertyOp12
 70
     1
102
RTVSPropertyOp13
 70
     1
102
RTVSPropertyOp14
 70
     1
102
RTVSPropertyOp15
 70
     1
102
RTVSPropertyOp16
 70
     1
102
RTVSPropertyOp17
 70
     1
102
RTVSPropertyOp18
 70
     1
102
RTVSPropertyOp19
 70
     1
102
RTVSPropertyOp20
 70
     1
102
RTVSPropertyOp21
 70
     1
102
RTVSPropertyOp22
 70
     1
102
RTVSPropertyOp23
 70
     1
102
RTVSPropertyOp24
 70
     1
102
RTVSPropertyOp25
 70
     1
102
RTVSPropertyOp26
 70
     1
102
RTVSPropertyOp27
 70
     1
102
RTVSPropertyOp28
 70
     1
102
RTVSPropertyOp29
 70
     1
102
RTVSPropertyOp30
 70
     1
102
RTVSPropertyOp31
 70
     1
102
RTVSPropertyOp32
 70
     1
  0
XRECORD
  5
14DF
102
{ACAD_REACTORS
330
14DE
102
}
330
14DE
100
AcDbXrecord
280
     1
102
RTVSPropertyOp0
 70
     1
102
RTVSPropertyOp1
 70
     1
102
RTVSPropertyOp2
 70
     1
102
RTVSPropertyOp3
 70
     1
102
RTVSPropertyOp4
 70
     1
102
RTVSPropertyOp5
 70
     1
102
RTVSPropertyOp6
 70
     1
102
RTVSPropertyOp7
 70
     1
102
RTVSPropertyOp8
 70
     1
102
RTVSPropertyOp9
 70
     1
102
RTVSPropertyOp10
 70
     1
102
RTVSPropertyOp11
 70
     1
102
RTVSPropertyOp12
 70
     1
102
RTVSPropertyOp13
 70
     1
102
RTVSPropertyOp14
 70
     1
102
RTVSPropertyOp15
 70
     1
102
RTVSPropertyOp16
 70
     1
102
RTVSPropertyOp17
 70
     1
102
RTVSPropertyOp18
 70
     1
102
RTVSPropertyOp19
 70
     1
102
RTVSPropertyOp20
 70
     1
102
RTVSPropertyOp21
 70
     1
102
RTVSPropertyOp22
 70
     1
102
RTVSPropertyOp23
 70
     1
102
RTVSPropertyOp24
 70
     1
102
RTVSPropertyOp25
 70
     1
102
RTVSPropertyOp26
 70
     1
102
RTVSPropertyOp27
 70
     1
102
RTVSPropertyOp28
 70
     1
102
RTVSPropertyOp29
 70
     1
102
RTVSPropertyOp30
 70
     1
102
RTVSPropertyOp31
 70
     1
102
RTVSPropertyOp32
 70
     1
  0
XRECORD
  5
14E7
102
{ACAD_REACTORS
330
14E6
102
}
330
14E6
100
AcDbXrecord
280
     1
102
RTVSPropertyOp0
 70
     1
102
RTVSPropertyOp1
 70
     1
102
RTVSPropertyOp2
 70
     1
102
RTVSPropertyOp3
 70
     1
102
RTVSPropertyOp4
 70
     1
102
RTVSPropertyOp5
 70
     1
102
RTVSPropertyOp6
 70
     1
102
RTVSPropertyOp7
 70
     1
102
RTVSPropertyOp8
 70
     1
102
RTVSPropertyOp9
 70
     1
102
RTVSPropertyOp10
 70
     1
102
RTVSPropertyOp11
 70
     1
102
RTVSPropertyOp12
 70
     1
102
RTVSPropertyOp13
 70
     1
102
RTVSPropertyOp14
 70
     1
102
RTVSPropertyOp15
 70
     1
102
RTVSPropertyOp16
 70
     1
102
RTVSPropertyOp17
 70
     1
102
RTVSPropertyOp18
 70
     1
102
RTVSPropertyOp19
 70
     1
102
RTVSPropertyOp20
 70
     1
102
RTVSPropertyOp21
 70
     1
102
RTVSPropertyOp22
 70
     1
102
RTVSPropertyOp23
 70
     1
102
RTVSPropertyOp24
 70
     1
102
RTVSPropertyOp25
 70
     1
102
RTVSPropertyOp26
 70
     1
102
RTVSPropertyOp27
 70
     1
102
RTVSPropertyOp28
 70
     1
102
RTVSPropertyOp29
 70
     1
102
RTVSPropertyOp30
 70
     1
102
RTVSPropertyOp31
 70
     1
102
RTVSPropertyOp32
 70
     1
  0
XRECORD
  5
14D9
102
{ACAD_REACTORS
330
14D8
102
}
330
14D8
100
AcDbXrecord
280
     1
102
RTVSPropertyOp0
 70
     1
102
RTVSPropertyOp1
 70
     1
102
RTVSPropertyOp2
 70
     1
102
RTVSPropertyOp3
 70
     1
102
RTVSPropertyOp4
 70
     1
102
RTVSPropertyOp5
 70
     1
102
RTVSPropertyOp6
 70
     1
102
RTVSPropertyOp7
 70
     1
102
RTVSPropertyOp8
 70
     1
102
RTVSPropertyOp9
 70
     1
102
RTVSPropertyOp10
 70
     1
102
RTVSPropertyOp11
 70
     1
102
RTVSPropertyOp12
 70
     1
102
RTVSPropertyOp13
 70
     1
102
RTVSPropertyOp14
 70
     1
102
RTVSPropertyOp15
 70
     1
102
RTVSPropertyOp16
 70
     1
102
RTVSPropertyOp17
 70
     1
102
RTVSPropertyOp18
 70
     1
102
RTVSPropertyOp19
 70
     1
102
RTVSPropertyOp20
 70
     1
102
RTVSPropertyOp21
 70
     1
102
RTVSPropertyOp22
 70
     1
102
RTVSPropertyOp23
 70
     1
102
RTVSPropertyOp24
 70
     1
102
RTVSPropertyOp25
 70
     1
102
RTVSPropertyOp26
 70
     1
102
RTVSPropertyOp27
 70
     1
102
RTVSPropertyOp28
 70
     1
102
RTVSPropertyOp29
 70
     1
102
RTVSPropertyOp30
 70
     1
102
RTVSPropertyOp31
 70
     1
102
RTVSPropertyOp32
 70
     1
  0
XRECORD
  5
14DD
102
{ACAD_REACTORS
330
14DC
102
}
330
14DC
100
AcDbXrecord
280
     1
102
RTVSPropertyOp0
 70
     1
102
RTVSPropertyOp1
 70
     1
102
RTVSPropertyOp2
 70
     1
102
RTVSPropertyOp3
 70
     1
102
RTVSPropertyOp4
 70
     1
102
RTVSPropertyOp5
 70
     1
102
RTVSPropertyOp6
 70
     1
102
RTVSPropertyOp7
 70
     1
102
RTVSPropertyOp8
 70
     1
102
RTVSPropertyOp9
 70
     1
102
RTVSPropertyOp10
 70
     1
102
RTVSPropertyOp11
 70
     1
102
RTVSPropertyOp12
 70
     1
102
RTVSPropertyOp13
 70
     1
102
RTVSPropertyOp14
 70
     1
102
RTVSPropertyOp15
 70
     1
102
RTVSPropertyOp16
 70
     1
102
RTVSPropertyOp17
 70
     1
102
RTVSPropertyOp18
 70
     1
102
RTVSPropertyOp19
 70
     1
102
RTVSPropertyOp20
 70
     1
102
RTVSPropertyOp21
 70
     1
102
RTVSPropertyOp22
 70
     1
102
RTVSPropertyOp23
 70
     1
102
RTVSPropertyOp24
 70
     1
102
RTVSPropertyOp25
 70
     1
102
RTVSPropertyOp26
 70
     1
102
RTVSPropertyOp27
 70
     1
102
RTVSPropertyOp28
 70
     1
102
RTVSPropertyOp29
 70
     1
102
RTVSPropertyOp30
 70
     1
102
RTVSPropertyOp31
 70
     1
102
RTVSPropertyOp32
 70
     1
  0
XRECORD
  5
1500
102
{ACAD_REACTORS
330
14FF
102
}
330
14FF
100
AcDbXrecord
280
     1
102
RTVSPropertyOp0
 70
     0
102
RTVSPropertyOp1
 70
     0
102
RTVSPropertyOp2
 70
     0
102
RTVSPropertyOp3
 70
     0
102
RTVSPropertyOp4
 70
     0
102
RTVSPropertyOp5
 70
     0
102
RTVSPropertyOp6
 70
     0
102
RTVSPropertyOp7
 70
     0
102
RTVSPropertyOp8
 70
     0
102
RTVSPropertyOp9
 70
     0
102
RTVSPropertyOp10
 70
     0
102
RTVSPropertyOp11
 70
     0
102
RTVSPropertyOp12
 70
     0
102
RTVSPropertyOp13
 70
     0
102
RTVSPropertyOp14
 70
     2
102
RTVSPropertyOp15
 70
     0
102
RTVSPropertyOp16
 70
     0
102
RTVSPropertyOp17
 70
     0
102
RTVSPropertyOp18
 70
     0
102
RTVSPropertyOp19
 70
     0
102
RTVSPropertyOp20
 70
     0
102
RTVSPropertyOp21
 70
     0
102
RTVSPropertyOp22
 70
     0
102
RTVSPropertyOp23
 70
     0
102
RTVSPropertyOp24
 70
     0
102
RTVSPropertyOp25
 70
     0
102
RTVSPropertyOp26
 70
     0
102
RTVSPropertyOp27
 70
     0
102
RTVSPropertyOp28
 70
     0
102
RTVSPropertyOp29
 70
     0
102
RTVSPropertyOp30
 70
     0
102
RTVSPropertyOp31
 70
     0
102
RTVSPropertyOp32
 70
     0
  0
XRECORD
  5
14E5
102
{ACAD_REACTORS
330
14E4
102
}
330
14E4
100
AcDbXrecord
280
     1
102
RTVSPropertyOp0
 70
     1
102
RTVSPropertyOp1
 70
     1
102
RTVSPropertyOp2
 70
     1
102
RTVSPropertyOp3
 70
     1
102
RTVSPropertyOp4
 70
     1
102
RTVSPropertyOp5
 70
     1
102
RTVSPropertyOp6
 70
     1
102
RTVSPropertyOp7
 70
     1
102
RTVSPropertyOp8
 70
     1
102
RTVSPropertyOp9
 70
     1
102
RTVSPropertyOp10
 70
     1
102
RTVSPropertyOp11
 70
     1
102
RTVSPropertyOp12
 70
     1
102
RTVSPropertyOp13
 70
     1
102
RTVSPropertyOp14
 70
     1
102
RTVSPropertyOp15
 70
     1
102
RTVSPropertyOp16
 70
     1
102
RTVSPropertyOp17
 70
     1
102
RTVSPropertyOp18
 70
     1
102
RTVSPropertyOp19
 70
     1
102
RTVSPropertyOp20
 70
     1
102
RTVSPropertyOp21
 70
     1
102
RTVSPropertyOp22
 70
     1
102
RTVSPropertyOp23
 70
     1
102
RTVSPropertyOp24
 70
     1
102
RTVSPropertyOp25
 70
     1
102
RTVSPropertyOp26
 70
     1
102
RTVSPropertyOp27
 70
     1
102
RTVSPropertyOp28
 70
     1
102
RTVSPropertyOp29
 70
     1
102
RTVSPropertyOp30
 70
     1
102
RTVSPropertyOp31
 70
     1
102
RTVSPropertyOp32
 70
     1
  0
XRECORD
  5
14C9
102
{ACAD_REACTORS
330
14C8
102
}
330
14C8
100
AcDbXrecord
280
     1
102
RTVSPropertyOp0
 70
     1
102
RTVSPropertyOp1
 70
     1
102
RTVSPropertyOp2
 70
     1
102
RTVSPropertyOp3
 70
     1
102
RTVSPropertyOp4
 70
     1
102
RTVSPropertyOp5
 70
     1
102
RTVSPropertyOp6
 70
     1
102
RTVSPropertyOp7
 70
     1
102
RTVSPropertyOp8
 70
     1
102
RTVSPropertyOp9
 70
     1
102
RTVSPropertyOp10
 70
     1
102
RTVSPropertyOp11
 70
     1
102
RTVSPropertyOp12
 70
     1
102
RTVSPropertyOp13
 70
     1
102
RTVSPropertyOp14
 70
     1
102
RTVSPropertyOp15
 70
     1
102
RTVSPropertyOp16
 70
     1
102
RTVSPropertyOp17
 70
     1
102
RTVSPropertyOp18
 70
     1
102
RTVSPropertyOp19
 70
     1
102
RTVSPropertyOp20
 70
     1
102
RTVSPropertyOp21
 70
     1
102
RTVSPropertyOp22
 70
     1
102
RTVSPropertyOp23
 70
     1
102
RTVSPropertyOp24
 70
     1
102
RTVSPropertyOp25
 70
     1
102
RTVSPropertyOp26
 70
     1
102
RTVSPropertyOp27
 70
     1
102
RTVSPropertyOp28
 70
     1
102
RTVSPropertyOp29
 70
     1
102
RTVSPropertyOp30
 70
     1
102
RTVSPropertyOp31
 70
     1
102
RTVSPropertyOp32
 70
     1
  0
XRECORD
  5
14CB
102
{ACAD_REACTORS
330
14CA
102
}
330
14CA
100
AcDbXrecord
280
     1
102
RTVSPropertyOp0
 70
     1
102
RTVSPropertyOp1
 70
     1
102
RTVSPropertyOp2
 70
     1
102
RTVSPropertyOp3
 70
     1
102
RTVSPropertyOp4
 70
     1
102
RTVSPropertyOp5
 70
     1
102
RTVSPropertyOp6
 70
     1
102
RTVSPropertyOp7
 70
     1
102
RTVSPropertyOp8
 70
     1
102
RTVSPropertyOp9
 70
     1
102
RTVSPropertyOp10
 70
     1
102
RTVSPropertyOp11
 70
     1
102
RTVSPropertyOp12
 70
     1
102
RTVSPropertyOp13
 70
     1
102
RTVSPropertyOp14
 70
     1
102
RTVSPropertyOp15
 70
     1
102
RTVSPropertyOp16
 70
     1
102
RTVSPropertyOp17
 70
     1
102
RTVSPropertyOp18
 70
     1
102
RTVSPropertyOp19
 70
     1
102
RTVSPropertyOp20
 70
     1
102
RTVSPropertyOp21
 70
     1
102
RTVSPropertyOp22
 70
     1
102
RTVSPropertyOp23
 70
     1
102
RTVSPropertyOp24
 70
     1
102
RTVSPropertyOp25
 70
     1
102
RTVSPropertyOp26
 70
     1
102
RTVSPropertyOp27
 70
     1
102
RTVSPropertyOp28
 70
     1
102
RTVSPropertyOp29
 70
     1
102
RTVSPropertyOp30
 70
     1
102
RTVSPropertyOp31
 70
     1
102
RTVSPropertyOp32
 70
     1
  0
XRECORD
  5
14CD
102
{ACAD_REACTORS
330
14CC
102
}
330
14CC
100
AcDbXrecord
280
     1
102
RTVSPropertyOp0
 70
     1
102
RTVSPropertyOp1
 70
     1
102
RTVSPropertyOp2
 70
     1
102
RTVSPropertyOp3
 70
     1
102
RTVSPropertyOp4
 70
     1
102
RTVSPropertyOp5
 70
     1
102
RTVSPropertyOp6
 70
     1
102
RTVSPropertyOp7
 70
     1
102
RTVSPropertyOp8
 70
     1
102
RTVSPropertyOp9
 70
     1
102
RTVSPropertyOp10
 70
     1
102
RTVSPropertyOp11
 70
     1
102
RTVSPropertyOp12
 70
     1
102
RTVSPropertyOp13
 70
     1
102
RTVSPropertyOp14
 70
     1
102
RTVSPropertyOp15
 70
     1
102
RTVSPropertyOp16
 70
     1
102
RTVSPropertyOp17
 70
     1
102
RTVSPropertyOp18
 70
     1
102
RTVSPropertyOp19
 70
     1
102
RTVSPropertyOp20
 70
     1
102
RTVSPropertyOp21
 70
     1
102
RTVSPropertyOp22
 70
     1
102
RTVSPropertyOp23
 70
     1
102
RTVSPropertyOp24
 70
     1
102
RTVSPropertyOp25
 70
     1
102
RTVSPropertyOp26
 70
     1
102
RTVSPropertyOp27
 70
     1
102
RTVSPropertyOp28
 70
     1
102
RTVSPropertyOp29
 70
     1
102
RTVSPropertyOp30
 70
     1
102
RTVSPropertyOp31
 70
     1
102
RTVSPropertyOp32
 70
     1
  0
XRECORD
  5
14CF
102
{ACAD_REACTORS
330
14CE
102
}
330
14CE
100
AcDbXrecord
280
     1
102
RTVSPropertyOp0
 70
     1
102
RTVSPropertyOp1
 70
     1
102
RTVSPropertyOp2
 70
     1
102
RTVSPropertyOp3
 70
     1
102
RTVSPropertyOp4
 70
     1
102
RTVSPropertyOp5
 70
     1
102
RTVSPropertyOp6
 70
     1
102
RTVSPropertyOp7
 70
     1
102
RTVSPropertyOp8
 70
     1
102
RTVSPropertyOp9
 70
     1
102
RTVSPropertyOp10
 70
     1
102
RTVSPropertyOp11
 70
     1
102
RTVSPropertyOp12
 70
     1
102
RTVSPropertyOp13
 70
     1
102
RTVSPropertyOp14
 70
     1
102
RTVSPropertyOp15
 70
     1
102
RTVSPropertyOp16
 70
     1
102
RTVSPropertyOp17
 70
     1
102
RTVSPropertyOp18
 70
     1
102
RTVSPropertyOp19
 70
     1
102
RTVSPropertyOp20
 70
     1
102
RTVSPropertyOp21
 70
     1
102
RTVSPropertyOp22
 70
     1
102
RTVSPropertyOp23
 70
     1
102
RTVSPropertyOp24
 70
     1
102
RTVSPropertyOp25
 70
     1
102
RTVSPropertyOp26
 70
     1
102
RTVSPropertyOp27
 70
     1
102
RTVSPropertyOp28
 70
     1
102
RTVSPropertyOp29
 70
     1
102
RTVSPropertyOp30
 70
     1
102
RTVSPropertyOp31
 70
     1
102
RTVSPropertyOp32
 70
     1
  0
XRECORD
  5
14F0
102
{ACAD_REACTORS
330
14EF
102
}
330
14EF
100
AcDbXrecord
280
     1
102
RTVSPropertyOp0
 70
     1
102
RTVSPropertyOp1
 70
     1
102
RTVSPropertyOp2
 70
     1
102
RTVSPropertyOp3
 70
     1
102
RTVSPropertyOp4
 70
     1
102
RTVSPropertyOp5
 70
     1
102
RTVSPropertyOp6
 70
     1
102
RTVSPropertyOp7
 70
     1
102
RTVSPropertyOp8
 70
     1
102
RTVSPropertyOp9
 70
     1
102
RTVSPropertyOp10
 70
     1
102
RTVSPropertyOp11
 70
     1
102
RTVSPropertyOp12
 70
     1
102
RTVSPropertyOp13
 70
     1
102
RTVSPropertyOp14
 70
     1
102
RTVSPropertyOp15
 70
     1
102
RTVSPropertyOp16
 70
     1
102
RTVSPropertyOp17
 70
     1
102
RTVSPropertyOp18
 70
     1
102
RTVSPropertyOp19
 70
     1
102
RTVSPropertyOp20
 70
     1
102
RTVSPropertyOp21
 70
     1
102
RTVSPropertyOp22
 70
     1
102
RTVSPropertyOp23
 70
     1
102
RTVSPropertyOp24
 70
     1
102
RTVSPropertyOp25
 70
     1
102
RTVSPropertyOp26
 70
     1
102
RTVSPropertyOp27
 70
     1
102
RTVSPropertyOp28
 70
     1
102
RTVSPropertyOp29
 70
     1
102
RTVSPropertyOp30
 70
     1
102
RTVSPropertyOp31
 70
     1
102
RTVSPropertyOp32
 70
     1
  0
XRECORD
  5
14FC
102
{ACAD_REACTORS
330
14FB
102
}
330
14FB
100
AcDbXrecord
280
     1
102
RTVSPropertyOp0
 70
     0
102
RTVSPropertyOp1
 70
     0
102
RTVSPropertyOp2
 70
     0
102
RTVSPropertyOp3
 70
     0
102
RTVSPropertyOp4
 70
     0
102
RTVSPropertyOp5
 70
     0
102
RTVSPropertyOp6
 70
     0
102
RTVSPropertyOp7
 70
     0
102
RTVSPropertyOp8
 70
     0
102
RTVSPropertyOp9
 70
     0
102
RTVSPropertyOp10
 70
     0
102
RTVSPropertyOp11
 70
     0
102
RTVSPropertyOp12
 70
     0
102
RTVSPropertyOp13
 70
     0
102
RTVSPropertyOp14
 70
     2
102
RTVSPropertyOp15
 70
     0
102
RTVSPropertyOp16
 70
     0
102
RTVSPropertyOp17
 70
     0
102
RTVSPropertyOp18
 70
     0
102
RTVSPropertyOp19
 70
     0
102
RTVSPropertyOp20
 70
     0
102
RTVSPropertyOp21
 70
     0
102
RTVSPropertyOp22
 70
     0
102
RTVSPropertyOp23
 70
     0
102
RTVSPropertyOp24
 70
     0
102
RTVSPropertyOp25
 70
     0
102
RTVSPropertyOp26
 70
     0
102
RTVSPropertyOp27
 70
     0
102
RTVSPropertyOp28
 70
     0
102
RTVSPropertyOp29
 70
     0
102
RTVSPropertyOp30
 70
     0
102
RTVSPropertyOp31
 70
     0
102
RTVSPropertyOp32
 70
     0
  0
XRECORD
  5
14E3
102
{ACAD_REACTORS
330
14E2
102
}
330
14E2
100
AcDbXrecord
280
     1
102
RTVSPropertyOp0
 70
     1
102
RTVSPropertyOp1
 70
     1
102
RTVSPropertyOp2
 70
     1
102
RTVSPropertyOp3
 70
     1
102
RTVSPropertyOp4
 70
     1
102
RTVSPropertyOp5
 70
     1
102
RTVSPropertyOp6
 70
     1
102
RTVSPropertyOp7
 70
     1
102
RTVSPropertyOp8
 70
     1
102
RTVSPropertyOp9
 70
     1
102
RTVSPropertyOp10
 70
     1
102
RTVSPropertyOp11
 70
     1
102
RTVSPropertyOp12
 70
     1
102
RTVSPropertyOp13
 70
     1
102
RTVSPropertyOp14
 70
     1
102
RTVSPropertyOp15
 70
     1
102
RTVSPropertyOp16
 70
     1
102
RTVSPropertyOp17
 70
     1
102
RTVSPropertyOp18
 70
     1
102
RTVSPropertyOp19
 70
     1
102
RTVSPropertyOp20
 70
     1
102
RTVSPropertyOp21
 70
     1
102
RTVSPropertyOp22
 70
     1
102
RTVSPropertyOp23
 70
     1
102
RTVSPropertyOp24
 70
     1
102
RTVSPropertyOp25
 70
     1
102
RTVSPropertyOp26
 70
     1
102
RTVSPropertyOp27
 70
     1
102
RTVSPropertyOp28
 70
     1
102
RTVSPropertyOp29
 70
     1
102
RTVSPropertyOp30
 70
     1
102
RTVSPropertyOp31
 70
     1
102
RTVSPropertyOp32
 70
     1
  0
XRECORD
  5
14FE
102
{ACAD_REACTORS
330
14FD
102
}
330
14FD
100
AcDbXrecord
280
     1
102
RTVSPropertyOp0
 70
     0
102
RTVSPropertyOp1
 70
     0
102
RTVSPropertyOp2
 70
     0
102
RTVSPropertyOp3
 70
     0
102
RTVSPropertyOp4
 70
     0
102
RTVSPropertyOp5
 70
     0
102
RTVSPropertyOp6
 70
     0
102
RTVSPropertyOp7
 70
     0
102
RTVSPropertyOp8
 70
     0
102
RTVSPropertyOp9
 70
     0
102
RTVSPropertyOp10
 70
     0
102
RTVSPropertyOp11
 70
     0
102
RTVSPropertyOp12
 70
     0
102
RTVSPropertyOp13
 70
     0
102
RTVSPropertyOp14
 70
     2
102
RTVSPropertyOp15
 70
     0
102
RTVSPropertyOp16
 70
     0
102
RTVSPropertyOp17
 70
     0
102
RTVSPropertyOp18
 70
     0
102
RTVSPropertyOp19
 70
     0
102
RTVSPropertyOp20
 70
     0
102
RTVSPropertyOp21
 70
     0
102
RTVSPropertyOp22
 70
     0
102
RTVSPropertyOp23
 70
     0
102
RTVSPropertyOp24
 70
     0
102
RTVSPropertyOp25
 70
     0
102
RTVSPropertyOp26
 70
     0
102
RTVSPropertyOp27
 70
     0
102
RTVSPropertyOp28
 70
     0
102
RTVSPropertyOp29
 70
     0
102
RTVSPropertyOp30
 70
     0
102
RTVSPropertyOp31
 70
     0
102
RTVSPropertyOp32
 70
     0
  0
XRECORD
  5
14DB
102
{ACAD_REACTORS
330
14DA
102
}
330
14DA
100
AcDbXrecord
280
     1
102
RTVSPropertyOp0
 70
     1
102
RTVSPropertyOp1
 70
     1
102
RTVSPropertyOp2
 70
     1
102
RTVSPropertyOp3
 70
     1
102
RTVSPropertyOp4
 70
     1
102
RTVSPropertyOp5
 70
     1
102
RTVSPropertyOp6
 70
     1
102
RTVSPropertyOp7
 70
     1
102
RTVSPropertyOp8
 70
     1
102
RTVSPropertyOp9
 70
     1
102
RTVSPropertyOp10
 70
     1
102
RTVSPropertyOp11
 70
     1
102
RTVSPropertyOp12
 70
     1
102
RTVSPropertyOp13
 70
     1
102
RTVSPropertyOp14
 70
     1
102
RTVSPropertyOp15
 70
     1
102
RTVSPropertyOp16
 70
     1
102
RTVSPropertyOp17
 70
     1
102
RTVSPropertyOp18
 70
     1
102
RTVSPropertyOp19
 70
     1
102
RTVSPropertyOp20
 70
     1
102
RTVSPropertyOp21
 70
     1
102
RTVSPropertyOp22
 70
     1
102
RTVSPropertyOp23
 70
     1
102
RTVSPropertyOp24
 70
     1
102
RTVSPropertyOp25
 70
     1
102
RTVSPropertyOp26
 70
     1
102
RTVSPropertyOp27
 70
     1
102
RTVSPropertyOp28
 70
     1
102
RTVSPropertyOp29
 70
     1
102
RTVSPropertyOp30
 70
     1
102
RTVSPropertyOp31
 70
     1
102
RTVSPropertyOp32
 70
     1
  0
XRECORD
  5
14FA
102
{ACAD_REACTORS
330
14F9
102
}
330
14F9
100
AcDbXrecord
280
     1
102
RTVSPropertyOp0
 70
     1
102
RTVSPropertyOp1
 70
     1
102
RTVSPropertyOp2
 70
     1
102
RTVSPropertyOp3
 70
     1
102
RTVSPropertyOp4
 70
     1
102
RTVSPropertyOp5
 70
     1
102
RTVSPropertyOp6
 70
     1
102
RTVSPropertyOp7
 70
     1
102
RTVSPropertyOp8
 70
     1
102
RTVSPropertyOp9
 70
     1
102
RTVSPropertyOp10
 70
     1
102
RTVSPropertyOp11
 70
     1
102
RTVSPropertyOp12
 70
     1
102
RTVSPropertyOp13
 70
     1
102
RTVSPropertyOp14
 70
     1
102
RTVSPropertyOp15
 70
     1
102
RTVSPropertyOp16
 70
     1
102
RTVSPropertyOp17
 70
     1
102
RTVSPropertyOp18
 70
     1
102
RTVSPropertyOp19
 70
     1
102
RTVSPropertyOp20
 70
     1
102
RTVSPropertyOp21
 70
     1
102
RTVSPropertyOp22
 70
     1
102
RTVSPropertyOp23
 70
     1
102
RTVSPropertyOp24
 70
     1
102
RTVSPropertyOp25
 70
     1
102
RTVSPropertyOp26
 70
     1
102
RTVSPropertyOp27
 70
     1
102
RTVSPropertyOp28
 70
     1
102
RTVSPropertyOp29
 70
     1
102
RTVSPropertyOp30
 70
     1
102
RTVSPropertyOp31
 70
     1
102
RTVSPropertyOp32
 70
     1
  0
XRECORD
  5
14F8
102
{ACAD_REACTORS
330
14F7
102
}
330
14F7
100
AcDbXrecord
280
     1
102
RTVSPropertyOp0
 70
     1
102
RTVSPropertyOp1
 70
     1
102
RTVSPropertyOp2
 70
     1
102
RTVSPropertyOp3
 70
     1
102
RTVSPropertyOp4
 70
     1
102
RTVSPropertyOp5
 70
     1
102
RTVSPropertyOp6
 70
     1
102
RTVSPropertyOp7
 70
     1
102
RTVSPropertyOp8
 70
     1
102
RTVSPropertyOp9
 70
     1
102
RTVSPropertyOp10
 70
     1
102
RTVSPropertyOp11
 70
     1
102
RTVSPropertyOp12
 70
     1
102
RTVSPropertyOp13
 70
     1
102
RTVSPropertyOp14
 70
     1
102
RTVSPropertyOp15
 70
     1
102
RTVSPropertyOp16
 70
     1
102
RTVSPropertyOp17
 70
     1
102
RTVSPropertyOp18
 70
     1
102
RTVSPropertyOp19
 70
     1
102
RTVSPropertyOp20
 70
     1
102
RTVSPropertyOp21
 70
     1
102
RTVSPropertyOp22
 70
     1
102
RTVSPropertyOp23
 70
     1
102
RTVSPropertyOp24
 70
     1
102
RTVSPropertyOp25
 70
     1
102
RTVSPropertyOp26
 70
     1
102
RTVSPropertyOp27
 70
     1
102
RTVSPropertyOp28
 70
     1
102
RTVSPropertyOp29
 70
     1
102
RTVSPropertyOp30
 70
     1
102
RTVSPropertyOp31
 70
     1
102
RTVSPropertyOp32
 70
     1
  0
XRECORD
  5
14F2
102
{ACAD_REACTORS
330
14F1
102
}
330
14F1
100
AcDbXrecord
280
     1
102
RTVSPropertyOp0
 70
     1
102
RTVSPropertyOp1
 70
     1
102
RTVSPropertyOp2
 70
     1
102
RTVSPropertyOp3
 70
     1
102
RTVSPropertyOp4
 70
     1
102
RTVSPropertyOp5
 70
     1
102
RTVSPropertyOp6
 70
     1
102
RTVSPropertyOp7
 70
     1
102
RTVSPropertyOp8
 70
     1
102
RTVSPropertyOp9
 70
     1
102
RTVSPropertyOp10
 70
     1
102
RTVSPropertyOp11
 70
     1
102
RTVSPropertyOp12
 70
     1
102
RTVSPropertyOp13
 70
     1
102
RTVSPropertyOp14
 70
     1
102
RTVSPropertyOp15
 70
     1
102
RTVSPropertyOp16
 70
     1
102
RTVSPropertyOp17
 70
     1
102
RTVSPropertyOp18
 70
     1
102
RTVSPropertyOp19
 70
     1
102
RTVSPropertyOp20
 70
     1
102
RTVSPropertyOp21
 70
     1
102
RTVSPropertyOp22
 70
     1
102
RTVSPropertyOp23
 70
     1
102
RTVSPropertyOp24
 70
     1
102
RTVSPropertyOp25
 70
     1
102
RTVSPropertyOp26
 70
     1
102
RTVSPropertyOp27
 70
     1
102
RTVSPropertyOp28
 70
     1
102
RTVSPropertyOp29
 70
     1
102
RTVSPropertyOp30
 70
     1
102
RTVSPropertyOp31
 70
     1
102
RTVSPropertyOp32
 70
     1
  0
XRECORD
  5
14F4
102
{ACAD_REACTORS
330
14F3
102
}
330
14F3
100
AcDbXrecord
280
     1
102
RTVSPropertyOp0
 70
     1
102
RTVSPropertyOp1
 70
     1
102
RTVSPropertyOp2
 70
     1
102
RTVSPropertyOp3
 70
     1
102
RTVSPropertyOp4
 70
     1
102
RTVSPropertyOp5
 70
     1
102
RTVSPropertyOp6
 70
     1
102
RTVSPropertyOp7
 70
     1
102
RTVSPropertyOp8
 70
     1
102
RTVSPropertyOp9
 70
     1
102
RTVSPropertyOp10
 70
     1
102
RTVSPropertyOp11
 70
     1
102
RTVSPropertyOp12
 70
     1
102
RTVSPropertyOp13
 70
     1
102
RTVSPropertyOp14
 70
     1
102
RTVSPropertyOp15
 70
     1
102
RTVSPropertyOp16
 70
     1
102
RTVSPropertyOp17
 70
     1
102
RTVSPropertyOp18
 70
     1
102
RTVSPropertyOp19
 70
     1
102
RTVSPropertyOp20
 70
     1
102
RTVSPropertyOp21
 70
     1
102
RTVSPropertyOp22
 70
     1
102
RTVSPropertyOp23
 70
     1
102
RTVSPropertyOp24
 70
     1
102
RTVSPropertyOp25
 70
     1
102
RTVSPropertyOp26
 70
     1
102
RTVSPropertyOp27
 70
     1
102
RTVSPropertyOp28
 70
     1
102
RTVSPropertyOp29
 70
     1
102
RTVSPropertyOp30
 70
     1
102
RTVSPropertyOp31
 70
     1
102
RTVSPropertyOp32
 70
     1
  0
XRECORD
  5
14E1
102
{ACAD_REACTORS
330
14E0
102
}
330
14E0
100
AcDbXrecord
280
     1
102
RTVSPropertyOp0
 70
     1
102
RTVSPropertyOp1
 70
     1
102
RTVSPropertyOp2
 70
     1
102
RTVSPropertyOp3
 70
     1
102
RTVSPropertyOp4
 70
     1
102
RTVSPropertyOp5
 70
     1
102
RTVSPropertyOp6
 70
     1
102
RTVSPropertyOp7
 70
     1
102
RTVSPropertyOp8
 70
     1
102
RTVSPropertyOp9
 70
     1
102
RTVSPropertyOp10
 70
     1
102
RTVSPropertyOp11
 70
     1
102
RTVSPropertyOp12
 70
     1
102
RTVSPropertyOp13
 70
     1
102
RTVSPropertyOp14
 70
     1
102
RTVSPropertyOp15
 70
     1
102
RTVSPropertyOp16
 70
     1
102
RTVSPropertyOp17
 70
     1
102
RTVSPropertyOp18
 70
     1
102
RTVSPropertyOp19
 70
     1
102
RTVSPropertyOp20
 70
     1
102
RTVSPropertyOp21
 70
     1
102
RTVSPropertyOp22
 70
     1
102
RTVSPropertyOp23
 70
     1
102
RTVSPropertyOp24
 70
     1
102
RTVSPropertyOp25
 70
     1
102
RTVSPropertyOp26
 70
     1
102
RTVSPropertyOp27
 70
     1
102
RTVSPropertyOp28
 70
     1
102
RTVSPropertyOp29
 70
     1
102
RTVSPropertyOp30
 70
     1
102
RTVSPropertyOp31
 70
     1
102
RTVSPropertyOp32
 70
     1
  0
XRECORD
  5
14EE
102
{ACAD_REACTORS
330
14ED
102
}
330
14ED
100
AcDbXrecord
280
     1
102
RTVSPropertyOp0
 70
     1
102
RTVSPropertyOp1
 70
     1
102
RTVSPropertyOp2
 70
     1
102
RTVSPropertyOp3
 70
     1
102
RTVSPropertyOp4
 70
     1
102
RTVSPropertyOp5
 70
     1
102
RTVSPropertyOp6
 70
     1
102
RTVSPropertyOp7
 70
     1
102
RTVSPropertyOp8
 70
     1
102
RTVSPropertyOp9
 70
     1
102
RTVSPropertyOp10
 70
     1
102
RTVSPropertyOp11
 70
     1
102
RTVSPropertyOp12
 70
     1
102
RTVSPropertyOp13
 70
     1
102
RTVSPropertyOp14
 70
     1
102
RTVSPropertyOp15
 70
     1
102
RTVSPropertyOp16
 70
     1
102
RTVSPropertyOp17
 70
     1
102
RTVSPropertyOp18
 70
     1
102
RTVSPropertyOp19
 70
     1
102
RTVSPropertyOp20
 70
     1
102
RTVSPropertyOp21
 70
     1
102
RTVSPropertyOp22
 70
     1
102
RTVSPropertyOp23
 70
     1
102
RTVSPropertyOp24
 70
     1
102
RTVSPropertyOp25
 70
     1
102
RTVSPropertyOp26
 70
     1
102
RTVSPropertyOp27
 70
     1
102
RTVSPropertyOp28
 70
     1
102
RTVSPropertyOp29
 70
     1
102
RTVSPropertyOp30
 70
     1
102
RTVSPropertyOp31
 70
     1
102
RTVSPropertyOp32
 70
     1
  0
XRECORD
  5
14F6
102
{ACAD_REACTORS
330
14F5
102
}
330
14F5
100
AcDbXrecord
280
     1
102
RTVSPropertyOp0
 70
     1
102
RTVSPropertyOp1
 70
     1
102
RTVSPropertyOp2
 70
     1
102
RTVSPropertyOp3
 70
     1
102
RTVSPropertyOp4
 70
     1
102
RTVSPropertyOp5
 70
     1
102
RTVSPropertyOp6
 70
     1
102
RTVSPropertyOp7
 70
     1
102
RTVSPropertyOp8
 70
     1
102
RTVSPropertyOp9
 70
     1
102
RTVSPropertyOp10
 70
     1
102
RTVSPropertyOp11
 70
     1
102
RTVSPropertyOp12
 70
     1
102
RTVSPropertyOp13
 70
     1
102
RTVSPropertyOp14
 70
     1
102
RTVSPropertyOp15
 70
     1
102
RTVSPropertyOp16
 70
     1
102
RTVSPropertyOp17
 70
     1
102
RTVSPropertyOp18
 70
     1
102
RTVSPropertyOp19
 70
     1
102
RTVSPropertyOp20
 70
     1
102
RTVSPropertyOp21
 70
     1
102
RTVSPropertyOp22
 70
     1
102
RTVSPropertyOp23
 70
     1
102
RTVSPropertyOp24
 70
     1
102
RTVSPropertyOp25
 70
     1
102
RTVSPropertyOp26
 70
     1
102
RTVSPropertyOp27
 70
     1
102
RTVSPropertyOp28
 70
     1
102
RTVSPropertyOp29
 70
     1
102
RTVSPropertyOp30
 70
     1
102
RTVSPropertyOp31
 70
     1
102
RTVSPropertyOp32
 70
     1
  0
ENDSEC
  0
EOF
