  0
SECTION
  2
HEADER
  9
$ACADVER
  1
AC1015
  9
$ACADMAINTVER
 70
    20
  9
$DWGCODEPAGE
  3
ANSI_932
  9
$INSBASE
 10
0.0
 20
0.0
 30
0.0
  9
$EXTMIN
 10
-322.6188871755208
 20
-611.6167724835613
 30
0.0
  9
$EXTMAX
 10
729.267523279232
 20
-288.170312
 30
0.0
  9
$LIMMIN
 10
-192.023705
 20
-562.210106
  9
$LIMMAX
 10
213.004143
 20
-288.11396
  9
$ORTHOMODE
 70
     0
  9
$REGENMODE
 70
     1
  9
$FILLMODE
 70
     1
  9
$QTEXTMODE
 70
     0
  9
$MIRRTEXT
 70
     0
  9
$LTSCALE
 40
6.750430999999997
  9
$ATTMODE
 70
     1
  9
$TEXTSIZE
 40
3.2
  9
$TRACEWID
 40
0.05
  9
$TEXTSTYLE
  7
高3.2
  9
$CLAYER
  8
0
  9
$CELTYPE
  6
ByLayer
  9
$CECOLOR
 62
   256
  9
$CELTSCALE
 40
1.0
  9
$DISPSILH
 70
     0
  9
$DIMSCALE
 40
1.0
  9
$DIMASZ
 40
2.5
  9
$DIMEXO
 40
0.25
  9
$DIMDLI
 40
0.2
  9
$DIMRND
 40
0.0
  9
$DIMDLE
 40
0.0
  9
$DIMEXE
 40
1.25
  9
$DIMTP
 40
0.0
  9
$DIMTM
 40
0.0
  9
$DIMTXT
 40
3.0
  9
$DIMCEN
 40
0.0
  9
$DIMTSZ
 40
0.0
  9
$DIMTOL
 70
     0
  9
$DIMLIM
 70
     0
  9
$DIMTIH
 70
     0
  9
$DIMTOH
 70
     0
  9
$DIMSE1
 70
     0
  9
$DIMSE2
 70
     0
  9
$DIMTAD
 70
     3
  9
$DIMZIN
 70
     8
  9
$DIMBLK
  1
Open30
  9
$DIMASO
 70
     1
  9
$DIMSHO
 70
     1
  9
$DIMPOST
  1

  9
$DIMAPOST
  1

  9
$DIMALT
 70
     0
  9
$DIMALTD
 70
     3
  9
$DIMALTF
 40
0.03937007874016
  9
$DIMLFAC
 40
2.0
  9
$DIMTOFL
 70
     1
  9
$DIMTVP
 40
0.0
  9
$DIMTIX
 70
     0
  9
$DIMSOXD
 70
     0
  9
$DIMSAH
 70
     0
  9
$DIMBLK1
  1

  9
$DIMBLK2
  1

  9
$DIMSTYLE
  2
1／2
  9
$DIMCLRD
 70
     0
  9
$DIMCLRE
 70
     0
  9
$DIMCLRT
 70
     4
  9
$DIMTFAC
 40
1.0
  9
$DIMGAP
 40
0.625
  9
$DIMJUST
 70
     0
  9
$DIMSD1
 70
     0
  9
$DIMSD2
 70
     0
  9
$DIMTOLJ
 70
     0
  9
$DIMTZIN
 70
     8
  9
$DIMALTZ
 70
     0
  9
$DIMALTTZ
 70
     0
  9
$DIMUPT
 70
     1
  9
$DIMDEC
 70
     2
  9
$DIMTDEC
 70
     2
  9
$DIMALTU
 70
     2
  9
$DIMALTTD
 70
     3
  9
$DIMTXSTY
  7
STANDARD
  9
$DIMAUNIT
 70
     0
  9
$DIMADEC
 70
     1
  9
$DIMALTRND
 40
0.0
  9
$DIMAZIN
 70
     2
  9
$DIMDSEP
 70
    46
  9
$DIMATFIT
 70
     0
  9
$DIMFRAC
 70
     0
  9
$DIMLDRBLK
  1
Open30
  9
$DIMLUNIT
 70
     2
  9
$DIMLWD
 70
    -2
  9
$DIMLWE
 70
    -2
  9
$DIMTMOVE
 70
     0
  9
$LUNITS
 70
     2
  9
$LUPREC
 70
     4
  9
$SKETCHINC
 40
0.1
  9
$FILLETRAD
 40
0.0
  9
$AUNITS
 70
     0
  9
$AUPREC
 70
     0
  9
$MENU
  1
.
  9
$ELEVATION
 40
0.0
  9
$PELEVATION
 40
0.0
  9
$THICKNESS
 40
0.0
  9
$LIMCHECK
 70
     0
  9
$CHAMFERA
 40
0.0
  9
$CHAMFERB
 40
0.0
  9
$CHAMFERC
 40
0.0
  9
$CHAMFERD
 40
0.0
  9
$SKPOLY
 70
     0
  9
$TDCREATE
 40
2456338.477768519
  9
$TDUCREATE
 40
2456338.102768519
  9
$TDUPDATE
 40
2460319.545581493
  9
$TDUUPDATE
 40
2460319.170581493
  9
$TDINDWG
 40
0.0709415625
  9
$TDUSRTIMER
 40
0.0709411921
  9
$USRTIMER
 70
     1
  9
$ANGBASE
 50
0.0
  9
$ANGDIR
 70
     0
  9
$PDMODE
 70
     0
  9
$PDSIZE
 40
0.0
  9
$PLINEWID
 40
0.0
  9
$SPLFRAME
 70
     0
  9
$SPLINETYPE
 70
     6
  9
$SPLINESEGS
 70
     8
  9
$HANDSEED
  5
13D4
  9
$SURFTAB1
 70
     6
  9
$SURFTAB2
 70
     6
  9
$SURFTYPE
 70
     6
  9
$SURFU
 70
     6
  9
$SURFV
 70
     6
  9
$UCSBASE
  2

  9
$UCSNAME
  2

  9
$UCSORG
 10
0.0
 20
0.0
 30
0.0
  9
$UCSXDIR
 10
1.0
 20
0.0
 30
0.0
  9
$UCSYDIR
 10
0.0
 20
1.0
 30
0.0
  9
$UCSORTHOREF
  2

  9
$UCSORTHOVIEW
 70
     0
  9
$UCSORGTOP
 10
0.0
 20
0.0
 30
0.0
  9
$UCSORGBOTTOM
 10
0.0
 20
0.0
 30
0.0
  9
$UCSORGLEFT
 10
0.0
 20
0.0
 30
0.0
  9
$UCSORGRIGHT
 10
0.0
 20
0.0
 30
0.0
  9
$UCSORGFRONT
 10
0.0
 20
0.0
 30
0.0
  9
$UCSORGBACK
 10
0.0
 20
0.0
 30
0.0
  9
$PUCSBASE
  2

  9
$PUCSNAME
  2

  9
$PUCSORG
 10
0.0
 20
0.0
 30
0.0
  9
$PUCSXDIR
 10
1.0
 20
0.0
 30
0.0
  9
$PUCSYDIR
 10
0.0
 20
1.0
 30
0.0
  9
$PUCSORTHOREF
  2

  9
$PUCSORTHOVIEW
 70
     0
  9
$PUCSORGTOP
 10
0.0
 20
0.0
 30
0.0
  9
$PUCSORGBOTTOM
 10
0.0
 20
0.0
 30
0.0
  9
$PUCSORGLEFT
 10
0.0
 20
0.0
 30
0.0
  9
$PUCSORGRIGHT
 10
0.0
 20
0.0
 30
0.0
  9
$PUCSORGFRONT
 10
0.0
 20
0.0
 30
0.0
  9
$PUCSORGBACK
 10
0.0
 20
0.0
 30
0.0
  9
$USERI1
 70
     0
  9
$USERI2
 70
     0
  9
$USERI3
 70
     0
  9
$USERI4
 70
     0
  9
$USERI5
 70
     0
  9
$USERR1
 40
0.0
  9
$USERR2
 40
0.0
  9
$USERR3
 40
0.0
  9
$USERR4
 40
0.0
  9
$USERR5
 40
0.0
  9
$WORLDVIEW
 70
     1
  9
$SHADEDGE
 70
     3
  9
$SHADEDIF
 70
    70
  9
$TILEMODE
 70
     1
  9
$MAXACTVP
 70
    64
  9
$PINSBASE
 10
0.0
 20
0.0
 30
0.0
  9
$PLIMCHECK
 70
     0
  9
$PEXTMIN
 10
1.000000000000000E+20
 20
1.000000000000000E+20
 30
1.000000000000000E+20
  9
$PEXTMAX
 10
-1.000000000000000E+20
 20
-1.000000000000000E+20
 30
-1.000000000000000E+20
  9
$PLIMMIN
 10
0.0
 20
0.0
  9
$PLIMMAX
 10
12.0
 20
9.0
  9
$UNITMODE
 70
     0
  9
$VISRETAIN
 70
     1
  9
$PLINEGEN
 70
     0
  9
$PSLTSCALE
 70
     1
  9
$TREEDEPTH
 70
  3020
  9
$CMLSTYLE
  2
Standard
  9
$CMLJUST
 70
     0
  9
$CMLSCALE
 40
1.0
  9
$PROXYGRAPHICS
 70
     1
  9
$MEASUREMENT
 70
     0
  9
$CELWEIGHT
370
    -1
  9
$ENDCAPS
280
     0
  9
$JOINSTYLE
280
     0
  9
$LWDISPLAY
290
     0
  9
$INSUNITS
 70
     0
  9
$HYPERLINKBASE
  1

  9
$STYLESHEET
  1

  9
$XEDIT
290
     1
  9
$CEPSNTYPE
380
     0
  9
$PSTYLEMODE
290
     1
  9
$FINGERPRINTGUID
  2
{CF5784BA-4387-4A2C-A027-EEB4FE3F5F37}
  9
$VERSIONGUID
  2
{D638E0D3-F43B-4392-8039-6E4570C991B5}
  9
$EXTNAMES
290
     1
  9
$PSVPSCALE
 40
0.0
  9
$OLESTARTUP
290
     0
  0
ENDSEC
  0
SECTION
  2
CLASSES
  0
CLASS
  1
ACDBDICTIONARYWDFLT
  2
AcDbDictionaryWithDefault
  3
ObjectDBX Classes
 90
        0
280
     0
281
     0
  0
CLASS
  1
MATERIAL
  2
AcDbMaterial
  3
ObjectDBX Classes
 90
     1153
280
     0
281
     0
  0
CLASS
  1
VISUALSTYLE
  2
AcDbVisualStyle
  3
ObjectDBX Classes
 90
     4095
280
     0
281
     0
  0
CLASS
  1
SCALE
  2
AcDbScale
  3
ObjectDBX Classes
 90
     1153
280
     0
281
     0
  0
CLASS
  1
TABLESTYLE
  2
AcDbTableStyle
  3
ObjectDBX Classes
 90
     4095
280
     0
281
     0
  0
CLASS
  1
MLEADERSTYLE
  2
AcDbMLeaderStyle
  3
ACDB_MLEADERSTYLE_CLASS
 90
     4095
280
     0
281
     0
  0
CLASS
  1
SORTENTSTABLE
  2
AcDbSortentsTable
  3
ObjectDBX Classes
 90
        0
280
     0
281
     0
  0
CLASS
  1
DICTIONARYVAR
  2
AcDbDictionaryVar
  3
ObjectDBX Classes
 90
        0
280
     0
281
     0
  0
CLASS
  1
CELLSTYLEMAP
  2
AcDbCellStyleMap
  3
ObjectDBX Classes
 90
     1152
280
     0
281
     0
  0
CLASS
  1
ACDBPLACEHOLDER
  2
AcDbPlaceHolder
  3
ObjectDBX Classes
 90
        0
280
     0
281
     0
  0
CLASS
  1
LAYOUT
  2
AcDbLayout
  3
ObjectDBX Classes
 90
        0
280
     0
281
     0
  0
CLASS
  1
AEC_REFEDIT_STATUS_TRACKER
  2
AecDbRefEditStatusTracker
  3
AecArchBase60|Product Desc: Autodesk Architectural Desktop 2007 |Company: Autodesk,Inc. |WEB Address: www.autodesk.com
 90
      129
280
     0
281
     0
  0
CLASS
  1
NPOCOLLECTION
  2
AcDbImpNonPersistentObjectsCollection
  3
ObjectDBX Classes
 90
     1153
280
     0
281
     0
  0
ENDSEC
  0
SECTION
  2
TABLES
  0
TABLE
  2
VPORT
  5
8
330
0
100
AcDbSymbolTable
 70
     1
  0
VPORT
  5
8B
330
8
100
AcDbSymbolTableRecord
100
AcDbViewportTableRecord
  2
*Active
 70
     0
 10
0.0
 20
0.0
 11
1.0
 21
1.0
 12
117.3437507012621
 22
-430.8085734516779
 13
0.0
 23
0.0
 14
1.0
 24
1.0
 15
0.0
 25
0.0
 16
0.0
 26
0.0
 36
1.0
 17
0.0
 27
0.0
 37
0.0
 40
543.1854750035515
 41
2.033722438391698
 42
50.0
 43
0.0
 44
0.0
 50
0.0
 51
0.0
 71
     0
 72
   100
 73
     1
 74
     1
 75
     0
 76
     0
 77
     0
 78
     0
281
     0
 65
     1
110
0.0
120
0.0
130
0.0
111
1.0
121
0.0
131
0.0
112
0.0
122
1.0
132
0.0
 79
     0
146
0.0
  0
ENDTAB
  0
TABLE
  2
LTYPE
  5
5
330
0
100
AcDbSymbolTable
 70
     3
  0
LTYPE
  5
5A
330
5
100
AcDbSymbolTableRecord
100
AcDbLinetypeTableRecord
  2
ByBlock
 70
     0
  3

 72
    65
 73
     0
 40
0.0
  0
LTYPE
  5
5B
330
5
100
AcDbSymbolTableRecord
100
AcDbLinetypeTableRecord
  2
ByLayer
 70
     0
  3

 72
    65
 73
     0
 40
0.0
  0
LTYPE
  5
5C
330
5
100
AcDbSymbolTableRecord
100
AcDbLinetypeTableRecord
  2
CONTINUOUS
 70
     0
  3
Solid-line
 72
    65
 73
     0
 40
0.0
  0
LTYPE
  5
84
330
5
100
AcDbSymbolTableRecord
100
AcDbLinetypeTableRecord
  2
PHANTOM
 70
     0
  3
PHANTOM
 72
    65
 73
     6
 40
2.5
 49
1.25
 74
     0
 49
-0.25
 74
     0
 49
0.25
 74
     0
 49
-0.25
 74
     0
 49
0.25
 74
     0
 49
-0.25
 74
     0
  0
ENDTAB
  0
TABLE
  2
LAYER
  5
2
102
{ACAD_XDICTIONARY
360
666
102
}
330
0
100
AcDbSymbolTable
 70
     2
  0
LAYER
  5
54
102
{ACAD_XDICTIONARY
360
860
102
}
330
2
100
AcDbSymbolTableRecord
100
AcDbLayerTableRecord
  2
0
 70
     0
 62
     7
  6
CONTINUOUS
370
    -3
390
F
  0
LAYER
  5
64F
330
2
100
AcDbSymbolTableRecord
100
AcDbLayerTableRecord
  2
Defpoints
 70
     0
 62
     7
  6
CONTINUOUS
290
     0
370
    -3
390
F
  0
ENDTAB
  0
TABLE
  2
STYLE
  5
3
330
0
100
AcDbSymbolTable
 70
     6
  0
STYLE
  5
55
330
3
100
AcDbSymbolTableRecord
100
AcDbTextStyleTableRecord
  2
STANDARD
 70
     0
 40
0.0
 41
1.0
 50
0.0
 71
     0
 42
0.2
  3
TXT
  4
BIGFONT
  0
STYLE
  5
650
330
3
100
AcDbSymbolTableRecord
100
AcDbTextStyleTableRecord
  2
高3.2
 70
     0
 40
3.2
 41
1.0
 50
0.0
 71
     0
 42
3.2
  3
txt.shx
  4
bigfont.shx
  0
STYLE
  5
651
330
3
100
AcDbSymbolTableRecord
100
AcDbTextStyleTableRecord
  2
高6.3
 70
     0
 40
6.299999999999998
 41
1.0
 50
0.0
 71
     0
 42
6.299999999999998
  3
txt.shx
  4
bigfont.shx
  0
STYLE
  5
653
330
3
100
AcDbSymbolTableRecord
100
AcDbTextStyleTableRecord
  2
高4.5
 70
     0
 40
4.5
 41
1.0
 50
0.0
 71
     0
 42
6.299999999999998
  3
txt.shx
  4
bigfont.shx
  0
STYLE
  5
654
330
3
100
AcDbSymbolTableRecord
100
AcDbTextStyleTableRecord
  2
高2
 70
     0
 40
2.0
 41
1.0
 50
0.0
 71
     0
 42
2.0
  3
txt.shx
  4
bigfont.shx
  0
STYLE
  5
974
330
3
100
AcDbSymbolTableRecord
100
AcDbTextStyleTableRecord
  2
高2.5
 70
     0
 40
2.5
 41
1.0
 50
0.0
 71
     0
 42
0.2
  3
txt.shx
  4
bigfont.shx
  0
ENDTAB
  0
TABLE
  2
VIEW
  5
6
330
0
100
AcDbSymbolTable
 70
     0
  0
ENDTAB
  0
TABLE
  2
UCS
  5
7
330
0
100
AcDbSymbolTable
 70
     0
  0
ENDTAB
  0
TABLE
  2
APPID
  5
9
330
0
100
AcDbSymbolTable
 70
    10
  0
APPID
  5
56
330
9
100
AcDbSymbolTableRecord
100
AcDbRegAppTableRecord
  2
ACAD
 70
     0
  0
APPID
  5
5D
330
9
100
AcDbSymbolTableRecord
100
AcDbRegAppTableRecord
  2
AcadAnnotative
 70
     0
  0
APPID
  5
65F
330
9
100
AcDbSymbolTableRecord
100
AcDbRegAppTableRecord
  2
ACAD_DSTYLE_DIMJOGGED_JOGANGLE_SYMBOL
 70
     0
  0
APPID
  5
660
330
9
100
AcDbSymbolTableRecord
100
AcDbRegAppTableRecord
  2
ACAD_DSTYLE_DIMJAG
 70
     0
  0
APPID
  5
661
330
9
100
AcDbSymbolTableRecord
100
AcDbRegAppTableRecord
  2
ACAD_DSTYLE_DIMBREAK
 70
     0
  0
APPID
  5
662
330
9
100
AcDbSymbolTableRecord
100
AcDbRegAppTableRecord
  2
ACAD_DSTYLE_DIMTALN
 70
     0
  0
APPID
  5
7CA
330
9
100
AcDbSymbolTableRecord
100
AcDbRegAppTableRecord
  2
ACAD_EXEMPT_FROM_CAD_STANDARDS
 70
     0
  0
APPID
  5
8A6
330
9
100
AcDbSymbolTableRecord
100
AcDbRegAppTableRecord
  2
ACAD_MLEADERVER
 70
     0
  0
APPID
  5
8AB
330
9
100
AcDbSymbolTableRecord
100
AcDbRegAppTableRecord
  2
ACAD_DSTYLE_DIMARC_LENGTH_SYMBOL
 70
     0
  0
APPID
  5
8AC
330
9
100
AcDbSymbolTableRecord
100
AcDbRegAppTableRecord
  2
ACAD_DSTYLE_DIMEXT_LENGTH
 70
     0
  0
ENDTAB
  0
TABLE
  2
DIMSTYLE
  5
A
330
0
100
AcDbSymbolTable
 70
     3
100
AcDbDimStyleTable
 71
     2
340
659
340
57
  0
DIMSTYLE
105
57
330
A
100
AcDbSymbolTableRecord
100
AcDbDimStyleTableRecord
  2
Standard
 70
     0
340
55
  0
DIMSTYLE
105
659
330
A
100
AcDbSymbolTableRecord
100
AcDbDimStyleTableRecord
  2
1／2
 70
     0
 41
2.5
 42
0.25
 43
0.2
 44
1.25
 73
     0
 74
     0
 77
     3
 78
     8
 79
     2
140
3.0
141
0.0
143
0.03937007874016
144
2.0
147
0.625
171
     3
172
     1
178
     4
179
     1
271
     2
272
     2
274
     3
283
     0
284
     8
288
     1
289
     0
340
55
341
5BF
342
5BF
1001
ACAD_DSTYLE_DIMARC_LENGTH_SYMBOL
1070
   379
1070
     2
1001
ACAD_DSTYLE_DIMEXT_LENGTH
1070
   378
1040
1.25
1001
ACAD_DSTYLE_DIMJOGGED_JOGANGLE_SYMBOL
1070
   384
1040
1.570796326794896
  0
DIMSTYLE
105
975
330
A
100
AcDbSymbolTableRecord
100
AcDbDimStyleTableRecord
  2
1：1
 70
     0
 41
2.5
 42
0.25
 43
0.2
 44
1.25
 73
     0
 74
     0
 77
     3
 78
     8
 79
     2
140
3.0
141
0.0
143
0.03937007874016
147
0.625
171
     3
172
     1
178
     4
179
     1
271
     2
272
     2
274
     3
283
     0
284
     8
288
     1
289
     0
340
55
341
5BF
342
5BF
1001
ACAD_DSTYLE_DIMARC_LENGTH_SYMBOL
1070
   379
1070
     2
1001
ACAD_DSTYLE_DIMEXT_LENGTH
1070
   378
1040
1.25
1001
ACAD_DSTYLE_DIMJOGGED_JOGANGLE_SYMBOL
1070
   384
1040
1.570796326794894
  0
ENDTAB
  0
TABLE
  2
BLOCK_RECORD
  5
1
330
0
100
AcDbSymbolTable
 70
    15
  0
BLOCK_RECORD
  5
6B
102
{ACAD_XDICTIONARY
360
82A
102
}
330
1
100
AcDbSymbolTableRecord
100
AcDbBlockTableRecord
  2
*Model_Space
340
6E
  0
BLOCK_RECORD
  5
67
330
1
100
AcDbSymbolTableRecord
100
AcDbBlockTableRecord
  2
*Paper_Space
340
6A
  0
BLOCK_RECORD
  5
5BF
330
1
100
AcDbSymbolTableRecord
100
AcDbBlockTableRecord
  2
_Open30
340
0
102
{BLKREFS
331
91E
331
91F
331
927
331
928
331
930
331
931
331
939
331
93A
331
945
331
946
331
95D
331
95E
331
969
331
96A
331
951
331
952
331
11C4
331
11C5
331
11CD
331
11CE
331
11D6
331
11D7
331
11DF
331
11E0
102
}
  0
BLOCK_RECORD
  5
7A6
330
1
100
AcDbSymbolTableRecord
100
AcDbBlockTableRecord
  2
*D1
340
0
  0
BLOCK_RECORD
  5
7B2
330
1
100
AcDbSymbolTableRecord
100
AcDbBlockTableRecord
  2
*D2
340
0
  0
BLOCK_RECORD
  5
7BE
330
1
100
AcDbSymbolTableRecord
100
AcDbBlockTableRecord
  2
*D3
340
0
  0
BLOCK_RECORD
  5
7D5
330
1
100
AcDbSymbolTableRecord
100
AcDbBlockTableRecord
  2
*D4
340
0
  0
BLOCK_RECORD
  5
940
330
1
100
AcDbSymbolTableRecord
100
AcDbBlockTableRecord
  2
*D5
340
0
  0
BLOCK_RECORD
  5
94C
330
1
100
AcDbSymbolTableRecord
100
AcDbBlockTableRecord
  2
*D6
340
0
  0
BLOCK_RECORD
  5
958
330
1
100
AcDbSymbolTableRecord
100
AcDbBlockTableRecord
  2
*D7
340
0
  0
BLOCK_RECORD
  5
964
330
1
100
AcDbSymbolTableRecord
100
AcDbBlockTableRecord
  2
*D8
340
0
  0
BLOCK_RECORD
  5
970
330
1
100
AcDbSymbolTableRecord
100
AcDbBlockTableRecord
  2
_DotSmall
340
0
  0
BLOCK_RECORD
  5
1191
330
1
100
AcDbSymbolTableRecord
100
AcDbBlockTableRecord
  2
*D11
340
0
  0
BLOCK_RECORD
  5
119D
330
1
100
AcDbSymbolTableRecord
100
AcDbBlockTableRecord
  2
*D12
340
0
  0
BLOCK_RECORD
  5
11A9
330
1
100
AcDbSymbolTableRecord
100
AcDbBlockTableRecord
  2
*D13
340
0
  0
BLOCK_RECORD
  5
11B5
330
1
100
AcDbSymbolTableRecord
100
AcDbBlockTableRecord
  2
*D14
340
0
  0
ENDTAB
  0
ENDSEC
  0
SECTION
  2
BLOCKS
  0
BLOCK
  5
6C
330
6B
100
AcDbEntity
  8
0
100
AcDbBlockBegin
  2
*Model_Space
 70
     0
 10
0.0
 20
0.0
 30
0.0
  3
*Model_Space
  1

  0
ENDBLK
  5
6D
330
6B
100
AcDbEntity
  8
0
100
AcDbBlockEnd
  0
BLOCK
  5
68
330
67
100
AcDbEntity
 67
     1
  8
0
100
AcDbBlockBegin
  2
*Paper_Space
 70
     0
 10
0.0
 20
0.0
 30
0.0
  3
*Paper_Space
  1

  0
ENDBLK
  5
69
330
67
100
AcDbEntity
 67
     1
  8
0
100
AcDbBlockEnd
  0
BLOCK
  5
5C0
330
5BF
100
AcDbEntity
  8
0
100
AcDbBlockBegin
  2
_Open30
 70
     0
 10
0.0
 20
0.0
 30
0.0
  3
_Open30
  1

  0
LINE
  5
5C1
330
5BF
100
AcDbEntity
  8
0
  6
ByBlock
 62
     0
370
    -2
100
AcDbLine
 10
-1.0
 20
0.267949
 30
0.0
 11
0.0
 21
0.0
 31
0.0
  0
LINE
  5
5C2
330
5BF
100
AcDbEntity
  8
0
  6
ByBlock
 62
     0
370
    -2
100
AcDbLine
 10
0.0
 20
0.0
 30
0.0
 11
-1.0
 21
-0.267949
 31
0.0
  0
LINE
  5
5C3
330
5BF
100
AcDbEntity
  8
0
  6
ByBlock
 62
     0
370
    -2
100
AcDbLine
 10
0.0
 20
0.0
 30
0.0
 11
-1.0
 21
0.0
 31
0.0
  0
ENDBLK
  5
5C4
330
5BF
100
AcDbEntity
  8
0
100
AcDbBlockEnd
  0
BLOCK
  5
7A7
330
7A6
100
AcDbEntity
  8
0
100
AcDbBlockBegin
  2
*D1
 70
     1
 10
0.0
 20
0.0
 30
0.0
  3
*D1
  1

  0
LINE
  5
91B
330
7A6
100
AcDbEntity
  8
0
 62
     0
370
    -2
100
AcDbLine
 10
-104.498585
 20
-335.715168
 30
0.0
 11
-104.498585
 21
-363.026448
 31
0.0
  0
LINE
  5
91C
330
7A6
100
AcDbEntity
  8
0
 62
     0
370
    -2
100
AcDbLine
 10
70.50141500000002
 20
-335.715168
 30
0.0
 11
70.50141500000002
 21
-363.026448
 31
0.0
  0
LINE
  5
91D
330
7A6
100
AcDbEntity
  8
0
 62
     0
370
    -2
100
AcDbLine
 10
-101.998585
 20
-361.776448
 30
0.0
 11
68.00141500000002
 21
-361.776448
 31
0.0
  0
INSERT
  5
91E
330
7A6
100
AcDbEntity
  8
0
 62
     0
370
    -2
100
AcDbBlockReference
  2
_Open30
 10
-104.498585
 20
-361.776448
 30
0.0
 41
2.5
 42
2.5
 43
2.5
 50
180.0
  0
INSERT
  5
91F
330
7A6
100
AcDbEntity
  8
0
 62
     0
370
    -2
100
AcDbBlockReference
  2
_Open30
 10
70.50141500000002
 20
-361.776448
 30
0.0
 41
2.5
 42
2.5
 43
2.5
  0
MTEXT
  5
920
330
7A6
100
AcDbEntity
  8
0
 62
     4
100
AcDbMText
 10
-16.99858499999998
 20
-359.651448
 30
0.0
 40
3.0
 41
0.0
 71
     5
 72
     1
  1
350
 73
     1
 44
1.0
1001
ACAD
1000
MTEXTBEGIN
1070
    73
1070
     1
1070
    44
1040
1.0
1070
    74
1070
     0
1000
MTEXTEND
  0
POINT
  5
921
330
7A6
100
AcDbEntity
  8
Defpoints
 62
     0
100
AcDbPoint
 10
-104.498585
 20
-335.465168
 30
0.0
  0
POINT
  5
922
330
7A6
100
AcDbEntity
  8
Defpoints
 62
     0
100
AcDbPoint
 10
70.50141500000002
 20
-335.465168
 30
0.0
  0
POINT
  5
923
330
7A6
100
AcDbEntity
  8
Defpoints
 62
     0
100
AcDbPoint
 10
70.50141500000002
 20
-361.776448
 30
0.0
  0
ENDBLK
  5
7A8
330
7A6
100
AcDbEntity
  8
0
100
AcDbBlockEnd
  0
BLOCK
  5
7B3
330
7B2
100
AcDbEntity
  8
0
100
AcDbBlockBegin
  2
*D2
 70
     1
 10
0.0
 20
0.0
 30
0.0
  3
*D2
  1

  0
LINE
  5
924
330
7B2
100
AcDbEntity
  8
0
 62
     0
370
    -2
100
AcDbLine
 10
-93.41944699999997
 20
-347.446401
 30
0.0
 11
-115.18345
 21
-347.446401
 31
0.0
  0
LINE
  5
925
330
7B2
100
AcDbEntity
  8
0
 62
     0
370
    -2
100
AcDbLine
 10
-93.41944699999997
 20
-317.708082
 30
0.0
 11
-115.18345
 21
-317.708082
 31
0.0
  0
LINE
  5
926
330
7B2
100
AcDbEntity
  8
0
 62
     0
370
    -2
100
AcDbLine
 10
-113.93345
 20
-344.946401
 30
0.0
 11
-113.93345
 21
-320.208082
 31
0.0
  0
INSERT
  5
927
330
7B2
100
AcDbEntity
  8
0
 62
     0
370
    -2
100
AcDbBlockReference
  2
_Open30
 10
-113.93345
 20
-347.446401
 30
0.0
 41
2.5
 42
2.5
 43
2.5
 50
270.0
  0
INSERT
  5
928
330
7B2
100
AcDbEntity
  8
0
 62
     0
370
    -2
100
AcDbBlockReference
  2
_Open30
 10
-113.93345
 20
-317.708082
 30
0.0
 41
2.5
 42
2.5
 43
2.5
 50
90.0
  0
MTEXT
  5
929
330
7B2
100
AcDbEntity
  8
0
 62
     4
100
AcDbMText
 10
-116.0584499999999
 20
-332.5772415
 30
0.0
 40
3.0
 41
0.0
 71
     5
 72
     1
  1
60
 11
0.0000000000000001
 21
1.0
 31
0.0
 73
     1
 44
1.0
1001
ACAD
1000
MTEXTBEGIN
1070
    73
1070
     1
1070
    44
1040
1.0
1070
    74
1070
     0
1000
MTEXTEND
  0
POINT
  5
92A
330
7B2
100
AcDbEntity
  8
Defpoints
 62
     0
100
AcDbPoint
 10
-93.16944699999998
 20
-347.446401
 30
0.0
  0
POINT
  5
92B
330
7B2
100
AcDbEntity
  8
Defpoints
 62
     0
100
AcDbPoint
 10
-93.16944699999998
 20
-317.708082
 30
0.0
  0
POINT
  5
92C
330
7B2
100
AcDbEntity
  8
Defpoints
 62
     0
100
AcDbPoint
 10
-113.93345
 20
-317.708082
 30
0.0
  0
ENDBLK
  5
7B4
330
7B2
100
AcDbEntity
  8
0
100
AcDbBlockEnd
  0
BLOCK
  5
7BF
330
7BE
100
AcDbEntity
  8
0
100
AcDbBlockBegin
  2
*D3
 70
     1
 10
0.0
 20
0.0
 30
0.0
  3
*D3
  1

  0
LINE
  5
92D
330
7BE
100
AcDbEntity
  8
0
 62
     0
370
    -2
100
AcDbLine
 10
-17.248585
 20
-349.577242
 30
0.0
 11
-122.61265
 21
-349.577242
 31
0.0
  0
LINE
  5
92E
330
7BE
100
AcDbEntity
  8
0
 62
     0
370
    -2
100
AcDbLine
 10
-17.248585
 20
-315.577242
 30
0.0
 11
-122.61265
 21
-315.577242
 31
0.0
  0
LINE
  5
92F
330
7BE
100
AcDbEntity
  8
0
 62
     0
370
    -2
100
AcDbLine
 10
-121.36265
 20
-347.077242
 30
0.0
 11
-121.36265
 21
-318.077242
 31
0.0
  0
INSERT
  5
930
330
7BE
100
AcDbEntity
  8
0
 62
     0
370
    -2
100
AcDbBlockReference
  2
_Open30
 10
-121.36265
 20
-349.577242
 30
0.0
 41
2.5
 42
2.5
 43
2.5
 50
270.0
  0
INSERT
  5
931
330
7BE
100
AcDbEntity
  8
0
 62
     0
370
    -2
100
AcDbBlockReference
  2
_Open30
 10
-121.36265
 20
-315.577242
 30
0.0
 41
2.5
 42
2.5
 43
2.5
 50
90.0
  0
MTEXT
  5
932
330
7BE
100
AcDbEntity
  8
0
 62
     4
100
AcDbMText
 10
-123.4876499999999
 20
-332.577242
 30
0.0
 40
3.0
 41
0.0
 71
     5
 72
     1
  1
68
 11
0.0000000000000001
 21
1.0
 31
0.0
 73
     1
 44
1.0
1001
ACAD
1000
MTEXTBEGIN
1070
    73
1070
     1
1070
    44
1040
1.0
1070
    74
1070
     0
1000
MTEXTEND
  0
POINT
  5
933
330
7BE
100
AcDbEntity
  8
Defpoints
 62
     0
100
AcDbPoint
 10
-16.998585
 20
-349.577242
 30
0.0
  0
POINT
  5
934
330
7BE
100
AcDbEntity
  8
Defpoints
 62
     0
100
AcDbPoint
 10
-16.998585
 20
-315.577242
 30
0.0
  0
POINT
  5
935
330
7BE
100
AcDbEntity
  8
Defpoints
 62
     0
100
AcDbPoint
 10
-121.36265
 20
-315.577242
 30
0.0
  0
ENDBLK
  5
7C0
330
7BE
100
AcDbEntity
  8
0
100
AcDbBlockEnd
  0
BLOCK
  5
7D6
330
7D5
100
AcDbEntity
  8
0
100
AcDbBlockBegin
  2
*D4
 70
     1
 10
0.0
 20
0.0
 30
0.0
  3
*D4
  1

  0
LINE
  5
936
330
7D5
100
AcDbEntity
  8
0
 62
     0
370
    -2
100
AcDbLine
 10
-102.248585
 20
-434.8456089999998
 30
0.0
 11
-116.982381
 21
-434.8456089999998
 31
0.0
  0
LINE
  5
937
330
7D5
100
AcDbEntity
  8
0
 62
     0
370
    -2
100
AcDbLine
 10
-102.248585
 20
-375.8345
 30
0.0
 11
-116.982381
 21
-375.8345
 31
0.0
  0
LINE
  5
938
330
7D5
100
AcDbEntity
  8
0
 62
     0
370
    -2
100
AcDbLine
 10
-115.732381
 20
-432.3456089999998
 30
0.0
 11
-115.732381
 21
-378.3345
 31
0.0
  0
INSERT
  5
939
330
7D5
100
AcDbEntity
  8
0
 62
     0
370
    -2
100
AcDbBlockReference
  2
_Open30
 10
-115.732381
 20
-434.8456089999998
 30
0.0
 41
2.5
 42
2.5
 43
2.5
 50
270.0
  0
INSERT
  5
93A
330
7D5
100
AcDbEntity
  8
0
 62
     0
370
    -2
100
AcDbBlockReference
  2
_Open30
 10
-115.732381
 20
-375.8345
 30
0.0
 41
2.5
 42
2.5
 43
2.5
 50
90.0
  0
MTEXT
  5
93B
330
7D5
100
AcDbEntity
  8
0
 62
     4
100
AcDbMText
 10
-117.8573809999999
 20
-405.3400544999999
 30
0.0
 40
3.0
 41
0.0
 71
     5
 72
     1
  1
118
 11
0.0000000000000001
 21
1.0
 31
0.0
 73
     1
 44
1.0
1001
ACAD
1000
MTEXTBEGIN
1070
    73
1070
     1
1070
    44
1040
1.0
1070
    74
1070
     0
1000
MTEXTEND
  0
POINT
  5
93C
330
7D5
100
AcDbEntity
  8
Defpoints
 62
     0
100
AcDbPoint
 10
-101.998585
 20
-434.8456089999998
 30
0.0
  0
POINT
  5
93D
330
7D5
100
AcDbEntity
  8
Defpoints
 62
     0
100
AcDbPoint
 10
-101.998585
 20
-375.8345
 30
0.0
  0
POINT
  5
93E
330
7D5
100
AcDbEntity
  8
Defpoints
 62
     0
100
AcDbPoint
 10
-115.732381
 20
-375.8345
 30
0.0
  0
ENDBLK
  5
7D7
330
7D5
100
AcDbEntity
  8
0
100
AcDbBlockEnd
  0
BLOCK
  5
941
330
940
100
AcDbEntity
  8
0
100
AcDbBlockBegin
  2
*D5
 70
     1
 10
0.0
 20
0.0
 30
0.0
  3
*D5
  1

  0
LINE
  5
942
330
940
100
AcDbEntity
  8
0
 62
     0
370
    -2
100
AcDbLine
 10
-201.382624
 20
-265.30284
 30
0.0
 11
-201.382624
 21
-288.810126
 31
0.0
  0
LINE
  5
943
330
940
100
AcDbEntity
  8
0
 62
     0
370
    -2
100
AcDbLine
 10
-26.382624
 20
-265.30284
 30
0.0
 11
-26.382624
 21
-288.810126
 31
0.0
  0
LINE
  5
944
330
940
100
AcDbEntity
  8
0
 62
     0
370
    -2
100
AcDbLine
 10
-198.882624
 20
-287.560126
 30
0.0
 11
-28.882624
 21
-287.560126
 31
0.0
  0
INSERT
  5
945
330
940
100
AcDbEntity
  8
0
 62
     0
370
    -2
100
AcDbBlockReference
  2
_Open30
 10
-201.382624
 20
-287.560126
 30
0.0
 41
2.5
 42
2.5
 43
2.5
 50
180.0
  0
INSERT
  5
946
330
940
100
AcDbEntity
  8
0
 62
     0
370
    -2
100
AcDbBlockReference
  2
_Open30
 10
-26.382624
 20
-287.560126
 30
0.0
 41
2.5
 42
2.5
 43
2.5
  0
MTEXT
  5
947
330
940
100
AcDbEntity
  8
0
 62
     4
100
AcDbMText
 10
-113.882624
 20
-285.4351259999999
 30
0.0
 40
3.0
 41
0.0
 71
     5
 72
     1
  1
350
 73
     1
 44
1.0
1001
ACAD
1000
MTEXTBEGIN
1070
    73
1070
     1
1070
    44
1040
1.0
1070
    74
1070
     0
1000
MTEXTEND
  0
POINT
  5
948
330
940
100
AcDbEntity
  8
Defpoints
 62
     0
100
AcDbPoint
 10
-201.382624
 20
-265.05284
 30
0.0
  0
POINT
  5
949
330
940
100
AcDbEntity
  8
Defpoints
 62
     0
100
AcDbPoint
 10
-26.382624
 20
-265.05284
 30
0.0
  0
POINT
  5
94A
330
940
100
AcDbEntity
  8
Defpoints
 62
     0
100
AcDbPoint
 10
-26.382624
 20
-287.560126
 30
0.0
  0
ENDBLK
  5
94B
330
940
100
AcDbEntity
  8
0
100
AcDbBlockEnd
  0
BLOCK
  5
94D
330
94C
100
AcDbEntity
  8
0
100
AcDbBlockBegin
  2
*D6
 70
     1
 10
0.0
 20
0.0
 30
0.0
  3
*D6
  1

  0
LINE
  5
94E
330
94C
100
AcDbEntity
  8
0
 62
     0
370
    -2
100
AcDbLine
 10
-190.303486
 20
-277.034073
 30
0.0
 11
-212.067489
 21
-277.034073
 31
0.0
  0
LINE
  5
94F
330
94C
100
AcDbEntity
  8
0
 62
     0
370
    -2
100
AcDbLine
 10
-190.303486
 20
-247.295754
 30
0.0
 11
-212.067489
 21
-247.295754
 31
0.0
  0
LINE
  5
950
330
94C
100
AcDbEntity
  8
0
 62
     0
370
    -2
100
AcDbLine
 10
-210.817489
 20
-274.534073
 30
0.0
 11
-210.817489
 21
-249.795754
 31
0.0
  0
INSERT
  5
951
330
94C
100
AcDbEntity
  8
0
 62
     0
370
    -2
100
AcDbBlockReference
  2
_Open30
 10
-210.817489
 20
-277.034073
 30
0.0
 41
2.5
 42
2.5
 43
2.5
 50
270.0
  0
INSERT
  5
952
330
94C
100
AcDbEntity
  8
0
 62
     0
370
    -2
100
AcDbBlockReference
  2
_Open30
 10
-210.817489
 20
-247.295754
 30
0.0
 41
2.5
 42
2.5
 43
2.5
 50
90.0
  0
MTEXT
  5
953
330
94C
100
AcDbEntity
  8
0
 62
     4
100
AcDbMText
 10
-212.942489
 20
-262.1649135
 30
0.0
 40
3.0
 41
0.0
 71
     5
 72
     1
  1
60
 11
0.0000000000000001
 21
1.0
 31
0.0
 73
     1
 44
1.0
1001
ACAD
1000
MTEXTBEGIN
1070
    73
1070
     1
1070
    44
1040
1.0
1070
    74
1070
     0
1000
MTEXTEND
  0
POINT
  5
954
330
94C
100
AcDbEntity
  8
Defpoints
 62
     0
100
AcDbPoint
 10
-190.053486
 20
-277.034073
 30
0.0
  0
POINT
  5
955
330
94C
100
AcDbEntity
  8
Defpoints
 62
     0
100
AcDbPoint
 10
-190.053486
 20
-247.295754
 30
0.0
  0
POINT
  5
956
330
94C
100
AcDbEntity
  8
Defpoints
 62
     0
100
AcDbPoint
 10
-210.817489
 20
-247.295754
 30
0.0
  0
ENDBLK
  5
957
330
94C
100
AcDbEntity
  8
0
100
AcDbBlockEnd
  0
BLOCK
  5
959
330
958
100
AcDbEntity
  8
0
100
AcDbBlockBegin
  2
*D7
 70
     1
 10
0.0
 20
0.0
 30
0.0
  3
*D7
  1

  0
LINE
  5
95A
330
958
100
AcDbEntity
  8
0
 62
     0
370
    -2
100
AcDbLine
 10
-114.132624
 20
-279.164914
 30
0.0
 11
-220.004057
 21
-279.164914
 31
0.0
  0
LINE
  5
95B
330
958
100
AcDbEntity
  8
0
 62
     0
370
    -2
100
AcDbLine
 10
-114.132624
 20
-245.164914
 30
0.0
 11
-220.004057
 21
-245.164914
 31
0.0
  0
LINE
  5
95C
330
958
100
AcDbEntity
  8
0
 62
     0
370
    -2
100
AcDbLine
 10
-218.754057
 20
-276.664914
 30
0.0
 11
-218.754057
 21
-247.664914
 31
0.0
  0
INSERT
  5
95D
330
958
100
AcDbEntity
  8
0
 62
     0
370
    -2
100
AcDbBlockReference
  2
_Open30
 10
-218.754057
 20
-279.164914
 30
0.0
 41
2.5
 42
2.5
 43
2.5
 50
270.0
  0
INSERT
  5
95E
330
958
100
AcDbEntity
  8
0
 62
     0
370
    -2
100
AcDbBlockReference
  2
_Open30
 10
-218.754057
 20
-245.164914
 30
0.0
 41
2.5
 42
2.5
 43
2.5
 50
90.0
  0
MTEXT
  5
95F
330
958
100
AcDbEntity
  8
0
 62
     4
100
AcDbMText
 10
-220.879057
 20
-262.164914
 30
0.0
 40
3.0
 41
0.0
 71
     5
 72
     1
  1
68
 11
0.0000000000000001
 21
1.0
 31
0.0
 73
     1
 44
1.0
1001
ACAD
1000
MTEXTBEGIN
1070
    73
1070
     1
1070
    44
1040
1.0
1070
    74
1070
     0
1000
MTEXTEND
  0
POINT
  5
960
330
958
100
AcDbEntity
  8
Defpoints
 62
     0
100
AcDbPoint
 10
-113.882624
 20
-279.164914
 30
0.0
  0
POINT
  5
961
330
958
100
AcDbEntity
  8
Defpoints
 62
     0
100
AcDbPoint
 10
-113.882624
 20
-245.164914
 30
0.0
  0
POINT
  5
962
330
958
100
AcDbEntity
  8
Defpoints
 62
     0
100
AcDbPoint
 10
-218.754057
 20
-245.164914
 30
0.0
  0
ENDBLK
  5
963
330
958
100
AcDbEntity
  8
0
100
AcDbBlockEnd
  0
BLOCK
  5
965
330
964
100
AcDbEntity
  8
0
100
AcDbBlockBegin
  2
*D8
 70
     1
 10
0.0
 20
0.0
 30
0.0
  3
*D8
  1

  0
LINE
  5
966
330
964
100
AcDbEntity
  8
0
 62
     0
370
    -2
100
AcDbLine
 10
-199.132624
 20
-359.433281
 30
0.0
 11
-213.866421
 21
-359.433281
 31
0.0
  0
LINE
  5
967
330
964
100
AcDbEntity
  8
0
 62
     0
370
    -2
100
AcDbLine
 10
-199.132624
 20
-300.422172
 30
0.0
 11
-213.866421
 21
-300.422172
 31
0.0
  0
LINE
  5
968
330
964
100
AcDbEntity
  8
0
 62
     0
370
    -2
100
AcDbLine
 10
-212.616421
 20
-356.933281
 30
0.0
 11
-212.616421
 21
-302.9221720000001
 31
0.0
  0
INSERT
  5
969
330
964
100
AcDbEntity
  8
0
 62
     0
370
    -2
100
AcDbBlockReference
  2
_Open30
 10
-212.616421
 20
-359.433281
 30
0.0
 41
2.5
 42
2.5
 43
2.5
 50
270.0
  0
INSERT
  5
96A
330
964
100
AcDbEntity
  8
0
 62
     0
370
    -2
100
AcDbBlockReference
  2
_Open30
 10
-212.616421
 20
-300.422172
 30
0.0
 41
2.5
 42
2.5
 43
2.5
 50
90.0
  0
MTEXT
  5
96B
330
964
100
AcDbEntity
  8
0
 62
     4
100
AcDbMText
 10
-214.741421
 20
-329.9277265000001
 30
0.0
 40
3.0
 41
0.0
 71
     5
 72
     1
  1
118
 11
0.0000000000000001
 21
1.0
 31
0.0
 73
     1
 44
1.0
1001
ACAD
1000
MTEXTBEGIN
1070
    73
1070
     1
1070
    44
1040
1.0
1070
    74
1070
     0
1000
MTEXTEND
  0
POINT
  5
96C
330
964
100
AcDbEntity
  8
Defpoints
 62
     0
100
AcDbPoint
 10
-198.882624
 20
-359.433281
 30
0.0
  0
POINT
  5
96D
330
964
100
AcDbEntity
  8
Defpoints
 62
     0
100
AcDbPoint
 10
-198.882624
 20
-300.422172
 30
0.0
  0
POINT
  5
96E
330
964
100
AcDbEntity
  8
Defpoints
 62
     0
100
AcDbPoint
 10
-212.616421
 20
-300.422172
 30
0.0
  0
ENDBLK
  5
96F
330
964
100
AcDbEntity
  8
0
100
AcDbBlockEnd
  0
BLOCK
  5
971
330
970
100
AcDbEntity
  8
0
100
AcDbBlockBegin
  2
_DotSmall
 70
     0
 10
0.0
 20
0.0
 30
0.0
  3
_DotSmall
  1

  0
LWPOLYLINE
  5
972
330
970
100
AcDbEntity
  8
0
  6
ByBlock
 62
     0
100
AcDbPolyline
 90
        2
 70
     1
 43
0.5
 10
-0.0625
 20
0.0
 42
1.0
 10
0.0625
 20
0.0
 42
1.0
  0
ENDBLK
  5
973
330
970
100
AcDbEntity
  8
0
100
AcDbBlockEnd
  0
BLOCK
  5
1192
330
1191
100
AcDbEntity
  8
0
100
AcDbBlockBegin
  2
*D11
 70
     1
 10
0.0
 20
0.0
 30
0.0
  3
*D11
  1

  0
LINE
  5
11C1
330
1191
100
AcDbEntity
  8
0
 62
     0
370
    -2
100
AcDbLine
 10
437.428613279232
 20
-439.6638451198438
 30
0.0
 11
422.694816279232
 21
-439.6638451198438
 31
0.0
  0
LINE
  5
11C2
330
1191
100
AcDbEntity
  8
0
 62
     0
370
    -2
100
AcDbLine
 10
437.428613279232
 20
-380.6527361198439
 30
0.0
 11
422.694816279232
 21
-380.6527361198439
 31
0.0
  0
LINE
  5
11C3
330
1191
100
AcDbEntity
  8
0
 62
     0
370
    -2
100
AcDbLine
 10
423.9448162792319
 20
-437.1638451198438
 30
0.0
 11
423.944816279232
 21
-383.1527361198439
 31
0.0
  0
INSERT
  5
11C4
330
1191
100
AcDbEntity
  8
0
 62
     0
370
    -2
100
AcDbBlockReference
  2
_Open30
 10
423.9448162792319
 20
-439.6638451198438
 30
0.0
 41
2.5
 42
2.5
 43
2.5
 50
270.0
  0
INSERT
  5
11C5
330
1191
100
AcDbEntity
  8
0
 62
     0
370
    -2
100
AcDbBlockReference
  2
_Open30
 10
423.944816279232
 20
-380.6527361198439
 30
0.0
 41
2.5
 42
2.5
 43
2.5
 50
90.0
  0
MTEXT
  5
11C6
330
1191
100
AcDbEntity
  8
0
 62
     4
100
AcDbMText
 10
421.8198162792321
 20
-410.1582906198437
 30
0.0
 40
3.0
 41
0.0
 71
     5
 72
     1
  1
118
 11
0.0000000000000001
 21
1.0
 31
0.0
 73
     1
 44
1.0
1001
ACAD
1000
MTEXTBEGIN
1070
    73
1070
     1
1070
    44
1040
1.0
1070
    74
1070
     0
1000
MTEXTEND
  0
POINT
  5
11C7
330
1191
100
AcDbEntity
  8
Defpoints
 62
     0
100
AcDbPoint
 10
437.6786132792321
 20
-439.6638451198438
 30
0.0
  0
POINT
  5
11C8
330
1191
100
AcDbEntity
  8
Defpoints
 62
     0
100
AcDbPoint
 10
437.6786132792321
 20
-380.6527361198439
 30
0.0
  0
POINT
  5
11C9
330
1191
100
AcDbEntity
  8
Defpoints
 62
     0
100
AcDbPoint
 10
423.944816279232
 20
-380.6527361198439
 30
0.0
  0
ENDBLK
  5
1193
330
1191
100
AcDbEntity
  8
0
100
AcDbBlockEnd
  0
BLOCK
  5
119E
330
119D
100
AcDbEntity
  8
0
100
AcDbBlockBegin
  2
*D12
 70
     1
 10
0.0
 20
0.0
 30
0.0
  3
*D12
  1

  0
LINE
  5
11CA
330
119D
100
AcDbEntity
  8
0
 62
     0
370
    -2
100
AcDbLine
 10
446.257751279232
 20
-357.2646371198438
 30
0.0
 11
424.493748279232
 21
-357.2646371198438
 31
0.0
  0
LINE
  5
11CB
330
119D
100
AcDbEntity
  8
0
 62
     0
370
    -2
100
AcDbLine
 10
446.257751279232
 20
-327.5263181198438
 30
0.0
 11
424.493748279232
 21
-327.5263181198438
 31
0.0
  0
LINE
  5
11CC
330
119D
100
AcDbEntity
  8
0
 62
     0
370
    -2
100
AcDbLine
 10
425.743748279232
 20
-354.7646371198438
 30
0.0
 11
425.743748279232
 21
-330.0263181198439
 31
0.0
  0
INSERT
  5
11CD
330
119D
100
AcDbEntity
  8
0
 62
     0
370
    -2
100
AcDbBlockReference
  2
_Open30
 10
425.743748279232
 20
-357.2646371198438
 30
0.0
 41
2.5
 42
2.5
 43
2.5
 50
270.0
  0
INSERT
  5
11CE
330
119D
100
AcDbEntity
  8
0
 62
     0
370
    -2
100
AcDbBlockReference
  2
_Open30
 10
425.743748279232
 20
-327.5263181198438
 30
0.0
 41
2.5
 42
2.5
 43
2.5
 50
90.0
  0
MTEXT
  5
11CF
330
119D
100
AcDbEntity
  8
0
 62
     4
100
AcDbMText
 10
423.618748279232
 20
-342.3954776198438
 30
0.0
 40
3.0
 41
0.0
 71
     5
 72
     1
  1
60
 11
0.0000000000000001
 21
1.0
 31
0.0
 73
     1
 44
1.0
1001
ACAD
1000
MTEXTBEGIN
1070
    73
1070
     1
1070
    44
1040
1.0
1070
    74
1070
     0
1000
MTEXTEND
  0
POINT
  5
11D0
330
119D
100
AcDbEntity
  8
Defpoints
 62
     0
100
AcDbPoint
 10
446.507751279232
 20
-357.2646371198438
 30
0.0
  0
POINT
  5
11D1
330
119D
100
AcDbEntity
  8
Defpoints
 62
     0
100
AcDbPoint
 10
446.507751279232
 20
-327.5263181198438
 30
0.0
  0
POINT
  5
11D2
330
119D
100
AcDbEntity
  8
Defpoints
 62
     0
100
AcDbPoint
 10
425.743748279232
 20
-327.5263181198438
 30
0.0
  0
ENDBLK
  5
119F
330
119D
100
AcDbEntity
  8
0
100
AcDbBlockEnd
  0
BLOCK
  5
11AA
330
11A9
100
AcDbEntity
  8
0
100
AcDbBlockBegin
  2
*D13
 70
     1
 10
0.0
 20
0.0
 30
0.0
  3
*D13
  1

  0
LINE
  5
11D3
330
11A9
100
AcDbEntity
  8
0
 62
     0
370
    -2
100
AcDbLine
 10
435.178613279232
 20
-345.5334041198439
 30
0.0
 11
435.178613279232
 21
-369.0406901198438
 31
0.0
  0
LINE
  5
11D4
330
11A9
100
AcDbEntity
  8
0
 62
     0
370
    -2
100
AcDbLine
 10
610.1786132792319
 20
-345.5334041198439
 30
0.0
 11
610.1786132792319
 21
-369.0406901198438
 31
0.0
  0
LINE
  5
11D5
330
11A9
100
AcDbEntity
  8
0
 62
     0
370
    -2
100
AcDbLine
 10
437.6786132792321
 20
-367.7906901198438
 30
0.0
 11
607.6786132792319
 21
-367.7906901198438
 31
0.0
  0
INSERT
  5
11D6
330
11A9
100
AcDbEntity
  8
0
 62
     0
370
    -2
100
AcDbBlockReference
  2
_Open30
 10
435.178613279232
 20
-367.7906901198438
 30
0.0
 41
2.5
 42
2.5
 43
2.5
 50
180.0
  0
INSERT
  5
11D7
330
11A9
100
AcDbEntity
  8
0
 62
     0
370
    -2
100
AcDbBlockReference
  2
_Open30
 10
610.1786132792319
 20
-367.7906901198438
 30
0.0
 41
2.5
 42
2.5
 43
2.5
  0
MTEXT
  5
11D8
330
11A9
100
AcDbEntity
  8
0
 62
     4
100
AcDbMText
 10
522.6786132792319
 20
-365.6656901198438
 30
0.0
 40
3.0
 41
0.0
 71
     5
 72
     1
  1
350
 73
     1
 44
1.0
1001
ACAD
1000
MTEXTBEGIN
1070
    73
1070
     1
1070
    44
1040
1.0
1070
    74
1070
     0
1000
MTEXTEND
  0
POINT
  5
11D9
330
11A9
100
AcDbEntity
  8
Defpoints
 62
     0
100
AcDbPoint
 10
435.178613279232
 20
-345.2834041198439
 30
0.0
  0
POINT
  5
11DA
330
11A9
100
AcDbEntity
  8
Defpoints
 62
     0
100
AcDbPoint
 10
610.1786132792319
 20
-345.2834041198439
 30
0.0
  0
POINT
  5
11DB
330
11A9
100
AcDbEntity
  8
Defpoints
 62
     0
100
AcDbPoint
 10
610.1786132792319
 20
-367.7906901198438
 30
0.0
  0
ENDBLK
  5
11AB
330
11A9
100
AcDbEntity
  8
0
100
AcDbBlockEnd
  0
BLOCK
  5
11B6
330
11B5
100
AcDbEntity
  8
0
100
AcDbBlockBegin
  2
*D14
 70
     1
 10
0.0
 20
0.0
 30
0.0
  3
*D14
  1

  0
LINE
  5
11DC
330
11B5
100
AcDbEntity
  8
0
 62
     0
370
    -2
100
AcDbLine
 10
522.4286132792321
 20
-359.3954781198438
 30
0.0
 11
416.557180279232
 21
-359.3954781198438
 31
0.0
  0
LINE
  5
11DD
330
11B5
100
AcDbEntity
  8
0
 62
     0
370
    -2
100
AcDbLine
 10
522.4286132792321
 20
-325.3954781198439
 30
0.0
 11
416.557180279232
 21
-325.3954781198439
 31
0.0
  0
LINE
  5
11DE
330
11B5
100
AcDbEntity
  8
0
 62
     0
370
    -2
100
AcDbLine
 10
417.807180279232
 20
-356.8954781198439
 30
0.0
 11
417.807180279232
 21
-327.8954781198438
 31
0.0
  0
INSERT
  5
11DF
330
11B5
100
AcDbEntity
  8
0
 62
     0
370
    -2
100
AcDbBlockReference
  2
_Open30
 10
417.807180279232
 20
-359.3954781198438
 30
0.0
 41
2.5
 42
2.5
 43
2.5
 50
270.0
  0
INSERT
  5
11E0
330
11B5
100
AcDbEntity
  8
0
 62
     0
370
    -2
100
AcDbBlockReference
  2
_Open30
 10
417.807180279232
 20
-325.3954781198439
 30
0.0
 41
2.5
 42
2.5
 43
2.5
 50
90.0
  0
MTEXT
  5
11E1
330
11B5
100
AcDbEntity
  8
0
 62
     4
100
AcDbMText
 10
415.6821802792321
 20
-342.3954781198438
 30
0.0
 40
3.0
 41
0.0
 71
     5
 72
     1
  1
68
 11
0.0000000000000001
 21
1.0
 31
0.0
 73
     1
 44
1.0
1001
ACAD
1000
MTEXTBEGIN
1070
    73
1070
     1
1070
    44
1040
1.0
1070
    74
1070
     0
1000
MTEXTEND
  0
POINT
  5
11E2
330
11B5
100
AcDbEntity
  8
Defpoints
 62
     0
100
AcDbPoint
 10
522.678613279232
 20
-359.3954781198438
 30
0.0
  0
POINT
  5
11E3
330
11B5
100
AcDbEntity
  8
Defpoints
 62
     0
100
AcDbPoint
 10
522.678613279232
 20
-325.3954781198439
 30
0.0
  0
POINT
  5
11E4
330
11B5
100
AcDbEntity
  8
Defpoints
 62
     0
100
AcDbPoint
 10
417.807180279232
 20
-325.3954781198439
 30
0.0
  0
ENDBLK
  5
11B7
330
11B5
100
AcDbEntity
  8
0
100
AcDbBlockEnd
  0
ENDSEC
  0
SECTION
  2
ENTITIES
  0
ARC
  5
C8
330
6B
100
AcDbEntity
  8
0
 62
     3
100
AcDbCircle
 10
-16.998585
 20
-680.0956089999997
 30
0.0
 40
258.25
100
AcDbArc
 50
86.49096
 51
86.59479899999999
  0
CIRCLE
  5
C9
330
6B
100
AcDbEntity
  8
0
 62
     3
100
AcDbCircle
 10
28.938473
 20
-391.8345
 30
0.0
 40
2.0
  0
LINE
  5
CA
330
6B
100
AcDbEntity
  8
0
 62
     3
100
AcDbLine
 10
-28.873585
 20
-430.7847919999998
 30
0.0
 11
-28.873585
 21
-431.284792
 31
0.0
  0
LINE
  5
CB
330
6B
100
AcDbEntity
  8
0
 62
     3
100
AcDbLine
 10
-35.123585
 20
-430.7847919999998
 30
0.0
 11
-35.123585
 21
-431.2705559999998
 31
0.0
  0
LINE
  5
CC
330
6B
100
AcDbEntity
  8
0
 62
     3
100
AcDbLine
 10
18.001415
 20
-484.737962
 30
0.0
 11
18.001415
 21
-477.487962
 31
0.0
  0
LINE
  5
CD
330
6B
100
AcDbEntity
  8
0
 62
     3
100
AcDbLine
 10
18.001415
 20
-484.737962
 30
0.0
 11
18.001415
 21
-488.648516
 31
0.0
  0
LINE
  5
CE
330
6B
100
AcDbEntity
  8
0
 62
     3
100
AcDbLine
 10
-51.998585
 20
-488.648516
 30
0.0
 11
-51.998585
 21
-477.487962
 31
0.0
  0
LINE
  5
CF
330
6B
100
AcDbEntity
  8
0
 62
     3
100
AcDbLine
 10
18.001415
 20
-489.737962
 30
0.0
 11
-52.11871699999999
 21
-489.737962
 31
0.0
  0
ARC
  5
D0
330
6B
100
AcDbEntity
  8
0
 62
     3
100
AcDbCircle
 10
23.001415
 20
-488.648516
 30
0.0
 40
5.0
100
AcDbArc
 50
180.0
 51
271.6885180000001
  0
LINE
  5
D1
330
6B
100
AcDbEntity
  8
0
 62
     3
100
AcDbLine
 10
-34.498585
 20
-484.487962
 30
0.0
 11
-29.498585
 21
-484.487962
 31
0.0
  0
LINE
  5
D2
330
6B
100
AcDbEntity
  8
0
 62
     3
100
AcDbLine
 10
-51.998585
 20
-469.737962
 30
0.0
 11
-51.998585
 21
-476.987962
 31
0.0
  0
LINE
  5
D3
330
6B
100
AcDbEntity
  8
0
 62
     3
100
AcDbLine
 10
-51.998585
 20
-469.737962
 30
0.0
 11
-51.998585
 21
-465.8274089999999
 31
0.0
  0
LINE
  5
D4
330
6B
100
AcDbEntity
  8
0
 62
     3
100
AcDbLine
 10
18.001415
 20
-465.8274089999999
 30
0.0
 11
18.001415
 21
-476.987962
 31
0.0
  0
LINE
  5
D5
330
6B
100
AcDbEntity
  8
0
 62
     3
100
AcDbLine
 10
0.5014149999999999
 20
-469.987962
 30
0.0
 11
-4.498585
 21
-469.987962
 31
0.0
  0
LINE
  5
D6
330
6B
100
AcDbEntity
  8
0
 62
     3
100
AcDbLine
 10
-34.498585
 20
-469.987962
 30
0.0
 11
-29.498585
 21
-469.987962
 31
0.0
  0
LINE
  5
D7
330
6B
100
AcDbEntity
  8
0
 62
     3
100
AcDbLine
 10
0.5014149999999999
 20
-484.487962
 30
0.0
 11
-4.498585
 21
-484.487962
 31
0.0
  0
LINE
  5
D8
330
6B
100
AcDbEntity
  8
0
100
AcDbLine
 10
-16.998585
 20
-476.987962
 30
0.0
 11
-54.498585
 21
-476.987962
 31
0.0
  0
LINE
  5
D9
330
6B
100
AcDbEntity
  8
0
100
AcDbLine
 10
-16.998585
 20
-477.487962
 30
0.0
 11
-54.498585
 21
-477.487962
 31
0.0
  0
LINE
  5
DA
330
6B
100
AcDbEntity
  8
0
100
AcDbLine
 10
-73.87447
 20
-476.987962
 30
0.0
 11
-71.37447
 21
-476.987962
 31
0.0
  0
LINE
  5
DB
330
6B
100
AcDbEntity
  8
0
100
AcDbLine
 10
-73.87447
 20
-477.487962
 30
0.0
 11
-71.37447
 21
-477.487962
 31
0.0
  0
LINE
  5
DC
330
6B
100
AcDbEntity
  8
0
 62
     3
100
AcDbLine
 10
212.977289
 20
-522.50459
 30
0.0
 11
101.673846
 21
-522.50459
 31
0.0
  0
TEXT
  5
F6
330
6B
100
AcDbEntity
  8
0
 62
     3
100
AcDbText
 10
175.951458
 20
-550.862615
 30
0.0
 40
3.2
  1
1996.12.18
  7
高3.2
100
AcDbText
  0
TEXT
  5
F7
330
6B
100
AcDbEntity
  8
0
 62
     3
100
AcDbText
 10
118.495725
 20
-530.053449
 30
0.0
 40
4.5
  1
ハンドリール
  7
高4.5
100
AcDbText
  0
TEXT
  5
F8
330
6B
100
AcDbEntity
  8
0
 62
     3
100
AcDbText
 10
147.10989
 20
-551.053449
 30
0.0
 40
3.2
  1
1/2
  7
高3.2
100
AcDbText
  0
LINE
  5
FF
330
6B
100
AcDbEntity
  8
0
100
AcDbLine
 10
18.657577
 20
-453.571061
 30
0.0
 11
2.157576999999998
 21
-453.571061
 31
0.0
  0
TEXT
  5
100
330
6B
100
AcDbEntity
  8
0
 62
     4
100
AcDbText
 10
4.907576999999998
 20
-452.571061
 30
0.0
 40
3.2
  1
型式銘版
 41
0.716146
100
AcDbText
  0
LINE
  5
107
330
6B
100
AcDbEntity
  8
0
100
AcDbLine
 10
-56.293622
 20
-453.571061
 30
0.0
 11
-31.543622
 21
-453.571061
 31
0.0
  0
TEXT
  5
108
330
6B
100
AcDbEntity
  8
0
 62
     4
100
AcDbText
 10
-53.543622
 20
-452.571061
 30
0.0
 40
3.2
  1
取り扱いシール
 41
0.716146
100
AcDbText
  0
CIRCLE
  5
109
330
6B
100
AcDbEntity
  8
0
100
AcDbCircle
 10
67.001415
 20
-378.743226
 30
0.0
 40
0.8
  0
CIRCLE
  5
10A
330
6B
100
AcDbEntity
  8
0
100
AcDbCircle
 10
28.938473
 20
-391.8345
 30
0.0
 40
1.125
  0
CIRCLE
  5
10B
330
6B
100
AcDbEntity
  8
0
100
AcDbCircle
 10
34.382825
 20
-429.845609
 30
0.0
 40
1.125
  0
CIRCLE
  5
10C
330
6B
100
AcDbEntity
  8
0
100
AcDbCircle
 10
67.001415
 20
-431.936883
 30
0.0
 40
0.8
  0
CIRCLE
  5
10D
330
6B
100
AcDbEntity
  8
0
100
AcDbCircle
 10
-44.498585
 20
-429.845609
 30
0.0
 40
1.125
  0
CIRCLE
  5
10E
330
6B
100
AcDbEntity
  8
0
 62
     3
100
AcDbCircle
 10
67.001415
 20
-431.936883
 30
0.0
 40
2.0
  0
CIRCLE
  5
10F
330
6B
100
AcDbEntity
  8
0
 62
     3
100
AcDbCircle
 10
67.001415
 20
-378.743226
 30
0.0
 40
2.0
  0
CIRCLE
  5
110
330
6B
100
AcDbEntity
  8
0
 62
     3
100
AcDbCircle
 10
34.382825
 20
-429.845609
 30
0.0
 40
2.0
  0
CIRCLE
  5
111
330
6B
100
AcDbEntity
  8
0
 62
     3
100
AcDbCircle
 10
-44.498585
 20
-429.845609
 30
0.0
 40
2.0
  0
CIRCLE
  5
112
330
6B
100
AcDbEntity
  8
0
  6
PHANTOM
100
AcDbCircle
 10
37.29942
 20
-390.050342
 30
0.0
 40
3.0
  0
CIRCLE
  5
113
330
6B
100
AcDbEntity
  8
0
  6
PHANTOM
100
AcDbCircle
 10
37.29942
 20
-396.050342
 30
0.0
 40
3.0
  0
CIRCLE
  5
114
330
6B
100
AcDbEntity
  8
0
  6
PHANTOM
100
AcDbCircle
 10
37.29942
 20
-402.0503419999998
 30
0.0
 40
3.0
  0
CIRCLE
  5
115
330
6B
100
AcDbEntity
  8
0
  6
PHANTOM
100
AcDbCircle
 10
37.29942
 20
-408.050342
 30
0.0
 40
3.0
  0
CIRCLE
  5
116
330
6B
100
AcDbEntity
  8
0
  6
PHANTOM
100
AcDbCircle
 10
37.29942
 20
-414.0503419999998
 30
0.0
 40
3.0
  0
CIRCLE
  5
117
330
6B
100
AcDbEntity
  8
0
  6
PHANTOM
100
AcDbCircle
 10
37.29942
 20
-420.050342
 30
0.0
 40
3.0
  0
CIRCLE
  5
118
330
6B
100
AcDbEntity
  8
0
  6
PHANTOM
100
AcDbCircle
 10
-71.29658899999999
 20
-390.550342
 30
0.0
 40
3.0
  0
CIRCLE
  5
119
330
6B
100
AcDbEntity
  8
0
  6
PHANTOM
100
AcDbCircle
 10
-71.29658899999999
 20
-396.550342
 30
0.0
 40
3.0
  0
CIRCLE
  5
11A
330
6B
100
AcDbEntity
  8
0
  6
PHANTOM
100
AcDbCircle
 10
-71.29658899999999
 20
-402.5503419999997
 30
0.0
 40
3.0
  0
CIRCLE
  5
11B
330
6B
100
AcDbEntity
  8
0
  6
PHANTOM
100
AcDbCircle
 10
-71.29658899999999
 20
-408.550342
 30
0.0
 40
3.0
  0
CIRCLE
  5
11C
330
6B
100
AcDbEntity
  8
0
  6
PHANTOM
100
AcDbCircle
 10
-71.29658899999999
 20
-414.5503419999998
 30
0.0
 40
3.0
  0
CIRCLE
  5
11D
330
6B
100
AcDbEntity
  8
0
  6
PHANTOM
100
AcDbCircle
 10
-71.29658899999999
 20
-420.550342
 30
0.0
 40
3.0
  0
LINE
  5
130
330
6B
100
AcDbEntity
  8
0
 62
     3
100
AcDbLine
 10
18.001415
 20
-410.401565
 30
0.0
 11
17.009684
 21
-410.401565
 31
0.0
  0
LINE
  5
131
330
6B
100
AcDbEntity
  8
0
 62
     3
100
AcDbLine
 10
18.001415
 20
-418.8456089999998
 30
0.0
 11
17.009684
 21
-418.8456089999998
 31
0.0
  0
ARC
  5
132
330
6B
100
AcDbEntity
  8
0
 62
     3
100
AcDbCircle
 10
-58.301735
 20
-414.6235869999999
 30
0.0
 40
7.586513
100
AcDbArc
 50
326.184746
 51
33.815254
  0
LINE
  5
133
330
6B
100
AcDbEntity
  8
0
 62
     3
100
AcDbLine
 10
17.009684
 20
-410.401565
 30
0.0
 11
17.009684
 21
-418.8456089999998
 31
0.0
  0
TEXT
  5
134
330
6B
100
AcDbEntity
  8
0
 62
     3
100
AcDbText
 10
118.984976
 20
-544.053449
 30
0.0
 40
3.2
  1
別　掲
  7
高3.2
100
AcDbText
  0
LINE
  5
135
330
6B
100
AcDbEntity
  8
0
  6
PHANTOM
100
AcDbLine
 10
17.009684
 20
-411.550342
 30
0.0
 11
-71.29658899999999
 21
-417.550342
 31
0.0
  0
LINE
  5
136
330
6B
100
AcDbEntity
  8
0
  6
PHANTOM
100
AcDbLine
 10
17.009684
 20
-417.550342
 30
0.0
 11
-71.29658899999999
 21
-423.5503419999998
 31
0.0
  0
LINE
  5
140
330
6B
100
AcDbEntity
  8
0
  6
PHANTOM
100
AcDbLine
 10
37.29942
 20
-387.050342
 30
0.0
 11
81.67462200000001
 21
-387.050342
 31
0.0
  0
LINE
  5
141
330
6B
100
AcDbEntity
  8
0
  6
PHANTOM
100
AcDbLine
 10
37.29942
 20
-393.050342
 30
0.0
 11
82.07690300000001
 21
-393.050342
 31
0.0
  0
LINE
  5
142
330
6B
100
AcDbEntity
  8
0
100
AcDbLine
 10
39.8773
 20
-332.327242
 30
0.0
 11
31.876415
 21
-332.327242
 31
0.0
  0
LINE
  5
143
330
6B
100
AcDbEntity
  8
0
100
AcDbLine
 10
39.8773
 20
-332.827242
 30
0.0
 11
31.876415
 21
-332.827242
 31
0.0
  0
LINE
  5
144
330
6B
100
AcDbEntity
  8
0
100
AcDbLine
 10
-73.87447
 20
-332.327242
 30
0.0
 11
-65.87358499999999
 21
-332.327242
 31
0.0
  0
LINE
  5
145
330
6B
100
AcDbEntity
  8
0
100
AcDbLine
 10
-73.87447
 20
-332.827242
 30
0.0
 11
-65.87358499999999
 21
-332.827242
 31
0.0
  0
LINE
  5
146
330
6B
100
AcDbEntity
  8
0
 62
     3
100
AcDbLine
 10
140.822774
 20
-371.345196
 30
0.0
 11
140.822774
 21
-372.345196
 31
0.0
  0
LINE
  5
147
330
6B
100
AcDbEntity
  8
0
 62
     3
100
AcDbLine
 10
146.022774
 20
-375.345196
 30
0.0
 11
146.022774
 21
-376.345196
 31
0.0
  0
ARC
  5
148
330
6B
100
AcDbEntity
  8
0
 62
     3
100
AcDbCircle
 10
147.422774
 20
-373.845196
 30
0.0
 40
0.5
100
AcDbArc
 50
0.0
 51
90.0
  0
ARC
  5
149
330
6B
100
AcDbEntity
  8
0
 62
     3
100
AcDbCircle
 10
147.422774
 20
-373.845196
 30
0.0
 40
0.5
100
AcDbArc
 50
270.0
 51
0.0
  0
TEXT
  5
14A
330
6B
100
AcDbEntity
  8
0
 62
     3
100
AcDbText
 10
132.287076
 20
-422.9617429999998
 30
0.0
 40
4.5
  1
２Ｐプラグ
 41
0.833333
100
AcDbText
  0
TEXT
  5
14B
330
6B
100
AcDbEntity
  8
0
 62
     3
100
AcDbText
 10
125.788364
 20
-430.911425
 30
0.0
 40
4.5
  1
15A 125V
 41
1.132074999999999
100
AcDbText
  0
LINE
  5
14C
330
6B
100
AcDbEntity
  8
0
100
AcDbLine
 10
132.287076
 20
-422.9617429999998
 30
0.0
 11
154.287076
 21
-422.9617429999998
 31
0.0
  0
LINE
  5
14D
330
6B
100
AcDbEntity
  8
0
100
AcDbLine
 10
125.788364
 20
-430.911425
 30
0.0
 11
161.288364
 21
-430.911425
 31
0.0
  0
LINE
  5
14E
330
6B
100
AcDbEntity
  8
0
100
AcDbLine
 10
140.822774
 20
-372.345196
 30
0.0
 11
146.022774
 21
-372.345196
 31
0.0
  0
LINE
  5
14F
330
6B
100
AcDbEntity
  8
0
100
AcDbLine
 10
140.822774
 20
-375.345196
 30
0.0
 11
146.022774
 21
-375.345196
 31
0.0
  0
LINE
  5
150
330
6B
100
AcDbEntity
  8
0
100
AcDbLine
 10
140.822774
 20
-381.345196
 30
0.0
 11
146.022774
 21
-381.345196
 31
0.0
  0
LINE
  5
151
330
6B
100
AcDbEntity
  8
0
100
AcDbLine
 10
140.822774
 20
-380.345196
 30
0.0
 11
146.022774
 21
-380.345196
 31
0.0
  0
LINE
  5
152
330
6B
100
AcDbEntity
  8
0
100
AcDbLine
 10
139.422774
 20
-377.345196
 30
0.0
 11
147.422774
 21
-377.345196
 31
0.0
  0
LINE
  5
153
330
6B
100
AcDbEntity
  8
0
100
AcDbLine
 10
139.422774
 20
-378.345196
 30
0.0
 11
147.422774
 21
-378.345196
 31
0.0
  0
LINE
  5
154
330
6B
100
AcDbEntity
  8
0
100
AcDbLine
 10
147.422774
 20
-374.345196
 30
0.0
 11
139.422774
 21
-374.345196
 31
0.0
  0
LINE
  5
155
330
6B
100
AcDbEntity
  8
0
100
AcDbLine
 10
147.422774
 20
-373.345196
 30
0.0
 11
139.422774
 21
-373.345196
 31
0.0
  0
LINE
  5
156
330
6B
100
AcDbEntity
  8
0
100
AcDbLine
 10
147.422774
 20
-370.345196
 30
0.0
 11
139.422774
 21
-370.345196
 31
0.0
  0
LINE
  5
157
330
6B
100
AcDbEntity
  8
0
100
AcDbLine
 10
146.022774
 20
-371.345196
 30
0.0
 11
146.022774
 21
-372.345196
 31
0.0
  0
LINE
  5
158
330
6B
100
AcDbEntity
  8
0
100
AcDbLine
 10
140.822774
 20
-371.345196
 30
0.0
 11
146.022774
 21
-371.345196
 31
0.0
  0
LINE
  5
159
330
6B
100
AcDbEntity
  8
0
100
AcDbLine
 10
140.822774
 20
-375.345196
 30
0.0
 11
140.822774
 21
-376.345196
 31
0.0
  0
LINE
  5
15A
330
6B
100
AcDbEntity
  8
0
100
AcDbLine
 10
140.822774
 20
-376.345196
 30
0.0
 11
146.022774
 21
-376.345196
 31
0.0
  0
LINE
  5
15B
330
6B
100
AcDbEntity
  8
0
100
AcDbLine
 10
140.822774
 20
-380.345196
 30
0.0
 11
140.822774
 21
-381.345196
 31
0.0
  0
LINE
  5
15C
330
6B
100
AcDbEntity
  8
0
100
AcDbLine
 10
146.022774
 20
-380.345196
 30
0.0
 11
146.022774
 21
-381.345196
 31
0.0
  0
LINE
  5
15D
330
6B
100
AcDbEntity
  8
0
100
AcDbLine
 10
137.422774
 20
-384.345196
 30
0.0
 11
149.422774
 21
-384.345196
 31
0.0
  0
LINE
  5
15E
330
6B
100
AcDbEntity
  8
0
100
AcDbLine
 10
-33.155845
 20
-337.219564
 30
0.0
 11
-27.391845
 21
-337.219564
 31
0.0
  0
ARC
  5
15F
330
6B
100
AcDbEntity
  8
0
100
AcDbCircle
 10
-27.391845
 20
-336.433564
 30
0.0
 40
0.7860000000000003
100
AcDbArc
 50
270.0
 51
0.0
  0
LINE
  5
160
330
6B
100
AcDbEntity
  8
0
100
AcDbLine
 10
-26.60584500000001
 20
-335.385564
 30
0.0
 11
-26.60584500000001
 21
-336.433564
 31
0.0
  0
LINE
  5
161
330
6B
100
AcDbEntity
  8
0
100
AcDbLine
 10
-26.60584500000001
 20
-328.730764
 30
0.0
 11
-26.60584500000001
 21
-329.778764
 31
0.0
  0
ARC
  5
162
330
6B
100
AcDbEntity
  8
0
100
AcDbCircle
 10
13.830676
 20
-329.778764
 30
0.0
 40
0.7860000000000003
100
AcDbArc
 50
180.0
 51
270.0
  0
LINE
  5
163
330
6B
100
AcDbEntity
  8
0
100
AcDbLine
 10
13.387245
 20
-330.427736
 30
0.0
 11
14.878676
 21
-329.831164
 31
0.0
  0
LINE
  5
164
330
6B
100
AcDbEntity
  8
0
100
AcDbLine
 10
13.830676
 20
-330.564764
 30
0.0
 11
19.594676
 21
-330.564764
 31
0.0
  0
ARC
  5
165
330
6B
100
AcDbEntity
  8
0
100
AcDbCircle
 10
19.594676
 20
-329.778764
 30
0.0
 40
0.7860000000000003
100
AcDbArc
 50
270.0
 51
0.0
  0
LINE
  5
166
330
6B
100
AcDbEntity
  8
0
100
AcDbLine
 10
18.546676
 20
-329.831164
 30
0.0
 11
20.038107
 21
-330.427736
 31
0.0
  0
LINE
  5
167
330
6B
100
AcDbEntity
  8
0
100
AcDbLine
 10
20.380676
 20
-328.730764
 30
0.0
 11
20.380676
 21
-329.778764
 31
0.0
  0
ARC
  5
168
330
6B
100
AcDbEntity
  8
0
100
AcDbCircle
 10
19.594676
 20
-328.730764
 30
0.0
 40
0.7860000000000003
100
AcDbArc
 50
0.0
 51
90.0
  0
LINE
  5
169
330
6B
100
AcDbEntity
  8
0
100
AcDbLine
 10
18.546676
 20
-328.678364
 30
0.0
 11
20.038107
 21
-328.081792
 31
0.0
  0
LINE
  5
16A
330
6B
100
AcDbEntity
  8
0
100
AcDbLine
 10
13.830676
 20
-327.944764
 30
0.0
 11
19.594676
 21
-327.944764
 31
0.0
  0
ARC
  5
16B
330
6B
100
AcDbEntity
  8
0
100
AcDbCircle
 10
13.830676
 20
-328.730764
 30
0.0
 40
0.7860000000000003
100
AcDbArc
 50
90.0
 51
180.0
  0
LINE
  5
16C
330
6B
100
AcDbEntity
  8
0
100
AcDbLine
 10
14.878676
 20
-328.678364
 30
0.0
 11
13.387245
 21
-328.081792
 31
0.0
  0
LINE
  5
16D
330
6B
100
AcDbEntity
  8
0
100
AcDbLine
 10
13.044676
 20
-328.730764
 30
0.0
 11
13.044676
 21
-329.778764
 31
0.0
  0
LINE
  5
16E
330
6B
100
AcDbEntity
  8
0
100
AcDbLine
 10
13.044676
 20
-335.385564
 30
0.0
 11
13.044676
 21
-336.433564
 31
0.0
  0
LINE
  5
16F
330
6B
100
AcDbEntity
  8
0
100
AcDbLine
 10
14.433276
 20
-336.485964
 30
0.0
 11
13.352162
 21
-337.057119
 31
0.0
  0
LINE
  5
170
330
6B
100
AcDbEntity
  8
0
100
AcDbLine
 10
13.830676
 20
-337.219564
 30
0.0
 11
19.594676
 21
-337.219564
 31
0.0
  0
ARC
  5
171
330
6B
100
AcDbEntity
  8
0
100
AcDbCircle
 10
19.594676
 20
-336.433564
 30
0.0
 40
0.7860000000000003
100
AcDbArc
 50
270.0
 51
0.0
  0
LINE
  5
172
330
6B
100
AcDbEntity
  8
0
100
AcDbLine
 10
18.992076
 20
-336.485964
 30
0.0
 11
20.07319
 21
-337.057119
 31
0.0
  0
LINE
  5
173
330
6B
100
AcDbEntity
  8
0
100
AcDbLine
 10
20.380676
 20
-335.385564
 30
0.0
 11
20.380676
 21
-336.433564
 31
0.0
  0
LINE
  5
174
330
6B
100
AcDbEntity
  8
0
100
AcDbLine
 10
18.992076
 20
-335.333164
 30
0.0
 11
20.07319
 21
-334.76201
 31
0.0
  0
ARC
  5
175
330
6B
100
AcDbEntity
  8
0
100
AcDbCircle
 10
19.594676
 20
-335.385564
 30
0.0
 40
0.7860000000000003
100
AcDbArc
 50
0.0
 51
90.0
  0
LINE
  5
176
330
6B
100
AcDbEntity
  8
0
100
AcDbLine
 10
19.594676
 20
-334.599564
 30
0.0
 11
13.830676
 21
-334.599564
 31
0.0
  0
LINE
  5
177
330
6B
100
AcDbEntity
  8
0
100
AcDbLine
 10
14.433276
 20
-335.333164
 30
0.0
 11
13.352162
 21
-334.76201
 31
0.0
  0
ARC
  5
178
330
6B
100
AcDbEntity
  8
0
100
AcDbCircle
 10
13.830676
 20
-335.385564
 30
0.0
 40
0.7860000000000003
100
AcDbArc
 50
90.0
 51
180.0
  0
ARC
  5
179
330
6B
100
AcDbEntity
  8
0
100
AcDbCircle
 10
13.830676
 20
-336.433564
 30
0.0
 40
0.7860000000000003
100
AcDbArc
 50
180.0
 51
270.0
  0
ARC
  5
17A
330
6B
100
AcDbEntity
  8
0
100
AcDbCircle
 10
-0.841324
 20
-335.385564
 30
0.0
 40
0.7860000000000003
100
AcDbArc
 50
0.0
 51
90.0
  0
LINE
  5
17B
330
6B
100
AcDbEntity
  8
0
100
AcDbLine
 10
-1.443923999999999
 20
-335.333164
 30
0.0
 11
-0.36281
 21
-334.76201
 31
0.0
  0
LINE
  5
17C
330
6B
100
AcDbEntity
  8
0
100
AcDbLine
 10
-0.055324
 20
-335.385564
 30
0.0
 11
-0.055324
 21
-336.433564
 31
0.0
  0
ARC
  5
17D
330
6B
100
AcDbEntity
  8
0
100
AcDbCircle
 10
-0.841324
 20
-336.433564
 30
0.0
 40
0.7860000000000003
100
AcDbArc
 50
270.0
 51
0.0
  0
LINE
  5
17E
330
6B
100
AcDbEntity
  8
0
100
AcDbLine
 10
-1.443923999999999
 20
-336.485964
 30
0.0
 11
-0.36281
 21
-337.057119
 31
0.0
  0
LINE
  5
17F
330
6B
100
AcDbEntity
  8
0
100
AcDbLine
 10
-0.841324
 20
-337.219564
 30
0.0
 11
-6.605324
 21
-337.219564
 31
0.0
  0
LINE
  5
180
330
6B
100
AcDbEntity
  8
0
100
AcDbLine
 10
-6.002723999999997
 20
-336.485964
 30
0.0
 11
-7.083838
 21
-337.057119
 31
0.0
  0
ARC
  5
181
330
6B
100
AcDbEntity
  8
0
100
AcDbCircle
 10
-6.605324
 20
-336.433564
 30
0.0
 40
0.7860000000000003
100
AcDbArc
 50
180.0
 51
270.0
  0
LINE
  5
182
330
6B
100
AcDbEntity
  8
0
100
AcDbLine
 10
-7.391324
 20
-335.385564
 30
0.0
 11
-7.391324
 21
-336.433564
 31
0.0
  0
LINE
  5
183
330
6B
100
AcDbEntity
  8
0
100
AcDbLine
 10
-6.002723999999997
 20
-335.333164
 30
0.0
 11
-7.083838
 21
-334.76201
 31
0.0
  0
LINE
  5
184
330
6B
100
AcDbEntity
  8
0
100
AcDbLine
 10
-6.605324
 20
-334.599564
 30
0.0
 11
-0.841324
 21
-334.599564
 31
0.0
  0
ARC
  5
185
330
6B
100
AcDbEntity
  8
0
100
AcDbCircle
 10
-6.605324
 20
-335.385564
 30
0.0
 40
0.7860000000000003
100
AcDbArc
 50
90.0
 51
180.0
  0
LINE
  5
186
330
6B
100
AcDbEntity
  8
0
100
AcDbLine
 10
-7.391324
 20
-328.730764
 30
0.0
 11
-7.391324
 21
-329.778764
 31
0.0
  0
ARC
  5
187
330
6B
100
AcDbEntity
  8
0
100
AcDbCircle
 10
-6.605324
 20
-329.778764
 30
0.0
 40
0.7860000000000003
100
AcDbArc
 50
180.0
 51
270.0
  0
LINE
  5
188
330
6B
100
AcDbEntity
  8
0
100
AcDbLine
 10
-5.557323999999997
 20
-329.831164
 30
0.0
 11
-7.048754999999997
 21
-330.427736
 31
0.0
  0
LINE
  5
189
330
6B
100
AcDbEntity
  8
0
100
AcDbLine
 10
-0.841324
 20
-330.564764
 30
0.0
 11
-6.605324
 21
-330.564764
 31
0.0
  0
LINE
  5
18A
330
6B
100
AcDbEntity
  8
0
100
AcDbLine
 10
-0.397893
 20
-330.427736
 30
0.0
 11
-1.889324
 21
-329.831164
 31
0.0
  0
ARC
  5
18B
330
6B
100
AcDbEntity
  8
0
100
AcDbCircle
 10
-0.841324
 20
-329.778764
 30
0.0
 40
0.7860000000000003
100
AcDbArc
 50
270.0
 51
0.0
  0
LINE
  5
18C
330
6B
100
AcDbEntity
  8
0
100
AcDbLine
 10
-0.055324
 20
-328.730764
 30
0.0
 11
-0.055324
 21
-329.778764
 31
0.0
  0
ARC
  5
18D
330
6B
100
AcDbEntity
  8
0
100
AcDbCircle
 10
-0.841324
 20
-328.730764
 30
0.0
 40
0.7860000000000003
100
AcDbArc
 50
0.0
 51
90.0
  0
LINE
  5
18E
330
6B
100
AcDbEntity
  8
0
100
AcDbLine
 10
-1.889324
 20
-328.678364
 30
0.0
 11
-0.397893
 21
-328.081792
 31
0.0
  0
LINE
  5
18F
330
6B
100
AcDbEntity
  8
0
100
AcDbLine
 10
-0.841324
 20
-327.944764
 30
0.0
 11
-6.605324
 21
-327.944764
 31
0.0
  0
LINE
  5
190
330
6B
100
AcDbEntity
  8
0
100
AcDbLine
 10
-5.557323999999997
 20
-328.678364
 30
0.0
 11
-7.048754999999997
 21
-328.081792
 31
0.0
  0
ARC
  5
191
330
6B
100
AcDbEntity
  8
0
100
AcDbCircle
 10
-6.605324
 20
-328.730764
 30
0.0
 40
0.7860000000000003
100
AcDbArc
 50
90.0
 51
180.0
  0
TEXT
  5
192
330
6B
100
AcDbEntity
  8
0
 62
     3
100
AcDbText
 10
-31.66241
 20
-339.043761
 30
0.0
 40
1.370249999999999
  1
N
 50
90.00000300000001
100
AcDbText
  0
ARC
  5
193
330
6B
100
AcDbEntity
  8
0
 62
     3
100
AcDbCircle
 10
20.171076
 20
-332.582164
 30
0.0
 40
11.5804
100
AcDbArc
 50
136.365262
 51
223.634738
  0
ARC
  5
194
330
6B
100
AcDbEntity
  8
0
 62
     3
100
AcDbCircle
 10
-7.181724
 20
-332.582164
 30
0.0
 40
11.5804
100
AcDbArc
 50
316.3652620000001
 51
43.634738
  0
ARC
  5
195
330
6B
100
AcDbEntity
  8
0
 62
     3
100
AcDbCircle
 10
-26.815445
 20
-332.582164
 30
0.0
 40
11.5804
100
AcDbArc
 50
136.365262
 51
223.634738
  0
ARC
  5
196
330
6B
100
AcDbEntity
  8
0
 62
     3
100
AcDbCircle
 10
-54.168245
 20
-332.582164
 30
0.0
 40
11.5804
100
AcDbArc
 50
316.3652620000001
 51
43.634738
  0
LINE
  5
197
330
6B
100
AcDbEntity
  8
0
 62
     3
100
AcDbLine
 10
147.422774
 20
-369.345196
 30
0.0
 11
139.422774
 21
-369.345196
 31
0.0
  0
LINE
  5
1A1
330
6B
100
AcDbEntity
  8
0
100
AcDbLine
 10
-55.16612099999999
 20
-336.850444
 30
0.0
 11
-55.011001
 21
-336.850444
 31
0.0
  0
LINE
  5
1A2
330
6B
100
AcDbEntity
  8
0
100
AcDbLine
 10
-55.16612099999999
 20
-336.794444
 30
0.0
 11
-55.16612099999999
 21
-336.850444
 31
0.0
  0
LINE
  5
1A3
330
6B
100
AcDbEntity
  8
0
100
AcDbLine
 10
-56.015641
 20
-336.721084
 30
0.0
 11
-55.23948100000001
 21
-336.721084
 31
0.0
  0
ARC
  5
1A4
330
6B
100
AcDbEntity
  8
0
100
AcDbCircle
 10
-55.23948100000001
 20
-336.794444
 30
0.0
 40
0.07336
100
AcDbArc
 50
0.0
 51
90.0
  0
LINE
  5
1A5
330
6B
100
AcDbEntity
  8
0
100
AcDbLine
 10
-56.015638
 20
-334.869674
 30
0.0
 11
-55.23947800000001
 21
-334.869687
 31
0.0
  0
LINE
  5
1A6
330
6B
100
AcDbEntity
  8
0
100
AcDbLine
 10
-55.16611700000001
 20
-334.796329
 30
0.0
 11
-55.166116
 21
-334.740329
 31
0.0
  0
ARC
  5
1A7
330
6B
100
AcDbEntity
  8
0
100
AcDbCircle
 10
-55.239477
 20
-334.796327
 30
0.0
 40
0.07336
100
AcDbArc
 50
269.999
 51
359.999
  0
LINE
  5
1A8
330
6B
100
AcDbEntity
  8
0
100
AcDbLine
 10
-55.166116
 20
-334.740329
 30
0.0
 11
-55.01099599999999
 21
-334.740331
 31
0.0
  0
LINE
  5
1A9
330
6B
100
AcDbEntity
  8
0
100
AcDbLine
 10
-55.01100699999999
 20
-335.412891
 30
0.0
 11
-55.01099599999999
 21
-334.740331
 31
0.0
  0
LINE
  5
1AA
330
6B
100
AcDbEntity
  8
0
100
AcDbLine
 10
-55.734141
 20
-336.522844
 30
0.0
 11
-55.23948100000001
 21
-336.522844
 31
0.0
  0
ARC
  5
1AB
330
6B
100
AcDbEntity
  8
0
100
AcDbCircle
 10
-55.23948100000001
 20
-336.449484
 30
0.0
 40
0.07336
100
AcDbArc
 50
270.0
 51
0.0
  0
LINE
  5
1AC
330
6B
100
AcDbEntity
  8
0
100
AcDbLine
 10
-55.011001
 20
-336.850444
 30
0.0
 11
-55.011001
 21
-336.393484
 31
0.0
  0
LINE
  5
1AD
330
6B
100
AcDbEntity
  8
0
100
AcDbLine
 10
-55.23945199999999
 20
-333.237746
 30
0.0
 11
-56.01561199999999
 21
-333.237746
 31
0.0
  0
LINE
  5
1AE
330
6B
100
AcDbEntity
  8
0
100
AcDbLine
 10
-56.067412
 20
-333.289546
 30
0.0
 11
-56.067412
 21
-333.345546
 31
0.0
  0
LINE
  5
1AF
330
6B
100
AcDbEntity
  8
0
100
AcDbLine
 10
-56.067412
 20
-333.345546
 30
0.0
 11
-56.244092
 21
-333.345546
 31
0.0
  0
LINE
  5
1B0
330
6B
100
AcDbEntity
  8
0
100
AcDbLine
 10
-56.244092
 20
-333.345546
 30
0.0
 11
-56.244092
 21
-332.716106
 31
0.0
  0
LINE
  5
1B1
330
6B
100
AcDbEntity
  8
0
100
AcDbLine
 10
-55.010972
 20
-333.345546
 30
0.0
 11
-55.187652
 21
-333.345546
 31
0.0
  0
LINE
  5
1B2
330
6B
100
AcDbEntity
  8
0
100
AcDbLine
 10
-55.187652
 20
-333.289546
 30
0.0
 11
-55.187652
 21
-333.345546
 31
0.0
  0
ARC
  5
1B3
330
6B
100
AcDbEntity
  8
0
100
AcDbCircle
 10
-55.23945199999999
 20
-333.289546
 30
0.0
 40
0.0518
100
AcDbArc
 50
0.0
 51
90.0
  0
ARC
  5
1B4
330
6B
100
AcDbEntity
  8
0
100
AcDbCircle
 10
-55.627561
 20
-334.006543
 30
0.0
 40
0.61656
100
AcDbArc
 50
136.75288
 51
42.82312
  0
ARC
  5
1B5
330
6B
100
AcDbEntity
  8
0
100
AcDbCircle
 10
-55.64208
 20
-337.930436
 30
0.0
 40
4.368
100
AcDbArc
 50
83.86600599999999
 51
87.69403399999999
  0
LINE
  5
1B6
330
6B
100
AcDbEntity
  8
0
100
AcDbLine
 10
-55.467412
 20
-333.85841
 30
0.0
 11
-55.46633
 21
-333.565973
 31
0.0
  0
LINE
  5
1F9
330
6B
100
AcDbEntity
  8
0
100
AcDbLine
 10
-55.78661
 20
-333.857229
 30
0.0
 11
-55.785528
 21
-333.564792
 31
0.0
  0
ARC
  5
1FA
330
6B
100
AcDbEntity
  8
0
100
AcDbCircle
 10
-55.64208
 20
-337.930436
 30
0.0
 40
4.368
100
AcDbArc
 50
91.88196600000001
 51
95.70999399999998
  0
ARC
  5
1FB
330
6B
100
AcDbEntity
  8
0
100
AcDbCircle
 10
-56.01563699999999
 20
-334.796314
 30
0.0
 40
0.07336
100
AcDbArc
 50
179.999028
 51
269.999
  0
LINE
  5
1FC
330
6B
100
AcDbEntity
  8
0
100
AcDbLine
 10
-56.24411600000001
 20
-334.74031
 30
0.0
 11
-56.08899599999999
 21
-334.740312
 31
0.0
  0
LINE
  5
1FD
330
6B
100
AcDbEntity
  8
0
100
AcDbLine
 10
-56.244127
 20
-335.41287
 30
0.0
 11
-56.24411600000001
 21
-334.74031
 31
0.0
  0
LINE
  5
1FE
330
6B
100
AcDbEntity
  8
0
100
AcDbLine
 10
-56.088997
 20
-334.796312
 30
0.0
 11
-56.08899599999999
 21
-334.740312
 31
0.0
  0
ARC
  5
1FF
330
6B
100
AcDbEntity
  8
0
100
AcDbCircle
 10
-56.01564200000001
 20
-335.356879
 30
0.0
 40
0.07336
100
AcDbArc
 50
89.999803
 51
179.999774
  0
LINE
  5
200
330
6B
100
AcDbEntity
  8
0
100
AcDbLine
 10
-56.01564200000001
 20
-335.283519
 30
0.0
 11
-55.23948199999999
 21
-335.283522
 31
0.0
  0
ARC
  5
201
330
6B
100
AcDbEntity
  8
0
100
AcDbCircle
 10
-55.239486
 20
-335.356887
 30
0.0
 40
0.07336
100
AcDbArc
 50
359.999
 51
89.999
  0
LINE
  5
202
330
6B
100
AcDbEntity
  8
0
100
AcDbLine
 10
-55.166127
 20
-335.412889
 30
0.0
 11
-55.01100699999999
 21
-335.412891
 31
0.0
  0
LINE
  5
203
330
6B
100
AcDbEntity
  8
0
100
AcDbLine
 10
-55.166126
 20
-335.356889
 30
0.0
 11
-55.166127
 21
-335.412889
 31
0.0
  0
LINE
  5
204
330
6B
100
AcDbEntity
  8
0
100
AcDbLine
 10
-56.244127
 20
-335.41287
 30
0.0
 11
-56.08900699999999
 21
-335.412872
 31
0.0
  0
LINE
  5
205
330
6B
100
AcDbEntity
  8
0
100
AcDbLine
 10
-56.08900600000001
 20
-335.356872
 30
0.0
 11
-56.08900699999999
 21
-335.412872
 31
0.0
  0
LINE
  5
206
330
6B
100
AcDbEntity
  8
0
100
AcDbLine
 10
-55.010972
 20
-333.345546
 30
0.0
 11
-55.010972
 21
-332.716106
 31
0.0
  0
ARC
  5
207
330
6B
100
AcDbEntity
  8
0
100
AcDbCircle
 10
-56.01561199999999
 20
-333.289546
 30
0.0
 40
0.0518
100
AcDbArc
 50
90.0
 51
180.0
  0
LINE
  5
208
330
6B
100
AcDbEntity
  8
0
100
AcDbLine
 10
-55.16612099999999
 20
-336.393484
 30
0.0
 11
-55.011001
 21
-336.393484
 31
0.0
  0
LINE
  5
209
330
6B
100
AcDbEntity
  8
0
100
AcDbLine
 10
-55.16612099999999
 20
-336.449484
 30
0.0
 11
-55.16612099999999
 21
-336.393484
 31
0.0
  0
LINE
  5
20A
330
6B
100
AcDbEntity
  8
0
100
AcDbLine
 10
-55.734141
 20
-336.522844
 30
0.0
 11
-55.011001
 21
-336.070882
 31
0.0
  0
LINE
  5
20B
330
6B
100
AcDbEntity
  8
0
100
AcDbLine
 10
-55.011001
 20
-336.070882
 30
0.0
 11
-55.011001
 21
-335.768244
 31
0.0
  0
LINE
  5
20C
330
6B
100
AcDbEntity
  8
0
100
AcDbLine
 10
-55.97252099999999
 20
-335.768244
 30
0.0
 11
-55.011001
 21
-335.768244
 31
0.0
  0
ARC
  5
20D
330
6B
100
AcDbEntity
  8
0
100
AcDbCircle
 10
-55.97252099999999
 20
-335.651764
 30
0.0
 40
0.11648
100
AcDbArc
 50
173.651426
 51
270.0
  0
LINE
  5
20E
330
6B
100
AcDbEntity
  8
0
100
AcDbLine
 10
-56.244121
 20
-335.638884
 30
0.0
 11
-56.088287
 21
-335.638884
 31
0.0
  0
LINE
  5
20F
330
6B
100
AcDbEntity
  8
0
100
AcDbLine
 10
-56.244121
 20
-336.095844
 30
0.0
 11
-56.244121
 21
-335.638884
 31
0.0
  0
LINE
  5
210
330
6B
100
AcDbEntity
  8
0
100
AcDbLine
 10
-56.244121
 20
-336.095844
 30
0.0
 11
-56.089001
 21
-336.095844
 31
0.0
  0
LINE
  5
211
330
6B
100
AcDbEntity
  8
0
100
AcDbLine
 10
-56.089001
 20
-336.095844
 30
0.0
 11
-56.089001
 21
-336.039844
 31
0.0
  0
ARC
  5
212
330
6B
100
AcDbEntity
  8
0
100
AcDbCircle
 10
-56.015641
 20
-336.039844
 30
0.0
 40
0.07336
100
AcDbArc
 50
90.0
 51
180.0
  0
LINE
  5
213
330
6B
100
AcDbEntity
  8
0
100
AcDbLine
 10
-55.685602
 20
-335.966484
 30
0.0
 11
-56.015641
 21
-335.966484
 31
0.0
  0
LINE
  5
214
330
6B
100
AcDbEntity
  8
0
100
AcDbLine
 10
-55.685602
 20
-335.966484
 30
0.0
 11
-56.244121
 21
-336.333012
 31
0.0
  0
LINE
  5
215
330
6B
100
AcDbEntity
  8
0
100
AcDbLine
 10
-56.244121
 20
-336.850444
 30
0.0
 11
-56.244121
 21
-336.333012
 31
0.0
  0
LINE
  5
216
330
6B
100
AcDbEntity
  8
0
100
AcDbLine
 10
-56.244121
 20
-336.850444
 30
0.0
 11
-56.089001
 21
-336.850444
 31
0.0
  0
LINE
  5
217
330
6B
100
AcDbEntity
  8
0
100
AcDbLine
 10
-56.089001
 20
-336.794444
 30
0.0
 11
-56.089001
 21
-336.850444
 31
0.0
  0
ARC
  5
218
330
6B
100
AcDbEntity
  8
0
100
AcDbCircle
 10
-56.015641
 20
-336.794444
 30
0.0
 40
0.07336
100
AcDbArc
 50
90.0
 51
180.0
  0
LINE
  5
219
330
6B
100
AcDbEntity
  8
0
100
AcDbLine
 10
-56.089001
 20
-331.709251
 30
0.0
 11
-56.089001
 21
-331.765251
 31
0.0
  0
ARC
  5
21A
330
6B
100
AcDbEntity
  8
0
100
AcDbCircle
 10
-56.015641
 20
-331.709251
 30
0.0
 40
0.07336
100
AcDbArc
 50
90.0
 51
180.0
  0
LINE
  5
21B
330
6B
100
AcDbEntity
  8
0
100
AcDbLine
 10
-56.015641
 20
-331.635891
 30
0.0
 11
-55.23948100000001
 21
-331.635891
 31
0.0
  0
LINE
  5
21C
330
6B
100
AcDbEntity
  8
0
100
AcDbLine
 10
-55.011001
 20
-331.092691
 30
0.0
 11
-55.011001
 21
-331.765251
 31
0.0
  0
LINE
  5
21D
330
6B
100
AcDbEntity
  8
0
100
AcDbLine
 10
-55.16612099999999
 20
-331.092691
 30
0.0
 11
-55.011001
 21
-331.092691
 31
0.0
  0
LINE
  5
21E
330
6B
100
AcDbEntity
  8
0
100
AcDbLine
 10
-55.16612099999999
 20
-331.1486910000001
 30
0.0
 11
-55.16612099999999
 21
-331.092691
 31
0.0
  0
ARC
  5
21F
330
6B
100
AcDbEntity
  8
0
100
AcDbCircle
 10
-55.23948100000001
 20
-331.1486910000001
 30
0.0
 40
0.07336
100
AcDbArc
 50
270.0
 51
0.0
  0
LINE
  5
220
330
6B
100
AcDbEntity
  8
0
100
AcDbLine
 10
-56.244092
 20
-332.026186
 30
0.0
 11
-56.244092
 21
-332.655626
 31
0.0
  0
LINE
  5
221
330
6B
100
AcDbEntity
  8
0
100
AcDbLine
 10
-56.244092
 20
-332.026186
 30
0.0
 11
-56.08794599999999
 21
-332.026186
 31
0.0
  0
LINE
  5
222
330
6B
100
AcDbEntity
  8
0
100
AcDbLine
 10
-56.08794599999999
 20
-332.072853
 30
0.0
 11
-56.08794599999999
 21
-332.026186
 31
0.0
  0
ARC
  5
223
330
6B
100
AcDbEntity
  8
0
100
AcDbCircle
 10
-56.01561199999999
 20
-332.0606259999999
 30
0.0
 40
0.07336
100
AcDbArc
 50
189.5940679999999
 51
270.0
  0
LINE
  5
224
330
6B
100
AcDbEntity
  8
0
100
AcDbLine
 10
-56.01561199999999
 20
-332.133986
 30
0.0
 11
-55.23945199999999
 21
-332.133986
 31
0.0
  0
ARC
  5
225
330
6B
100
AcDbEntity
  8
0
100
AcDbCircle
 10
-55.23945199999999
 20
-332.0606259999999
 30
0.0
 40
0.07336
100
AcDbArc
 50
270.0
 51
350.405932
  0
LINE
  5
226
330
6B
100
AcDbEntity
  8
0
100
AcDbLine
 10
-55.167118
 20
-332.072853
 30
0.0
 11
-55.167118
 21
-332.026186
 31
0.0
  0
LINE
  5
227
330
6B
100
AcDbEntity
  8
0
100
AcDbLine
 10
-55.167118
 20
-332.026186
 30
0.0
 11
-55.010972
 21
-332.026186
 31
0.0
  0
LINE
  5
228
330
6B
100
AcDbEntity
  8
0
100
AcDbLine
 10
-55.010972
 20
-332.026186
 30
0.0
 11
-55.010972
 21
-332.655626
 31
0.0
  0
ARC
  5
229
330
6B
100
AcDbEntity
  8
0
100
AcDbCircle
 10
-56.015641
 20
-331.1486910000001
 30
0.0
 40
0.07336
100
AcDbArc
 50
180.0
 51
270.0
  0
LINE
  5
22A
330
6B
100
AcDbEntity
  8
0
100
AcDbLine
 10
-56.015641
 20
-331.2220509999999
 30
0.0
 11
-55.23948100000001
 21
-331.2220509999999
 31
0.0
  0
LINE
  5
22B
330
6B
100
AcDbEntity
  8
0
100
AcDbLine
 10
-56.244121
 20
-331.092691
 30
0.0
 11
-56.089001
 21
-331.092691
 31
0.0
  0
LINE
  5
22C
330
6B
100
AcDbEntity
  8
0
100
AcDbLine
 10
-56.089001
 20
-331.1486910000001
 30
0.0
 11
-56.089001
 21
-331.092691
 31
0.0
  0
LINE
  5
22D
330
6B
100
AcDbEntity
  8
0
100
AcDbLine
 10
-56.244121
 20
-331.092691
 30
0.0
 11
-56.244121
 21
-331.765251
 31
0.0
  0
LINE
  5
22E
330
6B
100
AcDbEntity
  8
0
100
AcDbLine
 10
-56.244121
 20
-331.765251
 30
0.0
 11
-56.089001
 21
-331.765251
 31
0.0
  0
LINE
  5
22F
330
6B
100
AcDbEntity
  8
0
100
AcDbLine
 10
-55.16612099999999
 20
-330.842027
 30
0.0
 11
-55.011001
 21
-330.842027
 31
0.0
  0
ARC
  5
230
330
6B
100
AcDbEntity
  8
0
100
AcDbCircle
 10
-55.23948100000001
 20
-330.786027
 30
0.0
 40
0.07336
100
AcDbArc
 50
0.0
 51
90.0
  0
LINE
  5
231
330
6B
100
AcDbEntity
  8
0
100
AcDbLine
 10
-55.16612099999999
 20
-330.786027
 30
0.0
 11
-55.16612099999999
 21
-330.842027
 31
0.0
  0
LINE
  5
232
330
6B
100
AcDbEntity
  8
0
100
AcDbLine
 10
-55.011001
 20
-330.1157970000001
 30
0.0
 11
-55.011001
 21
-330.842027
 31
0.0
  0
LINE
  5
233
330
6B
100
AcDbEntity
  8
0
100
AcDbLine
 10
-56.015641
 20
-330.712667
 30
0.0
 11
-55.23948100000001
 21
-330.712667
 31
0.0
  0
LINE
  5
234
330
6B
100
AcDbEntity
  8
0
100
AcDbLine
 10
-56.045881
 20
-330.298827
 30
0.0
 11
-55.20924100000001
 21
-330.298827
 31
0.0
  0
LINE
  5
235
330
6B
100
AcDbEntity
  8
0
100
AcDbLine
 10
-55.20924100000001
 20
-330.298827
 30
0.0
 11
-55.20924100000001
 21
-330.242408
 31
0.0
  0
ARC
  5
236
330
6B
100
AcDbEntity
  8
0
100
AcDbCircle
 10
-55.627561
 20
-330.530901
 30
0.0
 40
0.508153
100
AcDbArc
 50
34.591955
 51
145.408045
  0
ARC
  5
237
330
6B
100
AcDbEntity
  8
0
100
AcDbCircle
 10
-55.498201
 20
-330.1157970000001
 30
0.0
 40
0.4872
100
AcDbArc
 50
0.0
 51
72.691251
  0
ARC
  5
238
330
6B
100
AcDbEntity
  8
0
100
AcDbCircle
 10
-55.756921
 20
-330.1157970000001
 30
0.0
 40
0.4872
100
AcDbArc
 50
107.308749
 51
180.0
  0
ARC
  5
239
330
6B
100
AcDbEntity
  8
0
100
AcDbCircle
 10
-55.627561
 20
-330.530901
 30
0.0
 40
0.9219929999999999
100
AcDbArc
 50
72.691251
 51
107.308566
  0
LINE
  5
23A
330
6B
100
AcDbEntity
  8
0
100
AcDbLine
 10
-56.244121
 20
-330.1157970000001
 30
0.0
 11
-56.244121
 21
-330.842027
 31
0.0
  0
LINE
  5
23B
330
6B
100
AcDbEntity
  8
0
100
AcDbLine
 10
-56.244121
 20
-330.842027
 30
0.0
 11
-56.089001
 21
-330.842027
 31
0.0
  0
LINE
  5
23C
330
6B
100
AcDbEntity
  8
0
100
AcDbLine
 10
-56.089001
 20
-330.786027
 30
0.0
 11
-56.089001
 21
-330.842027
 31
0.0
  0
ARC
  5
23D
330
6B
100
AcDbEntity
  8
0
100
AcDbCircle
 10
-56.015641
 20
-330.786027
 30
0.0
 40
0.07336
100
AcDbArc
 50
90.0
 51
180.0
  0
ARC
  5
23E
330
6B
100
AcDbEntity
  8
0
100
AcDbCircle
 10
-55.23948100000001
 20
-331.709251
 30
0.0
 40
0.07336
100
AcDbArc
 50
0.0
 51
90.0
  0
LINE
  5
23F
330
6B
100
AcDbEntity
  8
0
100
AcDbLine
 10
-55.16612099999999
 20
-331.709251
 30
0.0
 11
-55.16612099999999
 21
-331.765251
 31
0.0
  0
LINE
  5
240
330
6B
100
AcDbEntity
  8
0
100
AcDbLine
 10
-55.16612099999999
 20
-331.765251
 30
0.0
 11
-55.011001
 21
-331.765251
 31
0.0
  0
ARC
  5
241
330
6B
100
AcDbEntity
  8
0
100
AcDbCircle
 10
-55.62974399999998
 20
-328.951538
 30
0.0
 40
0.61656
100
AcDbArc
 50
300.35784
 51
233.008079
  0
ARC
  5
242
330
6B
100
AcDbEntity
  8
0
100
AcDbCircle
 10
-55.706016
 20
-330.267525
 30
0.0
 40
0.8746729999999999
100
AcDbArc
 50
63.675284
 51
109.690635
  0
ARC
  5
243
330
6B
100
AcDbEntity
  8
0
100
AcDbCircle
 10
-55.61804399999999
 20
-328.272028
 30
0.0
 40
0.818138
100
AcDbArc
 50
239.334413
 51
299.361467
  0
ARC
  5
244
330
6B
100
AcDbEntity
  8
0
100
AcDbCircle
 10
-55.61804300000001
 20
-329.631049
 30
0.0
 40
0.818138
100
AcDbArc
 50
60.37227300000001
 51
120.840525
  0
ARC
  5
245
330
6B
100
AcDbEntity
  8
0
100
AcDbCircle
 10
-56.013606
 20
-328.95114
 30
0.0
 40
0.032822
100
AcDbArc
 50
136.621771
 51
228.589269
  0
ARC
  5
246
330
6B
100
AcDbEntity
  8
0
100
AcDbCircle
 10
-55.241517
 20
-328.95114
 30
0.0
 40
0.041922
100
AcDbArc
 50
305.965123
 51
48.221816
  0
LINE
  5
247
330
6B
100
AcDbEntity
  8
0
100
AcDbLine
 10
-56.045881
 20
-330.298827
 30
0.0
 11
-56.045881
 21
-330.242408
 31
0.0
  0
LINE
  5
248
330
6B
100
AcDbEntity
  8
0
100
AcDbLine
 10
-56.08794599999999
 20
-332.655626
 30
0.0
 11
-56.244092
 21
-332.655626
 31
0.0
  0
ARC
  5
249
330
6B
100
AcDbEntity
  8
0
100
AcDbCircle
 10
-56.01561199999999
 20
-332.621186
 30
0.0
 40
0.07336
100
AcDbArc
 50
90.0
 51
170.405932
  0
LINE
  5
24A
330
6B
100
AcDbEntity
  8
0
100
AcDbLine
 10
-56.08794599999999
 20
-332.608959
 30
0.0
 11
-56.08794599999999
 21
-332.655626
 31
0.0
  0
LINE
  5
24B
330
6B
100
AcDbEntity
  8
0
100
AcDbLine
 10
-55.726652
 20
-332.547826
 30
0.0
 11
-56.01561199999999
 21
-332.547826
 31
0.0
  0
LINE
  5
24C
330
6B
100
AcDbEntity
  8
0
100
AcDbLine
 10
-55.167118
 20
-332.608959
 30
0.0
 11
-55.167118
 21
-332.655626
 31
0.0
  0
ARC
  5
24D
330
6B
100
AcDbEntity
  8
0
100
AcDbCircle
 10
-55.23945199999999
 20
-332.621186
 30
0.0
 40
0.07336
100
AcDbArc
 50
9.594068
 51
90.0
  0
LINE
  5
24E
330
6B
100
AcDbEntity
  8
0
100
AcDbLine
 10
-55.23945199999999
 20
-332.547826
 30
0.0
 11
-55.528412
 21
-332.547826
 31
0.0
  0
LINE
  5
24F
330
6B
100
AcDbEntity
  8
0
100
AcDbLine
 10
-55.167118
 20
-332.655626
 30
0.0
 11
-55.010972
 21
-332.655626
 31
0.0
  0
LINE
  5
250
330
6B
100
AcDbEntity
  8
0
100
AcDbLine
 10
-56.08794599999999
 20
-332.762773
 30
0.0
 11
-56.08794599999999
 21
-332.716106
 31
0.0
  0
ARC
  5
251
330
6B
100
AcDbEntity
  8
0
100
AcDbCircle
 10
-56.01561199999999
 20
-332.750546
 30
0.0
 40
0.07336
100
AcDbArc
 50
189.5940679999999
 51
270.0
  0
LINE
  5
252
330
6B
100
AcDbEntity
  8
0
100
AcDbLine
 10
-55.726652
 20
-332.823906
 30
0.0
 11
-56.01561199999999
 21
-332.823906
 31
0.0
  0
LINE
  5
253
330
6B
100
AcDbEntity
  8
0
100
AcDbLine
 10
-55.726652
 20
-332.547826
 30
0.0
 11
-55.726652
 21
-332.823906
 31
0.0
  0
LINE
  5
254
330
6B
100
AcDbEntity
  8
0
100
AcDbLine
 10
-55.528412
 20
-332.547826
 30
0.0
 11
-55.528412
 21
-332.823906
 31
0.0
  0
LINE
  5
255
330
6B
100
AcDbEntity
  8
0
100
AcDbLine
 10
-55.23945199999999
 20
-332.823906
 30
0.0
 11
-55.528412
 21
-332.823906
 31
0.0
  0
ARC
  5
256
330
6B
100
AcDbEntity
  8
0
100
AcDbCircle
 10
-55.23945199999999
 20
-332.750546
 30
0.0
 40
0.07336
100
AcDbArc
 50
270.0
 51
350.405932
  0
LINE
  5
257
330
6B
100
AcDbEntity
  8
0
100
AcDbLine
 10
-55.167118
 20
-332.762773
 30
0.0
 11
-55.167118
 21
-332.716106
 31
0.0
  0
LINE
  5
258
330
6B
100
AcDbEntity
  8
0
100
AcDbLine
 10
-55.167118
 20
-332.716106
 30
0.0
 11
-55.010972
 21
-332.716106
 31
0.0
  0
LINE
  5
259
330
6B
100
AcDbEntity
  8
0
100
AcDbLine
 10
-56.08794599999999
 20
-332.716106
 30
0.0
 11
-56.244092
 21
-332.716106
 31
0.0
  0
LINE
  5
25A
330
6B
100
AcDbEntity
  8
0
100
AcDbLine
 10
-8.069966
 20
-336.779216
 30
0.0
 11
-7.914846
 21
-336.779216
 31
0.0
  0
LINE
  5
25B
330
6B
100
AcDbEntity
  8
0
100
AcDbLine
 10
-8.069966
 20
-336.723216
 30
0.0
 11
-8.069966
 21
-336.779216
 31
0.0
  0
LINE
  5
25C
330
6B
100
AcDbEntity
  8
0
100
AcDbLine
 10
-8.919486
 20
-336.649856
 30
0.0
 11
-8.143326
 21
-336.649856
 31
0.0
  0
ARC
  5
25D
330
6B
100
AcDbEntity
  8
0
100
AcDbCircle
 10
-8.143326
 20
-336.723216
 30
0.0
 40
0.07336
100
AcDbArc
 50
0.0
 51
90.0
  0
LINE
  5
25E
330
6B
100
AcDbEntity
  8
0
100
AcDbLine
 10
-8.919482
 20
-334.798446
 30
0.0
 11
-8.143321999999999
 21
-334.79846
 31
0.0
  0
LINE
  5
25F
330
6B
100
AcDbEntity
  8
0
100
AcDbLine
 10
-8.069960999999999
 20
-334.725101
 30
0.0
 11
-8.06996
 21
-334.669101
 31
0.0
  0
ARC
  5
260
330
6B
100
AcDbEntity
  8
0
100
AcDbCircle
 10
-8.143321
 20
-334.7251
 30
0.0
 40
0.07336
100
AcDbArc
 50
269.999
 51
359.999
  0
LINE
  5
261
330
6B
100
AcDbEntity
  8
0
100
AcDbLine
 10
-8.06996
 20
-334.669101
 30
0.0
 11
-7.914839999999997
 21
-334.669104
 31
0.0
  0
LINE
  5
262
330
6B
100
AcDbEntity
  8
0
100
AcDbLine
 10
-7.914852
 20
-335.341664
 30
0.0
 11
-7.914839999999997
 21
-334.669104
 31
0.0
  0
LINE
  5
263
330
6B
100
AcDbEntity
  8
0
100
AcDbLine
 10
-8.637985
 20
-336.451616
 30
0.0
 11
-8.143326
 21
-336.451616
 31
0.0
  0
ARC
  5
264
330
6B
100
AcDbEntity
  8
0
100
AcDbCircle
 10
-8.143326
 20
-336.378256
 30
0.0
 40
0.07336
100
AcDbArc
 50
270.0
 51
0.0
  0
LINE
  5
265
330
6B
100
AcDbEntity
  8
0
100
AcDbLine
 10
-7.914846
 20
-336.779216
 30
0.0
 11
-7.914846
 21
-336.322256
 31
0.0
  0
LINE
  5
266
330
6B
100
AcDbEntity
  8
0
100
AcDbLine
 10
-8.143296000000001
 20
-333.166519
 30
0.0
 11
-8.919456
 21
-333.166519
 31
0.0
  0
LINE
  5
267
330
6B
100
AcDbEntity
  8
0
100
AcDbLine
 10
-8.971256
 20
-333.218319
 30
0.0
 11
-8.971256
 21
-333.274319
 31
0.0
  0
LINE
  5
268
330
6B
100
AcDbEntity
  8
0
100
AcDbLine
 10
-8.971256
 20
-333.274319
 30
0.0
 11
-9.147935999999999
 21
-333.274319
 31
0.0
  0
LINE
  5
269
330
6B
100
AcDbEntity
  8
0
100
AcDbLine
 10
-9.147935999999999
 20
-333.274319
 30
0.0
 11
-9.147935999999999
 21
-332.644879
 31
0.0
  0
LINE
  5
26A
330
6B
100
AcDbEntity
  8
0
100
AcDbLine
 10
-7.914816
 20
-333.274319
 30
0.0
 11
-8.091496000000001
 21
-333.274319
 31
0.0
  0
LINE
  5
26B
330
6B
100
AcDbEntity
  8
0
100
AcDbLine
 10
-8.091496000000001
 20
-333.218319
 30
0.0
 11
-8.091496000000001
 21
-333.274319
 31
0.0
  0
ARC
  5
26C
330
6B
100
AcDbEntity
  8
0
100
AcDbCircle
 10
-8.143296000000001
 20
-333.218319
 30
0.0
 40
0.0518
100
AcDbArc
 50
0.0
 51
90.0
  0
ARC
  5
26D
330
6B
100
AcDbEntity
  8
0
100
AcDbCircle
 10
-8.531406
 20
-333.935315
 30
0.0
 40
0.61656
100
AcDbArc
 50
136.75288
 51
42.82312
  0
ARC
  5
26E
330
6B
100
AcDbEntity
  8
0
100
AcDbCircle
 10
-8.545925
 20
-337.859208
 30
0.0
 40
4.368
100
AcDbArc
 50
83.86600599999999
 51
87.69403399999999
  0
LINE
  5
26F
330
6B
100
AcDbEntity
  8
0
100
AcDbLine
 10
-8.371256999999998
 20
-333.787182
 30
0.0
 11
-8.370174999999997
 21
-333.494746
 31
0.0
  0
LINE
  5
2B2
330
6B
100
AcDbEntity
  8
0
100
AcDbLine
 10
-8.690453999999999
 20
-333.786001
 30
0.0
 11
-8.689372
 21
-333.493564
 31
0.0
  0
ARC
  5
2B3
330
6B
100
AcDbEntity
  8
0
100
AcDbCircle
 10
-8.545925
 20
-337.859208
 30
0.0
 40
4.368
100
AcDbArc
 50
91.88196600000001
 51
95.70999399999998
  0
ARC
  5
2B4
330
6B
100
AcDbEntity
  8
0
100
AcDbCircle
 10
-8.919480999999997
 20
-334.725086
 30
0.0
 40
0.07336
100
AcDbArc
 50
179.999028
 51
269.999
  0
LINE
  5
2B5
330
6B
100
AcDbEntity
  8
0
100
AcDbLine
 10
-9.147959999999999
 20
-334.669082
 30
0.0
 11
-8.992839999999997
 21
-334.669085
 31
0.0
  0
LINE
  5
2B6
330
6B
100
AcDbEntity
  8
0
100
AcDbLine
 10
-9.147971999999999
 20
-335.341642
 30
0.0
 11
-9.147959999999999
 21
-334.669082
 31
0.0
  0
LINE
  5
2B7
330
6B
100
AcDbEntity
  8
0
100
AcDbLine
 10
-8.992841
 20
-334.725085
 30
0.0
 11
-8.992839999999997
 21
-334.669085
 31
0.0
  0
ARC
  5
2B8
330
6B
100
AcDbEntity
  8
0
100
AcDbCircle
 10
-8.919487
 20
-335.285652
 30
0.0
 40
0.07336
100
AcDbArc
 50
89.999803
 51
179.999774
  0
LINE
  5
2B9
330
6B
100
AcDbEntity
  8
0
100
AcDbLine
 10
-8.919486
 20
-335.212292
 30
0.0
 11
-8.143326
 21
-335.212294
 31
0.0
  0
ARC
  5
2BA
330
6B
100
AcDbEntity
  8
0
100
AcDbCircle
 10
-8.143330999999998
 20
-335.28566
 30
0.0
 40
0.07336
100
AcDbArc
 50
359.999
 51
89.999
  0
LINE
  5
2BB
330
6B
100
AcDbEntity
  8
0
100
AcDbLine
 10
-8.069971999999998
 20
-335.341661
 30
0.0
 11
-7.914852
 21
-335.341664
 31
0.0
  0
LINE
  5
2BC
330
6B
100
AcDbEntity
  8
0
100
AcDbLine
 10
-8.069971
 20
-335.285661
 30
0.0
 11
-8.069971999999998
 21
-335.341661
 31
0.0
  0
LINE
  5
2BD
330
6B
100
AcDbEntity
  8
0
100
AcDbLine
 10
-9.147971999999999
 20
-335.341642
 30
0.0
 11
-8.992852
 21
-335.341645
 31
0.0
  0
LINE
  5
2BE
330
6B
100
AcDbEntity
  8
0
100
AcDbLine
 10
-8.992850999999998
 20
-335.285645
 30
0.0
 11
-8.992852
 21
-335.341645
 31
0.0
  0
LINE
  5
2BF
330
6B
100
AcDbEntity
  8
0
100
AcDbLine
 10
-7.914816
 20
-333.274319
 30
0.0
 11
-7.914816
 21
-332.644879
 31
0.0
  0
ARC
  5
2C0
330
6B
100
AcDbEntity
  8
0
100
AcDbCircle
 10
-8.919456
 20
-333.218319
 30
0.0
 40
0.0518
100
AcDbArc
 50
90.0
 51
180.0
  0
LINE
  5
2C1
330
6B
100
AcDbEntity
  8
0
100
AcDbLine
 10
-8.069966
 20
-336.322256
 30
0.0
 11
-7.914846
 21
-336.322256
 31
0.0
  0
LINE
  5
2C2
330
6B
100
AcDbEntity
  8
0
100
AcDbLine
 10
-8.069966
 20
-336.378256
 30
0.0
 11
-8.069966
 21
-336.322256
 31
0.0
  0
LINE
  5
2C3
330
6B
100
AcDbEntity
  8
0
100
AcDbLine
 10
-8.637985
 20
-336.451616
 30
0.0
 11
-7.914846
 21
-335.999654
 31
0.0
  0
LINE
  5
2C4
330
6B
100
AcDbEntity
  8
0
100
AcDbLine
 10
-7.914846
 20
-335.999654
 30
0.0
 11
-7.914846
 21
-335.697016
 31
0.0
  0
LINE
  5
2C5
330
6B
100
AcDbEntity
  8
0
100
AcDbLine
 10
-8.876366
 20
-335.697016
 30
0.0
 11
-7.914846
 21
-335.697016
 31
0.0
  0
ARC
  5
2C6
330
6B
100
AcDbEntity
  8
0
100
AcDbCircle
 10
-8.876366
 20
-335.580536
 30
0.0
 40
0.11648
100
AcDbArc
 50
173.651426
 51
270.0
  0
LINE
  5
2C7
330
6B
100
AcDbEntity
  8
0
100
AcDbLine
 10
-9.147966
 20
-335.567656
 30
0.0
 11
-8.992131
 21
-335.567656
 31
0.0
  0
LINE
  5
2C8
330
6B
100
AcDbEntity
  8
0
100
AcDbLine
 10
-9.147966
 20
-336.024616
 30
0.0
 11
-9.147966
 21
-335.567656
 31
0.0
  0
LINE
  5
2C9
330
6B
100
AcDbEntity
  8
0
100
AcDbLine
 10
-9.147966
 20
-336.024616
 30
0.0
 11
-8.992846
 21
-336.024616
 31
0.0
  0
LINE
  5
2CA
330
6B
100
AcDbEntity
  8
0
100
AcDbLine
 10
-8.992846
 20
-336.024616
 30
0.0
 11
-8.992846
 21
-335.968616
 31
0.0
  0
ARC
  5
2CB
330
6B
100
AcDbEntity
  8
0
100
AcDbCircle
 10
-8.919486
 20
-335.968616
 30
0.0
 40
0.07336
100
AcDbArc
 50
90.0
 51
180.0
  0
LINE
  5
2CC
330
6B
100
AcDbEntity
  8
0
100
AcDbLine
 10
-8.589446999999998
 20
-335.895256
 30
0.0
 11
-8.919486
 21
-335.895256
 31
0.0
  0
LINE
  5
2CD
330
6B
100
AcDbEntity
  8
0
100
AcDbLine
 10
-8.589446999999998
 20
-335.895256
 30
0.0
 11
-9.147966
 21
-336.261785
 31
0.0
  0
LINE
  5
2CE
330
6B
100
AcDbEntity
  8
0
100
AcDbLine
 10
-9.147966
 20
-336.779216
 30
0.0
 11
-9.147966
 21
-336.261785
 31
0.0
  0
LINE
  5
2CF
330
6B
100
AcDbEntity
  8
0
100
AcDbLine
 10
-9.147966
 20
-336.779216
 30
0.0
 11
-8.992846
 21
-336.779216
 31
0.0
  0
LINE
  5
2D0
330
6B
100
AcDbEntity
  8
0
100
AcDbLine
 10
-8.992846
 20
-336.723216
 30
0.0
 11
-8.992846
 21
-336.779216
 31
0.0
  0
ARC
  5
2D1
330
6B
100
AcDbEntity
  8
0
100
AcDbCircle
 10
-8.919486
 20
-336.723216
 30
0.0
 40
0.07336
100
AcDbArc
 50
90.0
 51
180.0
  0
LINE
  5
2D2
330
6B
100
AcDbEntity
  8
0
100
AcDbLine
 10
-8.992846
 20
-331.638023
 30
0.0
 11
-8.992846
 21
-331.694023
 31
0.0
  0
ARC
  5
2D3
330
6B
100
AcDbEntity
  8
0
100
AcDbCircle
 10
-8.919486
 20
-331.638023
 30
0.0
 40
0.07336
100
AcDbArc
 50
90.0
 51
180.0
  0
LINE
  5
2D4
330
6B
100
AcDbEntity
  8
0
100
AcDbLine
 10
-8.919486
 20
-331.564663
 30
0.0
 11
-8.143326
 21
-331.564663
 31
0.0
  0
LINE
  5
2D5
330
6B
100
AcDbEntity
  8
0
100
AcDbLine
 10
-7.914846
 20
-331.021463
 30
0.0
 11
-7.914846
 21
-331.694023
 31
0.0
  0
LINE
  5
2D6
330
6B
100
AcDbEntity
  8
0
100
AcDbLine
 10
-8.069966
 20
-331.021463
 30
0.0
 11
-7.914846
 21
-331.021463
 31
0.0
  0
LINE
  5
2D7
330
6B
100
AcDbEntity
  8
0
100
AcDbLine
 10
-8.069966
 20
-331.077463
 30
0.0
 11
-8.069966
 21
-331.021463
 31
0.0
  0
ARC
  5
2D8
330
6B
100
AcDbEntity
  8
0
100
AcDbCircle
 10
-8.143326
 20
-331.077463
 30
0.0
 40
0.07336
100
AcDbArc
 50
270.0
 51
0.0
  0
LINE
  5
2D9
330
6B
100
AcDbEntity
  8
0
100
AcDbLine
 10
-9.147935999999999
 20
-331.954959
 30
0.0
 11
-9.147935999999999
 21
-332.584399
 31
0.0
  0
LINE
  5
2DA
330
6B
100
AcDbEntity
  8
0
100
AcDbLine
 10
-9.147935999999999
 20
-331.954959
 30
0.0
 11
-8.991789999999998
 21
-331.954959
 31
0.0
  0
LINE
  5
2DB
330
6B
100
AcDbEntity
  8
0
100
AcDbLine
 10
-8.991789999999998
 20
-332.001625
 30
0.0
 11
-8.991789999999998
 21
-331.954959
 31
0.0
  0
ARC
  5
2DC
330
6B
100
AcDbEntity
  8
0
100
AcDbCircle
 10
-8.919456
 20
-331.9893990000001
 30
0.0
 40
0.07336
100
AcDbArc
 50
189.5940679999999
 51
270.0
  0
LINE
  5
2DD
330
6B
100
AcDbEntity
  8
0
100
AcDbLine
 10
-8.919456
 20
-332.062759
 30
0.0
 11
-8.143296000000001
 21
-332.062759
 31
0.0
  0
ARC
  5
2DE
330
6B
100
AcDbEntity
  8
0
100
AcDbCircle
 10
-8.143296000000001
 20
-331.9893990000001
 30
0.0
 40
0.07336
100
AcDbArc
 50
270.0
 51
350.405932
  0
LINE
  5
2DF
330
6B
100
AcDbEntity
  8
0
100
AcDbLine
 10
-8.070963
 20
-332.001625
 30
0.0
 11
-8.070963
 21
-331.954959
 31
0.0
  0
LINE
  5
2E0
330
6B
100
AcDbEntity
  8
0
100
AcDbLine
 10
-8.070963
 20
-331.954959
 30
0.0
 11
-7.914816
 21
-331.954959
 31
0.0
  0
LINE
  5
2E1
330
6B
100
AcDbEntity
  8
0
100
AcDbLine
 10
-7.914816
 20
-331.954959
 30
0.0
 11
-7.914816
 21
-332.584399
 31
0.0
  0
ARC
  5
2E2
330
6B
100
AcDbEntity
  8
0
100
AcDbCircle
 10
-8.919486
 20
-331.077463
 30
0.0
 40
0.07336
100
AcDbArc
 50
180.0
 51
270.0
  0
LINE
  5
2E3
330
6B
100
AcDbEntity
  8
0
100
AcDbLine
 10
-8.919486
 20
-331.150823
 30
0.0
 11
-8.143326
 21
-331.150823
 31
0.0
  0
LINE
  5
2E4
330
6B
100
AcDbEntity
  8
0
100
AcDbLine
 10
-9.147966
 20
-331.021463
 30
0.0
 11
-8.992846
 21
-331.021463
 31
0.0
  0
LINE
  5
2E5
330
6B
100
AcDbEntity
  8
0
100
AcDbLine
 10
-8.992846
 20
-331.077463
 30
0.0
 11
-8.992846
 21
-331.021463
 31
0.0
  0
LINE
  5
2E6
330
6B
100
AcDbEntity
  8
0
100
AcDbLine
 10
-9.147966
 20
-331.021463
 30
0.0
 11
-9.147966
 21
-331.694023
 31
0.0
  0
LINE
  5
2E7
330
6B
100
AcDbEntity
  8
0
100
AcDbLine
 10
-9.147966
 20
-331.694023
 30
0.0
 11
-8.992846
 21
-331.694023
 31
0.0
  0
LINE
  5
2E8
330
6B
100
AcDbEntity
  8
0
100
AcDbLine
 10
-8.069966
 20
-330.7708
 30
0.0
 11
-7.914846
 21
-330.7708
 31
0.0
  0
ARC
  5
2E9
330
6B
100
AcDbEntity
  8
0
100
AcDbCircle
 10
-8.143326
 20
-330.7148
 30
0.0
 40
0.07336
100
AcDbArc
 50
0.0
 51
90.0
  0
LINE
  5
2EA
330
6B
100
AcDbEntity
  8
0
100
AcDbLine
 10
-8.069966
 20
-330.7148
 30
0.0
 11
-8.069966
 21
-330.7708
 31
0.0
  0
LINE
  5
2EB
330
6B
100
AcDbEntity
  8
0
100
AcDbLine
 10
-7.914846
 20
-330.044569
 30
0.0
 11
-7.914846
 21
-330.7708
 31
0.0
  0
LINE
  5
2EC
330
6B
100
AcDbEntity
  8
0
100
AcDbLine
 10
-8.919486
 20
-330.64144
 30
0.0
 11
-8.143326
 21
-330.64144
 31
0.0
  0
LINE
  5
2ED
330
6B
100
AcDbEntity
  8
0
100
AcDbLine
 10
-8.949726
 20
-330.2276
 30
0.0
 11
-8.113086
 21
-330.2276
 31
0.0
  0
LINE
  5
2EE
330
6B
100
AcDbEntity
  8
0
100
AcDbLine
 10
-8.113086
 20
-330.2276
 30
0.0
 11
-8.113086
 21
-330.17118
 31
0.0
  0
ARC
  5
2EF
330
6B
100
AcDbEntity
  8
0
100
AcDbCircle
 10
-8.531406
 20
-330.459673
 30
0.0
 40
0.508153
100
AcDbArc
 50
34.591955
 51
145.408045
  0
ARC
  5
2F0
330
6B
100
AcDbEntity
  8
0
100
AcDbCircle
 10
-8.402046
 20
-330.044569
 30
0.0
 40
0.4872
100
AcDbArc
 50
0.0
 51
72.691251
  0
ARC
  5
2F1
330
6B
100
AcDbEntity
  8
0
100
AcDbCircle
 10
-8.660766
 20
-330.044569
 30
0.0
 40
0.4872
100
AcDbArc
 50
107.308749
 51
180.0
  0
ARC
  5
2F2
330
6B
100
AcDbEntity
  8
0
100
AcDbCircle
 10
-8.531406
 20
-330.459673
 30
0.0
 40
0.9219929999999999
100
AcDbArc
 50
72.691251
 51
107.308566
  0
LINE
  5
2F3
330
6B
100
AcDbEntity
  8
0
100
AcDbLine
 10
-9.147966
 20
-330.044569
 30
0.0
 11
-9.147966
 21
-330.7708
 31
0.0
  0
LINE
  5
2F4
330
6B
100
AcDbEntity
  8
0
100
AcDbLine
 10
-9.147966
 20
-330.7708
 30
0.0
 11
-8.992846
 21
-330.7708
 31
0.0
  0
LINE
  5
2F5
330
6B
100
AcDbEntity
  8
0
100
AcDbLine
 10
-8.992846
 20
-330.7148
 30
0.0
 11
-8.992846
 21
-330.7708
 31
0.0
  0
ARC
  5
2F6
330
6B
100
AcDbEntity
  8
0
100
AcDbCircle
 10
-8.919486
 20
-330.7148
 30
0.0
 40
0.07336
100
AcDbArc
 50
90.0
 51
180.0
  0
ARC
  5
2F7
330
6B
100
AcDbEntity
  8
0
100
AcDbCircle
 10
-8.143326
 20
-331.638023
 30
0.0
 40
0.07336
100
AcDbArc
 50
0.0
 51
90.0
  0
LINE
  5
2F8
330
6B
100
AcDbEntity
  8
0
100
AcDbLine
 10
-8.069966
 20
-331.638023
 30
0.0
 11
-8.069966
 21
-331.694023
 31
0.0
  0
LINE
  5
2F9
330
6B
100
AcDbEntity
  8
0
100
AcDbLine
 10
-8.069966
 20
-331.694023
 30
0.0
 11
-7.914846
 21
-331.694023
 31
0.0
  0
ARC
  5
2FA
330
6B
100
AcDbEntity
  8
0
100
AcDbCircle
 10
-8.533587999999998
 20
-328.880311
 30
0.0
 40
0.61656
100
AcDbArc
 50
300.35784
 51
233.008079
  0
ARC
  5
2FB
330
6B
100
AcDbEntity
  8
0
100
AcDbCircle
 10
-8.609860000000001
 20
-330.196297
 30
0.0
 40
0.8746729999999999
100
AcDbArc
 50
63.675284
 51
109.690635
  0
ARC
  5
2FC
330
6B
100
AcDbEntity
  8
0
100
AcDbCircle
 10
-8.521888
 20
-328.2008
 30
0.0
 40
0.818138
100
AcDbArc
 50
239.334413
 51
299.361467
  0
ARC
  5
2FD
330
6B
100
AcDbEntity
  8
0
100
AcDbCircle
 10
-8.521888
 20
-329.559822
 30
0.0
 40
0.818138
100
AcDbArc
 50
60.37227300000001
 51
120.840525
  0
ARC
  5
2FE
330
6B
100
AcDbEntity
  8
0
100
AcDbCircle
 10
-8.91745
 20
-328.879913
 30
0.0
 40
0.032822
100
AcDbArc
 50
136.621771
 51
228.589269
  0
ARC
  5
2FF
330
6B
100
AcDbEntity
  8
0
100
AcDbCircle
 10
-8.145360999999999
 20
-328.879913
 30
0.0
 40
0.041922
100
AcDbArc
 50
305.965123
 51
48.221816
  0
LINE
  5
300
330
6B
100
AcDbEntity
  8
0
100
AcDbLine
 10
-8.949726
 20
-330.2276
 30
0.0
 11
-8.949726
 21
-330.17118
 31
0.0
  0
LINE
  5
301
330
6B
100
AcDbEntity
  8
0
100
AcDbLine
 10
-8.991789999999998
 20
-332.584399
 30
0.0
 11
-9.147935999999999
 21
-332.584399
 31
0.0
  0
ARC
  5
302
330
6B
100
AcDbEntity
  8
0
100
AcDbCircle
 10
-8.919456
 20
-332.549959
 30
0.0
 40
0.07336
100
AcDbArc
 50
90.0
 51
170.405932
  0
LINE
  5
303
330
6B
100
AcDbEntity
  8
0
100
AcDbLine
 10
-8.991789999999998
 20
-332.537732
 30
0.0
 11
-8.991789999999998
 21
-332.584399
 31
0.0
  0
LINE
  5
304
330
6B
100
AcDbEntity
  8
0
100
AcDbLine
 10
-8.630496
 20
-332.476599
 30
0.0
 11
-8.919456
 21
-332.476599
 31
0.0
  0
LINE
  5
305
330
6B
100
AcDbEntity
  8
0
100
AcDbLine
 10
-8.070963
 20
-332.537732
 30
0.0
 11
-8.070963
 21
-332.584399
 31
0.0
  0
ARC
  5
306
330
6B
100
AcDbEntity
  8
0
100
AcDbCircle
 10
-8.143296000000001
 20
-332.549959
 30
0.0
 40
0.07336
100
AcDbArc
 50
9.594068
 51
90.0
  0
LINE
  5
307
330
6B
100
AcDbEntity
  8
0
100
AcDbLine
 10
-8.143296000000001
 20
-332.476599
 30
0.0
 11
-8.432256
 21
-332.476599
 31
0.0
  0
LINE
  5
308
330
6B
100
AcDbEntity
  8
0
100
AcDbLine
 10
-8.070963
 20
-332.584399
 30
0.0
 11
-7.914816
 21
-332.584399
 31
0.0
  0
LINE
  5
309
330
6B
100
AcDbEntity
  8
0
100
AcDbLine
 10
-8.991789999999998
 20
-332.691545
 30
0.0
 11
-8.991789999999998
 21
-332.644879
 31
0.0
  0
ARC
  5
30A
330
6B
100
AcDbEntity
  8
0
100
AcDbCircle
 10
-8.919456
 20
-332.679319
 30
0.0
 40
0.07336
100
AcDbArc
 50
189.5940679999999
 51
270.0
  0
LINE
  5
30B
330
6B
100
AcDbEntity
  8
0
100
AcDbLine
 10
-8.630496
 20
-332.752679
 30
0.0
 11
-8.919456
 21
-332.752679
 31
0.0
  0
LINE
  5
30C
330
6B
100
AcDbEntity
  8
0
100
AcDbLine
 10
-8.630496
 20
-332.476599
 30
0.0
 11
-8.630496
 21
-332.752679
 31
0.0
  0
LINE
  5
30D
330
6B
100
AcDbEntity
  8
0
100
AcDbLine
 10
-8.432256
 20
-332.476599
 30
0.0
 11
-8.432256
 21
-332.752679
 31
0.0
  0
LINE
  5
30E
330
6B
100
AcDbEntity
  8
0
100
AcDbLine
 10
-8.143296000000001
 20
-332.752679
 30
0.0
 11
-8.432256
 21
-332.752679
 31
0.0
  0
ARC
  5
30F
330
6B
100
AcDbEntity
  8
0
100
AcDbCircle
 10
-8.143296000000001
 20
-332.679319
 30
0.0
 40
0.07336
100
AcDbArc
 50
270.0
 51
350.405932
  0
LINE
  5
310
330
6B
100
AcDbEntity
  8
0
100
AcDbLine
 10
-8.070963
 20
-332.691545
 30
0.0
 11
-8.070963
 21
-332.644879
 31
0.0
  0
LINE
  5
311
330
6B
100
AcDbEntity
  8
0
100
AcDbLine
 10
-8.070963
 20
-332.644879
 30
0.0
 11
-7.914816
 21
-332.644879
 31
0.0
  0
LINE
  5
312
330
6B
100
AcDbEntity
  8
0
100
AcDbLine
 10
-8.991789999999998
 20
-332.644879
 30
0.0
 11
-9.147935999999999
 21
-332.644879
 31
0.0
  0
ARC
  5
313
330
6B
100
AcDbEntity
  8
0
 62
     3
100
AcDbCircle
 10
13.516276
 20
-332.582164
 30
0.0
 40
11.5804
100
AcDbArc
 50
316.3652620000001
 51
43.634738
  0
ARC
  5
314
330
6B
100
AcDbEntity
  8
0
 62
     3
100
AcDbCircle
 10
20.001398
 20
-326.3989640000001
 30
0.0
 40
2.62
100
AcDbArc
 50
43.634738
 51
90.0
  0
LINE
  5
315
330
6B
100
AcDbEntity
  8
0
 62
     3
100
AcDbLine
 10
20.001398
 20
-323.778964
 30
0.0
 11
-7.012046
 21
-323.778964
 31
0.0
  0
ARC
  5
316
330
6B
100
AcDbEntity
  8
0
 62
     3
100
AcDbCircle
 10
-7.012046
 20
-326.3989640000001
 30
0.0
 40
2.62
100
AcDbArc
 50
90.0
 51
136.365262
  0
ARC
  5
317
330
6B
100
AcDbEntity
  8
0
 62
     3
100
AcDbCircle
 10
-0.526924
 20
-332.582164
 30
0.0
 40
11.5804
100
AcDbArc
 50
136.365262
 51
223.634738
  0
ARC
  5
318
330
6B
100
AcDbEntity
  8
0
 62
     3
100
AcDbCircle
 10
-7.012046
 20
-338.765364
 30
0.0
 40
2.62
100
AcDbArc
 50
223.634738
 51
270.0
  0
LINE
  5
319
330
6B
100
AcDbEntity
  8
0
 62
     3
100
AcDbLine
 10
20.001398
 20
-341.3853640000001
 30
0.0
 11
-7.012046
 21
-341.3853640000001
 31
0.0
  0
ARC
  5
31A
330
6B
100
AcDbEntity
  8
0
 62
     3
100
AcDbCircle
 10
20.001398
 20
-338.765364
 30
0.0
 40
2.62
100
AcDbArc
 50
270.0
 51
316.3652620000001
  0
LINE
  5
31B
330
6B
100
AcDbEntity
  8
0
 62
     3
100
AcDbLine
 10
-53.998567
 20
-341.3853640000001
 30
0.0
 11
-26.985123
 21
-341.3853640000001
 31
0.0
  0
ARC
  5
31C
330
6B
100
AcDbEntity
  8
0
 62
     3
100
AcDbCircle
 10
-26.985123
 20
-338.765364
 30
0.0
 40
2.62
100
AcDbArc
 50
270.0
 51
316.3652620000001
  0
ARC
  5
31D
330
6B
100
AcDbEntity
  8
0
 62
     3
100
AcDbCircle
 10
-33.470245
 20
-332.582164
 30
0.0
 40
11.5804
100
AcDbArc
 50
316.3652620000001
 51
43.634738
  0
ARC
  5
31E
330
6B
100
AcDbEntity
  8
0
 62
     3
100
AcDbCircle
 10
-26.985123
 20
-326.3989640000001
 30
0.0
 40
2.62
100
AcDbArc
 50
43.634738
 51
90.0
  0
LINE
  5
31F
330
6B
100
AcDbEntity
  8
0
 62
     3
100
AcDbLine
 10
-53.998567
 20
-323.778964
 30
0.0
 11
-26.985123
 21
-323.778964
 31
0.0
  0
ARC
  5
320
330
6B
100
AcDbEntity
  8
0
 62
     3
100
AcDbCircle
 10
-53.998567
 20
-326.3989640000001
 30
0.0
 40
2.62
100
AcDbArc
 50
90.0
 51
136.365262
  0
ARC
  5
321
330
6B
100
AcDbEntity
  8
0
 62
     3
100
AcDbCircle
 10
-47.513445
 20
-332.582164
 30
0.0
 40
11.5804
100
AcDbArc
 50
136.365262
 51
223.634738
  0
ARC
  5
322
330
6B
100
AcDbEntity
  8
0
 62
     3
100
AcDbCircle
 10
-53.998567
 20
-338.765364
 30
0.0
 40
2.62
100
AcDbArc
 50
223.634738
 51
270.0
  0
LINE
  5
323
330
6B
100
AcDbEntity
  8
0
 62
     3
100
AcDbLine
 10
36.319317
 20
-429.3456089999998
 30
0.0
 11
36.8773
 21
-429.3456089999998
 31
0.0
  0
TEXT
  5
324
330
6B
100
AcDbEntity
  8
0
 62
     3
100
AcDbText
 10
167.6233033074554
 20
-561.1257389999998
 30
0.0
 40
6.299999999999998
  1
H-104
  7
高6.3
100
AcDbText
  0
TEXT
  5
325
330
6B
100
AcDbEntity
  8
0
 62
     3
100
AcDbText
 10
125.562906
 20
-537.4887416951658
 30
0.0
 40
4.5
  1
H-104
  7
高4.5
100
AcDbText
  0
LINE
  5
326
330
6B
100
AcDbEntity
  8
0
 62
     3
100
AcDbLine
 10
-189.424635
 20
-421.670312
 30
0.0
 11
-192.022711
 21
-423.170312
 31
0.0
  0
LINE
  5
327
330
6B
100
AcDbEntity
  8
0
 62
     3
100
AcDbLine
 10
-189.424635
 20
-421.670312
 30
0.0
 11
-192.022711
 21
-420.170312
 31
0.0
  0
LINE
  5
328
330
6B
100
AcDbEntity
  8
0
 62
     3
100
AcDbLine
 10
-192.022711
 20
-423.170312
 30
0.0
 11
-192.022711
 21
-420.170312
 31
0.0
  0
LINE
  5
32B
330
6B
100
AcDbEntity
  8
0
 62
     3
100
AcDbLine
 10
-177.022711
 20
-288.170312
 30
0.0
 11
-177.022711
 21
-562.1703119999998
 31
0.0
  0
LINE
  5
32C
330
6B
100
AcDbEntity
  8
0
 62
     3
100
AcDbLine
 10
212.977289
 20
-562.1703119999998
 30
0.0
 11
212.977289
 21
-288.170312
 31
0.0
  0
LINE
  5
32D
330
6B
100
AcDbEntity
  8
0
 62
     3
100
AcDbLine
 10
-177.022711
 20
-288.170312
 30
0.0
 11
212.977289
 21
-288.170312
 31
0.0
  0
LINE
  5
330
330
6B
100
AcDbEntity
  8
0
 62
     3
100
AcDbLine
 10
212.977289
 20
-562.1703119999998
 30
0.0
 11
-177.022711
 21
-562.1703119999998
 31
0.0
  0
LINE
  5
338
330
6B
100
AcDbEntity
  8
0
 62
     3
100
AcDbLine
 10
-51.998585
 20
-432.3456089999998
 30
0.0
 11
-51.998585
 21
-418.8456089999998
 31
0.0
  0
ARC
  5
339
330
6B
100
AcDbEntity
  8
0
 62
     3
100
AcDbCircle
 10
-54.498585
 20
-426.659651
 30
0.0
 40
2.5
100
AcDbArc
 50
0.0
 51
90.0
  0
LINE
  5
33A
330
6B
100
AcDbEntity
  8
0
 62
     3
100
AcDbLine
 10
-54.498585
 20
-424.1596509999998
 30
0.0
 11
-56.998585
 21
-424.1596509999998
 31
0.0
  0
LINE
  5
33B
330
6B
100
AcDbEntity
  8
0
 62
     3
100
AcDbLine
 10
-75.37447
 20
-426.140836
 30
0.0
 11
-56.998585
 21
-424.1596509999998
 31
0.0
  0
ARC
  5
33C
330
6B
100
AcDbEntity
  8
0
 62
     3
100
AcDbCircle
 10
-54.498585
 20
-432.3456089999998
 30
0.0
 40
2.5
100
AcDbArc
 50
318.555703
 51
0.0
  0
ARC
  5
33D
330
6B
100
AcDbEntity
  8
0
 62
     3
100
AcDbCircle
 10
-54.498585
 20
-432.3456089999998
 30
0.0
 40
2.5
100
AcDbArc
 50
270.0
 51
318.555703
  0
LINE
  5
33E
330
6B
100
AcDbEntity
  8
0
 62
     3
100
AcDbLine
 10
-35.751587
 20
-434.8456089999998
 30
0.0
 11
-41.998585
 21
-434.8456089999998
 31
0.0
  0
ARC
  5
33F
330
6B
100
AcDbEntity
  8
0
 62
     3
100
AcDbCircle
 10
-35.751587
 20
-433.592607
 30
0.0
 40
1.253001999999999
100
AcDbArc
 50
270.0
 51
25.149305
  0
LINE
  5
340
330
6B
100
AcDbEntity
  8
0
 62
     3
100
AcDbLine
 10
-34.617365
 20
-433.060108
 30
0.0
 11
-34.827345
 21
-432.61285
 31
0.0
  0
ARC
  5
341
330
6B
100
AcDbEntity
  8
0
 62
     3
100
AcDbCircle
 10
-31.998585
 20
-431.284792
 30
0.0
 40
3.125
100
AcDbArc
 50
180.0
 51
205.149305
  0
ARC
  5
342
330
6B
100
AcDbEntity
  8
0
 62
     3
100
AcDbCircle
 10
-31.998585
 20
-430.7847919999998
 30
0.0
 40
3.125
100
AcDbArc
 50
0.0
 51
180.0
  0
LINE
  5
343
330
6B
100
AcDbEntity
  8
0
 62
     3
100
AcDbLine
 10
-29.379804
 20
-433.060108
 30
0.0
 11
-29.169824
 21
-432.61285
 31
0.0
  0
ARC
  5
344
330
6B
100
AcDbEntity
  8
0
 62
     3
100
AcDbCircle
 10
-31.998585
 20
-431.284792
 30
0.0
 40
3.125
100
AcDbArc
 50
334.850695
 51
0.0
  0
ARC
  5
345
330
6B
100
AcDbEntity
  8
0
 62
     3
100
AcDbCircle
 10
-28.245582
 20
-433.592607
 30
0.0
 40
1.253001999999999
100
AcDbArc
 50
154.850695
 51
270.0
  0
LINE
  5
346
330
6B
100
AcDbEntity
  8
0
 62
     3
100
AcDbLine
 10
-28.245582
 20
-434.8456089999998
 30
0.0
 11
-16.998585
 21
-434.8456089999998
 31
0.0
  0
LINE
  5
347
330
6B
100
AcDbEntity
  8
0
 62
     3
100
AcDbLine
 10
-5.751587
 20
-434.8456089999998
 30
0.0
 11
-16.998585
 21
-434.8456089999998
 31
0.0
  0
ARC
  5
348
330
6B
100
AcDbEntity
  8
0
 62
     3
100
AcDbCircle
 10
-5.751587
 20
-433.592607
 30
0.0
 40
1.253001999999999
100
AcDbArc
 50
270.0
 51
25.149305
  0
LINE
  5
349
330
6B
100
AcDbEntity
  8
0
 62
     3
100
AcDbLine
 10
-4.617365
 20
-433.060108
 30
0.0
 11
-4.827344999999998
 21
-432.61285
 31
0.0
  0
ARC
  5
34A
330
6B
100
AcDbEntity
  8
0
 62
     3
100
AcDbCircle
 10
-1.998584999999999
 20
-431.284792
 30
0.0
 40
3.125
100
AcDbArc
 50
180.0
 51
205.149305
  0
ARC
  5
34B
330
6B
100
AcDbEntity
  8
0
 62
     3
100
AcDbCircle
 10
-1.998584999999999
 20
-430.7847919999998
 30
0.0
 40
3.125
100
AcDbArc
 50
0.0
 51
180.0
  0
LINE
  5
34C
330
6B
100
AcDbEntity
  8
0
 62
     3
100
AcDbLine
 10
1.126414999999999
 20
-430.7847919999998
 30
0.0
 11
1.126414999999999
 21
-431.2705559999998
 31
0.0
  0
ARC
  5
34D
330
6B
100
AcDbEntity
  8
0
 62
     3
100
AcDbCircle
 10
-1.998584999999999
 20
-431.284792
 30
0.0
 40
3.125
100
AcDbArc
 50
334.850695
 51
0.0
  0
LINE
  5
34E
330
6B
100
AcDbEntity
  8
0
 62
     3
100
AcDbLine
 10
0.620196
 20
-433.060108
 30
0.0
 11
0.8301759999999999
 21
-432.61285
 31
0.0
  0
ARC
  5
34F
330
6B
100
AcDbEntity
  8
0
 62
     3
100
AcDbCircle
 10
1.754418
 20
-433.592607
 30
0.0
 40
1.253001999999999
100
AcDbArc
 50
154.850695
 51
270.0
  0
LINE
  5
350
330
6B
100
AcDbEntity
  8
0
 62
     3
100
AcDbLine
 10
1.754418
 20
-434.8456089999998
 30
0.0
 11
8.001414999999997
 21
-434.8456089999998
 31
0.0
  0
LINE
  5
351
330
6B
100
AcDbEntity
  8
0
 62
     3
100
AcDbLine
 10
-5.123585
 20
-430.7847919999998
 30
0.0
 11
-5.123585
 21
-431.284792
 31
0.0
  0
ARC
  5
352
330
6B
100
AcDbEntity
  8
0
 62
     3
100
AcDbCircle
 10
8.001414999999997
 20
-413.845609
 30
0.0
 40
21.0
100
AcDbArc
 50
270.0
 51
291.86529
  0
ARC
  5
353
330
6B
100
AcDbEntity
  8
0
 62
     3
100
AcDbCircle
 10
16.753418
 20
-435.6550669999998
 30
0.0
 40
2.5
100
AcDbArc
 50
41.44429699999998
 51
111.86529
  0
ARC
  5
354
330
6B
100
AcDbEntity
  8
0
 62
     3
100
AcDbCircle
 10
20.501415
 20
-432.3456089999998
 30
0.0
 40
2.5
100
AcDbArc
 50
221.444297
 51
270.0
  0
LINE
  5
355
330
6B
100
AcDbEntity
  8
0
 62
     3
100
AcDbLine
 10
68.00141500000001
 20
-434.8456089999998
 30
0.0
 11
20.501415
 21
-434.8456089999998
 31
0.0
  0
ARC
  5
356
330
6B
100
AcDbEntity
  8
0
 62
     3
100
AcDbCircle
 10
68.00141500000001
 20
-432.3456089999998
 30
0.0
 40
2.5
100
AcDbArc
 50
270.0
 51
0.0
  0
LINE
  5
357
330
6B
100
AcDbEntity
  8
0
 62
     3
100
AcDbLine
 10
70.50141500000002
 20
-430.178817
 30
0.0
 11
70.50141500000002
 21
-432.3456089999998
 31
0.0
  0
ARC
  5
358
330
6B
100
AcDbEntity
  8
0
 62
     3
100
AcDbCircle
 10
69.501415
 20
-430.178817
 30
0.0
 40
1.0
100
AcDbArc
 50
0.0
 51
83.84645799999999
  0
LINE
  5
359
330
6B
100
AcDbEntity
  8
0
 62
     3
100
AcDbLine
 10
18.001415
 20
-418.8456089999998
 30
0.0
 11
18.001415
 21
-432.3456089999998
 31
0.0
  0
ARC
  5
35A
330
6B
100
AcDbEntity
  8
0
 62
     3
100
AcDbCircle
 10
20.501415
 20
-426.659651
 30
0.0
 40
2.5
100
AcDbArc
 50
90.0
 51
180.0
  0
LINE
  5
35B
330
6B
100
AcDbEntity
  8
0
 62
     3
100
AcDbLine
 10
20.501415
 20
-424.1596509999998
 30
0.0
 11
23.001415
 21
-424.1596509999998
 31
0.0
  0
LINE
  5
35C
330
6B
100
AcDbEntity
  8
0
 62
     3
100
AcDbLine
 10
69.608609
 20
-429.184578
 30
0.0
 11
23.001415
 21
-424.1596509999998
 31
0.0
  0
ARC
  5
35D
330
6B
100
AcDbEntity
  8
0
 62
     3
100
AcDbCircle
 10
20.501415
 20
-432.3456089999998
 30
0.0
 40
2.5
100
AcDbArc
 50
180.0
 51
221.444297
  0
LINE
  5
35E
330
6B
100
AcDbEntity
  8
0
 62
     3
100
AcDbLine
 10
13.001415
 20
-423.8456089999998
 30
0.0
 11
3.402029
 21
-423.8456089999998
 31
0.0
  0
ARC
  5
35F
330
6B
100
AcDbEntity
  8
0
 62
     3
100
AcDbCircle
 10
-1.773584999999999
 20
-431.811977
 30
0.0
 40
9.5
100
AcDbArc
 50
56.98890200000001
 51
86.49096
  0
LINE
  5
360
330
6B
100
AcDbEntity
  8
0
 62
     3
100
AcDbLine
 10
-5.798564999999999
 20
-422.301565
 30
0.0
 11
-2.787856
 21
-422.301565
 31
0.0
  0
ARC
  5
361
330
6B
100
AcDbEntity
  8
0
 62
     3
100
AcDbCircle
 10
-2.223584999999999
 20
-431.784792
 30
0.0
 40
9.5
100
AcDbArc
 50
86.59479899999999
 51
93.405201
  0
ARC
  5
362
330
6B
100
AcDbEntity
  8
0
 62
     3
100
AcDbCircle
 10
-5.798564999999999
 20
-427.301565
 30
0.0
 40
5.0
100
AcDbArc
 50
90.0
 51
115.594768
  0
ARC
  5
363
330
6B
100
AcDbEntity
  8
0
 62
     3
100
AcDbCircle
 10
-16.998585
 20
-403.919841
 30
0.0
 40
20.925768
100
AcDbArc
 50
270.684529
 51
295.594768
  0
ARC
  5
364
330
6B
100
AcDbEntity
  8
0
 62
     3
100
AcDbCircle
 10
-16.998585
 20
-403.919841
 30
0.0
 40
20.925768
100
AcDbArc
 50
244.405232
 51
270.684529
  0
ARC
  5
365
330
6B
100
AcDbEntity
  8
0
 62
     3
100
AcDbCircle
 10
-28.198604
 20
-427.301565
 30
0.0
 40
5.0
100
AcDbArc
 50
64.405232
 51
90.0
  0
LINE
  5
366
330
6B
100
AcDbEntity
  8
0
 62
     3
100
AcDbLine
 10
-28.198604
 20
-422.301565
 30
0.0
 11
-31.209313
 21
-422.301565
 31
0.0
  0
ARC
  5
367
330
6B
100
AcDbEntity
  8
0
 62
     3
100
AcDbCircle
 10
-16.998585
 20
-680.0956089999997
 30
0.0
 40
258.25
100
AcDbArc
 50
93.405201
 51
93.50903999999999
  0
ARC
  5
368
330
6B
100
AcDbEntity
  8
0
 62
     3
100
AcDbCircle
 10
-31.773585
 20
-431.784792
 30
0.0
 40
9.5
100
AcDbArc
 50
86.59479899999999
 51
93.405201
  0
ARC
  5
369
330
6B
100
AcDbEntity
  8
0
 62
     3
100
AcDbCircle
 10
-32.223585
 20
-431.811977
 30
0.0
 40
9.5
100
AcDbArc
 50
93.50903999999999
 51
123.011098
  0
LINE
  5
36A
330
6B
100
AcDbEntity
  8
0
 62
     3
100
AcDbLine
 10
-46.998585
 20
-423.8456089999998
 30
0.0
 11
-37.399198
 21
-423.8456089999998
 31
0.0
  0
ARC
  5
36B
330
6B
100
AcDbEntity
  8
0
 62
     3
100
AcDbCircle
 10
-46.998585
 20
-418.8456089999998
 30
0.0
 40
5.0
100
AcDbArc
 50
180.0
 51
270.0
  0
LINE
  5
36C
330
6B
100
AcDbEntity
  8
0
 62
     3
100
AcDbLine
 10
-51.998585
 20
-418.8456089999998
 30
0.0
 11
-51.998585
 21
-410.401565
 31
0.0
  0
ARC
  5
36D
330
6B
100
AcDbEntity
  8
0
 62
     3
100
AcDbCircle
 10
-49.498585
 20
-410.401565
 30
0.0
 40
2.5
100
AcDbArc
 50
90.0
 51
180.0
  0
LINE
  5
36E
330
6B
100
AcDbEntity
  8
0
 62
     3
100
AcDbLine
 10
-16.998585
 20
-407.901565
 30
0.0
 11
-49.498585
 21
-407.901565
 31
0.0
  0
LINE
  5
36F
330
6B
100
AcDbEntity
  8
0
 62
     3
100
AcDbLine
 10
15.501415
 20
-407.901565
 30
0.0
 11
-16.998585
 21
-407.901565
 31
0.0
  0
ARC
  5
370
330
6B
100
AcDbEntity
  8
0
 62
     3
100
AcDbCircle
 10
15.501415
 20
-410.401565
 30
0.0
 40
2.5
100
AcDbArc
 50
0.0
 51
90.0
  0
LINE
  5
371
330
6B
100
AcDbEntity
  8
0
 62
     3
100
AcDbLine
 10
18.001415
 20
-410.401565
 30
0.0
 11
18.001415
 21
-418.8456089999998
 31
0.0
  0
ARC
  5
372
330
6B
100
AcDbEntity
  8
0
 62
     3
100
AcDbCircle
 10
13.001415
 20
-418.8456089999998
 30
0.0
 40
5.0
100
AcDbArc
 50
270.0
 51
0.0
  0
LINE
  5
373
330
6B
100
AcDbEntity
  8
0
 62
     3
100
AcDbLine
 10
34.001415
 20
-389.824403
 30
0.0
 11
34.001415
 21
-420.8557059999998
 31
0.0
  0
LINE
  5
374
330
6B
100
AcDbEntity
  8
0
 62
     3
100
AcDbLine
 10
38.8773
 20
-384.808809
 30
0.0
 11
69.608609
 21
-381.495531
 31
0.0
  0
ARC
  5
375
330
6B
100
AcDbEntity
  8
0
 62
     3
100
AcDbCircle
 10
69.501415
 20
-380.501292
 30
0.0
 40
1.0
100
AcDbArc
 50
276.153542
 51
0.0
  0
LINE
  5
376
330
6B
100
AcDbEntity
  8
0
 62
     3
100
AcDbLine
 10
70.50141500000002
 20
-380.519134
 30
0.0
 11
70.50141500000002
 21
-378.3345
 31
0.0
  0
ARC
  5
377
330
6B
100
AcDbEntity
  8
0
 62
     3
100
AcDbCircle
 10
68.00141500000001
 20
-378.3345
 30
0.0
 40
2.5
100
AcDbArc
 50
0.0
 51
90.0
  0
LINE
  5
378
330
6B
100
AcDbEntity
  8
0
 62
     3
100
AcDbLine
 10
38.8773
 20
-375.8345
 30
0.0
 11
68.00141500000001
 21
-375.8345
 31
0.0
  0
LINE
  5
379
330
6B
100
AcDbEntity
  8
0
 62
     3
100
AcDbLine
 10
38.8773
 20
-375.8345
 30
0.0
 11
-16.998585
 21
-375.8345
 31
0.0
  0
ARC
  5
37A
330
6B
100
AcDbEntity
  8
0
 62
     3
100
AcDbCircle
 10
-101.998585
 20
-378.3345
 30
0.0
 40
2.5
100
AcDbArc
 50
90.0
 51
180.0
  0
LINE
  5
37B
330
6B
100
AcDbEntity
  8
0
 62
     3
100
AcDbLine
 10
-104.498585
 20
-380.519134
 30
0.0
 11
-104.498585
 21
-378.3345
 31
0.0
  0
ARC
  5
37C
330
6B
100
AcDbEntity
  8
0
 62
     3
100
AcDbCircle
 10
-103.498585
 20
-380.501292
 30
0.0
 40
1.0
100
AcDbArc
 50
180.0
 51
263.846458
  0
LINE
  5
37D
330
6B
100
AcDbEntity
  8
0
 62
     3
100
AcDbLine
 10
-103.605778
 20
-381.495531
 30
0.0
 11
-99.49858500000001
 21
-381.938345
 31
0.0
  0
LINE
  5
37E
330
6B
100
AcDbEntity
  8
0
 62
     3
100
AcDbLine
 10
-99.49858500000001
 20
-428.741764
 30
0.0
 11
-75.37447
 21
-426.140836
 31
0.0
  0
LINE
  5
37F
330
6B
100
AcDbEntity
  8
0
 62
     3
100
AcDbLine
 10
-103.605778
 20
-429.184578
 30
0.0
 11
-99.49858500000001
 21
-428.741764
 31
0.0
  0
ARC
  5
380
330
6B
100
AcDbEntity
  8
0
 62
     3
100
AcDbCircle
 10
-103.498585
 20
-430.178817
 30
0.0
 40
1.0
100
AcDbArc
 50
96.153542
 51
180.0
  0
LINE
  5
381
330
6B
100
AcDbEntity
  8
0
 62
     3
100
AcDbLine
 10
-104.498585
 20
-430.178817
 30
0.0
 11
-104.498585
 21
-432.3456089999998
 31
0.0
  0
ARC
  5
382
330
6B
100
AcDbEntity
  8
0
 62
     3
100
AcDbCircle
 10
-101.998585
 20
-432.3456089999998
 30
0.0
 40
2.5
100
AcDbArc
 50
180.0
 51
270.0
  0
LINE
  5
383
330
6B
100
AcDbEntity
  8
0
 62
     3
100
AcDbLine
 10
-54.498585
 20
-434.8456089999998
 30
0.0
 11
-101.998585
 21
-434.8456089999998
 31
0.0
  0
ARC
  5
384
330
6B
100
AcDbEntity
  8
0
 62
     3
100
AcDbCircle
 10
-72.99858499999998
 20
-420.8557059999998
 30
0.0
 40
5.0
100
AcDbArc
 50
276.153542
 51
0.0
  0
LINE
  5
385
330
6B
100
AcDbEntity
  8
0
 62
     3
100
AcDbLine
 10
-67.99858499999999
 20
-420.8557059999998
 30
0.0
 11
-67.99858499999999
 21
-389.790089
 31
0.0
  0
ARC
  5
386
330
6B
100
AcDbEntity
  8
0
 62
     3
100
AcDbCircle
 10
-72.99845600000002
 20
-389.790089
 30
0.0
 40
5.0
100
AcDbArc
 50
0.0
 51
77.148061
  0
ARC
  5
387
330
6B
100
AcDbEntity
  8
0
 62
     3
100
AcDbCircle
 10
-50.750587
 20
-435.6550669999998
 30
0.0
 40
2.5
100
AcDbArc
 50
68.13470999999998
 51
138.555703
  0
ARC
  5
388
330
6B
100
AcDbEntity
  8
0
 62
     3
100
AcDbCircle
 10
-41.998585
 20
-413.845609
 30
0.0
 40
21.0
100
AcDbArc
 50
248.13471
 51
270.0
  0
ARC
  5
389
330
6B
100
AcDbEntity
  8
0
 62
     3
100
AcDbCircle
 10
58.501415
 20
-329.689315
 30
0.0
 40
12.0
100
AcDbArc
 50
0.0
 51
86.79519599999997
  0
LINE
  5
38A
330
6B
100
AcDbEntity
  8
0
 62
     3
100
AcDbLine
 10
70.50141500000002
 20
-329.689315
 30
0.0
 11
70.50141500000002
 21
-332.577242
 31
0.0
  0
ARC
  5
38B
330
6B
100
AcDbEntity
  8
0
 62
     3
100
AcDbCircle
 10
58.501415
 20
-335.465168
 30
0.0
 40
12.0
100
AcDbArc
 50
273.204804
 51
0.0
  0
ARC
  5
38C
330
6B
100
AcDbEntity
  8
0
 62
     3
100
AcDbCircle
 10
-16.998585
 20
-1678.077242
 30
0.0
 40
1362.5
100
AcDbArc
 50
86.79519599999997
 51
93.204804
  0
ARC
  5
38D
330
6B
100
AcDbEntity
  8
0
 62
     3
100
AcDbCircle
 10
-16.998585
 20
1012.922758
 30
0.0
 40
1362.5
100
AcDbArc
 50
266.795196
 51
273.204804
  0
ARC
  5
38E
330
6B
100
AcDbEntity
  8
0
 62
     3
100
AcDbCircle
 10
-56.998585
 20
-488.648516
 30
0.0
 40
5.0
100
AcDbArc
 50
268.311482
 51
0.0
  0
LINE
  5
38F
330
6B
100
AcDbEntity
  8
0
 62
     3
100
AcDbLine
 10
63.501415
 20
-477.237962
 30
0.0
 11
70.50141500000002
 21
-477.237962
 31
0.0
  0
ARC
  5
390
330
6B
100
AcDbEntity
  8
0
 62
     3
100
AcDbCircle
 10
23.001415
 20
-465.8274089999999
 30
0.0
 40
5.0
100
AcDbArc
 50
88.31148199999999
 51
180.0
  0
LINE
  5
391
330
6B
100
AcDbEntity
  8
0
 62
     3
100
AcDbLine
 10
70.50141500000002
 20
-480.1258889999998
 30
0.0
 11
70.50141500000002
 21
-477.237962
 31
0.0
  0
ARC
  5
392
330
6B
100
AcDbEntity
  8
0
 62
     3
100
AcDbCircle
 10
58.501415
 20
-480.1258889999998
 30
0.0
 40
12.0
100
AcDbArc
 50
273.204804
 51
0.0
  0
ARC
  5
393
330
6B
100
AcDbEntity
  8
0
 62
     3
100
AcDbCircle
 10
58.501415
 20
-474.350036
 30
0.0
 40
12.0
100
AcDbArc
 50
0.0
 51
86.79519599999997
  0
ARC
  5
394
330
6B
100
AcDbEntity
  8
0
 62
     3
100
AcDbCircle
 10
14.001415
 20
-465.737962
 30
0.0
 40
4.0
100
AcDbArc
 50
270.0
 51
0.0
  0
LINE
  5
395
330
6B
100
AcDbEntity
  8
0
 62
     3
100
AcDbLine
 10
-51.998585
 20
-464.737962
 30
0.0
 11
18.121548
 21
-464.737962
 31
0.0
  0
ARC
  5
396
330
6B
100
AcDbEntity
  8
0
 62
     3
100
AcDbCircle
 10
-47.998585
 20
-465.737962
 30
0.0
 40
4.0
100
AcDbArc
 50
180.0
 51
270.0
  0
ARC
  5
397
330
6B
100
AcDbEntity
  8
0
 62
     3
100
AcDbCircle
 10
-56.998585
 20
-465.8274089999999
 30
0.0
 40
5.0
100
AcDbArc
 50
0.0
 51
91.688518
  0
ARC
  5
398
330
6B
100
AcDbEntity
  8
0
 62
     3
100
AcDbCircle
 10
-16.998585
 20
-1822.737962
 30
0.0
 40
1362.5
100
AcDbArc
 50
86.79519599999997
 51
93.204804
  0
ARC
  5
399
330
6B
100
AcDbEntity
  8
0
 62
     3
100
AcDbCircle
 10
-92.498585
 20
-474.350036
 30
0.0
 40
12.0
100
AcDbArc
 50
93.204804
 51
180.0
  0
ARC
  5
39A
330
6B
100
AcDbEntity
  8
0
 62
     3
100
AcDbCircle
 10
-16.998585
 20
868.2620380000001
 30
0.0
 40
1362.5
100
AcDbArc
 50
266.795196
 51
273.204804
  0
LINE
  5
39B
330
6B
100
AcDbEntity
  8
0
 62
     3
100
AcDbLine
 10
-104.498585
 20
-480.1258889999998
 30
0.0
 11
-104.498585
 21
-474.350036
 31
0.0
  0
ARC
  5
39C
330
6B
100
AcDbEntity
  8
0
 62
     3
100
AcDbCircle
 10
-92.498585
 20
-480.1258889999998
 30
0.0
 40
12.0
100
AcDbArc
 50
180.0
 51
266.795196
  0
ARC
  5
39D
330
6B
100
AcDbEntity
  8
0
 62
     3
100
AcDbCircle
 10
-92.498585
 20
-335.465168
 30
0.0
 40
12.0
100
AcDbArc
 50
180.0
 51
266.795196
  0
LINE
  5
39E
330
6B
100
AcDbEntity
  8
0
 62
     3
100
AcDbLine
 10
-104.498585
 20
-335.465168
 30
0.0
 11
-104.498585
 21
-332.577242
 31
0.0
  0
ARC
  5
39F
330
6B
100
AcDbEntity
  8
0
 62
     3
100
AcDbCircle
 10
-92.498585
 20
-329.689315
 30
0.0
 40
12.0
100
AcDbArc
 50
93.204804
 51
180.0
  0
LINE
  5
3A0
330
6B
100
AcDbEntity
  8
0
 62
     3
100
AcDbLine
 10
-104.498585
 20
-329.689315
 30
0.0
 11
-104.498585
 21
-332.577242
 31
0.0
  0
LINE
  5
3A1
330
6B
100
AcDbEntity
  8
0
 62
     3
100
AcDbLine
 10
36.319317
 20
-430.345609
 30
0.0
 11
36.8773
 21
-430.345609
 31
0.0
  0
ARC
  5
3A2
330
6B
100
AcDbEntity
  8
0
 62
     3
100
AcDbCircle
 10
39.001415
 20
-389.824403
 30
0.0
 40
5.0
100
AcDbArc
 50
100.798319
 51
180.0
  0
ARC
  5
3A3
330
6B
100
AcDbEntity
  8
0
 62
     3
100
AcDbCircle
 10
39.001415
 20
-420.8557059999998
 30
0.0
 40
5.0
100
AcDbArc
 50
180.0
 51
259.201681
  0
LINE
  5
3A4
330
6B
100
AcDbEntity
  8
0
 62
     3
100
AcDbLine
 10
23.001415
 20
-386.520458
 30
0.0
 11
38.8773
 21
-384.808809
 31
0.0
  0
LINE
  5
3A5
330
6B
100
AcDbEntity
  8
0
 62
     3
100
AcDbLine
 10
-16.998585
 20
-386.520458
 30
0.0
 11
23.001415
 21
-386.520458
 31
0.0
  0
LINE
  5
3A6
330
6B
100
AcDbEntity
  8
0
 62
     3
100
AcDbLine
 10
-16.998585
 20
-386.520458
 30
0.0
 11
-56.998585
 21
-386.520458
 31
0.0
  0
LINE
  5
3A7
330
6B
100
AcDbEntity
  8
0
 62
     3
100
AcDbLine
 10
-34.498585
 20
-477.487962
 30
0.0
 11
-34.498585
 21
-484.487962
 31
0.0
  0
LINE
  5
3A8
330
6B
100
AcDbEntity
  8
0
 62
     3
100
AcDbLine
 10
-34.498585
 20
-476.987962
 30
0.0
 11
-34.498585
 21
-469.987962
 31
0.0
  0
LINE
  5
3A9
330
6B
100
AcDbEntity
  8
0
 62
     3
100
AcDbLine
 10
-29.498585
 20
-476.987962
 30
0.0
 11
-29.498585
 21
-469.987962
 31
0.0
  0
LINE
  5
3AA
330
6B
100
AcDbEntity
  8
0
 62
     3
100
AcDbLine
 10
-29.498585
 20
-477.487962
 30
0.0
 11
-29.498585
 21
-484.487962
 31
0.0
  0
ARC
  5
3AB
330
6B
100
AcDbEntity
  8
0
 62
     3
100
AcDbCircle
 10
-29.248585
 20
-484.487962
 30
0.0
 40
0.25
100
AcDbArc
 50
180.0
 51
270.0
  0
ARC
  5
3AC
330
6B
100
AcDbEntity
  8
0
 62
     3
100
AcDbCircle
 10
-34.748585
 20
-484.487962
 30
0.0
 40
0.25
100
AcDbArc
 50
270.0
 51
0.0
  0
ARC
  5
3AD
330
6B
100
AcDbEntity
  8
0
 62
     3
100
AcDbCircle
 10
-29.248585
 20
-469.987962
 30
0.0
 40
0.25
100
AcDbArc
 50
90.0
 51
180.0
  0
ARC
  5
3AE
330
6B
100
AcDbEntity
  8
0
 62
     3
100
AcDbCircle
 10
-34.748585
 20
-469.987962
 30
0.0
 40
0.25
100
AcDbArc
 50
0.0
 51
90.0
  0
LINE
  5
3AF
330
6B
100
AcDbEntity
  8
0
 62
     3
100
AcDbLine
 10
0.5014149999999999
 20
-477.487962
 30
0.0
 11
0.5014149999999999
 21
-484.487962
 31
0.0
  0
LINE
  5
3B0
330
6B
100
AcDbEntity
  8
0
 62
     3
100
AcDbLine
 10
-4.498585
 20
-477.487962
 30
0.0
 11
-4.498585
 21
-484.487962
 31
0.0
  0
ARC
  5
3B1
330
6B
100
AcDbEntity
  8
0
 62
     3
100
AcDbCircle
 10
-4.748585
 20
-484.487962
 30
0.0
 40
0.25
100
AcDbArc
 50
270.0
 51
0.0
  0
ARC
  5
3B2
330
6B
100
AcDbEntity
  8
0
 62
     3
100
AcDbCircle
 10
0.7514149999999999
 20
-484.487962
 30
0.0
 40
0.25
100
AcDbArc
 50
180.0
 51
270.0
  0
LINE
  5
3B3
330
6B
100
AcDbEntity
  8
0
 62
     3
100
AcDbLine
 10
0.5014149999999999
 20
-476.987962
 30
0.0
 11
0.5014149999999999
 21
-469.987962
 31
0.0
  0
ARC
  5
3B4
330
6B
100
AcDbEntity
  8
0
 62
     3
100
AcDbCircle
 10
0.7514149999999999
 20
-469.987962
 30
0.0
 40
0.25
100
AcDbArc
 50
90.0
 51
180.0
  0
ARC
  5
3B5
330
6B
100
AcDbEntity
  8
0
 62
     3
100
AcDbCircle
 10
-4.748585
 20
-469.987962
 30
0.0
 40
0.25
100
AcDbArc
 50
0.0
 51
90.0
  0
LINE
  5
3B6
330
6B
100
AcDbEntity
  8
0
 62
     3
100
AcDbLine
 10
-4.498585
 20
-476.987962
 30
0.0
 11
-4.498585
 21
-469.987962
 31
0.0
  0
LINE
  5
3B7
330
6B
100
AcDbEntity
  8
0
 62
     3
100
AcDbLine
 10
-101.998585
 20
-375.8345
 30
0.0
 11
-16.998585
 21
-375.8345
 31
0.0
  0
LINE
  5
3B8
330
6B
100
AcDbEntity
  8
0
 62
     3
100
AcDbLine
 10
-56.998585
 20
-386.520458
 30
0.0
 11
-99.49858500000001
 21
-381.938345
 31
0.0
  0
LINE
  5
3B9
330
6B
100
AcDbEntity
  8
0
 62
     3
100
AcDbLine
 10
70.50141500000002
 20
-332.577242
 30
0.0
 11
63.501415
 21
-332.577242
 31
0.0
  0
LINE
  5
3BA
330
6B
100
AcDbEntity
  8
0
 62
     3
100
AcDbLine
 10
70.50141500000002
 20
-335.465168
 30
0.0
 11
70.50141500000002
 21
-332.577242
 31
0.0
  0
LINE
  5
3BB
330
6B
100
AcDbEntity
  8
0
 62
     3
100
AcDbLine
 10
-97.498585
 20
-332.577242
 30
0.0
 11
-104.498585
 21
-332.577242
 31
0.0
  0
LINE
  5
3BC
330
6B
100
AcDbEntity
  8
0
 62
     3
100
AcDbLine
 10
-97.498585
 20
-477.237962
 30
0.0
 11
-104.498585
 21
-477.237962
 31
0.0
  0
LINE
  5
3BD
330
6B
100
AcDbEntity
  8
0
 62
     3
100
AcDbLine
 10
70.50141500000002
 20
-474.350036
 30
0.0
 11
70.50141500000002
 21
-477.237962
 31
0.0
  0
LINE
  5
3BE
330
6B
100
AcDbEntity
  8
0
 62
     3
100
AcDbLine
 10
-73.37447
 20
-476.987962
 30
0.0
 11
-73.37447
 21
-477.487962
 31
0.0
  0
LINE
  5
3BF
330
6B
100
AcDbEntity
  8
0
 62
     3
100
AcDbLine
 10
-73.87447
 20
-337.205523
 30
0.0
 11
-73.87447
 21
-332.827242
 31
0.0
  0
LINE
  5
3C0
330
6B
100
AcDbEntity
  8
0
 62
     3
100
AcDbLine
 10
-73.87447
 20
-327.99442
 30
0.0
 11
-73.87447
 21
-332.327242
 31
0.0
  0
ARC
  5
3C1
330
6B
100
AcDbEntity
  8
0
 62
     3
100
AcDbCircle
 10
-16.998585
 20
-1678.077242
 30
0.0
 40
1355.5
100
AcDbArc
 50
92.58165899999999
 51
93.204804
  0
ARC
  5
3C2
330
6B
100
AcDbEntity
  8
0
 62
     3
100
AcDbCircle
 10
-92.498585
 20
-329.689315
 30
0.0
 40
5.0
100
AcDbArc
 50
93.204804
 51
180.0
  0
LINE
  5
3C3
330
6B
100
AcDbEntity
  8
0
 62
     3
100
AcDbLine
 10
-97.498585
 20
-329.689315
 30
0.0
 11
-97.498585
 21
-335.465168
 31
0.0
  0
ARC
  5
3C4
330
6B
100
AcDbEntity
  8
0
 62
     3
100
AcDbCircle
 10
-92.498585
 20
-335.465168
 30
0.0
 40
5.0
100
AcDbArc
 50
180.0
 51
266.795196
  0
ARC
  5
3C5
330
6B
100
AcDbEntity
  8
0
 62
     3
100
AcDbCircle
 10
-16.998585
 20
1012.922758
 30
0.0
 40
1355.5
100
AcDbArc
 50
266.795196
 51
267.418341
  0
LINE
  5
3C6
330
6B
100
AcDbEntity
  8
0
 62
     3
100
AcDbLine
 10
39.8773
 20
-327.99442
 30
0.0
 11
39.8773
 21
-332.327242
 31
0.0
  0
ARC
  5
3C7
330
6B
100
AcDbEntity
  8
0
 62
     3
100
AcDbCircle
 10
-16.998585
 20
-1678.077242
 30
0.0
 40
1355.5
100
AcDbArc
 50
86.79519599999997
 51
87.418341
  0
ARC
  5
3C8
330
6B
100
AcDbEntity
  8
0
 62
     3
100
AcDbCircle
 10
58.501415
 20
-329.689315
 30
0.0
 40
5.0
100
AcDbArc
 50
0.0
 51
86.79519599999997
  0
LINE
  5
3C9
330
6B
100
AcDbEntity
  8
0
 62
     3
100
AcDbLine
 10
63.501415
 20
-329.689315
 30
0.0
 11
63.501415
 21
-335.465168
 31
0.0
  0
ARC
  5
3CA
330
6B
100
AcDbEntity
  8
0
 62
     3
100
AcDbCircle
 10
58.501415
 20
-335.465168
 30
0.0
 40
5.0
100
AcDbArc
 50
273.204804
 51
0.0
  0
ARC
  5
3CB
330
6B
100
AcDbEntity
  8
0
 62
     3
100
AcDbCircle
 10
-16.998585
 20
1012.922758
 30
0.0
 40
1355.5
100
AcDbArc
 50
272.581659
 51
273.204804
  0
LINE
  5
3CC
330
6B
100
AcDbEntity
  8
0
 62
     3
100
AcDbLine
 10
39.8773
 20
-337.205523
 30
0.0
 11
39.8773
 21
-332.827242
 31
0.0
  0
LINE
  5
3CD
330
6B
100
AcDbEntity
  8
0
 62
     3
100
AcDbLine
 10
14.001415
 20
-469.737962
 30
0.0
 11
0.7514149999999999
 21
-469.737962
 31
0.0
  0
LINE
  5
3CE
330
6B
100
AcDbEntity
  8
0
 62
     3
100
AcDbLine
 10
-4.748585
 20
-469.737962
 30
0.0
 11
-16.998585
 21
-469.737962
 31
0.0
  0
LINE
  5
3CF
330
6B
100
AcDbEntity
  8
0
 62
     3
100
AcDbLine
 10
14.001415
 20
-484.737962
 30
0.0
 11
0.7514149999999999
 21
-484.737962
 31
0.0
  0
LINE
  5
3D0
330
6B
100
AcDbEntity
  8
0
 62
     3
100
AcDbLine
 10
-4.748585
 20
-484.737962
 30
0.0
 11
-16.998585
 21
-484.737962
 31
0.0
  0
LINE
  5
3D1
330
6B
100
AcDbEntity
  8
0
 62
     3
100
AcDbLine
 10
-47.998585
 20
-469.737962
 30
0.0
 11
-34.748585
 21
-469.737962
 31
0.0
  0
LINE
  5
3D2
330
6B
100
AcDbEntity
  8
0
 62
     3
100
AcDbLine
 10
-29.248585
 20
-469.737962
 30
0.0
 11
-16.998585
 21
-469.737962
 31
0.0
  0
ARC
  5
3D3
330
6B
100
AcDbEntity
  8
0
 62
     3
100
AcDbCircle
 10
-16.998585
 20
-1822.737962
 30
0.0
 40
1355.5
100
AcDbArc
 50
86.79519599999997
 51
87.418341
  0
ARC
  5
3D4
330
6B
100
AcDbEntity
  8
0
 62
     3
100
AcDbCircle
 10
58.501415
 20
-474.350036
 30
0.0
 40
5.0
100
AcDbArc
 50
0.0
 51
86.79519599999997
  0
LINE
  5
3D5
330
6B
100
AcDbEntity
  8
0
 62
     3
100
AcDbLine
 10
63.501415
 20
-480.1258889999998
 30
0.0
 11
63.501415
 21
-477.237962
 31
0.0
  0
ARC
  5
3D6
330
6B
100
AcDbEntity
  8
0
 62
     3
100
AcDbCircle
 10
58.501415
 20
-480.1258889999998
 30
0.0
 40
5.0
100
AcDbArc
 50
273.204804
 51
0.0
  0
ARC
  5
3D7
330
6B
100
AcDbEntity
  8
0
 62
     3
100
AcDbCircle
 10
-16.998585
 20
868.2620380000001
 30
0.0
 40
1355.5
100
AcDbArc
 50
272.581659
 51
273.204804
  0
LINE
  5
3D8
330
6B
100
AcDbEntity
  8
0
 62
     3
100
AcDbLine
 10
39.8773
 20
-472.6551409999998
 30
0.0
 11
39.8773
 21
-476.987962
 31
0.0
  0
LINE
  5
3D9
330
6B
100
AcDbEntity
  8
0
 62
     3
100
AcDbLine
 10
63.501415
 20
-474.350036
 30
0.0
 11
63.501415
 21
-477.237962
 31
0.0
  0
LINE
  5
3DA
330
6B
100
AcDbEntity
  8
0
 62
     3
100
AcDbLine
 10
39.8773
 20
-481.866244
 30
0.0
 11
39.8773
 21
-477.487962
 31
0.0
  0
LINE
  5
3DB
330
6B
100
AcDbEntity
  8
0
 62
     3
100
AcDbLine
 10
-73.87447
 20
-481.866244
 30
0.0
 11
-73.87447
 21
-477.487962
 31
0.0
  0
LINE
  5
3DC
330
6B
100
AcDbEntity
  8
0
 62
     3
100
AcDbLine
 10
-73.87447
 20
-472.6551409999998
 30
0.0
 11
-73.87447
 21
-476.987962
 31
0.0
  0
LINE
  5
3DD
330
6B
100
AcDbEntity
  8
0
 62
     3
100
AcDbLine
 10
-97.498585
 20
-480.1258889999998
 30
0.0
 11
-97.498585
 21
-477.237962
 31
0.0
  0
ARC
  5
3DE
330
6B
100
AcDbEntity
  8
0
 62
     3
100
AcDbCircle
 10
-16.998585
 20
-1822.737962
 30
0.0
 40
1355.5
100
AcDbArc
 50
92.58165899999999
 51
93.204804
  0
ARC
  5
3DF
330
6B
100
AcDbEntity
  8
0
 62
     3
100
AcDbCircle
 10
-16.998585
 20
868.2620380000001
 30
0.0
 40
1355.5
100
AcDbArc
 50
266.795196
 51
267.418341
  0
LINE
  5
3E0
330
6B
100
AcDbEntity
  8
0
 62
     3
100
AcDbLine
 10
140.822774
 20
-358.579667
 30
0.0
 11
140.822774
 21
-369.345196
 31
0.0
  0
LINE
  5
3E1
330
6B
100
AcDbEntity
  8
0
 62
     3
100
AcDbLine
 10
146.022774
 20
-359.395334
 30
0.0
 11
146.022774
 21
-369.345196
 31
0.0
  0
ARC
  5
3E2
330
6B
100
AcDbEntity
  8
0
 62
     3
100
AcDbCircle
 10
53.603293
 20
-419.1141449999998
 30
0.0
 40
100.0
100
AcDbArc
 50
11.986985
 51
18.523253
  0
ARC
  5
3E3
330
6B
100
AcDbEntity
  8
0
 62
     3
100
AcDbCircle
 10
233.242254
 20
-419.1141449999998
 30
0.0
 40
100.0
100
AcDbArc
 50
161.476747
 51
168.013015
  0
LINE
  5
3E4
330
6B
100
AcDbEntity
  8
0
 62
     3
100
AcDbLine
 10
135.422774
 20
-398.345196
 30
0.0
 11
135.422774
 21
-400.3451959999998
 31
0.0
  0
LINE
  5
3E5
330
6B
100
AcDbEntity
  8
0
 62
     3
100
AcDbLine
 10
135.422774
 20
-400.3451959999998
 30
0.0
 11
151.422774
 21
-400.3451959999998
 31
0.0
  0
LINE
  5
3E6
330
6B
100
AcDbEntity
  8
0
 62
     3
100
AcDbLine
 10
151.422774
 20
-398.345196
 30
0.0
 11
151.422774
 21
-400.3451959999998
 31
0.0
  0
LINE
  5
3E7
330
6B
100
AcDbEntity
  8
0
 62
     3
100
AcDbLine
 10
149.422774
 20
-384.345196
 30
0.0
 11
148.422774
 21
-387.345196
 31
0.0
  0
LINE
  5
3E8
330
6B
100
AcDbEntity
  8
0
 62
     3
100
AcDbLine
 10
149.422774
 20
-383.345196
 30
0.0
 11
149.422774
 21
-384.345196
 31
0.0
  0
LINE
  5
3E9
330
6B
100
AcDbEntity
  8
0
 62
     3
100
AcDbLine
 10
137.422774
 20
-383.345196
 30
0.0
 11
149.422774
 21
-383.345196
 31
0.0
  0
LINE
  5
3EA
330
6B
100
AcDbEntity
  8
0
 62
     3
100
AcDbLine
 10
137.422774
 20
-384.345196
 30
0.0
 11
138.422774
 21
-387.345196
 31
0.0
  0
LINE
  5
3EB
330
6B
100
AcDbEntity
  8
0
 62
     3
100
AcDbLine
 10
137.422774
 20
-383.345196
 30
0.0
 11
137.422774
 21
-384.345196
 31
0.0
  0
LINE
  5
3EC
330
6B
100
AcDbEntity
  8
0
 62
     3
100
AcDbLine
 10
139.922774
 20
-378.345196
 30
0.0
 11
139.922774
 21
-383.345196
 31
0.0
  0
LINE
  5
3ED
330
6B
100
AcDbEntity
  8
0
 62
     3
100
AcDbLine
 10
146.922774
 20
-378.345196
 30
0.0
 11
146.922774
 21
-383.345196
 31
0.0
  0
LINE
  5
3EE
330
6B
100
AcDbEntity
  8
0
 62
     3
100
AcDbLine
 10
146.922774
 20
-374.345196
 30
0.0
 11
146.922774
 21
-377.345196
 31
0.0
  0
ARC
  5
3EF
330
6B
100
AcDbEntity
  8
0
 62
     3
100
AcDbCircle
 10
147.422774
 20
-377.845196
 30
0.0
 40
0.5
100
AcDbArc
 50
0.0
 51
90.0
  0
ARC
  5
3F0
330
6B
100
AcDbEntity
  8
0
 62
     3
100
AcDbCircle
 10
147.422774
 20
-377.845196
 30
0.0
 40
0.5
100
AcDbArc
 50
270.0
 51
0.0
  0
ARC
  5
3F1
330
6B
100
AcDbEntity
  8
0
 62
     3
100
AcDbCircle
 10
139.422774
 20
-377.845196
 30
0.0
 40
0.5
100
AcDbArc
 50
180.0
 51
270.0
  0
ARC
  5
3F2
330
6B
100
AcDbEntity
  8
0
 62
     3
100
AcDbCircle
 10
139.422774
 20
-377.845196
 30
0.0
 40
0.5
100
AcDbArc
 50
90.0
 51
180.0
  0
LINE
  5
3F3
330
6B
100
AcDbEntity
  8
0
 62
     3
100
AcDbLine
 10
139.922774
 20
-374.345196
 30
0.0
 11
139.922774
 21
-377.345196
 31
0.0
  0
ARC
  5
3F4
330
6B
100
AcDbEntity
  8
0
 62
     3
100
AcDbCircle
 10
139.422774
 20
-373.845196
 30
0.0
 40
0.5
100
AcDbArc
 50
180.0
 51
270.0
  0
ARC
  5
3F5
330
6B
100
AcDbEntity
  8
0
 62
     3
100
AcDbCircle
 10
139.422774
 20
-373.845196
 30
0.0
 40
0.5
100
AcDbArc
 50
90.0
 51
180.0
  0
LINE
  5
3F6
330
6B
100
AcDbEntity
  8
0
 62
     3
100
AcDbLine
 10
139.922774
 20
-370.345196
 30
0.0
 11
139.922774
 21
-373.345196
 31
0.0
  0
LINE
  5
3F7
330
6B
100
AcDbEntity
  8
0
 62
     3
100
AcDbLine
 10
146.922774
 20
-370.345196
 30
0.0
 11
146.922774
 21
-373.345196
 31
0.0
  0
ARC
  5
3F8
330
6B
100
AcDbEntity
  8
0
 62
     3
100
AcDbCircle
 10
147.422774
 20
-369.845196
 30
0.0
 40
0.5
100
AcDbArc
 50
270.0
 51
0.0
  0
ARC
  5
3F9
330
6B
100
AcDbEntity
  8
0
 62
     3
100
AcDbCircle
 10
147.422774
 20
-369.845196
 30
0.0
 40
0.5
100
AcDbArc
 50
0.0
 51
90.0
  0
ARC
  5
3FA
330
6B
100
AcDbEntity
  8
0
 62
     3
100
AcDbCircle
 10
139.422774
 20
-369.845196
 30
0.0
 40
0.5
100
AcDbArc
 50
90.0
 51
180.0
  0
ARC
  5
3FB
330
6B
100
AcDbEntity
  8
0
 62
     3
100
AcDbCircle
 10
139.422774
 20
-369.845196
 30
0.0
 40
0.5
100
AcDbArc
 50
180.0
 51
270.0
  0
LINE
  5
3FC
330
6B
100
AcDbEntity
  8
0
 62
     3
100
AcDbLine
 10
-29.248585
 20
-484.737962
 30
0.0
 11
-16.998585
 21
-484.737962
 31
0.0
  0
LINE
  5
3FD
330
6B
100
AcDbEntity
  8
0
 62
     3
100
AcDbLine
 10
-47.998585
 20
-484.737962
 30
0.0
 11
-34.748585
 21
-484.737962
 31
0.0
  0
ARC
  5
3FE
330
6B
100
AcDbEntity
  8
0
 62
     3
100
AcDbCircle
 10
-47.998585
 20
-488.737962
 30
0.0
 40
4.0
100
AcDbArc
 50
90.0
 51
180.0
  0
ARC
  5
3FF
330
6B
100
AcDbEntity
  8
0
 62
     3
100
AcDbCircle
 10
14.001415
 20
-488.737962
 30
0.0
 40
4.0
100
AcDbArc
 50
0.0
 51
90.0
  0
ARC
  5
400
330
6B
100
AcDbEntity
  8
0
 62
     3
100
AcDbCircle
 10
-92.498585
 20
-474.350036
 30
0.0
 40
5.0
100
AcDbArc
 50
93.204804
 51
180.0
  0
ARC
  5
401
330
6B
100
AcDbEntity
  8
0
 62
     3
100
AcDbCircle
 10
-92.498585
 20
-480.1258889999998
 30
0.0
 40
5.0
100
AcDbArc
 50
180.0
 51
266.795196
  0
LINE
  5
402
330
6B
100
AcDbEntity
  8
0
 62
     3
100
AcDbLine
 10
-97.498585
 20
-474.350036
 30
0.0
 11
-97.498585
 21
-477.237962
 31
0.0
  0
ARC
  5
403
330
6B
100
AcDbEntity
  8
0
 62
     3
100
AcDbCircle
 10
-56.998585
 20
-328.827242
 30
0.0
 40
8.875
100
AcDbArc
 50
90.0
 51
180.0
  0
LINE
  5
404
330
6B
100
AcDbEntity
  8
0
 62
     3
100
AcDbLine
 10
-56.998585
 20
-319.952242
 30
0.0
 11
23.001415
 21
-319.952242
 31
0.0
  0
LINE
  5
405
330
6B
100
AcDbEntity
  8
0
 62
     3
100
AcDbLine
 10
-65.87358499999999
 20
-336.327242
 30
0.0
 11
-65.87358499999999
 21
-328.827242
 31
0.0
  0
ARC
  5
406
330
6B
100
AcDbEntity
  8
0
 62
     3
100
AcDbCircle
 10
-56.998585
 20
-336.327242
 30
0.0
 40
8.875
100
AcDbArc
 50
180.0
 51
270.0
  0
ARC
  5
407
330
6B
100
AcDbEntity
  8
0
 62
     3
100
AcDbCircle
 10
23.001415
 20
-328.827242
 30
0.0
 40
8.875
100
AcDbArc
 50
0.0
 51
90.0
  0
ARC
  5
408
330
6B
100
AcDbEntity
  8
0
 62
     3
100
AcDbCircle
 10
23.001415
 20
-336.327242
 30
0.0
 40
8.875
100
AcDbArc
 50
270.0
 51
0.0
  0
LINE
  5
409
330
6B
100
AcDbEntity
  8
0
 62
     3
100
AcDbLine
 10
-56.998585
 20
-345.202242
 30
0.0
 11
23.001415
 21
-345.202242
 31
0.0
  0
ARC
  5
40A
330
6B
100
AcDbEntity
  8
0
 62
     3
100
AcDbCircle
 10
-77.87447
 20
-337.205523
 30
0.0
 40
4.0
100
AcDbArc
 50
267.418341
 51
0.0
  0
ARC
  5
40B
330
6B
100
AcDbEntity
  8
0
 62
     3
100
AcDbCircle
 10
-77.87447
 20
-327.94896
 30
0.0
 40
4.0
100
AcDbArc
 50
0.0
 51
92.58165899999999
  0
ARC
  5
40C
330
6B
100
AcDbEntity
  8
0
 62
     3
100
AcDbCircle
 10
43.8773
 20
-327.94896
 30
0.0
 40
4.0
100
AcDbArc
 50
87.418341
 51
180.0
  0
ARC
  5
40D
330
6B
100
AcDbEntity
  8
0
 62
     3
100
AcDbCircle
 10
43.8773
 20
-337.205523
 30
0.0
 40
4.0
100
AcDbArc
 50
180.0
 51
272.581659
  0
LINE
  5
40E
330
6B
100
AcDbEntity
  8
0
 62
     3
100
AcDbLine
 10
31.876415
 20
-332.577242
 30
0.0
 11
31.876415
 21
-336.327242
 31
0.0
  0
LINE
  5
40F
330
6B
100
AcDbEntity
  8
0
 62
     3
100
AcDbLine
 10
31.876415
 20
-332.577242
 30
0.0
 11
31.876415
 21
-328.827242
 31
0.0
  0
ARC
  5
410
330
6B
100
AcDbEntity
  8
0
 62
     3
100
AcDbCircle
 10
43.8773
 20
-481.866244
 30
0.0
 40
4.0
100
AcDbArc
 50
180.0
 51
272.581659
  0
ARC
  5
411
330
6B
100
AcDbEntity
  8
0
 62
     3
100
AcDbCircle
 10
43.8773
 20
-472.6096809999998
 30
0.0
 40
4.0
100
AcDbArc
 50
87.418341
 51
180.0
  0
ARC
  5
412
330
6B
100
AcDbEntity
  8
0
 62
     3
100
AcDbCircle
 10
-77.87447
 20
-481.866244
 30
0.0
 40
4.0
100
AcDbArc
 50
267.418341
 51
0.0
  0
ARC
  5
413
330
6B
100
AcDbEntity
  8
0
 62
     3
100
AcDbCircle
 10
-77.87447
 20
-472.6096809999998
 30
0.0
 40
4.0
100
AcDbArc
 50
0.0
 51
92.58165899999999
  0
CIRCLE
  5
414
330
6B
100
AcDbEntity
  8
0
 62
     3
100
AcDbCircle
 10
-16.998585
 20
-332.577242
 30
0.0
 40
4.0
  0
LINE
  5
415
330
6B
100
AcDbEntity
  8
0
100
AcDbLine
 10
-48.148627
 20
-340.337364
 30
0.0
 11
-53.533062
 21
-340.337364
 31
0.0
  0
ARC
  5
416
330
6B
100
AcDbEntity
  8
0
100
AcDbCircle
 10
-48.148627
 20
-337.717364
 30
0.0
 40
2.62
100
AcDbArc
 50
270.0
 51
319.533253
  0
ARC
  5
417
330
6B
100
AcDbEntity
  8
0
100
AcDbCircle
 10
-47.513445
 20
-332.582164
 30
0.0
 40
10.5324
100
AcDbArc
 50
139.533253
 51
220.466747
  0
ARC
  5
418
330
6B
100
AcDbEntity
  8
0
100
AcDbCircle
 10
-53.533062
 20
-337.717364
 30
0.0
 40
2.62
100
AcDbArc
 50
220.466747
 51
270.0
  0
ARC
  5
419
330
6B
100
AcDbEntity
  8
0
100
AcDbCircle
 10
-53.533062
 20
-327.446964
 30
0.0
 40
2.62
100
AcDbArc
 50
90.0
 51
139.533253
  0
LINE
  5
41A
330
6B
100
AcDbEntity
  8
0
100
AcDbLine
 10
-48.148627
 20
-324.826964
 30
0.0
 11
-53.533062
 21
-324.826964
 31
0.0
  0
ARC
  5
41B
330
6B
100
AcDbEntity
  8
0
100
AcDbCircle
 10
-48.148627
 20
-327.446964
 30
0.0
 40
2.62
100
AcDbArc
 50
40.46674699999999
 51
90.0
  0
CIRCLE
  5
41C
330
6B
100
AcDbEntity
  8
0
100
AcDbCircle
 10
-40.49184499999999
 20
-332.582164
 30
0.0
 40
1.833999999999999
  0
ARC
  5
41D
330
6B
100
AcDbEntity
  8
0
100
AcDbCircle
 10
-54.168245
 20
-332.582164
 30
0.0
 40
10.5324
100
AcDbArc
 50
319.533253
 51
40.46674699999999
  0
LINE
  5
41E
330
6B
100
AcDbEntity
  8
0
100
AcDbLine
 10
-32.835062
 20
-340.337364
 30
0.0
 11
-27.450627
 21
-340.337364
 31
0.0
  0
ARC
  5
41F
330
6B
100
AcDbEntity
  8
0
100
AcDbCircle
 10
-27.450627
 20
-337.717364
 30
0.0
 40
2.62
100
AcDbArc
 50
270.0
 51
319.533253
  0
ARC
  5
420
330
6B
100
AcDbEntity
  8
0
100
AcDbCircle
 10
-33.470245
 20
-332.582164
 30
0.0
 40
10.5324
100
AcDbArc
 50
319.533253
 51
40.46674699999999
  0
ARC
  5
421
330
6B
100
AcDbEntity
  8
0
100
AcDbCircle
 10
-27.450627
 20
-327.446964
 30
0.0
 40
2.62
100
AcDbArc
 50
40.46674699999999
 51
90.0
  0
LINE
  5
422
330
6B
100
AcDbEntity
  8
0
100
AcDbLine
 10
-32.835062
 20
-324.826964
 30
0.0
 11
-27.450627
 21
-324.826964
 31
0.0
  0
ARC
  5
423
330
6B
100
AcDbEntity
  8
0
100
AcDbCircle
 10
-32.835062
 20
-327.446964
 30
0.0
 40
2.62
100
AcDbArc
 50
90.0
 51
139.533253
  0
ARC
  5
424
330
6B
100
AcDbEntity
  8
0
100
AcDbCircle
 10
-32.835062
 20
-337.717364
 30
0.0
 40
2.62
100
AcDbArc
 50
220.466747
 51
270.0
  0
ARC
  5
425
330
6B
100
AcDbEntity
  8
0
100
AcDbCircle
 10
14.151458
 20
-337.717364
 30
0.0
 40
2.62
100
AcDbArc
 50
220.466747
 51
270.0
  0
ARC
  5
426
330
6B
100
AcDbEntity
  8
0
100
AcDbCircle
 10
13.516276
 20
-332.582164
 30
0.0
 40
10.5324
100
AcDbArc
 50
319.533253
 51
40.46674699999999
  0
ARC
  5
427
330
6B
100
AcDbEntity
  8
0
100
AcDbCircle
 10
19.535893
 20
-337.717364
 30
0.0
 40
2.62
100
AcDbArc
 50
270.0
 51
319.533253
  0
ARC
  5
428
330
6B
100
AcDbEntity
  8
0
100
AcDbCircle
 10
19.535893
 20
-327.446964
 30
0.0
 40
2.62
100
AcDbArc
 50
40.46674699999999
 51
90.0
  0
LINE
  5
429
330
6B
100
AcDbEntity
  8
0
100
AcDbLine
 10
14.151458
 20
-324.826964
 30
0.0
 11
19.535893
 21
-324.826964
 31
0.0
  0
ARC
  5
42A
330
6B
100
AcDbEntity
  8
0
100
AcDbCircle
 10
14.151458
 20
-327.446964
 30
0.0
 40
2.62
100
AcDbArc
 50
90.0
 51
139.533253
  0
CIRCLE
  5
42B
330
6B
100
AcDbEntity
  8
0
100
AcDbCircle
 10
6.494676
 20
-332.582164
 30
0.0
 40
1.833999999999999
  0
LINE
  5
42C
330
6B
100
AcDbEntity
  8
0
100
AcDbLine
 10
-1.162107
 20
-340.337364
 30
0.0
 11
-6.546541999999997
 21
-340.337364
 31
0.0
  0
ARC
  5
42D
330
6B
100
AcDbEntity
  8
0
100
AcDbCircle
 10
-6.546541999999997
 20
-337.717364
 30
0.0
 40
2.62
100
AcDbArc
 50
220.466747
 51
270.0
  0
ARC
  5
42E
330
6B
100
AcDbEntity
  8
0
100
AcDbCircle
 10
-0.526924
 20
-332.582164
 30
0.0
 40
10.5324
100
AcDbArc
 50
139.533253
 51
220.466747
  0
ARC
  5
42F
330
6B
100
AcDbEntity
  8
0
100
AcDbCircle
 10
-6.546541999999997
 20
-327.446964
 30
0.0
 40
2.62
100
AcDbArc
 50
90.0
 51
139.533253
  0
LINE
  5
430
330
6B
100
AcDbEntity
  8
0
100
AcDbLine
 10
-1.162107
 20
-324.826964
 30
0.0
 11
-6.546541999999997
 21
-324.826964
 31
0.0
  0
ARC
  5
431
330
6B
100
AcDbEntity
  8
0
100
AcDbCircle
 10
-1.162107
 20
-327.446964
 30
0.0
 40
2.62
100
AcDbArc
 50
40.46674699999999
 51
90.0
  0
ARC
  5
432
330
6B
100
AcDbEntity
  8
0
100
AcDbCircle
 10
-1.162107
 20
-337.717364
 30
0.0
 40
2.62
100
AcDbArc
 50
270.0
 51
319.533253
  0
ARC
  5
433
330
6B
100
AcDbEntity
  8
0
100
AcDbCircle
 10
-7.181724
 20
-332.582164
 30
0.0
 40
10.5324
100
AcDbArc
 50
319.533253
 51
40.46674699999999
  0
LINE
  5
434
330
6B
100
AcDbEntity
  8
0
100
AcDbLine
 10
14.151458
 20
-340.337364
 30
0.0
 11
19.535893
 21
-340.337364
 31
0.0
  0
ARC
  5
435
330
6B
100
AcDbEntity
  8
0
100
AcDbCircle
 10
20.171076
 20
-332.582164
 30
0.0
 40
10.5324
100
AcDbArc
 50
139.533253
 51
220.466747
  0
ARC
  5
436
330
6B
100
AcDbEntity
  8
0
100
AcDbCircle
 10
-26.815445
 20
-332.582164
 30
0.0
 40
10.5324
100
AcDbArc
 50
139.533253
 51
220.466747
  0
LINE
  5
437
330
6B
100
AcDbEntity
  8
0
100
AcDbLine
 10
-70.87447
 20
-383.3345
 30
0.0
 11
36.8773
 21
-383.3345
 31
0.0
  0
LINE
  5
438
330
6B
100
AcDbEntity
  8
0
100
AcDbLine
 10
-16.998585
 20
-381.3345
 30
0.0
 11
36.8773
 21
-381.3345
 31
0.0
  0
LINE
  5
439
330
6B
100
AcDbEntity
  8
0
100
AcDbLine
 10
-16.998585
 20
-380.3345
 30
0.0
 11
36.8773
 21
-380.3345
 31
0.0
  0
LINE
  5
43A
330
6B
100
AcDbEntity
  8
0
100
AcDbLine
 10
-16.998585
 20
-378.3345
 30
0.0
 11
36.8773
 21
-378.3345
 31
0.0
  0
LINE
  5
43B
330
6B
100
AcDbEntity
  8
0
100
AcDbLine
 10
-16.998585
 20
-381.3345
 30
0.0
 11
-70.87447
 21
-381.3345
 31
0.0
  0
LINE
  5
43C
330
6B
100
AcDbEntity
  8
0
100
AcDbLine
 10
-16.998585
 20
-380.3345
 30
0.0
 11
-70.87447
 21
-380.3345
 31
0.0
  0
LINE
  5
43D
330
6B
100
AcDbEntity
  8
0
100
AcDbLine
 10
-16.998585
 20
-378.3345
 30
0.0
 11
-70.87447
 21
-378.3345
 31
0.0
  0
ARC
  5
43E
330
6B
100
AcDbEntity
  8
0
100
AcDbCircle
 10
-70.87447
 20
-379.3345
 30
0.0
 40
1.0
100
AcDbArc
 50
90.0
 51
269.999998
  0
ARC
  5
43F
330
6B
100
AcDbEntity
  8
0
100
AcDbCircle
 10
-70.87447
 20
-382.3345
 30
0.0
 40
1.0
100
AcDbArc
 50
90.0
 51
270.0
  0
ARC
  5
440
330
6B
100
AcDbEntity
  8
0
100
AcDbCircle
 10
36.8773
 20
-382.3345
 30
0.0
 40
1.0
100
AcDbArc
 50
270.0
 51
90.0
  0
ARC
  5
441
330
6B
100
AcDbEntity
  8
0
100
AcDbCircle
 10
36.8773
 20
-379.3345
 30
0.0
 40
1.0
100
AcDbArc
 50
270.000002
 51
90.0
  0
LINE
  5
442
330
6B
100
AcDbEntity
  8
0
100
AcDbLine
 10
24.11928
 20
-432.3456089999998
 30
0.0
 11
36.8773
 21
-432.3456089999998
 31
0.0
  0
LINE
  5
443
330
6B
100
AcDbEntity
  8
0
100
AcDbLine
 10
24.007944
 20
-430.345609
 30
0.0
 11
32.446334
 21
-430.345609
 31
0.0
  0
LINE
  5
444
330
6B
100
AcDbEntity
  8
0
100
AcDbLine
 10
24.119279
 20
-429.3456089999998
 30
0.0
 11
32.446334
 21
-429.3456089999998
 31
0.0
  0
LINE
  5
445
330
6B
100
AcDbEntity
  8
0
100
AcDbLine
 10
24.119279
 20
-427.3456089999998
 30
0.0
 11
36.8773
 21
-427.3456089999998
 31
0.0
  0
ARC
  5
446
330
6B
100
AcDbEntity
  8
0
100
AcDbCircle
 10
36.8773
 20
-428.3456089999998
 30
0.0
 40
1.0
100
AcDbArc
 50
270.0
 51
90.0
  0
ARC
  5
447
330
6B
100
AcDbEntity
  8
0
100
AcDbCircle
 10
36.8773
 20
-431.3456089999998
 30
0.0
 40
1.0
100
AcDbArc
 50
270.0
 51
89.99999800000002
  0
ARC
  5
448
330
6B
100
AcDbEntity
  8
0
100
AcDbCircle
 10
24.11928
 20
-431.3456089999998
 30
0.0
 40
1.0
100
AcDbArc
 50
90.0
 51
270.0
  0
ARC
  5
449
330
6B
100
AcDbEntity
  8
0
100
AcDbCircle
 10
24.119279
 20
-428.3456089999998
 30
0.0
 40
1.0
100
AcDbArc
 50
90.00000199999998
 51
270.0
  0
LINE
  5
44A
330
6B
100
AcDbEntity
  8
0
100
AcDbLine
 10
-58.11644799999999
 20
-429.3456089999998
 30
0.0
 11
-70.87447
 21
-429.3456089999998
 31
0.0
  0
ARC
  5
44B
330
6B
100
AcDbEntity
  8
0
100
AcDbCircle
 10
-58.11644799999999
 20
-428.3456089999998
 30
0.0
 40
1.0
100
AcDbArc
 50
270.0
 51
89.99999800000002
  0
LINE
  5
44C
330
6B
100
AcDbEntity
  8
0
100
AcDbLine
 10
-58.11644799999999
 20
-427.3456089999998
 30
0.0
 11
-70.87447
 21
-427.3456089999998
 31
0.0
  0
LINE
  5
44D
330
6B
100
AcDbEntity
  8
0
100
AcDbLine
 10
-58.005113
 20
-430.345609
 30
0.0
 11
-70.87447
 21
-430.345609
 31
0.0
  0
ARC
  5
44E
330
6B
100
AcDbEntity
  8
0
100
AcDbCircle
 10
-58.116449
 20
-431.3456089999998
 30
0.0
 40
1.0
100
AcDbArc
 50
270.0
 51
90.0
  0
LINE
  5
44F
330
6B
100
AcDbEntity
  8
0
100
AcDbLine
 10
-58.116449
 20
-432.3456089999998
 30
0.0
 11
-70.87447
 21
-432.3456089999998
 31
0.0
  0
ARC
  5
450
330
6B
100
AcDbEntity
  8
0
100
AcDbCircle
 10
-70.87447
 20
-431.3456089999998
 30
0.0
 40
1.0
100
AcDbArc
 50
90.00000199999998
 51
270.0
  0
ARC
  5
451
330
6B
100
AcDbEntity
  8
0
100
AcDbCircle
 10
-70.87447
 20
-428.3456089999998
 30
0.0
 40
1.0
100
AcDbArc
 50
90.0
 51
270.0
  0
TEXT
  5
452
330
6B
100
AcDbEntity
  8
0
100
AcDbText
 10
22.743189
 20
-335.064939
 30
0.0
 40
1.212749999999997
  1
125V 15A
 50
89.999996
 41
0.595513
100
AcDbText
  0
TEXT
  5
453
330
6B
100
AcDbEntity
  8
0
100
AcDbText
 10
12.24319
 20
-336.536864
 30
0.0
 40
0.8
  1
<PS>E JET
 50
90.00000300000001
 41
1.054620999999997
100
AcDbText
  0
LINE
  5
454
330
6B
100
AcDbEntity
  8
0
100
AcDbLine
 10
11.432381
 20
-328.942268
 30
0.0
 11
12.24319
 21
-328.942268
 31
0.0
  0
CIRCLE
  5
455
330
6B
100
AcDbEntity
  8
0
100
AcDbCircle
 10
11.837786
 20
-328.942268
 30
0.0
 40
0.405404
  0
LINE
  5
456
330
6B
100
AcDbEntity
  8
0
100
AcDbLine
 10
12.24319
 20
-328.942268
 30
0.0
 11
11.523633
 21
-328.525037
 31
0.0
  0
LINE
  5
457
330
6B
100
AcDbEntity
  8
0
100
AcDbLine
 10
11.432381
 20
-328.942268
 30
0.0
 11
12.147955
 21
-329.3476720000001
 31
0.0
  0
LINE
  5
458
330
6B
100
AcDbEntity
  8
0
100
AcDbLine
 10
18.546676
 20
-329.831164
 30
0.0
 11
14.878676
 21
-329.831164
 31
0.0
  0
LINE
  5
459
330
6B
100
AcDbEntity
  8
0
100
AcDbLine
 10
14.878676
 20
-328.678364
 30
0.0
 11
18.546676
 21
-328.678364
 31
0.0
  0
LINE
  5
45A
330
6B
100
AcDbEntity
  8
0
100
AcDbLine
 10
14.878676
 20
-328.678364
 30
0.0
 11
14.878676
 21
-329.831164
 31
0.0
  0
LINE
  5
45B
330
6B
100
AcDbEntity
  8
0
100
AcDbLine
 10
18.546676
 20
-328.678364
 30
0.0
 11
18.546676
 21
-329.831164
 31
0.0
  0
TEXT
  5
45C
330
6B
100
AcDbEntity
  8
0
100
AcDbText
 10
15.433746
 20
-338.972534
 30
0.0
 40
1.370249999999999
  1
N
 50
90.00000300000001
100
AcDbText
  0
TEXT
  5
45D
330
6B
100
AcDbEntity
  8
0
100
AcDbText
 10
15.433746
 20
-338.972534
 30
0.0
 40
1.370249999999999
  1
N
 50
90.00000300000001
100
AcDbText
  0
LINE
  5
45E
330
6B
100
AcDbEntity
  8
0
100
AcDbLine
 10
14.433276
 20
-335.333164
 30
0.0
 11
18.992076
 21
-335.333164
 31
0.0
  0
LINE
  5
45F
330
6B
100
AcDbEntity
  8
0
100
AcDbLine
 10
14.433276
 20
-336.485964
 30
0.0
 11
18.992076
 21
-336.485964
 31
0.0
  0
LINE
  5
460
330
6B
100
AcDbEntity
  8
0
100
AcDbLine
 10
14.433276
 20
-336.485964
 30
0.0
 11
14.433276
 21
-335.333164
 31
0.0
  0
LINE
  5
461
330
6B
100
AcDbEntity
  8
0
100
AcDbLine
 10
18.992076
 20
-335.333164
 30
0.0
 11
18.992076
 21
-336.485964
 31
0.0
  0
TEXT
  5
462
330
6B
100
AcDbEntity
  8
0
100
AcDbText
 10
-4.066253999999998
 20
-338.972534
 30
0.0
 40
1.370249999999999
  1
N
 50
90.00000300000001
100
AcDbText
  0
TEXT
  5
463
330
6B
100
AcDbEntity
  8
0
100
AcDbText
 10
-4.066253999999998
 20
-338.972534
 30
0.0
 40
1.370249999999999
  1
N
 50
90.00000300000001
100
AcDbText
  0
LINE
  5
464
330
6B
100
AcDbEntity
  8
0
100
AcDbLine
 10
-5.557323999999997
 20
-329.831164
 30
0.0
 11
-1.889324
 21
-329.831164
 31
0.0
  0
LINE
  5
465
330
6B
100
AcDbEntity
  8
0
100
AcDbLine
 10
-1.889324
 20
-328.678364
 30
0.0
 11
-5.557323999999997
 21
-328.678364
 31
0.0
  0
LINE
  5
466
330
6B
100
AcDbEntity
  8
0
100
AcDbLine
 10
-5.557323999999997
 20
-328.678364
 30
0.0
 11
-5.557323999999997
 21
-329.831164
 31
0.0
  0
LINE
  5
467
330
6B
100
AcDbEntity
  8
0
100
AcDbLine
 10
-1.889324
 20
-328.678364
 30
0.0
 11
-1.889324
 21
-329.831164
 31
0.0
  0
LINE
  5
468
330
6B
100
AcDbEntity
  8
0
100
AcDbLine
 10
-1.443923999999999
 20
-335.333164
 30
0.0
 11
-6.002723999999997
 21
-335.333164
 31
0.0
  0
LINE
  5
469
330
6B
100
AcDbEntity
  8
0
100
AcDbLine
 10
-1.443923999999999
 20
-336.485964
 30
0.0
 11
-6.002723999999997
 21
-336.485964
 31
0.0
  0
LINE
  5
46A
330
6B
100
AcDbEntity
  8
0
100
AcDbLine
 10
-6.002723999999997
 20
-335.333164
 30
0.0
 11
-6.002723999999997
 21
-336.485964
 31
0.0
  0
LINE
  5
46B
330
6B
100
AcDbEntity
  8
0
100
AcDbLine
 10
-1.443923999999999
 20
-336.485964
 30
0.0
 11
-1.443923999999999
 21
-335.333164
 31
0.0
  0
ARC
  5
46C
330
6B
100
AcDbEntity
  8
0
 62
     3
100
AcDbCircle
 10
13.685954
 20
-338.765364
 30
0.0
 40
2.62
100
AcDbArc
 50
223.634738
 51
270.0
  0
ARC
  5
46D
330
6B
100
AcDbEntity
  8
0
 62
     3
100
AcDbCircle
 10
-0.6966020000000001
 20
-338.765364
 30
0.0
 40
2.62
100
AcDbArc
 50
270.0
 51
316.3652620000001
  0
ARC
  5
46E
330
6B
100
AcDbEntity
  8
0
 62
     3
100
AcDbCircle
 10
-0.6966020000000001
 20
-326.3989640000001
 30
0.0
 40
2.62
100
AcDbArc
 50
43.634738
 51
90.0
  0
ARC
  5
46F
330
6B
100
AcDbEntity
  8
0
 62
     3
100
AcDbCircle
 10
13.685954
 20
-326.3989640000001
 30
0.0
 40
2.62
100
AcDbArc
 50
90.0
 51
136.365262
  0
CIRCLE
  5
470
330
6B
100
AcDbEntity
  8
0
100
AcDbCircle
 10
29.252541
 20
-338.184189
 30
0.0
 40
1.0
  0
CIRCLE
  5
471
330
6B
100
AcDbEntity
  8
0
100
AcDbCircle
 10
29.252541
 20
-326.970294
 30
0.0
 40
1.0
  0
CIRCLE
  5
472
330
6B
100
AcDbEntity
  8
0
100
AcDbCircle
 10
-16.998585
 20
-322.077242
 30
0.0
 40
1.0
  0
CIRCLE
  5
473
330
6B
100
AcDbEntity
  8
0
100
AcDbCircle
 10
-16.998585
 20
-343.077242
 30
0.0
 40
1.0
  0
CIRCLE
  5
474
330
6B
100
AcDbEntity
  8
0
100
AcDbCircle
 10
-63.24971
 20
-338.184189
 30
0.0
 40
1.0
  0
CIRCLE
  5
475
330
6B
100
AcDbEntity
  8
0
100
AcDbCircle
 10
-63.24971
 20
-326.970294
 30
0.0
 40
1.0
  0
TEXT
  5
476
330
6B
100
AcDbEntity
  8
0
100
AcDbText
 10
-24.352967
 20
-335.136167
 30
0.0
 40
1.212749999999997
  1
125V 15A
 50
89.999996
 41
0.595513
100
AcDbText
  0
ARC
  5
477
330
6B
100
AcDbEntity
  8
0
100
AcDbCircle
 10
-33.155845
 20
-335.385564
 30
0.0
 40
0.7860000000000003
100
AcDbArc
 50
90.0
 51
180.0
  0
LINE
  5
478
330
6B
100
AcDbEntity
  8
0
100
AcDbLine
 10
-32.553245
 20
-335.333164
 30
0.0
 11
-33.63435900000001
 21
-334.76201
 31
0.0
  0
LINE
  5
479
330
6B
100
AcDbEntity
  8
0
100
AcDbLine
 10
-33.941845
 20
-335.385564
 30
0.0
 11
-33.941845
 21
-336.433564
 31
0.0
  0
ARC
  5
47A
330
6B
100
AcDbEntity
  8
0
100
AcDbCircle
 10
-33.155845
 20
-336.433564
 30
0.0
 40
0.7860000000000003
100
AcDbArc
 50
180.0
 51
270.0
  0
LINE
  5
47B
330
6B
100
AcDbEntity
  8
0
100
AcDbLine
 10
-32.553245
 20
-336.485964
 30
0.0
 11
-33.63435900000001
 21
-337.057119
 31
0.0
  0
LINE
  5
47C
330
6B
100
AcDbEntity
  8
0
100
AcDbLine
 10
-27.994445
 20
-336.485964
 30
0.0
 11
-26.913331
 21
-337.057119
 31
0.0
  0
LINE
  5
47D
330
6B
100
AcDbEntity
  8
0
100
AcDbLine
 10
-27.994445
 20
-335.333164
 30
0.0
 11
-26.913331
 21
-334.76201
 31
0.0
  0
LINE
  5
47E
330
6B
100
AcDbEntity
  8
0
100
AcDbLine
 10
-27.391845
 20
-334.599564
 30
0.0
 11
-33.155845
 21
-334.599564
 31
0.0
  0
ARC
  5
47F
330
6B
100
AcDbEntity
  8
0
100
AcDbCircle
 10
-27.391845
 20
-335.385564
 30
0.0
 40
0.7860000000000003
100
AcDbArc
 50
0.0
 51
90.0
  0
ARC
  5
480
330
6B
100
AcDbEntity
  8
0
100
AcDbCircle
 10
-27.391845
 20
-329.778764
 30
0.0
 40
0.7860000000000003
100
AcDbArc
 50
270.0
 51
0.0
  0
LINE
  5
481
330
6B
100
AcDbEntity
  8
0
100
AcDbLine
 10
-28.439845
 20
-329.831164
 30
0.0
 11
-26.948414
 21
-330.427736
 31
0.0
  0
LINE
  5
482
330
6B
100
AcDbEntity
  8
0
100
AcDbLine
 10
-33.155845
 20
-330.564764
 30
0.0
 11
-27.391845
 21
-330.564764
 31
0.0
  0
LINE
  5
483
330
6B
100
AcDbEntity
  8
0
100
AcDbLine
 10
-33.59927600000001
 20
-330.427736
 30
0.0
 11
-32.10784500000001
 21
-329.831164
 31
0.0
  0
ARC
  5
484
330
6B
100
AcDbEntity
  8
0
100
AcDbCircle
 10
-33.155845
 20
-329.778764
 30
0.0
 40
0.7860000000000003
100
AcDbArc
 50
180.0
 51
270.0
  0
LINE
  5
485
330
6B
100
AcDbEntity
  8
0
100
AcDbLine
 10
-33.941845
 20
-328.730764
 30
0.0
 11
-33.941845
 21
-329.778764
 31
0.0
  0
ARC
  5
486
330
6B
100
AcDbEntity
  8
0
100
AcDbCircle
 10
-33.155845
 20
-328.730764
 30
0.0
 40
0.7860000000000003
100
AcDbArc
 50
90.0
 51
180.0
  0
LINE
  5
487
330
6B
100
AcDbEntity
  8
0
100
AcDbLine
 10
-32.10784500000001
 20
-328.678364
 30
0.0
 11
-33.59927600000001
 21
-328.081792
 31
0.0
  0
LINE
  5
488
330
6B
100
AcDbEntity
  8
0
100
AcDbLine
 10
-33.155845
 20
-327.944764
 30
0.0
 11
-27.391845
 21
-327.944764
 31
0.0
  0
LINE
  5
489
330
6B
100
AcDbEntity
  8
0
100
AcDbLine
 10
-28.439845
 20
-328.678364
 30
0.0
 11
-26.948414
 21
-328.081792
 31
0.0
  0
ARC
  5
48A
330
6B
100
AcDbEntity
  8
0
100
AcDbCircle
 10
-27.391845
 20
-328.730764
 30
0.0
 40
0.7860000000000003
100
AcDbArc
 50
0.0
 51
90.0
  0
TEXT
  5
48B
330
6B
100
AcDbEntity
  8
0
100
AcDbText
 10
-34.852965
 20
-336.608091
 30
0.0
 40
0.8
  1
<PS>E JET
 50
90.00000300000001
 41
1.054620999999997
100
AcDbText
  0
CIRCLE
  5
48C
330
6B
100
AcDbEntity
  8
0
100
AcDbCircle
 10
-35.25837
 20
-329.0134950000001
 30
0.0
 40
0.405404
  0
LINE
  5
48D
330
6B
100
AcDbEntity
  8
0
100
AcDbLine
 10
-35.663774
 20
-329.0134950000001
 30
0.0
 11
-34.852965
 21
-329.0134950000001
 31
0.0
  0
LINE
  5
48E
330
6B
100
AcDbEntity
  8
0
100
AcDbLine
 10
-34.852965
 20
-329.0134950000001
 30
0.0
 11
-35.572523
 21
-328.596264
 31
0.0
  0
LINE
  5
48F
330
6B
100
AcDbEntity
  8
0
100
AcDbLine
 10
-35.663774
 20
-329.0134950000001
 30
0.0
 11
-34.948201
 21
-329.4189
 31
0.0
  0
LINE
  5
490
330
6B
100
AcDbEntity
  8
0
100
AcDbLine
 10
-28.439845
 20
-329.831164
 30
0.0
 11
-32.10784500000001
 21
-329.831164
 31
0.0
  0
LINE
  5
491
330
6B
100
AcDbEntity
  8
0
100
AcDbLine
 10
-32.10784500000001
 20
-328.678364
 30
0.0
 11
-28.439845
 21
-328.678364
 31
0.0
  0
LINE
  5
492
330
6B
100
AcDbEntity
  8
0
100
AcDbLine
 10
-32.10784500000001
 20
-328.678364
 30
0.0
 11
-32.10784500000001
 21
-329.831164
 31
0.0
  0
LINE
  5
493
330
6B
100
AcDbEntity
  8
0
100
AcDbLine
 10
-28.439845
 20
-328.678364
 30
0.0
 11
-28.439845
 21
-329.831164
 31
0.0
  0
LINE
  5
494
330
6B
100
AcDbEntity
  8
0
100
AcDbLine
 10
-32.553245
 20
-335.333164
 30
0.0
 11
-27.994445
 21
-335.333164
 31
0.0
  0
LINE
  5
495
330
6B
100
AcDbEntity
  8
0
100
AcDbLine
 10
-32.553245
 20
-336.485964
 30
0.0
 11
-32.553245
 21
-335.333164
 31
0.0
  0
LINE
  5
496
330
6B
100
AcDbEntity
  8
0
100
AcDbLine
 10
-32.553245
 20
-336.485964
 30
0.0
 11
-27.994445
 21
-336.485964
 31
0.0
  0
LINE
  5
497
330
6B
100
AcDbEntity
  8
0
100
AcDbLine
 10
-27.994445
 20
-335.333164
 30
0.0
 11
-27.994445
 21
-336.485964
 31
0.0
  0
TEXT
  5
498
330
6B
100
AcDbEntity
  8
0
100
AcDbText
 10
-31.66241
 20
-339.043761
 30
0.0
 40
1.370249999999999
  1
N
 50
90.00000300000001
100
AcDbText
  0
ARC
  5
499
330
6B
100
AcDbEntity
  8
0
100
AcDbCircle
 10
-47.827845
 20
-329.778764
 30
0.0
 40
0.7860000000000003
100
AcDbArc
 50
270.0
 51
0.0
  0
LINE
  5
49A
330
6B
100
AcDbEntity
  8
0
100
AcDbLine
 10
-47.384414
 20
-330.427736
 30
0.0
 11
-48.87584499999999
 21
-329.831164
 31
0.0
  0
LINE
  5
49B
330
6B
100
AcDbEntity
  8
0
100
AcDbLine
 10
-47.827845
 20
-330.564764
 30
0.0
 11
-53.59184499999999
 21
-330.564764
 31
0.0
  0
ARC
  5
49C
330
6B
100
AcDbEntity
  8
0
100
AcDbCircle
 10
-53.59184499999999
 20
-329.778764
 30
0.0
 40
0.7860000000000003
100
AcDbArc
 50
180.0
 51
270.0
  0
LINE
  5
49D
330
6B
100
AcDbEntity
  8
0
100
AcDbLine
 10
-52.543845
 20
-329.831164
 30
0.0
 11
-54.035276
 21
-330.427736
 31
0.0
  0
LINE
  5
49E
330
6B
100
AcDbEntity
  8
0
100
AcDbLine
 10
-54.37784499999999
 20
-328.730764
 30
0.0
 11
-54.37784499999999
 21
-329.778764
 31
0.0
  0
ARC
  5
49F
330
6B
100
AcDbEntity
  8
0
100
AcDbCircle
 10
-53.59184499999999
 20
-328.730764
 30
0.0
 40
0.7860000000000003
100
AcDbArc
 50
90.0
 51
180.0
  0
LINE
  5
4A0
330
6B
100
AcDbEntity
  8
0
100
AcDbLine
 10
-52.543845
 20
-328.678364
 30
0.0
 11
-54.035276
 21
-328.081792
 31
0.0
  0
LINE
  5
4A1
330
6B
100
AcDbEntity
  8
0
100
AcDbLine
 10
-47.827845
 20
-327.944764
 30
0.0
 11
-53.59184499999999
 21
-327.944764
 31
0.0
  0
ARC
  5
4A2
330
6B
100
AcDbEntity
  8
0
100
AcDbCircle
 10
-47.827845
 20
-328.730764
 30
0.0
 40
0.7860000000000003
100
AcDbArc
 50
0.0
 51
90.0
  0
LINE
  5
4A3
330
6B
100
AcDbEntity
  8
0
100
AcDbLine
 10
-48.87584499999999
 20
-328.678364
 30
0.0
 11
-47.384414
 21
-328.081792
 31
0.0
  0
LINE
  5
4A4
330
6B
100
AcDbEntity
  8
0
100
AcDbLine
 10
-47.041845
 20
-328.730764
 30
0.0
 11
-47.041845
 21
-329.778764
 31
0.0
  0
LINE
  5
4A5
330
6B
100
AcDbEntity
  8
0
100
AcDbLine
 10
-47.041845
 20
-335.385564
 30
0.0
 11
-47.041845
 21
-336.433564
 31
0.0
  0
LINE
  5
4A6
330
6B
100
AcDbEntity
  8
0
100
AcDbLine
 10
-48.430445
 20
-336.485964
 30
0.0
 11
-47.349331
 21
-337.057119
 31
0.0
  0
LINE
  5
4A7
330
6B
100
AcDbEntity
  8
0
100
AcDbLine
 10
-47.827845
 20
-337.219564
 30
0.0
 11
-53.59184499999999
 21
-337.219564
 31
0.0
  0
ARC
  5
4A8
330
6B
100
AcDbEntity
  8
0
100
AcDbCircle
 10
-53.59184499999999
 20
-336.433564
 30
0.0
 40
0.7860000000000003
100
AcDbArc
 50
180.0
 51
270.0
  0
LINE
  5
4A9
330
6B
100
AcDbEntity
  8
0
100
AcDbLine
 10
-52.989245
 20
-336.485964
 30
0.0
 11
-54.070359
 21
-337.057119
 31
0.0
  0
LINE
  5
4AA
330
6B
100
AcDbEntity
  8
0
100
AcDbLine
 10
-54.37784499999999
 20
-335.385564
 30
0.0
 11
-54.37784499999999
 21
-336.433564
 31
0.0
  0
LINE
  5
4AB
330
6B
100
AcDbEntity
  8
0
100
AcDbLine
 10
-52.989245
 20
-335.333164
 30
0.0
 11
-54.070359
 21
-334.76201
 31
0.0
  0
ARC
  5
4AC
330
6B
100
AcDbEntity
  8
0
100
AcDbCircle
 10
-53.59184499999999
 20
-335.385564
 30
0.0
 40
0.7860000000000003
100
AcDbArc
 50
90.0
 51
180.0
  0
LINE
  5
4AD
330
6B
100
AcDbEntity
  8
0
100
AcDbLine
 10
-53.59184499999999
 20
-334.599564
 30
0.0
 11
-47.827845
 21
-334.599564
 31
0.0
  0
LINE
  5
4AE
330
6B
100
AcDbEntity
  8
0
100
AcDbLine
 10
-48.430445
 20
-335.333164
 30
0.0
 11
-47.349331
 21
-334.76201
 31
0.0
  0
ARC
  5
4AF
330
6B
100
AcDbEntity
  8
0
100
AcDbCircle
 10
-47.827845
 20
-335.385564
 30
0.0
 40
0.7860000000000003
100
AcDbArc
 50
0.0
 51
90.0
  0
ARC
  5
4B0
330
6B
100
AcDbEntity
  8
0
100
AcDbCircle
 10
-47.827845
 20
-336.433564
 30
0.0
 40
0.7860000000000003
100
AcDbArc
 50
270.0
 51
0.0
  0
TEXT
  5
4B1
330
6B
100
AcDbEntity
  8
0
100
AcDbText
 10
-51.16240999999998
 20
-339.043761
 30
0.0
 40
1.370249999999999
  1
N
 50
90.00000300000001
100
AcDbText
  0
TEXT
  5
4B2
330
6B
100
AcDbEntity
  8
0
100
AcDbText
 10
-51.16240999999998
 20
-339.043761
 30
0.0
 40
1.370249999999999
  1
N
 50
90.00000300000001
100
AcDbText
  0
LINE
  5
4B3
330
6B
100
AcDbEntity
  8
0
100
AcDbLine
 10
-52.543845
 20
-329.831164
 30
0.0
 11
-48.87584499999999
 21
-329.831164
 31
0.0
  0
LINE
  5
4B4
330
6B
100
AcDbEntity
  8
0
100
AcDbLine
 10
-48.87584499999999
 20
-328.678364
 30
0.0
 11
-52.543845
 21
-328.678364
 31
0.0
  0
LINE
  5
4B5
330
6B
100
AcDbEntity
  8
0
100
AcDbLine
 10
-52.543845
 20
-328.678364
 30
0.0
 11
-52.543845
 21
-329.831164
 31
0.0
  0
LINE
  5
4B6
330
6B
100
AcDbEntity
  8
0
100
AcDbLine
 10
-48.87584499999999
 20
-328.678364
 30
0.0
 11
-48.87584499999999
 21
-329.831164
 31
0.0
  0
LINE
  5
4B7
330
6B
100
AcDbEntity
  8
0
100
AcDbLine
 10
-48.430445
 20
-335.333164
 30
0.0
 11
-52.989245
 21
-335.333164
 31
0.0
  0
LINE
  5
4B8
330
6B
100
AcDbEntity
  8
0
100
AcDbLine
 10
-48.430445
 20
-336.485964
 30
0.0
 11
-52.989245
 21
-336.485964
 31
0.0
  0
LINE
  5
4B9
330
6B
100
AcDbEntity
  8
0
100
AcDbLine
 10
-52.989245
 20
-335.333164
 30
0.0
 11
-52.989245
 21
-336.485964
 31
0.0
  0
LINE
  5
4BA
330
6B
100
AcDbEntity
  8
0
100
AcDbLine
 10
-48.430445
 20
-336.485964
 30
0.0
 11
-48.430445
 21
-335.333164
 31
0.0
  0
ARC
  5
4BB
330
6B
100
AcDbEntity
  8
0
 62
     3
100
AcDbCircle
 10
-33.300567
 20
-338.765364
 30
0.0
 40
2.62
100
AcDbArc
 50
223.634738
 51
270.0
  0
ARC
  5
4BC
330
6B
100
AcDbEntity
  8
0
 62
     3
100
AcDbCircle
 10
-47.68312299999998
 20
-338.765364
 30
0.0
 40
2.62
100
AcDbArc
 50
270.0
 51
316.3652620000001
  0
ARC
  5
4BD
330
6B
100
AcDbEntity
  8
0
 62
     3
100
AcDbCircle
 10
-47.68312299999998
 20
-326.3989640000001
 30
0.0
 40
2.62
100
AcDbArc
 50
43.634738
 51
90.0
  0
ARC
  5
4BE
330
6B
100
AcDbEntity
  8
0
 62
     3
100
AcDbCircle
 10
-33.300567
 20
-326.3989640000001
 30
0.0
 40
2.62
100
AcDbArc
 50
90.0
 51
136.365262
  0
LINE
  5
4BF
330
6B
100
AcDbEntity
  8
0
100
AcDbLine
 10
139.422774
 20
-409.345196
 30
0.0
 11
140.422774
 21
-409.345196
 31
0.0
  0
LINE
  5
4C0
330
6B
100
AcDbEntity
  8
0
100
AcDbLine
 10
146.422774
 20
-409.345196
 30
0.0
 11
147.422774
 21
-409.345196
 31
0.0
  0
LINE
  5
4C1
330
6B
100
AcDbEntity
  8
0
100
AcDbLine
 10
139.422774
 20
-409.345196
 30
0.0
 11
139.672774
 21
-410.345196
 31
0.0
  0
LINE
  5
4C2
330
6B
100
AcDbEntity
  8
0
100
AcDbLine
 10
139.672774
 20
-410.345196
 30
0.0
 11
140.172774
 21
-410.345196
 31
0.0
  0
LINE
  5
4C3
330
6B
100
AcDbEntity
  8
0
100
AcDbLine
 10
140.422774
 20
-409.345196
 30
0.0
 11
140.172774
 21
-410.345196
 31
0.0
  0
LINE
  5
4C4
330
6B
100
AcDbEntity
  8
0
100
AcDbLine
 10
146.422774
 20
-409.345196
 30
0.0
 11
146.672774
 21
-410.345196
 31
0.0
  0
LINE
  5
4C5
330
6B
100
AcDbEntity
  8
0
100
AcDbLine
 10
147.422774
 20
-409.345196
 30
0.0
 11
147.172774
 21
-410.345196
 31
0.0
  0
LINE
  5
4C6
330
6B
100
AcDbEntity
  8
0
100
AcDbLine
 10
146.672774
 20
-410.345196
 30
0.0
 11
147.172774
 21
-410.345196
 31
0.0
  0
LINE
  5
4C7
330
6B
100
AcDbEntity
  8
0
100
AcDbLine
 10
147.422774
 20
-400.3451959999998
 30
0.0
 11
147.422774
 21
-409.345196
 31
0.0
  0
LINE
  5
4C8
330
6B
100
AcDbEntity
  8
0
100
AcDbLine
 10
146.422774
 20
-400.3451959999998
 30
0.0
 11
146.422774
 21
-409.345196
 31
0.0
  0
LINE
  5
4C9
330
6B
100
AcDbEntity
  8
0
100
AcDbLine
 10
140.422774
 20
-400.3451959999998
 30
0.0
 11
140.422774
 21
-409.345196
 31
0.0
  0
LINE
  5
4CA
330
6B
100
AcDbEntity
  8
0
100
AcDbLine
 10
139.422774
 20
-400.3451959999998
 30
0.0
 11
139.422774
 21
-409.345196
 31
0.0
  0
LINE
  5
4CB
330
6B
100
AcDbEntity
  8
0
100
AcDbLine
 10
135.422774
 20
-398.345196
 30
0.0
 11
151.422774
 21
-398.345196
 31
0.0
  0
LINE
  5
4CC
330
6B
100
AcDbEntity
  8
0
100
AcDbLine
 10
138.422774
 20
-387.345196
 30
0.0
 11
148.422774
 21
-387.345196
 31
0.0
  0
LINE
  5
4CF
330
6B
100
AcDbEntity
  8
0
 62
     3
100
AcDbLine
 10
187.277925
 20
-545.50459
 30
0.0
 11
187.277925
 21
-522.50459
 31
0.0
  0
LINE
  5
4D1
330
6B
100
AcDbEntity
  8
0
 62
     3
100
AcDbLine
 10
134.224316
 20
-552.50459
 30
0.0
 11
134.224316
 21
-538.50459
 31
0.0
  0
TEXT
  5
4D3
330
6B
100
AcDbEntity
  8
0
 62
     3
100
AcDbText
 10
163.288243
 20
-526.299474
 30
0.0
 40
2.0
  1
A
 41
0.7
100
AcDbText
  0
TEXT
  5
4D4
330
6B
100
AcDbEntity
  8
0
 62
     3
100
AcDbText
 10
165.823529
 20
-526.299474
 30
0.0
 40
2.0
  1
P
 41
0.7
100
AcDbText
  0
TEXT
  5
4D5
330
6B
100
AcDbEntity
  8
0
 62
     3
100
AcDbText
 10
168.358816
 20
-526.299474
 30
0.0
 40
2.0
  1
P
 41
0.7
100
AcDbText
  0
TEXT
  5
4D6
330
6B
100
AcDbEntity
  8
0
 62
     3
100
AcDbText
 10
170.894102
 20
-526.299474
 30
0.0
 40
2.0
  1
D
 41
0.7
100
AcDbText
  0
TEXT
  5
4D7
330
6B
100
AcDbEntity
  8
0
 62
     3
100
AcDbText
 10
176.262785
 20
-526.299474
 30
0.0
 40
2.0
  1
C
 41
0.7
100
AcDbText
  0
TEXT
  5
4D8
330
6B
100
AcDbEntity
  8
0
 62
     3
100
AcDbText
 10
178.798071
 20
-526.299474
 30
0.0
 40
2.0
  1
H
 41
0.7
100
AcDbText
  0
TEXT
  5
4D9
330
6B
100
AcDbEntity
  8
0
 62
     3
100
AcDbText
 10
181.333357
 20
-526.299474
 30
0.0
 40
2.0
  1
C
 41
0.7
100
AcDbText
  0
TEXT
  5
4DA
330
6B
100
AcDbEntity
  8
0
 62
     3
100
AcDbText
 10
183.868644
 20
-526.299474
 30
0.0
 40
2.0
  1
K
 41
0.7
100
AcDbText
  0
TEXT
  5
4DB
330
6B
100
AcDbEntity
  8
0
 62
     3
100
AcDbText
 10
189.54261
 20
-526.299474
 30
0.0
 40
2.0
  1
DESN
 41
1.216762999999998
100
AcDbText
  0
TEXT
  5
4DC
330
6B
100
AcDbEntity
  8
0
 62
     3
100
AcDbText
 10
104.536251
 20
-555.645972
 30
0.0
 40
2.0
  1
NICHIDO IND.CO.LTD
 41
1.274876
100
AcDbText
  0
LINE
  5
4DD
330
6B
100
AcDbEntity
  8
0
 62
     3
100
AcDbLine
 10
114.919281
 20
-522.50459
 30
0.0
 11
114.919281
 21
-545.50459
 31
0.0
  0
LINE
  5
4DE
330
6B
100
AcDbEntity
  8
0
 62
     3
100
AcDbLine
 10
161.277925
 20
-522.50459
 30
0.0
 11
161.277925
 21
-562.1703119999998
 31
0.0
  0
LINE
  5
4E3
330
6B
100
AcDbEntity
  8
0
 62
     3
100
AcDbLine
 10
174.277925
 20
-522.50459
 30
0.0
 11
174.277925
 21
-552.50459
 31
0.0
  0
TEXT
  5
4E4
330
6B
100
AcDbEntity
  8
0
 62
     3
100
AcDbText
 10
162.39037
 20
-551.639903
 30
0.0
 40
3.2
  1
作成日
 41
1.017225999999997
100
AcDbText
  0
LINE
  5
4E5
330
6B
100
AcDbEntity
  8
0
 62
     3
100
AcDbLine
 10
200.277925
 20
-545.50459
 30
0.0
 11
200.277925
 21
-522.50459
 31
0.0
  0
TEXT
  5
4E6
330
6B
100
AcDbEntity
  8
0
 62
     3
100
AcDbText
 10
203.601728
 20
-526.213655
 30
0.0
 40
1.8
  1
D
 41
0.666667
100
AcDbText
  0
TEXT
  5
4E7
330
6B
100
AcDbEntity
  8
0
 62
     3
100
AcDbText
 10
206.418357
 20
-526.213655
 30
0.0
 40
1.8
  1
E
 41
0.666667
100
AcDbText
  0
TEXT
  5
4E8
330
6B
100
AcDbEntity
  8
0
 62
     3
100
AcDbText
 10
209.234985
 20
-526.213655
 30
0.0
 40
1.8
  1
F
 41
0.666667
100
AcDbText
  0
TEXT
  5
4E9
330
6B
100
AcDbEntity
  8
0
 62
     3
100
AcDbText
 10
203.601728
 20
-530.2062089999998
 30
0.0
 40
3.2
  1
製図
 41
1.076369
100
AcDbText
  0
LINE
  5
4EA
330
6B
100
AcDbEntity
  8
0
 62
     3
100
AcDbLine
 10
101.673846
 20
-522.50459
 30
0.0
 11
101.673846
 21
-562.1703119999998
 31
0.0
  0
TEXT
  5
4EB
330
6B
100
AcDbEntity
  8
0
 62
     3
100
AcDbText
 10
103.050499
 20
-561.837847
 30
0.0
 40
5.0
  1
日動工業株式会社
 41
0.833333
100
AcDbText
  0
LINE
  5
4EC
330
6B
100
AcDbEntity
  8
0
 62
     3
100
AcDbLine
 10
144.55625
 20
-538.50459
 30
0.0
 11
144.55625
 21
-562.1703119999998
 31
0.0
  0
LINE
  5
4ED
330
6B
100
AcDbEntity
  8
0
 62
     3
100
AcDbLine
 10
144.55625
 20
-557.3374509999998
 30
0.0
 11
161.277925
 21
-557.3374509999998
 31
0.0
  0
TEXT
  5
4EE
330
6B
100
AcDbEntity
  8
0
 62
     3
100
AcDbText
 10
145.142852
 20
-556.521021
 30
0.0
 40
3.2
  1
出図コード
 41
0.8356860000000001
100
AcDbText
  0
LINE
  5
4F0
330
6B
100
AcDbEntity
  8
0
 62
     3
100
AcDbLine
 10
101.673846
 20
-552.50459
 30
0.0
 11
212.977289
 21
-552.50459
 31
0.0
  0
LINE
  5
4F2
330
6B
100
AcDbEntity
  8
0
 62
     3
100
AcDbLine
 10
101.673846
 20
-531.50459
 30
0.0
 11
212.977289
 21
-531.50459
 31
0.0
  0
LINE
  5
4F8
330
6B
100
AcDbEntity
  8
0
 62
     3
100
AcDbLine
 10
101.673846
 20
-538.50459
 30
0.0
 11
161.277925
 21
-538.50459
 31
0.0
  0
LINE
  5
4FE
330
6B
100
AcDbEntity
  8
0
 62
     3
100
AcDbLine
 10
101.673846
 20
-545.5045899999999
 30
0.0
 11
212.977289
 21
-545.50459
 31
0.0
  0
TEXT
  5
4FF
330
6B
100
AcDbEntity
  8
0
 62
     3
100
AcDbText
 10
145.010304
 20
-561.7418998082412
 30
0.0
 40
3.2
  1
ZK-A3X
 41
0.8112849999999999
100
AcDbText
  0
TEXT
  5
500
330
6B
100
AcDbEntity
  8
0
 62
     3
100
AcDbText
 10
103.491243
 20
-526.3350639999998
 30
0.0
 40
2.0
  1
CONPONENTS
 41
0.5331600000000001
100
AcDbText
  0
TEXT
  5
501
330
6B
100
AcDbEntity
  8
0
 62
     3
100
AcDbText
 10
103.141516
 20
-545.2672409999999
 30
0.0
 40
3.0
  1
材
 41
0.833333
100
AcDbText
  0
TEXT
  5
502
330
6B
100
AcDbEntity
  8
0
 62
     3
100
AcDbText
 10
110.677159
 20
-545.2672409999999
 30
0.0
 40
3.0
  1
質
 41
0.833333
100
AcDbText
  0
TEXT
  5
503
330
6B
100
AcDbEntity
  8
0
 62
     3
100
AcDbText
 10
103.229587
 20
-534.6427160000001
 30
0.0
 40
2.0
  1
MODEL
 41
1.031072999999999
100
AcDbText
  0
TEXT
  5
504
330
6B
100
AcDbEntity
  8
0
 62
     3
100
AcDbText
 10
103.141516
 20
-541.5849329999998
 30
0.0
 40
2.0
  1
MATERIAL
 41
0.659278
100
AcDbText
  0
TEXT
  5
505
330
6B
100
AcDbEntity
  8
0
 62
     3
100
AcDbText
 10
134.448797
 20
-545.2672409999999
 30
0.0
 40
3.0
  1
備
 41
0.833333
100
AcDbText
  0
TEXT
  5
506
330
6B
100
AcDbEntity
  8
0
 62
     3
100
AcDbText
 10
141.181799
 20
-545.2672409999999
 30
0.0
 40
3.0
  1
考
 41
0.833333
100
AcDbText
  0
TEXT
  5
507
330
6B
100
AcDbEntity
  8
0
 62
     3
100
AcDbText
 10
134.912943295385
 20
-541.5849329999998
 30
0.0
 40
2.0
  1
REMARKS
 41
0.675794
100
AcDbText
  0
TEXT
  5
508
330
6B
100
AcDbEntity
  8
0
 62
     3
100
AcDbText
 10
104.731245
 20
-548.5050529999998
 30
0.0
 40
2.0
  1
3AD
 41
1.42614
100
AcDbText
  0
TEXT
  5
509
330
6B
100
AcDbEntity
  8
0
 62
     3
100
AcDbText
 10
114.042225
 20
-548.33932
 30
0.0
 40
2.0
  1
ANGLE
 41
1.669883999999997
100
AcDbText
  0
TEXT
  5
50A
330
6B
100
AcDbEntity
  8
0
 62
     3
100
AcDbText
 10
134.976112
 20
-548.716161
 30
0.0
 40
2.0
  1
SCALE
 41
0.7719630000000001
100
AcDbText
  0
TEXT
  5
50B
330
6B
100
AcDbEntity
  8
0
 62
     3
100
AcDbText
 10
104.417375
 20
-552.50459
 30
0.0
 40
3.0
  1
第
 41
0.833333
100
AcDbText
  0
TEXT
  5
50C
330
6B
100
AcDbEntity
  8
0
 62
     3
100
AcDbText
 10
112.204225
 20
-552.50459
 30
0.0
 40
3.0
  1
三
 41
0.833333
100
AcDbText
  0
TEXT
  5
50D
330
6B
100
AcDbEntity
  8
0
 62
     3
100
AcDbText
 10
119.991075
 20
-552.50459
 30
0.0
 40
3.0
  1
角
 41
0.833333
100
AcDbText
  0
TEXT
  5
50E
330
6B
100
AcDbEntity
  8
0
 62
     3
100
AcDbText
 10
127.777925
 20
-552.50459
 30
0.0
 40
3.0
  1
法
 41
0.833333
100
AcDbText
  0
TEXT
  5
50F
330
6B
100
AcDbEntity
  8
0
 62
     3
100
AcDbText
 10
134.839317
 20
-552.216161
 30
0.0
 40
3.0
  1
尺
 41
0.833333
100
AcDbText
  0
TEXT
  5
510
330
6B
100
AcDbEntity
  8
0
 62
     3
100
AcDbText
 10
141.572319
 20
-552.216161
 30
0.0
 40
3.0
  1
度
 41
0.833333
100
AcDbText
  0
TEXT
  5
511
330
6B
100
AcDbEntity
  8
0
 62
     3
100
AcDbText
 10
164.155589
 20
-530.046861
 30
0.0
 40
3.0
  1
承認
 41
1.089472999999999
100
AcDbText
  0
TEXT
  5
512
330
6B
100
AcDbEntity
  8
0
 62
     3
100
AcDbText
 10
177.39847
 20
-530.10459
 30
0.0
 40
3.0
  1
検図
 41
0.931761
100
AcDbText
  0
TEXT
  5
513
330
6B
100
AcDbEntity
  8
0
 62
     3
100
AcDbText
 10
190.398866
 20
-530.10459
 30
0.0
 40
3.0
  1
設
 41
0.833333
100
AcDbText
  0
TEXT
  5
514
330
6B
100
AcDbEntity
  8
0
 62
     3
100
AcDbText
 10
194.888734
 20
-530.10459
 30
0.0
 40
3.0
  1
計
 41
0.833333
100
AcDbText
  0
TEXT
  5
515
330
6B
100
AcDbEntity
  8
0
 62
     3
100
AcDbText
 10
103.56135
 20
-529.932037
 30
0.0
 40
3.0
  1
品
 41
0.833333
100
AcDbText
  0
TEXT
  5
516
330
6B
100
AcDbEntity
  8
0
 62
     3
100
AcDbText
 10
111.096992
 20
-529.932037
 30
0.0
 40
3.0
  1
名
 41
0.833333
100
AcDbText
  0
TEXT
  5
517
330
6B
100
AcDbEntity
  8
0
 62
     3
100
AcDbText
 10
103.229587
 20
-538.0766759792901
 30
0.0
 40
3.0
  1
型
 41
0.833333
100
AcDbText
  0
TEXT
  5
518
330
6B
100
AcDbEntity
  8
0
 62
     3
100
AcDbText
 10
110.777678
 20
-538.0766759792901
 30
0.0
 40
3.0
  1
式
 41
0.833333
100
AcDbText
  0
TEXT
  5
519
330
6B
100
AcDbEntity
  8
0
 62
     3
100
AcDbText
 10
-110.6786542712614
 20
-561.6703119999998
 30
0.0
 40
3.2
  1
備考
 41
0.8
  7
高3.2
100
AcDbText
  0
TEXT
  5
51A
330
6B
100
AcDbEntity
  8
0
 62
     3
100
AcDbText
 10
-127.0865767549624
 20
-561.6703119999998
 30
0.0
 40
3.2
  1
材質
 41
0.8
  7
高3.2
100
AcDbText
  0
TEXT
  5
51B
330
6B
100
AcDbEntity
  8
0
 62
     3
100
AcDbText
 10
-134.2473996688832
 20
-561.6703119999998
 30
0.0
 40
3.2
  1
数
 41
0.8
  7
高3.2
100
AcDbText
  0
TEXT
  5
51C
330
6B
100
AcDbEntity
  8
0
 62
     3
100
AcDbText
 10
-167.8951460860792
 20
-561.6703119999998
 30
0.0
 40
3.2
  1
部品名
 41
0.8
  7
高3.2
100
AcDbText
  0
LINE
  5
51D
330
6B
100
AcDbEntity
  8
0
100
AcDbLine
 10
-135.7473996688832
 20
-562.1703119999998
 30
0.0
 11
-135.7473996688832
 21
-517.170312
 31
0.0
  0
LINE
  5
51E
330
6B
100
AcDbEntity
  8
0
100
AcDbLine
 10
-128.5865767549625
 20
-562.1703119999998
 30
0.0
 11
-128.5865767549624
 21
-517.170312
 31
0.0
  0
LINE
  5
51F
330
6B
100
AcDbEntity
  8
0
100
AcDbLine
 10
-112.1786542712614
 20
-562.1703119999998
 30
0.0
 11
-112.1786542712614
 21
-517.170312
 31
0.0
  0
LINE
  5
520
330
6B
100
AcDbEntity
  8
0
100
AcDbLine
 10
-169.3951460860792
 20
-562.1703119999998
 30
0.0
 11
-169.3951460860792
 21
-517.170312
 31
0.0
  0
TEXT
  5
521
330
6B
100
AcDbEntity
  8
0
 62
     3
100
AcDbText
 10
-134.2473996688832
 20
-526.6703119999998
 30
0.0
 40
3.2
  1
1
 41
0.8
  7
高3.2
100
AcDbText
  0
TEXT
  5
522
330
6B
100
AcDbEntity
  8
0
 62
     3
100
AcDbText
 10
-134.2473996688832
 20
-551.6703119999998
 30
0.0
 40
3.2
  1
1
 41
0.8
  7
高3.2
100
AcDbText
  0
TEXT
  5
523
330
6B
100
AcDbEntity
  8
0
 62
     3
100
AcDbText
 10
-134.2473996688832
 20
-531.6703119999998
 30
0.0
 40
3.2
  1
1
 41
0.8
  7
高3.2
100
AcDbText
  0
TEXT
  5
526
330
6B
100
AcDbEntity
  8
0
 62
     3
100
AcDbText
 10
-134.2473996688832
 20
-536.6703119999998
 30
0.0
 40
3.2
  1
1
 41
0.8
  7
高3.2
100
AcDbText
  0
TEXT
  5
527
330
6B
100
AcDbEntity
  8
0
 62
     3
100
AcDbText
 10
-167.8951460860792
 20
-556.6703119999998
 30
0.0
 40
3.2
  1
フレーム
 41
0.8
  7
高3.2
100
AcDbText
  0
TEXT
  5
528
330
6B
100
AcDbEntity
  8
0
 62
     3
100
AcDbText
 10
-167.8951460860792
 20
-551.6703119999998
 30
0.0
 40
3.2
  1
コンセントパネル
 41
0.8
  7
高3.2
100
AcDbText
  0
TEXT
  5
529
330
6B
100
AcDbEntity
  8
0
 62
     3
100
AcDbText
 10
-167.8951460860792
 20
-536.6703119999998
 30
0.0
 40
3.2
  1
線止め
 41
0.8
  7
高3.2
100
AcDbText
  0
TEXT
  5
52A
330
6B
100
AcDbEntity
  8
0
 62
     3
100
AcDbText
 10
-167.8951460860792
 20
-531.6703119999998
 30
0.0
 40
3.2
  1
ホールプラグ
 41
0.8
  7
高3.2
100
AcDbText
  0
TEXT
  5
52B
330
6B
100
AcDbEntity
  8
0
 62
     3
100
AcDbText
 10
-127.0865767549624
 20
-526.6703119999998
 30
0.0
 40
3.2
  1
VCTF
 41
0.8
  7
高3.2
100
AcDbText
  0
TEXT
  5
52C
330
6B
100
AcDbEntity
  8
0
 62
     3
100
AcDbText
 10
-127.0865767549624
 20
-536.6703119999998
 30
0.0
 40
3.2
  1
PA6
 41
0.8
  7
高3.2
100
AcDbText
  0
TEXT
  5
52D
330
6B
100
AcDbEntity
  8
0
 62
     3
100
AcDbText
 10
-127.0865767549624
 20
-556.6703119999998
 30
0.0
 40
3.2
  1
ABS樹脂
 41
0.8
  7
高3.2
100
AcDbText
  0
TEXT
  5
52E
330
6B
100
AcDbEntity
  8
0
 62
     3
100
AcDbText
 10
-127.0865767549624
 20
-531.6703119999998
 30
0.0
 40
3.2
  1
PP樹脂
 41
0.8
  7
高3.2
100
AcDbText
  0
TEXT
  5
52F
330
6B
100
AcDbEntity
  8
0
 62
     3
100
AcDbText
 10
-134.2473996688832
 20
-556.6703119999998
 30
0.0
 40
3.2
  1
1式
 41
0.8
  7
高3.2
100
AcDbText
  0
TEXT
  5
530
330
6B
100
AcDbEntity
  8
0
 62
     3
100
AcDbText
 10
-167.8951460860792
 20
-521.670312
 30
0.0
 40
3.2
  1
型式　取説表示シール
 41
0.8
  7
高3.2
100
AcDbText
  0
TEXT
  5
531
330
6B
100
AcDbEntity
  8
0
 62
     3
100
AcDbText
 10
-134.2473996688832
 20
-521.670312
 30
0.0
 40
3.2
  1
各1
 41
0.8
  7
高3.2
100
AcDbText
  0
TEXT
  5
532
330
6B
100
AcDbEntity
  8
0
 62
     3
100
AcDbText
 10
-167.8951460860792
 20
-526.6703119999998
 30
0.0
 40
3.2
  1
2Pプラグ付き電線
 41
0.8
  7
高3.2
100
AcDbText
  0
TEXT
  5
534
330
6B
100
AcDbEntity
  8
0
 62
     3
100
AcDbText
 10
-134.2473996688832
 20
-546.670312
 30
0.0
 40
3.2
  1
1
 41
0.8
  7
高3.2
100
AcDbText
  0
TEXT
  5
535
330
6B
100
AcDbEntity
  8
0
 62
     3
100
AcDbText
 10
-167.8951460860792
 20
-546.670312
 30
0.0
 40
3.2
  1
電源ランプ
 41
0.8
  7
高3.2
100
AcDbText
  0
TEXT
  5
536
330
6B
100
AcDbEntity
  8
0
 62
     3
100
AcDbText
 10
-110.6786542712614
 20
-546.670312
 30
0.0
 40
3.2
  1
100V用
 41
0.8
  7
高3.2
100
AcDbText
  0
TEXT
  5
537
330
6B
100
AcDbEntity
  8
0
 62
     3
100
AcDbText
 10
-167.8951460860792
 20
-541.670312
 30
0.0
 40
3.2
  1
ワンタッチコンセント
 41
0.8
  7
高3.2
100
AcDbText
  0
TEXT
  5
538
330
6B
100
AcDbEntity
  8
0
 62
     3
100
AcDbText
 10
-134.2473996688832
 20
-541.670312
 30
0.0
 40
3.2
  1
2
 41
0.8
  7
高3.2
100
AcDbText
  0
TEXT
  5
539
330
6B
100
AcDbEntity
  8
0
 62
     3
100
AcDbText
 10
-110.6786542712614
 20
-541.670312
 30
0.0
 40
3.2
  1
2P15A125V 2PO-W
 41
0.8
  7
高3.2
100
AcDbText
  0
TEXT
  5
53A
330
6B
100
AcDbEntity
  8
0
 62
     3
100
AcDbText
 10
-110.6786542712614
 20
-526.6703119999998
 30
0.0
 40
3.2
  1
1.25sqx2cx10m(黒)
 41
0.8
  7
高3.2
100
AcDbText
  0
LINE
  5
53B
330
6B
100
AcDbEntity
  8
0
 62
     3
100
AcDbLine
 10
-71.3781100194977
 20
-562.1703119999998
 30
0.0
 11
-71.3781100194977
 21
-517.170312
 31
0.0
  0
CIRCLE
  5
542
330
6B
100
AcDbEntity
  8
0
100
AcDbCircle
 10
126.162584
 20
-346.299758
 30
0.0
 40
5.0
  0
TEXT
  5
543
330
6B
100
AcDbEntity
  8
0
 62
     4
100
AcDbText
 10
124.0187546268456
 20
-349.6480724381247
 30
0.0
 40
6.299999999999998
  1
7
  7
高6.3
100
AcDbText
  0
CIRCLE
  5
54A
330
6B
100
AcDbEntity
  8
0
100
AcDbCircle
 10
46.866644
 20
-301.217031
 30
0.0
 40
5.0
  0
TEXT
  5
54B
330
6B
100
AcDbEntity
  8
0
 62
     4
100
AcDbText
 10
45.66623106600625
 20
-304.3866911183652
 30
0.0
 40
6.299999999999998
  1
1
  7
高6.3
100
AcDbText
  0
CIRCLE
  5
552
330
6B
100
AcDbEntity
  8
0
100
AcDbCircle
 10
29.570084
 20
-300.677739
 30
0.0
 40
5.0
  0
TEXT
  5
553
330
6B
100
AcDbEntity
  8
0
 62
     4
100
AcDbText
 10
27.4262546268456
 20
-304.0260534381247
 30
0.0
 40
6.299999999999998
  1
2
  7
高6.3
100
AcDbText
  0
CIRCLE
  5
55A
330
6B
100
AcDbEntity
  8
0
100
AcDbCircle
 10
-26.476717
 20
-300.75783
 30
0.0
 40
5.0
  0
TEXT
  5
55B
330
6B
100
AcDbEntity
  8
0
 62
     4
100
AcDbText
 10
-28.6205463731544
 20
-304.1061444381247
 30
0.0
 40
6.299999999999998
  1
3
  7
高6.3
100
AcDbText
  0
CIRCLE
  5
562
330
6B
100
AcDbEntity
  8
0
100
AcDbCircle
 10
-11.010861
 20
-444.225204
 30
0.0
 40
5.0
  0
TEXT
  5
563
330
6B
100
AcDbEntity
  8
0
 62
     4
100
AcDbText
 10
-13.1546903731544
 20
-447.5735184381247
 30
0.0
 40
6.299999999999998
  1
5
  7
高6.3
100
AcDbText
  0
CIRCLE
  5
56A
330
6B
100
AcDbEntity
  8
0
100
AcDbCircle
 10
-24.435688
 20
-444.318136
 30
0.0
 40
5.0
  0
TEXT
  5
56B
330
6B
100
AcDbEntity
  8
0
 62
     4
100
AcDbText
 10
-26.57951737315439
 20
-447.6664504381246
 30
0.0
 40
6.299999999999998
  1
6
  7
高6.3
100
AcDbText
  0
CIRCLE
  5
572
330
6B
100
AcDbEntity
  8
0
100
AcDbCircle
 10
38.905209
 20
-449.8580889999998
 30
0.0
 40
5.0
  0
TEXT
  5
573
330
6B
100
AcDbEntity
  8
0
 62
     4
100
AcDbText
 10
36.7613796268456
 20
-453.2064034381248
 30
0.0
 40
6.299999999999998
  1
8
  7
高6.3
100
AcDbText
  0
CIRCLE
  5
57A
330
6B
100
AcDbEntity
  8
0
100
AcDbCircle
 10
-72.698581
 20
-449.8580889999998
 30
0.0
 40
5.0
  0
TEXT
  5
57B
330
6B
100
AcDbEntity
  8
0
 62
     4
100
AcDbText
 10
-74.84241037315441
 20
-453.2064034381248
 30
0.0
 40
6.299999999999998
  1
8
  7
高6.3
100
AcDbText
  0
TEXT
  5
57C
330
6B
100
AcDbEntity
  8
0
 62
     3
100
AcDbText
 10
-175.522711
 20
-556.6703119999998
 30
0.0
 40
3.2
  1
1
 41
0.8
  7
高3.2
100
AcDbText
  0
TEXT
  5
57D
330
6B
100
AcDbEntity
  8
0
 62
     3
100
AcDbText
 10
-175.522711
 20
-551.6703119999998
 30
0.0
 40
3.2
  1
2
 41
0.8
  7
高3.2
100
AcDbText
  0
TEXT
  5
57E
330
6B
100
AcDbEntity
  8
0
 62
     3
100
AcDbText
 10
-175.522711
 20
-546.670312
 30
0.0
 40
3.2
  1
3
 41
0.8
  7
高3.2
100
AcDbText
  0
TEXT
  5
57F
330
6B
100
AcDbEntity
  8
0
 62
     3
100
AcDbText
 10
-175.522711
 20
-541.670312
 30
0.0
 40
3.2
  1
4
 41
0.8
  7
高3.2
100
AcDbText
  0
TEXT
  5
580
330
6B
100
AcDbEntity
  8
0
 62
     3
100
AcDbText
 10
-175.522711
 20
-536.6703119999998
 30
0.0
 40
3.2
  1
5
 41
0.8
  7
高3.2
100
AcDbText
  0
TEXT
  5
581
330
6B
100
AcDbEntity
  8
0
 62
     3
100
AcDbText
 10
-175.522711
 20
-531.6703119999998
 30
0.0
 40
3.2
  1
6
 41
0.8
  7
高3.2
100
AcDbText
  0
TEXT
  5
582
330
6B
100
AcDbEntity
  8
0
 62
     3
100
AcDbText
 10
-175.522711
 20
-526.6703119999998
 30
0.0
 40
3.2
  1
7
 41
0.8
  7
高3.2
100
AcDbText
  0
TEXT
  5
583
330
6B
100
AcDbEntity
  8
0
 62
     3
100
AcDbText
 10
-175.522711
 20
-521.670312
 30
0.0
 40
3.2
  1
8
 41
0.8
  7
高3.2
100
AcDbText
  0
TEXT
  5
584
330
6B
100
AcDbEntity
  8
0
 62
     3
100
AcDbText
 10
-175.522711
 20
-561.6703119999998
 30
0.0
 40
3.2
  1
No
 41
0.8
  7
高3.2
100
AcDbText
  0
CIRCLE
  5
58B
330
6B
100
AcDbEntity
  8
0
100
AcDbCircle
 10
-62.44363
 20
-301.945961
 30
0.0
 40
5.0
  0
TEXT
  5
58C
330
6B
100
AcDbEntity
  8
0
 62
     4
100
AcDbText
 10
-64.5874593731544
 20
-305.2942754381247
 30
0.0
 40
6.299999999999998
  1
4
  7
高6.3
100
AcDbText
  0
ARC
  5
58D
330
6B
100
AcDbEntity
  8
0
100
AcDbCircle
 10
-55.498585
 20
-463.982378
 30
0.0
 40
1.0
100
AcDbArc
 50
0.0
 51
90.0
  0
LINE
  5
58E
330
6B
100
AcDbEntity
  8
0
100
AcDbLine
 10
-70.37447
 20
-462.982378
 30
0.0
 11
-55.498585
 21
-462.982378
 31
0.0
  0
ARC
  5
58F
330
6B
100
AcDbEntity
  8
0
100
AcDbCircle
 10
-70.37447
 20
-463.982378
 30
0.0
 40
1.0
100
AcDbArc
 50
90.0
 51
180.0
  0
LINE
  5
590
330
6B
100
AcDbEntity
  8
0
100
AcDbLine
 10
-71.37447
 20
-463.982378
 30
0.0
 11
-71.37447
 21
-490.4935469999998
 31
0.0
  0
ARC
  5
591
330
6B
100
AcDbEntity
  8
0
100
AcDbCircle
 10
-55.498585
 20
-490.4935469999998
 30
0.0
 40
1.0
100
AcDbArc
 50
270.0
 51
0.0
  0
LINE
  5
592
330
6B
100
AcDbEntity
  8
0
100
AcDbLine
 10
-70.37447
 20
-491.4935469999998
 30
0.0
 11
-55.498585
 21
-491.4935469999998
 31
0.0
  0
ARC
  5
593
330
6B
100
AcDbEntity
  8
0
100
AcDbCircle
 10
-70.37447
 20
-490.4935469999998
 30
0.0
 40
1.0
100
AcDbArc
 50
180.0
 51
270.0
  0
ARC
  5
594
330
6B
100
AcDbEntity
  8
0
100
AcDbCircle
 10
36.3773
 20
-463.982378
 30
0.0
 40
1.0
100
AcDbArc
 50
0.0
 51
90.0
  0
LINE
  5
595
330
6B
100
AcDbEntity
  8
0
100
AcDbLine
 10
36.3773
 20
-462.982378
 30
0.0
 11
21.501415
 21
-462.982378
 31
0.0
  0
ARC
  5
596
330
6B
100
AcDbEntity
  8
0
100
AcDbCircle
 10
21.501415
 20
-463.982378
 30
0.0
 40
1.0
100
AcDbArc
 50
90.0
 51
180.0
  0
ARC
  5
597
330
6B
100
AcDbEntity
  8
0
100
AcDbCircle
 10
21.501415
 20
-490.4935469999998
 30
0.0
 40
1.0
100
AcDbArc
 50
180.0
 51
270.0
  0
LINE
  5
598
330
6B
100
AcDbEntity
  8
0
100
AcDbLine
 10
36.3773
 20
-491.4935469999998
 30
0.0
 11
21.501415
 21
-491.4935469999998
 31
0.0
  0
ARC
  5
599
330
6B
100
AcDbEntity
  8
0
100
AcDbCircle
 10
36.3773
 20
-490.4935469999998
 30
0.0
 40
1.0
100
AcDbArc
 50
270.0
 51
0.0
  0
LINE
  5
59A
330
6B
100
AcDbEntity
  8
0
100
AcDbLine
 10
37.3773
 20
-476.987962
 30
0.0
 11
39.8773
 21
-476.987962
 31
0.0
  0
LINE
  5
59B
330
6B
100
AcDbEntity
  8
0
100
AcDbLine
 10
39.8773
 20
-477.487962
 30
0.0
 11
37.3773
 21
-477.487962
 31
0.0
  0
LINE
  5
59C
330
6B
100
AcDbEntity
  8
0
100
AcDbLine
 10
39.3773
 20
-477.487962
 30
0.0
 11
39.3773
 21
-476.987962
 31
0.0
  0
LINE
  5
59D
330
6B
100
AcDbEntity
  8
0
100
AcDbLine
 10
37.3773
 20
-476.987962
 30
0.0
 11
37.3773
 21
-463.982378
 31
0.0
  0
LINE
  5
59E
330
6B
100
AcDbEntity
  8
0
100
AcDbLine
 10
37.3773
 20
-476.987962
 30
0.0
 11
37.3773
 21
-490.4935469999998
 31
0.0
  0
LINE
  5
59F
330
6B
100
AcDbEntity
  8
0
100
AcDbLine
 10
18.501415
 20
-477.487962
 30
0.0
 11
18.501415
 21
-476.987962
 31
0.0
  0
LINE
  5
5A0
330
6B
100
AcDbEntity
  8
0
100
AcDbLine
 10
-16.998585
 20
-476.987962
 30
0.0
 11
20.501415
 21
-476.987962
 31
0.0
  0
LINE
  5
5A1
330
6B
100
AcDbEntity
  8
0
100
AcDbLine
 10
-16.998585
 20
-477.487962
 30
0.0
 11
20.501415
 21
-477.487962
 31
0.0
  0
LINE
  5
5A2
330
6B
100
AcDbEntity
  8
0
100
AcDbLine
 10
20.501415
 20
-463.982378
 30
0.0
 11
20.501415
 21
-477.487962
 31
0.0
  0
LINE
  5
5A3
330
6B
100
AcDbEntity
  8
0
100
AcDbLine
 10
20.501415
 20
-490.4935469999998
 30
0.0
 11
20.501415
 21
-477.487962
 31
0.0
  0
LINE
  5
5A4
330
6B
100
AcDbEntity
  8
0
100
AcDbLine
 10
-4.757301999999998
 20
-477.487962
 30
0.0
 11
-4.757301999999998
 21
-476.987962
 31
0.0
  0
LINE
  5
5A5
330
6B
100
AcDbEntity
  8
0
100
AcDbLine
 10
0.7601329999999999
 20
-477.487962
 30
0.0
 11
0.7601329999999999
 21
-476.987962
 31
0.0
  0
LINE
  5
5A6
330
6B
100
AcDbEntity
  8
0
100
AcDbLine
 10
-34.757302
 20
-476.987962
 30
0.0
 11
-34.757302
 21
-477.487962
 31
0.0
  0
LINE
  5
5A7
330
6B
100
AcDbEntity
  8
0
100
AcDbLine
 10
-29.239867
 20
-476.987962
 30
0.0
 11
-29.239867
 21
-477.487962
 31
0.0
  0
LINE
  5
5A8
330
6B
100
AcDbEntity
  8
0
100
AcDbLine
 10
-52.498585
 20
-476.987962
 30
0.0
 11
-52.498585
 21
-477.487962
 31
0.0
  0
LINE
  5
5A9
330
6B
100
AcDbEntity
  8
0
100
AcDbLine
 10
-54.498585
 20
-490.4935469999998
 30
0.0
 11
-54.498585
 21
-463.982378
 31
0.0
  0
CIRCLE
  5
5AA
330
6B
100
AcDbEntity
  8
0
100
AcDbCircle
 10
-63.24971
 20
-326.970294
 30
0.0
 40
1.75
  0
CIRCLE
  5
5AB
330
6B
100
AcDbEntity
  8
0
100
AcDbCircle
 10
-63.24971
 20
-338.184189
 30
0.0
 40
1.75
  0
CIRCLE
  5
5AC
330
6B
100
AcDbEntity
  8
0
100
AcDbCircle
 10
-16.998585
 20
-343.077242
 30
0.0
 40
1.75
  0
CIRCLE
  5
5AD
330
6B
100
AcDbEntity
  8
0
100
AcDbCircle
 10
-16.998585
 20
-322.077242
 30
0.0
 40
1.75
  0
CIRCLE
  5
5AE
330
6B
100
AcDbEntity
  8
0
100
AcDbCircle
 10
29.252541
 20
-326.970294
 30
0.0
 40
1.75
  0
CIRCLE
  5
5AF
330
6B
100
AcDbEntity
  8
0
100
AcDbCircle
 10
29.252541
 20
-338.184189
 30
0.0
 40
1.75
  0
LINE
  5
5B0
330
6B
100
AcDbEntity
  8
0
 62
     3
100
AcDbLine
 10
212.877252
 20
-516.5045899999999
 30
0.0
 11
161.277889
 21
-516.5045899999999
 31
0.0
  0
TEXT
  5
5B1
330
6B
100
AcDbEntity
  8
0
 62
     3
100
AcDbText
 10
166.4442127816009
 20
-521.9485049999998
 30
0.0
 40
4.5
  1
コード
  7
高4.5
100
AcDbText
  0
LINE
  5
5B2
330
6B
100
AcDbEntity
  8
0
 62
     3
100
AcDbLine
 10
187.277889
 20
-522.50459
 30
0.0
 11
187.277889
 21
-516.5045899999999
 31
0.0
  0
LINE
  5
5B3
330
6B
100
AcDbEntity
  8
0
 62
     3
100
AcDbLine
 10
161.277889
 20
-522.50459
 30
0.0
 11
161.277889
 21
-516.5045899999999
 31
0.0
  0
LINE
  5
5B4
330
6B
100
AcDbEntity
  8
0
 62
     3
100
AcDbLine
 10
-51.16792085283106
 20
-517.170312
 30
0.0
 11
-177.022711
 21
-517.170312
 31
0.0
  0
LINE
  5
5B5
330
6B
100
AcDbEntity
  8
0
100
AcDbLine
 10
-51.16792085283106
 20
-522.1703119999999
 30
0.0
 11
-177.022711
 21
-522.1703119999999
 31
0.0
  0
LINE
  5
5B6
330
6B
100
AcDbEntity
  8
0
100
AcDbLine
 10
-51.16792085283106
 20
-527.1703119999998
 30
0.0
 11
-177.022711
 21
-527.1703119999998
 31
0.0
  0
LINE
  5
5B7
330
6B
100
AcDbEntity
  8
0
100
AcDbLine
 10
-51.16792085283105
 20
-532.1703119999998
 30
0.0
 11
-177.022711
 21
-532.1703119999998
 31
0.0
  0
LINE
  5
5B8
330
6B
100
AcDbEntity
  8
0
100
AcDbLine
 10
-51.16792085283105
 20
-537.1703119999997
 30
0.0
 11
-177.022711
 21
-537.1703119999998
 31
0.0
  0
LINE
  5
5B9
330
6B
100
AcDbEntity
  8
0
100
AcDbLine
 10
-51.16792085283105
 20
-542.170312
 30
0.0
 11
-177.022711
 21
-542.170312
 31
0.0
  0
LINE
  5
5BA
330
6B
100
AcDbEntity
  8
0
100
AcDbLine
 10
-51.16792085283105
 20
-547.1703119999999
 30
0.0
 11
-177.022711
 21
-547.1703119999999
 31
0.0
  0
LINE
  5
5BB
330
6B
100
AcDbEntity
  8
0
100
AcDbLine
 10
-51.16792085283106
 20
-552.1703119999998
 30
0.0
 11
-177.022711
 21
-552.1703119999998
 31
0.0
  0
LINE
  5
5BC
330
6B
100
AcDbEntity
  8
0
 62
     3
100
AcDbLine
 10
-51.16792085283106
 20
-557.1703119999997
 30
0.0
 11
-177.022711
 21
-557.1703119999998
 31
0.0
  0
TEXT
  5
5BD
330
6B
100
AcDbEntity
  8
0
 62
     3
100
AcDbText
 10
192.2075727344349
 20
-522.0062339999998
 30
0.0
 40
4.5
  1
5325
  7
高4.5
100
AcDbText
  0
TEXT
  5
69B
330
6B
100
AcDbEntity
  8
0
 62
     3
100
AcDbText
 10
200.477289
 20
-297.670312
 30
0.0
 40
3.2
  1
担　当
  7
高3.2
100
AcDbText
  0
TEXT
  5
69C
330
6B
100
AcDbEntity
  8
0
 62
     3
100
AcDbText
 10
156.477289
 20
-297.670312
 30
0.0
 40
3.2
  1
変更・追記内容
  7
高3.2
100
AcDbText
  0
TEXT
  5
69D
330
6B
100
AcDbEntity
  8
0
 62
     3
100
AcDbText
 10
131.5908040003392
 20
-302.3408505099083
 30
0.0
 40
2.0
  1
1
  7
高2
100
AcDbText
  0
TEXT
  5
69E
330
6B
100
AcDbEntity
  8
0
 62
     3
100
AcDbText
 10
131.2822925235819
 20
-307.5106672221812
 30
0.0
 40
2.0
  1
2
  7
高2
100
AcDbText
  0
TEXT
  5
69F
330
6B
100
AcDbEntity
  8
0
 62
     3
100
AcDbText
 10
138.477289
 20
-297.670312
 30
0.0
 40
3.2
  1
日　付
  7
高3.2
100
AcDbText
  0
TEXT
  5
6A0
330
6B
100
AcDbEntity
  8
0
 62
     3
100
AcDbText
 10
138.477289
 20
-292.670312
 30
0.0
 40
3.2
  1
図　　　　面　　　　略　　　　歴
  7
高3.2
100
AcDbText
  0
TEXT
  5
6A1
330
6B
100
AcDbEntity
  8
0
 62
     3
100
AcDbText
 10
128.477289
 20
-297.670312
 30
0.0
 40
3.2
  1
記号
  7
高3.2
100
AcDbText
  0
LINE
  5
6A2
330
6B
100
AcDbEntity
  8
0
100
AcDbLine
 10
131.977289
 20
-304.379416
 30
0.0
 11
130.0772889999999
 21
-307.670312
 31
0.0
  0
LINE
  5
6A3
330
6B
100
AcDbEntity
  8
0
100
AcDbLine
 10
131.977289
 20
-304.379416
 30
0.0
 11
133.877289
 21
-307.670312
 31
0.0
  0
LINE
  5
6A4
330
6B
100
AcDbEntity
  8
0
100
AcDbLine
 10
130.0772889999999
 20
-307.670312
 30
0.0
 11
133.877289
 21
-307.670312
 31
0.0
  0
LINE
  5
6A5
330
6B
100
AcDbEntity
  8
0
100
AcDbLine
 10
131.977289
 20
-299.3794149999999
 30
0.0
 11
130.0772889999999
 21
-302.670312
 31
0.0
  0
LINE
  5
6A6
330
6B
100
AcDbEntity
  8
0
100
AcDbLine
 10
131.977289
 20
-299.3794149999999
 30
0.0
 11
133.877289
 21
-302.670312
 31
0.0
  0
LINE
  5
6A7
330
6B
100
AcDbEntity
  8
0
100
AcDbLine
 10
130.0772889999999
 20
-302.670312
 30
0.0
 11
133.877289
 21
-302.670312
 31
0.0
  0
LINE
  5
6A8
330
6B
100
AcDbEntity
  8
0
 62
     3
100
AcDbLine
 10
126.977289
 20
-293.170312
 30
0.0
 11
212.977289
 21
-293.170312
 31
0.0
  0
LINE
  5
6A9
330
6B
100
AcDbEntity
  8
0
 62
     3
100
AcDbLine
 10
126.977289
 20
-298.170312
 30
0.0
 11
212.977289
 21
-298.170312
 31
0.0
  0
LINE
  5
6AA
330
6B
100
AcDbEntity
  8
0
 62
     7
100
AcDbLine
 10
126.977289
 20
-303.170312
 30
0.0
 11
212.977289
 21
-303.170312
 31
0.0
  0
LINE
  5
6AB
330
6B
100
AcDbEntity
  8
0
 62
     3
100
AcDbLine
 10
126.977289
 20
-308.170312
 30
0.0
 11
212.977289
 21
-308.170312
 31
0.0
  0
LINE
  5
6AC
330
6B
100
AcDbEntity
  8
0
 62
     7
100
AcDbLine
 10
198.9772889999999
 20
-308.170312
 30
0.0
 11
198.977289
 21
-293.170312
 31
0.0
  0
LINE
  5
6AD
330
6B
100
AcDbEntity
  8
0
 62
     7
100
AcDbLine
 10
154.977289
 20
-308.170312
 30
0.0
 11
154.977289
 21
-293.170312
 31
0.0
  0
LINE
  5
6AE
330
6B
100
AcDbEntity
  8
0
 62
     7
100
AcDbLine
 10
136.977289
 20
-308.170312
 30
0.0
 11
136.977289
 21
-293.170312
 31
0.0
  0
LINE
  5
6AF
330
6B
100
AcDbEntity
  8
0
 62
     3
100
AcDbLine
 10
126.977289
 20
-308.170312
 30
0.0
 11
126.977289
 21
-288.170312
 31
0.0
  0
TEXT
  5
118A
330
6B
100
AcDbEntity
  8
0
 62
     7
100
AcDbText
 10
200.477289
 20
-302.670312
 30
0.0
 40
2.5
  1
今村
  7
高2.5
100
AcDbText
  0
TEXT
  5
118B
330
6B
100
AcDbEntity
  8
0
 62
     7
100
AcDbText
 10
156.477289
 20
-302.670312
 30
0.0
 40
2.5
  1
フレーム色変更。オレンジ→黒　No.6806
 41
0.7
  7
高2.5
100
AcDbText
  0
TEXT
  5
118C
330
6B
100
AcDbEntity
  8
0
 62
     7
100
AcDbText
 10
138.477289
 20
-302.670312
 30
0.0
 40
2.5
  1
'23.11.01
  7
高2.5
100
AcDbText
  0
TEXT
  5
1227
330
6B
100
AcDbEntity
  8
0
100
AcDbText
 10
-175.9844596281177
 20
-567.3394249876548
 30
0.0
 40
3.2
  1
コード番号末尾に●の記載がある物は過去に変更があった部品
  7
高3.2
100
AcDbText
  0
LINE
  5
1228
330
6B
100
AcDbEntity
  8
0
 62
     3
100
AcDbLine
 10
-51.16792085283106
 20
-562.1703119999998
 30
0.0
 11
-51.16792085283106
 21
-517.1703119999998
 31
0.0
  0
TEXT
  5
1229
330
6B
100
AcDbEntity
  8
0
 62
     3
100
AcDbText
 10
-69.87811001949779
 20
-551.6703119999998
 30
0.0
 40
3.2
  1
50452
 41
0.8
  7
高3.2
100
AcDbText
  0
TEXT
  5
122A
330
6B
100
AcDbEntity
  8
0
 62
     3
100
AcDbText
 10
-69.87811001949779
 20
-541.6703119999998
 30
0.0
 40
3.2
  1
51397
 41
0.8
  7
高3.2
100
AcDbText
  0
TEXT
  5
122B
330
6B
100
AcDbEntity
  8
0
 62
     3
100
AcDbText
 10
-69.87811001949779
 20
-536.6703119999998
 30
0.0
 40
3.2
  1
50459
 41
0.8
  7
高3.2
100
AcDbText
  0
TEXT
  5
122C
330
6B
100
AcDbEntity
  8
0
 62
     3
100
AcDbText
 10
-69.87811001949779
 20
-556.6703119999998
 30
0.0
 40
3.2
  1
57667●
 41
0.8
  7
高3.2
100
AcDbText
  0
TEXT
  5
122D
330
6B
100
AcDbEntity
  8
0
 62
     3
100
AcDbText
 10
-69.87811001949779
 20
-531.6703119999998
 30
0.0
 40
3.2
  1
50445
 41
0.8
  7
高3.2
100
AcDbText
  0
TEXT
  5
122E
330
6B
100
AcDbEntity
  8
0
 62
     3
100
AcDbText
 10
-69.87811001949779
 20
-546.6703119999998
 30
0.0
 40
3.2
  1
51809
 41
0.8
  7
高3.2
100
AcDbText
  0
TEXT
  5
122F
330
6B
100
AcDbEntity
  8
0
 62
     3
100
AcDbText
 10
-69.87811001949779
 20
-561.6703119999998
 30
0.0
 40
3.2
  1
コード
 41
0.8
  7
高3.2
100
AcDbText
  0
TEXT
  5
1230
330
6B
100
AcDbEntity
  8
0
 62
     3
100
AcDbText
 10
-69.87811001949779
 20
-526.6703119999998
 30
0.0
 40
3.2
  1
51159
 41
0.8
  7
高3.2
100
AcDbText
  0
TEXT
  5
1231
330
6B
100
AcDbEntity
  8
0
 62
     3
100
AcDbText
 10
-127.0865767549624
 20
-551.6703119999998
 30
0.0
 40
3.2
  1
ABS樹脂
 41
0.8
  7
高3.2
100
AcDbText
  0
TEXT
  5
1233
330
6B
100
AcDbEntity
  8
0
 62
     3
100
AcDbText
 10
-127.0865767549623
 20
-546.6703119999998
 30
0.0
 40
3.2
  1
ABS樹脂
 41
0.8
  7
高3.2
100
AcDbText
  0
TEXT
  5
1234
330
6B
100
AcDbEntity
  8
0
 62
     3
100
AcDbText
 10
-127.0865767549623
 20
-541.670312
 30
0.0
 40
3.2
  1
ABS樹脂
 41
0.8
  7
高3.2
100
AcDbText
  0
TEXT
  5
1236
330
6B
100
AcDbEntity
  8
0
 62
     3
100
AcDbText
 10
-110.6786542712614
 20
-556.6703119999997
 30
0.0
 40
3.2
  1
黒
 41
0.8
  7
高3.2
100
AcDbText
  0
LINE
  5
123F
330
6B
100
AcDbEntity
  8
0
 62
     3
100
AcDbLine
 10
128.1285544561747
 20
-442.7396379198819
 30
0.0
 11
128.1285544561747
 21
-479.7396379198819
 31
0.0
  0
LINE
  5
1240
330
6B
100
AcDbEntity
  8
0
 62
     3
100
AcDbLine
 10
196.1285544561747
 20
-442.7396379198819
 30
0.0
 11
196.1285544561747
 21
-479.7396379198819
 31
0.0
  0
LINE
  5
1241
330
6B
100
AcDbEntity
  8
0
 62
     7
100
AcDbLine
 10
128.1285544561747
 20
-465.7396379198821
 30
0.0
 11
196.2120045503316
 21
-465.7396379198821
 31
0.0
  0
LINE
  5
1242
330
6B
100
AcDbEntity
  8
0
 62
     7
100
AcDbLine
 10
158.1285544561748
 20
-458.739637919882
 30
0.0
 11
158.1285544561748
 21
-472.739637919882
 31
0.0
  0
LINE
  5
1243
330
6B
100
AcDbEntity
  8
0
 62
     7
100
AcDbLine
 10
128.1285544561747
 20
-472.739637919882
 30
0.0
 11
196.2120045503316
 21
-472.739637919882
 31
0.0
  0
LINE
  5
1244
330
6B
100
AcDbEntity
  8
0
 62
     7
100
AcDbLine
 10
128.1285544561747
 20
-450.7396379198819
 30
0.0
 11
196.2120045503316
 21
-450.7396379198819
 31
0.0
  0
TEXT
  5
1245
330
6B
100
AcDbEntity
  8
0
 62
     3
100
AcDbText
 10
129.8244200265576
 20
-464.853948919882
 30
0.0
 40
4.5
  1
定格電圧
 41
0.833333
100
AcDbText
  0
TEXT
  5
1246
330
6B
100
AcDbEntity
  8
0
 62
     3
100
AcDbText
 10
129.8244200265576
 20
-471.6539489198821
 30
0.0
 40
4.5
  1
定格電流
 41
0.833333
100
AcDbText
  0
TEXT
  5
1247
330
6B
100
AcDbEntity
  8
0
 62
     3
100
AcDbText
 10
160.1209614794206
 20
-464.6027469198819
 30
0.0
 40
4.5
  1
125V
 41
0.9599999999999999
100
AcDbText
  0
TEXT
  5
1248
330
6B
100
AcDbEntity
  8
0
 62
     3
100
AcDbText
 10
160.1209614794206
 20
-472.0230799198819
 30
0.0
 40
4.5
  1
8A
100
AcDbText
  0
TEXT
  5
1249
330
6B
100
AcDbEntity
  8
0
 62
     3
100
AcDbText
 10
129.8244200265576
 20
-478.6971594714581
 30
0.0
 40
4.5
  1
限度電流
 41
0.833333
100
AcDbText
  0
TEXT
  5
124A
330
6B
100
AcDbEntity
  8
0
 62
     3
100
AcDbText
 10
160.1209614794206
 20
-478.602268138786
 30
0.0
 40
4.5
  1
12A
  7
高4.5
100
AcDbText
  0
LINE
  5
124B
330
6B
100
AcDbEntity
  8
0
100
AcDbLine
 10
158.1285544561748
 20
-472.739637919882
 30
0.0
 11
158.1285544561748
 21
-479.7396379198819
 31
0.0
  0
LINE
  5
124C
330
6B
100
AcDbEntity
  8
0
 62
     3
100
AcDbLine
 10
128.1285544561747
 20
-479.7396379198819
 30
0.0
 11
196.1285544561747
 21
-479.7396379198819
 31
0.0
  0
LINE
  5
124D
330
6B
100
AcDbEntity
  8
0
 62
     7
100
AcDbLine
 10
128.1285544561747
 20
-458.739637919882
 30
0.0
 11
196.2120045503316
 21
-458.739637919882
 31
0.0
  0
TEXT
  5
124E
330
6B
100
AcDbEntity
  8
0
 62
     3
100
AcDbText
 10
143.8571572924738
 20
-457.6027469198819
 30
0.0
 40
4.5
  1
単相100V仕様
 41
0.9599999999999999
100
AcDbText
  0
TEXT
  5
124F
330
6B
100
AcDbEntity
  8
0
 62
     7
100
AcDbText
 10
128.1285552350305
 20
-484.5331072967944
 30
0.0
 40
2.5
  1
注）定格電流は電線を巻取った状態の最大電流で、
 41
0.8
  7
高2.5
100
AcDbText
  0
TEXT
  5
1250
330
6B
100
AcDbEntity
  8
0
 62
     7
100
AcDbText
 10
128.1285552350305
 20
-487.5331072967944
 30
0.0
 40
2.5
  1
　　限度電流は電線を全て引き出した状態の最大電流です。
 41
0.8
  7
高2.5
100
AcDbText
  0
LINE
  5
1251
330
6B
100
AcDbEntity
  8
0
 62
     3
100
AcDbLine
 10
128.1285544561747
 20
-442.7396379198819
 30
0.0
 11
196.1285544561747
 21
-442.7396379198819
 31
0.0
  0
TEXT
  5
1252
330
6B
100
AcDbEntity
  8
0
 62
     3
100
AcDbText
 10
139.3701444895574
 20
-449.6027469198819
 30
0.0
 40
4.5
  1
ハンドリール(屋内型)
 41
0.9599999999999999
100
AcDbText
  0
LINE
  5
12B0
330
6B
100
AcDbEntity
  8
0
100
AcDbLine
 10
-8.690453999999999
 20
-333.786001
 30
0.0
 11
-8.725861
 21
-333.791531
 31
0.0
  0
LINE
  5
12B1
330
6B
100
AcDbEntity
  8
0
100
AcDbLine
 10
-8.725861
 20
-333.791531
 30
0.0
 11
-8.759764999999998
 21
-333.798173
 31
0.0
  0
LINE
  5
12B2
330
6B
100
AcDbEntity
  8
0
100
AcDbLine
 10
-8.759764999999998
 20
-333.798173
 30
0.0
 11
-8.791903999999997
 21
-333.805874
 31
0.0
  0
LINE
  5
12B3
330
6B
100
AcDbEntity
  8
0
100
AcDbLine
 10
-8.791903999999997
 20
-333.805874
 30
0.0
 11
-8.822028999999997
 21
-333.814576
 31
0.0
  0
LINE
  5
12B4
330
6B
100
AcDbEntity
  8
0
100
AcDbLine
 10
-8.822028999999997
 20
-333.814576
 30
0.0
 11
-8.849908
 21
-333.824211
 31
0.0
  0
LINE
  5
12B5
330
6B
100
AcDbEntity
  8
0
100
AcDbLine
 10
-8.849908
 20
-333.824211
 30
0.0
 11
-8.875325
 21
-333.834705
 31
0.0
  0
LINE
  5
12B6
330
6B
100
AcDbEntity
  8
0
100
AcDbLine
 10
-8.875325
 20
-333.834705
 30
0.0
 11
-8.898083999999997
 21
-333.845976
 31
0.0
  0
LINE
  5
12B7
330
6B
100
AcDbEntity
  8
0
100
AcDbLine
 10
-8.898083999999997
 20
-333.845976
 30
0.0
 11
-8.918008
 21
-333.857939
 31
0.0
  0
LINE
  5
12B8
330
6B
100
AcDbEntity
  8
0
100
AcDbLine
 10
-8.918008
 20
-333.857939
 30
0.0
 11
-8.934943999999997
 21
-333.870499
 31
0.0
  0
LINE
  5
12B9
330
6B
100
AcDbEntity
  8
0
100
AcDbLine
 10
-8.934943999999997
 20
-333.870499
 30
0.0
 11
-8.948760999999997
 21
-333.88356
 31
0.0
  0
LINE
  5
12BA
330
6B
100
AcDbEntity
  8
0
100
AcDbLine
 10
-8.948760999999997
 20
-333.88356
 30
0.0
 11
-8.959353
 21
-333.897021
 31
0.0
  0
LINE
  5
12BB
330
6B
100
AcDbEntity
  8
0
100
AcDbLine
 10
-8.959353
 20
-333.897021
 30
0.0
 11
-8.966635999999997
 21
-333.910778
 31
0.0
  0
LINE
  5
12BC
330
6B
100
AcDbEntity
  8
0
100
AcDbLine
 10
-8.966635999999997
 20
-333.910778
 30
0.0
 11
-8.970555
 21
-333.924725
 31
0.0
  0
LINE
  5
12BD
330
6B
100
AcDbEntity
  8
0
100
AcDbLine
 10
-8.970555
 20
-333.924725
 30
0.0
 11
-8.97108
 21
-333.938754
 31
0.0
  0
LINE
  5
12BE
330
6B
100
AcDbEntity
  8
0
100
AcDbLine
 10
-8.97108
 20
-333.938754
 30
0.0
 11
-8.968206
 21
-333.952756
 31
0.0
  0
LINE
  5
12BF
330
6B
100
AcDbEntity
  8
0
100
AcDbLine
 10
-8.968206
 20
-333.952756
 30
0.0
 11
-8.961955999999997
 21
-333.966623
 31
0.0
  0
LINE
  5
12C0
330
6B
100
AcDbEntity
  8
0
100
AcDbLine
 10
-8.961955999999997
 20
-333.966623
 30
0.0
 11
-8.952378999999996
 21
-333.980249
 31
0.0
  0
LINE
  5
12C1
330
6B
100
AcDbEntity
  8
0
100
AcDbLine
 10
-8.952378999999996
 20
-333.980249
 30
0.0
 11
-8.939546999999997
 21
-333.993527
 31
0.0
  0
LINE
  5
12C2
330
6B
100
AcDbEntity
  8
0
100
AcDbLine
 10
-8.939546999999997
 20
-333.993527
 30
0.0
 11
-8.92356
 21
-334.006355
 31
0.0
  0
LINE
  5
12C3
330
6B
100
AcDbEntity
  8
0
100
AcDbLine
 10
-8.92356
 20
-334.006355
 30
0.0
 11
-8.904542999999996
 21
-334.018634
 31
0.0
  0
LINE
  5
12C4
330
6B
100
AcDbEntity
  8
0
100
AcDbLine
 10
-8.904542999999996
 20
-334.018634
 30
0.0
 11
-8.882640999999997
 21
-334.030269
 31
0.0
  0
LINE
  5
12C5
330
6B
100
AcDbEntity
  8
0
100
AcDbLine
 10
-8.882640999999997
 20
-334.030269
 30
0.0
 11
-8.858024
 21
-334.04117
 31
0.0
  0
LINE
  5
12C6
330
6B
100
AcDbEntity
  8
0
100
AcDbLine
 10
-8.858024
 20
-334.04117
 30
0.0
 11
-8.830883
 21
-334.051253
 31
0.0
  0
LINE
  5
12C7
330
6B
100
AcDbEntity
  8
0
100
AcDbLine
 10
-8.830883
 20
-334.051253
 30
0.0
 11
-8.801427
 21
-334.06044
 31
0.0
  0
LINE
  5
12C8
330
6B
100
AcDbEntity
  8
0
100
AcDbLine
 10
-8.801427
 20
-334.06044
 30
0.0
 11
-8.769883999999999
 21
-334.068659
 31
0.0
  0
LINE
  5
12C9
330
6B
100
AcDbEntity
  8
0
100
AcDbLine
 10
-8.769883999999999
 20
-334.068659
 30
0.0
 11
-8.736497999999999
 21
-334.075848
 31
0.0
  0
LINE
  5
12CA
330
6B
100
AcDbEntity
  8
0
100
AcDbLine
 10
-8.736497999999999
 20
-334.075848
 30
0.0
 11
-8.701525999999999
 21
-334.081951
 31
0.0
  0
LINE
  5
12CB
330
6B
100
AcDbEntity
  8
0
100
AcDbLine
 10
-8.701525999999999
 20
-334.081951
 30
0.0
 11
-8.665238999999999
 21
-334.08692
 31
0.0
  0
LINE
  5
12CC
330
6B
100
AcDbEntity
  8
0
100
AcDbLine
 10
-8.665238999999999
 20
-334.08692
 30
0.0
 11
-8.627917999999999
 21
-334.090717
 31
0.0
  0
LINE
  5
12CD
330
6B
100
AcDbEntity
  8
0
100
AcDbLine
 10
-8.627917999999999
 20
-334.090717
 30
0.0
 11
-8.589850999999999
 21
-334.093313
 31
0.0
  0
LINE
  5
12CE
330
6B
100
AcDbEntity
  8
0
100
AcDbLine
 10
-8.589850999999999
 20
-334.093313
 30
0.0
 11
-8.551332
 21
-334.094688
 31
0.0
  0
LINE
  5
12CF
330
6B
100
AcDbEntity
  8
0
100
AcDbLine
 10
-8.551332
 20
-334.094688
 30
0.0
 11
-8.512658999999999
 21
-334.094831
 31
0.0
  0
LINE
  5
12D0
330
6B
100
AcDbEntity
  8
0
100
AcDbLine
 10
-8.512658999999999
 20
-334.094831
 30
0.0
 11
-8.474130999999998
 21
-334.093742
 31
0.0
  0
LINE
  5
12D1
330
6B
100
AcDbEntity
  8
0
100
AcDbLine
 10
-8.474130999999998
 20
-334.093742
 30
0.0
 11
-8.436046000000001
 21
-334.091427
 31
0.0
  0
LINE
  5
12D2
330
6B
100
AcDbEntity
  8
0
100
AcDbLine
 10
-8.436046000000001
 20
-334.091427
 30
0.0
 11
-8.398697999999999
 21
-334.087906
 31
0.0
  0
LINE
  5
12D3
330
6B
100
AcDbEntity
  8
0
100
AcDbLine
 10
-8.398697999999999
 20
-334.087906
 30
0.0
 11
-8.362375
 21
-334.0832049999999
 31
0.0
  0
LINE
  5
12D4
330
6B
100
AcDbEntity
  8
0
100
AcDbLine
 10
-8.362375
 20
-334.0832049999999
 30
0.0
 11
-8.327358999999999
 21
-334.077362
 31
0.0
  0
LINE
  5
12D5
330
6B
100
AcDbEntity
  8
0
100
AcDbLine
 10
-8.327358999999999
 20
-334.077362
 30
0.0
 11
-8.293921
 21
-334.07042
 31
0.0
  0
LINE
  5
12D6
330
6B
100
AcDbEntity
  8
0
100
AcDbLine
 10
-8.293921
 20
-334.07042
 30
0.0
 11
-8.262317999999996
 21
-334.062434
 31
0.0
  0
LINE
  5
12D7
330
6B
100
AcDbEntity
  8
0
100
AcDbLine
 10
-8.262317999999996
 20
-334.062434
 30
0.0
 11
-8.232794
 21
-334.053466
 31
0.0
  0
LINE
  5
12D8
330
6B
100
AcDbEntity
  8
0
100
AcDbLine
 10
-8.232794
 20
-334.053466
 30
0.0
 11
-8.205579
 21
-334.043584
 31
0.0
  0
LINE
  5
12D9
330
6B
100
AcDbEntity
  8
0
100
AcDbLine
 10
-8.205579
 20
-334.043584
 30
0.0
 11
-8.180882999999999
 21
-334.032866
 31
0.0
  0
LINE
  5
12DA
330
6B
100
AcDbEntity
  8
0
100
AcDbLine
 10
-8.180882999999999
 20
-334.032866
 30
0.0
 11
-8.158894999999999
 21
-334.021393
 31
0.0
  0
LINE
  5
12DB
330
6B
100
AcDbEntity
  8
0
100
AcDbLine
 10
-8.158894999999999
 20
-334.021393
 30
0.0
 11
-8.139788000000001
 21
-334.009255
 31
0.0
  0
LINE
  5
12DC
330
6B
100
AcDbEntity
  8
0
100
AcDbLine
 10
-8.139788000000001
 20
-334.009255
 30
0.0
 11
-8.123707000000001
 21
-333.996546
 31
0.0
  0
LINE
  5
12DD
330
6B
100
AcDbEntity
  8
0
100
AcDbLine
 10
-8.123707000000001
 20
-333.996546
 30
0.0
 11
-8.110777
 21
-333.983363
 31
0.0
  0
LINE
  5
12DE
330
6B
100
AcDbEntity
  8
0
100
AcDbLine
 10
-8.110777
 20
-333.983363
 30
0.0
 11
-8.101099000000001
 21
-333.969809
 31
0.0
  0
LINE
  5
12DF
330
6B
100
AcDbEntity
  8
0
100
AcDbLine
 10
-8.101099000000001
 20
-333.969809
 30
0.0
 11
-8.094746
 21
-333.955988
 31
0.0
  0
LINE
  5
12E0
330
6B
100
AcDbEntity
  8
0
100
AcDbLine
 10
-8.094746
 20
-333.955988
 30
0.0
 11
-8.091769000000001
 21
-333.942008
 31
0.0
  0
LINE
  5
12E1
330
6B
100
AcDbEntity
  8
0
100
AcDbLine
 10
-8.091769000000001
 20
-333.942008
 30
0.0
 11
-8.092189999999996
 21
-333.927975
 31
0.0
  0
LINE
  5
12E2
330
6B
100
AcDbEntity
  8
0
100
AcDbLine
 10
-8.092189999999996
 20
-333.927975
 30
0.0
 11
-8.096005999999999
 21
-333.914
 31
0.0
  0
LINE
  5
12E3
330
6B
100
AcDbEntity
  8
0
100
AcDbLine
 10
-8.096005999999999
 20
-333.914
 30
0.0
 11
-8.103187
 21
-333.900189
 31
0.0
  0
LINE
  5
12E4
330
6B
100
AcDbEntity
  8
0
100
AcDbLine
 10
-8.103187
 20
-333.900189
 30
0.0
 11
-8.113678999999999
 21
-333.88665
 31
0.0
  0
LINE
  5
12E5
330
6B
100
AcDbEntity
  8
0
100
AcDbLine
 10
-8.113678999999999
 20
-333.88665
 30
0.0
 11
-8.127399
 21
-333.873487
 31
0.0
  0
LINE
  5
12E6
330
6B
100
AcDbEntity
  8
0
100
AcDbLine
 10
-8.127399
 20
-333.873487
 30
0.0
 11
-8.144241
 21
-333.860802
 31
0.0
  0
LINE
  5
12E7
330
6B
100
AcDbEntity
  8
0
100
AcDbLine
 10
-8.144241
 20
-333.860802
 30
0.0
 11
-8.164077
 21
-333.848692
 31
0.0
  0
LINE
  5
12E8
330
6B
100
AcDbEntity
  8
0
100
AcDbLine
 10
-8.164077
 20
-333.848692
 30
0.0
 11
-8.186750999999999
 21
-333.837253
 31
0.0
  0
LINE
  5
12E9
330
6B
100
AcDbEntity
  8
0
100
AcDbLine
 10
-8.186750999999999
 20
-333.837253
 30
0.0
 11
-8.212089999999998
 21
-333.826571
 31
0.0
  0
LINE
  5
12EA
330
6B
100
AcDbEntity
  8
0
100
AcDbLine
 10
-8.212089999999998
 20
-333.826571
 30
0.0
 11
-8.239897
 21
-333.81673
 31
0.0
  0
LINE
  5
12EB
330
6B
100
AcDbEntity
  8
0
100
AcDbLine
 10
-8.239897
 20
-333.81673
 30
0.0
 11
-8.269957000000001
 21
-333.807805
 31
0.0
  0
LINE
  5
12EC
330
6B
100
AcDbEntity
  8
0
100
AcDbLine
 10
-8.269957000000001
 20
-333.807805
 30
0.0
 11
-8.302037999999999
 21
-333.799866
 31
0.0
  0
LINE
  5
12ED
330
6B
100
AcDbEntity
  8
0
100
AcDbLine
 10
-8.302037999999999
 20
-333.799866
 30
0.0
 11
-8.335891999999999
 21
-333.792974
 31
0.0
  0
LINE
  5
12EE
330
6B
100
AcDbEntity
  8
0
100
AcDbLine
 10
-8.335891999999999
 20
-333.792974
 30
0.0
 11
-8.371256999999998
 21
-333.787182
 31
0.0
  0
LINE
  5
12EF
330
6B
100
AcDbEntity
  8
0
100
AcDbLine
 10
-55.78661
 20
-333.857229
 30
0.0
 11
-55.822017
 21
-333.862759
 31
0.0
  0
LINE
  5
12F0
330
6B
100
AcDbEntity
  8
0
100
AcDbLine
 10
-55.822017
 20
-333.862759
 30
0.0
 11
-55.85592099999999
 21
-333.8694
 31
0.0
  0
LINE
  5
12F1
330
6B
100
AcDbEntity
  8
0
100
AcDbLine
 10
-55.85592099999999
 20
-333.8694
 30
0.0
 11
-55.88805999999999
 21
-333.877101
 31
0.0
  0
LINE
  5
12F2
330
6B
100
AcDbEntity
  8
0
100
AcDbLine
 10
-55.88805999999999
 20
-333.877101
 30
0.0
 11
-55.918185
 21
-333.8858029999999
 31
0.0
  0
LINE
  5
12F3
330
6B
100
AcDbEntity
  8
0
100
AcDbLine
 10
-55.918185
 20
-333.8858029999999
 30
0.0
 11
-55.94606399999999
 21
-333.895438
 31
0.0
  0
LINE
  5
12F4
330
6B
100
AcDbEntity
  8
0
100
AcDbLine
 10
-55.94606399999999
 20
-333.895438
 30
0.0
 11
-55.971481
 21
-333.905932
 31
0.0
  0
LINE
  5
12F5
330
6B
100
AcDbEntity
  8
0
100
AcDbLine
 10
-55.971481
 20
-333.905932
 30
0.0
 11
-55.994239
 21
-333.917204
 31
0.0
  0
LINE
  5
12F6
330
6B
100
AcDbEntity
  8
0
100
AcDbLine
 10
-55.994239
 20
-333.917204
 30
0.0
 11
-56.014164
 21
-333.929166
 31
0.0
  0
LINE
  5
12F7
330
6B
100
AcDbEntity
  8
0
100
AcDbLine
 10
-56.014164
 20
-333.929166
 30
0.0
 11
-56.0311
 21
-333.941726
 31
0.0
  0
LINE
  5
12F8
330
6B
100
AcDbEntity
  8
0
100
AcDbLine
 10
-56.0311
 20
-333.941726
 30
0.0
 11
-56.044917
 21
-333.954787
 31
0.0
  0
LINE
  5
12F9
330
6B
100
AcDbEntity
  8
0
100
AcDbLine
 10
-56.044917
 20
-333.954787
 30
0.0
 11
-56.05550799999999
 21
-333.968249
 31
0.0
  0
LINE
  5
12FA
330
6B
100
AcDbEntity
  8
0
100
AcDbLine
 10
-56.05550799999999
 20
-333.968249
 30
0.0
 11
-56.062791
 21
-333.982006
 31
0.0
  0
LINE
  5
12FB
330
6B
100
AcDbEntity
  8
0
100
AcDbLine
 10
-56.062791
 20
-333.982006
 30
0.0
 11
-56.06671099999999
 21
-333.995953
 31
0.0
  0
LINE
  5
12FC
330
6B
100
AcDbEntity
  8
0
100
AcDbLine
 10
-56.06671099999999
 20
-333.995953
 30
0.0
 11
-56.067236
 21
-334.009981
 31
0.0
  0
LINE
  5
12FD
330
6B
100
AcDbEntity
  8
0
100
AcDbLine
 10
-56.067236
 20
-334.009981
 30
0.0
 11
-56.064362
 21
-334.023984
 31
0.0
  0
LINE
  5
12FE
330
6B
100
AcDbEntity
  8
0
100
AcDbLine
 10
-56.064362
 20
-334.023984
 30
0.0
 11
-56.058112
 21
-334.037851
 31
0.0
  0
LINE
  5
12FF
330
6B
100
AcDbEntity
  8
0
100
AcDbLine
 10
-56.058112
 20
-334.037851
 30
0.0
 11
-56.04853399999999
 21
-334.051476
 31
0.0
  0
LINE
  5
1300
330
6B
100
AcDbEntity
  8
0
100
AcDbLine
 10
-56.04853399999999
 20
-334.051476
 30
0.0
 11
-56.035702
 21
-334.064754
 31
0.0
  0
LINE
  5
1301
330
6B
100
AcDbEntity
  8
0
100
AcDbLine
 10
-56.035702
 20
-334.064754
 30
0.0
 11
-56.019716
 21
-334.077582
 31
0.0
  0
LINE
  5
1302
330
6B
100
AcDbEntity
  8
0
100
AcDbLine
 10
-56.019716
 20
-334.077582
 30
0.0
 11
-56.00069799999999
 21
-334.089861
 31
0.0
  0
LINE
  5
1303
330
6B
100
AcDbEntity
  8
0
100
AcDbLine
 10
-56.00069799999999
 20
-334.089861
 30
0.0
 11
-55.978797
 21
-334.101496
 31
0.0
  0
LINE
  5
1304
330
6B
100
AcDbEntity
  8
0
100
AcDbLine
 10
-55.978797
 20
-334.101496
 30
0.0
 11
-55.95418000000001
 21
-334.112397
 31
0.0
  0
LINE
  5
1305
330
6B
100
AcDbEntity
  8
0
100
AcDbLine
 10
-55.95418000000001
 20
-334.112397
 30
0.0
 11
-55.927039
 21
-334.12248
 31
0.0
  0
LINE
  5
1306
330
6B
100
AcDbEntity
  8
0
100
AcDbLine
 10
-55.927039
 20
-334.12248
 30
0.0
 11
-55.89758299999999
 21
-334.131667
 31
0.0
  0
LINE
  5
1307
330
6B
100
AcDbEntity
  8
0
100
AcDbLine
 10
-55.89758299999999
 20
-334.131667
 30
0.0
 11
-55.86604000000001
 21
-334.139887
 31
0.0
  0
LINE
  5
1308
330
6B
100
AcDbEntity
  8
0
100
AcDbLine
 10
-55.86604000000001
 20
-334.139887
 30
0.0
 11
-55.832653
 21
-334.147075
 31
0.0
  0
LINE
  5
1309
330
6B
100
AcDbEntity
  8
0
100
AcDbLine
 10
-55.832653
 20
-334.147075
 30
0.0
 11
-55.797682
 21
-334.153178
 31
0.0
  0
LINE
  5
130A
330
6B
100
AcDbEntity
  8
0
100
AcDbLine
 10
-55.797682
 20
-334.153178
 30
0.0
 11
-55.761395
 21
-334.158147
 31
0.0
  0
LINE
  5
130B
330
6B
100
AcDbEntity
  8
0
100
AcDbLine
 10
-55.761395
 20
-334.158147
 30
0.0
 11
-55.724074
 21
-334.161945
 31
0.0
  0
LINE
  5
130C
330
6B
100
AcDbEntity
  8
0
100
AcDbLine
 10
-55.724074
 20
-334.161945
 30
0.0
 11
-55.686007
 21
-334.164541
 31
0.0
  0
LINE
  5
130D
330
6B
100
AcDbEntity
  8
0
100
AcDbLine
 10
-55.686007
 20
-334.164541
 30
0.0
 11
-55.647488
 21
-334.165916
 31
0.0
  0
LINE
  5
130E
330
6B
100
AcDbEntity
  8
0
100
AcDbLine
 10
-55.647488
 20
-334.165916
 30
0.0
 11
-55.608815
 21
-334.166059
 31
0.0
  0
LINE
  5
130F
330
6B
100
AcDbEntity
  8
0
100
AcDbLine
 10
-55.608815
 20
-334.166059
 30
0.0
 11
-55.570287
 21
-334.164969
 31
0.0
  0
LINE
  5
1310
330
6B
100
AcDbEntity
  8
0
100
AcDbLine
 10
-55.570287
 20
-334.164969
 30
0.0
 11
-55.53220200000001
 21
-334.162655
 31
0.0
  0
LINE
  5
1311
330
6B
100
AcDbEntity
  8
0
100
AcDbLine
 10
-55.53220200000001
 20
-334.162655
 30
0.0
 11
-55.494853
 21
-334.159133
 31
0.0
  0
LINE
  5
1312
330
6B
100
AcDbEntity
  8
0
100
AcDbLine
 10
-55.494853
 20
-334.159133
 30
0.0
 11
-55.45853100000001
 21
-334.154433
 31
0.0
  0
LINE
  5
1313
330
6B
100
AcDbEntity
  8
0
100
AcDbLine
 10
-55.45853100000001
 20
-334.154433
 30
0.0
 11
-55.423515
 21
-334.148589
 31
0.0
  0
LINE
  5
1314
330
6B
100
AcDbEntity
  8
0
100
AcDbLine
 10
-55.423515
 20
-334.148589
 30
0.0
 11
-55.390076
 21
-334.141648
 31
0.0
  0
LINE
  5
1315
330
6B
100
AcDbEntity
  8
0
100
AcDbLine
 10
-55.390076
 20
-334.141648
 30
0.0
 11
-55.358473
 21
-334.133662
 31
0.0
  0
LINE
  5
1316
330
6B
100
AcDbEntity
  8
0
100
AcDbLine
 10
-55.358473
 20
-334.133662
 30
0.0
 11
-55.32894999999999
 21
-334.124693
 31
0.0
  0
LINE
  5
1317
330
6B
100
AcDbEntity
  8
0
100
AcDbLine
 10
-55.32894999999999
 20
-334.124693
 30
0.0
 11
-55.301735
 21
-334.114812
 31
0.0
  0
LINE
  5
1318
330
6B
100
AcDbEntity
  8
0
100
AcDbLine
 10
-55.301735
 20
-334.114812
 30
0.0
 11
-55.277038
 21
-334.1040930000001
 31
0.0
  0
LINE
  5
1319
330
6B
100
AcDbEntity
  8
0
100
AcDbLine
 10
-55.277038
 20
-334.1040930000001
 30
0.0
 11
-55.255051
 21
-334.09262
 31
0.0
  0
LINE
  5
131A
330
6B
100
AcDbEntity
  8
0
100
AcDbLine
 10
-55.255051
 20
-334.09262
 30
0.0
 11
-55.235943
 21
-334.080482
 31
0.0
  0
LINE
  5
131B
330
6B
100
AcDbEntity
  8
0
100
AcDbLine
 10
-55.235943
 20
-334.080482
 30
0.0
 11
-55.219862
 21
-334.067773
 31
0.0
  0
LINE
  5
131C
330
6B
100
AcDbEntity
  8
0
100
AcDbLine
 10
-55.219862
 20
-334.067773
 30
0.0
 11
-55.20693299999999
 21
-334.05459
 31
0.0
  0
LINE
  5
131D
330
6B
100
AcDbEntity
  8
0
100
AcDbLine
 10
-55.20693299999999
 20
-334.05459
 30
0.0
 11
-55.197254
 21
-334.041036
 31
0.0
  0
LINE
  5
131E
330
6B
100
AcDbEntity
  8
0
100
AcDbLine
 10
-55.197254
 20
-334.041036
 30
0.0
 11
-55.190902
 21
-334.027215
 31
0.0
  0
LINE
  5
131F
330
6B
100
AcDbEntity
  8
0
100
AcDbLine
 10
-55.190902
 20
-334.027215
 30
0.0
 11
-55.18792499999999
 21
-334.013235
 31
0.0
  0
LINE
  5
1320
330
6B
100
AcDbEntity
  8
0
100
AcDbLine
 10
-55.18792499999999
 20
-334.013235
 30
0.0
 11
-55.18834599999999
 21
-333.999203
 31
0.0
  0
LINE
  5
1321
330
6B
100
AcDbEntity
  8
0
100
AcDbLine
 10
-55.18834599999999
 20
-333.999203
 30
0.0
 11
-55.19216199999998
 21
-333.985227
 31
0.0
  0
LINE
  5
1322
330
6B
100
AcDbEntity
  8
0
100
AcDbLine
 10
-55.19216199999998
 20
-333.985227
 30
0.0
 11
-55.199343
 21
-333.971416
 31
0.0
  0
LINE
  5
1323
330
6B
100
AcDbEntity
  8
0
100
AcDbLine
 10
-55.199343
 20
-333.971416
 30
0.0
 11
-55.20983399999999
 21
-333.957877
 31
0.0
  0
LINE
  5
1324
330
6B
100
AcDbEntity
  8
0
100
AcDbLine
 10
-55.20983399999999
 20
-333.957877
 30
0.0
 11
-55.22355400000001
 21
-333.944714
 31
0.0
  0
LINE
  5
1325
330
6B
100
AcDbEntity
  8
0
100
AcDbLine
 10
-55.22355400000001
 20
-333.944714
 30
0.0
 11
-55.24039699999999
 21
-333.932029
 31
0.0
  0
LINE
  5
1326
330
6B
100
AcDbEntity
  8
0
100
AcDbLine
 10
-55.24039699999999
 20
-333.932029
 30
0.0
 11
-55.260232
 21
-333.91992
 31
0.0
  0
LINE
  5
1327
330
6B
100
AcDbEntity
  8
0
100
AcDbLine
 10
-55.260232
 20
-333.91992
 30
0.0
 11
-55.28290699999999
 21
-333.90848
 31
0.0
  0
LINE
  5
1328
330
6B
100
AcDbEntity
  8
0
100
AcDbLine
 10
-55.28290699999999
 20
-333.90848
 30
0.0
 11
-55.30824599999998
 21
-333.897798
 31
0.0
  0
LINE
  5
1329
330
6B
100
AcDbEntity
  8
0
100
AcDbLine
 10
-55.30824599999998
 20
-333.897798
 30
0.0
 11
-55.336053
 21
-333.887957
 31
0.0
  0
LINE
  5
132A
330
6B
100
AcDbEntity
  8
0
100
AcDbLine
 10
-55.336053
 20
-333.887957
 30
0.0
 11
-55.366113
 21
-333.879033
 31
0.0
  0
LINE
  5
132B
330
6B
100
AcDbEntity
  8
0
100
AcDbLine
 10
-55.366113
 20
-333.879033
 30
0.0
 11
-55.39819300000001
 21
-333.871094
 31
0.0
  0
LINE
  5
132C
330
6B
100
AcDbEntity
  8
0
100
AcDbLine
 10
-55.39819300000001
 20
-333.871094
 30
0.0
 11
-55.432047
 21
-333.864202
 31
0.0
  0
LINE
  5
132D
330
6B
100
AcDbEntity
  8
0
100
AcDbLine
 10
-55.432047
 20
-333.864202
 30
0.0
 11
-55.467412
 21
-333.85841
 31
0.0
  0
LINE
  5
132E
330
6B
100
AcDbEntity
  8
0
100
AcDbLine
 10
139.278357
 20
-359.318478
 30
0.0
 11
140.674523
 21
-358.632558
 31
0.0
  0
LINE
  5
132F
330
6B
100
AcDbEntity
  8
0
100
AcDbLine
 10
140.674523
 20
-358.632558
 30
0.0
 11
142.05851
 21
-358.434401
 31
0.0
  0
LINE
  5
1330
330
6B
100
AcDbEntity
  8
0
100
AcDbLine
 10
142.05851
 20
-358.434401
 30
0.0
 11
143.498893
 21
-359.012782
 31
0.0
  0
LINE
  5
1331
330
6B
100
AcDbEntity
  8
0
100
AcDbLine
 10
143.498893
 20
-359.012782
 30
0.0
 11
144.926787
 21
-359.56295
 31
0.0
  0
LINE
  5
1332
330
6B
100
AcDbEntity
  8
0
100
AcDbLine
 10
144.926787
 20
-359.56295
 30
0.0
 11
146.316339
 21
-359.270023
 31
0.0
  0
LINE
  5
1333
330
6B
100
AcDbEntity
  8
0
100
AcDbLine
 10
146.316339
 20
-359.270023
 30
0.0
 11
147.70694
 21
-358.434401
 31
0.0
  0
LINE
  5
1334
330
6B
100
AcDbEntity
  8
0
100
AcDbLine
 10
82.319752
 20
-385.875638
 30
0.0
 11
81.373417
 21
-387.741539
 31
0.0
  0
LINE
  5
1335
330
6B
100
AcDbEntity
  8
0
100
AcDbLine
 10
81.373417
 20
-387.741539
 30
0.0
 11
81.23476600000001
 21
-389.549727
 31
0.0
  0
LINE
  5
1336
330
6B
100
AcDbEntity
  8
0
100
AcDbLine
 10
81.23476600000001
 20
-389.549727
 30
0.0
 11
81.74444200000001
 21
-390.590841
 31
0.0
  0
LINE
  5
1337
330
6B
100
AcDbEntity
  8
0
100
AcDbLine
 10
81.74444200000001
 20
-390.590841
 30
0.0
 11
82.22463000000002
 21
-391.624576
 31
0.0
  0
LINE
  5
1338
330
6B
100
AcDbEntity
  8
0
100
AcDbLine
 10
82.22463000000002
 20
-391.624576
 30
0.0
 11
81.962329
 21
-393.315241
 31
0.0
  0
LINE
  5
1339
330
6B
100
AcDbEntity
  8
0
100
AcDbLine
 10
81.962329
 20
-393.315241
 30
0.0
 11
80.88400400000002
 21
-395.040052
 31
0.0
  0
LINE
  5
133A
330
6B
100
AcDbEntity
  8
0
100
AcDbLine
 10
-17.248585
 20
-349.577242
 30
0.0
 11
-122.61265
 21
-349.577242
 31
0.0
  0
LINE
  5
133B
330
6B
100
AcDbEntity
  8
0
100
AcDbLine
 10
-17.248585
 20
-315.577242
 30
0.0
 11
-122.61265
 21
-315.577242
 31
0.0
  0
LINE
  5
133C
330
6B
100
AcDbEntity
  8
0
100
AcDbLine
 10
-121.36265
 20
-347.077242
 30
0.0
 11
-121.36265
 21
-318.077242
 31
0.0
  0
LINE
  5
1340
330
6B
100
AcDbEntity
  8
0
100
AcDbLine
 10
-93.41944699999997
 20
-347.446401
 30
0.0
 11
-115.18345
 21
-347.446401
 31
0.0
  0
LINE
  5
1341
330
6B
100
AcDbEntity
  8
0
100
AcDbLine
 10
-93.41944699999997
 20
-317.708082
 30
0.0
 11
-115.18345
 21
-317.708082
 31
0.0
  0
LINE
  5
1342
330
6B
100
AcDbEntity
  8
0
100
AcDbLine
 10
-113.93345
 20
-344.946401
 30
0.0
 11
-113.93345
 21
-320.208082
 31
0.0
  0
LINE
  5
1346
330
6B
100
AcDbEntity
  8
0
100
AcDbLine
 10
-102.248585
 20
-434.8456089999998
 30
0.0
 11
-116.982381
 21
-434.8456089999998
 31
0.0
  0
LINE
  5
1347
330
6B
100
AcDbEntity
  8
0
100
AcDbLine
 10
-102.248585
 20
-375.8345
 30
0.0
 11
-116.982381
 21
-375.8345
 31
0.0
  0
LINE
  5
1348
330
6B
100
AcDbEntity
  8
0
100
AcDbLine
 10
-115.732381
 20
-432.3456089999998
 30
0.0
 11
-115.732381
 21
-378.3345
 31
0.0
  0
LINE
  5
134C
330
6B
100
AcDbEntity
  8
0
100
AcDbLine
 10
-104.498585
 20
-335.715168
 30
0.0
 11
-104.498585
 21
-363.026448
 31
0.0
  0
LINE
  5
134D
330
6B
100
AcDbEntity
  8
0
100
AcDbLine
 10
70.50141500000002
 20
-335.715168
 30
0.0
 11
70.50141500000002
 21
-363.026448
 31
0.0
  0
LINE
  5
134E
330
6B
100
AcDbEntity
  8
0
100
AcDbLine
 10
-101.998585
 20
-361.776448
 30
0.0
 11
68.00141500000002
 21
-361.776448
 31
0.0
  0
LINE
  5
1352
330
6B
100
AcDbEntity
  8
0
100
AcDbLine
 10
-61.49487412702346
 20
-460.9399197869182
 30
0.0
 11
-56.293622
 21
-453.571061
 31
0.0
1001
ACAD
1000
DSTYLE
1002
{
1070
   147
1040
0.625
1070
    77
1070
     0
1002
}
  0
LINE
  5
1353
330
6B
100
AcDbEntity
  8
0
  6
ByBlock
 62
     0
370
    -2
100
AcDbLine
 10
-60.9475994912864
 20
-461.3262093665539
 30
0.0
 11
-62.93652749999999
 21
-462.982378
 31
0.0
  0
LINE
  5
1354
330
6B
100
AcDbEntity
  8
0
  6
ByBlock
 62
     0
370
    -2
100
AcDbLine
 10
-62.93652749999999
 20
-462.982378
 30
0.0
 11
-62.04214876276052
 21
-460.5536302072825
 31
0.0
  0
LINE
  5
1355
330
6B
100
AcDbEntity
  8
0
  6
ByBlock
 62
     0
370
    -2
100
AcDbLine
 10
-62.93652749999999
 20
-462.982378
 30
0.0
 11
-61.49487412702346
 21
-460.9399197869182
 31
0.0
  0
LINE
  5
1356
330
6B
100
AcDbEntity
  8
0
100
AcDbLine
 10
27.09525327842797
 20
-461.2943970700188
 30
0.0
 11
18.657577
 21
-453.571061
 31
0.0
1001
ACAD
1000
DSTYLE
1002
{
1070
   147
1040
0.625
1070
    77
1070
     0
1002
}
  0
LINE
  5
1357
330
6B
100
AcDbEntity
  8
0
  6
ByBlock
 62
     0
370
    -2
100
AcDbLine
 10
27.5475460806355
 20
-460.8002711879528
 30
0.0
 11
28.9393575
 21
-462.982378
 31
0.0
  0
LINE
  5
1358
330
6B
100
AcDbEntity
  8
0
  6
ByBlock
 62
     0
370
    -2
100
AcDbLine
 10
28.9393575
 20
-462.982378
 30
0.0
 11
26.64296047622043
 21
-461.7885229520848
 31
0.0
  0
LINE
  5
1359
330
6B
100
AcDbEntity
  8
0
  6
ByBlock
 62
     0
370
    -2
100
AcDbLine
 10
28.9393575
 20
-462.982378
 30
0.0
 11
27.09525327842797
 21
-461.2943970700188
 31
0.0
  0
LINE
  5
135A
330
6B
100
AcDbEntity
  8
0
100
AcDbLine
 10
-65.415083
 20
-469.5417159999998
 30
0.0
 11
-70.96342008241075
 21
-454.5473551035676
 31
0.0
1001
ACAD
1000
DSTYLE
1002
{
1070
   341
1005
970
1070
   147
1040
0.625
1070
    77
1070
     0
1002
}
  0
LINE
  5
135C
330
6B
100
AcDbEntity
  8
0
100
AcDbLine
 10
31.621711
 20
-469.5417159999998
 30
0.0
 11
37.17004808241075
 21
-454.5473551035676
 31
0.0
1001
ACAD
1000
DSTYLE
1002
{
1070
   341
1005
970
1070
   147
1040
0.625
1070
    77
1070
     0
1002
}
  0
LINE
  5
135E
330
6B
100
AcDbEntity
  8
0
100
AcDbLine
 10
-49.07986765176708
 20
-416.4957466407891
 30
0.0
 11
-27.75097669646583
 21
-440.5752947184218
 31
0.0
1001
ACAD
1000
DSTYLE
1002
{
1070
   147
1040
0.625
1070
    77
1070
     0
1002
}
  0
LINE
  5
135F
330
6B
100
AcDbEntity
  8
0
  6
ByBlock
 62
     0
370
    -2
100
AcDbLine
 10
-49.58131294104589
 20
-416.9399107862536
 30
0.0
 11
-50.737512
 21
-414.624326
 31
0.0
  0
LINE
  5
1360
330
6B
100
AcDbEntity
  8
0
  6
ByBlock
 62
     0
370
    -2
100
AcDbLine
 10
-50.737512
 20
-414.624326
 30
0.0
 11
-48.57842236248829
 21
-416.0515824953244
 31
0.0
  0
LINE
  5
1361
330
6B
100
AcDbEntity
  8
0
  6
ByBlock
 62
     0
370
    -2
100
AcDbLine
 10
-50.737512
 20
-414.624326
 30
0.0
 11
-49.07986765176708
 21
-416.4957466407891
 31
0.0
  0
LINE
  5
1362
330
6B
100
AcDbEntity
  8
0
100
AcDbLine
 10
15.1567552460292
 20
-420.523898317343
 30
0.0
 11
-7.305003492058405
 21
-440.8686253653137
 31
0.0
1001
ACAD
1000
DSTYLE
1002
{
1070
   147
1040
0.625
1070
    77
1070
     0
1002
}
  0
LINE
  5
1363
330
6B
100
AcDbEntity
  8
0
  6
ByBlock
 62
     0
370
    -2
100
AcDbLine
 10
14.70705930173641
 20
-420.0274079106453
 30
0.0
 11
17.009684
 21
-418.8456089999998
 31
0.0
  0
LINE
  5
1364
330
6B
100
AcDbEntity
  8
0
  6
ByBlock
 62
     0
370
    -2
100
AcDbLine
 10
17.009684
 20
-418.8456089999998
 30
0.0
 11
15.60645119032199
 21
-421.0203887240407
 31
0.0
  0
LINE
  5
1365
330
6B
100
AcDbEntity
  8
0
  6
ByBlock
 62
     0
370
    -2
100
AcDbLine
 10
17.009684
 20
-418.8456089999998
 30
0.0
 11
15.1567552460292
 21
-420.523898317343
 31
0.0
  0
LINE
  5
1366
330
6B
100
AcDbEntity
  8
0
100
AcDbLine
 10
-55.55263671093166
 20
-321.5228099623103
 30
0.0
 11
-60.78348954610314
 21
-306.6623084928524
 31
0.0
1001
ACAD
1000
DSTYLE
1002
{
1070
   147
1040
0.625
1070
    77
1070
     0
1002
}
  0
LINE
  5
1367
330
6B
100
AcDbEntity
  8
0
  6
ByBlock
 62
     0
370
    -2
100
AcDbLine
 10
-54.92076641375051
 20
-321.3003934750697
 30
0.0
 11
-54.72256648398324
 21
-323.8809837087365
 31
0.0
  0
LINE
  5
1368
330
6B
100
AcDbEntity
  8
0
  6
ByBlock
 62
     0
370
    -2
100
AcDbLine
 10
-54.72256648398324
 20
-323.8809837087365
 30
0.0
 11
-56.18450700811282
 21
-321.7452264495509
 31
0.0
  0
LINE
  5
1369
330
6B
100
AcDbEntity
  8
0
  6
ByBlock
 62
     0
370
    -2
100
AcDbLine
 10
-54.72256648398324
 20
-323.8809837087365
 30
0.0
 11
-55.55263671093166
 21
-321.5228099623103
 31
0.0
  0
LINE
  5
136A
330
6B
100
AcDbEntity
  8
0
100
AcDbLine
 10
-18.51676972144305
 20
-326.2662325296596
 30
0.0
 11
-24.98729035285109
 21
-305.5308383032363
 31
0.0
1001
ACAD
1000
DSTYLE
1002
{
1070
   147
1040
0.625
1070
    77
1070
     0
1002
}
  0
LINE
  5
136B
330
6B
100
AcDbEntity
  8
0
  6
ByBlock
 62
     0
370
    -2
100
AcDbLine
 10
-17.87730832052112
 20
-326.0666873393212
 30
0.0
 11
-17.7720563978686
 21
-328.6527366812777
 31
0.0
  0
LINE
  5
136C
330
6B
100
AcDbEntity
  8
0
  6
ByBlock
 62
     0
370
    -2
100
AcDbLine
 10
-17.7720563978686
 20
-328.6527366812777
 30
0.0
 11
-19.15623112236498
 21
-326.4657777199981
 31
0.0
  0
LINE
  5
136D
330
6B
100
AcDbEntity
  8
0
  6
ByBlock
 62
     0
370
    -2
100
AcDbLine
 10
-17.7720563978686
 20
-328.6527366812777
 30
0.0
 11
-18.51676972144305
 21
-326.2662325296596
 31
0.0
  0
LINE
  5
136E
330
6B
100
AcDbEntity
  8
0
100
AcDbLine
 10
19.24503643337445
 20
-317.8109998471467
 30
0.0
 11
26.98932283875777
 21
-304.9602233057067
 31
0.0
1001
ACAD
1000
DSTYLE
1002
{
1070
   147
1040
0.625
1070
    77
1070
     0
1002
}
  0
LINE
  5
136F
330
6B
100
AcDbEntity
  8
0
  6
ByBlock
 62
     0
370
    -2
100
AcDbLine
 10
19.81878012698935
 20
-318.1567560333435
 30
0.0
 11
17.95465585275334
 21
-319.952242
 31
0.0
  0
LINE
  5
1370
330
6B
100
AcDbEntity
  8
0
  6
ByBlock
 62
     0
370
    -2
100
AcDbLine
 10
17.95465585275334
 20
-319.952242
 30
0.0
 11
18.67129273975956
 21
-317.4652436609499
 31
0.0
  0
LINE
  5
1371
330
6B
100
AcDbEntity
  8
0
  6
ByBlock
 62
     0
370
    -2
100
AcDbLine
 10
17.95465585275334
 20
-319.952242
 30
0.0
 11
19.24503643337445
 21
-317.8109998471467
 31
0.0
  0
LINE
  5
1372
330
6B
100
AcDbEntity
  8
0
100
AcDbLine
 10
41.96206758652717
 20
-314.471632843894
 30
0.0
 11
45.13148329274875
 21
-305.906297181399
 31
0.0
1001
ACAD
1000
DSTYLE
1002
{
1070
   147
1040
0.625
1070
    77
1070
     0
1002
}
  0
LINE
  5
1373
330
6B
100
AcDbEntity
  8
0
  6
ByBlock
 62
     0
370
    -2
100
AcDbLine
 10
42.590309678547
 20
-314.7041001320677
 30
0.0
 11
41.09448723290156
 21
-316.8162659345935
 31
0.0
  0
LINE
  5
1374
330
6B
100
AcDbEntity
  8
0
  6
ByBlock
 62
     0
370
    -2
100
AcDbLine
 10
41.09448723290156
 20
-316.8162659345935
 30
0.0
 11
41.33382549450735
 21
-314.2391655557204
 31
0.0
  0
LINE
  5
1375
330
6B
100
AcDbEntity
  8
0
  6
ByBlock
 62
     0
370
    -2
100
AcDbLine
 10
41.09448723290156
 20
-316.8162659345935
 30
0.0
 11
41.96206758652717
 21
-314.471632843894
 31
0.0
  0
TEXT
  5
1376
330
6B
100
AcDbEntity
  8
0
 62
     4
100
AcDbText
 10
-121.9876499999999
 20
-335.077242
 30
0.0
 40
3.0
  1
68
 50
90.0
100
AcDbText
  0
LINE
  5
1377
330
6B
100
AcDbEntity
  8
0
  6
ByBlock
 62
     0
370
    -2
100
AcDbLine
 10
-122.0325225
 20
-318.077242
 30
0.0
 11
-121.36265
 21
-315.577242
 31
0.0
  0
LINE
  5
1378
330
6B
100
AcDbEntity
  8
0
  6
ByBlock
 62
     0
370
    -2
100
AcDbLine
 10
-121.36265
 20
-315.577242
 30
0.0
 11
-120.6927775
 21
-318.077242
 31
0.0
  0
LINE
  5
1379
330
6B
100
AcDbEntity
  8
0
  6
ByBlock
 62
     0
370
    -2
100
AcDbLine
 10
-121.36265
 20
-315.577242
 30
0.0
 11
-121.36265
 21
-318.077242
 31
0.0
  0
LINE
  5
137A
330
6B
100
AcDbEntity
  8
0
  6
ByBlock
 62
     0
370
    -2
100
AcDbLine
 10
-120.6927775
 20
-347.077242
 30
0.0
 11
-121.36265
 21
-349.577242
 31
0.0
  0
LINE
  5
137B
330
6B
100
AcDbEntity
  8
0
  6
ByBlock
 62
     0
370
    -2
100
AcDbLine
 10
-121.36265
 20
-349.577242
 30
0.0
 11
-122.0325225
 21
-347.077242
 31
0.0
  0
LINE
  5
137C
330
6B
100
AcDbEntity
  8
0
  6
ByBlock
 62
     0
370
    -2
100
AcDbLine
 10
-121.36265
 20
-349.577242
 30
0.0
 11
-121.36265
 21
-347.077242
 31
0.0
  0
TEXT
  5
137D
330
6B
100
AcDbEntity
  8
0
 62
     4
100
AcDbText
 10
-114.5584499999999
 20
-334.8272415
 30
0.0
 40
3.0
  1
60
 50
90.0
100
AcDbText
  0
LINE
  5
137E
330
6B
100
AcDbEntity
  8
0
  6
ByBlock
 62
     0
370
    -2
100
AcDbLine
 10
-114.6033225
 20
-320.208082
 30
0.0
 11
-113.93345
 21
-317.708082
 31
0.0
  0
LINE
  5
137F
330
6B
100
AcDbEntity
  8
0
  6
ByBlock
 62
     0
370
    -2
100
AcDbLine
 10
-113.93345
 20
-317.708082
 30
0.0
 11
-113.2635775
 21
-320.208082
 31
0.0
  0
LINE
  5
1380
330
6B
100
AcDbEntity
  8
0
  6
ByBlock
 62
     0
370
    -2
100
AcDbLine
 10
-113.93345
 20
-317.708082
 30
0.0
 11
-113.93345
 21
-320.208082
 31
0.0
  0
LINE
  5
1381
330
6B
100
AcDbEntity
  8
0
  6
ByBlock
 62
     0
370
    -2
100
AcDbLine
 10
-113.2635775
 20
-344.946401
 30
0.0
 11
-113.93345
 21
-347.446401
 31
0.0
  0
LINE
  5
1382
330
6B
100
AcDbEntity
  8
0
  6
ByBlock
 62
     0
370
    -2
100
AcDbLine
 10
-113.93345
 20
-347.446401
 30
0.0
 11
-114.6033225
 21
-344.946401
 31
0.0
  0
LINE
  5
1383
330
6B
100
AcDbEntity
  8
0
  6
ByBlock
 62
     0
370
    -2
100
AcDbLine
 10
-113.93345
 20
-347.446401
 30
0.0
 11
-113.93345
 21
-344.946401
 31
0.0
  0
TEXT
  5
1384
330
6B
100
AcDbEntity
  8
0
 62
     4
100
AcDbText
 10
-116.3573809999999
 20
-408.3400544999999
 30
0.0
 40
3.0
  1
118
 50
90.0
100
AcDbText
  0
LINE
  5
1385
330
6B
100
AcDbEntity
  8
0
  6
ByBlock
 62
     0
370
    -2
100
AcDbLine
 10
-116.4022535
 20
-378.3345
 30
0.0
 11
-115.732381
 21
-375.8345
 31
0.0
  0
LINE
  5
1386
330
6B
100
AcDbEntity
  8
0
  6
ByBlock
 62
     0
370
    -2
100
AcDbLine
 10
-115.732381
 20
-375.8345
 30
0.0
 11
-115.0625085
 21
-378.3345
 31
0.0
  0
LINE
  5
1387
330
6B
100
AcDbEntity
  8
0
  6
ByBlock
 62
     0
370
    -2
100
AcDbLine
 10
-115.732381
 20
-375.8345
 30
0.0
 11
-115.732381
 21
-378.3345
 31
0.0
  0
LINE
  5
1388
330
6B
100
AcDbEntity
  8
0
  6
ByBlock
 62
     0
370
    -2
100
AcDbLine
 10
-115.0625085
 20
-432.3456089999998
 30
0.0
 11
-115.732381
 21
-434.8456089999998
 31
0.0
  0
LINE
  5
1389
330
6B
100
AcDbEntity
  8
0
  6
ByBlock
 62
     0
370
    -2
100
AcDbLine
 10
-115.732381
 20
-434.8456089999998
 30
0.0
 11
-116.4022535
 21
-432.3456089999998
 31
0.0
  0
LINE
  5
138A
330
6B
100
AcDbEntity
  8
0
  6
ByBlock
 62
     0
370
    -2
100
AcDbLine
 10
-115.732381
 20
-434.8456089999998
 30
0.0
 11
-115.732381
 21
-432.3456089999998
 31
0.0
  0
TEXT
  5
138B
330
6B
100
AcDbEntity
  8
0
 62
     4
100
AcDbText
 10
-20.74858499999999
 20
-361.151448
 30
0.0
 40
3.0
  1
350
100
AcDbText
  0
LINE
  5
138C
330
6B
100
AcDbEntity
  8
0
  6
ByBlock
 62
     0
370
    -2
100
AcDbLine
 10
68.00141500000002
 20
-361.1065755
 30
0.0
 11
70.50141500000002
 21
-361.776448
 31
0.0
  0
LINE
  5
138D
330
6B
100
AcDbEntity
  8
0
  6
ByBlock
 62
     0
370
    -2
100
AcDbLine
 10
70.50141500000002
 20
-361.776448
 30
0.0
 11
68.00141500000002
 21
-362.4463205
 31
0.0
  0
LINE
  5
138E
330
6B
100
AcDbEntity
  8
0
  6
ByBlock
 62
     0
370
    -2
100
AcDbLine
 10
70.50141500000002
 20
-361.776448
 30
0.0
 11
68.00141500000002
 21
-361.776448
 31
0.0
  0
LINE
  5
138F
330
6B
100
AcDbEntity
  8
0
  6
ByBlock
 62
     0
370
    -2
100
AcDbLine
 10
-101.998585
 20
-362.4463205
 30
0.0
 11
-104.498585
 21
-361.776448
 31
0.0
  0
LINE
  5
1390
330
6B
100
AcDbEntity
  8
0
  6
ByBlock
 62
     0
370
    -2
100
AcDbLine
 10
-104.498585
 20
-361.776448
 30
0.0
 11
-101.998585
 21
-361.1065755
 31
0.0
  0
LINE
  5
1391
330
6B
100
AcDbEntity
  8
0
  6
ByBlock
 62
     0
370
    -2
100
AcDbLine
 10
-104.498585
 20
-361.776448
 30
0.0
 11
-101.998585
 21
-361.776448
 31
0.0
  0
ARC
  5
1392
330
6B
100
AcDbEntity
  8
0
  6
ByBlock
 62
     0
100
AcDbCircle
 10
-65.415083
 20
-469.5417159999998
 30
0.0
 40
0.1562499999999812
100
AcDbArc
 50
110.3058972636476
 51
290.3058972636476
  0
ARC
  5
1393
330
6B
100
AcDbEntity
  8
0
  6
ByBlock
 62
     0
100
AcDbCircle
 10
-65.415083
 20
-469.5417159999998
 30
0.0
 40
0.1562499999999812
100
AcDbArc
 50
290.3058972636476
 51
110.3058972636476
  0
ARC
  5
1394
330
6B
100
AcDbEntity
  8
0
  6
ByBlock
 62
     0
100
AcDbCircle
 10
31.621711
 20
-469.5417159999998
 30
0.0
 40
0.15624999999998
100
AcDbArc
 50
69.6941027363536
 51
249.6941027363536
  0
ARC
  5
1395
330
6B
100
AcDbEntity
  8
0
  6
ByBlock
 62
     0
100
AcDbCircle
 10
31.621711
 20
-469.5417159999998
 30
0.0
 40
0.15624999999998
100
AcDbArc
 50
249.6941027363536
 51
69.6941027363536
  0
ENDSEC
  0
SECTION
  2
OBJECTS
  0
DICTIONARY
  5
C
330
0
100
AcDbDictionary
281
     1
  3
ACAD_2007HEADERVARS_RT
350
1399
  3
ACAD_COLOR
350
62
  3
ACAD_GROUP
350
D
  3
ACAD_LAYOUT
350
61
  3
ACAD_MATERIAL
350
10
  3
ACAD_MLEADERSTYLE
350
65
  3
ACAD_MLINESTYLE
350
5E
  3
ACAD_PLOTSETTINGS
350
60
  3
ACAD_PLOTSTYLENAME
350
E
  3
ACAD_SCALELIST
350
42
  3
ACAD_TABLESTYLE
350
63
  3
ACAD_VISUALSTYLE
350
29
  3
ACDB_RECOMPOSE_DATA
350
1397
  3
AcDbVariableDictionary
350
862
  3
AEC_PROPERTY_SET_DEFS
350
D84
  3
DWGPROPS
350
1398
  0
DICTIONARY
  5
666
330
2
100
AcDbDictionary
280
     1
281
     1
  3
ACAD_LAYERSTATES
360
667
  0
DICTIONARY
  5
860
330
54
100
AcDbDictionary
280
     1
281
     1
  3
ADSK_XREC_LAYER_RECONCILED
360
861
  0
DICTIONARY
  5
82A
330
6B
100
AcDbDictionary
280
     1
281
     1
  3
ACAD_SORTENTS
360
82B
  0
DICTIONARY
  5
1399
102
{ACAD_REACTORS
330
C
102
}
330
C
100
AcDbDictionary
281
     1
  3
DIMARCSYM
350
139B
  3
DIMFXL
350
139A
  3
DIMJOGANG
350
139C
  0
DICTIONARY
  5
62
102
{ACAD_REACTORS
330
C
102
}
330
C
100
AcDbDictionary
281
     1
  0
DICTIONARY
  5
D
102
{ACAD_REACTORS
330
C
102
}
330
C
100
AcDbDictionary
281
     1
  0
DICTIONARY
  5
61
102
{ACAD_REACTORS
330
C
102
}
330
C
100
AcDbDictionary
281
     1
  3
Model
350
6E
  3
レイアウト1
350
6A
  0
DICTIONARY
  5
10
102
{ACAD_REACTORS
330
C
102
}
330
C
100
AcDbDictionary
281
     1
  3
ByBlock
350
19
  3
ByLayer
350
11
  3
Global
350
21
  0
DICTIONARY
  5
65
102
{ACAD_REACTORS
330
C
102
}
330
C
100
AcDbDictionary
281
     1
  3
Standard
350
66
  0
DICTIONARY
  5
5E
102
{ACAD_REACTORS
330
C
102
}
330
C
100
AcDbDictionary
281
     1
  3
Standard
350
5F
  0
DICTIONARY
  5
60
102
{ACAD_REACTORS
330
C
102
}
330
C
100
AcDbDictionary
281
     1
  0
ACDBDICTIONARYWDFLT
  5
E
102
{ACAD_REACTORS
330
C
102
}
330
C
100
AcDbDictionary
281
     1
  3
Normal
350
F
100
AcDbDictionaryWithDefault
340
F
  0
DICTIONARY
  5
42
102
{ACAD_REACTORS
330
C
102
}
330
C
100
AcDbDictionary
281
     1
  3
A0
350
43
  3
A1
350
44
  3
A2
350
45
  3
A3
350
46
  3
A4
350
47
  3
A5
350
48
  3
A6
350
49
  3
A7
350
4A
  3
A8
350
4B
  3
A9
350
4C
  3
B0
350
4D
  3
B1
350
4E
  3
B2
350
4F
  3
B3
350
50
  3
B4
350
51
  3
B5
350
52
  3
B6
350
53
  0
DICTIONARY
  5
63
102
{ACAD_REACTORS
330
C
102
}
330
C
100
AcDbDictionary
281
     1
  3
Standard
350
64
  0
DICTIONARY
  5
29
102
{ACAD_REACTORS
330
C
102
}
330
C
100
AcDbDictionary
281
     1
  3
2dWireframe
350
2F
  3
3dWireframe
350
663
  3
Basic
350
2E
  3
Brighten
350
35
  3
ColorChange
350
39
  3
Conceptual
350
32
  3
Dim
350
34
  3
EdgeColorOff
350
41
  3
Facepattern
350
38
  3
Flat
350
2A
  3
FlatWithEdges
350
2B
  3
Gouraud
350
2C
  3
GouraudWithEdges
350
2D
  3
Hidden
350
31
  3
JitterOff
350
3F
  3
Linepattern
350
37
  3
OverhangOff
350
40
  3
Realistic
350
33
  3
Shaded
350
3E
  3
Shaded with edges
350
3D
  3
Shades of Gray
350
3A
  3
Sketchy
350
3B
  3
Thicken
350
36
  3
Wireframe
350
30
  3
X-Ray
350
3C
  0
XRECORD
  5
1397
102
{ACAD_REACTORS
330
C
102
}
330
C
100
AcDbXrecord
280
     1
 90
        1
330
64
  0
DICTIONARY
  5
862
102
{ACAD_REACTORS
330
C
102
}
330
C
100
AcDbDictionary
281
     1
  3
CANNOSCALE
350
865
  3
CMLEADERSTYLE
350
864
  3
CTABLESTYLE
350
863
  3
DIMASSOC
350
868
  3
INDEXCTL
350
867
  3
SORTENTS
350
866
  3
XCLIPFRAME
350
125D
  0
DICTIONARY
  5
D84
102
{ACAD_REACTORS
330
C
102
}
330
C
100
AcDbDictionary
281
     1
  0
XRECORD
  5
1398
102
{ACAD_REACTORS
330
C
102
}
330
C
100
AcDbXrecord
280
     1
  1
DWGPROPS COOKIE
  2

  3

  4

  6

  7

  8
imamura
  9

300
=
301
=
302
=
303
=
304
=
305
=
306
=
307
=
308
=
309
=
 40
0.0709413773148148
 41
2456338.477768519
 42
2460319.545581493
  1

 90
        0
  0
DICTIONARY
  5
667
102
{ACAD_REACTORS
330
666
102
}
330
666
100
AcDbDictionary
281
     1
  0
XRECORD
  5
861
102
{ACAD_REACTORS
330
860
102
}
330
860
100
AcDbXrecord
280
     1
290
     1
  0
SORTENTSTABLE
  5
82B
102
{ACAD_REACTORS
330
82A
102
}
330
82A
100
AcDbSortentsTable
330
6B
331
254
  5
315
331
235
  5
2F6
331
216
  5
2D7
331
1FF
  5
2C0
331
181
  5
206
331
162
  5
1A5
331
118B
  5
1336
331
12D0
  5
35C
331
12B1
  5
33D
331
143
  5
17D
331
11C
  5
16B
331
CE
  5
142
331
138E
  5
D6
331
2BA
  5
383
331
263
  5
324
331
244
  5
305
331
225
  5
2E6
331
20E
  5
2CF
331
1AF
  5
231
331
190
  5
215
331
171
  5
1B4
331
124C
  5
1367
331
12C0
  5
34C
331
122D
  5
1352
331
152
  5
18C
331
10C
  5
15B
331
253
  5
314
331
234
  5
2F5
331
215
  5
2D6
331
1FE
  5
2BF
331
180
  5
205
331
161
  5
1A4
331
118A
  5
1335
331
12B0
  5
33C
331
142
  5
17C
331
11B
  5
16A
331
CD
  5
141
331
138D
  5
D5
331
2B9
  5
382
331
262
  5
323
331
243
  5
304
331
224
  5
2E5
331
20D
  5
2CE
331
1AE
  5
230
331
18F
  5
214
331
170
  5
1B3
331
124B
  5
1366
331
122C
  5
133D
331
6AF
  5
1334
331
151
  5
18B
331
10B
  5
15A
331
DC
  5
150
331
252
  5
313
331
233
  5
2F4
331
214
  5
2D5
331
1FD
  5
2BE
331
17F
  5
204
331
160
  5
1A3
331
69F
  5
1324
331
141
  5
17B
331
11A
  5
169
331
CC
  5
140
331
138C
  5
D4
331
2B8
  5
381
331
261
  5
322
331
242
  5
303
331
223
  5
2E4
331
20C
  5
2CD
331
1AD
  5
22F
331
18E
  5
213
331
16F
  5
1B2
331
124A
  5
1365
331
122B
  5
133C
331
6AE
  5
1333
331
5AF
  5
1311
331
150
  5
18A
331
10A
  5
159
331
DB
  5
14F
331
251
  5
312
331
232
  5
2F3
331
213
  5
2D4
331
1FC
  5
2BD
331
17E
  5
203
331
15F
  5
1A2
331
69E
  5
1323
331
59F
  5
1301
331
140
  5
17A
331
119
  5
168
331
CB
  5
136
331
138B
  5
DA
331
260
  5
321
331
241
  5
302
331
222
  5
2E3
331
20B
  5
2CC
331
1AC
  5
22E
331
18D
  5
212
331
16E
  5
1B1
331
1249
  5
1364
331
122A
  5
133B
331
6AD
  5
1332
331
5AE
  5
1310
331
109
  5
158
331
DA
  5
14E
331
497
  5
5A2
331
250
  5
311
331
231
  5
2F2
331
212
  5
2D3
331
1FB
  5
2BC
331
17D
  5
202
331
3A7
  5
465
331
15E
  5
1A1
331
69D
  5
1322
331
59E
  5
1300
331
118
  5
167
331
CA
  5
135
331
138A
  5
108
331
487
  5
592
331
240
  5
301
331
221
  5
2E2
331
20A
  5
2CB
331
1AB
  5
22D
331
18C
  5
211
331
397
  5
455
331
16D
  5
1B0
331
1248
  5
1363
331
1229
  5
133A
331
6AC
  5
1331
331
5AD
  5
130F
331
108
  5
157
331
D9
  5
14D
331
496
  5
5A1
331
477
  5
57C
331
230
  5
2F1
331
211
  5
2D2
331
1FA
  5
2BB
331
17C
  5
201
331
3A6
  5
464
331
15D
  5
197
331
387
  5
445
331
69C
  5
1321
331
59D
  5
12FF
331
F8
  5
153
331
C9
  5
134
331
1389
  5
107
331
486
  5
591
331
467
  5
542
331
220
  5
2E1
331
209
  5
2CA
331
1AA
  5
22C
331
18B
  5
210
331
5BD
  5
131F
331
16C
  5
1AF
331
396
  5
454
331
377
  5
435
331
1228
  5
1339
331
6AB
  5
1330
331
5AC
  5
130E
331
D8
  5
14C
331
495
  5
5A0
331
476
  5
57B
331
457
  5
52B
331
210
  5
2D1
331
1F9
  5
2BA
331
17B
  5
200
331
3A5
  5
463
331
15C
  5
196
331
386
  5
444
331
367
  5
425
331
69B
  5
1320
331
59C
  5
12FE
331
C8
  5
133
331
1388
  5
100
331
485
  5
590
331
466
  5
53B
331
447
  5
519
331
208
  5
2C9
331
1A9
  5
22B
331
18A
  5
20F
331
5BC
  5
131E
331
16B
  5
1AE
331
395
  5
453
331
376
  5
434
331
357
  5
415
331
6AA
  5
132F
331
5AB
  5
130D
331
537
  5
12CF
331
494
  5
59F
331
475
  5
57A
331
456
  5
52A
331
437
  5
509
331
17A
  5
1FF
331
3A4
  5
462
331
15B
  5
195
331
385
  5
443
331
366
  5
424
331
347
  5
405
331
59B
  5
12FD
331
584
  5
12EC
331
1387
  5
10B
331
527
  5
12C0
331
484
  5
58F
331
465
  5
53A
331
446
  5
518
331
1A8
  5
22A
331
189
  5
20E
331
5BB
  5
131D
331
16A
  5
1AD
331
394
  5
452
331
375
  5
433
331
356
  5
414
331
6A9
  5
132E
331
5AA
  5
130C
331
536
  5
12CE
331
493
  5
59E
331
474
  5
573
331
455
  5
529
331
436
  5
508
331
41F
  5
4E5
331
179
  5
1FE
331
3A3
  5
461
331
15A
  5
194
331
384
  5
442
331
365
  5
423
331
346
  5
404
331
59A
  5
12FC
331
583
  5
12EB
331
1386
  5
10A
331
526
  5
12BF
331
50F
  5
12AA
331
483
  5
58E
331
464
  5
539
331
445
  5
517
331
40F
  5
4CF
331
188
  5
20D
331
5BA
  5
131C
331
169
  5
1AC
331
393
  5
451
331
374
  5
432
331
355
  5
413
331
31F
  5
3E8
331
6A8
  5
132D
331
5A9
  5
130B
331
1395
  5
1389
331
573
  5
12E1
331
535
  5
12CD
331
4FF
  5
1251
331
492
  5
59D
331
473
  5
572
331
454
  5
528
331
435
  5
507
331
41E
  5
4E4
331
3FF
  5
4BD
331
178
  5
1FD
331
3A2
  5
460
331
159
  5
193
331
383
  5
441
331
364
  5
422
331
345
  5
403
331
30F
  5
3D8
331
599
  5
12FB
331
582
  5
12EA
331
1385
  5
109
331
563
  5
12DD
331
50E
  5
12A9
331
482
  5
58D
331
463
  5
538
331
444
  5
516
331
40E
  5
4CC
331
3EF
  5
4AD
331
5B9
  5
131B
331
168
  5
1AB
331
392
  5
450
331
373
  5
431
331
354
  5
412
331
31E
  5
3E7
331
2FF
  5
3C8
331
6A7
  5
132C
331
5A8
  5
130A
331
1394
  5
1387
331
572
  5
12E0
331
553
  5
12D9
331
534
  5
12CC
331
4FE
  5
1250
331
491
  5
59C
331
472
  5
56B
331
453
  5
527
331
434
  5
506
331
41D
  5
4E3
331
3FE
  5
4BC
331
3DF
  5
49D
331
3A1
  5
45F
331
158
  5
192
331
382
  5
440
331
363
  5
421
331
344
  5
402
331
32D
  5
3F4
331
30E
  5
3D7
331
2EF
  5
3B8
331
5B7
  5
1319
331
598
  5
12FA
331
581
  5
12E9
331
1384
  5
10C
331
562
  5
12DC
331
543
  5
12D5
331
50D
  5
12A8
331
4EE
  5
124C
331
4CF
  5
1229
331
481
  5
58C
331
462
  5
537
331
443
  5
515
331
40D
  5
4CB
331
3EE
  5
4AC
331
3CF
  5
48D
331
5B8
  5
131A
331
391
  5
44F
331
372
  5
430
331
353
  5
411
331
31D
  5
3E6
331
2FE
  5
3C7
331
2DF
  5
3A8
331
6A6
  5
132B
331
5A7
  5
1309
331
1393
  5
138C
331
552
  5
12D8
331
4DE
  5
1240
331
4BF
  5
6A7
331
490
  5
59B
331
471
  5
56A
331
452
  5
526
331
433
  5
505
331
41C
  5
4DE
331
3FD
  5
4BB
331
3DE
  5
49C
331
3BF
  5
47D
331
3A0
  5
45E
331
381
  5
43F
331
362
  5
420
331
343
  5
401
331
32C
  5
3F3
331
30D
  5
3D6
331
2EE
  5
3B7
331
2CF
  5
398
331
5B6
  5
1318
331
597
  5
12F9
331
580
  5
12E8
331
1383
  5
112
331
542
  5
12D4
331
523
  5
12BE
331
50C
  5
12A7
331
4ED
  5
124B
331
4AF
  5
5BA
331
49F
  5
5AA
331
480
  5
58B
331
461
  5
536
331
442
  5
514
331
40C
  5
4CA
331
3ED
  5
4AB
331
3CE
  5
48C
331
3AF
  5
46D
331
390
  5
44E
331
371
  5
42F
331
352
  5
410
331
31C
  5
3E5
331
2FD
  5
3C6
331
2DE
  5
3A7
331
6A5
  5
132A
331
5A6
  5
1308
331
1392
  5
138B
331
58F
  5
12F1
331
532
  5
12CB
331
4DD
  5
123F
331
4BE
  5
6A6
331
48F
  5
59A
331
470
  5
563
331
451
  5
523
331
432
  5
504
331
41B
  5
4DD
331
3FC
  5
4BA
331
3DD
  5
49B
331
3BE
  5
47C
331
39F
  5
45D
331
380
  5
43E
331
361
  5
41F
331
342
  5
400
331
32B
  5
3F2
331
30C
  5
3D5
331
2ED
  5
3B6
331
2CE
  5
397
331
1377
  5
11D
331
5B5
  5
1317
331
596
  5
12F8
331
57F
  5
12E7
331
1382
  5
111
331
522
  5
12BD
331
50B
  5
12A6
331
4EC
  5
124A
331
4AE
  5
5B9
331
49E
  5
5A9
331
47F
  5
584
331
460
  5
535
331
441
  5
513
331
40B
  5
4C9
331
3EC
  5
4AA
331
3CD
  5
48B
331
3AE
  5
46C
331
38F
  5
44D
331
370
  5
42E
331
351
  5
40F
331
31B
  5
3E4
331
2FC
  5
3C5
331
2DD
  5
3A6
331
1367
  5
137A
331
6A4
  5
1329
331
5A5
  5
1307
331
58E
  5
12F0
331
1391
  5
D0
331
531
  5
12CA
331
4DC
  5
1236
331
4BD
  5
6A5
331
48E
  5
599
331
46F
  5
562
331
450
  5
522
331
431
  5
503
331
41A
  5
4DC
331
3FB
  5
4B9
331
3DC
  5
49A
331
3BD
  5
47B
331
39E
  5
45C
331
37F
  5
43D
331
360
  5
41E
331
341
  5
3FF
331
30B
  5
3D4
331
2EC
  5
3B5
331
2CD
  5
396
331
1357
  5
138E
331
1376
  5
132
331
5B4
  5
1316
331
595
  5
12F7
331
57E
  5
12E6
331
1381
  5
110
331
521
  5
12BC
331
50A
  5
12A5
331
4EB
  5
1249
331
4CC
  5
1228
331
4AD
  5
5B8
331
49D
  5
5A8
331
47E
  5
583
331
45F
  5
534
331
440
  5
512
331
40A
  5
4C8
331
3EB
  5
4A9
331
3CC
  5
48A
331
3AD
  5
46B
331
38E
  5
44C
331
36F
  5
42D
331
350
  5
40E
331
31A
  5
3E3
331
2FB
  5
3C4
331
2DC
  5
3A5
331
1366
  5
137D
331
1347
  5
DC
331
6A3
  5
1328
331
5A4
  5
1306
331
58D
  5
12EF
331
1390
  5
CF
331
530
  5
12C9
331
4DB
  5
1234
331
4BC
  5
6A4
331
48D
  5
598
331
46E
  5
55B
331
44F
  5
521
331
430
  5
502
331
419
  5
4DB
331
3FA
  5
4B8
331
3DB
  5
499
331
3BC
  5
47A
331
39D
  5
45B
331
37E
  5
43C
331
35F
  5
41D
331
340
  5
3FE
331
30A
  5
3D3
331
2EB
  5
3B4
331
2CC
  5
395
331
1356
  5
1391
331
1375
  5
1370
331
1337
  5
177
331
5B3
  5
1315
331
594
  5
12F6
331
57D
  5
12E5
331
1380
  5
115
331
520
  5
12BB
331
509
  5
12A4
331
4EA
  5
1248
331
4CB
  5
1227
331
4AC
  5
5B7
331
49C
  5
5A7
331
47D
  5
582
331
45E
  5
532
331
43F
  5
511
331
409
  5
4C7
331
3EA
  5
4A8
331
3CB
  5
489
331
3AC
  5
46A
331
38D
  5
44B
331
36E
  5
42C
331
34F
  5
40D
331
319
  5
3E2
331
2FA
  5
3C3
331
2DB
  5
3A4
331
1365
  5
1380
331
1327
  5
2B3
331
1346
  5
DB
331
6A2
  5
1327
331
5A3
  5
1305
331
58C
  5
12EE
331
52F
  5
12C8
331
4DA
  5
1233
331
4BB
  5
6A3
331
48C
  5
597
331
46D
  5
55A
331
44E
  5
520
331
42F
  5
501
331
418
  5
4DA
331
3F9
  5
4B7
331
3DA
  5
498
331
3BB
  5
479
331
39C
  5
45A
331
37D
  5
43B
331
35E
  5
41C
331
33F
  5
3FD
331
328
  5
3F1
331
309
  5
3D2
331
2EA
  5
3B3
331
2CB
  5
394
331
1355
  5
1394
331
1374
  5
136F
331
1317
  5
261
331
1336
  5
176
331
5B2
  5
1314
331
593
  5
12F5
331
57C
  5
12E4
331
51F
  5
12BA
331
508
  5
12A3
331
4E9
  5
1247
331
4CA
  5
118C
331
4AB
  5
5B6
331
49B
  5
5A6
331
47C
  5
581
331
45D
  5
531
331
43E
  5
510
331
427
  5
4ED
331
408
  5
4C6
331
3E9
  5
4A7
331
3CA
  5
488
331
3AB
  5
469
331
38C
  5
44A
331
36D
  5
42B
331
34E
  5
40C
331
318
  5
3E1
331
2F9
  5
3C2
331
2DA
  5
3A3
331
1364
  5
137F
331
1326
  5
2B2
331
6A1
  5
1326
331
5A2
  5
1304
331
58B
  5
12ED
331
52E
  5
12C7
331
517
  5
12B2
331
4F8
  5
124F
331
4D9
  5
1231
331
4BA
  5
6A2
331
48B
  5
596
331
46C
  5
553
331
44D
  5
51F
331
42E
  5
500
331
417
  5
4D9
331
3F8
  5
4B6
331
3D9
  5
497
331
3BA
  5
478
331
39B
  5
459
331
37C
  5
43A
331
35D
  5
41B
331
33E
  5
3FC
331
327
  5
3F0
331
308
  5
3D1
331
2E9
  5
3B2
331
2CA
  5
393
331
1354
  5
1393
331
1373
  5
136E
331
1316
  5
260
331
1335
  5
175
331
12FF
  5
249
331
5B1
  5
1313
331
592
  5
12F4
331
57B
  5
12E3
331
51E
  5
12B9
331
507
  5
12A2
331
4E8
  5
1246
331
4C9
  5
118B
331
4AA
  5
5B5
331
49A
  5
5A5
331
47B
  5
580
331
45C
  5
530
331
43D
  5
50F
331
426
  5
4EC
331
407
  5
4C5
331
3E8
  5
4A6
331
3C9
  5
487
331
3AA
  5
468
331
38B
  5
449
331
36C
  5
42A
331
34D
  5
40B
331
317
  5
3E0
331
2F8
  5
3C1
331
2D9
  5
3A2
331
1363
  5
137E
331
1325
  5
26F
331
12EF
  5
239
331
6A0
  5
1325
331
5A1
  5
1303
331
56B
  5
12DF
331
52D
  5
12C6
331
516
  5
12B1
331
4D8
  5
1230
331
4B9
  5
6A1
331
48A
  5
595
331
46B
  5
552
331
44C
  5
51E
331
42D
  5
4FF
331
416
  5
4D8
331
3F7
  5
4B5
331
3D8
  5
496
331
3B9
  5
477
331
39A
  5
458
331
37B
  5
439
331
35C
  5
41A
331
33D
  5
3FB
331
326
  5
3EF
331
307
  5
3D0
331
2E8
  5
3B1
331
2C9
  5
392
331
1353
  5
1392
331
1372
  5
1371
331
1315
  5
25F
331
1334
  5
174
331
12DF
  5
36B
331
12FE
  5
248
331
5B0
  5
1312
331
591
  5
12F3
331
57A
  5
12E2
331
55B
  5
12DB
331
51D
  5
12B8
331
506
  5
12A1
331
4E7
  5
1245
331
4C8
  5
118A
331
4A9
  5
5B4
331
499
  5
5A4
331
47A
  5
57F
331
45B
  5
52F
331
43C
  5
50E
331
425
  5
4EB
331
406
  5
4C4
331
3E7
  5
4A5
331
3C8
  5
486
331
3A9
  5
467
331
38A
  5
448
331
36B
  5
429
331
34C
  5
40A
331
316
  5
3DF
331
2F7
  5
3C0
331
2D8
  5
3A1
331
1362
  5
1381
331
12EE
  5
37A
331
1324
  5
26E
331
12CF
  5
35B
331
5A0
  5
1302
331
56A
  5
12DE
331
54B
  5
12D7
331
52C
  5
12C5
331
515
  5
12B0
331
4D7
  5
122F
331
4B8
  5
6A0
331
489
  5
594
331
46A
  5
54B
331
44B
  5
51D
331
42C
  5
4FE
331
415
  5
4D7
331
3F6
  5
4B4
331
3D7
  5
495
331
3B8
  5
476
331
399
  5
457
331
37A
  5
438
331
35B
  5
419
331
33C
  5
3FA
331
325
  5
3EE
331
306
  5
3CF
331
2E7
  5
3B0
331
2C8
  5
391
331
1352
  5
1395
331
1371
  5
1374
331
1314
  5
25E
331
1333
  5
222
331
12DE
  5
36A
331
12FD
  5
247
331
12BF
  5
34B
331
590
  5
12F2
331
55A
  5
12DA
331
53B
  5
12D3
331
51C
  5
12B7
331
505
  5
12A0
331
4E6
  5
1244
331
4C7
  5
6AF
331
4A8
  5
5B3
331
498
  5
5A3
331
479
  5
57E
331
45A
  5
52E
331
43B
  5
50D
331
424
  5
4EA
331
405
  5
4C3
331
3E6
  5
4A4
331
3C7
  5
485
331
3A8
  5
466
331
389
  5
447
331
36A
  5
428
331
34B
  5
409
331
315
  5
3DE
331
2F6
  5
3BF
331
2D7
  5
3A0
331
1361
  5
1384
331
12ED
  5
379
331
1323
  5
26D
331
1342
  5
10F
331
12CE
  5
35A
331
54A
  5
12D6
331
52B
  5
12C4
331
514
  5
12AF
331
4D6
  5
122E
331
4B7
  5
69F
331
488
  5
593
331
469
  5
54A
331
44A
  5
51C
331
42B
  5
4F8
331
414
  5
4D6
331
3F5
  5
4B3
331
3D6
  5
494
331
3B7
  5
475
331
398
  5
456
331
379
  5
437
331
35A
  5
418
331
33B
  5
3F9
331
324
  5
3ED
331
305
  5
3CE
331
2E6
  5
3AF
331
2C7
  5
390
331
1370
  5
1373
331
1313
  5
25D
331
1332
  5
221
331
12DD
  5
369
331
12FC
  5
246
331
12BE
  5
34A
331
53A
  5
12D2
331
51B
  5
12B6
331
504
  5
129F
331
4E5
  5
1243
331
4C6
  5
6AE
331
4A7
  5
5B2
331
478
  5
57D
331
459
  5
52D
331
43A
  5
50C
331
423
  5
4E9
331
404
  5
4C2
331
3E5
  5
4A3
331
3C6
  5
484
331
388
  5
446
331
369
  5
427
331
34A
  5
408
331
314
  5
3DD
331
2F5
  5
3BE
331
2D6
  5
39F
331
1360
  5
1383
331
137F
  5
114
331
12EC
  5
378
331
1322
  5
26C
331
1341
  5
10E
331
12CD
  5
359
331
52A
  5
12C3
331
513
  5
12AE
331
4D5
  5
122D
331
4B6
  5
69E
331
468
  5
543
331
449
  5
51B
331
42A
  5
4F2
331
413
  5
4D5
331
3F4
  5
4B2
331
3D5
  5
493
331
3B6
  5
474
331
2B7
  5
380
331
378
  5
436
331
359
  5
417
331
33A
  5
3F8
331
323
  5
3EC
331
304
  5
3CD
331
2E5
  5
3AE
331
2C6
  5
38F
331
136F
  5
1372
331
1312
  5
25C
331
1331
  5
220
331
12DC
  5
368
331
12FB
  5
245
331
12BD
  5
349
331
14F
  5
189
331
539
  5
12D1
331
51A
  5
12B5
331
503
  5
129E
331
4E4
  5
1242
331
4C5
  5
6AD
331
4A6
  5
5B1
331
458
  5
52C
331
439
  5
50B
331
422
  5
4E8
331
403
  5
4C1
331
3E4
  5
4A2
331
3C5
  5
483
331
26F
  5
33B
331
368
  5
426
331
349
  5
407
331
313
  5
3DC
331
2F4
  5
3BD
331
2D5
  5
39E
331
135F
  5
1382
331
137E
  5
113
331
12EB
  5
377
331
1321
  5
26B
331
1340
  5
10D
331
12CC
  5
358
331
529
  5
12C2
331
512
  5
12AD
331
4D4
  5
122C
331
4B5
  5
69D
331
448
  5
51A
331
429
  5
4F0
331
412
  5
4D4
331
3F3
  5
4B1
331
3D4
  5
492
331
3B5
  5
473
331
2B6
  5
37F
331
25F
  5
320
331
358
  5
416
331
339
  5
3F7
331
322
  5
3EB
331
303
  5
3CC
331
2E4
  5
3AD
331
2C5
  5
38E
331
136E
  5
1375
331
1311
  5
25B
331
12DB
  5
367
331
12FA
  5
244
331
12BC
  5
348
331
1330
  5
21F
331
14E
  5
188
331
538
  5
12D0
331
519
  5
12B4
331
502
  5
129D
331
4E3
  5
1241
331
4C4
  5
6AC
331
4A5
  5
5B0
331
438
  5
50A
331
421
  5
4E7
331
402
  5
4C0
331
3E3
  5
4A1
331
3C4
  5
482
331
26E
  5
33A
331
24F
  5
310
331
348
  5
406
331
312
  5
3DB
331
2F3
  5
3BC
331
2D4
  5
39D
331
135E
  5
1385
331
137D
  5
116
331
12EA
  5
376
331
1320
  5
26A
331
12CB
  5
357
331
136
  5
173
331
117
  5
166
331
528
  5
12C1
331
511
  5
12AC
331
4F2
  5
124E
331
4D3
  5
122B
331
4B4
  5
69C
331
428
  5
4EE
331
411
  5
4D3
331
3F2
  5
4B0
331
3D3
  5
491
331
3B4
  5
472
331
2B5
  5
37E
331
25E
  5
31F
331
23F
  5
300
331
338
  5
3F6
331
321
  5
3EA
331
302
  5
3CB
331
2E3
  5
3AC
331
2C4
  5
38D
331
136D
  5
1378
331
1310
  5
25A
331
132F
  5
21E
331
12DA
  5
366
331
12F9
  5
243
331
1247
  5
1362
331
12BB
  5
347
331
134E
  5
CA
331
14D
  5
187
331
107
  5
156
331
518
  5
12B3
331
501
  5
129C
331
4C3
  5
6AB
331
4A4
  5
5AF
331
420
  5
4E6
331
401
  5
4BF
331
3E2
  5
4A0
331
3C3
  5
481
331
26D
  5
339
331
24E
  5
30F
331
22F
  5
2F0
331
330
  5
3F5
331
311
  5
3DA
331
2F2
  5
3BB
331
2D3
  5
39C
331
137C
  5
11C
331
12E9
  5
375
331
131F
  5
269
331
12CA
  5
356
331
135
  5
172
331
116
  5
165
331
F7
  5
152
331
510
  5
12AB
331
4B3
  5
69B
331
410
  5
4D1
331
3F1
  5
4AF
331
3D2
  5
490
331
3B3
  5
471
331
2B4
  5
37D
331
25D
  5
31E
331
23E
  5
2FF
331
21F
  5
2E0
331
320
  5
3E9
331
301
  5
3CA
331
2E2
  5
3AB
331
2C3
  5
38C
331
136C
  5
1377
331
130F
  5
259
331
132E
  5
21D
331
12D9
  5
365
331
12F8
  5
242
331
1246
  5
1361
331
12BA
  5
346
331
1227
  5
1338
331
134D
  5
C9
331
14C
  5
186
331
D7
  5
14B
331
500
  5
1252
331
4C2
  5
6AA
331
4A3
  5
5AE
331
400
  5
4BE
331
3E1
  5
49F
331
3C2
  5
480
331
26C
  5
338
331
24D
  5
30E
331
22E
  5
2EF
331
310
  5
3D9
331
2F1
  5
3BA
331
2D2
  5
39B
331
135C
  5
138A
331
137B
  5
11B
331
131E
  5
268
331
12E8
  5
374
331
1307
  5
251
331
1236
  5
1359
331
12C9
  5
355
331
134
  5
171
331
115
  5
164
331
F6
  5
151
331
4F0
  5
124D
331
4D1
  5
122A
331
4B2
  5
5BD
331
3F0
  5
4AE
331
3D1
  5
48F
331
3B2
  5
470
331
2B3
  5
37C
331
25C
  5
31D
331
23D
  5
2FE
331
21E
  5
2DF
331
207
  5
2C8
331
300
  5
3C9
331
2E1
  5
3AA
331
2C2
  5
38B
331
136B
  5
1376
331
132D
  5
2B9
331
130E
  5
258
331
12D8
  5
364
331
12F7
  5
241
331
1245
  5
1360
331
12B9
  5
345
331
134C
  5
C8
331
14B
  5
185
331
D6
  5
14A
331
4C1
  5
6A9
331
4A2
  5
5AD
331
3E0
  5
49E
331
3C1
  5
47F
331
26B
  5
330
331
24C
  5
30D
331
22D
  5
2EE
331
2F0
  5
3B9
331
2D1
  5
39A
331
137A
  5
11A
331
131D
  5
267
331
133C
  5
119
331
12E7
  5
373
331
1306
  5
250
331
12C8
  5
354
331
133
  5
170
331
114
  5
163
331
4B1
  5
5BC
331
3D0
  5
48E
331
3B1
  5
46F
331
2B2
  5
37B
331
25B
  5
31C
331
23C
  5
2FD
331
21D
  5
2DE
331
206
  5
2C7
331
1A7
  5
229
331
2E0
  5
3A9
331
2C1
  5
38A
331
136A
  5
1379
331
132C
  5
2B8
331
130D
  5
257
331
12D7
  5
363
331
12F6
  5
240
331
1244
  5
135F
331
12B8
  5
344
331
14A
  5
184
331
D5
  5
149
331
4C0
  5
6A8
331
4A1
  5
5AC
331
3C0
  5
47E
331
26A
  5
32D
331
24B
  5
30C
331
22C
  5
2ED
331
1B6
  5
238
331
197
  5
21C
331
2D0
  5
399
331
135A
  5
138D
331
1379
  5
131
331
131C
  5
266
331
133B
  5
118
331
12E6
  5
372
331
1305
  5
24F
331
1234
  5
1358
331
12C7
  5
353
331
132
  5
16F
331
113
  5
162
331
4B0
  5
5BB
331
3B0
  5
46E
331
25A
  5
31B
331
23B
  5
2FC
331
21C
  5
2DD
331
205
  5
2C6
331
1A6
  5
228
331
187
  5
20C
331
2C0
  5
389
331
1369
  5
137C
331
132B
  5
2B7
331
130C
  5
256
331
12D6
  5
362
331
12F5
  5
23F
331
1243
  5
135E
331
12B7
  5
343
331
149
  5
183
331
D4
  5
148
331
4A0
  5
5AB
331
269
  5
32C
331
24A
  5
30B
331
22B
  5
2EC
331
1B5
  5
237
331
196
  5
21B
331
177
  5
1FC
331
1359
  5
1390
331
1378
  5
130
331
131B
  5
265
331
133A
  5
117
331
12E5
  5
371
331
1304
  5
24E
331
1252
  5
136D
331
12C6
  5
352
331
1233
  5
1357
331
131
  5
16E
331
112
  5
161
331
259
  5
31A
331
23A
  5
2FB
331
21B
  5
2DC
331
204
  5
2C5
331
1A5
  5
227
331
186
  5
20B
331
167
  5
1AA
331
1368
  5
137B
331
132A
  5
2B6
331
130B
  5
255
331
12D5
  5
361
331
12F4
  5
23E
331
1242
  5
135D
331
12B6
  5
342
331
148
  5
182
331
D3
  5
147
331
2BF
  5
388
331
268
  5
32B
331
249
  5
30A
331
22A
  5
2EB
331
1B4
  5
236
331
195
  5
21A
331
176
  5
1FB
331
1358
  5
138F
331
131A
  5
264
331
1339
  5
179
331
12E4
  5
370
331
1303
  5
24D
331
1251
  5
136C
331
12C5
  5
351
331
157
  5
191
331
130
  5
16D
331
111
  5
160
331
258
  5
319
331
239
  5
2FA
331
21A
  5
2DB
331
203
  5
2C4
331
1A4
  5
226
331
185
  5
20A
331
166
  5
1A9
331
1329
  5
2B5
331
1348
  5
FF
331
130A
  5
254
331
12D4
  5
360
331
12F3
  5
23D
331
1241
  5
135C
331
12B5
  5
341
331
147
  5
181
331
D2
  5
146
331
2BE
  5
387
331
267
  5
328
331
248
  5
309
331
229
  5
2EA
331
1B3
  5
235
331
194
  5
219
331
175
  5
1FA
331
1319
  5
263
331
1338
  5
178
331
12E3
  5
36F
331
1302
  5
24C
331
1250
  5
136B
331
12C4
  5
350
331
1231
  5
1356
331
156
  5
190
331
110
  5
15F
331
257
  5
318
331
238
  5
2F9
331
219
  5
2DA
331
202
  5
2C3
331
1A3
  5
225
331
184
  5
209
331
165
  5
1A8
331
1328
  5
2B4
331
1309
  5
253
331
12D3
  5
35F
331
12F2
  5
23C
331
1240
  5
135B
331
12B4
  5
340
331
146
  5
180
331
100
  5
155
331
D1
  5
145
331
2BD
  5
386
331
266
  5
327
331
247
  5
308
331
228
  5
2E9
331
1B2
  5
234
331
193
  5
218
331
174
  5
1F9
331
1318
  5
262
331
12E2
  5
36E
331
1301
  5
24B
331
124F
  5
136A
331
12C3
  5
34F
331
1230
  5
1355
331
155
  5
18F
331
10F
  5
15E
331
256
  5
317
331
237
  5
2F8
331
218
  5
2D9
331
201
  5
2C2
331
1A2
  5
224
331
183
  5
208
331
164
  5
1A7
331
1308
  5
252
331
12D2
  5
35E
331
12F1
  5
23B
331
123F
  5
135A
331
12B3
  5
33F
331
145
  5
17F
331
FF
  5
154
331
D0
  5
144
331
2BC
  5
385
331
265
  5
326
331
246
  5
307
331
227
  5
2E8
331
1B1
  5
233
331
192
  5
217
331
173
  5
1B6
331
12E1
  5
36D
331
1300
  5
24A
331
124E
  5
1369
331
12C2
  5
34E
331
122F
  5
1354
331
154
  5
18E
331
10E
  5
15D
331
255
  5
316
331
236
  5
2F7
331
217
  5
2D8
331
200
  5
2C1
331
1A1
  5
223
331
182
  5
207
331
163
  5
1A6
331
118C
  5
1337
331
12D1
  5
35D
331
12F0
  5
23A
331
12B2
  5
33E
331
144
  5
17E
331
11D
  5
16C
331
CF
  5
143
331
138F
  5
CE
331
2BB
  5
384
331
264
  5
325
331
245
  5
306
331
226
  5
2E7
331
20F
  5
2D0
331
1B0
  5
232
331
191
  5
216
331
172
  5
1B5
331
12E0
  5
36C
331
124D
  5
1368
331
12C1
  5
34D
331
122E
  5
1353
331
153
  5
18D
331
10D
  5
15C
  0
XRECORD
  5
139B
102
{ACAD_REACTORS
330
1399
102
}
330
1399
100
AcDbXrecord
280
     1
 70
     2
  0
XRECORD
  5
139A
102
{ACAD_REACTORS
330
1399
102
}
330
1399
100
AcDbXrecord
280
     1
 40
1.25
  0
XRECORD
  5
139C
102
{ACAD_REACTORS
330
1399
102
}
330
1399
100
AcDbXrecord
280
     1
 40
1.570796326794896
  0
LAYOUT
  5
6E
102
{ACAD_XDICTIONARY
360
13D0
102
}
102
{ACAD_REACTORS
330
61
102
}
330
61
100
AcDbPlotSettings
  1

  2
FX DP 205
  4

  6

 40
0.0
 41
0.0
 42
0.0
 43
0.0
 44
0.0
 45
0.0
 46
0.0
 47
0.0
 48
0.0
 49
0.0
140
0.0
141
0.0
142
1.0
143
1.0
 70
  1712
 72
     0
 73
     0
 74
     0
  7

 75
     0
147
1.0
148
0.0
149
0.0
100
AcDbLayout
  1
Model
 70
     1
 71
     0
 10
0.0
 20
0.0
 11
12.0
 21
9.0
 12
0.0
 22
0.0
 32
0.0
 14
0.0
 24
0.0
 34
0.0
 15
0.0
 25
0.0
 35
0.0
146
0.0
 13
0.0
 23
0.0
 33
0.0
 16
1.0
 26
0.0
 36
0.0
 17
0.0
 27
1.0
 37
0.0
 76
     0
330
6B
331
8B
  0
LAYOUT
  5
6A
102
{ACAD_XDICTIONARY
360
13CE
102
}
102
{ACAD_REACTORS
330
61
102
}
330
61
100
AcDbPlotSettings
  1

  2
FX DP 205
  4

  6

 40
0.0
 41
0.0
 42
0.0
 43
0.0
 44
0.0
 45
0.0
 46
0.0
 47
0.0
 48
0.0
 49
0.0
140
0.0
141
0.0
142
1.0
143
1.0
 70
   688
 72
     0
 73
     0
 74
     5
  7

 75
    16
147
1.0
148
0.0
149
0.0
100
AcDbLayout
  1
レイアウト1
 70
     1
 71
     1
 10
0.0
 20
0.0
 11
12.0
 21
9.0
 12
0.0
 22
0.0
 32
0.0
 14
1.000000000000000E+20
 24
1.000000000000000E+20
 34
1.000000000000000E+20
 15
-1.000000000000000E+20
 25
-1.000000000000000E+20
 35
-1.000000000000000E+20
146
0.0
 13
0.0
 23
0.0
 33
0.0
 16
1.0
 26
0.0
 36
0.0
 17
0.0
 27
1.0
 37
0.0
 76
     0
330
67
  0
MATERIAL
  5
19
102
{ACAD_XDICTIONARY
360
1A
102
}
102
{ACAD_REACTORS
330
10
102
}
330
10
100
AcDbMaterial
  1
ByBlock
 72
     0
 43
0.0208333333333333
 43
0.0
 43
0.0
 43
0.0
 43
0.0
 43
0.0208333333333333
 43
0.0
 43
0.0
 43
0.0
 43
0.0
 43
1.0
 43
0.0
 43
0.0
 43
0.0
 43
0.0
 43
1.0
 77
     0
 47
0.0208333333333333
 47
0.0
 47
0.0
 47
0.0
 47
0.0
 47
0.0208333333333333
 47
0.0
 47
0.0
 47
0.0
 47
0.0
 47
1.0
 47
0.0
 47
0.0
 47
0.0
 47
0.0
 47
1.0
171
     0
 49
0.0208333333333333
 49
0.0
 49
0.0
 49
0.0
 49
0.0
 49
0.0208333333333333
 49
0.0
 49
0.0
 49
0.0
 49
0.0
 49
1.0
 49
0.0
 49
0.0
 49
0.0
 49
0.0
 49
1.0
175
     0
142
0.0208333333333333
142
0.0
142
0.0
142
0.0
142
0.0
142
0.0208333333333333
142
0.0
142
0.0
142
0.0
142
0.0
142
1.0
142
0.0
142
0.0
142
0.0
142
0.0
142
1.0
179
     0
144
0.0208333333333333
144
0.0
144
0.0
144
0.0
144
0.0
144
0.0208333333333333
144
0.0
144
0.0
144
0.0
144
0.0
144
1.0
144
0.0
144
0.0
144
0.0
144
0.0
144
1.0
147
0.0208333333333333
147
0.0
147
0.0
147
0.0
147
0.0
147
0.0208333333333333
147
0.0
147
0.0
147
0.0
147
0.0
147
1.0
147
0.0
147
0.0
147
0.0
147
0.0
147
1.0
  0
MATERIAL
  5
11
102
{ACAD_XDICTIONARY
360
12
102
}
102
{ACAD_REACTORS
330
10
102
}
330
10
100
AcDbMaterial
  1
ByLayer
 72
     0
 43
0.0208333333333333
 43
0.0
 43
0.0
 43
0.0
 43
0.0
 43
0.0208333333333333
 43
0.0
 43
0.0
 43
0.0
 43
0.0
 43
1.0
 43
0.0
 43
0.0
 43
0.0
 43
0.0
 43
1.0
 77
     0
 47
0.0208333333333333
 47
0.0
 47
0.0
 47
0.0
 47
0.0
 47
0.0208333333333333
 47
0.0
 47
0.0
 47
0.0
 47
0.0
 47
1.0
 47
0.0
 47
0.0
 47
0.0
 47
0.0
 47
1.0
171
     0
 49
0.0208333333333333
 49
0.0
 49
0.0
 49
0.0
 49
0.0
 49
0.0208333333333333
 49
0.0
 49
0.0
 49
0.0
 49
0.0
 49
1.0
 49
0.0
 49
0.0
 49
0.0
 49
0.0
 49
1.0
175
     0
142
0.0208333333333333
142
0.0
142
0.0
142
0.0
142
0.0
142
0.0208333333333333
142
0.0
142
0.0
142
0.0
142
0.0
142
1.0
142
0.0
142
0.0
142
0.0
142
0.0
142
1.0
179
     0
144
0.0208333333333333
144
0.0
144
0.0
144
0.0
144
0.0
144
0.0208333333333333
144
0.0
144
0.0
144
0.0
144
0.0
144
1.0
144
0.0
144
0.0
144
0.0
144
0.0
144
1.0
147
0.0208333333333333
147
0.0
147
0.0
147
0.0
147
0.0
147
0.0208333333333333
147
0.0
147
0.0
147
0.0
147
0.0
147
1.0
147
0.0
147
0.0
147
0.0
147
0.0
147
1.0
  0
MATERIAL
  5
21
102
{ACAD_XDICTIONARY
360
22
102
}
102
{ACAD_REACTORS
330
10
102
}
330
10
100
AcDbMaterial
  1
Global
 72
     0
 43
0.0208333333333333
 43
0.0
 43
0.0
 43
0.0
 43
0.0
 43
0.0208333333333333
 43
0.0
 43
0.0
 43
0.0
 43
0.0
 43
1.0
 43
0.0
 43
0.0
 43
0.0
 43
0.0
 43
1.0
 77
     0
 47
0.0208333333333333
 47
0.0
 47
0.0
 47
0.0
 47
0.0
 47
0.0208333333333333
 47
0.0
 47
0.0
 47
0.0
 47
0.0
 47
1.0
 47
0.0
 47
0.0
 47
0.0
 47
0.0
 47
1.0
171
     0
 49
0.0208333333333333
 49
0.0
 49
0.0
 49
0.0
 49
0.0
 49
0.0208333333333333
 49
0.0
 49
0.0
 49
0.0
 49
0.0
 49
1.0
 49
0.0
 49
0.0
 49
0.0
 49
0.0
 49
1.0
175
     0
142
0.0208333333333333
142
0.0
142
0.0
142
0.0
142
0.0
142
0.0208333333333333
142
0.0
142
0.0
142
0.0
142
0.0
142
1.0
142
0.0
142
0.0
142
0.0
142
0.0
142
1.0
179
     0
144
0.0208333333333333
144
0.0
144
0.0
144
0.0
144
0.0
144
0.0208333333333333
144
0.0
144
0.0
144
0.0
144
0.0
144
1.0
144
0.0
144
0.0
144
0.0
144
0.0
144
1.0
147
0.0208333333333333
147
0.0
147
0.0
147
0.0
147
0.0
147
0.0208333333333333
147
0.0
147
0.0
147
0.0
147
0.0
147
1.0
147
0.0
147
0.0
147
0.0
147
0.0
147
1.0
  0
MLEADERSTYLE
  5
66
102
{ACAD_REACTORS
330
65
102
}
330
65
100
AcDbMLeaderStyle
170
     2
171
     1
172
     0
 90
        2
 40
0.0
 41
0.0
173
     1
 91
-1056964608
340
5A
 92
       -2
290
     1
 42
0.09
291
     1
 43
0.36
  3
Standard
 44
0.18
300

342
55
174
     1
178
     6
175
     1
176
     0
 93
-1056964608
 45
0.18
292
     0
297
     0
 46
0.18
 94
-1056964608
 47
1.0
 49
1.0
140
1.0
293
     1
141
0.0
294
     1
177
     0
142
1.0
295
     0
296
     0
143
0.125
1001
ACAD_MLEADERVER
1070
     2
  0
MLINESTYLE
  5
5F
102
{ACAD_REACTORS
330
5E
102
}
330
5E
100
AcDbMlineStyle
  2
STANDARD
 70
     0
  3

 62
   256
 51
90.0
 52
90.0
 71
     2
 49
0.5
 62
   256
  6
BYLAYER
 49
-0.5
 62
   256
  6
BYLAYER
  0
ACDBPLACEHOLDER
  5
F
102
{ACAD_REACTORS
330
E
102
}
330
E
  0
SCALE
  5
43
102
{ACAD_REACTORS
330
42
102
}
330
42
100
AcDbScale
 70
     0
300
1:1
140
1.0
141
1.0
290
     1
  0
SCALE
  5
44
102
{ACAD_REACTORS
330
42
102
}
330
42
100
AcDbScale
 70
     0
300
1/128" = 1'-0"
140
0.0078125
141
12.0
290
     0
  0
SCALE
  5
45
102
{ACAD_REACTORS
330
42
102
}
330
42
100
AcDbScale
 70
     0
300
1/64" = 1'-0"
140
0.015625
141
12.0
290
     0
  0
SCALE
  5
46
102
{ACAD_REACTORS
330
42
102
}
330
42
100
AcDbScale
 70
     0
300
1/32" = 1'-0"
140
0.03125
141
12.0
290
     0
  0
SCALE
  5
47
102
{ACAD_REACTORS
330
42
102
}
330
42
100
AcDbScale
 70
     0
300
1/16" = 1'-0"
140
0.0625
141
12.0
290
     0
  0
SCALE
  5
48
102
{ACAD_REACTORS
330
42
102
}
330
42
100
AcDbScale
 70
     0
300
3/32" = 1'-0"
140
0.09375
141
12.0
290
     0
  0
SCALE
  5
49
102
{ACAD_REACTORS
330
42
102
}
330
42
100
AcDbScale
 70
     0
300
1/8" = 1'-0"
140
0.125
141
12.0
290
     0
  0
SCALE
  5
4A
102
{ACAD_REACTORS
330
42
102
}
330
42
100
AcDbScale
 70
     0
300
3/16" = 1'-0"
140
0.1875
141
12.0
290
     0
  0
SCALE
  5
4B
102
{ACAD_REACTORS
330
42
102
}
330
42
100
AcDbScale
 70
     0
300
1/4" = 1'-0"
140
0.25
141
12.0
290
     0
  0
SCALE
  5
4C
102
{ACAD_REACTORS
330
42
102
}
330
42
100
AcDbScale
 70
     0
300
3/8" = 1'-0"
140
0.375
141
12.0
290
     0
  0
SCALE
  5
4D
102
{ACAD_REACTORS
330
42
102
}
330
42
100
AcDbScale
 70
     0
300
1/2" = 1'-0"
140
0.5
141
12.0
290
     0
  0
SCALE
  5
4E
102
{ACAD_REACTORS
330
42
102
}
330
42
100
AcDbScale
 70
     0
300
3/4" = 1'-0"
140
0.75
141
12.0
290
     0
  0
SCALE
  5
4F
102
{ACAD_REACTORS
330
42
102
}
330
42
100
AcDbScale
 70
     0
300
1" = 1'-0"
140
1.0
141
12.0
290
     0
  0
SCALE
  5
50
102
{ACAD_REACTORS
330
42
102
}
330
42
100
AcDbScale
 70
     0
300
1-1/2" = 1'-0"
140
1.5
141
12.0
290
     0
  0
SCALE
  5
51
102
{ACAD_REACTORS
330
42
102
}
330
42
100
AcDbScale
 70
     0
300
3" = 1'-0"
140
3.0
141
12.0
290
     0
  0
SCALE
  5
52
102
{ACAD_REACTORS
330
42
102
}
330
42
100
AcDbScale
 70
     0
300
6" = 1'-0"
140
6.0
141
12.0
290
     0
  0
SCALE
  5
53
102
{ACAD_REACTORS
330
42
102
}
330
42
100
AcDbScale
 70
     0
300
1'-0" = 1'-0"
140
12.0
141
12.0
290
     0
  0
TABLESTYLE
  5
64
102
{ACAD_XDICTIONARY
360
86A
102
}
102
{ACAD_REACTORS
330
63
102
}
330
63
100
AcDbTableStyle
  3
Standard
 70
     0
 71
     0
 40
0.06
 41
0.06
280
     0
281
     0
  7
STANDARD
140
0.18
170
     2
 62
     0
 63
     7
283
     0
274
    -2
284
     1
 64
     0
275
    -2
285
     1
 65
     0
276
    -2
286
     1
 66
     0
277
    -2
287
     1
 67
     0
278
    -2
288
     1
 68
     0
279
    -2
289
     1
 69
     0
  7
STANDARD
140
0.25
170
     5
 62
     0
 63
     7
283
     0
274
    -2
284
     1
 64
     0
275
    -2
285
     1
 65
     0
276
    -2
286
     1
 66
     0
277
    -2
287
     1
 67
     0
278
    -2
288
     1
 68
     0
279
    -2
289
     1
 69
     0
  7
STANDARD
140
0.18
170
     5
 62
     0
 63
     7
283
     0
274
    -2
284
     1
 64
     0
275
    -2
285
     1
 65
     0
276
    -2
286
     1
 66
     0
277
    -2
287
     1
 67
     0
278
    -2
288
     1
 68
     0
279
    -2
289
     1
 69
     0
  0
VISUALSTYLE
  5
2F
102
{ACAD_XDICTIONARY
360
13A7
102
}
102
{ACAD_REACTORS
330
29
102
}
330
29
100
AcDbVisualStyle
  2

 70
     4
 71
     0
 72
     2
 73
     0
 90
        0
 40
-0.6
 41
-30.0
 62
     5
 63
     7
 74
     1
 91
        4
 64
     7
 65
   257
 75
     1
175
     1
 42
1.0
 92
        0
 66
   257
 43
1.0
 76
     1
 77
     6
 78
     2
 67
     7
 79
     5
170
     0
171
     0
290
     0
174
     0
 93
        1
 44
0.0
173
     0
291
     0
 45
0.0
1001
ACAD
1000
AcDbSavedByObjectVersion
1070
     0
  0
VISUALSTYLE
  5
663
102
{ACAD_XDICTIONARY
360
13D2
102
}
102
{ACAD_REACTORS
330
29
102
}
330
29
100
AcDbVisualStyle
  2

 70
     5
 71
     0
 72
     2
 73
     1
 90
        0
 40
-0.6
 41
-30.0
 62
     5
 63
     7
 74
     1
 91
        4
 64
     7
 65
   257
 75
     1
175
     1
 42
1.0
 92
        0
 66
   257
 43
1.0
 76
     1
 77
     6
 78
     2
 67
     7
 79
     5
170
     0
171
     0
290
     0
174
     0
 93
        1
 44
0.0
173
     0
291
     0
 45
0.0
1001
ACAD
1000
AcDbSavedByObjectVersion
1070
     0
  0
VISUALSTYLE
  5
2E
102
{ACAD_XDICTIONARY
360
13A5
102
}
102
{ACAD_REACTORS
330
29
102
}
330
29
100
AcDbVisualStyle
  2

 70
     7
 71
     1
 72
     0
 73
     1
 90
        0
 40
-0.6
 41
-30.0
 62
     5
 63
     7
 74
     0
 91
        4
 64
     7
 65
   257
 75
     1
175
     1
 42
1.0
 92
        8
 66
     7
 43
1.0
 76
     1
 77
     6
 78
     2
 67
     7
 79
     5
170
     0
171
     0
290
     0
174
     0
 93
        1
 44
0.0
173
     0
291
     1
 45
0.0
1001
ACAD
1000
AcDbSavedByObjectVersion
1070
     0
  0
VISUALSTYLE
  5
35
102
{ACAD_XDICTIONARY
360
13B3
102
}
102
{ACAD_REACTORS
330
29
102
}
330
29
100
AcDbVisualStyle
  2

 70
    12
 71
     2
 72
     2
 73
     0
 90
        0
 40
-0.6
 41
-30.0
 62
     5
 63
     7
 74
     1
 91
        4
 64
     7
 65
   257
 75
     1
175
     1
 42
1.0
 92
        8
 66
     7
 43
1.0
 76
     1
 77
     6
 78
     2
 67
     7
 79
     5
170
     0
171
     0
290
     0
174
     0
 93
        1
 44
50.0
173
     0
291
     1
 45
0.0
1001
ACAD
1000
AcDbSavedByObjectVersion
1070
     0
  0
VISUALSTYLE
  5
39
102
{ACAD_XDICTIONARY
360
13BB
102
}
102
{ACAD_REACTORS
330
29
102
}
330
29
100
AcDbVisualStyle
  2

 70
    16
 71
     2
 72
     2
 73
     3
 90
        0
 40
-0.6
 41
-30.0
 62
     5
 63
     8
 74
     1
 91
        4
 64
     7
 65
   257
 75
     1
175
     1
 42
1.0
 92
        8
 66
     8
 43
1.0
 76
     1
 77
     6
 78
     2
 67
     7
 79
     5
170
     0
171
     0
290
     0
174
     0
 93
        1
 44
0.0
173
     0
291
     1
 45
0.0
1001
ACAD
1000
AcDbSavedByObjectVersion
1070
     0
  0
VISUALSTYLE
  5
32
102
{ACAD_XDICTIONARY
360
13AD
102
}
102
{ACAD_REACTORS
330
29
102
}
330
29
100
AcDbVisualStyle
  2

 70
     9
 71
     3
 72
     2
 73
     0
 90
        0
 40
-0.6
 41
-30.0
 62
     5
 63
     7
 74
     2
 91
        2
 64
     7
 65
   257
 75
     1
175
     1
 42
179.0
 92
        8
 66
     7
 43
1.0
 76
     1
 77
     6
 78
     2
 67
     7
 79
     3
170
     0
171
     0
290
     0
174
     0
 93
        1
 44
0.0
173
     0
291
     0
 45
0.0
1001
ACAD
1000
AcDbSavedByObjectVersion
1070
     0
  0
VISUALSTYLE
  5
34
102
{ACAD_XDICTIONARY
360
13B1
102
}
102
{ACAD_REACTORS
330
29
102
}
330
29
100
AcDbVisualStyle
  2

 70
    11
 71
     2
 72
     2
 73
     0
 90
        0
 40
-0.6
 41
-30.0
 62
     5
 63
     7
 74
     1
 91
        4
 64
     7
 65
   257
 75
     1
175
     1
 42
1.0
 92
        8
 66
     7
 43
1.0
 76
     1
 77
     6
 78
     2
 67
     7
 79
     5
170
     0
171
     0
290
     0
174
     0
 93
        1
 44
-50.0
173
     0
291
     1
 45
0.0
1001
ACAD
1000
AcDbSavedByObjectVersion
1070
     0
  0
VISUALSTYLE
  5
41
102
{ACAD_XDICTIONARY
360
13CB
102
}
102
{ACAD_REACTORS
330
29
102
}
330
29
100
AcDbVisualStyle
  2

 70
    22
 71
     2
 72
     2
 73
     0
 90
        0
 40
-0.6
 41
-30.0
 62
     5
 63
     7
 74
     1
 91
        4
 64
     7
 65
   257
 75
     1
175
     1
 42
1.0
 92
        8
 66
     7
 43
1.0
 76
     1
 77
     6
 78
     2
 67
     7
 79
     5
170
     0
171
     0
290
     0
174
     0
 93
        1
 44
0.0
173
     0
291
     1
 45
0.0
1001
ACAD
1000
AcDbSavedByObjectVersion
1070
     0
  0
VISUALSTYLE
  5
38
102
{ACAD_XDICTIONARY
360
13B9
102
}
102
{ACAD_REACTORS
330
29
102
}
330
29
100
AcDbVisualStyle
  2

 70
    15
 71
     2
 72
     2
 73
     0
 90
        0
 40
-0.6
 41
-30.0
 62
     5
 63
     7
 74
     1
 91
        4
 64
     7
 65
   257
 75
     1
175
     1
 42
1.0
 92
        8
 66
     7
 43
1.0
 76
     1
 77
     6
 78
     2
 67
     7
 79
     5
170
     0
171
     0
290
     0
174
     0
 93
        1
 44
0.0
173
     0
291
     1
 45
0.0
1001
ACAD
1000
AcDbSavedByObjectVersion
1070
     0
  0
VISUALSTYLE
  5
2A
102
{ACAD_XDICTIONARY
360
139D
102
}
102
{ACAD_REACTORS
330
29
102
}
330
29
100
AcDbVisualStyle
  2

 70
     0
 71
     2
 72
     1
 73
     1
 90
        2
 40
-0.6
 41
30.0
 62
     5
 63
     7
 74
     0
 91
        0
 64
     7
 65
   257
 75
     1
175
     1
 42
1.0
 92
        8
 66
     7
 43
1.0
 76
     1
 77
     6
 78
     2
 67
     7
 79
     5
170
     0
171
     0
290
     0
174
     0
 93
       13
 44
0.0
173
     0
291
     1
 45
0.0
1001
ACAD
1000
AcDbSavedByObjectVersion
1070
     0
  0
VISUALSTYLE
  5
2B
102
{ACAD_XDICTIONARY
360
139F
102
}
102
{ACAD_REACTORS
330
29
102
}
330
29
100
AcDbVisualStyle
  2

 70
     1
 71
     2
 72
     1
 73
     1
 90
        2
 40
-0.6
 41
30.0
 62
     5
 63
     7
 74
     1
 91
        0
 64
     7
 65
   257
 75
     1
175
     1
 42
1.0
 92
        0
 66
   257
 43
1.0
 76
     1
 77
     6
 78
     2
 67
     7
 79
     5
170
     0
171
     0
290
     0
174
     0
 93
       13
 44
0.0
173
     0
291
     1
 45
0.0
1001
ACAD
1000
AcDbSavedByObjectVersion
1070
     0
  0
VISUALSTYLE
  5
2C
102
{ACAD_XDICTIONARY
360
13A1
102
}
102
{ACAD_REACTORS
330
29
102
}
330
29
100
AcDbVisualStyle
  2

 70
     2
 71
     2
 72
     2
 73
     1
 90
        2
 40
-0.6
 41
30.0
 62
     5
 63
     7
 74
     0
 91
        0
 64
     7
 65
   257
 75
     1
175
     1
 42
1.0
 92
        0
 66
     7
 43
1.0
 76
     1
 77
     6
 78
     2
 67
     7
 79
     5
170
     0
171
     0
290
     0
174
     0
 93
       13
 44
0.0
173
     0
291
     1
 45
0.0
1001
ACAD
1000
AcDbSavedByObjectVersion
1070
     0
  0
VISUALSTYLE
  5
2D
102
{ACAD_XDICTIONARY
360
13A3
102
}
102
{ACAD_REACTORS
330
29
102
}
330
29
100
AcDbVisualStyle
  2

 70
     3
 71
     2
 72
     2
 73
     1
 90
        2
 40
-0.6
 41
30.0
 62
     5
 63
     7
 74
     1
 91
        0
 64
     7
 65
   257
 75
     1
175
     1
 42
1.0
 92
        0
 66
   257
 43
1.0
 76
     1
 77
     6
 78
     2
 67
     7
 79
     5
170
     0
171
     0
290
     0
174
     0
 93
       13
 44
0.0
173
     0
291
     1
 45
0.0
1001
ACAD
1000
AcDbSavedByObjectVersion
1070
     0
  0
VISUALSTYLE
  5
31
102
{ACAD_XDICTIONARY
360
13AB
102
}
102
{ACAD_REACTORS
330
29
102
}
330
29
100
AcDbVisualStyle
  2

 70
     6
 71
     1
 72
     2
 73
     2
 90
        0
 40
-0.6
 41
-30.0
 62
     5
 63
     7
 74
     2
 91
        2
 64
     7
 65
   257
 75
     2
175
     1
 42
40.0
 92
        0
 66
   257
 43
1.0
 76
     1
 77
     6
 78
     2
 67
     7
 79
     3
170
     0
171
     0
290
     0
174
     0
 93
        1
 44
0.0
173
     0
291
     0
 45
0.0
1001
ACAD
1000
AcDbSavedByObjectVersion
1070
     0
  0
VISUALSTYLE
  5
3F
102
{ACAD_XDICTIONARY
360
13C7
102
}
102
{ACAD_REACTORS
330
29
102
}
330
29
100
AcDbVisualStyle
  2

 70
    20
 71
     2
 72
     2
 73
     0
 90
        0
 40
-0.6
 41
-30.0
 62
     5
 63
     7
 74
     1
 91
        4
 64
     7
 65
   257
 75
     1
175
     1
 42
1.0
 92
       10
 66
     7
 43
1.0
 76
     1
 77
     6
 78
     2
 67
     7
 79
     5
170
     0
171
     0
290
     0
174
     0
 93
        1
 44
0.0
173
     0
291
     1
 45
0.0
1001
ACAD
1000
AcDbSavedByObjectVersion
1070
     0
  0
VISUALSTYLE
  5
37
102
{ACAD_XDICTIONARY
360
13B7
102
}
102
{ACAD_REACTORS
330
29
102
}
330
29
100
AcDbVisualStyle
  2

 70
    14
 71
     2
 72
     2
 73
     0
 90
        0
 40
-0.6
 41
-30.0
 62
     5
 63
     7
 74
     1
 91
        4
 64
     7
 65
   257
 75
     7
175
     7
 42
1.0
 92
        8
 66
     7
 43
1.0
 76
     1
 77
     6
 78
     2
 67
     7
 79
     5
170
     0
171
     0
290
     0
174
     0
 93
        1
 44
0.0
173
     0
291
     1
 45
0.0
1001
ACAD
1000
AcDbSavedByObjectVersion
1070
     0
  0
VISUALSTYLE
  5
40
102
{ACAD_XDICTIONARY
360
13C9
102
}
102
{ACAD_REACTORS
330
29
102
}
330
29
100
AcDbVisualStyle
  2

 70
    21
 71
     2
 72
     2
 73
     0
 90
        0
 40
-0.6
 41
-30.0
 62
     5
 63
     7
 74
     1
 91
        4
 64
     7
 65
   257
 75
     1
175
     1
 42
1.0
 92
        9
 66
     7
 43
1.0
 76
     1
 77
     6
 78
     2
 67
     7
 79
     5
170
     0
171
     0
290
     0
174
     0
 93
        1
 44
0.0
173
     0
291
     1
 45
0.0
1001
ACAD
1000
AcDbSavedByObjectVersion
1070
     0
  0
VISUALSTYLE
  5
33
102
{ACAD_XDICTIONARY
360
13AF
102
}
102
{ACAD_REACTORS
330
29
102
}
330
29
100
AcDbVisualStyle
  2

 70
     8
 71
     2
 72
     3
 73
     0
 90
        2
 40
-0.6
 41
30.0
 62
     5
 63
     7
 74
     0
 91
        0
 64
     7
 65
   257
 75
     1
175
     1
 42
1.0
 92
        8
 66
   257
 43
1.0
 76
     1
 77
     6
 78
     2
 67
     7
 79
     3
170
     0
171
     0
290
     0
174
     0
 93
       13
 44
0.0
173
     0
291
     0
 45
0.0
1001
ACAD
1000
AcDbSavedByObjectVersion
1070
     0
  0
VISUALSTYLE
  5
3E
102
{ACAD_XDICTIONARY
360
13C5
102
}
102
{ACAD_REACTORS
330
29
102
}
330
29
100
AcDbVisualStyle
  2

 70
    27
 71
     2
 72
     2
 73
     1
 90
        2
 40
-0.6
 41
30.0
 62
     5
 63
     7
 74
     0
 91
        4
 64
     7
 65
   257
 75
     1
175
     1
 42
1.0
 92
        8
 66
   257
 43
1.0
 76
     1
 77
     6
 78
     2
 67
     8
 79
     3
170
     0
171
     0
290
     0
174
     0
 93
        5
 44
0.0
173
     0
291
     0
 45
0.0
1001
ACAD
1000
AcDbSavedByObjectVersion
1070
     0
  0
VISUALSTYLE
  5
3D
102
{ACAD_XDICTIONARY
360
13C3
102
}
102
{ACAD_REACTORS
330
29
102
}
330
29
100
AcDbVisualStyle
  2

 70
    26
 71
     2
 72
     2
 73
     1
 90
        2
 40
-0.6
 41
30.0
 62
     5
 63
     7
 74
     1
 91
       10
 64
     7
 65
   257
 75
     2
175
     1
 42
1.0
 92
        8
 66
   257
 43
1.0
 76
     1
 77
     6
 78
     2
 67
     7
 79
     3
170
     0
171
     0
290
     0
174
     0
 93
        5
 44
0.0
173
     0
291
     0
 45
0.0
1001
ACAD
1000
AcDbSavedByObjectVersion
1070
     0
  0
VISUALSTYLE
  5
3A
102
{ACAD_XDICTIONARY
360
13BD
102
}
102
{ACAD_REACTORS
330
29
102
}
330
29
100
AcDbVisualStyle
  2

 70
    23
 71
     2
 72
     2
 73
     3
 90
        0
 40
-0.6
 41
-30.0
 62
     5
 63
     7
 74
     2
 91
        2
 64
     7
 65
     7
 75
     1
175
     1
 42
40.0
 92
        8
 66
     7
 43
1.0
 76
     1
 77
     6
 78
     2
 67
     7
 79
     3
170
     0
171
     0
290
     0
174
     0
 93
        1
 44
0.0
173
     0
291
     0
 45
0.0
1001
ACAD
1000
AcDbSavedByObjectVersion
1070
     0
  0
VISUALSTYLE
  5
3B
102
{ACAD_XDICTIONARY
360
13BF
102
}
102
{ACAD_REACTORS
330
29
102
}
330
29
100
AcDbVisualStyle
  2

 70
    24
 71
     1
 72
     2
 73
     2
 90
        0
 40
-0.6
 41
-30.0
 62
     5
 63
     7
 74
     2
 91
        2
 64
     7
 65
     7
 75
     1
175
     1
 42
40.0
 92
       11
 66
     7
 43
1.0
 76
     1
 77
     6
 78
     2
 67
     7
 79
     6
170
     0
171
     0
290
     0
174
     0
 93
        1
 44
0.0
173
     0
291
     0
 45
0.0
1001
ACAD
1000
AcDbSavedByObjectVersion
1070
     0
  0
VISUALSTYLE
  5
36
102
{ACAD_XDICTIONARY
360
13B5
102
}
102
{ACAD_REACTORS
330
29
102
}
330
29
100
AcDbVisualStyle
  2

 70
    13
 71
     2
 72
     2
 73
     0
 90
        0
 40
-0.6
 41
-30.0
 62
     5
 63
     7
 74
     1
 91
        4
 64
     7
 65
   257
 75
     1
175
     1
 42
1.0
 92
       12
 66
     7
 43
1.0
 76
     1
 77
     6
 78
     2
 67
     7
 79
     5
170
     0
171
     0
290
     0
174
     0
 93
        1
 44
0.0
173
     0
291
     1
 45
0.0
1001
ACAD
1000
AcDbSavedByObjectVersion
1070
     0
  0
VISUALSTYLE
  5
30
102
{ACAD_XDICTIONARY
360
13A9
102
}
102
{ACAD_REACTORS
330
29
102
}
330
29
100
AcDbVisualStyle
  2

 70
     5
 71
     0
 72
     2
 73
     0
 90
        0
 40
-0.6
 41
-30.0
 62
     5
 63
     7
 74
     1
 91
        4
 64
     7
 65
   257
 75
     1
175
     1
 42
1.0
 92
        0
 66
   257
 43
1.0
 76
     1
 77
     6
 78
     2
 67
     7
 79
     3
170
     0
171
     0
290
     0
174
     0
 93
        1
 44
0.0
173
     0
291
     0
 45
0.0
1001
ACAD
1000
AcDbSavedByObjectVersion
1070
     0
  0
VISUALSTYLE
  5
3C
102
{ACAD_XDICTIONARY
360
13C1
102
}
102
{ACAD_REACTORS
330
29
102
}
330
29
100
AcDbVisualStyle
  2

 70
    25
 71
     2
 72
     2
 73
     1
 90
        1
 40
0.5
 41
-30.0
 62
     5
 63
     7
 74
     1
 91
        0
 64
     7
 65
   257
 75
     1
175
     1
 42
1.0
 92
        8
 66
     7
 43
1.0
 76
     1
 77
     6
 78
     2
 67
     7
 79
     3
170
     0
171
     0
290
     0
174
     0
 93
       13
 44
0.0
173
     0
291
     0
 45
0.0
1001
ACAD
1000
AcDbSavedByObjectVersion
1070
     0
  0
DICTIONARYVAR
  5
865
102
{ACAD_REACTORS
330
862
102
}
330
862
100
DictionaryVariables
280
     0
  1
1:1
  0
DICTIONARYVAR
  5
864
102
{ACAD_REACTORS
330
862
102
}
330
862
100
DictionaryVariables
280
     0
  1
STANDARD
  0
DICTIONARYVAR
  5
863
102
{ACAD_REACTORS
330
862
102
}
330
862
100
DictionaryVariables
280
     0
  1
STANDARD
  0
DICTIONARYVAR
  5
868
102
{ACAD_REACTORS
330
862
102
}
330
862
100
DictionaryVariables
280
     0
  1
1
  0
DICTIONARYVAR
  5
867
102
{ACAD_REACTORS
330
862
102
}
330
862
100
DictionaryVariables
280
     0
  1
0
  0
DICTIONARYVAR
  5
866
102
{ACAD_REACTORS
330
862
102
}
330
862
100
DictionaryVariables
280
     0
  1
127
  0
DICTIONARYVAR
  5
125D
102
{ACAD_REACTORS
330
862
102
}
330
862
100
DictionaryVariables
280
     0
  1
2
  0
DICTIONARY
  5
13D0
330
6E
100
AcDbDictionary
280
     1
281
     1
  3
ACAD_XREC_ROUNDTRIP
360
13D1
  0
DICTIONARY
  5
13CE
330
6A
100
AcDbDictionary
280
     1
281
     1
  3
ACAD_XREC_ROUNDTRIP
360
13CF
  0
DICTIONARY
  5
1A
330
19
100
AcDbDictionary
280
     1
281
     1
  3
ACAD_XREC_ROUNDTRIP
360
873
  3
BUMPTILE
360
1C
  3
DIFFUSETILE
360
1B
  3
OPACITYTILE
360
1F
  3
REFLECTIONTILE
360
1E
  3
REFRACTIONTILE
360
20
  3
SPECULARTILE
360
1D
  0
DICTIONARY
  5
12
330
11
100
AcDbDictionary
280
     1
281
     1
  3
ACAD_XREC_ROUNDTRIP
360
872
  3
BUMPTILE
360
14
  3
DIFFUSETILE
360
13
  3
OPACITYTILE
360
17
  3
REFLECTIONTILE
360
16
  3
REFRACTIONTILE
360
18
  3
SPECULARTILE
360
15
  0
DICTIONARY
  5
22
330
21
100
AcDbDictionary
280
     1
281
     1
  3
ACAD_XREC_ROUNDTRIP
360
874
  3
BUMPTILE
360
24
  3
DIFFUSETILE
360
23
  3
OPACITYTILE
360
27
  3
REFLECTIONTILE
360
26
  3
REFRACTIONTILE
360
28
  3
SPECULARTILE
360
25
  0
DICTIONARY
  5
86A
330
64
100
AcDbDictionary
280
     1
281
     1
  3
ACAD_ROUNDTRIP_2008_TABLESTYLE_CELLSTYLEMAP
360
1396
  3
ACAD_XREC_ROUNDTRIP
360
13CD
  0
DICTIONARY
  5
13A7
330
2F
100
AcDbDictionary
280
     1
281
     1
  3
ACAD_XREC_ROUNDTRIP
360
13A8
  0
DICTIONARY
  5
13D2
330
663
100
AcDbDictionary
280
     1
281
     1
  3
ACAD_XREC_ROUNDTRIP
360
13D3
  0
DICTIONARY
  5
13A5
330
2E
100
AcDbDictionary
280
     1
281
     1
  3
ACAD_XREC_ROUNDTRIP
360
13A6
  0
DICTIONARY
  5
13B3
330
35
100
AcDbDictionary
280
     1
281
     1
  3
ACAD_XREC_ROUNDTRIP
360
13B4
  0
DICTIONARY
  5
13BB
330
39
100
AcDbDictionary
280
     1
281
     1
  3
ACAD_XREC_ROUNDTRIP
360
13BC
  0
DICTIONARY
  5
13AD
330
32
100
AcDbDictionary
280
     1
281
     1
  3
ACAD_XREC_ROUNDTRIP
360
13AE
  0
DICTIONARY
  5
13B1
330
34
100
AcDbDictionary
280
     1
281
     1
  3
ACAD_XREC_ROUNDTRIP
360
13B2
  0
DICTIONARY
  5
13CB
330
41
100
AcDbDictionary
280
     1
281
     1
  3
ACAD_XREC_ROUNDTRIP
360
13CC
  0
DICTIONARY
  5
13B9
330
38
100
AcDbDictionary
280
     1
281
     1
  3
ACAD_XREC_ROUNDTRIP
360
13BA
  0
DICTIONARY
  5
139D
330
2A
100
AcDbDictionary
280
     1
281
     1
  3
ACAD_XREC_ROUNDTRIP
360
139E
  0
DICTIONARY
  5
139F
330
2B
100
AcDbDictionary
280
     1
281
     1
  3
ACAD_XREC_ROUNDTRIP
360
13A0
  0
DICTIONARY
  5
13A1
330
2C
100
AcDbDictionary
280
     1
281
     1
  3
ACAD_XREC_ROUNDTRIP
360
13A2
  0
DICTIONARY
  5
13A3
330
2D
100
AcDbDictionary
280
     1
281
     1
  3
ACAD_XREC_ROUNDTRIP
360
13A4
  0
DICTIONARY
  5
13AB
330
31
100
AcDbDictionary
280
     1
281
     1
  3
ACAD_XREC_ROUNDTRIP
360
13AC
  0
DICTIONARY
  5
13C7
330
3F
100
AcDbDictionary
280
     1
281
     1
  3
ACAD_XREC_ROUNDTRIP
360
13C8
  0
DICTIONARY
  5
13B7
330
37
100
AcDbDictionary
280
     1
281
     1
  3
ACAD_XREC_ROUNDTRIP
360
13B8
  0
DICTIONARY
  5
13C9
330
40
100
AcDbDictionary
280
     1
281
     1
  3
ACAD_XREC_ROUNDTRIP
360
13CA
  0
DICTIONARY
  5
13AF
330
33
100
AcDbDictionary
280
     1
281
     1
  3
ACAD_XREC_ROUNDTRIP
360
13B0
  0
DICTIONARY
  5
13C5
330
3E
100
AcDbDictionary
280
     1
281
     1
  3
ACAD_XREC_ROUNDTRIP
360
13C6
  0
DICTIONARY
  5
13C3
330
3D
100
AcDbDictionary
280
     1
281
     1
  3
ACAD_XREC_ROUNDTRIP
360
13C4
  0
DICTIONARY
  5
13BD
330
3A
100
AcDbDictionary
280
     1
281
     1
  3
ACAD_XREC_ROUNDTRIP
360
13BE
  0
DICTIONARY
  5
13BF
330
3B
100
AcDbDictionary
280
     1
281
     1
  3
ACAD_XREC_ROUNDTRIP
360
13C0
  0
DICTIONARY
  5
13B5
330
36
100
AcDbDictionary
280
     1
281
     1
  3
ACAD_XREC_ROUNDTRIP
360
13B6
  0
DICTIONARY
  5
13A9
330
30
100
AcDbDictionary
280
     1
281
     1
  3
ACAD_XREC_ROUNDTRIP
360
13AA
  0
DICTIONARY
  5
13C1
330
3C
100
AcDbDictionary
280
     1
281
     1
  3
ACAD_XREC_ROUNDTRIP
360
13C2
  0
XRECORD
  5
13D1
102
{ACAD_REACTORS
330
13D0
102
}
330
13D0
100
AcDbXrecord
280
     1
102
SHADEPLOT
 70
     0
102
SHADEPLOTRESLEVEL
 70
     2
102
SHADEPLOTCUSTOMDPI
 70
   300
  0
XRECORD
  5
13CF
102
{ACAD_REACTORS
330
13CE
102
}
330
13CE
100
AcDbXrecord
280
     1
102
SHADEPLOT
 70
     0
102
SHADEPLOTRESLEVEL
 70
     2
102
SHADEPLOTCUSTOMDPI
 70
   300
  0
XRECORD
  5
873
102
{ACAD_REACTORS
330
1A
102
}
330
1A
100
AcDbXrecord
280
     1
102
MATERIAL
148
0.0
149
0.0
149
0.0
 93
        0
 94
      127
282
     0
 72
     0
 77
     0
171
     0
175
     0
179
     0
273
     0
  0
XRECORD
  5
1C
102
{ACAD_REACTORS
330
1A
102
}
330
1A
100
AcDbXrecord
280
     1
270
     1
271
     1
  0
XRECORD
  5
1B
102
{ACAD_REACTORS
330
1A
102
}
330
1A
100
AcDbXrecord
280
     1
270
     1
271
     1
  0
XRECORD
  5
1F
102
{ACAD_REACTORS
330
1A
102
}
330
1A
100
AcDbXrecord
280
     1
270
     1
271
     1
  0
XRECORD
  5
1E
102
{ACAD_REACTORS
330
1A
102
}
330
1A
100
AcDbXrecord
280
     1
270
     1
271
     1
  0
XRECORD
  5
20
102
{ACAD_REACTORS
330
1A
102
}
330
1A
100
AcDbXrecord
280
     1
270
     1
271
     1
  0
XRECORD
  5
1D
102
{ACAD_REACTORS
330
1A
102
}
330
1A
100
AcDbXrecord
280
     1
270
     1
271
     1
  0
XRECORD
  5
872
102
{ACAD_REACTORS
330
12
102
}
330
12
100
AcDbXrecord
280
     1
102
MATERIAL
148
0.0
149
0.0
149
0.0
 93
        0
 94
      127
282
     0
 72
     0
 77
     0
171
     0
175
     0
179
     0
273
     0
  0
XRECORD
  5
14
102
{ACAD_REACTORS
330
12
102
}
330
12
100
AcDbXrecord
280
     1
270
     1
271
     1
  0
XRECORD
  5
13
102
{ACAD_REACTORS
330
12
102
}
330
12
100
AcDbXrecord
280
     1
270
     1
271
     1
  0
XRECORD
  5
17
102
{ACAD_REACTORS
330
12
102
}
330
12
100
AcDbXrecord
280
     1
270
     1
271
     1
  0
XRECORD
  5
16
102
{ACAD_REACTORS
330
12
102
}
330
12
100
AcDbXrecord
280
     1
270
     1
271
     1
  0
XRECORD
  5
18
102
{ACAD_REACTORS
330
12
102
}
330
12
100
AcDbXrecord
280
     1
270
     1
271
     1
  0
XRECORD
  5
15
102
{ACAD_REACTORS
330
12
102
}
330
12
100
AcDbXrecord
280
     1
270
     1
271
     1
  0
XRECORD
  5
874
102
{ACAD_REACTORS
330
22
102
}
330
22
100
AcDbXrecord
280
     1
102
MATERIAL
148
0.0
149
0.0
149
0.0
 93
        0
 94
      127
282
     0
 72
     0
 77
     0
171
     0
175
     0
179
     0
273
     0
  0
XRECORD
  5
24
102
{ACAD_REACTORS
330
22
102
}
330
22
100
AcDbXrecord
280
     1
270
     1
271
     1
  0
XRECORD
  5
23
102
{ACAD_REACTORS
330
22
102
}
330
22
100
AcDbXrecord
280
     1
270
     1
271
     1
  0
XRECORD
  5
27
102
{ACAD_REACTORS
330
22
102
}
330
22
100
AcDbXrecord
280
     1
270
     1
271
     1
  0
XRECORD
  5
26
102
{ACAD_REACTORS
330
22
102
}
330
22
100
AcDbXrecord
280
     1
270
     1
271
     1
  0
XRECORD
  5
28
102
{ACAD_REACTORS
330
22
102
}
330
22
100
AcDbXrecord
280
     1
270
     1
271
     1
  0
XRECORD
  5
25
102
{ACAD_REACTORS
330
22
102
}
330
22
100
AcDbXrecord
280
     1
270
     1
271
     1
  0
CELLSTYLEMAP
  5
1396
102
{ACAD_REACTORS
330
86A
102
}
330
86A
100
AcDbCellStyleMap
 90
        3
300
CELLSTYLE
  1
TABLEFORMAT_BEGIN
 90
        5
170
     1
 91
        0
 92
    32768
 62
   257
 93
        1
300
CONTENTFORMAT
  1
CONTENTFORMAT_BEGIN
 90
        0
 91
        0
 92
      512
 93
        0
300

 40
0.0
140
1.0
 94
        5
 62
     0
340
55
144
0.25
309
CONTENTFORMAT_END
171
     1
301
MARGIN
  1
CELLMARGIN_BEGIN
 40
0.06
 40
0.06
 40
0.06
 40
0.06
 40
0.18
 40
0.18
309
CELLMARGIN_END
 94
        6
 95
        1
302
GRIDFORMAT
  1
GRIDFORMAT_BEGIN
 90
        0
 91
        1
 62
     0
 92
       -2
340
0
 93
        0
 40
0.045
309
GRIDFORMAT_END
 95
        2
302
GRIDFORMAT
  1
GRIDFORMAT_BEGIN
 90
        0
 91
        1
 62
     0
 92
       -2
340
0
 93
        0
 40
0.045
309
GRIDFORMAT_END
 95
        4
302
GRIDFORMAT
  1
GRIDFORMAT_BEGIN
 90
        0
 91
        1
 62
     0
 92
       -2
340
0
 93
        0
 40
0.045
309
GRIDFORMAT_END
 95
        8
302
GRIDFORMAT
  1
GRIDFORMAT_BEGIN
 90
        0
 91
        1
 62
     0
 92
       -2
340
0
 93
        0
 40
0.045
309
GRIDFORMAT_END
 95
       16
302
GRIDFORMAT
  1
GRIDFORMAT_BEGIN
 90
        0
 91
        1
 62
     0
 92
       -2
340
0
 93
        0
 40
0.045
309
GRIDFORMAT_END
 95
       32
302
GRIDFORMAT
  1
GRIDFORMAT_BEGIN
 90
        0
 91
        1
 62
     0
 92
       -2
340
0
 93
        0
 40
0.045
309
GRIDFORMAT_END
309
TABLEFORMAT_END
  1
CELLSTYLE_BEGIN
 90
        1
 91
        1
300
_TITLE
309
CELLSTYLE_END
300
CELLSTYLE
  1
TABLEFORMAT_BEGIN
 90
        5
170
     1
 91
        0
 92
        0
 62
   257
 93
        1
300
CONTENTFORMAT
  1
CONTENTFORMAT_BEGIN
 90
        0
 91
        0
 92
      512
 93
        0
300

 40
0.0
140
1.0
 94
        5
 62
     0
340
55
144
0.18
309
CONTENTFORMAT_END
171
     1
301
MARGIN
  1
CELLMARGIN_BEGIN
 40
0.06
 40
0.06
 40
0.06
 40
0.06
 40
0.18
 40
0.18
309
CELLMARGIN_END
 94
        6
 95
        1
302
GRIDFORMAT
  1
GRIDFORMAT_BEGIN
 90
        0
 91
        1
 62
     0
 92
       -2
340
0
 93
        0
 40
0.045
309
GRIDFORMAT_END
 95
        2
302
GRIDFORMAT
  1
GRIDFORMAT_BEGIN
 90
        0
 91
        1
 62
     0
 92
       -2
340
0
 93
        0
 40
0.045
309
GRIDFORMAT_END
 95
        4
302
GRIDFORMAT
  1
GRIDFORMAT_BEGIN
 90
        0
 91
        1
 62
     0
 92
       -2
340
0
 93
        0
 40
0.045
309
GRIDFORMAT_END
 95
        8
302
GRIDFORMAT
  1
GRIDFORMAT_BEGIN
 90
        0
 91
        1
 62
     0
 92
       -2
340
0
 93
        0
 40
0.045
309
GRIDFORMAT_END
 95
       16
302
GRIDFORMAT
  1
GRIDFORMAT_BEGIN
 90
        0
 91
        1
 62
     0
 92
       -2
340
0
 93
        0
 40
0.045
309
GRIDFORMAT_END
 95
       32
302
GRIDFORMAT
  1
GRIDFORMAT_BEGIN
 90
        0
 91
        1
 62
     0
 92
       -2
340
0
 93
        0
 40
0.045
309
GRIDFORMAT_END
309
TABLEFORMAT_END
  1
CELLSTYLE_BEGIN
 90
        2
 91
        1
300
_HEADER
309
CELLSTYLE_END
300
CELLSTYLE
  1
TABLEFORMAT_BEGIN
 90
        5
170
     1
 91
        0
 92
        0
 62
   257
 93
        1
300
CONTENTFORMAT
  1
CONTENTFORMAT_BEGIN
 90
        0
 91
        0
 92
      512
 93
        0
300

 40
0.0
140
1.0
 94
        2
 62
     0
340
55
144
0.18
309
CONTENTFORMAT_END
171
     1
301
MARGIN
  1
CELLMARGIN_BEGIN
 40
0.06
 40
0.06
 40
0.06
 40
0.06
 40
0.18
 40
0.18
309
CELLMARGIN_END
 94
        6
 95
        1
302
GRIDFORMAT
  1
GRIDFORMAT_BEGIN
 90
        0
 91
        1
 62
     0
 92
       -2
340
0
 93
        0
 40
0.045
309
GRIDFORMAT_END
 95
        2
302
GRIDFORMAT
  1
GRIDFORMAT_BEGIN
 90
        0
 91
        1
 62
     0
 92
       -2
340
0
 93
        0
 40
0.045
309
GRIDFORMAT_END
 95
        4
302
GRIDFORMAT
  1
GRIDFORMAT_BEGIN
 90
        0
 91
        1
 62
     0
 92
       -2
340
0
 93
        0
 40
0.045
309
GRIDFORMAT_END
 95
        8
302
GRIDFORMAT
  1
GRIDFORMAT_BEGIN
 90
        0
 91
        1
 62
     0
 92
       -2
340
0
 93
        0
 40
0.045
309
GRIDFORMAT_END
 95
       16
302
GRIDFORMAT
  1
GRIDFORMAT_BEGIN
 90
        0
 91
        1
 62
     0
 92
       -2
340
0
 93
        0
 40
0.045
309
GRIDFORMAT_END
 95
       32
302
GRIDFORMAT
  1
GRIDFORMAT_BEGIN
 90
        0
 91
        1
 62
     0
 92
       -2
340
0
 93
        0
 40
0.045
309
GRIDFORMAT_END
309
TABLEFORMAT_END
  1
CELLSTYLE_BEGIN
 90
        3
 91
        2
300
_DATA
309
CELLSTYLE_END
  0
XRECORD
  5
13CD
102
{ACAD_REACTORS
330
86A
102
}
330
86A
100
AcDbXrecord
280
     1
102
ACAD_ROUNDTRIP_PRE2007_TABLESTYLE
 90
      512
 91
        0
  1

 92
      512
 93
        0
  2

 94
      512
 95
        0
  3

  0
XRECORD
  5
13A8
102
{ACAD_REACTORS
330
13A7
102
}
330
13A7
100
AcDbXrecord
280
     1
102
RTVSPropertyOp0
 70
     1
102
RTVSPropertyOp1
 70
     1
102
RTVSPropertyOp2
 70
     1
102
RTVSPropertyOp3
 70
     1
102
RTVSPropertyOp4
 70
     1
102
RTVSPropertyOp5
 70
     1
102
RTVSPropertyOp6
 70
     1
102
RTVSPropertyOp7
 70
     1
102
RTVSPropertyOp8
 70
     1
102
RTVSPropertyOp9
 70
     1
102
RTVSPropertyOp10
 70
     1
102
RTVSPropertyOp11
 70
     1
102
RTVSPropertyOp12
 70
     1
102
RTVSPropertyOp13
 70
     1
102
RTVSPropertyOp14
 70
     1
102
RTVSPropertyOp15
 70
     1
102
RTVSPropertyOp16
 70
     1
102
RTVSPropertyOp17
 70
     1
102
RTVSPropertyOp18
 70
     1
102
RTVSPropertyOp19
 70
     1
102
RTVSPropertyOp20
 70
     1
102
RTVSPropertyOp21
 70
     1
102
RTVSPropertyOp22
 70
     1
102
RTVSPropertyOp23
 70
     1
102
RTVSPropertyOp24
 70
     1
102
RTVSPropertyOp25
 70
     1
102
RTVSPropertyOp26
 70
     1
102
RTVSPropertyOp27
 70
     1
102
RTVSPropertyOp28
 70
     1
102
RTVSPropertyOp29
 70
     1
102
RTVSPropertyOp30
 70
     1
102
RTVSPropertyOp31
 70
     1
102
RTVSPropertyOp32
 70
     1
  0
XRECORD
  5
13D3
102
{ACAD_REACTORS
330
13D2
102
}
330
13D2
100
AcDbXrecord
280
     1
102
RTVSPropertyOp0
 70
     1
102
RTVSPropertyOp1
 70
     1
102
RTVSPropertyOp2
 70
     1
102
RTVSPropertyOp3
 70
     1
102
RTVSPropertyOp4
 70
     1
102
RTVSPropertyOp5
 70
     1
102
RTVSPropertyOp6
 70
     1
102
RTVSPropertyOp7
 70
     1
102
RTVSPropertyOp8
 70
     1
102
RTVSPropertyOp9
 70
     1
102
RTVSPropertyOp10
 70
     1
102
RTVSPropertyOp11
 70
     1
102
RTVSPropertyOp12
 70
     1
102
RTVSPropertyOp13
 70
     1
102
RTVSPropertyOp14
 70
     1
102
RTVSPropertyOp15
 70
     1
102
RTVSPropertyOp16
 70
     1
102
RTVSPropertyOp17
 70
     1
102
RTVSPropertyOp18
 70
     1
102
RTVSPropertyOp19
 70
     1
102
RTVSPropertyOp20
 70
     1
102
RTVSPropertyOp21
 70
     1
102
RTVSPropertyOp22
 70
     1
102
RTVSPropertyOp23
 70
     1
102
RTVSPropertyOp24
 70
     1
102
RTVSPropertyOp25
 70
     1
102
RTVSPropertyOp26
 70
     1
102
RTVSPropertyOp27
 70
     1
102
RTVSPropertyOp28
 70
     1
102
RTVSPropertyOp29
 70
     1
102
RTVSPropertyOp30
 70
     1
102
RTVSPropertyOp31
 70
     1
102
RTVSPropertyOp32
 70
     1
  0
XRECORD
  5
13A6
102
{ACAD_REACTORS
330
13A5
102
}
330
13A5
100
AcDbXrecord
280
     1
102
RTVSPropertyOp0
 70
     1
102
RTVSPropertyOp1
 70
     1
102
RTVSPropertyOp2
 70
     1
102
RTVSPropertyOp3
 70
     1
102
RTVSPropertyOp4
 70
     1
102
RTVSPropertyOp5
 70
     1
102
RTVSPropertyOp6
 70
     1
102
RTVSPropertyOp7
 70
     1
102
RTVSPropertyOp8
 70
     1
102
RTVSPropertyOp9
 70
     1
102
RTVSPropertyOp10
 70
     1
102
RTVSPropertyOp11
 70
     1
102
RTVSPropertyOp12
 70
     1
102
RTVSPropertyOp13
 70
     1
102
RTVSPropertyOp14
 70
     1
102
RTVSPropertyOp15
 70
     1
102
RTVSPropertyOp16
 70
     1
102
RTVSPropertyOp17
 70
     1
102
RTVSPropertyOp18
 70
     1
102
RTVSPropertyOp19
 70
     1
102
RTVSPropertyOp20
 70
     1
102
RTVSPropertyOp21
 70
     1
102
RTVSPropertyOp22
 70
     1
102
RTVSPropertyOp23
 70
     1
102
RTVSPropertyOp24
 70
     1
102
RTVSPropertyOp25
 70
     1
102
RTVSPropertyOp26
 70
     1
102
RTVSPropertyOp27
 70
     1
102
RTVSPropertyOp28
 70
     1
102
RTVSPropertyOp29
 70
     1
102
RTVSPropertyOp30
 70
     1
102
RTVSPropertyOp31
 70
     1
102
RTVSPropertyOp32
 70
     1
  0
XRECORD
  5
13B4
102
{ACAD_REACTORS
330
13B3
102
}
330
13B3
100
AcDbXrecord
280
     1
102
RTVSPropertyOp0
 70
     1
102
RTVSPropertyOp1
 70
     1
102
RTVSPropertyOp2
 70
     1
102
RTVSPropertyOp3
 70
     1
102
RTVSPropertyOp4
 70
     1
102
RTVSPropertyOp5
 70
     1
102
RTVSPropertyOp6
 70
     1
102
RTVSPropertyOp7
 70
     1
102
RTVSPropertyOp8
 70
     1
102
RTVSPropertyOp9
 70
     1
102
RTVSPropertyOp10
 70
     1
102
RTVSPropertyOp11
 70
     1
102
RTVSPropertyOp12
 70
     1
102
RTVSPropertyOp13
 70
     1
102
RTVSPropertyOp14
 70
     1
102
RTVSPropertyOp15
 70
     1
102
RTVSPropertyOp16
 70
     1
102
RTVSPropertyOp17
 70
     1
102
RTVSPropertyOp18
 70
     1
102
RTVSPropertyOp19
 70
     1
102
RTVSPropertyOp20
 70
     1
102
RTVSPropertyOp21
 70
     1
102
RTVSPropertyOp22
 70
     1
102
RTVSPropertyOp23
 70
     1
102
RTVSPropertyOp24
 70
     1
102
RTVSPropertyOp25
 70
     1
102
RTVSPropertyOp26
 70
     1
102
RTVSPropertyOp27
 70
     1
102
RTVSPropertyOp28
 70
     1
102
RTVSPropertyOp29
 70
     1
102
RTVSPropertyOp30
 70
     1
102
RTVSPropertyOp31
 70
     1
102
RTVSPropertyOp32
 70
     1
  0
XRECORD
  5
13BC
102
{ACAD_REACTORS
330
13BB
102
}
330
13BB
100
AcDbXrecord
280
     1
102
RTVSPropertyOp0
 70
     1
102
RTVSPropertyOp1
 70
     1
102
RTVSPropertyOp2
 70
     1
102
RTVSPropertyOp3
 70
     1
102
RTVSPropertyOp4
 70
     1
102
RTVSPropertyOp5
 70
     1
102
RTVSPropertyOp6
 70
     1
102
RTVSPropertyOp7
 70
     1
102
RTVSPropertyOp8
 70
     1
102
RTVSPropertyOp9
 70
     1
102
RTVSPropertyOp10
 70
     1
102
RTVSPropertyOp11
 70
     1
102
RTVSPropertyOp12
 70
     1
102
RTVSPropertyOp13
 70
     1
102
RTVSPropertyOp14
 70
     1
102
RTVSPropertyOp15
 70
     1
102
RTVSPropertyOp16
 70
     1
102
RTVSPropertyOp17
 70
     1
102
RTVSPropertyOp18
 70
     1
102
RTVSPropertyOp19
 70
     1
102
RTVSPropertyOp20
 70
     1
102
RTVSPropertyOp21
 70
     1
102
RTVSPropertyOp22
 70
     1
102
RTVSPropertyOp23
 70
     1
102
RTVSPropertyOp24
 70
     1
102
RTVSPropertyOp25
 70
     1
102
RTVSPropertyOp26
 70
     1
102
RTVSPropertyOp27
 70
     1
102
RTVSPropertyOp28
 70
     1
102
RTVSPropertyOp29
 70
     1
102
RTVSPropertyOp30
 70
     1
102
RTVSPropertyOp31
 70
     1
102
RTVSPropertyOp32
 70
     1
  0
XRECORD
  5
13AE
102
{ACAD_REACTORS
330
13AD
102
}
330
13AD
100
AcDbXrecord
280
     1
102
RTVSPropertyOp0
 70
     1
102
RTVSPropertyOp1
 70
     1
102
RTVSPropertyOp2
 70
     1
102
RTVSPropertyOp3
 70
     1
102
RTVSPropertyOp4
 70
     1
102
RTVSPropertyOp5
 70
     1
102
RTVSPropertyOp6
 70
     1
102
RTVSPropertyOp7
 70
     1
102
RTVSPropertyOp8
 70
     1
102
RTVSPropertyOp9
 70
     1
102
RTVSPropertyOp10
 70
     1
102
RTVSPropertyOp11
 70
     1
102
RTVSPropertyOp12
 70
     1
102
RTVSPropertyOp13
 70
     1
102
RTVSPropertyOp14
 70
     1
102
RTVSPropertyOp15
 70
     1
102
RTVSPropertyOp16
 70
     1
102
RTVSPropertyOp17
 70
     1
102
RTVSPropertyOp18
 70
     1
102
RTVSPropertyOp19
 70
     1
102
RTVSPropertyOp20
 70
     1
102
RTVSPropertyOp21
 70
     1
102
RTVSPropertyOp22
 70
     1
102
RTVSPropertyOp23
 70
     1
102
RTVSPropertyOp24
 70
     1
102
RTVSPropertyOp25
 70
     1
102
RTVSPropertyOp26
 70
     1
102
RTVSPropertyOp27
 70
     1
102
RTVSPropertyOp28
 70
     1
102
RTVSPropertyOp29
 70
     1
102
RTVSPropertyOp30
 70
     1
102
RTVSPropertyOp31
 70
     1
102
RTVSPropertyOp32
 70
     1
  0
XRECORD
  5
13B2
102
{ACAD_REACTORS
330
13B1
102
}
330
13B1
100
AcDbXrecord
280
     1
102
RTVSPropertyOp0
 70
     1
102
RTVSPropertyOp1
 70
     1
102
RTVSPropertyOp2
 70
     1
102
RTVSPropertyOp3
 70
     1
102
RTVSPropertyOp4
 70
     1
102
RTVSPropertyOp5
 70
     1
102
RTVSPropertyOp6
 70
     1
102
RTVSPropertyOp7
 70
     1
102
RTVSPropertyOp8
 70
     1
102
RTVSPropertyOp9
 70
     1
102
RTVSPropertyOp10
 70
     1
102
RTVSPropertyOp11
 70
     1
102
RTVSPropertyOp12
 70
     1
102
RTVSPropertyOp13
 70
     1
102
RTVSPropertyOp14
 70
     1
102
RTVSPropertyOp15
 70
     1
102
RTVSPropertyOp16
 70
     1
102
RTVSPropertyOp17
 70
     1
102
RTVSPropertyOp18
 70
     1
102
RTVSPropertyOp19
 70
     1
102
RTVSPropertyOp20
 70
     1
102
RTVSPropertyOp21
 70
     1
102
RTVSPropertyOp22
 70
     1
102
RTVSPropertyOp23
 70
     1
102
RTVSPropertyOp24
 70
     1
102
RTVSPropertyOp25
 70
     1
102
RTVSPropertyOp26
 70
     1
102
RTVSPropertyOp27
 70
     1
102
RTVSPropertyOp28
 70
     1
102
RTVSPropertyOp29
 70
     1
102
RTVSPropertyOp30
 70
     1
102
RTVSPropertyOp31
 70
     1
102
RTVSPropertyOp32
 70
     1
  0
XRECORD
  5
13CC
102
{ACAD_REACTORS
330
13CB
102
}
330
13CB
100
AcDbXrecord
280
     1
102
RTVSPropertyOp0
 70
     0
102
RTVSPropertyOp1
 70
     0
102
RTVSPropertyOp2
 70
     0
102
RTVSPropertyOp3
 70
     0
102
RTVSPropertyOp4
 70
     0
102
RTVSPropertyOp5
 70
     0
102
RTVSPropertyOp6
 70
     0
102
RTVSPropertyOp7
 70
     0
102
RTVSPropertyOp8
 70
     0
102
RTVSPropertyOp9
 70
     0
102
RTVSPropertyOp10
 70
     0
102
RTVSPropertyOp11
 70
     0
102
RTVSPropertyOp12
 70
     0
102
RTVSPropertyOp13
 70
     0
102
RTVSPropertyOp14
 70
     2
102
RTVSPropertyOp15
 70
     0
102
RTVSPropertyOp16
 70
     0
102
RTVSPropertyOp17
 70
     0
102
RTVSPropertyOp18
 70
     0
102
RTVSPropertyOp19
 70
     0
102
RTVSPropertyOp20
 70
     0
102
RTVSPropertyOp21
 70
     0
102
RTVSPropertyOp22
 70
     0
102
RTVSPropertyOp23
 70
     0
102
RTVSPropertyOp24
 70
     0
102
RTVSPropertyOp25
 70
     0
102
RTVSPropertyOp26
 70
     0
102
RTVSPropertyOp27
 70
     0
102
RTVSPropertyOp28
 70
     0
102
RTVSPropertyOp29
 70
     0
102
RTVSPropertyOp30
 70
     0
102
RTVSPropertyOp31
 70
     0
102
RTVSPropertyOp32
 70
     0
  0
XRECORD
  5
13BA
102
{ACAD_REACTORS
330
13B9
102
}
330
13B9
100
AcDbXrecord
280
     1
102
RTVSPropertyOp0
 70
     1
102
RTVSPropertyOp1
 70
     1
102
RTVSPropertyOp2
 70
     1
102
RTVSPropertyOp3
 70
     1
102
RTVSPropertyOp4
 70
     1
102
RTVSPropertyOp5
 70
     1
102
RTVSPropertyOp6
 70
     1
102
RTVSPropertyOp7
 70
     1
102
RTVSPropertyOp8
 70
     1
102
RTVSPropertyOp9
 70
     1
102
RTVSPropertyOp10
 70
     1
102
RTVSPropertyOp11
 70
     1
102
RTVSPropertyOp12
 70
     1
102
RTVSPropertyOp13
 70
     1
102
RTVSPropertyOp14
 70
     1
102
RTVSPropertyOp15
 70
     1
102
RTVSPropertyOp16
 70
     1
102
RTVSPropertyOp17
 70
     1
102
RTVSPropertyOp18
 70
     1
102
RTVSPropertyOp19
 70
     1
102
RTVSPropertyOp20
 70
     1
102
RTVSPropertyOp21
 70
     1
102
RTVSPropertyOp22
 70
     1
102
RTVSPropertyOp23
 70
     1
102
RTVSPropertyOp24
 70
     1
102
RTVSPropertyOp25
 70
     1
102
RTVSPropertyOp26
 70
     1
102
RTVSPropertyOp27
 70
     1
102
RTVSPropertyOp28
 70
     1
102
RTVSPropertyOp29
 70
     1
102
RTVSPropertyOp30
 70
     1
102
RTVSPropertyOp31
 70
     1
102
RTVSPropertyOp32
 70
     1
  0
XRECORD
  5
139E
102
{ACAD_REACTORS
330
139D
102
}
330
139D
100
AcDbXrecord
280
     1
102
RTVSPropertyOp0
 70
     1
102
RTVSPropertyOp1
 70
     1
102
RTVSPropertyOp2
 70
     1
102
RTVSPropertyOp3
 70
     1
102
RTVSPropertyOp4
 70
     1
102
RTVSPropertyOp5
 70
     1
102
RTVSPropertyOp6
 70
     1
102
RTVSPropertyOp7
 70
     1
102
RTVSPropertyOp8
 70
     1
102
RTVSPropertyOp9
 70
     1
102
RTVSPropertyOp10
 70
     1
102
RTVSPropertyOp11
 70
     1
102
RTVSPropertyOp12
 70
     1
102
RTVSPropertyOp13
 70
     1
102
RTVSPropertyOp14
 70
     1
102
RTVSPropertyOp15
 70
     1
102
RTVSPropertyOp16
 70
     1
102
RTVSPropertyOp17
 70
     1
102
RTVSPropertyOp18
 70
     1
102
RTVSPropertyOp19
 70
     1
102
RTVSPropertyOp20
 70
     1
102
RTVSPropertyOp21
 70
     1
102
RTVSPropertyOp22
 70
     1
102
RTVSPropertyOp23
 70
     1
102
RTVSPropertyOp24
 70
     1
102
RTVSPropertyOp25
 70
     1
102
RTVSPropertyOp26
 70
     1
102
RTVSPropertyOp27
 70
     1
102
RTVSPropertyOp28
 70
     1
102
RTVSPropertyOp29
 70
     1
102
RTVSPropertyOp30
 70
     1
102
RTVSPropertyOp31
 70
     1
102
RTVSPropertyOp32
 70
     1
  0
XRECORD
  5
13A0
102
{ACAD_REACTORS
330
139F
102
}
330
139F
100
AcDbXrecord
280
     1
102
RTVSPropertyOp0
 70
     1
102
RTVSPropertyOp1
 70
     1
102
RTVSPropertyOp2
 70
     1
102
RTVSPropertyOp3
 70
     1
102
RTVSPropertyOp4
 70
     1
102
RTVSPropertyOp5
 70
     1
102
RTVSPropertyOp6
 70
     1
102
RTVSPropertyOp7
 70
     1
102
RTVSPropertyOp8
 70
     1
102
RTVSPropertyOp9
 70
     1
102
RTVSPropertyOp10
 70
     1
102
RTVSPropertyOp11
 70
     1
102
RTVSPropertyOp12
 70
     1
102
RTVSPropertyOp13
 70
     1
102
RTVSPropertyOp14
 70
     1
102
RTVSPropertyOp15
 70
     1
102
RTVSPropertyOp16
 70
     1
102
RTVSPropertyOp17
 70
     1
102
RTVSPropertyOp18
 70
     1
102
RTVSPropertyOp19
 70
     1
102
RTVSPropertyOp20
 70
     1
102
RTVSPropertyOp21
 70
     1
102
RTVSPropertyOp22
 70
     1
102
RTVSPropertyOp23
 70
     1
102
RTVSPropertyOp24
 70
     1
102
RTVSPropertyOp25
 70
     1
102
RTVSPropertyOp26
 70
     1
102
RTVSPropertyOp27
 70
     1
102
RTVSPropertyOp28
 70
     1
102
RTVSPropertyOp29
 70
     1
102
RTVSPropertyOp30
 70
     1
102
RTVSPropertyOp31
 70
     1
102
RTVSPropertyOp32
 70
     1
  0
XRECORD
  5
13A2
102
{ACAD_REACTORS
330
13A1
102
}
330
13A1
100
AcDbXrecord
280
     1
102
RTVSPropertyOp0
 70
     1
102
RTVSPropertyOp1
 70
     1
102
RTVSPropertyOp2
 70
     1
102
RTVSPropertyOp3
 70
     1
102
RTVSPropertyOp4
 70
     1
102
RTVSPropertyOp5
 70
     1
102
RTVSPropertyOp6
 70
     1
102
RTVSPropertyOp7
 70
     1
102
RTVSPropertyOp8
 70
     1
102
RTVSPropertyOp9
 70
     1
102
RTVSPropertyOp10
 70
     1
102
RTVSPropertyOp11
 70
     1
102
RTVSPropertyOp12
 70
     1
102
RTVSPropertyOp13
 70
     1
102
RTVSPropertyOp14
 70
     1
102
RTVSPropertyOp15
 70
     1
102
RTVSPropertyOp16
 70
     1
102
RTVSPropertyOp17
 70
     1
102
RTVSPropertyOp18
 70
     1
102
RTVSPropertyOp19
 70
     1
102
RTVSPropertyOp20
 70
     1
102
RTVSPropertyOp21
 70
     1
102
RTVSPropertyOp22
 70
     1
102
RTVSPropertyOp23
 70
     1
102
RTVSPropertyOp24
 70
     1
102
RTVSPropertyOp25
 70
     1
102
RTVSPropertyOp26
 70
     1
102
RTVSPropertyOp27
 70
     1
102
RTVSPropertyOp28
 70
     1
102
RTVSPropertyOp29
 70
     1
102
RTVSPropertyOp30
 70
     1
102
RTVSPropertyOp31
 70
     1
102
RTVSPropertyOp32
 70
     1
  0
XRECORD
  5
13A4
102
{ACAD_REACTORS
330
13A3
102
}
330
13A3
100
AcDbXrecord
280
     1
102
RTVSPropertyOp0
 70
     1
102
RTVSPropertyOp1
 70
     1
102
RTVSPropertyOp2
 70
     1
102
RTVSPropertyOp3
 70
     1
102
RTVSPropertyOp4
 70
     1
102
RTVSPropertyOp5
 70
     1
102
RTVSPropertyOp6
 70
     1
102
RTVSPropertyOp7
 70
     1
102
RTVSPropertyOp8
 70
     1
102
RTVSPropertyOp9
 70
     1
102
RTVSPropertyOp10
 70
     1
102
RTVSPropertyOp11
 70
     1
102
RTVSPropertyOp12
 70
     1
102
RTVSPropertyOp13
 70
     1
102
RTVSPropertyOp14
 70
     1
102
RTVSPropertyOp15
 70
     1
102
RTVSPropertyOp16
 70
     1
102
RTVSPropertyOp17
 70
     1
102
RTVSPropertyOp18
 70
     1
102
RTVSPropertyOp19
 70
     1
102
RTVSPropertyOp20
 70
     1
102
RTVSPropertyOp21
 70
     1
102
RTVSPropertyOp22
 70
     1
102
RTVSPropertyOp23
 70
     1
102
RTVSPropertyOp24
 70
     1
102
RTVSPropertyOp25
 70
     1
102
RTVSPropertyOp26
 70
     1
102
RTVSPropertyOp27
 70
     1
102
RTVSPropertyOp28
 70
     1
102
RTVSPropertyOp29
 70
     1
102
RTVSPropertyOp30
 70
     1
102
RTVSPropertyOp31
 70
     1
102
RTVSPropertyOp32
 70
     1
  0
XRECORD
  5
13AC
102
{ACAD_REACTORS
330
13AB
102
}
330
13AB
100
AcDbXrecord
280
     1
102
RTVSPropertyOp0
 70
     1
102
RTVSPropertyOp1
 70
     1
102
RTVSPropertyOp2
 70
     1
102
RTVSPropertyOp3
 70
     1
102
RTVSPropertyOp4
 70
     1
102
RTVSPropertyOp5
 70
     1
102
RTVSPropertyOp6
 70
     1
102
RTVSPropertyOp7
 70
     1
102
RTVSPropertyOp8
 70
     1
102
RTVSPropertyOp9
 70
     1
102
RTVSPropertyOp10
 70
     1
102
RTVSPropertyOp11
 70
     1
102
RTVSPropertyOp12
 70
     1
102
RTVSPropertyOp13
 70
     1
102
RTVSPropertyOp14
 70
     1
102
RTVSPropertyOp15
 70
     1
102
RTVSPropertyOp16
 70
     1
102
RTVSPropertyOp17
 70
     1
102
RTVSPropertyOp18
 70
     1
102
RTVSPropertyOp19
 70
     1
102
RTVSPropertyOp20
 70
     1
102
RTVSPropertyOp21
 70
     1
102
RTVSPropertyOp22
 70
     1
102
RTVSPropertyOp23
 70
     1
102
RTVSPropertyOp24
 70
     1
102
RTVSPropertyOp25
 70
     1
102
RTVSPropertyOp26
 70
     1
102
RTVSPropertyOp27
 70
     1
102
RTVSPropertyOp28
 70
     1
102
RTVSPropertyOp29
 70
     1
102
RTVSPropertyOp30
 70
     1
102
RTVSPropertyOp31
 70
     1
102
RTVSPropertyOp32
 70
     1
  0
XRECORD
  5
13C8
102
{ACAD_REACTORS
330
13C7
102
}
330
13C7
100
AcDbXrecord
280
     1
102
RTVSPropertyOp0
 70
     0
102
RTVSPropertyOp1
 70
     0
102
RTVSPropertyOp2
 70
     0
102
RTVSPropertyOp3
 70
     0
102
RTVSPropertyOp4
 70
     0
102
RTVSPropertyOp5
 70
     0
102
RTVSPropertyOp6
 70
     0
102
RTVSPropertyOp7
 70
     0
102
RTVSPropertyOp8
 70
     0
102
RTVSPropertyOp9
 70
     0
102
RTVSPropertyOp10
 70
     0
102
RTVSPropertyOp11
 70
     0
102
RTVSPropertyOp12
 70
     0
102
RTVSPropertyOp13
 70
     0
102
RTVSPropertyOp14
 70
     2
102
RTVSPropertyOp15
 70
     0
102
RTVSPropertyOp16
 70
     0
102
RTVSPropertyOp17
 70
     0
102
RTVSPropertyOp18
 70
     0
102
RTVSPropertyOp19
 70
     0
102
RTVSPropertyOp20
 70
     0
102
RTVSPropertyOp21
 70
     0
102
RTVSPropertyOp22
 70
     0
102
RTVSPropertyOp23
 70
     0
102
RTVSPropertyOp24
 70
     0
102
RTVSPropertyOp25
 70
     0
102
RTVSPropertyOp26
 70
     0
102
RTVSPropertyOp27
 70
     0
102
RTVSPropertyOp28
 70
     0
102
RTVSPropertyOp29
 70
     0
102
RTVSPropertyOp30
 70
     0
102
RTVSPropertyOp31
 70
     0
102
RTVSPropertyOp32
 70
     0
  0
XRECORD
  5
13B8
102
{ACAD_REACTORS
330
13B7
102
}
330
13B7
100
AcDbXrecord
280
     1
102
RTVSPropertyOp0
 70
     1
102
RTVSPropertyOp1
 70
     1
102
RTVSPropertyOp2
 70
     1
102
RTVSPropertyOp3
 70
     1
102
RTVSPropertyOp4
 70
     1
102
RTVSPropertyOp5
 70
     1
102
RTVSPropertyOp6
 70
     1
102
RTVSPropertyOp7
 70
     1
102
RTVSPropertyOp8
 70
     1
102
RTVSPropertyOp9
 70
     1
102
RTVSPropertyOp10
 70
     1
102
RTVSPropertyOp11
 70
     1
102
RTVSPropertyOp12
 70
     1
102
RTVSPropertyOp13
 70
     1
102
RTVSPropertyOp14
 70
     1
102
RTVSPropertyOp15
 70
     1
102
RTVSPropertyOp16
 70
     1
102
RTVSPropertyOp17
 70
     1
102
RTVSPropertyOp18
 70
     1
102
RTVSPropertyOp19
 70
     1
102
RTVSPropertyOp20
 70
     1
102
RTVSPropertyOp21
 70
     1
102
RTVSPropertyOp22
 70
     1
102
RTVSPropertyOp23
 70
     1
102
RTVSPropertyOp24
 70
     1
102
RTVSPropertyOp25
 70
     1
102
RTVSPropertyOp26
 70
     1
102
RTVSPropertyOp27
 70
     1
102
RTVSPropertyOp28
 70
     1
102
RTVSPropertyOp29
 70
     1
102
RTVSPropertyOp30
 70
     1
102
RTVSPropertyOp31
 70
     1
102
RTVSPropertyOp32
 70
     1
  0
XRECORD
  5
13CA
102
{ACAD_REACTORS
330
13C9
102
}
330
13C9
100
AcDbXrecord
280
     1
102
RTVSPropertyOp0
 70
     0
102
RTVSPropertyOp1
 70
     0
102
RTVSPropertyOp2
 70
     0
102
RTVSPropertyOp3
 70
     0
102
RTVSPropertyOp4
 70
     0
102
RTVSPropertyOp5
 70
     0
102
RTVSPropertyOp6
 70
     0
102
RTVSPropertyOp7
 70
     0
102
RTVSPropertyOp8
 70
     0
102
RTVSPropertyOp9
 70
     0
102
RTVSPropertyOp10
 70
     0
102
RTVSPropertyOp11
 70
     0
102
RTVSPropertyOp12
 70
     0
102
RTVSPropertyOp13
 70
     0
102
RTVSPropertyOp14
 70
     2
102
RTVSPropertyOp15
 70
     0
102
RTVSPropertyOp16
 70
     0
102
RTVSPropertyOp17
 70
     0
102
RTVSPropertyOp18
 70
     0
102
RTVSPropertyOp19
 70
     0
102
RTVSPropertyOp20
 70
     0
102
RTVSPropertyOp21
 70
     0
102
RTVSPropertyOp22
 70
     0
102
RTVSPropertyOp23
 70
     0
102
RTVSPropertyOp24
 70
     0
102
RTVSPropertyOp25
 70
     0
102
RTVSPropertyOp26
 70
     0
102
RTVSPropertyOp27
 70
     0
102
RTVSPropertyOp28
 70
     0
102
RTVSPropertyOp29
 70
     0
102
RTVSPropertyOp30
 70
     0
102
RTVSPropertyOp31
 70
     0
102
RTVSPropertyOp32
 70
     0
  0
XRECORD
  5
13B0
102
{ACAD_REACTORS
330
13AF
102
}
330
13AF
100
AcDbXrecord
280
     1
102
RTVSPropertyOp0
 70
     1
102
RTVSPropertyOp1
 70
     1
102
RTVSPropertyOp2
 70
     1
102
RTVSPropertyOp3
 70
     1
102
RTVSPropertyOp4
 70
     1
102
RTVSPropertyOp5
 70
     1
102
RTVSPropertyOp6
 70
     1
102
RTVSPropertyOp7
 70
     1
102
RTVSPropertyOp8
 70
     1
102
RTVSPropertyOp9
 70
     1
102
RTVSPropertyOp10
 70
     1
102
RTVSPropertyOp11
 70
     1
102
RTVSPropertyOp12
 70
     1
102
RTVSPropertyOp13
 70
     1
102
RTVSPropertyOp14
 70
     1
102
RTVSPropertyOp15
 70
     1
102
RTVSPropertyOp16
 70
     1
102
RTVSPropertyOp17
 70
     1
102
RTVSPropertyOp18
 70
     1
102
RTVSPropertyOp19
 70
     1
102
RTVSPropertyOp20
 70
     1
102
RTVSPropertyOp21
 70
     1
102
RTVSPropertyOp22
 70
     1
102
RTVSPropertyOp23
 70
     1
102
RTVSPropertyOp24
 70
     1
102
RTVSPropertyOp25
 70
     1
102
RTVSPropertyOp26
 70
     1
102
RTVSPropertyOp27
 70
     1
102
RTVSPropertyOp28
 70
     1
102
RTVSPropertyOp29
 70
     1
102
RTVSPropertyOp30
 70
     1
102
RTVSPropertyOp31
 70
     1
102
RTVSPropertyOp32
 70
     1
  0
XRECORD
  5
13C6
102
{ACAD_REACTORS
330
13C5
102
}
330
13C5
100
AcDbXrecord
280
     1
102
RTVSPropertyOp0
 70
     1
102
RTVSPropertyOp1
 70
     1
102
RTVSPropertyOp2
 70
     1
102
RTVSPropertyOp3
 70
     1
102
RTVSPropertyOp4
 70
     1
102
RTVSPropertyOp5
 70
     1
102
RTVSPropertyOp6
 70
     1
102
RTVSPropertyOp7
 70
     1
102
RTVSPropertyOp8
 70
     1
102
RTVSPropertyOp9
 70
     1
102
RTVSPropertyOp10
 70
     1
102
RTVSPropertyOp11
 70
     1
102
RTVSPropertyOp12
 70
     1
102
RTVSPropertyOp13
 70
     1
102
RTVSPropertyOp14
 70
     1
102
RTVSPropertyOp15
 70
     1
102
RTVSPropertyOp16
 70
     1
102
RTVSPropertyOp17
 70
     1
102
RTVSPropertyOp18
 70
     1
102
RTVSPropertyOp19
 70
     1
102
RTVSPropertyOp20
 70
     1
102
RTVSPropertyOp21
 70
     1
102
RTVSPropertyOp22
 70
     1
102
RTVSPropertyOp23
 70
     1
102
RTVSPropertyOp24
 70
     1
102
RTVSPropertyOp25
 70
     1
102
RTVSPropertyOp26
 70
     1
102
RTVSPropertyOp27
 70
     1
102
RTVSPropertyOp28
 70
     1
102
RTVSPropertyOp29
 70
     1
102
RTVSPropertyOp30
 70
     1
102
RTVSPropertyOp31
 70
     1
102
RTVSPropertyOp32
 70
     1
  0
XRECORD
  5
13C4
102
{ACAD_REACTORS
330
13C3
102
}
330
13C3
100
AcDbXrecord
280
     1
102
RTVSPropertyOp0
 70
     1
102
RTVSPropertyOp1
 70
     1
102
RTVSPropertyOp2
 70
     1
102
RTVSPropertyOp3
 70
     1
102
RTVSPropertyOp4
 70
     1
102
RTVSPropertyOp5
 70
     1
102
RTVSPropertyOp6
 70
     1
102
RTVSPropertyOp7
 70
     1
102
RTVSPropertyOp8
 70
     1
102
RTVSPropertyOp9
 70
     1
102
RTVSPropertyOp10
 70
     1
102
RTVSPropertyOp11
 70
     1
102
RTVSPropertyOp12
 70
     1
102
RTVSPropertyOp13
 70
     1
102
RTVSPropertyOp14
 70
     1
102
RTVSPropertyOp15
 70
     1
102
RTVSPropertyOp16
 70
     1
102
RTVSPropertyOp17
 70
     1
102
RTVSPropertyOp18
 70
     1
102
RTVSPropertyOp19
 70
     1
102
RTVSPropertyOp20
 70
     1
102
RTVSPropertyOp21
 70
     1
102
RTVSPropertyOp22
 70
     1
102
RTVSPropertyOp23
 70
     1
102
RTVSPropertyOp24
 70
     1
102
RTVSPropertyOp25
 70
     1
102
RTVSPropertyOp26
 70
     1
102
RTVSPropertyOp27
 70
     1
102
RTVSPropertyOp28
 70
     1
102
RTVSPropertyOp29
 70
     1
102
RTVSPropertyOp30
 70
     1
102
RTVSPropertyOp31
 70
     1
102
RTVSPropertyOp32
 70
     1
  0
XRECORD
  5
13BE
102
{ACAD_REACTORS
330
13BD
102
}
330
13BD
100
AcDbXrecord
280
     1
102
RTVSPropertyOp0
 70
     1
102
RTVSPropertyOp1
 70
     1
102
RTVSPropertyOp2
 70
     1
102
RTVSPropertyOp3
 70
     1
102
RTVSPropertyOp4
 70
     1
102
RTVSPropertyOp5
 70
     1
102
RTVSPropertyOp6
 70
     1
102
RTVSPropertyOp7
 70
     1
102
RTVSPropertyOp8
 70
     1
102
RTVSPropertyOp9
 70
     1
102
RTVSPropertyOp10
 70
     1
102
RTVSPropertyOp11
 70
     1
102
RTVSPropertyOp12
 70
     1
102
RTVSPropertyOp13
 70
     1
102
RTVSPropertyOp14
 70
     1
102
RTVSPropertyOp15
 70
     1
102
RTVSPropertyOp16
 70
     1
102
RTVSPropertyOp17
 70
     1
102
RTVSPropertyOp18
 70
     1
102
RTVSPropertyOp19
 70
     1
102
RTVSPropertyOp20
 70
     1
102
RTVSPropertyOp21
 70
     1
102
RTVSPropertyOp22
 70
     1
102
RTVSPropertyOp23
 70
     1
102
RTVSPropertyOp24
 70
     1
102
RTVSPropertyOp25
 70
     1
102
RTVSPropertyOp26
 70
     1
102
RTVSPropertyOp27
 70
     1
102
RTVSPropertyOp28
 70
     1
102
RTVSPropertyOp29
 70
     1
102
RTVSPropertyOp30
 70
     1
102
RTVSPropertyOp31
 70
     1
102
RTVSPropertyOp32
 70
     1
  0
XRECORD
  5
13C0
102
{ACAD_REACTORS
330
13BF
102
}
330
13BF
100
AcDbXrecord
280
     1
102
RTVSPropertyOp0
 70
     1
102
RTVSPropertyOp1
 70
     1
102
RTVSPropertyOp2
 70
     1
102
RTVSPropertyOp3
 70
     1
102
RTVSPropertyOp4
 70
     1
102
RTVSPropertyOp5
 70
     1
102
RTVSPropertyOp6
 70
     1
102
RTVSPropertyOp7
 70
     1
102
RTVSPropertyOp8
 70
     1
102
RTVSPropertyOp9
 70
     1
102
RTVSPropertyOp10
 70
     1
102
RTVSPropertyOp11
 70
     1
102
RTVSPropertyOp12
 70
     1
102
RTVSPropertyOp13
 70
     1
102
RTVSPropertyOp14
 70
     1
102
RTVSPropertyOp15
 70
     1
102
RTVSPropertyOp16
 70
     1
102
RTVSPropertyOp17
 70
     1
102
RTVSPropertyOp18
 70
     1
102
RTVSPropertyOp19
 70
     1
102
RTVSPropertyOp20
 70
     1
102
RTVSPropertyOp21
 70
     1
102
RTVSPropertyOp22
 70
     1
102
RTVSPropertyOp23
 70
     1
102
RTVSPropertyOp24
 70
     1
102
RTVSPropertyOp25
 70
     1
102
RTVSPropertyOp26
 70
     1
102
RTVSPropertyOp27
 70
     1
102
RTVSPropertyOp28
 70
     1
102
RTVSPropertyOp29
 70
     1
102
RTVSPropertyOp30
 70
     1
102
RTVSPropertyOp31
 70
     1
102
RTVSPropertyOp32
 70
     1
  0
XRECORD
  5
13B6
102
{ACAD_REACTORS
330
13B5
102
}
330
13B5
100
AcDbXrecord
280
     1
102
RTVSPropertyOp0
 70
     1
102
RTVSPropertyOp1
 70
     1
102
RTVSPropertyOp2
 70
     1
102
RTVSPropertyOp3
 70
     1
102
RTVSPropertyOp4
 70
     1
102
RTVSPropertyOp5
 70
     1
102
RTVSPropertyOp6
 70
     1
102
RTVSPropertyOp7
 70
     1
102
RTVSPropertyOp8
 70
     1
102
RTVSPropertyOp9
 70
     1
102
RTVSPropertyOp10
 70
     1
102
RTVSPropertyOp11
 70
     1
102
RTVSPropertyOp12
 70
     1
102
RTVSPropertyOp13
 70
     1
102
RTVSPropertyOp14
 70
     1
102
RTVSPropertyOp15
 70
     1
102
RTVSPropertyOp16
 70
     1
102
RTVSPropertyOp17
 70
     1
102
RTVSPropertyOp18
 70
     1
102
RTVSPropertyOp19
 70
     1
102
RTVSPropertyOp20
 70
     1
102
RTVSPropertyOp21
 70
     1
102
RTVSPropertyOp22
 70
     1
102
RTVSPropertyOp23
 70
     1
102
RTVSPropertyOp24
 70
     1
102
RTVSPropertyOp25
 70
     1
102
RTVSPropertyOp26
 70
     1
102
RTVSPropertyOp27
 70
     1
102
RTVSPropertyOp28
 70
     1
102
RTVSPropertyOp29
 70
     1
102
RTVSPropertyOp30
 70
     1
102
RTVSPropertyOp31
 70
     1
102
RTVSPropertyOp32
 70
     1
  0
XRECORD
  5
13AA
102
{ACAD_REACTORS
330
13A9
102
}
330
13A9
100
AcDbXrecord
280
     1
102
RTVSPropertyOp0
 70
     1
102
RTVSPropertyOp1
 70
     1
102
RTVSPropertyOp2
 70
     1
102
RTVSPropertyOp3
 70
     1
102
RTVSPropertyOp4
 70
     1
102
RTVSPropertyOp5
 70
     1
102
RTVSPropertyOp6
 70
     1
102
RTVSPropertyOp7
 70
     1
102
RTVSPropertyOp8
 70
     1
102
RTVSPropertyOp9
 70
     1
102
RTVSPropertyOp10
 70
     1
102
RTVSPropertyOp11
 70
     1
102
RTVSPropertyOp12
 70
     1
102
RTVSPropertyOp13
 70
     1
102
RTVSPropertyOp14
 70
     1
102
RTVSPropertyOp15
 70
     1
102
RTVSPropertyOp16
 70
     1
102
RTVSPropertyOp17
 70
     1
102
RTVSPropertyOp18
 70
     1
102
RTVSPropertyOp19
 70
     1
102
RTVSPropertyOp20
 70
     1
102
RTVSPropertyOp21
 70
     1
102
RTVSPropertyOp22
 70
     1
102
RTVSPropertyOp23
 70
     1
102
RTVSPropertyOp24
 70
     1
102
RTVSPropertyOp25
 70
     1
102
RTVSPropertyOp26
 70
     1
102
RTVSPropertyOp27
 70
     1
102
RTVSPropertyOp28
 70
     1
102
RTVSPropertyOp29
 70
     1
102
RTVSPropertyOp30
 70
     1
102
RTVSPropertyOp31
 70
     1
102
RTVSPropertyOp32
 70
     1
  0
XRECORD
  5
13C2
102
{ACAD_REACTORS
330
13C1
102
}
330
13C1
100
AcDbXrecord
280
     1
102
RTVSPropertyOp0
 70
     1
102
RTVSPropertyOp1
 70
     1
102
RTVSPropertyOp2
 70
     1
102
RTVSPropertyOp3
 70
     1
102
RTVSPropertyOp4
 70
     1
102
RTVSPropertyOp5
 70
     1
102
RTVSPropertyOp6
 70
     1
102
RTVSPropertyOp7
 70
     1
102
RTVSPropertyOp8
 70
     1
102
RTVSPropertyOp9
 70
     1
102
RTVSPropertyOp10
 70
     1
102
RTVSPropertyOp11
 70
     1
102
RTVSPropertyOp12
 70
     1
102
RTVSPropertyOp13
 70
     1
102
RTVSPropertyOp14
 70
     1
102
RTVSPropertyOp15
 70
     1
102
RTVSPropertyOp16
 70
     1
102
RTVSPropertyOp17
 70
     1
102
RTVSPropertyOp18
 70
     1
102
RTVSPropertyOp19
 70
     1
102
RTVSPropertyOp20
 70
     1
102
RTVSPropertyOp21
 70
     1
102
RTVSPropertyOp22
 70
     1
102
RTVSPropertyOp23
 70
     1
102
RTVSPropertyOp24
 70
     1
102
RTVSPropertyOp25
 70
     1
102
RTVSPropertyOp26
 70
     1
102
RTVSPropertyOp27
 70
     1
102
RTVSPropertyOp28
 70
     1
102
RTVSPropertyOp29
 70
     1
102
RTVSPropertyOp30
 70
     1
102
RTVSPropertyOp31
 70
     1
102
RTVSPropertyOp32
 70
     1
  0
ENDSEC
  0
EOF
