  0
SECTION
  2
HEADER
  9
$ACADVER
  1
AC1015
  9
$ACADMAINTVER
 70
    20
  9
$DWGCODEPAGE
  3
ANSI_932
  9
$INSBASE
 10
0.0
 20
0.0
 30
0.0
  9
$EXTMIN
 10
-192.880717
 20
-144.814439
 30
0.0
  9
$EXTMAX
 10
212.119283
 20
129.240922
 30
0.0
  9
$LIMMIN
 10
-192.881722
 20
-144.815438
  9
$LIMMAX
 10
212.146142
 20
129.241921
  9
$ORTHOMODE
 70
     1
  9
$REGENMODE
 70
     1
  9
$FILLMODE
 70
     1
  9
$QTEXTMODE
 70
     0
  9
$MIRRTEXT
 70
     0
  9
$LTSCALE
 40
6.750430999999997
  9
$ATTMODE
 70
     1
  9
$TEXTSIZE
 40
3.2
  9
$TRACEWID
 40
0.05
  9
$TEXTSTYLE
  7
高3.2
  9
$CLAYER
  8
0
  9
$CELTYPE
  6
CONTINUOUS
  9
$CECOLOR
 62
   256
  9
$CELTSCALE
 40
1.0
  9
$DISPSILH
 70
     0
  9
$DIMSCALE
 40
1.0
  9
$DIMASZ
 40
2.5
  9
$DIMEXO
 40
0.25
  9
$DIMDLI
 40
0.2
  9
$DIMRND
 40
0.0
  9
$DIMDLE
 40
0.0
  9
$DIMEXE
 40
1.25
  9
$DIMTP
 40
0.0
  9
$DIMTM
 40
0.0
  9
$DIMTXT
 40
3.0
  9
$DIMCEN
 40
0.0
  9
$DIMTSZ
 40
0.0
  9
$DIMTOL
 70
     0
  9
$DIMLIM
 70
     0
  9
$DIMTIH
 70
     0
  9
$DIMTOH
 70
     0
  9
$DIMSE1
 70
     0
  9
$DIMSE2
 70
     0
  9
$DIMTAD
 70
     3
  9
$DIMZIN
 70
     8
  9
$DIMBLK
  1
Open30
  9
$DIMASO
 70
     1
  9
$DIMSHO
 70
     1
  9
$DIMPOST
  1

  9
$DIMAPOST
  1

  9
$DIMALT
 70
     0
  9
$DIMALTD
 70
     3
  9
$DIMALTF
 40
0.03937007874016
  9
$DIMLFAC
 40
1.0
  9
$DIMTOFL
 70
     1
  9
$DIMTVP
 40
0.0
  9
$DIMTIX
 70
     0
  9
$DIMSOXD
 70
     0
  9
$DIMSAH
 70
     0
  9
$DIMBLK1
  1

  9
$DIMBLK2
  1

  9
$DIMSTYLE
  2
FREE
  9
$DIMCLRD
 70
     0
  9
$DIMCLRE
 70
     0
  9
$DIMCLRT
 70
     4
  9
$DIMTFAC
 40
1.0
  9
$DIMGAP
 40
0.625
  9
$DIMJUST
 70
     0
  9
$DIMSD1
 70
     0
  9
$DIMSD2
 70
     0
  9
$DIMTOLJ
 70
     0
  9
$DIMTZIN
 70
     8
  9
$DIMALTZ
 70
     0
  9
$DIMALTTZ
 70
     0
  9
$DIMUPT
 70
     1
  9
$DIMDEC
 70
     2
  9
$DIMTDEC
 70
     2
  9
$DIMALTU
 70
     2
  9
$DIMALTTD
 70
     3
  9
$DIMTXSTY
  7
STANDARD
  9
$DIMAUNIT
 70
     0
  9
$DIMADEC
 70
     1
  9
$DIMALTRND
 40
0.0
  9
$DIMAZIN
 70
     2
  9
$DIMDSEP
 70
    46
  9
$DIMATFIT
 70
     0
  9
$DIMFRAC
 70
     0
  9
$DIMLDRBLK
  1
Open30
  9
$DIMLUNIT
 70
     2
  9
$DIMLWD
 70
    -2
  9
$DIMLWE
 70
    -2
  9
$DIMTMOVE
 70
     0
  9
$LUNITS
 70
     2
  9
$LUPREC
 70
     4
  9
$SKETCHINC
 40
0.1
  9
$FILLETRAD
 40
0.0
  9
$AUNITS
 70
     0
  9
$AUPREC
 70
     0
  9
$MENU
  1
.
  9
$ELEVATION
 40
0.0
  9
$PELEVATION
 40
0.0
  9
$THICKNESS
 40
0.0
  9
$LIMCHECK
 70
     0
  9
$CHAMFERA
 40
0.0
  9
$CHAMFERB
 40
0.0
  9
$CHAMFERC
 40
0.0
  9
$CHAMFERD
 40
0.0
  9
$SKPOLY
 70
     0
  9
$TDCREATE
 40
2455825.830750324
  9
$TDUCREATE
 40
2455825.455750324
  9
$TDUPDATE
 40
2460291.754522558
  9
$TDUUPDATE
 40
2460291.379522558
  9
$TDINDWG
 40
0.1186693866
  9
$TDUSRTIMER
 40
0.1186685069
  9
$USRTIMER
 70
     1
  9
$ANGBASE
 50
0.0
  9
$ANGDIR
 70
     0
  9
$PDMODE
 70
     0
  9
$PDSIZE
 40
0.0
  9
$PLINEWID
 40
0.0
  9
$SPLFRAME
 70
     0
  9
$SPLINETYPE
 70
     6
  9
$SPLINESEGS
 70
     8
  9
$HANDSEED
  5
EEB
  9
$SURFTAB1
 70
     6
  9
$SURFTAB2
 70
     6
  9
$SURFTYPE
 70
     6
  9
$SURFU
 70
     6
  9
$SURFV
 70
     6
  9
$UCSBASE
  2

  9
$UCSNAME
  2

  9
$UCSORG
 10
0.0
 20
0.0
 30
0.0
  9
$UCSXDIR
 10
1.0
 20
0.0
 30
0.0
  9
$UCSYDIR
 10
0.0
 20
1.0
 30
0.0
  9
$UCSORTHOREF
  2

  9
$UCSORTHOVIEW
 70
     0
  9
$UCSORGTOP
 10
0.0
 20
0.0
 30
0.0
  9
$UCSORGBOTTOM
 10
0.0
 20
0.0
 30
0.0
  9
$UCSORGLEFT
 10
0.0
 20
0.0
 30
0.0
  9
$UCSORGRIGHT
 10
0.0
 20
0.0
 30
0.0
  9
$UCSORGFRONT
 10
0.0
 20
0.0
 30
0.0
  9
$UCSORGBACK
 10
0.0
 20
0.0
 30
0.0
  9
$PUCSBASE
  2

  9
$PUCSNAME
  2

  9
$PUCSORG
 10
0.0
 20
0.0
 30
0.0
  9
$PUCSXDIR
 10
1.0
 20
0.0
 30
0.0
  9
$PUCSYDIR
 10
0.0
 20
1.0
 30
0.0
  9
$PUCSORTHOREF
  2

  9
$PUCSORTHOVIEW
 70
     0
  9
$PUCSORGTOP
 10
0.0
 20
0.0
 30
0.0
  9
$PUCSORGBOTTOM
 10
0.0
 20
0.0
 30
0.0
  9
$PUCSORGLEFT
 10
0.0
 20
0.0
 30
0.0
  9
$PUCSORGRIGHT
 10
0.0
 20
0.0
 30
0.0
  9
$PUCSORGFRONT
 10
0.0
 20
0.0
 30
0.0
  9
$PUCSORGBACK
 10
0.0
 20
0.0
 30
0.0
  9
$USERI1
 70
     0
  9
$USERI2
 70
     0
  9
$USERI3
 70
     0
  9
$USERI4
 70
     0
  9
$USERI5
 70
     0
  9
$USERR1
 40
0.0
  9
$USERR2
 40
0.0
  9
$USERR3
 40
0.0
  9
$USERR4
 40
0.0
  9
$USERR5
 40
0.0
  9
$WORLDVIEW
 70
     1
  9
$SHADEDGE
 70
     3
  9
$SHADEDIF
 70
    70
  9
$TILEMODE
 70
     1
  9
$MAXACTVP
 70
    64
  9
$PINSBASE
 10
0.0
 20
0.0
 30
0.0
  9
$PLIMCHECK
 70
     0
  9
$PEXTMIN
 10
1.000000000000000E+20
 20
1.000000000000000E+20
 30
1.000000000000000E+20
  9
$PEXTMAX
 10
-1.000000000000000E+20
 20
-1.000000000000000E+20
 30
-1.000000000000000E+20
  9
$PLIMMIN
 10
0.0
 20
0.0
  9
$PLIMMAX
 10
12.0
 20
9.0
  9
$UNITMODE
 70
     0
  9
$VISRETAIN
 70
     1
  9
$PLINEGEN
 70
     0
  9
$PSLTSCALE
 70
     1
  9
$TREEDEPTH
 70
  3020
  9
$CMLSTYLE
  2
Standard
  9
$CMLJUST
 70
     0
  9
$CMLSCALE
 40
1.0
  9
$PROXYGRAPHICS
 70
     1
  9
$MEASUREMENT
 70
     0
  9
$CELWEIGHT
370
    -1
  9
$ENDCAPS
280
     0
  9
$JOINSTYLE
280
     0
  9
$LWDISPLAY
290
     0
  9
$INSUNITS
 70
     0
  9
$HYPERLINKBASE
  1

  9
$STYLESHEET
  1

  9
$XEDIT
290
     1
  9
$CEPSNTYPE
380
     0
  9
$PSTYLEMODE
290
     1
  9
$FINGERPRINTGUID
  2
{12E0A432-480D-41EF-B8EE-FA80C47ECE03}
  9
$VERSIONGUID
  2
{2914BEE2-15E0-40C3-A1DD-CB3EFFF8F767}
  9
$EXTNAMES
290
     1
  9
$PSVPSCALE
 40
0.0
  9
$OLESTARTUP
290
     0
  0
ENDSEC
  0
SECTION
  2
CLASSES
  0
CLASS
  1
ACDBDICTIONARYWDFLT
  2
AcDbDictionaryWithDefault
  3
ObjectDBX Classes
 90
        0
280
     0
281
     0
  0
CLASS
  1
MATERIAL
  2
AcDbMaterial
  3
ObjectDBX Classes
 90
     1153
280
     0
281
     0
  0
CLASS
  1
VISUALSTYLE
  2
AcDbVisualStyle
  3
ObjectDBX Classes
 90
     4095
280
     0
281
     0
  0
CLASS
  1
TABLESTYLE
  2
AcDbTableStyle
  3
ObjectDBX Classes
 90
     4095
280
     0
281
     0
  0
CLASS
  1
SORTENTSTABLE
  2
AcDbSortentsTable
  3
ObjectDBX Classes
 90
        0
280
     0
281
     0
  0
CLASS
  1
DICTIONARYVAR
  2
AcDbDictionaryVar
  3
ObjectDBX Classes
 90
        0
280
     0
281
     0
  0
CLASS
  1
ACDBPLACEHOLDER
  2
AcDbPlaceHolder
  3
ObjectDBX Classes
 90
        0
280
     0
281
     0
  0
CLASS
  1
LAYOUT
  2
AcDbLayout
  3
ObjectDBX Classes
 90
        0
280
     0
281
     0
  0
CLASS
  1
SCALE
  2
AcDbScale
  3
ObjectDBX Classes
 90
     1153
280
     0
281
     0
  0
CLASS
  1
MLEADERSTYLE
  2
AcDbMLeaderStyle
  3
ACDB_MLEADERSTYLE_CLASS
 90
     4095
280
     0
281
     0
  0
CLASS
  1
CELLSTYLEMAP
  2
AcDbCellStyleMap
  3
ObjectDBX Classes
 90
     1152
280
     0
281
     0
  0
CLASS
  1
AEC_REFEDIT_STATUS_TRACKER
  2
AecDbRefEditStatusTracker
  3
AecArchBase60|Product Desc: Autodesk Architectural Desktop 2007 |Company: Autodesk,Inc. |WEB Address: www.autodesk.com
 90
      129
280
     0
281
     0
  0
CLASS
  1
NPOCOLLECTION
  2
AcDbImpNonPersistentObjectsCollection
  3
ObjectDBX Classes
 90
     1153
280
     0
281
     0
  0
ENDSEC
  0
SECTION
  2
TABLES
  0
TABLE
  2
VPORT
  5
8
330
0
100
AcDbSymbolTable
 70
     1
  0
VPORT
  5
5A
330
8
100
AcDbSymbolTableRecord
100
AcDbViewportTableRecord
  2
*Active
 70
     0
 10
0.0
 20
0.0
 11
1.0
 21
1.0
 12
9.65918171678652
 22
-13.5566345783107
 13
0.0
 23
0.0
 14
1.0
 24
1.0
 15
0.0
 25
0.0
 16
0.0
 26
0.0
 36
1.0
 17
0.0
 27
0.0
 37
0.0
 40
689.3623537354373
 41
1.311504424778761
 42
50.0
 43
0.0
 44
0.0
 50
0.0
 51
0.0
 71
     0
 72
   100
 73
     1
 74
     1
 75
     0
 76
     0
 77
     0
 78
     0
281
     0
 65
     1
110
0.0
120
0.0
130
0.0
111
1.0
121
0.0
131
0.0
112
0.0
122
1.0
132
0.0
 79
     0
146
0.0
  0
ENDTAB
  0
TABLE
  2
LTYPE
  5
5
330
0
100
AcDbSymbolTable
 70
     2
  0
LTYPE
  5
28
330
5
100
AcDbSymbolTableRecord
100
AcDbLinetypeTableRecord
  2
ByBlock
 70
     0
  3

 72
    65
 73
     0
 40
0.0
  0
LTYPE
  5
29
330
5
100
AcDbSymbolTableRecord
100
AcDbLinetypeTableRecord
  2
ByLayer
 70
     0
  3

 72
    65
 73
     0
 40
0.0
  0
LTYPE
  5
2A
330
5
100
AcDbSymbolTableRecord
100
AcDbLinetypeTableRecord
  2
CONTINUOUS
 70
     0
  3
Solid-line
 72
    65
 73
     0
 40
0.0
  0
ENDTAB
  0
TABLE
  2
LAYER
  5
2
102
{ACAD_XDICTIONARY
360
473
102
}
330
0
100
AcDbSymbolTable
 70
     2
  0
LAYER
  5
25
102
{ACAD_XDICTIONARY
360
733
102
}
330
2
100
AcDbSymbolTableRecord
100
AcDbLayerTableRecord
  2
0
 70
     0
 62
     7
  6
CONTINUOUS
370
    -3
390
F
  0
LAYER
  5
564
330
2
100
AcDbSymbolTableRecord
100
AcDbLayerTableRecord
  2
Defpoints
 70
     0
 62
     7
  6
CONTINUOUS
290
     0
370
    -3
390
F
  0
ENDTAB
  0
TABLE
  2
STYLE
  5
3
330
0
100
AcDbSymbolTable
 70
     6
  0
STYLE
  5
26
330
3
100
AcDbSymbolTableRecord
100
AcDbTextStyleTableRecord
  2
STANDARD
 70
     0
 40
0.0
 41
1.0
 50
0.0
 71
     0
 42
0.2
  3
TXT
  4
BIGFONT
  0
STYLE
  5
46F
330
3
100
AcDbSymbolTableRecord
100
AcDbTextStyleTableRecord
  2
高3.2
 70
     0
 40
3.2
 41
1.0
 50
0.0
 71
     0
 42
3.2
  3
txt.shx
  4
bigfont.shx
  0
STYLE
  5
565
330
3
100
AcDbSymbolTableRecord
100
AcDbTextStyleTableRecord
  2
高6.3
 70
     0
 40
6.299999999999998
 41
1.0
 50
0.0
 71
     0
 42
6.299999999999998
  3
txt.shx
  4
bigfont.shx
  0
STYLE
  5
567
330
3
100
AcDbSymbolTableRecord
100
AcDbTextStyleTableRecord
  2
高4.5
 70
     0
 40
4.5
 41
1.0
 50
0.0
 71
     0
 42
6.299999999999998
  3
txt.shx
  4
bigfont.shx
  0
STYLE
  5
568
330
3
100
AcDbSymbolTableRecord
100
AcDbTextStyleTableRecord
  2
高2
 70
     0
 40
2.0
 41
1.0
 50
0.0
 71
     0
 42
2.0
  3
txt.shx
  4
bigfont.shx
  0
STYLE
  5
A15
330
3
100
AcDbSymbolTableRecord
100
AcDbTextStyleTableRecord
  2
高2.5
 70
     0
 40
2.5
 41
1.0
 50
0.0
 71
     0
 42
0.2
  3
txt.shx
  4
bigfont.shx
  0
ENDTAB
  0
TABLE
  2
VIEW
  5
6
330
0
100
AcDbSymbolTable
 70
     0
  0
ENDTAB
  0
TABLE
  2
UCS
  5
7
330
0
100
AcDbSymbolTable
 70
     0
  0
ENDTAB
  0
TABLE
  2
APPID
  5
9
330
0
100
AcDbSymbolTable
 70
     9
  0
APPID
  5
27
330
9
100
AcDbSymbolTableRecord
100
AcDbRegAppTableRecord
  2
ACAD
 70
     0
  0
APPID
  5
472
330
9
100
AcDbSymbolTableRecord
100
AcDbRegAppTableRecord
  2
ACAD_DSTYLE_DIMJOGGED_JOGANGLE_SYMBOL
 70
     0
  0
APPID
  5
4B5
330
9
100
AcDbSymbolTableRecord
100
AcDbRegAppTableRecord
  2
ACAD_DSTYLE_DIMARC_LENGTH_SYMBOL
 70
     0
  0
APPID
  5
4B6
330
9
100
AcDbSymbolTableRecord
100
AcDbRegAppTableRecord
  2
ACAD_DSTYLE_DIMEXT_LENGTH
 70
     0
  0
APPID
  5
571
330
9
100
AcDbSymbolTableRecord
100
AcDbRegAppTableRecord
  2
ACAD_DSTYLE_DIMJAG
 70
     0
  0
APPID
  5
572
330
9
100
AcDbSymbolTableRecord
100
AcDbRegAppTableRecord
  2
ACAD_DSTYLE_DIMBREAK
 70
     0
  0
APPID
  5
573
330
9
100
AcDbSymbolTableRecord
100
AcDbRegAppTableRecord
  2
ACAD_DSTYLE_DIMTALN
 70
     0
  0
APPID
  5
6E1
330
9
100
AcDbSymbolTableRecord
100
AcDbRegAppTableRecord
  2
ACAD_EXEMPT_FROM_CAD_STANDARDS
 70
     0
  0
APPID
  5
783
330
9
100
AcDbSymbolTableRecord
100
AcDbRegAppTableRecord
  2
ACAD_MLEADERVER
 70
     0
  0
ENDTAB
  0
TABLE
  2
DIMSTYLE
  5
A
330
0
100
AcDbSymbolTable
 70
    11
100
AcDbDimStyleTable
 71
     1
340
570
  0
DIMSTYLE
105
467
330
A
100
AcDbSymbolTableRecord
100
AcDbDimStyleTableRecord
  2
Standard
 70
     0
340
26
  0
DIMSTYLE
105
570
330
A
100
AcDbSymbolTableRecord
100
AcDbDimStyleTableRecord
  2
FREE
 70
     0
 41
2.5
 42
0.25
 43
0.2
 44
1.25
 73
     0
 74
     0
 77
     3
 78
     8
 79
     2
140
3.0
141
0.0
143
0.03937007874016
147
0.625
171
     3
172
     1
178
     4
179
     1
271
     2
272
     2
274
     3
283
     0
284
     8
288
     1
289
     0
340
26
341
469
342
469
1001
ACAD_DSTYLE_DIMBREAK
1070
   391
1040
3.75
1001
ACAD_DSTYLE_DIMJAG
1070
   388
1040
1.5
1001
ACAD_DSTYLE_DIMTALN
1070
   392
1070
     0
1001
ACAD_DSTYLE_DIMARC_LENGTH_SYMBOL
1070
   379
1070
     2
1001
ACAD_DSTYLE_DIMEXT_LENGTH
1070
   378
1040
1.25
1001
ACAD_DSTYLE_DIMJOGGED_JOGANGLE_SYMBOL
1070
   384
1040
1.570796326794896
  0
DIMSTYLE
105
A16
330
A
100
AcDbSymbolTableRecord
100
AcDbDimStyleTableRecord
  2
1：1
 70
     0
 41
2.5
 42
0.25
 43
0.2
 44
1.25
 73
     0
 74
     0
 77
     3
 78
     8
 79
     2
140
3.0
141
0.0
143
0.03937007874016
147
0.625
171
     3
172
     1
178
     4
179
     1
271
     2
272
     2
274
     3
283
     0
284
     8
288
     1
289
     0
340
26
341
469
342
469
1001
ACAD_DSTYLE_DIMARC_LENGTH_SYMBOL
1070
   379
1070
     2
1001
ACAD_DSTYLE_DIMEXT_LENGTH
1070
   378
1040
1.25
1001
ACAD_DSTYLE_DIMJOGGED_JOGANGLE_SYMBOL
1070
   384
1040
1.570796326794896
  0
DIMSTYLE
105
A17
330
A
100
AcDbSymbolTableRecord
100
AcDbDimStyleTableRecord
  2
2：1
 70
     0
 41
2.5
 42
0.25
 43
0.2
 44
1.25
 73
     0
 74
     0
 77
     3
 78
     8
 79
     2
140
3.0
141
0.0
143
0.03937007874016
144
0.5
147
0.625
171
     3
172
     1
178
     4
179
     1
271
     2
272
     2
274
     3
283
     0
284
     8
288
     1
289
     0
340
26
341
469
342
469
1001
ACAD_DSTYLE_DIMARC_LENGTH_SYMBOL
1070
   379
1070
     2
1001
ACAD_DSTYLE_DIMEXT_LENGTH
1070
   378
1040
1.25
1001
ACAD_DSTYLE_DIMJOGGED_JOGANGLE_SYMBOL
1070
   384
1040
1.570796326794896
  0
DIMSTYLE
105
A18
330
A
100
AcDbSymbolTableRecord
100
AcDbDimStyleTableRecord
  2
5：1
 70
     0
 41
2.5
 42
0.25
 43
0.2
 44
1.25
 73
     0
 74
     0
 77
     3
 78
     8
 79
     2
140
3.0
141
0.0
143
0.03937007874016
144
0.2
147
0.625
171
     3
172
     1
178
     4
179
     1
271
     2
272
     2
274
     3
283
     0
284
     8
288
     1
289
     0
340
26
341
469
342
469
1001
ACAD_DSTYLE_DIMARC_LENGTH_SYMBOL
1070
   379
1070
     2
1001
ACAD_DSTYLE_DIMEXT_LENGTH
1070
   378
1040
1.25
1001
ACAD_DSTYLE_DIMJOGGED_JOGANGLE_SYMBOL
1070
   384
1040
1.570796326794896
  0
DIMSTYLE
105
A19
330
A
100
AcDbSymbolTableRecord
100
AcDbDimStyleTableRecord
  2
10：1
 70
     0
 41
2.5
 42
0.25
 43
0.2
 44
1.25
 73
     0
 74
     0
 77
     3
 78
     8
 79
     2
140
3.0
141
0.0
143
0.03937007874016
144
0.1
147
0.625
171
     3
172
     1
178
     4
179
     1
271
     2
272
     2
274
     3
283
     0
284
     8
288
     1
289
     0
340
26
341
469
342
469
1001
ACAD_DSTYLE_DIMARC_LENGTH_SYMBOL
1070
   379
1070
     2
1001
ACAD_DSTYLE_DIMEXT_LENGTH
1070
   378
1040
1.25
1001
ACAD_DSTYLE_DIMJOGGED_JOGANGLE_SYMBOL
1070
   384
1040
1.570796326794896
  0
DIMSTYLE
105
A1A
330
A
100
AcDbSymbolTableRecord
100
AcDbDimStyleTableRecord
  2
1／2
 70
     0
 41
2.5
 42
0.25
 43
0.2
 44
1.25
 73
     0
 74
     0
 77
     3
 78
     8
 79
     2
140
3.0
141
0.0
143
0.03937007874016
144
2.0
147
0.625
171
     3
172
     1
178
     4
179
     1
271
     2
272
     2
274
     3
283
     0
284
     8
288
     1
289
     0
340
26
341
469
342
469
1001
ACAD_DSTYLE_DIMARC_LENGTH_SYMBOL
1070
   379
1070
     2
1001
ACAD_DSTYLE_DIMEXT_LENGTH
1070
   378
1040
1.25
1001
ACAD_DSTYLE_DIMJOGGED_JOGANGLE_SYMBOL
1070
   384
1040
1.570796326794896
  0
DIMSTYLE
105
A1B
330
A
100
AcDbSymbolTableRecord
100
AcDbDimStyleTableRecord
  2
1／5
 70
     0
 41
2.5
 42
0.25
 43
0.2
 44
1.25
 73
     0
 74
     0
 77
     3
 78
     8
 79
     2
140
3.0
141
0.0
143
0.03937007874016
144
5.0
147
0.625
171
     3
172
     1
178
     4
179
     1
271
     2
272
     2
274
     3
283
     0
284
     8
288
     1
289
     0
340
26
341
469
342
469
1001
ACAD_DSTYLE_DIMARC_LENGTH_SYMBOL
1070
   379
1070
     2
1001
ACAD_DSTYLE_DIMEXT_LENGTH
1070
   378
1040
1.25
1001
ACAD_DSTYLE_DIMJOGGED_JOGANGLE_SYMBOL
1070
   384
1040
1.570796326794896
  0
DIMSTYLE
105
A1C
330
A
100
AcDbSymbolTableRecord
100
AcDbDimStyleTableRecord
  2
1／10
 70
     0
 41
2.5
 42
0.25
 43
0.2
 44
1.25
 73
     0
 74
     0
 77
     3
 78
     8
 79
     2
140
3.0
141
0.0
143
0.03937007874016
144
10.0
147
0.625
171
     3
172
     1
178
     4
179
     1
271
     2
272
     2
274
     3
283
     0
284
     8
288
     1
289
     0
340
26
341
469
342
469
1001
ACAD_DSTYLE_DIMARC_LENGTH_SYMBOL
1070
   379
1070
     2
1001
ACAD_DSTYLE_DIMEXT_LENGTH
1070
   378
1040
1.25
1001
ACAD_DSTYLE_DIMJOGGED_JOGANGLE_SYMBOL
1070
   384
1040
1.570796326794896
  0
DIMSTYLE
105
A1D
330
A
100
AcDbSymbolTableRecord
100
AcDbDimStyleTableRecord
  2
1／4
 70
     0
 41
2.5
 42
0.25
 43
0.2
 44
1.25
 73
     0
 74
     0
 77
     3
 78
     8
 79
     2
140
3.0
141
0.0
143
0.03937007874016
144
4.0
147
0.625
171
     3
172
     1
178
     4
179
     1
271
     2
272
     2
274
     3
283
     0
284
     8
288
     1
289
     0
340
26
341
469
342
469
1001
ACAD_DSTYLE_DIMARC_LENGTH_SYMBOL
1070
   379
1070
     2
1001
ACAD_DSTYLE_DIMEXT_LENGTH
1070
   378
1040
1.25
1001
ACAD_DSTYLE_DIMJOGGED_JOGANGLE_SYMBOL
1070
   384
1040
1.570796326794896
  0
DIMSTYLE
105
A1E
330
A
100
AcDbSymbolTableRecord
100
AcDbDimStyleTableRecord
  2
1／3
 70
     0
 41
2.5
 42
0.25
 43
0.2
 44
1.25
 73
     0
 74
     0
 77
     3
 78
     8
 79
     2
140
3.0
141
0.0
143
0.03937007874016
144
3.0
147
0.625
171
     3
172
     1
178
     4
179
     1
271
     2
272
     2
274
     3
283
     0
284
     8
288
     1
289
     0
340
26
341
469
342
469
1001
ACAD_DSTYLE_DIMARC_LENGTH_SYMBOL
1070
   379
1070
     2
1001
ACAD_DSTYLE_DIMEXT_LENGTH
1070
   378
1040
1.25
1001
ACAD_DSTYLE_DIMJOGGED_JOGANGLE_SYMBOL
1070
   384
1040
1.570796326794896
  0
ENDTAB
  0
TABLE
  2
BLOCK_RECORD
  5
1
330
0
100
AcDbSymbolTable
 70
    25
  0
BLOCK_RECORD
  5
36
102
{ACAD_XDICTIONARY
360
717
102
}
330
1
100
AcDbSymbolTableRecord
100
AcDbBlockTableRecord
  2
*Model_Space
340
39
  0
BLOCK_RECORD
  5
32
330
1
100
AcDbSymbolTableRecord
100
AcDbBlockTableRecord
  2
*Paper_Space
340
35
  0
BLOCK_RECORD
  5
469
330
1
100
AcDbSymbolTableRecord
100
AcDbBlockTableRecord
  2
_Open30
340
0
102
{BLKREFS
331
992
331
993
331
9A0
331
9A1
331
9AE
331
9AF
331
9BC
331
9BD
331
9CA
331
9CB
331
9D8
331
9D9
331
9E6
331
9E7
331
9F4
331
9F5
331
A02
331
A03
331
A0E
331
A0F
331
ACA
331
ACB
331
AD5
331
AD6
331
AE0
331
AE1
331
AEB
331
AEC
331
AF6
331
AF7
331
B01
331
B02
331
B0C
331
B0D
331
B17
331
B18
331
B22
331
B23
331
B2B
331
B2C
331
DAB
331
DAC
331
DB4
331
DB5
331
DBD
331
DBE
102
}
  0
BLOCK_RECORD
  5
6BA
330
1
100
AcDbSymbolTableRecord
100
AcDbBlockTableRecord
  2
_DotSmall
340
0
  0
BLOCK_RECORD
  5
6E3
330
1
100
AcDbSymbolTableRecord
100
AcDbBlockTableRecord
  2
*D2
340
0
  0
BLOCK_RECORD
  5
6EF
330
1
100
AcDbSymbolTableRecord
100
AcDbBlockTableRecord
  2
*D3
340
0
  0
BLOCK_RECORD
  5
6FB
330
1
100
AcDbSymbolTableRecord
100
AcDbBlockTableRecord
  2
*D4
340
0
  0
BLOCK_RECORD
  5
98B
330
1
100
AcDbSymbolTableRecord
100
AcDbBlockTableRecord
  2
*D5
340
0
  0
BLOCK_RECORD
  5
999
330
1
100
AcDbSymbolTableRecord
100
AcDbBlockTableRecord
  2
*D6
340
0
  0
BLOCK_RECORD
  5
9A7
330
1
100
AcDbSymbolTableRecord
100
AcDbBlockTableRecord
  2
*D7
340
0
  0
BLOCK_RECORD
  5
9B5
330
1
100
AcDbSymbolTableRecord
100
AcDbBlockTableRecord
  2
*D8
340
0
  0
BLOCK_RECORD
  5
9C3
330
1
100
AcDbSymbolTableRecord
100
AcDbBlockTableRecord
  2
*D9
340
0
  0
BLOCK_RECORD
  5
9D1
330
1
100
AcDbSymbolTableRecord
100
AcDbBlockTableRecord
  2
*D10
340
0
  0
BLOCK_RECORD
  5
9DF
330
1
100
AcDbSymbolTableRecord
100
AcDbBlockTableRecord
  2
*D11
340
0
  0
BLOCK_RECORD
  5
9ED
330
1
100
AcDbSymbolTableRecord
100
AcDbBlockTableRecord
  2
*D12
340
0
  0
BLOCK_RECORD
  5
9FB
330
1
100
AcDbSymbolTableRecord
100
AcDbBlockTableRecord
  2
*D13
340
0
  0
BLOCK_RECORD
  5
A09
330
1
100
AcDbSymbolTableRecord
100
AcDbBlockTableRecord
  2
*D14
340
0
  0
BLOCK_RECORD
  5
A3B
330
1
100
AcDbSymbolTableRecord
100
AcDbBlockTableRecord
  2
*D15
340
0
  0
BLOCK_RECORD
  5
A49
330
1
100
AcDbSymbolTableRecord
100
AcDbBlockTableRecord
  2
*D16
340
0
  0
BLOCK_RECORD
  5
A57
330
1
100
AcDbSymbolTableRecord
100
AcDbBlockTableRecord
  2
*D17
340
0
  0
BLOCK_RECORD
  5
A65
330
1
100
AcDbSymbolTableRecord
100
AcDbBlockTableRecord
  2
*D18
340
0
  0
BLOCK_RECORD
  5
A73
330
1
100
AcDbSymbolTableRecord
100
AcDbBlockTableRecord
  2
*D19
340
0
  0
BLOCK_RECORD
  5
A81
330
1
100
AcDbSymbolTableRecord
100
AcDbBlockTableRecord
  2
*D20
340
0
  0
BLOCK_RECORD
  5
A8F
330
1
100
AcDbSymbolTableRecord
100
AcDbBlockTableRecord
  2
*D21
340
0
  0
BLOCK_RECORD
  5
A9D
330
1
100
AcDbSymbolTableRecord
100
AcDbBlockTableRecord
  2
*D22
340
0
  0
BLOCK_RECORD
  5
AAB
330
1
100
AcDbSymbolTableRecord
100
AcDbBlockTableRecord
  2
*D23
340
0
  0
BLOCK_RECORD
  5
AB9
330
1
100
AcDbSymbolTableRecord
100
AcDbBlockTableRecord
  2
*D24
340
0
  0
ENDTAB
  0
ENDSEC
  0
SECTION
  2
BLOCKS
  0
BLOCK
  5
37
330
36
100
AcDbEntity
  8
0
100
AcDbBlockBegin
  2
*Model_Space
 70
     0
 10
0.0
 20
0.0
 30
0.0
  3
*Model_Space
  1

  0
ENDBLK
  5
38
330
36
100
AcDbEntity
  8
0
100
AcDbBlockEnd
  0
BLOCK
  5
33
330
32
100
AcDbEntity
 67
     1
  8
0
100
AcDbBlockBegin
  2
*Paper_Space
 70
     0
 10
0.0
 20
0.0
 30
0.0
  3
*Paper_Space
  1

  0
ENDBLK
  5
34
330
32
100
AcDbEntity
 67
     1
  8
0
100
AcDbBlockEnd
  0
BLOCK
  5
46A
330
469
100
AcDbEntity
  8
0
100
AcDbBlockBegin
  2
_Open30
 70
     0
 10
0.0
 20
0.0
 30
0.0
  3
_Open30
  1

  0
LINE
  5
46B
330
469
100
AcDbEntity
  8
0
  6
ByBlock
 62
     0
370
    -2
100
AcDbLine
 10
-1.0
 20
0.267949
 30
0.0
 11
0.0
 21
0.0
 31
0.0
  0
LINE
  5
46C
330
469
100
AcDbEntity
  8
0
  6
ByBlock
 62
     0
370
    -2
100
AcDbLine
 10
0.0
 20
0.0
 30
0.0
 11
-1.0
 21
-0.267949
 31
0.0
  0
LINE
  5
46D
330
469
100
AcDbEntity
  8
0
  6
ByBlock
 62
     0
370
    -2
100
AcDbLine
 10
0.0
 20
0.0
 30
0.0
 11
-1.0
 21
0.0
 31
0.0
  0
ENDBLK
  5
46E
330
469
100
AcDbEntity
  8
0
100
AcDbBlockEnd
  0
BLOCK
  5
6BC
330
6BA
100
AcDbEntity
  8
0
100
AcDbBlockBegin
  2
_DotSmall
 70
     0
 10
0.0
 20
0.0
 30
0.0
  3
_DotSmall
  1

  0
LWPOLYLINE
  5
6BB
330
6BA
100
AcDbEntity
  8
0
  6
ByBlock
 62
     0
100
AcDbPolyline
 90
        2
 70
     1
 43
0.5
 10
-0.0625
 20
0.0
 42
1.0
 10
0.0625
 20
0.0
 42
1.0
  0
ENDBLK
  5
6BD
330
6BA
100
AcDbEntity
  8
0
100
AcDbBlockEnd
  0
BLOCK
  5
6E4
330
6E3
100
AcDbEntity
  8
0
100
AcDbBlockBegin
  2
*D2
 70
     1
 10
0.0
 20
0.0
 30
0.0
  3
*D2
  1

  0
LINE
  5
DBA
330
6E3
100
AcDbEntity
  8
0
 62
     0
370
    -2
100
AcDbLine
 10
-132.221192
 20
-5.510651
 30
0.0
 11
-132.221192
 21
-28.22613767095641
 31
0.0
  0
LINE
  5
DBB
330
6E3
100
AcDbEntity
  8
0
 62
     0
370
    -2
100
AcDbLine
 10
-21.721192
 20
-5.510651
 30
0.0
 11
-21.721192
 21
-28.22613767095641
 31
0.0
  0
LINE
  5
DBC
330
6E3
100
AcDbEntity
  8
0
 62
     0
370
    -2
100
AcDbLine
 10
-129.721192
 20
-26.97613767095641
 30
0.0
 11
-24.221192
 21
-26.97613767095641
 31
0.0
  0
INSERT
  5
DBD
330
6E3
100
AcDbEntity
  8
0
 62
     0
370
    -2
100
AcDbBlockReference
  2
_Open30
 10
-132.221192
 20
-26.97613767095641
 30
0.0
 41
2.5
 42
2.5
 43
2.5
 50
180.0
  0
INSERT
  5
DBE
330
6E3
100
AcDbEntity
  8
0
 62
     0
370
    -2
100
AcDbBlockReference
  2
_Open30
 10
-21.721192
 20
-26.97613767095641
 30
0.0
 41
2.5
 42
2.5
 43
2.5
  0
MTEXT
  5
DBF
330
6E3
100
AcDbEntity
  8
0
 62
     4
100
AcDbMText
 10
-76.971192
 20
-24.85113767095641
 30
0.0
 40
3.0
 41
0.0
 71
     5
 72
     1
  1
190
 73
     1
 44
1.0
1001
ACAD
1000
MTEXTBEGIN
1070
    73
1070
     1
1070
    44
1040
1.0
1070
    74
1070
     0
1000
MTEXTEND
  0
POINT
  5
DC0
330
6E3
100
AcDbEntity
  8
Defpoints
 62
     0
100
AcDbPoint
 10
-132.221192
 20
-5.260651
 30
0.0
  0
POINT
  5
DC1
330
6E3
100
AcDbEntity
  8
Defpoints
 62
     0
100
AcDbPoint
 10
-21.721192
 20
-5.260651
 30
0.0
  0
POINT
  5
DC2
330
6E3
100
AcDbEntity
  8
Defpoints
 62
     0
100
AcDbPoint
 10
-21.721192
 20
-26.97613767095641
 30
0.0
  0
ENDBLK
  5
6E5
330
6E3
100
AcDbEntity
  8
0
100
AcDbBlockEnd
  0
BLOCK
  5
6F0
330
6EF
100
AcDbEntity
  8
0
100
AcDbBlockBegin
  2
*D3
 70
     1
 10
0.0
 20
0.0
 30
0.0
  3
*D3
  1

  0
LINE
  5
DB1
330
6EF
100
AcDbEntity
  8
0
 62
     0
370
    -2
100
AcDbLine
 10
52.26666700000001
 20
-12.760651
 30
0.0
 11
18.25096399999998
 21
-12.76065099999999
 31
0.0
  0
LINE
  5
DB2
330
6EF
100
AcDbEntity
  8
0
 62
     0
370
    -2
100
AcDbLine
 10
67.46879200000001
 20
94.02091699999999
 30
0.0
 11
18.250964
 21
94.02091700000001
 31
0.0
  0
LINE
  5
DB3
330
6EF
100
AcDbEntity
  8
0
 62
     0
370
    -2
100
AcDbLine
 10
19.50096399999997
 20
-10.26065099999999
 30
0.0
 11
19.500964
 21
91.52091700000001
 31
0.0
  0
INSERT
  5
DB4
330
6EF
100
AcDbEntity
  8
0
 62
     0
370
    -2
100
AcDbBlockReference
  2
_Open30
 10
19.50096399999997
 20
-12.76065099999999
 30
0.0
 41
2.5
 42
2.5
 43
2.5
 50
270.0
  0
INSERT
  5
DB5
330
6EF
100
AcDbEntity
  8
0
 62
     0
370
    -2
100
AcDbBlockReference
  2
_Open30
 10
19.500964
 20
94.02091700000001
 30
0.0
 41
2.5
 42
2.5
 43
2.5
 50
90.0
  0
MTEXT
  5
DB6
330
6EF
100
AcDbEntity
  8
0
 62
     4
100
AcDbMText
 10
17.37596399999998
 20
40.63013300000001
 30
0.0
 40
3.0
 41
0.0
 71
     5
 72
     1
  1
195
 11
0.0000000000000001
 21
1.0
 31
0.0
 73
     1
 44
1.0
1001
ACAD
1000
MTEXTBEGIN
1070
    73
1070
     1
1070
    44
1040
1.0
1070
    74
1070
     0
1000
MTEXTEND
  0
POINT
  5
DB7
330
6EF
100
AcDbEntity
  8
Defpoints
 62
     0
100
AcDbPoint
 10
52.51666700000001
 20
-12.760651
 30
0.0
  0
POINT
  5
DB8
330
6EF
100
AcDbEntity
  8
Defpoints
 62
     0
100
AcDbPoint
 10
67.718792
 20
94.02091699999999
 30
0.0
  0
POINT
  5
DB9
330
6EF
100
AcDbEntity
  8
Defpoints
 62
     0
100
AcDbPoint
 10
19.500964
 20
94.02091700000001
 30
0.0
  0
ENDBLK
  5
6F1
330
6EF
100
AcDbEntity
  8
0
100
AcDbBlockEnd
  0
BLOCK
  5
6FC
330
6FB
100
AcDbEntity
  8
0
100
AcDbBlockBegin
  2
*D4
 70
     1
 10
0.0
 20
0.0
 30
0.0
  3
*D4
  1

  0
LINE
  5
DA8
330
6FB
100
AcDbEntity
  8
0
 62
     0
370
    -2
100
AcDbLine
 10
29.722585
 20
33.148827
 30
0.0
 11
29.722585
 21
-18.930273
 31
0.0
  0
LINE
  5
DA9
330
6FB
100
AcDbEntity
  8
0
 62
     0
370
    -2
100
AcDbLine
 10
141.328908
 20
-5.510651
 30
0.0
 11
141.328908
 21
-18.930273
 31
0.0
  0
LINE
  5
DAA
330
6FB
100
AcDbEntity
  8
0
 62
     0
370
    -2
100
AcDbLine
 10
32.222585
 20
-17.680273
 30
0.0
 11
138.828908
 21
-17.680273
 31
0.0
  0
INSERT
  5
DAB
330
6FB
100
AcDbEntity
  8
0
 62
     0
370
    -2
100
AcDbBlockReference
  2
_Open30
 10
29.722585
 20
-17.680273
 30
0.0
 41
2.5
 42
2.5
 43
2.5
 50
180.0
  0
INSERT
  5
DAC
330
6FB
100
AcDbEntity
  8
0
 62
     0
370
    -2
100
AcDbBlockReference
  2
_Open30
 10
141.328908
 20
-17.680273
 30
0.0
 41
2.5
 42
2.5
 43
2.5
  0
MTEXT
  5
DAD
330
6FB
100
AcDbEntity
  8
0
 62
     4
100
AcDbMText
 10
85.5257465
 20
-15.555273
 30
0.0
 40
3.0
 41
0.0
 71
     5
 72
     1
  1
290
 73
     1
 44
1.0
1001
ACAD
1000
MTEXTBEGIN
1070
    73
1070
     1
1070
    44
1040
1.0
1070
    74
1070
     0
1000
MTEXTEND
  0
POINT
  5
DAE
330
6FB
100
AcDbEntity
  8
Defpoints
 62
     0
100
AcDbPoint
 10
29.722585
 20
33.398827
 30
0.0
  0
POINT
  5
DAF
330
6FB
100
AcDbEntity
  8
Defpoints
 62
     0
100
AcDbPoint
 10
141.328908
 20
-5.260651
 30
0.0
  0
POINT
  5
DB0
330
6FB
100
AcDbEntity
  8
Defpoints
 62
     0
100
AcDbPoint
 10
141.328908
 20
-17.680273
 30
0.0
  0
ENDBLK
  5
6FD
330
6FB
100
AcDbEntity
  8
0
100
AcDbBlockEnd
  0
BLOCK
  5
98C
330
98B
100
AcDbEntity
  8
0
100
AcDbBlockBegin
  2
*D5
 70
     1
 10
0.0
 20
0.0
 30
0.0
  3
*D5
  1

  0
LINE
  5
98D
330
98B
100
AcDbEntity
  8
0
 62
     0
370
    -2
100
AcDbLine
 10
-178.2339678749101
 20
-812.0370112307897
 30
0.0
 11
-178.2339678749101
 21
-814.9466426527986
 31
0.0
  0
LINE
  5
98E
330
98B
100
AcDbEntity
  8
0
 62
     0
370
    -2
100
AcDbLine
 10
-180.6911549290304
 20
-812.0370112307897
 30
0.0
 11
-180.6911549290304
 21
-814.9466426527986
 31
0.0
  0
LINE
  5
98F
330
98B
100
AcDbEntity
  8
0
 62
     0
370
    -2
100
AcDbLine
 10
-175.7339678749101
 20
-813.6966426527985
 30
0.0
 11
-173.2339678749101
 21
-813.6966426527985
 31
0.0
  0
LINE
  5
990
330
98B
100
AcDbEntity
  8
0
 62
     0
370
    -2
100
AcDbLine
 10
-183.1911549290304
 20
-813.6966426527985
 30
0.0
 11
-195.9411549290304
 21
-813.6966426527985
 31
0.0
  0
LINE
  5
991
330
98B
100
AcDbEntity
  8
0
 62
     0
370
    -2
100
AcDbLine
 10
-178.2339678749101
 20
-813.6966426527985
 30
0.0
 11
-180.6911549290304
 21
-813.6966426527985
 31
0.0
  0
INSERT
  5
992
330
98B
100
AcDbEntity
  8
0
 62
     0
370
    -2
100
AcDbBlockReference
  2
_Open30
 10
-178.2339678749101
 20
-813.6966426527985
 30
0.0
 41
2.5
 42
2.5
 43
2.5
 50
180.0
  0
INSERT
  5
993
330
98B
100
AcDbEntity
  8
0
 62
     0
370
    -2
100
AcDbBlockReference
  2
_Open30
 10
-180.6911549290304
 20
-813.6966426527985
 30
0.0
 41
2.5
 42
2.5
 43
2.5
  0
MTEXT
  5
994
330
98B
100
AcDbEntity
  8
0
 62
     4
100
AcDbMText
 10
-190.8161549290304
 20
-811.5716426527985
 30
0.0
 40
3.0
 41
0.0
 71
     5
 72
     1
  1
2.46
 73
     1
 44
1.0
1001
ACAD
1000
MTEXTBEGIN
1070
    73
1070
     1
1070
    44
1040
1.0
1070
    74
1070
     0
1000
MTEXTEND
  0
POINT
  5
995
330
98B
100
AcDbEntity
  8
Defpoints
 62
     0
100
AcDbPoint
 10
-178.2339678749101
 20
-811.7870112307898
 30
0.0
  0
POINT
  5
996
330
98B
100
AcDbEntity
  8
Defpoints
 62
     0
100
AcDbPoint
 10
-180.6911549290304
 20
-811.7870112307898
 30
0.0
  0
POINT
  5
997
330
98B
100
AcDbEntity
  8
Defpoints
 62
     0
100
AcDbPoint
 10
-180.6911549290304
 20
-813.6966426527985
 30
0.0
  0
ENDBLK
  5
998
330
98B
100
AcDbEntity
  8
0
100
AcDbBlockEnd
  0
BLOCK
  5
99A
330
999
100
AcDbEntity
  8
0
100
AcDbBlockBegin
  2
*D6
 70
     1
 10
0.0
 20
0.0
 30
0.0
  3
*D6
  1

  0
LINE
  5
99B
330
999
100
AcDbEntity
  8
0
 62
     0
370
    -2
100
AcDbLine
 10
-176.5958429688369
 20
-817.4931008035521
 30
0.0
 11
-176.5958429688369
 21
-820.0389928730155
 31
0.0
  0
LINE
  5
99C
330
999
100
AcDbEntity
  8
0
 62
     0
370
    -2
100
AcDbLine
 10
-179.6900787669798
 20
-817.4931008035521
 30
0.0
 11
-179.6900787669798
 21
-820.0389928730155
 31
0.0
  0
LINE
  5
99D
330
999
100
AcDbEntity
  8
0
 62
     0
370
    -2
100
AcDbLine
 10
-174.0958429688369
 20
-818.7889928730154
 30
0.0
 11
-171.5958429688369
 21
-818.7889928730154
 31
0.0
  0
LINE
  5
99E
330
999
100
AcDbEntity
  8
0
 62
     0
370
    -2
100
AcDbLine
 10
-182.1900787669798
 20
-818.7889928730154
 30
0.0
 11
-196.0234121003131
 21
-818.7889928730154
 31
0.0
  0
LINE
  5
99F
330
999
100
AcDbEntity
  8
0
 62
     0
370
    -2
100
AcDbLine
 10
-176.5958429688369
 20
-818.7889928730154
 30
0.0
 11
-179.6900787669798
 21
-818.7889928730154
 31
0.0
  0
INSERT
  5
9A0
330
999
100
AcDbEntity
  8
0
 62
     0
370
    -2
100
AcDbBlockReference
  2
_Open30
 10
-176.5958429688369
 20
-818.7889928730154
 30
0.0
 41
2.5
 42
2.5
 43
2.5
 50
180.0
  0
INSERT
  5
9A1
330
999
100
AcDbEntity
  8
0
 62
     0
370
    -2
100
AcDbBlockReference
  2
_Open30
 10
-179.6900787669798
 20
-818.7889928730154
 30
0.0
 41
2.5
 42
2.5
 43
2.5
  0
MTEXT
  5
9A2
330
999
100
AcDbEntity
  8
0
 62
     4
100
AcDbMText
 10
-190.8150787669798
 20
-816.9139928730155
 30
0.0
 40
2.5
 41
0.0
 71
     5
 72
     1
  1
15.47
  7
高2.5
 73
     1
 44
1.0
1001
ACAD
1000
MTEXTBEGIN
1070
    73
1070
     1
1070
    44
1040
1.0
1070
    74
1070
     0
1000
MTEXTEND
  0
POINT
  5
9A3
330
999
100
AcDbEntity
  8
Defpoints
 62
     0
100
AcDbPoint
 10
-176.5958429688369
 20
-817.2431008035522
 30
0.0
  0
POINT
  5
9A4
330
999
100
AcDbEntity
  8
Defpoints
 62
     0
100
AcDbPoint
 10
-179.6900787669798
 20
-817.2431008035522
 30
0.0
  0
POINT
  5
9A5
330
999
100
AcDbEntity
  8
Defpoints
 62
     0
100
AcDbPoint
 10
-179.6900787669798
 20
-818.7889928730154
 30
0.0
  0
ENDBLK
  5
9A6
330
999
100
AcDbEntity
  8
0
100
AcDbBlockEnd
  0
BLOCK
  5
9A8
330
9A7
100
AcDbEntity
  8
0
100
AcDbBlockBegin
  2
*D7
 70
     1
 10
0.0
 20
0.0
 30
0.0
  3
*D7
  1

  0
LINE
  5
9A9
330
9A7
100
AcDbEntity
  8
0
 62
     0
370
    -2
100
AcDbLine
 10
-174.8667113607514
 20
-822.9491905193986
 30
0.0
 11
-174.8667113607514
 21
-825.2222781817659
 31
0.0
  0
LINE
  5
9AA
330
9A7
100
AcDbEntity
  8
0
 62
     0
370
    -2
100
AcDbLine
 10
-178.8710163139432
 20
-822.9491905193986
 30
0.0
 11
-178.8710163139432
 21
-825.2222781817659
 31
0.0
  0
LINE
  5
9AB
330
9A7
100
AcDbEntity
  8
0
 62
     0
370
    -2
100
AcDbLine
 10
-172.3667113607514
 20
-823.9722781817658
 30
0.0
 11
-169.8667113607514
 21
-823.9722781817658
 31
0.0
  0
LINE
  5
9AC
330
9A7
100
AcDbEntity
  8
0
 62
     0
370
    -2
100
AcDbLine
 10
-181.3710163139432
 20
-823.9722781817658
 30
0.0
 11
-193.1210163139432
 21
-823.9722781817658
 31
0.0
  0
LINE
  5
9AD
330
9A7
100
AcDbEntity
  8
0
 62
     0
370
    -2
100
AcDbLine
 10
-174.8667113607514
 20
-823.9722781817658
 30
0.0
 11
-178.8710163139432
 21
-823.9722781817658
 31
0.0
  0
INSERT
  5
9AE
330
9A7
100
AcDbEntity
  8
0
 62
     0
370
    -2
100
AcDbBlockReference
  2
_Open30
 10
-174.8667113607514
 20
-823.9722781817658
 30
0.0
 41
2.5
 42
2.5
 43
2.5
 50
180.0
  0
INSERT
  5
9AF
330
9A7
100
AcDbEntity
  8
0
 62
     0
370
    -2
100
AcDbBlockReference
  2
_Open30
 10
-178.8710163139432
 20
-823.9722781817658
 30
0.0
 41
2.5
 42
2.5
 43
2.5
  0
MTEXT
  5
9B0
330
9A7
100
AcDbEntity
  8
0
 62
     4
100
AcDbMText
 10
-188.4960163139432
 20
-821.7472781817658
 30
0.0
 40
3.2
 41
0.0
 71
     5
 72
     1
  1
8.01
  7
高3.2
 73
     1
 44
1.0
1001
ACAD
1000
MTEXTBEGIN
1070
    73
1070
     1
1070
    44
1040
1.0
1070
    74
1070
     0
1000
MTEXTEND
  0
POINT
  5
9B1
330
9A7
100
AcDbEntity
  8
Defpoints
 62
     0
100
AcDbPoint
 10
-174.8667113607514
 20
-822.6991905193985
 30
0.0
  0
POINT
  5
9B2
330
9A7
100
AcDbEntity
  8
Defpoints
 62
     0
100
AcDbPoint
 10
-178.8710163139432
 20
-822.6991905193985
 30
0.0
  0
POINT
  5
9B3
330
9A7
100
AcDbEntity
  8
Defpoints
 62
     0
100
AcDbPoint
 10
-178.8710163139432
 20
-823.9722781817658
 30
0.0
  0
ENDBLK
  5
9B4
330
9A7
100
AcDbEntity
  8
0
100
AcDbBlockEnd
  0
BLOCK
  5
9B6
330
9B5
100
AcDbEntity
  8
0
100
AcDbBlockBegin
  2
*D8
 70
     1
 10
0.0
 20
0.0
 30
0.0
  3
*D8
  1

  0
LINE
  5
9B7
330
9B5
100
AcDbEntity
  8
0
 62
     0
370
    -2
100
AcDbLine
 10
-174.9577180627636
 20
-828.2234104874302
 30
0.0
 11
-174.9577180627636
 21
-830.0418239948866
 31
0.0
  0
LINE
  5
9B8
330
9B5
100
AcDbEntity
  8
0
 62
     0
370
    -2
100
AcDbLine
 10
-179.6900787669798
 20
-828.2234104874302
 30
0.0
 11
-179.6900787669798
 21
-830.0418239948866
 31
0.0
  0
LINE
  5
9B9
330
9B5
100
AcDbEntity
  8
0
 62
     0
370
    -2
100
AcDbLine
 10
-172.4577180627636
 20
-828.7918239948865
 30
0.0
 11
-169.9577180627637
 21
-828.7918239948865
 31
0.0
  0
LINE
  5
9BA
330
9B5
100
AcDbEntity
  8
0
 62
     0
370
    -2
100
AcDbLine
 10
-182.1900787669798
 20
-828.7918239948865
 30
0.0
 11
-203.9400787669798
 21
-828.7918239948865
 31
0.0
  0
LINE
  5
9BB
330
9B5
100
AcDbEntity
  8
0
 62
     0
370
    -2
100
AcDbLine
 10
-174.9577180627636
 20
-828.7918239948865
 30
0.0
 11
-179.6900787669798
 21
-828.7918239948865
 31
0.0
  0
INSERT
  5
9BC
330
9B5
100
AcDbEntity
  8
0
 62
     0
370
    -2
100
AcDbBlockReference
  2
_Open30
 10
-174.9577180627636
 20
-828.7918239948865
 30
0.0
 41
2.5
 42
2.5
 43
2.5
 50
180.0
  0
INSERT
  5
9BD
330
9B5
100
AcDbEntity
  8
0
 62
     0
370
    -2
100
AcDbBlockReference
  2
_Open30
 10
-179.6900787669798
 20
-828.7918239948865
 30
0.0
 41
2.5
 42
2.5
 43
2.5
  0
MTEXT
  5
9BE
330
9B5
100
AcDbEntity
  8
0
 62
     4
100
AcDbMText
 10
-194.3150787669798
 20
-825.9168239948866
 30
0.0
 40
4.5
 41
0.0
 71
     5
 72
     1
  1
47.32
  7
高4.5
 73
     1
 44
1.0
1001
ACAD
1000
MTEXTBEGIN
1070
    73
1070
     1
1070
    44
1040
1.0
1070
    74
1070
     0
1000
MTEXTEND
  0
POINT
  5
9BF
330
9B5
100
AcDbEntity
  8
Defpoints
 62
     0
100
AcDbPoint
 10
-174.9577180627636
 20
-827.9734104874302
 30
0.0
  0
POINT
  5
9C0
330
9B5
100
AcDbEntity
  8
Defpoints
 62
     0
100
AcDbPoint
 10
-179.6900787669798
 20
-827.9734104874302
 30
0.0
  0
POINT
  5
9C1
330
9B5
100
AcDbEntity
  8
Defpoints
 62
     0
100
AcDbPoint
 10
-179.6900787669798
 20
-828.7918239948865
 30
0.0
  0
ENDBLK
  5
9C2
330
9B5
100
AcDbEntity
  8
0
100
AcDbBlockEnd
  0
BLOCK
  5
9C4
330
9C3
100
AcDbEntity
  8
0
100
AcDbBlockBegin
  2
*D9
 70
     1
 10
0.0
 20
0.0
 30
0.0
  3
*D9
  1

  0
LINE
  5
9C5
330
9C3
100
AcDbEntity
  8
0
 62
     0
370
    -2
100
AcDbLine
 10
-153.4800817947562
 20
-812.0370112307897
 30
0.0
 11
-153.4800817947562
 21
-814.9466426527986
 31
0.0
  0
LINE
  5
9C6
330
9C3
100
AcDbEntity
  8
0
 62
     0
370
    -2
100
AcDbLine
 10
-155.9372688488765
 20
-812.0370112307897
 30
0.0
 11
-155.9372688488765
 21
-814.9466426527986
 31
0.0
  0
LINE
  5
9C7
330
9C3
100
AcDbEntity
  8
0
 62
     0
370
    -2
100
AcDbLine
 10
-150.9800817947562
 20
-813.6966426527985
 30
0.0
 11
-148.4800817947562
 21
-813.6966426527985
 31
0.0
  0
LINE
  5
9C8
330
9C3
100
AcDbEntity
  8
0
 62
     0
370
    -2
100
AcDbLine
 10
-158.4372688488765
 20
-813.6966426527985
 30
0.0
 11
-180.0372688488765
 21
-813.6966426527985
 31
0.0
  0
LINE
  5
9C9
330
9C3
100
AcDbEntity
  8
0
 62
     0
370
    -2
100
AcDbLine
 10
-153.4800817947562
 20
-813.6966426527985
 30
0.0
 11
-155.9372688488765
 21
-813.6966426527985
 31
0.0
  0
INSERT
  5
9CA
330
9C3
100
AcDbEntity
  8
0
 62
     0
370
    -2
100
AcDbBlockReference
  2
_Open30
 10
-153.4800817947562
 20
-813.6966426527985
 30
0.0
 41
2.5
 42
2.5
 43
2.5
 50
180.0
  0
INSERT
  5
9CB
330
9C3
100
AcDbEntity
  8
0
 62
     0
370
    -2
100
AcDbBlockReference
  2
_Open30
 10
-155.9372688488765
 20
-813.6966426527985
 30
0.0
 41
2.5
 42
2.5
 43
2.5
  0
MTEXT
  5
9CC
330
9C3
100
AcDbEntity
  8
0
 62
     4
100
AcDbMText
 10
-170.4872688488765
 20
-809.9216426527986
 30
0.0
 40
6.299999999999998
 41
0.0
 71
     5
 72
     1
  1
0.25
  7
高6.3
 73
     1
 44
1.0
1001
ACAD
1000
MTEXTBEGIN
1070
    73
1070
     1
1070
    44
1040
1.0
1070
    74
1070
     0
1000
MTEXTEND
  0
POINT
  5
9CD
330
9C3
100
AcDbEntity
  8
Defpoints
 62
     0
100
AcDbPoint
 10
-153.4800817947562
 20
-811.7870112307898
 30
0.0
  0
POINT
  5
9CE
330
9C3
100
AcDbEntity
  8
Defpoints
 62
     0
100
AcDbPoint
 10
-155.9372688488765
 20
-811.7870112307898
 30
0.0
  0
POINT
  5
9CF
330
9C3
100
AcDbEntity
  8
Defpoints
 62
     0
100
AcDbPoint
 10
-155.9372688488765
 20
-813.6966426527985
 30
0.0
  0
ENDBLK
  5
9D0
330
9C3
100
AcDbEntity
  8
0
100
AcDbBlockEnd
  0
BLOCK
  5
9D2
330
9D1
100
AcDbEntity
  8
0
100
AcDbBlockBegin
  2
*D10
 70
     1
 10
0.0
 20
0.0
 30
0.0
  3
*D10
  1

  0
LINE
  5
9D3
330
9D1
100
AcDbEntity
  8
0
 62
     0
370
    -2
100
AcDbLine
 10
-151.841956888683
 20
-817.4931008035521
 30
0.0
 11
-151.841956888683
 21
-820.0389928730155
 31
0.0
  0
LINE
  5
9D4
330
9D1
100
AcDbEntity
  8
0
 62
     0
370
    -2
100
AcDbLine
 10
-154.9361926868259
 20
-817.4931008035521
 30
0.0
 11
-154.9361926868259
 21
-820.0389928730155
 31
0.0
  0
LINE
  5
9D5
330
9D1
100
AcDbEntity
  8
0
 62
     0
370
    -2
100
AcDbLine
 10
-149.341956888683
 20
-818.7889928730154
 30
0.0
 11
-146.841956888683
 21
-818.7889928730154
 31
0.0
  0
LINE
  5
9D6
330
9D1
100
AcDbEntity
  8
0
 62
     0
370
    -2
100
AcDbLine
 10
-157.4361926868259
 20
-818.7889928730154
 30
0.0
 11
-169.4361926868259
 21
-818.7889928730154
 31
0.0
  0
LINE
  5
9D7
330
9D1
100
AcDbEntity
  8
0
 62
     0
370
    -2
100
AcDbLine
 10
-151.841956888683
 20
-818.7889928730154
 30
0.0
 11
-154.9361926868259
 21
-818.7889928730154
 31
0.0
  0
INSERT
  5
9D8
330
9D1
100
AcDbEntity
  8
0
 62
     0
370
    -2
100
AcDbBlockReference
  2
_Open30
 10
-151.841956888683
 20
-818.7889928730154
 30
0.0
 41
2.5
 42
2.5
 43
2.5
 50
180.0
  0
INSERT
  5
9D9
330
9D1
100
AcDbEntity
  8
0
 62
     0
370
    -2
100
AcDbBlockReference
  2
_Open30
 10
-154.9361926868259
 20
-818.7889928730154
 30
0.0
 41
2.5
 42
2.5
 43
2.5
  0
MTEXT
  5
9DA
330
9D1
100
AcDbEntity
  8
0
 62
     4
100
AcDbMText
 10
-164.8111926868259
 20
-816.6639928730154
 30
0.0
 40
3.0
 41
0.0
 71
     5
 72
     1
  1
1.55
 73
     1
 44
1.0
1001
ACAD
1000
MTEXTBEGIN
1070
    73
1070
     1
1070
    44
1040
1.0
1070
    74
1070
     0
1000
MTEXTEND
  0
POINT
  5
9DB
330
9D1
100
AcDbEntity
  8
Defpoints
 62
     0
100
AcDbPoint
 10
-151.841956888683
 20
-817.2431008035522
 30
0.0
  0
POINT
  5
9DC
330
9D1
100
AcDbEntity
  8
Defpoints
 62
     0
100
AcDbPoint
 10
-154.9361926868259
 20
-817.2431008035522
 30
0.0
  0
POINT
  5
9DD
330
9D1
100
AcDbEntity
  8
Defpoints
 62
     0
100
AcDbPoint
 10
-154.9361926868259
 20
-818.7889928730154
 30
0.0
  0
ENDBLK
  5
9DE
330
9D1
100
AcDbEntity
  8
0
100
AcDbBlockEnd
  0
BLOCK
  5
9E0
330
9DF
100
AcDbEntity
  8
0
100
AcDbBlockBegin
  2
*D11
 70
     1
 10
0.0
 20
0.0
 30
0.0
  3
*D11
  1

  0
LINE
  5
9E1
330
9DF
100
AcDbEntity
  8
0
 62
     0
370
    -2
100
AcDbLine
 10
-150.1128252805975
 20
-822.9491905193986
 30
0.0
 11
-150.1128252805975
 21
-825.2222781817659
 31
0.0
  0
LINE
  5
9E2
330
9DF
100
AcDbEntity
  8
0
 62
     0
370
    -2
100
AcDbLine
 10
-154.1171302337894
 20
-822.9491905193986
 30
0.0
 11
-154.1171302337894
 21
-825.2222781817659
 31
0.0
  0
LINE
  5
9E3
330
9DF
100
AcDbEntity
  8
0
 62
     0
370
    -2
100
AcDbLine
 10
-147.6128252805976
 20
-823.9722781817658
 30
0.0
 11
-145.1128252805975
 21
-823.9722781817658
 31
0.0
  0
LINE
  5
9E4
330
9DF
100
AcDbEntity
  8
0
 62
     0
370
    -2
100
AcDbLine
 10
-156.6171302337894
 20
-823.9722781817658
 30
0.0
 11
-164.9504635671227
 21
-823.9722781817658
 31
0.0
  0
LINE
  5
9E5
330
9DF
100
AcDbEntity
  8
0
 62
     0
370
    -2
100
AcDbLine
 10
-150.1128252805975
 20
-823.9722781817658
 30
0.0
 11
-154.1171302337894
 21
-823.9722781817658
 31
0.0
  0
INSERT
  5
9E6
330
9DF
100
AcDbEntity
  8
0
 62
     0
370
    -2
100
AcDbBlockReference
  2
_Open30
 10
-150.1128252805975
 20
-823.9722781817658
 30
0.0
 41
2.5
 42
2.5
 43
2.5
 50
180.0
  0
INSERT
  5
9E7
330
9DF
100
AcDbEntity
  8
0
 62
     0
370
    -2
100
AcDbBlockReference
  2
_Open30
 10
-154.1171302337894
 20
-823.9722781817658
 30
0.0
 41
2.5
 42
2.5
 43
2.5
  0
MTEXT
  5
9E8
330
9DF
100
AcDbEntity
  8
0
 62
     4
100
AcDbMText
 10
-162.4921302337894
 20
-822.3472781817658
 30
0.0
 40
2.0
 41
0.0
 71
     5
 72
     1
  1
0.8
  7
高2
 73
     1
 44
1.0
1001
ACAD
1000
MTEXTBEGIN
1070
    73
1070
     1
1070
    44
1040
1.0
1070
    74
1070
     0
1000
MTEXTEND
  0
POINT
  5
9E9
330
9DF
100
AcDbEntity
  8
Defpoints
 62
     0
100
AcDbPoint
 10
-150.1128252805975
 20
-822.6991905193985
 30
0.0
  0
POINT
  5
9EA
330
9DF
100
AcDbEntity
  8
Defpoints
 62
     0
100
AcDbPoint
 10
-154.1171302337894
 20
-822.6991905193985
 30
0.0
  0
POINT
  5
9EB
330
9DF
100
AcDbEntity
  8
Defpoints
 62
     0
100
AcDbPoint
 10
-154.1171302337894
 20
-823.9722781817658
 30
0.0
  0
ENDBLK
  5
9EC
330
9DF
100
AcDbEntity
  8
0
100
AcDbBlockEnd
  0
BLOCK
  5
9EE
330
9ED
100
AcDbEntity
  8
0
100
AcDbBlockBegin
  2
*D12
 70
     1
 10
0.0
 20
0.0
 30
0.0
  3
*D12
  1

  0
LINE
  5
9EF
330
9ED
100
AcDbEntity
  8
0
 62
     0
370
    -2
100
AcDbLine
 10
-150.2038319826098
 20
-828.2234104874302
 30
0.0
 11
-150.2038319826098
 21
-830.0418239948866
 31
0.0
  0
LINE
  5
9F0
330
9ED
100
AcDbEntity
  8
0
 62
     0
370
    -2
100
AcDbLine
 10
-154.9361926868259
 20
-828.2234104874302
 30
0.0
 11
-154.9361926868259
 21
-830.0418239948866
 31
0.0
  0
LINE
  5
9F1
330
9ED
100
AcDbEntity
  8
0
 62
     0
370
    -2
100
AcDbLine
 10
-147.7038319826099
 20
-828.7918239948865
 30
0.0
 11
-145.2038319826098
 21
-828.7918239948865
 31
0.0
  0
LINE
  5
9F2
330
9ED
100
AcDbEntity
  8
0
 62
     0
370
    -2
100
AcDbLine
 10
-157.4361926868259
 20
-828.7918239948865
 30
0.0
 11
-172.1861926868259
 21
-828.7918239948865
 31
0.0
  0
LINE
  5
9F3
330
9ED
100
AcDbEntity
  8
0
 62
     0
370
    -2
100
AcDbLine
 10
-150.2038319826098
 20
-828.7918239948865
 30
0.0
 11
-154.9361926868259
 21
-828.7918239948865
 31
0.0
  0
INSERT
  5
9F4
330
9ED
100
AcDbEntity
  8
0
 62
     0
370
    -2
100
AcDbBlockReference
  2
_Open30
 10
-150.2038319826098
 20
-828.7918239948865
 30
0.0
 41
2.5
 42
2.5
 43
2.5
 50
180.0
  0
INSERT
  5
9F5
330
9ED
100
AcDbEntity
  8
0
 62
     0
370
    -2
100
AcDbBlockReference
  2
_Open30
 10
-154.9361926868259
 20
-828.7918239948865
 30
0.0
 41
2.5
 42
2.5
 43
2.5
  0
MTEXT
  5
9F6
330
9ED
100
AcDbEntity
  8
0
 62
     4
100
AcDbMText
 10
-166.0611926868259
 20
-826.6668239948867
 30
0.0
 40
3.0
 41
0.0
 71
     5
 72
     1
  1
18.93
 73
     1
 44
1.0
1001
ACAD
1000
MTEXTBEGIN
1070
    73
1070
     1
1070
    44
1040
1.0
1070
    74
1070
     0
1000
MTEXTEND
  0
POINT
  5
9F7
330
9ED
100
AcDbEntity
  8
Defpoints
 62
     0
100
AcDbPoint
 10
-150.2038319826098
 20
-827.9734104874302
 30
0.0
  0
POINT
  5
9F8
330
9ED
100
AcDbEntity
  8
Defpoints
 62
     0
100
AcDbPoint
 10
-154.9361926868259
 20
-827.9734104874302
 30
0.0
  0
POINT
  5
9F9
330
9ED
100
AcDbEntity
  8
Defpoints
 62
     0
100
AcDbPoint
 10
-154.9361926868259
 20
-828.7918239948865
 30
0.0
  0
ENDBLK
  5
9FA
330
9ED
100
AcDbEntity
  8
0
100
AcDbBlockEnd
  0
BLOCK
  5
9FC
330
9FB
100
AcDbEntity
  8
0
100
AcDbBlockBegin
  2
*D13
 70
     1
 10
0.0
 20
0.0
 30
0.0
  3
*D13
  1

  0
LINE
  5
9FD
330
9FB
100
AcDbEntity
  8
0
 62
     0
370
    -2
100
AcDbLine
 10
-153.0082588337482
 20
-833.2792506940199
 30
0.0
 11
-153.0082588337482
 21
-835.5891717708955
 31
0.0
  0
LINE
  5
9FE
330
9FB
100
AcDbEntity
  8
0
 62
     0
370
    -2
100
AcDbLine
 10
-157.5969340358961
 20
-833.2792506940199
 30
0.0
 11
-157.5969340358961
 21
-835.5891717708955
 31
0.0
  0
LINE
  5
9FF
330
9FB
100
AcDbEntity
  8
0
 62
     0
370
    -2
100
AcDbLine
 10
-150.5082588337482
 20
-834.3391717708955
 30
0.0
 11
-148.0082588337482
 21
-834.3391717708955
 31
0.0
  0
LINE
  5
A00
330
9FB
100
AcDbEntity
  8
0
 62
     0
370
    -2
100
AcDbLine
 10
-160.0969340358961
 20
-834.3391717708955
 30
0.0
 11
-174.8469340358961
 21
-834.3391717708955
 31
0.0
  0
LINE
  5
A01
330
9FB
100
AcDbEntity
  8
0
 62
     0
370
    -2
100
AcDbLine
 10
-153.0082588337482
 20
-834.3391717708955
 30
0.0
 11
-157.5969340358961
 21
-834.3391717708955
 31
0.0
  0
INSERT
  5
A02
330
9FB
100
AcDbEntity
  8
0
 62
     0
370
    -2
100
AcDbBlockReference
  2
_Open30
 10
-153.0082588337482
 20
-834.3391717708955
 30
0.0
 41
2.5
 42
2.5
 43
2.5
 50
180.0
  0
INSERT
  5
A03
330
9FB
100
AcDbEntity
  8
0
 62
     0
370
    -2
100
AcDbBlockReference
  2
_Open30
 10
-157.5969340358961
 20
-834.3391717708955
 30
0.0
 41
2.5
 42
2.5
 43
2.5
  0
MTEXT
  5
A04
330
9FB
100
AcDbEntity
  8
0
 62
     4
100
AcDbMText
 10
-168.7219340358961
 20
-832.2141717708955
 30
0.0
 40
3.0
 41
0.0
 71
     5
 72
     1
  1
13.77
 73
     1
 44
1.0
1001
ACAD
1000
MTEXTBEGIN
1070
    73
1070
     1
1070
    44
1040
1.0
1070
    74
1070
     0
1000
MTEXTEND
  0
POINT
  5
A05
330
9FB
100
AcDbEntity
  8
Defpoints
 62
     0
100
AcDbPoint
 10
-153.0082588337482
 20
-833.0292506940201
 30
0.0
  0
POINT
  5
A06
330
9FB
100
AcDbEntity
  8
Defpoints
 62
     0
100
AcDbPoint
 10
-157.5969340358961
 20
-833.0292506940201
 30
0.0
  0
POINT
  5
A07
330
9FB
100
AcDbEntity
  8
Defpoints
 62
     0
100
AcDbPoint
 10
-157.5969340358961
 20
-834.3391717708955
 30
0.0
  0
ENDBLK
  5
A08
330
9FB
100
AcDbEntity
  8
0
100
AcDbBlockEnd
  0
BLOCK
  5
A0A
330
A09
100
AcDbEntity
  8
0
100
AcDbBlockBegin
  2
*D14
 70
     1
 10
0.0
 20
0.0
 30
0.0
  3
*D14
  1

  0
LINE
  5
A0B
330
A09
100
AcDbEntity
  8
0
 62
     0
370
    -2
100
AcDbLine
 10
-160.1045416668985
 20
-802.3497593757458
 30
0.0
 11
-160.1045416668985
 21
-794.9532258978079
 31
0.0
  0
LINE
  5
A0C
330
A09
100
AcDbEntity
  8
0
 62
     0
370
    -2
100
AcDbLine
 10
-170.0430160363884
 20
-802.3497593757458
 30
0.0
 11
-170.0430160363884
 21
-794.9532258978079
 31
0.0
  0
LINE
  5
A0D
330
A09
100
AcDbEntity
  8
0
 62
     0
370
    -2
100
AcDbLine
 10
-162.6045416668985
 20
-796.2032258978077
 30
0.0
 11
-167.5430160363885
 21
-796.2032258978077
 31
0.0
  0
INSERT
  5
A0E
330
A09
100
AcDbEntity
  8
0
 62
     0
370
    -2
100
AcDbBlockReference
  2
_Open30
 10
-160.1045416668985
 20
-796.2032258978077
 30
0.0
 41
2.5
 42
2.5
 43
2.5
  0
INSERT
  5
A0F
330
A09
100
AcDbEntity
  8
0
 62
     0
370
    -2
100
AcDbBlockReference
  2
_Open30
 10
-170.0430160363884
 20
-796.2032258978077
 30
0.0
 41
2.5
 42
2.5
 43
2.5
 50
180.0
  0
MTEXT
  5
A10
330
A09
100
AcDbEntity
  8
0
 62
     4
100
AcDbMText
 10
-165.0737788516435
 20
-793.1282258978077
 30
0.0
 40
3.0
 41
0.0
 71
     5
 72
     1
  1
9.94\H0.7X;\S+0^ -0.02;
 73
     1
 44
1.0
1001
ACAD
1000
MTEXTBEGIN
1070
    73
1070
     1
1070
    44
1040
1.0
1070
    74
1070
     0
1000
MTEXTEND
  0
POINT
  5
A11
330
A09
100
AcDbEntity
  8
Defpoints
 62
     0
100
AcDbPoint
 10
-160.1045416668985
 20
-802.5997593757455
 30
0.0
  0
POINT
  5
A12
330
A09
100
AcDbEntity
  8
Defpoints
 62
     0
100
AcDbPoint
 10
-170.0430160363884
 20
-802.5997593757455
 30
0.0
  0
POINT
  5
A13
330
A09
100
AcDbEntity
  8
Defpoints
 62
     0
100
AcDbPoint
 10
-170.0430160363884
 20
-796.2032258978077
 30
0.0
  0
ENDBLK
  5
A14
330
A09
100
AcDbEntity
  8
0
100
AcDbBlockEnd
  0
BLOCK
  5
A3C
330
A3B
100
AcDbEntity
  8
0
100
AcDbBlockBegin
  2
*D15
 70
     1
 10
0.0
 20
0.0
 30
0.0
  3
*D15
  1

  0
LINE
  5
AC5
330
A3B
100
AcDbEntity
  8
0
 62
     0
370
    -2
100
AcDbLine
 10
-49.30769954054875
 20
169.6989437634027
 30
0.0
 11
-49.30769954054875
 21
166.7893123413939
 31
0.0
  0
LINE
  5
AC6
330
A3B
100
AcDbEntity
  8
0
 62
     0
370
    -2
100
AcDbLine
 10
-51.76488659466906
 20
169.6989437634027
 30
0.0
 11
-51.76488659466906
 21
166.7893123413939
 31
0.0
  0
LINE
  5
AC7
330
A3B
100
AcDbEntity
  8
0
 62
     0
370
    -2
100
AcDbLine
 10
-46.80769954054875
 20
168.0393123413939
 30
0.0
 11
-44.30769954054875
 21
168.0393123413939
 31
0.0
  0
LINE
  5
AC8
330
A3B
100
AcDbEntity
  8
0
 62
     0
370
    -2
100
AcDbLine
 10
-54.26488659466906
 20
168.0393123413939
 30
0.0
 11
-67.01488659466908
 21
168.0393123413939
 31
0.0
  0
LINE
  5
AC9
330
A3B
100
AcDbEntity
  8
0
 62
     0
370
    -2
100
AcDbLine
 10
-49.30769954054875
 20
168.0393123413939
 30
0.0
 11
-51.76488659466906
 21
168.0393123413939
 31
0.0
  0
INSERT
  5
ACA
330
A3B
100
AcDbEntity
  8
0
 62
     0
370
    -2
100
AcDbBlockReference
  2
_Open30
 10
-49.30769954054875
 20
168.0393123413939
 30
0.0
 41
2.5
 42
2.5
 43
2.5
 50
180.0
  0
INSERT
  5
ACB
330
A3B
100
AcDbEntity
  8
0
 62
     0
370
    -2
100
AcDbBlockReference
  2
_Open30
 10
-51.76488659466906
 20
168.0393123413939
 30
0.0
 41
2.5
 42
2.5
 43
2.5
  0
MTEXT
  5
ACC
330
A3B
100
AcDbEntity
  8
0
 62
     4
100
AcDbMText
 10
-61.88988659466907
 20
170.1643123413939
 30
0.0
 40
3.0
 41
0.0
 71
     5
 72
     1
  1
2.46
 73
     1
 44
1.0
1001
ACAD
1000
MTEXTBEGIN
1070
    73
1070
     1
1070
    44
1040
1.0
1070
    74
1070
     0
1000
MTEXTEND
  0
POINT
  5
ACD
330
A3B
100
AcDbEntity
  8
Defpoints
 62
     0
100
AcDbPoint
 10
-49.30769954054875
 20
169.9489437634028
 30
0.0
  0
POINT
  5
ACE
330
A3B
100
AcDbEntity
  8
Defpoints
 62
     0
100
AcDbPoint
 10
-51.76488659466906
 20
169.9489437634028
 30
0.0
  0
POINT
  5
ACF
330
A3B
100
AcDbEntity
  8
Defpoints
 62
     0
100
AcDbPoint
 10
-51.76488659466906
 20
168.0393123413939
 30
0.0
  0
ENDBLK
  5
A3D
330
A3B
100
AcDbEntity
  8
0
100
AcDbBlockEnd
  0
BLOCK
  5
A4A
330
A49
100
AcDbEntity
  8
0
100
AcDbBlockBegin
  2
*D16
 70
     1
 10
0.0
 20
0.0
 30
0.0
  3
*D16
  1

  0
LINE
  5
AD0
330
A49
100
AcDbEntity
  8
0
 62
     0
370
    -2
100
AcDbLine
 10
-47.66957463447556
 20
164.2428541906404
 30
0.0
 11
-47.66957463447556
 21
161.6969621211771
 31
0.0
  0
LINE
  5
AD1
330
A49
100
AcDbEntity
  8
0
 62
     0
370
    -2
100
AcDbLine
 10
-50.76381043261847
 20
164.2428541906404
 30
0.0
 11
-50.76381043261847
 21
161.6969621211771
 31
0.0
  0
LINE
  5
AD2
330
A49
100
AcDbEntity
  8
0
 62
     0
370
    -2
100
AcDbLine
 10
-45.16957463447556
 20
162.9469621211771
 30
0.0
 11
-42.66957463447556
 21
162.9469621211771
 31
0.0
  0
LINE
  5
AD3
330
A49
100
AcDbEntity
  8
0
 62
     0
370
    -2
100
AcDbLine
 10
-53.26381043261847
 20
162.9469621211771
 30
0.0
 11
-67.09714376595177
 21
162.9469621211771
 31
0.0
  0
LINE
  5
AD4
330
A49
100
AcDbEntity
  8
0
 62
     0
370
    -2
100
AcDbLine
 10
-47.66957463447556
 20
162.9469621211771
 30
0.0
 11
-50.76381043261847
 21
162.9469621211771
 31
0.0
  0
INSERT
  5
AD5
330
A49
100
AcDbEntity
  8
0
 62
     0
370
    -2
100
AcDbBlockReference
  2
_Open30
 10
-47.66957463447556
 20
162.9469621211771
 30
0.0
 41
2.5
 42
2.5
 43
2.5
 50
180.0
  0
INSERT
  5
AD6
330
A49
100
AcDbEntity
  8
0
 62
     0
370
    -2
100
AcDbBlockReference
  2
_Open30
 10
-50.76381043261847
 20
162.9469621211771
 30
0.0
 41
2.5
 42
2.5
 43
2.5
  0
MTEXT
  5
AD7
330
A49
100
AcDbEntity
  8
0
 62
     4
100
AcDbMText
 10
-61.88881043261846
 20
164.8219621211771
 30
0.0
 40
2.5
 41
0.0
 71
     5
 72
     1
  1
15.47
  7
高2.5
 73
     1
 44
1.0
1001
ACAD
1000
MTEXTBEGIN
1070
    73
1070
     1
1070
    44
1040
1.0
1070
    74
1070
     0
1000
MTEXTEND
  0
POINT
  5
AD8
330
A49
100
AcDbEntity
  8
Defpoints
 62
     0
100
AcDbPoint
 10
-47.66957463447556
 20
164.4928541906404
 30
0.0
  0
POINT
  5
AD9
330
A49
100
AcDbEntity
  8
Defpoints
 62
     0
100
AcDbPoint
 10
-50.76381043261847
 20
164.4928541906404
 30
0.0
  0
POINT
  5
ADA
330
A49
100
AcDbEntity
  8
Defpoints
 62
     0
100
AcDbPoint
 10
-50.76381043261847
 20
162.9469621211771
 30
0.0
  0
ENDBLK
  5
A4B
330
A49
100
AcDbEntity
  8
0
100
AcDbBlockEnd
  0
BLOCK
  5
A58
330
A57
100
AcDbEntity
  8
0
100
AcDbBlockBegin
  2
*D17
 70
     1
 10
0.0
 20
0.0
 30
0.0
  3
*D17
  1

  0
LINE
  5
ADB
330
A57
100
AcDbEntity
  8
0
 62
     0
370
    -2
100
AcDbLine
 10
-45.94044302639008
 20
158.7867644747939
 30
0.0
 11
-45.94044302639008
 21
156.5136768124266
 31
0.0
  0
LINE
  5
ADC
330
A57
100
AcDbEntity
  8
0
 62
     0
370
    -2
100
AcDbLine
 10
-49.9447479795819
 20
158.7867644747939
 30
0.0
 11
-49.9447479795819
 21
156.5136768124266
 31
0.0
  0
LINE
  5
ADD
330
A57
100
AcDbEntity
  8
0
 62
     0
370
    -2
100
AcDbLine
 10
-43.44044302639008
 20
157.7636768124266
 30
0.0
 11
-40.94044302639008
 21
157.7636768124266
 31
0.0
  0
LINE
  5
ADE
330
A57
100
AcDbEntity
  8
0
 62
     0
370
    -2
100
AcDbLine
 10
-52.4447479795819
 20
157.7636768124266
 30
0.0
 11
-64.19474797958191
 21
157.7636768124266
 31
0.0
  0
LINE
  5
ADF
330
A57
100
AcDbEntity
  8
0
 62
     0
370
    -2
100
AcDbLine
 10
-45.94044302639008
 20
157.7636768124266
 30
0.0
 11
-49.9447479795819
 21
157.7636768124266
 31
0.0
  0
INSERT
  5
AE0
330
A57
100
AcDbEntity
  8
0
 62
     0
370
    -2
100
AcDbBlockReference
  2
_Open30
 10
-45.94044302639008
 20
157.7636768124266
 30
0.0
 41
2.5
 42
2.5
 43
2.5
 50
180.0
  0
INSERT
  5
AE1
330
A57
100
AcDbEntity
  8
0
 62
     0
370
    -2
100
AcDbBlockReference
  2
_Open30
 10
-49.9447479795819
 20
157.7636768124266
 30
0.0
 41
2.5
 42
2.5
 43
2.5
  0
MTEXT
  5
AE2
330
A57
100
AcDbEntity
  8
0
 62
     4
100
AcDbMText
 10
-59.56974797958189
 20
159.9886768124266
 30
0.0
 40
3.2
 41
0.0
 71
     5
 72
     1
  1
8.01
  7
高3.2
 73
     1
 44
1.0
1001
ACAD
1000
MTEXTBEGIN
1070
    73
1070
     1
1070
    44
1040
1.0
1070
    74
1070
     0
1000
MTEXTEND
  0
POINT
  5
AE3
330
A57
100
AcDbEntity
  8
Defpoints
 62
     0
100
AcDbPoint
 10
-45.94044302639008
 20
159.0367644747939
 30
0.0
  0
POINT
  5
AE4
330
A57
100
AcDbEntity
  8
Defpoints
 62
     0
100
AcDbPoint
 10
-49.9447479795819
 20
159.0367644747939
 30
0.0
  0
POINT
  5
AE5
330
A57
100
AcDbEntity
  8
Defpoints
 62
     0
100
AcDbPoint
 10
-49.9447479795819
 20
157.7636768124266
 30
0.0
  0
ENDBLK
  5
A59
330
A57
100
AcDbEntity
  8
0
100
AcDbBlockEnd
  0
BLOCK
  5
A66
330
A65
100
AcDbEntity
  8
0
100
AcDbBlockBegin
  2
*D18
 70
     1
 10
0.0
 20
0.0
 30
0.0
  3
*D18
  1

  0
LINE
  5
AE6
330
A65
100
AcDbEntity
  8
0
 62
     0
370
    -2
100
AcDbLine
 10
-46.03144972840238
 20
153.5125445067623
 30
0.0
 11
-46.03144972840238
 21
151.6941309993059
 31
0.0
  0
LINE
  5
AE7
330
A65
100
AcDbEntity
  8
0
 62
     0
370
    -2
100
AcDbLine
 10
-50.76381043261847
 20
153.5125445067623
 30
0.0
 11
-50.76381043261847
 21
151.6941309993059
 31
0.0
  0
LINE
  5
AE8
330
A65
100
AcDbEntity
  8
0
 62
     0
370
    -2
100
AcDbLine
 10
-43.53144972840238
 20
152.9441309993059
 30
0.0
 11
-41.03144972840238
 21
152.9441309993059
 31
0.0
  0
LINE
  5
AE9
330
A65
100
AcDbEntity
  8
0
 62
     0
370
    -2
100
AcDbLine
 10
-53.26381043261847
 20
152.9441309993059
 30
0.0
 11
-75.01381043261847
 21
152.9441309993059
 31
0.0
  0
LINE
  5
AEA
330
A65
100
AcDbEntity
  8
0
 62
     0
370
    -2
100
AcDbLine
 10
-46.03144972840238
 20
152.9441309993059
 30
0.0
 11
-50.76381043261847
 21
152.9441309993059
 31
0.0
  0
INSERT
  5
AEB
330
A65
100
AcDbEntity
  8
0
 62
     0
370
    -2
100
AcDbBlockReference
  2
_Open30
 10
-46.03144972840238
 20
152.9441309993059
 30
0.0
 41
2.5
 42
2.5
 43
2.5
 50
180.0
  0
INSERT
  5
AEC
330
A65
100
AcDbEntity
  8
0
 62
     0
370
    -2
100
AcDbBlockReference
  2
_Open30
 10
-50.76381043261847
 20
152.9441309993059
 30
0.0
 41
2.5
 42
2.5
 43
2.5
  0
MTEXT
  5
AED
330
A65
100
AcDbEntity
  8
0
 62
     4
100
AcDbMText
 10
-65.38881043261847
 20
155.8191309993059
 30
0.0
 40
4.5
 41
0.0
 71
     5
 72
     1
  1
47.32
  7
高4.5
 73
     1
 44
1.0
1001
ACAD
1000
MTEXTBEGIN
1070
    73
1070
     1
1070
    44
1040
1.0
1070
    74
1070
     0
1000
MTEXTEND
  0
POINT
  5
AEE
330
A65
100
AcDbEntity
  8
Defpoints
 62
     0
100
AcDbPoint
 10
-46.03144972840238
 20
153.7625445067623
 30
0.0
  0
POINT
  5
AEF
330
A65
100
AcDbEntity
  8
Defpoints
 62
     0
100
AcDbPoint
 10
-50.76381043261847
 20
153.7625445067623
 30
0.0
  0
POINT
  5
AF0
330
A65
100
AcDbEntity
  8
Defpoints
 62
     0
100
AcDbPoint
 10
-50.76381043261847
 20
152.9441309993059
 30
0.0
  0
ENDBLK
  5
A67
330
A65
100
AcDbEntity
  8
0
100
AcDbBlockEnd
  0
BLOCK
  5
A74
330
A73
100
AcDbEntity
  8
0
100
AcDbBlockBegin
  2
*D19
 70
     1
 10
0.0
 20
0.0
 30
0.0
  3
*D19
  1

  0
LINE
  5
AF1
330
A73
100
AcDbEntity
  8
0
 62
     0
370
    -2
100
AcDbLine
 10
-24.55381346039491
 20
169.6989437634027
 30
0.0
 11
-24.55381346039491
 21
166.7893123413939
 31
0.0
  0
LINE
  5
AF2
330
A73
100
AcDbEntity
  8
0
 62
     0
370
    -2
100
AcDbLine
 10
-27.01100051451522
 20
169.6989437634027
 30
0.0
 11
-27.01100051451522
 21
166.7893123413939
 31
0.0
  0
LINE
  5
AF3
330
A73
100
AcDbEntity
  8
0
 62
     0
370
    -2
100
AcDbLine
 10
-22.05381346039491
 20
168.0393123413939
 30
0.0
 11
-19.5538134603949
 21
168.0393123413939
 31
0.0
  0
LINE
  5
AF4
330
A73
100
AcDbEntity
  8
0
 62
     0
370
    -2
100
AcDbLine
 10
-29.51100051451522
 20
168.0393123413939
 30
0.0
 11
-51.11100051451522
 21
168.0393123413939
 31
0.0
  0
LINE
  5
AF5
330
A73
100
AcDbEntity
  8
0
 62
     0
370
    -2
100
AcDbLine
 10
-24.55381346039491
 20
168.0393123413939
 30
0.0
 11
-27.01100051451522
 21
168.0393123413939
 31
0.0
  0
INSERT
  5
AF6
330
A73
100
AcDbEntity
  8
0
 62
     0
370
    -2
100
AcDbBlockReference
  2
_Open30
 10
-24.55381346039491
 20
168.0393123413939
 30
0.0
 41
2.5
 42
2.5
 43
2.5
 50
180.0
  0
INSERT
  5
AF7
330
A73
100
AcDbEntity
  8
0
 62
     0
370
    -2
100
AcDbBlockReference
  2
_Open30
 10
-27.01100051451522
 20
168.0393123413939
 30
0.0
 41
2.5
 42
2.5
 43
2.5
  0
MTEXT
  5
AF8
330
A73
100
AcDbEntity
  8
0
 62
     4
100
AcDbMText
 10
-41.56100051451523
 20
171.8143123413939
 30
0.0
 40
6.299999999999998
 41
0.0
 71
     5
 72
     1
  1
0.25
  7
高6.3
 73
     1
 44
1.0
1001
ACAD
1000
MTEXTBEGIN
1070
    73
1070
     1
1070
    44
1040
1.0
1070
    74
1070
     0
1000
MTEXTEND
  0
POINT
  5
AF9
330
A73
100
AcDbEntity
  8
Defpoints
 62
     0
100
AcDbPoint
 10
-24.55381346039491
 20
169.9489437634028
 30
0.0
  0
POINT
  5
AFA
330
A73
100
AcDbEntity
  8
Defpoints
 62
     0
100
AcDbPoint
 10
-27.01100051451522
 20
169.9489437634028
 30
0.0
  0
POINT
  5
AFB
330
A73
100
AcDbEntity
  8
Defpoints
 62
     0
100
AcDbPoint
 10
-27.01100051451522
 20
168.0393123413939
 30
0.0
  0
ENDBLK
  5
A75
330
A73
100
AcDbEntity
  8
0
100
AcDbBlockEnd
  0
BLOCK
  5
A82
330
A81
100
AcDbEntity
  8
0
100
AcDbBlockBegin
  2
*D20
 70
     1
 10
0.0
 20
0.0
 30
0.0
  3
*D20
  1

  0
LINE
  5
AFC
330
A81
100
AcDbEntity
  8
0
 62
     0
370
    -2
100
AcDbLine
 10
-22.91568855432172
 20
164.2428541906404
 30
0.0
 11
-22.91568855432172
 21
161.6969621211771
 31
0.0
  0
LINE
  5
AFD
330
A81
100
AcDbEntity
  8
0
 62
     0
370
    -2
100
AcDbLine
 10
-26.00992435246463
 20
164.2428541906404
 30
0.0
 11
-26.00992435246463
 21
161.6969621211771
 31
0.0
  0
LINE
  5
AFE
330
A81
100
AcDbEntity
  8
0
 62
     0
370
    -2
100
AcDbLine
 10
-20.41568855432172
 20
162.9469621211771
 30
0.0
 11
-17.91568855432172
 21
162.9469621211771
 31
0.0
  0
LINE
  5
AFF
330
A81
100
AcDbEntity
  8
0
 62
     0
370
    -2
100
AcDbLine
 10
-28.50992435246462
 20
162.9469621211771
 30
0.0
 11
-40.50992435246461
 21
162.9469621211771
 31
0.0
  0
LINE
  5
B00
330
A81
100
AcDbEntity
  8
0
 62
     0
370
    -2
100
AcDbLine
 10
-22.91568855432172
 20
162.9469621211771
 30
0.0
 11
-26.00992435246463
 21
162.9469621211771
 31
0.0
  0
INSERT
  5
B01
330
A81
100
AcDbEntity
  8
0
 62
     0
370
    -2
100
AcDbBlockReference
  2
_Open30
 10
-22.91568855432172
 20
162.9469621211771
 30
0.0
 41
2.5
 42
2.5
 43
2.5
 50
180.0
  0
INSERT
  5
B02
330
A81
100
AcDbEntity
  8
0
 62
     0
370
    -2
100
AcDbBlockReference
  2
_Open30
 10
-26.00992435246463
 20
162.9469621211771
 30
0.0
 41
2.5
 42
2.5
 43
2.5
  0
MTEXT
  5
B03
330
A81
100
AcDbEntity
  8
0
 62
     4
100
AcDbMText
 10
-35.88492435246461
 20
165.071962121177
 30
0.0
 40
3.0
 41
0.0
 71
     5
 72
     1
  1
1.55
 73
     1
 44
1.0
1001
ACAD
1000
MTEXTBEGIN
1070
    73
1070
     1
1070
    44
1040
1.0
1070
    74
1070
     0
1000
MTEXTEND
  0
POINT
  5
B04
330
A81
100
AcDbEntity
  8
Defpoints
 62
     0
100
AcDbPoint
 10
-22.91568855432172
 20
164.4928541906404
 30
0.0
  0
POINT
  5
B05
330
A81
100
AcDbEntity
  8
Defpoints
 62
     0
100
AcDbPoint
 10
-26.00992435246463
 20
164.4928541906404
 30
0.0
  0
POINT
  5
B06
330
A81
100
AcDbEntity
  8
Defpoints
 62
     0
100
AcDbPoint
 10
-26.00992435246463
 20
162.9469621211771
 30
0.0
  0
ENDBLK
  5
A83
330
A81
100
AcDbEntity
  8
0
100
AcDbBlockEnd
  0
BLOCK
  5
A90
330
A8F
100
AcDbEntity
  8
0
100
AcDbBlockBegin
  2
*D21
 70
     1
 10
0.0
 20
0.0
 30
0.0
  3
*D21
  1

  0
LINE
  5
B07
330
A8F
100
AcDbEntity
  8
0
 62
     0
370
    -2
100
AcDbLine
 10
-21.18655694623624
 20
158.7867644747939
 30
0.0
 11
-21.18655694623624
 21
156.5136768124266
 31
0.0
  0
LINE
  5
B08
330
A8F
100
AcDbEntity
  8
0
 62
     0
370
    -2
100
AcDbLine
 10
-25.19086189942806
 20
158.7867644747939
 30
0.0
 11
-25.19086189942806
 21
156.5136768124266
 31
0.0
  0
LINE
  5
B09
330
A8F
100
AcDbEntity
  8
0
 62
     0
370
    -2
100
AcDbLine
 10
-18.68655694623624
 20
157.7636768124266
 30
0.0
 11
-16.18655694623624
 21
157.7636768124266
 31
0.0
  0
LINE
  5
B0A
330
A8F
100
AcDbEntity
  8
0
 62
     0
370
    -2
100
AcDbLine
 10
-27.69086189942806
 20
157.7636768124266
 30
0.0
 11
-36.0241952327614
 21
157.7636768124266
 31
0.0
  0
LINE
  5
B0B
330
A8F
100
AcDbEntity
  8
0
 62
     0
370
    -2
100
AcDbLine
 10
-21.18655694623624
 20
157.7636768124266
 30
0.0
 11
-25.19086189942806
 21
157.7636768124266
 31
0.0
  0
INSERT
  5
B0C
330
A8F
100
AcDbEntity
  8
0
 62
     0
370
    -2
100
AcDbBlockReference
  2
_Open30
 10
-21.18655694623624
 20
157.7636768124266
 30
0.0
 41
2.5
 42
2.5
 43
2.5
 50
180.0
  0
INSERT
  5
B0D
330
A8F
100
AcDbEntity
  8
0
 62
     0
370
    -2
100
AcDbBlockReference
  2
_Open30
 10
-25.19086189942806
 20
157.7636768124266
 30
0.0
 41
2.5
 42
2.5
 43
2.5
  0
MTEXT
  5
B0E
330
A8F
100
AcDbEntity
  8
0
 62
     4
100
AcDbMText
 10
-33.56586189942806
 20
159.3886768124266
 30
0.0
 40
2.0
 41
0.0
 71
     5
 72
     1
  1
0.8
  7
高2
 73
     1
 44
1.0
1001
ACAD
1000
MTEXTBEGIN
1070
    73
1070
     1
1070
    44
1040
1.0
1070
    74
1070
     0
1000
MTEXTEND
  0
POINT
  5
B0F
330
A8F
100
AcDbEntity
  8
Defpoints
 62
     0
100
AcDbPoint
 10
-21.18655694623624
 20
159.0367644747939
 30
0.0
  0
POINT
  5
B10
330
A8F
100
AcDbEntity
  8
Defpoints
 62
     0
100
AcDbPoint
 10
-25.19086189942806
 20
159.0367644747939
 30
0.0
  0
POINT
  5
B11
330
A8F
100
AcDbEntity
  8
Defpoints
 62
     0
100
AcDbPoint
 10
-25.19086189942806
 20
157.7636768124266
 30
0.0
  0
ENDBLK
  5
A91
330
A8F
100
AcDbEntity
  8
0
100
AcDbBlockEnd
  0
BLOCK
  5
A9E
330
A9D
100
AcDbEntity
  8
0
100
AcDbBlockBegin
  2
*D22
 70
     1
 10
0.0
 20
0.0
 30
0.0
  3
*D22
  1

  0
LINE
  5
B12
330
A9D
100
AcDbEntity
  8
0
 62
     0
370
    -2
100
AcDbLine
 10
-21.27756364824853
 20
153.5125445067623
 30
0.0
 11
-21.27756364824853
 21
151.6941309993059
 31
0.0
  0
LINE
  5
B13
330
A9D
100
AcDbEntity
  8
0
 62
     0
370
    -2
100
AcDbLine
 10
-26.00992435246463
 20
153.5125445067623
 30
0.0
 11
-26.00992435246463
 21
151.6941309993059
 31
0.0
  0
LINE
  5
B14
330
A9D
100
AcDbEntity
  8
0
 62
     0
370
    -2
100
AcDbLine
 10
-18.77756364824853
 20
152.9441309993059
 30
0.0
 11
-16.27756364824853
 21
152.9441309993059
 31
0.0
  0
LINE
  5
B15
330
A9D
100
AcDbEntity
  8
0
 62
     0
370
    -2
100
AcDbLine
 10
-28.50992435246462
 20
152.9441309993059
 30
0.0
 11
-43.25992435246461
 21
152.9441309993059
 31
0.0
  0
LINE
  5
B16
330
A9D
100
AcDbEntity
  8
0
 62
     0
370
    -2
100
AcDbLine
 10
-21.27756364824853
 20
152.9441309993059
 30
0.0
 11
-26.00992435246463
 21
152.9441309993059
 31
0.0
  0
INSERT
  5
B17
330
A9D
100
AcDbEntity
  8
0
 62
     0
370
    -2
100
AcDbBlockReference
  2
_Open30
 10
-21.27756364824853
 20
152.9441309993059
 30
0.0
 41
2.5
 42
2.5
 43
2.5
 50
180.0
  0
INSERT
  5
B18
330
A9D
100
AcDbEntity
  8
0
 62
     0
370
    -2
100
AcDbBlockReference
  2
_Open30
 10
-26.00992435246463
 20
152.9441309993059
 30
0.0
 41
2.5
 42
2.5
 43
2.5
  0
MTEXT
  5
B19
330
A9D
100
AcDbEntity
  8
0
 62
     4
100
AcDbMText
 10
-37.13492435246461
 20
155.0691309993059
 30
0.0
 40
3.0
 41
0.0
 71
     5
 72
     1
  1
18.93
 73
     1
 44
1.0
1001
ACAD
1000
MTEXTBEGIN
1070
    73
1070
     1
1070
    44
1040
1.0
1070
    74
1070
     0
1000
MTEXTEND
  0
POINT
  5
B1A
330
A9D
100
AcDbEntity
  8
Defpoints
 62
     0
100
AcDbPoint
 10
-21.27756364824853
 20
153.7625445067623
 30
0.0
  0
POINT
  5
B1B
330
A9D
100
AcDbEntity
  8
Defpoints
 62
     0
100
AcDbPoint
 10
-26.00992435246463
 20
153.7625445067623
 30
0.0
  0
POINT
  5
B1C
330
A9D
100
AcDbEntity
  8
Defpoints
 62
     0
100
AcDbPoint
 10
-26.00992435246463
 20
152.9441309993059
 30
0.0
  0
ENDBLK
  5
A9F
330
A9D
100
AcDbEntity
  8
0
100
AcDbBlockEnd
  0
BLOCK
  5
AAC
330
AAB
100
AcDbEntity
  8
0
100
AcDbBlockBegin
  2
*D23
 70
     1
 10
0.0
 20
0.0
 30
0.0
  3
*D23
  1

  0
LINE
  5
B1D
330
AAB
100
AcDbEntity
  8
0
 62
     0
370
    -2
100
AcDbLine
 10
-24.08199049938685
 20
148.4567043001725
 30
0.0
 11
-24.08199049938685
 21
146.146783223297
 31
0.0
  0
LINE
  5
B1E
330
AAB
100
AcDbEntity
  8
0
 62
     0
370
    -2
100
AcDbLine
 10
-28.67066570153474
 20
148.4567043001725
 30
0.0
 11
-28.67066570153474
 21
146.146783223297
 31
0.0
  0
LINE
  5
B1F
330
AAB
100
AcDbEntity
  8
0
 62
     0
370
    -2
100
AcDbLine
 10
-21.58199049938685
 20
147.396783223297
 30
0.0
 11
-19.08199049938685
 21
147.396783223297
 31
0.0
  0
LINE
  5
B20
330
AAB
100
AcDbEntity
  8
0
 62
     0
370
    -2
100
AcDbLine
 10
-31.17066570153474
 20
147.396783223297
 30
0.0
 11
-45.92066570153472
 21
147.396783223297
 31
0.0
  0
LINE
  5
B21
330
AAB
100
AcDbEntity
  8
0
 62
     0
370
    -2
100
AcDbLine
 10
-24.08199049938685
 20
147.396783223297
 30
0.0
 11
-28.67066570153474
 21
147.396783223297
 31
0.0
  0
INSERT
  5
B22
330
AAB
100
AcDbEntity
  8
0
 62
     0
370
    -2
100
AcDbBlockReference
  2
_Open30
 10
-24.08199049938685
 20
147.396783223297
 30
0.0
 41
2.5
 42
2.5
 43
2.5
 50
180.0
  0
INSERT
  5
B23
330
AAB
100
AcDbEntity
  8
0
 62
     0
370
    -2
100
AcDbBlockReference
  2
_Open30
 10
-28.67066570153474
 20
147.396783223297
 30
0.0
 41
2.5
 42
2.5
 43
2.5
  0
MTEXT
  5
B24
330
AAB
100
AcDbEntity
  8
0
 62
     4
100
AcDbMText
 10
-39.79566570153475
 20
149.521783223297
 30
0.0
 40
3.0
 41
0.0
 71
     5
 72
     1
  1
13.77
 73
     1
 44
1.0
1001
ACAD
1000
MTEXTBEGIN
1070
    73
1070
     1
1070
    44
1040
1.0
1070
    74
1070
     0
1000
MTEXTEND
  0
POINT
  5
B25
330
AAB
100
AcDbEntity
  8
Defpoints
 62
     0
100
AcDbPoint
 10
-24.08199049938685
 20
148.7067043001725
 30
0.0
  0
POINT
  5
B26
330
AAB
100
AcDbEntity
  8
Defpoints
 62
     0
100
AcDbPoint
 10
-28.67066570153474
 20
148.7067043001725
 30
0.0
  0
POINT
  5
B27
330
AAB
100
AcDbEntity
  8
Defpoints
 62
     0
100
AcDbPoint
 10
-28.67066570153474
 20
147.396783223297
 30
0.0
  0
ENDBLK
  5
AAD
330
AAB
100
AcDbEntity
  8
0
100
AcDbBlockEnd
  0
BLOCK
  5
ABA
330
AB9
100
AcDbEntity
  8
0
100
AcDbBlockBegin
  2
*D24
 70
     1
 10
0.0
 20
0.0
 30
0.0
  3
*D24
  1

  0
LINE
  5
B28
330
AB9
100
AcDbEntity
  8
0
 62
     0
370
    -2
100
AcDbLine
 10
-31.17827333253718
 20
179.3861956184469
 30
0.0
 11
-31.17827333253718
 21
186.7827290963846
 31
0.0
  0
LINE
  5
B29
330
AB9
100
AcDbEntity
  8
0
 62
     0
370
    -2
100
AcDbLine
 10
-41.11674770202717
 20
179.3861956184469
 30
0.0
 11
-41.11674770202717
 21
186.7827290963846
 31
0.0
  0
LINE
  5
B2A
330
AB9
100
AcDbEntity
  8
0
 62
     0
370
    -2
100
AcDbLine
 10
-33.67827333253718
 20
185.5327290963846
 30
0.0
 11
-38.61674770202718
 21
185.5327290963846
 31
0.0
  0
INSERT
  5
B2B
330
AB9
100
AcDbEntity
  8
0
 62
     0
370
    -2
100
AcDbBlockReference
  2
_Open30
 10
-31.17827333253718
 20
185.5327290963846
 30
0.0
 41
2.5
 42
2.5
 43
2.5
  0
INSERT
  5
B2C
330
AB9
100
AcDbEntity
  8
0
 62
     0
370
    -2
100
AcDbBlockReference
  2
_Open30
 10
-41.11674770202717
 20
185.5327290963846
 30
0.0
 41
2.5
 42
2.5
 43
2.5
 50
180.0
  0
MTEXT
  5
B2D
330
AB9
100
AcDbEntity
  8
0
 62
     4
100
AcDbMText
 10
-36.14751051728217
 20
188.6077290963846
 30
0.0
 40
3.0
 41
0.0
 71
     5
 72
     1
  1
9.94\H0.7X;\S+0^ -0.02;
 73
     1
 44
1.0
1001
ACAD
1000
MTEXTBEGIN
1070
    73
1070
     1
1070
    44
1040
1.0
1070
    74
1070
     0
1000
MTEXTEND
  0
POINT
  5
B2E
330
AB9
100
AcDbEntity
  8
Defpoints
 62
     0
100
AcDbPoint
 10
-31.17827333253718
 20
179.1361956184469
 30
0.0
  0
POINT
  5
B2F
330
AB9
100
AcDbEntity
  8
Defpoints
 62
     0
100
AcDbPoint
 10
-41.11674770202717
 20
179.1361956184469
 30
0.0
  0
POINT
  5
B30
330
AB9
100
AcDbEntity
  8
Defpoints
 62
     0
100
AcDbPoint
 10
-41.11674770202717
 20
185.5327290963846
 30
0.0
  0
ENDBLK
  5
ABB
330
AB9
100
AcDbEntity
  8
0
100
AcDbBlockEnd
  0
ENDSEC
  0
SECTION
  2
ENTITIES
  0
CIRCLE
  5
8A
330
36
100
AcDbEntity
  8
0
 62
     3
100
AcDbCircle
 10
64.50565671163515
 20
-123.605484
 30
0.0
 40
8.96
  0
LINE
  5
8B
330
36
100
AcDbEntity
  8
0
 62
     3
100
AcDbLine
 10
189.19874
 20
39.878353
 30
0.0
 11
173.59874
 21
39.878353
 31
0.0
  0
LINE
  5
8C
330
36
100
AcDbEntity
  8
0
 62
     3
100
AcDbLine
 10
183.57874
 20
26.278353
 30
0.0
 11
183.57874
 21
27.07835300000001
 31
0.0
  0
LINE
  5
8D
330
36
100
AcDbEntity
  8
0
 62
     3
100
AcDbLine
 10
183.57874
 20
24.678353
 30
0.0
 11
183.57874
 21
25.478353
 31
0.0
  0
LINE
  5
8E
330
36
100
AcDbEntity
  8
0
 62
     3
100
AcDbLine
 10
183.57874
 20
23.078353
 30
0.0
 11
183.57874
 21
23.878353
 31
0.0
  0
LINE
  5
8F
330
36
100
AcDbEntity
  8
0
 62
     3
100
AcDbLine
 10
183.57874
 20
21.478353
 30
0.0
 11
183.57874
 21
22.278353
 31
0.0
  0
LINE
  5
90
330
36
100
AcDbEntity
  8
0
 62
     3
100
AcDbLine
 10
179.21874
 20
26.278353
 30
0.0
 11
179.21874
 21
27.07835300000001
 31
0.0
  0
LINE
  5
91
330
36
100
AcDbEntity
  8
0
 62
     3
100
AcDbLine
 10
179.21874
 20
24.678353
 30
0.0
 11
179.21874
 21
25.478353
 31
0.0
  0
LINE
  5
92
330
36
100
AcDbEntity
  8
0
 62
     3
100
AcDbLine
 10
179.21874
 20
23.078353
 30
0.0
 11
179.21874
 21
23.878353
 31
0.0
  0
LINE
  5
93
330
36
100
AcDbEntity
  8
0
 62
     3
100
AcDbLine
 10
179.21874
 20
21.478353
 30
0.0
 11
179.21874
 21
22.278353
 31
0.0
  0
TEXT
  5
95
330
36
100
AcDbEntity
  8
0
 62
     3
100
AcDbText
 10
145.412248
 20
-134.472534
 30
0.0
 40
3.2
  1
FREE
  7
高3.2
100
AcDbText
  0
LINE
  5
96
330
36
100
AcDbEntity
  8
0
 62
     3
100
AcDbLine
 10
-94.223952
 20
77.620108
 30
0.0
 11
-94.223952
 21
76.78864899999997
 31
0.0
  0
LINE
  5
97
330
36
100
AcDbEntity
  8
0
 62
     3
100
AcDbLine
 10
-63.227431
 20
77.620108
 30
0.0
 11
-63.227431
 21
76.78864899999997
 31
0.0
  0
TEXT
  5
98
330
36
100
AcDbEntity
  8
0
 62
     3
100
AcDbText
 10
65.35507571163518
 20
-113.469404
 30
0.0
 40
3.2
  1
Y(S)
  7
高3.2
100
AcDbText
  0
TEXT
  5
99
330
36
100
AcDbEntity
  8
0
 62
     3
100
AcDbText
 10
74.21020771163519
 20
-127.578341
 30
0.0
 40
3.2
  1
X(R)
  7
高3.2
100
AcDbText
  0
TEXT
  5
9A
330
36
100
AcDbEntity
  8
0
 62
     3
100
AcDbText
 10
44.28503771163518
 20
-127.289172
 30
0.0
 40
3.2
  1
Z(T)
  7
高3.2
100
AcDbText
  0
LINE
  5
9B
330
36
100
AcDbEntity
  8
0
 62
     3
100
AcDbLine
 10
-62.542489
 20
73.521192
 30
0.0
 11
-62.542489
 21
70.56439199999998
 31
0.0
  0
LINE
  5
9C
330
36
100
AcDbEntity
  8
0
 62
     3
100
AcDbLine
 10
-62.542489
 20
70.56439199999998
 30
0.0
 11
-60.605068
 21
73.260501
 31
0.0
  0
LINE
  5
9D
330
36
100
AcDbEntity
  8
0
 62
     3
100
AcDbLine
 10
-62.542489
 20
73.521192
 30
0.0
 11
-64.33898000000001
 21
71.017016
 31
0.0
  0
LINE
  5
AF
330
36
100
AcDbEntity
  8
0
 62
     3
100
AcDbLine
 10
185.19874
 20
59.878353
 30
0.0
 11
185.19874
 21
51.878353
 31
0.0
  0
LINE
  5
B0
330
36
100
AcDbEntity
  8
0
 62
     3
100
AcDbLine
 10
185.99874
 20
59.878353
 30
0.0
 11
185.19874
 21
59.878353
 31
0.0
  0
LINE
  5
B1
330
36
100
AcDbEntity
  8
0
 62
     3
100
AcDbLine
 10
185.99874
 20
59.878353
 30
0.0
 11
185.99874
 21
51.878353
 31
0.0
  0
LINE
  5
B2
330
36
100
AcDbEntity
  8
0
 62
     3
100
AcDbLine
 10
182.99874
 20
59.878353
 30
0.0
 11
182.99874
 21
51.878353
 31
0.0
  0
LINE
  5
B3
330
36
100
AcDbEntity
  8
0
 62
     3
100
AcDbLine
 10
182.99874
 20
59.878353
 30
0.0
 11
181.7987399999999
 21
59.878353
 31
0.0
  0
LINE
  5
B4
330
36
100
AcDbEntity
  8
0
 62
     3
100
AcDbLine
 10
181.7987399999999
 20
61.078353
 30
0.0
 11
181.7987399999999
 21
51.878353
 31
0.0
  0
LINE
  5
B5
330
36
100
AcDbEntity
  8
0
 62
     3
100
AcDbLine
 10
181.7987399999999
 20
61.078353
 30
0.0
 11
180.99874
 21
61.078353
 31
0.0
  0
LINE
  5
B6
330
36
100
AcDbEntity
  8
0
 62
     3
100
AcDbLine
 10
180.99874
 20
61.078353
 30
0.0
 11
180.99874
 21
51.878353
 31
0.0
  0
LINE
  5
B7
330
36
100
AcDbEntity
  8
0
 62
     3
100
AcDbLine
 10
180.99874
 20
59.878353
 30
0.0
 11
179.79874
 21
59.878353
 31
0.0
  0
LINE
  5
B8
330
36
100
AcDbEntity
  8
0
 62
     3
100
AcDbLine
 10
179.79874
 20
59.878353
 30
0.0
 11
179.79874
 21
51.878353
 31
0.0
  0
LINE
  5
B9
330
36
100
AcDbEntity
  8
0
 62
     3
100
AcDbLine
 10
177.59874
 20
59.878353
 30
0.0
 11
177.59874
 21
51.878353
 31
0.0
  0
LINE
  5
BA
330
36
100
AcDbEntity
  8
0
 62
     3
100
AcDbLine
 10
177.59874
 20
59.878353
 30
0.0
 11
176.7987399999999
 21
59.878353
 31
0.0
  0
LINE
  5
BB
330
36
100
AcDbEntity
  8
0
 62
     3
100
AcDbLine
 10
176.7987399999999
 20
59.878353
 30
0.0
 11
176.7987399999999
 21
51.878353
 31
0.0
  0
ARC
  5
BD
330
36
100
AcDbEntity
  8
0
 62
     3
100
AcDbCircle
 10
173.781598
 20
17.464349
 30
0.0
 40
5.0
100
AcDbArc
 50
270.0
 51
0.0
  0
ARC
  5
BE
330
36
100
AcDbEntity
  8
0
 62
     3
100
AcDbCircle
 10
173.781598
 20
17.464349
 30
0.0
 40
10.45
100
AcDbArc
 50
270.0
 51
0.0
  0
LINE
  5
BF
330
36
100
AcDbEntity
  8
0
 62
     3
100
AcDbLine
 10
178.781598
 20
17.464349
 30
0.0
 11
178.781598
 21
19.923133
 31
0.0
  0
LINE
  5
C0
330
36
100
AcDbEntity
  8
0
 62
     3
100
AcDbLine
 10
184.231598
 20
17.464349
 30
0.0
 11
184.231598
 21
19.923133
 31
0.0
  0
LINE
  5
C1
330
36
100
AcDbEntity
  8
0
 62
     3
100
AcDbLine
 10
189.39874
 20
51.878353
 30
0.0
 11
173.39874
 21
51.878353
 31
0.0
  0
LINE
  5
C2
330
36
100
AcDbEntity
  8
0
 62
     3
100
AcDbLine
 10
65.078908
 20
74.839349
 30
0.0
 11
50.613923
 21
74.839349
 31
0.0
  0
LINE
  5
C3
330
36
100
AcDbEntity
  8
0
 62
     3
100
AcDbLine
 10
50.613923
 20
74.839349
 30
0.0
 11
65.328908
 21
74.839349
 31
0.0
  0
ARC
  5
C4
330
36
100
AcDbEntity
  8
0
 62
     3
100
AcDbCircle
 10
-87.723952
 20
77.620108
 30
0.0
 40
6.5
100
AcDbArc
 50
157.070797
 51
180.0
  0
ARC
  5
C5
330
36
100
AcDbEntity
  8
0
 62
     3
100
AcDbCircle
 10
-69.72743100000001
 20
77.620108
 30
0.0
 40
6.5
100
AcDbArc
 50
0.0
 51
22.929203
  0
LINE
  5
C6
330
36
100
AcDbEntity
  8
0
 62
     3
100
AcDbLine
 10
-94.223952
 20
77.620108
 30
0.0
 11
-94.223952
 21
76.78864899999997
 31
0.0
  0
LINE
  5
C7
330
36
100
AcDbEntity
  8
0
 62
     3
100
AcDbLine
 10
-121.918624
 20
9.290748999999999
 30
0.0
 11
-121.918624
 21
27.540749
 31
0.0
  0
LINE
  5
C8
330
36
100
AcDbEntity
  8
0
 62
     3
100
AcDbLine
 10
-121.918624
 20
27.540749
 30
0.0
 11
-106.168624
 21
27.540749
 31
0.0
  0
LINE
  5
C9
330
36
100
AcDbEntity
  8
0
 62
     3
100
AcDbLine
 10
-106.168624
 20
9.290748999999999
 30
0.0
 11
-106.168624
 21
27.540749
 31
0.0
  0
LINE
  5
CA
330
36
100
AcDbEntity
  8
0
 62
     3
100
AcDbLine
 10
-106.168624
 20
9.290748999999999
 30
0.0
 11
-121.918624
 21
9.290748999999999
 31
0.0
  0
LINE
  5
DB
330
36
100
AcDbEntity
  8
0
 62
     3
100
AcDbLine
 10
68.98565671163519
 20
-121.173484
 30
0.0
 11
70.64965671163517
 21
-121.173484
 31
0.0
  0
LINE
  5
DC
330
36
100
AcDbEntity
  8
0
 62
     3
100
AcDbLine
 10
68.98565671163519
 20
-121.173484
 30
0.0
 11
68.98565671163519
 21
-126.037484
 31
0.0
  0
LINE
  5
DD
330
36
100
AcDbEntity
  8
0
 62
     3
100
AcDbLine
 10
62.07365671163517
 20
-117.333484
 30
0.0
 11
66.93765671163517
 21
-117.333484
 31
0.0
  0
LINE
  5
DE
330
36
100
AcDbEntity
  8
0
 62
     3
100
AcDbLine
 10
62.07365671163517
 20
-117.333484
 30
0.0
 11
62.07365671163517
 21
-119.125484
 31
0.0
  0
LINE
  5
DF
330
36
100
AcDbEntity
  8
0
 62
     3
100
AcDbLine
 10
62.07365671163517
 20
-119.125484
 30
0.0
 11
66.93765671163517
 21
-119.125484
 31
0.0
  0
LINE
  5
E0
330
36
100
AcDbEntity
  8
0
 62
     3
100
AcDbLine
 10
66.93765671163517
 20
-117.333484
 30
0.0
 11
66.93765671163517
 21
-119.125484
 31
0.0
  0
LINE
  5
E1
330
36
100
AcDbEntity
  8
0
 62
     3
100
AcDbLine
 10
70.64965671163517
 20
-121.173484
 30
0.0
 11
70.64965671163517
 21
-126.037484
 31
0.0
  0
LINE
  5
E2
330
36
100
AcDbEntity
  8
0
 62
     3
100
AcDbLine
 10
68.98565671163519
 20
-126.037484
 30
0.0
 11
70.64965671163517
 21
-126.037484
 31
0.0
  0
LINE
  5
E3
330
36
100
AcDbEntity
  8
0
 62
     3
100
AcDbLine
 10
65.33765671163516
 20
-126.037484
 30
0.0
 11
65.33765671163516
 21
-130.901484
 31
0.0
  0
LINE
  5
E4
330
36
100
AcDbEntity
  8
0
 62
     3
100
AcDbLine
 10
63.67365671163517
 20
-126.037484
 30
0.0
 11
65.33765671163516
 21
-126.037484
 31
0.0
  0
LINE
  5
E5
330
36
100
AcDbEntity
  8
0
 62
     3
100
AcDbLine
 10
63.67365671163517
 20
-126.037484
 30
0.0
 11
63.67365671163517
 21
-130.901484
 31
0.0
  0
LINE
  5
E6
330
36
100
AcDbEntity
  8
0
 62
     3
100
AcDbLine
 10
60.02565671163518
 20
-121.173484
 30
0.0
 11
60.02565671163518
 21
-126.037484
 31
0.0
  0
LINE
  5
E7
330
36
100
AcDbEntity
  8
0
 62
     3
100
AcDbLine
 10
58.36165671163517
 20
-121.173484
 30
0.0
 11
60.02565671163518
 21
-121.173484
 31
0.0
  0
LINE
  5
E8
330
36
100
AcDbEntity
  8
0
 62
     3
100
AcDbLine
 10
58.36165671163517
 20
-126.037484
 30
0.0
 11
60.02565671163518
 21
-126.037484
 31
0.0
  0
LINE
  5
E9
330
36
100
AcDbEntity
  8
0
 62
     3
100
AcDbLine
 10
58.36165671163517
 20
-121.173484
 30
0.0
 11
58.36165671163517
 21
-126.037484
 31
0.0
  0
LINE
  5
EA
330
36
100
AcDbEntity
  8
0
 62
     3
100
AcDbLine
 10
63.73765671163515
 20
-130.901484
 30
0.0
 11
65.33765671163516
 21
-130.901484
 31
0.0
  0
LINE
  5
11F
330
36
100
AcDbEntity
  8
0
 62
     3
100
AcDbLine
 10
29.722585
 20
74.839349
 30
0.0
 11
29.722585
 21
33.398827
 31
0.0
  0
LINE
  5
120
330
36
100
AcDbEntity
  8
0
 62
     3
100
AcDbLine
 10
29.722585
 20
33.398827
 30
0.0
 11
36.828908
 21
-5.260651
 31
0.0
  0
LINE
  5
121
330
36
100
AcDbEntity
  8
0
 62
     3
100
AcDbLine
 10
141.328908
 20
74.839349
 30
0.0
 11
29.722585
 21
74.839349
 31
0.0
  0
LINE
  5
122
330
36
100
AcDbEntity
  8
0
 62
     3
100
AcDbLine
 10
67.718792
 20
94.02091699999999
 30
0.0
 11
114.939025
 21
94.02091699999999
 31
0.0
  0
ARC
  5
123
330
36
100
AcDbEntity
  8
0
 62
     3
100
AcDbCircle
 10
114.939025
 20
84.02091699999997
 30
0.0
 40
10.0
100
AcDbArc
 50
47.052068
 51
90.0
  0
ARC
  5
124
330
36
100
AcDbEntity
  8
0
 62
     3
100
AcDbCircle
 10
67.718792
 20
84.02091699999997
 30
0.0
 40
10.0
100
AcDbArc
 50
90.0
 51
132.947932
  0
LINE
  5
125
330
36
100
AcDbEntity
  8
0
 62
     3
100
AcDbLine
 10
-89.17123000000001
 20
90.882847
 30
0.0
 11
-93.71036700000001
 21
80.15246500000001
 31
0.0
  0
LINE
  5
126
330
36
100
AcDbEntity
  8
0
 62
     3
100
AcDbLine
 10
-68.280153
 20
90.882847
 30
0.0
 11
-63.741016
 21
80.15246500000001
 31
0.0
  0
LINE
  5
127
330
36
100
AcDbEntity
  8
0
 62
     3
100
AcDbLine
 10
121.75236
 20
91.340649
 30
0.0
 11
132.040776
 21
74.839349
 31
0.0
  0
LINE
  5
128
330
36
100
AcDbEntity
  8
0
 62
     3
100
AcDbLine
 10
60.90545699999999
 20
91.340649
 30
0.0
 11
50.193566
 21
74.839349
 31
0.0
  0
LINE
  5
129
330
36
100
AcDbEntity
  8
0
 62
     3
100
AcDbLine
 10
71.691384
 20
88.12160400000001
 30
0.0
 11
111.754256
 21
88.12160400000001
 31
0.0
  0
LINE
  5
12A
330
36
100
AcDbEntity
  8
0
 62
     3
100
AcDbLine
 10
117.529107
 20
83.74982299999997
 30
0.0
 11
120.041414
 21
74.839349
 31
0.0
  0
LINE
  5
12B
330
36
100
AcDbEntity
  8
0
 62
     3
100
AcDbLine
 10
65.99858799999998
 20
84.01688100000001
 30
0.0
 11
62.94315400000001
 21
74.839349
 31
0.0
  0
ARC
  5
12C
330
36
100
AcDbEntity
  8
0
 62
     3
100
AcDbCircle
 10
111.754256
 20
82.121604
 30
0.0
 40
6.0
100
AcDbArc
 50
15.745789
 51
90.0
  0
ARC
  5
12D
330
36
100
AcDbEntity
  8
0
 62
     3
100
AcDbCircle
 10
71.691384
 20
82.121604
 30
0.0
 40
6.0
100
AcDbArc
 50
90.0
 51
161.586087
  0
TEXT
  5
12E
330
36
100
AcDbEntity
  8
0
 62
     3
100
AcDbText
 10
177.372519
 20
-134.350242
 30
0.0
 40
3.2
  1
2005.12.28
  7
高3.2
100
AcDbText
  0
CIRCLE
  5
12F
330
36
100
AcDbEntity
  8
0
 62
     3
100
AcDbCircle
 10
-112.533282
 20
58.12495999999999
 30
0.0
 40
4.156935999999999
  0
LINE
  5
130
330
36
100
AcDbEntity
  8
0
 62
     3
100
AcDbLine
 10
-21.721192
 20
67.28864899999999
 30
0.0
 11
-21.721192
 21
-5.260651
 31
0.0
  0
LINE
  5
131
330
36
100
AcDbEntity
  8
0
 62
     3
100
AcDbLine
 10
-132.221192
 20
67.28864899999999
 30
0.0
 11
-132.221192
 21
-5.260651
 31
0.0
  0
LINE
  5
132
330
36
100
AcDbEntity
  8
0
 62
     3
100
AcDbLine
 10
-21.721192
 20
-5.260651
 30
0.0
 11
-132.221192
 21
-5.260651
 31
0.0
  0
LINE
  5
133
330
36
100
AcDbEntity
  8
0
 62
     3
100
AcDbLine
 10
-29.163336
 20
-12.327433
 30
0.0
 11
-28.081258
 21
-5.188062999999996
 31
0.0
  0
LINE
  5
134
330
36
100
AcDbEntity
  8
0
 62
     3
100
AcDbLine
 10
-39.779047
 20
-12.327433
 30
0.0
 11
-40.861125
 21
-5.188062999999996
 31
0.0
  0
LINE
  5
135
330
36
100
AcDbEntity
  8
0
 62
     3
100
AcDbLine
 10
-114.163336
 20
-12.327433
 30
0.0
 11
-113.081258
 21
-5.188062999999996
 31
0.0
  0
LINE
  5
136
330
36
100
AcDbEntity
  8
0
 62
     3
100
AcDbLine
 10
-124.779047
 20
-12.327433
 30
0.0
 11
-125.861125
 21
-5.188062999999996
 31
0.0
  0
TEXT
  5
137
330
36
100
AcDbEntity
  8
0
 62
     3
100
AcDbText
 10
-123.982532
 20
37.129172
 30
0.0
 40
10.24
  1
万能
 41
0.833333
100
AcDbText
  0
TEXT
  5
138
330
36
100
AcDbEntity
  8
0
 62
     3
100
AcDbText
 10
-101.780319
 20
37.398187
 30
0.0
 40
6.4
  1
トランサー
 41
0.833333
100
AcDbText
  0
TEXT
  5
139
330
36
100
AcDbEntity
  8
0
 62
     3
100
AcDbText
 10
-54.60568543664113
 20
39.12404976272865
 30
0.0
 40
3.2
  1
リングトランス
 41
0.6
  7
高3.2
100
AcDbText
  0
LINE
  5
13C
330
36
100
AcDbEntity
  8
0
 62
     3
100
AcDbLine
 10
-72.88508799999998
 20
93.93488000000001
 30
0.0
 11
-84.566295
 21
93.93488000000001
 31
0.0
  0
ARC
  5
13D
330
36
100
AcDbEntity
  8
0
 62
     3
100
AcDbCircle
 10
-84.566295
 20
88.93488000000003
 30
0.0
 40
5.0
100
AcDbArc
 50
90.0
 51
157.070797
  0
ARC
  5
13E
330
36
100
AcDbEntity
  8
0
 62
     3
100
AcDbCircle
 10
-72.88508799999998
 20
88.93488000000003
 30
0.0
 40
5.0
100
AcDbArc
 50
22.929203
 51
90.0
  0
CIRCLE
  5
145
330
36
100
AcDbEntity
  8
0
 62
     7
100
AcDbCircle
 10
-57.73014
 20
97.30028500000001
 30
0.0
 40
5.0
  0
TEXT
  5
146
330
36
100
AcDbEntity
  8
0
 62
     4
100
AcDbText
 10
-59.08856172244487
 20
94.51400608496587
 30
0.0
 40
6.299999999999998
  1
1
  7
高6.3
100
AcDbText
  0
TEXT
  5
147
330
36
100
AcDbEntity
  8
0
 62
     3
100
AcDbText
 10
118.360763
 20
-127.569293
 30
0.0
 40
3.2
  1
別　掲
 41
0.833333
100
AcDbText
  0
TEXT
  5
148
330
36
100
AcDbEntity
  8
0
 62
     3
100
AcDbText
 10
62.21578971163518
 20
-58.694891
 30
0.0
 40
3.2
  1
単相100V
  7
高3.2
100
AcDbText
  0
TEXT
  5
149
330
36
100
AcDbEntity
  8
0
 62
     3
100
AcDbText
 10
60.19244371163518
 20
-106.18608
 30
0.0
 40
3.2
  1
単相200V
  7
高3.2
100
AcDbText
  0
CIRCLE
  5
150
330
36
100
AcDbEntity
  8
0
 62
     7
100
AcDbCircle
 10
-152.011132
 20
62.240842
 30
0.0
 40
5.0
  0
TEXT
  5
151
330
36
100
AcDbEntity
  8
0
 62
     4
100
AcDbText
 10
-154.1453079510171
 20
59.18258521610805
 30
0.0
 40
6.299999999999998
  1
4
  7
高6.3
100
AcDbText
  0
CIRCLE
  5
158
330
36
100
AcDbEntity
  8
0
 62
     7
100
AcDbCircle
 10
-152.145699
 20
0.272679
 30
0.0
 40
5.0
  0
TEXT
  5
159
330
36
100
AcDbEntity
  8
0
 62
     4
100
AcDbText
 10
-154.2798749510171
 20
-2.785577783891931
 30
0.0
 40
6.299999999999998
  1
5
  7
高6.3
100
AcDbText
  0
CIRCLE
  5
160
330
36
100
AcDbEntity
  8
0
 62
     7
100
AcDbCircle
 10
-152.011132
 20
47.760807
 30
0.0
 40
5.0
  0
TEXT
  5
161
330
36
100
AcDbEntity
  8
0
 62
     4
100
AcDbText
 10
-154.1453079510171
 20
44.70255021610806
 30
0.0
 40
6.299999999999998
  1
6
  7
高6.3
100
AcDbText
  0
CIRCLE
  5
168
330
36
100
AcDbEntity
  8
0
 62
     7
100
AcDbCircle
 10
-2.220848
 20
97.399268
 30
0.0
 40
5.0
  0
TEXT
  5
169
330
36
100
AcDbEntity
  8
0
 62
     4
100
AcDbText
 10
-4.355023951017141
 20
94.34101121610806
 30
0.0
 40
6.299999999999998
  1
8
  7
高6.3
100
AcDbText
  0
CIRCLE
  5
178
330
36
100
AcDbEntity
  8
0
 62
     7
100
AcDbCircle
 10
-41.097733
 20
98.06640899999999
 30
0.0
 40
5.0
  0
TEXT
  5
179
330
36
100
AcDbEntity
  8
0
 62
     4
100
AcDbText
 10
-43.82507832028387
 20
95.75737475536516
 30
0.0
 40
4.5
  1
10
  7
高4.5
100
AcDbText
  0
CIRCLE
  5
180
330
36
100
AcDbEntity
  8
0
 62
     7
100
AcDbCircle
 10
-152.011132
 20
78.44915300000002
 30
0.0
 40
5.0
  0
TEXT
  5
181
330
36
100
AcDbEntity
  8
0
 62
     4
100
AcDbText
 10
-154.1453079510171
 20
75.39089621610806
 30
0.0
 40
6.299999999999998
  1
9
  7
高6.3
100
AcDbText
  0
CIRCLE
  5
188
330
36
100
AcDbEntity
  8
0
 62
     7
100
AcDbCircle
 10
-152.145699
 20
28.652125
 30
0.0
 40
5.0
  0
TEXT
  5
189
330
36
100
AcDbEntity
  8
0
 62
     4
100
AcDbText
 10
-154.6356542992223
 20
26.38338733445596
 30
0.0
 40
4.5
  1
11
  7
高4.5
100
AcDbText
  0
LINE
  5
18A
330
36
100
AcDbEntity
  8
0
 62
     3
100
AcDbLine
 10
189.7962359818393
 20
-39.254271
 30
0.0
 11
189.7962359818393
 21
-76.11827099999998
 31
0.0
  0
LINE
  5
18B
330
36
100
AcDbEntity
  8
0
 62
     3
100
AcDbLine
 10
117.0578381298509
 20
-39.254271
 30
0.0
 11
117.0578381298509
 21
-76.11827099999998
 31
0.0
  0
LINE
  5
18C
330
36
100
AcDbEntity
  8
0
 62
     7
100
AcDbLine
 10
136.2007201919338
 20
-39.254271
 30
0.0
 11
136.2007201919338
 21
-76.11827099999998
 31
0.0
  0
TEXT
  5
18D
330
36
100
AcDbEntity
  8
0
 62
     7
100
AcDbText
 10
-117.156704
 20
63.039458
 30
0.0
 40
3.2
  1
電　源
 41
0.833333
100
AcDbText
  0
TEXT
  5
18E
330
36
100
AcDbEntity
  8
0
 62
     7
100
AcDbText
 10
-118.337129
 20
5.467570999999997
 30
0.0
 40
3.2
  1
OFF
100
AcDbText
  0
TEXT
  5
18F
330
36
100
AcDbEntity
  8
0
 62
     7
100
AcDbText
 10
-119.202681
 20
28.214265
 30
0.0
 40
3.2
  1
O N
 41
1.25
100
AcDbText
  0
LINE
  5
190
330
36
100
AcDbEntity
  8
0
 62
     3
100
AcDbLine
 10
144.002744
 20
58.650365
 30
0.0
 11
144.002744
 21
52.26454
 31
0.0
  0
LINE
  5
191
330
36
100
AcDbEntity
  8
0
 62
     3
100
AcDbLine
 10
144.002744
 20
58.650365
 30
0.0
 11
141.328908
 21
58.650365
 31
0.0
  0
LINE
  5
192
330
36
100
AcDbEntity
  8
0
 62
     3
100
AcDbLine
 10
144.002744
 20
52.26454
 30
0.0
 11
141.328908
 21
52.26454
 31
0.0
  0
CIRCLE
  5
199
330
36
100
AcDbEntity
  8
0
 62
     7
100
AcDbCircle
 10
157.942596
 20
92.857836
 30
0.0
 40
5.0
  0
TEXT
  5
19A
330
36
100
AcDbEntity
  8
0
 62
     4
100
AcDbText
 10
155.8084200489829
 20
89.79957821610808
 30
0.0
 40
6.299999999999998
  1
2
  7
高6.3
100
AcDbText
  0
CIRCLE
  5
1A1
330
36
100
AcDbEntity
  8
0
 62
     7
100
AcDbCircle
 10
157.942596
 20
69.16928
 30
0.0
 40
5.0
  0
TEXT
  5
1A2
330
36
100
AcDbEntity
  8
0
 62
     4
100
AcDbText
 10
154.8669741695404
 20
66.95123136107724
 30
0.0
 40
4.5
  1
12
  7
高4.5
100
AcDbText
  0
TEXT
  5
1A3
330
36
100
AcDbEntity
  8
0
 62
     3
100
AcDbText
 10
-176.380717
 20
-94.31443899999999
 30
0.0
 40
3.2
  1
10
 41
0.8
  7
高3.2
100
AcDbText
  0
TEXT
  5
1A4
330
36
100
AcDbEntity
  8
0
 62
     3
100
AcDbText
 10
-176.380717
 20
-89.31443900000003
 30
0.0
 40
3.2
  1
11
 41
0.8
  7
高3.2
100
AcDbText
  0
TEXT
  5
1A5
330
36
100
AcDbEntity
  8
0
 62
     3
100
AcDbText
 10
-176.380717
 20
-84.31443900000003
 30
0.0
 40
3.2
  1
12
 41
0.8
  7
高3.2
100
AcDbText
  0
TEXT
  5
1A6
330
36
100
AcDbEntity
  8
0
 62
     3
100
AcDbText
 10
-168.2431687617929
 20
-114.314439
 30
0.0
 40
3.2
  1
コンセント（白）
 41
0.8
  7
高3.2
100
AcDbText
  0
TEXT
  5
1A7
330
36
100
AcDbEntity
  8
0
 62
     3
100
AcDbText
 10
-131.3176437063614
 20
-104.314439
 30
0.0
 40
3.2
  1
1
 41
0.8
  7
高3.2
100
AcDbText
  0
TEXT
  5
1A8
330
36
100
AcDbEntity
  8
0
 62
     3
100
AcDbText
 10
-122.6907720111478
 20
-114.314439
 30
0.0
 40
3.2
  1
PF樹脂
 41
0.8
  7
高3.2
100
AcDbText
  0
TEXT
  5
1A9
330
36
100
AcDbEntity
  8
0
 62
     3
100
AcDbText
 10
-105.6459614146675
 20
-114.314439
 30
0.0
 40
3.2
  1
2PE 15A 250V
 41
0.8
  7
高3.2
100
AcDbText
  0
TEXT
  5
1AB
330
36
100
AcDbEntity
  8
0
 62
     3
100
AcDbText
 10
-131.3176437063614
 20
-99.31443899999997
 30
0.0
 40
3.2
  1
1
 41
0.8
  7
高3.2
100
AcDbText
  0
TEXT
  5
1AC
330
36
100
AcDbEntity
  8
0
 62
     3
100
AcDbText
 10
-131.3176437063614
 20
-94.31443899999999
 30
0.0
 40
3.2
  1
1
 41
0.8
  7
高3.2
100
AcDbText
  0
TEXT
  5
1AD
330
36
100
AcDbEntity
  8
0
 62
     3
100
AcDbText
 10
-131.3176437063614
 20
-89.31443900000003
 30
0.0
 40
3.2
  1
1
 41
0.8
  7
高3.2
100
AcDbText
  0
TEXT
  5
1AE
330
36
100
AcDbEntity
  8
0
 62
     3
100
AcDbText
 10
-131.3176437063614
 20
-84.31443900000003
 30
0.0
 40
3.2
  1
1
 41
0.8
  7
高3.2
100
AcDbText
  0
TEXT
  5
1AF
330
36
100
AcDbEntity
  8
0
 62
     3
100
AcDbText
 10
-131.3176437063614
 20
-114.314439
 30
0.0
 40
3.2
  1
1
 41
0.8
  7
高3.2
100
AcDbText
  0
ARC
  5
1B0
330
36
100
AcDbEntity
  8
0
 62
     7
100
AcDbCircle
 10
-31.221192
 20
67.28864899999999
 30
0.0
 40
8.5
100
AcDbArc
 50
0.0
 51
90.0
  0
LINE
  5
1B1
330
36
100
AcDbEntity
  8
0
 62
     7
100
AcDbLine
 10
-122.721192
 20
75.78864899999998
 30
0.0
 11
-31.221192
 21
75.78864899999998
 31
0.0
  0
LINE
  5
1B2
330
36
100
AcDbEntity
  8
0
 62
     7
100
AcDbLine
 10
-22.721192
 20
67.28864899999999
 30
0.0
 11
-22.721192
 21
-5.260651
 31
0.0
  0
ARC
  5
1B3
330
36
100
AcDbEntity
  8
0
 62
     7
100
AcDbCircle
 10
-122.721192
 20
67.28864899999999
 30
0.0
 40
8.5
100
AcDbArc
 50
90.0
 51
180.0
  0
LINE
  5
1B4
330
36
100
AcDbEntity
  8
0
 62
     7
100
AcDbLine
 10
-131.221192
 20
67.28864899999999
 30
0.0
 11
-131.221192
 21
-5.260651
 31
0.0
  0
LINE
  5
1B7
330
36
100
AcDbEntity
  8
0
 62
     3
100
AcDbLine
 10
186.41992
 20
-128.148717
 30
0.0
 11
186.41992
 21
-105.148717
 31
0.0
  0
LINE
  5
1B9
330
36
100
AcDbEntity
  8
0
 62
     3
100
AcDbLine
 10
133.36631
 20
-135.148717
 30
0.0
 11
133.36631
 21
-121.148717
 31
0.0
  0
TEXT
  5
1BB
330
36
100
AcDbEntity
  8
0
 62
     3
100
AcDbText
 10
162.430238
 20
-108.943601
 30
0.0
 40
2.0
  1
A
 41
0.7
100
AcDbText
  0
TEXT
  5
1BC
330
36
100
AcDbEntity
  8
0
 62
     3
100
AcDbText
 10
164.965524
 20
-108.943601
 30
0.0
 40
2.0
  1
P
 41
0.7
100
AcDbText
  0
TEXT
  5
1BD
330
36
100
AcDbEntity
  8
0
 62
     3
100
AcDbText
 10
167.50081
 20
-108.943601
 30
0.0
 40
2.0
  1
P
 41
0.7
100
AcDbText
  0
TEXT
  5
1BE
330
36
100
AcDbEntity
  8
0
 62
     3
100
AcDbText
 10
170.036096
 20
-108.943601
 30
0.0
 40
2.0
  1
D
 41
0.7
100
AcDbText
  0
TEXT
  5
1BF
330
36
100
AcDbEntity
  8
0
 62
     3
100
AcDbText
 10
175.404779
 20
-108.943601
 30
0.0
 40
2.0
  1
C
 41
0.7
100
AcDbText
  0
TEXT
  5
1C0
330
36
100
AcDbEntity
  8
0
 62
     3
100
AcDbText
 10
177.940066
 20
-108.943601
 30
0.0
 40
2.0
  1
H
 41
0.7
100
AcDbText
  0
TEXT
  5
1C1
330
36
100
AcDbEntity
  8
0
 62
     3
100
AcDbText
 10
180.475352
 20
-108.943601
 30
0.0
 40
2.0
  1
C
 41
0.7
100
AcDbText
  0
TEXT
  5
1C2
330
36
100
AcDbEntity
  8
0
 62
     3
100
AcDbText
 10
183.010638
 20
-108.943601
 30
0.0
 40
2.0
  1
K
 41
0.7
100
AcDbText
  0
TEXT
  5
1C3
330
36
100
AcDbEntity
  8
0
 62
     3
100
AcDbText
 10
188.684605
 20
-108.943601
 30
0.0
 40
2.0
  1
DESN
 41
1.216762999999998
100
AcDbText
  0
TEXT
  5
1C4
330
36
100
AcDbEntity
  8
0
 62
     3
100
AcDbText
 10
103.678246
 20
-138.290098
 30
0.0
 40
2.0
  1
NICHIDO IND.CO.LTD
 41
1.274876
100
AcDbText
  0
LINE
  5
1C5
330
36
100
AcDbEntity
  8
0
 62
     3
100
AcDbLine
 10
114.061275
 20
-105.148717
 30
0.0
 11
114.061275
 21
-128.148717
 31
0.0
  0
LINE
  5
1C6
330
36
100
AcDbEntity
  8
0
 62
     3
100
AcDbLine
 10
160.41992
 20
-105.148717
 30
0.0
 11
160.41992
 21
-144.814439
 31
0.0
  0
LINE
  5
1CB
330
36
100
AcDbEntity
  8
0
 62
     3
100
AcDbLine
 10
173.41992
 20
-105.148717
 30
0.0
 11
173.41992
 21
-135.148717
 31
0.0
  0
TEXT
  5
1CC
330
36
100
AcDbEntity
  8
0
 62
     3
100
AcDbText
 10
161.532364
 20
-134.28403
 30
0.0
 40
3.2
  1
作成日
 41
1.017225999999997
100
AcDbText
  0
LINE
  5
1CD
330
36
100
AcDbEntity
  8
0
 62
     3
100
AcDbLine
 10
212.119283
 20
-105.148717
 30
0.0
 11
100.815841
 21
-105.148717
 31
0.0
  0
LINE
  5
1CE
330
36
100
AcDbEntity
  8
0
 62
     3
100
AcDbLine
 10
199.41992
 20
-128.148717
 30
0.0
 11
199.41992
 21
-105.148717
 31
0.0
  0
TEXT
  5
1CF
330
36
100
AcDbEntity
  8
0
 62
     3
100
AcDbText
 10
202.743723
 20
-108.857782
 30
0.0
 40
1.8
  1
D
 41
0.666667
100
AcDbText
  0
TEXT
  5
1D0
330
36
100
AcDbEntity
  8
0
 62
     3
100
AcDbText
 10
205.560351
 20
-108.857782
 30
0.0
 40
1.8
  1
E
 41
0.666667
100
AcDbText
  0
TEXT
  5
1D1
330
36
100
AcDbEntity
  8
0
 62
     3
100
AcDbText
 10
208.376979
 20
-108.857782
 30
0.0
 40
1.8
  1
F
 41
0.666667
100
AcDbText
  0
TEXT
  5
1D2
330
36
100
AcDbEntity
  8
0
 62
     3
100
AcDbText
 10
202.743723
 20
-112.850335
 30
0.0
 40
3.2
  1
製図
 41
1.076369
100
AcDbText
  0
LINE
  5
1D3
330
36
100
AcDbEntity
  8
0
 62
     3
100
AcDbLine
 10
100.815841
 20
-105.148717
 30
0.0
 11
100.815841
 21
-144.814439
 31
0.0
  0
TEXT
  5
1D4
330
36
100
AcDbEntity
  8
0
 62
     3
100
AcDbText
 10
102.192493
 20
-144.481974
 30
0.0
 40
5.0
  1
日動工業株式会社
 41
0.833333
100
AcDbText
  0
LINE
  5
1D5
330
36
100
AcDbEntity
  8
0
 62
     3
100
AcDbLine
 10
143.698244
 20
-121.148717
 30
0.0
 11
143.698244
 21
-144.814439
 31
0.0
  0
LINE
  5
1D6
330
36
100
AcDbEntity
  8
0
 62
     3
100
AcDbLine
 10
143.698244
 20
-139.981578
 30
0.0
 11
160.41992
 21
-139.981578
 31
0.0
  0
TEXT
  5
1D7
330
36
100
AcDbEntity
  8
0
 62
     3
100
AcDbText
 10
144.284846
 20
-139.165147
 30
0.0
 40
3.2
  1
出図コード
 41
0.8356860000000001
100
AcDbText
  0
LINE
  5
1E9
330
36
100
AcDbEntity
  8
0
 62
     3
100
AcDbLine
 10
100.815841
 20
-135.148717
 30
0.0
 11
212.119283
 21
-135.148717
 31
0.0
  0
LINE
  5
1EB
330
36
100
AcDbEntity
  8
0
 62
     3
100
AcDbLine
 10
100.815841
 20
-114.148717
 30
0.0
 11
212.119283
 21
-114.148717
 31
0.0
  0
LINE
  5
1F1
330
36
100
AcDbEntity
  8
0
 62
     3
100
AcDbLine
 10
100.815841
 20
-121.148717
 30
0.0
 11
160.41992
 21
-121.148717
 31
0.0
  0
LINE
  5
1F7
330
36
100
AcDbEntity
  8
0
 62
     3
100
AcDbLine
 10
100.815841
 20
-128.148717
 30
0.0
 11
212.119283
 21
-128.148717
 31
0.0
  0
LINE
  5
1FB
330
36
100
AcDbEntity
  8
0
 62
     3
100
AcDbLine
 10
212.119283
 20
129.240922
 30
0.0
 11
212.119283
 21
-144.8144389999999
 31
0.0
  0
LINE
  5
1FC
330
36
100
AcDbEntity
  8
0
 62
     3
100
AcDbLine
 10
-177.880717
 20
129.240922
 30
0.0
 11
-177.880717
 21
-144.814439
 31
0.0
  0
LINE
  5
1FD
330
36
100
AcDbEntity
  8
0
 62
     3
100
AcDbLine
 10
212.119283
 20
-144.814439
 30
0.0
 11
-177.880717
 21
-144.814439
 31
0.0
  0
TEXT
  5
200
330
36
100
AcDbEntity
  8
0
 62
     3
100
AcDbText
 10
144.152298
 20
-144.285450879627
 30
0.0
 40
3.2
  1
ZK-A3X
 41
0.8112849999999999
100
AcDbText
  0
TEXT
  5
201
330
36
100
AcDbEntity
  8
0
 62
     3
100
AcDbText
 10
102.633238
 20
-108.979191
 30
0.0
 40
2.0
  1
CONPONENTS
 41
0.5331600000000001
100
AcDbText
  0
TEXT
  5
202
330
36
100
AcDbEntity
  8
0
 62
     3
100
AcDbText
 10
102.283511
 20
-127.911368
 30
0.0
 40
3.0
  1
材
 41
0.833333
100
AcDbText
  0
TEXT
  5
203
330
36
100
AcDbEntity
  8
0
 62
     3
100
AcDbText
 10
109.819154
 20
-127.911368
 30
0.0
 40
3.0
  1
質
 41
0.833333
100
AcDbText
  0
TEXT
  5
204
330
36
100
AcDbEntity
  8
0
 62
     3
100
AcDbText
 10
102.371582
 20
-117.286843
 30
0.0
 40
2.0
  1
MODEL
 41
1.031072999999999
100
AcDbText
  0
TEXT
  5
205
330
36
100
AcDbEntity
  8
0
 62
     3
100
AcDbText
 10
102.283511
 20
-124.229059
 30
0.0
 40
2.0
  1
MATERIAL
 41
0.659278
100
AcDbText
  0
TEXT
  5
206
330
36
100
AcDbEntity
  8
0
 62
     3
100
AcDbText
 10
133.590791
 20
-127.911368
 30
0.0
 40
3.0
  1
備
 41
0.833333
100
AcDbText
  0
TEXT
  5
207
330
36
100
AcDbEntity
  8
0
 62
     3
100
AcDbText
 10
140.323793
 20
-127.911368
 30
0.0
 40
3.0
  1
考
 41
0.833333
100
AcDbText
  0
TEXT
  5
208
330
36
100
AcDbEntity
  8
0
 62
     3
100
AcDbText
 10
133.9659757842548
 20
-124.229059
 30
0.0
 40
2.0
  1
REMARKS
 41
0.675794
100
AcDbText
  0
TEXT
  5
209
330
36
100
AcDbEntity
  8
0
 62
     3
100
AcDbText
 10
103.87324
 20
-131.14918
 30
0.0
 40
2.0
  1
3AD
 41
1.42614
100
AcDbText
  0
TEXT
  5
20A
330
36
100
AcDbEntity
  8
0
 62
     3
100
AcDbText
 10
113.18422
 20
-130.983446
 30
0.0
 40
2.0
  1
ANGLE
 41
1.669883999999995
100
AcDbText
  0
TEXT
  5
20B
330
36
100
AcDbEntity
  8
0
 62
     3
100
AcDbText
 10
134.118107
 20
-131.360287
 30
0.0
 40
2.0
  1
SCALE
 41
0.7719630000000001
100
AcDbText
  0
TEXT
  5
20C
330
36
100
AcDbEntity
  8
0
 62
     3
100
AcDbText
 10
103.55937
 20
-135.148717
 30
0.0
 40
3.0
  1
第
 41
0.833333
100
AcDbText
  0
TEXT
  5
20D
330
36
100
AcDbEntity
  8
0
 62
     3
100
AcDbText
 10
111.34622
 20
-135.148717
 30
0.0
 40
3.0
  1
三
 41
0.833333
100
AcDbText
  0
TEXT
  5
20E
330
36
100
AcDbEntity
  8
0
 62
     3
100
AcDbText
 10
119.13307
 20
-135.148717
 30
0.0
 40
3.0
  1
角
 41
0.833333
100
AcDbText
  0
TEXT
  5
20F
330
36
100
AcDbEntity
  8
0
 62
     3
100
AcDbText
 10
126.91992
 20
-135.148717
 30
0.0
 40
3.0
  1
法
 41
0.833333
100
AcDbText
  0
TEXT
  5
210
330
36
100
AcDbEntity
  8
0
 62
     3
100
AcDbText
 10
133.981312
 20
-134.860287
 30
0.0
 40
3.0
  1
尺
 41
0.833333
100
AcDbText
  0
TEXT
  5
211
330
36
100
AcDbEntity
  8
0
 62
     3
100
AcDbText
 10
140.7143129999999
 20
-134.860287
 30
0.0
 40
3.0
  1
度
 41
0.833333
100
AcDbText
  0
TEXT
  5
212
330
36
100
AcDbEntity
  8
0
 62
     3
100
AcDbText
 10
163.297584
 20
-112.690988
 30
0.0
 40
3.0
  1
承認
 41
1.089472999999999
100
AcDbText
  0
TEXT
  5
213
330
36
100
AcDbEntity
  8
0
 62
     3
100
AcDbText
 10
176.540464
 20
-112.748717
 30
0.0
 40
3.0
  1
検図
 41
0.931761
100
AcDbText
  0
TEXT
  5
214
330
36
100
AcDbEntity
  8
0
 62
     3
100
AcDbText
 10
189.540861
 20
-112.748717
 30
0.0
 40
3.0
  1
設
 41
0.833333
100
AcDbText
  0
TEXT
  5
215
330
36
100
AcDbEntity
  8
0
 62
     3
100
AcDbText
 10
194.030729
 20
-112.748717
 30
0.0
 40
3.0
  1
計
 41
0.833333
100
AcDbText
  0
TEXT
  5
216
330
36
100
AcDbEntity
  8
0
 62
     3
100
AcDbText
 10
102.703344
 20
-112.576164
 30
0.0
 40
3.0
  1
品
 41
0.833333
100
AcDbText
  0
TEXT
  5
217
330
36
100
AcDbEntity
  8
0
 62
     3
100
AcDbText
 10
110.238986
 20
-112.576164
 30
0.0
 40
3.0
  1
名
 41
0.833333
100
AcDbText
  0
TEXT
  5
218
330
36
100
AcDbEntity
  8
0
 62
     3
100
AcDbText
 10
102.371582
 20
-120.6537434983726
 30
0.0
 40
3.0
  1
型
 41
0.833333
100
AcDbText
  0
TEXT
  5
219
330
36
100
AcDbEntity
  8
0
 62
     3
100
AcDbText
 10
109.919672
 20
-120.6537434983726
 30
0.0
 40
3.0
  1
式
 41
0.833333
100
AcDbText
  0
LINE
  5
227
330
36
100
AcDbEntity
  8
0
 62
     3
100
AcDbLine
 10
-190.282641
 20
-4.314439
 30
0.0
 11
-192.880717
 21
-5.814439
 31
0.0
  0
LINE
  5
228
330
36
100
AcDbEntity
  8
0
 62
     3
100
AcDbLine
 10
-190.282641
 20
-4.314439
 30
0.0
 11
-192.880717
 21
-2.814439
 31
0.0
  0
LINE
  5
229
330
36
100
AcDbEntity
  8
0
 62
     3
100
AcDbLine
 10
-192.880717
 20
-5.814439
 30
0.0
 11
-192.880717
 21
-2.814439
 31
0.0
  0
LINE
  5
22A
330
36
100
AcDbEntity
  8
0
 62
     3
100
AcDbLine
 10
212.119283
 20
129.240922
 30
0.0
 11
-177.880717
 21
129.240922
 31
0.0
  0
TEXT
  5
22B
330
36
100
AcDbEntity
  8
0
 62
     3
100
AcDbText
 10
162.459906
 20
-144.066691
 30
0.0
 40
6.299999999999998
  1
FTBO-300
  7
高6.3
100
AcDbText
  0
TEXT
  5
22C
330
36
100
AcDbEntity
  8
0
 62
     3
100
AcDbText
 10
-176.380717
 20
-79.31443899999994
 30
0.0
 40
3.2
  1
付属
 41
0.8
  7
高3.2
100
AcDbText
  0
LINE
  5
230
330
36
100
AcDbEntity
  8
0
 62
     7
100
AcDbLine
 10
133.3379384444365
 20
-37.97498206191071
 30
0.0
 11
173.6855424444365
 21
-37.97498206191071
 31
0.0
  0
LINE
  5
231
330
36
100
AcDbEntity
  8
0
 62
     7
100
AcDbLine
 10
60.19244371163518
 20
-106.5485045995174
 30
0.0
 11
78.47358022977073
 21
-106.5485045995174
 31
0.0
  0
LINE
  5
232
330
36
100
AcDbEntity
  8
0
 62
     7
100
AcDbLine
 10
62.21578971163518
 20
-59.19866648619325
 30
0.0
 11
79.31638295597419
 21
-59.19866648619325
 31
0.0
  0
LINE
  5
233
330
36
100
AcDbEntity
  8
0
 62
     7
100
AcDbLine
 10
94.6280627116352
 20
-61.997864
 30
0.0
 11
78.17997171163518
 21
-61.997864
 31
0.0
  0
LINE
  5
234
330
36
100
AcDbEntity
  8
0
 62
     7
100
AcDbLine
 10
78.17997171163518
 20
-61.997864
 30
0.0
 11
65.04197671163518
 21
-61.997864
 31
0.0
  0
LINE
  5
235
330
36
100
AcDbEntity
  8
0
 62
     7
100
AcDbLine
 10
65.04197671163518
 20
-61.997864
 30
0.0
 11
55.38373471163517
 21
-61.997864
 31
0.0
  0
LINE
  5
236
330
36
100
AcDbEntity
  8
0
 62
     7
100
AcDbLine
 10
55.38373471163517
 20
-61.997864
 30
0.0
 11
55.38373471163517
 21
-76.394279
 31
0.0
  0
LINE
  5
237
330
36
100
AcDbEntity
  8
0
 62
     7
100
AcDbLine
 10
71.18597671163517
 20
-76.369381
 30
0.0
 11
68.29431971163517
 21
-76.369381
 31
0.0
  0
LINE
  5
238
330
36
100
AcDbEntity
  8
0
 62
     7
100
AcDbLine
 10
94.6280627116352
 20
-76.369381
 30
0.0
 11
71.18597671163517
 21
-76.369381
 31
0.0
  0
LINE
  5
239
330
36
100
AcDbEntity
  8
0
 62
     7
100
AcDbLine
 10
65.04197671163518
 20
-89.16938100000001
 30
0.0
 11
65.04197671163518
 21
-82.40867900000003
 31
0.0
  0
LINE
  5
23A
330
36
100
AcDbEntity
  8
0
 62
     7
100
AcDbLine
 10
94.09174271163513
 20
-123.605484
 30
0.0
 11
70.64965671163517
 21
-123.605484
 31
0.0
  0
LINE
  5
23B
330
36
100
AcDbEntity
  8
0
 62
     7
100
AcDbLine
 10
94.09174271163513
 20
-109.233967
 30
0.0
 11
77.64365171163518
 21
-109.233967
 31
0.0
  0
LINE
  5
23C
330
36
100
AcDbEntity
  8
0
 62
     7
100
AcDbLine
 10
77.64365171163518
 20
-109.233967
 30
0.0
 11
64.50565671163515
 21
-109.233967
 31
0.0
  0
LINE
  5
23D
330
36
100
AcDbEntity
  8
0
 62
     7
100
AcDbLine
 10
64.50565671163515
 20
-109.233967
 30
0.0
 11
64.50565671163515
 21
-117.333484
 31
0.0
  0
LINE
  5
23E
330
36
100
AcDbEntity
  8
0
 62
     7
100
AcDbLine
 10
53.29405071163518
 20
-43.97737875596681
 30
0.0
 11
79.55164981847156
 21
-43.97737875596681
 31
0.0
  0
LINE
  5
23F
330
36
100
AcDbEntity
  8
0
 62
     7
100
AcDbLine
 10
53.69425171163516
 20
-49.59511946839495
 30
0.0
 11
97.44419058447329
 21
-49.59511946839495
 31
0.0
  0
TEXT
  5
240
330
36
100
AcDbEntity
  8
0
 62
     3
100
AcDbText
 10
-105.6459614146675
 20
-144.314439
 30
0.0
 40
3.2
  1
備　　　考　
 41
0.8
  7
高3.2
100
AcDbText
  0
TEXT
  5
241
330
36
100
AcDbEntity
  8
0
 62
     3
100
AcDbText
 10
-122.6907720111478
 20
-144.314439
 30
0.0
 40
3.2
  1
材　　質
 41
0.8
  7
高3.2
100
AcDbText
  0
TEXT
  5
242
330
36
100
AcDbEntity
  8
0
 62
     3
100
AcDbText
 10
-131.3176437063614
 20
-144.314439
 30
0.0
 40
3.2
  1
個数　
 41
0.8
  7
高3.2
100
AcDbText
  0
TEXT
  5
243
330
36
100
AcDbEntity
  8
0
 62
     3
100
AcDbText
 10
-168.2431687617929
 20
-144.314439
 30
0.0
 40
3.2
  1
部　　品　　名
 41
0.8
  7
高3.2
100
AcDbText
  0
TEXT
  5
244
330
36
100
AcDbEntity
  8
0
 62
     3
100
AcDbText
 10
-176.380717
 20
-144.314439
 30
0.0
 40
3.2
  1
NO
 41
0.8
  7
高3.2
100
AcDbText
  0
LINE
  5
245
330
36
100
AcDbEntity
  8
0
 62
     3
100
AcDbLine
 10
41.39019220203
 20
-144.814439
 30
0.0
 11
41.39019220202999
 21
-69.81443900000001
 31
0.0
  0
LINE
  5
246
330
36
100
AcDbEntity
  8
0
 62
     7
100
AcDbLine
 10
-107.1459614146676
 20
-144.814439
 30
0.0
 11
-107.1459614146676
 21
-69.81443900000001
 31
0.0
  0
LINE
  5
247
330
36
100
AcDbEntity
  8
0
 62
     7
100
AcDbLine
 10
-132.8176437063614
 20
-144.814439
 30
0.0
 11
-132.8176437063614
 21
-69.81443900000001
 31
0.0
  0
LINE
  5
248
330
36
100
AcDbEntity
  8
0
 62
     7
100
AcDbLine
 10
-124.1907720111478
 20
-144.814439
 30
0.0
 11
-124.1907720111478
 21
-69.81443900000001
 31
0.0
  0
LINE
  5
249
330
36
100
AcDbEntity
  8
0
 62
     7
100
AcDbLine
 10
-169.7431687617929
 20
-144.814439
 30
0.0
 11
-169.7431687617929
 21
-69.81443900000001
 31
0.0
  0
LINE
  5
24A
330
36
100
AcDbEntity
  8
0
 62
     3
100
AcDbLine
 10
212.019247
 20
-99.148717
 30
0.0
 11
160.419883
 21
-99.148717
 31
0.0
  0
TEXT
  5
24B
330
36
100
AcDbEntity
  8
0
 62
     3
100
AcDbText
 10
165.7917136578785
 20
-104.592631
 30
0.0
 40
4.5
  1
コード
  7
高4.5
100
AcDbText
  0
LINE
  5
24C
330
36
100
AcDbEntity
  8
0
 62
     3
100
AcDbLine
 10
186.419883
 20
-105.148717
 30
0.0
 11
186.419883
 21
-99.148717
 31
0.0
  0
LINE
  5
24D
330
36
100
AcDbEntity
  8
0
 62
     3
100
AcDbLine
 10
160.419883
 20
-105.148717
 30
0.0
 11
160.419883
 21
-99.148717
 31
0.0
  0
LINE
  5
24E
330
36
100
AcDbEntity
  8
0
 62
     7
100
AcDbLine
 10
41.39019220202998
 20
-84.814439
 30
0.0
 11
-177.880717
 21
-84.814439
 31
0.0
  0
LINE
  5
24F
330
36
100
AcDbEntity
  8
0
 62
     7
100
AcDbLine
 10
41.39019220202998
 20
-89.814439
 30
0.0
 11
-177.880717
 21
-89.814439
 31
0.0
  0
LINE
  5
250
330
36
100
AcDbEntity
  8
0
 62
     7
100
AcDbLine
 10
41.39019220202998
 20
-94.814439
 30
0.0
 11
-177.880717
 21
-94.814439
 31
0.0
  0
LINE
  5
251
330
36
100
AcDbEntity
  8
0
 62
     7
100
AcDbLine
 10
41.39019220202998
 20
-99.81443900000002
 30
0.0
 11
-177.880717
 21
-99.81443900000002
 31
0.0
  0
LINE
  5
252
330
36
100
AcDbEntity
  8
0
 62
     7
100
AcDbLine
 10
41.39019220202998
 20
-104.814439
 30
0.0
 11
-177.880717
 21
-104.814439
 31
0.0
  0
LINE
  5
253
330
36
100
AcDbEntity
  8
0
 62
     7
100
AcDbLine
 10
41.39019220202998
 20
-109.814439
 30
0.0
 11
-177.880717
 21
-109.814439
 31
0.0
  0
LINE
  5
254
330
36
100
AcDbEntity
  8
0
 62
     7
100
AcDbLine
 10
41.39019220202998
 20
-114.814439
 30
0.0
 11
-177.880717
 21
-114.814439
 31
0.0
  0
LINE
  5
255
330
36
100
AcDbEntity
  8
0
 62
     7
100
AcDbLine
 10
41.39019220202998
 20
-119.814439
 30
0.0
 11
-177.880717
 21
-119.814439
 31
0.0
  0
LINE
  5
256
330
36
100
AcDbEntity
  8
0
 62
     7
100
AcDbLine
 10
41.39019220202998
 20
-124.814439
 30
0.0
 11
-177.880717
 21
-124.8144389999999
 31
0.0
  0
LINE
  5
257
330
36
100
AcDbEntity
  8
0
 62
     7
100
AcDbLine
 10
41.39019220202998
 20
-129.814439
 30
0.0
 11
-177.880717
 21
-129.814439
 31
0.0
  0
LINE
  5
258
330
36
100
AcDbEntity
  8
0
 62
     7
100
AcDbLine
 10
41.39019220202998
 20
-134.8144389999999
 30
0.0
 11
-177.880717
 21
-134.814439
 31
0.0
  0
LINE
  5
259
330
36
100
AcDbEntity
  8
0
 62
     7
100
AcDbLine
 10
41.39019220202998
 20
-74.81443900000002
 30
0.0
 11
-177.880717
 21
-74.81443900000002
 31
0.0
  0
LINE
  5
25A
330
36
100
AcDbEntity
  8
0
 62
     7
100
AcDbLine
 10
41.39019220202998
 20
-79.81443899999998
 30
0.0
 11
-177.880717
 21
-79.81443899999998
 31
0.0
  0
LINE
  5
25B
330
36
100
AcDbEntity
  8
0
 62
     3
100
AcDbLine
 10
41.39019220202998
 20
-139.814439
 30
0.0
 11
-177.880717
 21
-139.814439
 31
0.0
  0
TEXT
  5
25C
330
36
100
AcDbEntity
  8
0
 62
     3
100
AcDbText
 10
191.3587622120574
 20
-104.65036
 30
0.0
 40
4.5
  1
5657
  7
高4.5
100
AcDbText
  0
LINE
  5
25D
330
36
100
AcDbEntity
  8
0
 62
     3
100
AcDbLine
 10
-111.043624
 20
10.415749
 30
0.0
 11
-117.043624
 21
10.415749
 31
0.0
  0
ARC
  5
25E
330
36
100
AcDbEntity
  8
0
 62
     3
100
AcDbCircle
 10
-82.65932499999998
 20
54.119257
 30
0.0
 40
2.5
100
AcDbArc
 50
23.576928
 51
156.423072
  0
CIRCLE
  5
25F
330
36
100
AcDbEntity
  8
0
 62
     3
100
AcDbCircle
 10
-82.65932499999998
 20
54.119257
 30
0.0
 40
0.5
  0
LINE
  5
260
330
36
100
AcDbEntity
  8
0
 62
     3
100
AcDbLine
 10
-90.118685
 20
63.008977
 30
0.0
 11
-89.47288
 21
62.23933699999999
 31
0.0
  0
LINE
  5
261
330
36
100
AcDbEntity
  8
0
 62
     3
100
AcDbLine
 10
-74.167393
 20
62.611189
 30
0.0
 11
-75.58971200000001
 21
61.18886999999999
 31
0.0
  0
LINE
  5
262
330
36
100
AcDbEntity
  8
0
 62
     3
100
AcDbLine
 10
-89.366394
 20
63.69794699999999
 30
0.0
 11
-88.790677
 21
62.875738
 31
0.0
  0
LINE
  5
263
330
36
100
AcDbEntity
  8
0
 62
     3
100
AcDbLine
 10
-88.545432
 20
64.31429900000001
 30
0.0
 11
-88.044016
 21
63.445821
 31
0.0
  0
LINE
  5
264
330
36
100
AcDbEntity
  8
0
 62
     3
100
AcDbLine
 10
-87.66325100000001
 20
64.850223
 30
0.0
 11
-87.23977899999999
 21
63.942084
 31
0.0
  0
LINE
  5
265
330
36
100
AcDbEntity
  8
0
 62
     3
100
AcDbLine
 10
-86.899537
 20
65.769164
 30
0.0
 11
-86.385859
 21
64.35784599999999
 31
0.0
  0
LINE
  5
266
330
36
100
AcDbEntity
  8
0
 62
     3
100
AcDbLine
 10
-85.750057
 20
65.654065
 30
0.0
 11
-85.49104300000001
 21
64.687409
 31
0.0
  0
LINE
  5
267
330
36
100
AcDbEntity
  8
0
 62
     3
100
AcDbLine
 10
-84.73857199999997
 20
65.91132900000001
 30
0.0
 11
-84.564865
 21
64.926186
 31
0.0
  0
LINE
  5
268
330
36
100
AcDbEntity
  8
0
 62
     3
100
AcDbLine
 10
-83.70460899999997
 20
66.067098
 30
0.0
 11
-83.61744599999999
 21
65.070818
 31
0.0
  0
LINE
  5
269
330
36
100
AcDbEntity
  8
0
 62
     3
100
AcDbLine
 10
-81.61399899999997
 20
66.06709399999999
 30
0.0
 11
-81.701162
 21
65.070814
 31
0.0
  0
LINE
  5
26A
330
36
100
AcDbEntity
  8
0
 62
     3
100
AcDbLine
 10
-80.58003499999998
 20
65.91131999999999
 30
0.0
 11
-80.753743
 21
64.926177
 31
0.0
  0
LINE
  5
26B
330
36
100
AcDbEntity
  8
0
 62
     3
100
AcDbLine
 10
-79.568549
 20
65.654052
 30
0.0
 11
-79.82756399999998
 21
64.68739599999999
 31
0.0
  0
LINE
  5
26C
330
36
100
AcDbEntity
  8
0
 62
     3
100
AcDbLine
 10
-78.41906899999997
 20
65.76914499999999
 30
0.0
 11
-82.659304
 21
54.11919499999999
 31
0.0
  0
LINE
  5
26D
330
36
100
AcDbEntity
  8
0
 62
     3
100
AcDbLine
 10
-77.655353
 20
64.85019799999999
 30
0.0
 11
-78.07882600000002
 21
63.94205899999999
 31
0.0
  0
LINE
  5
26E
330
36
100
AcDbEntity
  8
0
 62
     3
100
AcDbLine
 10
-76.773172
 20
64.314268
 30
0.0
 11
-77.27458799999998
 21
63.44579
 31
0.0
  0
LINE
  5
26F
330
36
100
AcDbEntity
  8
0
 62
     3
100
AcDbLine
 10
-75.95220999999998
 20
63.69790899999999
 30
0.0
 11
-76.52792600000002
 21
62.8757
 31
0.0
  0
LINE
  5
270
330
36
100
AcDbEntity
  8
0
 62
     3
100
AcDbLine
 10
-75.19991899999998
 20
63.00893000000001
 30
0.0
 11
-75.845724
 21
62.239291
 31
0.0
  0
LINE
  5
271
330
36
100
AcDbEntity
  8
0
 62
     3
100
AcDbLine
 10
-91.151301
 20
62.611134
 30
0.0
 11
-90.084884
 21
61.54471700000001
 31
0.0
  0
LINE
  5
272
330
36
100
AcDbEntity
  8
0
 62
     3
100
AcDbLine
 10
-72.559325
 20
67.81920699999999
 30
0.0
 11
-92.75932500000001
 21
67.81920699999999
 31
0.0
  0
LINE
  5
273
330
36
100
AcDbEntity
  8
0
 62
     3
100
AcDbLine
 10
-72.559325
 20
67.81920699999999
 30
0.0
 11
-72.559325
 21
47.619207
 31
0.0
  0
LINE
  5
274
330
36
100
AcDbEntity
  8
0
 62
     3
100
AcDbLine
 10
-92.75932500000001
 20
47.619207
 30
0.0
 11
-92.75932500000001
 21
67.81920699999999
 31
0.0
  0
ARC
  5
275
330
36
100
AcDbEntity
  8
0
 62
     3
100
AcDbCircle
 10
52.51666700000001
 20
-12.260651
 30
0.0
 40
0.5
100
AcDbArc
 50
187.594643
 51
270.0
  0
LINE
  5
276
330
36
100
AcDbEntity
  8
0
 62
     3
100
AcDbLine
 10
-72.559325
 20
55.119207
 30
0.0
 11
-92.75932500000001
 21
55.119207
 31
0.0
  0
LINE
  5
277
330
36
100
AcDbEntity
  8
0
 62
     3
100
AcDbLine
 10
-72.559325
 20
54.36920699999999
 30
0.0
 11
-92.75932500000001
 21
54.36920699999999
 31
0.0
  0
LINE
  5
278
330
36
100
AcDbEntity
  8
0
 62
     3
100
AcDbLine
 10
-72.559325
 20
53.61920699999998
 30
0.0
 11
-92.75932500000001
 21
53.61920699999998
 31
0.0
  0
LINE
  5
279
330
36
100
AcDbEntity
  8
0
 62
     3
100
AcDbLine
 10
-72.559325
 20
52.86920699999999
 30
0.0
 11
-92.75932500000001
 21
52.86920699999999
 31
0.0
  0
LINE
  5
27A
330
36
100
AcDbEntity
  8
0
 62
     3
100
AcDbLine
 10
-72.559325
 20
52.119207
 30
0.0
 11
-92.75932500000001
 21
52.119207
 31
0.0
  0
LINE
  5
27B
330
36
100
AcDbEntity
  8
0
 62
     3
100
AcDbLine
 10
-72.559325
 20
51.36920700000001
 30
0.0
 11
-92.75932500000001
 21
51.36920700000001
 31
0.0
  0
LINE
  5
27C
330
36
100
AcDbEntity
  8
0
 62
     3
100
AcDbLine
 10
-72.559325
 20
50.619207
 30
0.0
 11
-92.75932500000001
 21
50.619207
 31
0.0
  0
LINE
  5
27D
330
36
100
AcDbEntity
  8
0
 62
     3
100
AcDbLine
 10
-72.559325
 20
49.869207
 30
0.0
 11
-92.75932500000001
 21
49.869207
 31
0.0
  0
LINE
  5
27E
330
36
100
AcDbEntity
  8
0
 62
     3
100
AcDbLine
 10
-72.559325
 20
49.119207
 30
0.0
 11
-92.75932500000001
 21
49.119207
 31
0.0
  0
LINE
  5
27F
330
36
100
AcDbEntity
  8
0
 62
     3
100
AcDbLine
 10
-72.559325
 20
48.369207
 30
0.0
 11
-92.75932500000001
 21
48.369207
 31
0.0
  0
LINE
  5
280
330
36
100
AcDbEntity
  8
0
 62
     3
100
AcDbLine
 10
-72.559325
 20
47.619207
 30
0.0
 11
-92.75932500000001
 21
47.619207
 31
0.0
  0
LINE
  5
281
330
36
100
AcDbEntity
  8
0
 62
     3
100
AcDbLine
 10
-111.043624
 20
10.415749
 30
0.0
 11
-111.043624
 21
26.415749
 31
0.0
  0
LINE
  5
282
330
36
100
AcDbEntity
  8
0
 62
     3
100
AcDbLine
 10
-117.043624
 20
10.415749
 30
0.0
 11
-117.043624
 21
26.415749
 31
0.0
  0
LINE
  5
283
330
36
100
AcDbEntity
  8
0
 62
     3
100
AcDbLine
 10
-117.043624
 20
26.415749
 30
0.0
 11
-111.043624
 21
26.415749
 31
0.0
  0
LINE
  5
284
330
36
100
AcDbEntity
  8
0
 62
     3
100
AcDbLine
 10
-112.168624
 20
25.415749
 30
0.0
 11
-112.168624
 21
17.915749
 31
0.0
  0
LINE
  5
285
330
36
100
AcDbEntity
  8
0
 62
     3
100
AcDbLine
 10
-115.918624
 20
25.415749
 30
0.0
 11
-115.918624
 21
17.915749
 31
0.0
  0
LINE
  5
286
330
36
100
AcDbEntity
  8
0
 62
     3
100
AcDbLine
 10
-115.918624
 20
25.415749
 30
0.0
 11
-112.168624
 21
25.415749
 31
0.0
  0
LINE
  5
287
330
36
100
AcDbEntity
  8
0
 62
     3
100
AcDbLine
 10
-112.168624
 20
23.915749
 30
0.0
 11
-115.918624
 21
23.915749
 31
0.0
  0
LINE
  5
288
330
36
100
AcDbEntity
  8
0
 62
     3
100
AcDbLine
 10
-112.168624
 20
20.915749
 30
0.0
 11
-115.918624
 21
20.915749
 31
0.0
  0
LINE
  5
289
330
36
100
AcDbEntity
  8
0
 62
     3
100
AcDbLine
 10
-112.168624
 20
17.915749
 30
0.0
 11
-115.918624
 21
17.915749
 31
0.0
  0
TEXT
  5
28A
330
36
100
AcDbEntity
  8
0
 62
     3
100
AcDbText
 10
-114.8019129999999
 20
18.978609
 30
0.0
 40
1.6
  1
入
 41
0.833333
100
AcDbText
  0
TEXT
  5
28B
330
36
100
AcDbEntity
  8
0
 62
     7
100
AcDbText
 10
-115.322669
 20
24.047451
 30
0.0
 40
1.28
  1
30
 41
1.090908999999999
100
AcDbText
  0
CIRCLE
  5
28C
330
36
100
AcDbEntity
  8
0
 62
     3
100
AcDbCircle
 10
-114.043624
 20
14.415749
 30
0.0
 40
1.0
  0
CIRCLE
  5
28D
330
36
100
AcDbEntity
  8
0
 62
     3
100
AcDbCircle
 10
-114.043624
 20
33.415749
 30
0.0
 40
2.0
  0
CIRCLE
  5
28E
330
36
100
AcDbEntity
  8
0
 62
     3
100
AcDbCircle
 10
-114.043624
 20
3.415748999999998
 30
0.0
 40
2.0
  0
CIRCLE
  5
28F
330
36
100
AcDbEntity
  8
0
 62
     3
100
AcDbCircle
 10
45.078908
 20
34.789349
 30
0.0
 40
2.25
  0
LINE
  5
290
330
36
100
AcDbEntity
  8
0
 62
     3
100
AcDbLine
 10
83.828908
 20
54.289349
 30
0.0
 11
53.828908
 21
54.289349
 31
0.0
  0
LINE
  5
291
330
36
100
AcDbEntity
  8
0
 62
     3
100
AcDbLine
 10
83.828908
 20
42.789349
 30
0.0
 11
53.828908
 21
42.789349
 31
0.0
  0
LINE
  5
292
330
36
100
AcDbEntity
  8
0
 62
     3
100
AcDbLine
 10
83.828908
 20
31.289349
 30
0.0
 11
53.828908
 21
31.289349
 31
0.0
  0
LINE
  5
293
330
36
100
AcDbEntity
  8
0
 62
     3
100
AcDbLine
 10
83.828908
 20
19.789349
 30
0.0
 11
53.828908
 21
19.789349
 31
0.0
  0
ARC
  5
294
330
36
100
AcDbEntity
  8
0
 62
     3
100
AcDbCircle
 10
78.828908
 20
19.789349
 30
0.0
 40
5.0
100
AcDbArc
 50
0.0
 51
90.0
  0
LINE
  5
295
330
36
100
AcDbEntity
  8
0
 62
     3
100
AcDbLine
 10
78.828908
 20
24.789349
 30
0.0
 11
58.828908
 21
24.789349
 31
0.0
  0
ARC
  5
296
330
36
100
AcDbEntity
  8
0
 62
     3
100
AcDbCircle
 10
58.828908
 20
19.789349
 30
0.0
 40
5.0
100
AcDbArc
 50
90.0
 51
180.0
  0
ARC
  5
297
330
36
100
AcDbEntity
  8
0
 62
     3
100
AcDbCircle
 10
58.828908
 20
31.289349
 30
0.0
 40
5.0
100
AcDbArc
 50
90.0
 51
180.0
  0
LINE
  5
298
330
36
100
AcDbEntity
  8
0
 62
     3
100
AcDbLine
 10
78.828908
 20
36.289349
 30
0.0
 11
58.828908
 21
36.289349
 31
0.0
  0
ARC
  5
299
330
36
100
AcDbEntity
  8
0
 62
     3
100
AcDbCircle
 10
78.828908
 20
31.289349
 30
0.0
 40
5.0
100
AcDbArc
 50
0.0
 51
90.0
  0
ARC
  5
29A
330
36
100
AcDbEntity
  8
0
 62
     3
100
AcDbCircle
 10
78.828908
 20
42.789349
 30
0.0
 40
5.0
100
AcDbArc
 50
0.0
 51
90.0
  0
LINE
  5
29B
330
36
100
AcDbEntity
  8
0
 62
     3
100
AcDbLine
 10
78.828908
 20
47.789349
 30
0.0
 11
58.828908
 21
47.789349
 31
0.0
  0
ARC
  5
29C
330
36
100
AcDbEntity
  8
0
 62
     3
100
AcDbCircle
 10
58.828908
 20
42.789349
 30
0.0
 40
5.0
100
AcDbArc
 50
90.0
 51
180.0
  0
ARC
  5
29D
330
36
100
AcDbEntity
  8
0
 62
     3
100
AcDbCircle
 10
58.828908
 20
54.289349
 30
0.0
 40
5.0
100
AcDbArc
 50
90.0
 51
180.0
  0
LINE
  5
29E
330
36
100
AcDbEntity
  8
0
 62
     3
100
AcDbLine
 10
78.828908
 20
59.289349
 30
0.0
 11
58.828908
 21
59.289349
 31
0.0
  0
ARC
  5
29F
330
36
100
AcDbEntity
  8
0
 62
     3
100
AcDbCircle
 10
78.828908
 20
54.289349
 30
0.0
 40
5.0
100
AcDbArc
 50
0.0
 51
90.0
  0
LINE
  5
2A0
330
36
100
AcDbEntity
  8
0
 62
     3
100
AcDbLine
 10
98.828908
 20
54.289349
 30
0.0
 11
128.828908
 21
54.289349
 31
0.0
  0
LINE
  5
2A1
330
36
100
AcDbEntity
  8
0
 62
     3
100
AcDbLine
 10
98.828908
 20
42.789349
 30
0.0
 11
128.828908
 21
42.789349
 31
0.0
  0
LINE
  5
2A2
330
36
100
AcDbEntity
  8
0
 62
     3
100
AcDbLine
 10
98.828908
 20
31.289349
 30
0.0
 11
128.828908
 21
31.289349
 31
0.0
  0
LINE
  5
2A3
330
36
100
AcDbEntity
  8
0
 62
     3
100
AcDbLine
 10
98.828908
 20
19.789349
 30
0.0
 11
128.828908
 21
19.789349
 31
0.0
  0
ARC
  5
2A4
330
36
100
AcDbEntity
  8
0
 62
     3
100
AcDbCircle
 10
103.828908
 20
19.789349
 30
0.0
 40
5.0
100
AcDbArc
 50
90.0
 51
180.0
  0
LINE
  5
2A5
330
36
100
AcDbEntity
  8
0
 62
     3
100
AcDbLine
 10
103.828908
 20
24.789349
 30
0.0
 11
123.828908
 21
24.789349
 31
0.0
  0
ARC
  5
2A6
330
36
100
AcDbEntity
  8
0
 62
     3
100
AcDbCircle
 10
123.828908
 20
19.789349
 30
0.0
 40
5.0
100
AcDbArc
 50
0.0
 51
90.0
  0
ARC
  5
2A7
330
36
100
AcDbEntity
  8
0
 62
     3
100
AcDbCircle
 10
123.828908
 20
31.289349
 30
0.0
 40
5.0
100
AcDbArc
 50
0.0
 51
90.0
  0
LINE
  5
2A8
330
36
100
AcDbEntity
  8
0
 62
     3
100
AcDbLine
 10
103.828908
 20
36.289349
 30
0.0
 11
123.828908
 21
36.289349
 31
0.0
  0
ARC
  5
2A9
330
36
100
AcDbEntity
  8
0
 62
     3
100
AcDbCircle
 10
103.828908
 20
31.289349
 30
0.0
 40
5.0
100
AcDbArc
 50
90.0
 51
180.0
  0
ARC
  5
2AA
330
36
100
AcDbEntity
  8
0
 62
     3
100
AcDbCircle
 10
103.828908
 20
42.789349
 30
0.0
 40
5.0
100
AcDbArc
 50
90.0
 51
180.0
  0
LINE
  5
2AB
330
36
100
AcDbEntity
  8
0
 62
     3
100
AcDbLine
 10
103.828908
 20
47.789349
 30
0.0
 11
123.828908
 21
47.789349
 31
0.0
  0
ARC
  5
2AC
330
36
100
AcDbEntity
  8
0
 62
     3
100
AcDbCircle
 10
123.828908
 20
42.789349
 30
0.0
 40
5.0
100
AcDbArc
 50
0.0
 51
90.0
  0
ARC
  5
2AD
330
36
100
AcDbEntity
  8
0
 62
     3
100
AcDbCircle
 10
123.828908
 20
54.289349
 30
0.0
 40
5.0
100
AcDbArc
 50
0.0
 51
90.0
  0
LINE
  5
2AE
330
36
100
AcDbEntity
  8
0
 62
     3
100
AcDbLine
 10
103.828908
 20
59.289349
 30
0.0
 11
123.828908
 21
59.289349
 31
0.0
  0
ARC
  5
2AF
330
36
100
AcDbEntity
  8
0
 62
     3
100
AcDbCircle
 10
103.828908
 20
54.289349
 30
0.0
 40
5.0
100
AcDbArc
 50
90.0
 51
180.0
  0
CIRCLE
  5
2B0
330
36
100
AcDbEntity
  8
0
 62
     3
100
AcDbCircle
 10
137.578908
 20
34.789349
 30
0.0
 40
2.25
  0
CIRCLE
  5
2B1
330
36
100
AcDbEntity
  8
0
 62
     3
100
AcDbCircle
 10
137.578908
 20
2.289349
 30
0.0
 40
2.25
  0
CIRCLE
  5
2B2
330
36
100
AcDbEntity
  8
0
 62
     3
100
AcDbCircle
 10
45.078908
 20
2.289349
 30
0.0
 40
2.25
  0
LINE
  5
2B3
330
36
100
AcDbEntity
  8
0
 62
     3
100
AcDbLine
 10
163.609549
 20
12.464349
 30
0.0
 11
173.781598
 21
12.464349
 31
0.0
  0
LINE
  5
2B4
330
36
100
AcDbEntity
  8
0
 62
     3
100
AcDbLine
 10
164.275336
 20
7.014349
 30
0.0
 11
173.781598
 21
7.014349
 31
0.0
  0
LINE
  5
2B5
330
36
100
AcDbEntity
  8
0
 62
     3
100
AcDbLine
 10
141.328908
 20
14.489349
 30
0.0
 11
141.328908
 21
4.989348999999998
 31
0.0
  0
LINE
  5
2B6
330
36
100
AcDbEntity
  8
0
 62
     3
100
AcDbLine
 10
141.328908
 20
74.839349
 30
0.0
 11
141.328908
 21
-5.260651
 31
0.0
  0
LINE
  5
2B7
330
36
100
AcDbEntity
  8
0
 62
     3
100
AcDbLine
 10
142.578908
 20
14.489349
 30
0.0
 11
141.328908
 21
14.489349
 31
0.0
  0
LINE
  5
2B8
330
36
100
AcDbEntity
  8
0
 62
     3
100
AcDbLine
 10
142.578908
 20
4.989348999999998
 30
0.0
 11
141.328908
 21
4.989348999999998
 31
0.0
  0
LINE
  5
2B9
330
36
100
AcDbEntity
  8
0
 62
     3
100
AcDbLine
 10
121.338908
 20
-7.210650999999997
 30
0.0
 11
121.078908
 21
-5.260651
 31
0.0
  0
LINE
  5
2BA
330
36
100
AcDbEntity
  8
0
 62
     3
100
AcDbLine
 10
121.338908
 20
-7.210650999999997
 30
0.0
 11
122.021053
 21
-12.326733
 31
0.0
  0
ARC
  5
2BB
330
36
100
AcDbEntity
  8
0
 62
     3
100
AcDbCircle
 10
122.516667
 20
-12.260651
 30
0.0
 40
0.5
100
AcDbArc
 50
187.594643
 51
270.0
  0
LINE
  5
2BC
330
36
100
AcDbEntity
  8
0
 62
     3
100
AcDbLine
 10
133.318908
 20
-7.210650999999997
 30
0.0
 11
132.636764
 21
-12.326733
 31
0.0
  0
ARC
  5
2BD
330
36
100
AcDbEntity
  8
0
 62
     3
100
AcDbCircle
 10
132.14115
 20
-12.260651
 30
0.0
 40
0.5
100
AcDbArc
 50
270.0
 51
352.405357
  0
LINE
  5
2BE
330
36
100
AcDbEntity
  8
0
 62
     3
100
AcDbLine
 10
133.318908
 20
-7.210650999999997
 30
0.0
 11
133.578908
 21
-5.260651
 31
0.0
  0
LINE
  5
2BF
330
36
100
AcDbEntity
  8
0
 62
     3
100
AcDbLine
 10
51.338908
 20
-7.210650999999997
 30
0.0
 11
52.021053
 21
-12.326733
 31
0.0
  0
LINE
  5
2C0
330
36
100
AcDbEntity
  8
0
 62
     3
100
AcDbLine
 10
51.338908
 20
-7.210650999999997
 30
0.0
 11
51.07890799999999
 21
-5.260651
 31
0.0
  0
LINE
  5
2C1
330
36
100
AcDbEntity
  8
0
 62
     3
100
AcDbLine
 10
62.14115
 20
-12.760651
 30
0.0
 11
52.51666700000001
 21
-12.760651
 31
0.0
  0
ARC
  5
2C2
330
36
100
AcDbEntity
  8
0
 62
     3
100
AcDbCircle
 10
62.14115
 20
-12.260651
 30
0.0
 40
0.5
100
AcDbArc
 50
270.0
 51
352.405357
  0
LINE
  5
2C3
330
36
100
AcDbEntity
  8
0
 62
     3
100
AcDbLine
 10
63.318908
 20
-7.210650999999997
 30
0.0
 11
62.636764
 21
-12.326733
 31
0.0
  0
LINE
  5
2C4
330
36
100
AcDbEntity
  8
0
 62
     3
100
AcDbLine
 10
63.318908
 20
-7.210650999999997
 30
0.0
 11
63.57890799999999
 21
-5.260651
 31
0.0
  0
ARC
  5
2C5
330
36
100
AcDbEntity
  8
0
 62
     3
100
AcDbCircle
 10
-39.283433
 20
-12.261351
 30
0.0
 40
0.5
100
AcDbArc
 50
187.594643
 51
270.0
  0
LINE
  5
2C6
330
36
100
AcDbEntity
  8
0
 62
     3
100
AcDbLine
 10
-29.65895
 20
-12.761351
 30
0.0
 11
-39.283433
 21
-12.761351
 31
0.0
  0
ARC
  5
2C7
330
36
100
AcDbEntity
  8
0
 62
     3
100
AcDbCircle
 10
-29.65895
 20
-12.261351
 30
0.0
 40
0.5
100
AcDbArc
 50
270.0
 51
352.405357
  0
LINE
  5
2C8
330
36
100
AcDbEntity
  8
0
 62
     3
100
AcDbLine
 10
-124.283433
 20
-12.761351
 30
0.0
 11
-114.65895
 21
-12.761351
 31
0.0
  0
ARC
  5
2C9
330
36
100
AcDbEntity
  8
0
 62
     3
100
AcDbCircle
 10
-124.283433
 20
-12.261351
 30
0.0
 40
0.5
100
AcDbArc
 50
187.594643
 51
270.0
  0
ARC
  5
2CA
330
36
100
AcDbEntity
  8
0
 62
     3
100
AcDbCircle
 10
-114.65895
 20
-12.261351
 30
0.0
 40
0.5
100
AcDbArc
 50
270.0
 51
352.405357
  0
ARC
  5
2CB
330
36
100
AcDbEntity
  8
0
 62
     3
100
AcDbCircle
 10
-72.059325
 20
68.31920699999999
 30
0.0
 40
0.5
100
AcDbArc
 50
0.0
 51
90.0
  0
LINE
  5
2CC
330
36
100
AcDbEntity
  8
0
 62
     3
100
AcDbLine
 10
-71.559325
 20
47.119207
 30
0.0
 11
-71.559325
 21
68.31920699999999
 31
0.0
  0
ARC
  5
2CD
330
36
100
AcDbEntity
  8
0
 62
     3
100
AcDbCircle
 10
-72.059325
 20
47.119207
 30
0.0
 40
0.5
100
AcDbArc
 50
270.0
 51
0.0
  0
LINE
  5
2CE
330
36
100
AcDbEntity
  8
0
 62
     3
100
AcDbLine
 10
-72.059325
 20
46.619207
 30
0.0
 11
-93.259325
 21
46.619207
 31
0.0
  0
ARC
  5
2CF
330
36
100
AcDbEntity
  8
0
 62
     3
100
AcDbCircle
 10
-93.259325
 20
47.119207
 30
0.0
 40
0.5
100
AcDbArc
 50
180.0
 51
270.0
  0
LINE
  5
2D0
330
36
100
AcDbEntity
  8
0
 62
     3
100
AcDbLine
 10
-93.75932500000001
 20
47.119207
 30
0.0
 11
-93.75932500000001
 21
68.31920699999999
 31
0.0
  0
ARC
  5
2D1
330
36
100
AcDbEntity
  8
0
 62
     3
100
AcDbCircle
 10
-93.259325
 20
68.31920699999999
 30
0.0
 40
0.5
100
AcDbArc
 50
90.0
 51
180.0
  0
LINE
  5
2D2
330
36
100
AcDbEntity
  8
0
 62
     3
100
AcDbLine
 10
-93.259325
 20
68.81920699999999
 30
0.0
 11
-72.059325
 21
68.81920699999999
 31
0.0
  0
LINE
  5
2D3
330
36
100
AcDbEntity
  8
0
 62
     7
100
AcDbLine
 10
142.578908
 20
4.989348999999998
 30
0.0
 11
142.578908
 21
14.489349
 31
0.0
  0
LINE
  5
2D4
330
36
100
AcDbEntity
  8
0
 62
     3
100
AcDbLine
 10
83.828908
 20
7.289349
 30
0.0
 11
53.828908
 21
7.289349
 31
0.0
  0
ARC
  5
2D5
330
36
100
AcDbEntity
  8
0
 62
     3
100
AcDbCircle
 10
78.828908
 20
7.289349
 30
0.0
 40
5.0
100
AcDbArc
 50
0.0
 51
90.0
  0
LINE
  5
2D6
330
36
100
AcDbEntity
  8
0
 62
     3
100
AcDbLine
 10
78.828908
 20
12.289349
 30
0.0
 11
58.828908
 21
12.289349
 31
0.0
  0
ARC
  5
2D7
330
36
100
AcDbEntity
  8
0
 62
     3
100
AcDbCircle
 10
58.828908
 20
7.289349
 30
0.0
 40
5.0
100
AcDbArc
 50
90.0
 51
180.0
  0
LINE
  5
2D8
330
36
100
AcDbEntity
  8
0
 62
     3
100
AcDbLine
 10
98.828908
 20
7.289349
 30
0.0
 11
128.828908
 21
7.289349
 31
0.0
  0
ARC
  5
2D9
330
36
100
AcDbEntity
  8
0
 62
     3
100
AcDbCircle
 10
103.828908
 20
7.289349
 30
0.0
 40
5.0
100
AcDbArc
 50
90.0
 51
180.0
  0
LINE
  5
2DA
330
36
100
AcDbEntity
  8
0
 62
     3
100
AcDbLine
 10
103.828908
 20
12.289349
 30
0.0
 11
123.828908
 21
12.289349
 31
0.0
  0
ARC
  5
2DB
330
36
100
AcDbEntity
  8
0
 62
     3
100
AcDbCircle
 10
123.828908
 20
7.289349
 30
0.0
 40
5.0
100
AcDbArc
 50
0.0
 51
90.0
  0
TEXT
  5
2DC
330
36
100
AcDbEntity
  8
0
 62
     3
100
AcDbText
 10
-40.66754399999999
 20
18.510782
 30
0.0
 40
3.149999999999999
  1
125V
100
AcDbText
  0
TEXT
  5
2DD
330
36
100
AcDbEntity
  8
0
 62
     3
100
AcDbText
 10
-64.14702
 20
18.292943
 30
0.0
 40
3.149999999999999
  1
115V
 41
1.090908999999999
100
AcDbText
  0
TEXT
  5
2DE
330
36
100
AcDbEntity
  8
0
 62
     7
100
AcDbText
 10
-90.618937
 20
70.30556800000001
 30
0.0
 40
3.2
  1
出力電圧計
 41
0.833333
100
AcDbText
  0
LINE
  5
2DF
330
36
100
AcDbEntity
  8
0
 62
     3
100
AcDbLine
 10
36.828908
 20
-5.260651
 30
0.0
 11
141.328908
 21
-5.260651
 31
0.0
  0
LINE
  5
2E0
330
36
100
AcDbEntity
  8
0
 62
     3
100
AcDbLine
 10
132.14115
 20
-12.760651
 30
0.0
 11
122.516667
 21
-12.760651
 31
0.0
  0
LINE
  5
2E1
330
36
100
AcDbEntity
  8
0
 62
     3
100
AcDbLine
 10
160.373648
 20
12.464349
 30
0.0
 11
142.578908
 21
12.464349
 31
0.0
  0
LINE
  5
2E2
330
36
100
AcDbEntity
  8
0
 62
     3
100
AcDbLine
 10
160.466681
 20
7.014349
 30
0.0
 11
142.578908
 21
7.014349
 31
0.0
  0
TEXT
  5
2E3
330
36
100
AcDbEntity
  8
0
 62
     3
100
AcDbText
 10
-90.00396399999997
 20
-2.428879999999999
 30
0.0
 40
3.149999999999999
  1
200V
100
AcDbText
  0
TEXT
  5
2E4
330
36
100
AcDbEntity
  8
0
 62
     3
100
AcDbText
 10
-60.57345303078546
 20
62.74206220877113
 30
0.0
 40
3.2
  1
型式 FTBO-300
 41
0.8
  7
高3.2
100
AcDbText
  0
ARC
  5
2E5
330
36
100
AcDbEntity
  8
0
 62
     3
100
AcDbCircle
 10
-84.07991700000001
 20
13.875679
 30
0.0
 40
1.85
100
AcDbArc
 50
0.0
 51
180.000009
  0
LINE
  5
2E6
330
36
100
AcDbEntity
  8
0
 62
     3
100
AcDbLine
 10
-85.929917
 20
13.025679
 30
0.0
 11
-85.929917
 21
13.875679
 31
0.0
  0
LINE
  5
2E7
330
36
100
AcDbEntity
  8
0
 62
     3
100
AcDbLine
 10
-85.929917
 20
13.025679
 30
0.0
 11
-82.22991699999999
 21
13.025679
 31
0.0
  0
LINE
  5
2E8
330
36
100
AcDbEntity
  8
0
 62
     3
100
AcDbLine
 10
-82.22991699999999
 20
13.025679
 30
0.0
 11
-82.22991699999999
 21
13.875679
 31
0.0
  0
LINE
  5
2E9
330
36
100
AcDbEntity
  8
0
 62
     3
100
AcDbLine
 10
-63.143604
 20
34.535033
 30
0.0
 11
-63.143604
 21
28.370273
 31
0.0
  0
ARC
  5
2EA
330
36
100
AcDbEntity
  8
0
 62
     3
100
AcDbCircle
 10
-62.64240400000001
 20
28.370273
 30
0.0
 40
0.5012
100
AcDbArc
 50
180.0
 51
270.0
  0
ARC
  5
2EB
330
36
100
AcDbEntity
  8
0
 62
     3
100
AcDbCircle
 10
-56.72824399999999
 20
23.934653
 30
0.0
 40
0.5012
100
AcDbArc
 50
270.0
 51
0.0
  0
ARC
  5
2EC
330
36
100
AcDbEntity
  8
0
 62
     3
100
AcDbCircle
 10
-59.434724
 20
23.934653
 30
0.0
 40
0.5012
100
AcDbArc
 50
180.0
 51
270.0
  0
LINE
  5
2ED
330
36
100
AcDbEntity
  8
0
 62
     3
100
AcDbLine
 10
-58.83328399999999
 20
23.433453
 30
0.0
 11
-57.32968399999999
 21
23.433453
 31
0.0
  0
LINE
  5
2EE
330
36
100
AcDbEntity
  8
0
 62
     3
100
AcDbLine
 10
-56.72824399999999
 20
23.433453
 30
0.0
 11
-57.32968399999999
 21
23.433453
 31
0.0
  0
LINE
  5
2EF
330
36
100
AcDbEntity
  8
0
 62
     3
100
AcDbLine
 10
-58.83328399999999
 20
23.433453
 30
0.0
 11
-59.434724
 21
23.433453
 31
0.0
  0
LINE
  5
2F0
330
36
100
AcDbEntity
  8
0
 62
     3
100
AcDbLine
 10
-53.520564
 20
34.610213
 30
0.0
 11
-55.775964
 21
34.610213
 31
0.0
  0
ARC
  5
2F1
330
36
100
AcDbEntity
  8
0
 62
     3
100
AcDbCircle
 10
-55.775964
 20
34.109013
 30
0.0
 40
0.5012
100
AcDbArc
 50
90.0
 51
180.0
  0
ARC
  5
2F2
330
36
100
AcDbEntity
  8
0
 62
     3
100
AcDbCircle
 10
-53.520564
 20
34.109013
 30
0.0
 40
0.5012
100
AcDbArc
 50
0.0
 51
90.0
  0
LINE
  5
2F3
330
36
100
AcDbEntity
  8
0
 62
     3
100
AcDbLine
 10
-60.387004
 20
35.036233
 30
0.0
 11
-62.64240400000001
 21
35.036233
 31
0.0
  0
ARC
  5
2F4
330
36
100
AcDbEntity
  8
0
 62
     3
100
AcDbCircle
 10
-60.387004
 20
34.535033
 30
0.0
 40
0.5012
100
AcDbArc
 50
0.0
 51
90.0
  0
ARC
  5
2F5
330
36
100
AcDbEntity
  8
0
 62
     3
100
AcDbCircle
 10
-62.64240400000001
 20
34.535033
 30
0.0
 40
0.5012
100
AcDbArc
 50
90.0
 51
180.0
  0
ARC
  5
2F6
330
36
100
AcDbEntity
  8
0
 62
     3
100
AcDbCircle
 10
-36.887004
 20
34.109013
 30
0.0
 40
0.5012
100
AcDbArc
 50
0.0
 51
90.0
  0
ARC
  5
2F7
330
36
100
AcDbEntity
  8
0
 62
     3
100
AcDbCircle
 10
-39.142404
 20
34.109013
 30
0.0
 40
0.5012
100
AcDbArc
 50
90.0
 51
180.0
  0
LINE
  5
2F8
330
36
100
AcDbEntity
  8
0
 62
     3
100
AcDbLine
 10
-39.643604
 20
34.109013
 30
0.0
 11
-39.643604
 21
28.796293
 31
0.0
  0
LINE
  5
2F9
330
36
100
AcDbEntity
  8
0
 62
     3
100
AcDbLine
 10
-32.275964
 20
35.036233
 30
0.0
 11
-30.020564
 21
35.036233
 31
0.0
  0
ARC
  5
2FA
330
36
100
AcDbEntity
  8
0
 62
     3
100
AcDbCircle
 10
-32.275964
 20
34.535033
 30
0.0
 40
0.5012
100
AcDbArc
 50
90.0
 51
180.0
  0
ARC
  5
2FB
330
36
100
AcDbEntity
  8
0
 62
     3
100
AcDbCircle
 10
-30.020564
 20
34.535033
 30
0.0
 40
0.5012
100
AcDbArc
 50
0.0
 51
90.0
  0
LINE
  5
2FC
330
36
100
AcDbEntity
  8
0
 62
     3
100
AcDbLine
 10
-39.142404
 20
34.610213
 30
0.0
 11
-36.887004
 21
34.610213
 31
0.0
  0
ARC
  5
2FD
330
36
100
AcDbEntity
  8
0
 62
     3
100
AcDbCircle
 10
-33.228244
 20
23.934653
 30
0.0
 40
0.5012
100
AcDbArc
 50
270.0
 51
0.0
  0
LINE
  5
2FE
330
36
100
AcDbEntity
  8
0
 62
     3
100
AcDbLine
 10
-33.829684
 20
23.433453
 30
0.0
 11
-35.333284
 21
23.433453
 31
0.0
  0
LINE
  5
2FF
330
36
100
AcDbEntity
  8
0
 62
     3
100
AcDbLine
 10
-35.934724
 20
23.433453
 30
0.0
 11
-35.333284
 21
23.433453
 31
0.0
  0
LINE
  5
300
330
36
100
AcDbEntity
  8
0
 62
     3
100
AcDbLine
 10
-33.829684
 20
23.433453
 30
0.0
 11
-33.228244
 21
23.433453
 31
0.0
  0
ARC
  5
301
330
36
100
AcDbEntity
  8
0
 62
     3
100
AcDbCircle
 10
-35.934724
 20
23.934653
 30
0.0
 40
0.5012
100
AcDbArc
 50
180.0
 51
270.0
  0
LINE
  5
302
330
36
100
AcDbEntity
  8
0
 62
     3
100
AcDbLine
 10
-53.019364
 20
14.562213
 30
0.0
 11
-53.019364
 21
9.249492999999999
 31
0.0
  0
ARC
  5
303
330
36
100
AcDbEntity
  8
0
 62
     3
100
AcDbCircle
 10
-53.520564
 20
9.249492999999999
 30
0.0
 40
0.5012
100
AcDbArc
 50
270.0
 51
0.0
  0
LINE
  5
304
330
36
100
AcDbEntity
  8
0
 62
     3
100
AcDbLine
 10
-63.143604
 20
14.988233
 30
0.0
 11
-63.143604
 21
8.823472999999998
 31
0.0
  0
ARC
  5
305
330
36
100
AcDbEntity
  8
0
 62
     3
100
AcDbCircle
 10
-59.434724
 20
4.387852999999998
 30
0.0
 40
0.5012
100
AcDbArc
 50
180.0
 51
270.0
  0
LINE
  5
306
330
36
100
AcDbEntity
  8
0
 62
     3
100
AcDbLine
 10
-58.83328399999999
 20
3.886652999999999
 30
0.0
 11
-59.434724
 21
3.886652999999999
 31
0.0
  0
LINE
  5
307
330
36
100
AcDbEntity
  8
0
 62
     3
100
AcDbLine
 10
-56.72824399999999
 20
3.886652999999999
 30
0.0
 11
-57.32968399999999
 21
3.886652999999999
 31
0.0
  0
LINE
  5
308
330
36
100
AcDbEntity
  8
0
 62
     3
100
AcDbLine
 10
-58.83328399999999
 20
3.886652999999999
 30
0.0
 11
-57.32968399999999
 21
3.886652999999999
 31
0.0
  0
ARC
  5
309
330
36
100
AcDbEntity
  8
0
 62
     3
100
AcDbCircle
 10
-56.72824399999999
 20
4.387852999999998
 30
0.0
 40
0.5012
100
AcDbArc
 50
270.0
 51
0.0
  0
ARC
  5
30A
330
36
100
AcDbEntity
  8
0
 62
     3
100
AcDbCircle
 10
-32.275964
 20
14.988233
 30
0.0
 40
0.5012
100
AcDbArc
 50
90.0
 51
180.0
  0
ARC
  5
30B
330
36
100
AcDbEntity
  8
0
 62
     3
100
AcDbCircle
 10
-30.020564
 20
14.988233
 30
0.0
 40
0.5012
100
AcDbArc
 50
0.0
 51
90.0
  0
ARC
  5
30C
330
36
100
AcDbEntity
  8
0
 62
     3
100
AcDbCircle
 10
-36.887004
 20
14.562213
 30
0.0
 40
0.5012
100
AcDbArc
 50
0.0
 51
90.0
  0
LINE
  5
30D
330
36
100
AcDbEntity
  8
0
 62
     3
100
AcDbLine
 10
-39.142404
 20
15.063413
 30
0.0
 11
-36.887004
 21
15.063413
 31
0.0
  0
ARC
  5
30E
330
36
100
AcDbEntity
  8
0
 62
     3
100
AcDbCircle
 10
-39.142404
 20
14.562213
 30
0.0
 40
0.5012
100
AcDbArc
 50
90.0
 51
180.0
  0
LINE
  5
30F
330
36
100
AcDbEntity
  8
0
 62
     3
100
AcDbLine
 10
-39.643604
 20
14.562213
 30
0.0
 11
-39.643604
 21
9.249492999999999
 31
0.0
  0
ARC
  5
310
330
36
100
AcDbEntity
  8
0
 62
     3
100
AcDbCircle
 10
-39.142404
 20
9.249492999999999
 30
0.0
 40
0.5012
100
AcDbArc
 50
180.0
 51
270.0
  0
LINE
  5
311
330
36
100
AcDbEntity
  8
0
 62
     3
100
AcDbLine
 10
-32.275964
 20
15.489433
 30
0.0
 11
-30.020564
 21
15.489433
 31
0.0
  0
ARC
  5
312
330
36
100
AcDbEntity
  8
0
 62
     3
100
AcDbCircle
 10
-35.934724
 20
4.387852999999998
 30
0.0
 40
0.5012
100
AcDbArc
 50
180.0
 51
270.0
  0
ARC
  5
313
330
36
100
AcDbEntity
  8
0
 62
     3
100
AcDbCircle
 10
-33.228244
 20
4.387852999999998
 30
0.0
 40
0.5012
100
AcDbArc
 50
270.0
 51
0.0
  0
LINE
  5
314
330
36
100
AcDbEntity
  8
0
 62
     3
100
AcDbLine
 10
-33.829684
 20
3.886652999999999
 30
0.0
 11
-33.228244
 21
3.886652999999999
 31
0.0
  0
LINE
  5
315
330
36
100
AcDbEntity
  8
0
 62
     3
100
AcDbLine
 10
-33.829684
 20
3.886652999999999
 30
0.0
 11
-35.333284
 21
3.886652999999999
 31
0.0
  0
LINE
  5
316
330
36
100
AcDbEntity
  8
0
 62
     3
100
AcDbLine
 10
-35.934724
 20
3.886652999999999
 30
0.0
 11
-35.333284
 21
3.886652999999999
 31
0.0
  0
CIRCLE
  5
317
330
36
100
AcDbEntity
  8
0
 62
     3
100
AcDbCircle
 10
-84.07991700000001
 20
34.800679
 30
0.0
 40
2.0
  0
CIRCLE
  5
318
330
36
100
AcDbEntity
  8
0
 62
     3
100
AcDbCircle
 10
-84.07991700000001
 20
4.550678999999997
 30
0.0
 40
2.0
  0
LINE
  5
319
330
36
100
AcDbEntity
  8
0
 62
     3
100
AcDbLine
 10
-90.379917
 20
21.725679
 30
0.0
 11
-86.87991700000003
 21
21.725679
 31
0.0
  0
LINE
  5
31A
330
36
100
AcDbEntity
  8
0
 62
     3
100
AcDbLine
 10
-90.379917
 20
21.725679
 30
0.0
 11
-90.379917
 21
20.625679
 31
0.0
  0
LINE
  5
31B
330
36
100
AcDbEntity
  8
0
 62
     3
100
AcDbLine
 10
-90.379917
 20
20.625679
 30
0.0
 11
-86.87991700000003
 21
20.625679
 31
0.0
  0
LINE
  5
31C
330
36
100
AcDbEntity
  8
0
 62
     3
100
AcDbLine
 10
-86.87991700000003
 20
20.625679
 30
0.0
 11
-86.87991700000003
 21
21.725679
 31
0.0
  0
LINE
  5
31D
330
36
100
AcDbEntity
  8
0
 62
     3
100
AcDbLine
 10
-77.779917
 20
21.725679
 30
0.0
 11
-81.279917
 21
21.725679
 31
0.0
  0
LINE
  5
31E
330
36
100
AcDbEntity
  8
0
 62
     3
100
AcDbLine
 10
-81.279917
 20
20.625679
 30
0.0
 11
-81.279917
 21
21.725679
 31
0.0
  0
LINE
  5
31F
330
36
100
AcDbEntity
  8
0
 62
     3
100
AcDbLine
 10
-77.779917
 20
20.625679
 30
0.0
 11
-81.279917
 21
20.625679
 31
0.0
  0
LINE
  5
320
330
36
100
AcDbEntity
  8
0
 62
     3
100
AcDbLine
 10
-77.779917
 20
21.725679
 30
0.0
 11
-77.779917
 21
20.625679
 31
0.0
  0
ARC
  5
321
330
36
100
AcDbEntity
  8
0
 62
     3
100
AcDbCircle
 10
-53.520564
 20
14.562213
 30
0.0
 40
0.5012
100
AcDbArc
 50
0.0
 51
90.0
  0
LINE
  5
322
330
36
100
AcDbEntity
  8
0
 62
     3
100
AcDbLine
 10
-60.787964
 20
14.086073
 30
0.0
 11
-60.787964
 21
9.725633
 31
0.0
  0
LINE
  5
323
330
36
100
AcDbEntity
  8
0
 62
     3
100
AcDbLine
 10
-61.740244
 20
14.086073
 30
0.0
 11
-61.740244
 21
9.725633
 31
0.0
  0
LINE
  5
324
330
36
100
AcDbEntity
  8
0
 62
     3
100
AcDbLine
 10
-60.787964
 20
14.086073
 30
0.0
 11
-61.740244
 21
14.086073
 31
0.0
  0
LINE
  5
325
330
36
100
AcDbEntity
  8
0
 62
     3
100
AcDbLine
 10
-60.787964
 20
9.725633
 30
0.0
 11
-61.740244
 21
9.725633
 31
0.0
  0
LINE
  5
326
330
36
100
AcDbEntity
  8
0
 62
     3
100
AcDbLine
 10
-57.32968399999999
 20
4.989292999999999
 30
0.0
 11
-57.32968399999999
 21
6.277368
 31
0.0
  0
ARC
  5
327
330
36
100
AcDbEntity
  8
0
 62
     3
100
AcDbCircle
 10
-58.081484
 20
6.127202999999997
 30
0.0
 40
0.7666500000000001
100
AcDbArc
 50
11.295648
 51
168.704352
  0
LINE
  5
328
330
36
100
AcDbEntity
  8
0
 62
     3
100
AcDbLine
 10
-58.83328399999999
 20
4.989292999999999
 30
0.0
 11
-58.83328399999999
 21
6.277368
 31
0.0
  0
LINE
  5
329
330
36
100
AcDbEntity
  8
0
 62
     3
100
AcDbLine
 10
-57.32968399999999
 20
4.989292999999999
 30
0.0
 11
-58.83328399999999
 21
4.989292999999999
 31
0.0
  0
LINE
  5
32A
330
36
100
AcDbEntity
  8
0
 62
     3
100
AcDbLine
 10
-54.422724
 20
13.660053
 30
0.0
 11
-55.375004
 21
13.660053
 31
0.0
  0
LINE
  5
32B
330
36
100
AcDbEntity
  8
0
 62
     3
100
AcDbLine
 10
-54.422724
 20
13.660053
 30
0.0
 11
-54.422724
 21
10.151653
 31
0.0
  0
LINE
  5
32C
330
36
100
AcDbEntity
  8
0
 62
     3
100
AcDbLine
 10
-55.375004
 20
13.660053
 30
0.0
 11
-55.375004
 21
10.151653
 31
0.0
  0
LINE
  5
32D
330
36
100
AcDbEntity
  8
0
 62
     3
100
AcDbLine
 10
-54.422724
 20
10.151653
 30
0.0
 11
-55.375004
 21
10.151653
 31
0.0
  0
LINE
  5
32E
330
36
100
AcDbEntity
  8
0
 62
     3
100
AcDbLine
 10
-53.520564
 20
15.063413
 30
0.0
 11
-55.775964
 21
15.063413
 31
0.0
  0
ARC
  5
32F
330
36
100
AcDbEntity
  8
0
 62
     3
100
AcDbCircle
 10
-55.775964
 20
14.562213
 30
0.0
 40
0.5012
100
AcDbArc
 50
90.0
 51
180.0
  0
LINE
  5
330
330
36
100
AcDbEntity
  8
0
 62
     3
100
AcDbLine
 10
-56.277164
 20
14.562213
 30
0.0
 11
-56.277164
 21
9.249492999999999
 31
0.0
  0
ARC
  5
331
330
36
100
AcDbEntity
  8
0
 62
     3
100
AcDbCircle
 10
-55.775964
 20
9.249492999999999
 30
0.0
 40
0.5012
100
AcDbArc
 50
180.0
 51
270.0
  0
LINE
  5
332
330
36
100
AcDbEntity
  8
0
 62
     3
100
AcDbLine
 10
-53.520564
 20
8.748292999999996
 30
0.0
 11
-55.775964
 21
8.748292999999996
 31
0.0
  0
ARC
  5
333
330
36
100
AcDbEntity
  8
0
 62
     3
100
AcDbCircle
 10
-60.387004
 20
14.988233
 30
0.0
 40
0.5012
100
AcDbArc
 50
0.0
 51
90.0
  0
LINE
  5
334
330
36
100
AcDbEntity
  8
0
 62
     3
100
AcDbLine
 10
-59.885804
 20
14.988233
 30
0.0
 11
-59.885804
 21
8.823472999999998
 31
0.0
  0
LINE
  5
335
330
36
100
AcDbEntity
  8
0
 62
     3
100
AcDbLine
 10
-60.387004
 20
15.489433
 30
0.0
 11
-62.64240400000001
 21
15.489433
 31
0.0
  0
ARC
  5
336
330
36
100
AcDbEntity
  8
0
 62
     3
100
AcDbCircle
 10
-62.64240400000001
 20
14.988233
 30
0.0
 40
0.5012
100
AcDbArc
 50
90.0
 51
180.0
  0
ARC
  5
337
330
36
100
AcDbEntity
  8
0
 62
     3
100
AcDbCircle
 10
-62.64240400000001
 20
8.823472999999998
 30
0.0
 40
0.5012
100
AcDbArc
 50
180.0
 51
270.0
  0
LINE
  5
338
330
36
100
AcDbEntity
  8
0
 62
     3
100
AcDbLine
 10
-60.387004
 20
8.322272999999999
 30
0.0
 11
-62.64240400000001
 21
8.322272999999999
 31
0.0
  0
ARC
  5
339
330
36
100
AcDbEntity
  8
0
 62
     3
100
AcDbCircle
 10
-60.387004
 20
8.823472999999998
 30
0.0
 40
0.5012
100
AcDbArc
 50
270.0
 51
0.0
  0
ARC
  5
33A
330
36
100
AcDbEntity
  8
0
 62
     3
100
AcDbCircle
 10
-58.081484
 20
6.127202999999997
 30
0.0
 40
1.86929
100
AcDbArc
 50
8.449723999999998
 51
170.852157
  0
LINE
  5
33B
330
36
100
AcDbEntity
  8
0
 62
     3
100
AcDbLine
 10
-59.935924
 20
4.387852999999998
 30
0.0
 11
-59.935924
 21
6.312832
 31
0.0
  0
LINE
  5
33C
330
36
100
AcDbEntity
  8
0
 62
     3
100
AcDbLine
 10
-56.22704399999999
 20
4.387852999999998
 30
0.0
 11
-56.22704399999999
 21
6.328231999999997
 31
0.0
  0
CIRCLE
  5
33D
330
36
100
AcDbEntity
  8
0
 62
     3
100
AcDbCircle
 10
-58.081484
 20
0.050073
 30
0.0
 40
2.004799999999999
  0
ARC
  5
33E
330
36
100
AcDbEntity
  8
0
 62
     3
100
AcDbCircle
 10
-58.081484
 20
25.674003
 30
0.0
 40
0.7666500000000001
100
AcDbArc
 50
11.295648
 51
168.704352
  0
LINE
  5
33F
330
36
100
AcDbEntity
  8
0
 62
     3
100
AcDbLine
 10
-54.422724
 20
33.206853
 30
0.0
 11
-55.375004
 21
33.206853
 31
0.0
  0
LINE
  5
340
330
36
100
AcDbEntity
  8
0
 62
     3
100
AcDbLine
 10
-54.422724
 20
33.206853
 30
0.0
 11
-54.422724
 21
29.69845300000001
 31
0.0
  0
LINE
  5
341
330
36
100
AcDbEntity
  8
0
 62
     3
100
AcDbLine
 10
-55.375004
 20
33.206853
 30
0.0
 11
-55.375004
 21
29.69845300000001
 31
0.0
  0
LINE
  5
342
330
36
100
AcDbEntity
  8
0
 62
     3
100
AcDbLine
 10
-54.422724
 20
29.69845300000001
 30
0.0
 11
-55.375004
 21
29.69845300000001
 31
0.0
  0
LINE
  5
343
330
36
100
AcDbEntity
  8
0
 62
     3
100
AcDbLine
 10
-60.787964
 20
29.27243300000001
 30
0.0
 11
-61.740244
 21
29.27243300000001
 31
0.0
  0
LINE
  5
344
330
36
100
AcDbEntity
  8
0
 62
     3
100
AcDbLine
 10
-60.787964
 20
33.632873
 30
0.0
 11
-60.787964
 21
29.27243300000001
 31
0.0
  0
LINE
  5
345
330
36
100
AcDbEntity
  8
0
 62
     3
100
AcDbLine
 10
-61.740244
 20
33.632873
 30
0.0
 11
-61.740244
 21
29.27243300000001
 31
0.0
  0
LINE
  5
346
330
36
100
AcDbEntity
  8
0
 62
     3
100
AcDbLine
 10
-60.787964
 20
33.632873
 30
0.0
 11
-61.740244
 21
33.632873
 31
0.0
  0
LINE
  5
347
330
36
100
AcDbEntity
  8
0
 62
     3
100
AcDbLine
 10
-58.83328399999999
 20
24.536093
 30
0.0
 11
-58.83328399999999
 21
25.824168
 31
0.0
  0
LINE
  5
348
330
36
100
AcDbEntity
  8
0
 62
     3
100
AcDbLine
 10
-57.32968399999999
 20
24.536093
 30
0.0
 11
-57.32968399999999
 21
25.824168
 31
0.0
  0
LINE
  5
349
330
36
100
AcDbEntity
  8
0
 62
     3
100
AcDbLine
 10
-57.32968399999999
 20
24.536093
 30
0.0
 11
-58.83328399999999
 21
24.536093
 31
0.0
  0
LINE
  5
34A
330
36
100
AcDbEntity
  8
0
 62
     3
100
AcDbLine
 10
-53.019364
 20
34.109013
 30
0.0
 11
-53.019364
 21
28.796293
 31
0.0
  0
LINE
  5
34B
330
36
100
AcDbEntity
  8
0
 62
     3
100
AcDbLine
 10
-56.277164
 20
34.109013
 30
0.0
 11
-56.277164
 21
28.796293
 31
0.0
  0
ARC
  5
34C
330
36
100
AcDbEntity
  8
0
 62
     3
100
AcDbCircle
 10
-55.775964
 20
28.796293
 30
0.0
 40
0.5012
100
AcDbArc
 50
180.0
 51
270.0
  0
LINE
  5
34D
330
36
100
AcDbEntity
  8
0
 62
     3
100
AcDbLine
 10
-53.520564
 20
28.295093
 30
0.0
 11
-55.775964
 21
28.295093
 31
0.0
  0
ARC
  5
34E
330
36
100
AcDbEntity
  8
0
 62
     3
100
AcDbCircle
 10
-53.520564
 20
28.796293
 30
0.0
 40
0.5012
100
AcDbArc
 50
270.0
 51
0.0
  0
LINE
  5
34F
330
36
100
AcDbEntity
  8
0
 62
     3
100
AcDbLine
 10
-60.387004
 20
27.869073
 30
0.0
 11
-62.64240400000001
 21
27.869073
 31
0.0
  0
ARC
  5
350
330
36
100
AcDbEntity
  8
0
 62
     3
100
AcDbCircle
 10
-60.387004
 20
28.370273
 30
0.0
 40
0.5012
100
AcDbArc
 50
270.0
 51
0.0
  0
LINE
  5
351
330
36
100
AcDbEntity
  8
0
 62
     3
100
AcDbLine
 10
-59.885804
 20
34.535033
 30
0.0
 11
-59.885804
 21
28.370273
 31
0.0
  0
ARC
  5
352
330
36
100
AcDbEntity
  8
0
 62
     3
100
AcDbCircle
 10
-58.081484
 20
25.674003
 30
0.0
 40
1.86929
100
AcDbArc
 50
8.449723999999998
 51
170.852157
  0
LINE
  5
353
330
36
100
AcDbEntity
  8
0
 62
     3
100
AcDbLine
 10
-56.22704399999999
 20
23.934653
 30
0.0
 11
-56.22704399999999
 21
25.875032
 31
0.0
  0
LINE
  5
354
330
36
100
AcDbEntity
  8
0
 62
     3
100
AcDbLine
 10
-59.935924
 20
23.934653
 30
0.0
 11
-59.935924
 21
25.859632
 31
0.0
  0
ARC
  5
355
330
36
100
AcDbEntity
  8
0
 62
     3
100
AcDbCircle
 10
-34.58148400000001
 20
25.674003
 30
0.0
 40
0.7666500000000001
100
AcDbArc
 50
11.295648
 51
168.704352
  0
LINE
  5
356
330
36
100
AcDbEntity
  8
0
 62
     3
100
AcDbLine
 10
-30.922724
 20
33.206853
 30
0.0
 11
-31.875004
 21
33.206853
 31
0.0
  0
LINE
  5
357
330
36
100
AcDbEntity
  8
0
 62
     3
100
AcDbLine
 10
-30.922724
 20
33.206853
 30
0.0
 11
-30.922724
 21
29.69845300000001
 31
0.0
  0
LINE
  5
358
330
36
100
AcDbEntity
  8
0
 62
     3
100
AcDbLine
 10
-31.875004
 20
33.206853
 30
0.0
 11
-31.875004
 21
29.69845300000001
 31
0.0
  0
LINE
  5
359
330
36
100
AcDbEntity
  8
0
 62
     3
100
AcDbLine
 10
-30.922724
 20
29.69845300000001
 30
0.0
 11
-31.875004
 21
29.69845300000001
 31
0.0
  0
LINE
  5
35A
330
36
100
AcDbEntity
  8
0
 62
     3
100
AcDbLine
 10
-37.287964
 20
29.27243300000001
 30
0.0
 11
-38.240244
 21
29.27243300000001
 31
0.0
  0
LINE
  5
35B
330
36
100
AcDbEntity
  8
0
 62
     3
100
AcDbLine
 10
-37.287964
 20
33.632873
 30
0.0
 11
-37.287964
 21
29.27243300000001
 31
0.0
  0
LINE
  5
35C
330
36
100
AcDbEntity
  8
0
 62
     3
100
AcDbLine
 10
-38.240244
 20
33.632873
 30
0.0
 11
-38.240244
 21
29.27243300000001
 31
0.0
  0
LINE
  5
35D
330
36
100
AcDbEntity
  8
0
 62
     3
100
AcDbLine
 10
-33.829684
 20
24.536093
 30
0.0
 11
-33.829684
 21
25.824168
 31
0.0
  0
LINE
  5
35E
330
36
100
AcDbEntity
  8
0
 62
     3
100
AcDbLine
 10
-35.333284
 20
24.536093
 30
0.0
 11
-35.333284
 21
25.824168
 31
0.0
  0
LINE
  5
35F
330
36
100
AcDbEntity
  8
0
 62
     3
100
AcDbLine
 10
-35.333284
 20
24.536093
 30
0.0
 11
-33.829684
 21
24.536093
 31
0.0
  0
LINE
  5
360
330
36
100
AcDbEntity
  8
0
 62
     3
100
AcDbLine
 10
-29.51936400000001
 20
34.535033
 30
0.0
 11
-29.51936400000001
 21
28.370273
 31
0.0
  0
ARC
  5
361
330
36
100
AcDbEntity
  8
0
 62
     3
100
AcDbCircle
 10
-30.020564
 20
28.370273
 30
0.0
 40
0.5012
100
AcDbArc
 50
270.0
 51
0.0
  0
LINE
  5
362
330
36
100
AcDbEntity
  8
0
 62
     3
100
AcDbLine
 10
-32.275964
 20
27.869073
 30
0.0
 11
-30.020564
 21
27.869073
 31
0.0
  0
ARC
  5
363
330
36
100
AcDbEntity
  8
0
 62
     3
100
AcDbCircle
 10
-32.275964
 20
28.370273
 30
0.0
 40
0.5012
100
AcDbArc
 50
180.0
 51
270.0
  0
LINE
  5
364
330
36
100
AcDbEntity
  8
0
 62
     3
100
AcDbLine
 10
-32.777164
 20
34.535033
 30
0.0
 11
-32.777164
 21
28.370273
 31
0.0
  0
ARC
  5
365
330
36
100
AcDbEntity
  8
0
 62
     3
100
AcDbCircle
 10
-34.58148400000001
 20
25.674003
 30
0.0
 40
1.86929
100
AcDbArc
 50
9.147842999999999
 51
171.550276
  0
ARC
  5
366
330
36
100
AcDbEntity
  8
0
 62
     3
100
AcDbCircle
 10
-39.142404
 20
28.796293
 30
0.0
 40
0.5012
100
AcDbArc
 50
180.0
 51
270.0
  0
LINE
  5
367
330
36
100
AcDbEntity
  8
0
 62
     3
100
AcDbLine
 10
-39.142404
 20
28.295093
 30
0.0
 11
-36.887004
 21
28.295093
 31
0.0
  0
ARC
  5
368
330
36
100
AcDbEntity
  8
0
 62
     3
100
AcDbCircle
 10
-36.887004
 20
28.796293
 30
0.0
 40
0.5012
100
AcDbArc
 50
270.0
 51
0.0
  0
LINE
  5
369
330
36
100
AcDbEntity
  8
0
 62
     3
100
AcDbLine
 10
-36.385804
 20
34.109013
 30
0.0
 11
-36.385804
 21
28.796293
 31
0.0
  0
LINE
  5
36A
330
36
100
AcDbEntity
  8
0
 62
     3
100
AcDbLine
 10
-32.727044
 20
23.934653
 30
0.0
 11
-32.727044
 21
25.859632
 31
0.0
  0
LINE
  5
36B
330
36
100
AcDbEntity
  8
0
 62
     3
100
AcDbLine
 10
-36.435924
 20
23.934653
 30
0.0
 11
-36.435924
 21
25.875032
 31
0.0
  0
LINE
  5
36C
330
36
100
AcDbEntity
  8
0
 62
     3
100
AcDbLine
 10
-37.287964
 20
33.632873
 30
0.0
 11
-38.240244
 21
33.632873
 31
0.0
  0
LINE
  5
36D
330
36
100
AcDbEntity
  8
0
 62
     3
100
AcDbLine
 10
-37.287964
 20
14.086073
 30
0.0
 11
-37.287964
 21
9.725633
 31
0.0
  0
LINE
  5
36E
330
36
100
AcDbEntity
  8
0
 62
     3
100
AcDbLine
 10
-38.240244
 20
14.086073
 30
0.0
 11
-38.240244
 21
9.725633
 31
0.0
  0
LINE
  5
36F
330
36
100
AcDbEntity
  8
0
 62
     3
100
AcDbLine
 10
-37.287964
 20
14.086073
 30
0.0
 11
-38.240244
 21
14.086073
 31
0.0
  0
LINE
  5
370
330
36
100
AcDbEntity
  8
0
 62
     3
100
AcDbLine
 10
-37.287964
 20
9.725633
 30
0.0
 11
-38.240244
 21
9.725633
 31
0.0
  0
LINE
  5
371
330
36
100
AcDbEntity
  8
0
 62
     3
100
AcDbLine
 10
-35.333284
 20
4.989292999999999
 30
0.0
 11
-35.333284
 21
6.277368
 31
0.0
  0
ARC
  5
372
330
36
100
AcDbEntity
  8
0
 62
     3
100
AcDbCircle
 10
-34.58148400000001
 20
6.127202999999997
 30
0.0
 40
0.7666500000000001
100
AcDbArc
 50
11.295648
 51
168.704352
  0
LINE
  5
373
330
36
100
AcDbEntity
  8
0
 62
     3
100
AcDbLine
 10
-33.829684
 20
4.989292999999999
 30
0.0
 11
-33.829684
 21
6.277368
 31
0.0
  0
LINE
  5
374
330
36
100
AcDbEntity
  8
0
 62
     3
100
AcDbLine
 10
-35.333284
 20
4.989292999999999
 30
0.0
 11
-33.829684
 21
4.989292999999999
 31
0.0
  0
LINE
  5
375
330
36
100
AcDbEntity
  8
0
 62
     3
100
AcDbLine
 10
-30.922724
 20
13.660053
 30
0.0
 11
-31.875004
 21
13.660053
 31
0.0
  0
LINE
  5
376
330
36
100
AcDbEntity
  8
0
 62
     3
100
AcDbLine
 10
-30.922724
 20
13.660053
 30
0.0
 11
-30.922724
 21
10.151653
 31
0.0
  0
LINE
  5
377
330
36
100
AcDbEntity
  8
0
 62
     3
100
AcDbLine
 10
-31.875004
 20
13.660053
 30
0.0
 11
-31.875004
 21
10.151653
 31
0.0
  0
LINE
  5
378
330
36
100
AcDbEntity
  8
0
 62
     3
100
AcDbLine
 10
-30.922724
 20
10.151653
 30
0.0
 11
-31.875004
 21
10.151653
 31
0.0
  0
ARC
  5
379
330
36
100
AcDbEntity
  8
0
 62
     3
100
AcDbCircle
 10
-34.58148400000001
 20
6.127202999999997
 30
0.0
 40
1.86929
100
AcDbArc
 50
9.147842999999999
 51
171.550276
  0
LINE
  5
37A
330
36
100
AcDbEntity
  8
0
 62
     3
100
AcDbLine
 10
-32.777164
 20
14.988233
 30
0.0
 11
-32.777164
 21
8.823472999999998
 31
0.0
  0
LINE
  5
37B
330
36
100
AcDbEntity
  8
0
 62
     3
100
AcDbLine
 10
-29.51936400000001
 20
14.988233
 30
0.0
 11
-29.51936400000001
 21
8.823472999999998
 31
0.0
  0
ARC
  5
37C
330
36
100
AcDbEntity
  8
0
 62
     3
100
AcDbCircle
 10
-30.020564
 20
8.823472999999998
 30
0.0
 40
0.5012
100
AcDbArc
 50
270.0
 51
0.0
  0
LINE
  5
37D
330
36
100
AcDbEntity
  8
0
 62
     3
100
AcDbLine
 10
-32.275964
 20
8.322272999999999
 30
0.0
 11
-30.020564
 21
8.322272999999999
 31
0.0
  0
ARC
  5
37E
330
36
100
AcDbEntity
  8
0
 62
     3
100
AcDbCircle
 10
-32.275964
 20
8.823472999999998
 30
0.0
 40
0.5012
100
AcDbArc
 50
180.0
 51
270.0
  0
LINE
  5
37F
330
36
100
AcDbEntity
  8
0
 62
     3
100
AcDbLine
 10
-39.142404
 20
8.748292999999996
 30
0.0
 11
-36.887004
 21
8.748292999999996
 31
0.0
  0
ARC
  5
380
330
36
100
AcDbEntity
  8
0
 62
     3
100
AcDbCircle
 10
-36.887004
 20
9.249492999999999
 30
0.0
 40
0.5012
100
AcDbArc
 50
270.0
 51
0.0
  0
LINE
  5
381
330
36
100
AcDbEntity
  8
0
 62
     3
100
AcDbLine
 10
-36.385804
 20
14.562213
 30
0.0
 11
-36.385804
 21
9.249492999999999
 31
0.0
  0
LINE
  5
382
330
36
100
AcDbEntity
  8
0
 62
     3
100
AcDbLine
 10
-36.435924
 20
4.387852999999998
 30
0.0
 11
-36.435924
 21
6.328231999999997
 31
0.0
  0
LINE
  5
383
330
36
100
AcDbEntity
  8
0
 62
     3
100
AcDbLine
 10
-32.727044
 20
4.387852999999998
 30
0.0
 11
-32.727044
 21
6.312832
 31
0.0
  0
CIRCLE
  5
384
330
36
100
AcDbEntity
  8
0
 62
     3
100
AcDbCircle
 10
-34.58148400000001
 20
0.050073
 30
0.0
 40
2.004799999999999
  0
ARC
  5
385
330
36
100
AcDbEntity
  8
0
 62
     3
100
AcDbCircle
 10
-31.221192
 20
67.28864899999999
 30
0.0
 40
9.5
100
AcDbArc
 50
0.0
 51
90.0
  0
ARC
  5
386
330
36
100
AcDbEntity
  8
0
 62
     3
100
AcDbCircle
 10
-34.58148400000001
 20
10.327073
 30
0.0
 40
8.5204
100
AcDbArc
 50
304.560322
 51
55.439678
  0
ARC
  5
387
330
36
100
AcDbEntity
  8
0
 62
     3
100
AcDbCircle
 10
-34.58148400000001
 20
29.873873
 30
0.0
 40
8.5204
100
AcDbArc
 50
304.560322
 51
55.439678
  0
LINE
  5
388
330
36
100
AcDbEntity
  8
0
 62
     3
100
AcDbLine
 10
-29.748086
 20
3.310273
 30
0.0
 11
-39.414882
 21
3.310273
 31
0.0
  0
ARC
  5
389
330
36
100
AcDbEntity
  8
0
 62
     3
100
AcDbCircle
 10
-34.58148400000001
 20
10.327073
 30
0.0
 40
8.5204
100
AcDbArc
 50
124.560322
 51
235.439678
  0
LINE
  5
38A
330
36
100
AcDbEntity
  8
0
 62
     3
100
AcDbLine
 10
-29.748086
 20
17.343873
 30
0.0
 11
-39.414882
 21
17.343873
 31
0.0
  0
LINE
  5
38B
330
36
100
AcDbEntity
  8
0
 62
     3
100
AcDbLine
 10
-29.748086
 20
22.857073
 30
0.0
 11
-39.414882
 21
22.857073
 31
0.0
  0
ARC
  5
38C
330
36
100
AcDbEntity
  8
0
 62
     3
100
AcDbCircle
 10
-34.58148400000001
 20
29.873873
 30
0.0
 40
8.5204
100
AcDbArc
 50
124.560322
 51
235.439678
  0
LINE
  5
38D
330
36
100
AcDbEntity
  8
0
 62
     3
100
AcDbLine
 10
-29.748086
 20
36.890673
 30
0.0
 11
-39.414882
 21
36.890673
 31
0.0
  0
LINE
  5
38E
330
36
100
AcDbEntity
  8
0
 62
     3
100
AcDbLine
 10
-62.91488199999999
 20
36.890673
 30
0.0
 11
-53.248086
 21
36.890673
 31
0.0
  0
ARC
  5
38F
330
36
100
AcDbEntity
  8
0
 62
     3
100
AcDbCircle
 10
-58.081484
 20
29.873873
 30
0.0
 40
8.5204
100
AcDbArc
 50
304.560322
 51
55.439678
  0
ARC
  5
390
330
36
100
AcDbEntity
  8
0
 62
     3
100
AcDbCircle
 10
-58.081484
 20
29.873873
 30
0.0
 40
8.5204
100
AcDbArc
 50
124.560322
 51
235.439678
  0
LINE
  5
391
330
36
100
AcDbEntity
  8
0
 62
     3
100
AcDbLine
 10
-62.91488199999999
 20
22.857073
 30
0.0
 11
-53.248086
 21
22.857073
 31
0.0
  0
ARC
  5
392
330
36
100
AcDbEntity
  8
0
 62
     3
100
AcDbCircle
 10
-58.081484
 20
10.327073
 30
0.0
 40
8.5204
100
AcDbArc
 50
124.560322
 51
235.439678
  0
LINE
  5
393
330
36
100
AcDbEntity
  8
0
 62
     3
100
AcDbLine
 10
-62.91488199999999
 20
17.343873
 30
0.0
 11
-53.248086
 21
17.343873
 31
0.0
  0
LINE
  5
394
330
36
100
AcDbEntity
  8
0
 62
     3
100
AcDbLine
 10
-62.91488199999999
 20
3.310273
 30
0.0
 11
-53.248086
 21
3.310273
 31
0.0
  0
ARC
  5
395
330
36
100
AcDbEntity
  8
0
 62
     3
100
AcDbCircle
 10
-122.721192
 20
67.28864899999999
 30
0.0
 40
9.5
100
AcDbArc
 50
90.0
 51
180.0
  0
LINE
  5
396
330
36
100
AcDbEntity
  8
0
 62
     3
100
AcDbLine
 10
-122.721192
 20
76.78864899999997
 30
0.0
 11
-31.221192
 21
76.78864899999997
 31
0.0
  0
CIRCLE
  5
3A5
330
36
100
AcDbEntity
  8
0
 62
     3
100
AcDbCircle
 10
-34.58148400000001
 20
40.150873
 30
0.0
 40
2.004799999999999
  0
CIRCLE
  5
3A6
330
36
100
AcDbEntity
  8
0
 62
     3
100
AcDbCircle
 10
-58.081484
 20
40.150873
 30
0.0
 40
2.004799999999999
  0
LINE
  5
3A7
330
36
100
AcDbEntity
  8
0
 62
     3
100
AcDbLine
 10
-55.07428400000002
 20
-4.358491000000004
 30
0.0
 11
-61.08868399999999
 21
-4.358491000000004
 31
0.0
  0
LINE
  5
3A8
330
36
100
AcDbEntity
  8
0
 62
     3
100
AcDbLine
 10
-55.07428400000002
 20
-5.260651
 30
0.0
 11
-61.08868399999999
 21
-5.260651
 31
0.0
  0
LINE
  5
3A9
330
36
100
AcDbEntity
  8
0
 62
     3
100
AcDbLine
 10
-55.07428400000002
 20
-5.260651
 30
0.0
 11
-55.07428400000002
 21
3.310273000000001
 31
0.0
  0
LINE
  5
3AA
330
36
100
AcDbEntity
  8
0
 62
     3
100
AcDbLine
 10
-61.08868399999999
 20
-5.260651
 30
0.0
 11
-61.08868399999999
 21
3.310273000000001
 31
0.0
  0
LINE
  5
3AB
330
36
100
AcDbEntity
  8
0
 62
     3
100
AcDbLine
 10
63.96395171163517
 20
-82.40867900000003
 30
0.0
 11
63.96395171163517
 21
-80.86869599999998
 31
0.0
  0
ARC
  5
3AC
330
36
100
AcDbEntity
  8
0
 62
     3
100
AcDbCircle
 10
65.04654371163515
 20
-81.0172
 30
0.0
 40
1.094471999999997
100
AcDbArc
 50
8.449724000000008
 51
170.852157
  0
LINE
  5
3AD
330
36
100
AcDbEntity
  8
0
 62
     3
100
AcDbLine
 10
66.12913571163517
 20
-82.40867900000003
 30
0.0
 11
66.12913571163517
 21
-80.856376
 31
0.0
  0
LINE
  5
3AE
330
36
100
AcDbEntity
  8
0
 62
     3
100
AcDbLine
 10
63.20212771163517
 20
-74.329335
 30
0.0
 11
63.20212771163517
 21
-78.45922299999998
 31
0.0
  0
LINE
  5
3AF
330
36
100
AcDbEntity
  8
0
 62
     3
100
AcDbLine
 10
63.20212771163517
 20
-74.329335
 30
0.0
 11
61.79876771163518
 21
-74.329335
 31
0.0
  0
LINE
  5
3B0
330
36
100
AcDbEntity
  8
0
 62
     3
100
AcDbLine
 10
63.20212771163517
 20
-78.45922299999998
 30
0.0
 11
61.79876771163518
 21
-78.45922299999998
 31
0.0
  0
LINE
  5
3B1
330
36
100
AcDbEntity
  8
0
 62
     3
100
AcDbLine
 10
66.89095971163516
 20
-74.67015100000002
 30
0.0
 11
66.89095971163516
 21
-78.11840699999997
 31
0.0
  0
LINE
  5
3B2
330
36
100
AcDbEntity
  8
0
 62
     3
100
AcDbLine
 10
68.27916571163519
 20
-74.67015100000002
 30
0.0
 11
66.89095971163516
 21
-74.67015100000002
 31
0.0
  0
LINE
  5
3B3
330
36
100
AcDbEntity
  8
0
 62
     3
100
AcDbLine
 10
68.29431971163517
 20
-78.11840699999997
 30
0.0
 11
66.89095971163516
 21
-78.11840699999997
 31
0.0
  0
LINE
  5
3B4
330
36
100
AcDbEntity
  8
0
 62
     3
100
AcDbLine
 10
68.29431971163517
 20
-74.67015100000002
 30
0.0
 11
68.29431971163517
 21
-78.11840699999997
 31
0.0
  0
LINE
  5
3B5
330
36
100
AcDbEntity
  8
0
 62
     3
100
AcDbLine
 10
61.79876771163518
 20
-74.329335
 30
0.0
 11
61.79876771163518
 21
-78.45922299999998
 31
0.0
  0
LINE
  5
3B6
330
36
100
AcDbEntity
  8
0
 62
     3
100
AcDbLine
 10
64.44510371163516
 20
-82.40867900000003
 30
0.0
 11
63.96395171163517
 21
-82.40867900000003
 31
0.0
  0
LINE
  5
3B7
330
36
100
AcDbEntity
  8
0
 62
     3
100
AcDbLine
 10
64.44510371163516
 20
-82.40867900000003
 30
0.0
 11
65.64798371163516
 21
-82.40867900000003
 31
0.0
  0
LINE
  5
3B8
330
36
100
AcDbEntity
  8
0
 62
     3
100
AcDbLine
 10
66.12913571163517
 20
-82.40867900000003
 30
0.0
 11
65.64798371163516
 21
-82.40867900000003
 31
0.0
  0
ARC
  5
3B9
330
36
100
AcDbEntity
  8
0
 62
     3
100
AcDbCircle
 10
-58.081484
 20
10.327073
 30
0.0
 40
8.5204
100
AcDbArc
 50
304.560322
 51
55.439678
  0
CIRCLE
  5
3BA
330
36
100
AcDbEntity
  8
0
 62
     3
100
AcDbCircle
 10
-84.07991700000001
 20
19.675679
 30
0.0
 40
8.75
  0
CIRCLE
  5
3BB
330
36
100
AcDbEntity
  8
0
 62
     3
100
AcDbCircle
 10
95.05174271163516
 20
-123.605484
 30
0.0
 40
0.9599999999999999
  0
CIRCLE
  5
3BC
330
36
100
AcDbEntity
  8
0
 62
     3
100
AcDbCircle
 10
95.05174271163516
 20
-109.233967
 30
0.0
 40
0.9599999999999999
  0
LINE
  5
3BD
330
36
100
AcDbEntity
  8
0
 62
     3
100
AcDbLine
 10
95.16064371163514
 20
-137.773231
 30
0.0
 11
95.16064371163514
 21
-139.239512
 31
0.0
  0
LINE
  5
3BE
330
36
100
AcDbEntity
  8
0
 62
     3
100
AcDbLine
 10
91.96096371163518
 20
-139.239512
 30
0.0
 11
98.3609637116352
 21
-139.239512
 31
0.0
  0
LINE
  5
3BF
330
36
100
AcDbEntity
  8
0
 62
     3
100
AcDbLine
 10
92.6009637116352
 20
-139.879512
 30
0.0
 11
97.7209637116352
 21
-139.879512
 31
0.0
  0
LINE
  5
3C0
330
36
100
AcDbEntity
  8
0
 62
     3
100
AcDbLine
 10
93.2409637116352
 20
-140.519512
 30
0.0
 11
97.0809637116352
 21
-140.519512
 31
0.0
  0
LINE
  5
3C1
330
36
100
AcDbEntity
  8
0
 62
     3
100
AcDbLine
 10
93.8809637116352
 20
-141.159512
 30
0.0
 11
96.4409637116352
 21
-141.159512
 31
0.0
  0
CIRCLE
  5
3C2
330
36
100
AcDbEntity
  8
0
 62
     3
100
AcDbCircle
 10
95.05174271163516
 20
-136.405484
 30
0.0
 40
0.9599999999999999
  0
LINE
  5
3C3
330
36
100
AcDbEntity
  8
0
 62
     3
100
AcDbLine
 10
65.78775771163518
 20
-129.49578
 30
0.0
 11
68.98775771163517
 21
-129.49578
 31
0.0
  0
LINE
  5
3C4
330
36
100
AcDbEntity
  8
0
 62
     3
100
AcDbLine
 10
66.10775771163517
 20
-129.81578
 30
0.0
 11
68.66775771163516
 21
-129.81578
 31
0.0
  0
LINE
  5
3C5
330
36
100
AcDbEntity
  8
0
 62
     3
100
AcDbLine
 10
66.42775771163518
 20
-130.13578
 30
0.0
 11
68.34775771163515
 21
-130.13578
 31
0.0
  0
LINE
  5
3C6
330
36
100
AcDbEntity
  8
0
 62
     3
100
AcDbLine
 10
66.74775771163519
 20
-130.45578
 30
0.0
 11
68.02775771163516
 21
-130.45578
 31
0.0
  0
LINE
  5
3C7
330
36
100
AcDbEntity
  8
0
 62
     3
100
AcDbLine
 10
67.38775771163516
 20
-128.559127
 30
0.0
 11
67.38775771163516
 21
-129.49578
 31
0.0
  0
LINE
  5
3C8
330
36
100
AcDbEntity
  8
0
 62
     3
100
AcDbLine
 10
188.99874
 20
48.278353
 30
0.0
 11
173.7987399999999
 21
48.278353
 31
0.0
  0
LINE
  5
3C9
330
36
100
AcDbEntity
  8
0
 62
     3
100
AcDbLine
 10
188.99874
 20
50.678353
 30
0.0
 11
173.7987399999999
 21
50.678353
 31
0.0
  0
LINE
  5
3CA
330
36
100
AcDbEntity
  8
0
 62
     3
100
AcDbLine
 10
184.69874
 20
30.678353
 30
0.0
 11
178.09874
 21
30.678353
 31
0.0
  0
LINE
  5
3CB
330
36
100
AcDbEntity
  8
0
 62
     3
100
AcDbLine
 10
184.69874
 20
28.678353
 30
0.0
 11
178.09874
 21
28.678353
 31
0.0
  0
LINE
  5
3CC
330
36
100
AcDbEntity
  8
0
 62
     3
100
AcDbLine
 10
184.69874
 20
27.87835300000001
 30
0.0
 11
178.09874
 21
27.87835300000001
 31
0.0
  0
LINE
  5
3CD
330
36
100
AcDbEntity
  8
0
 62
     3
100
AcDbLine
 10
184.69874
 20
27.07835300000001
 30
0.0
 11
182.19874
 21
27.07835300000001
 31
0.0
  0
LINE
  5
3CE
330
36
100
AcDbEntity
  8
0
 62
     3
100
AcDbLine
 10
180.59874
 20
27.07835300000001
 30
0.0
 11
178.09874
 21
27.07835300000001
 31
0.0
  0
LINE
  5
3CF
330
36
100
AcDbEntity
  8
0
 62
     3
100
AcDbLine
 10
184.69874
 20
26.278353
 30
0.0
 11
182.19874
 21
26.278353
 31
0.0
  0
LINE
  5
3D0
330
36
100
AcDbEntity
  8
0
 62
     3
100
AcDbLine
 10
180.59874
 20
26.278353
 30
0.0
 11
178.09874
 21
26.278353
 31
0.0
  0
LINE
  5
3D1
330
36
100
AcDbEntity
  8
0
 62
     3
100
AcDbLine
 10
184.69874
 20
25.478353
 30
0.0
 11
182.19874
 21
25.478353
 31
0.0
  0
LINE
  5
3D2
330
36
100
AcDbEntity
  8
0
 62
     3
100
AcDbLine
 10
180.59874
 20
25.478353
 30
0.0
 11
178.09874
 21
25.478353
 31
0.0
  0
LINE
  5
3D3
330
36
100
AcDbEntity
  8
0
 62
     3
100
AcDbLine
 10
184.69874
 20
24.678353
 30
0.0
 11
182.19874
 21
24.678353
 31
0.0
  0
LINE
  5
3D4
330
36
100
AcDbEntity
  8
0
 62
     3
100
AcDbLine
 10
180.59874
 20
24.678353
 30
0.0
 11
178.09874
 21
24.678353
 31
0.0
  0
LINE
  5
3D5
330
36
100
AcDbEntity
  8
0
 62
     3
100
AcDbLine
 10
184.69874
 20
23.878353
 30
0.0
 11
182.19874
 21
23.878353
 31
0.0
  0
LINE
  5
3D6
330
36
100
AcDbEntity
  8
0
 62
     3
100
AcDbLine
 10
180.59874
 20
23.878353
 30
0.0
 11
178.09874
 21
23.878353
 31
0.0
  0
LINE
  5
3D7
330
36
100
AcDbEntity
  8
0
 62
     3
100
AcDbLine
 10
184.69874
 20
23.078353
 30
0.0
 11
182.19874
 21
23.078353
 31
0.0
  0
LINE
  5
3D8
330
36
100
AcDbEntity
  8
0
 62
     3
100
AcDbLine
 10
180.59874
 20
23.078353
 30
0.0
 11
178.09874
 21
23.078353
 31
0.0
  0
LINE
  5
3D9
330
36
100
AcDbEntity
  8
0
 62
     3
100
AcDbLine
 10
184.69874
 20
22.278353
 30
0.0
 11
182.19874
 21
22.278353
 31
0.0
  0
LINE
  5
3DA
330
36
100
AcDbEntity
  8
0
 62
     3
100
AcDbLine
 10
180.59874
 20
22.278353
 30
0.0
 11
178.09874
 21
22.278353
 31
0.0
  0
LINE
  5
3DB
330
36
100
AcDbEntity
  8
0
 62
     3
100
AcDbLine
 10
184.69874
 20
21.478353
 30
0.0
 11
182.19874
 21
21.478353
 31
0.0
  0
LINE
  5
3DC
330
36
100
AcDbEntity
  8
0
 62
     3
100
AcDbLine
 10
180.59874
 20
21.478353
 30
0.0
 11
178.09874
 21
21.478353
 31
0.0
  0
LINE
  5
3DD
330
36
100
AcDbEntity
  8
0
 62
     3
100
AcDbLine
 10
180.59874
 20
26.278353
 30
0.0
 11
180.59874
 21
27.07835300000001
 31
0.0
  0
LINE
  5
3DE
330
36
100
AcDbEntity
  8
0
 62
     3
100
AcDbLine
 10
182.19874
 20
26.278353
 30
0.0
 11
182.19874
 21
27.07835300000001
 31
0.0
  0
LINE
  5
3DF
330
36
100
AcDbEntity
  8
0
 62
     3
100
AcDbLine
 10
180.59874
 20
24.678353
 30
0.0
 11
180.59874
 21
25.478353
 31
0.0
  0
LINE
  5
3E0
330
36
100
AcDbEntity
  8
0
 62
     3
100
AcDbLine
 10
182.19874
 20
24.678353
 30
0.0
 11
182.19874
 21
25.478353
 31
0.0
  0
LINE
  5
3E1
330
36
100
AcDbEntity
  8
0
 62
     3
100
AcDbLine
 10
180.59874
 20
23.078353
 30
0.0
 11
180.59874
 21
23.878353
 31
0.0
  0
LINE
  5
3E2
330
36
100
AcDbEntity
  8
0
 62
     3
100
AcDbLine
 10
182.19874
 20
23.078353
 30
0.0
 11
182.19874
 21
23.878353
 31
0.0
  0
LINE
  5
3E3
330
36
100
AcDbEntity
  8
0
 62
     3
100
AcDbLine
 10
180.59874
 20
21.478353
 30
0.0
 11
180.59874
 21
22.278353
 31
0.0
  0
LINE
  5
3E4
330
36
100
AcDbEntity
  8
0
 62
     3
100
AcDbLine
 10
182.19874
 20
21.478353
 30
0.0
 11
182.19874
 21
22.278353
 31
0.0
  0
LINE
  5
3E5
330
36
100
AcDbEntity
  8
0
 62
     7
100
AcDbLine
 10
186.19874
 20
31.678353
 30
0.0
 11
176.59874
 21
31.678353
 31
0.0
  0
ARC
  5
3E6
330
36
100
AcDbEntity
  8
0
 62
     7
100
AcDbCircle
 10
186.59874
 20
46.278353
 30
0.0
 40
0.4
100
AcDbArc
 50
0.0
 51
90.0
  0
LINE
  5
3E7
330
36
100
AcDbEntity
  8
0
 62
     7
100
AcDbLine
 10
176.19874
 20
46.678353
 30
0.0
 11
186.59874
 21
46.678353
 31
0.0
  0
ARC
  5
3E8
330
36
100
AcDbEntity
  8
0
 62
     7
100
AcDbCircle
 10
176.19874
 20
46.278353
 30
0.0
 40
0.4
100
AcDbArc
 50
90.0
 51
180.0
  0
LINE
  5
3E9
330
36
100
AcDbEntity
  8
0
 62
     7
100
AcDbLine
 10
175.79874
 20
41.878353
 30
0.0
 11
175.79874
 21
46.278353
 31
0.0
  0
ARC
  5
3EA
330
36
100
AcDbEntity
  8
0
 62
     7
100
AcDbCircle
 10
176.19874
 20
41.878353
 30
0.0
 40
0.4
100
AcDbArc
 50
180.0
 51
270.0
  0
LINE
  5
3EB
330
36
100
AcDbEntity
  8
0
 62
     7
100
AcDbLine
 10
186.59874
 20
41.478353
 30
0.0
 11
176.19874
 21
41.478353
 31
0.0
  0
ARC
  5
3EC
330
36
100
AcDbEntity
  8
0
 62
     7
100
AcDbCircle
 10
186.59874
 20
41.878353
 30
0.0
 40
0.4
100
AcDbArc
 50
270.0
 51
0.0
  0
LINE
  5
3ED
330
36
100
AcDbEntity
  8
0
 62
     7
100
AcDbLine
 10
186.99874
 20
41.878353
 30
0.0
 11
186.99874
 21
46.278353
 31
0.0
  0
LINE
  5
3EF
330
36
100
AcDbEntity
  8
0
 62
     3
100
AcDbLine
 10
185.345091
 20
32.247452
 30
0.0
 11
186.19874
 21
31.678353
 31
0.0
  0
TEXT
  5
3F0
330
36
100
AcDbEntity
  8
0
 62
     3
100
AcDbText
 10
115.610762
 20
-112.583513
 30
0.0
 40
4.5
  1
昇降圧自在型トランス
 41
0.8
  7
高4.5
100
AcDbText
  0
LINE
  5
3F1
330
36
100
AcDbEntity
  8
0
 62
     3
100
AcDbLine
 10
184.631598
 20
19.923133
 30
0.0
 11
178.381598
 21
19.923133
 31
0.0
  0
ARC
  5
3F2
330
36
100
AcDbEntity
  8
0
 62
     3
100
AcDbCircle
 10
178.89874
 20
20.678353
 30
0.0
 40
0.8
100
AcDbArc
 50
180.0
 51
270.0
  0
LINE
  5
3F3
330
36
100
AcDbEntity
  8
0
 62
     3
100
AcDbLine
 10
178.09874
 20
20.678353
 30
0.0
 11
178.09874
 21
27.87835300000001
 31
0.0
  0
ARC
  5
3F4
330
36
100
AcDbEntity
  8
0
 62
     3
100
AcDbCircle
 10
183.89874
 20
20.678353
 30
0.0
 40
0.8
100
AcDbArc
 50
270.0
 51
0.0
  0
LINE
  5
3F5
330
36
100
AcDbEntity
  8
0
 62
     3
100
AcDbLine
 10
184.69874
 20
20.678353
 30
0.0
 11
184.69874
 21
27.87835300000001
 31
0.0
  0
ARC
  5
3F6
330
36
100
AcDbEntity
  8
0
 62
     3
100
AcDbCircle
 10
184.69874
 20
28.278353
 30
0.0
 40
0.4
100
AcDbArc
 50
270.0
 51
90.0
  0
ARC
  5
3F7
330
36
100
AcDbEntity
  8
0
 62
     3
100
AcDbCircle
 10
178.09874
 20
28.278353
 30
0.0
 40
0.4
100
AcDbArc
 50
90.0
 51
270.0
  0
LINE
  5
3F8
330
36
100
AcDbEntity
  8
0
 62
     3
100
AcDbLine
 10
178.09874
 20
28.678353
 30
0.0
 11
178.09874
 21
30.678353
 31
0.0
  0
LINE
  5
3F9
330
36
100
AcDbEntity
  8
0
 62
     3
100
AcDbLine
 10
176.59874
 20
31.678353
 30
0.0
 11
178.09874
 21
30.678353
 31
0.0
  0
LINE
  5
3FA
330
36
100
AcDbEntity
  8
0
 62
     3
100
AcDbLine
 10
177.45239
 20
32.247452
 30
0.0
 11
176.59874
 21
31.678353
 31
0.0
  0
LINE
  5
3FB
330
36
100
AcDbEntity
  8
0
 62
     3
100
AcDbLine
 10
177.687028
 20
33.337092
 30
0.0
 11
173.59874
 21
39.878353
 31
0.0
  0
ARC
  5
3FC
330
36
100
AcDbEntity
  8
0
 62
     3
100
AcDbCircle
 10
177.00863
 20
32.913092
 30
0.0
 40
0.8
100
AcDbArc
 50
303.690068
 51
32.005383
  0
LINE
  5
3FD
330
36
100
AcDbEntity
  8
0
 62
     3
100
AcDbLine
 10
185.110452
 20
33.337092
 30
0.0
 11
189.19874
 21
39.878353
 31
0.0
  0
ARC
  5
3FE
330
36
100
AcDbEntity
  8
0
 62
     3
100
AcDbCircle
 10
185.788851
 20
32.913092
 30
0.0
 40
0.8
100
AcDbArc
 50
147.994617
 51
236.309932
  0
LINE
  5
3FF
330
36
100
AcDbEntity
  8
0
 62
     3
100
AcDbLine
 10
184.69874
 20
30.678353
 30
0.0
 11
186.19874
 21
31.678353
 31
0.0
  0
LINE
  5
400
330
36
100
AcDbEntity
  8
0
 62
     3
100
AcDbLine
 10
184.69874
 20
28.678353
 30
0.0
 11
184.69874
 21
30.678353
 31
0.0
  0
LINE
  5
401
330
36
100
AcDbEntity
  8
0
 62
     3
100
AcDbLine
 10
189.19874
 20
39.878353
 30
0.0
 11
189.19874
 21
48.278353
 31
0.0
  0
LINE
  5
402
330
36
100
AcDbEntity
  8
0
 62
     3
100
AcDbLine
 10
173.59874
 20
39.878353
 30
0.0
 11
173.59874
 21
48.29513699999999
 31
0.0
  0
ARC
  5
403
330
36
100
AcDbEntity
  8
0
 62
     3
100
AcDbCircle
 10
173.7987399999999
 20
49.47835300000001
 30
0.0
 40
1.199999999999999
100
AcDbArc
 50
90.0
 51
270.0
  0
LINE
  5
404
330
36
100
AcDbEntity
  8
0
 62
     3
100
AcDbLine
 10
173.39874
 20
50.678353
 30
0.0
 11
173.39874
 21
51.878353
 31
0.0
  0
LINE
  5
405
330
36
100
AcDbEntity
  8
0
 62
     3
100
AcDbLine
 10
189.39874
 20
50.60972299999999
 30
0.0
 11
189.39874
 21
51.878353
 31
0.0
  0
ARC
  5
406
330
36
100
AcDbEntity
  8
0
 62
     3
100
AcDbCircle
 10
188.99874
 20
49.47835300000001
 30
0.0
 40
1.199999999999999
100
AcDbArc
 50
270.0
 51
90.0
  0
TEXT
  5
407
330
36
100
AcDbEntity
  8
0
 62
     3
100
AcDbText
 10
118.958638129851
 20
-44.956671
 30
0.0
 40
3.2
  1
型　　式
  7
高3.2
100
AcDbText
  0
TEXT
  5
408
330
36
100
AcDbEntity
  8
0
 62
     3
100
AcDbText
 10
118.958638129851
 20
-52.80947099999998
 30
0.0
 40
3.2
  1
入力電圧
  7
高3.2
100
AcDbText
  0
TEXT
  5
409
330
36
100
AcDbEntity
  8
0
 62
     3
100
AcDbText
 10
118.958638129851
 20
-61.86227099999999
 30
0.0
 40
3.2
  1
出力電圧
  7
高3.2
100
AcDbText
  0
TEXT
  5
40A
330
36
100
AcDbEntity
  8
0
 62
     3
100
AcDbText
 10
118.958638129851
 20
-68.51507099999999
 30
0.0
 40
3.2
  1
容　　量
  7
高3.2
100
AcDbText
  0
TEXT
  5
40B
330
36
100
AcDbEntity
  8
0
 62
     3
100
AcDbText
 10
118.958638129851
 20
-75.16787099999998
 30
0.0
 40
3.2
  1
質　　量
  7
高3.2
100
AcDbText
  0
LINE
  5
40C
330
36
100
AcDbEntity
  8
0
 62
     3
100
AcDbLine
 10
117.0578381298509
 20
-39.254271
 30
0.0
 11
189.7962359818393
 21
-39.254271
 31
0.0
  0
CIRCLE
  5
40D
330
36
100
AcDbEntity
  8
0
 62
     3
100
AcDbCircle
 10
95.5880627116352
 20
-76.369381
 30
0.0
 40
0.9599999999999999
  0
CIRCLE
  5
40E
330
36
100
AcDbEntity
  8
0
 62
     3
100
AcDbCircle
 10
95.5880627116352
 20
-61.997864
 30
0.0
 40
0.9599999999999999
  0
LINE
  5
40F
330
36
100
AcDbEntity
  8
0
 62
     3
100
AcDbLine
 10
95.69696371163521
 20
-90.53712799999999
 30
0.0
 11
95.69696371163521
 21
-92.00340899999998
 31
0.0
  0
LINE
  5
410
330
36
100
AcDbEntity
  8
0
 62
     3
100
AcDbLine
 10
92.49728371163518
 20
-92.00340899999998
 30
0.0
 11
98.89728371163521
 21
-92.00340899999998
 31
0.0
  0
LINE
  5
411
330
36
100
AcDbEntity
  8
0
 62
     3
100
AcDbLine
 10
93.13728371163518
 20
-92.64340899999998
 30
0.0
 11
98.25728371163521
 21
-92.64340899999998
 31
0.0
  0
LINE
  5
412
330
36
100
AcDbEntity
  8
0
 62
     3
100
AcDbLine
 10
93.77728371163518
 20
-93.28340899999998
 30
0.0
 11
97.6172837116352
 21
-93.28340899999998
 31
0.0
  0
LINE
  5
413
330
36
100
AcDbEntity
  8
0
 62
     3
100
AcDbLine
 10
94.41728371163518
 20
-93.92340899999998
 30
0.0
 11
96.9772837116352
 21
-93.92340899999998
 31
0.0
  0
CIRCLE
  5
414
330
36
100
AcDbEntity
  8
0
 62
     3
100
AcDbCircle
 10
95.5880627116352
 20
-89.16938100000001
 30
0.0
 40
0.9599999999999999
  0
CIRCLE
  5
415
330
36
100
AcDbEntity
  8
0
 62
     3
100
AcDbCircle
 10
65.04656371163517
 20
-76.394279
 30
0.0
 40
7.0
  0
TEXT
  5
416
330
36
100
AcDbEntity
  8
0
 62
     3
100
AcDbText
 10
141.4507700317209
 20
-51.02101
 30
0.0
 40
3.2
  1
単相100V 50/60HZ
  7
高3.2
100
AcDbText
  0
TEXT
  5
417
330
36
100
AcDbEntity
  8
0
 62
     3
100
AcDbText
 10
141.3778190317209
 20
-55.79984599999999
 30
0.0
 40
3.2
  1
単相200V 50/60HZ
  7
高3.2
100
AcDbText
  0
LINE
  5
418
330
36
100
AcDbEntity
  8
0
 62
     7
100
AcDbLine
 10
117.0578381298509
 20
-45.90707099999998
 30
0.0
 11
189.7962359818393
 21
-45.90707099999998
 31
0.0
  0
LINE
  5
419
330
36
100
AcDbEntity
  8
0
 62
     7
100
AcDbLine
 10
117.0578381298509
 20
-56.15987099999998
 30
0.0
 11
189.7962359818393
 21
-56.15987099999998
 31
0.0
  0
LINE
  5
41A
330
36
100
AcDbEntity
  8
0
 62
     7
100
AcDbLine
 10
117.0578381298509
 20
-62.81267099999999
 30
0.0
 11
189.7962359818393
 21
-62.81267099999998
 31
0.0
  0
LINE
  5
41B
330
36
100
AcDbEntity
  8
0
 62
     7
100
AcDbLine
 10
117.0578381298509
 20
-69.465471
 30
0.0
 11
189.7962359818393
 21
-69.465471
 31
0.0
  0
TEXT
  5
41C
330
36
100
AcDbEntity
  8
0
 62
     7
100
AcDbText
 10
86.1144017116352
 20
-108.530001
 30
0.0
 40
3.2
  1
白線
  7
高3.2
100
AcDbText
  0
TEXT
  5
41D
330
36
100
AcDbEntity
  8
0
 62
     7
100
AcDbText
 10
86.00720271163515
 20
-123.089182
 30
0.0
 40
3.2
  1
黒線
  7
高3.2
100
AcDbText
  0
TEXT
  5
41E
330
36
100
AcDbEntity
  8
0
 62
     7
100
AcDbText
 10
86.20602371163519
 20
-135.5745179999999
 30
0.0
 40
3.2
  1
緑線
  7
高3.2
100
AcDbText
  0
TEXT
  5
41F
330
36
100
AcDbEntity
  8
0
 62
     7
100
AcDbText
 10
86.74234271163518
 20
-88.338415
 30
0.0
 40
3.2
  1
緑線
  7
高3.2
100
AcDbText
  0
TEXT
  5
420
330
36
100
AcDbEntity
  8
0
 62
     7
100
AcDbText
 10
86.54352271163515
 20
-75.853079
 30
0.0
 40
3.2
  1
黒線
  7
高3.2
100
AcDbText
  0
TEXT
  5
421
330
36
100
AcDbEntity
  8
0
 62
     7
100
AcDbText
 10
86.65072171163519
 20
-61.293898
 30
0.0
 40
3.2
  1
白線
  7
高3.2
100
AcDbText
  0
CIRCLE
  5
428
330
36
100
AcDbEntity
  8
0
 62
     7
100
AcDbCircle
 10
157.942596
 20
34.147323
 30
0.0
 40
5.0
  0
TEXT
  5
429
330
36
100
AcDbEntity
  8
0
 62
     4
100
AcDbText
 10
155.8084200489829
 20
31.08906621610807
 30
0.0
 40
6.299999999999998
  1
3
  7
高6.3
100
AcDbText
  0
LINE
  5
42A
330
36
100
AcDbEntity
  8
0
 62
     3
100
AcDbLine
 10
117.0578381298509
 20
-76.11827099999998
 30
0.0
 11
189.7962359818393
 21
-76.11827099999995
 31
0.0
  0
TEXT
  5
42B
330
36
100
AcDbEntity
  8
0
 62
     3
100
AcDbText
 10
-176.380717
 20
-139.314439
 30
0.0
 40
3.2
  1
1
 41
0.8
  7
高3.2
100
AcDbText
  0
TEXT
  5
42C
330
36
100
AcDbEntity
  8
0
 62
     3
100
AcDbText
 10
-176.380717
 20
-134.314439
 30
0.0
 40
3.2
  1
2
 41
0.8
  7
高3.2
100
AcDbText
  0
TEXT
  5
42D
330
36
100
AcDbEntity
  8
0
 62
     3
100
AcDbText
 10
-176.380717
 20
-129.314439
 30
0.0
 40
3.2
  1
3
 41
0.8
  7
高3.2
100
AcDbText
  0
TEXT
  5
42E
330
36
100
AcDbEntity
  8
0
 62
     3
100
AcDbText
 10
-176.380717
 20
-124.314439
 30
0.0
 40
3.2
  1
4
 41
0.8
  7
高3.2
100
AcDbText
  0
TEXT
  5
42F
330
36
100
AcDbEntity
  8
0
 62
     3
100
AcDbText
 10
-176.380717
 20
-119.314439
 30
0.0
 40
3.2
  1
5
 41
0.8
  7
高3.2
100
AcDbText
  0
TEXT
  5
430
330
36
100
AcDbEntity
  8
0
 62
     3
100
AcDbText
 10
-176.380717
 20
-114.314439
 30
0.0
 40
3.2
  1
6
 41
0.8
  7
高3.2
100
AcDbText
  0
TEXT
  5
431
330
36
100
AcDbEntity
  8
0
 62
     3
100
AcDbText
 10
-176.380717
 20
-109.314439
 30
0.0
 40
3.2
  1
7
 41
0.8
  7
高3.2
100
AcDbText
  0
TEXT
  5
432
330
36
100
AcDbEntity
  8
0
 62
     3
100
AcDbText
 10
-176.380717
 20
-104.314439
 30
0.0
 40
3.2
  1
8
 41
0.8
  7
高3.2
100
AcDbText
  0
TEXT
  5
433
330
36
100
AcDbEntity
  8
0
 62
     3
100
AcDbText
 10
-176.380717
 20
-99.31443899999999
 30
0.0
 40
3.2
  1
9
 41
0.8
  7
高3.2
100
AcDbText
  0
TEXT
  5
434
330
36
100
AcDbEntity
  8
0
 62
     3
100
AcDbText
 10
-168.2431687617929
 20
-139.314439
 30
0.0
 40
3.2
  1
取手ハンドル
 41
0.8
  7
高3.2
100
AcDbText
  0
TEXT
  5
435
330
36
100
AcDbEntity
  8
0
 62
     3
100
AcDbText
 10
-168.2431687617929
 20
-134.314439
 30
0.0
 40
3.2
  1
本体カバー
 41
0.8
  7
高3.2
100
AcDbText
  0
TEXT
  5
436
330
36
100
AcDbEntity
  8
0
 62
     3
100
AcDbText
 10
-168.2431687617929
 20
-129.314439
 30
0.0
 40
3.2
  1
電線4Pプラグ付き
 41
0.8
  7
高3.2
100
AcDbText
  0
TEXT
  5
437
330
36
100
AcDbEntity
  8
0
 62
     3
100
AcDbText
 10
-168.2431687617929
 20
-124.314439
 30
0.0
 40
3.2
  1
パネル
 41
0.8
  7
高3.2
100
AcDbText
  0
TEXT
  5
438
330
36
100
AcDbEntity
  8
0
 62
     3
100
AcDbText
 10
-168.2431687617929
 20
-119.314439
 30
0.0
 40
3.2
  1
脚
 41
0.8
  7
高3.2
100
AcDbText
  0
TEXT
  5
43A
330
36
100
AcDbEntity
  8
0
 62
     3
100
AcDbText
 10
-168.2431687617929
 20
-99.31443899999997
 30
0.0
 40
3.2
  1
電源ランプ
 41
0.8
  7
高3.2
100
AcDbText
  0
TEXT
  5
43B
330
36
100
AcDbEntity
  8
0
 62
     3
100
AcDbText
 10
-168.2431687617929
 20
-94.31443899999999
 30
0.0
 40
3.2
  1
電圧計
 41
0.8
  7
高3.2
100
AcDbText
  0
TEXT
  5
43C
330
36
100
AcDbEntity
  8
0
 62
     3
100
AcDbText
 10
-168.2431687617929
 20
-89.31443900000003
 30
0.0
 40
3.2
  1
安全ブレーカー
 41
0.8
  7
高3.2
100
AcDbText
  0
TEXT
  5
43D
330
36
100
AcDbEntity
  8
0
 62
     3
100
AcDbText
 10
-168.2431687617929
 20
-84.31443900000003
 30
0.0
 40
3.2
  1
入力切替スイッチ
 41
0.8
  7
高3.2
100
AcDbText
  0
TEXT
  5
43E
330
36
100
AcDbEntity
  8
0
 62
     3
100
AcDbText
 10
-168.2431687617929
 20
-104.314439
 30
0.0
 40
3.2
  1
Wコンセント(白)125V
 41
0.8
  7
高3.2
100
AcDbText
  0
TEXT
  5
43F
330
36
100
AcDbEntity
  8
0
 62
     3
100
AcDbText
 10
-131.3176437063614
 20
-119.314439
 30
0.0
 40
3.2
  1
5
 41
0.8
  7
高3.2
100
AcDbText
  0
TEXT
  5
440
330
36
100
AcDbEntity
  8
0
 62
     3
100
AcDbText
 10
-131.3176437063614
 20
-124.314439
 30
0.0
 40
3.2
  1
1
 41
0.8
  7
高3.2
100
AcDbText
  0
TEXT
  5
441
330
36
100
AcDbEntity
  8
0
 62
     3
100
AcDbText
 10
-131.3176437063614
 20
-129.314439
 30
0.0
 40
3.2
  1
1
 41
0.8
  7
高3.2
100
AcDbText
  0
TEXT
  5
442
330
36
100
AcDbEntity
  8
0
 62
     3
100
AcDbText
 10
-131.3176437063614
 20
-134.314439
 30
0.0
 40
3.2
  1
1式
 41
0.8
  7
高3.2
100
AcDbText
  0
TEXT
  5
443
330
36
100
AcDbEntity
  8
0
 62
     3
100
AcDbText
 10
-131.3176437063614
 20
-139.314439
 30
0.0
 40
3.2
  1
1
 41
0.8
  7
高3.2
100
AcDbText
  0
TEXT
  5
444
330
36
100
AcDbEntity
  8
0
 62
     3
100
AcDbText
 10
-122.6907720111478
 20
-139.314439
 30
0.0
 40
3.2
  1
PF樹脂
 41
0.8
  7
高3.2
100
AcDbText
  0
TEXT
  5
445
330
36
100
AcDbEntity
  8
0
 62
     3
100
AcDbText
 10
-122.6907720111478
 20
-134.314439
 30
0.0
 40
3.2
  1
SPCC
 41
0.8
  7
高3.2
100
AcDbText
  0
TEXT
  5
446
330
36
100
AcDbEntity
  8
0
 62
     3
100
AcDbText
 10
-122.6907720111478
 20
-124.314439
 30
0.0
 40
3.2
  1
SPCC
 41
0.8
  7
高3.2
100
AcDbText
  0
TEXT
  5
447
330
36
100
AcDbEntity
  8
0
 62
     3
100
AcDbText
 10
-122.6907720111478
 20
-119.314439
 30
0.0
 40
3.2
  1
PVC樹脂
 41
0.8
  7
高3.2
100
AcDbText
  0
TEXT
  5
448
330
36
100
AcDbEntity
  8
0
 62
     3
100
AcDbText
 10
-122.6907720111478
 20
-104.314439
 30
0.0
 40
3.2
  1
ABS樹脂
 41
0.8
  7
高3.2
100
AcDbText
  0
TEXT
  5
44A
330
36
100
AcDbEntity
  8
0
 62
     3
100
AcDbText
 10
-122.6907720111478
 20
-89.31443900000003
 30
0.0
 40
3.2
  1
PF樹脂
 41
0.8
  7
高3.2
100
AcDbText
  0
TEXT
  5
44B
330
36
100
AcDbEntity
  8
0
 62
     3
100
AcDbText
 10
-105.6459614146675
 20
-84.31443899999994
 30
0.0
 40
3.2
  1
100V/200V
 41
0.8
  7
高3.2
100
AcDbText
  0
TEXT
  5
44C
330
36
100
AcDbEntity
  8
0
 62
     3
100
AcDbText
 10
-105.6459614146675
 20
-94.31443899999999
 30
0.0
 40
3.2
  1
AC150V用
 41
0.8
  7
高3.2
100
AcDbText
  0
TEXT
  5
44D
330
36
100
AcDbEntity
  8
0
 62
     3
100
AcDbText
 10
-105.6459614146675
 20
-99.31443899999997
 30
0.0
 40
3.2
  1
ネオン球
 41
0.8
  7
高3.2
100
AcDbText
  0
TEXT
  5
44E
330
36
100
AcDbEntity
  8
0
 62
     3
100
AcDbText
 10
-105.6459614146675
 20
-104.314439
 30
0.0
 40
3.2
  1
2PE 15A 125V
 41
0.8
  7
高3.2
100
AcDbText
  0
TEXT
  5
44F
330
36
100
AcDbEntity
  8
0
 62
     3
100
AcDbText
 10
-105.6459614146675
 20
-124.314439
 30
0.0
 40
3.2
  1
パネル，ベース
 41
0.8
  7
高3.2
100
AcDbText
  0
TEXT
  5
450
330
36
100
AcDbEntity
  8
0
 62
     3
100
AcDbText
 10
152.4418460317209
 20
-44.956386
 30
0.0
 40
3.2
  1
FTBO-300
  7
高3.2
100
AcDbText
  0
TEXT
  5
451
330
36
100
AcDbEntity
  8
0
 62
     3
100
AcDbText
 10
147.7912345664617
 20
-68.32543900000001
 30
0.0
 40
3.2
  1
3KVA　(連続)
  7
高3.2
100
AcDbText
  0
TEXT
  5
452
330
36
100
AcDbEntity
  8
0
 62
     3
100
AcDbText
 10
154.1158100317208
 20
-75.18977599999998
 30
0.0
 40
3.2
  1
12.0kg
  7
高3.2
100
AcDbText
  0
TEXT
  5
453
330
36
100
AcDbEntity
  8
0
 62
     3
100
AcDbText
 10
117.743944
 20
-120.394579
 30
0.0
 40
4.5
  1
FTBO-300
  7
高4.5
100
AcDbText
  0
TEXT
  5
454
330
36
100
AcDbEntity
  8
0
 62
     3
100
AcDbText
 10
-105.6459614146675
 20
-89.31443899999996
 30
0.0
 40
3.2
  1
100V/200V30A
 41
0.8
  7
高3.2
100
AcDbText
  0
TEXT
  5
455
330
36
100
AcDbEntity
  8
0
 62
     3
100
AcDbText
 10
138.4801411919338
 20
-61.791982
 30
0.0
 40
3.2
  1
単相115V 125V 200V
  7
高3.2
100
AcDbText
  0
TEXT
  5
456
330
36
100
AcDbEntity
  8
0
 62
     3
100
AcDbText
 10
-105.6459614146675
 20
-129.314439
 30
0.0
 40
3.2
  1
3.5sqx3cx2m
 41
0.8
  7
高3.2
100
AcDbText
  0
TEXT
  5
457
330
36
100
AcDbEntity
  8
0
 62
     3
100
AcDbText
 10
-122.6907720111478
 20
-129.314439
 30
0.0
 40
3.2
  1
SVCT
 41
0.8
  7
高3.2
100
AcDbText
  0
TEXT
  5
458
330
36
100
AcDbEntity
  8
0
 62
     3
100
AcDbText
 10
-168.2431687617929
 20
-79.31443899999994
 30
0.0
 40
3.2
  1
ゴムプラグ
 41
0.8
  7
高3.2
100
AcDbText
  0
TEXT
  5
459
330
36
100
AcDbEntity
  8
0
 62
     3
100
AcDbText
 10
-131.3176437063614
 20
-79.31443899999994
 30
0.0
 40
3.2
  1
1
 41
0.8
  7
高3.2
100
AcDbText
  0
TEXT
  5
45C
330
36
100
AcDbEntity
  8
0
 62
     3
100
AcDbText
 10
-105.6459614146675
 20
-79.31443899999994
 30
0.0
 40
3.2
  1
ME2538
 41
0.8
  7
高3.2
100
AcDbText
  0
LINE
  5
45D
330
36
100
AcDbEntity
  8
0
 62
     7
100
AcDbLine
 10
61.79876771163518
 20
-76.394279
 30
0.0
 11
55.38373471163517
 21
-76.394279
 31
0.0
  0
LINE
  5
45E
330
36
100
AcDbEntity
  8
0
 62
     7
100
AcDbLine
 10
94.6280627116352
 20
-89.16938100000001
 30
0.0
 11
65.04197671163518
 21
-89.16938100000001
 31
0.0
  0
LINE
  5
45F
330
36
100
AcDbEntity
  8
0
 62
     7
100
AcDbLine
 10
64.50565671163515
 20
-136.405484
 30
0.0
 11
64.50565671163515
 21
-130.901484
 31
0.0
  0
LINE
  5
460
330
36
100
AcDbEntity
  8
0
 62
     7
100
AcDbLine
 10
94.09174271163513
 20
-136.405484
 30
0.0
 11
64.50565671163515
 21
-136.405484
 31
0.0
  0
TEXT
  5
461
330
36
100
AcDbEntity
  8
0
 62
     3
100
AcDbText
 10
133.2743076086681
 20
-37.52979600000001
 30
0.0
 40
4.790016999999997
  1
主　　　仕　　　様
 41
0.788138
100
AcDbText
  0
TEXT
  5
462
330
36
100
AcDbEntity
  8
0
 62
     3
100
AcDbText
 10
53.29405071163518
 20
-43.294885
 30
0.0
 40
3.2
  1
入力プラグ結線
  7
高3.2
100
AcDbText
  0
TEXT
  5
463
330
36
100
AcDbEntity
  8
0
 62
     3
100
AcDbText
 10
53.69425171163516
 20
-48.89769799999999
 30
0.0
 40
3.2
  1
（入力切替スイッチ操作）
  7
高3.2
100
AcDbText
  0
TEXT
  5
464
330
36
100
AcDbEntity
  8
0
 62
     3
100
AcDbText
 10
-59.67100699999999
 20
69.996999
 30
0.0
 40
3.779999999999998
  1
日動工業株式会社
 41
0.833333
100
AcDbText
  0
CIRCLE
  5
465
330
36
100
AcDbEntity
  8
0
 62
     3
100
AcDbCircle
 10
-62.542489
 20
72.04279200000001
 30
0.0
 40
1.478399999999999
  0
TEXT
  5
466
330
36
100
AcDbEntity
  8
0
 62
     3
100
AcDbText
 10
-56.12248375834133
 20
46.45301548404268
 30
0.0
 40
2.5
  1
容量：3KVA
  7
高2.5
100
AcDbText
  0
CIRCLE
  5
48F
330
36
100
AcDbEntity
  8
0
 62
     3
100
AcDbCircle
 10
181.8882612548214
 20
73.43606760219405
 30
0.0
 40
8.4
  0
LINE
  5
490
330
36
100
AcDbEntity
  8
0
 62
     7
100
AcDbLine
 10
180.2882612548214
 20
78.03606760219404
 30
0.0
 11
183.4882612548213
 21
78.03606760219404
 31
0.0
  0
LINE
  5
491
330
36
100
AcDbEntity
  8
0
 62
     7
100
AcDbLine
 10
180.2882612548214
 20
77.23606760219404
 30
0.0
 11
183.4882612548213
 21
77.23606760219404
 31
0.0
  0
LINE
  5
492
330
36
100
AcDbEntity
  8
0
 62
     7
100
AcDbLine
 10
183.4882612548213
 20
78.03606760219404
 30
0.0
 11
183.4882612548213
 21
77.23606760219404
 31
0.0
  0
LINE
  5
493
330
36
100
AcDbEntity
  8
0
 62
     7
100
AcDbLine
 10
180.2882612548214
 20
78.03606760219404
 30
0.0
 11
180.2882612548214
 21
77.23606760219404
 31
0.0
  0
LINE
  5
494
330
36
100
AcDbEntity
  8
0
 62
     7
100
AcDbLine
 10
177.2882612548213
 20
71.83606760219404
 30
0.0
 11
177.2882612548213
 21
75.03606760219404
 31
0.0
  0
LINE
  5
495
330
36
100
AcDbEntity
  8
0
 62
     7
100
AcDbLine
 10
178.0882612548214
 20
71.83606760219404
 30
0.0
 11
178.0882612548214
 21
75.03606760219404
 31
0.0
  0
LINE
  5
496
330
36
100
AcDbEntity
  8
0
 62
     7
100
AcDbLine
 10
177.2882612548213
 20
75.03606760219404
 30
0.0
 11
178.0882612548214
 21
75.03606760219404
 31
0.0
  0
LINE
  5
497
330
36
100
AcDbEntity
  8
0
 62
     7
100
AcDbLine
 10
177.2882612548213
 20
71.83606760219404
 30
0.0
 11
178.0882612548214
 21
71.83606760219404
 31
0.0
  0
LINE
  5
498
330
36
100
AcDbEntity
  8
0
 62
     7
100
AcDbLine
 10
182.2882612548213
 20
71.23606760219404
 30
0.0
 11
182.2882612548213
 21
68.03606760219404
 31
0.0
  0
LINE
  5
499
330
36
100
AcDbEntity
  8
0
 62
     7
100
AcDbLine
 10
181.4882612548213
 20
71.23606760219404
 30
0.0
 11
181.4882612548213
 21
68.03606760219404
 31
0.0
  0
LINE
  5
49A
330
36
100
AcDbEntity
  8
0
 62
     7
100
AcDbLine
 10
182.2882612548213
 20
68.03606760219404
 30
0.0
 11
181.4882612548213
 21
68.03606760219404
 31
0.0
  0
LINE
  5
49B
330
36
100
AcDbEntity
  8
0
 62
     7
100
AcDbLine
 10
182.2882612548213
 20
71.23606760219404
 30
0.0
 11
181.4882612548213
 21
71.23606760219404
 31
0.0
  0
LINE
  5
49C
330
36
100
AcDbEntity
  8
0
 62
     7
100
AcDbLine
 10
186.4882612548214
 20
75.03606760219404
 30
0.0
 11
186.4882612548214
 21
71.83606760219404
 31
0.0
  0
LINE
  5
49D
330
36
100
AcDbEntity
  8
0
 62
     7
100
AcDbLine
 10
185.6882612548213
 20
75.03606760219404
 30
0.0
 11
185.6882612548213
 21
71.83606760219404
 31
0.0
  0
LINE
  5
49E
330
36
100
AcDbEntity
  8
0
 62
     7
100
AcDbLine
 10
186.4882612548214
 20
71.83606760219404
 30
0.0
 11
185.6882612548213
 21
71.83606760219404
 31
0.0
  0
LINE
  5
49F
330
36
100
AcDbEntity
  8
0
 62
     7
100
AcDbLine
 10
186.4882612548214
 20
75.03606760219404
 30
0.0
 11
185.6882612548213
 21
75.03606760219404
 31
0.0
  0
TEXT
  5
4A0
330
36
100
AcDbEntity
  8
0
 62
     3
100
AcDbText
 10
187.7614709027719
 20
72.11765611714466
 30
0.0
 40
2.56
  1
X
  7
高3.2
100
AcDbText
  0
TEXT
  5
4A1
330
36
100
AcDbEntity
  8
0
 62
     3
100
AcDbText
 10
181.1635931202163
 20
78.62006116834145
 30
0.0
 40
2.56
  1
Y
  7
高3.2
100
AcDbText
  0
TEXT
  5
4A2
330
36
100
AcDbEntity
  8
0
 62
     3
100
AcDbText
 10
174.4202477829216
 20
72.38242000379016
 30
0.0
 40
2.56
  1
Z
  7
高3.2
100
AcDbText
  0
TEXT
  5
5A7
330
36
100
AcDbEntity
  8
0
 62
     3
100
AcDbText
 10
199.619283
 20
119.740922
 30
0.0
 40
3.2
  1
担　当
  7
高3.2
100
AcDbText
  0
TEXT
  5
5A8
330
36
100
AcDbEntity
  8
0
 62
     3
100
AcDbText
 10
155.619283
 20
119.740922
 30
0.0
 40
3.2
  1
変更・追記内容
  7
高3.2
100
AcDbText
  0
TEXT
  5
5A9
330
36
100
AcDbEntity
  8
0
 62
     3
100
AcDbText
 10
130.7327980003393
 20
115.0703834900917
 30
0.0
 40
2.0
  1
1
  7
高2
100
AcDbText
  0
TEXT
  5
5AA
330
36
100
AcDbEntity
  8
0
 62
     3
100
AcDbText
 10
130.424286523582
 20
109.9005667778188
 30
0.0
 40
2.0
  1
2
  7
高2
100
AcDbText
  0
TEXT
  5
5AB
330
36
100
AcDbEntity
  8
0
 62
     3
100
AcDbText
 10
137.619283
 20
119.740922
 30
0.0
 40
3.2
  1
日　付
  7
高3.2
100
AcDbText
  0
TEXT
  5
5AC
330
36
100
AcDbEntity
  8
0
 62
     3
100
AcDbText
 10
137.619283
 20
124.7409219999999
 30
0.0
 40
3.2
  1
図　　　　面　　　　略　　　　歴
  7
高3.2
100
AcDbText
  0
TEXT
  5
5AD
330
36
100
AcDbEntity
  8
0
 62
     3
100
AcDbText
 10
127.619283
 20
119.740922
 30
0.0
 40
3.2
  1
記号
  7
高3.2
100
AcDbText
  0
LINE
  5
5AE
330
36
100
AcDbEntity
  8
0
 62
     7
100
AcDbLine
 10
131.119283
 20
113.0318180000001
 30
0.0
 11
129.219283
 21
109.740922
 31
0.0
  0
LINE
  5
5AF
330
36
100
AcDbEntity
  8
0
 62
     7
100
AcDbLine
 10
131.119283
 20
113.0318180000001
 30
0.0
 11
133.019283
 21
109.740922
 31
0.0
  0
LINE
  5
5B0
330
36
100
AcDbEntity
  8
0
 62
     7
100
AcDbLine
 10
129.219283
 20
109.740922
 30
0.0
 11
133.019283
 21
109.740922
 31
0.0
  0
LINE
  5
5B1
330
36
100
AcDbEntity
  8
0
 62
     7
100
AcDbLine
 10
131.119283
 20
118.0318190000001
 30
0.0
 11
129.219283
 21
114.740922
 31
0.0
  0
LINE
  5
5B2
330
36
100
AcDbEntity
  8
0
 62
     7
100
AcDbLine
 10
131.119283
 20
118.0318190000001
 30
0.0
 11
133.019283
 21
114.740922
 31
0.0
  0
LINE
  5
5B3
330
36
100
AcDbEntity
  8
0
 62
     7
100
AcDbLine
 10
129.219283
 20
114.740922
 30
0.0
 11
133.019283
 21
114.740922
 31
0.0
  0
LINE
  5
5B4
330
36
100
AcDbEntity
  8
0
 62
     3
100
AcDbLine
 10
126.119283
 20
124.240922
 30
0.0
 11
212.119283
 21
124.240922
 31
0.0
  0
LINE
  5
5B5
330
36
100
AcDbEntity
  8
0
 62
     3
100
AcDbLine
 10
126.119283
 20
119.240922
 30
0.0
 11
212.119283
 21
119.240922
 31
0.0
  0
LINE
  5
5B6
330
36
100
AcDbEntity
  8
0
 62
     7
100
AcDbLine
 10
126.119283
 20
114.240922
 30
0.0
 11
212.119283
 21
114.240922
 31
0.0
  0
LINE
  5
5B7
330
36
100
AcDbEntity
  8
0
 62
     3
100
AcDbLine
 10
126.119283
 20
109.240922
 30
0.0
 11
212.119283
 21
109.240922
 31
0.0
  0
LINE
  5
5B8
330
36
100
AcDbEntity
  8
0
 62
     7
100
AcDbLine
 10
198.119283
 20
109.240922
 30
0.0
 11
198.119283
 21
124.240922
 31
0.0
  0
LINE
  5
5B9
330
36
100
AcDbEntity
  8
0
 62
     7
100
AcDbLine
 10
154.119283
 20
109.240922
 30
0.0
 11
154.119283
 21
124.240922
 31
0.0
  0
LINE
  5
5BA
330
36
100
AcDbEntity
  8
0
 62
     7
100
AcDbLine
 10
136.119283
 20
109.240922
 30
0.0
 11
136.119283
 21
124.240922
 31
0.0
  0
LINE
  5
5BB
330
36
100
AcDbEntity
  8
0
 62
     3
100
AcDbLine
 10
126.119283
 20
109.240922
 30
0.0
 11
126.119283
 21
129.240922
 31
0.0
  0
TEXT
  5
728
330
36
100
AcDbEntity
  8
0
 62
     3
100
AcDbText
 10
-176.380717
 20
-74.31443900000002
 30
0.0
 40
3.2
  1
OP
 41
0.8
  7
高3.2
100
AcDbText
  0
LINE
  5
729
330
36
100
AcDbEntity
  8
0
 62
     3
100
AcDbLine
 10
41.39019220202998
 20
-69.81443900000001
 30
0.0
 11
-177.880717
 21
-69.81443900000001
 31
0.0
  0
TEXT
  5
72A
330
36
100
AcDbEntity
  8
0
 62
     3
100
AcDbText
 10
-168.2431687617929
 20
-74.31443900000002
 30
0.0
 40
3.2
  1
トランス用アダプター
 41
0.8
  7
高3.2
100
AcDbText
  0
TEXT
  5
72B
330
36
100
AcDbEntity
  8
0
 62
     3
100
AcDbText
 10
-131.3176437063614
 20
-74.31443900000002
 30
0.0
 40
3.2
  1
1式
 41
0.8
  7
高3.2
100
AcDbText
  0
TEXT
  5
72C
330
36
100
AcDbEntity
  8
0
 62
     3
100
AcDbText
 10
-105.6459614146675
 20
-74.31443899999995
 30
0.0
 40
3.2
  1
PA-4
 41
0.8
  7
高3.2
100
AcDbText
  0
TEXT
  5
7A5
330
36
100
AcDbEntity
  8
0
 62
     3
100
AcDbText
 10
-44.73497412590218
 20
-104.314439
 30
0.0
 40
3.2
  1
51356
 41
0.8
  7
高3.2
100
AcDbText
  0
TEXT
  5
7A7
330
36
100
AcDbEntity
  8
0
 62
     3
100
AcDbText
 10
-44.73497412590218
 20
-99.31443899999997
 30
0.0
 40
3.2
  1
54258
 41
0.8
  7
高3.2
100
AcDbText
  0
TEXT
  5
7A8
330
36
100
AcDbEntity
  8
0
 62
     3
100
AcDbText
 10
-44.73497412590218
 20
-94.31443899999999
 30
0.0
 40
3.2
  1
-
 41
0.8
  7
高3.2
100
AcDbText
  0
TEXT
  5
7A9
330
36
100
AcDbEntity
  8
0
 62
     3
100
AcDbText
 10
-44.73497412590218
 20
-89.31443900000003
 30
0.0
 40
3.2
  1
51764
 41
0.8
  7
高3.2
100
AcDbText
  0
TEXT
  5
7AA
330
36
100
AcDbEntity
  8
0
 62
     3
100
AcDbText
 10
-44.73497412590218
 20
-84.31443900000003
 30
0.0
 40
3.2
  1
-
 41
0.8
  7
高3.2
100
AcDbText
  0
TEXT
  5
7AB
330
36
100
AcDbEntity
  8
0
 62
     3
100
AcDbText
 10
-44.73497412590218
 20
-114.314439
 30
0.0
 40
3.2
  1
54497
 41
0.8
  7
高3.2
100
AcDbText
  0
TEXT
  5
7AC
330
36
100
AcDbEntity
  8
0
 62
     3
100
AcDbText
 10
-44.73497412590218
 20
-144.314439
 30
0.0
 40
3.2
  1
コード
 41
0.8
  7
高3.2
100
AcDbText
  0
LINE
  5
7AD
330
36
100
AcDbEntity
  8
0
 62
     7
100
AcDbLine
 10
-46.23497412590217
 20
-144.814439
 30
0.0
 11
-46.23497412590217
 21
-69.81443900000001
 31
0.0
  0
TEXT
  5
7AE
330
36
100
AcDbEntity
  8
0
 62
     3
100
AcDbText
 10
-44.73497412590218
 20
-119.314439
 30
0.0
 40
3.2
  1
53819
 41
0.8
  7
高3.2
100
AcDbText
  0
TEXT
  5
7AF
330
36
100
AcDbEntity
  8
0
 62
     3
100
AcDbText
 10
-44.73497412590218
 20
-124.314439
 30
0.0
 40
3.2
  1
-
 41
0.8
  7
高3.2
100
AcDbText
  0
TEXT
  5
7B0
330
36
100
AcDbEntity
  8
0
 62
     3
100
AcDbText
 10
-44.73497412590218
 20
-129.314439
 30
0.0
 40
3.2
  1
51326
 41
0.8
  7
高3.2
100
AcDbText
  0
TEXT
  5
7B1
330
36
100
AcDbEntity
  8
0
 62
     3
100
AcDbText
 10
-44.73497412590218
 20
-134.314439
 30
0.0
 40
3.2
  1
-
 41
0.8
  7
高3.2
100
AcDbText
  0
TEXT
  5
7B2
330
36
100
AcDbEntity
  8
0
 62
     3
100
AcDbText
 10
-44.73497412590218
 20
-139.314439
 30
0.0
 40
3.2
  1
-
 41
0.8
  7
高3.2
100
AcDbText
  0
TEXT
  5
7B3
330
36
100
AcDbEntity
  8
0
 62
     3
100
AcDbText
 10
-44.73497412590218
 20
-79.31443899999994
 30
0.0
 40
3.2
  1
51454
 41
0.8
  7
高3.2
100
AcDbText
  0
TEXT
  5
7B4
330
36
100
AcDbEntity
  8
0
 62
     3
100
AcDbText
 10
-44.73497412590218
 20
-74.31443900000002
 30
0.0
 40
3.2
  1
5760
 41
0.8
  7
高3.2
100
AcDbText
  0
TEXT
  5
7B5
330
36
100
AcDbEntity
  8
0
 62
     3
100
AcDbText
 10
-105.6459614146675
 20
-134.3144389999999
 30
0.0
 40
3.2
  1
上部カバー、ベース(バックパネル一体型)
 41
0.8
  7
高3.2
100
AcDbText
  0
TEXT
  5
7B6
330
36
100
AcDbEntity
  8
0
 62
     3
100
AcDbText
 10
-29.05944751796049
 20
-104.314439
 30
0.0
 40
3.2
  1
2PE-W(アース付コンセント白)
 41
0.6
  7
高3.2
100
AcDbText
  0
TEXT
  5
7B8
330
36
100
AcDbEntity
  8
0
 62
     3
100
AcDbText
 10
-29.05944751796049
 20
-99.31443899999997
 30
0.0
 40
3.2
  1
NB-120/150用　電源ランプ
 41
0.6
  7
高3.2
100
AcDbText
  0
TEXT
  5
7B9
330
36
100
AcDbEntity
  8
0
 62
     3
100
AcDbText
 10
-29.05944751796049
 20
-94.31443899999999
 30
0.0
 40
3.2
  1
-
 41
0.6
  7
高3.2
100
AcDbText
  0
TEXT
  5
7BA
330
36
100
AcDbEntity
  8
0
 62
     3
100
AcDbText
 10
-29.05944751796049
 20
-89.31443900000003
 30
0.0
 40
3.2
  1
B-2EA-30A
 41
0.6
  7
高3.2
100
AcDbText
  0
TEXT
  5
7BB
330
36
100
AcDbEntity
  8
0
 62
     3
100
AcDbText
 10
-29.05944751796049
 20
-84.31443900000003
 30
0.0
 40
3.2
  1
-
 41
0.6
  7
高3.2
100
AcDbText
  0
TEXT
  5
7BC
330
36
100
AcDbEntity
  8
0
 62
     3
100
AcDbText
 10
-29.05944751796049
 20
-114.314439
 30
0.0
 40
3.2
  1
ME2829T09W　接地2P15A250Vコンセント白(NTBO用)
 41
0.6
  7
高3.2
100
AcDbText
  0
TEXT
  5
7BD
330
36
100
AcDbEntity
  8
0
 62
     3
100
AcDbText
 10
-29.05944751796049
 20
-144.314439
 30
0.0
 40
3.2
  1
コード番号名称
 41
0.6
  7
高3.2
100
AcDbText
  0
LINE
  5
7BE
330
36
100
AcDbEntity
  8
0
 62
     7
100
AcDbLine
 10
-30.55944751796048
 20
-144.814439
 30
0.0
 11
-30.55944751796048
 21
-69.81443900000001
 31
0.0
  0
TEXT
  5
7BF
330
36
100
AcDbEntity
  8
0
 62
     3
100
AcDbText
 10
-29.05944751796049
 20
-119.314439
 30
0.0
 40
3.2
  1
NTB/TBO/NTBO兼用　脚ゴム(ビス付)(1/5個)
 41
0.6
  7
高3.2
100
AcDbText
  0
TEXT
  5
7C0
330
36
100
AcDbEntity
  8
0
 62
     3
100
AcDbText
 10
-29.05944751796049
 20
-124.314439
 30
0.0
 40
3.2
  1
-
 41
0.6
  7
高3.2
100
AcDbText
  0
TEXT
  5
7C1
330
36
100
AcDbEntity
  8
0
 62
     3
100
AcDbText
 10
-29.05944751796049
 20
-129.314439
 30
0.0
 40
3.2
  1
SVCT3.5x3x2.5M防雨型4Pプラグ付
 41
0.6
  7
高3.2
100
AcDbText
  0
TEXT
  5
7C2
330
36
100
AcDbEntity
  8
0
 62
     3
100
AcDbText
 10
-29.05944751796049
 20
-134.314439
 30
0.0
 40
3.2
  1
-
 41
0.6
  7
高3.2
100
AcDbText
  0
TEXT
  5
7C3
330
36
100
AcDbEntity
  8
0
 62
     3
100
AcDbText
 10
-29.05944751796049
 20
-139.314439
 30
0.0
 40
3.2
  1
-
 41
0.6
  7
高3.2
100
AcDbText
  0
TEXT
  5
7C4
330
36
100
AcDbEntity
  8
0
 62
     3
100
AcDbText
 10
-29.05944751796049
 20
-79.31443899999994
 30
0.0
 40
3.2
  1
ME2538接地2P15Aプラグ
 41
0.6
  7
高3.2
100
AcDbText
  0
TEXT
  5
7C5
330
36
100
AcDbEntity
  8
0
 62
     3
100
AcDbText
 10
-29.05944751796049
 20
-74.31443900000002
 30
0.0
 40
3.2
  1
PA-4(トラパックアダプター)三相200Vコン.E付100Vプラグ
 41
0.6
  7
高3.2
100
AcDbText
  0
CIRCLE
  5
8A7
330
36
100
AcDbEntity
  8
0
 62
     7
100
AcDbCircle
 10
-13.68209999129028
 20
97.399268
 30
0.0
 40
5.0
  0
TEXT
  5
8A8
330
36
100
AcDbEntity
  8
0
 62
     4
100
AcDbText
 10
-15.81627594230742
 20
94.34101121610806
 30
0.0
 40
6.299999999999998
  1
7
  7
高6.3
100
AcDbText
  0
TEXT
  5
8AC
330
36
100
AcDbEntity
  8
0
 62
     3
100
AcDbText
 10
-131.3176437063614
 20
-109.314439
 30
0.0
 40
3.2
  1
1
 41
0.8
  7
高3.2
100
AcDbText
  0
TEXT
  5
8AD
330
36
100
AcDbEntity
  8
0
 62
     3
100
AcDbText
 10
-168.2431687617929
 20
-109.314439
 30
0.0
 40
3.2
  1
Wコンセント(黒)115V
 41
0.8
  7
高3.2
100
AcDbText
  0
TEXT
  5
8AE
330
36
100
AcDbEntity
  8
0
 62
     3
100
AcDbText
 10
-122.6907720111478
 20
-109.314439
 30
0.0
 40
3.2
  1
ABS樹脂
 41
0.8
  7
高3.2
100
AcDbText
  0
TEXT
  5
8AF
330
36
100
AcDbEntity
  8
0
 62
     3
100
AcDbText
 10
-105.6459614146675
 20
-109.314439
 30
0.0
 40
3.2
  1
2PE 15A 125V
 41
0.8
  7
高3.2
100
AcDbText
  0
TEXT
  5
8B0
330
36
100
AcDbEntity
  8
0
 62
     3
100
AcDbText
 10
-44.73497412590221
 20
-109.314439
 30
0.0
 40
3.2
  1
51420
 41
0.8
  7
高3.2
100
AcDbText
  0
TEXT
  5
8B1
330
36
100
AcDbEntity
  8
0
 62
     3
100
AcDbText
 10
-29.05944751796051
 20
-109.314439
 30
0.0
 40
3.2
  1
2PE-BK(金具付コンセント黒)
 41
0.6
  7
高3.2
100
AcDbText
  0
TEXT
  5
B31
330
36
100
AcDbEntity
  8
0
 62
     3
100
AcDbText
 10
-58.02331129886988
 20
58.01234415317775
 30
0.0
 40
2.5
  1
降圧昇圧自在型
  7
高2.5
100
AcDbText
  0
LINE
  5
B32
330
36
100
AcDbEntity
  8
0
  6
Continuous
100
AcDbLine
 10
-66.71280366334304
 20
61.37703138110303
 30
0.0
 11
-26.95837059449195
 21
61.37703138110303
 31
0.0
  0
LINE
  5
B33
330
36
100
AcDbEntity
  8
0
  6
Continuous
100
AcDbLine
 10
-66.71280366334304
 20
57.0897682238915
 30
0.0
 11
-26.95837059449195
 21
57.0897682238915
 31
0.0
  0
LINE
  5
B34
330
36
100
AcDbEntity
  8
0
  6
Continuous
100
AcDbLine
 10
-66.71280366334304
 20
49.87197109596241
 30
0.0
 11
-26.95837059449195
 21
49.87197109596241
 31
0.0
  0
LINE
  5
B35
330
36
100
AcDbEntity
  8
0
  6
Continuous
100
AcDbLine
 10
-66.71280366334304
 20
45.58470793875083
 30
0.0
 11
-26.95837059449195
 21
45.58470793875083
 31
0.0
  0
LINE
  5
B36
330
36
100
AcDbEntity
  8
0
  6
Continuous
100
AcDbLine
 10
-66.71280366334304
 20
61.37703138110303
 30
0.0
 11
-66.71280366334304
 21
57.0897682238915
 31
0.0
  0
LINE
  5
B37
330
36
100
AcDbEntity
  8
0
  6
Continuous
100
AcDbLine
 10
-26.95837059449195
 20
45.58470793875083
 30
0.0
 11
-26.95837059449195
 21
49.87197109596241
 31
0.0
  0
LINE
  5
B38
330
36
100
AcDbEntity
  8
0
  6
Continuous
100
AcDbLine
 10
-66.71280366334304
 20
49.87197109596241
 30
0.0
 11
-66.71280366334304
 21
45.58470793875083
 31
0.0
  0
LINE
  5
B39
330
36
100
AcDbEntity
  8
0
  6
Continuous
100
AcDbLine
 10
-26.95837059449195
 20
57.0897682238915
 30
0.0
 11
-26.95837059449195
 21
61.37703138110303
 31
0.0
  0
TEXT
  5
B3A
330
36
100
AcDbEntity
  8
0
 62
     7
100
AcDbText
 10
-66.06109202555444
 20
53.61654216622604
 30
0.0
 40
2.0
  1
入力電圧：単相100V/200V　50/60Hz
 41
0.75
  7
高2
100
AcDbText
  0
TEXT
  5
B3B
330
36
100
AcDbEntity
  8
0
 62
     7
100
AcDbText
 10
-66.06109202555444
 20
50.63173878063889
 30
0.0
 40
2.0
  1
出力電圧：単相200V　単相115V/125V
 41
0.75
  7
高2
100
AcDbText
  0
LINE
  5
B41
330
36
100
AcDbEntity
  8
0
 62
     3
100
AcDbLine
 10
-71.6633365
 20
-12.327433
 30
0.0
 11
-70.58125849999997
 21
-5.188062999999996
 31
0.0
  0
LINE
  5
B42
330
36
100
AcDbEntity
  8
0
 62
     3
100
AcDbLine
 10
-82.27904749999998
 20
-12.327433
 30
0.0
 11
-83.36112550000001
 21
-5.188062999999996
 31
0.0
  0
ARC
  5
B43
330
36
100
AcDbEntity
  8
0
 62
     3
100
AcDbCircle
 10
-81.7834335
 20
-12.261351
 30
0.0
 40
0.5
100
AcDbArc
 50
187.594643
 51
270.0
  0
LINE
  5
B44
330
36
100
AcDbEntity
  8
0
 62
     3
100
AcDbLine
 10
-72.1589505
 20
-12.761351
 30
0.0
 11
-81.7834335
 21
-12.761351
 31
0.0
  0
ARC
  5
B45
330
36
100
AcDbEntity
  8
0
 62
     3
100
AcDbCircle
 10
-72.1589505
 20
-12.261351
 30
0.0
 40
0.5
100
AcDbArc
 50
270.0
 51
352.4053569999999
  0
LINE
  5
B48
330
36
100
AcDbEntity
  8
0
 62
     3
100
AcDbLine
 10
86.33890800000001
 20
-7.210650999999997
 30
0.0
 11
86.07890800000001
 21
-5.260651
 31
0.0
  0
LINE
  5
B49
330
36
100
AcDbEntity
  8
0
 62
     3
100
AcDbLine
 10
86.33890800000001
 20
-7.210650999999997
 30
0.0
 11
87.02105300000004
 21
-12.326733
 31
0.0
  0
ARC
  5
B4A
330
36
100
AcDbEntity
  8
0
 62
     3
100
AcDbCircle
 10
87.51666699999999
 20
-12.260651
 30
0.0
 40
0.5
100
AcDbArc
 50
187.594643
 51
270.0
  0
LINE
  5
B4B
330
36
100
AcDbEntity
  8
0
 62
     3
100
AcDbLine
 10
98.318908
 20
-7.210650999999997
 30
0.0
 11
97.63676400000001
 21
-12.326733
 31
0.0
  0
ARC
  5
B4C
330
36
100
AcDbEntity
  8
0
 62
     3
100
AcDbCircle
 10
97.14114999999999
 20
-12.260651
 30
0.0
 40
0.5
100
AcDbArc
 50
270.0
 51
352.4053569999999
  0
LINE
  5
B4D
330
36
100
AcDbEntity
  8
0
 62
     3
100
AcDbLine
 10
98.318908
 20
-7.210650999999997
 30
0.0
 11
98.57890799999999
 21
-5.260651
 31
0.0
  0
LINE
  5
B4E
330
36
100
AcDbEntity
  8
0
 62
     3
100
AcDbLine
 10
97.14114999999999
 20
-12.760651
 30
0.0
 11
87.51666699999999
 21
-12.760651
 31
0.0
  0
TEXT
  5
E08
330
36
100
AcDbEntity
  8
0
  6
Continuous
 62
     4
100
AcDbText
 10
-85.68171835517155
 20
-18.5874721232426
 30
0.0
 40
3.0
  1
アース金具
100
AcDbText
1001
ACAD
1000
MTEXTBEGIN
1070
    73
1070
     1
1070
    44
1040
1.0
1070
    74
1070
     0
1000
MTEXTEND
  0
LINE
  5
E25
330
36
100
AcDbEntity
  8
0
 62
     7
100
AcDbLine
 10
163.609549
 20
12.464349
 30
0.0
 11
163.335595
 21
12.165726
 31
0.0
  0
LINE
  5
E26
330
36
100
AcDbEntity
  8
0
 62
     7
100
AcDbLine
 10
163.335595
 20
12.165726
 30
0.0
 11
163.102759
 21
11.842728
 31
0.0
  0
LINE
  5
E27
330
36
100
AcDbEntity
  8
0
 62
     7
100
AcDbLine
 10
163.102759
 20
11.842728
 30
0.0
 11
162.937623
 21
11.479457
 31
0.0
  0
LINE
  5
E28
330
36
100
AcDbEntity
  8
0
 62
     7
100
AcDbLine
 10
162.937623
 20
11.479457
 30
0.0
 11
162.809302
 21
11.095648
 31
0.0
  0
LINE
  5
E29
330
36
100
AcDbEntity
  8
0
 62
     7
100
AcDbLine
 10
162.809302
 20
11.095648
 30
0.0
 11
162.692681
 21
10.729246
 31
0.0
  0
LINE
  5
E2A
330
36
100
AcDbEntity
  8
0
 62
     7
100
AcDbLine
 10
162.692681
 20
10.729246
 30
0.0
 11
162.609396
 21
10.355292
 31
0.0
  0
LINE
  5
E2B
330
36
100
AcDbEntity
  8
0
 62
     7
100
AcDbLine
 10
162.609396
 20
10.355292
 30
0.0
 11
162.635406
 21
9.649136999999999
 31
0.0
  0
LINE
  5
E2C
330
36
100
AcDbEntity
  8
0
 62
     7
100
AcDbLine
 10
162.635406
 20
9.649136999999999
 30
0.0
 11
162.902838
 21
9.000522999999997
 31
0.0
  0
LINE
  5
E2D
330
36
100
AcDbEntity
  8
0
 62
     7
100
AcDbLine
 10
162.902838
 20
9.000522999999997
 30
0.0
 11
163.195676
 21
8.651315999999999
 31
0.0
  0
LINE
  5
E2E
330
36
100
AcDbEntity
  8
0
 62
     7
100
AcDbLine
 10
163.195676
 20
8.651315999999999
 30
0.0
 11
163.509924
 21
8.32008
 31
0.0
  0
LINE
  5
E2F
330
36
100
AcDbEntity
  8
0
 62
     7
100
AcDbLine
 10
163.509924
 20
8.32008
 30
0.0
 11
163.934358
 21
7.698357
 31
0.0
  0
LINE
  5
E30
330
36
100
AcDbEntity
  8
0
 62
     7
100
AcDbLine
 10
163.934358
 20
7.698357
 30
0.0
 11
164.275336
 21
7.014349
 31
0.0
  0
LINE
  5
E31
330
36
100
AcDbEntity
  8
0
 62
     7
100
AcDbLine
 10
162.902838
 20
9.000522999999997
 30
0.0
 11
162.979346
 21
8.452823999999999
 31
0.0
  0
LINE
  5
E32
330
36
100
AcDbEntity
  8
0
 62
     7
100
AcDbLine
 10
162.979346
 20
8.452823999999999
 30
0.0
 11
163.102759
 21
7.906802
 31
0.0
  0
LINE
  5
E33
330
36
100
AcDbEntity
  8
0
 62
     7
100
AcDbLine
 10
163.102759
 20
7.906802
 30
0.0
 11
163.180271
 21
7.69038
 31
0.0
  0
LINE
  5
E34
330
36
100
AcDbEntity
  8
0
 62
     7
100
AcDbLine
 10
163.180271
 20
7.69038
 30
0.0
 11
163.296561
 21
7.499638
 31
0.0
  0
LINE
  5
E35
330
36
100
AcDbEntity
  8
0
 62
     7
100
AcDbLine
 10
163.296561
 20
7.499638
 30
0.0
 11
163.4491139999999
 21
7.364322999999997
 31
0.0
  0
LINE
  5
E36
330
36
100
AcDbEntity
  8
0
 62
     7
100
AcDbLine
 10
163.4491139999999
 20
7.364322999999997
 30
0.0
 11
163.629752
 21
7.259375
 31
0.0
  0
LINE
  5
E37
330
36
100
AcDbEntity
  8
0
 62
     7
100
AcDbLine
 10
163.629752
 20
7.259375
 30
0.0
 11
163.949285
 21
7.123742
 31
0.0
  0
LINE
  5
E38
330
36
100
AcDbEntity
  8
0
 62
     7
100
AcDbLine
 10
163.949285
 20
7.123742
 30
0.0
 11
164.275336
 21
7.014349
 31
0.0
  0
LINE
  5
E39
330
36
100
AcDbEntity
  8
0
 62
     7
100
AcDbLine
 10
160.373648
 20
12.464349
 30
0.0
 11
159.662295
 21
11.48447
 31
0.0
  0
LINE
  5
E3A
330
36
100
AcDbEntity
  8
0
 62
     7
100
AcDbLine
 10
159.662295
 20
11.48447
 30
0.0
 11
159.161322
 21
10.436604
 31
0.0
  0
LINE
  5
E3B
330
36
100
AcDbEntity
  8
0
 62
     7
100
AcDbLine
 10
159.161322
 20
10.436604
 30
0.0
 11
159.0509139999999
 21
9.904906999999999
 31
0.0
  0
LINE
  5
E3C
330
36
100
AcDbEntity
  8
0
 62
     7
100
AcDbLine
 10
159.0509139999999
 20
9.904906999999999
 30
0.0
 11
159.00788
 21
9.342271999999999
 31
0.0
  0
LINE
  5
E3D
330
36
100
AcDbEntity
  8
0
 62
     7
100
AcDbLine
 10
159.00788
 20
9.342271999999999
 30
0.0
 11
159.011538
 21
9.073320999999999
 31
0.0
  0
LINE
  5
E3E
330
36
100
AcDbEntity
  8
0
 62
     7
100
AcDbLine
 10
159.011538
 20
9.073320999999999
 30
0.0
 11
159.067786
 21
8.82873
 31
0.0
  0
LINE
  5
E3F
330
36
100
AcDbEntity
  8
0
 62
     7
100
AcDbLine
 10
159.067786
 20
8.82873
 30
0.0
 11
159.43084
 21
8.449215999999998
 31
0.0
  0
LINE
  5
E40
330
36
100
AcDbEntity
  8
0
 62
     7
100
AcDbLine
 10
159.43084
 20
8.449215999999998
 30
0.0
 11
159.888236
 21
8.107939
 31
0.0
  0
LINE
  5
E41
330
36
100
AcDbEntity
  8
0
 62
     7
100
AcDbLine
 10
159.888236
 20
8.107939
 30
0.0
 11
160.040442
 21
7.921424
 31
0.0
  0
LINE
  5
E42
330
36
100
AcDbEntity
  8
0
 62
     7
100
AcDbLine
 10
160.040442
 20
7.921424
 30
0.0
 11
160.162116
 21
7.714836999999997
 31
0.0
  0
LINE
  5
E43
330
36
100
AcDbEntity
  8
0
 62
     7
100
AcDbLine
 10
160.162116
 20
7.714836999999997
 30
0.0
 11
160.323987
 21
7.369032
 31
0.0
  0
LINE
  5
E44
330
36
100
AcDbEntity
  8
0
 62
     7
100
AcDbLine
 10
160.323987
 20
7.369032
 30
0.0
 11
160.466681
 21
7.014349
 31
0.0
  0
LINE
  5
E45
330
36
100
AcDbEntity
  8
0
 62
     7
100
AcDbLine
 10
160.373648
 20
12.464349
 30
0.0
 11
160.457204
 21
11.659858
 31
0.0
  0
LINE
  5
E46
330
36
100
AcDbEntity
  8
0
 62
     7
100
AcDbLine
 10
160.457204
 20
11.659858
 30
0.0
 11
160.4354
 21
10.863331
 31
0.0
  0
LINE
  5
E47
330
36
100
AcDbEntity
  8
0
 62
     7
100
AcDbLine
 10
160.4354
 20
10.863331
 30
0.0
 11
160.37696
 21
10.551185
 31
0.0
  0
LINE
  5
E48
330
36
100
AcDbEntity
  8
0
 62
     7
100
AcDbLine
 10
160.37696
 20
10.551185
 30
0.0
 11
160.295401
 21
10.242802
 31
0.0
  0
LINE
  5
E49
330
36
100
AcDbEntity
  8
0
 62
     7
100
AcDbLine
 10
160.295401
 20
10.242802
 30
0.0
 11
160.1126439999999
 21
9.688500999999996
 31
0.0
  0
LINE
  5
E4A
330
36
100
AcDbEntity
  8
0
 62
     7
100
AcDbLine
 10
160.1126439999999
 20
9.688500999999996
 30
0.0
 11
159.908408
 21
9.142357999999999
 31
0.0
  0
LINE
  5
E4B
330
36
100
AcDbEntity
  8
0
 62
     7
100
AcDbLine
 10
159.908408
 20
9.142357999999999
 30
0.0
 11
159.77137
 21
8.782022999999997
 31
0.0
  0
LINE
  5
E4C
330
36
100
AcDbEntity
  8
0
 62
     7
100
AcDbLine
 10
159.77137
 20
8.782022999999997
 30
0.0
 11
159.634512
 21
8.421566999999999
 31
0.0
  0
LINE
  5
E4D
330
36
100
AcDbEntity
  8
0
100
AcDbLine
 10
-132.221192
 20
-5.510651
 30
0.0
 11
-132.221192
 21
-28.22613767095641
 31
0.0
  0
LINE
  5
E4E
330
36
100
AcDbEntity
  8
0
100
AcDbLine
 10
-21.721192
 20
-5.510651
 30
0.0
 11
-21.721192
 21
-28.22613767095641
 31
0.0
  0
LINE
  5
E4F
330
36
100
AcDbEntity
  8
0
100
AcDbLine
 10
-129.721192
 20
-26.97613767095641
 30
0.0
 11
-24.221192
 21
-26.97613767095641
 31
0.0
  0
LINE
  5
E53
330
36
100
AcDbEntity
  8
0
100
AcDbLine
 10
52.26666700000001
 20
-12.760651
 30
0.0
 11
18.25096399999998
 21
-12.76065099999999
 31
0.0
  0
LINE
  5
E54
330
36
100
AcDbEntity
  8
0
100
AcDbLine
 10
67.46879200000001
 20
94.02091699999999
 30
0.0
 11
18.250964
 21
94.02091700000001
 31
0.0
  0
LINE
  5
E55
330
36
100
AcDbEntity
  8
0
100
AcDbLine
 10
19.50096399999997
 20
-10.26065099999999
 30
0.0
 11
19.500964
 21
91.52091700000001
 31
0.0
  0
LINE
  5
E59
330
36
100
AcDbEntity
  8
0
100
AcDbLine
 10
29.722585
 20
33.148827
 30
0.0
 11
29.722585
 21
-18.930273
 31
0.0
  0
LINE
  5
E5A
330
36
100
AcDbEntity
  8
0
100
AcDbLine
 10
141.328908
 20
-5.510651
 30
0.0
 11
141.328908
 21
-18.930273
 31
0.0
  0
LINE
  5
E5B
330
36
100
AcDbEntity
  8
0
100
AcDbLine
 10
32.222585
 20
-17.680273
 30
0.0
 11
138.828908
 21
-17.680273
 31
0.0
  0
LINE
  5
E5F
330
36
100
AcDbEntity
  8
0
  6
Continuous
100
AcDbLine
 10
-61.88344878900319
 20
-6.728796661757724
 30
0.0
 11
-65.35671835517155
 21
-17.0874721232426
 31
0.0
1001
ACAD
1000
DSTYLE
1002
{
1070
   147
1040
0.625
1070
    77
1070
     0
1002
}
  0
LINE
  5
E60
330
36
100
AcDbEntity
  8
0
  6
Continuous
100
AcDbLine
 10
-65.35671835517155
 20
-17.0874721232426
 30
0.0
 11
-67.85671835517155
 21
-17.0874721232426
 31
0.0
1001
ACAD
1000
DSTYLE
1002
{
1070
   147
1040
0.625
1070
    77
1070
     0
1002
}
  0
LINE
  5
E61
330
36
100
AcDbEntity
  8
0
  6
ByBlock
 62
     0
370
    -2
100
AcDbLine
 10
-62.51856982076551
 20
-6.515840231309105
 30
0.0
 11
-61.08868399999999
 21
-4.358491000000004
 31
0.0
  0
LINE
  5
E62
330
36
100
AcDbEntity
  8
0
  6
ByBlock
 62
     0
370
    -2
100
AcDbLine
 10
-61.08868399999999
 20
-4.358491000000004
 30
0.0
 11
-61.24832775724087
 21
-6.941753092206342
 31
0.0
  0
LINE
  5
E63
330
36
100
AcDbEntity
  8
0
  6
ByBlock
 62
     0
370
    -2
100
AcDbLine
 10
-61.08868399999999
 20
-4.358491000000004
 30
0.0
 11
-61.88344878900319
 21
-6.728796661757723
 31
0.0
  0
LINE
  5
E64
330
36
100
AcDbEntity
  8
0
  6
Continuous
100
AcDbLine
 10
-51.87989802801448
 20
38.98305466128974
 30
0.0
 11
-16.41847635855627
 21
93.21450464030231
 31
0.0
1001
ACAD
1000
DSTYLE
1002
{
1070
   147
1040
0.625
1070
    77
1070
     0
1002
}
  0
LINE
  5
E65
330
36
100
AcDbEntity
  8
0
  6
ByBlock
 62
     0
370
    -2
100
AcDbLine
 10
-51.31924644928066
 20
38.61645000567346
 30
0.0
 11
-53.24808621164748
 21
36.8906729814409
 31
0.0
  0
LINE
  5
E66
330
36
100
AcDbEntity
  8
0
  6
ByBlock
 62
     0
370
    -2
100
AcDbLine
 10
-53.24808621164748
 20
36.8906729814409
 30
0.0
 11
-52.44054960674829
 21
39.34965931690602
 31
0.0
  0
LINE
  5
E67
330
36
100
AcDbEntity
  8
0
  6
ByBlock
 62
     0
370
    -2
100
AcDbLine
 10
-53.24808621164748
 20
36.8906729814409
 30
0.0
 11
-51.87989802801448
 21
38.98305466128974
 31
0.0
  0
LINE
  5
E68
330
36
100
AcDbEntity
  8
0
  6
Continuous
100
AcDbLine
 10
152.1907366328154
 20
14.86008455760972
 30
0.0
 11
156.5136787343692
 21
29.35585188478056
 31
0.0
1001
ACAD
1000
DSTYLE
1002
{
1070
   147
1040
0.625
1070
    77
1070
     0
1002
}
  0
LINE
  5
E69
330
36
100
AcDbEntity
  8
0
  6
ByBlock
 62
     0
370
    -2
100
AcDbLine
 10
152.8326715797414
 20
14.66864608140547
 30
0.0
 11
151.476278
 21
12.464349
 31
0.0
  0
LINE
  5
E6A
330
36
100
AcDbEntity
  8
0
  6
ByBlock
 62
     0
370
    -2
100
AcDbLine
 10
151.476278
 20
12.464349
 30
0.0
 11
151.5488016858894
 21
15.05152303381397
 31
0.0
  0
LINE
  5
E6B
330
36
100
AcDbEntity
  8
0
  6
ByBlock
 62
     0
370
    -2
100
AcDbLine
 10
151.476278
 20
12.464349
 30
0.0
 11
152.1907366328154
 21
14.86008455760972
 31
0.0
  0
LINE
  5
E6C
330
36
100
AcDbEntity
  8
0
  6
Continuous
100
AcDbLine
 10
145.7850279205309
 20
57.21058228031211
 30
0.0
 11
154.3780281589381
 21
65.66302043937581
 31
0.0
1001
ACAD
1000
DSTYLE
1002
{
1070
   147
1040
0.625
1070
    77
1070
     0
1002
}
  0
LINE
  5
E6D
330
36
100
AcDbEntity
  8
0
  6
ByBlock
 62
     0
370
    -2
100
AcDbLine
 10
146.2547772920357
 20
56.73302108608978
 30
0.0
 11
144.002744
 21
55.4574525
 31
0.0
  0
LINE
  5
E6E
330
36
100
AcDbEntity
  8
0
  6
ByBlock
 62
     0
370
    -2
100
AcDbLine
 10
144.002744
 20
55.4574525
 30
0.0
 11
145.315278549026
 21
57.68814347453442
 31
0.0
  0
LINE
  5
E6F
330
36
100
AcDbEntity
  8
0
  6
ByBlock
 62
     0
370
    -2
100
AcDbLine
 10
144.002744
 20
55.4574525
 30
0.0
 11
145.7850279205309
 21
57.21058228031211
 31
0.0
  0
LINE
  5
E70
330
36
100
AcDbEntity
  8
0
  6
Continuous
100
AcDbLine
 10
133.2532590722752
 20
71.49587424974868
 30
0.0
 11
154.1614638329133
 21
89.58628597974621
 31
0.0
1001
ACAD
1000
DSTYLE
1002
{
1070
   341
1005
6BA
1070
   147
1040
0.625
1070
    77
1070
     0
1002
}
  0
LINE
  5
E72
330
36
100
AcDbEntity
  8
0
  6
Continuous
100
AcDbLine
 10
-127.6894373063069
 20
-7.960142591729947
 30
0.0
 11
-147.4069963873861
 21
-1.3225318165401
 31
0.0
1001
ACAD
1000
DSTYLE
1002
{
1070
   147
1040
0.625
1070
    77
1070
     0
1002
}
  0
LINE
  5
E73
330
36
100
AcDbEntity
  8
0
  6
ByBlock
 62
     0
370
    -2
100
AcDbLine
 10
-127.4757197347664
 20
-7.32527727855631
 30
0.0
 11
-125.320086
 21
-8.757747999999999
 31
0.0
  0
LINE
  5
E74
330
36
100
AcDbEntity
  8
0
  6
ByBlock
 62
     0
370
    -2
100
AcDbLine
 10
-125.320086
 20
-8.757747999999999
 30
0.0
 11
-127.9031548778475
 21
-8.595007904903582
 31
0.0
  0
LINE
  5
E75
330
36
100
AcDbEntity
  8
0
  6
ByBlock
 62
     0
370
    -2
100
AcDbLine
 10
-125.320086
 20
-8.757747999999999
 30
0.0
 11
-127.6894373063069
 21
-7.960142591729947
 31
0.0
  0
LINE
  5
E76
330
36
100
AcDbEntity
  8
0
  6
Continuous
100
AcDbLine
 10
-124.2844550897947
 20
19.13685254275879
 30
0.0
 11
-147.4140368204105
 21
27.03615067525257
 31
0.0
1001
ACAD
1000
DSTYLE
1002
{
1070
   147
1040
0.625
1070
    77
1070
     0
1002
}
  0
LINE
  5
E77
330
36
100
AcDbEntity
  8
0
  6
ByBlock
 62
     0
370
    -2
100
AcDbLine
 10
-124.0679557376238
 20
19.7707746174382
 30
0.0
 11
-121.918624
 21
18.32886538038508
 31
0.0
  0
LINE
  5
E78
330
36
100
AcDbEntity
  8
0
  6
ByBlock
 62
     0
370
    -2
100
AcDbLine
 10
-121.918624
 20
18.32886538038508
 30
0.0
 11
-124.5009544419656
 21
18.50293046807939
 31
0.0
  0
LINE
  5
E79
330
36
100
AcDbEntity
  8
0
  6
ByBlock
 62
     0
370
    -2
100
AcDbLine
 10
-121.918624
 20
18.32886538038508
 30
0.0
 11
-124.2844550897947
 21
19.13685254275879
 31
0.0
  0
LINE
  5
E7A
330
36
100
AcDbEntity
  8
0
  6
Continuous
100
AcDbLine
 10
-94.47642197091548
 20
23.97395590938248
 30
0.0
 11
-147.3904631240376
 21
45.85046170694112
 31
0.0
1001
ACAD
1000
DSTYLE
1002
{
1070
   147
1040
0.625
1070
    77
1070
     0
1002
}
  0
LINE
  5
E7B
330
36
100
AcDbEntity
  8
0
  6
ByBlock
 62
     0
370
    -2
100
AcDbLine
 10
-94.22048441545056
 20
24.59300771170511
 30
0.0
 11
-92.16608753293426
 21
23.01878326285304
 31
0.0
  0
LINE
  5
E7C
330
36
100
AcDbEntity
  8
0
  6
ByBlock
 62
     0
370
    -2
100
AcDbLine
 10
-92.16608753293426
 20
23.01878326285304
 30
0.0
 11
-94.7323595263804
 21
23.35490410705986
 31
0.0
  0
LINE
  5
E7D
330
36
100
AcDbEntity
  8
0
  6
ByBlock
 62
     0
370
    -2
100
AcDbLine
 10
-92.16608753293426
 20
23.01878326285304
 30
0.0
 11
-94.47642197091548
 21
23.97395590938248
 31
0.0
  0
LINE
  5
E7E
330
36
100
AcDbEntity
  8
0
  6
Continuous
100
AcDbLine
 10
-124.7986782726077
 20
52.82812647106935
 30
0.0
 11
-147.2858270970146
 21
60.60637157389173
 31
0.0
1001
ACAD
1000
DSTYLE
1002
{
1070
   341
1005
6BA
1070
   147
1040
0.625
1070
    77
1070
     0
1002
}
  0
LINE
  5
E80
330
36
100
AcDbEntity
  8
0
  6
Continuous
100
AcDbLine
 10
-118.4519147422932
 20
61.17202143192921
 30
0.0
 11
-147.5656688452594
 21
76.16051643211863
 31
0.0
1001
ACAD
1000
DSTYLE
1002
{
1070
   147
1040
0.625
1070
    77
1070
     0
1002
}
  0
LINE
  5
E81
330
36
100
AcDbEntity
  8
0
  6
ByBlock
 62
     0
370
    -2
100
AcDbLine
 10
-118.1452958024295
 20
61.767600135354
 30
0.0
 11
-116.2291831649229
 21
60.02770314798851
 31
0.0
  0
LINE
  5
E82
330
36
100
AcDbEntity
  8
0
  6
ByBlock
 62
     0
370
    -2
100
AcDbLine
 10
-116.2291831649229
 20
60.02770314798851
 30
0.0
 11
-118.7585336821568
 21
60.57644272850442
 31
0.0
  0
LINE
  5
E83
330
36
100
AcDbEntity
  8
0
  6
ByBlock
 62
     0
370
    -2
100
AcDbLine
 10
-116.2291831649229
 20
60.02770314798851
 30
0.0
 11
-118.4519147422932
 21
61.17202143192921
 31
0.0
  0
LINE
  5
E84
330
36
100
AcDbEntity
  8
0
  6
Continuous
100
AcDbLine
 10
-28.71285150632101
 20
39.16625853851469
 30
0.0
 11
-4.291316987357982
 21
92.84809692297065
 31
0.0
1001
ACAD
1000
DSTYLE
1002
{
1070
   147
1040
0.625
1070
    77
1070
     0
1002
}
  0
LINE
  5
E85
330
36
100
AcDbEntity
  8
0
  6
ByBlock
 62
     0
370
    -2
100
AcDbLine
 10
-28.10311063686154
 20
38.8888684911679
 30
0.0
 11
-29.748086
 21
36.890673
 31
0.0
  0
LINE
  5
E86
330
36
100
AcDbEntity
  8
0
  6
ByBlock
 62
     0
370
    -2
100
AcDbLine
 10
-29.748086
 20
36.890673
 30
0.0
 11
-29.32259237578048
 21
39.44364858586148
 31
0.0
  0
LINE
  5
E87
330
36
100
AcDbEntity
  8
0
  6
ByBlock
 62
     0
370
    -2
100
AcDbLine
 10
-29.748086
 20
36.890673
 30
0.0
 11
-28.71285150632101
 21
39.16625853851469
 31
0.0
  0
LINE
  5
E88
330
36
100
AcDbEntity
  8
0
  6
Continuous
100
AcDbLine
 10
-70.05296518096594
 20
59.71442129816439
 30
0.0
 11
-44.11045263806811
 21
94.07598040367115
 31
0.0
1001
ACAD
1000
DSTYLE
1002
{
1070
   147
1040
0.625
1070
    77
1070
     0
1002
}
  0
LINE
  5
E89
330
36
100
AcDbEntity
  8
0
  6
ByBlock
 62
     0
370
    -2
100
AcDbLine
 10
-69.51834950498708
 20
59.31079369101404
 30
0.0
 11
-71.559325
 21
57.71920699999999
 31
0.0
  0
LINE
  5
E8A
330
36
100
AcDbEntity
  8
0
  6
ByBlock
 62
     0
370
    -2
100
AcDbLine
 10
-71.559325
 20
57.71920699999999
 30
0.0
 11
-70.5875808569448
 21
60.11804890531475
 31
0.0
  0
LINE
  5
E8B
330
36
100
AcDbEntity
  8
0
  6
ByBlock
 62
     0
370
    -2
100
AcDbLine
 10
-71.559325
 20
57.71920699999999
 30
0.0
 11
-70.05296518096594
 21
59.71442129816439
 31
0.0
  0
LINE
  5
E8C
330
36
100
AcDbEntity
  8
0
  6
Continuous
100
AcDbLine
 10
-64.57313247503865
 20
87.56307323761548
 30
0.0
 11
-60.60504404992268
 21
93.20945052476904
 31
0.0
1001
ACAD
1000
DSTYLE
1002
{
1070
   147
1040
0.625
1070
    77
1070
     0
1002
}
  0
LINE
  5
E8D
330
36
100
AcDbEntity
  8
0
  6
ByBlock
 62
     0
370
    -2
100
AcDbLine
 10
-64.02506497163681
 20
87.17790940497911
 30
0.0
 11
-66.0105845
 21
85.51765600000001
 31
0.0
  0
LINE
  5
E8E
330
36
100
AcDbEntity
  8
0
  6
ByBlock
 62
     0
370
    -2
100
AcDbLine
 10
-66.0105845
 20
85.51765600000001
 30
0.0
 11
-65.12119997844047
 21
87.94823707025186
 31
0.0
  0
LINE
  5
E8F
330
36
100
AcDbEntity
  8
0
  6
ByBlock
 62
     0
370
    -2
100
AcDbLine
 10
-66.0105845
 20
85.51765600000001
 30
0.0
 11
-64.57313247503865
 21
87.56307323761548
 31
0.0
  0
TEXT
  5
E90
330
36
100
AcDbEntity
  8
0
  6
Continuous
 62
     4
100
AcDbText
 10
-80.221192
 20
-26.35113767095641
 30
0.0
 40
3.0
  1
190
100
AcDbText
  0
LINE
  5
E91
330
36
100
AcDbEntity
  8
0
  6
ByBlock
 62
     0
370
    -2
100
AcDbLine
 10
-24.221192
 20
-26.30626517095641
 30
0.0
 11
-21.721192
 21
-26.97613767095641
 31
0.0
  0
LINE
  5
E92
330
36
100
AcDbEntity
  8
0
  6
ByBlock
 62
     0
370
    -2
100
AcDbLine
 10
-21.721192
 20
-26.97613767095641
 30
0.0
 11
-24.221192
 21
-27.64601017095641
 31
0.0
  0
LINE
  5
E93
330
36
100
AcDbEntity
  8
0
  6
ByBlock
 62
     0
370
    -2
100
AcDbLine
 10
-21.721192
 20
-26.97613767095641
 30
0.0
 11
-24.221192
 21
-26.97613767095641
 31
0.0
  0
LINE
  5
E94
330
36
100
AcDbEntity
  8
0
  6
ByBlock
 62
     0
370
    -2
100
AcDbLine
 10
-129.721192
 20
-27.64601017095641
 30
0.0
 11
-132.221192
 21
-26.97613767095641
 31
0.0
  0
LINE
  5
E95
330
36
100
AcDbEntity
  8
0
  6
ByBlock
 62
     0
370
    -2
100
AcDbLine
 10
-132.221192
 20
-26.97613767095641
 30
0.0
 11
-129.721192
 21
-26.30626517095641
 31
0.0
  0
LINE
  5
E96
330
36
100
AcDbEntity
  8
0
  6
ByBlock
 62
     0
370
    -2
100
AcDbLine
 10
-132.221192
 20
-26.97613767095641
 30
0.0
 11
-129.721192
 21
-26.97613767095641
 31
0.0
  0
TEXT
  5
E97
330
36
100
AcDbEntity
  8
0
  6
Continuous
 62
     4
100
AcDbText
 10
18.87596399999998
 20
37.13013300000002
 30
0.0
 40
3.0
  1
195
 50
90.0
100
AcDbText
  0
LINE
  5
E98
330
36
100
AcDbEntity
  8
0
  6
ByBlock
 62
     0
370
    -2
100
AcDbLine
 10
18.8310915
 20
91.52091700000001
 30
0.0
 11
19.500964
 21
94.02091700000001
 31
0.0
  0
LINE
  5
E99
330
36
100
AcDbEntity
  8
0
  6
ByBlock
 62
     0
370
    -2
100
AcDbLine
 10
19.500964
 20
94.02091700000001
 30
0.0
 11
20.1708365
 21
91.52091700000001
 31
0.0
  0
LINE
  5
E9A
330
36
100
AcDbEntity
  8
0
  6
ByBlock
 62
     0
370
    -2
100
AcDbLine
 10
19.500964
 20
94.02091700000001
 30
0.0
 11
19.500964
 21
91.52091700000001
 31
0.0
  0
LINE
  5
E9B
330
36
100
AcDbEntity
  8
0
  6
ByBlock
 62
     0
370
    -2
100
AcDbLine
 10
20.17083649999998
 20
-10.26065099999999
 30
0.0
 11
19.50096399999997
 21
-12.76065099999999
 31
0.0
  0
LINE
  5
E9C
330
36
100
AcDbEntity
  8
0
  6
ByBlock
 62
     0
370
    -2
100
AcDbLine
 10
19.50096399999997
 20
-12.76065099999999
 30
0.0
 11
18.83109149999997
 21
-10.26065099999999
 31
0.0
  0
LINE
  5
E9D
330
36
100
AcDbEntity
  8
0
  6
ByBlock
 62
     0
370
    -2
100
AcDbLine
 10
19.50096399999997
 20
-12.76065099999999
 30
0.0
 11
19.50096399999997
 21
-10.26065099999999
 31
0.0
  0
TEXT
  5
E9E
330
36
100
AcDbEntity
  8
0
  6
Continuous
 62
     4
100
AcDbText
 10
81.7757465
 20
-17.055273
 30
0.0
 40
3.0
  1
290
100
AcDbText
  0
LINE
  5
E9F
330
36
100
AcDbEntity
  8
0
  6
ByBlock
 62
     0
370
    -2
100
AcDbLine
 10
138.828908
 20
-17.0104005
 30
0.0
 11
141.328908
 21
-17.680273
 31
0.0
  0
LINE
  5
EA0
330
36
100
AcDbEntity
  8
0
  6
ByBlock
 62
     0
370
    -2
100
AcDbLine
 10
141.328908
 20
-17.680273
 30
0.0
 11
138.828908
 21
-18.3501455
 31
0.0
  0
LINE
  5
EA1
330
36
100
AcDbEntity
  8
0
  6
ByBlock
 62
     0
370
    -2
100
AcDbLine
 10
141.328908
 20
-17.680273
 30
0.0
 11
138.828908
 21
-17.680273
 31
0.0
  0
LINE
  5
EA2
330
36
100
AcDbEntity
  8
0
  6
ByBlock
 62
     0
370
    -2
100
AcDbLine
 10
32.222585
 20
-18.3501455
 30
0.0
 11
29.722585
 21
-17.680273
 31
0.0
  0
LINE
  5
EA3
330
36
100
AcDbEntity
  8
0
  6
ByBlock
 62
     0
370
    -2
100
AcDbLine
 10
29.722585
 20
-17.680273
 30
0.0
 11
32.222585
 21
-17.0104005
 31
0.0
  0
LINE
  5
EA4
330
36
100
AcDbEntity
  8
0
  6
ByBlock
 62
     0
370
    -2
100
AcDbLine
 10
29.722585
 20
-17.680273
 30
0.0
 11
32.222585
 21
-17.680273
 31
0.0
  0
ARC
  5
EA5
330
36
100
AcDbEntity
  8
0
  6
ByBlock
 62
     0
100
AcDbCircle
 10
133.2532590722752
 20
71.49587424974868
 30
0.0
 40
0.1562500000000104
100
AcDbArc
 50
40.86735149384708
 51
220.8673514938471
  0
ARC
  5
EA6
330
36
100
AcDbEntity
  8
0
  6
ByBlock
 62
     0
100
AcDbCircle
 10
133.2532590722752
 20
71.49587424974868
 30
0.0
 40
0.1562500000000104
100
AcDbArc
 50
220.8673514938471
 51
40.86735149384708
  0
ARC
  5
EA7
330
36
100
AcDbEntity
  8
0
  6
ByBlock
 62
     0
100
AcDbCircle
 10
-124.7986782726077
 20
52.82812647106935
 30
0.0
 40
0.1562500000000039
100
AcDbArc
 50
160.9196328723363
 51
340.9196328723364
  0
ARC
  5
EA8
330
36
100
AcDbEntity
  8
0
  6
ByBlock
 62
     0
100
AcDbCircle
 10
-124.7986782726077
 20
52.82812647106935
 30
0.0
 40
0.1562500000000039
100
AcDbArc
 50
340.9196328723364
 51
160.9196328723363
  0
ENDSEC
  0
SECTION
  2
OBJECTS
  0
DICTIONARY
  5
C
330
0
100
AcDbDictionary
281
     1
  3
ACAD_2007HEADERVARS_RT
350
EAD
  3
ACAD_COLOR
350
2F
  3
ACAD_GROUP
350
D
  3
ACAD_LAYOUT
350
2E
  3
ACAD_MATERIAL
350
10
  3
ACAD_MLEADERSTYLE
350
4D7
  3
ACAD_MLINESTYLE
350
2B
  3
ACAD_PLOTSETTINGS
350
2D
  3
ACAD_PLOTSTYLENAME
350
E
  3
ACAD_SCALELIST
350
4C5
  3
ACAD_TABLESTYLE
350
30
  3
ACAD_VISUALSTYLE
350
14
  3
AcadDim
350
6B7
  3
ACDB_RECOMPOSE_DATA
350
EAB
  3
AcDbVariableDictionary
350
4A3
  3
DWGPROPS
350
EAC
  0
DICTIONARY
  5
473
330
2
100
AcDbDictionary
280
     1
281
     1
  3
ACAD_LAYERSTATES
360
474
  0
DICTIONARY
  5
733
330
25
100
AcDbDictionary
280
     1
281
     1
  3
ADSK_XREC_LAYER_RECONCILED
360
734
  0
DICTIONARY
  5
717
330
36
100
AcDbDictionary
280
     1
281
     1
  3
ACAD_SORTENTS
360
718
  0
DICTIONARY
  5
EAD
102
{ACAD_REACTORS
330
C
102
}
330
C
100
AcDbDictionary
281
     1
  3
DIMARCSYM
350
EAF
  3
DIMFXL
350
EAE
  3
DIMJOGANG
350
EB0
  0
DICTIONARY
  5
2F
102
{ACAD_REACTORS
330
C
102
}
330
C
100
AcDbDictionary
281
     1
  0
DICTIONARY
  5
D
102
{ACAD_REACTORS
330
C
102
}
330
C
100
AcDbDictionary
281
     1
  0
DICTIONARY
  5
2E
102
{ACAD_REACTORS
330
C
102
}
330
C
100
AcDbDictionary
281
     1
  3
Model
350
39
  3
レイアウト1
350
35
  0
DICTIONARY
  5
10
102
{ACAD_REACTORS
330
C
102
}
330
C
100
AcDbDictionary
281
     1
  3
ByBlock
350
12
  3
ByLayer
350
11
  3
Global
350
13
  0
DICTIONARY
  5
4D7
102
{ACAD_REACTORS
330
C
102
}
330
C
100
AcDbDictionary
281
     1
  3
Standard
350
4D8
  0
DICTIONARY
  5
2B
102
{ACAD_REACTORS
330
C
102
}
330
C
100
AcDbDictionary
281
     1
  3
Standard
350
2C
  0
DICTIONARY
  5
2D
102
{ACAD_REACTORS
330
C
102
}
330
C
100
AcDbDictionary
281
     1
  0
ACDBDICTIONARYWDFLT
  5
E
102
{ACAD_REACTORS
330
C
102
}
330
C
100
AcDbDictionary
281
     1
  3
Normal
350
F
100
AcDbDictionaryWithDefault
340
F
  0
DICTIONARY
  5
4C5
102
{ACAD_REACTORS
330
C
102
}
330
C
100
AcDbDictionary
281
     1
  3
A0
350
4C6
  3
A1
350
4C7
  3
A2
350
4C8
  3
A3
350
4C9
  3
A4
350
4CA
  3
A5
350
4CB
  3
A6
350
4CC
  3
A7
350
4CD
  3
A8
350
4CE
  3
A9
350
4CF
  3
B0
350
4D0
  3
B1
350
4D1
  3
B2
350
4D2
  3
B3
350
4D3
  3
B4
350
4D4
  3
B5
350
4D5
  3
B6
350
4D6
  0
DICTIONARY
  5
30
102
{ACAD_REACTORS
330
C
102
}
330
C
100
AcDbDictionary
281
     1
  3
Standard
350
31
  3
部品表
350
A1F
  0
DICTIONARY
  5
14
102
{ACAD_REACTORS
330
C
102
}
330
C
100
AcDbDictionary
281
     1
  3
2dWireframe
350
1A
  3
3D Hidden
350
1C
  3
3dWireframe
350
1B
  3
Basic
350
19
  3
Brighten
350
20
  3
ColorChange
350
24
  3
Conceptual
350
1D
  3
Dim
350
1F
  3
EdgeColorOff
350
4C4
  3
Facepattern
350
23
  3
Flat
350
15
  3
FlatWithEdges
350
16
  3
Gouraud
350
17
  3
GouraudWithEdges
350
18
  3
Hidden
350
4BC
  3
JitterOff
350
4C2
  3
Linepattern
350
22
  3
OverhangOff
350
4C3
  3
Realistic
350
1E
  3
Shaded
350
4C1
  3
Shaded with edges
350
4C0
  3
Shades of Gray
350
4BD
  3
Sketchy
350
4BE
  3
Thicken
350
21
  3
Wireframe
350
4BB
  3
X-Ray
350
4BF
  0
XRECORD
  5
6B7
102
{ACAD_REACTORS
330
C
102
}
330
C
100
AcDbXrecord
280
     1
 90
   990106
  3

 60
     0
 61
     0
 62
     1
 63
     3
 64
     0
 65
     0
 66
     0
 67
     3
 68
     1
 69
     0
 70
     0
 71
     0
 72
     0
 40
0.0
170
     0
340
928
  0
XRECORD
  5
EAB
102
{ACAD_REACTORS
330
C
102
}
330
C
100
AcDbXrecord
280
     1
 90
        1
330
31
330
A1F
  0
DICTIONARY
  5
4A3
102
{ACAD_REACTORS
330
C
102
}
330
C
100
AcDbDictionary
281
     1
  3
CANNOSCALE
350
740
  3
CMLEADERSTYLE
350
73F
  3
CTABLESTYLE
350
4A4
  3
DIMASSOC
350
4A7
  3
INDEXCTL
350
4A6
  3
SORTENTS
350
4A5
  3
XCLIPFRAME
350
DC5
  0
XRECORD
  5
EAC
102
{ACAD_REACTORS
330
C
102
}
330
C
100
AcDbXrecord
280
     1
  1
DWGPROPS COOKIE
  2

  3

  4

  6

  7

  8
imamura
  9

300
=
301
=
302
=
303
=
304
=
305
=
306
=
307
=
308
=
309
=
 40
0.1186692013888889
 41
2455825.830750324
 42
2460291.754522558
  1

 90
        0
  0
DICTIONARY
  5
474
102
{ACAD_REACTORS
330
473
102
}
330
473
100
AcDbDictionary
281
     1
  0
XRECORD
  5
734
102
{ACAD_REACTORS
330
733
102
}
330
733
100
AcDbXrecord
280
     1
290
     1
  0
SORTENTSTABLE
  5
718
102
{ACAD_REACTORS
330
717
102
}
330
717
100
AcDbSortentsTable
330
36
331
1D6
  5
266
331
1D2
  5
262
331
1CE
  5
25E
331
150
  5
211
331
40F
  5
4A0
331
219
  5
288
331
40B
  5
49C
331
148
  5
1FD
331
EA5
  5
E49
331
3CC
  5
432
331
E66
  5
E89
331
38D
  5
3FB
331
E35
  5
1A4
331
34E
  5
3BB
331
407
  5
498
331
3C8
  5
42E
331
E62
  5
E8D
331
389
  5
3F7
331
E31
  5
19A
331
EA1
  5
99
331
34A
  5
3B7
331
403
  5
494
331
3C4
  5
42A
331
385
  5
3F3
331
E2D
  5
1B1
331
E9D
  5
B4
331
346
  5
3B3
331
11F
  5
1B7
331
3C0
  5
420
331
381
  5
3EF
331
E29
  5
1AD
331
E99
  5
B6
331
342
  5
3AF
331
B4D
  5
EA7
331
C4
  5
12F
331
E5A
  5
8B
331
B49
  5
EA3
331
C0
  5
12B
331
B45
  5
EA1
331
B41
  5
E9D
331
B8
  5
124
331
8AE
  5
E84
331
445
  5
7A9
331
441
  5
72B
331
43D
  5
71A
331
4A0
  5
E14
331
317
  5
376
331
313
  5
372
331
2D4
  5
333
331
29D
  5
2FC
331
25E
  5
2BD
331
30F
  5
36E
331
2D0
  5
32F
331
299
  5
2F8
331
25A
  5
2B9
331
30B
  5
36A
331
2CC
  5
32B
331
295
  5
2F4
331
256
  5
2B5
331
2C8
  5
327
331
291
  5
2F0
331
252
  5
2B1
331
215
  5
284
331
1C6
  5
25A
331
18F
  5
234
331
211
  5
280
331
1C2
  5
256
331
18B
  5
230
331
20D
  5
27C
331
1BE
  5
252
331
209
  5
278
331
3FF
  5
490
331
13C
  5
1E9
331
3FB
  5
464
331
138
  5
1D6
331
3BC
  5
41C
331
37D
  5
3EA
331
E25
  5
1A8
331
E95
  5
BE
331
33E
  5
3AB
331
3F7
  5
460
331
3B8
  5
418
331
379
  5
3E6
331
E91
  5
C0
331
33A
  5
3A7
331
3F3
  5
45C
331
E8D
  5
E1C
331
3B4
  5
414
331
375
  5
3E2
331
336
  5
395
331
E4E
  5
BA
331
E89
  5
E22
331
3B0
  5
410
331
371
  5
3DE
331
332
  5
391
331
E4A
  5
179
331
B4
  5
120
331
B39
  5
E9A
331
B0
  5
E8
331
7C2
  5
E7C
331
8C
  5
C6
331
49C
  5
E09
331
435
  5
6BF
331
7BE
  5
E78
331
498
  5
B43
331
431
  5
6B5
331
7BA
  5
E74
331
494
  5
B35
331
42D
  5
6B3
331
490
  5
8AD
331
429
  5
5B8
331
307
  5
366
331
303
  5
362
331
2C4
  5
323
331
28D
  5
2EC
331
24E
  5
2AD
331
2FF
  5
35E
331
2C0
  5
31F
331
289
  5
2E8
331
24A
  5
2A9
331
2FB
  5
35A
331
2BC
  5
31B
331
285
  5
2E4
331
246
  5
2A5
331
2B8
  5
317
331
281
  5
2E0
331
242
  5
2A1
331
205
  5
274
331
201
  5
270
331
1B2
  5
24A
331
134
  5
1D2
331
1FD
  5
26E
331
1AE
  5
246
331
130
  5
1CE
331
3EF
  5
455
331
12C
  5
1C6
331
3EB
  5
452
331
128
  5
1C2
331
E85
  5
E27
331
3AC
  5
40C
331
36D
  5
3DA
331
32E
  5
38D
331
E46
  5
161
331
3E7
  5
44E
331
E81
  5
E2B
331
3A8
  5
408
331
369
  5
3D6
331
32A
  5
389
331
E42
  5
191
331
E7D
  5
E38
331
3E3
  5
44A
331
365
  5
3D2
331
326
  5
385
331
E79
  5
E3E
331
361
  5
3CE
331
322
  5
381
331
9C
  5
E5
331
E7
  5
150
331
98
  5
E1
331
E3
  5
146
331
90
  5
CA
331
7B6
  5
E71
331
7B2
  5
E6D
331
5BB
  5
E5B
331
7AE
  5
E69
331
5B7
  5
E56
331
421
  5
5AA
331
7AA
  5
E65
331
5B3
  5
E3B
331
45C
  5
7BD
331
41D
  5
5A6
331
458
  5
7BB
331
419
  5
5A2
331
2F7
  5
356
331
2F3
  5
352
331
2B4
  5
313
331
27D
  5
2DC
331
23E
  5
29D
331
2EF
  5
34E
331
2B0
  5
30F
331
279
  5
2D8
331
23A
  5
299
331
2EB
  5
34A
331
2AC
  5
30B
331
275
  5
2D4
331
236
  5
295
331
2A8
  5
307
331
271
  5
2D0
331
232
  5
291
331
1F1
  5
26A
331
22C
  5
28E
331
1A6
  5
23F
331
228
  5
28A
331
1E9
  5
268
331
3DF
  5
445
331
1A2
  5
23B
331
E75
  5
E47
331
3DB
  5
441
331
35D
  5
3CA
331
416
  5
59F
331
3D7
  5
43D
331
359
  5
3C6
331
412
  5
59B
331
3D3
  5
439
331
E6D
  5
E4F
331
394
  5
402
331
E3C
  5
18B
331
355
  5
3C2
331
DF
  5
13C
331
EA8
  5
E33
331
E69
  5
E53
331
390
  5
3FE
331
E38
  5
1A7
331
351
  5
3BE
331
B35
  5
E96
331
DB
  5
136
331
B31
  5
E92
331
126
  5
1C0
331
122
  5
1BC
331
464
  5
7C5
331
460
  5
7C2
331
454
  5
7B8
331
5AF
  5
E2E
331
450
  5
7B2
331
8B1
  5
E87
331
72A
  5
E5E
331
5AB
  5
E1A
331
44C
  5
7AE
331
448
  5
7AC
331
2E7
  5
346
331
2E3
  5
342
331
26D
  5
2CC
331
31E
  5
37D
331
2DF
  5
33E
331
269
  5
2C8
331
31A
  5
379
331
2DB
  5
33A
331
2A4
  5
303
331
265
  5
2C4
331
2A0
  5
2FF
331
261
  5
2C0
331
1D5
  5
265
331
1D1
  5
261
331
19A
  5
239
331
1CD
  5
25D
331
218
  5
287
331
40E
  5
49F
331
192
  5
237
331
3CF
  5
435
331
40A
  5
49B
331
3CB
  5
431
331
E65
  5
E88
331
38C
  5
3FA
331
E34
  5
1A3
331
EA4
  5
92
331
34D
  5
3BA
331
406
  5
497
331
3C7
  5
42D
331
E61
  5
E8C
331
388
  5
3F6
331
E30
  5
1B4
331
EA0
  5
98
331
349
  5
3B6
331
402
  5
493
331
3C3
  5
429
331
384
  5
3F2
331
E2C
  5
1B0
331
E9C
  5
B3
331
345
  5
3B2
331
C7
  5
132
331
380
  5
3ED
331
E28
  5
1AC
331
E98
  5
B5
331
341
  5
3AE
331
B4C
  5
EA6
331
C3
  5
12E
331
E59
  5
8A
331
B48
  5
EA2
331
BF
  5
12A
331
B44
  5
EA0
331
BB
  5
127
331
8AD
  5
E83
331
5A7
  5
E17
331
444
  5
7A7
331
440
  5
72A
331
43C
  5
71B
331
438
  5
708
331
316
  5
375
331
2D7
  5
336
331
312
  5
371
331
2D3
  5
332
331
29C
  5
2FB
331
25D
  5
2BC
331
30E
  5
36D
331
2CF
  5
32E
331
298
  5
2F7
331
259
  5
2B8
331
30A
  5
369
331
2CB
  5
32A
331
294
  5
2F3
331
255
  5
2B4
331
290
  5
2EF
331
251
  5
2B0
331
214
  5
283
331
1C5
  5
259
331
18E
  5
233
331
147
  5
1FC
331
210
  5
27F
331
1C1
  5
255
331
18A
  5
22C
331
20C
  5
27B
331
1BD
  5
251
331
208
  5
277
331
3FE
  5
48F
331
1B9
  5
24E
331
3BF
  5
41F
331
3FA
  5
463
331
3BB
  5
41B
331
37C
  5
3E9
331
E94
  5
BD
331
33D
  5
3AA
331
E55
  5
B1
331
3F6
  5
45F
331
3B7
  5
417
331
378
  5
3E5
331
E90
  5
C3
331
339
  5
3A6
331
3F2
  5
458
331
E8C
  5
E20
331
3B3
  5
413
331
374
  5
3E1
331
335
  5
394
331
E4D
  5
B9
331
B7
  5
123
331
E88
  5
E25
331
370
  5
3DD
331
331
  5
390
331
E49
  5
178
331
B3
  5
11F
331
B38
  5
E98
331
AF
  5
E7
331
7C5
  5
E7F
331
8F
  5
C9
331
49F
  5
E11
331
7C1
  5
E7B
331
8B
  5
C5
331
49B
  5
E08
331
434
  5
6B9
331
7BD
  5
E77
331
497
  5
B3B
331
430
  5
6B8
331
7B9
  5
E73
331
493
  5
8B1
331
42C
  5
5BB
331
428
  5
5B7
331
306
  5
365
331
2C7
  5
326
331
302
  5
361
331
2C3
  5
322
331
28C
  5
2EB
331
24D
  5
2AC
331
2FE
  5
35D
331
2BF
  5
31E
331
288
  5
2E7
331
249
  5
2A8
331
2FA
  5
359
331
2BB
  5
31A
331
284
  5
2E3
331
245
  5
2A4
331
280
  5
2DF
331
241
  5
2A0
331
204
  5
273
331
137
  5
1D5
331
200
  5
26F
331
1B1
  5
249
331
133
  5
1D1
331
1FC
  5
26D
331
1AD
  5
245
331
12F
  5
1CD
331
1A9
  5
242
331
3AF
  5
40F
331
12B
  5
1C5
331
3EA
  5
451
331
E84
  5
E2A
331
3AB
  5
40B
331
36C
  5
3D9
331
32D
  5
38C
331
E45
  5
160
331
3E6
  5
44D
331
E80
  5
E2F
331
3A7
  5
407
331
368
  5
3D5
331
329
  5
388
331
E41
  5
190
331
E7C
  5
E37
331
3E2
  5
448
331
364
  5
3D1
331
325
  5
384
331
E08
  5
E91
331
E78
  5
E3D
331
360
  5
3CD
331
321
  5
380
331
EA
  5
159
331
9B
  5
E4
331
E6
  5
149
331
97
  5
E0
331
E2
  5
145
331
93
  5
DD
331
7B5
  5
E70
331
48F
  5
8AC
331
7B1
  5
E6C
331
5BA
  5
E5A
331
7AD
  5
E68
331
5B6
  5
E4E
331
45F
  5
7C0
331
420
  5
5A9
331
7A9
  5
E64
331
5B2
  5
E39
331
41C
  5
5A5
331
418
  5
5A1
331
2F6
  5
355
331
2B7
  5
316
331
2F2
  5
351
331
2B3
  5
312
331
27C
  5
2DB
331
23D
  5
29C
331
2EE
  5
34D
331
2AF
  5
30E
331
278
  5
2D7
331
239
  5
298
331
2EA
  5
349
331
2AB
  5
30A
331
274
  5
2D3
331
235
  5
294
331
270
  5
2CF
331
231
  5
290
331
22B
  5
28D
331
1A5
  5
23E
331
3DE
  5
444
331
1A1
  5
23A
331
E74
  5
E41
331
3DA
  5
440
331
35C
  5
3C9
331
415
  5
59E
331
3D6
  5
43C
331
E70
  5
E4D
331
E3F
  5
18E
331
358
  5
3C5
331
411
  5
4A2
331
3D2
  5
438
331
E6C
  5
E52
331
393
  5
401
331
E3B
  5
18A
331
354
  5
3C1
331
DE
  5
139
331
E68
  5
E57
331
B34
  5
E95
331
350
  5
3BD
331
125
  5
1BF
331
121
  5
1BB
331
CA
  5
135
331
7A5
  5
E61
331
463
  5
7C4
331
457
  5
7BA
331
453
  5
7B5
331
5AE
  5
E26
331
44F
  5
7B0
331
8B0
  5
E86
331
729
  5
E5D
331
5AA
  5
E1B
331
44B
  5
7AD
331
2E6
  5
345
331
2E2
  5
341
331
26C
  5
2CB
331
31D
  5
37C
331
2DE
  5
33D
331
2A7
  5
306
331
268
  5
2C7
331
319
  5
378
331
2DA
  5
339
331
2A3
  5
302
331
264
  5
2C3
331
260
  5
2BF
331
227
  5
289
331
1D4
  5
264
331
1D0
  5
260
331
199
  5
238
331
1CC
  5
25C
331
40D
  5
49E
331
191
  5
236
331
EA7
  5
E32
331
3CE
  5
434
331
38F
  5
3FD
331
E37
  5
1A6
331
409
  5
49A
331
3CA
  5
430
331
E64
  5
E8B
331
38B
  5
3F9
331
E33
  5
1A2
331
EA3
  5
91
331
34C
  5
3B9
331
405
  5
496
331
3C6
  5
42C
331
E60
  5
E90
331
387
  5
3F5
331
E2F
  5
1B3
331
E9F
  5
97
331
348
  5
3B5
331
401
  5
492
331
3C2
  5
428
331
383
  5
3F1
331
E2B
  5
1AF
331
E9B
  5
B2
331
C6
  5
131
331
344
  5
3B1
331
340
  5
3AD
331
B4B
  5
EA5
331
C2
  5
12D
331
BE
  5
129
331
B43
  5
E9F
331
BA
  5
126
331
8AC
  5
E82
331
447
  5
7AB
331
8A8
  5
E81
331
443
  5
7A5
331
43F
  5
729
331
4A2
  5
E15
331
43B
  5
716
331
315
  5
374
331
2D6
  5
335
331
29F
  5
2FE
331
311
  5
370
331
2D2
  5
331
331
29B
  5
2FA
331
25C
  5
2BB
331
30D
  5
36C
331
2CE
  5
32D
331
297
  5
2F6
331
258
  5
2B7
331
309
  5
368
331
2CA
  5
329
331
293
  5
2F2
331
254
  5
2B3
331
250
  5
2AF
331
217
  5
286
331
213
  5
282
331
1C4
  5
258
331
18D
  5
232
331
146
  5
1FB
331
20F
  5
27E
331
1C0
  5
254
331
189
  5
22B
331
20B
  5
27A
331
1BC
  5
250
331
13E
  5
1F1
331
3FD
  5
466
331
181
  5
229
331
3BE
  5
41E
331
37F
  5
3EC
331
E27
  5
1AB
331
E97
  5
B8
331
3F9
  5
462
331
3BA
  5
41A
331
37B
  5
3E8
331
E93
  5
C2
331
33C
  5
3A9
331
E54
  5
B0
331
3F5
  5
45E
331
E8F
  5
E1E
331
3B6
  5
416
331
377
  5
3E4
331
338
  5
3A5
331
3F1
  5
457
331
E8B
  5
E24
331
3B2
  5
412
331
373
  5
3E0
331
334
  5
393
331
E4C
  5
181
331
B6
  5
122
331
330
  5
38F
331
E48
  5
169
331
B3B
  5
E9C
331
B2
  5
EA
331
7C4
  5
E7E
331
8E
  5
C8
331
49E
  5
E13
331
437
  5
709
331
7C0
  5
E7A
331
8A
  5
C4
331
49A
  5
B45
331
433
  5
6BE
331
7BC
  5
E76
331
496
  5
B39
331
42F
  5
6B4
331
7B8
  5
E72
331
492
  5
8AF
331
42B
  5
5BA
331
305
  5
364
331
2C6
  5
325
331
28F
  5
2EE
331
301
  5
360
331
2C2
  5
321
331
28B
  5
2EA
331
24C
  5
2AB
331
2FD
  5
35C
331
2BE
  5
31D
331
287
  5
2E6
331
248
  5
2A7
331
2F9
  5
358
331
2BA
  5
319
331
283
  5
2E2
331
244
  5
2A3
331
240
  5
29F
331
207
  5
276
331
203
  5
272
331
1B4
  5
24C
331
136
  5
1D4
331
1B0
  5
248
331
179
  5
227
331
132
  5
1D0
331
1FB
  5
26C
331
1AC
  5
244
331
12E
  5
1CC
331
1A8
  5
241
331
169
  5
218
331
3ED
  5
454
331
12A
  5
1C4
331
E87
  5
E29
331
3AE
  5
40E
331
36F
  5
3DC
331
3E9
  5
450
331
E83
  5
E2D
331
3AA
  5
40A
331
36B
  5
3D8
331
32C
  5
38B
331
E44
  5
199
331
3E5
  5
44C
331
3A6
  5
406
331
367
  5
3D4
331
328
  5
387
331
E40
  5
18F
331
E7B
  5
E36
331
3E1
  5
447
331
363
  5
3D0
331
324
  5
383
331
320
  5
37F
331
E9
  5
158
331
9A
  5
E3
331
E5
  5
148
331
96
  5
DF
331
E1
  5
13E
331
92
  5
DC
331
7B4
  5
E6F
331
7B0
  5
E6B
331
5B9
  5
E59
331
7AC
  5
E67
331
5B5
  5
E4C
331
45E
  5
7BE
331
41F
  5
5A8
331
7A8
  5
E63
331
5B1
  5
E35
331
41B
  5
5A4
331
2F5
  5
354
331
2B6
  5
315
331
27F
  5
2DE
331
2F1
  5
350
331
2B2
  5
311
331
27B
  5
2DA
331
23C
  5
29B
331
2ED
  5
34C
331
2AE
  5
30D
331
277
  5
2D6
331
238
  5
297
331
2E9
  5
348
331
2AA
  5
309
331
273
  5
2D2
331
234
  5
293
331
230
  5
28F
331
1F7
  5
26B
331
161
  5
216
331
22A
  5
28C
331
1EB
  5
269
331
1A4
  5
23D
331
E77
  5
E3C
331
3DD
  5
443
331
159
  5
214
331
35F
  5
3CC
331
E73
  5
E40
331
3D9
  5
43F
331
35B
  5
3C8
331
414
  5
59D
331
3D5
  5
43B
331
E6F
  5
E51
331
396
  5
404
331
E3E
  5
18D
331
357
  5
3C4
331
410
  5
4A1
331
3D1
  5
437
331
E6B
  5
E55
331
392
  5
400
331
E3A
  5
189
331
353
  5
3C0
331
B37
  5
E99
331
DD
  5
138
331
B33
  5
E94
331
124
  5
1BE
331
120
  5
1B9
331
C9
  5
134
331
466
  5
8A7
331
462
  5
7C3
331
456
  5
7B6
331
452
  5
7B4
331
72C
  5
E60
331
5AD
  5
E21
331
44E
  5
7B1
331
728
  5
E5C
331
5A9
  5
E19
331
44A
  5
7A8
331
2E5
  5
344
331
26F
  5
2CE
331
2E1
  5
340
331
26B
  5
2CA
331
31C
  5
37B
331
2DD
  5
33C
331
2A6
  5
305
331
267
  5
2C6
331
318
  5
377
331
2D9
  5
338
331
2A2
  5
301
331
263
  5
2C2
331
1D7
  5
267
331
1D3
  5
263
331
1CF
  5
25F
331
151
  5
212
331
1CB
  5
25B
331
190
  5
235
331
40C
  5
49D
331
149
  5
210
331
EA6
  5
E4A
331
3CD
  5
433
331
E67
  5
E8A
331
38E
  5
3FC
331
E36
  5
1A5
331
34F
  5
3BC
331
408
  5
499
331
3C9
  5
42F
331
E63
  5
E8E
331
38A
  5
3F8
331
E32
  5
1A1
331
EA2
  5
90
331
34B
  5
3B8
331
404
  5
495
331
3C5
  5
42B
331
E5F
  5
E8F
331
386
  5
3F4
331
E2E
  5
1B2
331
E9E
  5
9D
331
347
  5
3B4
331
400
  5
491
331
3C1
  5
421
331
382
  5
3F0
331
E2A
  5
1AE
331
E9A
  5
B7
331
343
  5
3B0
331
B4E
  5
EA8
331
C5
  5
130
331
E5B
  5
8C
331
B4A
  5
EA4
331
C1
  5
12C
331
BD
  5
128
331
B42
  5
E9E
331
B9
  5
125
331
8AF
  5
E85
331
446
  5
7AA
331
8A7
  5
E80
331
442
  5
72C
331
43E
  5
728
331
4A1
  5
E16
331
43A
  5
708
331
314
  5
373
331
2D5
  5
334
331
29E
  5
2FD
331
25F
  5
2BE
331
310
  5
36F
331
2D1
  5
330
331
29A
  5
2F9
331
25B
  5
2BA
331
30C
  5
36B
331
2CD
  5
32C
331
296
  5
2F5
331
257
  5
2B6
331
308
  5
367
331
2C9
  5
328
331
292
  5
2F1
331
253
  5
2B2
331
216
  5
285
331
212
  5
281
331
1C3
  5
257
331
18C
  5
231
331
145
  5
1F7
331
20E
  5
27D
331
1BF
  5
253
331
188
  5
22A
331
20A
  5
279
331
1BB
  5
24F
331
13D
  5
1EB
331
180
  5
228
331
3FC
  5
465
331
139
  5
1D7
331
3BD
  5
41D
331
37E
  5
3EB
331
E26
  5
1A9
331
E96
  5
BF
331
33F
  5
3AC
331
3F8
  5
461
331
3B9
  5
419
331
37A
  5
3E7
331
E92
  5
C1
331
33B
  5
3A8
331
E53
  5
AF
331
3F4
  5
45D
331
E8E
  5
E1D
331
3B5
  5
415
331
376
  5
3E3
331
337
  5
396
331
E4F
  5
BB
331
3F0
  5
456
331
E8A
  5
E23
331
3B1
  5
411
331
372
  5
3DF
331
333
  5
392
331
E4B
  5
180
331
B5
  5
121
331
B3A
  5
E9B
331
B1
  5
E9
331
7C3
  5
E7D
331
8D
  5
C7
331
49D
  5
E0D
331
436
  5
6C0
331
7BF
  5
E79
331
499
  5
B49
331
432
  5
6B9
331
7BB
  5
E75
331
495
  5
B32
331
42E
  5
6B3
331
491
  5
8AE
331
42A
  5
5B9
331
304
  5
363
331
2C5
  5
324
331
28E
  5
2ED
331
24F
  5
2AE
331
300
  5
35F
331
2C1
  5
320
331
28A
  5
2E9
331
24B
  5
2AA
331
2FC
  5
35B
331
2BD
  5
31C
331
286
  5
2E5
331
247
  5
2A6
331
2F8
  5
357
331
2B9
  5
318
331
282
  5
2E1
331
243
  5
2A2
331
206
  5
275
331
1B7
  5
24D
331
202
  5
271
331
1B3
  5
24B
331
135
  5
1D3
331
1AF
  5
247
331
178
  5
219
331
131
  5
1CF
331
1AB
  5
243
331
12D
  5
1CB
331
168
  5
217
331
3EC
  5
453
331
129
  5
1C3
331
E86
  5
E28
331
3AD
  5
40D
331
36E
  5
3DB
331
32F
  5
38E
331
E47
  5
168
331
3E8
  5
44F
331
E82
  5
E2C
331
3A9
  5
409
331
36A
  5
3D7
331
32B
  5
38A
331
E43
  5
192
331
3E4
  5
44B
331
E7E
  5
E34
331
3A5
  5
405
331
366
  5
3D3
331
327
  5
386
331
E7A
  5
E3A
331
3E0
  5
446
331
362
  5
3CF
331
323
  5
382
331
9D
  5
E6
331
E8
  5
151
331
99
  5
E2
331
E4
  5
147
331
95
  5
DE
331
E0
  5
13D
331
91
  5
DB
331
7B3
  5
E6E
331
7AF
  5
E6A
331
5B8
  5
E58
331
7AB
  5
E66
331
5B4
  5
E4B
331
45D
  5
7BF
331
41E
  5
5A7
331
5B0
  5
E30
331
459
  5
7BC
331
41A
  5
5A3
331
2F4
  5
353
331
2B5
  5
314
331
27E
  5
2DD
331
23F
  5
29E
331
2F0
  5
34F
331
2B1
  5
310
331
27A
  5
2D9
331
23B
  5
29A
331
2EC
  5
34B
331
2AD
  5
30C
331
276
  5
2D5
331
237
  5
296
331
2E8
  5
347
331
2A9
  5
308
331
272
  5
2D1
331
233
  5
292
331
1A7
  5
240
331
160
  5
215
331
229
  5
28B
331
1A3
  5
23C
331
E76
  5
E3F
331
3DC
  5
442
331
158
  5
213
331
35E
  5
3CB
331
417
  5
5A0
331
E72
  5
E48
331
3D8
  5
43E
331
35A
  5
3C7
331
413
  5
59C
331
3D4
  5
43A
331
E6E
  5
E50
331
395
  5
403
331
E3D
  5
18C
331
356
  5
3C3
331
3D0
  5
436
331
E6A
  5
E54
331
391
  5
3FF
331
E39
  5
188
331
352
  5
3BF
331
B36
  5
E97
331
DC
  5
137
331
B32
  5
E93
331
127
  5
1C1
331
123
  5
1BD
331
C8
  5
133
331
7A7
  5
E62
331
465
  5
8A8
331
461
  5
7C1
331
455
  5
7B9
331
451
  5
7B3
331
72B
  5
E5F
331
5AC
  5
E1F
331
44D
  5
7AF
331
5A8
  5
E18
331
2E4
  5
343
331
26E
  5
2CD
331
31F
  5
37E
331
2E0
  5
33F
331
26A
  5
2C9
331
31B
  5
37A
331
2DC
  5
33B
331
2A5
  5
304
331
266
  5
2C5
331
2D8
  5
337
331
2A1
  5
300
331
262
  5
2C1
  0
XRECORD
  5
EAF
102
{ACAD_REACTORS
330
EAD
102
}
330
EAD
100
AcDbXrecord
280
     1
 70
     2
  0
XRECORD
  5
EAE
102
{ACAD_REACTORS
330
EAD
102
}
330
EAD
100
AcDbXrecord
280
     1
 40
1.25
  0
XRECORD
  5
EB0
102
{ACAD_REACTORS
330
EAD
102
}
330
EAD
100
AcDbXrecord
280
     1
 40
1.570796326794896
  0
LAYOUT
  5
39
102
{ACAD_XDICTIONARY
360
ED4
102
}
102
{ACAD_REACTORS
330
2E
102
}
330
2E
100
AcDbPlotSettings
  1

  2
PDF Complete
  4

  6

 40
0.0
 41
0.0
 42
0.0
 43
0.0
 44
0.0
 45
0.0
 46
0.0
 47
0.0
 48
0.0
 49
0.0
140
0.0
141
0.0
142
1.0
143
1.0
 70
  1712
 72
     0
 73
     0
 74
     0
  7

 75
     0
147
1.0
148
0.0
149
0.0
100
AcDbLayout
  1
Model
 70
     1
 71
     0
 10
0.0
 20
0.0
 11
12.0
 21
9.0
 12
0.0
 22
0.0
 32
0.0
 14
0.0
 24
0.0
 34
0.0
 15
0.0
 25
0.0
 35
0.0
146
0.0
 13
0.0
 23
0.0
 33
0.0
 16
1.0
 26
0.0
 36
0.0
 17
0.0
 27
1.0
 37
0.0
 76
     0
330
36
331
5A
  0
LAYOUT
  5
35
102
{ACAD_XDICTIONARY
360
ED2
102
}
102
{ACAD_REACTORS
330
2E
102
}
330
2E
100
AcDbPlotSettings
  1

  2
PDF Complete
  4

  6

 40
0.0
 41
0.0
 42
0.0
 43
0.0
 44
0.0
 45
0.0
 46
0.0
 47
0.0
 48
0.0
 49
0.0
140
0.0
141
0.0
142
1.0
143
1.0
 70
   688
 72
     0
 73
     0
 74
     5
  7

 75
    16
147
1.0
148
0.0
149
0.0
100
AcDbLayout
  1
レイアウト1
 70
     1
 71
     1
 10
0.0
 20
0.0
 11
12.0
 21
9.0
 12
0.0
 22
0.0
 32
0.0
 14
1.000000000000000E+20
 24
1.000000000000000E+20
 34
1.000000000000000E+20
 15
-1.000000000000000E+20
 25
-1.000000000000000E+20
 35
-1.000000000000000E+20
146
0.0
 13
0.0
 23
0.0
 33
0.0
 16
1.0
 26
0.0
 36
0.0
 17
0.0
 27
1.0
 37
0.0
 76
     0
330
32
  0
MATERIAL
  5
12
102
{ACAD_XDICTIONARY
360
4AB
102
}
102
{ACAD_REACTORS
330
10
102
}
330
10
100
AcDbMaterial
  1
ByBlock
  0
MATERIAL
  5
11
102
{ACAD_XDICTIONARY
360
4A9
102
}
102
{ACAD_REACTORS
330
10
102
}
330
10
100
AcDbMaterial
  1
ByLayer
  0
MATERIAL
  5
13
102
{ACAD_XDICTIONARY
360
4AD
102
}
102
{ACAD_REACTORS
330
10
102
}
330
10
100
AcDbMaterial
  1
Global
  0
MLEADERSTYLE
  5
4D8
102
{ACAD_REACTORS
330
4D7
102
}
330
4D7
100
AcDbMLeaderStyle
170
     2
171
     1
172
     0
 90
        2
 40
0.0
 41
0.0
173
     1
 91
-1056964608
340
28
 92
       -2
290
     1
 42
0.09
291
     1
 43
0.36
  3
Standard
 44
0.18
300

342
26
174
     1
178
     6
175
     1
176
     0
 93
-1056964608
 45
0.18
292
     0
297
     0
 46
0.18
 94
-1056964608
 47
1.0
 49
1.0
140
1.0
293
     1
141
0.0
294
     1
177
     0
142
1.0
295
     0
296
     0
143
0.125
1001
ACAD_MLEADERVER
1070
     2
  0
MLINESTYLE
  5
2C
102
{ACAD_REACTORS
330
2B
102
}
330
2B
100
AcDbMlineStyle
  2
STANDARD
 70
     0
  3

 62
   256
 51
90.0
 52
90.0
 71
     2
 49
0.5
 62
   256
  6
BYLAYER
 49
-0.5
 62
   256
  6
BYLAYER
  0
ACDBPLACEHOLDER
  5
F
102
{ACAD_REACTORS
330
E
102
}
330
E
  0
SCALE
  5
4C6
102
{ACAD_REACTORS
330
4C5
102
}
330
4C5
100
AcDbScale
 70
     0
300
1:1
140
1.0
141
1.0
290
     1
  0
SCALE
  5
4C7
102
{ACAD_REACTORS
330
4C5
102
}
330
4C5
100
AcDbScale
 70
     0
300
1/128" = 1'-0"
140
0.0078125
141
12.0
290
     0
  0
SCALE
  5
4C8
102
{ACAD_REACTORS
330
4C5
102
}
330
4C5
100
AcDbScale
 70
     0
300
1/64" = 1'-0"
140
0.015625
141
12.0
290
     0
  0
SCALE
  5
4C9
102
{ACAD_REACTORS
330
4C5
102
}
330
4C5
100
AcDbScale
 70
     0
300
1/32" = 1'-0"
140
0.03125
141
12.0
290
     0
  0
SCALE
  5
4CA
102
{ACAD_REACTORS
330
4C5
102
}
330
4C5
100
AcDbScale
 70
     0
300
1/16" = 1'-0"
140
0.0625
141
12.0
290
     0
  0
SCALE
  5
4CB
102
{ACAD_REACTORS
330
4C5
102
}
330
4C5
100
AcDbScale
 70
     0
300
3/32" = 1'-0"
140
0.09375
141
12.0
290
     0
  0
SCALE
  5
4CC
102
{ACAD_REACTORS
330
4C5
102
}
330
4C5
100
AcDbScale
 70
     0
300
1/8" = 1'-0"
140
0.125
141
12.0
290
     0
  0
SCALE
  5
4CD
102
{ACAD_REACTORS
330
4C5
102
}
330
4C5
100
AcDbScale
 70
     0
300
3/16" = 1'-0"
140
0.1875
141
12.0
290
     0
  0
SCALE
  5
4CE
102
{ACAD_REACTORS
330
4C5
102
}
330
4C5
100
AcDbScale
 70
     0
300
1/4" = 1'-0"
140
0.25
141
12.0
290
     0
  0
SCALE
  5
4CF
102
{ACAD_REACTORS
330
4C5
102
}
330
4C5
100
AcDbScale
 70
     0
300
3/8" = 1'-0"
140
0.375
141
12.0
290
     0
  0
SCALE
  5
4D0
102
{ACAD_REACTORS
330
4C5
102
}
330
4C5
100
AcDbScale
 70
     0
300
1/2" = 1'-0"
140
0.5
141
12.0
290
     0
  0
SCALE
  5
4D1
102
{ACAD_REACTORS
330
4C5
102
}
330
4C5
100
AcDbScale
 70
     0
300
3/4" = 1'-0"
140
0.75
141
12.0
290
     0
  0
SCALE
  5
4D2
102
{ACAD_REACTORS
330
4C5
102
}
330
4C5
100
AcDbScale
 70
     0
300
1" = 1'-0"
140
1.0
141
12.0
290
     0
  0
SCALE
  5
4D3
102
{ACAD_REACTORS
330
4C5
102
}
330
4C5
100
AcDbScale
 70
     0
300
1-1/2" = 1'-0"
140
1.5
141
12.0
290
     0
  0
SCALE
  5
4D4
102
{ACAD_REACTORS
330
4C5
102
}
330
4C5
100
AcDbScale
 70
     0
300
3" = 1'-0"
140
3.0
141
12.0
290
     0
  0
SCALE
  5
4D5
102
{ACAD_REACTORS
330
4C5
102
}
330
4C5
100
AcDbScale
 70
     0
300
6" = 1'-0"
140
6.0
141
12.0
290
     0
  0
SCALE
  5
4D6
102
{ACAD_REACTORS
330
4C5
102
}
330
4C5
100
AcDbScale
 70
     0
300
1'-0" = 1'-0"
140
12.0
141
12.0
290
     0
  0
TABLESTYLE
  5
31
102
{ACAD_XDICTIONARY
360
742
102
}
102
{ACAD_REACTORS
330
30
102
}
330
30
100
AcDbTableStyle
  3
Standard
 70
     0
 71
     0
 40
0.06
 41
0.06
280
     0
281
     0
  7
STANDARD
140
0.18
170
     2
 62
     0
 63
     7
283
     0
274
    -2
284
     1
 64
     0
275
    -2
285
     1
 65
     0
276
    -2
286
     1
 66
     0
277
    -2
287
     1
 67
     0
278
    -2
288
     1
 68
     0
279
    -2
289
     1
 69
     0
  7
STANDARD
140
0.25
170
     5
 62
     0
 63
     7
283
     0
274
    -2
284
     1
 64
     0
275
    -2
285
     1
 65
     0
276
    -2
286
     1
 66
     0
277
    -2
287
     1
 67
     0
278
    -2
288
     1
 68
     0
279
    -2
289
     1
 69
     0
  7
STANDARD
140
0.18
170
     5
 62
     0
 63
     7
283
     0
274
    -2
284
     1
 64
     0
275
    -2
285
     1
 65
     0
276
    -2
286
     1
 66
     0
277
    -2
287
     1
 67
     0
278
    -2
288
     1
 68
     0
279
    -2
289
     1
 69
     0
  0
TABLESTYLE
  5
A1F
102
{ACAD_XDICTIONARY
360
A20
102
}
102
{ACAD_REACTORS
330
30
102
}
330
30
100
AcDbTableStyle
  3
Standard
 70
     1
 71
     0
 40
1.5
 41
0.5
280
     0
281
     0
  7
高3.2
140
0.18
170
     7
 62
     3
 63
     7
283
     0
274
    -2
284
     1
 64
     3
275
    -2
285
     1
 65
     7
276
    -2
286
     1
 66
     3
277
    -2
287
     1
 67
     3
278
    -2
288
     1
 68
     7
279
    -2
289
     1
 69
     3
  7
高3.2
140
0.25
170
     8
 62
     3
 63
     7
283
     0
274
    -2
284
     1
 64
     0
275
    -2
285
     1
 65
     0
276
    -2
286
     1
 66
     0
277
    -2
287
     1
 67
     0
278
    -2
288
     1
 68
     0
279
    -2
289
     1
 69
     0
  7
高3.2
140
0.18
170
     7
 62
     3
 63
     7
283
     0
274
    -2
284
     1
 64
     3
275
    -2
285
     1
 65
     7
276
    -2
286
     1
 66
     3
277
    -2
287
     1
 67
     3
278
    -2
288
     1
 68
     7
279
    -2
289
     1
 69
     3
  0
VISUALSTYLE
  5
1A
102
{ACAD_XDICTIONARY
360
EBB
102
}
102
{ACAD_REACTORS
330
14
102
}
330
14
100
AcDbVisualStyle
  2

 70
     4
 71
     0
 72
     2
 73
     0
 90
        0
 40
-0.6
 41
-30.0
 62
     5
 63
     7
 74
     1
 91
        4
 64
     7
 65
   257
 75
     1
175
     1
 42
1.0
 92
        0
 66
   257
 43
1.0
 76
     1
 77
     6
 78
     2
 67
     7
 79
     5
170
     0
171
     0
290
     0
174
     0
 93
        1
 44
0.0
173
     0
291
     0
 45
0.0
1001
ACAD
1000
AcDbSavedByObjectVersion
1070
     0
  0
VISUALSTYLE
  5
1C
102
{ACAD_XDICTIONARY
360
EBF
102
}
102
{ACAD_REACTORS
330
14
102
}
330
14
100
AcDbVisualStyle
  2

 70
     6
 71
     1
 72
     2
 73
     2
 90
        0
 40
-0.6
 41
-30.0
 62
     5
 63
     7
 74
     2
 91
        2
 64
     7
 65
   257
 75
     2
175
     1
 42
40.0
 92
        0
 66
   257
 43
1.0
 76
     1
 77
     6
 78
     2
 67
     7
 79
     3
170
     0
171
     0
290
     0
174
     0
 93
        1
 44
0.0
173
     0
291
     0
 45
0.0
1001
ACAD
1000
AcDbSavedByObjectVersion
1070
     0
  0
VISUALSTYLE
  5
1B
102
{ACAD_XDICTIONARY
360
EBD
102
}
102
{ACAD_REACTORS
330
14
102
}
330
14
100
AcDbVisualStyle
  2

 70
     5
 71
     0
 72
     2
 73
     0
 90
        0
 40
-0.6
 41
-30.0
 62
     5
 63
     7
 74
     1
 91
        4
 64
     7
 65
   257
 75
     1
175
     1
 42
1.0
 92
        0
 66
   257
 43
1.0
 76
     1
 77
     6
 78
     2
 67
     7
 79
     5
170
     0
171
     0
290
     0
174
     0
 93
        1
 44
0.0
173
     0
291
     0
 45
0.0
1001
ACAD
1000
AcDbSavedByObjectVersion
1070
     0
  0
VISUALSTYLE
  5
19
102
{ACAD_XDICTIONARY
360
EB9
102
}
102
{ACAD_REACTORS
330
14
102
}
330
14
100
AcDbVisualStyle
  2

 70
     7
 71
     1
 72
     0
 73
     1
 90
        0
 40
-0.6
 41
-30.0
 62
     5
 63
     7
 74
     0
 91
        4
 64
     7
 65
   257
 75
     1
175
     1
 42
1.0
 92
        8
 66
     7
 43
1.0
 76
     1
 77
     6
 78
     2
 67
     7
 79
     5
170
     0
171
     0
290
     0
174
     0
 93
        1
 44
0.0
173
     0
291
     1
 45
0.0
1001
ACAD
1000
AcDbSavedByObjectVersion
1070
     0
  0
VISUALSTYLE
  5
20
102
{ACAD_XDICTIONARY
360
EC7
102
}
102
{ACAD_REACTORS
330
14
102
}
330
14
100
AcDbVisualStyle
  2

 70
    12
 71
     2
 72
     2
 73
     0
 90
        0
 40
-0.6
 41
-30.0
 62
     5
 63
     7
 74
     1
 91
        4
 64
     7
 65
   257
 75
     1
175
     1
 42
1.0
 92
        8
 66
     7
 43
1.0
 76
     1
 77
     6
 78
     2
 67
     7
 79
     5
170
     0
171
     0
290
     0
174
     0
 93
        1
 44
50.0
173
     0
291
     1
 45
0.0
1001
ACAD
1000
AcDbSavedByObjectVersion
1070
     0
  0
VISUALSTYLE
  5
24
102
{ACAD_XDICTIONARY
360
ECF
102
}
102
{ACAD_REACTORS
330
14
102
}
330
14
100
AcDbVisualStyle
  2

 70
    16
 71
     2
 72
     2
 73
     3
 90
        0
 40
-0.6
 41
-30.0
 62
     5
 63
     8
 74
     1
 91
        4
 64
     7
 65
   257
 75
     1
175
     1
 42
1.0
 92
        8
 66
     8
 43
1.0
 76
     1
 77
     6
 78
     2
 67
     7
 79
     5
170
     0
171
     0
290
     0
174
     0
 93
        1
 44
0.0
173
     0
291
     1
 45
0.0
1001
ACAD
1000
AcDbSavedByObjectVersion
1070
     0
  0
VISUALSTYLE
  5
1D
102
{ACAD_XDICTIONARY
360
EC1
102
}
102
{ACAD_REACTORS
330
14
102
}
330
14
100
AcDbVisualStyle
  2

 70
     9
 71
     3
 72
     2
 73
     0
 90
        0
 40
-0.6
 41
-30.0
 62
     5
 63
     7
 74
     2
 91
        2
 64
     7
 65
   257
 75
     1
175
     1
 42
40.0
 92
        8
 66
     7
 43
1.0
 76
     1
 77
     6
 78
     2
 67
     7
 79
     3
170
     0
171
     0
290
     0
174
     0
 93
        1
 44
0.0
173
     0
291
     0
 45
0.0
1001
ACAD
1000
AcDbSavedByObjectVersion
1070
     0
  0
VISUALSTYLE
  5
1F
102
{ACAD_XDICTIONARY
360
EC5
102
}
102
{ACAD_REACTORS
330
14
102
}
330
14
100
AcDbVisualStyle
  2

 70
    11
 71
     2
 72
     2
 73
     0
 90
        0
 40
-0.6
 41
-30.0
 62
     5
 63
     7
 74
     1
 91
        4
 64
     7
 65
   257
 75
     1
175
     1
 42
1.0
 92
        8
 66
     7
 43
1.0
 76
     1
 77
     6
 78
     2
 67
     7
 79
     5
170
     0
171
     0
290
     0
174
     0
 93
        1
 44
-50.0
173
     0
291
     1
 45
0.0
1001
ACAD
1000
AcDbSavedByObjectVersion
1070
     0
  0
VISUALSTYLE
  5
4C4
102
{ACAD_XDICTIONARY
360
EE8
102
}
102
{ACAD_REACTORS
330
14
102
}
330
14
100
AcDbVisualStyle
  2

 70
    22
 71
     2
 72
     2
 73
     0
 90
        0
 40
-0.6
 41
-30.0
 62
     5
 63
     7
 74
     1
 91
        4
 64
     7
 65
   257
 75
     1
175
     1
 42
1.0
 92
        8
 66
     7
 43
1.0
 76
     1
 77
     6
 78
     2
 67
     7
 79
     5
170
     0
171
     0
290
     0
174
     0
 93
        1
 44
0.0
173
     0
291
     1
 45
0.0
1001
ACAD
1000
AcDbSavedByObjectVersion
1070
     0
  0
VISUALSTYLE
  5
23
102
{ACAD_XDICTIONARY
360
ECD
102
}
102
{ACAD_REACTORS
330
14
102
}
330
14
100
AcDbVisualStyle
  2

 70
    15
 71
     2
 72
     2
 73
     0
 90
        0
 40
-0.6
 41
-30.0
 62
     5
 63
     7
 74
     1
 91
        4
 64
     7
 65
   257
 75
     1
175
     1
 42
1.0
 92
        8
 66
     7
 43
1.0
 76
     1
 77
     6
 78
     2
 67
     7
 79
     5
170
     0
171
     0
290
     0
174
     0
 93
        1
 44
0.0
173
     0
291
     1
 45
0.0
1001
ACAD
1000
AcDbSavedByObjectVersion
1070
     0
  0
VISUALSTYLE
  5
15
102
{ACAD_XDICTIONARY
360
EB1
102
}
102
{ACAD_REACTORS
330
14
102
}
330
14
100
AcDbVisualStyle
  2

 70
     0
 71
     2
 72
     1
 73
     1
 90
        2
 40
-0.6
 41
30.0
 62
     5
 63
     7
 74
     0
 91
        4
 64
     7
 65
   257
 75
     1
175
     1
 42
1.0
 92
        8
 66
     7
 43
1.0
 76
     1
 77
     6
 78
     2
 67
     7
 79
     5
170
     0
171
     0
290
     0
174
     0
 93
       13
 44
0.0
173
     0
291
     1
 45
0.0
1001
ACAD
1000
AcDbSavedByObjectVersion
1070
     0
  0
VISUALSTYLE
  5
16
102
{ACAD_XDICTIONARY
360
EB3
102
}
102
{ACAD_REACTORS
330
14
102
}
330
14
100
AcDbVisualStyle
  2

 70
     1
 71
     2
 72
     1
 73
     1
 90
        2
 40
-0.6
 41
30.0
 62
     5
 63
     7
 74
     1
 91
        4
 64
     7
 65
   257
 75
     1
175
     1
 42
1.0
 92
        0
 66
   257
 43
1.0
 76
     1
 77
     6
 78
     2
 67
     7
 79
     5
170
     0
171
     0
290
     0
174
     0
 93
       13
 44
0.0
173
     0
291
     1
 45
0.0
1001
ACAD
1000
AcDbSavedByObjectVersion
1070
     0
  0
VISUALSTYLE
  5
17
102
{ACAD_XDICTIONARY
360
EB5
102
}
102
{ACAD_REACTORS
330
14
102
}
330
14
100
AcDbVisualStyle
  2

 70
     2
 71
     2
 72
     2
 73
     1
 90
        2
 40
-0.6
 41
30.0
 62
     5
 63
     7
 74
     0
 91
        4
 64
     7
 65
   257
 75
     1
175
     1
 42
1.0
 92
        0
 66
     7
 43
1.0
 76
     1
 77
     6
 78
     2
 67
     7
 79
     5
170
     0
171
     0
290
     0
174
     0
 93
       13
 44
0.0
173
     0
291
     1
 45
0.0
1001
ACAD
1000
AcDbSavedByObjectVersion
1070
     0
  0
VISUALSTYLE
  5
18
102
{ACAD_XDICTIONARY
360
EB7
102
}
102
{ACAD_REACTORS
330
14
102
}
330
14
100
AcDbVisualStyle
  2

 70
     3
 71
     2
 72
     2
 73
     1
 90
        2
 40
-0.6
 41
30.0
 62
     5
 63
     7
 74
     1
 91
        4
 64
     7
 65
   257
 75
     1
175
     1
 42
1.0
 92
        0
 66
   257
 43
1.0
 76
     1
 77
     6
 78
     2
 67
     7
 79
     5
170
     0
171
     0
290
     0
174
     0
 93
       13
 44
0.0
173
     0
291
     1
 45
0.0
1001
ACAD
1000
AcDbSavedByObjectVersion
1070
     0
  0
VISUALSTYLE
  5
4BC
102
{ACAD_XDICTIONARY
360
ED8
102
}
102
{ACAD_REACTORS
330
14
102
}
330
14
100
AcDbVisualStyle
  2

 70
     6
 71
     1
 72
     2
 73
     2
 90
        0
 40
-0.6
 41
-30.0
 62
     5
 63
     7
 74
     2
 91
        2
 64
     7
 65
   257
 75
     2
175
     1
 42
40.0
 92
        0
 66
   257
 43
1.0
 76
     1
 77
     6
 78
     2
 67
     7
 79
     3
170
     0
171
     0
290
     0
174
     0
 93
        1
 44
0.0
173
     0
291
     0
 45
0.0
1001
ACAD
1000
AcDbSavedByObjectVersion
1070
     0
  0
VISUALSTYLE
  5
4C2
102
{ACAD_XDICTIONARY
360
EE4
102
}
102
{ACAD_REACTORS
330
14
102
}
330
14
100
AcDbVisualStyle
  2

 70
    20
 71
     2
 72
     2
 73
     0
 90
        0
 40
-0.6
 41
-30.0
 62
     5
 63
     7
 74
     1
 91
        4
 64
     7
 65
   257
 75
     1
175
     1
 42
1.0
 92
       10
 66
     7
 43
1.0
 76
     1
 77
     6
 78
     2
 67
     7
 79
     5
170
     0
171
     0
290
     0
174
     0
 93
        1
 44
0.0
173
     0
291
     1
 45
0.0
1001
ACAD
1000
AcDbSavedByObjectVersion
1070
     0
  0
VISUALSTYLE
  5
22
102
{ACAD_XDICTIONARY
360
ECB
102
}
102
{ACAD_REACTORS
330
14
102
}
330
14
100
AcDbVisualStyle
  2

 70
    14
 71
     2
 72
     2
 73
     0
 90
        0
 40
-0.6
 41
-30.0
 62
     5
 63
     7
 74
     1
 91
        4
 64
     7
 65
   257
 75
     7
175
     7
 42
1.0
 92
        8
 66
     7
 43
1.0
 76
     1
 77
     6
 78
     2
 67
     7
 79
     5
170
     0
171
     0
290
     0
174
     0
 93
        1
 44
0.0
173
     0
291
     1
 45
0.0
1001
ACAD
1000
AcDbSavedByObjectVersion
1070
     0
  0
VISUALSTYLE
  5
4C3
102
{ACAD_XDICTIONARY
360
EE6
102
}
102
{ACAD_REACTORS
330
14
102
}
330
14
100
AcDbVisualStyle
  2

 70
    21
 71
     2
 72
     2
 73
     0
 90
        0
 40
-0.6
 41
-30.0
 62
     5
 63
     7
 74
     1
 91
        4
 64
     7
 65
   257
 75
     1
175
     1
 42
1.0
 92
        9
 66
     7
 43
1.0
 76
     1
 77
     6
 78
     2
 67
     7
 79
     5
170
     0
171
     0
290
     0
174
     0
 93
        1
 44
0.0
173
     0
291
     1
 45
0.0
1001
ACAD
1000
AcDbSavedByObjectVersion
1070
     0
  0
VISUALSTYLE
  5
1E
102
{ACAD_XDICTIONARY
360
EC3
102
}
102
{ACAD_REACTORS
330
14
102
}
330
14
100
AcDbVisualStyle
  2

 70
     8
 71
     2
 72
     2
 73
     0
 90
        0
 40
-0.6
 41
-30.0
 62
     5
 63
     7
 74
     1
 91
        0
 64
     7
 65
   257
 75
     1
175
     1
 42
1.0
 92
        8
 66
     8
 43
1.0
 76
     1
 77
     6
 78
     2
 67
     7
 79
     5
170
     0
171
     0
290
     0
174
     0
 93
       13
 44
0.0
173
     0
291
     0
 45
0.0
1001
ACAD
1000
AcDbSavedByObjectVersion
1070
     0
  0
VISUALSTYLE
  5
4C1
102
{ACAD_XDICTIONARY
360
EE2
102
}
102
{ACAD_REACTORS
330
14
102
}
330
14
100
AcDbVisualStyle
  2

 70
    27
 71
     2
 72
     2
 73
     1
 90
        2
 40
-0.6
 41
30.0
 62
     5
 63
     7
 74
     0
 91
        4
 64
     7
 65
   257
 75
     1
175
     1
 42
1.0
 92
        8
 66
   257
 43
1.0
 76
     1
 77
     6
 78
     2
 67
     8
 79
     3
170
     0
171
     0
290
     0
174
     0
 93
        5
 44
0.0
173
     0
291
     0
 45
0.0
1001
ACAD
1000
AcDbSavedByObjectVersion
1070
     0
  0
VISUALSTYLE
  5
4C0
102
{ACAD_XDICTIONARY
360
EE0
102
}
102
{ACAD_REACTORS
330
14
102
}
330
14
100
AcDbVisualStyle
  2

 70
    26
 71
     2
 72
     2
 73
     1
 90
        2
 40
-0.6
 41
30.0
 62
     5
 63
     7
 74
     1
 91
       10
 64
     7
 65
   257
 75
     2
175
     1
 42
1.0
 92
        8
 66
   257
 43
1.0
 76
     1
 77
     6
 78
     2
 67
     7
 79
     3
170
     0
171
     0
290
     0
174
     0
 93
        5
 44
0.0
173
     0
291
     0
 45
0.0
1001
ACAD
1000
AcDbSavedByObjectVersion
1070
     0
  0
VISUALSTYLE
  5
4BD
102
{ACAD_XDICTIONARY
360
EDA
102
}
102
{ACAD_REACTORS
330
14
102
}
330
14
100
AcDbVisualStyle
  2

 70
    23
 71
     2
 72
     2
 73
     3
 90
        0
 40
-0.6
 41
-30.0
 62
     5
 63
     7
 74
     2
 91
        2
 64
     7
 65
     7
 75
     1
175
     1
 42
40.0
 92
        8
 66
     7
 43
1.0
 76
     1
 77
     6
 78
     2
 67
     7
 79
     3
170
     0
171
     0
290
     0
174
     0
 93
        1
 44
0.0
173
     0
291
     0
 45
0.0
1001
ACAD
1000
AcDbSavedByObjectVersion
1070
     0
  0
VISUALSTYLE
  5
4BE
102
{ACAD_XDICTIONARY
360
EDC
102
}
102
{ACAD_REACTORS
330
14
102
}
330
14
100
AcDbVisualStyle
  2

 70
    24
 71
     1
 72
     2
 73
     2
 90
        0
 40
-0.6
 41
-30.0
 62
     5
 63
     7
 74
     2
 91
        2
 64
     7
 65
     7
 75
     1
175
     1
 42
40.0
 92
       11
 66
     7
 43
1.0
 76
     1
 77
     6
 78
     2
 67
     7
 79
     6
170
     0
171
     0
290
     0
174
     0
 93
        1
 44
0.0
173
     0
291
     0
 45
0.0
1001
ACAD
1000
AcDbSavedByObjectVersion
1070
     0
  0
VISUALSTYLE
  5
21
102
{ACAD_XDICTIONARY
360
EC9
102
}
102
{ACAD_REACTORS
330
14
102
}
330
14
100
AcDbVisualStyle
  2

 70
    13
 71
     2
 72
     2
 73
     0
 90
        0
 40
-0.6
 41
-30.0
 62
     5
 63
     7
 74
     1
 91
        4
 64
     7
 65
   257
 75
     1
175
     1
 42
1.0
 92
       12
 66
     7
 43
1.0
 76
     1
 77
     6
 78
     2
 67
     7
 79
     5
170
     0
171
     0
290
     0
174
     0
 93
        1
 44
0.0
173
     0
291
     1
 45
0.0
1001
ACAD
1000
AcDbSavedByObjectVersion
1070
     0
  0
VISUALSTYLE
  5
4BB
102
{ACAD_XDICTIONARY
360
ED6
102
}
102
{ACAD_REACTORS
330
14
102
}
330
14
100
AcDbVisualStyle
  2

 70
     5
 71
     0
 72
     2
 73
     0
 90
        0
 40
-0.6
 41
-30.0
 62
     5
 63
     7
 74
     1
 91
        4
 64
     7
 65
   257
 75
     1
175
     1
 42
1.0
 92
        0
 66
   257
 43
1.0
 76
     1
 77
     6
 78
     2
 67
     7
 79
     3
170
     0
171
     0
290
     0
174
     0
 93
        1
 44
0.0
173
     0
291
     0
 45
0.0
1001
ACAD
1000
AcDbSavedByObjectVersion
1070
     0
  0
VISUALSTYLE
  5
4BF
102
{ACAD_XDICTIONARY
360
EDE
102
}
102
{ACAD_REACTORS
330
14
102
}
330
14
100
AcDbVisualStyle
  2

 70
    25
 71
     2
 72
     2
 73
     1
 90
        1
 40
0.5
 41
-30.0
 62
     5
 63
     7
 74
     1
 91
        0
 64
     7
 65
   257
 75
     1
175
     1
 42
1.0
 92
        8
 66
     7
 43
1.0
 76
     1
 77
     6
 78
     2
 67
     7
 79
     3
170
     0
171
     0
290
     0
174
     0
 93
       13
 44
0.0
173
     0
291
     0
 45
0.0
1001
ACAD
1000
AcDbSavedByObjectVersion
1070
     0
  0
DICTIONARYVAR
  5
740
102
{ACAD_REACTORS
330
4A3
102
}
330
4A3
100
DictionaryVariables
280
     0
  1
1:1
  0
DICTIONARYVAR
  5
73F
102
{ACAD_REACTORS
330
4A3
102
}
330
4A3
100
DictionaryVariables
280
     0
  1
STANDARD
  0
DICTIONARYVAR
  5
4A4
102
{ACAD_REACTORS
330
4A3
102
}
330
4A3
100
DictionaryVariables
280
     0
  1
STANDARD
  0
DICTIONARYVAR
  5
4A7
102
{ACAD_REACTORS
330
4A3
102
}
330
4A3
100
DictionaryVariables
280
     0
  1
1
  0
DICTIONARYVAR
  5
4A6
102
{ACAD_REACTORS
330
4A3
102
}
330
4A3
100
DictionaryVariables
280
     0
  1
0
  0
DICTIONARYVAR
  5
4A5
102
{ACAD_REACTORS
330
4A3
102
}
330
4A3
100
DictionaryVariables
280
     0
  1
127
  0
DICTIONARYVAR
  5
DC5
102
{ACAD_REACTORS
330
4A3
102
}
330
4A3
100
DictionaryVariables
280
     0
  1
2
  0
DICTIONARY
  5
ED4
330
39
100
AcDbDictionary
280
     1
281
     1
  3
ACAD_XREC_ROUNDTRIP
360
ED5
  0
DICTIONARY
  5
ED2
330
35
100
AcDbDictionary
280
     1
281
     1
  3
ACAD_XREC_ROUNDTRIP
360
ED3
  0
DICTIONARY
  5
4AB
330
12
100
AcDbDictionary
280
     1
281
     1
  3
ACAD_XREC_ROUNDTRIP
360
4AC
  0
DICTIONARY
  5
4A9
330
11
100
AcDbDictionary
280
     1
281
     1
  3
ACAD_XREC_ROUNDTRIP
360
4AA
  0
DICTIONARY
  5
4AD
330
13
100
AcDbDictionary
280
     1
281
     1
  3
ACAD_XREC_ROUNDTRIP
360
4AE
  0
DICTIONARY
  5
742
330
31
100
AcDbDictionary
280
     1
281
     1
  3
ACAD_ROUNDTRIP_2008_TABLESTYLE_CELLSTYLEMAP
360
EA9
  3
ACAD_XREC_ROUNDTRIP
360
ED1
  0
DICTIONARY
  5
A20
330
A1F
100
AcDbDictionary
280
     1
281
     1
  3
ACAD_ROUNDTRIP_2008_TABLESTYLE_CELLSTYLEMAP
360
EAA
  3
ACAD_XREC_ROUNDTRIP
360
EEA
  0
DICTIONARY
  5
EBB
330
1A
100
AcDbDictionary
280
     1
281
     1
  3
ACAD_XREC_ROUNDTRIP
360
EBC
  0
DICTIONARY
  5
EBF
330
1C
100
AcDbDictionary
280
     1
281
     1
  3
ACAD_XREC_ROUNDTRIP
360
EC0
  0
DICTIONARY
  5
EBD
330
1B
100
AcDbDictionary
280
     1
281
     1
  3
ACAD_XREC_ROUNDTRIP
360
EBE
  0
DICTIONARY
  5
EB9
330
19
100
AcDbDictionary
280
     1
281
     1
  3
ACAD_XREC_ROUNDTRIP
360
EBA
  0
DICTIONARY
  5
EC7
330
20
100
AcDbDictionary
280
     1
281
     1
  3
ACAD_XREC_ROUNDTRIP
360
EC8
  0
DICTIONARY
  5
ECF
330
24
100
AcDbDictionary
280
     1
281
     1
  3
ACAD_XREC_ROUNDTRIP
360
ED0
  0
DICTIONARY
  5
EC1
330
1D
100
AcDbDictionary
280
     1
281
     1
  3
ACAD_XREC_ROUNDTRIP
360
EC2
  0
DICTIONARY
  5
EC5
330
1F
100
AcDbDictionary
280
     1
281
     1
  3
ACAD_XREC_ROUNDTRIP
360
EC6
  0
DICTIONARY
  5
EE8
330
4C4
100
AcDbDictionary
280
     1
281
     1
  3
ACAD_XREC_ROUNDTRIP
360
EE9
  0
DICTIONARY
  5
ECD
330
23
100
AcDbDictionary
280
     1
281
     1
  3
ACAD_XREC_ROUNDTRIP
360
ECE
  0
DICTIONARY
  5
EB1
330
15
100
AcDbDictionary
280
     1
281
     1
  3
ACAD_XREC_ROUNDTRIP
360
EB2
  0
DICTIONARY
  5
EB3
330
16
100
AcDbDictionary
280
     1
281
     1
  3
ACAD_XREC_ROUNDTRIP
360
EB4
  0
DICTIONARY
  5
EB5
330
17
100
AcDbDictionary
280
     1
281
     1
  3
ACAD_XREC_ROUNDTRIP
360
EB6
  0
DICTIONARY
  5
EB7
330
18
100
AcDbDictionary
280
     1
281
     1
  3
ACAD_XREC_ROUNDTRIP
360
EB8
  0
DICTIONARY
  5
ED8
330
4BC
100
AcDbDictionary
280
     1
281
     1
  3
ACAD_XREC_ROUNDTRIP
360
ED9
  0
DICTIONARY
  5
EE4
330
4C2
100
AcDbDictionary
280
     1
281
     1
  3
ACAD_XREC_ROUNDTRIP
360
EE5
  0
DICTIONARY
  5
ECB
330
22
100
AcDbDictionary
280
     1
281
     1
  3
ACAD_XREC_ROUNDTRIP
360
ECC
  0
DICTIONARY
  5
EE6
330
4C3
100
AcDbDictionary
280
     1
281
     1
  3
ACAD_XREC_ROUNDTRIP
360
EE7
  0
DICTIONARY
  5
EC3
330
1E
100
AcDbDictionary
280
     1
281
     1
  3
ACAD_XREC_ROUNDTRIP
360
EC4
  0
DICTIONARY
  5
EE2
330
4C1
100
AcDbDictionary
280
     1
281
     1
  3
ACAD_XREC_ROUNDTRIP
360
EE3
  0
DICTIONARY
  5
EE0
330
4C0
100
AcDbDictionary
280
     1
281
     1
  3
ACAD_XREC_ROUNDTRIP
360
EE1
  0
DICTIONARY
  5
EDA
330
4BD
100
AcDbDictionary
280
     1
281
     1
  3
ACAD_XREC_ROUNDTRIP
360
EDB
  0
DICTIONARY
  5
EDC
330
4BE
100
AcDbDictionary
280
     1
281
     1
  3
ACAD_XREC_ROUNDTRIP
360
EDD
  0
DICTIONARY
  5
EC9
330
21
100
AcDbDictionary
280
     1
281
     1
  3
ACAD_XREC_ROUNDTRIP
360
ECA
  0
DICTIONARY
  5
ED6
330
4BB
100
AcDbDictionary
280
     1
281
     1
  3
ACAD_XREC_ROUNDTRIP
360
ED7
  0
DICTIONARY
  5
EDE
330
4BF
100
AcDbDictionary
280
     1
281
     1
  3
ACAD_XREC_ROUNDTRIP
360
EDF
  0
XRECORD
  5
ED5
102
{ACAD_REACTORS
330
ED4
102
}
330
ED4
100
AcDbXrecord
280
     1
102
SHADEPLOT
 70
     0
102
SHADEPLOTRESLEVEL
 70
     2
102
SHADEPLOTCUSTOMDPI
 70
   300
  0
XRECORD
  5
ED3
102
{ACAD_REACTORS
330
ED2
102
}
330
ED2
100
AcDbXrecord
280
     1
102
SHADEPLOT
 70
     0
102
SHADEPLOTRESLEVEL
 70
     2
102
SHADEPLOTCUSTOMDPI
 70
   300
  0
XRECORD
  5
4AC
102
{ACAD_REACTORS
330
4AB
102
}
330
4AB
100
AcDbXrecord
280
     1
102
MATERIAL
148
0.0
149
0.0
149
0.0
 93
        0
 94
      127
282
     0
 72
     1
 77
     1
171
     1
175
     1
179
     1
273
     0
  0
XRECORD
  5
4AA
102
{ACAD_REACTORS
330
4A9
102
}
330
4A9
100
AcDbXrecord
280
     1
102
MATERIAL
148
0.0
149
0.0
149
0.0
 93
        0
 94
      127
282
     0
 72
     1
 77
     1
171
     1
175
     1
179
     1
273
     0
  0
XRECORD
  5
4AE
102
{ACAD_REACTORS
330
4AD
102
}
330
4AD
100
AcDbXrecord
280
     1
102
MATERIAL
148
0.0
149
0.0
149
0.0
 93
        0
 94
      127
282
     0
 72
     1
 77
     1
171
     1
175
     1
179
     1
273
     0
  0
CELLSTYLEMAP
  5
EA9
102
{ACAD_REACTORS
330
742
102
}
330
742
100
AcDbCellStyleMap
 90
        3
300
CELLSTYLE
  1
TABLEFORMAT_BEGIN
 90
        5
170
     1
 91
        0
 92
    32768
 62
   257
 93
        1
300
CONTENTFORMAT
  1
CONTENTFORMAT_BEGIN
 90
        0
 91
        0
 92
      512
 93
        0
300

 40
0.0
140
1.0
 94
        5
 62
     0
340
26
144
0.25
309
CONTENTFORMAT_END
171
     1
301
MARGIN
  1
CELLMARGIN_BEGIN
 40
0.06
 40
0.06
 40
0.06
 40
0.06
 40
0.18
 40
0.18
309
CELLMARGIN_END
 94
        6
 95
        1
302
GRIDFORMAT
  1
GRIDFORMAT_BEGIN
 90
        0
 91
        1
 62
     0
 92
       -2
340
0
 93
        0
 40
0.045
309
GRIDFORMAT_END
 95
        2
302
GRIDFORMAT
  1
GRIDFORMAT_BEGIN
 90
        0
 91
        1
 62
     0
 92
       -2
340
0
 93
        0
 40
0.045
309
GRIDFORMAT_END
 95
        4
302
GRIDFORMAT
  1
GRIDFORMAT_BEGIN
 90
        0
 91
        1
 62
     0
 92
       -2
340
0
 93
        0
 40
0.045
309
GRIDFORMAT_END
 95
        8
302
GRIDFORMAT
  1
GRIDFORMAT_BEGIN
 90
        0
 91
        1
 62
     0
 92
       -2
340
0
 93
        0
 40
0.045
309
GRIDFORMAT_END
 95
       16
302
GRIDFORMAT
  1
GRIDFORMAT_BEGIN
 90
        0
 91
        1
 62
     0
 92
       -2
340
0
 93
        0
 40
0.045
309
GRIDFORMAT_END
 95
       32
302
GRIDFORMAT
  1
GRIDFORMAT_BEGIN
 90
        0
 91
        1
 62
     0
 92
       -2
340
0
 93
        0
 40
0.045
309
GRIDFORMAT_END
309
TABLEFORMAT_END
  1
CELLSTYLE_BEGIN
 90
        1
 91
        1
300
_TITLE
309
CELLSTYLE_END
300
CELLSTYLE
  1
TABLEFORMAT_BEGIN
 90
        5
170
     1
 91
        0
 92
        0
 62
   257
 93
        1
300
CONTENTFORMAT
  1
CONTENTFORMAT_BEGIN
 90
        0
 91
        0
 92
      512
 93
        0
300

 40
0.0
140
1.0
 94
        5
 62
     0
340
26
144
0.18
309
CONTENTFORMAT_END
171
     1
301
MARGIN
  1
CELLMARGIN_BEGIN
 40
0.06
 40
0.06
 40
0.06
 40
0.06
 40
0.18
 40
0.18
309
CELLMARGIN_END
 94
        6
 95
        1
302
GRIDFORMAT
  1
GRIDFORMAT_BEGIN
 90
        0
 91
        1
 62
     0
 92
       -2
340
0
 93
        0
 40
0.045
309
GRIDFORMAT_END
 95
        2
302
GRIDFORMAT
  1
GRIDFORMAT_BEGIN
 90
        0
 91
        1
 62
     0
 92
       -2
340
0
 93
        0
 40
0.045
309
GRIDFORMAT_END
 95
        4
302
GRIDFORMAT
  1
GRIDFORMAT_BEGIN
 90
        0
 91
        1
 62
     0
 92
       -2
340
0
 93
        0
 40
0.045
309
GRIDFORMAT_END
 95
        8
302
GRIDFORMAT
  1
GRIDFORMAT_BEGIN
 90
        0
 91
        1
 62
     0
 92
       -2
340
0
 93
        0
 40
0.045
309
GRIDFORMAT_END
 95
       16
302
GRIDFORMAT
  1
GRIDFORMAT_BEGIN
 90
        0
 91
        1
 62
     0
 92
       -2
340
0
 93
        0
 40
0.045
309
GRIDFORMAT_END
 95
       32
302
GRIDFORMAT
  1
GRIDFORMAT_BEGIN
 90
        0
 91
        1
 62
     0
 92
       -2
340
0
 93
        0
 40
0.045
309
GRIDFORMAT_END
309
TABLEFORMAT_END
  1
CELLSTYLE_BEGIN
 90
        2
 91
        1
300
_HEADER
309
CELLSTYLE_END
300
CELLSTYLE
  1
TABLEFORMAT_BEGIN
 90
        5
170
     1
 91
        0
 92
        0
 62
   257
 93
        1
300
CONTENTFORMAT
  1
CONTENTFORMAT_BEGIN
 90
        0
 91
        0
 92
      512
 93
        0
300

 40
0.0
140
1.0
 94
        2
 62
     0
340
26
144
0.18
309
CONTENTFORMAT_END
171
     1
301
MARGIN
  1
CELLMARGIN_BEGIN
 40
0.06
 40
0.06
 40
0.06
 40
0.06
 40
0.18
 40
0.18
309
CELLMARGIN_END
 94
        6
 95
        1
302
GRIDFORMAT
  1
GRIDFORMAT_BEGIN
 90
        0
 91
        1
 62
     0
 92
       -2
340
0
 93
        0
 40
0.045
309
GRIDFORMAT_END
 95
        2
302
GRIDFORMAT
  1
GRIDFORMAT_BEGIN
 90
        0
 91
        1
 62
     0
 92
       -2
340
0
 93
        0
 40
0.045
309
GRIDFORMAT_END
 95
        4
302
GRIDFORMAT
  1
GRIDFORMAT_BEGIN
 90
        0
 91
        1
 62
     0
 92
       -2
340
0
 93
        0
 40
0.045
309
GRIDFORMAT_END
 95
        8
302
GRIDFORMAT
  1
GRIDFORMAT_BEGIN
 90
        0
 91
        1
 62
     0
 92
       -2
340
0
 93
        0
 40
0.045
309
GRIDFORMAT_END
 95
       16
302
GRIDFORMAT
  1
GRIDFORMAT_BEGIN
 90
        0
 91
        1
 62
     0
 92
       -2
340
0
 93
        0
 40
0.045
309
GRIDFORMAT_END
 95
       32
302
GRIDFORMAT
  1
GRIDFORMAT_BEGIN
 90
        0
 91
        1
 62
     0
 92
       -2
340
0
 93
        0
 40
0.045
309
GRIDFORMAT_END
309
TABLEFORMAT_END
  1
CELLSTYLE_BEGIN
 90
        3
 91
        2
300
_DATA
309
CELLSTYLE_END
  0
XRECORD
  5
ED1
102
{ACAD_REACTORS
330
742
102
}
330
742
100
AcDbXrecord
280
     1
102
ACAD_ROUNDTRIP_PRE2007_TABLESTYLE
 90
      512
 91
        0
  1

 92
      512
 93
        0
  2

 94
      512
 95
        0
  3

  0
CELLSTYLEMAP
  5
EAA
102
{ACAD_REACTORS
330
A20
102
}
330
A20
100
AcDbCellStyleMap
 90
        3
300
CELLSTYLE
  1
TABLEFORMAT_BEGIN
 90
        5
170
     1
 91
        0
 92
    32768
 62
   257
 93
        1
300
CONTENTFORMAT
  1
CONTENTFORMAT_BEGIN
 90
        0
 91
        0
 92
      512
 93
        0
300

 40
0.0
140
1.0
 94
        8
 62
     3
340
46F
144
0.25
309
CONTENTFORMAT_END
171
     1
301
MARGIN
  1
CELLMARGIN_BEGIN
 40
0.5
 40
10.0
 40
0.06
 40
0.06
 40
0.18
 40
0.18
309
CELLMARGIN_END
 94
        6
 95
        1
302
GRIDFORMAT
  1
GRIDFORMAT_BEGIN
 90
        0
 91
        1
 62
     0
 92
       -2
340
0
 93
        0
 40
0.045
309
GRIDFORMAT_END
 95
        2
302
GRIDFORMAT
  1
GRIDFORMAT_BEGIN
 90
        0
 91
        1
 62
     0
 92
       -2
340
0
 93
        0
 40
0.045
309
GRIDFORMAT_END
 95
        4
302
GRIDFORMAT
  1
GRIDFORMAT_BEGIN
 90
        0
 91
        1
 62
     0
 92
       -2
340
0
 93
        0
 40
0.045
309
GRIDFORMAT_END
 95
        8
302
GRIDFORMAT
  1
GRIDFORMAT_BEGIN
 90
        0
 91
        1
 62
     0
 92
       -2
340
0
 93
        0
 40
0.045
309
GRIDFORMAT_END
 95
       16
302
GRIDFORMAT
  1
GRIDFORMAT_BEGIN
 90
        0
 91
        1
 62
     0
 92
       -2
340
0
 93
        0
 40
0.045
309
GRIDFORMAT_END
 95
       32
302
GRIDFORMAT
  1
GRIDFORMAT_BEGIN
 90
        0
 91
        1
 62
     0
 92
       -2
340
0
 93
        0
 40
0.045
309
GRIDFORMAT_END
309
TABLEFORMAT_END
  1
CELLSTYLE_BEGIN
 90
        1
 91
        1
300
_TITLE
309
CELLSTYLE_END
300
CELLSTYLE
  1
TABLEFORMAT_BEGIN
 90
        5
170
     1
 91
        0
 92
        0
 62
   257
 93
        1
300
CONTENTFORMAT
  1
CONTENTFORMAT_BEGIN
 90
        0
 91
        0
 92
      512
 93
        0
300

 40
0.0
140
1.0
 94
        7
 62
     3
340
46F
144
0.18
309
CONTENTFORMAT_END
171
     1
301
MARGIN
  1
CELLMARGIN_BEGIN
 40
0.5
 40
1.5
 40
0.06
 40
0.06
 40
0.18
 40
0.18
309
CELLMARGIN_END
 94
        6
 95
        1
302
GRIDFORMAT
  1
GRIDFORMAT_BEGIN
 90
        0
 91
        1
 62
     3
 92
       -2
340
28
 93
        0
 40
0.045
309
GRIDFORMAT_END
 95
        2
302
GRIDFORMAT
  1
GRIDFORMAT_BEGIN
 90
        0
 91
        1
 62
     7
 92
       -2
340
28
 93
        0
 40
0.045
309
GRIDFORMAT_END
 95
        4
302
GRIDFORMAT
  1
GRIDFORMAT_BEGIN
 90
        0
 91
        1
 62
     3
 92
       -2
340
28
 93
        0
 40
0.045
309
GRIDFORMAT_END
 95
        8
302
GRIDFORMAT
  1
GRIDFORMAT_BEGIN
 90
        0
 91
        1
 62
     3
 92
       -2
340
28
 93
        0
 40
0.045
309
GRIDFORMAT_END
 95
       16
302
GRIDFORMAT
  1
GRIDFORMAT_BEGIN
 90
        0
 91
        1
 62
     7
 92
       -2
340
28
 93
        0
 40
0.045
309
GRIDFORMAT_END
 95
       32
302
GRIDFORMAT
  1
GRIDFORMAT_BEGIN
 90
        0
 91
        1
 62
     3
 92
       -2
340
28
 93
        0
 40
0.045
309
GRIDFORMAT_END
309
TABLEFORMAT_END
  1
CELLSTYLE_BEGIN
 90
        2
 91
        1
300
_HEADER
309
CELLSTYLE_END
300
CELLSTYLE
  1
TABLEFORMAT_BEGIN
 90
        5
170
     1
 91
        0
 92
        0
 62
   257
 93
        1
300
CONTENTFORMAT
  1
CONTENTFORMAT_BEGIN
 90
        0
 91
        0
 92
      512
 93
        0
300

 40
0.0
140
1.0
 94
        7
 62
     3
340
46F
144
0.18
309
CONTENTFORMAT_END
171
     1
301
MARGIN
  1
CELLMARGIN_BEGIN
 40
0.5
 40
1.5
 40
0.06
 40
0.06
 40
0.18
 40
0.18
309
CELLMARGIN_END
 94
        6
 95
        1
302
GRIDFORMAT
  1
GRIDFORMAT_BEGIN
 90
        0
 91
        1
 62
     3
 92
       -2
340
28
 93
        0
 40
0.045
309
GRIDFORMAT_END
 95
        2
302
GRIDFORMAT
  1
GRIDFORMAT_BEGIN
 90
        0
 91
        1
 62
     7
 92
       -2
340
28
 93
        0
 40
0.045
309
GRIDFORMAT_END
 95
        4
302
GRIDFORMAT
  1
GRIDFORMAT_BEGIN
 90
        0
 91
        1
 62
     3
 92
       -2
340
28
 93
        0
 40
0.045
309
GRIDFORMAT_END
 95
        8
302
GRIDFORMAT
  1
GRIDFORMAT_BEGIN
 90
        0
 91
        1
 62
     3
 92
       -2
340
28
 93
        0
 40
0.045
309
GRIDFORMAT_END
 95
       16
302
GRIDFORMAT
  1
GRIDFORMAT_BEGIN
 90
        0
 91
        1
 62
     7
 92
       -2
340
28
 93
        0
 40
0.045
309
GRIDFORMAT_END
 95
       32
302
GRIDFORMAT
  1
GRIDFORMAT_BEGIN
 90
        0
 91
        1
 62
     3
 92
       -2
340
28
 93
        0
 40
0.045
309
GRIDFORMAT_END
309
TABLEFORMAT_END
  1
CELLSTYLE_BEGIN
 90
        3
 91
        2
300
_DATA
309
CELLSTYLE_END
  0
XRECORD
  5
EEA
102
{ACAD_REACTORS
330
A20
102
}
330
A20
100
AcDbXrecord
280
     1
102
ACAD_ROUNDTRIP_PRE2007_TABLESTYLE
 90
      512
 91
        0
  1

 92
      512
 93
        0
  2

 94
      512
 95
        0
  3

  0
XRECORD
  5
EBC
102
{ACAD_REACTORS
330
EBB
102
}
330
EBB
100
AcDbXrecord
280
     1
102
RTVSPropertyOp0
 70
     1
102
RTVSPropertyOp1
 70
     1
102
RTVSPropertyOp2
 70
     1
102
RTVSPropertyOp3
 70
     1
102
RTVSPropertyOp4
 70
     1
102
RTVSPropertyOp5
 70
     1
102
RTVSPropertyOp6
 70
     1
102
RTVSPropertyOp7
 70
     1
102
RTVSPropertyOp8
 70
     1
102
RTVSPropertyOp9
 70
     1
102
RTVSPropertyOp10
 70
     1
102
RTVSPropertyOp11
 70
     1
102
RTVSPropertyOp12
 70
     1
102
RTVSPropertyOp13
 70
     1
102
RTVSPropertyOp14
 70
     1
102
RTVSPropertyOp15
 70
     1
102
RTVSPropertyOp16
 70
     1
102
RTVSPropertyOp17
 70
     1
102
RTVSPropertyOp18
 70
     1
102
RTVSPropertyOp19
 70
     1
102
RTVSPropertyOp20
 70
     1
102
RTVSPropertyOp21
 70
     1
102
RTVSPropertyOp22
 70
     1
102
RTVSPropertyOp23
 70
     1
102
RTVSPropertyOp24
 70
     1
102
RTVSPropertyOp25
 70
     1
102
RTVSPropertyOp26
 70
     1
102
RTVSPropertyOp27
 70
     1
102
RTVSPropertyOp28
 70
     1
102
RTVSPropertyOp29
 70
     1
102
RTVSPropertyOp30
 70
     1
102
RTVSPropertyOp31
 70
     1
102
RTVSPropertyOp32
 70
     1
  0
XRECORD
  5
EC0
102
{ACAD_REACTORS
330
EBF
102
}
330
EBF
100
AcDbXrecord
280
     1
102
RTVSPropertyOp0
 70
     1
102
RTVSPropertyOp1
 70
     1
102
RTVSPropertyOp2
 70
     1
102
RTVSPropertyOp3
 70
     1
102
RTVSPropertyOp4
 70
     1
102
RTVSPropertyOp5
 70
     1
102
RTVSPropertyOp6
 70
     1
102
RTVSPropertyOp7
 70
     1
102
RTVSPropertyOp8
 70
     1
102
RTVSPropertyOp9
 70
     1
102
RTVSPropertyOp10
 70
     1
102
RTVSPropertyOp11
 70
     1
102
RTVSPropertyOp12
 70
     1
102
RTVSPropertyOp13
 70
     1
102
RTVSPropertyOp14
 70
     1
102
RTVSPropertyOp15
 70
     1
102
RTVSPropertyOp16
 70
     1
102
RTVSPropertyOp17
 70
     1
102
RTVSPropertyOp18
 70
     1
102
RTVSPropertyOp19
 70
     1
102
RTVSPropertyOp20
 70
     1
102
RTVSPropertyOp21
 70
     1
102
RTVSPropertyOp22
 70
     1
102
RTVSPropertyOp23
 70
     1
102
RTVSPropertyOp24
 70
     1
102
RTVSPropertyOp25
 70
     1
102
RTVSPropertyOp26
 70
     1
102
RTVSPropertyOp27
 70
     1
102
RTVSPropertyOp28
 70
     1
102
RTVSPropertyOp29
 70
     1
102
RTVSPropertyOp30
 70
     1
102
RTVSPropertyOp31
 70
     1
102
RTVSPropertyOp32
 70
     1
  0
XRECORD
  5
EBE
102
{ACAD_REACTORS
330
EBD
102
}
330
EBD
100
AcDbXrecord
280
     1
102
RTVSPropertyOp0
 70
     1
102
RTVSPropertyOp1
 70
     1
102
RTVSPropertyOp2
 70
     1
102
RTVSPropertyOp3
 70
     1
102
RTVSPropertyOp4
 70
     1
102
RTVSPropertyOp5
 70
     1
102
RTVSPropertyOp6
 70
     1
102
RTVSPropertyOp7
 70
     1
102
RTVSPropertyOp8
 70
     1
102
RTVSPropertyOp9
 70
     1
102
RTVSPropertyOp10
 70
     1
102
RTVSPropertyOp11
 70
     1
102
RTVSPropertyOp12
 70
     1
102
RTVSPropertyOp13
 70
     1
102
RTVSPropertyOp14
 70
     1
102
RTVSPropertyOp15
 70
     1
102
RTVSPropertyOp16
 70
     1
102
RTVSPropertyOp17
 70
     1
102
RTVSPropertyOp18
 70
     1
102
RTVSPropertyOp19
 70
     1
102
RTVSPropertyOp20
 70
     1
102
RTVSPropertyOp21
 70
     1
102
RTVSPropertyOp22
 70
     1
102
RTVSPropertyOp23
 70
     1
102
RTVSPropertyOp24
 70
     1
102
RTVSPropertyOp25
 70
     1
102
RTVSPropertyOp26
 70
     1
102
RTVSPropertyOp27
 70
     1
102
RTVSPropertyOp28
 70
     1
102
RTVSPropertyOp29
 70
     1
102
RTVSPropertyOp30
 70
     1
102
RTVSPropertyOp31
 70
     1
102
RTVSPropertyOp32
 70
     1
  0
XRECORD
  5
EBA
102
{ACAD_REACTORS
330
EB9
102
}
330
EB9
100
AcDbXrecord
280
     1
102
RTVSPropertyOp0
 70
     1
102
RTVSPropertyOp1
 70
     1
102
RTVSPropertyOp2
 70
     1
102
RTVSPropertyOp3
 70
     1
102
RTVSPropertyOp4
 70
     1
102
RTVSPropertyOp5
 70
     1
102
RTVSPropertyOp6
 70
     1
102
RTVSPropertyOp7
 70
     1
102
RTVSPropertyOp8
 70
     1
102
RTVSPropertyOp9
 70
     1
102
RTVSPropertyOp10
 70
     1
102
RTVSPropertyOp11
 70
     1
102
RTVSPropertyOp12
 70
     1
102
RTVSPropertyOp13
 70
     1
102
RTVSPropertyOp14
 70
     1
102
RTVSPropertyOp15
 70
     1
102
RTVSPropertyOp16
 70
     1
102
RTVSPropertyOp17
 70
     1
102
RTVSPropertyOp18
 70
     1
102
RTVSPropertyOp19
 70
     1
102
RTVSPropertyOp20
 70
     1
102
RTVSPropertyOp21
 70
     1
102
RTVSPropertyOp22
 70
     1
102
RTVSPropertyOp23
 70
     1
102
RTVSPropertyOp24
 70
     1
102
RTVSPropertyOp25
 70
     1
102
RTVSPropertyOp26
 70
     1
102
RTVSPropertyOp27
 70
     1
102
RTVSPropertyOp28
 70
     1
102
RTVSPropertyOp29
 70
     1
102
RTVSPropertyOp30
 70
     1
102
RTVSPropertyOp31
 70
     1
102
RTVSPropertyOp32
 70
     1
  0
XRECORD
  5
EC8
102
{ACAD_REACTORS
330
EC7
102
}
330
EC7
100
AcDbXrecord
280
     1
102
RTVSPropertyOp0
 70
     1
102
RTVSPropertyOp1
 70
     1
102
RTVSPropertyOp2
 70
     1
102
RTVSPropertyOp3
 70
     1
102
RTVSPropertyOp4
 70
     1
102
RTVSPropertyOp5
 70
     1
102
RTVSPropertyOp6
 70
     1
102
RTVSPropertyOp7
 70
     1
102
RTVSPropertyOp8
 70
     1
102
RTVSPropertyOp9
 70
     1
102
RTVSPropertyOp10
 70
     1
102
RTVSPropertyOp11
 70
     1
102
RTVSPropertyOp12
 70
     1
102
RTVSPropertyOp13
 70
     1
102
RTVSPropertyOp14
 70
     1
102
RTVSPropertyOp15
 70
     1
102
RTVSPropertyOp16
 70
     1
102
RTVSPropertyOp17
 70
     1
102
RTVSPropertyOp18
 70
     1
102
RTVSPropertyOp19
 70
     1
102
RTVSPropertyOp20
 70
     1
102
RTVSPropertyOp21
 70
     1
102
RTVSPropertyOp22
 70
     1
102
RTVSPropertyOp23
 70
     1
102
RTVSPropertyOp24
 70
     1
102
RTVSPropertyOp25
 70
     1
102
RTVSPropertyOp26
 70
     1
102
RTVSPropertyOp27
 70
     1
102
RTVSPropertyOp28
 70
     1
102
RTVSPropertyOp29
 70
     1
102
RTVSPropertyOp30
 70
     1
102
RTVSPropertyOp31
 70
     1
102
RTVSPropertyOp32
 70
     1
  0
XRECORD
  5
ED0
102
{ACAD_REACTORS
330
ECF
102
}
330
ECF
100
AcDbXrecord
280
     1
102
RTVSPropertyOp0
 70
     1
102
RTVSPropertyOp1
 70
     1
102
RTVSPropertyOp2
 70
     1
102
RTVSPropertyOp3
 70
     1
102
RTVSPropertyOp4
 70
     1
102
RTVSPropertyOp5
 70
     1
102
RTVSPropertyOp6
 70
     1
102
RTVSPropertyOp7
 70
     1
102
RTVSPropertyOp8
 70
     1
102
RTVSPropertyOp9
 70
     1
102
RTVSPropertyOp10
 70
     1
102
RTVSPropertyOp11
 70
     1
102
RTVSPropertyOp12
 70
     1
102
RTVSPropertyOp13
 70
     1
102
RTVSPropertyOp14
 70
     1
102
RTVSPropertyOp15
 70
     1
102
RTVSPropertyOp16
 70
     1
102
RTVSPropertyOp17
 70
     1
102
RTVSPropertyOp18
 70
     1
102
RTVSPropertyOp19
 70
     1
102
RTVSPropertyOp20
 70
     1
102
RTVSPropertyOp21
 70
     1
102
RTVSPropertyOp22
 70
     1
102
RTVSPropertyOp23
 70
     1
102
RTVSPropertyOp24
 70
     1
102
RTVSPropertyOp25
 70
     1
102
RTVSPropertyOp26
 70
     1
102
RTVSPropertyOp27
 70
     1
102
RTVSPropertyOp28
 70
     1
102
RTVSPropertyOp29
 70
     1
102
RTVSPropertyOp30
 70
     1
102
RTVSPropertyOp31
 70
     1
102
RTVSPropertyOp32
 70
     1
  0
XRECORD
  5
EC2
102
{ACAD_REACTORS
330
EC1
102
}
330
EC1
100
AcDbXrecord
280
     1
102
RTVSPropertyOp0
 70
     1
102
RTVSPropertyOp1
 70
     1
102
RTVSPropertyOp2
 70
     1
102
RTVSPropertyOp3
 70
     1
102
RTVSPropertyOp4
 70
     1
102
RTVSPropertyOp5
 70
     1
102
RTVSPropertyOp6
 70
     1
102
RTVSPropertyOp7
 70
     1
102
RTVSPropertyOp8
 70
     1
102
RTVSPropertyOp9
 70
     1
102
RTVSPropertyOp10
 70
     1
102
RTVSPropertyOp11
 70
     1
102
RTVSPropertyOp12
 70
     1
102
RTVSPropertyOp13
 70
     1
102
RTVSPropertyOp14
 70
     1
102
RTVSPropertyOp15
 70
     1
102
RTVSPropertyOp16
 70
     1
102
RTVSPropertyOp17
 70
     1
102
RTVSPropertyOp18
 70
     1
102
RTVSPropertyOp19
 70
     1
102
RTVSPropertyOp20
 70
     1
102
RTVSPropertyOp21
 70
     1
102
RTVSPropertyOp22
 70
     1
102
RTVSPropertyOp23
 70
     1
102
RTVSPropertyOp24
 70
     1
102
RTVSPropertyOp25
 70
     1
102
RTVSPropertyOp26
 70
     1
102
RTVSPropertyOp27
 70
     1
102
RTVSPropertyOp28
 70
     1
102
RTVSPropertyOp29
 70
     1
102
RTVSPropertyOp30
 70
     1
102
RTVSPropertyOp31
 70
     1
102
RTVSPropertyOp32
 70
     1
  0
XRECORD
  5
EC6
102
{ACAD_REACTORS
330
EC5
102
}
330
EC5
100
AcDbXrecord
280
     1
102
RTVSPropertyOp0
 70
     1
102
RTVSPropertyOp1
 70
     1
102
RTVSPropertyOp2
 70
     1
102
RTVSPropertyOp3
 70
     1
102
RTVSPropertyOp4
 70
     1
102
RTVSPropertyOp5
 70
     1
102
RTVSPropertyOp6
 70
     1
102
RTVSPropertyOp7
 70
     1
102
RTVSPropertyOp8
 70
     1
102
RTVSPropertyOp9
 70
     1
102
RTVSPropertyOp10
 70
     1
102
RTVSPropertyOp11
 70
     1
102
RTVSPropertyOp12
 70
     1
102
RTVSPropertyOp13
 70
     1
102
RTVSPropertyOp14
 70
     1
102
RTVSPropertyOp15
 70
     1
102
RTVSPropertyOp16
 70
     1
102
RTVSPropertyOp17
 70
     1
102
RTVSPropertyOp18
 70
     1
102
RTVSPropertyOp19
 70
     1
102
RTVSPropertyOp20
 70
     1
102
RTVSPropertyOp21
 70
     1
102
RTVSPropertyOp22
 70
     1
102
RTVSPropertyOp23
 70
     1
102
RTVSPropertyOp24
 70
     1
102
RTVSPropertyOp25
 70
     1
102
RTVSPropertyOp26
 70
     1
102
RTVSPropertyOp27
 70
     1
102
RTVSPropertyOp28
 70
     1
102
RTVSPropertyOp29
 70
     1
102
RTVSPropertyOp30
 70
     1
102
RTVSPropertyOp31
 70
     1
102
RTVSPropertyOp32
 70
     1
  0
XRECORD
  5
EE9
102
{ACAD_REACTORS
330
EE8
102
}
330
EE8
100
AcDbXrecord
280
     1
102
RTVSPropertyOp0
 70
     0
102
RTVSPropertyOp1
 70
     0
102
RTVSPropertyOp2
 70
     0
102
RTVSPropertyOp3
 70
     0
102
RTVSPropertyOp4
 70
     0
102
RTVSPropertyOp5
 70
     0
102
RTVSPropertyOp6
 70
     0
102
RTVSPropertyOp7
 70
     0
102
RTVSPropertyOp8
 70
     0
102
RTVSPropertyOp9
 70
     0
102
RTVSPropertyOp10
 70
     0
102
RTVSPropertyOp11
 70
     0
102
RTVSPropertyOp12
 70
     0
102
RTVSPropertyOp13
 70
     0
102
RTVSPropertyOp14
 70
     2
102
RTVSPropertyOp15
 70
     0
102
RTVSPropertyOp16
 70
     0
102
RTVSPropertyOp17
 70
     0
102
RTVSPropertyOp18
 70
     0
102
RTVSPropertyOp19
 70
     0
102
RTVSPropertyOp20
 70
     0
102
RTVSPropertyOp21
 70
     0
102
RTVSPropertyOp22
 70
     0
102
RTVSPropertyOp23
 70
     0
102
RTVSPropertyOp24
 70
     0
102
RTVSPropertyOp25
 70
     0
102
RTVSPropertyOp26
 70
     0
102
RTVSPropertyOp27
 70
     0
102
RTVSPropertyOp28
 70
     0
102
RTVSPropertyOp29
 70
     0
102
RTVSPropertyOp30
 70
     0
102
RTVSPropertyOp31
 70
     0
102
RTVSPropertyOp32
 70
     0
  0
XRECORD
  5
ECE
102
{ACAD_REACTORS
330
ECD
102
}
330
ECD
100
AcDbXrecord
280
     1
102
RTVSPropertyOp0
 70
     1
102
RTVSPropertyOp1
 70
     1
102
RTVSPropertyOp2
 70
     1
102
RTVSPropertyOp3
 70
     1
102
RTVSPropertyOp4
 70
     1
102
RTVSPropertyOp5
 70
     1
102
RTVSPropertyOp6
 70
     1
102
RTVSPropertyOp7
 70
     1
102
RTVSPropertyOp8
 70
     1
102
RTVSPropertyOp9
 70
     1
102
RTVSPropertyOp10
 70
     1
102
RTVSPropertyOp11
 70
     1
102
RTVSPropertyOp12
 70
     1
102
RTVSPropertyOp13
 70
     1
102
RTVSPropertyOp14
 70
     1
102
RTVSPropertyOp15
 70
     1
102
RTVSPropertyOp16
 70
     1
102
RTVSPropertyOp17
 70
     1
102
RTVSPropertyOp18
 70
     1
102
RTVSPropertyOp19
 70
     1
102
RTVSPropertyOp20
 70
     1
102
RTVSPropertyOp21
 70
     1
102
RTVSPropertyOp22
 70
     1
102
RTVSPropertyOp23
 70
     1
102
RTVSPropertyOp24
 70
     1
102
RTVSPropertyOp25
 70
     1
102
RTVSPropertyOp26
 70
     1
102
RTVSPropertyOp27
 70
     1
102
RTVSPropertyOp28
 70
     1
102
RTVSPropertyOp29
 70
     1
102
RTVSPropertyOp30
 70
     1
102
RTVSPropertyOp31
 70
     1
102
RTVSPropertyOp32
 70
     1
  0
XRECORD
  5
EB2
102
{ACAD_REACTORS
330
EB1
102
}
330
EB1
100
AcDbXrecord
280
     1
102
RTVSPropertyOp0
 70
     1
102
RTVSPropertyOp1
 70
     1
102
RTVSPropertyOp2
 70
     1
102
RTVSPropertyOp3
 70
     1
102
RTVSPropertyOp4
 70
     1
102
RTVSPropertyOp5
 70
     1
102
RTVSPropertyOp6
 70
     1
102
RTVSPropertyOp7
 70
     1
102
RTVSPropertyOp8
 70
     1
102
RTVSPropertyOp9
 70
     1
102
RTVSPropertyOp10
 70
     1
102
RTVSPropertyOp11
 70
     1
102
RTVSPropertyOp12
 70
     1
102
RTVSPropertyOp13
 70
     1
102
RTVSPropertyOp14
 70
     1
102
RTVSPropertyOp15
 70
     1
102
RTVSPropertyOp16
 70
     1
102
RTVSPropertyOp17
 70
     1
102
RTVSPropertyOp18
 70
     1
102
RTVSPropertyOp19
 70
     1
102
RTVSPropertyOp20
 70
     1
102
RTVSPropertyOp21
 70
     1
102
RTVSPropertyOp22
 70
     1
102
RTVSPropertyOp23
 70
     1
102
RTVSPropertyOp24
 70
     1
102
RTVSPropertyOp25
 70
     1
102
RTVSPropertyOp26
 70
     1
102
RTVSPropertyOp27
 70
     1
102
RTVSPropertyOp28
 70
     1
102
RTVSPropertyOp29
 70
     1
102
RTVSPropertyOp30
 70
     1
102
RTVSPropertyOp31
 70
     1
102
RTVSPropertyOp32
 70
     1
  0
XRECORD
  5
EB4
102
{ACAD_REACTORS
330
EB3
102
}
330
EB3
100
AcDbXrecord
280
     1
102
RTVSPropertyOp0
 70
     1
102
RTVSPropertyOp1
 70
     1
102
RTVSPropertyOp2
 70
     1
102
RTVSPropertyOp3
 70
     1
102
RTVSPropertyOp4
 70
     1
102
RTVSPropertyOp5
 70
     1
102
RTVSPropertyOp6
 70
     1
102
RTVSPropertyOp7
 70
     1
102
RTVSPropertyOp8
 70
     1
102
RTVSPropertyOp9
 70
     1
102
RTVSPropertyOp10
 70
     1
102
RTVSPropertyOp11
 70
     1
102
RTVSPropertyOp12
 70
     1
102
RTVSPropertyOp13
 70
     1
102
RTVSPropertyOp14
 70
     1
102
RTVSPropertyOp15
 70
     1
102
RTVSPropertyOp16
 70
     1
102
RTVSPropertyOp17
 70
     1
102
RTVSPropertyOp18
 70
     1
102
RTVSPropertyOp19
 70
     1
102
RTVSPropertyOp20
 70
     1
102
RTVSPropertyOp21
 70
     1
102
RTVSPropertyOp22
 70
     1
102
RTVSPropertyOp23
 70
     1
102
RTVSPropertyOp24
 70
     1
102
RTVSPropertyOp25
 70
     1
102
RTVSPropertyOp26
 70
     1
102
RTVSPropertyOp27
 70
     1
102
RTVSPropertyOp28
 70
     1
102
RTVSPropertyOp29
 70
     1
102
RTVSPropertyOp30
 70
     1
102
RTVSPropertyOp31
 70
     1
102
RTVSPropertyOp32
 70
     1
  0
XRECORD
  5
EB6
102
{ACAD_REACTORS
330
EB5
102
}
330
EB5
100
AcDbXrecord
280
     1
102
RTVSPropertyOp0
 70
     1
102
RTVSPropertyOp1
 70
     1
102
RTVSPropertyOp2
 70
     1
102
RTVSPropertyOp3
 70
     1
102
RTVSPropertyOp4
 70
     1
102
RTVSPropertyOp5
 70
     1
102
RTVSPropertyOp6
 70
     1
102
RTVSPropertyOp7
 70
     1
102
RTVSPropertyOp8
 70
     1
102
RTVSPropertyOp9
 70
     1
102
RTVSPropertyOp10
 70
     1
102
RTVSPropertyOp11
 70
     1
102
RTVSPropertyOp12
 70
     1
102
RTVSPropertyOp13
 70
     1
102
RTVSPropertyOp14
 70
     1
102
RTVSPropertyOp15
 70
     1
102
RTVSPropertyOp16
 70
     1
102
RTVSPropertyOp17
 70
     1
102
RTVSPropertyOp18
 70
     1
102
RTVSPropertyOp19
 70
     1
102
RTVSPropertyOp20
 70
     1
102
RTVSPropertyOp21
 70
     1
102
RTVSPropertyOp22
 70
     1
102
RTVSPropertyOp23
 70
     1
102
RTVSPropertyOp24
 70
     1
102
RTVSPropertyOp25
 70
     1
102
RTVSPropertyOp26
 70
     1
102
RTVSPropertyOp27
 70
     1
102
RTVSPropertyOp28
 70
     1
102
RTVSPropertyOp29
 70
     1
102
RTVSPropertyOp30
 70
     1
102
RTVSPropertyOp31
 70
     1
102
RTVSPropertyOp32
 70
     1
  0
XRECORD
  5
EB8
102
{ACAD_REACTORS
330
EB7
102
}
330
EB7
100
AcDbXrecord
280
     1
102
RTVSPropertyOp0
 70
     1
102
RTVSPropertyOp1
 70
     1
102
RTVSPropertyOp2
 70
     1
102
RTVSPropertyOp3
 70
     1
102
RTVSPropertyOp4
 70
     1
102
RTVSPropertyOp5
 70
     1
102
RTVSPropertyOp6
 70
     1
102
RTVSPropertyOp7
 70
     1
102
RTVSPropertyOp8
 70
     1
102
RTVSPropertyOp9
 70
     1
102
RTVSPropertyOp10
 70
     1
102
RTVSPropertyOp11
 70
     1
102
RTVSPropertyOp12
 70
     1
102
RTVSPropertyOp13
 70
     1
102
RTVSPropertyOp14
 70
     1
102
RTVSPropertyOp15
 70
     1
102
RTVSPropertyOp16
 70
     1
102
RTVSPropertyOp17
 70
     1
102
RTVSPropertyOp18
 70
     1
102
RTVSPropertyOp19
 70
     1
102
RTVSPropertyOp20
 70
     1
102
RTVSPropertyOp21
 70
     1
102
RTVSPropertyOp22
 70
     1
102
RTVSPropertyOp23
 70
     1
102
RTVSPropertyOp24
 70
     1
102
RTVSPropertyOp25
 70
     1
102
RTVSPropertyOp26
 70
     1
102
RTVSPropertyOp27
 70
     1
102
RTVSPropertyOp28
 70
     1
102
RTVSPropertyOp29
 70
     1
102
RTVSPropertyOp30
 70
     1
102
RTVSPropertyOp31
 70
     1
102
RTVSPropertyOp32
 70
     1
  0
XRECORD
  5
ED9
102
{ACAD_REACTORS
330
ED8
102
}
330
ED8
100
AcDbXrecord
280
     1
102
RTVSPropertyOp0
 70
     1
102
RTVSPropertyOp1
 70
     1
102
RTVSPropertyOp2
 70
     1
102
RTVSPropertyOp3
 70
     1
102
RTVSPropertyOp4
 70
     1
102
RTVSPropertyOp5
 70
     1
102
RTVSPropertyOp6
 70
     1
102
RTVSPropertyOp7
 70
     1
102
RTVSPropertyOp8
 70
     1
102
RTVSPropertyOp9
 70
     1
102
RTVSPropertyOp10
 70
     1
102
RTVSPropertyOp11
 70
     1
102
RTVSPropertyOp12
 70
     1
102
RTVSPropertyOp13
 70
     1
102
RTVSPropertyOp14
 70
     1
102
RTVSPropertyOp15
 70
     1
102
RTVSPropertyOp16
 70
     1
102
RTVSPropertyOp17
 70
     1
102
RTVSPropertyOp18
 70
     1
102
RTVSPropertyOp19
 70
     1
102
RTVSPropertyOp20
 70
     1
102
RTVSPropertyOp21
 70
     1
102
RTVSPropertyOp22
 70
     1
102
RTVSPropertyOp23
 70
     1
102
RTVSPropertyOp24
 70
     1
102
RTVSPropertyOp25
 70
     1
102
RTVSPropertyOp26
 70
     1
102
RTVSPropertyOp27
 70
     1
102
RTVSPropertyOp28
 70
     1
102
RTVSPropertyOp29
 70
     1
102
RTVSPropertyOp30
 70
     1
102
RTVSPropertyOp31
 70
     1
102
RTVSPropertyOp32
 70
     1
  0
XRECORD
  5
EE5
102
{ACAD_REACTORS
330
EE4
102
}
330
EE4
100
AcDbXrecord
280
     1
102
RTVSPropertyOp0
 70
     0
102
RTVSPropertyOp1
 70
     0
102
RTVSPropertyOp2
 70
     0
102
RTVSPropertyOp3
 70
     0
102
RTVSPropertyOp4
 70
     0
102
RTVSPropertyOp5
 70
     0
102
RTVSPropertyOp6
 70
     0
102
RTVSPropertyOp7
 70
     0
102
RTVSPropertyOp8
 70
     0
102
RTVSPropertyOp9
 70
     0
102
RTVSPropertyOp10
 70
     0
102
RTVSPropertyOp11
 70
     0
102
RTVSPropertyOp12
 70
     0
102
RTVSPropertyOp13
 70
     0
102
RTVSPropertyOp14
 70
     2
102
RTVSPropertyOp15
 70
     0
102
RTVSPropertyOp16
 70
     0
102
RTVSPropertyOp17
 70
     0
102
RTVSPropertyOp18
 70
     0
102
RTVSPropertyOp19
 70
     0
102
RTVSPropertyOp20
 70
     0
102
RTVSPropertyOp21
 70
     0
102
RTVSPropertyOp22
 70
     0
102
RTVSPropertyOp23
 70
     0
102
RTVSPropertyOp24
 70
     0
102
RTVSPropertyOp25
 70
     0
102
RTVSPropertyOp26
 70
     0
102
RTVSPropertyOp27
 70
     0
102
RTVSPropertyOp28
 70
     0
102
RTVSPropertyOp29
 70
     0
102
RTVSPropertyOp30
 70
     0
102
RTVSPropertyOp31
 70
     0
102
RTVSPropertyOp32
 70
     0
  0
XRECORD
  5
ECC
102
{ACAD_REACTORS
330
ECB
102
}
330
ECB
100
AcDbXrecord
280
     1
102
RTVSPropertyOp0
 70
     1
102
RTVSPropertyOp1
 70
     1
102
RTVSPropertyOp2
 70
     1
102
RTVSPropertyOp3
 70
     1
102
RTVSPropertyOp4
 70
     1
102
RTVSPropertyOp5
 70
     1
102
RTVSPropertyOp6
 70
     1
102
RTVSPropertyOp7
 70
     1
102
RTVSPropertyOp8
 70
     1
102
RTVSPropertyOp9
 70
     1
102
RTVSPropertyOp10
 70
     1
102
RTVSPropertyOp11
 70
     1
102
RTVSPropertyOp12
 70
     1
102
RTVSPropertyOp13
 70
     1
102
RTVSPropertyOp14
 70
     1
102
RTVSPropertyOp15
 70
     1
102
RTVSPropertyOp16
 70
     1
102
RTVSPropertyOp17
 70
     1
102
RTVSPropertyOp18
 70
     1
102
RTVSPropertyOp19
 70
     1
102
RTVSPropertyOp20
 70
     1
102
RTVSPropertyOp21
 70
     1
102
RTVSPropertyOp22
 70
     1
102
RTVSPropertyOp23
 70
     1
102
RTVSPropertyOp24
 70
     1
102
RTVSPropertyOp25
 70
     1
102
RTVSPropertyOp26
 70
     1
102
RTVSPropertyOp27
 70
     1
102
RTVSPropertyOp28
 70
     1
102
RTVSPropertyOp29
 70
     1
102
RTVSPropertyOp30
 70
     1
102
RTVSPropertyOp31
 70
     1
102
RTVSPropertyOp32
 70
     1
  0
XRECORD
  5
EE7
102
{ACAD_REACTORS
330
EE6
102
}
330
EE6
100
AcDbXrecord
280
     1
102
RTVSPropertyOp0
 70
     0
102
RTVSPropertyOp1
 70
     0
102
RTVSPropertyOp2
 70
     0
102
RTVSPropertyOp3
 70
     0
102
RTVSPropertyOp4
 70
     0
102
RTVSPropertyOp5
 70
     0
102
RTVSPropertyOp6
 70
     0
102
RTVSPropertyOp7
 70
     0
102
RTVSPropertyOp8
 70
     0
102
RTVSPropertyOp9
 70
     0
102
RTVSPropertyOp10
 70
     0
102
RTVSPropertyOp11
 70
     0
102
RTVSPropertyOp12
 70
     0
102
RTVSPropertyOp13
 70
     0
102
RTVSPropertyOp14
 70
     2
102
RTVSPropertyOp15
 70
     0
102
RTVSPropertyOp16
 70
     0
102
RTVSPropertyOp17
 70
     0
102
RTVSPropertyOp18
 70
     0
102
RTVSPropertyOp19
 70
     0
102
RTVSPropertyOp20
 70
     0
102
RTVSPropertyOp21
 70
     0
102
RTVSPropertyOp22
 70
     0
102
RTVSPropertyOp23
 70
     0
102
RTVSPropertyOp24
 70
     0
102
RTVSPropertyOp25
 70
     0
102
RTVSPropertyOp26
 70
     0
102
RTVSPropertyOp27
 70
     0
102
RTVSPropertyOp28
 70
     0
102
RTVSPropertyOp29
 70
     0
102
RTVSPropertyOp30
 70
     0
102
RTVSPropertyOp31
 70
     0
102
RTVSPropertyOp32
 70
     0
  0
XRECORD
  5
EC4
102
{ACAD_REACTORS
330
EC3
102
}
330
EC3
100
AcDbXrecord
280
     1
102
RTVSPropertyOp0
 70
     1
102
RTVSPropertyOp1
 70
     1
102
RTVSPropertyOp2
 70
     1
102
RTVSPropertyOp3
 70
     1
102
RTVSPropertyOp4
 70
     1
102
RTVSPropertyOp5
 70
     1
102
RTVSPropertyOp6
 70
     1
102
RTVSPropertyOp7
 70
     1
102
RTVSPropertyOp8
 70
     1
102
RTVSPropertyOp9
 70
     1
102
RTVSPropertyOp10
 70
     1
102
RTVSPropertyOp11
 70
     1
102
RTVSPropertyOp12
 70
     1
102
RTVSPropertyOp13
 70
     1
102
RTVSPropertyOp14
 70
     1
102
RTVSPropertyOp15
 70
     1
102
RTVSPropertyOp16
 70
     1
102
RTVSPropertyOp17
 70
     1
102
RTVSPropertyOp18
 70
     1
102
RTVSPropertyOp19
 70
     1
102
RTVSPropertyOp20
 70
     1
102
RTVSPropertyOp21
 70
     1
102
RTVSPropertyOp22
 70
     1
102
RTVSPropertyOp23
 70
     1
102
RTVSPropertyOp24
 70
     1
102
RTVSPropertyOp25
 70
     1
102
RTVSPropertyOp26
 70
     1
102
RTVSPropertyOp27
 70
     1
102
RTVSPropertyOp28
 70
     1
102
RTVSPropertyOp29
 70
     1
102
RTVSPropertyOp30
 70
     1
102
RTVSPropertyOp31
 70
     1
102
RTVSPropertyOp32
 70
     1
  0
XRECORD
  5
EE3
102
{ACAD_REACTORS
330
EE2
102
}
330
EE2
100
AcDbXrecord
280
     1
102
RTVSPropertyOp0
 70
     1
102
RTVSPropertyOp1
 70
     1
102
RTVSPropertyOp2
 70
     1
102
RTVSPropertyOp3
 70
     1
102
RTVSPropertyOp4
 70
     1
102
RTVSPropertyOp5
 70
     1
102
RTVSPropertyOp6
 70
     1
102
RTVSPropertyOp7
 70
     1
102
RTVSPropertyOp8
 70
     1
102
RTVSPropertyOp9
 70
     1
102
RTVSPropertyOp10
 70
     1
102
RTVSPropertyOp11
 70
     1
102
RTVSPropertyOp12
 70
     1
102
RTVSPropertyOp13
 70
     1
102
RTVSPropertyOp14
 70
     1
102
RTVSPropertyOp15
 70
     1
102
RTVSPropertyOp16
 70
     1
102
RTVSPropertyOp17
 70
     1
102
RTVSPropertyOp18
 70
     1
102
RTVSPropertyOp19
 70
     1
102
RTVSPropertyOp20
 70
     1
102
RTVSPropertyOp21
 70
     1
102
RTVSPropertyOp22
 70
     1
102
RTVSPropertyOp23
 70
     1
102
RTVSPropertyOp24
 70
     1
102
RTVSPropertyOp25
 70
     1
102
RTVSPropertyOp26
 70
     1
102
RTVSPropertyOp27
 70
     1
102
RTVSPropertyOp28
 70
     1
102
RTVSPropertyOp29
 70
     1
102
RTVSPropertyOp30
 70
     1
102
RTVSPropertyOp31
 70
     1
102
RTVSPropertyOp32
 70
     1
  0
XRECORD
  5
EE1
102
{ACAD_REACTORS
330
EE0
102
}
330
EE0
100
AcDbXrecord
280
     1
102
RTVSPropertyOp0
 70
     1
102
RTVSPropertyOp1
 70
     1
102
RTVSPropertyOp2
 70
     1
102
RTVSPropertyOp3
 70
     1
102
RTVSPropertyOp4
 70
     1
102
RTVSPropertyOp5
 70
     1
102
RTVSPropertyOp6
 70
     1
102
RTVSPropertyOp7
 70
     1
102
RTVSPropertyOp8
 70
     1
102
RTVSPropertyOp9
 70
     1
102
RTVSPropertyOp10
 70
     1
102
RTVSPropertyOp11
 70
     1
102
RTVSPropertyOp12
 70
     1
102
RTVSPropertyOp13
 70
     1
102
RTVSPropertyOp14
 70
     1
102
RTVSPropertyOp15
 70
     1
102
RTVSPropertyOp16
 70
     1
102
RTVSPropertyOp17
 70
     1
102
RTVSPropertyOp18
 70
     1
102
RTVSPropertyOp19
 70
     1
102
RTVSPropertyOp20
 70
     1
102
RTVSPropertyOp21
 70
     1
102
RTVSPropertyOp22
 70
     1
102
RTVSPropertyOp23
 70
     1
102
RTVSPropertyOp24
 70
     1
102
RTVSPropertyOp25
 70
     1
102
RTVSPropertyOp26
 70
     1
102
RTVSPropertyOp27
 70
     1
102
RTVSPropertyOp28
 70
     1
102
RTVSPropertyOp29
 70
     1
102
RTVSPropertyOp30
 70
     1
102
RTVSPropertyOp31
 70
     1
102
RTVSPropertyOp32
 70
     1
  0
XRECORD
  5
EDB
102
{ACAD_REACTORS
330
EDA
102
}
330
EDA
100
AcDbXrecord
280
     1
102
RTVSPropertyOp0
 70
     1
102
RTVSPropertyOp1
 70
     1
102
RTVSPropertyOp2
 70
     1
102
RTVSPropertyOp3
 70
     1
102
RTVSPropertyOp4
 70
     1
102
RTVSPropertyOp5
 70
     1
102
RTVSPropertyOp6
 70
     1
102
RTVSPropertyOp7
 70
     1
102
RTVSPropertyOp8
 70
     1
102
RTVSPropertyOp9
 70
     1
102
RTVSPropertyOp10
 70
     1
102
RTVSPropertyOp11
 70
     1
102
RTVSPropertyOp12
 70
     1
102
RTVSPropertyOp13
 70
     1
102
RTVSPropertyOp14
 70
     1
102
RTVSPropertyOp15
 70
     1
102
RTVSPropertyOp16
 70
     1
102
RTVSPropertyOp17
 70
     1
102
RTVSPropertyOp18
 70
     1
102
RTVSPropertyOp19
 70
     1
102
RTVSPropertyOp20
 70
     1
102
RTVSPropertyOp21
 70
     1
102
RTVSPropertyOp22
 70
     1
102
RTVSPropertyOp23
 70
     1
102
RTVSPropertyOp24
 70
     1
102
RTVSPropertyOp25
 70
     1
102
RTVSPropertyOp26
 70
     1
102
RTVSPropertyOp27
 70
     1
102
RTVSPropertyOp28
 70
     1
102
RTVSPropertyOp29
 70
     1
102
RTVSPropertyOp30
 70
     1
102
RTVSPropertyOp31
 70
     1
102
RTVSPropertyOp32
 70
     1
  0
XRECORD
  5
EDD
102
{ACAD_REACTORS
330
EDC
102
}
330
EDC
100
AcDbXrecord
280
     1
102
RTVSPropertyOp0
 70
     1
102
RTVSPropertyOp1
 70
     1
102
RTVSPropertyOp2
 70
     1
102
RTVSPropertyOp3
 70
     1
102
RTVSPropertyOp4
 70
     1
102
RTVSPropertyOp5
 70
     1
102
RTVSPropertyOp6
 70
     1
102
RTVSPropertyOp7
 70
     1
102
RTVSPropertyOp8
 70
     1
102
RTVSPropertyOp9
 70
     1
102
RTVSPropertyOp10
 70
     1
102
RTVSPropertyOp11
 70
     1
102
RTVSPropertyOp12
 70
     1
102
RTVSPropertyOp13
 70
     1
102
RTVSPropertyOp14
 70
     1
102
RTVSPropertyOp15
 70
     1
102
RTVSPropertyOp16
 70
     1
102
RTVSPropertyOp17
 70
     1
102
RTVSPropertyOp18
 70
     1
102
RTVSPropertyOp19
 70
     1
102
RTVSPropertyOp20
 70
     1
102
RTVSPropertyOp21
 70
     1
102
RTVSPropertyOp22
 70
     1
102
RTVSPropertyOp23
 70
     1
102
RTVSPropertyOp24
 70
     1
102
RTVSPropertyOp25
 70
     1
102
RTVSPropertyOp26
 70
     1
102
RTVSPropertyOp27
 70
     1
102
RTVSPropertyOp28
 70
     1
102
RTVSPropertyOp29
 70
     1
102
RTVSPropertyOp30
 70
     1
102
RTVSPropertyOp31
 70
     1
102
RTVSPropertyOp32
 70
     1
  0
XRECORD
  5
ECA
102
{ACAD_REACTORS
330
EC9
102
}
330
EC9
100
AcDbXrecord
280
     1
102
RTVSPropertyOp0
 70
     1
102
RTVSPropertyOp1
 70
     1
102
RTVSPropertyOp2
 70
     1
102
RTVSPropertyOp3
 70
     1
102
RTVSPropertyOp4
 70
     1
102
RTVSPropertyOp5
 70
     1
102
RTVSPropertyOp6
 70
     1
102
RTVSPropertyOp7
 70
     1
102
RTVSPropertyOp8
 70
     1
102
RTVSPropertyOp9
 70
     1
102
RTVSPropertyOp10
 70
     1
102
RTVSPropertyOp11
 70
     1
102
RTVSPropertyOp12
 70
     1
102
RTVSPropertyOp13
 70
     1
102
RTVSPropertyOp14
 70
     1
102
RTVSPropertyOp15
 70
     1
102
RTVSPropertyOp16
 70
     1
102
RTVSPropertyOp17
 70
     1
102
RTVSPropertyOp18
 70
     1
102
RTVSPropertyOp19
 70
     1
102
RTVSPropertyOp20
 70
     1
102
RTVSPropertyOp21
 70
     1
102
RTVSPropertyOp22
 70
     1
102
RTVSPropertyOp23
 70
     1
102
RTVSPropertyOp24
 70
     1
102
RTVSPropertyOp25
 70
     1
102
RTVSPropertyOp26
 70
     1
102
RTVSPropertyOp27
 70
     1
102
RTVSPropertyOp28
 70
     1
102
RTVSPropertyOp29
 70
     1
102
RTVSPropertyOp30
 70
     1
102
RTVSPropertyOp31
 70
     1
102
RTVSPropertyOp32
 70
     1
  0
XRECORD
  5
ED7
102
{ACAD_REACTORS
330
ED6
102
}
330
ED6
100
AcDbXrecord
280
     1
102
RTVSPropertyOp0
 70
     1
102
RTVSPropertyOp1
 70
     1
102
RTVSPropertyOp2
 70
     1
102
RTVSPropertyOp3
 70
     1
102
RTVSPropertyOp4
 70
     1
102
RTVSPropertyOp5
 70
     1
102
RTVSPropertyOp6
 70
     1
102
RTVSPropertyOp7
 70
     1
102
RTVSPropertyOp8
 70
     1
102
RTVSPropertyOp9
 70
     1
102
RTVSPropertyOp10
 70
     1
102
RTVSPropertyOp11
 70
     1
102
RTVSPropertyOp12
 70
     1
102
RTVSPropertyOp13
 70
     1
102
RTVSPropertyOp14
 70
     1
102
RTVSPropertyOp15
 70
     1
102
RTVSPropertyOp16
 70
     1
102
RTVSPropertyOp17
 70
     1
102
RTVSPropertyOp18
 70
     1
102
RTVSPropertyOp19
 70
     1
102
RTVSPropertyOp20
 70
     1
102
RTVSPropertyOp21
 70
     1
102
RTVSPropertyOp22
 70
     1
102
RTVSPropertyOp23
 70
     1
102
RTVSPropertyOp24
 70
     1
102
RTVSPropertyOp25
 70
     1
102
RTVSPropertyOp26
 70
     1
102
RTVSPropertyOp27
 70
     1
102
RTVSPropertyOp28
 70
     1
102
RTVSPropertyOp29
 70
     1
102
RTVSPropertyOp30
 70
     1
102
RTVSPropertyOp31
 70
     1
102
RTVSPropertyOp32
 70
     1
  0
XRECORD
  5
EDF
102
{ACAD_REACTORS
330
EDE
102
}
330
EDE
100
AcDbXrecord
280
     1
102
RTVSPropertyOp0
 70
     1
102
RTVSPropertyOp1
 70
     1
102
RTVSPropertyOp2
 70
     1
102
RTVSPropertyOp3
 70
     1
102
RTVSPropertyOp4
 70
     1
102
RTVSPropertyOp5
 70
     1
102
RTVSPropertyOp6
 70
     1
102
RTVSPropertyOp7
 70
     1
102
RTVSPropertyOp8
 70
     1
102
RTVSPropertyOp9
 70
     1
102
RTVSPropertyOp10
 70
     1
102
RTVSPropertyOp11
 70
     1
102
RTVSPropertyOp12
 70
     1
102
RTVSPropertyOp13
 70
     1
102
RTVSPropertyOp14
 70
     1
102
RTVSPropertyOp15
 70
     1
102
RTVSPropertyOp16
 70
     1
102
RTVSPropertyOp17
 70
     1
102
RTVSPropertyOp18
 70
     1
102
RTVSPropertyOp19
 70
     1
102
RTVSPropertyOp20
 70
     1
102
RTVSPropertyOp21
 70
     1
102
RTVSPropertyOp22
 70
     1
102
RTVSPropertyOp23
 70
     1
102
RTVSPropertyOp24
 70
     1
102
RTVSPropertyOp25
 70
     1
102
RTVSPropertyOp26
 70
     1
102
RTVSPropertyOp27
 70
     1
102
RTVSPropertyOp28
 70
     1
102
RTVSPropertyOp29
 70
     1
102
RTVSPropertyOp30
 70
     1
102
RTVSPropertyOp31
 70
     1
102
RTVSPropertyOp32
 70
     1
  0
ENDSEC
  0
EOF
