  0
SECTION
  2
HEADER
  9
$ACADVER
  1
AC1015
  9
$ACADMAINTVER
 70
    20
  9
$DWGCODEPAGE
  3
ANSI_932
  9
$INSBASE
 10
0.0
 20
0.0
 30
0.0
  9
$EXTMIN
 10
-205.0
 20
-140.6691129876555
 30
0.0
  9
$EXTMAX
 10
200.0
 20
138.5
 30
0.0
  9
$LIMMIN
 10
-205.001
 20
-135.501
  9
$LIMMAX
 10
200.026864
 20
138.556359
  9
$ORTHOMODE
 70
     1
  9
$REGENMODE
 70
     1
  9
$FILLMODE
 70
     1
  9
$QTEXTMODE
 70
     0
  9
$MIRRTEXT
 70
     0
  9
$LTSCALE
 40
6.750430999999997
  9
$ATTMODE
 70
     1
  9
$TEXTSIZE
 40
3.2
  9
$TRACEWID
 40
0.05
  9
$TEXTSTYLE
  7
高3.2
  9
$CLAYER
  8
0
  9
$CELTYPE
  6
CONTINUOUS
  9
$CECOLOR
 62
   256
  9
$CELTSCALE
 40
1.0
  9
$DISPSILH
 70
     0
  9
$DIMSCALE
 40
1.0
  9
$DIMASZ
 40
2.5
  9
$DIMEXO
 40
0.25
  9
$DIMDLI
 40
0.2
  9
$DIMRND
 40
0.0
  9
$DIMDLE
 40
0.0
  9
$DIMEXE
 40
1.25
  9
$DIMTP
 40
0.0
  9
$DIMTM
 40
0.0
  9
$DIMTXT
 40
3.0
  9
$DIMCEN
 40
0.0
  9
$DIMTSZ
 40
0.0
  9
$DIMTOL
 70
     0
  9
$DIMLIM
 70
     0
  9
$DIMTIH
 70
     0
  9
$DIMTOH
 70
     0
  9
$DIMSE1
 70
     0
  9
$DIMSE2
 70
     0
  9
$DIMTAD
 70
     3
  9
$DIMZIN
 70
     8
  9
$DIMBLK
  1
Open30
  9
$DIMASO
 70
     1
  9
$DIMSHO
 70
     1
  9
$DIMPOST
  1

  9
$DIMAPOST
  1

  9
$DIMALT
 70
     0
  9
$DIMALTD
 70
     3
  9
$DIMALTF
 40
0.03937007874016
  9
$DIMLFAC
 40
2.0
  9
$DIMTOFL
 70
     1
  9
$DIMTVP
 40
0.0
  9
$DIMTIX
 70
     0
  9
$DIMSOXD
 70
     0
  9
$DIMSAH
 70
     0
  9
$DIMBLK1
  1

  9
$DIMBLK2
  1

  9
$DIMSTYLE
  2
1／2
  9
$DIMCLRD
 70
     0
  9
$DIMCLRE
 70
     0
  9
$DIMCLRT
 70
     4
  9
$DIMTFAC
 40
1.0
  9
$DIMGAP
 40
0.625
  9
$DIMJUST
 70
     0
  9
$DIMSD1
 70
     0
  9
$DIMSD2
 70
     0
  9
$DIMTOLJ
 70
     0
  9
$DIMTZIN
 70
     8
  9
$DIMALTZ
 70
     0
  9
$DIMALTTZ
 70
     0
  9
$DIMUPT
 70
     1
  9
$DIMDEC
 70
     2
  9
$DIMTDEC
 70
     2
  9
$DIMALTU
 70
     2
  9
$DIMALTTD
 70
     3
  9
$DIMTXSTY
  7
STANDARD
  9
$DIMAUNIT
 70
     0
  9
$DIMADEC
 70
     1
  9
$DIMALTRND
 40
0.0
  9
$DIMAZIN
 70
     2
  9
$DIMDSEP
 70
    46
  9
$DIMATFIT
 70
     0
  9
$DIMFRAC
 70
     0
  9
$DIMLDRBLK
  1
Open30
  9
$DIMLUNIT
 70
     2
  9
$DIMLWD
 70
    -2
  9
$DIMLWE
 70
    -2
  9
$DIMTMOVE
 70
     0
  9
$LUNITS
 70
     2
  9
$LUPREC
 70
     4
  9
$SKETCHINC
 40
0.1
  9
$FILLETRAD
 40
0.0
  9
$AUNITS
 70
     0
  9
$AUPREC
 70
     0
  9
$MENU
  1
.
  9
$ELEVATION
 40
0.0
  9
$PELEVATION
 40
0.0
  9
$THICKNESS
 40
0.0
  9
$LIMCHECK
 70
     0
  9
$CHAMFERA
 40
0.0
  9
$CHAMFERB
 40
0.0
  9
$CHAMFERC
 40
0.0
  9
$CHAMFERD
 40
0.0
  9
$SKPOLY
 70
     0
  9
$TDCREATE
 40
2455439.719348588
  9
$TDUCREATE
 40
2455439.344348588
  9
$TDUPDATE
 40
2458172.720880775
  9
$TDUUPDATE
 40
2458172.345880775
  9
$TDINDWG
 40
0.1781191319
  9
$TDUSRTIMER
 40
0.1781181134
  9
$USRTIMER
 70
     1
  9
$ANGBASE
 50
0.0
  9
$ANGDIR
 70
     0
  9
$PDMODE
 70
     0
  9
$PDSIZE
 40
0.0
  9
$PLINEWID
 40
0.0
  9
$SPLFRAME
 70
     0
  9
$SPLINETYPE
 70
     6
  9
$SPLINESEGS
 70
     8
  9
$HANDSEED
  5
2105
  9
$SURFTAB1
 70
     6
  9
$SURFTAB2
 70
     6
  9
$SURFTYPE
 70
     6
  9
$SURFU
 70
     6
  9
$SURFV
 70
     6
  9
$UCSBASE
  2

  9
$UCSNAME
  2

  9
$UCSORG
 10
0.0
 20
0.0
 30
0.0
  9
$UCSXDIR
 10
1.0
 20
0.0
 30
0.0
  9
$UCSYDIR
 10
0.0
 20
1.0
 30
0.0
  9
$UCSORTHOREF
  2

  9
$UCSORTHOVIEW
 70
     0
  9
$UCSORGTOP
 10
0.0
 20
0.0
 30
0.0
  9
$UCSORGBOTTOM
 10
0.0
 20
0.0
 30
0.0
  9
$UCSORGLEFT
 10
0.0
 20
0.0
 30
0.0
  9
$UCSORGRIGHT
 10
0.0
 20
0.0
 30
0.0
  9
$UCSORGFRONT
 10
0.0
 20
0.0
 30
0.0
  9
$UCSORGBACK
 10
0.0
 20
0.0
 30
0.0
  9
$PUCSBASE
  2

  9
$PUCSNAME
  2

  9
$PUCSORG
 10
0.0
 20
0.0
 30
0.0
  9
$PUCSXDIR
 10
1.0
 20
0.0
 30
0.0
  9
$PUCSYDIR
 10
0.0
 20
1.0
 30
0.0
  9
$PUCSORTHOREF
  2

  9
$PUCSORTHOVIEW
 70
     0
  9
$PUCSORGTOP
 10
0.0
 20
0.0
 30
0.0
  9
$PUCSORGBOTTOM
 10
0.0
 20
0.0
 30
0.0
  9
$PUCSORGLEFT
 10
0.0
 20
0.0
 30
0.0
  9
$PUCSORGRIGHT
 10
0.0
 20
0.0
 30
0.0
  9
$PUCSORGFRONT
 10
0.0
 20
0.0
 30
0.0
  9
$PUCSORGBACK
 10
0.0
 20
0.0
 30
0.0
  9
$USERI1
 70
     0
  9
$USERI2
 70
     0
  9
$USERI3
 70
     0
  9
$USERI4
 70
     0
  9
$USERI5
 70
     0
  9
$USERR1
 40
0.0
  9
$USERR2
 40
0.0
  9
$USERR3
 40
0.0
  9
$USERR4
 40
0.0
  9
$USERR5
 40
0.0
  9
$WORLDVIEW
 70
     1
  9
$SHADEDGE
 70
     3
  9
$SHADEDIF
 70
    70
  9
$TILEMODE
 70
     1
  9
$MAXACTVP
 70
    64
  9
$PINSBASE
 10
0.0
 20
0.0
 30
0.0
  9
$PLIMCHECK
 70
     0
  9
$PEXTMIN
 10
1.000000000000000E+20
 20
1.000000000000000E+20
 30
1.000000000000000E+20
  9
$PEXTMAX
 10
-1.000000000000000E+20
 20
-1.000000000000000E+20
 30
-1.000000000000000E+20
  9
$PLIMMIN
 10
0.0
 20
0.0
  9
$PLIMMAX
 10
12.0
 20
9.0
  9
$UNITMODE
 70
     0
  9
$VISRETAIN
 70
     1
  9
$PLINEGEN
 70
     0
  9
$PSLTSCALE
 70
     1
  9
$TREEDEPTH
 70
  3020
  9
$CMLSTYLE
  2
Standard
  9
$CMLJUST
 70
     0
  9
$CMLSCALE
 40
1.0
  9
$PROXYGRAPHICS
 70
     1
  9
$MEASUREMENT
 70
     0
  9
$CELWEIGHT
370
    -1
  9
$ENDCAPS
280
     0
  9
$JOINSTYLE
280
     0
  9
$LWDISPLAY
290
     0
  9
$INSUNITS
 70
     0
  9
$HYPERLINKBASE
  1

  9
$STYLESHEET
  1

  9
$XEDIT
290
     1
  9
$CEPSNTYPE
380
     0
  9
$PSTYLEMODE
290
     1
  9
$FINGERPRINTGUID
  2
{28ABD853-7DC8-4979-BD38-84FE73CCADE5}
  9
$VERSIONGUID
  2
{3FFA25CD-FE64-48E3-B048-7B2F747C0312}
  9
$EXTNAMES
290
     1
  9
$PSVPSCALE
 40
0.0
  9
$OLESTARTUP
290
     0
  0
ENDSEC
  0
SECTION
  2
CLASSES
  0
CLASS
  1
ACDBDICTIONARYWDFLT
  2
AcDbDictionaryWithDefault
  3
ObjectDBX Classes
 90
        0
280
     0
281
     0
  0
CLASS
  1
MATERIAL
  2
AcDbMaterial
  3
ObjectDBX Classes
 90
     1153
280
     0
281
     0
  0
CLASS
  1
VISUALSTYLE
  2
AcDbVisualStyle
  3
ObjectDBX Classes
 90
     4095
280
     0
281
     0
  0
CLASS
  1
TABLESTYLE
  2
AcDbTableStyle
  3
ObjectDBX Classes
 90
     4095
280
     0
281
     0
  0
CLASS
  1
DICTIONARYVAR
  2
AcDbDictionaryVar
  3
ObjectDBX Classes
 90
        0
280
     0
281
     0
  0
CLASS
  1
ACDBPLACEHOLDER
  2
AcDbPlaceHolder
  3
ObjectDBX Classes
 90
        0
280
     0
281
     0
  0
CLASS
  1
LAYOUT
  2
AcDbLayout
  3
ObjectDBX Classes
 90
        0
280
     0
281
     0
  0
CLASS
  1
SCALE
  2
AcDbScale
  3
ObjectDBX Classes
 90
     1153
280
     0
281
     0
  0
CLASS
  1
MLEADERSTYLE
  2
AcDbMLeaderStyle
  3
ACDB_MLEADERSTYLE_CLASS
 90
     4095
280
     0
281
     0
  0
CLASS
  1
SORTENTSTABLE
  2
AcDbSortentsTable
  3
ObjectDBX Classes
 90
        0
280
     0
281
     0
  0
CLASS
  1
CELLSTYLEMAP
  2
AcDbCellStyleMap
  3
ObjectDBX Classes
 90
     1152
280
     0
281
     0
  0
CLASS
  1
AEC_REFEDIT_STATUS_TRACKER
  2
AecDbRefEditStatusTracker
  3
AecArchBase60|Product Desc: Autodesk Architectural Desktop 2007 |Company: Autodesk,Inc. |WEB Address: www.autodesk.com
 90
      129
280
     0
281
     0
  0
CLASS
  1
NPOCOLLECTION
  2
AcDbImpNonPersistentObjectsCollection
  3
ObjectDBX Classes
 90
     1153
280
     0
281
     0
  0
ENDSEC
  0
SECTION
  2
TABLES
  0
TABLE
  2
VPORT
  5
8
330
0
100
AcDbSymbolTable
 70
     1
  0
VPORT
  5
57
330
8
100
AcDbSymbolTableRecord
100
AcDbViewportTableRecord
  2
*Active
 70
     0
 10
0.0
 20
0.0
 11
1.0
 21
1.0
 12
67.86433602456009
 22
-0.4067082627506125
 13
0.0
 23
0.0
 14
1.0
 24
1.0
 15
0.0
 25
0.0
 16
0.0
 26
0.0
 36
1.0
 17
0.0
 27
0.0
 37
0.0
 40
442.3495359570829
 41
1.676380368098159
 42
50.0
 43
0.0
 44
0.0
 50
0.0
 51
0.0
 71
     0
 72
   100
 73
     1
 74
     1
 75
     0
 76
     0
 77
     0
 78
     0
281
     0
 65
     1
110
0.0
120
0.0
130
0.0
111
1.0
121
0.0
131
0.0
112
0.0
122
1.0
132
0.0
 79
     0
146
0.0
  0
ENDTAB
  0
TABLE
  2
LTYPE
  5
5
330
0
100
AcDbSymbolTable
 70
     6
  0
LTYPE
  5
28
330
5
100
AcDbSymbolTableRecord
100
AcDbLinetypeTableRecord
  2
ByBlock
 70
     0
  3

 72
    65
 73
     0
 40
0.0
  0
LTYPE
  5
29
330
5
100
AcDbSymbolTableRecord
100
AcDbLinetypeTableRecord
  2
ByLayer
 70
     0
  3

 72
    65
 73
     0
 40
0.0
  0
LTYPE
  5
2A
330
5
100
AcDbSymbolTableRecord
100
AcDbLinetypeTableRecord
  2
CONTINUOUS
 70
     0
  3
Solid-line
 72
    65
 73
     0
 40
0.0
  0
LTYPE
  5
3D
330
5
100
AcDbSymbolTableRecord
100
AcDbLinetypeTableRecord
  2
CENTER
 70
     0
  3
CENTER
 72
    65
 73
     4
 40
2.0
 49
1.25
 74
     0
 49
-0.25
 74
     0
 49
0.25
 74
     0
 49
-0.25
 74
     0
  0
LTYPE
  5
43
330
5
100
AcDbSymbolTableRecord
100
AcDbLinetypeTableRecord
  2
DASHED
 70
     0
  3
DASHED
 72
    65
 73
     2
 40
0.75
 49
0.5
 74
     0
 49
-0.25
 74
     0
  0
LTYPE
  5
4C
330
5
100
AcDbSymbolTableRecord
100
AcDbLinetypeTableRecord
  2
HIDDEN
 70
     0
  3
HIDDEN
 72
    65
 73
     2
 40
0.375
 49
0.25
 74
     0
 49
-0.125
 74
     0
  0
LTYPE
  5
4F
330
5
100
AcDbSymbolTableRecord
100
AcDbLinetypeTableRecord
  2
PHANTOM
 70
     0
  3
PHANTOM
 72
    65
 73
     6
 40
2.5
 49
1.25
 74
     0
 49
-0.25
 74
     0
 49
0.25
 74
     0
 49
-0.25
 74
     0
 49
0.25
 74
     0
 49
-0.25
 74
     0
  0
ENDTAB
  0
TABLE
  2
LAYER
  5
2
102
{ACAD_XDICTIONARY
360
5A3
102
}
330
0
100
AcDbSymbolTable
 70
     2
  0
LAYER
  5
25
102
{ACAD_XDICTIONARY
360
981
102
}
330
2
100
AcDbSymbolTableRecord
100
AcDbLayerTableRecord
  2
0
 70
     0
 62
     7
  6
CONTINUOUS
370
    -3
390
F
  0
LAYER
  5
595
330
2
100
AcDbSymbolTableRecord
100
AcDbLayerTableRecord
  2
Defpoints
 70
     0
 62
     7
  6
CONTINUOUS
290
     0
370
    -3
390
F
  0
ENDTAB
  0
TABLE
  2
STYLE
  5
3
330
0
100
AcDbSymbolTable
 70
     6
  0
STYLE
  5
26
330
3
100
AcDbSymbolTableRecord
100
AcDbTextStyleTableRecord
  2
STANDARD
 70
     0
 40
0.0
 41
1.0
 50
0.0
 71
     0
 42
0.2
  3
TXT
  4
BIGFONT
  0
STYLE
  5
596
330
3
100
AcDbSymbolTableRecord
100
AcDbTextStyleTableRecord
  2
高3.2
 70
     0
 40
3.2
 41
1.0
 50
0.0
 71
     0
 42
3.2
  3
txt.shx
  4
bigfont.shx
  0
STYLE
  5
597
330
3
100
AcDbSymbolTableRecord
100
AcDbTextStyleTableRecord
  2
高6.3
 70
     0
 40
6.299999999999998
 41
1.0
 50
0.0
 71
     0
 42
6.299999999999998
  3
txt.shx
  4
bigfont.shx
  0
STYLE
  5
598
330
3
100
AcDbSymbolTableRecord
100
AcDbTextStyleTableRecord
  2
高2.5
 70
     0
 40
2.5
 41
1.0
 50
0.0
 71
     0
 42
0.2
  3
txt.shx
  4
bigfont.shx
  0
STYLE
  5
599
330
3
100
AcDbSymbolTableRecord
100
AcDbTextStyleTableRecord
  2
高4.5
 70
     0
 40
4.5
 41
1.0
 50
0.0
 71
     0
 42
6.299999999999998
  3
txt.shx
  4
bigfont.shx
  0
STYLE
  5
86D
330
3
100
AcDbSymbolTableRecord
100
AcDbTextStyleTableRecord
  2
高2
 70
     0
 40
2.0
 41
1.0
 50
0.0
 71
     0
 42
6.299999999999998
  3
txt.shx
  4
bigfont.shx
  0
ENDTAB
  0
TABLE
  2
VIEW
  5
6
330
0
100
AcDbSymbolTable
 70
     0
  0
ENDTAB
  0
TABLE
  2
UCS
  5
7
330
0
100
AcDbSymbolTable
 70
     0
  0
ENDTAB
  0
TABLE
  2
APPID
  5
9
330
0
100
AcDbSymbolTable
 70
    12
  0
APPID
  5
27
330
9
100
AcDbSymbolTableRecord
100
AcDbRegAppTableRecord
  2
ACAD
 70
     0
  0
APPID
  5
5A2
330
9
100
AcDbSymbolTableRecord
100
AcDbRegAppTableRecord
  2
ACAD_DSTYLE_DIMJOGGED_JOGANGLE_SYMBOL
 70
     0
  0
APPID
  5
736
330
9
100
AcDbSymbolTableRecord
100
AcDbRegAppTableRecord
  2
ACAD_DSTYLE_DIMARC_LENGTH_SYMBOL
 70
     0
  0
APPID
  5
737
330
9
100
AcDbSymbolTableRecord
100
AcDbRegAppTableRecord
  2
ACAD_DSTYLE_DIMEXT_LENGTH
 70
     0
  0
APPID
  5
788
330
9
100
AcDbSymbolTableRecord
100
AcDbRegAppTableRecord
  2
ACAD_EXEMPT_FROM_CAD_STANDARDS
 70
     0
  0
APPID
  5
870
330
9
100
AcDbSymbolTableRecord
100
AcDbRegAppTableRecord
  2
ACAD_DSTYLE_DIMJAG
 70
     0
  0
APPID
  5
871
330
9
100
AcDbSymbolTableRecord
100
AcDbRegAppTableRecord
  2
ACAD_DSTYLE_DIMBREAK
 70
     0
  0
APPID
  5
872
330
9
100
AcDbSymbolTableRecord
100
AcDbRegAppTableRecord
  2
ACAD_DSTYLE_DIMTALN
 70
     0
  0
APPID
  5
9CB
330
9
100
AcDbSymbolTableRecord
100
AcDbRegAppTableRecord
  2
ACAD_MLEADERVER
 70
     0
  0
APPID
  5
CED
330
9
100
AcDbSymbolTableRecord
100
AcDbRegAppTableRecord
  2
ACAD_PSEXT
 70
     0
  0
APPID
  5
F4C
330
9
100
AcDbSymbolTableRecord
100
AcDbRegAppTableRecord
  2
GradientColor1ACI
 70
     0
  0
APPID
  5
F4D
330
9
100
AcDbSymbolTableRecord
100
AcDbRegAppTableRecord
  2
GradientColor2ACI
 70
     0
  0
ENDTAB
  0
TABLE
  2
DIMSTYLE
  5
A
330
0
100
AcDbSymbolTable
 70
     4
100
AcDbDimStyleTable
 71
     1
340
59E
  0
DIMSTYLE
105
51D
330
A
100
AcDbSymbolTableRecord
100
AcDbDimStyleTableRecord
  2
Standard
 70
     0
340
26
  0
DIMSTYLE
105
59E
330
A
100
AcDbSymbolTableRecord
100
AcDbDimStyleTableRecord
  2
1／2
 70
     0
 41
2.5
 42
0.25
 43
0.2
 44
1.25
 73
     0
 74
     0
 77
     3
 78
     8
 79
     2
140
3.0
141
0.0
143
0.03937007874016
144
2.0
147
0.625
171
     3
172
     1
178
     4
179
     1
271
     2
272
     2
274
     3
283
     0
284
     8
288
     1
289
     0
340
26
341
51F
342
51F
1001
ACAD_DSTYLE_DIMARC_LENGTH_SYMBOL
1070
   379
1070
     2
1001
ACAD_DSTYLE_DIMEXT_LENGTH
1070
   378
1040
1.25
1001
ACAD_DSTYLE_DIMJOGGED_JOGANGLE_SYMBOL
1070
   384
1040
1.570796326794896
  0
DIMSTYLE
105
CEC
330
A
100
AcDbSymbolTableRecord
100
AcDbDimStyleTableRecord
  2
FREE
 70
     0
 41
2.5
 42
0.25
 43
0.2
 44
1.25
 73
     0
 74
     0
 77
     3
 78
     8
 79
     2
140
3.0
141
0.0
143
0.03937007874016
147
0.625
171
     3
172
     1
178
     4
179
     1
271
     2
272
     2
274
     3
283
     0
284
     8
288
     1
289
     0
340
26
341
51F
342
51F
1001
ACAD_DSTYLE_DIMBREAK
1070
   391
1040
3.75
1001
ACAD_DSTYLE_DIMJAG
1070
   388
1040
1.5
1001
ACAD_DSTYLE_DIMTALN
1070
   392
1070
     0
1001
ACAD_DSTYLE_DIMARC_LENGTH_SYMBOL
1070
   379
1070
     2
1001
ACAD_DSTYLE_DIMEXT_LENGTH
1070
   378
1040
1.25
1001
ACAD_DSTYLE_DIMJOGGED_JOGANGLE_SYMBOL
1070
   384
1040
1.570796326794896
  0
DIMSTYLE
105
F4B
330
A
100
AcDbSymbolTableRecord
100
AcDbDimStyleTableRecord
  2
1：1
 70
     0
 41
2.5
 42
0.25
 43
0.2
 44
1.25
 73
     0
 74
     0
 77
     3
 78
     8
 79
     2
140
3.0
141
0.0
143
0.03937007874016
147
0.625
171
     3
172
     1
178
     4
179
     1
271
     2
272
     2
274
     3
283
     0
284
     8
288
     1
289
     0
340
26
341
51F
342
51F
1001
ACAD_DSTYLE_DIMARC_LENGTH_SYMBOL
1070
   379
1070
     2
1001
ACAD_DSTYLE_DIMEXT_LENGTH
1070
   378
1040
1.25
1001
ACAD_DSTYLE_DIMJOGGED_JOGANGLE_SYMBOL
1070
   384
1040
1.570796326794896
  0
ENDTAB
  0
TABLE
  2
BLOCK_RECORD
  5
1
330
0
100
AcDbSymbolTable
 70
    27
  0
BLOCK_RECORD
  5
36
102
{ACAD_XDICTIONARY
360
7E1
102
}
330
1
100
AcDbSymbolTableRecord
100
AcDbBlockTableRecord
  2
*Model_Space
340
39
  0
BLOCK_RECORD
  5
32
330
1
100
AcDbSymbolTableRecord
100
AcDbBlockTableRecord
  2
*Paper_Space
340
35
  0
BLOCK_RECORD
  5
51F
330
1
100
AcDbSymbolTableRecord
100
AcDbBlockTableRecord
  2
_Open30
340
0
102
{BLKREFS
331
F14
331
F15
331
F20
331
F21
331
F2C
331
F2D
331
F38
331
F39
331
F44
331
F45
331
1644
331
1645
331
164D
331
164E
331
1656
331
1657
331
165F
331
1660
331
1668
331
1669
331
167E
331
167F
331
16A2
331
16A3
331
16AE
331
16AF
331
168A
331
168B
331
1696
331
1697
331
1ECE
331
1ECF
331
1ED7
331
1ED8
331
1EE0
331
1EE1
331
1EE9
331
1EEA
331
1EF2
331
1EF3
331
1FAB
331
1FAC
331
1FB4
331
1FB5
331
1FBD
331
1FBE
331
1FC6
331
1FC7
331
1FCF
331
1FD0
102
}
  0
BLOCK_RECORD
  5
681
330
1
100
AcDbSymbolTableRecord
100
AcDbBlockTableRecord
  2
*D1
340
0
  0
BLOCK_RECORD
  5
6A8
330
1
100
AcDbSymbolTableRecord
100
AcDbBlockTableRecord
  2
*D2
340
0
  0
BLOCK_RECORD
  5
6C6
330
1
100
AcDbSymbolTableRecord
100
AcDbBlockTableRecord
  2
*D3
340
0
  0
BLOCK_RECORD
  5
6E4
330
1
100
AcDbSymbolTableRecord
100
AcDbBlockTableRecord
  2
*D4
340
0
  0
BLOCK_RECORD
  5
702
330
1
100
AcDbSymbolTableRecord
100
AcDbBlockTableRecord
  2
*D5
340
0
  0
BLOCK_RECORD
  5
F0B
330
1
100
AcDbSymbolTableRecord
100
AcDbBlockTableRecord
  2
_DotSmall
340
0
  0
BLOCK_RECORD
  5
F0F
330
1
100
AcDbSymbolTableRecord
100
AcDbBlockTableRecord
  2
*D7
340
0
  0
BLOCK_RECORD
  5
F1B
330
1
100
AcDbSymbolTableRecord
100
AcDbBlockTableRecord
  2
*D8
340
0
  0
BLOCK_RECORD
  5
F27
330
1
100
AcDbSymbolTableRecord
100
AcDbBlockTableRecord
  2
*D9
340
0
  0
BLOCK_RECORD
  5
F33
330
1
100
AcDbSymbolTableRecord
100
AcDbBlockTableRecord
  2
*D10
340
0
  0
BLOCK_RECORD
  5
F3F
330
1
100
AcDbSymbolTableRecord
100
AcDbBlockTableRecord
  2
*D11
340
0
  0
BLOCK_RECORD
  5
1605
330
1
100
AcDbSymbolTableRecord
100
AcDbBlockTableRecord
  2
*D12
340
0
  0
BLOCK_RECORD
  5
1611
330
1
100
AcDbSymbolTableRecord
100
AcDbBlockTableRecord
  2
*D13
340
0
  0
BLOCK_RECORD
  5
161D
330
1
100
AcDbSymbolTableRecord
100
AcDbBlockTableRecord
  2
*D14
340
0
  0
BLOCK_RECORD
  5
1629
330
1
100
AcDbSymbolTableRecord
100
AcDbBlockTableRecord
  2
*D15
340
0
  0
BLOCK_RECORD
  5
1635
330
1
100
AcDbSymbolTableRecord
100
AcDbBlockTableRecord
  2
*D16
340
0
  0
BLOCK_RECORD
  5
1679
330
1
100
AcDbSymbolTableRecord
100
AcDbBlockTableRecord
  2
*D17
340
0
  0
BLOCK_RECORD
  5
1685
330
1
100
AcDbSymbolTableRecord
100
AcDbBlockTableRecord
  2
*D18
340
0
  0
BLOCK_RECORD
  5
1691
330
1
100
AcDbSymbolTableRecord
100
AcDbBlockTableRecord
  2
*D19
340
0
  0
BLOCK_RECORD
  5
169D
330
1
100
AcDbSymbolTableRecord
100
AcDbBlockTableRecord
  2
*D20
340
0
  0
BLOCK_RECORD
  5
16A9
330
1
100
AcDbSymbolTableRecord
100
AcDbBlockTableRecord
  2
*D21
340
0
  0
BLOCK_RECORD
  5
1E8F
330
1
100
AcDbSymbolTableRecord
100
AcDbBlockTableRecord
  2
*D22
340
0
  0
BLOCK_RECORD
  5
1E9B
330
1
100
AcDbSymbolTableRecord
100
AcDbBlockTableRecord
  2
*D23
340
0
  0
BLOCK_RECORD
  5
1EA7
330
1
100
AcDbSymbolTableRecord
100
AcDbBlockTableRecord
  2
*D24
340
0
  0
BLOCK_RECORD
  5
1EB3
330
1
100
AcDbSymbolTableRecord
100
AcDbBlockTableRecord
  2
*D25
340
0
  0
BLOCK_RECORD
  5
1EBF
330
1
100
AcDbSymbolTableRecord
100
AcDbBlockTableRecord
  2
*D26
340
0
  0
ENDTAB
  0
ENDSEC
  0
SECTION
  2
BLOCKS
  0
BLOCK
  5
37
330
36
100
AcDbEntity
  8
0
100
AcDbBlockBegin
  2
*Model_Space
 70
     0
 10
0.0
 20
0.0
 30
0.0
  3
*Model_Space
  1

  0
ENDBLK
  5
38
330
36
100
AcDbEntity
  8
0
100
AcDbBlockEnd
  0
BLOCK
  5
33
330
32
100
AcDbEntity
 67
     1
  8
0
100
AcDbBlockBegin
  2
*Paper_Space
 70
     0
 10
0.0
 20
0.0
 30
0.0
  3
*Paper_Space
  1

  0
ENDBLK
  5
34
330
32
100
AcDbEntity
 67
     1
  8
0
100
AcDbBlockEnd
  0
BLOCK
  5
520
330
51F
100
AcDbEntity
  8
0
100
AcDbBlockBegin
  2
_Open30
 70
     0
 10
0.0
 20
0.0
 30
0.0
  3
_Open30
  1

  0
LINE
  5
521
330
51F
100
AcDbEntity
  8
0
  6
ByBlock
 62
     0
370
    -2
100
AcDbLine
 10
-1.0
 20
0.267949
 30
0.0
 11
0.0
 21
0.0
 31
0.0
  0
LINE
  5
522
330
51F
100
AcDbEntity
  8
0
  6
ByBlock
 62
     0
370
    -2
100
AcDbLine
 10
0.0
 20
0.0
 30
0.0
 11
-1.0
 21
-0.267949
 31
0.0
  0
LINE
  5
523
330
51F
100
AcDbEntity
  8
0
  6
ByBlock
 62
     0
370
    -2
100
AcDbLine
 10
0.0
 20
0.0
 30
0.0
 11
-1.0
 21
0.0
 31
0.0
  0
ENDBLK
  5
524
330
51F
100
AcDbEntity
  8
0
100
AcDbBlockEnd
  0
BLOCK
  5
68B
330
681
100
AcDbEntity
  8
0
100
AcDbBlockBegin
  2
*D1
 70
     1
 10
0.0
 20
0.0
 30
0.0
  3
*D1
  1

  0
LINE
  5
1FA8
330
681
100
AcDbEntity
  8
0
 62
     0
370
    -2
100
AcDbLine
 10
70.70376299999998
 20
27.34180991433528
 30
0.0
 11
70.70376299999998
 21
-5.973938085664713
 31
0.0
  0
LINE
  5
1FA9
330
681
100
AcDbEntity
  8
0
 62
     0
370
    -2
100
AcDbLine
 10
113.203763
 20
18.82144891433528
 30
0.0
 11
113.203763
 21
-5.973938085664713
 31
0.0
  0
LINE
  5
1FAA
330
681
100
AcDbEntity
  8
0
 62
     0
370
    -2
100
AcDbLine
 10
73.20376299999998
 20
-4.723938085664713
 30
0.0
 11
110.703763
 21
-4.723938085664713
 31
0.0
  0
INSERT
  5
1FAB
330
681
100
AcDbEntity
  8
0
 62
     0
370
    -2
100
AcDbBlockReference
  2
_Open30
 10
70.70376299999998
 20
-4.723938085664713
 30
0.0
 41
2.5
 42
2.5
 43
2.5
 50
180.0
  0
INSERT
  5
1FAC
330
681
100
AcDbEntity
  8
0
 62
     0
370
    -2
100
AcDbBlockReference
  2
_Open30
 10
113.203763
 20
-4.723938085664713
 30
0.0
 41
2.5
 42
2.5
 43
2.5
  0
MTEXT
  5
1FAD
330
681
100
AcDbEntity
  8
0
 62
     4
100
AcDbMText
 10
91.95376299999997
 20
-2.598938085664713
 30
0.0
 40
3.0
 41
0.0
 71
     5
 72
     1
  1
85
 73
     1
 44
1.0
1001
ACAD
1000
MTEXTBEGIN
1070
    73
1070
     1
1070
    44
1040
1.0
1070
    74
1070
     0
1000
MTEXTEND
  0
POINT
  5
1FAE
330
681
100
AcDbEntity
  8
Defpoints
 62
     0
100
AcDbPoint
 10
70.70376299999998
 20
27.59180991433528
 30
0.0
  0
POINT
  5
1FAF
330
681
100
AcDbEntity
  8
Defpoints
 62
     0
100
AcDbPoint
 10
113.203763
 20
19.07144891433528
 30
0.0
  0
POINT
  5
1FB0
330
681
100
AcDbEntity
  8
Defpoints
 62
     0
100
AcDbPoint
 10
113.203763
 20
-4.723938085664713
 30
0.0
  0
ENDBLK
  5
68C
330
681
100
AcDbEntity
  8
0
100
AcDbBlockEnd
  0
BLOCK
  5
6B2
330
6A8
100
AcDbEntity
  8
0
100
AcDbBlockBegin
  2
*D2
 70
     1
 10
0.0
 20
0.0
 30
0.0
  3
*D2
  1

  0
LINE
  5
1FB1
330
6A8
100
AcDbEntity
  8
0
 62
     0
370
    -2
100
AcDbLine
 10
-39.517988
 20
1.791856914335284
 30
0.0
 11
-39.517988
 21
-12.24662808566471
 31
0.0
  0
LINE
  5
1FB2
330
6A8
100
AcDbEntity
  8
0
 62
     0
370
    -2
100
AcDbLine
 10
113.203763
 20
18.82144891433528
 30
0.0
 11
113.203763
 21
-12.24662808566471
 31
0.0
  0
LINE
  5
1FB3
330
6A8
100
AcDbEntity
  8
0
 62
     0
370
    -2
100
AcDbLine
 10
-37.01798800000001
 20
-10.99662808566471
 30
0.0
 11
110.703763
 21
-10.99662808566471
 31
0.0
  0
INSERT
  5
1FB4
330
6A8
100
AcDbEntity
  8
0
 62
     0
370
    -2
100
AcDbBlockReference
  2
_Open30
 10
-39.517988
 20
-10.99662808566471
 30
0.0
 41
2.5
 42
2.5
 43
2.5
 50
180.0
  0
INSERT
  5
1FB5
330
6A8
100
AcDbEntity
  8
0
 62
     0
370
    -2
100
AcDbBlockReference
  2
_Open30
 10
113.203763
 20
-10.99662808566471
 30
0.0
 41
2.5
 42
2.5
 43
2.5
  0
MTEXT
  5
1FB6
330
6A8
100
AcDbEntity
  8
0
 62
     4
100
AcDbMText
 10
36.8428875
 20
-8.87162808566471
 30
0.0
 40
3.0
 41
0.0
 71
     5
 72
     1
  1
315
 73
     1
 44
1.0
1001
ACAD
1000
MTEXTBEGIN
1070
    73
1070
     1
1070
    44
1040
1.0
1070
    74
1070
     0
1000
MTEXTEND
  0
POINT
  5
1FB7
330
6A8
100
AcDbEntity
  8
Defpoints
 62
     0
100
AcDbPoint
 10
-39.517988
 20
2.041856914335284
 30
0.0
  0
POINT
  5
1FB8
330
6A8
100
AcDbEntity
  8
Defpoints
 62
     0
100
AcDbPoint
 10
113.203763
 20
19.07144891433528
 30
0.0
  0
POINT
  5
1FB9
330
6A8
100
AcDbEntity
  8
Defpoints
 62
     0
100
AcDbPoint
 10
113.203763
 20
-10.99662808566471
 30
0.0
  0
ENDBLK
  5
6B3
330
6A8
100
AcDbEntity
  8
0
100
AcDbBlockEnd
  0
BLOCK
  5
6D0
330
6C6
100
AcDbEntity
  8
0
100
AcDbBlockBegin
  2
*D3
 70
     1
 10
0.0
 20
0.0
 30
0.0
  3
*D3
  1

  0
LINE
  5
1FBA
330
6C6
100
AcDbEntity
  8
0
 62
     0
370
    -2
100
AcDbLine
 10
-49.76229899999999
 20
12.11457391433528
 30
0.0
 11
-49.76229899999999
 21
-16.97825680400228
 31
0.0
  0
LINE
  5
1FBB
330
6C6
100
AcDbEntity
  8
0
 62
     0
370
    -2
100
AcDbLine
 10
113.203763
 20
18.82144891433528
 30
0.0
 11
113.203763
 21
-16.97825680400228
 31
0.0
  0
LINE
  5
1FBC
330
6C6
100
AcDbEntity
  8
0
 62
     0
370
    -2
100
AcDbLine
 10
-47.26229899999998
 20
-15.72825680400228
 30
0.0
 11
110.703763
 21
-15.72825680400228
 31
0.0
  0
INSERT
  5
1FBD
330
6C6
100
AcDbEntity
  8
0
 62
     0
370
    -2
100
AcDbBlockReference
  2
_Open30
 10
-49.76229899999999
 20
-15.72825680400228
 30
0.0
 41
2.5
 42
2.5
 43
2.5
 50
180.0
  0
INSERT
  5
1FBE
330
6C6
100
AcDbEntity
  8
0
 62
     0
370
    -2
100
AcDbBlockReference
  2
_Open30
 10
113.203763
 20
-15.72825680400228
 30
0.0
 41
2.5
 42
2.5
 43
2.5
  0
MTEXT
  5
1FBF
330
6C6
100
AcDbEntity
  8
0
 62
     4
100
AcDbMText
 10
32.45460246708035
 20
-13.60325680400228
 30
0.0
 40
3.0
 41
0.0
 71
     5
 72
     1
  1
335.5
 73
     1
 44
1.0
1001
ACAD
1000
MTEXTBEGIN
1070
    73
1070
     1
1070
    44
1040
1.0
1070
    74
1070
     0
1000
MTEXTEND
  0
POINT
  5
1FC0
330
6C6
100
AcDbEntity
  8
Defpoints
 62
     0
100
AcDbPoint
 10
-49.76229899999999
 20
12.36457391433528
 30
0.0
  0
POINT
  5
1FC1
330
6C6
100
AcDbEntity
  8
Defpoints
 62
     0
100
AcDbPoint
 10
113.203763
 20
19.07144891433528
 30
0.0
  0
POINT
  5
1FC2
330
6C6
100
AcDbEntity
  8
Defpoints
 62
     0
100
AcDbPoint
 10
113.203763
 20
-15.72825680400228
 30
0.0
  0
ENDBLK
  5
6D1
330
6C6
100
AcDbEntity
  8
0
100
AcDbBlockEnd
  0
BLOCK
  5
6EE
330
6E4
100
AcDbEntity
  8
0
100
AcDbBlockBegin
  2
*D4
 70
     1
 10
0.0
 20
0.0
 30
0.0
  3
*D4
  1

  0
LINE
  5
1FC3
330
6E4
100
AcDbEntity
  8
0
 62
     0
370
    -2
100
AcDbLine
 10
-38.767988
 20
1.041856914335284
 30
0.0
 11
-58.42006099999999
 21
1.041856914335289
 31
0.0
  0
LINE
  5
1FC4
330
6E4
100
AcDbEntity
  8
0
 62
     0
370
    -2
100
AcDbLine
 10
-38.767988
 20
73.54185691433528
 30
0.0
 11
-58.42006099999998
 21
73.54185691433528
 31
0.0
  0
LINE
  5
1FC5
330
6E4
100
AcDbEntity
  8
0
 62
     0
370
    -2
100
AcDbLine
 10
-57.17006099999999
 20
3.541856914335289
 30
0.0
 11
-57.17006099999998
 21
71.04185691433528
 31
0.0
  0
INSERT
  5
1FC6
330
6E4
100
AcDbEntity
  8
0
 62
     0
370
    -2
100
AcDbBlockReference
  2
_Open30
 10
-57.17006099999999
 20
1.041856914335289
 30
0.0
 41
2.5
 42
2.5
 43
2.5
 50
270.0
  0
INSERT
  5
1FC7
330
6E4
100
AcDbEntity
  8
0
 62
     0
370
    -2
100
AcDbBlockReference
  2
_Open30
 10
-57.17006099999998
 20
73.54185691433528
 30
0.0
 41
2.5
 42
2.5
 43
2.5
 50
90.0
  0
MTEXT
  5
1FC8
330
6E4
100
AcDbEntity
  8
0
 62
     4
100
AcDbMText
 10
-59.295061
 20
37.29185691433528
 30
0.0
 40
3.0
 41
0.0
 71
     5
 72
     1
  1
\U+03C6145
 11
0.0000000000000001
 21
1.0
 31
0.0
 73
     1
 44
1.0
1001
ACAD
1000
MTEXTBEGIN
1070
    73
1070
     1
1070
    44
1040
1.0
1070
    74
1070
     0
1000
MTEXTEND
  0
POINT
  5
1FC9
330
6E4
100
AcDbEntity
  8
Defpoints
 62
     0
100
AcDbPoint
 10
-38.517988
 20
1.041856914335284
 30
0.0
  0
POINT
  5
1FCA
330
6E4
100
AcDbEntity
  8
Defpoints
 62
     0
100
AcDbPoint
 10
-38.517988
 20
73.54185691433528
 30
0.0
  0
POINT
  5
1FCB
330
6E4
100
AcDbEntity
  8
Defpoints
 62
     0
100
AcDbPoint
 10
-57.17006099999998
 20
73.54185691433528
 30
0.0
  0
ENDBLK
  5
6EF
330
6E4
100
AcDbEntity
  8
0
100
AcDbBlockEnd
  0
BLOCK
  5
70C
330
702
100
AcDbEntity
  8
0
100
AcDbBlockBegin
  2
*D5
 70
     1
 10
0.0
 20
0.0
 30
0.0
  3
*D5
  1

  0
LINE
  5
1FCC
330
702
100
AcDbEntity
  8
0
 62
     0
370
    -2
100
AcDbLine
 10
-114.843888
 20
-0.9581430856647157
 30
0.0
 11
-167.031715
 21
-0.958143085664701
 31
0.0
  0
LINE
  5
1FCD
330
702
100
AcDbEntity
  8
0
 62
     0
370
    -2
100
AcDbLine
 10
-114.843888
 20
75.54185691433528
 30
0.0
 11
-167.031715
 21
75.5418569143353
 31
0.0
  0
LINE
  5
1FCE
330
702
100
AcDbEntity
  8
0
 62
     0
370
    -2
100
AcDbLine
 10
-165.781715
 20
1.541856914335298
 30
0.0
 11
-165.781715
 21
73.0418569143353
 31
0.0
  0
INSERT
  5
1FCF
330
702
100
AcDbEntity
  8
0
 62
     0
370
    -2
100
AcDbBlockReference
  2
_Open30
 10
-165.781715
 20
-0.9581430856647013
 30
0.0
 41
2.5
 42
2.5
 43
2.5
 50
270.0
  0
INSERT
  5
1FD0
330
702
100
AcDbEntity
  8
0
 62
     0
370
    -2
100
AcDbBlockReference
  2
_Open30
 10
-165.781715
 20
75.5418569143353
 30
0.0
 41
2.5
 42
2.5
 43
2.5
 50
90.0
  0
MTEXT
  5
1FD1
330
702
100
AcDbEntity
  8
0
 62
     4
100
AcDbMText
 10
-167.906715
 20
37.29185691433527
 30
0.0
 40
3.0
 41
0.0
 71
     5
 72
     1
  1
\U+03C6153
 11
0.0000000000000001
 21
1.0
 31
0.0
 73
     1
 44
1.0
1001
ACAD
1000
MTEXTBEGIN
1070
    73
1070
     1
1070
    44
1040
1.0
1070
    74
1070
     0
1000
MTEXTEND
  0
POINT
  5
1FD2
330
702
100
AcDbEntity
  8
Defpoints
 62
     0
100
AcDbPoint
 10
-114.593888
 20
-0.9581430856647159
 30
0.0
  0
POINT
  5
1FD3
330
702
100
AcDbEntity
  8
Defpoints
 62
     0
100
AcDbPoint
 10
-114.593888
 20
75.54185691433528
 30
0.0
  0
POINT
  5
1FD4
330
702
100
AcDbEntity
  8
Defpoints
 62
     0
100
AcDbPoint
 10
-165.781715
 20
75.5418569143353
 30
0.0
  0
ENDBLK
  5
70D
330
702
100
AcDbEntity
  8
0
100
AcDbBlockEnd
  0
BLOCK
  5
F0C
330
F0B
100
AcDbEntity
  8
0
100
AcDbBlockBegin
  2
_DotSmall
 70
     0
 10
0.0
 20
0.0
 30
0.0
  3
_DotSmall
  1

  0
LWPOLYLINE
  5
F0D
330
F0B
100
AcDbEntity
  8
0
  6
ByBlock
 62
     0
100
AcDbPolyline
 90
        2
 70
     1
 43
0.5
 10
-0.0625
 20
0.0
 42
1.0
 10
0.0625
 20
0.0
 42
1.0
  0
ENDBLK
  5
F0E
330
F0B
100
AcDbEntity
  8
0
100
AcDbBlockEnd
  0
BLOCK
  5
F10
330
F0F
100
AcDbEntity
  8
0
100
AcDbBlockBegin
  2
*D7
 70
     1
 10
0.0
 20
0.0
 30
0.0
  3
*D7
  1

  0
LINE
  5
F11
330
F0F
100
AcDbEntity
  8
0
 62
     0
370
    -2
100
AcDbLine
 10
-133.3201431865968
 20
-31.44729340492816
 30
0.0
 11
-154.2276091218014
 21
-31.44729340492816
 31
0.0
  0
LINE
  5
F12
330
F0F
100
AcDbEntity
  8
0
 62
     0
370
    -2
100
AcDbLine
 10
-133.3201431865968
 20
22.55270659507187
 30
0.0
 11
-154.2276091218014
 21
22.55270659507187
 31
0.0
  0
LINE
  5
F13
330
F0F
100
AcDbEntity
  8
0
 62
     0
370
    -2
100
AcDbLine
 10
-152.9776091218014
 20
-28.94729340492816
 30
0.0
 11
-152.9776091218014
 21
20.05270659507187
 31
0.0
  0
INSERT
  5
F14
330
F0F
100
AcDbEntity
  8
0
 62
     0
370
    -2
100
AcDbBlockReference
  2
_Open30
 10
-152.9776091218014
 20
-31.44729340492816
 30
0.0
 41
2.5
 42
2.5
 43
2.5
 50
270.0
  0
INSERT
  5
F15
330
F0F
100
AcDbEntity
  8
0
 62
     0
370
    -2
100
AcDbBlockReference
  2
_Open30
 10
-152.9776091218014
 20
22.55270659507187
 30
0.0
 41
2.5
 42
2.5
 43
2.5
 50
90.0
  0
MTEXT
  5
F16
330
F0F
100
AcDbEntity
  8
0
 62
     4
100
AcDbMText
 10
-155.1026091218014
 20
-3.884077593577328
 30
0.0
 40
3.0
 41
0.0
 71
     5
 72
     1
  1
%%C108
 11
0.0000000000000001
 21
1.0
 31
0.0
 73
     1
 44
1.0
1001
ACAD
1000
MTEXTBEGIN
1070
    73
1070
     1
1070
    44
1040
1.0
1070
    74
1070
     0
1000
MTEXTEND
  0
POINT
  5
F17
330
F0F
100
AcDbEntity
  8
Defpoints
 62
     0
100
AcDbPoint
 10
-133.0701431865968
 20
-31.44729340492816
 30
0.0
  0
POINT
  5
F18
330
F0F
100
AcDbEntity
  8
Defpoints
 62
     0
100
AcDbPoint
 10
-133.0701431865968
 20
22.55270659507187
 30
0.0
  0
POINT
  5
F19
330
F0F
100
AcDbEntity
  8
Defpoints
 62
     0
100
AcDbPoint
 10
-152.9776091218014
 20
22.55270659507187
 30
0.0
  0
ENDBLK
  5
F1A
330
F0F
100
AcDbEntity
  8
0
100
AcDbBlockEnd
  0
BLOCK
  5
F1C
330
F1B
100
AcDbEntity
  8
0
100
AcDbBlockBegin
  2
*D8
 70
     1
 10
0.0
 20
0.0
 30
0.0
  3
*D8
  1

  0
LINE
  5
F1D
330
F1B
100
AcDbEntity
  8
0
 62
     0
370
    -2
100
AcDbLine
 10
7.427564010086483
 20
-15.01497168568488
 30
0.0
 11
7.427564010086481
 21
-44.12688846902709
 31
0.0
  0
LINE
  5
F1E
330
F1B
100
AcDbEntity
  8
0
 62
     0
370
    -2
100
AcDbLine
 10
-133.5701431865968
 20
-31.19729340492814
 30
0.0
 11
-133.5701431865968
 21
-44.12688846902709
 31
0.0
  0
LINE
  5
F1F
330
F1B
100
AcDbEntity
  8
0
 62
     0
370
    -2
100
AcDbLine
 10
4.927564010086481
 20
-42.87688846902709
 30
0.0
 11
-131.0701431865968
 21
-42.87688846902709
 31
0.0
  0
INSERT
  5
F20
330
F1B
100
AcDbEntity
  8
0
 62
     0
370
    -2
100
AcDbBlockReference
  2
_Open30
 10
7.427564010086481
 20
-42.87688846902709
 30
0.0
 41
2.5
 42
2.5
 43
2.5
  0
INSERT
  5
F21
330
F1B
100
AcDbEntity
  8
0
 62
     0
370
    -2
100
AcDbBlockReference
  2
_Open30
 10
-133.5701431865968
 20
-42.87688846902709
 30
0.0
 41
2.5
 42
2.5
 43
2.5
 50
180.0
  0
MTEXT
  5
F22
330
F1B
100
AcDbEntity
  8
0
 62
     4
100
AcDbMText
 10
-57.49194394627557
 20
-40.75188846902709
 30
0.0
 40
3.0
 41
0.0
 71
     5
 72
     1
  1
282
 73
     1
 44
1.0
1001
ACAD
1000
MTEXTBEGIN
1070
    73
1070
     1
1070
    44
1040
1.0
1070
    74
1070
     0
1000
MTEXTEND
  0
POINT
  5
F23
330
F1B
100
AcDbEntity
  8
Defpoints
 62
     0
100
AcDbPoint
 10
7.427564010086483
 20
-14.76497168568488
 30
0.0
  0
POINT
  5
F24
330
F1B
100
AcDbEntity
  8
Defpoints
 62
     0
100
AcDbPoint
 10
-133.5701431865968
 20
-30.94729340492814
 30
0.0
  0
POINT
  5
F25
330
F1B
100
AcDbEntity
  8
Defpoints
 62
     0
100
AcDbPoint
 10
-133.5701431865968
 20
-42.87688846902709
 30
0.0
  0
ENDBLK
  5
F26
330
F1B
100
AcDbEntity
  8
0
100
AcDbBlockEnd
  0
BLOCK
  5
F28
330
F27
100
AcDbEntity
  8
0
100
AcDbBlockBegin
  2
*D9
 70
     1
 10
0.0
 20
0.0
 30
0.0
  3
*D9
  1

  0
LINE
  5
F29
330
F27
100
AcDbEntity
  8
0
 62
     0
370
    -2
100
AcDbLine
 10
-54.57014318659685
 20
-18.69729340492813
 30
0.0
 11
-54.57014318659685
 21
-37.05134678634204
 31
0.0
  0
LINE
  5
F2A
330
F27
100
AcDbEntity
  8
0
 62
     0
370
    -2
100
AcDbLine
 10
-133.5701431865968
 20
-31.19729340492814
 30
0.0
 11
-133.5701431865968
 21
-37.05134678634204
 31
0.0
  0
LINE
  5
F2B
330
F27
100
AcDbEntity
  8
0
 62
     0
370
    -2
100
AcDbLine
 10
-57.07014318659685
 20
-35.80134678634204
 30
0.0
 11
-131.0701431865968
 21
-35.80134678634204
 31
0.0
  0
INSERT
  5
F2C
330
F27
100
AcDbEntity
  8
0
 62
     0
370
    -2
100
AcDbBlockReference
  2
_Open30
 10
-54.57014318659685
 20
-35.80134678634204
 30
0.0
 41
2.5
 42
2.5
 43
2.5
  0
INSERT
  5
F2D
330
F27
100
AcDbEntity
  8
0
 62
     0
370
    -2
100
AcDbBlockReference
  2
_Open30
 10
-133.5701431865968
 20
-35.80134678634204
 30
0.0
 41
2.5
 42
2.5
 43
2.5
 50
180.0
  0
MTEXT
  5
F2E
330
F27
100
AcDbEntity
  8
0
 62
     4
100
AcDbMText
 10
-95.67817622565373
 20
-33.67634678634204
 30
0.0
 40
3.0
 41
0.0
 71
     5
 72
     1
  1
158
 73
     1
 44
1.0
1001
ACAD
1000
MTEXTBEGIN
1070
    73
1070
     1
1070
    44
1040
1.0
1070
    74
1070
     0
1000
MTEXTEND
  0
POINT
  5
F2F
330
F27
100
AcDbEntity
  8
Defpoints
 62
     0
100
AcDbPoint
 10
-54.57014318659685
 20
-18.44729340492813
 30
0.0
  0
POINT
  5
F30
330
F27
100
AcDbEntity
  8
Defpoints
 62
     0
100
AcDbPoint
 10
-133.5701431865968
 20
-30.94729340492814
 30
0.0
  0
POINT
  5
F31
330
F27
100
AcDbEntity
  8
Defpoints
 62
     0
100
AcDbPoint
 10
-133.5701431865968
 20
-35.80134678634204
 30
0.0
  0
ENDBLK
  5
F32
330
F27
100
AcDbEntity
  8
0
100
AcDbBlockEnd
  0
BLOCK
  5
F34
330
F33
100
AcDbEntity
  8
0
100
AcDbBlockBegin
  2
*D10
 70
     1
 10
0.0
 20
0.0
 30
0.0
  3
*D10
  1

  0
LINE
  5
F35
330
F33
100
AcDbEntity
  8
0
 62
     0
370
    -2
100
AcDbLine
 10
1.179856813403147
 20
4.052706595071938
 30
0.0
 11
34.79733404663011
 21
4.052706595071928
 31
0.0
  0
LINE
  5
F36
330
F33
100
AcDbEntity
  8
0
 62
     0
370
    -2
100
AcDbLine
 10
1.179856813403147
 20
-12.94729340492813
 30
0.0
 11
34.79733404663011
 21
-12.94729340492814
 31
0.0
  0
LINE
  5
F37
330
F33
100
AcDbEntity
  8
0
 62
     0
370
    -2
100
AcDbLine
 10
33.54733404663011
 20
1.552706595071928
 30
0.0
 11
33.54733404663011
 21
-10.44729340492814
 31
0.0
  0
INSERT
  5
F38
330
F33
100
AcDbEntity
  8
0
 62
     0
370
    -2
100
AcDbBlockReference
  2
_Open30
 10
33.54733404663011
 20
4.052706595071928
 30
0.0
 41
2.5
 42
2.5
 43
2.5
 50
90.0
  0
INSERT
  5
F39
330
F33
100
AcDbEntity
  8
0
 62
     0
370
    -2
100
AcDbBlockReference
  2
_Open30
 10
33.54733404663011
 20
-12.94729340492814
 30
0.0
 41
2.5
 42
2.5
 43
2.5
 50
270.0
  0
MTEXT
  5
F3A
330
F33
100
AcDbEntity
  8
0
 62
     4
100
AcDbMText
 10
31.42233404663012
 20
-4.133159966761013
 30
0.0
 40
3.0
 41
0.0
 71
     5
 72
     1
  1
%%C34
 11
0.0000000000000001
 21
1.0
 31
0.0
 73
     1
 44
1.0
1001
ACAD
1000
MTEXTBEGIN
1070
    73
1070
     1
1070
    44
1040
1.0
1070
    74
1070
     0
1000
MTEXTEND
  0
POINT
  5
F3B
330
F33
100
AcDbEntity
  8
Defpoints
 62
     0
100
AcDbPoint
 10
0.9298568134031484
 20
4.052706595071938
 30
0.0
  0
POINT
  5
F3C
330
F33
100
AcDbEntity
  8
Defpoints
 62
     0
100
AcDbPoint
 10
0.9298568134031484
 20
-12.94729340492813
 30
0.0
  0
POINT
  5
F3D
330
F33
100
AcDbEntity
  8
Defpoints
 62
     0
100
AcDbPoint
 10
33.54733404663011
 20
-12.94729340492814
 30
0.0
  0
ENDBLK
  5
F3E
330
F33
100
AcDbEntity
  8
0
100
AcDbBlockEnd
  0
BLOCK
  5
F40
330
F3F
100
AcDbEntity
  8
0
100
AcDbBlockBegin
  2
*D11
 70
     1
 10
0.0
 20
0.0
 30
0.0
  3
*D11
  1

  0
LINE
  5
F41
330
F3F
100
AcDbEntity
  8
0
 62
     0
370
    -2
100
AcDbLine
 10
6.679856813403147
 20
6.802706595071871
 30
0.0
 11
42.00489345092046
 21
6.802706595071861
 31
0.0
  0
LINE
  5
F42
330
F3F
100
AcDbEntity
  8
0
 62
     0
370
    -2
100
AcDbLine
 10
6.679856813403147
 20
-15.69729340492814
 30
0.0
 11
42.00489345092046
 21
-15.69729340492815
 31
0.0
  0
LINE
  5
F43
330
F3F
100
AcDbEntity
  8
0
 62
     0
370
    -2
100
AcDbLine
 10
40.75489345092046
 20
4.302706595071861
 30
0.0
 11
40.75489345092046
 21
-13.19729340492815
 31
0.0
  0
INSERT
  5
F44
330
F3F
100
AcDbEntity
  8
0
 62
     0
370
    -2
100
AcDbBlockReference
  2
_Open30
 10
40.75489345092046
 20
6.802706595071861
 30
0.0
 41
2.5
 42
2.5
 43
2.5
 50
90.0
  0
INSERT
  5
F45
330
F3F
100
AcDbEntity
  8
0
 62
     0
370
    -2
100
AcDbBlockReference
  2
_Open30
 10
40.75489345092046
 20
-15.69729340492815
 30
0.0
 41
2.5
 42
2.5
 43
2.5
 50
270.0
  0
MTEXT
  5
F46
330
F3F
100
AcDbEntity
  8
0
 62
     4
100
AcDbMText
 10
38.62989345092046
 20
-3.908028463263686
 30
0.0
 40
3.0
 41
0.0
 71
     5
 72
     1
  1
%%C45
 11
0.0000000000000001
 21
1.0
 31
0.0
 73
     1
 44
1.0
1001
ACAD
1000
MTEXTBEGIN
1070
    73
1070
     1
1070
    44
1040
1.0
1070
    74
1070
     0
1000
MTEXTEND
  0
POINT
  5
F47
330
F3F
100
AcDbEntity
  8
Defpoints
 62
     0
100
AcDbPoint
 10
6.429856813403147
 20
6.802706595071871
 30
0.0
  0
POINT
  5
F48
330
F3F
100
AcDbEntity
  8
Defpoints
 62
     0
100
AcDbPoint
 10
6.429856813403147
 20
-15.69729340492814
 30
0.0
  0
POINT
  5
F49
330
F3F
100
AcDbEntity
  8
Defpoints
 62
     0
100
AcDbPoint
 10
40.75489345092046
 20
-15.69729340492815
 30
0.0
  0
ENDBLK
  5
F4A
330
F3F
100
AcDbEntity
  8
0
100
AcDbBlockEnd
  0
BLOCK
  5
1606
330
1605
100
AcDbEntity
  8
0
100
AcDbBlockBegin
  2
*D12
 70
     1
 10
0.0
 20
0.0
 30
0.0
  3
*D12
  1

  0
LINE
  5
1641
330
1605
100
AcDbEntity
  8
0
 62
     0
370
    -2
100
AcDbLine
 10
349.7424339285363
 20
26.56958961243887
 30
0.0
 11
328.8349679933317
 21
26.56958961243888
 31
0.0
  0
LINE
  5
1642
330
1605
100
AcDbEntity
  8
0
 62
     0
370
    -2
100
AcDbLine
 10
349.7424339285363
 20
80.56958961243891
 30
0.0
 11
328.8349679933317
 21
80.56958961243891
 31
0.0
  0
LINE
  5
1643
330
1605
100
AcDbEntity
  8
0
 62
     0
370
    -2
100
AcDbLine
 10
330.0849679933317
 20
29.06958961243888
 30
0.0
 11
330.0849679933317
 21
78.0695896124389
 31
0.0
  0
INSERT
  5
1644
330
1605
100
AcDbEntity
  8
0
 62
     0
370
    -2
100
AcDbBlockReference
  2
_Open30
 10
330.0849679933317
 20
26.56958961243888
 30
0.0
 41
2.5
 42
2.5
 43
2.5
 50
270.0
  0
INSERT
  5
1645
330
1605
100
AcDbEntity
  8
0
 62
     0
370
    -2
100
AcDbBlockReference
  2
_Open30
 10
330.0849679933317
 20
80.56958961243891
 30
0.0
 41
2.5
 42
2.5
 43
2.5
 50
90.0
  0
MTEXT
  5
1646
330
1605
100
AcDbEntity
  8
0
 62
     4
100
AcDbMText
 10
327.9599679933317
 20
54.1328054237897
 30
0.0
 40
3.0
 41
0.0
 71
     5
 72
     1
  1
%%C108
 11
0.0000000000000001
 21
1.0
 31
0.0
 73
     1
 44
1.0
1001
ACAD
1000
MTEXTBEGIN
1070
    73
1070
     1
1070
    44
1040
1.0
1070
    74
1070
     0
1000
MTEXTEND
  0
POINT
  5
1647
330
1605
100
AcDbEntity
  8
Defpoints
 62
     0
100
AcDbPoint
 10
349.9924339285363
 20
26.56958961243887
 30
0.0
  0
POINT
  5
1648
330
1605
100
AcDbEntity
  8
Defpoints
 62
     0
100
AcDbPoint
 10
349.9924339285363
 20
80.56958961243891
 30
0.0
  0
POINT
  5
1649
330
1605
100
AcDbEntity
  8
Defpoints
 62
     0
100
AcDbPoint
 10
330.0849679933317
 20
80.56958961243891
 30
0.0
  0
ENDBLK
  5
1607
330
1605
100
AcDbEntity
  8
0
100
AcDbBlockEnd
  0
BLOCK
  5
1612
330
1611
100
AcDbEntity
  8
0
100
AcDbBlockBegin
  2
*D13
 70
     1
 10
0.0
 20
0.0
 30
0.0
  3
*D13
  1

  0
LINE
  5
164A
330
1611
100
AcDbEntity
  8
0
 62
     0
370
    -2
100
AcDbLine
 10
490.4901411252195
 20
43.00191133168214
 30
0.0
 11
490.4901411252195
 21
13.88999454833994
 31
0.0
  0
LINE
  5
164B
330
1611
100
AcDbEntity
  8
0
 62
     0
370
    -2
100
AcDbLine
 10
349.4924339285363
 20
26.8195896124389
 30
0.0
 11
349.4924339285363
 21
13.88999454833994
 31
0.0
  0
LINE
  5
164C
330
1611
100
AcDbEntity
  8
0
 62
     0
370
    -2
100
AcDbLine
 10
487.9901411252196
 20
15.13999454833994
 30
0.0
 11
351.9924339285363
 21
15.13999454833994
 31
0.0
  0
INSERT
  5
164D
330
1611
100
AcDbEntity
  8
0
 62
     0
370
    -2
100
AcDbBlockReference
  2
_Open30
 10
490.4901411252195
 20
15.13999454833994
 30
0.0
 41
2.5
 42
2.5
 43
2.5
  0
INSERT
  5
164E
330
1611
100
AcDbEntity
  8
0
 62
     0
370
    -2
100
AcDbBlockReference
  2
_Open30
 10
349.4924339285363
 20
15.13999454833994
 30
0.0
 41
2.5
 42
2.5
 43
2.5
 50
180.0
  0
MTEXT
  5
164F
330
1611
100
AcDbEntity
  8
0
 62
     4
100
AcDbMText
 10
425.5706331688575
 20
17.26499454833994
 30
0.0
 40
3.0
 41
0.0
 71
     5
 72
     1
  1
282
 73
     1
 44
1.0
1001
ACAD
1000
MTEXTBEGIN
1070
    73
1070
     1
1070
    44
1040
1.0
1070
    74
1070
     0
1000
MTEXTEND
  0
POINT
  5
1650
330
1611
100
AcDbEntity
  8
Defpoints
 62
     0
100
AcDbPoint
 10
490.4901411252195
 20
43.25191133168214
 30
0.0
  0
POINT
  5
1651
330
1611
100
AcDbEntity
  8
Defpoints
 62
     0
100
AcDbPoint
 10
349.4924339285363
 20
27.0695896124389
 30
0.0
  0
POINT
  5
1652
330
1611
100
AcDbEntity
  8
Defpoints
 62
     0
100
AcDbPoint
 10
349.4924339285363
 20
15.13999454833994
 30
0.0
  0
ENDBLK
  5
1613
330
1611
100
AcDbEntity
  8
0
100
AcDbBlockEnd
  0
BLOCK
  5
161E
330
161D
100
AcDbEntity
  8
0
100
AcDbBlockBegin
  2
*D14
 70
     1
 10
0.0
 20
0.0
 30
0.0
  3
*D14
  1

  0
LINE
  5
1653
330
161D
100
AcDbEntity
  8
0
 62
     0
370
    -2
100
AcDbLine
 10
428.4924339285362
 20
39.31958961243891
 30
0.0
 11
428.4924339285362
 21
20.965536231025
 31
0.0
  0
LINE
  5
1654
330
161D
100
AcDbEntity
  8
0
 62
     0
370
    -2
100
AcDbLine
 10
349.4924339285363
 20
26.8195896124389
 30
0.0
 11
349.4924339285363
 21
20.965536231025
 31
0.0
  0
LINE
  5
1655
330
161D
100
AcDbEntity
  8
0
 62
     0
370
    -2
100
AcDbLine
 10
425.9924339285362
 20
22.215536231025
 30
0.0
 11
351.9924339285363
 21
22.215536231025
 31
0.0
  0
INSERT
  5
1656
330
161D
100
AcDbEntity
  8
0
 62
     0
370
    -2
100
AcDbBlockReference
  2
_Open30
 10
428.4924339285362
 20
22.215536231025
 30
0.0
 41
2.5
 42
2.5
 43
2.5
  0
INSERT
  5
1657
330
161D
100
AcDbEntity
  8
0
 62
     0
370
    -2
100
AcDbBlockReference
  2
_Open30
 10
349.4924339285363
 20
22.215536231025
 30
0.0
 41
2.5
 42
2.5
 43
2.5
 50
180.0
  0
MTEXT
  5
1658
330
161D
100
AcDbEntity
  8
0
 62
     4
100
AcDbMText
 10
387.3844008894794
 20
24.340536231025
 30
0.0
 40
3.0
 41
0.0
 71
     5
 72
     1
  1
158
 73
     1
 44
1.0
1001
ACAD
1000
MTEXTBEGIN
1070
    73
1070
     1
1070
    44
1040
1.0
1070
    74
1070
     0
1000
MTEXTEND
  0
POINT
  5
1659
330
161D
100
AcDbEntity
  8
Defpoints
 62
     0
100
AcDbPoint
 10
428.4924339285362
 20
39.5695896124389
 30
0.0
  0
POINT
  5
165A
330
161D
100
AcDbEntity
  8
Defpoints
 62
     0
100
AcDbPoint
 10
349.4924339285363
 20
27.0695896124389
 30
0.0
  0
POINT
  5
165B
330
161D
100
AcDbEntity
  8
Defpoints
 62
     0
100
AcDbPoint
 10
349.4924339285363
 20
22.215536231025
 30
0.0
  0
ENDBLK
  5
161F
330
161D
100
AcDbEntity
  8
0
100
AcDbBlockEnd
  0
BLOCK
  5
162A
330
1629
100
AcDbEntity
  8
0
100
AcDbBlockBegin
  2
*D15
 70
     1
 10
0.0
 20
0.0
 30
0.0
  3
*D15
  1

  0
LINE
  5
165C
330
1629
100
AcDbEntity
  8
0
 62
     0
370
    -2
100
AcDbLine
 10
484.2424339285362
 20
62.06958961243897
 30
0.0
 11
517.8599111617631
 21
62.06958961243895
 31
0.0
  0
LINE
  5
165D
330
1629
100
AcDbEntity
  8
0
 62
     0
370
    -2
100
AcDbLine
 10
484.2424339285362
 20
45.06958961243889
 30
0.0
 11
517.8599111617631
 21
45.06958961243888
 31
0.0
  0
LINE
  5
165E
330
1629
100
AcDbEntity
  8
0
 62
     0
370
    -2
100
AcDbLine
 10
516.6099111617632
 20
59.56958961243895
 30
0.0
 11
516.6099111617632
 21
47.56958961243888
 31
0.0
  0
INSERT
  5
165F
330
1629
100
AcDbEntity
  8
0
 62
     0
370
    -2
100
AcDbBlockReference
  2
_Open30
 10
516.6099111617632
 20
62.06958961243895
 30
0.0
 41
2.5
 42
2.5
 43
2.5
 50
90.0
  0
INSERT
  5
1660
330
1629
100
AcDbEntity
  8
0
 62
     0
370
    -2
100
AcDbBlockReference
  2
_Open30
 10
516.6099111617632
 20
45.06958961243888
 30
0.0
 41
2.5
 42
2.5
 43
2.5
 50
270.0
  0
MTEXT
  5
1661
330
1629
100
AcDbEntity
  8
0
 62
     4
100
AcDbMText
 10
514.4849111617632
 20
53.88372305060602
 30
0.0
 40
3.0
 41
0.0
 71
     5
 72
     1
  1
%%C34
 11
0.0000000000000001
 21
1.0
 31
0.0
 73
     1
 44
1.0
1001
ACAD
1000
MTEXTBEGIN
1070
    73
1070
     1
1070
    44
1040
1.0
1070
    74
1070
     0
1000
MTEXTEND
  0
POINT
  5
1662
330
1629
100
AcDbEntity
  8
Defpoints
 62
     0
100
AcDbPoint
 10
483.9924339285362
 20
62.06958961243897
 30
0.0
  0
POINT
  5
1663
330
1629
100
AcDbEntity
  8
Defpoints
 62
     0
100
AcDbPoint
 10
483.9924339285362
 20
45.06958961243889
 30
0.0
  0
POINT
  5
1664
330
1629
100
AcDbEntity
  8
Defpoints
 62
     0
100
AcDbPoint
 10
516.6099111617632
 20
45.06958961243888
 30
0.0
  0
ENDBLK
  5
162B
330
1629
100
AcDbEntity
  8
0
100
AcDbBlockEnd
  0
BLOCK
  5
1636
330
1635
100
AcDbEntity
  8
0
100
AcDbBlockBegin
  2
*D16
 70
     1
 10
0.0
 20
0.0
 30
0.0
  3
*D16
  1

  0
LINE
  5
1665
330
1635
100
AcDbEntity
  8
0
 62
     0
370
    -2
100
AcDbLine
 10
489.7424339285362
 20
64.8195896124389
 30
0.0
 11
525.0674705660534
 21
64.8195896124389
 31
0.0
  0
LINE
  5
1666
330
1635
100
AcDbEntity
  8
0
 62
     0
370
    -2
100
AcDbLine
 10
489.7424339285362
 20
42.31958961243889
 30
0.0
 11
525.0674705660534
 21
42.31958961243888
 31
0.0
  0
LINE
  5
1667
330
1635
100
AcDbEntity
  8
0
 62
     0
370
    -2
100
AcDbLine
 10
523.8174705660534
 20
62.3195896124389
 30
0.0
 11
523.8174705660534
 21
44.81958961243888
 31
0.0
  0
INSERT
  5
1668
330
1635
100
AcDbEntity
  8
0
 62
     0
370
    -2
100
AcDbBlockReference
  2
_Open30
 10
523.8174705660534
 20
64.8195896124389
 30
0.0
 41
2.5
 42
2.5
 43
2.5
 50
90.0
  0
INSERT
  5
1669
330
1635
100
AcDbEntity
  8
0
 62
     0
370
    -2
100
AcDbBlockReference
  2
_Open30
 10
523.8174705660534
 20
42.31958961243888
 30
0.0
 41
2.5
 42
2.5
 43
2.5
 50
270.0
  0
MTEXT
  5
166A
330
1635
100
AcDbEntity
  8
0
 62
     4
100
AcDbMText
 10
521.6924705660534
 20
54.10885455410335
 30
0.0
 40
3.0
 41
0.0
 71
     5
 72
     1
  1
%%C45
 11
0.0000000000000001
 21
1.0
 31
0.0
 73
     1
 44
1.0
1001
ACAD
1000
MTEXTBEGIN
1070
    73
1070
     1
1070
    44
1040
1.0
1070
    74
1070
     0
1000
MTEXTEND
  0
POINT
  5
166B
330
1635
100
AcDbEntity
  8
Defpoints
 62
     0
100
AcDbPoint
 10
489.4924339285362
 20
64.8195896124389
 30
0.0
  0
POINT
  5
166C
330
1635
100
AcDbEntity
  8
Defpoints
 62
     0
100
AcDbPoint
 10
489.4924339285362
 20
42.31958961243889
 30
0.0
  0
POINT
  5
166D
330
1635
100
AcDbEntity
  8
Defpoints
 62
     0
100
AcDbPoint
 10
523.8174705660534
 20
42.31958961243888
 30
0.0
  0
ENDBLK
  5
1637
330
1635
100
AcDbEntity
  8
0
100
AcDbBlockEnd
  0
BLOCK
  5
167A
330
1679
100
AcDbEntity
  8
0
100
AcDbBlockBegin
  2
*D17
 70
     1
 10
0.0
 20
0.0
 30
0.0
  3
*D17
  1

  0
LINE
  5
167B
330
1679
100
AcDbEntity
  8
0
 62
     0
370
    -2
100
AcDbLine
 10
65.23021899999999
 20
33.108353
 30
0.0
 11
65.23021899999999
 21
1.451941
 31
0.0
  0
LINE
  5
167C
330
1679
100
AcDbEntity
  8
0
 62
     0
370
    -2
100
AcDbLine
 10
107.730219
 20
24.587992
 30
0.0
 11
107.730219
 21
1.451941
 31
0.0
  0
LINE
  5
167D
330
1679
100
AcDbEntity
  8
0
 62
     0
370
    -2
100
AcDbLine
 10
67.73021899999999
 20
2.701941
 30
0.0
 11
105.230219
 21
2.701941
 31
0.0
  0
INSERT
  5
167E
330
1679
100
AcDbEntity
  8
0
 62
     0
370
    -2
100
AcDbBlockReference
  2
_Open30
 10
65.23021899999999
 20
2.701941
 30
0.0
 41
2.5
 42
2.5
 43
2.5
 50
180.0
  0
INSERT
  5
167F
330
1679
100
AcDbEntity
  8
0
 62
     0
370
    -2
100
AcDbBlockReference
  2
_Open30
 10
107.730219
 20
2.701941
 30
0.0
 41
2.5
 42
2.5
 43
2.5
  0
MTEXT
  5
1680
330
1679
100
AcDbEntity
  8
0
 62
     4
100
AcDbMText
 10
86.48021899999998
 20
4.826940999999998
 30
0.0
 40
3.0
 41
0.0
 71
     5
 72
     1
  1
85
 73
     1
 44
1.0
1001
ACAD
1000
MTEXTBEGIN
1070
    73
1070
     1
1070
    44
1040
1.0
1070
    74
1070
     0
1000
MTEXTEND
  0
POINT
  5
1681
330
1679
100
AcDbEntity
  8
Defpoints
 62
     0
100
AcDbPoint
 10
65.23021899999999
 20
33.358353
 30
0.0
  0
POINT
  5
1682
330
1679
100
AcDbEntity
  8
Defpoints
 62
     0
100
AcDbPoint
 10
107.730219
 20
24.837992
 30
0.0
  0
POINT
  5
1683
330
1679
100
AcDbEntity
  8
Defpoints
 62
     0
100
AcDbPoint
 10
107.730219
 20
2.701941
 30
0.0
  0
ENDBLK
  5
1684
330
1679
100
AcDbEntity
  8
0
100
AcDbBlockEnd
  0
BLOCK
  5
1686
330
1685
100
AcDbEntity
  8
0
100
AcDbBlockBegin
  2
*D18
 70
     1
 10
0.0
 20
0.0
 30
0.0
  3
*D18
  1

  0
LINE
  5
1687
330
1685
100
AcDbEntity
  8
0
 62
     0
370
    -2
100
AcDbLine
 10
-44.991531
 20
7.558399999999998
 30
0.0
 11
-44.991531
 21
-8.288333000000001
 31
0.0
  0
LINE
  5
1688
330
1685
100
AcDbEntity
  8
0
 62
     0
370
    -2
100
AcDbLine
 10
107.730219
 20
24.587992
 30
0.0
 11
107.730219
 21
-8.288333000000001
 31
0.0
  0
LINE
  5
1689
330
1685
100
AcDbEntity
  8
0
 62
     0
370
    -2
100
AcDbLine
 10
-42.491531
 20
-7.038333
 30
0.0
 11
105.230219
 21
-7.038333
 31
0.0
  0
INSERT
  5
168A
330
1685
100
AcDbEntity
  8
0
 62
     0
370
    -2
100
AcDbBlockReference
  2
_Open30
 10
-44.991531
 20
-7.038333
 30
0.0
 41
2.5
 42
2.5
 43
2.5
 50
180.0
  0
INSERT
  5
168B
330
1685
100
AcDbEntity
  8
0
 62
     0
370
    -2
100
AcDbBlockReference
  2
_Open30
 10
107.730219
 20
-7.038333
 30
0.0
 41
2.5
 42
2.5
 43
2.5
  0
MTEXT
  5
168C
330
1685
100
AcDbEntity
  8
0
 62
     4
100
AcDbMText
 10
31.36934399999999
 20
-4.913333
 30
0.0
 40
3.0
 41
0.0
 71
     5
 72
     1
  1
315
 73
     1
 44
1.0
1001
ACAD
1000
MTEXTBEGIN
1070
    73
1070
     1
1070
    44
1040
1.0
1070
    74
1070
     0
1000
MTEXTEND
  0
POINT
  5
168D
330
1685
100
AcDbEntity
  8
Defpoints
 62
     0
100
AcDbPoint
 10
-44.991531
 20
7.808399999999998
 30
0.0
  0
POINT
  5
168E
330
1685
100
AcDbEntity
  8
Defpoints
 62
     0
100
AcDbPoint
 10
107.730219
 20
24.837992
 30
0.0
  0
POINT
  5
168F
330
1685
100
AcDbEntity
  8
Defpoints
 62
     0
100
AcDbPoint
 10
107.730219
 20
-7.038333
 30
0.0
  0
ENDBLK
  5
1690
330
1685
100
AcDbEntity
  8
0
100
AcDbBlockEnd
  0
BLOCK
  5
1692
330
1691
100
AcDbEntity
  8
0
100
AcDbBlockBegin
  2
*D19
 70
     1
 10
0.0
 20
0.0
 30
0.0
  3
*D19
  1

  0
LINE
  5
1693
330
1691
100
AcDbEntity
  8
0
 62
     0
370
    -2
100
AcDbLine
 10
-55.235843
 20
17.881117
 30
0.0
 11
-55.235843
 21
-15.439162
 31
0.0
  0
LINE
  5
1694
330
1691
100
AcDbEntity
  8
0
 62
     0
370
    -2
100
AcDbLine
 10
107.730219
 20
24.587992
 30
0.0
 11
107.730219
 21
-15.43916199999999
 31
0.0
  0
LINE
  5
1695
330
1691
100
AcDbEntity
  8
0
 62
     0
370
    -2
100
AcDbLine
 10
-52.735843
 20
-14.189162
 30
0.0
 11
105.230219
 21
-14.189162
 31
0.0
  0
INSERT
  5
1696
330
1691
100
AcDbEntity
  8
0
 62
     0
370
    -2
100
AcDbBlockReference
  2
_Open30
 10
-55.235843
 20
-14.189162
 30
0.0
 41
2.5
 42
2.5
 43
2.5
 50
180.0
  0
INSERT
  5
1697
330
1691
100
AcDbEntity
  8
0
 62
     0
370
    -2
100
AcDbBlockReference
  2
_Open30
 10
107.730219
 20
-14.189162
 30
0.0
 41
2.5
 42
2.5
 43
2.5
  0
MTEXT
  5
1698
330
1691
100
AcDbEntity
  8
0
 62
     4
100
AcDbMText
 10
26.247188
 20
-12.064162
 30
0.0
 40
3.0
 41
0.0
 71
     5
 72
     1
  1
335.5
 73
     1
 44
1.0
1001
ACAD
1000
MTEXTBEGIN
1070
    73
1070
     1
1070
    44
1040
1.0
1070
    74
1070
     0
1000
MTEXTEND
  0
POINT
  5
1699
330
1691
100
AcDbEntity
  8
Defpoints
 62
     0
100
AcDbPoint
 10
-55.235843
 20
18.131117
 30
0.0
  0
POINT
  5
169A
330
1691
100
AcDbEntity
  8
Defpoints
 62
     0
100
AcDbPoint
 10
107.730219
 20
24.837992
 30
0.0
  0
POINT
  5
169B
330
1691
100
AcDbEntity
  8
Defpoints
 62
     0
100
AcDbPoint
 10
107.730219
 20
-14.189162
 30
0.0
  0
ENDBLK
  5
169C
330
1691
100
AcDbEntity
  8
0
100
AcDbBlockEnd
  0
BLOCK
  5
169E
330
169D
100
AcDbEntity
  8
0
100
AcDbBlockBegin
  2
*D20
 70
     1
 10
0.0
 20
0.0
 30
0.0
  3
*D20
  1

  0
LINE
  5
169F
330
169D
100
AcDbEntity
  8
0
 62
     0
370
    -2
100
AcDbLine
 10
-44.241531
 20
6.808399999999998
 30
0.0
 11
-64.89141400000002
 21
6.808400000000002
 31
0.0
  0
LINE
  5
16A0
330
169D
100
AcDbEntity
  8
0
 62
     0
370
    -2
100
AcDbLine
 10
-44.241531
 20
79.3084
 30
0.0
 11
-64.89141400000001
 21
79.3084
 31
0.0
  0
LINE
  5
16A1
330
169D
100
AcDbEntity
  8
0
 62
     0
370
    -2
100
AcDbLine
 10
-63.64141400000002
 20
9.308400000000002
 30
0.0
 11
-63.64141400000001
 21
76.8084
 31
0.0
  0
INSERT
  5
16A2
330
169D
100
AcDbEntity
  8
0
 62
     0
370
    -2
100
AcDbBlockReference
  2
_Open30
 10
-63.64141400000002
 20
6.808400000000002
 30
0.0
 41
2.5
 42
2.5
 43
2.5
 50
270.0
  0
INSERT
  5
16A3
330
169D
100
AcDbEntity
  8
0
 62
     0
370
    -2
100
AcDbBlockReference
  2
_Open30
 10
-63.64141400000001
 20
79.3084
 30
0.0
 41
2.5
 42
2.5
 43
2.5
 50
90.0
  0
MTEXT
  5
16A4
330
169D
100
AcDbEntity
  8
0
 62
     4
100
AcDbMText
 10
-65.76641400000003
 20
43.05839999999999
 30
0.0
 40
3.0
 41
0.0
 71
     5
 72
     1
  1
\U+03C6145
 11
0.0000000000000001
 21
1.0
 31
0.0
 73
     1
 44
1.0
1001
ACAD
1000
MTEXTBEGIN
1070
    73
1070
     1
1070
    44
1040
1.0
1070
    74
1070
     0
1000
MTEXTEND
  0
POINT
  5
16A5
330
169D
100
AcDbEntity
  8
Defpoints
 62
     0
100
AcDbPoint
 10
-43.991531
 20
6.808399999999998
 30
0.0
  0
POINT
  5
16A6
330
169D
100
AcDbEntity
  8
Defpoints
 62
     0
100
AcDbPoint
 10
-43.991531
 20
79.3084
 30
0.0
  0
POINT
  5
16A7
330
169D
100
AcDbEntity
  8
Defpoints
 62
     0
100
AcDbPoint
 10
-63.64141400000001
 20
79.3084
 30
0.0
  0
ENDBLK
  5
16A8
330
169D
100
AcDbEntity
  8
0
100
AcDbBlockEnd
  0
BLOCK
  5
16AA
330
16A9
100
AcDbEntity
  8
0
100
AcDbBlockBegin
  2
*D21
 70
     1
 10
0.0
 20
0.0
 30
0.0
  3
*D21
  1

  0
LINE
  5
16AB
330
16A9
100
AcDbEntity
  8
0
 62
     0
370
    -2
100
AcDbLine
 10
-120.317431
 20
4.808399999999998
 30
0.0
 11
-171.720466
 21
4.808400000000012
 31
0.0
  0
LINE
  5
16AC
330
16A9
100
AcDbEntity
  8
0
 62
     0
370
    -2
100
AcDbLine
 10
-120.317431
 20
81.3084
 30
0.0
 11
-171.720466
 21
81.30840000000002
 31
0.0
  0
LINE
  5
16AD
330
16A9
100
AcDbEntity
  8
0
 62
     0
370
    -2
100
AcDbLine
 10
-170.470466
 20
7.308400000000013
 30
0.0
 11
-170.470466
 21
78.80840000000002
 31
0.0
  0
INSERT
  5
16AE
330
16A9
100
AcDbEntity
  8
0
 62
     0
370
    -2
100
AcDbBlockReference
  2
_Open30
 10
-170.470466
 20
4.808400000000012
 30
0.0
 41
2.5
 42
2.5
 43
2.5
 50
270.0
  0
INSERT
  5
16AF
330
16A9
100
AcDbEntity
  8
0
 62
     0
370
    -2
100
AcDbBlockReference
  2
_Open30
 10
-170.470466
 20
81.30840000000002
 30
0.0
 41
2.5
 42
2.5
 43
2.5
 50
90.0
  0
MTEXT
  5
16B0
330
16A9
100
AcDbEntity
  8
0
 62
     4
100
AcDbMText
 10
-172.595466
 20
43.05839999999999
 30
0.0
 40
3.0
 41
0.0
 71
     5
 72
     1
  1
\U+03C6153
 11
0.0000000000000001
 21
1.0
 31
0.0
 73
     1
 44
1.0
1001
ACAD
1000
MTEXTBEGIN
1070
    73
1070
     1
1070
    44
1040
1.0
1070
    74
1070
     0
1000
MTEXTEND
  0
POINT
  5
16B1
330
16A9
100
AcDbEntity
  8
Defpoints
 62
     0
100
AcDbPoint
 10
-120.067431
 20
4.808399999999998
 30
0.0
  0
POINT
  5
16B2
330
16A9
100
AcDbEntity
  8
Defpoints
 62
     0
100
AcDbPoint
 10
-120.067431
 20
81.3084
 30
0.0
  0
POINT
  5
16B3
330
16A9
100
AcDbEntity
  8
Defpoints
 62
     0
100
AcDbPoint
 10
-170.470466
 20
81.30840000000002
 30
0.0
  0
ENDBLK
  5
16B4
330
16A9
100
AcDbEntity
  8
0
100
AcDbBlockEnd
  0
BLOCK
  5
1E90
330
1E8F
100
AcDbEntity
  8
0
100
AcDbBlockBegin
  2
*D22
 70
     1
 10
0.0
 20
0.0
 30
0.0
  3
*D22
  1

  0
LINE
  5
1ECB
330
1E8F
100
AcDbEntity
  8
0
 62
     0
370
    -2
100
AcDbLine
 10
351.1162789636963
 20
430.5966049275189
 30
0.0
 11
351.1162789636963
 21
398.9401929275189
 31
0.0
  0
LINE
  5
1ECC
330
1E8F
100
AcDbEntity
  8
0
 62
     0
370
    -2
100
AcDbLine
 10
393.6162789636964
 20
422.0762439275188
 30
0.0
 11
393.6162789636964
 21
398.9401929275189
 31
0.0
  0
LINE
  5
1ECD
330
1E8F
100
AcDbEntity
  8
0
 62
     0
370
    -2
100
AcDbLine
 10
353.6162789636963
 20
400.1901929275188
 30
0.0
 11
391.1162789636963
 21
400.1901929275188
 31
0.0
  0
INSERT
  5
1ECE
330
1E8F
100
AcDbEntity
  8
0
 62
     0
370
    -2
100
AcDbBlockReference
  2
_Open30
 10
351.1162789636963
 20
400.1901929275188
 30
0.0
 41
2.5
 42
2.5
 43
2.5
 50
180.0
  0
INSERT
  5
1ECF
330
1E8F
100
AcDbEntity
  8
0
 62
     0
370
    -2
100
AcDbBlockReference
  2
_Open30
 10
393.6162789636964
 20
400.1901929275188
 30
0.0
 41
2.5
 42
2.5
 43
2.5
  0
MTEXT
  5
1ED0
330
1E8F
100
AcDbEntity
  8
0
 62
     4
100
AcDbMText
 10
372.3662789636963
 20
402.3151929275188
 30
0.0
 40
3.0
 41
0.0
 71
     5
 72
     1
  1
85
 73
     1
 44
1.0
1001
ACAD
1000
MTEXTBEGIN
1070
    73
1070
     1
1070
    44
1040
1.0
1070
    74
1070
     0
1000
MTEXTEND
  0
POINT
  5
1ED1
330
1E8F
100
AcDbEntity
  8
Defpoints
 62
     0
100
AcDbPoint
 10
351.1162789636963
 20
430.8466049275188
 30
0.0
  0
POINT
  5
1ED2
330
1E8F
100
AcDbEntity
  8
Defpoints
 62
     0
100
AcDbPoint
 10
393.6162789636964
 20
422.3262439275186
 30
0.0
  0
POINT
  5
1ED3
330
1E8F
100
AcDbEntity
  8
Defpoints
 62
     0
100
AcDbPoint
 10
393.6162789636964
 20
400.1901929275188
 30
0.0
  0
ENDBLK
  5
1E91
330
1E8F
100
AcDbEntity
  8
0
100
AcDbBlockEnd
  0
BLOCK
  5
1E9C
330
1E9B
100
AcDbEntity
  8
0
100
AcDbBlockBegin
  2
*D23
 70
     1
 10
0.0
 20
0.0
 30
0.0
  3
*D23
  1

  0
LINE
  5
1ED4
330
1E9B
100
AcDbEntity
  8
0
 62
     0
370
    -2
100
AcDbLine
 10
241.6445289636964
 20
404.2966519275188
 30
0.0
 11
220.9946459636964
 21
404.2966519275188
 31
0.0
  0
LINE
  5
1ED5
330
1E9B
100
AcDbEntity
  8
0
 62
     0
370
    -2
100
AcDbLine
 10
241.6445289636964
 20
476.7966519275188
 30
0.0
 11
220.9946459636964
 21
476.7966519275188
 31
0.0
  0
LINE
  5
1ED6
330
1E9B
100
AcDbEntity
  8
0
 62
     0
370
    -2
100
AcDbLine
 10
222.2446459636964
 20
406.7966519275188
 30
0.0
 11
222.2446459636964
 21
474.2966519275188
 31
0.0
  0
INSERT
  5
1ED7
330
1E9B
100
AcDbEntity
  8
0
 62
     0
370
    -2
100
AcDbBlockReference
  2
_Open30
 10
222.2446459636964
 20
404.2966519275188
 30
0.0
 41
2.5
 42
2.5
 43
2.5
 50
270.0
  0
INSERT
  5
1ED8
330
1E9B
100
AcDbEntity
  8
0
 62
     0
370
    -2
100
AcDbBlockReference
  2
_Open30
 10
222.2446459636964
 20
476.7966519275188
 30
0.0
 41
2.5
 42
2.5
 43
2.5
 50
90.0
  0
MTEXT
  5
1ED9
330
1E9B
100
AcDbEntity
  8
0
 62
     4
100
AcDbMText
 10
220.1196459636963
 20
440.5466519275188
 30
0.0
 40
3.0
 41
0.0
 71
     5
 72
     1
  1
\U+03C6145
 11
0.0000000000000001
 21
1.0
 31
0.0
 73
     1
 44
1.0
1001
ACAD
1000
MTEXTBEGIN
1070
    73
1070
     1
1070
    44
1040
1.0
1070
    74
1070
     0
1000
MTEXTEND
  0
POINT
  5
1EDA
330
1E9B
100
AcDbEntity
  8
Defpoints
 62
     0
100
AcDbPoint
 10
241.8945289636964
 20
404.2966519275188
 30
0.0
  0
POINT
  5
1EDB
330
1E9B
100
AcDbEntity
  8
Defpoints
 62
     0
100
AcDbPoint
 10
241.8945289636964
 20
476.7966519275188
 30
0.0
  0
POINT
  5
1EDC
330
1E9B
100
AcDbEntity
  8
Defpoints
 62
     0
100
AcDbPoint
 10
222.2446459636964
 20
476.7966519275188
 30
0.0
  0
ENDBLK
  5
1E9D
330
1E9B
100
AcDbEntity
  8
0
100
AcDbBlockEnd
  0
BLOCK
  5
1EA8
330
1EA7
100
AcDbEntity
  8
0
100
AcDbBlockBegin
  2
*D24
 70
     1
 10
0.0
 20
0.0
 30
0.0
  3
*D24
  1

  0
LINE
  5
1EDD
330
1EA7
100
AcDbEntity
  8
0
 62
     0
370
    -2
100
AcDbLine
 10
165.5686289636964
 20
402.2966519275188
 30
0.0
 11
114.1655939636964
 21
402.2966519275188
 31
0.0
  0
LINE
  5
1EDE
330
1EA7
100
AcDbEntity
  8
0
 62
     0
370
    -2
100
AcDbLine
 10
165.5686289636964
 20
478.7966519275188
 30
0.0
 11
114.1655939636964
 21
478.7966519275188
 31
0.0
  0
LINE
  5
1EDF
330
1EA7
100
AcDbEntity
  8
0
 62
     0
370
    -2
100
AcDbLine
 10
115.4155939636964
 20
404.7966519275188
 30
0.0
 11
115.4155939636964
 21
476.2966519275188
 31
0.0
  0
INSERT
  5
1EE0
330
1EA7
100
AcDbEntity
  8
0
 62
     0
370
    -2
100
AcDbBlockReference
  2
_Open30
 10
115.4155939636964
 20
402.2966519275188
 30
0.0
 41
2.5
 42
2.5
 43
2.5
 50
270.0
  0
INSERT
  5
1EE1
330
1EA7
100
AcDbEntity
  8
0
 62
     0
370
    -2
100
AcDbBlockReference
  2
_Open30
 10
115.4155939636964
 20
478.7966519275188
 30
0.0
 41
2.5
 42
2.5
 43
2.5
 50
90.0
  0
MTEXT
  5
1EE2
330
1EA7
100
AcDbEntity
  8
0
 62
     4
100
AcDbMText
 10
113.2905939636963
 20
440.5466519275188
 30
0.0
 40
3.0
 41
0.0
 71
     5
 72
     1
  1
\U+03C6153
 11
0.0000000000000001
 21
1.0
 31
0.0
 73
     1
 44
1.0
1001
ACAD
1000
MTEXTBEGIN
1070
    73
1070
     1
1070
    44
1040
1.0
1070
    74
1070
     0
1000
MTEXTEND
  0
POINT
  5
1EE3
330
1EA7
100
AcDbEntity
  8
Defpoints
 62
     0
100
AcDbPoint
 10
165.8186289636964
 20
402.2966519275188
 30
0.0
  0
POINT
  5
1EE4
330
1EA7
100
AcDbEntity
  8
Defpoints
 62
     0
100
AcDbPoint
 10
165.8186289636964
 20
478.7966519275188
 30
0.0
  0
POINT
  5
1EE5
330
1EA7
100
AcDbEntity
  8
Defpoints
 62
     0
100
AcDbPoint
 10
115.4155939636964
 20
478.7966519275188
 30
0.0
  0
ENDBLK
  5
1EA9
330
1EA7
100
AcDbEntity
  8
0
100
AcDbBlockEnd
  0
BLOCK
  5
1EB4
330
1EB3
100
AcDbEntity
  8
0
100
AcDbBlockBegin
  2
*D25
 70
     1
 10
0.0
 20
0.0
 30
0.0
  3
*D25
  1

  0
LINE
  5
1EE6
330
1EB3
100
AcDbEntity
  8
0
 62
     0
370
    -2
100
AcDbLine
 10
240.8945289636964
 20
405.0466519275188
 30
0.0
 11
240.8945289636964
 21
389.1999189275189
 31
0.0
  0
LINE
  5
1EE7
330
1EB3
100
AcDbEntity
  8
0
 62
     0
370
    -2
100
AcDbLine
 10
393.6162789636964
 20
422.0762439275188
 30
0.0
 11
393.6162789636964
 21
389.1999189275189
 31
0.0
  0
LINE
  5
1EE8
330
1EB3
100
AcDbEntity
  8
0
 62
     0
370
    -2
100
AcDbLine
 10
243.3945289636964
 20
390.4499189275189
 30
0.0
 11
391.1162789636963
 21
390.4499189275189
 31
0.0
  0
INSERT
  5
1EE9
330
1EB3
100
AcDbEntity
  8
0
 62
     0
370
    -2
100
AcDbBlockReference
  2
_Open30
 10
240.8945289636964
 20
390.4499189275189
 30
0.0
 41
2.5
 42
2.5
 43
2.5
 50
180.0
  0
INSERT
  5
1EEA
330
1EB3
100
AcDbEntity
  8
0
 62
     0
370
    -2
100
AcDbBlockReference
  2
_Open30
 10
393.6162789636964
 20
390.4499189275189
 30
0.0
 41
2.5
 42
2.5
 43
2.5
  0
MTEXT
  5
1EEB
330
1EB3
100
AcDbEntity
  8
0
 62
     4
100
AcDbMText
 10
317.2554039636964
 20
392.5749189275189
 30
0.0
 40
3.0
 41
0.0
 71
     5
 72
     1
  1
315
 73
     1
 44
1.0
1001
ACAD
1000
MTEXTBEGIN
1070
    73
1070
     1
1070
    44
1040
1.0
1070
    74
1070
     0
1000
MTEXTEND
  0
POINT
  5
1EEC
330
1EB3
100
AcDbEntity
  8
Defpoints
 62
     0
100
AcDbPoint
 10
240.8945289636964
 20
405.2966519275188
 30
0.0
  0
POINT
  5
1EED
330
1EB3
100
AcDbEntity
  8
Defpoints
 62
     0
100
AcDbPoint
 10
393.6162789636964
 20
422.3262439275186
 30
0.0
  0
POINT
  5
1EEE
330
1EB3
100
AcDbEntity
  8
Defpoints
 62
     0
100
AcDbPoint
 10
393.6162789636964
 20
390.4499189275189
 30
0.0
  0
ENDBLK
  5
1EB5
330
1EB3
100
AcDbEntity
  8
0
100
AcDbBlockEnd
  0
BLOCK
  5
1EC0
330
1EBF
100
AcDbEntity
  8
0
100
AcDbBlockBegin
  2
*D26
 70
     1
 10
0.0
 20
0.0
 30
0.0
  3
*D26
  1

  0
LINE
  5
1EEF
330
1EBF
100
AcDbEntity
  8
0
 62
     0
370
    -2
100
AcDbLine
 10
230.6502169636964
 20
415.3693689275188
 30
0.0
 11
230.6502169636964
 21
382.0490899275188
 31
0.0
  0
LINE
  5
1EF0
330
1EBF
100
AcDbEntity
  8
0
 62
     0
370
    -2
100
AcDbLine
 10
393.6162789636964
 20
422.0762439275188
 30
0.0
 11
393.6162789636964
 21
382.0490899275188
 31
0.0
  0
LINE
  5
1EF1
330
1EBF
100
AcDbEntity
  8
0
 62
     0
370
    -2
100
AcDbLine
 10
233.1502169636964
 20
383.2990899275188
 30
0.0
 11
391.1162789636963
 21
383.2990899275188
 31
0.0
  0
INSERT
  5
1EF2
330
1EBF
100
AcDbEntity
  8
0
 62
     0
370
    -2
100
AcDbBlockReference
  2
_Open30
 10
230.6502169636964
 20
383.2990899275188
 30
0.0
 41
2.5
 42
2.5
 43
2.5
 50
180.0
  0
INSERT
  5
1EF3
330
1EBF
100
AcDbEntity
  8
0
 62
     0
370
    -2
100
AcDbBlockReference
  2
_Open30
 10
393.6162789636964
 20
383.2990899275188
 30
0.0
 41
2.5
 42
2.5
 43
2.5
  0
MTEXT
  5
1EF4
330
1EBF
100
AcDbEntity
  8
0
 62
     4
100
AcDbMText
 10
312.1332479636964
 20
385.4240899275188
 30
0.0
 40
3.0
 41
0.0
 71
     5
 72
     1
  1
335.5
 73
     1
 44
1.0
1001
ACAD
1000
MTEXTBEGIN
1070
    73
1070
     1
1070
    44
1040
1.0
1070
    74
1070
     0
1000
MTEXTEND
  0
POINT
  5
1EF5
330
1EBF
100
AcDbEntity
  8
Defpoints
 62
     0
100
AcDbPoint
 10
230.6502169636964
 20
415.6193689275188
 30
0.0
  0
POINT
  5
1EF6
330
1EBF
100
AcDbEntity
  8
Defpoints
 62
     0
100
AcDbPoint
 10
393.6162789636964
 20
422.3262439275186
 30
0.0
  0
POINT
  5
1EF7
330
1EBF
100
AcDbEntity
  8
Defpoints
 62
     0
100
AcDbPoint
 10
393.6162789636964
 20
383.2990899275188
 30
0.0
  0
ENDBLK
  5
1EC1
330
1EBF
100
AcDbEntity
  8
0
100
AcDbBlockEnd
  0
ENDSEC
  0
SECTION
  2
ENTITIES
  0
LINE
  5
A3
330
36
100
AcDbEntity
  8
0
 62
     3
100
AcDbLine
 10
174.300637
 20
-118.834277
 30
0.0
 11
174.300637
 21
-95.83427699999999
 31
0.0
  0
LINE
  5
A5
330
36
100
AcDbEntity
  8
0
 62
     3
100
AcDbLine
 10
121.247027
 20
-125.834277
 30
0.0
 11
121.247027
 21
-111.834277
 31
0.0
  0
TEXT
  5
A7
330
36
100
AcDbEntity
  8
0
 62
     3
100
AcDbText
 10
150.310955
 20
-99.62916100000001
 30
0.0
 40
2.0
  1
A
 41
0.7
100
AcDbText
  0
TEXT
  5
A8
330
36
100
AcDbEntity
  8
0
 62
     3
100
AcDbText
 10
152.846241
 20
-99.62916100000001
 30
0.0
 40
2.0
  1
P
 41
0.7
100
AcDbText
  0
TEXT
  5
A9
330
36
100
AcDbEntity
  8
0
 62
     3
100
AcDbText
 10
155.381527
 20
-99.62916100000001
 30
0.0
 40
2.0
  1
P
 41
0.7
100
AcDbText
  0
TEXT
  5
AA
330
36
100
AcDbEntity
  8
0
 62
     3
100
AcDbText
 10
157.916813
 20
-99.62916100000001
 30
0.0
 40
2.0
  1
D
 41
0.7
100
AcDbText
  0
TEXT
  5
AB
330
36
100
AcDbEntity
  8
0
 62
     3
100
AcDbText
 10
163.285496
 20
-99.62916100000001
 30
0.0
 40
2.0
  1
C
 41
0.7
100
AcDbText
  0
TEXT
  5
AC
330
36
100
AcDbEntity
  8
0
 62
     3
100
AcDbText
 10
165.820783
 20
-99.62916100000001
 30
0.0
 40
2.0
  1
H
 41
0.7
100
AcDbText
  0
TEXT
  5
AD
330
36
100
AcDbEntity
  8
0
 62
     3
100
AcDbText
 10
168.356069
 20
-99.62916100000001
 30
0.0
 40
2.0
  1
C
 41
0.7
100
AcDbText
  0
TEXT
  5
AE
330
36
100
AcDbEntity
  8
0
 62
     3
100
AcDbText
 10
170.891355
 20
-99.62916100000001
 30
0.0
 40
2.0
  1
K
 41
0.7
100
AcDbText
  0
TEXT
  5
AF
330
36
100
AcDbEntity
  8
0
 62
     3
100
AcDbText
 10
176.565322
 20
-99.62916100000001
 30
0.0
 40
2.0
  1
DESN
 41
1.216762999999998
100
AcDbText
  0
TEXT
  5
B0
330
36
100
AcDbEntity
  8
0
 62
     3
100
AcDbText
 10
91.558963
 20
-128.975659
 30
0.0
 40
2.0
  1
NICHIDO IND.CO.LTD
 41
1.274876
100
AcDbText
  0
LINE
  5
B1
330
36
100
AcDbEntity
  8
0
 62
     3
100
AcDbLine
 10
101.941992
 20
-95.83427699999999
 30
0.0
 11
101.941992
 21
-118.834277
 31
0.0
  0
LINE
  5
B2
330
36
100
AcDbEntity
  8
0
 62
     3
100
AcDbLine
 10
148.300637
 20
-95.83427699999999
 30
0.0
 11
148.300637
 21
-135.5
 31
0.0
  0
LINE
  5
B7
330
36
100
AcDbEntity
  8
0
 62
     3
100
AcDbLine
 10
161.300637
 20
-95.83427699999999
 30
0.0
 11
161.300637
 21
-125.834277
 31
0.0
  0
TEXT
  5
B8
330
36
100
AcDbEntity
  8
0
 62
     3
100
AcDbText
 10
149.57912
 20
-124.129021
 30
0.0
 40
3.2
  1
作成日
 41
1.017225999999997
100
AcDbText
  0
LINE
  5
B9
330
36
100
AcDbEntity
  8
0
 62
     3
100
AcDbLine
 10
200.0
 20
-95.83427699999999
 30
0.0
 11
88.696558
 21
-95.83427699999999
 31
0.0
  0
LINE
  5
BA
330
36
100
AcDbEntity
  8
0
 62
     3
100
AcDbLine
 10
187.300637
 20
-118.834277
 30
0.0
 11
187.300637
 21
-95.83427699999999
 31
0.0
  0
TEXT
  5
BB
330
36
100
AcDbEntity
  8
0
 62
     3
100
AcDbText
 10
190.62444
 20
-99.54334299999999
 30
0.0
 40
1.8
  1
D
 41
0.666667
100
AcDbText
  0
TEXT
  5
BC
330
36
100
AcDbEntity
  8
0
 62
     3
100
AcDbText
 10
193.441068
 20
-99.54334299999999
 30
0.0
 40
1.8
  1
E
 41
0.666667
100
AcDbText
  0
TEXT
  5
BD
330
36
100
AcDbEntity
  8
0
 62
     3
100
AcDbText
 10
196.257696
 20
-99.54334299999999
 30
0.0
 40
1.8
  1
F
 41
0.666667
100
AcDbText
  0
TEXT
  5
BE
330
36
100
AcDbEntity
  8
0
 62
     3
100
AcDbText
 10
190.62444
 20
-103.535896
 30
0.0
 40
3.2
  1
製図
 41
1.076369
100
AcDbText
  0
LINE
  5
BF
330
36
100
AcDbEntity
  8
0
 62
     3
100
AcDbLine
 10
88.696558
 20
-95.83427699999999
 30
0.0
 11
88.696558
 21
-135.5
 31
0.0
  0
TEXT
  5
C0
330
36
100
AcDbEntity
  8
0
 62
     3
100
AcDbText
 10
90.07321000000001
 20
-135.167535
 30
0.0
 40
5.0
  1
日動工業株式会社
 41
0.833333
100
AcDbText
  0
LINE
  5
C1
330
36
100
AcDbEntity
  8
0
 62
     3
100
AcDbLine
 10
131.578961
 20
-111.834277
 30
0.0
 11
131.578961
 21
-135.5
 31
0.0
  0
LINE
  5
C2
330
36
100
AcDbEntity
  8
0
 62
     3
100
AcDbLine
 10
131.578961
 20
-130.667139
 30
0.0
 11
148.300637
 21
-130.667139
 31
0.0
  0
TEXT
  5
C3
330
36
100
AcDbEntity
  8
0
 62
     3
100
AcDbText
 10
132.165563
 20
-129.850708
 30
0.0
 40
3.2
  1
出図コード
 41
0.8356860000000001
100
AcDbText
  0
TEXT
  5
C4
330
36
100
AcDbEntity
  8
0
 62
     3
100
AcDbText
 10
132.165563
 20
-134.683569
 30
0.0
 40
3.2
  1
HM-A3
 41
0.999426
100
AcDbText
  0
LINE
  5
DC
330
36
100
AcDbEntity
  8
0
 62
     3
100
AcDbLine
 10
88.696558
 20
-125.834277
 30
0.0
 11
200.0
 21
-125.834277
 31
0.0
  0
LINE
  5
DE
330
36
100
AcDbEntity
  8
0
 62
     3
100
AcDbLine
 10
88.696558
 20
-104.834277
 30
0.0
 11
200.0
 21
-104.834277
 31
0.0
  0
LINE
  5
E8
330
36
100
AcDbEntity
  8
0
 62
     3
100
AcDbLine
 10
88.696558
 20
-118.834277
 30
0.0
 11
200.0
 21
-118.834277
 31
0.0
  0
LINE
  5
EC
330
36
100
AcDbEntity
  8
0
 62
     3
100
AcDbLine
 10
113.203763
 20
47.49185691433527
 30
0.0
 11
113.203763
 21
37.2918569143353
 31
0.0
  0
LINE
  5
ED
330
36
100
AcDbEntity
  8
0
 62
     3
100
AcDbLine
 10
115.953763
 20
40.54185691433527
 30
0.0
 11
115.953763
 21
37.2918569143353
 31
0.0
  0
LINE
  5
EE
330
36
100
AcDbEntity
  8
0
 62
     3
100
AcDbLine
 10
70.70376299999998
 20
46.04185691433527
 30
0.0
 11
70.70376299999998
 21
46.99190391433528
 31
0.0
  0
LINE
  5
EF
330
36
100
AcDbEntity
  8
0
 62
     3
100
AcDbLine
 10
51.203763
 20
48.29185691433528
 30
0.0
 11
51.203763
 21
49.54185691433528
 31
0.0
  0
LINE
  5
F0
330
36
100
AcDbEntity
  8
0
 62
     3
100
AcDbLine
 10
42.203763
 20
48.29185691433528
 30
0.0
 11
42.203763
 21
49.04185691433529
 31
0.0
  0
LINE
  5
F1
330
36
100
AcDbEntity
  8
0
 62
     3
100
AcDbLine
 10
34.703763
 20
37.2918569143353
 30
0.0
 11
34.703763
 21
45.54185691433526
 31
0.0
  0
LINE
  5
F2
330
36
100
AcDbEntity
  8
0
 62
     3
100
AcDbLine
 10
114.953763
 20
41.54185691433528
 30
0.0
 11
113.203763
 21
41.54185691433528
 31
0.0
  0
LINE
  5
F3
330
36
100
AcDbEntity
  8
0
 62
     3
100
AcDbLine
 10
55.953763
 20
49.79185691433528
 30
0.0
 11
51.453763
 21
49.79185691433528
 31
0.0
  0
LINE
  5
F4
330
36
100
AcDbEntity
  8
0
 62
     3
100
AcDbLine
 10
42.453763
 20
48.04185691433527
 30
0.0
 11
50.953763
 21
48.04185691433527
 31
0.0
  0
LINE
  5
F5
330
36
100
AcDbEntity
  8
0
 62
     3
100
AcDbLine
 10
41.953763
 20
49.29185691433527
 30
0.0
 11
37.453763
 21
49.29185691433527
 31
0.0
  0
LINE
  5
F6
330
36
100
AcDbEntity
  8
0
 62
     3
100
AcDbLine
 10
35.20376300000001
 20
46.04185691433527
 30
0.0
 11
37.203763
 21
46.04185691433527
 31
0.0
  0
ARC
  5
F7
330
36
100
AcDbEntity
  8
0
 62
     3
100
AcDbCircle
 10
35.20376300000001
 20
45.54185691433526
 30
0.0
 40
0.5
100
AcDbArc
 50
90.0
 51
180.0
  0
ARC
  5
F8
330
36
100
AcDbEntity
  8
0
 62
     3
100
AcDbCircle
 10
37.453763
 20
49.04185691433529
 30
0.0
 40
0.25
100
AcDbArc
 50
90.0
 51
180.0
  0
ARC
  5
F9
330
36
100
AcDbEntity
  8
0
 62
     3
100
AcDbCircle
 10
41.953763
 20
49.04185691433529
 30
0.0
 40
0.25
100
AcDbArc
 50
0.0
 51
90.0
  0
ARC
  5
FA
330
36
100
AcDbEntity
  8
0
 62
     3
100
AcDbCircle
 10
51.453763
 20
49.54185691433528
 30
0.0
 40
0.25
100
AcDbArc
 50
90.0
 51
180.0
  0
ARC
  5
FB
330
36
100
AcDbEntity
  8
0
 62
     3
100
AcDbCircle
 10
50.953763
 20
48.29185691433528
 30
0.0
 40
0.25
100
AcDbArc
 50
270.0
 51
0.0
  0
ARC
  5
FC
330
36
100
AcDbEntity
  8
0
 62
     3
100
AcDbCircle
 10
42.453763
 20
48.29185691433528
 30
0.0
 40
0.25
100
AcDbArc
 50
180.0
 51
270.0
  0
LINE
  5
FD
330
36
100
AcDbEntity
  8
0
 62
     3
100
AcDbLine
 10
57.003763
 20
48.79185691433526
 30
0.0
 11
56.203763
 21
48.79185691433526
 31
0.0
  0
ARC
  5
FE
330
36
100
AcDbEntity
  8
0
 62
     3
100
AcDbCircle
 10
58.00376299999999
 20
48.79185691433526
 30
0.0
 40
1.0
100
AcDbArc
 50
0.0
 51
180.0
  0
ARC
  5
FF
330
36
100
AcDbEntity
  8
0
 62
     3
100
AcDbCircle
 10
60.80376300000001
 20
48.79185691433526
 30
0.0
 40
1.0
100
AcDbArc
 50
0.0
 51
180.0
  0
ARC
  5
100
330
36
100
AcDbEntity
  8
0
 62
     3
100
AcDbCircle
 10
63.603763
 20
48.79185691433526
 30
0.0
 40
1.0
100
AcDbArc
 50
0.0
 51
180.0
  0
ARC
  5
101
330
36
100
AcDbEntity
  8
0
 62
     3
100
AcDbCircle
 10
66.40376299999998
 20
48.79185691433526
 30
0.0
 40
1.0
100
AcDbArc
 50
0.0
 51
180.0
  0
ARC
  5
102
330
36
100
AcDbEntity
  8
0
 62
     3
100
AcDbCircle
 10
69.903763
 20
46.99190391433528
 30
0.0
 40
0.8
100
AcDbArc
 50
0.0
 51
180.0
  0
ARC
  5
103
330
36
100
AcDbEntity
  8
0
 62
     3
100
AcDbCircle
 10
55.953763
 20
49.54185691433528
 30
0.0
 40
0.25
100
AcDbArc
 50
0.0
 51
90.0
  0
LINE
  5
104
330
36
100
AcDbEntity
  8
0
 62
     3
100
AcDbLine
 10
59.003763
 20
48.79185691433526
 30
0.0
 11
59.803763
 21
48.79185691433526
 31
0.0
  0
LINE
  5
105
330
36
100
AcDbEntity
  8
0
 62
     3
100
AcDbLine
 10
61.803763
 20
48.79185691433526
 30
0.0
 11
62.603763
 21
48.79185691433526
 31
0.0
  0
LINE
  5
106
330
36
100
AcDbEntity
  8
0
 62
     3
100
AcDbLine
 10
64.603763
 20
48.79185691433526
 30
0.0
 11
65.403763
 21
48.79185691433526
 31
0.0
  0
LINE
  5
107
330
36
100
AcDbEntity
  8
0
 62
     3
100
AcDbLine
 10
67.403763
 20
48.79185691433526
 30
0.0
 11
69.103763
 21
47.18787791433528
 31
0.0
  0
ARC
  5
108
330
36
100
AcDbEntity
  8
0
 62
     3
100
AcDbCircle
 10
70.95376299999998
 20
46.04185691433527
 30
0.0
 40
0.25
100
AcDbArc
 50
180.0
 51
270.0
  0
LINE
  5
109
330
36
100
AcDbEntity
  8
0
 62
     3
100
AcDbLine
 10
51.203763
 20
48.29185691433528
 30
0.0
 11
51.203763
 21
37.2918569143353
 31
0.0
  0
LINE
  5
10A
330
36
100
AcDbEntity
  8
0
 62
     3
100
AcDbLine
 10
42.203763
 20
48.29185691433528
 30
0.0
 11
42.203763
 21
37.2918569143353
 31
0.0
  0
LINE
  5
10B
330
36
100
AcDbEntity
  8
0
 62
     3
100
AcDbLine
 10
111.103763
 20
47.49185691433527
 30
0.0
 11
110.303763
 21
47.49185691433527
 31
0.0
  0
ARC
  5
10C
330
36
100
AcDbEntity
  8
0
 62
     3
100
AcDbCircle
 10
109.253763
 20
47.49185691433527
 30
0.0
 40
1.05
100
AcDbArc
 50
0.0
 51
180.0
  0
ARC
  5
10D
330
36
100
AcDbEntity
  8
0
 62
     3
100
AcDbCircle
 10
112.153763
 20
47.49185691433527
 30
0.0
 40
1.05
100
AcDbArc
 50
0.0
 51
180.0
  0
ARC
  5
10E
330
36
100
AcDbEntity
  8
0
 62
     3
100
AcDbCircle
 10
106.453763
 20
47.54185691433526
 30
0.0
 40
1.75
100
AcDbArc
 50
270.0
 51
0.0
  0
LINE
  5
10F
330
36
100
AcDbEntity
  8
0
 62
     3
100
AcDbLine
 10
108.203763
 20
47.49185691433527
 30
0.0
 11
108.203763
 21
37.2918569143353
 31
0.0
  0
ARC
  5
110
330
36
100
AcDbEntity
  8
0
 62
     3
100
AcDbCircle
 10
114.953763
 20
40.54185691433527
 30
0.0
 40
1.0
100
AcDbArc
 50
0.0
 51
90.0
  0
LINE
  5
111
330
36
100
AcDbEntity
  8
0
 62
     3
100
AcDbLine
 10
120.734813
 20
38.84185691433529
 30
0.0
 11
115.953763
 21
38.84185691433529
 31
0.0
  0
LINE
  5
112
330
36
100
AcDbEntity
  8
0
 62
     3
100
AcDbLine
 10
113.203763
 20
27.09185691433529
 30
0.0
 11
113.203763
 21
37.2918569143353
 31
0.0
  0
LINE
  5
113
330
36
100
AcDbEntity
  8
0
 62
     3
100
AcDbLine
 10
115.953763
 20
34.04185691433529
 30
0.0
 11
115.953763
 21
37.2918569143353
 31
0.0
  0
LINE
  5
114
330
36
100
AcDbEntity
  8
0
 62
     3
100
AcDbLine
 10
70.70376299999998
 20
28.54185691433528
 30
0.0
 11
70.70376299999998
 21
27.59180991433528
 31
0.0
  0
LINE
  5
115
330
36
100
AcDbEntity
  8
0
 62
     3
100
AcDbLine
 10
51.203763
 20
26.29185691433529
 30
0.0
 11
51.203763
 21
25.04185691433529
 31
0.0
  0
LINE
  5
116
330
36
100
AcDbEntity
  8
0
 62
     3
100
AcDbLine
 10
42.203763
 20
26.29185691433529
 30
0.0
 11
42.203763
 21
25.54185691433529
 31
0.0
  0
LINE
  5
117
330
36
100
AcDbEntity
  8
0
 62
     3
100
AcDbLine
 10
34.703763
 20
37.2918569143353
 30
0.0
 11
34.703763
 21
29.04185691433529
 31
0.0
  0
LINE
  5
118
330
36
100
AcDbEntity
  8
0
 62
     3
100
AcDbLine
 10
114.953763
 20
33.04185691433529
 30
0.0
 11
113.203763
 21
33.04185691433529
 31
0.0
  0
LINE
  5
119
330
36
100
AcDbEntity
  8
0
 62
     3
100
AcDbLine
 10
55.953763
 20
24.79185691433528
 30
0.0
 11
51.453763
 21
24.79185691433528
 31
0.0
  0
LINE
  5
11A
330
36
100
AcDbEntity
  8
0
 62
     3
100
AcDbLine
 10
42.453763
 20
26.54185691433529
 30
0.0
 11
50.953763
 21
26.54185691433529
 31
0.0
  0
LINE
  5
11B
330
36
100
AcDbEntity
  8
0
 62
     3
100
AcDbLine
 10
41.953763
 20
25.29185691433529
 30
0.0
 11
37.453763
 21
25.29185691433529
 31
0.0
  0
LINE
  5
11C
330
36
100
AcDbEntity
  8
0
 62
     3
100
AcDbLine
 10
35.20376300000001
 20
28.54185691433528
 30
0.0
 11
37.203763
 21
28.54185691433528
 31
0.0
  0
ARC
  5
11D
330
36
100
AcDbEntity
  8
0
 62
     3
100
AcDbCircle
 10
35.20376300000001
 20
29.04185691433529
 30
0.0
 40
0.5
100
AcDbArc
 50
180.0
 51
270.0
  0
ARC
  5
11E
330
36
100
AcDbEntity
  8
0
 62
     3
100
AcDbCircle
 10
37.453763
 20
25.54185691433529
 30
0.0
 40
0.25
100
AcDbArc
 50
180.0
 51
270.0
  0
ARC
  5
11F
330
36
100
AcDbEntity
  8
0
 62
     3
100
AcDbCircle
 10
41.953763
 20
25.54185691433529
 30
0.0
 40
0.25
100
AcDbArc
 50
270.0
 51
0.0
  0
ARC
  5
120
330
36
100
AcDbEntity
  8
0
 62
     3
100
AcDbCircle
 10
51.453763
 20
25.04185691433529
 30
0.0
 40
0.25
100
AcDbArc
 50
180.0
 51
270.0
  0
ARC
  5
121
330
36
100
AcDbEntity
  8
0
 62
     3
100
AcDbCircle
 10
50.953763
 20
26.29185691433529
 30
0.0
 40
0.25
100
AcDbArc
 50
0.0
 51
90.0
  0
ARC
  5
122
330
36
100
AcDbEntity
  8
0
 62
     3
100
AcDbCircle
 10
42.453763
 20
26.29185691433529
 30
0.0
 40
0.25
100
AcDbArc
 50
90.0
 51
180.0
  0
LINE
  5
123
330
36
100
AcDbEntity
  8
0
 62
     3
100
AcDbLine
 10
57.003763
 20
25.79185691433528
 30
0.0
 11
56.203763
 21
25.79185691433528
 31
0.0
  0
ARC
  5
124
330
36
100
AcDbEntity
  8
0
 62
     3
100
AcDbCircle
 10
58.00376299999999
 20
25.79185691433528
 30
0.0
 40
1.0
100
AcDbArc
 50
180.0
 51
0.0
  0
ARC
  5
125
330
36
100
AcDbEntity
  8
0
 62
     3
100
AcDbCircle
 10
60.80376300000001
 20
25.79185691433528
 30
0.0
 40
1.0
100
AcDbArc
 50
180.0
 51
0.0
  0
ARC
  5
126
330
36
100
AcDbEntity
  8
0
 62
     3
100
AcDbCircle
 10
63.603763
 20
25.79185691433528
 30
0.0
 40
1.0
100
AcDbArc
 50
180.0
 51
0.0
  0
ARC
  5
127
330
36
100
AcDbEntity
  8
0
 62
     3
100
AcDbCircle
 10
66.40376299999998
 20
25.79185691433528
 30
0.0
 40
1.0
100
AcDbArc
 50
180.0
 51
0.0
  0
ARC
  5
128
330
36
100
AcDbEntity
  8
0
 62
     3
100
AcDbCircle
 10
69.903763
 20
27.59180991433528
 30
0.0
 40
0.8
100
AcDbArc
 50
180.0
 51
0.0
  0
ARC
  5
129
330
36
100
AcDbEntity
  8
0
 62
     3
100
AcDbCircle
 10
55.953763
 20
25.04185691433529
 30
0.0
 40
0.25
100
AcDbArc
 50
270.0
 51
0.0
  0
LINE
  5
12A
330
36
100
AcDbEntity
  8
0
 62
     3
100
AcDbLine
 10
59.003763
 20
25.79185691433528
 30
0.0
 11
59.803763
 21
25.79185691433528
 31
0.0
  0
LINE
  5
12B
330
36
100
AcDbEntity
  8
0
 62
     3
100
AcDbLine
 10
61.803763
 20
25.79185691433528
 30
0.0
 11
62.603763
 21
25.79185691433528
 31
0.0
  0
LINE
  5
12C
330
36
100
AcDbEntity
  8
0
 62
     3
100
AcDbLine
 10
64.603763
 20
25.79185691433528
 30
0.0
 11
65.403763
 21
25.79185691433528
 31
0.0
  0
LINE
  5
12D
330
36
100
AcDbEntity
  8
0
 62
     3
100
AcDbLine
 10
67.403763
 20
25.79185691433528
 30
0.0
 11
69.103763
 21
27.39583591433529
 31
0.0
  0
ARC
  5
12E
330
36
100
AcDbEntity
  8
0
 62
     3
100
AcDbCircle
 10
70.95376299999998
 20
28.54185691433528
 30
0.0
 40
0.25
100
AcDbArc
 50
90.0
 51
180.0
  0
LINE
  5
12F
330
36
100
AcDbEntity
  8
0
 62
     3
100
AcDbLine
 10
51.203763
 20
26.29185691433529
 30
0.0
 11
51.203763
 21
37.2918569143353
 31
0.0
  0
LINE
  5
130
330
36
100
AcDbEntity
  8
0
 62
     3
100
AcDbLine
 10
42.203763
 20
26.29185691433529
 30
0.0
 11
42.203763
 21
37.2918569143353
 31
0.0
  0
LINE
  5
131
330
36
100
AcDbEntity
  8
0
 62
     3
100
AcDbLine
 10
111.103763
 20
27.09185691433529
 30
0.0
 11
110.303763
 21
27.09185691433529
 31
0.0
  0
ARC
  5
132
330
36
100
AcDbEntity
  8
0
 62
     3
100
AcDbCircle
 10
109.253763
 20
27.09185691433529
 30
0.0
 40
1.05
100
AcDbArc
 50
180.0
 51
0.0
  0
ARC
  5
133
330
36
100
AcDbEntity
  8
0
 62
     3
100
AcDbCircle
 10
112.153763
 20
27.09185691433529
 30
0.0
 40
1.05
100
AcDbArc
 50
180.0
 51
0.0
  0
ARC
  5
134
330
36
100
AcDbEntity
  8
0
 62
     3
100
AcDbCircle
 10
106.453763
 20
27.04185691433528
 30
0.0
 40
1.75
100
AcDbArc
 50
0.0
 51
90.0
  0
LINE
  5
135
330
36
100
AcDbEntity
  8
0
 62
     3
100
AcDbLine
 10
108.203763
 20
27.09185691433529
 30
0.0
 11
108.203763
 21
37.2918569143353
 31
0.0
  0
ARC
  5
136
330
36
100
AcDbEntity
  8
0
 62
     3
100
AcDbCircle
 10
114.953763
 20
34.04185691433529
 30
0.0
 40
1.0
100
AcDbArc
 50
270.0
 51
0.0
  0
LINE
  5
137
330
36
100
AcDbEntity
  8
0
 62
     3
100
AcDbLine
 10
120.734813
 20
35.74185691433529
 30
0.0
 11
115.953763
 21
35.74185691433529
 31
0.0
  0
CIRCLE
  5
138
330
36
100
AcDbEntity
  8
0
 62
     3
100
AcDbCircle
 10
103.703763
 20
37.2918569143353
 30
0.0
 40
1.759431999999995
  0
LINE
  5
139
330
36
100
AcDbEntity
  8
0
 62
     3
100
AcDbLine
 10
100.953763
 20
42.29185691433527
 30
0.0
 11
100.953763
 21
32.29185691433528
 31
0.0
  0
LINE
  5
13A
330
36
100
AcDbEntity
  8
0
 62
     3
100
AcDbLine
 10
100.953763
 20
42.29185691433527
 30
0.0
 11
81.77736000000001
 21
42.29185691433527
 31
0.0
  0
LINE
  5
13B
330
36
100
AcDbEntity
  8
0
 62
     3
100
AcDbLine
 10
100.953763
 20
32.29185691433528
 30
0.0
 11
81.23642399999999
 21
32.29185691433528
 31
0.0
  0
LINE
  5
13C
330
36
100
AcDbEntity
  8
0
 62
     3
100
AcDbLine
 10
65.95376299999999
 20
42.54185691433527
 30
0.0
 11
65.95376299999999
 21
32.04185691433528
 31
0.0
  0
LINE
  5
13D
330
36
100
AcDbEntity
  8
0
 62
     3
100
AcDbLine
 10
58.453763
 20
42.54185691433527
 30
0.0
 11
58.453763
 21
32.04185691433528
 31
0.0
  0
LINE
  5
13E
330
36
100
AcDbEntity
  8
0
 62
     3
100
AcDbLine
 10
65.95376299999999
 20
42.54185691433527
 30
0.0
 11
58.453763
 21
42.54185691433527
 31
0.0
  0
LINE
  5
13F
330
36
100
AcDbEntity
  8
0
 62
     3
100
AcDbLine
 10
65.95376299999999
 20
32.04185691433528
 30
0.0
 11
58.453763
 21
32.04185691433528
 31
0.0
  0
LINE
  5
140
330
36
100
AcDbEntity
  8
0
 62
     3
100
AcDbLine
 10
64.21647199999999
 20
41.29185691433527
 30
0.0
 11
60.191053
 21
41.29185691433527
 31
0.0
  0
LINE
  5
141
330
36
100
AcDbEntity
  8
0
 62
     3
100
AcDbLine
 10
60.191053
 20
33.29185691433528
 30
0.0
 11
64.21647199999999
 21
33.29185691433528
 31
0.0
  0
ARC
  5
142
330
36
100
AcDbEntity
  8
0
 62
     3
100
AcDbCircle
 10
34.703763
 20
37.2918569143353
 30
0.0
 40
30.0
100
AcDbArc
 50
352.7585799999998
 51
7.241419999999981
  0
ARC
  5
143
330
36
100
AcDbEntity
  8
0
 62
     3
100
AcDbCircle
 10
89.70376299999998
 20
37.2918569143353
 30
0.0
 40
30.0
100
AcDbArc
 50
172.75858
 51
187.2414199999999
  0
ARC
  5
144
330
36
100
AcDbEntity
  8
0
 62
     3
100
AcDbCircle
 10
60.191053
 20
41.0418569143353
 30
0.0
 40
0.25
100
AcDbArc
 50
90.0
 51
172.75858
  0
ARC
  5
145
330
36
100
AcDbEntity
  8
0
 62
     3
100
AcDbCircle
 10
64.21647199999999
 20
41.0418569143353
 30
0.0
 40
0.25
100
AcDbArc
 50
7.241419999999981
 51
90.0
  0
ARC
  5
146
330
36
100
AcDbEntity
  8
0
 62
     3
100
AcDbCircle
 10
64.21647199999999
 20
33.54185691433528
 30
0.0
 40
0.25
100
AcDbArc
 50
270.0
 51
352.7585799999998
  0
ARC
  5
147
330
36
100
AcDbEntity
  8
0
 62
     3
100
AcDbCircle
 10
60.191053
 20
33.54185691433528
 30
0.0
 40
0.25
100
AcDbArc
 50
187.2414199999999
 51
270.0
  0
ARC
  5
148
330
36
100
AcDbEntity
  8
0
 62
     3
100
AcDbCircle
 10
89.70376299999998
 20
38.92416591433529
 30
0.0
 40
30.0
100
AcDbArc
 50
181.558933
 51
187.2414199999999
  0
ARC
  5
149
330
36
100
AcDbEntity
  8
0
 62
     3
100
AcDbCircle
 10
60.191053
 20
35.17416591433529
 30
0.0
 40
0.25
100
AcDbArc
 50
187.2414199999999
 51
270.0
  0
LINE
  5
14A
330
36
100
AcDbEntity
  8
0
 62
     3
100
AcDbLine
 10
64.21647199999999
 20
34.92416591433528
 30
0.0
 11
60.191053
 21
34.92416591433528
 31
0.0
  0
ARC
  5
14B
330
36
100
AcDbEntity
  8
0
 62
     3
100
AcDbCircle
 10
64.21647199999999
 20
35.17416591433529
 30
0.0
 40
0.25
100
AcDbArc
 50
270.0
 51
352.7585799999998
  0
ARC
  5
14C
330
36
100
AcDbEntity
  8
0
 62
     3
100
AcDbCircle
 10
34.703763
 20
38.92416591433529
 30
0.0
 40
30.0
100
AcDbArc
 50
352.7585799999998
 51
358.441067
  0
CIRCLE
  5
14D
330
36
100
AcDbEntity
  8
0
 62
     3
100
AcDbCircle
 10
62.203763
 20
36.46961491433528
 30
0.0
 40
0.8222419999999999
  0
LINE
  5
14E
330
36
100
AcDbEntity
  8
0
 62
     3
100
AcDbLine
 10
62.203763
 20
40.46874591433527
 30
0.0
 11
62.203763
 21
38.60928391433528
 31
0.0
  0
LINE
  5
14F
330
36
100
AcDbEntity
  8
0
 62
     3
100
AcDbLine
 10
-23.517988
 20
37.2918569143353
 30
0.0
 11
-23.517988
 21
76.92248491433528
 31
0.0
  0
LINE
  5
150
330
36
100
AcDbEntity
  8
0
 62
     3
100
AcDbLine
 10
-21.517988
 20
70.45852291433527
 30
0.0
 11
-21.517988
 21
37.2918569143353
 31
0.0
  0
LINE
  5
151
330
36
100
AcDbEntity
  8
0
 62
     3
100
AcDbLine
 10
-7.517988
 20
68.3751899143353
 30
0.0
 11
-7.517988
 21
37.2918569143353
 31
0.0
  0
LINE
  5
152
330
36
100
AcDbEntity
  8
0
 62
     3
100
AcDbLine
 10
-5.517987999999999
 20
68.3751899143353
 30
0.0
 11
-5.517987999999999
 21
37.2918569143353
 31
0.0
  0
LINE
  5
153
330
36
100
AcDbEntity
  8
0
 62
     3
100
AcDbLine
 10
10.482012
 20
66.29185691433528
 30
0.0
 11
10.482012
 21
37.2918569143353
 31
0.0
  0
LINE
  5
154
330
36
100
AcDbEntity
  8
0
 62
     3
100
AcDbLine
 10
24.482012
 20
58.79185691433526
 30
0.0
 11
24.482012
 21
37.2918569143353
 31
0.0
  0
LINE
  5
155
330
36
100
AcDbEntity
  8
0
 62
     3
100
AcDbLine
 10
26.482012
 20
58.79185691433526
 30
0.0
 11
26.482012
 21
37.2918569143353
 31
0.0
  0
LINE
  5
156
330
36
100
AcDbEntity
  8
0
 62
     3
100
AcDbLine
 10
10.482012
 20
64.80060291433528
 30
0.0
 11
24.482012
 21
58.15941791433528
 31
0.0
  0
LINE
  5
157
330
36
100
AcDbEntity
  8
0
 62
     3
100
AcDbLine
 10
10.482012
 20
62.58698391433529
 30
0.0
 11
24.482012
 21
55.94579891433529
 31
0.0
  0
ARC
  5
158
330
36
100
AcDbEntity
  8
0
 62
     3
100
AcDbCircle
 10
25.482012
 20
58.79185691433526
 30
0.0
 40
1.0
100
AcDbArc
 50
0.0
 51
180.0
  0
ARC
  5
159
330
36
100
AcDbEntity
  8
0
 62
     3
100
AcDbCircle
 10
9.482011999999999
 20
66.29185691433528
 30
0.0
 40
1.0
100
AcDbArc
 50
0.0
 51
180.0
  0
ARC
  5
15A
330
36
100
AcDbEntity
  8
0
 62
     3
100
AcDbCircle
 10
-6.517987999999999
 20
68.3751899143353
 30
0.0
 40
1.0
100
AcDbArc
 50
0.0
 51
180.0
  0
ARC
  5
15B
330
36
100
AcDbEntity
  8
0
 62
     3
100
AcDbCircle
 10
-22.517988
 20
70.45852291433527
 30
0.0
 40
1.0
100
AcDbArc
 50
0.0
 51
180.0
  0
LINE
  5
15C
330
36
100
AcDbEntity
  8
0
 62
     3
100
AcDbLine
 10
-23.517988
 20
67.5549659143353
 30
0.0
 11
-37.517988
 21
69.37788191433529
 31
0.0
  0
LINE
  5
15D
330
36
100
AcDbEntity
  8
0
 62
     3
100
AcDbLine
 10
8.482011999999999
 20
65.40518191433527
 30
0.0
 11
-5.517987999999999
 21
67.22809891433527
 31
0.0
  0
LINE
  5
15E
330
36
100
AcDbEntity
  8
0
 62
     3
100
AcDbLine
 10
-7.517988
 20
67.4885149143353
 30
0.0
 11
-20.017988
 21
69.11611891433529
 31
0.0
  0
LINE
  5
15F
330
36
100
AcDbEntity
  8
0
 62
     3
100
AcDbLine
 10
8.482011999999999
 20
63.38829891433529
 30
0.0
 11
-5.517987999999999
 21
65.2112159143353
 31
0.0
  0
LINE
  5
160
330
36
100
AcDbEntity
  8
0
 62
     3
100
AcDbLine
 10
-7.517988
 20
65.47163191433529
 30
0.0
 11
-21.517988
 21
67.29454891433528
 31
0.0
  0
LINE
  5
161
330
36
100
AcDbEntity
  8
0
 62
     3
100
AcDbLine
 10
45.925262
 20
52.21658291433527
 30
0.0
 11
45.925262
 21
51.04185691433528
 31
0.0
  0
LINE
  5
162
330
36
100
AcDbEntity
  8
0
 62
     3
100
AcDbLine
 10
41.48201199999999
 20
53.04185691433527
 30
0.0
 11
44.940645
 21
53.04185691433527
 31
0.0
  0
LINE
  5
163
330
36
100
AcDbEntity
  8
0
 62
     3
100
AcDbLine
 10
50.684798
 20
51.04185691433528
 30
0.0
 11
38.184798
 21
51.04185691433528
 31
0.0
  0
ARC
  5
164
330
36
100
AcDbEntity
  8
0
 62
     3
100
AcDbCircle
 10
44.940645
 20
52.04185691433528
 30
0.0
 40
1.0
100
AcDbArc
 50
349.937275
 51
90.0
  0
ARC
  5
165
330
36
100
AcDbEntity
  8
0
 62
     3
100
AcDbCircle
 10
39.482012
 20
54.04185691433528
 30
0.0
 40
1.0
100
AcDbArc
 50
0.0
 51
90.0
  0
ARC
  5
166
330
36
100
AcDbEntity
  8
0
 62
     3
100
AcDbCircle
 10
41.48201199999999
 20
54.04185691433528
 30
0.0
 40
1.0
100
AcDbArc
 50
180.0
 51
270.0
  0
LINE
  5
167
330
36
100
AcDbEntity
  8
0
 62
     3
100
AcDbLine
 10
38.184798
 20
53.04185691433527
 30
0.0
 11
38.184798
 21
51.04185691433528
 31
0.0
  0
LINE
  5
168
330
36
100
AcDbEntity
  8
0
 62
     3
100
AcDbLine
 10
26.482012
 20
57.21067691433527
 30
0.0
 11
39.482012
 21
55.04185691433526
 31
0.0
  0
LINE
  5
169
330
36
100
AcDbEntity
  8
0
 62
     3
100
AcDbLine
 10
38.184798
 20
53.23063191433528
 30
0.0
 11
26.482012
 21
55.18303491433528
 31
0.0
  0
LINE
  5
16A
330
36
100
AcDbEntity
  8
0
 62
     3
100
AcDbLine
 10
8.482011999999999
 20
66.29185691433528
 30
0.0
 11
8.482011999999999
 21
37.2918569143353
 31
0.0
  0
LINE
  5
16B
330
36
100
AcDbEntity
  8
0
 62
     3
100
AcDbLine
 10
41.48201199999999
 20
53.04185691433527
 30
0.0
 11
38.184798
 21
53.04185691433527
 31
0.0
  0
LINE
  5
16C
330
36
100
AcDbEntity
  8
0
 62
     3
100
AcDbLine
 10
38.184798
 20
46.48246291433529
 30
0.0
 11
38.184798
 21
38.04185691433529
 31
0.0
  0
ARC
  5
16D
330
36
100
AcDbEntity
  8
0
 62
     3
100
AcDbCircle
 10
50.684798
 20
50.54185691433527
 30
0.0
 40
0.5
100
AcDbArc
 50
0.0
 51
90.0
  0
LINE
  5
16E
330
36
100
AcDbEntity
  8
0
 62
     3
100
AcDbLine
 10
38.31369
 20
48.87839691433526
 30
0.0
 11
26.482012
 21
50.11086291433528
 31
0.0
  0
LINE
  5
16F
330
36
100
AcDbEntity
  8
0
 62
     3
100
AcDbLine
 10
24.482012
 20
50.86304391433529
 30
0.0
 11
10.482012
 21
56.12830991433527
 31
0.0
  0
LINE
  5
170
330
36
100
AcDbEntity
  8
0
 62
     3
100
AcDbLine
 10
24.482012
 20
49.26046791433527
 30
0.0
 11
10.482012
 21
54.52573491433525
 31
0.0
  0
LINE
  5
171
330
36
100
AcDbEntity
  8
0
 62
     3
100
AcDbLine
 10
37.288404
 20
47.47708091433529
 30
0.0
 11
26.482012
 21
48.60274691433527
 31
0.0
  0
LINE
  5
172
330
36
100
AcDbEntity
  8
0
 62
     3
100
AcDbLine
 10
-23.517988
 20
59.51257791433528
 30
0.0
 11
-37.517988
 21
60.9060989143353
 31
0.0
  0
LINE
  5
173
330
36
100
AcDbEntity
  8
0
 62
     3
100
AcDbLine
 10
-23.517988
 20
58.00516491433528
 30
0.0
 11
-37.517988
 21
59.39868691433527
 31
0.0
  0
LINE
  5
174
330
36
100
AcDbEntity
  8
0
 62
     3
100
AcDbLine
 10
8.482011999999999
 20
56.32738491433528
 30
0.0
 11
-5.517987999999999
 21
57.72090691433529
 31
0.0
  0
LINE
  5
175
330
36
100
AcDbEntity
  8
0
 62
     3
100
AcDbLine
 10
-7.517988
 20
57.91998091433526
 30
0.0
 11
-21.517988
 21
59.31350291433528
 31
0.0
  0
LINE
  5
176
330
36
100
AcDbEntity
  8
0
 62
     3
100
AcDbLine
 10
8.482011999999999
 20
54.81997291433525
 30
0.0
 11
-5.517987999999999
 21
56.21349391433529
 31
0.0
  0
LINE
  5
177
330
36
100
AcDbEntity
  8
0
 62
     3
100
AcDbLine
 10
-7.517988
 20
56.41256891433529
 30
0.0
 11
-21.517988
 21
57.80609091433529
 31
0.0
  0
LINE
  5
178
330
36
100
AcDbEntity
  8
0
 62
     3
100
AcDbLine
 10
39.210083
 20
47.88377791433528
 30
0.0
 11
39.210083
 21
46.48246291433529
 31
0.0
  0
ARC
  5
179
330
36
100
AcDbEntity
  8
0
 62
     3
100
AcDbCircle
 10
37.184798
 20
46.48246291433529
 30
0.0
 40
1.0
100
AcDbArc
 50
0.0
 51
84.05313699999998
  0
ARC
  5
17A
330
36
100
AcDbEntity
  8
0
 62
     3
100
AcDbCircle
 10
38.21008300000001
 20
47.88377791433528
 30
0.0
 40
1.0
100
AcDbArc
 50
0.0
 51
84.05313699999998
  0
LINE
  5
17B
330
36
100
AcDbEntity
  8
0
 62
     3
100
AcDbLine
 10
38.184798
 20
48.89182291433527
 30
0.0
 11
38.184798
 21
51.04185691433528
 31
0.0
  0
LINE
  5
17C
330
36
100
AcDbEntity
  8
0
 62
     3
100
AcDbLine
 10
38.184798
 20
46.48246291433529
 30
0.0
 11
39.210083
 21
46.48246291433529
 31
0.0
  0
ARC
  5
17D
330
36
100
AcDbEntity
  8
0
 62
     3
100
AcDbCircle
 10
38.46008300000001
 20
37.2918569143353
 30
0.0
 40
0.75
100
AcDbArc
 50
0.0
 51
90.0
  0
LINE
  5
17E
330
36
100
AcDbEntity
  8
0
 62
     3
100
AcDbLine
 10
38.46008300000001
 20
38.04185691433529
 30
0.0
 11
26.482012
 21
38.04185691433529
 31
0.0
  0
LINE
  5
17F
330
36
100
AcDbEntity
  8
0
 62
     3
100
AcDbLine
 10
24.482012
 20
38.04185691433529
 30
0.0
 11
10.482012
 21
38.04185691433529
 31
0.0
  0
LINE
  5
180
330
36
100
AcDbEntity
  8
0
 62
     3
100
AcDbLine
 10
8.482011999999999
 20
38.04185691433529
 30
0.0
 11
-5.517987999999999
 21
38.04185691433529
 31
0.0
  0
LINE
  5
181
330
36
100
AcDbEntity
  8
0
 62
     3
100
AcDbLine
 10
-7.517988
 20
38.04185691433529
 30
0.0
 11
-21.517988
 21
38.04185691433529
 31
0.0
  0
LINE
  5
182
330
36
100
AcDbEntity
  8
0
 62
     3
100
AcDbLine
 10
-23.517988
 20
38.04185691433529
 30
0.0
 11
-37.517988
 21
38.04185691433529
 31
0.0
  0
LINE
  5
183
330
36
100
AcDbEntity
  8
0
 62
     3
100
AcDbLine
 10
-23.517988
 20
4.125189914335285
 30
0.0
 11
-23.517988
 21
37.2918569143353
 31
0.0
  0
LINE
  5
184
330
36
100
AcDbEntity
  8
0
 62
     3
100
AcDbLine
 10
-21.517988
 20
4.125189914335285
 30
0.0
 11
-21.517988
 21
37.2918569143353
 31
0.0
  0
LINE
  5
185
330
36
100
AcDbEntity
  8
0
 62
     3
100
AcDbLine
 10
-7.517988
 20
6.208522914335284
 30
0.0
 11
-7.517988
 21
37.2918569143353
 31
0.0
  0
LINE
  5
186
330
36
100
AcDbEntity
  8
0
 62
     3
100
AcDbLine
 10
-5.517987999999999
 20
6.208522914335284
 30
0.0
 11
-5.517987999999999
 21
37.2918569143353
 31
0.0
  0
LINE
  5
187
330
36
100
AcDbEntity
  8
0
 62
     3
100
AcDbLine
 10
10.482012
 20
8.291856914335285
 30
0.0
 11
10.482012
 21
37.2918569143353
 31
0.0
  0
LINE
  5
188
330
36
100
AcDbEntity
  8
0
 62
     3
100
AcDbLine
 10
24.482012
 20
15.79185691433528
 30
0.0
 11
24.482012
 21
37.2918569143353
 31
0.0
  0
LINE
  5
189
330
36
100
AcDbEntity
  8
0
 62
     3
100
AcDbLine
 10
26.482012
 20
15.79185691433528
 30
0.0
 11
26.482012
 21
37.2918569143353
 31
0.0
  0
LINE
  5
18A
330
36
100
AcDbEntity
  8
0
 62
     3
100
AcDbLine
 10
10.482012
 20
9.783109914335282
 30
0.0
 11
24.482012
 21
16.42429591433528
 31
0.0
  0
LINE
  5
18B
330
36
100
AcDbEntity
  8
0
 62
     3
100
AcDbLine
 10
10.482012
 20
11.99672891433528
 30
0.0
 11
24.482012
 21
18.63791491433528
 31
0.0
  0
ARC
  5
18C
330
36
100
AcDbEntity
  8
0
 62
     3
100
AcDbCircle
 10
25.482012
 20
15.79185691433528
 30
0.0
 40
1.0
100
AcDbArc
 50
180.0
 51
0.0
  0
ARC
  5
18D
330
36
100
AcDbEntity
  8
0
 62
     3
100
AcDbCircle
 10
9.482011999999999
 20
8.291856914335285
 30
0.0
 40
1.0
100
AcDbArc
 50
180.0
 51
0.0
  0
ARC
  5
18E
330
36
100
AcDbEntity
  8
0
 62
     3
100
AcDbCircle
 10
-6.517987999999999
 20
6.208522914335284
 30
0.0
 40
1.0
100
AcDbArc
 50
180.0
 51
0.0
  0
ARC
  5
18F
330
36
100
AcDbEntity
  8
0
 62
     3
100
AcDbCircle
 10
-22.517988
 20
4.125189914335285
 30
0.0
 40
1.0
100
AcDbArc
 50
180.0
 51
0.0
  0
LINE
  5
190
330
36
100
AcDbEntity
  8
0
 62
     3
100
AcDbLine
 10
-23.517988
 20
7.028747914335285
 30
0.0
 11
-37.517988
 21
5.205830914335285
 31
0.0
  0
LINE
  5
191
330
36
100
AcDbEntity
  8
0
 62
     3
100
AcDbLine
 10
8.482011999999999
 20
9.178530914335283
 30
0.0
 11
-5.517987999999999
 21
7.355614914335285
 31
0.0
  0
LINE
  5
192
330
36
100
AcDbEntity
  8
0
 62
     3
100
AcDbLine
 10
-7.517988
 20
7.095197914335285
 30
0.0
 11
-21.517988
 21
5.272280914335284
 31
0.0
  0
LINE
  5
193
330
36
100
AcDbEntity
  8
0
 62
     3
100
AcDbLine
 10
8.482011999999999
 20
11.19541391433528
 30
0.0
 11
-5.517987999999999
 21
9.372497914335282
 31
0.0
  0
LINE
  5
194
330
36
100
AcDbEntity
  8
0
 62
     3
100
AcDbLine
 10
-7.517988
 20
9.112080914335283
 30
0.0
 11
-21.517988
 21
7.289163914335284
 31
0.0
  0
LINE
  5
195
330
36
100
AcDbEntity
  8
0
 62
     3
100
AcDbLine
 10
45.925262
 20
22.36712991433529
 30
0.0
 11
45.925262
 21
23.54185691433528
 31
0.0
  0
LINE
  5
196
330
36
100
AcDbEntity
  8
0
 62
     3
100
AcDbLine
 10
41.48201199999999
 20
21.54185691433529
 30
0.0
 11
44.940645
 21
21.54185691433529
 31
0.0
  0
LINE
  5
197
330
36
100
AcDbEntity
  8
0
 62
     3
100
AcDbLine
 10
50.684798
 20
23.54185691433528
 30
0.0
 11
38.184798
 21
23.54185691433528
 31
0.0
  0
ARC
  5
198
330
36
100
AcDbEntity
  8
0
 62
     3
100
AcDbCircle
 10
44.940645
 20
22.54185691433528
 30
0.0
 40
1.0
100
AcDbArc
 50
270.0
 51
10.06272499999996
  0
ARC
  5
199
330
36
100
AcDbEntity
  8
0
 62
     3
100
AcDbCircle
 10
39.482012
 20
20.54185691433529
 30
0.0
 40
1.0
100
AcDbArc
 50
270.0
 51
0.0
  0
ARC
  5
19A
330
36
100
AcDbEntity
  8
0
 62
     3
100
AcDbCircle
 10
41.48201199999999
 20
20.54185691433529
 30
0.0
 40
1.0
100
AcDbArc
 50
90.0
 51
180.0
  0
LINE
  5
19B
330
36
100
AcDbEntity
  8
0
 62
     3
100
AcDbLine
 10
38.184798
 20
21.54185691433529
 30
0.0
 11
38.184798
 21
23.54185691433528
 31
0.0
  0
LINE
  5
19C
330
36
100
AcDbEntity
  8
0
 62
     3
100
AcDbLine
 10
26.482012
 20
17.37303691433528
 30
0.0
 11
39.482012
 21
19.54185691433528
 31
0.0
  0
LINE
  5
19D
330
36
100
AcDbEntity
  8
0
 62
     3
100
AcDbLine
 10
38.184798
 20
21.35308091433529
 30
0.0
 11
26.482012
 21
19.40067891433528
 31
0.0
  0
LINE
  5
19E
330
36
100
AcDbEntity
  8
0
 62
     3
100
AcDbLine
 10
8.482011999999999
 20
8.291856914335285
 30
0.0
 11
8.482011999999999
 21
37.2918569143353
 31
0.0
  0
LINE
  5
19F
330
36
100
AcDbEntity
  8
0
 62
     3
100
AcDbLine
 10
41.48201199999999
 20
21.54185691433529
 30
0.0
 11
38.184798
 21
21.54185691433529
 31
0.0
  0
LINE
  5
1A0
330
36
100
AcDbEntity
  8
0
 62
     3
100
AcDbLine
 10
38.184798
 20
28.10124991433529
 30
0.0
 11
38.184798
 21
36.54185691433529
 31
0.0
  0
ARC
  5
1A1
330
36
100
AcDbEntity
  8
0
 62
     3
100
AcDbCircle
 10
50.684798
 20
24.04185691433529
 30
0.0
 40
0.5
100
AcDbArc
 50
270.0
 51
0.0
  0
LINE
  5
1A2
330
36
100
AcDbEntity
  8
0
 62
     3
100
AcDbLine
 10
38.31369
 20
25.70531591433529
 30
0.0
 11
26.482012
 21
24.47284991433529
 31
0.0
  0
LINE
  5
1A3
330
36
100
AcDbEntity
  8
0
 62
     3
100
AcDbLine
 10
24.482012
 20
23.72066891433529
 30
0.0
 11
10.482012
 21
18.45540291433528
 31
0.0
  0
LINE
  5
1A4
330
36
100
AcDbEntity
  8
0
 62
     3
100
AcDbLine
 10
24.482012
 20
25.32324491433529
 30
0.0
 11
10.482012
 21
20.05797891433529
 31
0.0
  0
LINE
  5
1A5
330
36
100
AcDbEntity
  8
0
 62
     3
100
AcDbLine
 10
37.288404
 20
27.10663191433529
 30
0.0
 11
26.482012
 21
25.98096591433528
 31
0.0
  0
LINE
  5
1A6
330
36
100
AcDbEntity
  8
0
 62
     3
100
AcDbLine
 10
-23.517988
 20
15.07113591433528
 30
0.0
 11
-37.517988
 21
13.67761391433528
 31
0.0
  0
LINE
  5
1A7
330
36
100
AcDbEntity
  8
0
 62
     3
100
AcDbLine
 10
-23.517988
 20
16.57854791433528
 30
0.0
 11
-37.517988
 21
15.18502591433528
 31
0.0
  0
LINE
  5
1A8
330
36
100
AcDbEntity
  8
0
 62
     3
100
AcDbLine
 10
8.482011999999999
 20
18.25632791433529
 30
0.0
 11
-5.517987999999999
 21
16.86280691433528
 31
0.0
  0
LINE
  5
1A9
330
36
100
AcDbEntity
  8
0
 62
     3
100
AcDbLine
 10
-7.517988
 20
16.66373191433528
 30
0.0
 11
-21.517988
 21
15.27020991433528
 31
0.0
  0
LINE
  5
1AA
330
36
100
AcDbEntity
  8
0
 62
     3
100
AcDbLine
 10
8.482011999999999
 20
19.76374091433528
 30
0.0
 11
-5.517987999999999
 21
18.37021891433528
 31
0.0
  0
LINE
  5
1AB
330
36
100
AcDbEntity
  8
0
 62
     3
100
AcDbLine
 10
-7.517988
 20
18.17114391433528
 30
0.0
 11
-21.517988
 21
16.77762291433528
 31
0.0
  0
LINE
  5
1AC
330
36
100
AcDbEntity
  8
0
 62
     3
100
AcDbLine
 10
39.210083
 20
26.69993491433528
 30
0.0
 11
39.210083
 21
28.10124991433529
 31
0.0
  0
ARC
  5
1AD
330
36
100
AcDbEntity
  8
0
 62
     3
100
AcDbCircle
 10
37.184798
 20
28.10124991433529
 30
0.0
 40
1.0
100
AcDbArc
 50
275.946863
 51
0.0
  0
ARC
  5
1AE
330
36
100
AcDbEntity
  8
0
 62
     3
100
AcDbCircle
 10
38.21008300000001
 20
26.69993491433528
 30
0.0
 40
1.0
100
AcDbArc
 50
275.946863
 51
0.0
  0
LINE
  5
1AF
330
36
100
AcDbEntity
  8
0
 62
     3
100
AcDbLine
 10
38.184798
 20
25.69188991433529
 30
0.0
 11
38.184798
 21
23.54185691433528
 31
0.0
  0
LINE
  5
1B0
330
36
100
AcDbEntity
  8
0
 62
     3
100
AcDbLine
 10
38.184798
 20
28.10124991433529
 30
0.0
 11
39.210083
 21
28.10124991433529
 31
0.0
  0
ARC
  5
1B1
330
36
100
AcDbEntity
  8
0
 62
     3
100
AcDbCircle
 10
38.46008300000001
 20
37.2918569143353
 30
0.0
 40
0.75
100
AcDbArc
 50
270.0
 51
0.0
  0
LINE
  5
1B2
330
36
100
AcDbEntity
  8
0
 62
     3
100
AcDbLine
 10
38.46008300000001
 20
36.54185691433529
 30
0.0
 11
26.482012
 21
36.54185691433529
 31
0.0
  0
LINE
  5
1B3
330
36
100
AcDbEntity
  8
0
 62
     3
100
AcDbLine
 10
24.482012
 20
36.54185691433529
 30
0.0
 11
10.482012
 21
36.54185691433529
 31
0.0
  0
LINE
  5
1B4
330
36
100
AcDbEntity
  8
0
 62
     3
100
AcDbLine
 10
8.482011999999999
 20
36.54185691433529
 30
0.0
 11
-5.517987999999999
 21
36.54185691433529
 31
0.0
  0
LINE
  5
1B5
330
36
100
AcDbEntity
  8
0
 62
     3
100
AcDbLine
 10
-7.517988
 20
36.54185691433529
 30
0.0
 11
-21.517988
 21
36.54185691433529
 31
0.0
  0
LINE
  5
1B6
330
36
100
AcDbEntity
  8
0
 62
     3
100
AcDbLine
 10
-23.517988
 20
36.54185691433529
 30
0.0
 11
-37.517988
 21
36.54185691433529
 31
0.0
  0
LINE
  5
1B7
330
36
100
AcDbEntity
  8
0
 62
     3
100
AcDbLine
 10
43.200631
 20
38.04185691433529
 30
0.0
 11
47.54559699999999
 21
38.04185691433529
 31
0.0
  0
LINE
  5
1B8
330
36
100
AcDbEntity
  8
0
 62
     3
100
AcDbLine
 10
43.200631
 20
36.54185691433529
 30
0.0
 11
47.54559699999999
 21
36.54185691433529
 31
0.0
  0
LINE
  5
1B9
330
36
100
AcDbEntity
  8
0
 62
     3
100
AcDbLine
 10
41.14320399999999
 20
44.35079991433528
 30
0.0
 11
51.184798
 21
44.35079991433528
 31
0.0
  0
LINE
  5
1BA
330
36
100
AcDbEntity
  8
0
 62
     3
100
AcDbLine
 10
41.14320399999999
 20
42.96646591433527
 30
0.0
 11
51.184798
 21
42.96646591433527
 31
0.0
  0
LINE
  5
1BB
330
36
100
AcDbEntity
  8
0
 62
     3
100
AcDbLine
 10
41.14320399999999
 20
44.35079991433528
 30
0.0
 11
41.14320399999999
 21
42.96646591433527
 31
0.0
  0
LINE
  5
1BC
330
36
100
AcDbEntity
  8
0
 62
     3
100
AcDbLine
 10
41.14320399999999
 20
31.61724691433529
 30
0.0
 11
51.184798
 21
31.61724691433529
 31
0.0
  0
LINE
  5
1BD
330
36
100
AcDbEntity
  8
0
 62
     3
100
AcDbLine
 10
41.14320399999999
 20
30.23291291433528
 30
0.0
 11
41.14320399999999
 21
31.61724691433529
 31
0.0
  0
LINE
  5
1BE
330
36
100
AcDbEntity
  8
0
 62
     3
100
AcDbLine
 10
41.14320399999999
 20
30.23291291433528
 30
0.0
 11
51.184798
 21
30.23291291433528
 31
0.0
  0
LINE
  5
1BF
330
36
100
AcDbEntity
  8
0
 62
     3
100
AcDbLine
 10
51.184798
 20
50.54185691433527
 30
0.0
 11
51.184798
 21
44.35079991433528
 31
0.0
  0
LINE
  5
1C0
330
36
100
AcDbEntity
  8
0
 62
     3
100
AcDbLine
 10
51.184798
 20
42.96646591433527
 30
0.0
 11
51.184798
 21
37.2918569143353
 31
0.0
  0
LINE
  5
1C1
330
36
100
AcDbEntity
  8
0
 62
     3
100
AcDbLine
 10
51.184798
 20
24.04185691433529
 30
0.0
 11
51.184798
 21
30.23291291433528
 31
0.0
  0
LINE
  5
1C2
330
36
100
AcDbEntity
  8
0
 62
     3
100
AcDbLine
 10
51.184798
 20
31.61724691433529
 30
0.0
 11
51.184798
 21
37.2918569143353
 31
0.0
  0
ARC
  5
1C3
330
36
100
AcDbEntity
  8
0
 62
     3
100
AcDbCircle
 10
43.200631
 20
37.2918569143353
 30
0.0
 40
0.75
100
AcDbArc
 50
90.0
 51
270.0
  0
ARC
  5
1C4
330
36
100
AcDbEntity
  8
0
 62
     3
100
AcDbCircle
 10
47.54559699999999
 20
37.2918569143353
 30
0.0
 40
0.75
100
AcDbArc
 50
270.0
 51
90.0
  0
LINE
  5
1C5
330
36
100
AcDbEntity
  8
0
  6
PHANTOM
 62
     2
100
AcDbLine
 10
24.206593
 20
51.54623191433529
 30
0.0
 11
24.206593
 21
23.04623191433528
 31
0.0
  0
LINE
  5
1C6
330
36
100
AcDbEntity
  8
0
  6
PHANTOM
 62
     2
100
AcDbLine
 10
11.706593
 20
51.54623191433529
 30
0.0
 11
11.706593
 21
23.04623191433528
 31
0.0
  0
LINE
  5
1C7
330
36
100
AcDbEntity
  8
0
  6
PHANTOM
 62
     2
100
AcDbLine
 10
11.706593
 20
48.54623191433528
 30
0.0
 11
9.354575999999999
 21
48.54623191433528
 31
0.0
  0
LINE
  5
1C8
330
36
100
AcDbEntity
  8
0
  6
PHANTOM
 62
     2
100
AcDbLine
 10
11.706593
 20
41.04623191433527
 30
0.0
 11
9.354575999999999
 21
41.04623191433527
 31
0.0
  0
LINE
  5
1C9
330
36
100
AcDbEntity
  8
0
  6
PHANTOM
 62
     2
100
AcDbLine
 10
11.706593
 20
33.54623191433528
 30
0.0
 11
9.456592999999999
 21
33.54623191433528
 31
0.0
  0
LINE
  5
1CA
330
36
100
AcDbEntity
  8
0
  6
PHANTOM
 62
     2
100
AcDbLine
 10
11.706593
 20
26.04623191433529
 30
0.0
 11
9.456592999999999
 21
26.04623191433529
 31
0.0
  0
LINE
  5
1CB
330
36
100
AcDbEntity
  8
0
  6
PHANTOM
 62
     2
100
AcDbLine
 10
9.456592999999999
 20
48.54623191433528
 30
0.0
 11
9.456592999999999
 21
41.04623191433527
 31
0.0
  0
LINE
  5
1CC
330
36
100
AcDbEntity
  8
0
  6
PHANTOM
 62
     2
100
AcDbLine
 10
9.456592999999999
 20
33.54623191433528
 30
0.0
 11
9.456592999999999
 21
26.04623191433529
 31
0.0
  0
LINE
  5
1CD
330
36
100
AcDbEntity
  8
0
  6
PHANTOM
 62
     2
100
AcDbLine
 10
33.206593
 20
30.29623191433528
 30
0.0
 11
24.206593
 21
23.04623191433528
 31
0.0
  0
LINE
  5
1CE
330
36
100
AcDbEntity
  8
0
  6
PHANTOM
 62
     2
100
AcDbLine
 10
24.206593
 20
51.54623191433529
 30
0.0
 11
11.706593
 21
51.54623191433529
 31
0.0
  0
LINE
  5
1CF
330
36
100
AcDbEntity
  8
0
  6
PHANTOM
 62
     2
100
AcDbLine
 10
24.206593
 20
23.04623191433528
 30
0.0
 11
11.706593
 21
23.04623191433528
 31
0.0
  0
LINE
  5
1D0
330
36
100
AcDbEntity
  8
0
  6
PHANTOM
 62
     2
100
AcDbLine
 10
16.20659299999999
 20
51.54623191433529
 30
0.0
 11
16.20659299999999
 21
23.04623191433528
 31
0.0
  0
LINE
  5
1D1
330
36
100
AcDbEntity
  8
0
  6
PHANTOM
 62
     2
100
AcDbLine
 10
16.706593
 20
51.54623191433529
 30
0.0
 11
16.706593
 21
23.04623191433528
 31
0.0
  0
LINE
  5
1D2
330
36
100
AcDbEntity
  8
0
  6
PHANTOM
 62
     2
100
AcDbLine
 10
-32.793407
 20
26.04623191433529
 30
0.0
 11
-29.293407
 21
48.54623191433528
 31
0.0
  0
LINE
  5
1D3
330
36
100
AcDbEntity
  8
0
  6
PHANTOM
 62
     2
100
AcDbLine
 10
-26.758048
 20
26.04623191433529
 30
0.0
 11
-23.293407
 21
48.54623191433528
 31
0.0
  0
LINE
  5
1D4
330
36
100
AcDbEntity
  8
0
  6
PHANTOM
 62
     2
100
AcDbLine
 10
-25.793407
 20
26.04623191433529
 30
0.0
 11
-22.293407
 21
48.54623191433528
 31
0.0
  0
LINE
  5
1D5
330
36
100
AcDbEntity
  8
0
  6
PHANTOM
 62
     2
100
AcDbLine
 10
-19.793407
 20
26.04623191433529
 30
0.0
 11
-16.293407
 21
48.54623191433528
 31
0.0
  0
LINE
  5
1D6
330
36
100
AcDbEntity
  8
0
  6
PHANTOM
 62
     2
100
AcDbLine
 10
-18.793407
 20
26.04623191433529
 30
0.0
 11
-15.293407
 21
48.54623191433528
 31
0.0
  0
LINE
  5
1D7
330
36
100
AcDbEntity
  8
0
  6
PHANTOM
 62
     2
100
AcDbLine
 10
-12.793407
 20
26.04623191433529
 30
0.0
 11
-9.293407
 21
48.54623191433528
 31
0.0
  0
LINE
  5
1D8
330
36
100
AcDbEntity
  8
0
  6
PHANTOM
 62
     2
100
AcDbLine
 10
-11.793407
 20
26.04623191433529
 30
0.0
 11
-8.293407
 21
48.54623191433528
 31
0.0
  0
LINE
  5
1D9
330
36
100
AcDbEntity
  8
0
  6
PHANTOM
 62
     2
100
AcDbLine
 10
-5.793407
 20
26.04623191433529
 30
0.0
 11
-2.293406999999999
 21
48.54623191433528
 31
0.0
  0
LINE
  5
1DA
330
36
100
AcDbEntity
  8
0
  6
PHANTOM
 62
     2
100
AcDbLine
 10
-4.793407
 20
26.04623191433529
 30
0.0
 11
-1.293406999999997
 21
48.54623191433528
 31
0.0
  0
ARC
  5
1DB
330
36
100
AcDbEntity
  8
0
  6
PHANTOM
 62
     2
100
AcDbCircle
 10
1.706592999999999
 20
48.54623191433528
 30
0.0
 40
3.0
100
AcDbArc
 50
342.3163709999999
 51
180.0
  0
ARC
  5
1DC
330
36
100
AcDbEntity
  8
0
  6
PHANTOM
 62
     2
100
AcDbCircle
 10
-5.293407
 20
48.54623191433528
 30
0.0
 40
3.0
100
AcDbArc
 50
342.3163709999999
 51
180.0
  0
ARC
  5
1DD
330
36
100
AcDbEntity
  8
0
  6
PHANTOM
 62
     2
100
AcDbCircle
 10
-12.293407
 20
48.54623191433528
 30
0.0
 40
3.0
100
AcDbArc
 50
342.3163709999999
 51
180.0
  0
ARC
  5
1DE
330
36
100
AcDbEntity
  8
0
  6
PHANTOM
 62
     2
100
AcDbCircle
 10
-19.293407
 20
48.54623191433528
 30
0.0
 40
3.0
100
AcDbArc
 50
342.3163709999999
 51
180.0
  0
ARC
  5
1DF
330
36
100
AcDbEntity
  8
0
  6
PHANTOM
 62
     2
100
AcDbCircle
 10
-26.293407
 20
48.54623191433528
 30
0.0
 40
3.0
100
AcDbArc
 50
342.492236
 51
180.0
  0
ARC
  5
1E0
330
36
100
AcDbEntity
  8
0
  6
PHANTOM
 62
     2
100
AcDbCircle
 10
-1.793407
 20
26.04623191433529
 30
0.0
 40
3.0
100
AcDbArc
 50
162.316371
 51
0.0
  0
ARC
  5
1E1
330
36
100
AcDbEntity
  8
0
  6
PHANTOM
 62
     2
100
AcDbCircle
 10
-8.793407
 20
26.04623191433529
 30
0.0
 40
3.0
100
AcDbArc
 50
162.316371
 51
0.0
  0
ARC
  5
1E2
330
36
100
AcDbEntity
  8
0
  6
PHANTOM
 62
     2
100
AcDbCircle
 10
-15.793407
 20
26.04623191433529
 30
0.0
 40
3.0
100
AcDbArc
 50
162.316371
 51
0.0
  0
ARC
  5
1E3
330
36
100
AcDbEntity
  8
0
  6
PHANTOM
 62
     2
100
AcDbCircle
 10
-22.793407
 20
26.04623191433529
 30
0.0
 40
3.0
100
AcDbArc
 50
162.316371
 51
0.0
  0
ARC
  5
1E4
330
36
100
AcDbEntity
  8
0
  6
PHANTOM
 62
     2
100
AcDbCircle
 10
-29.793407
 20
26.04623191433529
 30
0.0
 40
3.0
100
AcDbArc
 50
162.316371
 51
351.246118
  0
LINE
  5
1E5
330
36
100
AcDbEntity
  8
0
  6
PHANTOM
 62
     2
100
AcDbLine
 10
-32.793407
 20
26.04623191433529
 30
0.0
 11
-36.293407
 21
46.04623191433527
 31
0.0
  0
ARC
  5
1E6
330
36
100
AcDbEntity
  8
0
  6
PHANTOM
 62
     2
100
AcDbCircle
 10
-33.293407
 20
46.04623191433527
 30
0.0
 40
3.0
100
AcDbArc
 50
0.0
 51
180.0
  0
LINE
  5
1E7
330
36
100
AcDbEntity
  8
0
  6
PHANTOM
 62
     2
100
AcDbLine
 10
1.171646999999998
 20
25.58966091433529
 30
0.0
 11
4.706592999999998
 21
48.54623191433528
 31
0.0
  0
ARC
  5
1E8
330
36
100
AcDbEntity
  8
0
  6
PHANTOM
 62
     2
100
AcDbCircle
 10
6.935164999999997
 20
44.59949791433529
 30
0.0
 40
2.803265999999998
100
AcDbArc
 50
171.246118
 51
270.0
  0
ARC
  5
1E9
330
36
100
AcDbEntity
  8
0
  6
PHANTOM
 62
     2
100
AcDbCircle
 10
6.085501999999999
 20
49.43882391433529
 30
0.0
 40
1.642592999999999
100
AcDbArc
 50
212.915717
 51
270.0
  0
ARC
  5
1EA
330
36
100
AcDbEntity
  8
0
  6
PHANTOM
 62
     2
100
AcDbCircle
 10
4.938285999999997
 20
20.31365291433528
 30
0.0
 40
6.482578
100
AcDbArc
 50
90.0
 51
125.523742
  0
ARC
  5
1EB
330
36
100
AcDbEntity
  8
0
  6
PHANTOM
 62
     2
100
AcDbCircle
 10
5.565261
 20
28.96793891433528
 30
0.0
 40
3.828293
100
AcDbArc
 50
90.0
 51
171.246118
  0
LINE
  5
1EC
330
36
100
AcDbEntity
  8
0
  6
PHANTOM
 62
     2
100
AcDbLine
 10
9.456592999999999
 20
47.79623191433528
 30
0.0
 11
5.891935
 21
47.79623191433528
 31
0.0
  0
LINE
  5
1ED
330
36
100
AcDbEntity
  8
0
  6
PHANTOM
 62
     2
100
AcDbLine
 10
9.456592999999999
 20
41.79623191433528
 30
0.0
 11
6.935164999999997
 21
41.79623191433528
 31
0.0
  0
LINE
  5
1EE
330
36
100
AcDbEntity
  8
0
  6
PHANTOM
 62
     2
100
AcDbLine
 10
9.456592999999999
 20
32.79623191433528
 30
0.0
 11
5.059269
 21
32.79623191433528
 31
0.0
  0
LINE
  5
1EF
330
36
100
AcDbEntity
  8
0
  6
PHANTOM
 62
     2
100
AcDbLine
 10
9.456592999999999
 20
26.79623191433528
 30
0.0
 11
5.059269
 21
26.79623191433528
 31
0.0
  0
LINE
  5
1F0
330
36
100
AcDbEntity
  8
0
 62
     3
100
AcDbLine
 10
-19.517988
 20
80.92248491433528
 30
0.0
 11
-2.267987999999999
 21
80.92248491433528
 31
0.0
  0
LINE
  5
1F1
330
36
100
AcDbEntity
  8
0
 62
     3
100
AcDbLine
 10
-1.017987999999999
 20
79.67248491433529
 30
0.0
 11
-1.017987999999999
 21
78.17143891433528
 31
0.0
  0
LINE
  5
1F2
330
36
100
AcDbEntity
  8
0
 62
     3
100
AcDbLine
 10
-3.517987999999999
 20
78.17143891433528
 30
0.0
 11
-3.517987999999999
 21
78.42248491433529
 31
0.0
  0
LINE
  5
1F3
330
36
100
AcDbEntity
  8
0
 62
     3
100
AcDbLine
 10
-19.078483
 20
77.47942491433528
 30
0.0
 11
-3.517987999999999
 21
78.42248491433529
 31
0.0
  0
ARC
  5
1F4
330
36
100
AcDbEntity
  8
0
 62
     3
100
AcDbCircle
 10
-2.267987999999999
 20
78.17143891433528
 30
0.0
 40
1.25
100
AcDbArc
 50
180.0
 51
0.0
  0
ARC
  5
1F5
330
36
100
AcDbEntity
  8
0
 62
     3
100
AcDbCircle
 10
-2.267987999999999
 20
79.67248491433529
 30
0.0
 40
1.25
100
AcDbArc
 50
0.0
 51
90.0
  0
ARC
  5
1F6
330
36
100
AcDbEntity
  8
0
 62
     3
100
AcDbCircle
 10
-19.517988
 20
76.92248491433528
 30
0.0
 40
4.0
100
AcDbArc
 50
90.0
 51
180.0
  0
ARC
  5
1F7
330
36
100
AcDbEntity
  8
0
 62
     3
100
AcDbCircle
 10
-19.017988
 20
76.48125691433527
 30
0.0
 40
1.0
100
AcDbArc
 50
93.46822899999999
 51
180.0
  0
LINE
  5
1F8
330
36
100
AcDbEntity
  8
0
 62
     3
100
AcDbLine
 10
-20.017988
 20
76.48125691433527
 30
0.0
 11
-20.017988
 21
67.09923691433528
 31
0.0
  0
LINE
  5
1F9
330
36
100
AcDbEntity
  8
0
 62
     3
100
AcDbLine
 10
108.203763
 20
14.07144891433528
 30
0.0
 11
98.45376299999999
 21
14.07144891433528
 31
0.0
  0
LINE
  5
1FA
330
36
100
AcDbEntity
  8
0
 62
     3
100
AcDbLine
 10
113.203763
 20
19.07144891433528
 30
0.0
 11
113.203763
 21
27.09185691433529
 31
0.0
  0
LINE
  5
1FB
330
36
100
AcDbEntity
  8
0
 62
     3
100
AcDbLine
 10
108.203763
 20
20.57144891433528
 30
0.0
 11
108.203763
 21
27.04185691433528
 31
0.0
  0
LINE
  5
1FC
330
36
100
AcDbEntity
  8
0
 62
     3
100
AcDbLine
 10
104.203763
 20
16.57144891433528
 30
0.0
 11
98.45376299999999
 21
16.57144891433528
 31
0.0
  0
ARC
  5
1FD
330
36
100
AcDbEntity
  8
0
 62
     3
100
AcDbCircle
 10
108.203763
 20
19.07144891433528
 30
0.0
 40
5.0
100
AcDbArc
 50
270.0
 51
0.0
  0
ARC
  5
1FE
330
36
100
AcDbEntity
  8
0
 62
     3
100
AcDbCircle
 10
104.203763
 20
20.57144891433528
 30
0.0
 40
4.0
100
AcDbArc
 50
270.0
 51
0.0
  0
ARC
  5
1FF
330
36
100
AcDbEntity
  8
0
 62
     3
100
AcDbCircle
 10
98.45376299999999
 20
15.32144891433528
 30
0.0
 40
1.25
100
AcDbArc
 50
90.0
 51
270.0
  0
LINE
  5
200
330
36
100
AcDbEntity
  8
0
 62
     3
100
AcDbLine
 10
34.706593
 20
44.29623191433528
 30
0.0
 11
34.706593
 21
38.04185691433529
 31
0.0
  0
LINE
  5
201
330
36
100
AcDbEntity
  8
0
 62
     3
100
AcDbLine
 10
34.706593
 20
36.54185691433529
 30
0.0
 11
34.706593
 21
30.29623191433528
 31
0.0
  0
LINE
  5
202
330
36
100
AcDbEntity
  8
0
 62
     3
100
AcDbLine
 10
166.864591
 20
-0.4402990856647159
 30
0.0
 11
166.864591
 21
6.059700914335284
 31
0.0
  0
LINE
  5
203
330
36
100
AcDbEntity
  8
0
 62
     3
100
AcDbLine
 10
166.364591
 20
-0.4402990856647159
 30
0.0
 11
166.864591
 21
-0.4402990856647159
 31
0.0
  0
LINE
  5
204
330
36
100
AcDbEntity
  8
0
 62
     3
100
AcDbLine
 10
152.031603
 20
1.559700914335284
 30
0.0
 11
150.864591
 21
1.559700914335284
 31
0.0
  0
LINE
  5
205
330
36
100
AcDbEntity
  8
0
 62
     3
100
AcDbLine
 10
150.245122
 20
1.978959914335283
 30
0.0
 11
150.864591
 21
1.559700914335284
 31
0.0
  0
ARC
  5
206
330
36
100
AcDbEntity
  8
0
 62
     3
100
AcDbCircle
 10
166.364591
 20
0.5597009143352844
 30
0.0
 40
1.0
100
AcDbArc
 50
180.0
 51
270.0
  0
ARC
  5
207
330
36
100
AcDbEntity
  8
0
 62
     3
100
AcDbCircle
 10
167.148675
 20
41.62216291433529
 30
0.0
 40
41.101201
100
AcDbArc
 50
251.878132
 51
267.512175
  0
ARC
  5
208
330
36
100
AcDbEntity
  8
0
 62
     3
100
AcDbCircle
 10
153.815162
 20
0.6200969143352851
 30
0.0
 40
2.015921
100
AcDbArc
 50
69.78762100000001
 51
152.219096
  0
LINE
  5
209
330
36
100
AcDbEntity
  8
0
 62
     3
100
AcDbLine
 10
133.417661
 20
4.509700914335284
 30
0.0
 11
144.364591
 21
4.509700914335284
 31
0.0
  0
LINE
  5
20A
330
36
100
AcDbEntity
  8
0
 62
     3
100
AcDbLine
 10
145.245122
 20
2.685308914335285
 30
0.0
 11
144.364591
 21
2.809700914335284
 31
0.0
  0
LINE
  5
20B
330
36
100
AcDbEntity
  8
0
 62
     3
100
AcDbLine
 10
147.245122
 20
2.402768914335285
 30
0.0
 11
146.245122
 21
2.544038914335284
 31
0.0
  0
LINE
  5
20C
330
36
100
AcDbEntity
  8
0
 62
     3
100
AcDbLine
 10
149.245122
 20
2.120228914335283
 30
0.0
 11
148.245122
 21
2.261498914335283
 31
0.0
  0
LINE
  5
20D
330
36
100
AcDbEntity
  8
0
 62
     3
100
AcDbLine
 10
146.245122
 20
3.091520914335283
 30
0.0
 11
145.245122
 21
3.211520914335285
 31
0.0
  0
LINE
  5
20E
330
36
100
AcDbEntity
  8
0
 62
     3
100
AcDbLine
 10
150.245122
 20
2.611520914335284
 30
0.0
 11
149.245122
 21
2.731520914335283
 31
0.0
  0
LINE
  5
20F
330
36
100
AcDbEntity
  8
0
 62
     3
100
AcDbLine
 10
148.245122
 20
2.851520914335281
 30
0.0
 11
147.245122
 21
2.971520914335281
 31
0.0
  0
LINE
  5
210
330
36
100
AcDbEntity
  8
0
 62
     3
100
AcDbLine
 10
166.864591
 20
12.55970091433528
 30
0.0
 11
166.864591
 21
6.059700914335284
 31
0.0
  0
LINE
  5
211
330
36
100
AcDbEntity
  8
0
 62
     3
100
AcDbLine
 10
166.364591
 20
12.55970091433528
 30
0.0
 11
166.864591
 21
12.55970091433528
 31
0.0
  0
LINE
  5
212
330
36
100
AcDbEntity
  8
0
 62
     3
100
AcDbLine
 10
152.031603
 20
10.55970091433528
 30
0.0
 11
150.864591
 21
10.55970091433528
 31
0.0
  0
LINE
  5
213
330
36
100
AcDbEntity
  8
0
 62
     3
100
AcDbLine
 10
150.245122
 20
10.14044291433528
 30
0.0
 11
150.864591
 21
10.55970091433528
 31
0.0
  0
ARC
  5
214
330
36
100
AcDbEntity
  8
0
 62
     3
100
AcDbCircle
 10
166.364591
 20
11.55970091433528
 30
0.0
 40
1.0
100
AcDbArc
 50
90.0
 51
180.0
  0
ARC
  5
215
330
36
100
AcDbEntity
  8
0
 62
     3
100
AcDbCircle
 10
167.148675
 20
-29.50276008566472
 30
0.0
 40
41.101201
100
AcDbArc
 50
92.487825
 51
108.121868
  0
ARC
  5
216
330
36
100
AcDbEntity
  8
0
 62
     3
100
AcDbCircle
 10
153.815162
 20
11.49930491433528
 30
0.0
 40
2.015921
100
AcDbArc
 50
207.7809039999999
 51
290.212379
  0
LINE
  5
217
330
36
100
AcDbEntity
  8
0
 62
     3
100
AcDbLine
 10
133.834813
 20
7.609700914335284
 30
0.0
 11
144.364591
 21
7.609700914335284
 31
0.0
  0
LINE
  5
218
330
36
100
AcDbEntity
  8
0
 62
     3
100
AcDbLine
 10
145.245122
 20
9.434093914335283
 30
0.0
 11
144.364591
 21
9.309700914335282
 31
0.0
  0
LINE
  5
219
330
36
100
AcDbEntity
  8
0
 62
     3
100
AcDbLine
 10
147.245122
 20
9.716633914335282
 30
0.0
 11
146.245122
 21
9.575363914335282
 31
0.0
  0
LINE
  5
21A
330
36
100
AcDbEntity
  8
0
 62
     3
100
AcDbLine
 10
149.245122
 20
9.999172914335282
 30
0.0
 11
148.245122
 21
9.857902914335282
 31
0.0
  0
LINE
  5
21B
330
36
100
AcDbEntity
  8
0
 62
     3
100
AcDbLine
 10
146.245122
 20
9.027881914335283
 30
0.0
 11
145.245122
 21
8.907881914335282
 31
0.0
  0
LINE
  5
21C
330
36
100
AcDbEntity
  8
0
 62
     3
100
AcDbLine
 10
150.245122
 20
9.507881914335282
 30
0.0
 11
149.245122
 21
9.387881914335283
 31
0.0
  0
LINE
  5
21D
330
36
100
AcDbEntity
  8
0
 62
     3
100
AcDbLine
 10
148.245122
 20
9.267881914335282
 30
0.0
 11
147.245122
 21
9.147881914335282
 31
0.0
  0
LINE
  5
21E
330
36
100
AcDbEntity
  8
0
 62
     3
100
AcDbLine
 10
160.639514
 20
8.106109914335284
 30
0.0
 11
160.639514
 21
4.013292914335282
 31
0.0
  0
ARC
  5
21F
330
36
100
AcDbEntity
  8
0
 62
     3
100
AcDbCircle
 10
167.148675
 20
41.62216291433529
 30
0.0
 40
39.35120100000001
100
AcDbArc
 50
251.878132
 51
258.708545
  0
ARC
  5
220
330
36
100
AcDbEntity
  8
0
 62
     3
100
AcDbCircle
 10
167.148675
 20
-29.50276008566472
 30
0.0
 40
39.35120100000001
100
AcDbArc
 50
101.291455
 51
108.121868
  0
LINE
  5
221
330
36
100
AcDbEntity
  8
0
 62
     3
100
AcDbLine
 10
154.908909
 20
4.222895914335285
 30
0.0
 11
154.908909
 21
7.896505914335285
 31
0.0
  0
ARC
  5
222
330
36
100
AcDbEntity
  8
0
 62
     3
100
AcDbCircle
 10
159.639514
 20
4.013292914335282
 30
0.0
 40
1.0
100
AcDbArc
 50
258.708545
 51
0.0
  0
ARC
  5
223
330
36
100
AcDbEntity
  8
0
 62
     3
100
AcDbCircle
 10
159.639514
 20
8.106109914335284
 30
0.0
 40
1.0
100
AcDbArc
 50
0.0
 51
101.291455
  0
ARC
  5
224
330
36
100
AcDbEntity
  8
0
 62
     3
100
AcDbCircle
 10
133.834813
 20
12.60970091433528
 30
0.0
 40
5.0
100
AcDbArc
 50
180.0
 51
270.0
  0
ARC
  5
225
330
36
100
AcDbEntity
  8
0
 62
     3
100
AcDbCircle
 10
120.317661
 20
30.74185691433529
 30
0.0
 40
5.0
100
AcDbArc
 50
0.0
 51
90.0
  0
ARC
  5
226
330
36
100
AcDbEntity
  8
0
 62
     3
100
AcDbCircle
 10
133.417661
 20
12.60970091433528
 30
0.0
 40
8.099999999999999
100
AcDbArc
 50
180.0
 51
270.0
  0
ARC
  5
227
330
36
100
AcDbEntity
  8
0
 62
     3
100
AcDbCircle
 10
120.734813
 20
30.74185691433529
 30
0.0
 40
8.099999999999999
100
AcDbArc
 50
0.0
 51
90.0
  0
LINE
  5
23A
330
36
100
AcDbEntity
  8
0
 62
     3
100
AcDbLine
 10
128.834813
 20
21.92443191433528
 30
0.0
 11
128.834813
 21
30.74185691433529
 31
0.0
  0
LINE
  5
23B
330
36
100
AcDbEntity
  8
0
 62
     3
100
AcDbLine
 10
125.317661
 20
19.64569991433528
 30
0.0
 11
125.317661
 21
12.60970091433528
 31
0.0
  0
LINE
  5
23C
330
36
100
AcDbEntity
  8
0
 62
     3
100
AcDbLine
 10
125.317661
 20
22.90544391433528
 30
0.0
 11
125.317661
 21
30.74185691433529
 31
0.0
  0
LINE
  5
23D
330
36
100
AcDbEntity
  8
0
 62
     3
100
AcDbLine
 10
128.834813
 20
20.60217791433529
 30
0.0
 11
128.834813
 21
12.60970091433528
 31
0.0
  0
LINE
  5
23E
330
36
100
AcDbEntity
  8
0
  6
PHANTOM
 62
     2
100
AcDbLine
 10
33.206593
 20
44.29623191433528
 30
0.0
 11
33.206593
 21
38.04185691433529
 31
0.0
  0
LINE
  5
23F
330
36
100
AcDbEntity
  8
0
  6
PHANTOM
 62
     2
100
AcDbLine
 10
24.206593
 20
51.54623191433529
 30
0.0
 11
33.206593
 21
44.29623191433528
 31
0.0
  0
LINE
  5
240
330
36
100
AcDbEntity
  8
0
  6
PHANTOM
 62
     2
100
AcDbLine
 10
33.206593
 20
36.54185691433529
 30
0.0
 11
33.206593
 21
30.29623191433528
 31
0.0
  0
LINE
  5
241
330
36
100
AcDbEntity
  8
0
  6
PHANTOM
 62
     2
100
AcDbLine
 10
34.706593
 20
30.29623191433528
 30
0.0
 11
33.206593
 21
30.29623191433528
 31
0.0
  0
LINE
  5
242
330
36
100
AcDbEntity
  8
0
  6
PHANTOM
 62
     2
100
AcDbLine
 10
34.706593
 20
44.29623191433528
 30
0.0
 11
33.206593
 21
44.29623191433528
 31
0.0
  0
TEXT
  5
243
330
36
100
AcDbEntity
  8
0
 62
     3
100
AcDbText
 10
107.428452
 20
-102.584277
 30
0.0
 40
4.5
  1
クリップランプ
  7
高4.5
100
AcDbText
  0
LINE
  5
244
330
36
100
AcDbEntity
  8
0
 62
     3
100
AcDbLine
 10
8.017236999999997
 20
94.15602791433528
 30
0.0
 11
14.777044
 21
91.51913991433529
 31
0.0
  0
LINE
  5
245
330
36
100
AcDbEntity
  8
0
 62
     3
100
AcDbLine
 10
4.268194999999998
 20
96.96020391433529
 30
0.0
 11
8.460702000000001
 21
95.32477691433529
 31
0.0
  0
LINE
  5
246
330
36
100
AcDbEntity
  8
0
 62
     3
100
AcDbLine
 10
4.268194999999998
 20
96.96020391433529
 30
0.0
 11
3.558651
 21
95.09020591433529
 31
0.0
  0
LINE
  5
247
330
36
100
AcDbEntity
  8
0
 62
     3
100
AcDbLine
 10
7.751158999999997
 20
93.4547789143353
 30
0.0
 11
8.460702000000001
 21
95.32477691433529
 31
0.0
  0
LINE
  5
248
330
36
100
AcDbEntity
  8
0
 62
     3
100
AcDbLine
 10
3.558651
 20
95.09020591433529
 30
0.0
 11
7.751158999999997
 21
93.4547789143353
 31
0.0
  0
ARC
  5
249
330
36
100
AcDbEntity
  8
0
 62
     3
100
AcDbCircle
 10
20.024536
 20
93.16650991433526
 30
0.0
 40
5.5
100
AcDbArc
 50
197.4288869999999
 51
321.776468
  0
LINE
  5
24A
330
36
100
AcDbEntity
  8
0
 62
     3
100
AcDbLine
 10
26.639585
 20
89.61102091433529
 30
0.0
 11
60.21051400000001
 21
68.79501891433527
 31
0.0
  0
LINE
  5
24B
330
36
100
AcDbEntity
  8
0
 62
     3
100
AcDbLine
 10
55.974311
 20
75.30462291433528
 30
0.0
 11
61.919224
 21
71.61841791433528
 31
0.0
  0
LINE
  5
24C
330
36
100
AcDbEntity
  8
0
 62
     3
100
AcDbLine
 10
54.700963
 20
75.15286591433529
 30
0.0
 11
40.72572199999997
 21
83.81835791433527
 31
0.0
  0
LINE
  5
24D
330
36
100
AcDbEntity
  8
0
 62
     3
100
AcDbLine
 10
61.919224
 20
71.61841791433528
 30
0.0
 11
60.21051400000001
 21
68.79501891433527
 31
0.0
  0
LINE
  5
24E
330
36
100
AcDbEntity
  8
0
 62
     3
100
AcDbLine
 10
40.069509
 20
84.22524991433528
 30
0.0
 11
40.72572199999997
 21
83.81835791433527
 31
0.0
  0
LINE
  5
24F
330
36
100
AcDbEntity
  8
0
 62
     3
100
AcDbLine
 10
31.711476
 20
90.83675891433529
 30
0.0
 11
32.971629
 21
91.89901391433528
 31
0.0
  0
LINE
  5
250
330
36
100
AcDbEntity
  8
0
 62
     3
100
AcDbLine
 10
39.623674
 20
85.30672691433528
 30
0.0
 11
40.908205
 21
90.70232691433529
 31
0.0
  0
ARC
  5
251
330
36
100
AcDbEntity
  8
0
 62
     3
100
AcDbCircle
 10
40.596486
 20
85.07512891433531
 30
0.0
 40
1.0
100
AcDbArc
 50
166.608867
 51
238.198591
  0
LINE
  5
252
330
36
100
AcDbEntity
  8
0
 62
     3
100
AcDbLine
 10
24.345352
 20
89.76348891433529
 30
0.0
 11
26.639585
 21
89.61102091433529
 31
0.0
  0
LINE
  5
253
330
36
100
AcDbEntity
  8
0
 62
     3
100
AcDbLine
 10
24.345352
 20
89.76348891433529
 30
0.0
 11
24.730462
 21
90.29796991433528
 31
0.0
  0
ARC
  5
254
330
36
100
AcDbEntity
  8
0
 62
     3
100
AcDbCircle
 10
55.710823
 20
74.87968291433528
 30
0.0
 40
0.5
100
AcDbArc
 50
58.19859100000001
 51
148.8178489999999
  0
ARC
  5
255
330
36
100
AcDbEntity
  8
0
 62
     3
100
AcDbCircle
 10
54.964451
 20
75.57780591433528
 30
0.0
 40
0.5
100
AcDbArc
 50
238.198591
 51
328.817849
  0
LINE
  5
256
330
36
100
AcDbEntity
  8
0
  6
HIDDEN
 62
    15
100
AcDbLine
 10
55.392214
 20
75.31892491433528
 30
0.0
 11
55.28306
 21
75.13856291433528
 31
0.0
  0
LINE
  5
257
330
36
100
AcDbEntity
  8
0
 62
     3
100
AcDbLine
 10
60.42133399999999
 20
69.14336891433528
 30
0.0
 11
72.036176
 21
61.94146591433528
 31
0.0
  0
LINE
  5
258
330
36
100
AcDbEntity
  8
0
 62
     3
100
AcDbLine
 10
61.715811
 20
71.2823079143353
 30
0.0
 11
73.36301299999998
 21
64.06033891433529
 31
0.0
  0
LINE
  5
259
330
36
100
AcDbEntity
  8
0
 62
     3
100
AcDbLine
 10
8.750227
 20
98.31301991433528
 30
0.0
 11
16.004237
 21
98.47889491433528
 31
0.0
  0
LINE
  5
25A
330
36
100
AcDbEntity
  8
0
 62
     3
100
AcDbLine
 10
4.268194999999998
 20
96.96020391433529
 30
0.0
 11
8.767211999999997
 21
97.06308191433528
 31
0.0
  0
LINE
  5
25B
330
36
100
AcDbEntity
  8
0
 62
     3
100
AcDbLine
 10
4.268194999999998
 20
96.96020391433529
 30
0.0
 11
4.241019
 21
98.9601059143353
 31
0.0
  0
LINE
  5
25C
330
36
100
AcDbEntity
  8
0
 62
     3
100
AcDbLine
 10
8.740035999999998
 20
99.06298291433529
 30
0.0
 11
8.767211999999997
 21
97.06308191433528
 31
0.0
  0
LINE
  5
25D
330
36
100
AcDbEntity
  8
0
 62
     3
100
AcDbLine
 10
4.241019
 20
98.9601059143353
 30
0.0
 11
8.740035999999998
 21
99.06298291433529
 31
0.0
  0
CIRCLE
  5
25E
330
36
100
AcDbEntity
  8
0
 62
     3
100
AcDbCircle
 10
37.43232000000001
 20
91.11247391433527
 30
0.0
 40
2.0
  0
ARC
  5
25F
330
36
100
AcDbEntity
  8
0
 62
     3
100
AcDbCircle
 10
20.371832
 20
95.13612491433526
 30
0.0
 40
5.5
100
AcDbArc
 50
18.22353199999997
 51
142.571113
  0
LINE
  5
260
330
36
100
AcDbEntity
  8
0
 62
     3
100
AcDbLine
 10
63.501341
 20
103.6731929143352
 30
0.0
 11
27.803994
 21
96.21471191433528
 31
0.0
  0
LINE
  5
261
330
36
100
AcDbEntity
  8
0
 62
     3
100
AcDbLine
 10
67.05794899999999
 20
101.3183919143352
 30
0.0
 11
67.109842
 21
101.0558809143353
 31
0.0
  0
LINE
  5
262
330
36
100
AcDbEntity
  8
0
 62
     3
100
AcDbLine
 10
32.150786
 20
93.32820591433529
 30
0.0
 11
34.61998400000001
 21
89.02902391433528
 31
0.0
  0
LINE
  5
263
330
36
100
AcDbEntity
  8
0
 62
     3
100
AcDbLine
 10
41.380163
 20
94.98105491433529
 30
0.0
 11
40.838862
 21
90.30906391433529
 31
0.0
  0
ARC
  5
264
330
36
100
AcDbEntity
  8
0
 62
     3
100
AcDbCircle
 10
29.549327
 20
91.83408091433529
 30
0.0
 40
3.0
100
AcDbArc
 50
29.87053300000003
 51
71.91908000000005
  0
LINE
  5
265
330
36
100
AcDbEntity
  8
0
 62
     3
100
AcDbLine
 10
25.595973
 20
96.85611291433529
 30
0.0
 11
27.803994
 21
96.21471191433528
 31
0.0
  0
LINE
  5
266
330
36
100
AcDbEntity
  8
0
 62
     3
100
AcDbLine
 10
25.595973
 20
96.85611291433529
 30
0.0
 11
25.775055
 21
96.2221499143353
 31
0.0
  0
LINE
  5
267
330
36
100
AcDbEntity
  8
0
 62
     3
100
AcDbLine
 10
42.16899799999999
 20
95.84482591433529
 30
0.0
 11
67.109842
 21
101.0558809143353
 31
0.0
  0
ARC
  5
268
330
36
100
AcDbEntity
  8
0
 62
     3
100
AcDbCircle
 10
42.37351799999999
 20
94.86596391433527
 30
0.0
 40
1.0
100
AcDbArc
 50
101.801409
 51
173.3911329999999
  0
ARC
  5
269
330
36
100
AcDbEntity
  8
0
 62
     3
100
AcDbCircle
 10
64.114902
 20
100.7366059143353
 30
0.0
 40
3.0
100
AcDbArc
 50
11.18215100000001
 51
101.801409
  0
ARC
  5
26A
330
36
100
AcDbEntity
  8
0
 62
     3
100
AcDbCircle
 10
37.43232000000001
 20
91.11247391433527
 30
0.0
 40
3.5
100
AcDbArc
 50
203.209074
 51
350.0
  0
LINE
  5
26B
330
36
100
AcDbEntity
  8
0
 62
     3
100
AcDbLine
 10
80.05967899999998
 20
47.79602591433529
 30
0.0
 11
77.243229
 21
47.79602591433529
 31
0.0
  0
LINE
  5
26C
330
36
100
AcDbEntity
  8
0
 62
     3
100
AcDbLine
 10
74.440597
 20
27.79602591433528
 30
0.0
 11
80.04586000000001
 21
27.79602591433528
 31
0.0
  0
LINE
  5
26E
330
36
100
AcDbEntity
  8
0
 62
     3
100
AcDbLine
 10
81.04440100000003
 20
28.74201191433529
 30
0.0
 11
82.34640256464128
 21
52.81144711857188
 31
0.0
  0
LINE
  5
26F
330
36
100
AcDbEntity
  8
0
 62
     3
100
AcDbLine
 10
73.44205699999998
 20
28.74201191433529
 30
0.0
 11
71.75125799999998
 21
59.99894591433527
 31
0.0
  0
ARC
  5
270
330
36
100
AcDbEntity
  8
0
 62
     3
100
AcDbCircle
 10
80.04586000000001
 20
28.79602591433529
 30
0.0
 40
1.0
100
AcDbArc
 50
270.0
 51
356.903685
  0
ARC
  5
271
330
36
100
AcDbEntity
  8
0
 62
     3
100
AcDbCircle
 10
74.440597
 20
28.79602591433529
 30
0.0
 40
1.0
100
AcDbArc
 50
183.096315
 51
270.0
  0
LINE
  5
272
330
36
100
AcDbEntity
  8
0
 62
     3
100
AcDbLine
 10
81.05943299999998
 20
48.77380991433528
 30
0.0
 11
81.061563
 21
48.86966091433528
 31
0.0
  0
ARC
  5
273
330
36
100
AcDbEntity
  8
0
 62
     3
100
AcDbCircle
 10
80.05967899999998
 20
48.79602591433529
 30
0.0
 40
1.0
100
AcDbArc
 50
270.0
 51
358.7269699999998
  0
ARC
  5
274
330
36
100
AcDbEntity
  8
0
 62
     3
100
AcDbCircle
 10
74.426778
 20
48.79602591433529
 30
0.0
 40
1.0
100
AcDbArc
 50
181.27303
 51
270.0
  0
LINE
  5
275
330
36
100
AcDbEntity
  8
0
 62
     3
100
AcDbLine
 10
74.426778
 20
47.79602591433529
 30
0.0
 11
77.243229
 21
47.79602591433529
 31
0.0
  0
ARC
  5
27A
330
36
100
AcDbEntity
  8
0
 62
     3
100
AcDbCircle
 10
77.243229
 20
60.15765491433528
 30
0.0
 40
5.500555999999997
100
AcDbArc
 50
353.807369
 51
186.192631
  0
ARC
  5
27B
330
36
100
AcDbEntity
  8
0
  6
PHANTOM
100
AcDbCircle
 10
77.21723
 20
60.19969591433528
 30
0.0
 40
4.203883999999998
100
AcDbArc
 50
165.496741
 51
310.90044
  0
LINE
  5
27C
330
36
100
AcDbEntity
  8
0
  6
PHANTOM
100
AcDbLine
 10
73.17027399999997
 20
61.23825591433528
 30
0.0
 11
74.464751
 21
63.37719491433528
 31
0.0
  0
ARC
  5
27D
330
36
100
AcDbEntity
  8
0
  6
PHANTOM
100
AcDbCircle
 10
77.21723
 20
60.19969591433528
 30
0.0
 40
4.203883999999998
100
AcDbArc
 50
345.496737
 51
130.90044
  0
LINE
  5
27E
330
36
100
AcDbEntity
  8
0
  6
PHANTOM
100
AcDbLine
 10
79.96970899999998
 20
57.02219591433529
 30
0.0
 11
81.28715099999999
 21
59.14689591433528
 31
0.0
  0
LINE
  5
27F
330
36
100
AcDbEntity
  8
0
  6
PHANTOM
100
AcDbLine
 10
73.36301299999998
 20
64.06033891433529
 30
0.0
 11
74.464751
 21
63.37719491433528
 31
0.0
  0
LINE
  5
280
330
36
100
AcDbEntity
  8
0
  6
PHANTOM
100
AcDbLine
 10
72.036176
 20
61.94146591433528
 30
0.0
 11
73.17027399999997
 21
61.23825591433528
 31
0.0
  0
LINE
  5
281
330
36
100
AcDbEntity
  8
0
  6
PHANTOM
100
AcDbLine
 10
148.323751
 20
90.20921991433526
 30
0.0
 11
141.171888
 21
87.92579091433529
 31
0.0
  0
LINE
  5
282
330
36
100
AcDbEntity
  8
0
  6
PHANTOM
100
AcDbLine
 10
148.471408
 20
89.73149791433526
 30
0.0
 11
141.559261
 21
87.52460391433528
 31
0.0
  0
LINE
  5
283
330
36
100
AcDbEntity
  8
0
  6
PHANTOM
100
AcDbLine
 10
152.389255
 20
92.29454391433529
 30
0.0
 11
148.102264
 21
90.92580391433529
 31
0.0
  0
LINE
  5
284
330
36
100
AcDbEntity
  8
0
  6
PHANTOM
100
AcDbLine
 10
152.389255
 20
92.29454391433529
 30
0.0
 11
152.979886
 21
90.38365391433528
 31
0.0
  0
LINE
  5
285
330
36
100
AcDbEntity
  8
0
  6
PHANTOM
100
AcDbLine
 10
148.692895
 20
89.01491391433529
 30
0.0
 11
148.102264
 21
90.92580391433529
 31
0.0
  0
LINE
  5
286
330
36
100
AcDbEntity
  8
0
  6
PHANTOM
100
AcDbLine
 10
152.979886
 20
90.38365391433528
 30
0.0
 11
148.692895
 21
89.01491391433529
 31
0.0
  0
ARC
  5
287
330
36
100
AcDbEntity
  8
0
  6
PHANTOM
100
AcDbCircle
 10
136.42566
 20
89.49846891433528
 30
0.0
 40
5.0
100
AcDbArc
 50
216.502759
 51
341.6672200000001
  0
ARC
  5
288
330
36
100
AcDbEntity
  8
0
  6
PHANTOM
100
AcDbCircle
 10
136.42566
 20
89.49846891433528
 30
0.0
 40
5.5
100
AcDbArc
 50
214.620713
 51
338.968294
  0
LINE
  5
289
330
36
100
AcDbEntity
  8
0
  6
PHANTOM
100
AcDbLine
 10
129.600259
 20
86.36569391433527
 30
0.0
 11
94.78760800000001
 21
67.70041691433528
 31
0.0
  0
LINE
  5
28A
330
36
100
AcDbEntity
  8
0
  6
PHANTOM
100
AcDbLine
 10
100.685795
 20
73.69947991433528
 30
0.0
 11
115.177952
 21
81.46964791433527
 31
0.0
  0
LINE
  5
28B
330
36
100
AcDbEntity
  8
0
  6
PHANTOM
100
AcDbLine
 10
115.858437
 20
81.8344989143353
 30
0.0
 11
115.177952
 21
81.46964791433527
 31
0.0
  0
LINE
  5
28C
330
36
100
AcDbEntity
  8
0
  6
PHANTOM
100
AcDbLine
 10
124.615416
 20
87.90772591433528
 30
0.0
 11
123.424505
 21
89.04706891433528
 31
0.0
  0
LINE
  5
28D
330
36
100
AcDbEntity
  8
0
  6
PHANTOM
100
AcDbLine
 10
116.37135
 20
82.88582291433526
 30
0.0
 11
115.428416
 21
88.35147791433531
 31
0.0
  0
LINE
  5
28E
330
36
100
AcDbEntity
  8
0
  6
PHANTOM
100
AcDbLine
 10
131.632073
 20
86.92886791433528
 30
0.0
 11
126.601138
 21
87.07675391433529
 31
0.0
  0
ARC
  5
28F
330
36
100
AcDbEntity
  8
0
  6
PHANTOM
100
AcDbCircle
 10
126.689285
 20
90.07545891433528
 30
0.0
 40
3.0
100
AcDbArc
 50
226.267714
 51
268.316261
  0
ARC
  5
290
330
36
100
AcDbEntity
  8
0
  6
PHANTOM
100
AcDbCircle
 10
115.385908
 20
82.71581391433528
 30
0.0
 40
1.0
100
AcDbArc
 50
298.198591
 51
9.788314000000024
  0
LINE
  5
291
330
36
100
AcDbEntity
  8
0
  6
PHANTOM
100
AcDbLine
 10
131.8995389999999
 20
86.37369191433526
 30
0.0
 11
129.600259
 21
86.36569391433527
 31
0.0
  0
LINE
  5
292
330
36
100
AcDbEntity
  8
0
  6
PHANTOM
100
AcDbLine
 10
131.8995389999999
 20
86.37369191433526
 30
0.0
 11
131.548776
 21
86.93131691433528
 31
0.0
  0
ARC
  5
293
330
36
100
AcDbEntity
  8
0
  6
PHANTOM
100
AcDbCircle
 10
131.60269
 20
85.92929991433528
 30
0.0
 40
1.0
100
AcDbArc
 50
36.50275900000001
 51
88.31626099999999
  0
LINE
  5
294
330
36
100
AcDbEntity
  8
0
  6
PHANTOM
100
AcDbLine
 10
147.962892
 20
93.42777491433528
 30
0.0
 11
140.482931
 21
94.07071091433529
 31
0.0
  0
LINE
  5
295
330
36
100
AcDbEntity
  8
0
  6
PHANTOM
100
AcDbLine
 10
148.001091
 20
93.92633491433528
 30
0.0
 11
140.771842
 21
94.54772091433529
 31
0.0
  0
LINE
  5
296
330
36
100
AcDbEntity
  8
0
  6
PHANTOM
100
AcDbLine
 10
152.389255
 20
92.29454391433529
 30
0.0
 11
147.905594
 21
92.67993391433529
 31
0.0
  0
LINE
  5
297
330
36
100
AcDbEntity
  8
0
  6
PHANTOM
100
AcDbLine
 10
152.389255
 20
92.29454391433529
 30
0.0
 11
152.54205
 21
94.28878491433529
 31
0.0
  0
LINE
  5
298
330
36
100
AcDbEntity
  8
0
  6
PHANTOM
100
AcDbLine
 10
148.058389
 20
94.67417491433527
 30
0.0
 11
147.905594
 21
92.67993391433529
 31
0.0
  0
LINE
  5
299
330
36
100
AcDbEntity
  8
0
  6
PHANTOM
100
AcDbLine
 10
152.54205
 20
94.28878491433529
 30
0.0
 11
148.058389
 21
94.67417491433527
 31
0.0
  0
CIRCLE
  5
29A
330
36
100
AcDbEntity
  8
0
  6
PHANTOM
100
AcDbCircle
 10
118.923205
 20
88.54239191433528
 30
0.0
 40
2.0
  0
ARC
  5
29B
330
36
100
AcDbEntity
  8
0
  6
PHANTOM
100
AcDbCircle
 10
136.20282
 20
91.48601591433529
 30
0.0
 40
5.0
100
AcDbArc
 50
31.12714200000003
 51
156.291603
  0
ARC
  5
29C
330
36
100
AcDbEntity
  8
0
  6
PHANTOM
100
AcDbCircle
 10
136.20282
 20
91.48601591433529
 30
0.0
 40
5.5
100
AcDbArc
 50
33.826068
 51
158.1736489999999
  0
LINE
  5
29D
330
36
100
AcDbEntity
  8
0
  6
PHANTOM
100
AcDbLine
 10
93.69501599999999
 20
102.7164539143353
 30
0.0
 11
128.853125
 21
93.02950591433528
 31
0.0
  0
LINE
  5
29E
330
36
100
AcDbEntity
  8
0
  6
PHANTOM
100
AcDbLine
 10
89.99746299999998
 20
100.5898029143353
 30
0.0
 11
89.929176
 21
100.3310709143353
 31
0.0
  0
LINE
  5
29F
330
36
100
AcDbEntity
  8
0
  6
PHANTOM
100
AcDbLine
 10
124.333537
 20
90.42185491433528
 30
0.0
 11
121.59906
 21
86.28633291433528
 31
0.0
  0
LINE
  5
2A0
330
36
100
AcDbEntity
  8
0
  6
PHANTOM
100
AcDbLine
 10
115.226265
 20
92.65140791433529
 30
0.0
 11
115.472909
 21
87.95463591433529
 31
0.0
  0
LINE
  5
2A1
330
36
100
AcDbEntity
  8
0
  6
PHANTOM
100
AcDbLine
 10
130.959208
 20
92.93026491433527
 30
0.0
 11
126.085934
 21
91.6719369143353
 31
0.0
  0
ARC
  5
2A2
330
36
100
AcDbEntity
  8
0
  6
PHANTOM
100
AcDbCircle
 10
126.835964
 20
88.76720791433529
 30
0.0
 40
3.0
100
AcDbArc
 50
104.478101
 51
146.5266479999999
  0
LINE
  5
2A3
330
36
100
AcDbEntity
  8
0
  6
PHANTOM
100
AcDbLine
 10
131.097087
 20
93.53088791433529
 30
0.0
 11
128.853125
 21
93.02950591433528
 31
0.0
  0
LINE
  5
2A4
330
36
100
AcDbEntity
  8
0
  6
PHANTOM
100
AcDbLine
 10
131.097087
 20
93.53088791433529
 30
0.0
 11
130.878521
 21
92.90943091433529
 31
0.0
  0
ARC
  5
2A5
330
36
100
AcDbEntity
  8
0
  6
PHANTOM
100
AcDbCircle
 10
130.709198
 20
93.89850791433529
 30
0.0
 40
1.0
100
AcDbArc
 50
284.4781009999999
 51
336.291603
  0
LINE
  5
2A6
330
36
100
AcDbEntity
  8
0
  6
PHANTOM
100
AcDbLine
 10
114.493268
 20
93.56304191433528
 30
0.0
 11
89.929176
 21
100.3310709143353
 31
0.0
  0
ARC
  5
2A7
330
36
100
AcDbEntity
  8
0
  6
PHANTOM
100
AcDbCircle
 10
114.227641
 20
92.59896591433529
 30
0.0
 40
1.0
100
AcDbArc
 50
3.006048000000016
 51
74.59577200000002
  0
ARC
  5
2A8
330
36
100
AcDbEntity
  8
0
  6
PHANTOM
100
AcDbCircle
 10
92.89813399999999
 20
99.82422591433529
 30
0.0
 40
3.0
100
AcDbArc
 50
74.59577200000002
 51
165.21503
  0
ARC
  5
2A9
330
36
100
AcDbEntity
  8
0
  6
PHANTOM
100
AcDbCircle
 10
118.923205
 20
88.54239191433528
 30
0.0
 40
3.5
100
AcDbArc
 50
186.397181
 51
333.188107
  0
LINE
  5
2AA
330
36
100
AcDbEntity
  8
0
  6
PHANTOM
100
AcDbLine
 10
116.096609
 20
84.47834391433529
 30
0.0
 11
113.925551
 21
80.79815591433527
 31
0.0
  0
LINE
  5
2AB
330
36
100
AcDbEntity
  8
0
  6
PHANTOM
100
AcDbLine
 10
115.898901
 20
85.62434491433526
 30
0.0
 11
112.471669
 21
80.01863691433531
 31
0.0
  0
LINE
  5
2AC
330
36
100
AcDbEntity
  8
0
  6
PHANTOM
100
AcDbLine
 10
115.260348
 20
92.00236391433529
 30
0.0
 11
107.483952
 21
95.49428591433526
 31
0.0
  0
LINE
  5
2AD
330
36
100
AcDbEntity
  8
0
  6
PHANTOM
100
AcDbLine
 10
115.303099
 20
91.18827891433529
 30
0.0
 11
102.545497
 21
96.85495491433529
 31
0.0
  0
LINE
  5
2AE
330
36
100
AcDbEntity
  8
0
  6
PHANTOM
100
AcDbLine
 10
99.4245
 20
73.9309539143353
 30
0.0
 11
93.25969699999999
 21
70.62561091433528
 31
0.0
  0
LINE
  5
2AF
330
36
100
AcDbEntity
  8
0
  6
PHANTOM
100
AcDbLine
 10
93.25969699999999
 20
70.62561091433528
 30
0.0
 11
94.78760800000001
 21
67.70041691433528
 31
0.0
  0
ARC
  5
2B0
330
36
100
AcDbEntity
  8
0
  6
PHANTOM
100
AcDbCircle
 10
99.66076499999999
 20
73.49029691433528
 30
0.0
 40
0.5
100
AcDbArc
 50
27.57933200000004
 51
118.198591
  0
ARC
  5
2B1
330
36
100
AcDbEntity
  8
0
  6
PHANTOM
100
AcDbCircle
 10
100.449531
 20
74.14013791433527
 30
0.0
 40
0.5
100
AcDbArc
 50
207.579332
 51
298.198591
  0
LINE
  5
2B2
330
36
100
AcDbEntity
  8
0
  6
HIDDEN
 62
    15
100
AcDbLine
 10
100.006345
 20
73.90864991433528
 30
0.0
 11
100.10395
 21
73.7217849143353
 31
0.0
  0
LINE
  5
2B3
330
36
100
AcDbEntity
  8
0
  6
PHANTOM
100
AcDbLine
 10
94.599095
 20
68.06132591433528
 30
0.0
 11
82.55464299999998
 21
61.60352891433529
 31
0.0
  0
LINE
  5
2B4
330
36
100
AcDbEntity
  8
0
  6
PHANTOM
100
AcDbLine
 10
93.44158699999999
 20
70.27738191433527
 30
0.0
 11
81.363578
 21
63.80159291433527
 31
0.0
  0
LINE
  5
2B5
330
36
100
AcDbEntity
  8
0
 62
     3
100
AcDbLine
 10
106.453763
 20
45.79185691433528
 30
0.0
 11
81.966687
 21
45.79185691433528
 31
0.0
  0
LINE
  5
2B6
330
36
100
AcDbEntity
  8
0
 62
     3
100
AcDbLine
 10
72.51977
 20
45.79185691433528
 30
0.0
 11
70.95376299999998
 21
45.79185691433528
 31
0.0
  0
LINE
  5
2B7
330
36
100
AcDbEntity
  8
0
 62
     3
100
AcDbLine
 10
106.453763
 20
28.79185691433529
 30
0.0
 11
81.04709699999999
 21
28.79185691433529
 31
0.0
  0
LINE
  5
2B8
330
36
100
AcDbEntity
  8
0
 62
     3
100
AcDbLine
 10
73.439361
 20
28.79185691433529
 30
0.0
 11
70.95376299999998
 21
28.79185691433529
 31
0.0
  0
LINE
  5
2B9
330
36
100
AcDbEntity
  8
0
 62
     3
100
AcDbLine
 10
199.120707
 20
-95.83427699999999
 30
0.0
 11
88.696558
 21
-95.83427699999999
 31
0.0
  0
TEXT
  5
2BB
330
36
100
AcDbEntity
  8
0
 62
     3
100
AcDbText
 10
134.8768489025797
 20
-125.0030410355591
 30
0.0
 40
3.2
  1
1/2
  7
高3.2
100
AcDbText
  0
LINE
  5
2BF
330
36
100
AcDbEntity
  8
0
 62
     3
100
AcDbLine
 10
88.696558
 20
-111.834277
 30
0.0
 11
148.300637
 21
-111.834277
 31
0.0
  0
LINE
  5
2C5
330
36
100
AcDbEntity
  8
0
100
AcDbLine
 10
-17.93858
 20
51.22287891433527
 30
0.0
 11
-3.566408
 21
107.6688799143353
 31
0.0
  0
CIRCLE
  5
2C6
330
36
100
AcDbEntity
  8
0
100
AcDbCircle
 10
-2.332681
 20
112.5142819143353
 30
0.0
 40
5.0
  0
TEXT
  5
2C7
330
36
100
AcDbEntity
  8
0
 62
     4
100
AcDbText
 10
-5.629562663793326
 20
110.1096728867555
 30
0.0
 40
4.5
  1
04
  7
高4.5
100
AcDbText
  0
LINE
  5
2CD
330
36
100
AcDbEntity
  8
0
100
AcDbLine
 10
35.588971
 20
43.18655591433528
 30
0.0
 11
43.64899999999999
 21
57.15130791433526
 31
0.0
  0
CIRCLE
  5
2CE
330
36
100
AcDbEntity
  8
0
100
AcDbCircle
 10
46.148413
 20
61.48177391433527
 30
0.0
 40
5.0
  0
TEXT
  5
2CF
330
36
100
AcDbEntity
  8
0
 62
     4
100
AcDbText
 10
42.85153133620664
 20
59.07716588675556
 30
0.0
 40
4.5
  1
06
  7
高4.5
100
AcDbText
  0
LINE
  5
2D5
330
36
100
AcDbEntity
  8
0
100
AcDbLine
 10
63.028892
 20
40.69370991433529
 30
0.0
 11
59.270016
 21
56.18948391433526
 31
0.0
  0
CIRCLE
  5
2D6
330
36
100
AcDbEntity
  8
0
100
AcDbCircle
 10
58.091327
 20
61.04856791433529
 30
0.0
 40
5.0
  0
TEXT
  5
2D7
330
36
100
AcDbEntity
  8
0
 62
     4
100
AcDbText
 10
54.79444533620668
 20
58.64395888675554
 30
0.0
 40
4.5
  1
07
  7
高4.5
100
AcDbText
  0
TEXT
  5
2DC
330
36
100
AcDbEntity
  8
0
 62
     4
100
AcDbText
 10
85.746003
 20
2.471182914335285
 30
0.0
 40
3.2
  1
（ブルー）
 41
0.8
  7
高3.2
100
AcDbText
  0
LINE
  5
2E2
330
36
100
AcDbEntity
  8
0
100
AcDbLine
 10
76.095216
 20
27.76554391433528
 30
0.0
 11
84.458739
 21
6.611674914335285
 31
0.0
  0
LINE
  5
2E3
330
36
100
AcDbEntity
  8
0
100
AcDbLine
 10
84.458739
 20
6.611674914335285
 30
0.0
 11
109.208739
 21
6.611674914335285
 31
0.0
  0
TEXT
  5
2E4
330
36
100
AcDbEntity
  8
0
 62
     4
100
AcDbText
 10
87.208739
 20
7.611674914335285
 30
0.0
 40
3.2
  1
樹脂コーテング
 41
0.8
  7
高3.2
100
AcDbText
  0
LINE
  5
2EA
330
36
100
AcDbEntity
  8
0
100
AcDbLine
 10
112.594227
 20
42.53503991433528
 30
0.0
 11
152.359943
 21
59.66340391433528
 31
0.0
  0
CIRCLE
  5
2EB
330
36
100
AcDbEntity
  8
0
100
AcDbCircle
 10
156.952069
 20
61.64137891433528
 30
0.0
 40
5.0
  0
TEXT
  5
2EC
330
36
100
AcDbEntity
  8
0
 62
     4
100
AcDbText
 10
154.3707742318775
 20
59.33309301852159
 30
0.0
 40
4.5
  1
01
  7
高4.5
100
AcDbText
  0
TEXT
  5
2ED
330
36
100
AcDbEntity
  8
0
 62
     7
100
AcDbText
 10
125.5
 20
124.0
 30
0.0
 40
2.5
  1
'04.6.23
  7
高2.5
100
AcDbText
  0
TEXT
  5
2EE
330
36
100
AcDbEntity
  8
0
 62
     7
100
AcDbText
 10
187.4999999999999
 20
124.0
 30
0.0
 40
2.5
  1
牧田
  7
高2.5
100
AcDbText
  0
TEXT
  5
2EF
330
36
100
AcDbEntity
  8
0
 62
     7
100
AcDbText
 10
143.5
 20
124.0
 30
0.0
 40
2.5
  1
金具締め付けねじ変更
  7
高2.5
100
AcDbText
  0
ARC
  5
2F0
330
36
100
AcDbEntity
  8
0
100
AcDbCircle
 10
163.023775
 20
92.29454391433529
 30
0.0
 40
9.144961
100
AcDbArc
 50
219.0464799999999
 51
140.9535199999999
  0
LINE
  5
2F1
330
36
100
AcDbEntity
  8
0
100
AcDbLine
 10
155.921477
 20
98.05541791433526
 30
0.0
 11
157.9876
 21
98.15098291433528
 31
0.0
  0
LINE
  5
2F2
330
36
100
AcDbEntity
  8
0
100
AcDbLine
 10
155.921477
 20
98.05541791433526
 30
0.0
 11
155.469512
 21
100.2816719143353
 31
0.0
  0
LINE
  5
2F3
330
36
100
AcDbEntity
  8
0
100
AcDbLine
 10
155.921477
 20
86.53366991433527
 30
0.0
 11
157.9876
 21
86.43810491433528
 31
0.0
  0
LINE
  5
2F4
330
36
100
AcDbEntity
  8
0
100
AcDbLine
 10
155.921477
 20
86.53366991433527
 30
0.0
 11
155.469512
 21
84.30741491433527
 31
0.0
  0
LINE
  5
2F5
330
36
100
AcDbEntity
  8
0
100
AcDbLine
 10
8.757020999999998
 20
97.8130449143353
 30
0.0
 11
16.262601
 21
97.9846719143353
 31
0.0
  0
ARC
  5
2F6
330
36
100
AcDbEntity
  8
0
100
AcDbCircle
 10
20.371832
 20
95.13612491433526
 30
0.0
 40
5.0
100
AcDbArc
 50
20.10557800000001
 51
145.2700389999999
  0
LINE
  5
2F7
330
36
100
AcDbEntity
  8
0
100
AcDbLine
 10
8.194622999999998
 20
94.62352791433529
 30
0.0
 11
15.188861
 21
91.89519091433529
 31
0.0
  0
ARC
  5
2F8
330
36
100
AcDbEntity
  8
0
100
AcDbCircle
 10
20.024536
 20
93.16650991433526
 30
0.0
 40
5.0
100
AcDbArc
 50
194.729961
 51
319.894422
  0
ARC
  5
2F9
330
36
100
AcDbEntity
  8
0
100
AcDbCircle
 10
24.613688
 20
89.30132091433526
 30
0.0
 40
1.0
100
AcDbArc
 50
88.08092
 51
139.8944219999999
  0
LINE
  5
2FA
330
36
100
AcDbEntity
  8
0
100
AcDbLine
 10
24.647176
 20
90.30075991433523
 30
0.0
 11
29.677461
 21
90.13221191433528
 31
0.0
  0
ARC
  5
2FB
330
36
100
AcDbEntity
  8
0
100
AcDbCircle
 10
29.777925
 20
93.13052891433528
 30
0.0
 40
3.0
100
AcDbArc
 50
268.08092
 51
310.129467
  0
LINE
  5
2FC
330
36
100
AcDbEntity
  8
0
100
AcDbLine
 10
25.695837
 20
96.24801291433529
 30
0.0
 11
30.480406
 21
94.68593791433526
 31
0.0
  0
ARC
  5
2FD
330
36
100
AcDbEntity
  8
0
100
AcDbCircle
 10
26.006197
 20
97.19863191433526
 30
0.0
 40
1.0
100
AcDbArc
 50
200.105578
 51
251.91908
  0
LINE
  5
2FE
330
36
100
AcDbEntity
  8
0
100
AcDbLine
 10
41.211538
 20
93.52564591433528
 30
0.0
 11
54.30001800000001
 21
98.3794399143353
 31
0.0
  0
LINE
  5
2FF
330
36
100
AcDbEntity
  8
0
100
AcDbLine
 10
41.30536099999999
 20
94.33543491433526
 30
0.0
 11
49.28581900000001
 21
97.33178991433529
 31
0.0
  0
LINE
  5
300
330
36
100
AcDbEntity
  8
0
100
AcDbLine
 10
39.997947
 20
86.8788369143353
 30
0.0
 11
41.933452
 21
83.06949291433531
 31
0.0
  0
LINE
  5
301
330
36
100
AcDbEntity
  8
0
100
AcDbLine
 10
40.267278
 20
88.01014791433527
 30
0.0
 11
43.335475
 21
82.2001539143353
 31
0.0
  0
LINE
  5
302
330
36
100
AcDbEntity
  8
0
100
AcDbLine
 10
76.720888
 20
27.79602591433528
 30
0.0
 11
81.237551
 21
32.31268891433528
 31
0.0
  0
LINE
  5
303
330
36
100
AcDbEntity
  8
0
100
AcDbLine
 10
73.44114199999999
 20
28.75892091433529
 30
0.0
 11
81.48017499999998
 21
36.79795391433528
 31
0.0
  0
LINE
  5
304
330
36
100
AcDbEntity
  8
0
100
AcDbLine
 10
73.22341999999998
 20
32.78383991433529
 30
0.0
 11
81.72279899999997
 21
41.28321891433528
 31
0.0
  0
LINE
  5
305
330
36
100
AcDbEntity
  8
0
100
AcDbLine
 10
73.00569799999998
 20
36.80875791433528
 30
0.0
 11
81.965423
 21
45.76848291433528
 31
0.0
  0
LINE
  5
306
330
36
100
AcDbEntity
  8
0
100
AcDbLine
 10
72.787976
 20
40.83367691433529
 30
0.0
 11
79.750326
 21
47.79602591433529
 31
0.0
  0
LINE
  5
307
330
36
100
AcDbEntity
  8
0
100
AcDbLine
 10
72.570254
 20
44.85859491433529
 30
0.0
 11
75.507685
 21
47.79602591433529
 31
0.0
  0
LINE
  5
308
330
36
100
AcDbEntity
  8
0
100
AcDbLine
 10
110.303763
 20
27.09185691433529
 30
0.0
 11
110.303763
 21
37.2918569143353
 31
0.0
  0
LINE
  5
309
330
36
100
AcDbEntity
  8
0
100
AcDbLine
 10
111.103763
 20
27.09185691433529
 30
0.0
 11
111.103763
 21
37.2918569143353
 31
0.0
  0
LINE
  5
30A
330
36
100
AcDbEntity
  8
0
100
AcDbLine
 10
111.103763
 20
47.49185691433527
 30
0.0
 11
111.103763
 21
37.2918569143353
 31
0.0
  0
LINE
  5
30B
330
36
100
AcDbEntity
  8
0
100
AcDbLine
 10
110.303763
 20
47.49185691433527
 30
0.0
 11
110.303763
 21
37.2918569143353
 31
0.0
  0
LINE
  5
312
330
36
100
AcDbEntity
  8
0
100
AcDbLine
 10
70.70376299999998
 20
46.04185691433527
 30
0.0
 11
70.70376299999998
 21
37.2918569143353
 31
0.0
  0
LINE
  5
313
330
36
100
AcDbEntity
  8
0
100
AcDbLine
 10
69.103763
 20
46.99190391433528
 30
0.0
 11
69.103763
 21
37.2918569143353
 31
0.0
  0
LINE
  5
314
330
36
100
AcDbEntity
  8
0
100
AcDbLine
 10
67.403763
 20
48.79185691433526
 30
0.0
 11
67.403763
 21
37.2918569143353
 31
0.0
  0
LINE
  5
315
330
36
100
AcDbEntity
  8
0
100
AcDbLine
 10
65.403763
 20
48.79185691433526
 30
0.0
 11
65.403763
 21
42.54185691433527
 31
0.0
  0
LINE
  5
316
330
36
100
AcDbEntity
  8
0
100
AcDbLine
 10
64.603763
 20
48.79185691433526
 30
0.0
 11
64.603763
 21
42.54185691433527
 31
0.0
  0
LINE
  5
317
330
36
100
AcDbEntity
  8
0
100
AcDbLine
 10
62.603763
 20
48.79185691433526
 30
0.0
 11
62.603763
 21
42.54185691433527
 31
0.0
  0
LINE
  5
318
330
36
100
AcDbEntity
  8
0
100
AcDbLine
 10
61.803763
 20
48.79185691433526
 30
0.0
 11
61.803763
 21
42.54185691433527
 31
0.0
  0
LINE
  5
319
330
36
100
AcDbEntity
  8
0
100
AcDbLine
 10
59.803763
 20
48.79185691433526
 30
0.0
 11
59.803763
 21
42.54185691433527
 31
0.0
  0
LINE
  5
31A
330
36
100
AcDbEntity
  8
0
100
AcDbLine
 10
59.003763
 20
48.79185691433526
 30
0.0
 11
59.003763
 21
42.54185691433527
 31
0.0
  0
LINE
  5
31B
330
36
100
AcDbEntity
  8
0
100
AcDbLine
 10
57.003763
 20
48.79185691433526
 30
0.0
 11
57.003763
 21
37.2918569143353
 31
0.0
  0
LINE
  5
31C
330
36
100
AcDbEntity
  8
0
100
AcDbLine
 10
56.203763
 20
49.54185691433528
 30
0.0
 11
56.203763
 21
37.2918569143353
 31
0.0
  0
LINE
  5
31D
330
36
100
AcDbEntity
  8
0
100
AcDbLine
 10
56.203763
 20
25.04185691433529
 30
0.0
 11
56.203763
 21
37.2918569143353
 31
0.0
  0
LINE
  5
31E
330
36
100
AcDbEntity
  8
0
100
AcDbLine
 10
57.003763
 20
25.79185691433528
 30
0.0
 11
57.003763
 21
37.2918569143353
 31
0.0
  0
LINE
  5
31F
330
36
100
AcDbEntity
  8
0
100
AcDbLine
 10
59.003763
 20
25.79185691433528
 30
0.0
 11
59.003763
 21
32.04185691433528
 31
0.0
  0
LINE
  5
320
330
36
100
AcDbEntity
  8
0
100
AcDbLine
 10
59.803763
 20
25.79185691433528
 30
0.0
 11
59.803763
 21
32.04185691433528
 31
0.0
  0
LINE
  5
321
330
36
100
AcDbEntity
  8
0
100
AcDbLine
 10
61.803763
 20
25.79185691433528
 30
0.0
 11
61.803763
 21
32.04185691433528
 31
0.0
  0
LINE
  5
322
330
36
100
AcDbEntity
  8
0
100
AcDbLine
 10
62.603763
 20
25.79185691433528
 30
0.0
 11
62.603763
 21
32.04185691433528
 31
0.0
  0
LINE
  5
323
330
36
100
AcDbEntity
  8
0
100
AcDbLine
 10
64.603763
 20
25.79185691433528
 30
0.0
 11
64.603763
 21
32.04185691433528
 31
0.0
  0
LINE
  5
324
330
36
100
AcDbEntity
  8
0
100
AcDbLine
 10
65.403763
 20
25.79185691433528
 30
0.0
 11
65.403763
 21
32.04185691433528
 31
0.0
  0
LINE
  5
325
330
36
100
AcDbEntity
  8
0
100
AcDbLine
 10
67.403763
 20
25.79185691433528
 30
0.0
 11
67.403763
 21
37.2918569143353
 31
0.0
  0
LINE
  5
326
330
36
100
AcDbEntity
  8
0
100
AcDbLine
 10
69.103763
 20
27.59180991433528
 30
0.0
 11
69.103763
 21
37.2918569143353
 31
0.0
  0
LINE
  5
327
330
36
100
AcDbEntity
  8
0
100
AcDbLine
 10
70.70376299999998
 20
28.54185691433528
 30
0.0
 11
70.70376299999998
 21
37.2918569143353
 31
0.0
  0
LINE
  5
328
330
36
100
AcDbEntity
  8
0
100
AcDbLine
 10
37.203763
 20
36.54185691433529
 30
0.0
 11
37.203763
 21
27.09781491433528
 31
0.0
  0
LINE
  5
329
330
36
100
AcDbEntity
  8
0
100
AcDbLine
 10
37.203763
 20
38.04185691433529
 30
0.0
 11
37.203763
 21
47.48228291433528
 31
0.0
  0
TEXT
  5
32A
330
36
100
AcDbEntity
  8
0
100
AcDbText
 10
54.86676
 20
29.33142391433529
 30
0.0
 40
2.25
  1
NICHIDO
 50
90.00000300000001
 41
1.128738
100
AcDbText
  0
LINE
  5
338
330
36
100
AcDbEntity
  8
0
100
AcDbLine
 10
94.14440500000001
 20
39.54650791433528
 30
0.0
 11
108.523129
 21
52.85689691433527
 31
0.0
  0
LINE
  5
339
330
36
100
AcDbEntity
  8
0
100
AcDbLine
 10
108.523129
 20
52.85689691433527
 30
0.0
 11
127.773129
 21
52.85689691433527
 31
0.0
  0
TEXT
  5
33A
330
36
100
AcDbEntity
  8
0
 62
     4
100
AcDbText
 10
111.273129
 20
53.85689691433528
 30
0.0
 40
3.2
  1
型式シール
 41
0.8
  7
高3.2
100
AcDbText
  0
LINE
  5
340
330
36
100
AcDbEntity
  8
0
100
AcDbLine
 10
128.808992
 20
31.38810191433528
 30
0.0
 11
152.653835
 21
41.53916791433528
 31
0.0
  0
CIRCLE
  5
341
330
36
100
AcDbEntity
  8
0
100
AcDbCircle
 10
157.254308
 20
43.49764991433526
 30
0.0
 40
5.0
  0
TEXT
  5
342
330
36
100
AcDbEntity
  8
0
 62
     4
100
AcDbText
 10
153.9574263362067
 20
41.09304188675555
 30
0.0
 40
4.5
  1
02
  7
高4.5
100
AcDbText
  0
LINE
  5
348
330
36
100
AcDbEntity
  8
0
100
AcDbLine
 10
21.561111
 20
100.5060059143353
 30
0.0
 11
25.316367
 21
108.1127459143353
 31
0.0
  0
CIRCLE
  5
349
330
36
100
AcDbEntity
  8
0
100
AcDbCircle
 10
27.529719
 20
112.5961679143353
 30
0.0
 40
5.0
  0
TEXT
  5
34A
330
36
100
AcDbEntity
  8
0
 62
     4
100
AcDbText
 10
24.23283733620667
 20
110.1915588867555
 30
0.0
 40
4.5
  1
05
  7
高4.5
100
AcDbText
  0
LINE
  5
34B
330
36
100
AcDbEntity
  8
0
100
AcDbLine
 10
150.864591
 20
1.559700914335284
 30
0.0
 11
150.864591
 21
6.059700914335284
 31
0.0
  0
LINE
  5
34C
330
36
100
AcDbEntity
  8
0
100
AcDbLine
 10
152.031603
 20
1.559700914335284
 30
0.0
 11
152.031603
 21
6.059700914335284
 31
0.0
  0
LINE
  5
34D
330
36
100
AcDbEntity
  8
0
100
AcDbLine
 10
150.245122
 20
1.978959914335283
 30
0.0
 11
150.245122
 21
6.059700914335284
 31
0.0
  0
LINE
  5
34E
330
36
100
AcDbEntity
  8
0
100
AcDbLine
 10
149.245122
 20
2.120228914335283
 30
0.0
 11
149.245122
 21
6.059700914335284
 31
0.0
  0
LINE
  5
34F
330
36
100
AcDbEntity
  8
0
100
AcDbLine
 10
148.245122
 20
2.261498914335283
 30
0.0
 11
148.245122
 21
6.059700914335284
 31
0.0
  0
LINE
  5
350
330
36
100
AcDbEntity
  8
0
100
AcDbLine
 10
147.245122
 20
2.402768914335285
 30
0.0
 11
147.245122
 21
6.059700914335284
 31
0.0
  0
LINE
  5
351
330
36
100
AcDbEntity
  8
0
100
AcDbLine
 10
146.245122
 20
2.544038914335284
 30
0.0
 11
146.245122
 21
6.059700914335284
 31
0.0
  0
LINE
  5
352
330
36
100
AcDbEntity
  8
0
100
AcDbLine
 10
145.245122
 20
2.685308914335285
 30
0.0
 11
145.245122
 21
6.059700914335284
 31
0.0
  0
LINE
  5
353
330
36
100
AcDbEntity
  8
0
100
AcDbLine
 10
150.864591
 20
10.55970091433528
 30
0.0
 11
150.864591
 21
6.059700914335284
 31
0.0
  0
LINE
  5
354
330
36
100
AcDbEntity
  8
0
100
AcDbLine
 10
152.031603
 20
10.55970091433528
 30
0.0
 11
152.031603
 21
6.059700914335284
 31
0.0
  0
LINE
  5
355
330
36
100
AcDbEntity
  8
0
100
AcDbLine
 10
150.245122
 20
10.14044291433528
 30
0.0
 11
150.245122
 21
6.059700914335284
 31
0.0
  0
LINE
  5
356
330
36
100
AcDbEntity
  8
0
100
AcDbLine
 10
149.245122
 20
9.999172914335282
 30
0.0
 11
149.245122
 21
6.059700914335284
 31
0.0
  0
LINE
  5
357
330
36
100
AcDbEntity
  8
0
100
AcDbLine
 10
148.245122
 20
9.857902914335282
 30
0.0
 11
148.245122
 21
6.059700914335284
 31
0.0
  0
LINE
  5
358
330
36
100
AcDbEntity
  8
0
100
AcDbLine
 10
147.245122
 20
9.716633914335282
 30
0.0
 11
147.245122
 21
6.059700914335284
 31
0.0
  0
LINE
  5
359
330
36
100
AcDbEntity
  8
0
100
AcDbLine
 10
146.245122
 20
9.575363914335282
 30
0.0
 11
146.245122
 21
6.059700914335284
 31
0.0
  0
LINE
  5
35A
330
36
100
AcDbEntity
  8
0
100
AcDbLine
 10
145.245122
 20
9.434093914335283
 30
0.0
 11
145.245122
 21
6.059700914335284
 31
0.0
  0
LINE
  5
35B
330
36
100
AcDbEntity
  8
0
100
AcDbLine
 10
144.364591
 20
2.809700914335284
 30
0.0
 11
144.364591
 21
6.059700914335284
 31
0.0
  0
LINE
  5
35C
330
36
100
AcDbEntity
  8
0
100
AcDbLine
 10
144.364591
 20
9.309700914335282
 30
0.0
 11
144.364591
 21
6.059700914335284
 31
0.0
  0
LINE
  5
35D
330
36
100
AcDbEntity
  8
0
100
AcDbLine
 10
175.364591
 20
2.636041914335285
 30
0.0
 11
175.364591
 21
3.133360914335285
 31
0.0
  0
LINE
  5
35E
330
36
100
AcDbEntity
  8
0
100
AcDbLine
 10
166.864591
 20
2.509700914335284
 30
0.0
 11
175.094484
 21
2.509700914335284
 31
0.0
  0
LINE
  5
35F
330
36
100
AcDbEntity
  8
0
100
AcDbLine
 10
166.864591
 20
3.259700914335283
 30
0.0
 11
175.094484
 21
3.259700914335283
 31
0.0
  0
LINE
  5
360
330
36
100
AcDbEntity
  8
0
100
AcDbLine
 10
175.364591
 20
2.636041914335285
 30
0.0
 11
175.094484
 21
2.509700914335284
 31
0.0
  0
LINE
  5
361
330
36
100
AcDbEntity
  8
0
100
AcDbLine
 10
175.364591
 20
3.133360914335285
 30
0.0
 11
175.094484
 21
3.259700914335283
 31
0.0
  0
LINE
  5
362
330
36
100
AcDbEntity
  8
0
100
AcDbLine
 10
175.364591
 20
9.483360914335282
 30
0.0
 11
175.364591
 21
8.986041914335283
 31
0.0
  0
LINE
  5
363
330
36
100
AcDbEntity
  8
0
100
AcDbLine
 10
166.864591
 20
9.609700914335283
 30
0.0
 11
175.094484
 21
9.609700914335283
 31
0.0
  0
LINE
  5
364
330
36
100
AcDbEntity
  8
0
100
AcDbLine
 10
166.864591
 20
8.859700914335283
 30
0.0
 11
175.094484
 21
8.859700914335283
 31
0.0
  0
LINE
  5
365
330
36
100
AcDbEntity
  8
0
100
AcDbLine
 10
175.364591
 20
9.483360914335282
 30
0.0
 11
175.094484
 21
9.609700914335283
 31
0.0
  0
LINE
  5
366
330
36
100
AcDbEntity
  8
0
100
AcDbLine
 10
175.364591
 20
8.986041914335283
 30
0.0
 11
175.094484
 21
8.859700914335283
 31
0.0
  0
LINE
  5
367
330
36
100
AcDbEntity
  8
0
100
AcDbLine
 10
165.364591
 20
11.55970091433528
 30
0.0
 11
165.364591
 21
6.059700914335284
 31
0.0
  0
LINE
  5
368
330
36
100
AcDbEntity
  8
0
100
AcDbLine
 10
165.364591
 20
0.5597009143352844
 30
0.0
 11
165.364591
 21
6.059700914335284
 31
0.0
  0
LINE
  5
369
330
36
100
AcDbEntity
  8
0
 62
     3
100
AcDbLine
 10
-202.401924
 20
5.0
 30
0.0
 11
-205.0
 21
3.5
 31
0.0
  0
LINE
  5
36A
330
36
100
AcDbEntity
  8
0
 62
     3
100
AcDbLine
 10
-202.401924
 20
5.0
 30
0.0
 11
-205.0
 21
6.5
 31
0.0
  0
LINE
  5
36B
330
36
100
AcDbEntity
  8
0
 62
     3
100
AcDbLine
 10
-205.0
 20
3.5
 30
0.0
 11
-205.0
 21
6.5
 31
0.0
  0
LINE
  5
36C
330
36
100
AcDbEntity
  8
0
 62
     3
100
AcDbLine
 10
-190.0
 20
138.5
 30
0.0
 11
-190.0
 21
-135.5
 31
0.0
  0
LINE
  5
36D
330
36
100
AcDbEntity
  8
0
 62
     3
100
AcDbLine
 10
200.0
 20
-135.5
 30
0.0
 11
200.0
 21
138.5
 31
0.0
  0
LINE
  5
36E
330
36
100
AcDbEntity
  8
0
 62
     3
100
AcDbLine
 10
-190.0
 20
138.5
 30
0.0
 11
200.0
 21
138.5
 31
0.0
  0
LINE
  5
36F
330
36
100
AcDbEntity
  8
0
 62
     3
100
AcDbLine
 10
-190.0
 20
-135.5
 30
0.0
 11
200.0
 21
-135.5
 31
0.0
  0
TEXT
  5
370
330
36
100
AcDbEntity
  8
0
 62
     3
100
AcDbText
 10
90.513954
 20
-99.66475199999999
 30
0.0
 40
2.0
  1
CONPONENTS
 41
0.5331600000000001
100
AcDbText
  0
TEXT
  5
371
330
36
100
AcDbEntity
  8
0
 62
     3
100
AcDbText
 10
90.164228
 20
-118.596928
 30
0.0
 40
3.0
  1
材
 41
0.833333
100
AcDbText
  0
TEXT
  5
372
330
36
100
AcDbEntity
  8
0
 62
     3
100
AcDbText
 10
97.69987
 20
-118.596928
 30
0.0
 40
3.0
  1
質
 41
0.833333
100
AcDbText
  0
TEXT
  5
373
330
36
100
AcDbEntity
  8
0
 62
     3
100
AcDbText
 10
90.25229799999999
 20
-107.972404
 30
0.0
 40
2.0
  1
MODEL
 41
1.031072999999999
100
AcDbText
  0
TEXT
  5
374
330
36
100
AcDbEntity
  8
0
 62
     3
100
AcDbText
 10
90.164228
 20
-114.91462
 30
0.0
 40
2.0
  1
MATERIAL
 41
0.659278
100
AcDbText
  0
TEXT
  5
375
330
36
100
AcDbEntity
  8
0
 62
     3
100
AcDbText
 10
121.471508
 20
-118.596928
 30
0.0
 40
3.0
  1
備
 41
0.833333
100
AcDbText
  0
TEXT
  5
376
330
36
100
AcDbEntity
  8
0
 62
     3
100
AcDbText
 10
128.20451
 20
-118.596928
 30
0.0
 40
3.0
  1
考
 41
0.833333
100
AcDbText
  0
TEXT
  5
377
330
36
100
AcDbEntity
  8
0
 62
     3
100
AcDbText
 10
122.0444220927666
 20
-114.9761242197621
 30
0.0
 40
2.0
  1
REMARKS
 41
0.675794
100
AcDbText
  0
TEXT
  5
378
330
36
100
AcDbEntity
  8
0
 62
     3
100
AcDbText
 10
91.75395700000001
 20
-121.834741
 30
0.0
 40
2.0
  1
3AD
 41
1.42614
100
AcDbText
  0
TEXT
  5
379
330
36
100
AcDbEntity
  8
0
 62
     3
100
AcDbText
 10
101.064937
 20
-121.669007
 30
0.0
 40
2.0
  1
ANGLE
 41
1.669883999999995
100
AcDbText
  0
TEXT
  5
37A
330
36
100
AcDbEntity
  8
0
 62
     3
100
AcDbText
 10
121.998824
 20
-122.045848
 30
0.0
 40
2.0
  1
SCALE
 41
0.7719630000000001
100
AcDbText
  0
TEXT
  5
37B
330
36
100
AcDbEntity
  8
0
 62
     3
100
AcDbText
 10
91.440087
 20
-125.834277
 30
0.0
 40
3.0
  1
第
 41
0.833333
100
AcDbText
  0
TEXT
  5
37C
330
36
100
AcDbEntity
  8
0
 62
     3
100
AcDbText
 10
99.22693700000001
 20
-125.834277
 30
0.0
 40
3.0
  1
三
 41
0.833333
100
AcDbText
  0
TEXT
  5
37D
330
36
100
AcDbEntity
  8
0
 62
     3
100
AcDbText
 10
107.013787
 20
-125.834277
 30
0.0
 40
3.0
  1
角
 41
0.833333
100
AcDbText
  0
TEXT
  5
37E
330
36
100
AcDbEntity
  8
0
 62
     3
100
AcDbText
 10
114.800637
 20
-125.834277
 30
0.0
 40
3.0
  1
法
 41
0.833333
100
AcDbText
  0
TEXT
  5
37F
330
36
100
AcDbEntity
  8
0
 62
     3
100
AcDbText
 10
121.862029
 20
-125.545848
 30
0.0
 40
3.0
  1
尺
 41
0.833333
100
AcDbText
  0
TEXT
  5
380
330
36
100
AcDbEntity
  8
0
 62
     3
100
AcDbText
 10
128.59503
 20
-125.545848
 30
0.0
 40
3.0
  1
度
 41
0.833333
100
AcDbText
  0
TEXT
  5
381
330
36
100
AcDbEntity
  8
0
 62
     3
100
AcDbText
 10
151.178301
 20
-103.376549
 30
0.0
 40
3.0
  1
承認
 41
1.089472999999999
100
AcDbText
  0
TEXT
  5
382
330
36
100
AcDbEntity
  8
0
 62
     3
100
AcDbText
 10
164.421181
 20
-103.434277
 30
0.0
 40
3.0
  1
検図
 41
0.931761
100
AcDbText
  0
TEXT
  5
383
330
36
100
AcDbEntity
  8
0
 62
     3
100
AcDbText
 10
177.421578
 20
-103.434277
 30
0.0
 40
3.0
  1
設
 41
0.833333
100
AcDbText
  0
TEXT
  5
384
330
36
100
AcDbEntity
  8
0
 62
     3
100
AcDbText
 10
181.9114459999999
 20
-103.434277
 30
0.0
 40
3.0
  1
計
 41
0.833333
100
AcDbText
  0
TEXT
  5
385
330
36
100
AcDbEntity
  8
0
 62
     3
100
AcDbText
 10
90.584061
 20
-103.261725
 30
0.0
 40
3.0
  1
品
 41
0.833333
100
AcDbText
  0
TEXT
  5
386
330
36
100
AcDbEntity
  8
0
 62
     3
100
AcDbText
 10
98.119703
 20
-103.261725
 30
0.0
 40
3.0
  1
名
 41
0.833333
100
AcDbText
  0
TEXT
  5
387
330
36
100
AcDbEntity
  8
0
 62
     3
100
AcDbText
 10
90.25229799999999
 20
-111.5637132046847
 30
0.0
 40
3.0
  1
型
 41
0.833333
100
AcDbText
  0
TEXT
  5
388
330
36
100
AcDbEntity
  8
0
 62
     3
100
AcDbText
 10
97.800389
 20
-111.5637132046847
 30
0.0
 40
3.0
  1
式
 41
0.833333
100
AcDbText
  0
TEXT
  5
390
330
36
100
AcDbEntity
  8
0
 62
     3
100
AcDbText
 10
-188.5
 20
-135.0
 30
0.0
 40
3.2
  1
No
 41
0.8
  7
高3.2
100
AcDbText
  0
TEXT
  5
391
330
36
100
AcDbEntity
  8
0
 62
     3
100
AcDbText
 10
-99.64971793648572
 20
-135.0
 30
0.0
 40
3.2
  1
数量
 41
0.8
  7
高3.2
100
AcDbText
  0
TEXT
  5
393
330
36
100
AcDbEntity
  8
0
 62
     3
100
AcDbText
 10
-141.4895036120581
 20
-135.0
 30
0.0
 40
3.2
  1
材質 規格
 41
0.8
  7
高3.2
100
AcDbText
  0
TEXT
  5
394
330
36
100
AcDbEntity
  8
0
 62
     3
100
AcDbText
 10
-181.5241562943588
 20
-135.0
 30
0.0
 40
3.2
  1
品　　　　名
 41
0.8
  7
高3.2
100
AcDbText
  0
LINE
  5
395
330
36
100
AcDbEntity
  8
0
 62
     3
100
AcDbLine
 10
103.703763
 20
38.22348991433528
 30
0.0
 11
103.703763
 21
36.36022291433528
 31
0.0
  0
LINE
  5
396
330
36
100
AcDbEntity
  8
0
 62
     3
100
AcDbLine
 10
102.772129
 20
37.2918569143353
 30
0.0
 11
104.635396
 21
37.2918569143353
 31
0.0
  0
LINE
  5
397
330
36
100
AcDbEntity
  8
0
 62
     3
100
AcDbLine
 10
104.737786601031
 20
-19.41317781363681
 30
0.0
 11
104.737786601031
 21
-82.41317781363681
 31
0.0
  0
LINE
  5
398
330
36
100
AcDbEntity
  8
0
 62
     3
100
AcDbLine
 10
104.737786601031
 20
-19.41317781363681
 30
0.0
 11
195.121224601031
 21
-19.41317781363681
 31
0.0
  0
LINE
  5
399
330
36
100
AcDbEntity
  8
0
 62
     3
100
AcDbLine
 10
195.121224601031
 20
-19.41317781363681
 30
0.0
 11
195.121224601031
 21
-82.41317781363681
 31
0.0
  0
LINE
  5
39A
330
36
100
AcDbEntity
  8
0
 62
     3
100
AcDbLine
 10
104.737786601031
 20
-82.41317781363681
 30
0.0
 11
195.121224601031
 21
-82.41317781363681
 31
0.0
  0
LINE
  5
39B
330
36
100
AcDbEntity
  8
0
100
AcDbLine
 10
104.737786601031
 20
-74.41317781363681
 30
0.0
 11
195.121224601031
 21
-74.41317781363681
 31
0.0
  0
LINE
  5
39C
330
36
100
AcDbEntity
  8
0
100
AcDbLine
 10
104.737786601031
 20
-35.41317781363682
 30
0.0
 11
195.121224601031
 21
-35.41317781363682
 31
0.0
  0
LINE
  5
39D
330
36
100
AcDbEntity
  8
0
100
AcDbLine
 10
104.737786601031
 20
-43.4131778136368
 30
0.0
 11
195.121224601031
 21
-43.4131778136368
 31
0.0
  0
LINE
  5
39E
330
36
100
AcDbEntity
  8
0
100
AcDbLine
 10
104.737786601031
 20
-51.41317781363681
 30
0.0
 11
195.121224601031
 21
-51.41317781363681
 31
0.0
  0
LINE
  5
39F
330
36
100
AcDbEntity
  8
0
100
AcDbLine
 10
104.737786601031
 20
-66.41317781363681
 30
0.0
 11
195.121224601031
 21
-66.41317781363681
 31
0.0
  0
LINE
  5
3A0
330
36
100
AcDbEntity
  8
0
100
AcDbLine
 10
129.639099601031
 20
-19.41317781363681
 30
0.0
 11
129.639099601031
 21
-82.41317781363681
 31
0.0
  0
LINE
  5
3A1
330
36
100
AcDbEntity
  8
0
100
AcDbLine
 10
104.737786601031
 20
-27.41317781363681
 30
0.0
 11
195.121224601031
 21
-27.41317781363681
 31
0.0
  0
LINE
  5
3A2
330
36
100
AcDbEntity
  8
0
100
AcDbLine
 10
120.340131601031
 20
-15.99654033133731
 30
0.0
 11
182.2534764806005
 21
-15.99654033133731
 31
0.0
  0
TEXT
  5
3A4
330
36
100
AcDbEntity
  8
0
 62
     3
100
AcDbText
 10
150.106049601031
 20
-33.92648981363682
 30
0.0
 40
4.5
  1
AC100V
  7
高4.5
100
AcDbText
  0
TEXT
  5
3A5
330
36
100
AcDbEntity
  8
0
 62
     3
100
AcDbText
 10
148.226059601031
 20
-42.04834081363681
 30
0.0
 40
4.5
  1
50/60Hz
  7
高4.5
100
AcDbText
  0
TEXT
  5
3A6
330
36
100
AcDbEntity
  8
0
 62
     3
100
AcDbText
 10
120.340131601031
 20
-14.99869481363681
 30
0.0
 40
4.5
  1
主　　仕　　様（屋内型）
  7
高4.5
100
AcDbText
  0
TEXT
  5
3A7
330
36
100
AcDbEntity
  8
0
 62
     3
100
AcDbText
 10
106.489920601031
 20
-26.1419226058339
 30
0.0
 40
4.5
  1
型    式
  7
高4.5
100
AcDbText
  0
TEXT
  5
3A8
330
36
100
AcDbEntity
  8
0
 62
     3
100
AcDbText
 10
106.489920601031
 20
-33.4131778136368
 30
0.0
 40
4.5
  1
定格電圧
  7
高4.5
100
AcDbText
  0
TEXT
  5
3A9
330
36
100
AcDbEntity
  8
0
 62
     3
100
AcDbText
 10
106.489920601031
 20
-41.41317781363679
 30
0.0
 40
4.5
  1
周波数
  7
高4.5
100
AcDbText
  0
TEXT
  5
3AA
330
36
100
AcDbEntity
  8
0
 62
     3
100
AcDbText
 10
106.489920601031
 20
-49.41317781363681
 30
0.0
 40
4.5
  1
消費電力
  7
高4.5
100
AcDbText
  0
TEXT
  5
3AB
330
36
100
AcDbEntity
  8
0
 62
     3
100
AcDbText
 10
106.489920601031
 20
-57.41317781363679
 30
0.0
 40
4.5
  1
使用電球
  7
高4.5
100
AcDbText
  0
TEXT
  5
3AC
330
36
100
AcDbEntity
  8
0
 62
     3
100
AcDbText
 10
106.489920601031
 20
-72.41317781363679
 30
0.0
 40
4.5
  1
電源コード
 41
0.8
  7
高4.5
100
AcDbText
  0
TEXT
  5
3AD
330
36
100
AcDbEntity
  8
0
 62
     3
100
AcDbText
 10
106.053764601031
 20
-80.8925228136368
 30
0.0
 40
4.5
  1
電線長さ
  7
高4.5
100
AcDbText
  0
TEXT
  5
3AE
330
36
100
AcDbEntity
  8
0
 62
     3
100
AcDbText
 10
132.2067707537045
 20
-72.74081181363681
 30
0.0
 40
4.5
  1
VCT0.75sqx2c
  7
高4.5
100
AcDbText
  0
TEXT
  5
3AF
330
36
100
AcDbEntity
  8
0
 62
     3
100
AcDbText
 10
129.644691601031
 20
-63.76637967824638
 30
0.0
 40
4.5
  1
（インバータ方式）
  7
高4.5
100
AcDbText
  0
TEXT
  5
3B0
330
36
100
AcDbEntity
  8
0
 62
     3
100
AcDbText
 10
156.178417601031
 20
-50.12438881363681
 30
0.0
 40
4.5
  1
31W
  7
高4.5
100
AcDbText
  0
TEXT
  5
3B1
330
36
100
AcDbEntity
  8
0
 62
     3
100
AcDbText
 10
129.644691601031
 20
-57.6162708136368
 30
0.0
 40
4.5
  1
トルネード型蛍光灯32W
  7
高4.5
100
AcDbText
  0
TEXT
  5
3B2
330
36
100
AcDbEntity
  8
0
 62
     3
100
AcDbText
 10
156.335734601031
 20
-80.74081181363681
 30
0.0
 40
4.5
  1
5m
  7
高4.5
100
AcDbText
  0
TEXT
  5
3B3
330
36
100
AcDbEntity
  8
0
 62
     3
100
AcDbText
 10
-99.64971793648572
 20
-130.0
 30
0.0
 40
3.2
  1
1
 41
0.8
  7
高3.2
100
AcDbText
  0
TEXT
  5
3B4
330
36
100
AcDbEntity
  8
0
 62
     3
100
AcDbText
 10
-99.64971793648572
 20
-120.0
 30
0.0
 40
3.2
  1
1
 41
0.8
  7
高3.2
100
AcDbText
  0
TEXT
  5
3B5
330
36
100
AcDbEntity
  8
0
 62
     3
100
AcDbText
 10
-188.5
 20
-130.0
 30
0.0
 40
3.2
  1
01
 41
0.8
  7
高3.2
100
AcDbText
  0
TEXT
  5
3B6
330
36
100
AcDbEntity
  8
0
 62
     3
100
AcDbText
 10
-188.5
 20
-125.0
 30
0.0
 40
3.2
  1
02
 41
0.8
  7
高3.2
100
AcDbText
  0
TEXT
  5
3B7
330
36
100
AcDbEntity
  8
0
 62
     3
100
AcDbText
 10
-188.5
 20
-120.0
 30
0.0
 40
3.2
  1
03
 41
0.8
  7
高3.2
100
AcDbText
  0
TEXT
  5
3B8
330
36
100
AcDbEntity
  8
0
 62
     3
100
AcDbText
 10
-188.5
 20
-115.0
 30
0.0
 40
3.2
  1
04
 41
0.8
  7
高3.2
100
AcDbText
  0
TEXT
  5
3B9
330
36
100
AcDbEntity
  8
0
 62
     3
100
AcDbText
 10
-188.5
 20
-110.0
 30
0.0
 40
3.2
  1
05
 41
0.8
  7
高3.2
100
AcDbText
  0
TEXT
  5
3BA
330
36
100
AcDbEntity
  8
0
 62
     3
100
AcDbText
 10
-99.64971793648572
 20
-110.0
 30
0.0
 40
3.2
  1
1
 41
0.8
  7
高3.2
100
AcDbText
  0
TEXT
  5
3BB
330
36
100
AcDbEntity
  8
0
 62
     3
100
AcDbText
 10
-181.5241562943588
 20
-130.0
 30
0.0
 40
3.2
  1
灯具本体(取手)
 41
0.8
  7
高3.2
100
AcDbText
  0
TEXT
  5
3BC
330
36
100
AcDbEntity
  8
0
 62
     3
100
AcDbText
 10
-181.5241562943588
 20
-125.0
 30
0.0
 40
3.2
  1
電源コード
 41
0.8
  7
高3.2
100
AcDbText
  0
TEXT
  5
3BD
330
36
100
AcDbEntity
  8
0
 62
     3
100
AcDbText
 10
-181.5241562943588
 20
-120.0
 30
0.0
 40
3.2
  1
ガード(大)
 41
0.8
  7
高3.2
100
AcDbText
  0
TEXT
  5
3BE
330
36
100
AcDbEntity
  8
0
 62
     3
100
AcDbText
 10
-181.5241562943588
 20
-110.0
 30
0.0
 40
3.2
  1
クランプ
 41
0.8
  7
高3.2
100
AcDbText
  0
TEXT
  5
3BF
330
36
100
AcDbEntity
  8
0
 62
     3
100
AcDbText
 10
-99.64971793648572
 20
-125.0
 30
0.0
 40
3.2
  1
1
 41
0.8
  7
高3.2
100
AcDbText
  0
TEXT
  5
3C0
330
36
100
AcDbEntity
  8
0
 62
     3
100
AcDbText
 10
-99.64971793648572
 20
-115.0
 30
0.0
 40
3.2
  1
1
 41
0.8
  7
高3.2
100
AcDbText
  0
TEXT
  5
3C1
330
36
100
AcDbEntity
  8
0
 62
     3
100
AcDbText
 10
-141.4895036120581
 20
-125.0
 30
0.0
 40
3.2
  1
2Pプラグ付き
 41
0.8
  7
高3.2
100
AcDbText
  0
TEXT
  5
3C2
330
36
100
AcDbEntity
  8
0
 62
     3
100
AcDbText
 10
-181.5241562943588
 20
-115.0
 30
0.0
 40
3.2
  1
トルネード型バルブ
 41
0.8
  7
高3.2
100
AcDbText
  0
TEXT
  5
3C3
330
36
100
AcDbEntity
  8
0
 62
     3
100
AcDbText
 10
-188.5
 20
-105.0
 30
0.0
 40
3.2
  1
06
 41
0.8
  7
高3.2
100
AcDbText
  0
TEXT
  5
3C4
330
36
100
AcDbEntity
  8
0
 62
     3
100
AcDbText
 10
-99.64971793648572
 20
-105.0
 30
0.0
 40
3.2
  1
1
 41
0.8
  7
高3.2
100
AcDbText
  0
TEXT
  5
3C5
330
36
100
AcDbEntity
  8
0
 62
     3
100
AcDbText
 10
-99.64971793648572
 20
-100.0
 30
0.0
 40
3.2
  1
1
 41
0.8
  7
高3.2
100
AcDbText
  0
TEXT
  5
3C6
330
36
100
AcDbEntity
  8
0
 62
     3
100
AcDbText
 10
-188.5
 20
-100.0
 30
0.0
 40
3.2
  1
07
 41
0.8
  7
高3.2
100
AcDbText
  0
TEXT
  5
3C7
330
36
100
AcDbEntity
  8
0
 62
     3
100
AcDbText
 10
-181.5241562943588
 20
-100.0
 30
0.0
 40
3.2
  1
クリップランプ用スイッチ
 41
0.8
  7
高3.2
100
AcDbText
  0
TEXT
  5
3C8
330
36
100
AcDbEntity
  8
0
 62
     3
100
AcDbText
 10
-141.4895036120581
 20
-100.0
 30
0.0
 40
3.2
  1
250V 6A
 41
0.8
  7
高3.2
100
AcDbText
  0
TEXT
  5
3C9
330
36
100
AcDbEntity
  8
0
 62
     3
100
AcDbText
 10
-181.5241562943588
 20
-105.0
 30
0.0
 40
3.2
  1
クリップランプ用ソケット
 41
0.8
  7
高3.2
100
AcDbText
  0
TEXT
  5
3CA
330
36
100
AcDbEntity
  8
0
 62
     3
100
AcDbText
 10
-141.4895036120581
 20
-105.0
 30
0.0
 40
3.2
  1
250V　6A(口金E26)
 41
0.8
  7
高3.2
100
AcDbText
  0
TEXT
  5
3CB
330
36
100
AcDbEntity
  8
0
 62
     3
100
AcDbText
 10
-141.4895036120581
 20
-115.0
 30
0.0
 40
3.2
  1
F32W-T　インバータ式
 41
0.8
  7
高3.2
100
AcDbText
  0
TEXT
  5
3CC
330
36
100
AcDbEntity
  8
0
 62
     3
100
AcDbText
 10
-141.4895036120581
 20
-130.0
 30
0.0
 40
3.2
  1
PP樹脂
 41
0.8
  7
高3.2
100
AcDbText
  0
TEXT
  5
3CD
330
36
100
AcDbEntity
  8
0
 62
     3
100
AcDbText
 10
-99.64971793648572
 20
-95.0
 30
0.0
 40
3.2
  1
1
 41
0.8
  7
高3.2
100
AcDbText
  0
LINE
  5
3CE
330
36
100
AcDbEntity
  8
0
 62
     3
100
AcDbLine
 10
199.899964
 20
-89.834277
 30
0.0
 11
148.3006
 21
-89.834277
 31
0.0
  0
TEXT
  5
3CF
330
36
100
AcDbEntity
  8
0
 62
     3
100
AcDbText
 10
154.5586719441061
 20
-95.32815514425172
 30
0.0
 40
4.5
  1
コード
  7
高4.5
100
AcDbText
  0
LINE
  5
3D0
330
36
100
AcDbEntity
  8
0
 62
     3
100
AcDbLine
 10
174.3006
 20
-95.83427699999999
 30
0.0
 11
174.3006
 21
-89.834277
 31
0.0
  0
LINE
  5
3D1
330
36
100
AcDbEntity
  8
0
 62
     3
100
AcDbLine
 10
148.3006
 20
-95.83427699999999
 30
0.0
 11
148.3006
 21
-89.834277
 31
0.0
  0
LINE
  5
3D2
330
36
100
AcDbEntity
  8
0
  6
CENTER
100
AcDbLine
 10
-35.882448
 20
37.2918569143353
 30
0.0
 11
-51.61494799999999
 21
37.2918569143353
 31
0.0
  0
LINE
  5
3D3
330
36
100
AcDbEntity
  8
0
  6
CENTER
100
AcDbLine
 10
-162.406388
 20
37.2918569143353
 30
0.0
 11
-66.78138800000001
 21
37.2918569143353
 31
0.0
  0
LINE
  5
3D4
330
36
100
AcDbEntity
  8
0
  6
CENTER
100
AcDbLine
 10
-114.593888
 20
-10.52064308566471
 30
0.0
 11
-114.593888
 21
85.10435691433528
 31
0.0
  0
ARC
  5
3D5
330
36
100
AcDbEntity
  8
0
 62
     3
100
AcDbCircle
 10
-114.593888
 20
37.2918569143353
 30
0.0
 40
29.0
100
AcDbArc
 50
224.518517
 51
225.481483
  0
ARC
  5
3D6
330
36
100
AcDbEntity
  8
0
 62
     3
100
AcDbCircle
 10
-135.452795
 20
16.07939591433529
 30
0.0
 40
0.75
100
AcDbArc
 50
314.9999999999999
 51
45.481483
  0
ARC
  5
3D7
330
36
100
AcDbEntity
  8
0
 62
     3
100
AcDbCircle
 10
-114.593888
 20
37.2918569143353
 30
0.0
 40
29.0
100
AcDbArc
 50
134.518517
 51
135.481483
  0
ARC
  5
3D8
330
36
100
AcDbEntity
  8
0
 62
     3
100
AcDbCircle
 10
-135.806348
 20
58.15076391433527
 30
0.0
 40
0.75
100
AcDbArc
 50
225.0
 51
315.481483
  0
ARC
  5
3D9
330
36
100
AcDbEntity
  8
0
 62
     3
100
AcDbCircle
 10
-93.73497999999999
 20
58.50431691433527
 30
0.0
 40
0.75
100
AcDbArc
 50
134.9999999999999
 51
225.481483
  0
ARC
  5
3DA
330
36
100
AcDbEntity
  8
0
 62
     3
100
AcDbCircle
 10
-114.593888
 20
37.2918569143353
 30
0.0
 40
29.0
100
AcDbArc
 50
44.51851700000001
 51
45.481483
  0
ARC
  5
3DB
330
36
100
AcDbEntity
  8
0
 62
     3
100
AcDbCircle
 10
-114.593888
 20
37.2918569143353
 30
0.0
 40
29.0
100
AcDbArc
 50
314.518517
 51
315.481483
  0
ARC
  5
3DC
330
36
100
AcDbEntity
  8
0
 62
     3
100
AcDbCircle
 10
-93.381427
 20
16.43294891433528
 30
0.0
 40
0.75
100
AcDbArc
 50
45.0
 51
135.481483
  0
ARC
  5
3DD
330
36
100
AcDbEntity
  8
0
 62
     3
100
AcDbCircle
 10
-114.593888
 20
37.2918569143353
 30
0.0
 40
36.5
100
AcDbArc
 50
44.59932700000003
 51
45.40067299999996
  0
ARC
  5
3DE
330
36
100
AcDbEntity
  8
0
 62
     3
100
AcDbCircle
 10
-89.13866199999999
 20
62.39352891433529
 30
0.0
 40
0.75
100
AcDbArc
 50
314.9999999999999
 51
44.59932700000003
  0
ARC
  5
3DF
330
36
100
AcDbEntity
  8
0
 62
     3
100
AcDbCircle
 10
-114.593888
 20
37.2918569143353
 30
0.0
 40
36.5
100
AcDbArc
 50
134.5993269999999
 51
135.4006729999999
  0
ARC
  5
3E0
330
36
100
AcDbEntity
  8
0
 62
     3
100
AcDbCircle
 10
-139.69556
 20
62.74708291433528
 30
0.0
 40
0.75
100
AcDbArc
 50
45.0
 51
134.5993269999999
  0
ARC
  5
3E1
330
36
100
AcDbEntity
  8
0
 62
     3
100
AcDbCircle
 10
-114.593888
 20
37.2918569143353
 30
0.0
 40
36.5
100
AcDbArc
 50
314.599327
 51
315.400673
  0
ARC
  5
3E2
330
36
100
AcDbEntity
  8
0
 62
     3
100
AcDbCircle
 10
-89.492215
 20
11.83663091433528
 30
0.0
 40
0.75
100
AcDbArc
 50
225.0
 51
314.599327
  0
ARC
  5
3E3
330
36
100
AcDbEntity
  8
0
 62
     3
100
AcDbCircle
 10
-140.049114
 20
12.19018391433528
 30
0.0
 40
0.75
100
AcDbArc
 50
134.9999999999999
 51
224.5993269999999
  0
ARC
  5
3E4
330
36
100
AcDbEntity
  8
0
 62
     3
100
AcDbCircle
 10
-114.593888
 20
37.2918569143353
 30
0.0
 40
36.5
100
AcDbArc
 50
224.5993269999999
 51
225.400673
  0
ARC
  5
3E5
330
36
100
AcDbEntity
  8
0
 62
     3
100
AcDbCircle
 10
-89.13866199999999
 20
12.19018391433528
 30
0.0
 40
0.75
100
AcDbArc
 50
315.400673
 51
45.0
  0
ARC
  5
3E6
330
36
100
AcDbEntity
  8
0
 62
     3
100
AcDbCircle
 10
-89.492215
 20
62.74708291433528
 30
0.0
 40
0.75
100
AcDbArc
 50
45.40067299999996
 51
134.9999999999999
  0
ARC
  5
3E7
330
36
100
AcDbEntity
  8
0
 62
     3
100
AcDbCircle
 10
-139.69556
 20
11.83663091433528
 30
0.0
 40
0.75
100
AcDbArc
 50
225.400673
 51
314.9999999999999
  0
ARC
  5
3E8
330
36
100
AcDbEntity
  8
0
 62
     3
100
AcDbCircle
 10
-140.049114
 20
62.39352891433529
 30
0.0
 40
0.75
100
AcDbArc
 50
135.4006729999999
 51
225.0
  0
ARC
  5
3E9
330
36
100
AcDbEntity
  8
0
 62
     3
100
AcDbCircle
 10
-93.381427
 20
58.15076391433527
 30
0.0
 40
0.75
100
AcDbArc
 50
224.518517
 51
314.9999999999999
  0
ARC
  5
3EA
330
36
100
AcDbEntity
  8
0
 62
     3
100
AcDbCircle
 10
-135.452795
 20
58.50431691433527
 30
0.0
 40
0.75
100
AcDbArc
 50
314.518517
 51
45.0
  0
ARC
  5
3EB
330
36
100
AcDbEntity
  8
0
 62
     3
100
AcDbCircle
 10
-135.806348
 20
16.43294891433528
 30
0.0
 40
0.75
100
AcDbArc
 50
44.51851700000001
 51
134.9999999999999
  0
LINE
  5
3EC
330
36
100
AcDbEntity
  8
0
 62
     3
100
AcDbLine
 10
-93.73496199999999
 20
15.01871791433528
 30
0.0
 11
-93.93834899999999
 21
15.22210391433528
 31
0.0
  0
LINE
  5
3ED
330
36
100
AcDbEntity
  8
0
 62
     3
100
AcDbLine
 10
-93.93834899999999
 20
15.22210391433528
 30
0.0
 11
-94.110106
 21
15.39386091433528
 31
0.0
  0
LINE
  5
3EE
330
36
100
AcDbEntity
  8
0
 62
     3
100
AcDbLine
 10
-94.110106
 20
15.39386091433528
 30
0.0
 11
-94.176149
 21
15.45990391433528
 31
0.0
  0
LINE
  5
3EF
330
36
100
AcDbEntity
  8
0
 62
     3
100
AcDbLine
 10
-94.176149
 20
15.45990391433528
 30
0.0
 11
-94.22494
 21
15.50869491433528
 31
0.0
  0
LINE
  5
3F0
330
36
100
AcDbEntity
  8
0
 62
     3
100
AcDbLine
 10
-94.22494
 20
15.50869491433528
 30
0.0
 11
-94.255148
 21
15.53890391433528
 31
0.0
  0
LINE
  5
3F1
330
36
100
AcDbEntity
  8
0
 62
     3
100
AcDbLine
 10
-94.255148
 20
15.53890391433528
 30
0.0
 11
-94.265311
 21
15.54906591433528
 31
0.0
  0
ARC
  5
3F2
330
36
100
AcDbEntity
  8
0
 62
     3
100
AcDbCircle
 10
-93.73497999999999
 20
16.07939591433529
 30
0.0
 40
0.75
100
AcDbArc
 50
134.518517
 51
225.0
  0
ARC
  5
3F3
330
36
100
AcDbEntity
  8
0
 62
     3
100
AcDbCircle
 10
-114.593888
 20
35.17053591433529
 30
0.0
 40
0.5
100
AcDbArc
 50
45.00001499999997
 51
134.999985
  0
ARC
  5
3F4
330
36
100
AcDbEntity
  8
0
 62
     3
100
AcDbCircle
 10
-112.472567
 20
37.2918569143353
 30
0.0
 40
0.5
100
AcDbArc
 50
135.000015
 51
224.999985
  0
ARC
  5
3F5
330
36
100
AcDbEntity
  8
0
 62
     3
100
AcDbCircle
 10
-116.715208
 20
37.2918569143353
 30
0.0
 40
0.5
100
AcDbArc
 50
315.000015
 51
44.99998499999999
  0
ARC
  5
3F6
330
36
100
AcDbEntity
  8
0
 62
     3
100
AcDbCircle
 10
-114.593888
 20
39.41317691433528
 30
0.0
 40
0.5
100
AcDbArc
 50
225.0000149999999
 51
314.999985
  0
ARC
  5
3F7
330
36
100
AcDbEntity
  8
0
 62
     3
100
AcDbCircle
 10
-114.593888
 20
37.2918569143353
 30
0.0
 40
18.0
100
AcDbArc
 50
228.184739
 51
311.8152609999999
  0
ARC
  5
3F8
330
36
100
AcDbEntity
  8
0
 62
     3
100
AcDbCircle
 10
-114.593888
 20
37.2918569143353
 30
0.0
 40
18.0
100
AcDbArc
 50
48.18473899999999
 51
131.815261
  0
ARC
  5
3F9
330
36
100
AcDbEntity
  8
0
 62
     3
100
AcDbCircle
 10
-114.593888
 20
37.2918569143353
 30
0.0
 40
18.0
100
AcDbArc
 50
318.1847390000001
 51
41.81526100000003
  0
ARC
  5
3FA
330
36
100
AcDbEntity
  8
0
 62
     3
100
AcDbCircle
 10
-114.593888
 20
37.2918569143353
 30
0.0
 40
18.0
100
AcDbArc
 50
138.184739
 51
221.815261
  0
ARC
  5
3FB
330
36
100
AcDbEntity
  8
0
 62
     3
100
AcDbCircle
 10
-114.593888
 20
37.2918569143353
 30
0.0
 40
20.0
100
AcDbArc
 50
137.865984
 51
222.134016
  0
ARC
  5
3FC
330
36
100
AcDbEntity
  8
0
 62
     3
100
AcDbCircle
 10
-114.593888
 20
37.2918569143353
 30
0.0
 40
20.0
100
AcDbArc
 50
47.86598399999998
 51
132.1340159999999
  0
ARC
  5
3FD
330
36
100
AcDbEntity
  8
0
 62
     3
100
AcDbCircle
 10
-114.593888
 20
37.2918569143353
 30
0.0
 40
20.0
100
AcDbArc
 50
227.8659839999999
 51
312.134016
  0
ARC
  5
3FE
330
36
100
AcDbEntity
  8
0
 62
     3
100
AcDbCircle
 10
-114.593888
 20
37.2918569143353
 30
0.0
 40
20.0
100
AcDbArc
 50
317.865984
 51
42.134016
  0
ARC
  5
3FF
330
36
100
AcDbEntity
  8
0
 62
     3
100
AcDbCircle
 10
-114.593888
 20
37.2918569143353
 30
0.0
 40
32.5
100
AcDbArc
 50
137.038895
 51
222.961105
  0
ARC
  5
400
330
36
100
AcDbEntity
  8
0
 62
     3
100
AcDbCircle
 10
-114.593888
 20
37.2918569143353
 30
0.0
 40
32.5
100
AcDbArc
 50
114.315739
 51
132.961105
  0
ARC
  5
401
330
36
100
AcDbEntity
  8
0
 62
     3
100
AcDbCircle
 10
-114.593888
 20
37.2918569143353
 30
0.0
 40
32.5
100
AcDbArc
 50
294.315739
 51
312.961105
  0
ARC
  5
402
330
36
100
AcDbEntity
  8
0
 62
     3
100
AcDbCircle
 10
-114.593888
 20
37.2918569143353
 30
0.0
 40
32.5
100
AcDbArc
 50
317.038895
 51
42.961105
  0
ARC
  5
403
330
36
100
AcDbEntity
  8
0
 62
     3
100
AcDbCircle
 10
-114.593888
 20
37.2918569143353
 30
0.0
 40
32.5
100
AcDbArc
 50
47.03889399999996
 51
65.68426099999999
  0
ARC
  5
404
330
36
100
AcDbEntity
  8
0
 62
     3
100
AcDbCircle
 10
-114.593888
 20
37.2918569143353
 30
0.0
 40
32.5
100
AcDbArc
 50
227.038895
 51
245.684261
  0
ARC
  5
405
330
36
100
AcDbEntity
  8
0
 62
     3
100
AcDbCircle
 10
-103.593888
 20
4.328808914335283
 30
0.0
 40
1.5
100
AcDbArc
 50
288.454216
 51
0.0
  0
LINE
  5
406
330
36
100
AcDbEntity
  8
0
 62
     3
100
AcDbLine
 10
-102.093888
 20
4.328807914335283
 30
0.0
 11
-102.093888
 21
6.307988914335285
 31
0.0
  0
LINE
  5
407
330
36
100
AcDbEntity
  8
0
 62
     3
100
AcDbLine
 10
-102.093888
 20
68.27572391433529
 30
0.0
 11
-102.093888
 21
70.25490491433527
 31
0.0
  0
CIRCLE
  5
408
330
36
100
AcDbEntity
  8
0
 62
     3
100
AcDbCircle
 10
-114.593888
 20
37.2918569143353
 30
0.0
 40
38.25
  0
LINE
  5
409
330
36
100
AcDbEntity
  8
0
 62
     3
100
AcDbLine
 10
-127.093888
 20
70.25490491433527
 30
0.0
 11
-127.093888
 21
68.27572391433529
 31
0.0
  0
ARC
  5
40A
330
36
100
AcDbEntity
  8
0
 62
     3
100
AcDbCircle
 10
-103.593888
 20
70.25490391433527
 30
0.0
 40
1.5
100
AcDbArc
 50
0.0
 51
71.545784
  0
ARC
  5
40B
330
36
100
AcDbEntity
  8
0
 62
     3
100
AcDbCircle
 10
-114.593888
 20
37.2918569143353
 30
0.0
 40
36.25
100
AcDbArc
 50
71.545784
 51
108.454216
  0
ARC
  5
40C
330
36
100
AcDbEntity
  8
0
 62
     3
100
AcDbCircle
 10
-125.593888
 20
70.25490391433527
 30
0.0
 40
1.5
100
AcDbArc
 50
108.454216
 51
180.0
  0
ARC
  5
40D
330
36
100
AcDbEntity
  8
0
 62
     3
100
AcDbCircle
 10
-114.593888
 20
37.2918569143353
 30
0.0
 40
36.25
100
AcDbArc
 50
251.545784
 51
288.454216
  0
ARC
  5
40E
330
36
100
AcDbEntity
  8
0
 62
     3
100
AcDbCircle
 10
-125.593888
 20
4.328808914335283
 30
0.0
 40
1.5
100
AcDbArc
 50
180.0
 51
251.545784
  0
LINE
  5
40F
330
36
100
AcDbEntity
  8
0
 62
     3
100
AcDbLine
 10
-127.093888
 20
6.307988914335285
 30
0.0
 11
-127.093888
 21
4.328807914335283
 31
0.0
  0
ARC
  5
410
330
36
100
AcDbEntity
  8
0
 62
     3
100
AcDbCircle
 10
-128.593888
 20
68.27572291433529
 30
0.0
 40
1.5
100
AcDbArc
 50
294.315739
 51
0.0
  0
ARC
  5
411
330
36
100
AcDbEntity
  8
0
 62
     3
100
AcDbCircle
 10
-100.593888
 20
68.27572291433529
 30
0.0
 40
1.5
100
AcDbArc
 50
180.0
 51
245.684261
  0
ARC
  5
412
330
36
100
AcDbEntity
  8
0
 62
     3
100
AcDbCircle
 10
-100.593888
 20
6.307989914335285
 30
0.0
 40
1.5
100
AcDbArc
 50
114.315739
 51
180.0
  0
ARC
  5
413
330
36
100
AcDbEntity
  8
0
 62
     3
100
AcDbCircle
 10
-128.593888
 20
6.307989914335285
 30
0.0
 40
1.5
100
AcDbArc
 50
0.0
 51
65.68426099999999
  0
ARC
  5
414
330
36
100
AcDbEntity
  8
0
 62
     3
100
AcDbCircle
 10
-123.093888
 20
3.082025914335285
 30
0.0
 40
1.5
100
AcDbArc
 50
76.04647599999998
 51
180.0
  0
ARC
  5
415
330
36
100
AcDbEntity
  8
0
 62
     3
100
AcDbCircle
 10
-114.593888
 20
37.2918569143353
 30
0.0
 40
33.75
100
AcDbArc
 50
256.046476
 51
283.953524
  0
ARC
  5
416
330
36
100
AcDbEntity
  8
0
 62
     3
100
AcDbCircle
 10
-106.093888
 20
3.082025914335285
 30
0.0
 40
1.5
100
AcDbArc
 50
0.0
 51
103.953524
  0
LINE
  5
417
330
36
100
AcDbEntity
  8
0
 62
     3
100
AcDbLine
 10
-104.593888
 20
2.968942914335283
 30
0.0
 11
-104.593888
 21
3.082027914335285
 31
0.0
  0
LINE
  5
418
330
36
100
AcDbEntity
  8
0
 62
     3
100
AcDbLine
 10
-124.593888
 20
3.082027914335285
 30
0.0
 11
-124.593888
 21
2.968942914335283
 31
0.0
  0
ARC
  5
419
330
36
100
AcDbEntity
  8
0
 62
     3
100
AcDbCircle
 10
-114.593888
 20
37.2918569143353
 30
0.0
 40
33.75
100
AcDbArc
 50
76.04647599999998
 51
103.953524
  0
ARC
  5
41A
330
36
100
AcDbEntity
  8
0
 62
     3
100
AcDbCircle
 10
-106.093888
 20
71.50168691433529
 30
0.0
 40
1.5
100
AcDbArc
 50
256.046476
 51
0.0
  0
ARC
  5
41B
330
36
100
AcDbEntity
  8
0
 62
     3
100
AcDbCircle
 10
-123.093888
 20
71.50168691433529
 30
0.0
 40
1.5
100
AcDbArc
 50
180.0
 51
283.953524
  0
LINE
  5
41C
330
36
100
AcDbEntity
  8
0
 62
     3
100
AcDbLine
 10
-124.593888
 20
71.5016849143353
 30
0.0
 11
-124.593888
 21
71.61476991433528
 31
0.0
  0
LINE
  5
41D
330
36
100
AcDbEntity
  8
0
 62
     3
100
AcDbLine
 10
-104.593888
 20
71.61476991433528
 30
0.0
 11
-104.593888
 21
71.5016849143353
 31
0.0
  0
LINE
  5
41E
330
36
100
AcDbEntity
  8
0
 62
     3
100
AcDbLine
 10
-37.767987
 20
75.5418559143353
 30
0.0
 11
-41.017988
 21
75.5418559143353
 31
0.0
  0
LINE
  5
41F
330
36
100
AcDbEntity
  8
0
 62
     3
100
AcDbLine
 10
-41.017988
 20
-0.9581430856647159
 30
0.0
 11
-37.767987
 21
-0.9581430856647159
 31
0.0
  0
ARC
  5
420
330
36
100
AcDbEntity
  8
0
 62
     3
100
AcDbCircle
 10
-41.017988
 20
-0.2081430856647159
 30
0.0
 40
0.75
100
AcDbArc
 50
180.0
 51
270.0
  0
ARC
  5
421
330
36
100
AcDbEntity
  8
0
 62
     3
100
AcDbCircle
 10
-41.017988
 20
74.79185691433528
 30
0.0
 40
0.75
100
AcDbArc
 50
90.0
 51
180.0
  0
ARC
  5
422
330
36
100
AcDbEntity
  8
0
 62
     3
100
AcDbCircle
 10
-44.142988
 20
12.54311891433528
 30
0.0
 40
4.625
100
AcDbArc
 50
341.0753560000001
 51
0.0
  0
ARC
  5
423
330
36
100
AcDbEntity
  8
0
 62
     3
100
AcDbCircle
 10
-44.142988
 20
12.54311891433528
 30
0.0
 40
4.625
100
AcDbArc
 50
0.0
 51
18.92464399999996
  0
ARC
  5
424
330
36
100
AcDbEntity
  8
0
 62
     3
100
AcDbCircle
 10
-42.517988
 20
64.24708291433526
 30
0.0
 40
0.75
100
AcDbArc
 50
270.0
 51
0.0
  0
ARC
  5
425
330
36
100
AcDbEntity
  8
0
 62
     3
100
AcDbCircle
 10
-42.517988
 20
10.33663091433528
 30
0.0
 40
0.75
100
AcDbArc
 50
0.0
 51
90.0
  0
ARC
  5
426
330
36
100
AcDbEntity
  8
0
 62
     3
100
AcDbCircle
 10
-48.391166
 20
12.45924791433528
 30
0.0
 40
1.374398
100
AcDbArc
 50
183.949904
 51
275.144347
  0
ARC
  5
427
330
36
100
AcDbEntity
  8
0
 62
     3
100
AcDbCircle
 10
-48.398902
 20
62.13709391433527
 30
0.0
 40
1.362851999999999
100
AcDbArc
 50
84.485942
 51
176.6307689999999
  0
LINE
  5
428
330
36
100
AcDbEntity
  8
0
 62
     3
100
AcDbLine
 10
-42.517988
 20
63.49708291433528
 30
0.0
 11
-48.267988
 21
63.49708291433528
 31
0.0
  0
LINE
  5
429
330
36
100
AcDbEntity
  8
0
 62
     3
100
AcDbLine
 10
-48.267988
 20
11.08662991433528
 30
0.0
 11
-42.517988
 21
11.08662991433528
 31
0.0
  0
LINE
  5
42A
330
36
100
AcDbEntity
  8
0
 62
     3
100
AcDbLine
 10
-41.76768299999999
 20
59.53117991433528
 30
0.0
 11
-41.767773
 21
59.53156391433527
 31
0.0
  0
LINE
  5
42B
330
36
100
AcDbEntity
  8
0
 62
     3
100
AcDbLine
 10
-41.767516
 20
15.05225391433528
 30
0.0
 11
-41.76717
 21
15.05355591433528
 31
0.0
  0
ARC
  5
42C
330
36
100
AcDbEntity
  8
0
 62
     3
100
AcDbCircle
 10
-48.401639
 20
15.81989291433528
 30
0.0
 40
1.363858
100
AcDbArc
 50
84.38042499999998
 51
176.47734
  0
ARC
  5
42D
330
36
100
AcDbEntity
  8
0
 62
     3
100
AcDbCircle
 10
-48.38692899999998
 20
58.78672691433528
 30
0.0
 40
1.384705999999999
100
AcDbArc
 50
184.3751199999998
 51
274.931025
  0
LINE
  5
42E
330
36
100
AcDbEntity
  8
0
 62
     3
100
AcDbLine
 10
-48.026514
 20
17.18294991433528
 30
0.0
 11
-48.267988
 21
17.18294991433528
 31
0.0
  0
LINE
  5
42F
330
36
100
AcDbEntity
  8
0
 62
     3
100
AcDbLine
 10
-48.267988
 20
57.40076291433529
 30
0.0
 11
-48.026514
 21
57.40076291433529
 31
0.0
  0
LINE
  5
430
330
36
100
AcDbEntity
  8
0
 62
     3
100
AcDbLine
 10
-42.017987
 20
57.29185591433529
 30
0.0
 11
-42.238131
 21
57.29185591433529
 31
0.0
  0
LINE
  5
431
330
36
100
AcDbEntity
  8
0
 62
     3
100
AcDbLine
 10
-42.238131
 20
17.29185691433528
 30
0.0
 11
-42.017987
 21
17.29185691433528
 31
0.0
  0
ARC
  5
432
330
36
100
AcDbEntity
  8
0
 62
     3
100
AcDbCircle
 10
168.232012
 20
37.2918569143353
 30
0.0
 40
216.5
100
AcDbArc
 50
179.764453
 51
180.235577
  0
ARC
  5
433
330
36
100
AcDbEntity
  8
0
 62
     3
100
AcDbCircle
 10
37.901461
 20
41.18318791433527
 30
0.0
 40
85.872817
100
AcDbArc
 50
169.589169
 51
172.454551
  0
ARC
  5
434
330
36
100
AcDbEntity
  8
0
 62
     3
100
AcDbCircle
 10
42.893938
 20
34.10317691433529
 30
0.0
 40
90.910834
100
AcDbArc
 50
187.390736
 51
190.2828739999999
  0
LINE
  5
435
330
36
100
AcDbEntity
  8
0
 62
     3
100
AcDbLine
 10
-35.267988
 20
4.582026914335285
 30
0.0
 11
-37.267988
 21
4.582026914335285
 31
0.0
  0
LINE
  5
436
330
36
100
AcDbEntity
  8
0
 62
     3
100
AcDbLine
 10
-37.267988
 20
70.00168591433528
 30
0.0
 11
-35.267988
 21
70.00168591433528
 31
0.0
  0
ARC
  5
437
330
36
100
AcDbEntity
  8
0
 62
     3
100
AcDbCircle
 10
-37.767988
 20
1.541856914335284
 30
0.0
 40
2.5
100
AcDbArc
 50
270.0
 51
0.0
  0
ARC
  5
438
330
36
100
AcDbEntity
  8
0
 62
     3
100
AcDbCircle
 10
-37.767988
 20
73.04185691433528
 30
0.0
 40
2.5
100
AcDbArc
 50
0.0
 51
90.0
  0
LINE
  5
439
330
36
100
AcDbEntity
  8
0
 62
     3
100
AcDbLine
 10
-37.767987
 20
74.21153191433527
 30
0.0
 11
-40.517988
 21
74.21153191433527
 31
0.0
  0
LINE
  5
43A
330
36
100
AcDbEntity
  8
0
 62
     3
100
AcDbLine
 10
-37.767987
 20
0.372180914335285
 30
0.0
 11
-40.517988
 21
0.372180914335285
 31
0.0
  0
LINE
  5
43B
330
36
100
AcDbEntity
  8
0
 62
     3
100
AcDbLine
 10
-38.267988
 20
46.79185591433529
 30
0.0
 11
-38.267988
 21
27.79185691433529
 31
0.0
  0
LINE
  5
43C
330
36
100
AcDbEntity
  8
0
 62
     3
100
AcDbLine
 10
-41.767988
 20
37.2918569143353
 30
0.0
 11
-41.767988
 21
74.79185791433528
 31
0.0
  0
LINE
  5
43D
330
36
100
AcDbEntity
  8
0
 62
     3
100
AcDbLine
 10
-41.767988
 20
-0.2081450856647127
 30
0.0
 11
-41.767988
 21
37.2918569143353
 31
0.0
  0
ARC
  5
43E
330
36
100
AcDbEntity
  8
0
 62
     3
100
AcDbCircle
 10
-39.29000100000001
 20
29.04330991433529
 30
0.0
 40
1.845224999999999
100
AcDbArc
 50
228.279759
 51
251.655552
  0
LINE
  5
43F
330
36
100
AcDbEntity
  8
0
 62
     3
100
AcDbLine
 10
-38.767988
 20
27.29185691433528
 30
0.0
 11
-39.87074699999999
 21
27.29185691433528
 31
0.0
  0
ARC
  5
440
330
36
100
AcDbEntity
  8
0
 62
     3
100
AcDbCircle
 10
-39.29000100000001
 20
45.54040291433528
 30
0.0
 40
1.845224999999999
100
AcDbArc
 50
108.344448
 51
131.7202409999999
  0
LINE
  5
441
330
36
100
AcDbEntity
  8
0
 62
     3
100
AcDbLine
 10
-39.87074699999999
 20
47.29185591433529
 30
0.0
 11
-38.767988
 21
47.29185591433529
 31
0.0
  0
LINE
  5
442
330
36
100
AcDbEntity
  8
0
 62
     3
100
AcDbLine
 10
-39.767988
 20
27.29185691433528
 30
0.0
 11
-39.767988
 21
1.149775914335284
 31
0.0
  0
ARC
  5
443
330
36
100
AcDbEntity
  8
0
 62
     3
100
AcDbCircle
 10
-40.529278
 20
1.133559914335284
 30
0.0
 40
0.761463
100
AcDbArc
 50
270.849569
 51
1.220208000000014
  0
ARC
  5
444
330
36
100
AcDbEntity
  8
0
 62
     3
100
AcDbCircle
 10
-40.533601
 20
73.44598391433527
 30
0.0
 40
0.765708
100
AcDbArc
 50
359.09859
 51
88.83163299999997
  0
LINE
  5
445
330
36
100
AcDbEntity
  8
0
 62
     3
100
AcDbLine
 10
-39.767988
 20
73.4339379143353
 30
0.0
 11
-39.767988
 21
47.29185591433529
 31
0.0
  0
ARC
  5
446
330
36
100
AcDbEntity
  8
0
 62
     3
100
AcDbCircle
 10
-38.767988
 20
27.79185691433529
 30
0.0
 40
0.5
100
AcDbArc
 50
270.0
 51
0.0
  0
ARC
  5
447
330
36
100
AcDbEntity
  8
0
 62
     3
100
AcDbCircle
 10
-38.767988
 20
46.79185691433526
 30
0.0
 40
0.5
100
AcDbArc
 50
0.0
 51
90.0
  0
ARC
  5
448
330
36
100
AcDbEntity
  8
0
 62
     3
100
AcDbCircle
 10
64.38017600000001
 20
36.31343891433528
 30
0.0
 40
108.662698
100
AcDbArc
 50
167.8524179999999
 51
172.387009
  0
LINE
  5
449
330
36
100
AcDbEntity
  8
0
 62
     3
100
AcDbLine
 10
-43.32471799999999
 20
50.70919591433526
 30
0.0
 11
-44.517987
 21
50.70919591433526
 31
0.0
  0
LINE
  5
44A
330
36
100
AcDbEntity
  8
0
 62
     3
100
AcDbLine
 10
-44.517987
 20
23.87451691433529
 30
0.0
 11
-43.32471799999999
 21
23.87451691433529
 31
0.0
  0
ARC
  5
44B
330
36
100
AcDbEntity
  8
0
 62
     3
100
AcDbCircle
 10
64.38017600000001
 20
38.27027391433528
 30
0.0
 40
108.662698
100
AcDbArc
 50
187.612991
 51
192.147582
  0
LINE
  5
44C
330
36
100
AcDbEntity
  8
0
 62
     3
100
AcDbLine
 10
-49.76229899999999
 20
12.36457391433528
 30
0.0
 11
-49.76798699999999
 21
15.90260091433528
 31
0.0
  0
LINE
  5
44D
330
36
100
AcDbEntity
  8
0
 62
     3
100
AcDbLine
 10
-49.76798699999999
 20
58.68111191433528
 30
0.0
 11
-49.75939799999999
 21
62.21718891433528
 31
0.0
  0
LINE
  5
44E
330
36
100
AcDbEntity
  8
0
 62
     3
100
AcDbLine
 10
-45.267988
 20
24.40553591433529
 30
0.0
 11
-45.267988
 21
50.17817691433528
 31
0.0
  0
ARC
  5
44F
330
36
100
AcDbEntity
  8
0
 62
     3
100
AcDbCircle
 10
60.481981
 20
37.13265791433528
 30
0.0
 40
108.749979
100
AcDbArc
 50
180.570354
 51
187.7551369999999
  0
ARC
  5
45E
330
36
100
AcDbEntity
  8
0
 62
     3
100
AcDbCircle
 10
60.49466800000001
 20
37.45050691433529
 30
0.0
 40
108.762671
100
AcDbArc
 50
172.0949019999999
 51
179.4294229999999
  0
LINE
  5
45F
330
36
100
AcDbEntity
  8
0
 62
     3
100
AcDbLine
 10
-37.767987
 20
2.448455914335285
 30
0.0
 11
-39.767988
 21
2.448455914335285
 31
0.0
  0
LINE
  5
460
330
36
100
AcDbEntity
  8
0
 62
     3
100
AcDbLine
 10
-37.767987
 20
72.13525691433527
 30
0.0
 11
-39.767988
 21
72.13525691433527
 31
0.0
  0
LINE
  5
461
330
36
100
AcDbEntity
  8
0
 62
     3
100
AcDbLine
 10
-37.267988
 20
3.082027914335285
 30
0.0
 11
-37.267988
 21
4.582026914335285
 31
0.0
  0
LINE
  5
462
330
36
100
AcDbEntity
  8
0
 62
     3
100
AcDbLine
 10
-35.267988
 20
4.582026914335285
 30
0.0
 11
-35.267988
 21
3.082027914335285
 31
0.0
  0
LINE
  5
463
330
36
100
AcDbEntity
  8
0
 62
     3
100
AcDbLine
 10
-37.267988
 20
70.00168591433528
 30
0.0
 11
-37.267988
 21
71.5016849143353
 31
0.0
  0
LINE
  5
464
330
36
100
AcDbEntity
  8
0
 62
     3
100
AcDbLine
 10
-35.267988
 20
71.5016849143353
 30
0.0
 11
-35.267988
 21
70.00168591433528
 31
0.0
  0
LINE
  5
465
330
36
100
AcDbEntity
  8
0
 62
     3
100
AcDbLine
 10
-37.267988
 20
71.61476991433528
 30
0.0
 11
-37.267988
 21
71.5016849143353
 31
0.0
  0
ARC
  5
466
330
36
100
AcDbEntity
  8
0
 62
     3
100
AcDbCircle
 10
-37.779595
 20
71.62370291433529
 30
0.0
 40
0.5116850000000001
100
AcDbArc
 50
358.999708
 51
88.700144
  0
ARC
  5
467
330
36
100
AcDbEntity
  8
0
 62
     3
100
AcDbCircle
 10
-37.81415900000001
 20
71.6652789143353
 30
0.0
 40
2.546672
100
AcDbArc
 50
358.863569
 51
88.96116500000003
  0
LINE
  5
468
330
36
100
AcDbEntity
  8
0
 62
     3
100
AcDbLine
 10
-35.267988
 20
71.5016849143353
 30
0.0
 11
-35.267988
 21
71.61476991433528
 31
0.0
  0
ARC
  5
469
330
36
100
AcDbEntity
  8
0
 62
     3
100
AcDbCircle
 10
-37.821503
 20
2.925504914335285
 30
0.0
 40
2.553884999999999
100
AcDbArc
 50
271.200697
 51
0.9745689999999839
  0
LINE
  5
46A
330
36
100
AcDbEntity
  8
0
 62
     3
100
AcDbLine
 10
-35.267988
 20
2.968942914335283
 30
0.0
 11
-35.267988
 21
1.541854914335284
 31
0.0
  0
LINE
  5
46B
330
36
100
AcDbEntity
  8
0
 62
     3
100
AcDbLine
 10
-35.267988
 20
73.04185791433528
 30
0.0
 11
-35.267988
 21
71.61476991433528
 31
0.0
  0
ARC
  5
46C
330
36
100
AcDbEntity
  8
0
 62
     3
100
AcDbCircle
 10
-37.776378
 20
2.956919914335285
 30
0.0
 40
0.508532
100
AcDbArc
 50
270.94538
 51
1.354768000000019
  0
LINE
  5
46D
330
36
100
AcDbEntity
  8
0
 62
     3
100
AcDbLine
 10
-37.267988
 20
2.968942914335283
 30
0.0
 11
-37.267988
 21
3.082027914335285
 31
0.0
  0
LINE
  5
46E
330
36
100
AcDbEntity
  8
0
 62
     3
100
AcDbLine
 10
-35.267988
 20
3.082027914335285
 30
0.0
 11
-35.267988
 21
2.968942914335283
 31
0.0
  0
ARC
  5
46F
330
36
100
AcDbEntity
  8
0
 62
     3
100
AcDbCircle
 10
-47.868328
 20
55.91734091433528
 30
0.0
 40
1.486931999999999
100
AcDbArc
 50
25.560468
 51
96.10438799999998
  0
ARC
  5
470
330
36
100
AcDbEntity
  8
0
 62
     3
100
AcDbCircle
 10
-47.868328
 20
18.66637191433528
 30
0.0
 40
1.486931999999999
100
AcDbArc
 50
263.895612
 51
334.439532
  0
LINE
  5
471
330
36
100
AcDbEntity
  8
0
 62
     3
100
AcDbLine
 10
-112.826121
 20
36.93830291433528
 30
0.0
 11
-88.608332
 21
12.72051391433528
 31
0.0
  0
LINE
  5
472
330
36
100
AcDbEntity
  8
0
 62
     3
100
AcDbLine
 10
-114.240334
 20
35.52408991433529
 30
0.0
 11
-90.02254499999997
 21
11.30630091433528
 31
0.0
  0
ARC
  5
473
330
36
100
AcDbEntity
  8
0
 62
     3
100
AcDbCircle
 10
-90.59310100000001
 20
16.11892591433528
 30
0.0
 40
0.999657
100
AcDbArc
 50
225.630288
 51
257.477395
  0
ARC
  5
474
330
36
100
AcDbEntity
  8
0
 62
     3
100
AcDbCircle
 10
-93.420959
 20
13.29106891433528
 30
0.0
 40
0.9996589999999999
100
AcDbArc
 50
12.522633
 51
44.36968500000001
  0
LINE
  5
475
330
36
100
AcDbEntity
  8
0
 62
     3
100
AcDbLine
 10
-114.947441
 20
35.52408991433529
 30
0.0
 11
-139.16523
 21
11.30630091433528
 31
0.0
  0
LINE
  5
476
330
36
100
AcDbEntity
  8
0
 62
     3
100
AcDbLine
 10
-116.361655
 20
36.93830291433528
 30
0.0
 11
-140.579444
 21
12.72051391433528
 31
0.0
  0
ARC
  5
477
330
36
100
AcDbEntity
  8
0
 62
     3
100
AcDbCircle
 10
-135.766818
 20
13.29106991433528
 30
0.0
 40
0.999657
100
AcDbArc
 50
135.630288
 51
167.4773879999999
  0
ARC
  5
478
330
36
100
AcDbEntity
  8
0
 62
     3
100
AcDbCircle
 10
-138.594675
 20
16.11892791433528
 30
0.0
 40
0.9996589999999999
100
AcDbArc
 50
282.522639
 51
314.369685
  0
LINE
  5
479
330
36
100
AcDbEntity
  8
0
 62
     3
100
AcDbLine
 10
-116.361655
 20
37.64540991433529
 30
0.0
 11
-140.579444
 21
61.86319891433528
 31
0.0
  0
LINE
  5
47A
330
36
100
AcDbEntity
  8
0
 62
     3
100
AcDbLine
 10
-114.947441
 20
39.05962391433529
 30
0.0
 11
-139.16523
 21
63.27741291433529
 31
0.0
  0
LINE
  5
47B
330
36
100
AcDbEntity
  8
0
 62
     3
100
AcDbLine
 10
-88.608332
 20
61.86319891433528
 30
0.0
 11
-112.826121
 21
37.64540991433529
 31
0.0
  0
LINE
  5
47C
330
36
100
AcDbEntity
  8
0
 62
     3
100
AcDbLine
 10
-114.240334
 20
39.05962391433529
 30
0.0
 11
-90.02254499999997
 21
63.27741291433529
 31
0.0
  0
ARC
  5
47D
330
36
100
AcDbEntity
  8
0
 62
     3
100
AcDbCircle
 10
-138.594675
 20
58.46478691433528
 30
0.0
 40
0.999657
100
AcDbArc
 50
45.630288
 51
77.477388
  0
ARC
  5
47E
330
36
100
AcDbEntity
  8
0
 62
     3
100
AcDbCircle
 10
-135.766817
 20
61.29264391433529
 30
0.0
 40
0.9996589999999999
100
AcDbArc
 50
192.5226389999998
 51
224.369685
  0
ARC
  5
47F
330
36
100
AcDbEntity
  8
0
 62
     3
100
AcDbCircle
 10
-93.420964
 20
61.29264891433528
 30
0.0
 40
0.9996649999999998
100
AcDbArc
 50
315.6303560000001
 51
347.477165
  0
ARC
  5
480
330
36
100
AcDbEntity
  8
0
 62
     3
100
AcDbCircle
 10
-90.59310000000001
 20
58.46478591433529
 30
0.0
 40
0.9996589999999999
100
AcDbArc
 50
102.522639
 51
134.369685
  0
LINE
  5
481
330
36
100
AcDbEntity
  8
0
 62
     3
100
AcDbLine
 10
-104.593888
 20
2.448456914335284
 30
0.0
 11
-104.593888
 21
3.082844914335285
 31
0.0
  0
LINE
  5
482
330
36
100
AcDbEntity
  8
0
 62
     3
100
AcDbLine
 10
-124.593888
 20
2.448456914335284
 30
0.0
 11
-124.593888
 21
3.082844914335285
 31
0.0
  0
LINE
  5
483
330
36
100
AcDbEntity
  8
0
 62
     3
100
AcDbLine
 10
-124.593888
 20
71.5008679143353
 30
0.0
 11
-124.593888
 21
72.1352559143353
 31
0.0
  0
LINE
  5
484
330
36
100
AcDbEntity
  8
0
 62
     3
100
AcDbLine
 10
-104.593888
 20
71.5008679143353
 30
0.0
 11
-104.593888
 21
72.1352559143353
 31
0.0
  0
ARC
  5
485
330
36
100
AcDbEntity
  8
0
 62
     3
100
AcDbCircle
 10
-40.75014799999999
 20
58.98003691433529
 30
0.0
 40
1.117215999999997
100
AcDbArc
 50
155.6507589999999
 51
169.721547
  0
ARC
  5
486
330
36
100
AcDbEntity
  8
0
 62
     3
100
AcDbCircle
 10
-42.01799099999997
 20
56.54182991433529
 30
0.0
 40
0.750026
100
AcDbArc
 50
70.52917099999998
 51
89.99969399999995
  0
ARC
  5
487
330
36
100
AcDbEntity
  8
0
 62
     3
100
AcDbCircle
 10
-44.600505
 20
50.03059091433527
 30
0.0
 40
0.683604
100
AcDbArc
 50
83.06691800000001
 51
167.53206
  0
ARC
  5
488
330
36
100
AcDbEntity
  8
0
 62
     3
100
AcDbCircle
 10
-44.60053900000001
 20
24.55307391433529
 30
0.0
 40
0.683561
100
AcDbArc
 50
192.4646369999999
 51
276.936352
  0
ARC
  5
489
330
36
100
AcDbEntity
  8
0
 62
     3
100
AcDbCircle
 10
-42.01799099999997
 20
18.04188291433528
 30
0.0
 40
0.750026
100
AcDbArc
 50
270.000306
 51
289.470829
  0
ARC
  5
48A
330
36
100
AcDbEntity
  8
0
 62
     3
100
AcDbCircle
 10
-40.751336
 20
15.60330591433528
 30
0.0
 40
1.115982
100
AcDbArc
 50
190.2706279999999
 51
204.3570649999999
  0
ARC
  5
48B
330
36
100
AcDbEntity
  8
0
100
AcDbCircle
 10
-44.142988
 20
62.04059391433529
 30
0.0
 40
4.625
100
AcDbArc
 50
0.0
 51
18.92464399999996
  0
ARC
  5
48C
330
36
100
AcDbEntity
  8
0
100
AcDbCircle
 10
-44.142988
 20
62.04059391433529
 30
0.0
 40
4.625
100
AcDbArc
 50
341.0753560000001
 51
0.0
  0
LINE
  5
48D
330
36
100
AcDbEntity
  8
0
 62
     3
100
AcDbLine
 10
-23.517988
 20
69.57184891433527
 30
0.0
 11
-35.267988
 21
71.10179691433528
 31
0.0
  0
LINE
  5
48E
330
36
100
AcDbEntity
  8
0
 62
     3
100
AcDbLine
 10
-37.267988
 20
71.36221291433527
 30
0.0
 11
-37.517988
 21
71.3947649143353
 31
0.0
  0
LINE
  5
48F
330
36
100
AcDbEntity
  8
0
 62
     3
100
AcDbLine
 10
-37.517988
 20
72.0634569143353
 30
0.0
 11
-37.517988
 21
37.2918569143353
 31
0.0
  0
LINE
  5
490
330
36
100
AcDbEntity
  8
0
 62
     3
100
AcDbLine
 10
-39.517988
 20
72.13525691433527
 30
0.0
 11
-39.517988
 21
47.29185591433529
 31
0.0
  0
LINE
  5
491
330
36
100
AcDbEntity
  8
0
  6
DASHED
100
AcDbLine
 10
-37.517988
 20
72.0634569143353
 30
0.0
 11
-37.517988
 21
72.54185691433528
 31
0.0
  0
ARC
  5
492
330
36
100
AcDbEntity
  8
0
  6
DASHED
100
AcDbCircle
 10
-38.517988
 20
72.54185691433528
 30
0.0
 40
1.0
100
AcDbArc
 50
0.0
 51
180.0
  0
LINE
  5
493
330
36
100
AcDbEntity
  8
0
  6
DASHED
100
AcDbLine
 10
-39.517988
 20
72.13525691433527
 30
0.0
 11
-39.517988
 21
72.54185691433528
 31
0.0
  0
LINE
  5
494
330
36
100
AcDbEntity
  8
0
 62
     3
100
AcDbLine
 10
-37.517988
 20
2.518924914335284
 30
0.0
 11
-37.517988
 21
37.2918569143353
 31
0.0
  0
LINE
  5
495
330
36
100
AcDbEntity
  8
0
 62
     3
100
AcDbLine
 10
-39.517988
 20
2.448455914335285
 30
0.0
 11
-39.517988
 21
27.29185691433528
 31
0.0
  0
ARC
  5
496
330
36
100
AcDbEntity
  8
0
  6
DASHED
100
AcDbCircle
 10
-38.517988
 20
2.041856914335284
 30
0.0
 40
1.0
100
AcDbArc
 50
180.0
 51
0.0
  0
LINE
  5
497
330
36
100
AcDbEntity
  8
0
  6
DASHED
100
AcDbLine
 10
-37.517988
 20
2.518924914335284
 30
0.0
 11
-37.517988
 21
2.041856914335284
 31
0.0
  0
LINE
  5
498
330
36
100
AcDbEntity
  8
0
  6
DASHED
100
AcDbLine
 10
-39.517988
 20
2.448455914335285
 30
0.0
 11
-39.517988
 21
2.041856914335284
 31
0.0
  0
LINE
  5
499
330
36
100
AcDbEntity
  8
0
 62
     3
100
AcDbLine
 10
-23.517988
 20
5.011864914335284
 30
0.0
 11
-35.267988
 21
3.481916914335285
 31
0.0
  0
LINE
  5
49A
330
36
100
AcDbEntity
  8
0
 62
     3
100
AcDbLine
 10
-37.267988
 20
3.221499914335285
 30
0.0
 11
-37.517988
 21
3.188947914335285
 31
0.0
  0
TEXT
  5
49B
330
36
100
AcDbEntity
  8
0
 62
     3
100
AcDbText
 10
143.665049601031
 20
-26.52674781363681
 30
0.0
 40
4.5
  1
FCL-G32-5
  7
高4.5
100
AcDbText
  0
TEXT
  5
49C
330
36
100
AcDbEntity
  8
0
 62
     3
100
AcDbText
 10
106.392935
 20
-110.802353
 30
0.0
 40
4.5
  1
FCL-G32-5
  7
高4.5
100
AcDbText
  0
TEXT
  5
49D
330
36
100
AcDbEntity
  8
0
 62
     3
100
AcDbText
 10
151.6789787710334
 20
-134.336945304597
 30
0.0
 40
6.299999999999998
  1
FCL-G32-5
 41
0.8
  7
高6.3
100
AcDbText
  0
TEXT
  5
49E
330
36
100
AcDbEntity
  8
0
 62
     3
100
AcDbText
 10
162.951725
 20
-124.311626
 30
0.0
 40
3.2
  1
2008.11.14
  7
高3.2
100
AcDbText
  0
TEXT
  5
49F
330
36
100
AcDbEntity
  8
0
 62
     3
100
AcDbText
 10
175.5345189731961
 20
-95.02644274157161
 30
0.0
 40
4.5
  1
29341
  7
高4.5
100
AcDbText
  0
LINE
  5
4A0
330
36
100
AcDbEntity
  8
0
100
AcDbLine
 10
-17.93217090872713
 20
-95.49999999999998
 30
0.0
 11
-190.0
 21
-95.5
 31
0.0
  0
LINE
  5
4A1
330
36
100
AcDbEntity
  8
0
 62
     3
100
AcDbLine
 10
-17.93217090872713
 20
-130.5
 30
0.0
 11
-190.0
 21
-130.5
 31
0.0
  0
LINE
  5
4A2
330
36
100
AcDbEntity
  8
0
100
AcDbLine
 10
-17.93217090872713
 20
-100.5
 30
0.0
 11
-190.0
 21
-100.5
 31
0.0
  0
LINE
  5
4A3
330
36
100
AcDbEntity
  8
0
100
AcDbLine
 10
-17.93217090872713
 20
-105.5
 30
0.0
 11
-190.0
 21
-105.5
 31
0.0
  0
LINE
  5
4A4
330
36
100
AcDbEntity
  8
0
100
AcDbLine
 10
-17.93217090872713
 20
-110.5
 30
0.0
 11
-190.0
 21
-110.5
 31
0.0
  0
LINE
  5
4A5
330
36
100
AcDbEntity
  8
0
100
AcDbLine
 10
-17.93217090872713
 20
-115.5
 30
0.0
 11
-190.0
 21
-115.5
 31
0.0
  0
LINE
  5
4A6
330
36
100
AcDbEntity
  8
0
100
AcDbLine
 10
-17.93217090872713
 20
-120.5
 30
0.0
 11
-190.0
 21
-120.5
 31
0.0
  0
LINE
  5
4A7
330
36
100
AcDbEntity
  8
0
100
AcDbLine
 10
-17.93217090872713
 20
-125.5
 30
0.0
 11
-190.0
 21
-125.5
 31
0.0
  0
TEXT
  5
4A8
330
36
100
AcDbEntity
  8
0
 62
     3
100
AcDbText
 10
-99.64971793648572
 20
-90.0
 30
0.0
 40
3.2
  1
1
 41
0.8
  7
高3.2
100
AcDbText
  0
TEXT
  5
4A9
330
36
100
AcDbEntity
  8
0
 62
     3
100
AcDbText
 10
-181.5241562943588
 20
-90.0
 30
0.0
 40
3.2
  1
遮光板(大)
 41
0.8
  7
高3.2
100
AcDbText
  0
LINE
  5
4AA
330
36
100
AcDbEntity
  8
0
100
AcDbLine
 10
-92.69580763605594
 20
-85.5
 30
0.0
 11
-92.6958076360559
 21
-135.5
 31
0.0
  0
LINE
  5
4AB
330
36
100
AcDbEntity
  8
0
100
AcDbLine
 10
-101.1497179364857
 20
-85.5
 30
0.0
 11
-101.1497179364857
 21
-135.5
 31
0.0
  0
LINE
  5
4AC
330
36
100
AcDbEntity
  8
0
100
AcDbLine
 10
-183.0241562943588
 20
-85.5
 30
0.0
 11
-183.0241562943588
 21
-135.5
 31
0.0
  0
LINE
  5
4AD
330
36
100
AcDbEntity
  8
0
100
AcDbLine
 10
-142.9895036120582
 20
-85.5
 30
0.0
 11
-142.9895036120582
 21
-135.5
 31
0.0
  0
LINE
  5
4AE
330
36
100
AcDbEntity
  8
0
100
AcDbLine
 10
-17.93217090872713
 20
-90.5
 30
0.0
 11
-190.0
 21
-90.5
 31
0.0
  0
TEXT
  5
4AF
330
36
100
AcDbEntity
  8
0
 62
     3
100
AcDbText
 10
-188.5
 20
-95.0
 30
0.0
 40
3.2
  1
08
 41
0.8
  7
高3.2
100
AcDbText
  0
TEXT
  5
4B0
330
36
100
AcDbEntity
  8
0
 62
     3
100
AcDbText
 10
-181.5241562943588
 20
-95.0
 30
0.0
 40
3.2
  1
脱落防止ガード
 41
0.8
  7
高3.2
100
AcDbText
  0
LINE
  5
4B1
330
36
100
AcDbEntity
  8
0
 62
     3
100
AcDbLine
 10
-17.93217090872713
 20
-85.5
 30
0.0
 11
-190.0
 21
-85.5
 31
0.0
  0
LINE
  5
4B7
330
36
100
AcDbEntity
  8
0
100
AcDbLine
 10
-31.080412
 20
69.68713491433527
 30
0.0
 11
-19.987676
 21
108.3769579143353
 31
0.0
  0
CIRCLE
  5
4B8
330
36
100
AcDbEntity
  8
0
100
AcDbCircle
 10
-18.609649
 20
113.1833119143353
 30
0.0
 40
5.0
  0
TEXT
  5
4B9
330
36
100
AcDbEntity
  8
0
 62
     4
100
AcDbText
 10
-21.90653066379333
 20
110.7787038867555
 30
0.0
 40
4.5
  1
03
  7
高4.5
100
AcDbText
  0
LINE
  5
4BF
330
36
100
AcDbEntity
  8
0
100
AcDbLine
 10
-47.131657
 20
62.78509891433529
 30
0.0
 11
-34.851158
 21
107.8774829143353
 31
0.0
  0
CIRCLE
  5
4C0
330
36
100
AcDbEntity
  8
0
100
AcDbCircle
 10
-33.537306
 20
112.7017749143353
 30
0.0
 40
5.0
  0
TEXT
  5
4C1
330
36
100
AcDbEntity
  8
0
 62
     4
100
AcDbText
 10
-36.83418766379333
 20
110.2971658867555
 30
0.0
 40
4.5
  1
08
  7
高4.5
100
AcDbText
  0
LINE
  5
4C2
330
36
100
AcDbEntity
  8
0
100
AcDbLine
 10
36.94282600000001
 20
21.14587991433529
 30
0.0
 11
38.184798
 21
22.38785191433529
 31
0.0
  0
LINE
  5
4C3
330
36
100
AcDbEntity
  8
0
100
AcDbLine
 10
31.850645
 20
20.29633991433529
 30
0.0
 11
36.846162
 21
25.29185691433529
 31
0.0
  0
LINE
  5
4C4
330
36
100
AcDbEntity
  8
0
100
AcDbLine
 10
26.758464
 20
19.44679991433529
 30
0.0
 11
32.401085
 21
25.08941991433529
 31
0.0
  0
LINE
  5
4C5
330
36
100
AcDbEntity
  8
0
100
AcDbLine
 10
26.482012
 20
23.41298791433528
 30
0.0
 11
27.66511400000001
 21
24.59608991433529
 31
0.0
  0
LINE
  5
4C6
330
36
100
AcDbEntity
  8
0
100
AcDbLine
 10
34.084563
 20
26.77289891433529
 30
0.0
 11
35.853521
 21
28.54185691433528
 31
0.0
  0
LINE
  5
4C7
330
36
100
AcDbEntity
  8
0
100
AcDbLine
 10
29.348592
 20
26.27956791433529
 30
0.0
 11
34.703763
 21
31.63473891433528
 31
0.0
  0
LINE
  5
4C8
330
36
100
AcDbEntity
  8
0
100
AcDbLine
 10
34.706051
 20
31.63702691433528
 30
0.0
 11
34.706593
 21
31.63756891433529
 31
0.0
  0
LINE
  5
4C9
330
36
100
AcDbEntity
  8
0
100
AcDbLine
 10
26.482012
 20
27.65562891433529
 30
0.0
 11
34.703763
 21
35.87737891433528
 31
0.0
  0
LINE
  5
4CA
330
36
100
AcDbEntity
  8
0
100
AcDbLine
 10
34.704335
 20
35.87795091433529
 30
0.0
 11
34.706593
 21
35.88020991433528
 31
0.0
  0
LINE
  5
4CB
330
36
100
AcDbEntity
  8
0
100
AcDbLine
 10
26.482012
 20
31.89826991433529
 30
0.0
 11
31.125599
 21
36.54185691433529
 31
0.0
  0
LINE
  5
4CC
330
36
100
AcDbEntity
  8
0
100
AcDbLine
 10
26.482012
 20
36.14090991433528
 30
0.0
 11
26.882959
 21
36.54185691433529
 31
0.0
  0
LINE
  5
4CD
330
36
100
AcDbEntity
  8
0
100
AcDbLine
 10
23.949268
 20
25.12288491433528
 30
0.0
 11
24.482012
 21
25.65562891433529
 31
0.0
  0
LINE
  5
4CE
330
36
100
AcDbEntity
  8
0
100
AcDbLine
 10
17.149179
 20
22.56543591433529
 30
0.0
 11
24.482012
 21
29.89826991433528
 31
0.0
  0
LINE
  5
4CF
330
36
100
AcDbEntity
  8
0
100
AcDbLine
 10
10.482012
 20
20.14090991433528
 30
0.0
 11
24.482012
 21
34.14090991433528
 31
0.0
  0
LINE
  5
4D0
330
36
100
AcDbEntity
  8
0
100
AcDbLine
 10
10.482012
 20
24.38355091433529
 30
0.0
 11
22.640318
 21
36.54185691433529
 31
0.0
  0
LINE
  5
4D1
330
36
100
AcDbEntity
  8
0
100
AcDbLine
 10
10.482012
 20
28.62619191433529
 30
0.0
 11
18.397677
 21
36.54185691433529
 31
0.0
  0
LINE
  5
4D2
330
36
100
AcDbEntity
  8
0
100
AcDbLine
 10
10.482012
 20
32.86883191433529
 30
0.0
 11
14.155037
 21
36.54185691433529
 31
0.0
  0
LINE
  5
4D3
330
36
100
AcDbEntity
  8
0
100
AcDbLine
 10
19.202489
 20
16.13346491433528
 30
0.0
 11
24.482012
 21
21.41298791433528
 31
0.0
  0
LINE
  5
4D4
330
36
100
AcDbEntity
  8
0
100
AcDbLine
 10
11.130948
 20
12.30456491433528
 30
0.0
 11
21.380666
 21
22.55428191433528
 31
0.0
  0
LINE
  5
4D5
330
36
100
AcDbEntity
  8
0
100
AcDbLine
 10
10.482012
 20
15.89826991433528
 30
0.0
 11
14.580576
 21
19.99683291433528
 31
0.0
  0
LINE
  5
4D6
330
36
100
AcDbEntity
  8
0
100
AcDbLine
 10
5.374537999999997
 20
10.79079491433528
 30
0.0
 11
8.482011999999999
 21
13.89826991433528
 31
0.0
  0
LINE
  5
4D7
330
36
100
AcDbEntity
  8
0
100
AcDbLine
 10
0.4967710000000001
 20
10.15566891433528
 30
0.0
 11
8.482011999999999
 21
18.14090991433528
 31
0.0
  0
LINE
  5
4D8
330
36
100
AcDbEntity
  8
0
100
AcDbLine
 10
-4.380994999999998
 20
9.520542914335283
 30
0.0
 11
3.898566
 21
17.80010391433528
 31
0.0
  0
LINE
  5
4D9
330
36
100
AcDbEntity
  8
0
100
AcDbLine
 10
-5.517987999999999
 20
12.62619191433528
 30
0.0
 11
-0.8130569999999998
 21
17.33112191433528
 31
0.0
  0
LINE
  5
4DA
330
36
100
AcDbEntity
  8
0
100
AcDbLine
 10
5.572607999999998
 20
19.47414591433528
 30
0.0
 11
8.482011999999999
 21
22.38355091433529
 31
0.0
  0
LINE
  5
4DB
330
36
100
AcDbEntity
  8
0
100
AcDbLine
 10
0.8609849999999998
 20
19.00516391433528
 30
0.0
 11
8.482011999999999
 21
26.62619191433528
 31
0.0
  0
LINE
  5
4DC
330
36
100
AcDbEntity
  8
0
100
AcDbLine
 10
-3.850637999999998
 20
18.53618191433528
 30
0.0
 11
8.482011999999999
 21
30.86883191433529
 31
0.0
  0
LINE
  5
4DD
330
36
100
AcDbEntity
  8
0
100
AcDbLine
 10
-5.517987999999999
 20
21.11147291433528
 30
0.0
 11
8.482011999999999
 21
35.11147291433528
 31
0.0
  0
LINE
  5
4DE
330
36
100
AcDbEntity
  8
0
100
AcDbLine
 10
-5.517987999999999
 20
25.35411391433529
 30
0.0
 11
5.669755
 21
36.54185691433529
 31
0.0
  0
LINE
  5
4DF
330
36
100
AcDbEntity
  8
0
100
AcDbLine
 10
-5.517987999999999
 20
29.59675491433529
 30
0.0
 11
1.427113999999999
 21
36.54185691433529
 31
0.0
  0
LINE
  5
4E0
330
36
100
AcDbEntity
  8
0
100
AcDbLine
 10
-5.517987999999999
 20
33.83939491433529
 30
0.0
 11
-2.815525999999998
 21
36.54185691433529
 31
0.0
  0
LINE
  5
4E1
330
36
100
AcDbEntity
  8
0
100
AcDbLine
 10
-8.56226
 20
18.06719991433528
 30
0.0
 11
-7.517988
 21
19.11147291433528
 31
0.0
  0
LINE
  5
4E2
330
36
100
AcDbEntity
  8
0
100
AcDbLine
 10
-13.273883
 20
17.59821791433528
 30
0.0
 11
-7.517988
 21
23.35411391433529
 31
0.0
  0
LINE
  5
4E3
330
36
100
AcDbEntity
  8
0
100
AcDbLine
 10
-17.985506
 20
17.12923591433528
 30
0.0
 11
-7.517988
 21
27.59675491433529
 31
0.0
  0
LINE
  5
4E4
330
36
100
AcDbEntity
  8
0
100
AcDbLine
 10
-21.517988
 20
17.83939491433528
 30
0.0
 11
-7.517988
 21
31.83939491433529
 31
0.0
  0
LINE
  5
4E5
330
36
100
AcDbEntity
  8
0
100
AcDbLine
 10
-21.517988
 20
22.08203591433528
 30
0.0
 11
-7.517988
 21
36.08203591433529
 31
0.0
  0
LINE
  5
4E6
330
36
100
AcDbEntity
  8
0
100
AcDbLine
 10
-21.517988
 20
26.32467691433529
 30
0.0
 11
-11.300808
 21
36.54185691433529
 31
0.0
  0
LINE
  5
4E7
330
36
100
AcDbEntity
  8
0
100
AcDbLine
 10
-21.517988
 20
30.56731691433528
 30
0.0
 11
-15.543448
 21
36.54185691433529
 31
0.0
  0
LINE
  5
4E8
330
36
100
AcDbEntity
  8
0
100
AcDbLine
 10
-21.517988
 20
34.80995791433528
 30
0.0
 11
-19.786089
 21
36.54185691433529
 31
0.0
  0
LINE
  5
4E9
330
36
100
AcDbEntity
  8
0
100
AcDbLine
 10
-9.258762
 20
8.885417914335285
 30
0.0
 11
-7.517988
 21
10.62619191433528
 31
0.0
  0
LINE
  5
4EA
330
36
100
AcDbEntity
  8
0
100
AcDbLine
 10
-14.136528
 20
8.250291914335285
 30
0.0
 11
-7.517988
 21
14.86883191433528
 31
0.0
  0
LINE
  5
4EB
330
36
100
AcDbEntity
  8
0
100
AcDbLine
 10
-19.014295
 20
7.615165914335285
 30
0.0
 11
-10.236302
 21
16.39315791433528
 31
0.0
  0
LINE
  5
4EC
330
36
100
AcDbEntity
  8
0
100
AcDbLine
 10
-21.517988
 20
9.354113914335282
 30
0.0
 11
-14.947925
 21
15.92417591433528
 31
0.0
  0
LINE
  5
4ED
330
36
100
AcDbEntity
  8
0
100
AcDbLine
 10
-21.517988
 20
13.59675491433528
 30
0.0
 11
-19.659548
 21
15.45519391433528
 31
0.0
  0
LINE
  5
4EE
330
36
100
AcDbEntity
  8
0
100
AcDbLine
 10
-23.892061
 20
6.980039914335285
 30
0.0
 11
-23.517988
 21
7.354113914335282
 31
0.0
  0
LINE
  5
4EF
330
36
100
AcDbEntity
  8
0
100
AcDbLine
 10
-28.769828
 20
6.344913914335285
 30
0.0
 11
-23.517988
 21
11.59675491433528
 31
0.0
  0
LINE
  5
4F0
330
36
100
AcDbEntity
  8
0
100
AcDbLine
 10
-33.647595
 20
5.709787914335285
 30
0.0
 11
-24.371171
 21
14.98621191433528
 31
0.0
  0
LINE
  5
4F1
330
36
100
AcDbEntity
  8
0
100
AcDbLine
 10
-37.517988
 20
6.082035914335284
 30
0.0
 11
-29.082793
 21
14.51722991433528
 31
0.0
  0
LINE
  5
4F2
330
36
100
AcDbEntity
  8
0
100
AcDbLine
 10
-37.517988
 20
10.32467691433528
 30
0.0
 11
-33.794416
 21
14.04824791433528
 31
0.0
  0
LINE
  5
4F3
330
36
100
AcDbEntity
  8
0
100
AcDbLine
 10
-27.408751
 20
16.19127191433528
 30
0.0
 11
-23.517988
 21
20.08203591433529
 31
0.0
  0
LINE
  5
4F4
330
36
100
AcDbEntity
  8
0
100
AcDbLine
 10
-32.120374
 20
15.72228991433528
 30
0.0
 11
-23.517988
 21
24.32467691433529
 31
0.0
  0
LINE
  5
4F5
330
36
100
AcDbEntity
  8
0
100
AcDbLine
 10
-36.83199699999999
 20
15.25330791433528
 30
0.0
 11
-23.517988
 21
28.56731691433529
 31
0.0
  0
LINE
  5
4F6
330
36
100
AcDbEntity
  8
0
100
AcDbLine
 10
-37.517988
 20
18.80995791433528
 30
0.0
 11
-23.517988
 21
32.80995791433529
 31
0.0
  0
LINE
  5
4F7
330
36
100
AcDbEntity
  8
0
100
AcDbLine
 10
-37.517988
 20
23.05259891433529
 30
0.0
 11
-24.02873
 21
36.54185691433529
 31
0.0
  0
LINE
  5
4F8
330
36
100
AcDbEntity
  8
0
100
AcDbLine
 10
-37.517988
 20
27.29523891433529
 30
0.0
 11
-28.27137
 21
36.54185691433529
 31
0.0
  0
LINE
  5
4F9
330
36
100
AcDbEntity
  8
0
100
AcDbLine
 10
-37.517988
 20
31.53787991433528
 30
0.0
 11
-32.514011
 21
36.54185691433529
 31
0.0
  0
LINE
  5
4FA
330
36
100
AcDbEntity
  8
0
100
AcDbLine
 10
-37.517988
 20
35.78052091433529
 30
0.0
 11
-36.756652
 21
36.54185691433529
 31
0.0
  0
LINE
  5
500
330
36
100
AcDbEntity
  8
0
100
AcDbLine
 10
-33.715349
 20
9.587648914335282
 30
0.0
 11
-27.108407
 21
-1.071553085664714
 31
0.0
  0
CIRCLE
  5
501
330
36
100
AcDbEntity
  8
0
100
AcDbCircle
 10
-24.474216
 20
-5.321381085664715
 30
0.0
 40
5.0
  0
TEXT
  5
502
330
36
100
AcDbEntity
  8
0
 62
     4
100
AcDbText
 10
-27.77109766379333
 20
-7.72599011324444
 30
0.0
 40
4.5
  1
09
  7
高4.5
100
AcDbText
  0
TEXT
  5
503
330
36
100
AcDbEntity
  8
0
 62
     3
100
AcDbText
 10
-188.4999999999999
 20
-90.0
 30
0.0
 40
3.2
  1
09
 41
0.8
  7
高3.2
100
AcDbText
  0
TEXT
  5
504
330
36
100
AcDbEntity
  8
0
 62
     3
100
AcDbText
 10
-141.4895036120581
 20
-120.0
 30
0.0
 40
3.2
  1
PC樹脂
 41
0.8
  7
高3.2
100
AcDbText
  0
TEXT
  5
505
330
36
100
AcDbEntity
  8
0
 62
     3
100
AcDbText
 10
-141.4895036120581
 20
-95.0
 30
0.0
 40
3.2
  1
PC樹脂　FCL-G
 41
0.8
  7
高3.2
100
AcDbText
  0
TEXT
  5
506
330
36
100
AcDbEntity
  8
0
 62
     3
100
AcDbText
 10
-141.4895036120581
 20
-110.0
 30
0.0
 40
3.2
  1
自在型　HC-70
 41
0.8
  7
高3.2
100
AcDbText
  0
TEXT
  5
507
330
36
100
AcDbEntity
  8
0
 62
     3
100
AcDbText
 10
-141.4895036120581
 20
-90.0
 30
0.0
 40
3.2
  1
PP樹脂
 41
0.8
  7
高3.2
100
AcDbText
  0
TEXT
  5
508
330
36
100
AcDbEntity
  8
0
 62
     3
100
AcDbText
 10
-91.1958076360559
 20
-135.0
 30
0.0
 40
3.2
  1
コード
 41
0.8
  7
高3.2
100
AcDbText
  0
LINE
  5
512
330
36
100
AcDbEntity
  8
0
100
AcDbLine
 10
-76.89184557419159
 20
-135.5
 30
0.0
 11
-76.89184557419159
 21
-85.5
 31
0.0
  0
TEXT
  5
514
330
36
100
AcDbEntity
  8
0
 62
     3
100
AcDbText
 10
-91.1958076360559
 20
-90.0
 30
0.0
 40
3.2
  1
9501
 41
0.8
  7
高3.2
100
AcDbText
  0
TEXT
  5
515
330
36
100
AcDbEntity
  8
0
 62
     3
100
AcDbText
 10
-91.1958076360559
 20
-95.0
 30
0.0
 40
3.2
  1
29344
 41
0.8
  7
高3.2
100
AcDbText
  0
TEXT
  5
516
330
36
100
AcDbEntity
  8
0
 62
     3
100
AcDbText
 10
-91.1958076360559
 20
-100.0
 30
0.0
 40
3.2
  1
54324
 41
0.8
  7
高3.2
100
AcDbText
  0
TEXT
  5
517
330
36
100
AcDbEntity
  8
0
 62
     3
100
AcDbText
 10
-91.1958076360559
 20
-105.24
 30
0.0
 40
3.2
  1
54325
 41
0.8
  7
高3.2
100
AcDbText
  0
TEXT
  5
518
330
36
100
AcDbEntity
  8
0
 62
     3
100
AcDbText
 10
-91.1958076360559
 20
-110.0
 30
0.0
 40
3.2
  1
29203
 41
0.8
  7
高3.2
100
AcDbText
  0
TEXT
  5
519
330
36
100
AcDbEntity
  8
0
 62
     3
100
AcDbText
 10
-91.1958076360559
 20
-115.0
 30
0.0
 40
3.2
  1
8993
 41
0.8
  7
高3.2
100
AcDbText
  0
TEXT
  5
51A
330
36
100
AcDbEntity
  8
0
 62
     3
100
AcDbText
 10
-91.19580763605593
 20
-120.0
 30
0.0
 40
3.2
  1
53117
 41
0.8
  7
高3.2
100
AcDbText
  0
TEXT
  5
51B
330
36
100
AcDbEntity
  8
0
 62
     3
100
AcDbText
 10
-91.1958076360559
 20
-125.0
 30
0.0
 40
3.2
  1
54327
 41
0.8
  7
高3.2
100
AcDbText
  0
TEXT
  5
51C
330
36
100
AcDbEntity
  8
0
 62
     3
100
AcDbText
 10
-91.1958076360559
 20
-130.0
 30
0.0
 40
3.2
  1
54326
 41
0.8
  7
高3.2
100
AcDbText
  0
TEXT
  5
7CF
330
36
100
AcDbEntity
  8
0
 62
     3
100
AcDbText
 10
-75.39184557419161
 20
-135.0
 30
0.0
 40
3.2
  1
コード番号名称
 41
0.6
  7
高3.2
100
AcDbText
  0
TEXT
  5
7D0
330
36
100
AcDbEntity
  8
0
 62
     3
100
AcDbText
 10
-75.39184557419161
 20
-130.0
 30
0.0
 40
3.2
  1
FCL-G32-5用本体(取手)
 41
0.6
  7
高3.2
100
AcDbText
  0
TEXT
  5
7D1
330
36
100
AcDbEntity
  8
0
 62
     3
100
AcDbText
 10
-75.39184557419161
 20
-125.0
 30
0.0
 40
3.2
  1
-
 41
0.6
  7
高3.2
100
AcDbText
  0
TEXT
  5
7D2
330
36
100
AcDbEntity
  8
0
 62
     3
100
AcDbText
 10
-75.39184557419161
 20
-120.0
 30
0.0
 40
3.2
  1
クリップランプ用ガード(大)
 41
0.6
  7
高3.2
100
AcDbText
  0
TEXT
  5
7D3
330
36
100
AcDbEntity
  8
0
 62
     3
100
AcDbText
 10
-75.39184557419161
 20
-110.0
 30
0.0
 40
3.2
  1
HC-70(ハンドクリップ)
 41
0.6
  7
高3.2
100
AcDbText
  0
TEXT
  5
7D4
330
36
100
AcDbEntity
  8
0
 62
     3
100
AcDbText
 10
-75.39184557419161
 20
-115.0
 30
0.0
 40
3.2
  1
F32W-T蛍光球32W(トルネードバルブ)
 41
0.6
  7
高3.2
100
AcDbText
  0
TEXT
  5
7D5
330
36
100
AcDbEntity
  8
0
 62
     3
100
AcDbText
 10
-75.39184557419161
 20
-100.0
 30
0.0
 40
3.2
  1
クリップランプ用電源スイッチ
 41
0.6
  7
高3.2
100
AcDbText
  0
TEXT
  5
7D6
330
36
100
AcDbEntity
  8
0
 62
     3
100
AcDbText
 10
-75.39184557419161
 20
-105.0
 30
0.0
 40
3.2
  1
クリップランプ用ソケット
 41
0.6
  7
高3.2
100
AcDbText
  0
TEXT
  5
7D7
330
36
100
AcDbEntity
  8
0
 62
     3
100
AcDbText
 10
-75.39184557419161
 20
-90.0
 30
0.0
 40
3.2
  1
クリップランプ用遮光板(大)
 41
0.6
  7
高3.2
100
AcDbText
  0
LINE
  5
7D8
330
36
100
AcDbEntity
  8
0
 62
     3
100
AcDbLine
 10
-17.93217090872713
 20
-85.5
 30
0.0
 11
-17.93217090872713
 21
-135.7535565150831
 31
0.0
  0
TEXT
  5
7D9
330
36
100
AcDbEntity
  8
0
 62
     3
100
AcDbText
 10
-75.39184557419161
 20
-94.99999999999998
 30
0.0
 40
3.2
  1
FCL-Gクリップランプ用脱落防止ガード(大)
 41
0.6
  7
高3.2
100
AcDbText
  0
TEXT
  5
ABC
330
36
100
AcDbEntity
  8
0
 62
     3
100
AcDbText
 10
187.5
 20
129.0
 30
0.0
 40
3.2
  1
担　当
  7
高3.2
100
AcDbText
  0
TEXT
  5
ABD
330
36
100
AcDbEntity
  8
0
 62
     3
100
AcDbText
 10
143.5
 20
129.0
 30
0.0
 40
3.2
  1
変更・追記内容
  7
高3.2
100
AcDbText
  0
TEXT
  5
ABF
330
36
100
AcDbEntity
  8
0
 62
     3
100
AcDbText
 10
118.3050035235819
 20
124.1596447778188
 30
0.0
 40
2.0
  1
2
  7
高2
100
AcDbText
  0
TEXT
  5
AC0
330
36
100
AcDbEntity
  8
0
 62
     3
100
AcDbText
 10
125.5
 20
129.0
 30
0.0
 40
3.2
  1
日　付
  7
高3.2
100
AcDbText
  0
TEXT
  5
AC1
330
36
100
AcDbEntity
  8
0
 62
     3
100
AcDbText
 10
125.5
 20
134.0
 30
0.0
 40
3.2
  1
図　　　　面　　　　略　　　　歴
  7
高3.2
100
AcDbText
  0
TEXT
  5
AC2
330
36
100
AcDbEntity
  8
0
 62
     3
100
AcDbText
 10
115.5
 20
129.0
 30
0.0
 40
3.2
  1
記号
  7
高3.2
100
AcDbText
  0
LINE
  5
AC3
330
36
100
AcDbEntity
  8
0
100
AcDbLine
 10
119.0
 20
127.2908960000001
 30
0.0
 11
117.1
 21
124.0
 31
0.0
  0
LINE
  5
AC4
330
36
100
AcDbEntity
  8
0
100
AcDbLine
 10
119.0
 20
127.2908960000001
 30
0.0
 11
120.9
 21
124.0
 31
0.0
  0
LINE
  5
AC5
330
36
100
AcDbEntity
  8
0
100
AcDbLine
 10
117.1
 20
124.0
 30
0.0
 11
120.9
 21
124.0
 31
0.0
  0
LINE
  5
AC9
330
36
100
AcDbEntity
  8
0
 62
     3
100
AcDbLine
 10
114.0
 20
133.5
 30
0.0
 11
200.0
 21
133.5
 31
0.0
  0
LINE
  5
ACA
330
36
100
AcDbEntity
  8
0
 62
     3
100
AcDbLine
 10
114.0
 20
128.5
 30
0.0
 11
200.0
 21
128.5
 31
0.0
  0
LINE
  5
ACB
330
36
100
AcDbEntity
  8
0
 62
     7
100
AcDbLine
 10
114.0
 20
123.5
 30
0.0
 11
200.0
 21
123.5
 31
0.0
  0
LINE
  5
ACC
330
36
100
AcDbEntity
  8
0
 62
     7
100
AcDbLine
 10
114.0
 20
118.5
 30
0.0
 11
200.0
 21
118.5
 31
0.0
  0
LINE
  5
ACD
330
36
100
AcDbEntity
  8
0
 62
     7
100
AcDbLine
 10
185.9999999999999
 20
108.5
 30
0.0
 11
186.0
 21
133.5
 31
0.0
  0
LINE
  5
ACE
330
36
100
AcDbEntity
  8
0
 62
     7
100
AcDbLine
 10
142.0
 20
108.5
 30
0.0
 11
142.0
 21
133.5
 31
0.0
  0
LINE
  5
ACF
330
36
100
AcDbEntity
  8
0
 62
     7
100
AcDbLine
 10
124.0
 20
108.5
 30
0.0
 11
124.0
 21
133.5
 31
0.0
  0
LINE
  5
AD0
330
36
100
AcDbEntity
  8
0
 62
     3
100
AcDbLine
 10
114.0
 20
108.5
 30
0.0
 11
114.0
 21
138.5
 31
0.0
  0
TEXT
  5
D25
330
36
100
AcDbEntity
  8
0
  6
Continuous
100
AcDbText
 10
125.5
 20
119.0
 30
0.0
 40
2.5
  1
'15.01.06
  7
高2.5
100
AcDbText
  0
TEXT
  5
D26
330
36
100
AcDbEntity
  8
0
  6
Continuous
100
AcDbText
 10
143.5
 20
119.0
 30
0.0
 40
2.5
  1
電線種変更
  7
高2.5
100
AcDbText
  0
TEXT
  5
D27
330
36
100
AcDbEntity
  8
0
  6
Continuous
100
AcDbText
 10
187.4999999999999
 20
119.0
 30
0.0
 40
2.5
  1
今村
  7
高2.5
100
AcDbText
  0
TEXT
  5
D2C
330
36
100
AcDbEntity
  8
0
 62
     3
100
AcDbText
 10
118.3050035235819
 20
119.1596447778188
 30
0.0
 40
2.0
  1
3
  7
高2
100
AcDbText
  0
LINE
  5
D2D
330
36
100
AcDbEntity
  8
0
100
AcDbLine
 10
119.0
 20
122.2908960000001
 30
0.0
 11
117.1
 21
119.0
 31
0.0
  0
LINE
  5
D2E
330
36
100
AcDbEntity
  8
0
100
AcDbLine
 10
119.0
 20
122.2908960000001
 30
0.0
 11
120.9
 21
119.0
 31
0.0
  0
LINE
  5
D2F
330
36
100
AcDbEntity
  8
0
100
AcDbLine
 10
117.1
 20
119.0
 30
0.0
 11
120.9
 21
119.0
 31
0.0
  0
LINE
  5
D30
330
36
100
AcDbEntity
  8
0
 62
     7
100
AcDbLine
 10
114.0
 20
113.5
 30
0.0
 11
200.0
 21
113.5
 31
0.0
  0
TEXT
  5
DA5
330
36
100
AcDbEntity
  8
0
  6
Continuous
100
AcDbText
 10
125.5
 20
114.0
 30
0.0
 40
2.5
  1
'16.06.07
  7
高2.5
100
AcDbText
  0
TEXT
  5
DA6
330
36
100
AcDbEntity
  8
0
  6
Continuous
100
AcDbText
 10
143.5
 20
114.0
 30
0.0
 40
2.5
  1
球仕様変更
  7
高2.5
100
AcDbText
  0
TEXT
  5
DA7
330
36
100
AcDbEntity
  8
0
  6
Continuous
100
AcDbText
 10
187.4999999999999
 20
114.0
 30
0.0
 40
2.5
  1
今村
  7
高2.5
100
AcDbText
  0
TEXT
  5
DA8
330
36
100
AcDbEntity
  8
0
 62
     3
100
AcDbText
 10
118.3050035235819
 20
114.1596447778188
 30
0.0
 40
2.0
  1
4
  7
高2
100
AcDbText
  0
LINE
  5
DA9
330
36
100
AcDbEntity
  8
0
100
AcDbLine
 10
119.0
 20
117.2908960000001
 30
0.0
 11
117.1
 21
114.0
 31
0.0
  0
LINE
  5
DAA
330
36
100
AcDbEntity
  8
0
100
AcDbLine
 10
119.0
 20
117.2908960000001
 30
0.0
 11
120.9
 21
114.0
 31
0.0
  0
LINE
  5
DAB
330
36
100
AcDbEntity
  8
0
100
AcDbLine
 10
117.1
 20
114.0
 30
0.0
 11
120.9
 21
114.0
 31
0.0
  0
LINE
  5
DAC
330
36
100
AcDbEntity
  8
0
 62
     3
100
AcDbLine
 10
114.0
 20
108.5
 30
0.0
 11
200.0
 21
108.5
 31
0.0
  0
TEXT
  5
1671
330
36
100
AcDbEntity
  8
0
 62
     3
100
AcDbText
 10
118.3050035235819
 20
109.1596447778188
 30
0.0
 40
2.0
  1
5
  7
高2
100
AcDbText
  0
LINE
  5
1672
330
36
100
AcDbEntity
  8
0
100
AcDbLine
 10
119.0
 20
112.2908960000001
 30
0.0
 11
117.1
 21
109.0
 31
0.0
  0
LINE
  5
1673
330
36
100
AcDbEntity
  8
0
100
AcDbLine
 10
119.0
 20
112.2908960000001
 30
0.0
 11
120.9
 21
109.0
 31
0.0
  0
LINE
  5
1674
330
36
100
AcDbEntity
  8
0
100
AcDbLine
 10
117.1
 20
109.0
 30
0.0
 11
120.9
 21
109.0
 31
0.0
  0
TEXT
  5
1676
330
36
100
AcDbEntity
  8
0
  6
Continuous
 62
     7
100
AcDbText
 10
125.5
 20
109.0
 30
0.0
 40
2.5
  1
'18.02.19
  7
高2.5
100
AcDbText
  0
TEXT
  5
1677
330
36
100
AcDbEntity
  8
0
  6
Continuous
100
AcDbText
 10
143.5
 20
109.0
 30
0.0
 40
2.5
  1
自在クリップ球形状およびレバーナットへ変更 lot18.01
 41
0.5
  7
高2.5
100
AcDbText
  0
TEXT
  5
1678
330
36
100
AcDbEntity
  8
0
  6
Continuous
100
AcDbText
 10
187.4999999999999
 20
109.0
 30
0.0
 40
2.5
  1
今村
  7
高2.5
100
AcDbText
  0
LINE
  5
1EF8
330
36
100
AcDbEntity
  8
0
  6
HIDDEN
100
AcDbLine
 10
79.43257885247425
 20
63.77249175895008
 30
0.0
 11
75.00188114752565
 21
56.62690006972048
 31
0.0
  0
LINE
  5
1EF9
330
36
100
AcDbEntity
  8
0
  6
HIDDEN
100
AcDbLine
 10
80.25197327429237
 20
62.72194569618079
 30
0.0
 11
79.59325241862825
 21
61.65959602007922
 31
0.0
  0
LINE
  5
1EFA
330
36
100
AcDbEntity
  8
0
  6
HIDDEN
100
AcDbLine
 10
79.26389199079614
 20
61.12842118202842
 30
0.0
 11
78.60517113513195
 21
60.06607150592685
 31
0.0
  0
LINE
  5
1EFB
330
36
100
AcDbEntity
  8
0
  6
HIDDEN
100
AcDbLine
 10
77.94645027946784
 20
59.00372182982533
 30
0.0
 11
77.2877294238037
 21
57.94137215372376
 31
0.0
  0
LINE
  5
1EFC
330
36
100
AcDbEntity
  8
0
  6
HIDDEN
100
AcDbLine
 10
76.95836899597157
 20
57.41019731567297
 30
0.0
 11
76.29964814030746
 21
56.34784763957146
 31
0.0
  0
LINE
  5
1EFD
330
36
100
AcDbEntity
  8
0
  6
HIDDEN
100
AcDbLine
 10
78.76468372775025
 20
63.64415489411062
 30
0.0
 11
78.10596287208602
 21
62.58180521800897
 31
0.0
  0
LINE
  5
1EFE
330
36
100
AcDbEntity
  8
0
  6
HIDDEN
100
AcDbLine
 10
77.77660244425397
 20
62.05063037995819
 30
0.0
 11
77.11788158858979
 21
60.9882807038566
 31
0.0
  0
LINE
  5
1EFF
330
36
100
AcDbEntity
  8
0
  6
HIDDEN
100
AcDbLine
 10
76.45916073292562
 20
59.9259310277551
 30
0.0
 11
75.80043987726151
 21
58.86358135165358
 31
0.0
  0
LINE
  5
1F00
330
36
100
AcDbEntity
  8
0
  6
HIDDEN
100
AcDbLine
 10
75.47107944942941
 20
58.33240651360279
 30
0.0
 11
74.81235859376528
 21
57.27005683750133
 31
0.0
  0
ARC
  5
1F01
330
36
100
AcDbEntity
  8
0
  6
HIDDEN
100
AcDbCircle
 10
77.51109420239436
 20
59.24169288339243
 30
0.0
 40
2.575275472624289
100
AcDbArc
 50
15.53014253117289
 51
47.10746999274436
  0
ARC
  5
1F02
330
36
100
AcDbEntity
  8
0
  6
HIDDEN
100
AcDbCircle
 10
79.46305348448027
 20
61.68857665655885
 30
0.0
 40
1.835343316426246
100
AcDbArc
 50
242.1328288300883
 51
286.7615115730393
  0
ARC
  5
1F03
330
36
100
AcDbEntity
  8
0
  6
HIDDEN
100
AcDbCircle
 10
76.56162113884784
 20
60.51861578380471
 30
0.0
 40
4.298064865302905
100
AcDbArc
 50
9.573872404924713
 51
30.83937265564296
  0
ARC
  5
1F04
330
36
100
AcDbEntity
  8
0
  6
HIDDEN
100
AcDbCircle
 10
81.52244170511295
 20
65.2007764488294
 30
0.0
 40
4.032583555495241
100
AcDbArc
 50
241.4190232091979
 51
259.6771197203532
  0
ARC
  5
1F05
330
36
100
AcDbEntity
  8
0
  6
HIDDEN
100
AcDbCircle
 10
78.19845700470908
 20
60.35023475530124
 30
0.0
 40
2.575275472624289
100
AcDbArc
 50
249.289713504293
 51
280.867040965863
  0
ARC
  5
1F06
330
36
100
AcDbEntity
  8
0
  6
HIDDEN
100
AcDbCircle
 10
76.87452477206704
 20
57.51393634334277
 30
0.0
 40
1.835343316426245
100
AcDbArc
 50
9.635671923998772
 51
54.26435466694988
  0
ARC
  5
1F07
330
36
100
AcDbEntity
  8
0
  6
Continuous
100
AcDbCircle
 10
76.63254691827241
 20
60.63300107789553
 30
0.0
 40
4.298064865302904
100
AcDbArc
 50
265.5578108413996
 51
286.8233110921141
  0
ARC
  5
1F08
330
36
100
AcDbEntity
  8
0
  6
HIDDEN
100
AcDbCircle
 10
74.6441151243456
 20
54.10778014794345
 30
0.0
 40
4.032583555495238
100
AcDbArc
 50
36.72006377668424
 51
54.97816028784146
  0
ARC
  5
1F09
330
36
100
AcDbEntity
  8
0
  6
HIDDEN
100
AcDbCircle
 10
76.86587486334861
 20
59.64176777838075
 30
0.0
 40
2.575275472624289
100
AcDbArc
 50
69.28971350429603
 51
100.867040965863
  0
ARC
  5
1F0A
330
36
100
AcDbEntity
  8
0
  6
HIDDEN
100
AcDbCircle
 10
78.18980709599054
 20
62.47806619033922
 30
0.0
 40
1.835343316426246
100
AcDbArc
 50
189.635671924002
 51
234.2643546669544
  0
ARC
  5
1F0B
330
36
100
AcDbEntity
  8
0
  6
HIDDEN
100
AcDbCircle
 10
78.43178494978531
 20
59.35900145578647
 30
0.0
 40
4.298064865302905
100
AcDbArc
 50
85.55781084139956
 51
106.8233110921172
  0
ARC
  5
1F0C
330
36
100
AcDbEntity
  8
0
  6
HIDDEN
100
AcDbCircle
 10
80.42021674371188
 20
65.88422238573865
 30
0.0
 40
4.032583555495241
100
AcDbArc
 50
216.7200637766868
 51
234.9781602878415
  0
ARC
  5
1F0D
330
36
100
AcDbEntity
  8
0
  6
HIDDEN
100
AcDbCircle
 10
77.55323766566331
 20
60.75030965028958
 30
0.0
 40
2.575275472624289
100
AcDbArc
 50
195.5301425311759
 51
227.107469992749
  0
ARC
  5
1F0E
330
36
100
AcDbEntity
  8
0
  6
HIDDEN
100
AcDbCircle
 10
75.60127838357748
 20
58.30342587712312
 30
0.0
 40
1.835343316426245
100
AcDbArc
 50
62.13282883008827
 51
106.7615115730394
  0
ARC
  5
1F0F
330
36
100
AcDbEntity
  8
0
  6
HIDDEN
100
AcDbCircle
 10
78.50271072920986
 20
59.47338674987737
 30
0.0
 40
4.298064865302904
100
AcDbArc
 50
189.5738724049247
 51
210.839372655643
  0
ARC
  5
1F10
330
36
100
AcDbEntity
  8
0
  6
HIDDEN
100
AcDbCircle
 10
73.54189016294492
 20
54.7912260848525
 30
0.0
 40
4.032583555495238
100
AcDbArc
 50
61.41902320920074
 51
79.67711972035707
  0
ARC
  5
1F11
330
36
100
AcDbEntity
  8
0
100
AcDbCircle
 10
77.24322899999998
 20
60.2960269143353
 30
0.0
 40
5.5
100
AcDbArc
 50
219.8805519999976
 51
247.3423109864855
  0
CIRCLE
  5
1F12
330
36
100
AcDbEntity
  8
0
 62
     3
100
AcDbCircle
 10
77.24322899999998
 20
52.27914391433529
 30
0.0
 40
1.625
  0
ARC
  5
1F13
330
36
100
AcDbEntity
  8
0
  6
Continuous
 62
     3
100
AcDbCircle
 10
77.24322899999998
 20
52.27914391433529
 30
0.0
 40
3.625
100
AcDbArc
 50
65.88829755280761
 51
354.111702447193
  0
LINE
  5
1F14
330
36
100
AcDbEntity
  8
0
  6
Continuous
100
AcDbLine
 10
77.99322899999999
 20
52.71215661622751
 30
0.0
 11
77.99322899999999
 21
51.84613121244307
 31
0.0
  0
LINE
  5
1F15
330
36
100
AcDbEntity
  8
0
  6
Continuous
100
AcDbLine
 10
77.24322899999998
 20
53.1451693181197
 30
0.0
 11
77.99322899999999
 21
52.71215661622751
 31
0.0
  0
LINE
  5
1F16
330
36
100
AcDbEntity
  8
0
  6
Continuous
100
AcDbLine
 10
76.49322899999998
 20
52.71215661622751
 30
0.0
 11
77.24322899999998
 21
53.1451693181197
 31
0.0
  0
LINE
  5
1F17
330
36
100
AcDbEntity
  8
0
  6
Continuous
100
AcDbLine
 10
76.49322899999998
 20
51.84613121244307
 30
0.0
 11
76.49322899999998
 21
52.71215661622751
 31
0.0
  0
LINE
  5
1F18
330
36
100
AcDbEntity
  8
0
  6
Continuous
100
AcDbLine
 10
77.24322899999998
 20
51.41311851055082
 30
0.0
 11
76.49322899999998
 21
51.84613121244307
 31
0.0
  0
LINE
  5
1F19
330
36
100
AcDbEntity
  8
0
  6
Continuous
100
AcDbLine
 10
77.99322899999999
 20
51.84613121244307
 30
0.0
 11
77.24322899999998
 21
51.41311851055082
 31
0.0
  0
LINE
  5
1F1A
330
36
100
AcDbEntity
  8
0
  6
Continuous
 62
     3
100
AcDbLine
 10
97.17078788325762
 20
61.76359945771253
 30
0.0
 11
95.42078788325762
 21
64.79468837095804
 31
0.0
  0
LINE
  5
1F1B
330
36
100
AcDbEntity
  8
0
  6
Continuous
 62
     3
100
AcDbLine
 10
97.17078788325762
 20
61.76359945771253
 30
0.0
 11
80.84910274367194
 21
51.9072574468522
 31
0.0
  0
LINE
  5
1F1C
330
36
100
AcDbEntity
  8
0
  6
Continuous
 62
     3
100
AcDbLine
 10
95.42078788325762
 20
64.79468837095804
 30
0.0
 11
78.72410274367195
 21
55.58786541293607
 31
0.0
  0
LINE
  5
1F21
330
36
100
AcDbEntity
  8
0
 62
     3
100
AcDbLine
 10
82.61257453433534
 20
57.73203181810008
 30
0.0
 11
82.73520000000003
 21
59.99894591433527
 31
0.0
  0
TEXT
  5
1F22
330
36
100
AcDbEntity
  8
0
100
AcDbText
 10
-188.9617459819359
 20
-140.6691129876551
 30
0.0
 40
3.2
  1
コード番号末尾に●の記載がある物は過去に変更があった部品
  7
高3.2
100
AcDbText
  0
LINE
  5
2058
330
36
100
AcDbEntity
  8
0
100
AcDbLine
 10
-32.206178
 20
8.170049914335285
 30
0.0
 11
-33.715349
 21
9.587648914335282
 31
0.0
  0
LINE
  5
205B
330
36
100
AcDbEntity
  8
0
100
AcDbLine
 10
-33.715349
 20
9.587648914335282
 30
0.0
 11
-33.117168
 21
7.605385914335282
 31
0.0
  0
LINE
  5
205C
330
36
100
AcDbEntity
  8
0
100
AcDbLine
 10
-47.123182
 20
64.85563391433529
 30
0.0
 11
-47.131657
 21
62.78509891433529
 31
0.0
  0
LINE
  5
205D
330
36
100
AcDbEntity
  8
0
100
AcDbLine
 10
-47.131657
 20
62.78509891433529
 30
0.0
 11
-46.08905
 21
64.57399791433528
 31
0.0
  0
LINE
  5
205E
330
36
100
AcDbEntity
  8
0
100
AcDbLine
 10
-31.044345
 20
71.75737291433529
 30
0.0
 11
-31.080412
 21
69.68713491433527
 31
0.0
  0
LINE
  5
205F
330
36
100
AcDbEntity
  8
0
100
AcDbLine
 10
-31.080412
 20
69.68713491433527
 30
0.0
 11
-30.01405800000001
 21
71.46197991433528
 31
0.0
  0
LINE
  5
2060
330
36
100
AcDbEntity
  8
0
 62
     3
100
AcDbLine
 10
-48.26260999999998
 20
38.53359491433528
 30
0.0
 11
-48.263461
 21
38.44704591433528
 31
0.0
  0
LINE
  5
2061
330
36
100
AcDbEntity
  8
0
 62
     3
100
AcDbLine
 10
-48.263461
 20
38.44704591433528
 30
0.0
 11
-48.264312
 21
38.36049691433529
 31
0.0
  0
LINE
  5
2062
330
36
100
AcDbEntity
  8
0
 62
     3
100
AcDbLine
 10
-48.264312
 20
38.36049691433529
 30
0.0
 11
-48.264996
 21
38.29088191433529
 31
0.0
  0
LINE
  5
2063
330
36
100
AcDbEntity
  8
0
 62
     3
100
AcDbLine
 10
-48.264996
 20
38.29088191433529
 30
0.0
 11
-48.26567999999999
 21
38.22126591433529
 31
0.0
  0
LINE
  5
2064
330
36
100
AcDbEntity
  8
0
 62
     3
100
AcDbLine
 10
-48.26518599999999
 20
36.31207591433529
 30
0.0
 11
-48.265095
 21
36.30288891433528
 31
0.0
  0
LINE
  5
2065
330
36
100
AcDbEntity
  8
0
 62
     3
100
AcDbLine
 10
-48.265095
 20
36.30288891433528
 30
0.0
 11
-48.265005
 21
36.29370191433529
 31
0.0
  0
LINE
  5
2066
330
36
100
AcDbEntity
  8
0
 62
     3
100
AcDbLine
 10
-48.265005
 20
36.29370191433529
 30
0.0
 11
-48.263807
 21
36.17190991433529
 31
0.0
  0
LINE
  5
2067
330
36
100
AcDbEntity
  8
0
 62
     3
100
AcDbLine
 10
-48.263807
 20
36.17190991433529
 30
0.0
 11
-48.26260999999998
 21
36.05011791433529
 31
0.0
  0
LINE
  5
2068
330
36
100
AcDbEntity
  8
0
100
AcDbLine
 10
21.965921
 20
102.5366009143352
 30
0.0
 11
21.561111
 21
100.5060059143353
 31
0.0
  0
LINE
  5
2069
330
36
100
AcDbEntity
  8
0
100
AcDbLine
 10
21.561111
 20
100.5060059143353
 30
0.0
 11
22.926984
 21
102.0621479143352
 31
0.0
  0
LINE
  5
206A
330
36
100
AcDbEntity
  8
0
100
AcDbLine
 10
130.439272
 20
32.66457191433528
 30
0.0
 11
128.808992
 21
31.38810191433528
 31
0.0
  0
LINE
  5
206B
330
36
100
AcDbEntity
  8
0
100
AcDbLine
 10
128.808992
 20
31.38810191433528
 30
0.0
 11
130.8590909999999
 21
31.67841791433529
 31
0.0
  0
LINE
  5
206C
330
36
100
AcDbEntity
  8
0
100
AcDbLine
 10
95.248045
 20
41.29841091433529
 30
0.0
 11
94.14440500000001
 21
39.54650791433528
 31
0.0
  0
LINE
  5
206D
330
36
100
AcDbEntity
  8
0
100
AcDbLine
 10
94.14440500000001
 20
39.54650791433528
 30
0.0
 11
95.976137
 21
40.51188091433528
 31
0.0
  0
LINE
  5
206E
330
36
100
AcDbEntity
  8
0
100
AcDbLine
 10
114.219078
 20
43.81841291433526
 30
0.0
 11
112.594227
 21
42.53503991433528
 31
0.0
  0
LINE
  5
206F
330
36
100
AcDbEntity
  8
0
100
AcDbLine
 10
112.594227
 20
42.53503991433528
 30
0.0
 11
114.643076
 21
42.83404791433528
 31
0.0
  0
LINE
  5
2070
330
36
100
AcDbEntity
  8
0
100
AcDbLine
 10
77.328923
 20
26.10266891433528
 30
0.0
 11
76.095216
 21
27.76554391433528
 31
0.0
  0
LINE
  5
2071
330
36
100
AcDbEntity
  8
0
100
AcDbLine
 10
76.095216
 20
27.76554391433528
 30
0.0
 11
76.3322
 21
25.70859891433529
 31
0.0
  0
LINE
  5
2072
330
36
100
AcDbEntity
  8
0
100
AcDbLine
 10
62.03662099999998
 20
42.51101191433527
 30
0.0
 11
63.028892
 21
40.69370991433529
 31
0.0
  0
LINE
  5
2073
330
36
100
AcDbEntity
  8
0
100
AcDbLine
 10
63.028892
 20
40.69370991433529
 30
0.0
 11
63.07821099999999
 21
42.76367491433528
 31
0.0
  0
LINE
  5
2074
330
36
100
AcDbEntity
  8
0
100
AcDbLine
 10
36.124598
 20
45.18662791433528
 30
0.0
 11
35.588971
 21
43.18655591433528
 31
0.0
  0
LINE
  5
2075
330
36
100
AcDbEntity
  8
0
100
AcDbLine
 10
35.588971
 20
43.18655591433528
 30
0.0
 11
37.052874
 21
44.65085591433529
 31
0.0
  0
LINE
  5
2076
330
36
100
AcDbEntity
  8
0
100
AcDbLine
 10
-17.964418
 20
53.29327091433528
 30
0.0
 11
-17.93858
 21
51.22287891433527
 31
0.0
  0
LINE
  5
2077
330
36
100
AcDbEntity
  8
0
100
AcDbLine
 10
-17.93858
 20
51.22287891433527
 30
0.0
 11
-16.92576
 21
53.02880991433528
 31
0.0
  0
LINE
  5
2078
330
36
100
AcDbEntity
  8
0
100
AcDbLine
 10
123.22895
 20
19.66359291433528
 30
0.0
 11
125.099748
 21
20.54395291433529
 31
0.0
  0
LINE
  5
2079
330
36
100
AcDbEntity
  8
0
100
AcDbLine
 10
125.099748
 20
20.54395291433529
 30
0.0
 11
126.726898
 21
20.40141791433528
 31
0.0
  0
LINE
  5
207A
330
36
100
AcDbEntity
  8
0
100
AcDbLine
 10
126.726898
 20
20.40141791433528
 30
0.0
 11
127.222902
 21
19.95896991433528
 31
0.0
  0
LINE
  5
207B
330
36
100
AcDbEntity
  8
0
100
AcDbLine
 10
127.222902
 20
19.95896991433528
 30
0.0
 11
127.721617
 21
19.56800391433528
 31
0.0
  0
LINE
  5
207C
330
36
100
AcDbEntity
  8
0
100
AcDbLine
 10
127.721617
 20
19.56800391433528
 30
0.0
 11
128.828703
 21
19.64297291433528
 31
0.0
  0
LINE
  5
207D
330
36
100
AcDbEntity
  8
0
100
AcDbLine
 10
128.828703
 20
19.64297291433528
 30
0.0
 11
130.063539
 21
20.40141791433528
 31
0.0
  0
LINE
  5
207E
330
36
100
AcDbEntity
  8
0
100
AcDbLine
 10
123.390256
 20
22.00850191433529
 30
0.0
 11
125.261054
 21
22.88886191433529
 31
0.0
  0
LINE
  5
207F
330
36
100
AcDbEntity
  8
0
100
AcDbLine
 10
125.261054
 20
22.88886191433529
 30
0.0
 11
126.888204
 21
22.74632691433529
 31
0.0
  0
LINE
  5
2080
330
36
100
AcDbEntity
  8
0
100
AcDbLine
 10
126.888204
 20
22.74632691433529
 30
0.0
 11
127.384208
 21
22.30387891433529
 31
0.0
  0
LINE
  5
2081
330
36
100
AcDbEntity
  8
0
100
AcDbLine
 10
127.384208
 20
22.30387891433529
 30
0.0
 11
127.882923
 21
21.91291391433528
 31
0.0
  0
LINE
  5
2082
330
36
100
AcDbEntity
  8
0
100
AcDbLine
 10
127.882923
 20
21.91291391433528
 30
0.0
 11
128.990009
 21
21.98788191433528
 31
0.0
  0
LINE
  5
2083
330
36
100
AcDbEntity
  8
0
100
AcDbLine
 10
128.990009
 20
21.98788191433528
 30
0.0
 11
130.224845
 21
22.74632691433529
 31
0.0
  0
LINE
  5
2084
330
36
100
AcDbEntity
  8
0
100
AcDbLine
 10
-49.76229899999999
 20
12.11457391433528
 30
0.0
 11
-49.76229899999999
 21
-16.97825680400228
 31
0.0
  0
LINE
  5
2085
330
36
100
AcDbEntity
  8
0
100
AcDbLine
 10
113.203763
 20
18.82144891433528
 30
0.0
 11
113.203763
 21
-16.97825680400228
 31
0.0
  0
LINE
  5
2086
330
36
100
AcDbEntity
  8
0
100
AcDbLine
 10
-47.26229899999998
 20
-15.72825680400228
 30
0.0
 11
110.703763
 21
-15.72825680400228
 31
0.0
  0
LINE
  5
208A
330
36
100
AcDbEntity
  8
0
100
AcDbLine
 10
-114.843888
 20
-0.9581430856647157
 30
0.0
 11
-167.031715
 21
-0.958143085664701
 31
0.0
  0
LINE
  5
208B
330
36
100
AcDbEntity
  8
0
100
AcDbLine
 10
-114.843888
 20
75.54185691433528
 30
0.0
 11
-167.031715
 21
75.5418569143353
 31
0.0
  0
LINE
  5
208C
330
36
100
AcDbEntity
  8
0
100
AcDbLine
 10
-165.781715
 20
1.541856914335298
 30
0.0
 11
-165.781715
 21
73.0418569143353
 31
0.0
  0
LINE
  5
2090
330
36
100
AcDbEntity
  8
0
100
AcDbLine
 10
-39.517988
 20
1.791856914335284
 30
0.0
 11
-39.517988
 21
-12.24662808566471
 31
0.0
  0
LINE
  5
2091
330
36
100
AcDbEntity
  8
0
100
AcDbLine
 10
113.203763
 20
18.82144891433528
 30
0.0
 11
113.203763
 21
-12.24662808566471
 31
0.0
  0
LINE
  5
2092
330
36
100
AcDbEntity
  8
0
100
AcDbLine
 10
-37.01798800000001
 20
-10.99662808566471
 30
0.0
 11
110.703763
 21
-10.99662808566471
 31
0.0
  0
LINE
  5
2096
330
36
100
AcDbEntity
  8
0
100
AcDbLine
 10
70.70376299999998
 20
27.34180991433528
 30
0.0
 11
70.70376299999998
 21
-5.973938085664713
 31
0.0
  0
LINE
  5
2097
330
36
100
AcDbEntity
  8
0
100
AcDbLine
 10
113.203763
 20
18.82144891433528
 30
0.0
 11
113.203763
 21
-5.973938085664713
 31
0.0
  0
LINE
  5
2098
330
36
100
AcDbEntity
  8
0
100
AcDbLine
 10
73.20376299999998
 20
-4.723938085664713
 30
0.0
 11
110.703763
 21
-4.723938085664713
 31
0.0
  0
LINE
  5
209C
330
36
100
AcDbEntity
  8
0
100
AcDbLine
 10
-38.767988
 20
1.041856914335284
 30
0.0
 11
-58.42006099999999
 21
1.041856914335289
 31
0.0
  0
LINE
  5
209D
330
36
100
AcDbEntity
  8
0
100
AcDbLine
 10
-38.767988
 20
73.54185691433528
 30
0.0
 11
-58.42006099999998
 21
73.54185691433528
 31
0.0
  0
LINE
  5
209E
330
36
100
AcDbEntity
  8
0
100
AcDbLine
 10
-57.17006099999999
 20
3.541856914335289
 30
0.0
 11
-57.17006099999998
 21
71.04185691433528
 31
0.0
  0
TEXT
  5
20A2
330
36
100
AcDbEntity
  8
0
  6
Continuous
 62
     4
100
AcDbText
 10
26.45460246708035
 20
-15.10325680400228
 30
0.0
 40
3.0
  1
335.5
100
AcDbText
  0
LINE
  5
20A3
330
36
100
AcDbEntity
  8
0
  6
ByBlock
 62
     0
370
    -2
100
AcDbLine
 10
110.703763
 20
-15.05838430400228
 30
0.0
 11
113.203763
 21
-15.72825680400228
 31
0.0
  0
LINE
  5
20A4
330
36
100
AcDbEntity
  8
0
  6
ByBlock
 62
     0
370
    -2
100
AcDbLine
 10
113.203763
 20
-15.72825680400228
 30
0.0
 11
110.703763
 21
-16.39812930400228
 31
0.0
  0
LINE
  5
20A5
330
36
100
AcDbEntity
  8
0
  6
ByBlock
 62
     0
370
    -2
100
AcDbLine
 10
113.203763
 20
-15.72825680400228
 30
0.0
 11
110.703763
 21
-15.72825680400228
 31
0.0
  0
LINE
  5
20A6
330
36
100
AcDbEntity
  8
0
  6
ByBlock
 62
     0
370
    -2
100
AcDbLine
 10
-47.26229899999998
 20
-16.39812930400228
 30
0.0
 11
-49.76229899999999
 21
-15.72825680400228
 31
0.0
  0
LINE
  5
20A7
330
36
100
AcDbEntity
  8
0
  6
ByBlock
 62
     0
370
    -2
100
AcDbLine
 10
-49.76229899999999
 20
-15.72825680400228
 30
0.0
 11
-47.26229899999998
 21
-15.05838430400228
 31
0.0
  0
LINE
  5
20A8
330
36
100
AcDbEntity
  8
0
  6
ByBlock
 62
     0
370
    -2
100
AcDbLine
 10
-49.76229899999999
 20
-15.72825680400228
 30
0.0
 11
-47.26229899999998
 21
-15.72825680400228
 31
0.0
  0
TEXT
  5
20A9
330
36
100
AcDbEntity
  8
0
  6
Continuous
 62
     4
100
AcDbText
 10
-166.406715
 20
31.69185691433526
 30
0.0
 40
3.0
  1
\U+03C6153
 50
90.0
100
AcDbText
  0
LINE
  5
20AA
330
36
100
AcDbEntity
  8
0
  6
ByBlock
 62
     0
370
    -2
100
AcDbLine
 10
-166.4515875
 20
73.0418569143353
 30
0.0
 11
-165.781715
 21
75.5418569143353
 31
0.0
  0
LINE
  5
20AB
330
36
100
AcDbEntity
  8
0
  6
ByBlock
 62
     0
370
    -2
100
AcDbLine
 10
-165.781715
 20
75.5418569143353
 30
0.0
 11
-165.1118425
 21
73.0418569143353
 31
0.0
  0
LINE
  5
20AC
330
36
100
AcDbEntity
  8
0
  6
ByBlock
 62
     0
370
    -2
100
AcDbLine
 10
-165.781715
 20
75.5418569143353
 30
0.0
 11
-165.781715
 21
73.0418569143353
 31
0.0
  0
LINE
  5
20AD
330
36
100
AcDbEntity
  8
0
  6
ByBlock
 62
     0
370
    -2
100
AcDbLine
 10
-165.1118425
 20
1.541856914335298
 30
0.0
 11
-165.781715
 21
-0.9581430856647013
 31
0.0
  0
LINE
  5
20AE
330
36
100
AcDbEntity
  8
0
  6
ByBlock
 62
     0
370
    -2
100
AcDbLine
 10
-165.781715
 20
-0.9581430856647013
 30
0.0
 11
-166.4515875
 21
1.541856914335298
 31
0.0
  0
LINE
  5
20AF
330
36
100
AcDbEntity
  8
0
  6
ByBlock
 62
     0
370
    -2
100
AcDbLine
 10
-165.781715
 20
-0.9581430856647013
 30
0.0
 11
-165.781715
 21
1.541856914335298
 31
0.0
  0
TEXT
  5
20B0
330
36
100
AcDbEntity
  8
0
  6
Continuous
 62
     4
100
AcDbText
 10
33.34288750000001
 20
-10.37162808566471
 30
0.0
 40
3.0
  1
315
100
AcDbText
  0
LINE
  5
20B1
330
36
100
AcDbEntity
  8
0
  6
ByBlock
 62
     0
370
    -2
100
AcDbLine
 10
110.703763
 20
-10.32675558566471
 30
0.0
 11
113.203763
 21
-10.99662808566471
 31
0.0
  0
LINE
  5
20B2
330
36
100
AcDbEntity
  8
0
  6
ByBlock
 62
     0
370
    -2
100
AcDbLine
 10
113.203763
 20
-10.99662808566471
 30
0.0
 11
110.703763
 21
-11.66650058566471
 31
0.0
  0
LINE
  5
20B3
330
36
100
AcDbEntity
  8
0
  6
ByBlock
 62
     0
370
    -2
100
AcDbLine
 10
113.203763
 20
-10.99662808566471
 30
0.0
 11
110.703763
 21
-10.99662808566471
 31
0.0
  0
LINE
  5
20B4
330
36
100
AcDbEntity
  8
0
  6
ByBlock
 62
     0
370
    -2
100
AcDbLine
 10
-37.01798800000001
 20
-11.66650058566471
 30
0.0
 11
-39.517988
 21
-10.99662808566471
 31
0.0
  0
LINE
  5
20B5
330
36
100
AcDbEntity
  8
0
  6
ByBlock
 62
     0
370
    -2
100
AcDbLine
 10
-39.517988
 20
-10.99662808566471
 30
0.0
 11
-37.01798800000001
 21
-10.32675558566471
 31
0.0
  0
LINE
  5
20B6
330
36
100
AcDbEntity
  8
0
  6
ByBlock
 62
     0
370
    -2
100
AcDbLine
 10
-39.517988
 20
-10.99662808566471
 30
0.0
 11
-37.01798800000001
 21
-10.99662808566471
 31
0.0
  0
TEXT
  5
20B7
330
36
100
AcDbEntity
  8
0
  6
Continuous
 62
     4
100
AcDbText
 10
89.45376299999997
 20
-4.098938085664713
 30
0.0
 40
3.0
  1
85
100
AcDbText
  0
LINE
  5
20B8
330
36
100
AcDbEntity
  8
0
  6
ByBlock
 62
     0
370
    -2
100
AcDbLine
 10
110.703763
 20
-4.054065585664712
 30
0.0
 11
113.203763
 21
-4.723938085664713
 31
0.0
  0
LINE
  5
20B9
330
36
100
AcDbEntity
  8
0
  6
ByBlock
 62
     0
370
    -2
100
AcDbLine
 10
113.203763
 20
-4.723938085664713
 30
0.0
 11
110.703763
 21
-5.393810585664713
 31
0.0
  0
LINE
  5
20BA
330
36
100
AcDbEntity
  8
0
  6
ByBlock
 62
     0
370
    -2
100
AcDbLine
 10
113.203763
 20
-4.723938085664713
 30
0.0
 11
110.703763
 21
-4.723938085664713
 31
0.0
  0
LINE
  5
20BB
330
36
100
AcDbEntity
  8
0
  6
ByBlock
 62
     0
370
    -2
100
AcDbLine
 10
73.20376299999998
 20
-5.393810585664713
 30
0.0
 11
70.70376299999998
 21
-4.723938085664713
 31
0.0
  0
LINE
  5
20BC
330
36
100
AcDbEntity
  8
0
  6
ByBlock
 62
     0
370
    -2
100
AcDbLine
 10
70.70376299999998
 20
-4.723938085664713
 30
0.0
 11
73.20376299999998
 21
-4.054065585664713
 31
0.0
  0
LINE
  5
20BD
330
36
100
AcDbEntity
  8
0
  6
ByBlock
 62
     0
370
    -2
100
AcDbLine
 10
70.70376299999998
 20
-4.723938085664713
 30
0.0
 11
73.20376299999998
 21
-4.723938085664713
 31
0.0
  0
TEXT
  5
20BE
330
36
100
AcDbEntity
  8
0
  6
Continuous
 62
     4
100
AcDbText
 10
-57.79506099999999
 20
31.69185691433528
 30
0.0
 40
3.0
  1
\U+03C6145
 50
90.0
100
AcDbText
  0
LINE
  5
20BF
330
36
100
AcDbEntity
  8
0
  6
ByBlock
 62
     0
370
    -2
100
AcDbLine
 10
-57.83993349999998
 20
71.04185691433528
 30
0.0
 11
-57.17006099999998
 21
73.54185691433528
 31
0.0
  0
LINE
  5
20C0
330
36
100
AcDbEntity
  8
0
  6
ByBlock
 62
     0
370
    -2
100
AcDbLine
 10
-57.17006099999998
 20
73.54185691433528
 30
0.0
 11
-56.50018849999998
 21
71.04185691433528
 31
0.0
  0
LINE
  5
20C1
330
36
100
AcDbEntity
  8
0
  6
ByBlock
 62
     0
370
    -2
100
AcDbLine
 10
-57.17006099999998
 20
73.54185691433528
 30
0.0
 11
-57.17006099999998
 21
71.04185691433528
 31
0.0
  0
LINE
  5
20C2
330
36
100
AcDbEntity
  8
0
  6
ByBlock
 62
     0
370
    -2
100
AcDbLine
 10
-56.50018849999999
 20
3.541856914335289
 30
0.0
 11
-57.17006099999999
 21
1.041856914335289
 31
0.0
  0
LINE
  5
20C3
330
36
100
AcDbEntity
  8
0
  6
ByBlock
 62
     0
370
    -2
100
AcDbLine
 10
-57.17006099999999
 20
1.041856914335289
 30
0.0
 11
-57.83993349999999
 21
3.541856914335289
 31
0.0
  0
LINE
  5
20C4
330
36
100
AcDbEntity
  8
0
  6
ByBlock
 62
     0
370
    -2
100
AcDbLine
 10
-57.17006099999999
 20
1.041856914335289
 30
0.0
 11
-57.17006099999999
 21
3.541856914335289
 31
0.0
  0
ENDSEC
  0
SECTION
  2
OBJECTS
  0
DICTIONARY
  5
C
330
0
100
AcDbDictionary
281
     1
  3
ACAD_2007HEADERVARS_RT
350
20C8
  3
ACAD_COLOR
350
2F
  3
ACAD_GROUP
350
D
  3
ACAD_LAYOUT
350
2E
  3
ACAD_MATERIAL
350
10
  3
ACAD_MLEADERSTYLE
350
758
  3
ACAD_MLINESTYLE
350
2B
  3
ACAD_PLOTSETTINGS
350
2D
  3
ACAD_PLOTSTYLENAME
350
E
  3
ACAD_SCALELIST
350
746
  3
ACAD_TABLESTYLE
350
30
  3
ACAD_VISUALSTYLE
350
14
  3
ACDB_RECOMPOSE_DATA
350
20C6
  3
AcDbVariableDictionary
350
720
  3
AEC_PROPERTY_SET_DEFS
350
12AA
  3
DWGPROPS
350
20C7
  0
DICTIONARY
  5
5A3
330
2
100
AcDbDictionary
280
     1
281
     1
  3
ACAD_LAYERSTATES
360
5A4
  0
DICTIONARY
  5
981
330
25
100
AcDbDictionary
280
     1
281
     1
  3
ADSK_XREC_LAYER_RECONCILED
360
982
  0
DICTIONARY
  5
7E1
330
36
100
AcDbDictionary
280
     1
281
     1
  3
ACAD_SORTENTS
360
7E2
  0
DICTIONARY
  5
20C8
102
{ACAD_REACTORS
330
C
102
}
330
C
100
AcDbDictionary
281
     1
  3
DIMARCSYM
350
20CA
  3
DIMFXL
350
20C9
  3
DIMJOGANG
350
20CB
  0
DICTIONARY
  5
2F
102
{ACAD_REACTORS
330
C
102
}
330
C
100
AcDbDictionary
281
     1
  0
DICTIONARY
  5
D
102
{ACAD_REACTORS
330
C
102
}
330
C
100
AcDbDictionary
281
     1
  0
DICTIONARY
  5
2E
102
{ACAD_REACTORS
330
C
102
}
330
C
100
AcDbDictionary
281
     1
  3
Model
350
39
  3
レイアウト1
350
35
  0
DICTIONARY
  5
10
102
{ACAD_REACTORS
330
C
102
}
330
C
100
AcDbDictionary
281
     1
  3
ByBlock
350
12
  3
ByLayer
350
11
  3
Global
350
13
  0
DICTIONARY
  5
758
102
{ACAD_REACTORS
330
C
102
}
330
C
100
AcDbDictionary
281
     1
  3
Standard
350
759
  0
DICTIONARY
  5
2B
102
{ACAD_REACTORS
330
C
102
}
330
C
100
AcDbDictionary
281
     1
  3
Standard
350
2C
  0
DICTIONARY
  5
2D
102
{ACAD_REACTORS
330
C
102
}
330
C
100
AcDbDictionary
281
     1
  0
ACDBDICTIONARYWDFLT
  5
E
102
{ACAD_REACTORS
330
C
102
}
330
C
100
AcDbDictionary
281
     1
  3
Normal
350
F
100
AcDbDictionaryWithDefault
340
F
  0
DICTIONARY
  5
746
102
{ACAD_REACTORS
330
C
102
}
330
C
100
AcDbDictionary
281
     1
  3
A0
350
747
  3
A1
350
748
  3
A2
350
749
  3
A3
350
74A
  3
A4
350
74B
  3
A5
350
74C
  3
A6
350
74D
  3
A7
350
74E
  3
A8
350
74F
  3
A9
350
750
  3
B0
350
751
  3
B1
350
752
  3
B2
350
753
  3
B3
350
754
  3
B4
350
755
  3
B5
350
756
  3
B6
350
757
  0
DICTIONARY
  5
30
102
{ACAD_REACTORS
330
C
102
}
330
C
100
AcDbDictionary
281
     1
  3
Standard
350
31
  0
DICTIONARY
  5
14
102
{ACAD_REACTORS
330
C
102
}
330
C
100
AcDbDictionary
281
     1
  3
2dWireframe
350
1A
  3
3D Hidden
350
1C
  3
3dWireframe
350
1B
  3
Basic
350
19
  3
Brighten
350
20
  3
ColorChange
350
24
  3
Conceptual
350
1D
  3
Dim
350
1F
  3
EdgeColorOff
350
745
  3
Facepattern
350
23
  3
Flat
350
15
  3
FlatWithEdges
350
16
  3
Gouraud
350
17
  3
GouraudWithEdges
350
18
  3
Hidden
350
73D
  3
JitterOff
350
743
  3
Linepattern
350
22
  3
OverhangOff
350
744
  3
Realistic
350
1E
  3
Shaded
350
742
  3
Shaded with edges
350
741
  3
Shades of Gray
350
73E
  3
Sketchy
350
73F
  3
Thicken
350
21
  3
Wireframe
350
73C
  3
X-Ray
350
740
  0
XRECORD
  5
20C6
102
{ACAD_REACTORS
330
C
102
}
330
C
100
AcDbXrecord
280
     1
 90
        1
330
31
  0
DICTIONARY
  5
720
102
{ACAD_REACTORS
330
C
102
}
330
C
100
AcDbDictionary
281
     1
  3
CANNOSCALE
350
988
  3
CMLEADERSTYLE
350
987
  3
CTABLESTYLE
350
721
  3
DIMASSOC
350
724
  3
INDEXCTL
350
723
  3
SORTENTS
350
722
  3
XCLIPFRAME
350
1FD7
  0
DICTIONARY
  5
12AA
102
{ACAD_REACTORS
330
C
102
}
330
C
100
AcDbDictionary
281
     1
  0
XRECORD
  5
20C7
102
{ACAD_REACTORS
330
C
102
}
330
C
100
AcDbXrecord
280
     1
  1
DWGPROPS COOKIE
  2

  3

  4

  6

  7

  8
kaiha
  9

300
=
301
=
302
=
303
=
304
=
305
=
306
=
307
=
308
=
309
=
 40
0.1781189930555556
 41
2455439.719348588
 42
2458172.720880775
  1

 90
        0
  0
DICTIONARY
  5
5A4
102
{ACAD_REACTORS
330
5A3
102
}
330
5A3
100
AcDbDictionary
281
     1
  0
XRECORD
  5
982
102
{ACAD_REACTORS
330
981
102
}
330
981
100
AcDbXrecord
280
     1
290
     1
  0
SORTENTSTABLE
  5
7E2
102
{ACAD_REACTORS
330
7E1
102
}
330
7E1
100
AcDbSortentsTable
330
36
331
134
  5
175
331
115
  5
156
331
F6
  5
137
331
DA9
  5
2094
331
BF
  5
124
331
20AA
  5
100
331
208B
  5
FB
331
400
  5
46D
331
3E1
  5
440
331
3C2
  5
421
331
36D
  5
3D5
331
34E
  5
3B6
331
20D
  5
260
331
1EE
  5
241
331
1CF
  5
210
331
2064
  5
4C7
331
124
  5
165
331
105
  5
146
331
DE
  5
12B
331
1EF8
  5
209F
331
AF
  5
118
331
207B
  5
289
331
20B9
  5
ED
331
3F0
  5
44F
331
3D1
  5
430
331
3B2
  5
411
331
393
  5
3F3
331
37C
  5
3E4
331
35D
  5
3C5
331
31F
  5
397
331
21C
  5
270
331
1FD
  5
250
331
1DE
  5
21F
331
1BF
  5
200
331
133
  5
174
331
114
  5
155
331
F5
  5
136
331
1F07
  5
20AE
331
BE
  5
123
331
DA8
  5
2093
331
20A9
  5
103
331
208A
  5
FA
331
3E0
  5
43F
331
3C1
  5
420
331
3A2
  5
402
331
36C
  5
3D4
331
34D
  5
3B5
331
20C
  5
25F
331
1ED
  5
240
331
1CE
  5
20F
331
2063
  5
4CE
331
123
  5
164
331
104
  5
145
331
1677
  5
209D
331
AE
  5
117
331
207A
  5
288
331
20B8
  5
EC
331
3D0
  5
42F
331
3B1
  5
410
331
37B
  5
3E3
331
35C
  5
3C4
331
4EF
  5
1F10
331
31E
  5
396
331
21B
  5
26F
331
1FC
  5
24F
331
1DD
  5
21E
331
1BE
  5
1FF
331
1A7
  5
1E8
331
132
  5
173
331
113
  5
154
331
F4
  5
135
331
1F06
  5
20AD
331
BD
  5
122
331
20A8
  5
109
331
3C0
  5
41F
331
3A1
  5
401
331
36B
  5
3D3
331
4DF
  5
1F00
331
34C
  5
3B4
331
20B
  5
25E
331
1EC
  5
23F
331
1CD
  5
20E
331
197
  5
1D8
331
2062
  5
4CD
331
122
  5
163
331
103
  5
144
331
DC
  5
12A
331
1676
  5
209C
331
AD
  5
116
331
20B7
  5
EF
331
2079
  5
287
331
2098
  5
C1
331
3B0
  5
40F
331
391
  5
3F2
331
37A
  5
3E2
331
35B
  5
3C3
331
4EE
  5
1F0F
331
31D
  5
395
331
4CF
  5
DAC
331
21A
  5
26E
331
1FB
  5
24E
331
1DC
  5
21D
331
1BD
  5
1FE
331
1A6
  5
1E7
331
187
  5
1C8
331
131
  5
172
331
112
  5
153
331
F3
  5
134
331
1F05
  5
20AC
331
BC
  5
121
331
20A7
  5
108
331
3A0
  5
400
331
36A
  5
3D2
331
4DE
  5
1EFF
331
34B
  5
3B3
331
4BF
  5
AD0
331
20A
  5
25D
331
1EB
  5
23E
331
1CC
  5
20D
331
196
  5
1D7
331
177
  5
1B8
331
2061
  5
4CC
331
121
  5
162
331
102
  5
143
331
AC
  5
115
331
20B6
  5
F5
331
2078
  5
286
331
2097
  5
BD
331
390
  5
3F1
331
379
  5
3E1
331
35A
  5
3C2
331
4ED
  5
1F0E
331
31C
  5
394
331
4CE
  5
DAB
331
4AF
  5
AC3
331
219
  5
26C
331
1FA
  5
24D
331
1DB
  5
21C
331
1BC
  5
1FD
331
1A5
  5
1E6
331
186
  5
1C7
331
167
  5
1A8
331
130
  5
171
331
111
  5
152
331
F2
  5
133
331
1F04
  5
20AB
331
BB
  5
120
331
20A6
  5
107
331
388
  5
3F0
331
369
  5
3D1
331
4DD
  5
1EFE
331
34A
  5
3B2
331
49F
  5
7D1
331
209
  5
25C
331
1EA
  5
23D
331
1CB
  5
20C
331
195
  5
1D6
331
176
  5
1B7
331
157
  5
198
331
2060
  5
4CB
331
120
  5
161
331
101
  5
142
331
1674
  5
209B
331
AB
  5
114
331
20B5
  5
F4
331
2077
  5
34A
331
2096
  5
BC
331
378
  5
3E0
331
359
  5
3C1
331
33A
  5
3A8
331
4EC
  5
1F0D
331
31B
  5
392
331
4CD
  5
DAA
331
4AE
  5
AC2
331
48F
  5
505
331
218
  5
26B
331
1F9
  5
24C
331
1DA
  5
21B
331
1BB
  5
1FC
331
1A4
  5
1E5
331
185
  5
1C6
331
166
  5
1A7
331
147
  5
188
331
206F
  5
35F
331
110
  5
151
331
F1
  5
132
331
1F03
  5
20AA
331
BA
  5
11F
331
20A5
  5
10C
331
20C4
  5
AD
331
2086
  5
106
331
368
  5
3D0
331
349
  5
3B1
331
4DC
  5
1EFD
331
32A
  5
3A2
331
49E
  5
7D0
331
227
  5
27F
331
208
  5
25B
331
1E9
  5
23C
331
1CA
  5
20B
331
194
  5
1D5
331
175
  5
1B6
331
156
  5
197
331
205F
  5
ACA
331
100
  5
141
331
1673
  5
209A
331
AA
  5
113
331
2076
  5
348
331
20B4
  5
F3
331
358
  5
3C0
331
339
  5
3A7
331
4EB
  5
1F0C
331
31A
  5
391
331
4CC
  5
DA9
331
4AD
  5
AC1
331
48E
  5
504
331
477
  5
4E8
331
217
  5
26A
331
1F8
  5
24B
331
1D9
  5
21A
331
1BA
  5
1FB
331
1A3
  5
1E4
331
184
  5
1C5
331
165
  5
1A6
331
146
  5
187
331
206E
  5
35E
331
F0
  5
131
331
1F02
  5
20A9
331
B9
  5
11E
331
20A4
  5
10B
331
20C3
  5
AC
331
2FF
  5
375
331
2085
  5
105
331
348
  5
3B0
331
4DB
  5
1EFC
331
329
  5
3A1
331
49D
  5
7CF
331
467
  5
4D8
331
226
  5
27E
331
207
  5
25A
331
1E8
  5
23B
331
1C9
  5
20A
331
193
  5
1D4
331
174
  5
1B5
331
155
  5
196
331
205E
  5
AC9
331
1672
  5
2099
331
A9
  5
112
331
2EF
  5
365
331
2075
  5
34F
331
20B3
  5
F8
331
338
  5
3A6
331
4EA
  5
1F0B
331
319
  5
389
331
4CB
  5
DA8
331
4AC
  5
AC0
331
48D
  5
503
331
476
  5
4E7
331
216
  5
269
331
1F7
  5
24A
331
1D8
  5
219
331
1B9
  5
1FA
331
1A2
  5
1E3
331
183
  5
1C4
331
164
  5
1A5
331
145
  5
186
331
206D
  5
3A5
331
1F01
  5
20A8
331
B8
  5
11D
331
20A3
  5
10A
331
20C2
  5
AB
331
2FE
  5
374
331
2084
  5
104
331
4DA
  5
1EFB
331
328
  5
3A0
331
49C
  5
51C
331
466
  5
4D7
331
447
  5
4B9
331
225
  5
27D
331
206
  5
259
331
1E7
  5
23A
331
1C8
  5
209
331
192
  5
1D3
331
173
  5
1B4
331
154
  5
195
331
205D
  5
ACF
331
1671
  5
2098
331
A8
  5
111
331
2EE
  5
364
331
2074
  5
34E
331
20B2
  5
F7
331
2CF
  5
352
331
4E9
  5
1F0A
331
318
  5
388
331
4CA
  5
DA7
331
4AB
  5
ABF
331
48C
  5
502
331
475
  5
4E6
331
437
  5
4A4
331
215
  5
268
331
1F6
  5
249
331
1D7
  5
218
331
1B8
  5
1F9
331
1A1
  5
1E2
331
182
  5
1C3
331
163
  5
1A4
331
144
  5
185
331
206C
  5
3A4
331
1F00
  5
20A7
331
2FD
  5
373
331
2083
  5
285
331
20A2
  5
10D
331
20C1
  5
B7
331
2BF
  5
343
331
4D9
  5
1EFA
331
49B
  5
51B
331
465
  5
4D6
331
446
  5
4B7
331
427
  5
494
331
224
  5
27C
331
205
  5
258
331
1E6
  5
227
331
1C7
  5
208
331
191
  5
1D2
331
172
  5
1B3
331
153
  5
194
331
205C
  5
ACE
331
20B1
  5
F6
331
2ED
  5
363
331
2073
  5
354
331
2092
  5
F2
331
2CE
  5
351
331
2AF
  5
325
331
4E8
  5
1F09
331
4C9
  5
DA6
331
4AA
  5
ABD
331
48B
  5
500
331
474
  5
4E5
331
436
  5
4A3
331
417
  5
484
331
214
  5
267
331
1F5
  5
248
331
1D6
  5
217
331
1B7
  5
1F8
331
1A0
  5
1E1
331
181
  5
1C2
331
162
  5
1A3
331
143
  5
184
331
206B
  5
3AA
331
2FC
  5
372
331
2082
  5
284
331
20C0
  5
B2
331
4F7
  5
1F18
331
4D8
  5
1EF9
331
4B9
  5
ACD
331
49A
  5
51A
331
464
  5
4D5
331
445
  5
4B2
331
426
  5
493
331
223
  5
27B
331
204
  5
257
331
1E5
  5
226
331
1C6
  5
207
331
1AF
  5
1F0
331
190
  5
1D1
331
171
  5
1B2
331
152
  5
193
331
205B
  5
1F21
331
20B0
  5
F9
331
30B
  5
381
331
2072
  5
353
331
2091
  5
F1
331
2EC
  5
362
331
2CD
  5
350
331
2AE
  5
324
331
297
  5
307
331
4E7
  5
1F08
331
4C8
  5
DA5
331
4A9
  5
ABC
331
48A
  5
4FB
331
473
  5
4E4
331
435
  5
4A2
331
416
  5
483
331
213
  5
266
331
1F4
  5
247
331
1D5
  5
216
331
1B6
  5
1F7
331
19F
  5
1E0
331
180
  5
1C1
331
161
  5
1A2
331
142
  5
183
331
206A
  5
3A9
331
2FB
  5
371
331
2081
  5
283
331
2DC
  5
358
331
287
  5
2F7
331
4F6
  5
1F17
331
4D7
  5
1AA5
331
4B8
  5
ACC
331
499
  5
519
331
463
  5
4D4
331
444
  5
4B1
331
425
  5
492
331
222
  5
27A
331
203
  5
256
331
1E4
  5
225
331
1C5
  5
206
331
1AE
  5
1EF
331
18F
  5
1D0
331
170
  5
1B1
331
151
  5
192
331
30A
  5
380
331
2071
  5
35A
331
2090
  5
F0
331
2EB
  5
361
331
2AD
  5
323
331
296
  5
306
331
4E6
  5
1F07
331
4C7
  5
D30
331
4A8
  5
7E0
331
489
  5
4FA
331
472
  5
4E3
331
434
  5
4A1
331
415
  5
482
331
212
  5
265
331
1F3
  5
246
331
1D4
  5
215
331
1B5
  5
1F6
331
19E
  5
1DF
331
17F
  5
1C0
331
160
  5
1A1
331
141
  5
182
331
2069
  5
3AF
331
A7
  5
110
331
2FA
  5
370
331
2080
  5
282
331
286
  5
2F6
331
267
  5
2B9
331
4F5
  5
1F16
331
4D6
  5
1678
331
4B7
  5
ACB
331
498
  5
518
331
462
  5
4D3
331
443
  5
4B0
331
424
  5
491
331
221
  5
275
331
202
  5
255
331
1E3
  5
224
331
1C4
  5
205
331
1AD
  5
1EE
331
18E
  5
1CF
331
16F
  5
1B0
331
150
  5
191
331
309
  5
37F
331
2070
  5
359
331
2EA
  5
360
331
2AC
  5
322
331
295
  5
305
331
257
  5
2A9
331
4E5
  5
1F06
331
4C6
  5
D2F
331
4A7
  5
7D9
331
488
  5
4F9
331
471
  5
4E2
331
433
  5
4A0
331
414
  5
481
331
211
  5
264
331
1F2
  5
245
331
1D3
  5
214
331
1B4
  5
1F5
331
19D
  5
1DE
331
17E
  5
1BF
331
15F
  5
1A0
331
140
  5
181
331
2068
  5
3AE
331
2F9
  5
36F
331
2BB
  5
342
331
285
  5
2F5
331
266
  5
2B8
331
247
  5
299
331
4F4
  5
1F15
331
4D5
  5
1677
331
497
  5
517
331
461
  5
4D2
331
442
  5
4AF
331
423
  5
490
331
220
  5
274
331
201
  5
254
331
1E2
  5
223
331
1C3
  5
204
331
1AC
  5
1ED
331
18D
  5
1CE
331
16E
  5
1AF
331
14F
  5
190
331
2058
  5
1F1C
331
308
  5
37E
331
2AB
  5
321
331
294
  5
304
331
275
  5
2E4
331
256
  5
2A8
331
4E4
  5
1F05
331
4C5
  5
D2E
331
4A6
  5
7D8
331
487
  5
4F8
331
470
  5
4E1
331
432
  5
49F
331
413
  5
480
331
210
  5
263
331
1F1
  5
244
331
1D2
  5
213
331
1B3
  5
1F4
331
19C
  5
1DD
331
17D
  5
1BE
331
15E
  5
19F
331
13F
  5
180
331
A5
  5
10F
331
317
  5
387
331
2F8
  5
36E
331
284
  5
2F4
331
265
  5
2B7
331
246
  5
298
331
4F3
  5
1F14
331
4D4
  5
1676
331
496
  5
516
331
47F
  5
4F0
331
460
  5
4D1
331
441
  5
4AE
331
422
  5
48F
331
200
  5
253
331
1E1
  5
222
331
1C2
  5
203
331
1AB
  5
1EC
331
18C
  5
1CD
331
16D
  5
1AE
331
14E
  5
18F
331
307
  5
37D
331
2AA
  5
320
331
293
  5
303
331
274
  5
2E2
331
255
  5
2A7
331
4E3
  5
1F04
331
4C4
  5
D2D
331
4A5
  5
7D7
331
486
  5
4F7
331
46F
  5
4E0
331
431
  5
49E
331
412
  5
47F
331
1F0
  5
243
331
1D1
  5
212
331
1B2
  5
1F3
331
19B
  5
1DC
331
17C
  5
1BD
331
15D
  5
19E
331
13E
  5
17F
331
D27
  5
208A
331
316
  5
386
331
2F7
  5
36D
331
2B9
  5
340
331
283
  5
2F3
331
264
  5
2B6
331
245
  5
297
331
4F2
  5
1F13
331
4D3
  5
1674
331
495
  5
515
331
47E
  5
4EF
331
45F
  5
4D0
331
440
  5
4AD
331
421
  5
48E
331
1E0
  5
221
331
1C1
  5
202
331
1AA
  5
1EB
331
18B
  5
1CC
331
16C
  5
1AD
331
14D
  5
18E
331
51C
  5
206B
331
ACF
  5
2086
331
306
  5
37C
331
2A9
  5
31F
331
292
  5
302
331
273
  5
2DD
331
254
  5
2A6
331
4E2
  5
1F03
331
4C3
  5
D2C
331
4A4
  5
7D6
331
485
  5
4F6
331
46E
  5
4DF
331
44F
  5
4C6
331
430
  5
49D
331
411
  5
47E
331
1D0
  5
211
331
1B1
  5
1F2
331
19A
  5
1DB
331
17B
  5
1BC
331
15C
  5
19D
331
13D
  5
17E
331
A3
  5
10E
331
D26
  5
2089
331
ABF
  5
2079
331
315
  5
385
331
2F6
  5
36C
331
2D7
  5
357
331
2B8
  5
33B
331
282
  5
2F2
331
263
  5
2B5
331
244
  5
296
331
4F1
  5
1F12
331
4D2
  5
1673
331
494
  5
514
331
47D
  5
4EE
331
45E
  5
4CF
331
43F
  5
4AC
331
420
  5
48D
331
1C0
  5
201
331
1A9
  5
1EA
331
18A
  5
1CB
331
16B
  5
1AC
331
14C
  5
18D
331
1F0F
  5
20B6
331
51B
  5
206A
331
ACE
  5
2085
331
7D7
  5
2074
331
305
  5
37B
331
2C7
  5
34D
331
2A8
  5
31E
331
291
  5
301
331
272
  5
2D8
331
253
  5
2A5
331
4E1
  5
1F02
331
4C2
  5
D27
331
4A3
  5
7D5
331
484
  5
4F5
331
46D
  5
4DE
331
44E
  5
4C5
331
42F
  5
49C
331
410
  5
47D
331
1B0
  5
1F1
331
199
  5
1DA
331
17A
  5
1BB
331
15B
  5
19C
331
13C
  5
17D
331
D25
  5
2088
331
517
  5
2066
331
314
  5
384
331
2F5
  5
36B
331
2D6
  5
356
331
2B7
  5
33A
331
281
  5
2F1
331
262
  5
2B4
331
243
  5
295
331
4F0
  5
1F11
331
4D1
  5
1672
331
493
  5
512
331
47C
  5
4ED
331
43E
  5
4AB
331
41F
  5
48C
331
1A8
  5
1E9
331
189
  5
1CA
331
16A
  5
1AB
331
14B
  5
18C
331
1F0E
  5
20B5
331
51A
  5
2069
331
ACD
  5
2084
331
7D6
  5
2073
331
507
  5
2060
331
304
  5
37A
331
2C6
  5
34C
331
2A7
  5
31D
331
290
  5
300
331
271
  5
2D7
331
252
  5
2A4
331
4E0
  5
1F01
331
4C1
  5
D26
331
4A2
  5
7D4
331
483
  5
4F4
331
46C
  5
4DD
331
44D
  5
4C4
331
42E
  5
49B
331
40F
  5
47C
331
198
  5
1D9
331
179
  5
1BA
331
15A
  5
19B
331
13B
  5
17C
331
1678
  5
209E
331
ABD
  5
2078
331
516
  5
2065
331
313
  5
383
331
2F4
  5
36A
331
2D5
  5
355
331
2B6
  5
338
331
29F
  5
315
331
280
  5
2F0
331
261
  5
2B3
331
242
  5
294
331
4D0
  5
12AE
331
4B1
  5
AC5
331
492
  5
508
331
47B
  5
4EC
331
43D
  5
4AA
331
41E
  5
48B
331
188
  5
1C9
331
169
  5
1AA
331
14A
  5
18B
331
1F0D
  5
20B4
331
519
  5
2068
331
ACC
  5
2083
331
7D5
  5
2072
331
506
  5
205F
331
303
  5
379
331
2E4
  5
35D
331
2C5
  5
34B
331
2A6
  5
31C
331
28F
  5
2FF
331
270
  5
2D5
331
3FF
  5
46C
331
251
  5
2A3
331
4C0
  5
D25
331
4A1
  5
7D3
331
482
  5
4F3
331
46B
  5
4DC
331
44C
  5
4C3
331
42D
  5
49A
331
40E
  5
47B
331
178
  5
1B9
331
159
  5
19A
331
13A
  5
17B
331
1F1C
  5
20C3
331
ABC
  5
2077
331
515
  5
2064
331
312
  5
382
331
2F3
  5
369
331
2B5
  5
32B
331
29E
  5
314
331
27F
  5
2EF
331
260
  5
2B2
331
3EF
  5
44E
331
241
  5
293
331
4B0
  5
AC4
331
491
  5
507
331
47A
  5
4EB
331
43C
  5
4A9
331
41D
  5
48A
331
168
  5
1A9
331
149
  5
18A
331
1F0C
  5
20B3
331
518
  5
2067
331
ACB
  5
2082
331
7D4
  5
2071
331
505
  5
205E
331
302
  5
378
331
2E3
  5
35C
331
2A5
  5
31B
331
28E
  5
2FE
331
26F
  5
2D0
331
3FE
  5
46B
331
250
  5
2A2
331
3DF
  5
43E
331
4A0
  5
7D2
331
481
  5
4F2
331
46A
  5
4DB
331
44B
  5
4C2
331
42C
  5
499
331
40D
  5
47A
331
158
  5
199
331
139
  5
17A
331
1F1B
  5
20C2
331
514
  5
2063
331
2F2
  5
368
331
2B4
  5
32A
331
29D
  5
313
331
27E
  5
2EE
331
25F
  5
2B1
331
3EE
  5
44D
331
240
  5
292
331
3CF
  5
42E
331
490
  5
506
331
479
  5
4EA
331
43B
  5
4A8
331
41C
  5
489
331
148
  5
189
331
1F0B
  5
20B2
331
ACA
  5
2081
331
7D3
  5
2070
331
504
  5
205D
331
301
  5
377
331
2E2
  5
35B
331
2A4
  5
31A
331
28D
  5
2FD
331
26E
  5
2CD
331
3FD
  5
46A
331
24F
  5
2A1
331
3DE
  5
43D
331
3BF
  5
41E
331
480
  5
4F1
331
469
  5
4DA
331
44A
  5
4C1
331
42B
  5
498
331
40C
  5
479
331
138
  5
179
331
1F1A
  5
20C1
331
2F1
  5
367
331
2B3
  5
329
331
29C
  5
30C
331
27D
  5
2ED
331
25E
  5
2B0
331
3ED
  5
44C
331
23F
  5
291
331
3CE
  5
42D
331
3AF
  5
40E
331
478
  5
4E9
331
43A
  5
4A7
331
41B
  5
488
331
1F0A
  5
20B1
331
D30
  5
208F
331
AC9
  5
2080
331
7D2
  5
206F
331
503
  5
205C
331
300
  5
376
331
2A3
  5
319
331
28C
  5
2FC
331
3FC
  5
469
331
24E
  5
2A0
331
3DD
  5
43C
331
3BE
  5
41D
331
39F
  5
3FF
331
468
  5
4D9
331
449
  5
4BF
331
42A
  5
497
331
40B
  5
478
331
1F19
  5
20C0
331
DA7
  5
2092
331
512
  5
2062
331
2F0
  5
366
331
2B2
  5
328
331
29B
  5
30B
331
27C
  5
2EC
331
25D
  5
2AF
331
3EC
  5
44B
331
23E
  5
290
331
3CD
  5
42C
331
3AE
  5
40D
331
439
  5
4A6
331
41A
  5
487
331
1F09
  5
20B0
331
12F
  5
170
331
D2F
  5
208E
331
7D1
  5
206E
331
502
  5
205B
331
2A2
  5
318
331
28B
  5
2FB
331
26C
  5
2C8
331
3FB
  5
468
331
24D
  5
29F
331
3DC
  5
43B
331
3BD
  5
41C
331
39E
  5
3FE
331
387
  5
3EF
331
448
  5
4BA
331
429
  5
496
331
40A
  5
477
331
1F18
  5
20BF
331
11F
  5
160
331
DA6
  5
2091
331
2B1
  5
327
331
29A
  5
30A
331
27B
  5
2EA
331
25C
  5
2AE
331
3EB
  5
44A
331
23D
  5
28F
331
3CC
  5
42B
331
3AD
  5
40C
331
377
  5
3DF
331
438
  5
4A5
331
419
  5
486
331
1F08
  5
20AF
331
12E
  5
16F
331
10F
  5
150
331
D2E
  5
208D
331
7D0
  5
206D
331
501
  5
2058
331
2A1
  5
317
331
28A
  5
2FA
331
26B
  5
2C7
331
3FA
  5
467
331
24C
  5
29E
331
3DB
  5
43A
331
3BC
  5
41B
331
39D
  5
3FD
331
386
  5
3EE
331
367
  5
3CF
331
428
  5
495
331
409
  5
476
331
1F17
  5
20BE
331
11E
  5
15F
331
FF
  5
140
331
DA5
  5
2090
331
2B0
  5
326
331
299
  5
309
331
27A
  5
2E5
331
25B
  5
2AD
331
3EA
  5
449
331
23C
  5
28E
331
3CB
  5
42A
331
3AC
  5
40B
331
376
  5
3DE
331
357
  5
3BF
331
418
  5
485
331
12D
  5
16E
331
10E
  5
14F
331
EF
  5
130
331
D2D
  5
208C
331
7CF
  5
206C
331
500
  5
1F22
331
2A0
  5
316
331
289
  5
2F9
331
26A
  5
2C5
331
3F9
  5
466
331
24B
  5
29D
331
3DA
  5
439
331
3BB
  5
41A
331
39C
  5
3FC
331
385
  5
3ED
331
366
  5
3CE
331
408
  5
475
331
1F16
  5
20BD
331
11D
  5
15E
331
FE
  5
13F
331
298
  5
308
331
25A
  5
2AC
331
3E9
  5
448
331
23B
  5
28D
331
3CA
  5
429
331
3AB
  5
40A
331
375
  5
3DD
331
356
  5
3BE
331
12C
  5
16D
331
10D
  5
14E
331
EE
  5
12F
331
B7
  5
11C
331
D2C
  5
208B
331
AC5
  5
207F
331
288
  5
2F8
331
269
  5
2C0
331
3F8
  5
465
331
24A
  5
29C
331
3D9
  5
438
331
3BA
  5
419
331
39B
  5
3FB
331
384
  5
3EC
331
365
  5
3CD
331
327
  5
39F
331
1F15
  5
20BC
331
11C
  5
15D
331
FD
  5
13E
331
259
  5
2AB
331
407
  5
474
331
23A
  5
28C
331
3E8
  5
447
331
3C9
  5
428
331
3AA
  5
409
331
374
  5
3DC
331
355
  5
3BD
331
12B
  5
16C
331
10C
  5
14D
331
1EFF
  5
20A6
331
ED
  5
12E
331
AC4
  5
207E
331
268
  5
2BC
331
3F7
  5
464
331
249
  5
29B
331
3D8
  5
437
331
3B9
  5
418
331
39A
  5
3FA
331
383
  5
3EB
331
364
  5
3CC
331
326
  5
39E
331
1F14
  5
20BB
331
11B
  5
15C
331
FC
  5
13D
331
406
  5
473
331
258
  5
2AA
331
3E7
  5
446
331
3C8
  5
427
331
3A9
  5
408
331
373
  5
3DB
331
354
  5
3BC
331
12A
  5
16B
331
10B
  5
14C
331
1EFE
  5
20A5
331
EC
  5
12D
331
AC3
  5
207D
331
20BF
  5
B1
331
3F6
  5
463
331
248
  5
29A
331
3D7
  5
436
331
3B8
  5
417
331
399
  5
3F9
331
382
  5
3EA
331
363
  5
3CB
331
325
  5
39D
331
1F13
  5
20BA
331
11A
  5
15B
331
FB
  5
13C
331
C4
  5
129
331
20AF
  5
FF
331
405
  5
472
331
3E6
  5
445
331
3C7
  5
426
331
3A8
  5
407
331
372
  5
3DA
331
353
  5
3BB
331
1F22
  5
20C4
331
129
  5
16A
331
1EFD
  5
20A4
331
10A
  5
14B
331
AC2
  5
207C
331
20BE
  5
BB
331
3F5
  5
462
331
3D6
  5
435
331
3B7
  5
416
331
398
  5
3F8
331
381
  5
3E9
331
362
  5
3CA
331
324
  5
39C
331
1F12
  5
20B9
331
119
  5
15A
331
FA
  5
13B
331
C3
  5
128
331
20AE
  5
FE
331
404
  5
471
331
3E5
  5
444
331
3C6
  5
425
331
3A7
  5
406
331
371
  5
3D9
331
352
  5
3BA
331
1F21
  5
2CF
331
128
  5
169
331
1EFC
  5
20A3
331
109
  5
14A
331
AC1
  5
207B
331
20BD
  5
E8
331
207F
  5
281
331
209E
  5
A7
331
3F4
  5
461
331
3D5
  5
434
331
3B6
  5
415
331
397
  5
3F7
331
380
  5
3E8
331
361
  5
3C9
331
342
  5
3AD
331
323
  5
39B
331
1F11
  5
20B8
331
137
  5
178
331
118
  5
159
331
F9
  5
13A
331
DAC
  5
2097
331
C2
  5
127
331
AD0
  5
2087
331
7D9
  5
2076
331
20AD
  5
FD
331
403
  5
470
331
3E4
  5
443
331
3C5
  5
424
331
3A6
  5
405
331
370
  5
3D8
331
351
  5
3B9
331
2067
  5
4CA
331
127
  5
168
331
108
  5
149
331
1EFB
  5
20A2
331
B2
  5
11B
331
AC0
  5
207A
331
4FA
  5
1F1B
331
20BC
  5
C3
331
207E
  5
280
331
209D
  5
A5
331
3F3
  5
460
331
3D4
  5
433
331
3B5
  5
414
331
396
  5
3F6
331
37F
  5
3E7
331
360
  5
3C8
331
341
  5
3AC
331
322
  5
39A
331
21F
  5
273
331
1F10
  5
20B7
331
136
  5
177
331
117
  5
158
331
F8
  5
139
331
DAB
  5
2096
331
C1
  5
126
331
7D8
  5
2075
331
20AC
  5
102
331
402
  5
46F
331
3E3
  5
442
331
3C4
  5
423
331
3A5
  5
404
331
36F
  5
3D7
331
350
  5
3B8
331
20F
  5
262
331
2066
  5
4C9
331
126
  5
167
331
107
  5
148
331
E8
  5
12C
331
1EFA
  5
20A1
331
B1
  5
11A
331
4F9
  5
1F1A
331
20BB
  5
C2
331
207D
  5
28B
331
209C
  5
A3
331
3F2
  5
457
331
3D3
  5
432
331
3B4
  5
413
331
395
  5
3F5
331
37E
  5
3E6
331
35F
  5
3C7
331
340
  5
3AB
331
321
  5
399
331
21E
  5
272
331
1FF
  5
252
331
135
  5
176
331
116
  5
157
331
F7
  5
138
331
DAA
  5
2095
331
C0
  5
125
331
508
  5
2061
331
20AB
  5
101
331
208C
  5
FC
331
401
  5
46E
331
3E2
  5
441
331
3C3
  5
422
331
3A4
  5
403
331
36E
  5
3D6
331
34F
  5
3B7
331
20E
  5
261
331
1EF
  5
242
331
2065
  5
4C8
331
125
  5
166
331
106
  5
147
331
1EF9
  5
20A0
331
B0
  5
119
331
4F8
  5
1F19
331
207C
  5
28A
331
20BA
  5
EE
331
3F1
  5
450
331
3D2
  5
431
331
3B3
  5
412
331
394
  5
3F4
331
37D
  5
3E5
331
35E
  5
3C6
331
320
  5
398
331
21D
  5
271
331
1FE
  5
251
331
1DF
  5
220
  0
XRECORD
  5
20CA
102
{ACAD_REACTORS
330
20C8
102
}
330
20C8
100
AcDbXrecord
280
     1
 70
     2
  0
XRECORD
  5
20C9
102
{ACAD_REACTORS
330
20C8
102
}
330
20C8
100
AcDbXrecord
280
     1
 40
1.25
  0
XRECORD
  5
20CB
102
{ACAD_REACTORS
330
20C8
102
}
330
20C8
100
AcDbXrecord
280
     1
 40
1.570796326794896
  0
LAYOUT
  5
39
102
{ACAD_XDICTIONARY
360
20EF
102
}
102
{ACAD_REACTORS
330
2E
102
}
330
2E
100
AcDbPlotSettings
  1

  2
DocuPrint 305
  4

  6

 40
0.0
 41
0.0
 42
0.0
 43
0.0
 44
0.0
 45
0.0
 46
0.0
 47
0.0
 48
0.0
 49
0.0
140
0.0
141
0.0
142
1.0
143
1.0
 70
  1712
 72
     0
 73
     0
 74
     0
  7

 75
     0
147
1.0
148
0.0
149
0.0
100
AcDbLayout
  1
Model
 70
     1
 71
     0
 10
0.0
 20
0.0
 11
12.0
 21
9.0
 12
0.0
 22
0.0
 32
0.0
 14
0.0
 24
0.0
 34
0.0
 15
0.0
 25
0.0
 35
0.0
146
0.0
 13
0.0
 23
0.0
 33
0.0
 16
1.0
 26
0.0
 36
0.0
 17
0.0
 27
1.0
 37
0.0
 76
     0
330
36
331
57
  0
LAYOUT
  5
35
102
{ACAD_XDICTIONARY
360
20ED
102
}
102
{ACAD_REACTORS
330
2E
102
}
330
2E
100
AcDbPlotSettings
  1

  2
DocuPrint 305
  4

  6

 40
0.0
 41
0.0
 42
0.0
 43
0.0
 44
0.0
 45
0.0
 46
0.0
 47
0.0
 48
0.0
 49
0.0
140
0.0
141
0.0
142
1.0
143
1.0
 70
   688
 72
     0
 73
     0
 74
     5
  7

 75
    16
147
1.0
148
0.0
149
0.0
100
AcDbLayout
  1
レイアウト1
 70
     1
 71
     1
 10
0.0
 20
0.0
 11
12.0
 21
9.0
 12
0.0
 22
0.0
 32
0.0
 14
1.000000000000000E+20
 24
1.000000000000000E+20
 34
1.000000000000000E+20
 15
-1.000000000000000E+20
 25
-1.000000000000000E+20
 35
-1.000000000000000E+20
146
0.0
 13
0.0
 23
0.0
 33
0.0
 16
1.0
 26
0.0
 36
0.0
 17
0.0
 27
1.0
 37
0.0
 76
     0
330
32
  0
MATERIAL
  5
12
102
{ACAD_XDICTIONARY
360
72C
102
}
102
{ACAD_REACTORS
330
10
102
}
330
10
100
AcDbMaterial
  1
ByBlock
  0
MATERIAL
  5
11
102
{ACAD_XDICTIONARY
360
72A
102
}
102
{ACAD_REACTORS
330
10
102
}
330
10
100
AcDbMaterial
  1
ByLayer
  0
MATERIAL
  5
13
102
{ACAD_XDICTIONARY
360
72E
102
}
102
{ACAD_REACTORS
330
10
102
}
330
10
100
AcDbMaterial
  1
Global
  0
MLEADERSTYLE
  5
759
102
{ACAD_REACTORS
330
758
102
}
330
758
100
AcDbMLeaderStyle
170
     2
171
     1
172
     0
 90
        2
 40
0.0
 41
0.0
173
     1
 91
-1056964608
340
28
 92
       -2
290
     1
 42
0.09
291
     1
 43
0.36
  3
Standard
 44
0.18
300

342
26
174
     1
178
     6
175
     1
176
     0
 93
-1056964608
 45
0.18
292
     0
297
     0
 46
0.18
 94
-1056964608
 47
1.0
 49
1.0
140
1.0
293
     1
141
0.0
294
     1
177
     0
142
1.0
295
     0
296
     0
143
0.125
1001
ACAD_MLEADERVER
1070
     2
  0
MLINESTYLE
  5
2C
102
{ACAD_REACTORS
330
2B
102
}
330
2B
100
AcDbMlineStyle
  2
STANDARD
 70
     0
  3

 62
   256
 51
90.0
 52
90.0
 71
     2
 49
0.5
 62
   256
  6
BYLAYER
 49
-0.5
 62
   256
  6
BYLAYER
  0
ACDBPLACEHOLDER
  5
F
102
{ACAD_REACTORS
330
E
102
}
330
E
  0
SCALE
  5
747
102
{ACAD_REACTORS
330
746
102
}
330
746
100
AcDbScale
 70
     0
300
1:1
140
1.0
141
1.0
290
     1
  0
SCALE
  5
748
102
{ACAD_REACTORS
330
746
102
}
330
746
100
AcDbScale
 70
     0
300
1/128" = 1'-0"
140
0.0078125
141
12.0
290
     0
  0
SCALE
  5
749
102
{ACAD_REACTORS
330
746
102
}
330
746
100
AcDbScale
 70
     0
300
1/64" = 1'-0"
140
0.015625
141
12.0
290
     0
  0
SCALE
  5
74A
102
{ACAD_REACTORS
330
746
102
}
330
746
100
AcDbScale
 70
     0
300
1/32" = 1'-0"
140
0.03125
141
12.0
290
     0
  0
SCALE
  5
74B
102
{ACAD_REACTORS
330
746
102
}
330
746
100
AcDbScale
 70
     0
300
1/16" = 1'-0"
140
0.0625
141
12.0
290
     0
  0
SCALE
  5
74C
102
{ACAD_REACTORS
330
746
102
}
330
746
100
AcDbScale
 70
     0
300
3/32" = 1'-0"
140
0.09375
141
12.0
290
     0
  0
SCALE
  5
74D
102
{ACAD_REACTORS
330
746
102
}
330
746
100
AcDbScale
 70
     0
300
1/8" = 1'-0"
140
0.125
141
12.0
290
     0
  0
SCALE
  5
74E
102
{ACAD_REACTORS
330
746
102
}
330
746
100
AcDbScale
 70
     0
300
3/16" = 1'-0"
140
0.1875
141
12.0
290
     0
  0
SCALE
  5
74F
102
{ACAD_REACTORS
330
746
102
}
330
746
100
AcDbScale
 70
     0
300
1/4" = 1'-0"
140
0.25
141
12.0
290
     0
  0
SCALE
  5
750
102
{ACAD_REACTORS
330
746
102
}
330
746
100
AcDbScale
 70
     0
300
3/8" = 1'-0"
140
0.375
141
12.0
290
     0
  0
SCALE
  5
751
102
{ACAD_REACTORS
330
746
102
}
330
746
100
AcDbScale
 70
     0
300
1/2" = 1'-0"
140
0.5
141
12.0
290
     0
  0
SCALE
  5
752
102
{ACAD_REACTORS
330
746
102
}
330
746
100
AcDbScale
 70
     0
300
3/4" = 1'-0"
140
0.75
141
12.0
290
     0
  0
SCALE
  5
753
102
{ACAD_REACTORS
330
746
102
}
330
746
100
AcDbScale
 70
     0
300
1" = 1'-0"
140
1.0
141
12.0
290
     0
  0
SCALE
  5
754
102
{ACAD_REACTORS
330
746
102
}
330
746
100
AcDbScale
 70
     0
300
1-1/2" = 1'-0"
140
1.5
141
12.0
290
     0
  0
SCALE
  5
755
102
{ACAD_REACTORS
330
746
102
}
330
746
100
AcDbScale
 70
     0
300
3" = 1'-0"
140
3.0
141
12.0
290
     0
  0
SCALE
  5
756
102
{ACAD_REACTORS
330
746
102
}
330
746
100
AcDbScale
 70
     0
300
6" = 1'-0"
140
6.0
141
12.0
290
     0
  0
SCALE
  5
757
102
{ACAD_REACTORS
330
746
102
}
330
746
100
AcDbScale
 70
     0
300
1'-0" = 1'-0"
140
12.0
141
12.0
290
     0
  0
TABLESTYLE
  5
31
102
{ACAD_XDICTIONARY
360
98A
102
}
102
{ACAD_REACTORS
330
30
102
}
330
30
100
AcDbTableStyle
  3
Standard
 70
     0
 71
     0
 40
0.06
 41
0.06
280
     0
281
     0
  7
STANDARD
140
0.18
170
     2
 62
     0
 63
     7
283
     0
274
    -2
284
     1
 64
     0
275
    -2
285
     1
 65
     0
276
    -2
286
     1
 66
     0
277
    -2
287
     1
 67
     0
278
    -2
288
     1
 68
     0
279
    -2
289
     1
 69
     0
  7
STANDARD
140
0.25
170
     5
 62
     0
 63
     7
283
     0
274
    -2
284
     1
 64
     0
275
    -2
285
     1
 65
     0
276
    -2
286
     1
 66
     0
277
    -2
287
     1
 67
     0
278
    -2
288
     1
 68
     0
279
    -2
289
     1
 69
     0
  7
STANDARD
140
0.18
170
     5
 62
     0
 63
     7
283
     0
274
    -2
284
     1
 64
     0
275
    -2
285
     1
 65
     0
276
    -2
286
     1
 66
     0
277
    -2
287
     1
 67
     0
278
    -2
288
     1
 68
     0
279
    -2
289
     1
 69
     0
  0
VISUALSTYLE
  5
1A
102
{ACAD_XDICTIONARY
360
20D6
102
}
102
{ACAD_REACTORS
330
14
102
}
330
14
100
AcDbVisualStyle
  2

 70
     4
 71
     0
 72
     2
 73
     0
 90
        0
 40
-0.6
 41
-30.0
 62
     5
 63
     7
 74
     1
 91
        4
 64
     7
 65
   257
 75
     1
175
     1
 42
1.0
 92
        0
 66
   257
 43
1.0
 76
     1
 77
     6
 78
     2
 67
     7
 79
     5
170
     0
171
     0
290
     0
174
     0
 93
        1
 44
0.0
173
     0
291
     0
 45
0.0
1001
ACAD
1000
AcDbSavedByObjectVersion
1070
     0
  0
VISUALSTYLE
  5
1C
102
{ACAD_XDICTIONARY
360
20DA
102
}
102
{ACAD_REACTORS
330
14
102
}
330
14
100
AcDbVisualStyle
  2

 70
     6
 71
     1
 72
     2
 73
     2
 90
        0
 40
-0.6
 41
-30.0
 62
     5
 63
     7
 74
     2
 91
        2
 64
     7
 65
   257
 75
     2
175
     1
 42
40.0
 92
        0
 66
   257
 43
1.0
 76
     1
 77
     6
 78
     2
 67
     7
 79
     3
170
     0
171
     0
290
     0
174
     0
 93
        1
 44
0.0
173
     0
291
     0
 45
0.0
1001
ACAD
1000
AcDbSavedByObjectVersion
1070
     0
  0
VISUALSTYLE
  5
1B
102
{ACAD_XDICTIONARY
360
20D8
102
}
102
{ACAD_REACTORS
330
14
102
}
330
14
100
AcDbVisualStyle
  2

 70
     5
 71
     0
 72
     2
 73
     0
 90
        0
 40
-0.6
 41
-30.0
 62
     5
 63
     7
 74
     1
 91
        4
 64
     7
 65
   257
 75
     1
175
     1
 42
1.0
 92
        0
 66
   257
 43
1.0
 76
     1
 77
     6
 78
     2
 67
     7
 79
     5
170
     0
171
     0
290
     0
174
     0
 93
        1
 44
0.0
173
     0
291
     0
 45
0.0
1001
ACAD
1000
AcDbSavedByObjectVersion
1070
     0
  0
VISUALSTYLE
  5
19
102
{ACAD_XDICTIONARY
360
20D4
102
}
102
{ACAD_REACTORS
330
14
102
}
330
14
100
AcDbVisualStyle
  2

 70
     7
 71
     1
 72
     0
 73
     1
 90
        0
 40
-0.6
 41
-30.0
 62
     5
 63
     7
 74
     0
 91
        4
 64
     7
 65
   257
 75
     1
175
     1
 42
1.0
 92
        8
 66
     7
 43
1.0
 76
     1
 77
     6
 78
     2
 67
     7
 79
     5
170
     0
171
     0
290
     0
174
     0
 93
        1
 44
0.0
173
     0
291
     1
 45
0.0
1001
ACAD
1000
AcDbSavedByObjectVersion
1070
     0
  0
VISUALSTYLE
  5
20
102
{ACAD_XDICTIONARY
360
20E2
102
}
102
{ACAD_REACTORS
330
14
102
}
330
14
100
AcDbVisualStyle
  2

 70
    12
 71
     2
 72
     2
 73
     0
 90
        0
 40
-0.6
 41
-30.0
 62
     5
 63
     7
 74
     1
 91
        4
 64
     7
 65
   257
 75
     1
175
     1
 42
1.0
 92
        8
 66
     7
 43
1.0
 76
     1
 77
     6
 78
     2
 67
     7
 79
     5
170
     0
171
     0
290
     0
174
     0
 93
        1
 44
50.0
173
     0
291
     1
 45
0.0
1001
ACAD
1000
AcDbSavedByObjectVersion
1070
     0
  0
VISUALSTYLE
  5
24
102
{ACAD_XDICTIONARY
360
20EA
102
}
102
{ACAD_REACTORS
330
14
102
}
330
14
100
AcDbVisualStyle
  2

 70
    16
 71
     2
 72
     2
 73
     3
 90
        0
 40
-0.6
 41
-30.0
 62
     5
 63
     8
 74
     1
 91
        4
 64
     7
 65
   257
 75
     1
175
     1
 42
1.0
 92
        8
 66
     8
 43
1.0
 76
     1
 77
     6
 78
     2
 67
     7
 79
     5
170
     0
171
     0
290
     0
174
     0
 93
        1
 44
0.0
173
     0
291
     1
 45
0.0
1001
ACAD
1000
AcDbSavedByObjectVersion
1070
     0
  0
VISUALSTYLE
  5
1D
102
{ACAD_XDICTIONARY
360
20DC
102
}
102
{ACAD_REACTORS
330
14
102
}
330
14
100
AcDbVisualStyle
  2

 70
     9
 71
     3
 72
     2
 73
     0
 90
        0
 40
-0.6
 41
-30.0
 62
     5
 63
     7
 74
     2
 91
        2
 64
     7
 65
   257
 75
     1
175
     1
 42
40.0
 92
        8
 66
     7
 43
1.0
 76
     1
 77
     6
 78
     2
 67
     7
 79
     3
170
     0
171
     0
290
     0
174
     0
 93
        1
 44
0.0
173
     0
291
     0
 45
0.0
1001
ACAD
1000
AcDbSavedByObjectVersion
1070
     0
  0
VISUALSTYLE
  5
1F
102
{ACAD_XDICTIONARY
360
20E0
102
}
102
{ACAD_REACTORS
330
14
102
}
330
14
100
AcDbVisualStyle
  2

 70
    11
 71
     2
 72
     2
 73
     0
 90
        0
 40
-0.6
 41
-30.0
 62
     5
 63
     7
 74
     1
 91
        4
 64
     7
 65
   257
 75
     1
175
     1
 42
1.0
 92
        8
 66
     7
 43
1.0
 76
     1
 77
     6
 78
     2
 67
     7
 79
     5
170
     0
171
     0
290
     0
174
     0
 93
        1
 44
-50.0
173
     0
291
     1
 45
0.0
1001
ACAD
1000
AcDbSavedByObjectVersion
1070
     0
  0
VISUALSTYLE
  5
745
102
{ACAD_XDICTIONARY
360
2103
102
}
102
{ACAD_REACTORS
330
14
102
}
330
14
100
AcDbVisualStyle
  2

 70
    22
 71
     2
 72
     2
 73
     0
 90
        0
 40
-0.6
 41
-30.0
 62
     5
 63
     7
 74
     1
 91
        4
 64
     7
 65
   257
 75
     1
175
     1
 42
1.0
 92
        8
 66
     7
 43
1.0
 76
     1
 77
     6
 78
     2
 67
     7
 79
     5
170
     0
171
     0
290
     0
174
     0
 93
        1
 44
0.0
173
     0
291
     1
 45
0.0
1001
ACAD
1000
AcDbSavedByObjectVersion
1070
     0
  0
VISUALSTYLE
  5
23
102
{ACAD_XDICTIONARY
360
20E8
102
}
102
{ACAD_REACTORS
330
14
102
}
330
14
100
AcDbVisualStyle
  2

 70
    15
 71
     2
 72
     2
 73
     0
 90
        0
 40
-0.6
 41
-30.0
 62
     5
 63
     7
 74
     1
 91
        4
 64
     7
 65
   257
 75
     1
175
     1
 42
1.0
 92
        8
 66
     7
 43
1.0
 76
     1
 77
     6
 78
     2
 67
     7
 79
     5
170
     0
171
     0
290
     0
174
     0
 93
        1
 44
0.0
173
     0
291
     1
 45
0.0
1001
ACAD
1000
AcDbSavedByObjectVersion
1070
     0
  0
VISUALSTYLE
  5
15
102
{ACAD_XDICTIONARY
360
20CC
102
}
102
{ACAD_REACTORS
330
14
102
}
330
14
100
AcDbVisualStyle
  2

 70
     0
 71
     2
 72
     1
 73
     1
 90
        2
 40
-0.6
 41
30.0
 62
     5
 63
     7
 74
     0
 91
        4
 64
     7
 65
   257
 75
     1
175
     1
 42
1.0
 92
        8
 66
     7
 43
1.0
 76
     1
 77
     6
 78
     2
 67
     7
 79
     5
170
     0
171
     0
290
     0
174
     0
 93
       13
 44
0.0
173
     0
291
     1
 45
0.0
1001
ACAD
1000
AcDbSavedByObjectVersion
1070
     0
  0
VISUALSTYLE
  5
16
102
{ACAD_XDICTIONARY
360
20CE
102
}
102
{ACAD_REACTORS
330
14
102
}
330
14
100
AcDbVisualStyle
  2

 70
     1
 71
     2
 72
     1
 73
     1
 90
        2
 40
-0.6
 41
30.0
 62
     5
 63
     7
 74
     1
 91
        4
 64
     7
 65
   257
 75
     1
175
     1
 42
1.0
 92
        0
 66
   257
 43
1.0
 76
     1
 77
     6
 78
     2
 67
     7
 79
     5
170
     0
171
     0
290
     0
174
     0
 93
       13
 44
0.0
173
     0
291
     1
 45
0.0
1001
ACAD
1000
AcDbSavedByObjectVersion
1070
     0
  0
VISUALSTYLE
  5
17
102
{ACAD_XDICTIONARY
360
20D0
102
}
102
{ACAD_REACTORS
330
14
102
}
330
14
100
AcDbVisualStyle
  2

 70
     2
 71
     2
 72
     2
 73
     1
 90
        2
 40
-0.6
 41
30.0
 62
     5
 63
     7
 74
     0
 91
        4
 64
     7
 65
   257
 75
     1
175
     1
 42
1.0
 92
        0
 66
     7
 43
1.0
 76
     1
 77
     6
 78
     2
 67
     7
 79
     5
170
     0
171
     0
290
     0
174
     0
 93
       13
 44
0.0
173
     0
291
     1
 45
0.0
1001
ACAD
1000
AcDbSavedByObjectVersion
1070
     0
  0
VISUALSTYLE
  5
18
102
{ACAD_XDICTIONARY
360
20D2
102
}
102
{ACAD_REACTORS
330
14
102
}
330
14
100
AcDbVisualStyle
  2

 70
     3
 71
     2
 72
     2
 73
     1
 90
        2
 40
-0.6
 41
30.0
 62
     5
 63
     7
 74
     1
 91
        4
 64
     7
 65
   257
 75
     1
175
     1
 42
1.0
 92
        0
 66
   257
 43
1.0
 76
     1
 77
     6
 78
     2
 67
     7
 79
     5
170
     0
171
     0
290
     0
174
     0
 93
       13
 44
0.0
173
     0
291
     1
 45
0.0
1001
ACAD
1000
AcDbSavedByObjectVersion
1070
     0
  0
VISUALSTYLE
  5
73D
102
{ACAD_XDICTIONARY
360
20F3
102
}
102
{ACAD_REACTORS
330
14
102
}
330
14
100
AcDbVisualStyle
  2

 70
     6
 71
     1
 72
     2
 73
     2
 90
        0
 40
-0.6
 41
-30.0
 62
     5
 63
     7
 74
     2
 91
        2
 64
     7
 65
   257
 75
     2
175
     1
 42
40.0
 92
        0
 66
   257
 43
1.0
 76
     1
 77
     6
 78
     2
 67
     7
 79
     3
170
     0
171
     0
290
     0
174
     0
 93
        1
 44
0.0
173
     0
291
     0
 45
0.0
1001
ACAD
1000
AcDbSavedByObjectVersion
1070
     0
  0
VISUALSTYLE
  5
743
102
{ACAD_XDICTIONARY
360
20FF
102
}
102
{ACAD_REACTORS
330
14
102
}
330
14
100
AcDbVisualStyle
  2

 70
    20
 71
     2
 72
     2
 73
     0
 90
        0
 40
-0.6
 41
-30.0
 62
     5
 63
     7
 74
     1
 91
        4
 64
     7
 65
   257
 75
     1
175
     1
 42
1.0
 92
       10
 66
     7
 43
1.0
 76
     1
 77
     6
 78
     2
 67
     7
 79
     5
170
     0
171
     0
290
     0
174
     0
 93
        1
 44
0.0
173
     0
291
     1
 45
0.0
1001
ACAD
1000
AcDbSavedByObjectVersion
1070
     0
  0
VISUALSTYLE
  5
22
102
{ACAD_XDICTIONARY
360
20E6
102
}
102
{ACAD_REACTORS
330
14
102
}
330
14
100
AcDbVisualStyle
  2

 70
    14
 71
     2
 72
     2
 73
     0
 90
        0
 40
-0.6
 41
-30.0
 62
     5
 63
     7
 74
     1
 91
        4
 64
     7
 65
   257
 75
     7
175
     7
 42
1.0
 92
        8
 66
     7
 43
1.0
 76
     1
 77
     6
 78
     2
 67
     7
 79
     5
170
     0
171
     0
290
     0
174
     0
 93
        1
 44
0.0
173
     0
291
     1
 45
0.0
1001
ACAD
1000
AcDbSavedByObjectVersion
1070
     0
  0
VISUALSTYLE
  5
744
102
{ACAD_XDICTIONARY
360
2101
102
}
102
{ACAD_REACTORS
330
14
102
}
330
14
100
AcDbVisualStyle
  2

 70
    21
 71
     2
 72
     2
 73
     0
 90
        0
 40
-0.6
 41
-30.0
 62
     5
 63
     7
 74
     1
 91
        4
 64
     7
 65
   257
 75
     1
175
     1
 42
1.0
 92
        9
 66
     7
 43
1.0
 76
     1
 77
     6
 78
     2
 67
     7
 79
     5
170
     0
171
     0
290
     0
174
     0
 93
        1
 44
0.0
173
     0
291
     1
 45
0.0
1001
ACAD
1000
AcDbSavedByObjectVersion
1070
     0
  0
VISUALSTYLE
  5
1E
102
{ACAD_XDICTIONARY
360
20DE
102
}
102
{ACAD_REACTORS
330
14
102
}
330
14
100
AcDbVisualStyle
  2

 70
     8
 71
     2
 72
     2
 73
     0
 90
        0
 40
-0.6
 41
-30.0
 62
     5
 63
     7
 74
     1
 91
        0
 64
     7
 65
   257
 75
     1
175
     1
 42
1.0
 92
        8
 66
     8
 43
1.0
 76
     1
 77
     6
 78
     2
 67
     7
 79
     5
170
     0
171
     0
290
     0
174
     0
 93
       13
 44
0.0
173
     0
291
     0
 45
0.0
1001
ACAD
1000
AcDbSavedByObjectVersion
1070
     0
  0
VISUALSTYLE
  5
742
102
{ACAD_XDICTIONARY
360
20FD
102
}
102
{ACAD_REACTORS
330
14
102
}
330
14
100
AcDbVisualStyle
  2

 70
    27
 71
     2
 72
     2
 73
     1
 90
        2
 40
-0.6
 41
30.0
 62
     5
 63
     7
 74
     0
 91
        4
 64
     7
 65
   257
 75
     1
175
     1
 42
1.0
 92
        8
 66
   257
 43
1.0
 76
     1
 77
     6
 78
     2
 67
     8
 79
     3
170
     0
171
     0
290
     0
174
     0
 93
        5
 44
0.0
173
     0
291
     0
 45
0.0
1001
ACAD
1000
AcDbSavedByObjectVersion
1070
     0
  0
VISUALSTYLE
  5
741
102
{ACAD_XDICTIONARY
360
20FB
102
}
102
{ACAD_REACTORS
330
14
102
}
330
14
100
AcDbVisualStyle
  2

 70
    26
 71
     2
 72
     2
 73
     1
 90
        2
 40
-0.6
 41
30.0
 62
     5
 63
     7
 74
     1
 91
       10
 64
     7
 65
   257
 75
     2
175
     1
 42
1.0
 92
        8
 66
   257
 43
1.0
 76
     1
 77
     6
 78
     2
 67
     7
 79
     3
170
     0
171
     0
290
     0
174
     0
 93
        5
 44
0.0
173
     0
291
     0
 45
0.0
1001
ACAD
1000
AcDbSavedByObjectVersion
1070
     0
  0
VISUALSTYLE
  5
73E
102
{ACAD_XDICTIONARY
360
20F5
102
}
102
{ACAD_REACTORS
330
14
102
}
330
14
100
AcDbVisualStyle
  2

 70
    23
 71
     2
 72
     2
 73
     3
 90
        0
 40
-0.6
 41
-30.0
 62
     5
 63
     7
 74
     2
 91
        2
 64
     7
 65
     7
 75
     1
175
     1
 42
40.0
 92
        8
 66
     7
 43
1.0
 76
     1
 77
     6
 78
     2
 67
     7
 79
     3
170
     0
171
     0
290
     0
174
     0
 93
        1
 44
0.0
173
     0
291
     0
 45
0.0
1001
ACAD
1000
AcDbSavedByObjectVersion
1070
     0
  0
VISUALSTYLE
  5
73F
102
{ACAD_XDICTIONARY
360
20F7
102
}
102
{ACAD_REACTORS
330
14
102
}
330
14
100
AcDbVisualStyle
  2

 70
    24
 71
     1
 72
     2
 73
     2
 90
        0
 40
-0.6
 41
-30.0
 62
     5
 63
     7
 74
     2
 91
        2
 64
     7
 65
     7
 75
     1
175
     1
 42
40.0
 92
       11
 66
     7
 43
1.0
 76
     1
 77
     6
 78
     2
 67
     7
 79
     6
170
     0
171
     0
290
     0
174
     0
 93
        1
 44
0.0
173
     0
291
     0
 45
0.0
1001
ACAD
1000
AcDbSavedByObjectVersion
1070
     0
  0
VISUALSTYLE
  5
21
102
{ACAD_XDICTIONARY
360
20E4
102
}
102
{ACAD_REACTORS
330
14
102
}
330
14
100
AcDbVisualStyle
  2

 70
    13
 71
     2
 72
     2
 73
     0
 90
        0
 40
-0.6
 41
-30.0
 62
     5
 63
     7
 74
     1
 91
        4
 64
     7
 65
   257
 75
     1
175
     1
 42
1.0
 92
       12
 66
     7
 43
1.0
 76
     1
 77
     6
 78
     2
 67
     7
 79
     5
170
     0
171
     0
290
     0
174
     0
 93
        1
 44
0.0
173
     0
291
     1
 45
0.0
1001
ACAD
1000
AcDbSavedByObjectVersion
1070
     0
  0
VISUALSTYLE
  5
73C
102
{ACAD_XDICTIONARY
360
20F1
102
}
102
{ACAD_REACTORS
330
14
102
}
330
14
100
AcDbVisualStyle
  2

 70
     5
 71
     0
 72
     2
 73
     0
 90
        0
 40
-0.6
 41
-30.0
 62
     5
 63
     7
 74
     1
 91
        4
 64
     7
 65
   257
 75
     1
175
     1
 42
1.0
 92
        0
 66
   257
 43
1.0
 76
     1
 77
     6
 78
     2
 67
     7
 79
     3
170
     0
171
     0
290
     0
174
     0
 93
        1
 44
0.0
173
     0
291
     0
 45
0.0
1001
ACAD
1000
AcDbSavedByObjectVersion
1070
     0
  0
VISUALSTYLE
  5
740
102
{ACAD_XDICTIONARY
360
20F9
102
}
102
{ACAD_REACTORS
330
14
102
}
330
14
100
AcDbVisualStyle
  2

 70
    25
 71
     2
 72
     2
 73
     1
 90
        1
 40
0.5
 41
-30.0
 62
     5
 63
     7
 74
     1
 91
        0
 64
     7
 65
   257
 75
     1
175
     1
 42
1.0
 92
        8
 66
     7
 43
1.0
 76
     1
 77
     6
 78
     2
 67
     7
 79
     3
170
     0
171
     0
290
     0
174
     0
 93
       13
 44
0.0
173
     0
291
     0
 45
0.0
1001
ACAD
1000
AcDbSavedByObjectVersion
1070
     0
  0
DICTIONARYVAR
  5
988
102
{ACAD_REACTORS
330
720
102
}
330
720
100
DictionaryVariables
280
     0
  1
1:1
  0
DICTIONARYVAR
  5
987
102
{ACAD_REACTORS
330
720
102
}
330
720
100
DictionaryVariables
280
     0
  1
STANDARD
  0
DICTIONARYVAR
  5
721
102
{ACAD_REACTORS
330
720
102
}
330
720
100
DictionaryVariables
280
     0
  1
STANDARD
  0
DICTIONARYVAR
  5
724
102
{ACAD_REACTORS
330
720
102
}
330
720
100
DictionaryVariables
280
     0
  1
1
  0
DICTIONARYVAR
  5
723
102
{ACAD_REACTORS
330
720
102
}
330
720
100
DictionaryVariables
280
     0
  1
0
  0
DICTIONARYVAR
  5
722
102
{ACAD_REACTORS
330
720
102
}
330
720
100
DictionaryVariables
280
     0
  1
127
  0
DICTIONARYVAR
  5
1FD7
102
{ACAD_REACTORS
330
720
102
}
330
720
100
DictionaryVariables
280
     0
  1
2
  0
DICTIONARY
  5
20EF
330
39
100
AcDbDictionary
280
     1
281
     1
  3
ACAD_XREC_ROUNDTRIP
360
20F0
  0
DICTIONARY
  5
20ED
330
35
100
AcDbDictionary
280
     1
281
     1
  3
ACAD_XREC_ROUNDTRIP
360
20EE
  0
DICTIONARY
  5
72C
330
12
100
AcDbDictionary
280
     1
281
     1
  3
ACAD_XREC_ROUNDTRIP
360
72D
  0
DICTIONARY
  5
72A
330
11
100
AcDbDictionary
280
     1
281
     1
  3
ACAD_XREC_ROUNDTRIP
360
72B
  0
DICTIONARY
  5
72E
330
13
100
AcDbDictionary
280
     1
281
     1
  3
ACAD_XREC_ROUNDTRIP
360
72F
  0
DICTIONARY
  5
98A
330
31
100
AcDbDictionary
280
     1
281
     1
  3
ACAD_ROUNDTRIP_2008_TABLESTYLE_CELLSTYLEMAP
360
20C5
  3
ACAD_XREC_ROUNDTRIP
360
20EC
  0
DICTIONARY
  5
20D6
330
1A
100
AcDbDictionary
280
     1
281
     1
  3
ACAD_XREC_ROUNDTRIP
360
20D7
  0
DICTIONARY
  5
20DA
330
1C
100
AcDbDictionary
280
     1
281
     1
  3
ACAD_XREC_ROUNDTRIP
360
20DB
  0
DICTIONARY
  5
20D8
330
1B
100
AcDbDictionary
280
     1
281
     1
  3
ACAD_XREC_ROUNDTRIP
360
20D9
  0
DICTIONARY
  5
20D4
330
19
100
AcDbDictionary
280
     1
281
     1
  3
ACAD_XREC_ROUNDTRIP
360
20D5
  0
DICTIONARY
  5
20E2
330
20
100
AcDbDictionary
280
     1
281
     1
  3
ACAD_XREC_ROUNDTRIP
360
20E3
  0
DICTIONARY
  5
20EA
330
24
100
AcDbDictionary
280
     1
281
     1
  3
ACAD_XREC_ROUNDTRIP
360
20EB
  0
DICTIONARY
  5
20DC
330
1D
100
AcDbDictionary
280
     1
281
     1
  3
ACAD_XREC_ROUNDTRIP
360
20DD
  0
DICTIONARY
  5
20E0
330
1F
100
AcDbDictionary
280
     1
281
     1
  3
ACAD_XREC_ROUNDTRIP
360
20E1
  0
DICTIONARY
  5
2103
330
745
100
AcDbDictionary
280
     1
281
     1
  3
ACAD_XREC_ROUNDTRIP
360
2104
  0
DICTIONARY
  5
20E8
330
23
100
AcDbDictionary
280
     1
281
     1
  3
ACAD_XREC_ROUNDTRIP
360
20E9
  0
DICTIONARY
  5
20CC
330
15
100
AcDbDictionary
280
     1
281
     1
  3
ACAD_XREC_ROUNDTRIP
360
20CD
  0
DICTIONARY
  5
20CE
330
16
100
AcDbDictionary
280
     1
281
     1
  3
ACAD_XREC_ROUNDTRIP
360
20CF
  0
DICTIONARY
  5
20D0
330
17
100
AcDbDictionary
280
     1
281
     1
  3
ACAD_XREC_ROUNDTRIP
360
20D1
  0
DICTIONARY
  5
20D2
330
18
100
AcDbDictionary
280
     1
281
     1
  3
ACAD_XREC_ROUNDTRIP
360
20D3
  0
DICTIONARY
  5
20F3
330
73D
100
AcDbDictionary
280
     1
281
     1
  3
ACAD_XREC_ROUNDTRIP
360
20F4
  0
DICTIONARY
  5
20FF
330
743
100
AcDbDictionary
280
     1
281
     1
  3
ACAD_XREC_ROUNDTRIP
360
2100
  0
DICTIONARY
  5
20E6
330
22
100
AcDbDictionary
280
     1
281
     1
  3
ACAD_XREC_ROUNDTRIP
360
20E7
  0
DICTIONARY
  5
2101
330
744
100
AcDbDictionary
280
     1
281
     1
  3
ACAD_XREC_ROUNDTRIP
360
2102
  0
DICTIONARY
  5
20DE
330
1E
100
AcDbDictionary
280
     1
281
     1
  3
ACAD_XREC_ROUNDTRIP
360
20DF
  0
DICTIONARY
  5
20FD
330
742
100
AcDbDictionary
280
     1
281
     1
  3
ACAD_XREC_ROUNDTRIP
360
20FE
  0
DICTIONARY
  5
20FB
330
741
100
AcDbDictionary
280
     1
281
     1
  3
ACAD_XREC_ROUNDTRIP
360
20FC
  0
DICTIONARY
  5
20F5
330
73E
100
AcDbDictionary
280
     1
281
     1
  3
ACAD_XREC_ROUNDTRIP
360
20F6
  0
DICTIONARY
  5
20F7
330
73F
100
AcDbDictionary
280
     1
281
     1
  3
ACAD_XREC_ROUNDTRIP
360
20F8
  0
DICTIONARY
  5
20E4
330
21
100
AcDbDictionary
280
     1
281
     1
  3
ACAD_XREC_ROUNDTRIP
360
20E5
  0
DICTIONARY
  5
20F1
330
73C
100
AcDbDictionary
280
     1
281
     1
  3
ACAD_XREC_ROUNDTRIP
360
20F2
  0
DICTIONARY
  5
20F9
330
740
100
AcDbDictionary
280
     1
281
     1
  3
ACAD_XREC_ROUNDTRIP
360
20FA
  0
XRECORD
  5
20F0
102
{ACAD_REACTORS
330
20EF
102
}
330
20EF
100
AcDbXrecord
280
     1
102
SHADEPLOT
 70
     0
102
SHADEPLOTRESLEVEL
 70
     2
102
SHADEPLOTCUSTOMDPI
 70
   300
  0
XRECORD
  5
20EE
102
{ACAD_REACTORS
330
20ED
102
}
330
20ED
100
AcDbXrecord
280
     1
102
SHADEPLOT
 70
     0
102
SHADEPLOTRESLEVEL
 70
     2
102
SHADEPLOTCUSTOMDPI
 70
   300
  0
XRECORD
  5
72D
102
{ACAD_REACTORS
330
72C
102
}
330
72C
100
AcDbXrecord
280
     1
102
MATERIAL
148
0.0
149
0.0
149
0.0
 93
        0
 94
      127
282
     0
 72
     1
 77
     1
171
     1
175
     1
179
     1
273
     0
  0
XRECORD
  5
72B
102
{ACAD_REACTORS
330
72A
102
}
330
72A
100
AcDbXrecord
280
     1
102
MATERIAL
148
0.0
149
0.0
149
0.0
 93
        0
 94
      127
282
     0
 72
     1
 77
     1
171
     1
175
     1
179
     1
273
     0
  0
XRECORD
  5
72F
102
{ACAD_REACTORS
330
72E
102
}
330
72E
100
AcDbXrecord
280
     1
102
MATERIAL
148
0.0
149
0.0
149
0.0
 93
        0
 94
      127
282
     0
 72
     1
 77
     1
171
     1
175
     1
179
     1
273
     0
  0
CELLSTYLEMAP
  5
20C5
102
{ACAD_REACTORS
330
98A
102
}
330
98A
100
AcDbCellStyleMap
 90
        3
300
CELLSTYLE
  1
TABLEFORMAT_BEGIN
 90
        5
170
     1
 91
        0
 92
    32768
 62
   257
 93
        1
300
CONTENTFORMAT
  1
CONTENTFORMAT_BEGIN
 90
        0
 91
        0
 92
      512
 93
        0
300

 40
0.0
140
1.0
 94
        5
 62
     0
340
26
144
0.25
309
CONTENTFORMAT_END
171
     1
301
MARGIN
  1
CELLMARGIN_BEGIN
 40
0.06
 40
0.06
 40
0.06
 40
0.06
 40
0.18
 40
0.18
309
CELLMARGIN_END
 94
        6
 95
        1
302
GRIDFORMAT
  1
GRIDFORMAT_BEGIN
 90
        0
 91
        1
 62
     0
 92
       -2
340
0
 93
        0
 40
0.045
309
GRIDFORMAT_END
 95
        2
302
GRIDFORMAT
  1
GRIDFORMAT_BEGIN
 90
        0
 91
        1
 62
     0
 92
       -2
340
0
 93
        0
 40
0.045
309
GRIDFORMAT_END
 95
        4
302
GRIDFORMAT
  1
GRIDFORMAT_BEGIN
 90
        0
 91
        1
 62
     0
 92
       -2
340
0
 93
        0
 40
0.045
309
GRIDFORMAT_END
 95
        8
302
GRIDFORMAT
  1
GRIDFORMAT_BEGIN
 90
        0
 91
        1
 62
     0
 92
       -2
340
0
 93
        0
 40
0.045
309
GRIDFORMAT_END
 95
       16
302
GRIDFORMAT
  1
GRIDFORMAT_BEGIN
 90
        0
 91
        1
 62
     0
 92
       -2
340
0
 93
        0
 40
0.045
309
GRIDFORMAT_END
 95
       32
302
GRIDFORMAT
  1
GRIDFORMAT_BEGIN
 90
        0
 91
        1
 62
     0
 92
       -2
340
0
 93
        0
 40
0.045
309
GRIDFORMAT_END
309
TABLEFORMAT_END
  1
CELLSTYLE_BEGIN
 90
        1
 91
        1
300
_TITLE
309
CELLSTYLE_END
300
CELLSTYLE
  1
TABLEFORMAT_BEGIN
 90
        5
170
     1
 91
        0
 92
        0
 62
   257
 93
        1
300
CONTENTFORMAT
  1
CONTENTFORMAT_BEGIN
 90
        0
 91
        0
 92
      512
 93
        0
300

 40
0.0
140
1.0
 94
        5
 62
     0
340
26
144
0.18
309
CONTENTFORMAT_END
171
     1
301
MARGIN
  1
CELLMARGIN_BEGIN
 40
0.06
 40
0.06
 40
0.06
 40
0.06
 40
0.18
 40
0.18
309
CELLMARGIN_END
 94
        6
 95
        1
302
GRIDFORMAT
  1
GRIDFORMAT_BEGIN
 90
        0
 91
        1
 62
     0
 92
       -2
340
0
 93
        0
 40
0.045
309
GRIDFORMAT_END
 95
        2
302
GRIDFORMAT
  1
GRIDFORMAT_BEGIN
 90
        0
 91
        1
 62
     0
 92
       -2
340
0
 93
        0
 40
0.045
309
GRIDFORMAT_END
 95
        4
302
GRIDFORMAT
  1
GRIDFORMAT_BEGIN
 90
        0
 91
        1
 62
     0
 92
       -2
340
0
 93
        0
 40
0.045
309
GRIDFORMAT_END
 95
        8
302
GRIDFORMAT
  1
GRIDFORMAT_BEGIN
 90
        0
 91
        1
 62
     0
 92
       -2
340
0
 93
        0
 40
0.045
309
GRIDFORMAT_END
 95
       16
302
GRIDFORMAT
  1
GRIDFORMAT_BEGIN
 90
        0
 91
        1
 62
     0
 92
       -2
340
0
 93
        0
 40
0.045
309
GRIDFORMAT_END
 95
       32
302
GRIDFORMAT
  1
GRIDFORMAT_BEGIN
 90
        0
 91
        1
 62
     0
 92
       -2
340
0
 93
        0
 40
0.045
309
GRIDFORMAT_END
309
TABLEFORMAT_END
  1
CELLSTYLE_BEGIN
 90
        2
 91
        1
300
_HEADER
309
CELLSTYLE_END
300
CELLSTYLE
  1
TABLEFORMAT_BEGIN
 90
        5
170
     1
 91
        0
 92
        0
 62
   257
 93
        1
300
CONTENTFORMAT
  1
CONTENTFORMAT_BEGIN
 90
        0
 91
        0
 92
      512
 93
        0
300

 40
0.0
140
1.0
 94
        2
 62
     0
340
26
144
0.18
309
CONTENTFORMAT_END
171
     1
301
MARGIN
  1
CELLMARGIN_BEGIN
 40
0.06
 40
0.06
 40
0.06
 40
0.06
 40
0.18
 40
0.18
309
CELLMARGIN_END
 94
        6
 95
        1
302
GRIDFORMAT
  1
GRIDFORMAT_BEGIN
 90
        0
 91
        1
 62
     0
 92
       -2
340
0
 93
        0
 40
0.045
309
GRIDFORMAT_END
 95
        2
302
GRIDFORMAT
  1
GRIDFORMAT_BEGIN
 90
        0
 91
        1
 62
     0
 92
       -2
340
0
 93
        0
 40
0.045
309
GRIDFORMAT_END
 95
        4
302
GRIDFORMAT
  1
GRIDFORMAT_BEGIN
 90
        0
 91
        1
 62
     0
 92
       -2
340
0
 93
        0
 40
0.045
309
GRIDFORMAT_END
 95
        8
302
GRIDFORMAT
  1
GRIDFORMAT_BEGIN
 90
        0
 91
        1
 62
     0
 92
       -2
340
0
 93
        0
 40
0.045
309
GRIDFORMAT_END
 95
       16
302
GRIDFORMAT
  1
GRIDFORMAT_BEGIN
 90
        0
 91
        1
 62
     0
 92
       -2
340
0
 93
        0
 40
0.045
309
GRIDFORMAT_END
 95
       32
302
GRIDFORMAT
  1
GRIDFORMAT_BEGIN
 90
        0
 91
        1
 62
     0
 92
       -2
340
0
 93
        0
 40
0.045
309
GRIDFORMAT_END
309
TABLEFORMAT_END
  1
CELLSTYLE_BEGIN
 90
        3
 91
        2
300
_DATA
309
CELLSTYLE_END
  0
XRECORD
  5
20EC
102
{ACAD_REACTORS
330
98A
102
}
330
98A
100
AcDbXrecord
280
     1
102
ACAD_ROUNDTRIP_PRE2007_TABLESTYLE
 90
      512
 91
        0
  1

 92
      512
 93
        0
  2

 94
      512
 95
        0
  3

  0
XRECORD
  5
20D7
102
{ACAD_REACTORS
330
20D6
102
}
330
20D6
100
AcDbXrecord
280
     1
102
RTVSPropertyOp0
 70
     1
102
RTVSPropertyOp1
 70
     1
102
RTVSPropertyOp2
 70
     1
102
RTVSPropertyOp3
 70
     1
102
RTVSPropertyOp4
 70
     1
102
RTVSPropertyOp5
 70
     1
102
RTVSPropertyOp6
 70
     1
102
RTVSPropertyOp7
 70
     1
102
RTVSPropertyOp8
 70
     1
102
RTVSPropertyOp9
 70
     1
102
RTVSPropertyOp10
 70
     1
102
RTVSPropertyOp11
 70
     1
102
RTVSPropertyOp12
 70
     1
102
RTVSPropertyOp13
 70
     1
102
RTVSPropertyOp14
 70
     1
102
RTVSPropertyOp15
 70
     1
102
RTVSPropertyOp16
 70
     1
102
RTVSPropertyOp17
 70
     1
102
RTVSPropertyOp18
 70
     1
102
RTVSPropertyOp19
 70
     1
102
RTVSPropertyOp20
 70
     1
102
RTVSPropertyOp21
 70
     1
102
RTVSPropertyOp22
 70
     1
102
RTVSPropertyOp23
 70
     1
102
RTVSPropertyOp24
 70
     1
102
RTVSPropertyOp25
 70
     1
102
RTVSPropertyOp26
 70
     1
102
RTVSPropertyOp27
 70
     1
102
RTVSPropertyOp28
 70
     1
102
RTVSPropertyOp29
 70
     1
102
RTVSPropertyOp30
 70
     1
102
RTVSPropertyOp31
 70
     1
102
RTVSPropertyOp32
 70
     1
  0
XRECORD
  5
20DB
102
{ACAD_REACTORS
330
20DA
102
}
330
20DA
100
AcDbXrecord
280
     1
102
RTVSPropertyOp0
 70
     1
102
RTVSPropertyOp1
 70
     1
102
RTVSPropertyOp2
 70
     1
102
RTVSPropertyOp3
 70
     1
102
RTVSPropertyOp4
 70
     1
102
RTVSPropertyOp5
 70
     1
102
RTVSPropertyOp6
 70
     1
102
RTVSPropertyOp7
 70
     1
102
RTVSPropertyOp8
 70
     1
102
RTVSPropertyOp9
 70
     1
102
RTVSPropertyOp10
 70
     1
102
RTVSPropertyOp11
 70
     1
102
RTVSPropertyOp12
 70
     1
102
RTVSPropertyOp13
 70
     1
102
RTVSPropertyOp14
 70
     1
102
RTVSPropertyOp15
 70
     1
102
RTVSPropertyOp16
 70
     1
102
RTVSPropertyOp17
 70
     1
102
RTVSPropertyOp18
 70
     1
102
RTVSPropertyOp19
 70
     1
102
RTVSPropertyOp20
 70
     1
102
RTVSPropertyOp21
 70
     1
102
RTVSPropertyOp22
 70
     1
102
RTVSPropertyOp23
 70
     1
102
RTVSPropertyOp24
 70
     1
102
RTVSPropertyOp25
 70
     1
102
RTVSPropertyOp26
 70
     1
102
RTVSPropertyOp27
 70
     1
102
RTVSPropertyOp28
 70
     1
102
RTVSPropertyOp29
 70
     1
102
RTVSPropertyOp30
 70
     1
102
RTVSPropertyOp31
 70
     1
102
RTVSPropertyOp32
 70
     1
  0
XRECORD
  5
20D9
102
{ACAD_REACTORS
330
20D8
102
}
330
20D8
100
AcDbXrecord
280
     1
102
RTVSPropertyOp0
 70
     1
102
RTVSPropertyOp1
 70
     1
102
RTVSPropertyOp2
 70
     1
102
RTVSPropertyOp3
 70
     1
102
RTVSPropertyOp4
 70
     1
102
RTVSPropertyOp5
 70
     1
102
RTVSPropertyOp6
 70
     1
102
RTVSPropertyOp7
 70
     1
102
RTVSPropertyOp8
 70
     1
102
RTVSPropertyOp9
 70
     1
102
RTVSPropertyOp10
 70
     1
102
RTVSPropertyOp11
 70
     1
102
RTVSPropertyOp12
 70
     1
102
RTVSPropertyOp13
 70
     1
102
RTVSPropertyOp14
 70
     1
102
RTVSPropertyOp15
 70
     1
102
RTVSPropertyOp16
 70
     1
102
RTVSPropertyOp17
 70
     1
102
RTVSPropertyOp18
 70
     1
102
RTVSPropertyOp19
 70
     1
102
RTVSPropertyOp20
 70
     1
102
RTVSPropertyOp21
 70
     1
102
RTVSPropertyOp22
 70
     1
102
RTVSPropertyOp23
 70
     1
102
RTVSPropertyOp24
 70
     1
102
RTVSPropertyOp25
 70
     1
102
RTVSPropertyOp26
 70
     1
102
RTVSPropertyOp27
 70
     1
102
RTVSPropertyOp28
 70
     1
102
RTVSPropertyOp29
 70
     1
102
RTVSPropertyOp30
 70
     1
102
RTVSPropertyOp31
 70
     1
102
RTVSPropertyOp32
 70
     1
  0
XRECORD
  5
20D5
102
{ACAD_REACTORS
330
20D4
102
}
330
20D4
100
AcDbXrecord
280
     1
102
RTVSPropertyOp0
 70
     1
102
RTVSPropertyOp1
 70
     1
102
RTVSPropertyOp2
 70
     1
102
RTVSPropertyOp3
 70
     1
102
RTVSPropertyOp4
 70
     1
102
RTVSPropertyOp5
 70
     1
102
RTVSPropertyOp6
 70
     1
102
RTVSPropertyOp7
 70
     1
102
RTVSPropertyOp8
 70
     1
102
RTVSPropertyOp9
 70
     1
102
RTVSPropertyOp10
 70
     1
102
RTVSPropertyOp11
 70
     1
102
RTVSPropertyOp12
 70
     1
102
RTVSPropertyOp13
 70
     1
102
RTVSPropertyOp14
 70
     1
102
RTVSPropertyOp15
 70
     1
102
RTVSPropertyOp16
 70
     1
102
RTVSPropertyOp17
 70
     1
102
RTVSPropertyOp18
 70
     1
102
RTVSPropertyOp19
 70
     1
102
RTVSPropertyOp20
 70
     1
102
RTVSPropertyOp21
 70
     1
102
RTVSPropertyOp22
 70
     1
102
RTVSPropertyOp23
 70
     1
102
RTVSPropertyOp24
 70
     1
102
RTVSPropertyOp25
 70
     1
102
RTVSPropertyOp26
 70
     1
102
RTVSPropertyOp27
 70
     1
102
RTVSPropertyOp28
 70
     1
102
RTVSPropertyOp29
 70
     1
102
RTVSPropertyOp30
 70
     1
102
RTVSPropertyOp31
 70
     1
102
RTVSPropertyOp32
 70
     1
  0
XRECORD
  5
20E3
102
{ACAD_REACTORS
330
20E2
102
}
330
20E2
100
AcDbXrecord
280
     1
102
RTVSPropertyOp0
 70
     1
102
RTVSPropertyOp1
 70
     1
102
RTVSPropertyOp2
 70
     1
102
RTVSPropertyOp3
 70
     1
102
RTVSPropertyOp4
 70
     1
102
RTVSPropertyOp5
 70
     1
102
RTVSPropertyOp6
 70
     1
102
RTVSPropertyOp7
 70
     1
102
RTVSPropertyOp8
 70
     1
102
RTVSPropertyOp9
 70
     1
102
RTVSPropertyOp10
 70
     1
102
RTVSPropertyOp11
 70
     1
102
RTVSPropertyOp12
 70
     1
102
RTVSPropertyOp13
 70
     1
102
RTVSPropertyOp14
 70
     1
102
RTVSPropertyOp15
 70
     1
102
RTVSPropertyOp16
 70
     1
102
RTVSPropertyOp17
 70
     1
102
RTVSPropertyOp18
 70
     1
102
RTVSPropertyOp19
 70
     1
102
RTVSPropertyOp20
 70
     1
102
RTVSPropertyOp21
 70
     1
102
RTVSPropertyOp22
 70
     1
102
RTVSPropertyOp23
 70
     1
102
RTVSPropertyOp24
 70
     1
102
RTVSPropertyOp25
 70
     1
102
RTVSPropertyOp26
 70
     1
102
RTVSPropertyOp27
 70
     1
102
RTVSPropertyOp28
 70
     1
102
RTVSPropertyOp29
 70
     1
102
RTVSPropertyOp30
 70
     1
102
RTVSPropertyOp31
 70
     1
102
RTVSPropertyOp32
 70
     1
  0
XRECORD
  5
20EB
102
{ACAD_REACTORS
330
20EA
102
}
330
20EA
100
AcDbXrecord
280
     1
102
RTVSPropertyOp0
 70
     1
102
RTVSPropertyOp1
 70
     1
102
RTVSPropertyOp2
 70
     1
102
RTVSPropertyOp3
 70
     1
102
RTVSPropertyOp4
 70
     1
102
RTVSPropertyOp5
 70
     1
102
RTVSPropertyOp6
 70
     1
102
RTVSPropertyOp7
 70
     1
102
RTVSPropertyOp8
 70
     1
102
RTVSPropertyOp9
 70
     1
102
RTVSPropertyOp10
 70
     1
102
RTVSPropertyOp11
 70
     1
102
RTVSPropertyOp12
 70
     1
102
RTVSPropertyOp13
 70
     1
102
RTVSPropertyOp14
 70
     1
102
RTVSPropertyOp15
 70
     1
102
RTVSPropertyOp16
 70
     1
102
RTVSPropertyOp17
 70
     1
102
RTVSPropertyOp18
 70
     1
102
RTVSPropertyOp19
 70
     1
102
RTVSPropertyOp20
 70
     1
102
RTVSPropertyOp21
 70
     1
102
RTVSPropertyOp22
 70
     1
102
RTVSPropertyOp23
 70
     1
102
RTVSPropertyOp24
 70
     1
102
RTVSPropertyOp25
 70
     1
102
RTVSPropertyOp26
 70
     1
102
RTVSPropertyOp27
 70
     1
102
RTVSPropertyOp28
 70
     1
102
RTVSPropertyOp29
 70
     1
102
RTVSPropertyOp30
 70
     1
102
RTVSPropertyOp31
 70
     1
102
RTVSPropertyOp32
 70
     1
  0
XRECORD
  5
20DD
102
{ACAD_REACTORS
330
20DC
102
}
330
20DC
100
AcDbXrecord
280
     1
102
RTVSPropertyOp0
 70
     1
102
RTVSPropertyOp1
 70
     1
102
RTVSPropertyOp2
 70
     1
102
RTVSPropertyOp3
 70
     1
102
RTVSPropertyOp4
 70
     1
102
RTVSPropertyOp5
 70
     1
102
RTVSPropertyOp6
 70
     1
102
RTVSPropertyOp7
 70
     1
102
RTVSPropertyOp8
 70
     1
102
RTVSPropertyOp9
 70
     1
102
RTVSPropertyOp10
 70
     1
102
RTVSPropertyOp11
 70
     1
102
RTVSPropertyOp12
 70
     1
102
RTVSPropertyOp13
 70
     1
102
RTVSPropertyOp14
 70
     1
102
RTVSPropertyOp15
 70
     1
102
RTVSPropertyOp16
 70
     1
102
RTVSPropertyOp17
 70
     1
102
RTVSPropertyOp18
 70
     1
102
RTVSPropertyOp19
 70
     1
102
RTVSPropertyOp20
 70
     1
102
RTVSPropertyOp21
 70
     1
102
RTVSPropertyOp22
 70
     1
102
RTVSPropertyOp23
 70
     1
102
RTVSPropertyOp24
 70
     1
102
RTVSPropertyOp25
 70
     1
102
RTVSPropertyOp26
 70
     1
102
RTVSPropertyOp27
 70
     1
102
RTVSPropertyOp28
 70
     1
102
RTVSPropertyOp29
 70
     1
102
RTVSPropertyOp30
 70
     1
102
RTVSPropertyOp31
 70
     1
102
RTVSPropertyOp32
 70
     1
  0
XRECORD
  5
20E1
102
{ACAD_REACTORS
330
20E0
102
}
330
20E0
100
AcDbXrecord
280
     1
102
RTVSPropertyOp0
 70
     1
102
RTVSPropertyOp1
 70
     1
102
RTVSPropertyOp2
 70
     1
102
RTVSPropertyOp3
 70
     1
102
RTVSPropertyOp4
 70
     1
102
RTVSPropertyOp5
 70
     1
102
RTVSPropertyOp6
 70
     1
102
RTVSPropertyOp7
 70
     1
102
RTVSPropertyOp8
 70
     1
102
RTVSPropertyOp9
 70
     1
102
RTVSPropertyOp10
 70
     1
102
RTVSPropertyOp11
 70
     1
102
RTVSPropertyOp12
 70
     1
102
RTVSPropertyOp13
 70
     1
102
RTVSPropertyOp14
 70
     1
102
RTVSPropertyOp15
 70
     1
102
RTVSPropertyOp16
 70
     1
102
RTVSPropertyOp17
 70
     1
102
RTVSPropertyOp18
 70
     1
102
RTVSPropertyOp19
 70
     1
102
RTVSPropertyOp20
 70
     1
102
RTVSPropertyOp21
 70
     1
102
RTVSPropertyOp22
 70
     1
102
RTVSPropertyOp23
 70
     1
102
RTVSPropertyOp24
 70
     1
102
RTVSPropertyOp25
 70
     1
102
RTVSPropertyOp26
 70
     1
102
RTVSPropertyOp27
 70
     1
102
RTVSPropertyOp28
 70
     1
102
RTVSPropertyOp29
 70
     1
102
RTVSPropertyOp30
 70
     1
102
RTVSPropertyOp31
 70
     1
102
RTVSPropertyOp32
 70
     1
  0
XRECORD
  5
2104
102
{ACAD_REACTORS
330
2103
102
}
330
2103
100
AcDbXrecord
280
     1
102
RTVSPropertyOp0
 70
     0
102
RTVSPropertyOp1
 70
     0
102
RTVSPropertyOp2
 70
     0
102
RTVSPropertyOp3
 70
     0
102
RTVSPropertyOp4
 70
     0
102
RTVSPropertyOp5
 70
     0
102
RTVSPropertyOp6
 70
     0
102
RTVSPropertyOp7
 70
     0
102
RTVSPropertyOp8
 70
     0
102
RTVSPropertyOp9
 70
     0
102
RTVSPropertyOp10
 70
     0
102
RTVSPropertyOp11
 70
     0
102
RTVSPropertyOp12
 70
     0
102
RTVSPropertyOp13
 70
     0
102
RTVSPropertyOp14
 70
     2
102
RTVSPropertyOp15
 70
     0
102
RTVSPropertyOp16
 70
     0
102
RTVSPropertyOp17
 70
     0
102
RTVSPropertyOp18
 70
     0
102
RTVSPropertyOp19
 70
     0
102
RTVSPropertyOp20
 70
     0
102
RTVSPropertyOp21
 70
     0
102
RTVSPropertyOp22
 70
     0
102
RTVSPropertyOp23
 70
     0
102
RTVSPropertyOp24
 70
     0
102
RTVSPropertyOp25
 70
     0
102
RTVSPropertyOp26
 70
     0
102
RTVSPropertyOp27
 70
     0
102
RTVSPropertyOp28
 70
     0
102
RTVSPropertyOp29
 70
     0
102
RTVSPropertyOp30
 70
     0
102
RTVSPropertyOp31
 70
     0
102
RTVSPropertyOp32
 70
     0
  0
XRECORD
  5
20E9
102
{ACAD_REACTORS
330
20E8
102
}
330
20E8
100
AcDbXrecord
280
     1
102
RTVSPropertyOp0
 70
     1
102
RTVSPropertyOp1
 70
     1
102
RTVSPropertyOp2
 70
     1
102
RTVSPropertyOp3
 70
     1
102
RTVSPropertyOp4
 70
     1
102
RTVSPropertyOp5
 70
     1
102
RTVSPropertyOp6
 70
     1
102
RTVSPropertyOp7
 70
     1
102
RTVSPropertyOp8
 70
     1
102
RTVSPropertyOp9
 70
     1
102
RTVSPropertyOp10
 70
     1
102
RTVSPropertyOp11
 70
     1
102
RTVSPropertyOp12
 70
     1
102
RTVSPropertyOp13
 70
     1
102
RTVSPropertyOp14
 70
     1
102
RTVSPropertyOp15
 70
     1
102
RTVSPropertyOp16
 70
     1
102
RTVSPropertyOp17
 70
     1
102
RTVSPropertyOp18
 70
     1
102
RTVSPropertyOp19
 70
     1
102
RTVSPropertyOp20
 70
     1
102
RTVSPropertyOp21
 70
     1
102
RTVSPropertyOp22
 70
     1
102
RTVSPropertyOp23
 70
     1
102
RTVSPropertyOp24
 70
     1
102
RTVSPropertyOp25
 70
     1
102
RTVSPropertyOp26
 70
     1
102
RTVSPropertyOp27
 70
     1
102
RTVSPropertyOp28
 70
     1
102
RTVSPropertyOp29
 70
     1
102
RTVSPropertyOp30
 70
     1
102
RTVSPropertyOp31
 70
     1
102
RTVSPropertyOp32
 70
     1
  0
XRECORD
  5
20CD
102
{ACAD_REACTORS
330
20CC
102
}
330
20CC
100
AcDbXrecord
280
     1
102
RTVSPropertyOp0
 70
     1
102
RTVSPropertyOp1
 70
     1
102
RTVSPropertyOp2
 70
     1
102
RTVSPropertyOp3
 70
     1
102
RTVSPropertyOp4
 70
     1
102
RTVSPropertyOp5
 70
     1
102
RTVSPropertyOp6
 70
     1
102
RTVSPropertyOp7
 70
     1
102
RTVSPropertyOp8
 70
     1
102
RTVSPropertyOp9
 70
     1
102
RTVSPropertyOp10
 70
     1
102
RTVSPropertyOp11
 70
     1
102
RTVSPropertyOp12
 70
     1
102
RTVSPropertyOp13
 70
     1
102
RTVSPropertyOp14
 70
     1
102
RTVSPropertyOp15
 70
     1
102
RTVSPropertyOp16
 70
     1
102
RTVSPropertyOp17
 70
     1
102
RTVSPropertyOp18
 70
     1
102
RTVSPropertyOp19
 70
     1
102
RTVSPropertyOp20
 70
     1
102
RTVSPropertyOp21
 70
     1
102
RTVSPropertyOp22
 70
     1
102
RTVSPropertyOp23
 70
     1
102
RTVSPropertyOp24
 70
     1
102
RTVSPropertyOp25
 70
     1
102
RTVSPropertyOp26
 70
     1
102
RTVSPropertyOp27
 70
     1
102
RTVSPropertyOp28
 70
     1
102
RTVSPropertyOp29
 70
     1
102
RTVSPropertyOp30
 70
     1
102
RTVSPropertyOp31
 70
     1
102
RTVSPropertyOp32
 70
     1
  0
XRECORD
  5
20CF
102
{ACAD_REACTORS
330
20CE
102
}
330
20CE
100
AcDbXrecord
280
     1
102
RTVSPropertyOp0
 70
     1
102
RTVSPropertyOp1
 70
     1
102
RTVSPropertyOp2
 70
     1
102
RTVSPropertyOp3
 70
     1
102
RTVSPropertyOp4
 70
     1
102
RTVSPropertyOp5
 70
     1
102
RTVSPropertyOp6
 70
     1
102
RTVSPropertyOp7
 70
     1
102
RTVSPropertyOp8
 70
     1
102
RTVSPropertyOp9
 70
     1
102
RTVSPropertyOp10
 70
     1
102
RTVSPropertyOp11
 70
     1
102
RTVSPropertyOp12
 70
     1
102
RTVSPropertyOp13
 70
     1
102
RTVSPropertyOp14
 70
     1
102
RTVSPropertyOp15
 70
     1
102
RTVSPropertyOp16
 70
     1
102
RTVSPropertyOp17
 70
     1
102
RTVSPropertyOp18
 70
     1
102
RTVSPropertyOp19
 70
     1
102
RTVSPropertyOp20
 70
     1
102
RTVSPropertyOp21
 70
     1
102
RTVSPropertyOp22
 70
     1
102
RTVSPropertyOp23
 70
     1
102
RTVSPropertyOp24
 70
     1
102
RTVSPropertyOp25
 70
     1
102
RTVSPropertyOp26
 70
     1
102
RTVSPropertyOp27
 70
     1
102
RTVSPropertyOp28
 70
     1
102
RTVSPropertyOp29
 70
     1
102
RTVSPropertyOp30
 70
     1
102
RTVSPropertyOp31
 70
     1
102
RTVSPropertyOp32
 70
     1
  0
XRECORD
  5
20D1
102
{ACAD_REACTORS
330
20D0
102
}
330
20D0
100
AcDbXrecord
280
     1
102
RTVSPropertyOp0
 70
     1
102
RTVSPropertyOp1
 70
     1
102
RTVSPropertyOp2
 70
     1
102
RTVSPropertyOp3
 70
     1
102
RTVSPropertyOp4
 70
     1
102
RTVSPropertyOp5
 70
     1
102
RTVSPropertyOp6
 70
     1
102
RTVSPropertyOp7
 70
     1
102
RTVSPropertyOp8
 70
     1
102
RTVSPropertyOp9
 70
     1
102
RTVSPropertyOp10
 70
     1
102
RTVSPropertyOp11
 70
     1
102
RTVSPropertyOp12
 70
     1
102
RTVSPropertyOp13
 70
     1
102
RTVSPropertyOp14
 70
     1
102
RTVSPropertyOp15
 70
     1
102
RTVSPropertyOp16
 70
     1
102
RTVSPropertyOp17
 70
     1
102
RTVSPropertyOp18
 70
     1
102
RTVSPropertyOp19
 70
     1
102
RTVSPropertyOp20
 70
     1
102
RTVSPropertyOp21
 70
     1
102
RTVSPropertyOp22
 70
     1
102
RTVSPropertyOp23
 70
     1
102
RTVSPropertyOp24
 70
     1
102
RTVSPropertyOp25
 70
     1
102
RTVSPropertyOp26
 70
     1
102
RTVSPropertyOp27
 70
     1
102
RTVSPropertyOp28
 70
     1
102
RTVSPropertyOp29
 70
     1
102
RTVSPropertyOp30
 70
     1
102
RTVSPropertyOp31
 70
     1
102
RTVSPropertyOp32
 70
     1
  0
XRECORD
  5
20D3
102
{ACAD_REACTORS
330
20D2
102
}
330
20D2
100
AcDbXrecord
280
     1
102
RTVSPropertyOp0
 70
     1
102
RTVSPropertyOp1
 70
     1
102
RTVSPropertyOp2
 70
     1
102
RTVSPropertyOp3
 70
     1
102
RTVSPropertyOp4
 70
     1
102
RTVSPropertyOp5
 70
     1
102
RTVSPropertyOp6
 70
     1
102
RTVSPropertyOp7
 70
     1
102
RTVSPropertyOp8
 70
     1
102
RTVSPropertyOp9
 70
     1
102
RTVSPropertyOp10
 70
     1
102
RTVSPropertyOp11
 70
     1
102
RTVSPropertyOp12
 70
     1
102
RTVSPropertyOp13
 70
     1
102
RTVSPropertyOp14
 70
     1
102
RTVSPropertyOp15
 70
     1
102
RTVSPropertyOp16
 70
     1
102
RTVSPropertyOp17
 70
     1
102
RTVSPropertyOp18
 70
     1
102
RTVSPropertyOp19
 70
     1
102
RTVSPropertyOp20
 70
     1
102
RTVSPropertyOp21
 70
     1
102
RTVSPropertyOp22
 70
     1
102
RTVSPropertyOp23
 70
     1
102
RTVSPropertyOp24
 70
     1
102
RTVSPropertyOp25
 70
     1
102
RTVSPropertyOp26
 70
     1
102
RTVSPropertyOp27
 70
     1
102
RTVSPropertyOp28
 70
     1
102
RTVSPropertyOp29
 70
     1
102
RTVSPropertyOp30
 70
     1
102
RTVSPropertyOp31
 70
     1
102
RTVSPropertyOp32
 70
     1
  0
XRECORD
  5
20F4
102
{ACAD_REACTORS
330
20F3
102
}
330
20F3
100
AcDbXrecord
280
     1
102
RTVSPropertyOp0
 70
     1
102
RTVSPropertyOp1
 70
     1
102
RTVSPropertyOp2
 70
     1
102
RTVSPropertyOp3
 70
     1
102
RTVSPropertyOp4
 70
     1
102
RTVSPropertyOp5
 70
     1
102
RTVSPropertyOp6
 70
     1
102
RTVSPropertyOp7
 70
     1
102
RTVSPropertyOp8
 70
     1
102
RTVSPropertyOp9
 70
     1
102
RTVSPropertyOp10
 70
     1
102
RTVSPropertyOp11
 70
     1
102
RTVSPropertyOp12
 70
     1
102
RTVSPropertyOp13
 70
     1
102
RTVSPropertyOp14
 70
     1
102
RTVSPropertyOp15
 70
     1
102
RTVSPropertyOp16
 70
     1
102
RTVSPropertyOp17
 70
     1
102
RTVSPropertyOp18
 70
     1
102
RTVSPropertyOp19
 70
     1
102
RTVSPropertyOp20
 70
     1
102
RTVSPropertyOp21
 70
     1
102
RTVSPropertyOp22
 70
     1
102
RTVSPropertyOp23
 70
     1
102
RTVSPropertyOp24
 70
     1
102
RTVSPropertyOp25
 70
     1
102
RTVSPropertyOp26
 70
     1
102
RTVSPropertyOp27
 70
     1
102
RTVSPropertyOp28
 70
     1
102
RTVSPropertyOp29
 70
     1
102
RTVSPropertyOp30
 70
     1
102
RTVSPropertyOp31
 70
     1
102
RTVSPropertyOp32
 70
     1
  0
XRECORD
  5
2100
102
{ACAD_REACTORS
330
20FF
102
}
330
20FF
100
AcDbXrecord
280
     1
102
RTVSPropertyOp0
 70
     0
102
RTVSPropertyOp1
 70
     0
102
RTVSPropertyOp2
 70
     0
102
RTVSPropertyOp3
 70
     0
102
RTVSPropertyOp4
 70
     0
102
RTVSPropertyOp5
 70
     0
102
RTVSPropertyOp6
 70
     0
102
RTVSPropertyOp7
 70
     0
102
RTVSPropertyOp8
 70
     0
102
RTVSPropertyOp9
 70
     0
102
RTVSPropertyOp10
 70
     0
102
RTVSPropertyOp11
 70
     0
102
RTVSPropertyOp12
 70
     0
102
RTVSPropertyOp13
 70
     0
102
RTVSPropertyOp14
 70
     2
102
RTVSPropertyOp15
 70
     0
102
RTVSPropertyOp16
 70
     0
102
RTVSPropertyOp17
 70
     0
102
RTVSPropertyOp18
 70
     0
102
RTVSPropertyOp19
 70
     0
102
RTVSPropertyOp20
 70
     0
102
RTVSPropertyOp21
 70
     0
102
RTVSPropertyOp22
 70
     0
102
RTVSPropertyOp23
 70
     0
102
RTVSPropertyOp24
 70
     0
102
RTVSPropertyOp25
 70
     0
102
RTVSPropertyOp26
 70
     0
102
RTVSPropertyOp27
 70
     0
102
RTVSPropertyOp28
 70
     0
102
RTVSPropertyOp29
 70
     0
102
RTVSPropertyOp30
 70
     0
102
RTVSPropertyOp31
 70
     0
102
RTVSPropertyOp32
 70
     0
  0
XRECORD
  5
20E7
102
{ACAD_REACTORS
330
20E6
102
}
330
20E6
100
AcDbXrecord
280
     1
102
RTVSPropertyOp0
 70
     1
102
RTVSPropertyOp1
 70
     1
102
RTVSPropertyOp2
 70
     1
102
RTVSPropertyOp3
 70
     1
102
RTVSPropertyOp4
 70
     1
102
RTVSPropertyOp5
 70
     1
102
RTVSPropertyOp6
 70
     1
102
RTVSPropertyOp7
 70
     1
102
RTVSPropertyOp8
 70
     1
102
RTVSPropertyOp9
 70
     1
102
RTVSPropertyOp10
 70
     1
102
RTVSPropertyOp11
 70
     1
102
RTVSPropertyOp12
 70
     1
102
RTVSPropertyOp13
 70
     1
102
RTVSPropertyOp14
 70
     1
102
RTVSPropertyOp15
 70
     1
102
RTVSPropertyOp16
 70
     1
102
RTVSPropertyOp17
 70
     1
102
RTVSPropertyOp18
 70
     1
102
RTVSPropertyOp19
 70
     1
102
RTVSPropertyOp20
 70
     1
102
RTVSPropertyOp21
 70
     1
102
RTVSPropertyOp22
 70
     1
102
RTVSPropertyOp23
 70
     1
102
RTVSPropertyOp24
 70
     1
102
RTVSPropertyOp25
 70
     1
102
RTVSPropertyOp26
 70
     1
102
RTVSPropertyOp27
 70
     1
102
RTVSPropertyOp28
 70
     1
102
RTVSPropertyOp29
 70
     1
102
RTVSPropertyOp30
 70
     1
102
RTVSPropertyOp31
 70
     1
102
RTVSPropertyOp32
 70
     1
  0
XRECORD
  5
2102
102
{ACAD_REACTORS
330
2101
102
}
330
2101
100
AcDbXrecord
280
     1
102
RTVSPropertyOp0
 70
     0
102
RTVSPropertyOp1
 70
     0
102
RTVSPropertyOp2
 70
     0
102
RTVSPropertyOp3
 70
     0
102
RTVSPropertyOp4
 70
     0
102
RTVSPropertyOp5
 70
     0
102
RTVSPropertyOp6
 70
     0
102
RTVSPropertyOp7
 70
     0
102
RTVSPropertyOp8
 70
     0
102
RTVSPropertyOp9
 70
     0
102
RTVSPropertyOp10
 70
     0
102
RTVSPropertyOp11
 70
     0
102
RTVSPropertyOp12
 70
     0
102
RTVSPropertyOp13
 70
     0
102
RTVSPropertyOp14
 70
     2
102
RTVSPropertyOp15
 70
     0
102
RTVSPropertyOp16
 70
     0
102
RTVSPropertyOp17
 70
     0
102
RTVSPropertyOp18
 70
     0
102
RTVSPropertyOp19
 70
     0
102
RTVSPropertyOp20
 70
     0
102
RTVSPropertyOp21
 70
     0
102
RTVSPropertyOp22
 70
     0
102
RTVSPropertyOp23
 70
     0
102
RTVSPropertyOp24
 70
     0
102
RTVSPropertyOp25
 70
     0
102
RTVSPropertyOp26
 70
     0
102
RTVSPropertyOp27
 70
     0
102
RTVSPropertyOp28
 70
     0
102
RTVSPropertyOp29
 70
     0
102
RTVSPropertyOp30
 70
     0
102
RTVSPropertyOp31
 70
     0
102
RTVSPropertyOp32
 70
     0
  0
XRECORD
  5
20DF
102
{ACAD_REACTORS
330
20DE
102
}
330
20DE
100
AcDbXrecord
280
     1
102
RTVSPropertyOp0
 70
     1
102
RTVSPropertyOp1
 70
     1
102
RTVSPropertyOp2
 70
     1
102
RTVSPropertyOp3
 70
     1
102
RTVSPropertyOp4
 70
     1
102
RTVSPropertyOp5
 70
     1
102
RTVSPropertyOp6
 70
     1
102
RTVSPropertyOp7
 70
     1
102
RTVSPropertyOp8
 70
     1
102
RTVSPropertyOp9
 70
     1
102
RTVSPropertyOp10
 70
     1
102
RTVSPropertyOp11
 70
     1
102
RTVSPropertyOp12
 70
     1
102
RTVSPropertyOp13
 70
     1
102
RTVSPropertyOp14
 70
     1
102
RTVSPropertyOp15
 70
     1
102
RTVSPropertyOp16
 70
     1
102
RTVSPropertyOp17
 70
     1
102
RTVSPropertyOp18
 70
     1
102
RTVSPropertyOp19
 70
     1
102
RTVSPropertyOp20
 70
     1
102
RTVSPropertyOp21
 70
     1
102
RTVSPropertyOp22
 70
     1
102
RTVSPropertyOp23
 70
     1
102
RTVSPropertyOp24
 70
     1
102
RTVSPropertyOp25
 70
     1
102
RTVSPropertyOp26
 70
     1
102
RTVSPropertyOp27
 70
     1
102
RTVSPropertyOp28
 70
     1
102
RTVSPropertyOp29
 70
     1
102
RTVSPropertyOp30
 70
     1
102
RTVSPropertyOp31
 70
     1
102
RTVSPropertyOp32
 70
     1
  0
XRECORD
  5
20FE
102
{ACAD_REACTORS
330
20FD
102
}
330
20FD
100
AcDbXrecord
280
     1
102
RTVSPropertyOp0
 70
     1
102
RTVSPropertyOp1
 70
     1
102
RTVSPropertyOp2
 70
     1
102
RTVSPropertyOp3
 70
     1
102
RTVSPropertyOp4
 70
     1
102
RTVSPropertyOp5
 70
     1
102
RTVSPropertyOp6
 70
     1
102
RTVSPropertyOp7
 70
     1
102
RTVSPropertyOp8
 70
     1
102
RTVSPropertyOp9
 70
     1
102
RTVSPropertyOp10
 70
     1
102
RTVSPropertyOp11
 70
     1
102
RTVSPropertyOp12
 70
     1
102
RTVSPropertyOp13
 70
     1
102
RTVSPropertyOp14
 70
     1
102
RTVSPropertyOp15
 70
     1
102
RTVSPropertyOp16
 70
     1
102
RTVSPropertyOp17
 70
     1
102
RTVSPropertyOp18
 70
     1
102
RTVSPropertyOp19
 70
     1
102
RTVSPropertyOp20
 70
     1
102
RTVSPropertyOp21
 70
     1
102
RTVSPropertyOp22
 70
     1
102
RTVSPropertyOp23
 70
     1
102
RTVSPropertyOp24
 70
     1
102
RTVSPropertyOp25
 70
     1
102
RTVSPropertyOp26
 70
     1
102
RTVSPropertyOp27
 70
     1
102
RTVSPropertyOp28
 70
     1
102
RTVSPropertyOp29
 70
     1
102
RTVSPropertyOp30
 70
     1
102
RTVSPropertyOp31
 70
     1
102
RTVSPropertyOp32
 70
     1
  0
XRECORD
  5
20FC
102
{ACAD_REACTORS
330
20FB
102
}
330
20FB
100
AcDbXrecord
280
     1
102
RTVSPropertyOp0
 70
     1
102
RTVSPropertyOp1
 70
     1
102
RTVSPropertyOp2
 70
     1
102
RTVSPropertyOp3
 70
     1
102
RTVSPropertyOp4
 70
     1
102
RTVSPropertyOp5
 70
     1
102
RTVSPropertyOp6
 70
     1
102
RTVSPropertyOp7
 70
     1
102
RTVSPropertyOp8
 70
     1
102
RTVSPropertyOp9
 70
     1
102
RTVSPropertyOp10
 70
     1
102
RTVSPropertyOp11
 70
     1
102
RTVSPropertyOp12
 70
     1
102
RTVSPropertyOp13
 70
     1
102
RTVSPropertyOp14
 70
     1
102
RTVSPropertyOp15
 70
     1
102
RTVSPropertyOp16
 70
     1
102
RTVSPropertyOp17
 70
     1
102
RTVSPropertyOp18
 70
     1
102
RTVSPropertyOp19
 70
     1
102
RTVSPropertyOp20
 70
     1
102
RTVSPropertyOp21
 70
     1
102
RTVSPropertyOp22
 70
     1
102
RTVSPropertyOp23
 70
     1
102
RTVSPropertyOp24
 70
     1
102
RTVSPropertyOp25
 70
     1
102
RTVSPropertyOp26
 70
     1
102
RTVSPropertyOp27
 70
     1
102
RTVSPropertyOp28
 70
     1
102
RTVSPropertyOp29
 70
     1
102
RTVSPropertyOp30
 70
     1
102
RTVSPropertyOp31
 70
     1
102
RTVSPropertyOp32
 70
     1
  0
XRECORD
  5
20F6
102
{ACAD_REACTORS
330
20F5
102
}
330
20F5
100
AcDbXrecord
280
     1
102
RTVSPropertyOp0
 70
     1
102
RTVSPropertyOp1
 70
     1
102
RTVSPropertyOp2
 70
     1
102
RTVSPropertyOp3
 70
     1
102
RTVSPropertyOp4
 70
     1
102
RTVSPropertyOp5
 70
     1
102
RTVSPropertyOp6
 70
     1
102
RTVSPropertyOp7
 70
     1
102
RTVSPropertyOp8
 70
     1
102
RTVSPropertyOp9
 70
     1
102
RTVSPropertyOp10
 70
     1
102
RTVSPropertyOp11
 70
     1
102
RTVSPropertyOp12
 70
     1
102
RTVSPropertyOp13
 70
     1
102
RTVSPropertyOp14
 70
     1
102
RTVSPropertyOp15
 70
     1
102
RTVSPropertyOp16
 70
     1
102
RTVSPropertyOp17
 70
     1
102
RTVSPropertyOp18
 70
     1
102
RTVSPropertyOp19
 70
     1
102
RTVSPropertyOp20
 70
     1
102
RTVSPropertyOp21
 70
     1
102
RTVSPropertyOp22
 70
     1
102
RTVSPropertyOp23
 70
     1
102
RTVSPropertyOp24
 70
     1
102
RTVSPropertyOp25
 70
     1
102
RTVSPropertyOp26
 70
     1
102
RTVSPropertyOp27
 70
     1
102
RTVSPropertyOp28
 70
     1
102
RTVSPropertyOp29
 70
     1
102
RTVSPropertyOp30
 70
     1
102
RTVSPropertyOp31
 70
     1
102
RTVSPropertyOp32
 70
     1
  0
XRECORD
  5
20F8
102
{ACAD_REACTORS
330
20F7
102
}
330
20F7
100
AcDbXrecord
280
     1
102
RTVSPropertyOp0
 70
     1
102
RTVSPropertyOp1
 70
     1
102
RTVSPropertyOp2
 70
     1
102
RTVSPropertyOp3
 70
     1
102
RTVSPropertyOp4
 70
     1
102
RTVSPropertyOp5
 70
     1
102
RTVSPropertyOp6
 70
     1
102
RTVSPropertyOp7
 70
     1
102
RTVSPropertyOp8
 70
     1
102
RTVSPropertyOp9
 70
     1
102
RTVSPropertyOp10
 70
     1
102
RTVSPropertyOp11
 70
     1
102
RTVSPropertyOp12
 70
     1
102
RTVSPropertyOp13
 70
     1
102
RTVSPropertyOp14
 70
     1
102
RTVSPropertyOp15
 70
     1
102
RTVSPropertyOp16
 70
     1
102
RTVSPropertyOp17
 70
     1
102
RTVSPropertyOp18
 70
     1
102
RTVSPropertyOp19
 70
     1
102
RTVSPropertyOp20
 70
     1
102
RTVSPropertyOp21
 70
     1
102
RTVSPropertyOp22
 70
     1
102
RTVSPropertyOp23
 70
     1
102
RTVSPropertyOp24
 70
     1
102
RTVSPropertyOp25
 70
     1
102
RTVSPropertyOp26
 70
     1
102
RTVSPropertyOp27
 70
     1
102
RTVSPropertyOp28
 70
     1
102
RTVSPropertyOp29
 70
     1
102
RTVSPropertyOp30
 70
     1
102
RTVSPropertyOp31
 70
     1
102
RTVSPropertyOp32
 70
     1
  0
XRECORD
  5
20E5
102
{ACAD_REACTORS
330
20E4
102
}
330
20E4
100
AcDbXrecord
280
     1
102
RTVSPropertyOp0
 70
     1
102
RTVSPropertyOp1
 70
     1
102
RTVSPropertyOp2
 70
     1
102
RTVSPropertyOp3
 70
     1
102
RTVSPropertyOp4
 70
     1
102
RTVSPropertyOp5
 70
     1
102
RTVSPropertyOp6
 70
     1
102
RTVSPropertyOp7
 70
     1
102
RTVSPropertyOp8
 70
     1
102
RTVSPropertyOp9
 70
     1
102
RTVSPropertyOp10
 70
     1
102
RTVSPropertyOp11
 70
     1
102
RTVSPropertyOp12
 70
     1
102
RTVSPropertyOp13
 70
     1
102
RTVSPropertyOp14
 70
     1
102
RTVSPropertyOp15
 70
     1
102
RTVSPropertyOp16
 70
     1
102
RTVSPropertyOp17
 70
     1
102
RTVSPropertyOp18
 70
     1
102
RTVSPropertyOp19
 70
     1
102
RTVSPropertyOp20
 70
     1
102
RTVSPropertyOp21
 70
     1
102
RTVSPropertyOp22
 70
     1
102
RTVSPropertyOp23
 70
     1
102
RTVSPropertyOp24
 70
     1
102
RTVSPropertyOp25
 70
     1
102
RTVSPropertyOp26
 70
     1
102
RTVSPropertyOp27
 70
     1
102
RTVSPropertyOp28
 70
     1
102
RTVSPropertyOp29
 70
     1
102
RTVSPropertyOp30
 70
     1
102
RTVSPropertyOp31
 70
     1
102
RTVSPropertyOp32
 70
     1
  0
XRECORD
  5
20F2
102
{ACAD_REACTORS
330
20F1
102
}
330
20F1
100
AcDbXrecord
280
     1
102
RTVSPropertyOp0
 70
     1
102
RTVSPropertyOp1
 70
     1
102
RTVSPropertyOp2
 70
     1
102
RTVSPropertyOp3
 70
     1
102
RTVSPropertyOp4
 70
     1
102
RTVSPropertyOp5
 70
     1
102
RTVSPropertyOp6
 70
     1
102
RTVSPropertyOp7
 70
     1
102
RTVSPropertyOp8
 70
     1
102
RTVSPropertyOp9
 70
     1
102
RTVSPropertyOp10
 70
     1
102
RTVSPropertyOp11
 70
     1
102
RTVSPropertyOp12
 70
     1
102
RTVSPropertyOp13
 70
     1
102
RTVSPropertyOp14
 70
     1
102
RTVSPropertyOp15
 70
     1
102
RTVSPropertyOp16
 70
     1
102
RTVSPropertyOp17
 70
     1
102
RTVSPropertyOp18
 70
     1
102
RTVSPropertyOp19
 70
     1
102
RTVSPropertyOp20
 70
     1
102
RTVSPropertyOp21
 70
     1
102
RTVSPropertyOp22
 70
     1
102
RTVSPropertyOp23
 70
     1
102
RTVSPropertyOp24
 70
     1
102
RTVSPropertyOp25
 70
     1
102
RTVSPropertyOp26
 70
     1
102
RTVSPropertyOp27
 70
     1
102
RTVSPropertyOp28
 70
     1
102
RTVSPropertyOp29
 70
     1
102
RTVSPropertyOp30
 70
     1
102
RTVSPropertyOp31
 70
     1
102
RTVSPropertyOp32
 70
     1
  0
XRECORD
  5
20FA
102
{ACAD_REACTORS
330
20F9
102
}
330
20F9
100
AcDbXrecord
280
     1
102
RTVSPropertyOp0
 70
     1
102
RTVSPropertyOp1
 70
     1
102
RTVSPropertyOp2
 70
     1
102
RTVSPropertyOp3
 70
     1
102
RTVSPropertyOp4
 70
     1
102
RTVSPropertyOp5
 70
     1
102
RTVSPropertyOp6
 70
     1
102
RTVSPropertyOp7
 70
     1
102
RTVSPropertyOp8
 70
     1
102
RTVSPropertyOp9
 70
     1
102
RTVSPropertyOp10
 70
     1
102
RTVSPropertyOp11
 70
     1
102
RTVSPropertyOp12
 70
     1
102
RTVSPropertyOp13
 70
     1
102
RTVSPropertyOp14
 70
     1
102
RTVSPropertyOp15
 70
     1
102
RTVSPropertyOp16
 70
     1
102
RTVSPropertyOp17
 70
     1
102
RTVSPropertyOp18
 70
     1
102
RTVSPropertyOp19
 70
     1
102
RTVSPropertyOp20
 70
     1
102
RTVSPropertyOp21
 70
     1
102
RTVSPropertyOp22
 70
     1
102
RTVSPropertyOp23
 70
     1
102
RTVSPropertyOp24
 70
     1
102
RTVSPropertyOp25
 70
     1
102
RTVSPropertyOp26
 70
     1
102
RTVSPropertyOp27
 70
     1
102
RTVSPropertyOp28
 70
     1
102
RTVSPropertyOp29
 70
     1
102
RTVSPropertyOp30
 70
     1
102
RTVSPropertyOp31
 70
     1
102
RTVSPropertyOp32
 70
     1
  0
ENDSEC
  0
EOF
