  0
SECTION
  2
HEADER
  9
$ACADVER
  1
AC1015
  9
$ACADMAINTVER
 70
    20
  9
$DWGCODEPAGE
  3
ANSI_932
  9
$INSBASE
 10
0.0
 20
0.0
 30
0.0
  9
$EXTMIN
 10
-430.7174999999999
 20
-44.29125100000002
 30
0.0
  9
$EXTMAX
 10
479.720866498559
 20
369.2456256007162
 30
0.0
  9
$LIMMIN
 10
-430.718499
 20
-44.292252
  9
$LIMMAX
 10
-25.690641
 20
235.540383
  9
$ORTHOMODE
 70
     1
  9
$REGENMODE
 70
     1
  9
$FILLMODE
 70
     1
  9
$QTEXTMODE
 70
     0
  9
$MIRRTEXT
 70
     0
  9
$LTSCALE
 40
6.750430999999999
  9
$ATTMODE
 70
     1
  9
$TEXTSIZE
 40
3.2
  9
$TRACEWID
 40
0.05
  9
$TEXTSTYLE
  7
高3.2
  9
$CLAYER
  8
0
  9
$CELTYPE
  6
CONTINUOUS
  9
$CECOLOR
 62
   256
  9
$CELTSCALE
 40
1.0
  9
$DISPSILH
 70
     0
  9
$DIMSCALE
 40
1.0
  9
$DIMASZ
 40
2.5
  9
$DIMEXO
 40
0.25
  9
$DIMDLI
 40
0.2
  9
$DIMRND
 40
0.0
  9
$DIMDLE
 40
0.0
  9
$DIMEXE
 40
1.25
  9
$DIMTP
 40
0.0
  9
$DIMTM
 40
0.0
  9
$DIMTXT
 40
3.0
  9
$DIMCEN
 40
0.0
  9
$DIMTSZ
 40
0.0
  9
$DIMTOL
 70
     0
  9
$DIMLIM
 70
     0
  9
$DIMTIH
 70
     0
  9
$DIMTOH
 70
     0
  9
$DIMSE1
 70
     0
  9
$DIMSE2
 70
     0
  9
$DIMTAD
 70
     3
  9
$DIMZIN
 70
     8
  9
$DIMBLK
  1
Open30
  9
$DIMASO
 70
     1
  9
$DIMSHO
 70
     1
  9
$DIMPOST
  1

  9
$DIMAPOST
  1

  9
$DIMALT
 70
     0
  9
$DIMALTD
 70
     3
  9
$DIMALTF
 40
0.03937007874016
  9
$DIMLFAC
 40
1.0
  9
$DIMTOFL
 70
     1
  9
$DIMTVP
 40
0.0
  9
$DIMTIX
 70
     0
  9
$DIMSOXD
 70
     0
  9
$DIMSAH
 70
     0
  9
$DIMBLK1
  1

  9
$DIMBLK2
  1

  9
$DIMSTYLE
  2
FREE
  9
$DIMCLRD
 70
     0
  9
$DIMCLRE
 70
     0
  9
$DIMCLRT
 70
     4
  9
$DIMTFAC
 40
1.0
  9
$DIMGAP
 40
0.625
  9
$DIMJUST
 70
     0
  9
$DIMSD1
 70
     0
  9
$DIMSD2
 70
     0
  9
$DIMTOLJ
 70
     0
  9
$DIMTZIN
 70
     8
  9
$DIMALTZ
 70
     0
  9
$DIMALTTZ
 70
     0
  9
$DIMUPT
 70
     1
  9
$DIMDEC
 70
     2
  9
$DIMTDEC
 70
     2
  9
$DIMALTU
 70
     2
  9
$DIMALTTD
 70
     3
  9
$DIMTXSTY
  7
STANDARD
  9
$DIMAUNIT
 70
     0
  9
$DIMADEC
 70
     1
  9
$DIMALTRND
 40
0.0
  9
$DIMAZIN
 70
     2
  9
$DIMDSEP
 70
    46
  9
$DIMATFIT
 70
     0
  9
$DIMFRAC
 70
     0
  9
$DIMLDRBLK
  1
Open30
  9
$DIMLUNIT
 70
     2
  9
$DIMLWD
 70
    -2
  9
$DIMLWE
 70
    -2
  9
$DIMTMOVE
 70
     0
  9
$LUNITS
 70
     2
  9
$LUPREC
 70
     4
  9
$SKETCHINC
 40
0.1
  9
$FILLETRAD
 40
0.0
  9
$AUNITS
 70
     0
  9
$AUPREC
 70
     0
  9
$MENU
  1
.
  9
$ELEVATION
 40
0.0
  9
$PELEVATION
 40
0.0
  9
$THICKNESS
 40
0.0
  9
$LIMCHECK
 70
     0
  9
$CHAMFERA
 40
0.0
  9
$CHAMFERB
 40
0.0
  9
$CHAMFERC
 40
0.0
  9
$CHAMFERD
 40
0.0
  9
$SKPOLY
 70
     0
  9
$TDCREATE
 40
2456829.440370937
  9
$TDUCREATE
 40
2456829.065370937
  9
$TDUPDATE
 40
2456829.475264097
  9
$TDUUPDATE
 40
2456829.100264097
  9
$TDINDWG
 40
0.0348935185
  9
$TDUSRTIMER
 40
0.0348935185
  9
$USRTIMER
 70
     1
  9
$ANGBASE
 50
0.0
  9
$ANGDIR
 70
     0
  9
$PDMODE
 70
     0
  9
$PDSIZE
 40
0.0
  9
$PLINEWID
 40
0.0
  9
$SPLFRAME
 70
     0
  9
$SPLINETYPE
 70
     6
  9
$SPLINESEGS
 70
     8
  9
$HANDSEED
  5
F30
  9
$SURFTAB1
 70
     6
  9
$SURFTAB2
 70
     6
  9
$SURFTYPE
 70
     6
  9
$SURFU
 70
     6
  9
$SURFV
 70
     6
  9
$UCSBASE
  2

  9
$UCSNAME
  2

  9
$UCSORG
 10
0.0
 20
0.0
 30
0.0
  9
$UCSXDIR
 10
1.0
 20
0.0
 30
0.0
  9
$UCSYDIR
 10
0.0
 20
1.0
 30
0.0
  9
$UCSORTHOREF
  2

  9
$UCSORTHOVIEW
 70
     0
  9
$UCSORGTOP
 10
0.0
 20
0.0
 30
0.0
  9
$UCSORGBOTTOM
 10
0.0
 20
0.0
 30
0.0
  9
$UCSORGLEFT
 10
0.0
 20
0.0
 30
0.0
  9
$UCSORGRIGHT
 10
0.0
 20
0.0
 30
0.0
  9
$UCSORGFRONT
 10
0.0
 20
0.0
 30
0.0
  9
$UCSORGBACK
 10
0.0
 20
0.0
 30
0.0
  9
$PUCSBASE
  2

  9
$PUCSNAME
  2

  9
$PUCSORG
 10
0.0
 20
0.0
 30
0.0
  9
$PUCSXDIR
 10
1.0
 20
0.0
 30
0.0
  9
$PUCSYDIR
 10
0.0
 20
1.0
 30
0.0
  9
$PUCSORTHOREF
  2

  9
$PUCSORTHOVIEW
 70
     0
  9
$PUCSORGTOP
 10
0.0
 20
0.0
 30
0.0
  9
$PUCSORGBOTTOM
 10
0.0
 20
0.0
 30
0.0
  9
$PUCSORGLEFT
 10
0.0
 20
0.0
 30
0.0
  9
$PUCSORGRIGHT
 10
0.0
 20
0.0
 30
0.0
  9
$PUCSORGFRONT
 10
0.0
 20
0.0
 30
0.0
  9
$PUCSORGBACK
 10
0.0
 20
0.0
 30
0.0
  9
$USERI1
 70
     0
  9
$USERI2
 70
     0
  9
$USERI3
 70
     0
  9
$USERI4
 70
     0
  9
$USERI5
 70
     0
  9
$USERR1
 40
0.0
  9
$USERR2
 40
0.0
  9
$USERR3
 40
0.0
  9
$USERR4
 40
0.0
  9
$USERR5
 40
0.0
  9
$WORLDVIEW
 70
     1
  9
$SHADEDGE
 70
     3
  9
$SHADEDIF
 70
    70
  9
$TILEMODE
 70
     1
  9
$MAXACTVP
 70
    64
  9
$PINSBASE
 10
0.0
 20
0.0
 30
0.0
  9
$PLIMCHECK
 70
     0
  9
$PEXTMIN
 10
1.000000000000000E+20
 20
1.000000000000000E+20
 30
1.000000000000000E+20
  9
$PEXTMAX
 10
-1.000000000000000E+20
 20
-1.000000000000000E+20
 30
-1.000000000000000E+20
  9
$PLIMMIN
 10
0.0
 20
0.0
  9
$PLIMMAX
 10
12.0
 20
9.0
  9
$UNITMODE
 70
     0
  9
$VISRETAIN
 70
     1
  9
$PLINEGEN
 70
     0
  9
$PSLTSCALE
 70
     1
  9
$TREEDEPTH
 70
  3020
  9
$CMLSTYLE
  2
Standard
  9
$CMLJUST
 70
     0
  9
$CMLSCALE
 40
1.0
  9
$PROXYGRAPHICS
 70
     1
  9
$MEASUREMENT
 70
     0
  9
$CELWEIGHT
370
    -1
  9
$ENDCAPS
280
     0
  9
$JOINSTYLE
280
     0
  9
$LWDISPLAY
290
     0
  9
$INSUNITS
 70
     0
  9
$HYPERLINKBASE
  1

  9
$STYLESHEET
  1

  9
$XEDIT
290
     1
  9
$CEPSNTYPE
380
     0
  9
$PSTYLEMODE
290
     1
  9
$FINGERPRINTGUID
  2
{B2D8C6AB-6FC5-4AE2-BECE-95D88013E032}
  9
$VERSIONGUID
  2
{C38EEF02-9A8E-47C5-AEC4-1D86EFCB6E3A}
  9
$EXTNAMES
290
     1
  9
$PSVPSCALE
 40
0.0
  9
$OLESTARTUP
290
     0
  0
ENDSEC
  0
SECTION
  2
CLASSES
  0
CLASS
  1
ACDBDICTIONARYWDFLT
  2
AcDbDictionaryWithDefault
  3
ObjectDBX Classes
 90
        0
280
     0
281
     0
  0
CLASS
  1
MATERIAL
  2
AcDbMaterial
  3
ObjectDBX Classes
 90
     1153
280
     0
281
     0
  0
CLASS
  1
VISUALSTYLE
  2
AcDbVisualStyle
  3
ObjectDBX Classes
 90
     4095
280
     0
281
     0
  0
CLASS
  1
SCALE
  2
AcDbScale
  3
ObjectDBX Classes
 90
     1153
280
     0
281
     0
  0
CLASS
  1
TABLESTYLE
  2
AcDbTableStyle
  3
ObjectDBX Classes
 90
     4095
280
     0
281
     0
  0
CLASS
  1
MLEADERSTYLE
  2
AcDbMLeaderStyle
  3
ACDB_MLEADERSTYLE_CLASS
 90
     4095
280
     0
281
     0
  0
CLASS
  1
SORTENTSTABLE
  2
AcDbSortentsTable
  3
ObjectDBX Classes
 90
        0
280
     0
281
     0
  0
CLASS
  1
DICTIONARYVAR
  2
AcDbDictionaryVar
  3
ObjectDBX Classes
 90
        0
280
     0
281
     0
  0
CLASS
  1
CELLSTYLEMAP
  2
AcDbCellStyleMap
  3
ObjectDBX Classes
 90
     1152
280
     0
281
     0
  0
CLASS
  1
ACDBPLACEHOLDER
  2
AcDbPlaceHolder
  3
ObjectDBX Classes
 90
        0
280
     0
281
     0
  0
CLASS
  1
LAYOUT
  2
AcDbLayout
  3
ObjectDBX Classes
 90
        0
280
     0
281
     0
  0
ENDSEC
  0
SECTION
  2
TABLES
  0
TABLE
  2
VPORT
  5
8
330
0
100
AcDbSymbolTable
 70
     1
  0
VPORT
  5
8B
330
8
100
AcDbSymbolTableRecord
100
AcDbViewportTableRecord
  2
*Active
 70
     0
 10
0.0
 20
0.0
 11
1.0
 21
1.0
 12
-140.97041322535
 22
25.81593338812218
 13
0.0
 23
0.0
 14
1.0
 24
1.0
 15
0.0
 25
0.0
 16
0.0
 26
0.0
 36
1.0
 17
0.0
 27
0.0
 37
0.0
 40
553.9229526883973
 41
1.673728813559321
 42
50.0
 43
0.0
 44
0.0
 50
0.0
 51
0.0
 71
     0
 72
   100
 73
     1
 74
     1
 75
     0
 76
     0
 77
     0
 78
     0
281
     0
 65
     1
110
0.0
120
0.0
130
0.0
111
1.0
121
0.0
131
0.0
112
0.0
122
1.0
132
0.0
 79
     0
146
0.0
  0
ENDTAB
  0
TABLE
  2
LTYPE
  5
5
330
0
100
AcDbSymbolTable
 70
    26
  0
LTYPE
  5
5A
330
5
100
AcDbSymbolTableRecord
100
AcDbLinetypeTableRecord
  2
ByBlock
 70
     0
  3

 72
    65
 73
     0
 40
0.0
  0
LTYPE
  5
5B
330
5
100
AcDbSymbolTableRecord
100
AcDbLinetypeTableRecord
  2
ByLayer
 70
     0
  3

 72
    65
 73
     0
 40
0.0
  0
LTYPE
  5
5C
330
5
100
AcDbSymbolTableRecord
100
AcDbLinetypeTableRecord
  2
CONTINUOUS
 70
     0
  3
Solid-line
 72
    65
 73
     0
 40
0.0
  0
ENDTAB
  0
TABLE
  2
LAYER
  5
2
102
{ACAD_XDICTIONARY
360
4DD
102
}
330
0
100
AcDbSymbolTable
 70
     3
  0
LAYER
  5
54
102
{ACAD_XDICTIONARY
360
DE0
102
}
330
2
100
AcDbSymbolTableRecord
100
AcDbLayerTableRecord
  2
0
 70
     0
 62
     7
  6
CONTINUOUS
370
    -3
390
F
  0
LAYER
  5
B23
330
2
100
AcDbSymbolTableRecord
100
AcDbLayerTableRecord
  2
Defpoints
 70
     0
 62
     7
  6
CONTINUOUS
290
     0
370
    -3
390
F
  0
ENDTAB
  0
TABLE
  2
STYLE
  5
3
330
0
100
AcDbSymbolTable
 70
     8
  0
STYLE
  5
55
330
3
100
AcDbSymbolTableRecord
100
AcDbTextStyleTableRecord
  2
STANDARD
 70
     0
 40
0.0
 41
1.0
 50
0.0
 71
     0
 42
0.2
  3
TXT
  4
BIGFONT
  0
STYLE
  5
4D6
330
3
100
AcDbSymbolTableRecord
100
AcDbTextStyleTableRecord
  2
高3.2
 70
     0
 40
3.2
 41
1.0
 50
0.0
 71
     0
 42
3.2
  3
txt.shx
  4
bigfont.shx
  0
STYLE
  5
B24
330
3
100
AcDbSymbolTableRecord
100
AcDbTextStyleTableRecord
  2
高6.3
 70
     0
 40
6.299999999999999
 41
1.0
 50
0.0
 71
     0
 42
6.299999999999999
  3
txt.shx
  4
bigfont.shx
  0
STYLE
  5
B25
330
3
100
AcDbSymbolTableRecord
100
AcDbTextStyleTableRecord
  2
高2.5
 70
     0
 40
2.5
 41
1.0
 50
0.0
 71
     0
 42
0.2
  3
txt.shx
  4
bigfont.shx
  0
STYLE
  5
B26
330
3
100
AcDbSymbolTableRecord
100
AcDbTextStyleTableRecord
  2
高4.5
 70
     0
 40
4.5
 41
1.0
 50
0.0
 71
     0
 42
6.299999999999999
  3
txt.shx
  4
bigfont.shx
  0
STYLE
  5
B27
330
3
100
AcDbSymbolTableRecord
100
AcDbTextStyleTableRecord
  2
高2
 70
     0
 40
2.0
 41
1.0
 50
0.0
 71
     0
 42
2.0
  3
txt.shx
  4
bigfont.shx
  0
ENDTAB
  0
TABLE
  2
VIEW
  5
6
330
0
100
AcDbSymbolTable
 70
     0
  0
ENDTAB
  0
TABLE
  2
UCS
  5
7
330
0
100
AcDbSymbolTable
 70
     0
  0
ENDTAB
  0
TABLE
  2
APPID
  5
9
330
0
100
AcDbSymbolTable
 70
    10
  0
APPID
  5
56
330
9
100
AcDbSymbolTableRecord
100
AcDbRegAppTableRecord
  2
ACAD
 70
     0
  0
APPID
  5
5D
330
9
100
AcDbSymbolTableRecord
100
AcDbRegAppTableRecord
  2
AcadAnnotative
 70
     0
  0
APPID
  5
4DC
330
9
100
AcDbSymbolTableRecord
100
AcDbRegAppTableRecord
  2
ACAD_DSTYLE_DIMJOGGED_JOGANGLE_SYMBOL
 70
     0
  0
APPID
  5
B2D
330
9
100
AcDbSymbolTableRecord
100
AcDbRegAppTableRecord
  2
ACAD_DSTYLE_DIMJAG
 70
     0
  0
APPID
  5
B2E
330
9
100
AcDbSymbolTableRecord
100
AcDbRegAppTableRecord
  2
ACAD_DSTYLE_DIMBREAK
 70
     0
  0
APPID
  5
B2F
330
9
100
AcDbSymbolTableRecord
100
AcDbRegAppTableRecord
  2
ACAD_DSTYLE_DIMTALN
 70
     0
  0
APPID
  5
C8B
330
9
100
AcDbSymbolTableRecord
100
AcDbRegAppTableRecord
  2
ACAD_EXEMPT_FROM_CAD_STANDARDS
 70
     0
  0
APPID
  5
F27
330
9
100
AcDbSymbolTableRecord
100
AcDbRegAppTableRecord
  2
ACAD_MLEADERVER
 70
     0
  0
APPID
  5
F2C
330
9
100
AcDbSymbolTableRecord
100
AcDbRegAppTableRecord
  2
ACAD_DSTYLE_DIMARC_LENGTH_SYMBOL
 70
     0
  0
APPID
  5
F2D
330
9
100
AcDbSymbolTableRecord
100
AcDbRegAppTableRecord
  2
ACAD_DSTYLE_DIMEXT_LENGTH
 70
     0
  0
ENDTAB
  0
TABLE
  2
DIMSTYLE
  5
A
330
0
100
AcDbSymbolTable
 70
    12
100
AcDbDimStyleTable
 71
     1
340
B29
  0
DIMSTYLE
105
57
330
A
100
AcDbSymbolTableRecord
100
AcDbDimStyleTableRecord
  2
Standard
 70
     0
340
55
  0
DIMSTYLE
105
4D7
330
A
100
AcDbSymbolTableRecord
100
AcDbDimStyleTableRecord
  2
1：1
 70
     0
 41
2.5
 42
0.25
 43
0.2
 44
1.25
 73
     0
 74
     0
 77
     3
 78
     8
 79
     2
140
3.0
141
0.0
143
0.03937007874016
147
0.625
171
     3
172
     1
178
     4
179
     1
271
     2
272
     2
274
     3
283
     0
284
     8
288
     1
289
     0
340
55
341
4D0
342
4D0
1001
ACAD_DSTYLE_DIMARC_LENGTH_SYMBOL
1070
   379
1070
     2
1001
ACAD_DSTYLE_DIMEXT_LENGTH
1070
   378
1040
1.25
1001
ACAD_DSTYLE_DIMJOGGED_JOGANGLE_SYMBOL
1070
   384
1040
1.570796326794896
  0
DIMSTYLE
105
4D8
330
A
100
AcDbSymbolTableRecord
100
AcDbDimStyleTableRecord
  2
2：1
 70
     0
 41
2.5
 42
0.25
 43
0.2
 44
1.25
 73
     0
 74
     0
 77
     3
 78
     8
 79
     2
140
3.0
141
0.0
143
0.03937007874016
144
0.5
147
0.625
171
     3
172
     1
178
     4
179
     1
271
     2
272
     2
274
     3
283
     0
284
     8
288
     1
289
     0
340
55
341
4D0
342
4D0
1001
ACAD_DSTYLE_DIMARC_LENGTH_SYMBOL
1070
   379
1070
     2
1001
ACAD_DSTYLE_DIMEXT_LENGTH
1070
   378
1040
1.25
1001
ACAD_DSTYLE_DIMJOGGED_JOGANGLE_SYMBOL
1070
   384
1040
1.570796326794896
  0
DIMSTYLE
105
4D9
330
A
100
AcDbSymbolTableRecord
100
AcDbDimStyleTableRecord
  2
5：1
 70
     0
 41
2.5
 42
0.25
 43
0.2
 44
1.25
 73
     0
 74
     0
 77
     3
 78
     8
 79
     2
140
3.0
141
0.0
143
0.03937007874016
144
0.2
147
0.625
171
     3
172
     1
178
     4
179
     1
271
     2
272
     2
274
     3
283
     0
284
     8
288
     1
289
     0
340
55
341
4D0
342
4D0
1001
ACAD_DSTYLE_DIMARC_LENGTH_SYMBOL
1070
   379
1070
     2
1001
ACAD_DSTYLE_DIMEXT_LENGTH
1070
   378
1040
1.25
1001
ACAD_DSTYLE_DIMJOGGED_JOGANGLE_SYMBOL
1070
   384
1040
1.570796326794896
  0
DIMSTYLE
105
4DA
330
A
100
AcDbSymbolTableRecord
100
AcDbDimStyleTableRecord
  2
10：1
 70
     0
 41
2.5
 42
0.25
 43
0.2
 44
1.25
 73
     0
 74
     0
 77
     3
 78
     8
 79
     2
140
3.0
141
0.0
143
0.03937007874016
144
0.1
147
0.625
171
     3
172
     1
178
     4
179
     1
271
     2
272
     2
274
     3
283
     0
284
     8
288
     1
289
     0
340
55
341
4D0
342
4D0
1001
ACAD_DSTYLE_DIMARC_LENGTH_SYMBOL
1070
   379
1070
     2
1001
ACAD_DSTYLE_DIMEXT_LENGTH
1070
   378
1040
1.25
1001
ACAD_DSTYLE_DIMJOGGED_JOGANGLE_SYMBOL
1070
   384
1040
1.570796326794896
  0
DIMSTYLE
105
4DB
330
A
100
AcDbSymbolTableRecord
100
AcDbDimStyleTableRecord
  2
1／5
 70
     0
 41
2.5
 42
0.25
 43
0.2
 44
1.25
 73
     0
 74
     0
 77
     3
 78
     8
 79
     2
140
3.0
141
0.0
143
0.03937007874016
144
5.0
147
0.625
171
     3
172
     1
178
     4
179
     1
271
     2
272
     2
274
     3
283
     0
284
     8
288
     1
289
     0
340
55
341
4D0
342
4D0
1001
ACAD_DSTYLE_DIMARC_LENGTH_SYMBOL
1070
   379
1070
     2
1001
ACAD_DSTYLE_DIMEXT_LENGTH
1070
   378
1040
1.25
1001
ACAD_DSTYLE_DIMJOGGED_JOGANGLE_SYMBOL
1070
   384
1040
1.570796326794896
  0
DIMSTYLE
105
B28
102
{ACAD_REACTORS
330
B36
102
}
330
A
100
AcDbSymbolTableRecord
100
AcDbDimStyleTableRecord
  2
1／2
 70
     0
 41
2.5
 42
0.25
 43
0.2
 44
1.25
 73
     0
 74
     0
 77
     3
 78
     8
 79
     2
140
3.0
141
0.0
143
0.03937007874016
144
2.0
147
0.625
171
     3
172
     1
178
     4
179
     1
271
     2
272
     2
274
     3
283
     0
284
     8
288
     1
289
     0
340
55
341
4D0
342
4D0
1001
ACAD_DSTYLE_DIMARC_LENGTH_SYMBOL
1070
   379
1070
     2
1001
ACAD_DSTYLE_DIMEXT_LENGTH
1070
   378
1040
1.25
1001
ACAD_DSTYLE_DIMJOGGED_JOGANGLE_SYMBOL
1070
   384
1040
1.570796326794896
  0
DIMSTYLE
105
B29
102
{ACAD_REACTORS
330
B37
102
}
330
A
100
AcDbSymbolTableRecord
100
AcDbDimStyleTableRecord
  2
1／10
 70
     0
 41
2.5
 42
0.25
 43
0.2
 44
1.25
 73
     0
 74
     0
 77
     3
 78
     8
 79
     2
140
3.0
141
0.0
143
0.03937007874016
144
10.0
147
0.625
171
     3
172
     1
178
     4
179
     1
271
     2
272
     2
274
     3
283
     0
284
     8
288
     1
289
     0
340
55
341
4D0
342
4D0
1001
ACAD_DSTYLE_DIMARC_LENGTH_SYMBOL
1070
   379
1070
     2
1001
ACAD_DSTYLE_DIMEXT_LENGTH
1070
   378
1040
1.25
1001
ACAD_DSTYLE_DIMJOGGED_JOGANGLE_SYMBOL
1070
   384
1040
1.570796326794896
  0
DIMSTYLE
105
B2A
102
{ACAD_REACTORS
330
B3B
102
}
330
A
100
AcDbSymbolTableRecord
100
AcDbDimStyleTableRecord
  2
1／4
 70
     0
 41
2.5
 42
0.25
 43
0.2
 44
1.25
 73
     0
 74
     0
 77
     3
 78
     8
 79
     2
140
3.0
141
0.0
143
0.03937007874016
144
4.0
147
0.625
171
     3
172
     1
178
     4
179
     1
271
     2
272
     2
274
     3
283
     0
284
     8
288
     1
289
     0
340
55
341
4D0
342
4D0
1001
ACAD_DSTYLE_DIMARC_LENGTH_SYMBOL
1070
   379
1070
     2
1001
ACAD_DSTYLE_DIMEXT_LENGTH
1070
   378
1040
1.25
1001
ACAD_DSTYLE_DIMJOGGED_JOGANGLE_SYMBOL
1070
   384
1040
1.570796326794896
  0
DIMSTYLE
105
B2B
102
{ACAD_REACTORS
330
B3C
102
}
330
A
100
AcDbSymbolTableRecord
100
AcDbDimStyleTableRecord
  2
1／3
 70
     0
 41
2.5
 42
0.25
 43
0.2
 44
1.25
 73
     0
 74
     0
 77
     3
 78
     8
 79
     2
140
3.0
141
0.0
143
0.03937007874016
144
3.0
147
0.625
171
     3
172
     1
178
     4
179
     1
271
     2
272
     2
274
     3
283
     0
284
     8
288
     1
289
     0
340
55
341
4D0
342
4D0
1001
ACAD_DSTYLE_DIMARC_LENGTH_SYMBOL
1070
   379
1070
     2
1001
ACAD_DSTYLE_DIMEXT_LENGTH
1070
   378
1040
1.25
1001
ACAD_DSTYLE_DIMJOGGED_JOGANGLE_SYMBOL
1070
   384
1040
1.570796326794896
  0
DIMSTYLE
105
B2C
102
{ACAD_REACTORS
330
B3D
102
}
330
A
100
AcDbSymbolTableRecord
100
AcDbDimStyleTableRecord
  2
FREE
 70
     0
 41
2.5
 42
0.25
 43
0.2
 44
1.25
 73
     0
 74
     0
 77
     3
 78
     8
 79
     2
140
3.0
141
0.0
143
0.03937007874016
147
0.625
171
     3
172
     1
178
     4
179
     1
271
     2
272
     2
274
     3
283
     0
284
     8
288
     1
289
     0
340
55
341
4D0
342
4D0
1001
ACAD_DSTYLE_DIMBREAK
1070
   391
1040
3.75
1001
ACAD_DSTYLE_DIMJAG
1070
   388
1040
1.5
1001
ACAD_DSTYLE_DIMTALN
1070
   392
1070
     0
1001
ACAD_DSTYLE_DIMARC_LENGTH_SYMBOL
1070
   379
1070
     2
1001
ACAD_DSTYLE_DIMEXT_LENGTH
1070
   378
1040
1.25
1001
ACAD_DSTYLE_DIMJOGGED_JOGANGLE_SYMBOL
1070
   384
1040
1.570796326794896
  0
ENDTAB
  0
TABLE
  2
BLOCK_RECORD
  5
1
330
0
100
AcDbSymbolTable
 70
    37
  0
BLOCK_RECORD
  5
6B
102
{ACAD_XDICTIONARY
360
CFA
102
}
330
1
100
AcDbSymbolTableRecord
100
AcDbBlockTableRecord
  2
*Model_Space
340
6E
  0
BLOCK_RECORD
  5
67
330
1
100
AcDbSymbolTableRecord
100
AcDbBlockTableRecord
  2
*Paper_Space
340
6A
  0
BLOCK_RECORD
  5
4D0
330
1
100
AcDbSymbolTableRecord
100
AcDbBlockTableRecord
  2
_Open30
340
0
102
{BLKREFS
331
C0A
331
C0B
331
C15
331
C16
331
C20
331
C21
331
C2B
331
C2C
331
C36
331
C37
331
C41
331
C42
331
C4C
331
C4D
331
C57
331
C58
331
C62
331
C63
331
C6B
331
C6C
331
D94
331
D95
331
D9D
331
D9E
331
DA6
331
DA7
331
DAF
331
DB0
331
DB8
331
DB9
331
DC1
331
DC2
331
DCA
331
DCB
102
}
  0
BLOCK_RECORD
  5
B7B
330
1
100
AcDbSymbolTableRecord
100
AcDbBlockTableRecord
  2
*D20
340
0
  0
BLOCK_RECORD
  5
B89
330
1
100
AcDbSymbolTableRecord
100
AcDbBlockTableRecord
  2
*D21
340
0
  0
BLOCK_RECORD
  5
B97
330
1
100
AcDbSymbolTableRecord
100
AcDbBlockTableRecord
  2
*D22
340
0
  0
BLOCK_RECORD
  5
BA5
330
1
100
AcDbSymbolTableRecord
100
AcDbBlockTableRecord
  2
*D23
340
0
  0
BLOCK_RECORD
  5
BB3
330
1
100
AcDbSymbolTableRecord
100
AcDbBlockTableRecord
  2
*D24
340
0
  0
BLOCK_RECORD
  5
BC1
330
1
100
AcDbSymbolTableRecord
100
AcDbBlockTableRecord
  2
*D25
340
0
  0
BLOCK_RECORD
  5
BCF
330
1
100
AcDbSymbolTableRecord
100
AcDbBlockTableRecord
  2
*D26
340
0
  0
BLOCK_RECORD
  5
BDD
330
1
100
AcDbSymbolTableRecord
100
AcDbBlockTableRecord
  2
*D27
340
0
  0
BLOCK_RECORD
  5
BEB
330
1
100
AcDbSymbolTableRecord
100
AcDbBlockTableRecord
  2
*D28
340
0
  0
BLOCK_RECORD
  5
BF9
330
1
100
AcDbSymbolTableRecord
100
AcDbBlockTableRecord
  2
*D29
340
0
  0
BLOCK_RECORD
  5
C72
330
1
100
AcDbSymbolTableRecord
100
AcDbBlockTableRecord
  2
*D30
340
0
  0
BLOCK_RECORD
  5
C7F
330
1
100
AcDbSymbolTableRecord
100
AcDbBlockTableRecord
  2
*D31
340
0
  0
BLOCK_RECORD
  5
C97
330
1
100
AcDbSymbolTableRecord
100
AcDbBlockTableRecord
  2
*D32
340
0
  0
BLOCK_RECORD
  5
CB6
330
1
100
AcDbSymbolTableRecord
100
AcDbBlockTableRecord
  2
*D33
340
0
  0
BLOCK_RECORD
  5
CC3
330
1
100
AcDbSymbolTableRecord
100
AcDbBlockTableRecord
  2
*D34
340
0
  0
BLOCK_RECORD
  5
CD0
330
1
100
AcDbSymbolTableRecord
100
AcDbBlockTableRecord
  2
*D35
340
0
  0
BLOCK_RECORD
  5
D5E
330
1
100
AcDbSymbolTableRecord
100
AcDbBlockTableRecord
  2
*D36
340
0
  0
ENDTAB
  0
ENDSEC
  0
SECTION
  2
BLOCKS
  0
BLOCK
  5
6C
330
6B
100
AcDbEntity
  8
0
100
AcDbBlockBegin
  2
*Model_Space
 70
     0
 10
0.0
 20
0.0
 30
0.0
  3
*Model_Space
  1

  0
ENDBLK
  5
6D
330
6B
100
AcDbEntity
  8
0
100
AcDbBlockEnd
  0
BLOCK
  5
68
330
67
100
AcDbEntity
 67
     1
  8
0
100
AcDbBlockBegin
  2
*Paper_Space
 70
     0
 10
0.0
 20
0.0
 30
0.0
  3
*Paper_Space
  1

  0
ENDBLK
  5
69
330
67
100
AcDbEntity
 67
     1
  8
0
100
AcDbBlockEnd
  0
BLOCK
  5
4D1
330
4D0
100
AcDbEntity
  8
0
100
AcDbBlockBegin
  2
_Open30
 70
     0
 10
0.0
 20
0.0
 30
0.0
  3
_Open30
  1

  0
LINE
  5
4D2
330
4D0
100
AcDbEntity
  8
0
  6
ByBlock
 62
     0
370
    -2
100
AcDbLine
 10
-1.0
 20
0.267949
 30
0.0
 11
0.0
 21
0.0
 31
0.0
  0
LINE
  5
4D3
330
4D0
100
AcDbEntity
  8
0
  6
ByBlock
 62
     0
370
    -2
100
AcDbLine
 10
0.0
 20
0.0
 30
0.0
 11
-1.0
 21
-0.267949
 31
0.0
  0
LINE
  5
4D4
330
4D0
100
AcDbEntity
  8
0
  6
ByBlock
 62
     0
370
    -2
100
AcDbLine
 10
0.0
 20
0.0
 30
0.0
 11
-1.0
 21
0.0
 31
0.0
  0
ENDBLK
  5
4D5
330
4D0
100
AcDbEntity
  8
0
100
AcDbBlockEnd
  0
BLOCK
  5
B7C
330
B7B
100
AcDbEntity
  8
0
100
AcDbBlockBegin
  2
*D20
 70
     1
 10
0.0
 20
0.0
 30
0.0
  3
*D20
  1

  0
LINE
  5
C05
330
B7B
100
AcDbEntity
  8
0
 62
     0
370
    -2
100
AcDbLine
 10
446.5997239042465
 20
251.329499763823
 30
0.0
 11
446.5997239042465
 21
248.4198683418142
 31
0.0
  0
LINE
  5
C06
330
B7B
100
AcDbEntity
  8
0
 62
     0
370
    -2
100
AcDbLine
 10
444.1425368501263
 20
251.329499763823
 30
0.0
 11
444.1425368501263
 21
248.4198683418142
 31
0.0
  0
LINE
  5
C07
330
B7B
100
AcDbEntity
  8
0
 62
     0
370
    -2
100
AcDbLine
 10
449.0997239042465
 20
249.6698683418142
 30
0.0
 11
451.5997239042465
 21
249.6698683418142
 31
0.0
  0
LINE
  5
C08
330
B7B
100
AcDbEntity
  8
0
 62
     0
370
    -2
100
AcDbLine
 10
441.6425368501262
 20
249.6698683418142
 30
0.0
 11
428.8925368501262
 21
249.6698683418142
 31
0.0
  0
LINE
  5
C09
330
B7B
100
AcDbEntity
  8
0
 62
     0
370
    -2
100
AcDbLine
 10
446.5997239042465
 20
249.6698683418142
 30
0.0
 11
444.1425368501263
 21
249.6698683418142
 31
0.0
  0
INSERT
  5
C0A
330
B7B
100
AcDbEntity
  8
0
 62
     0
370
    -2
100
AcDbBlockReference
  2
_Open30
 10
446.5997239042465
 20
249.6698683418142
 30
0.0
 41
2.5
 42
2.5
 43
2.5
 50
180.0
  0
INSERT
  5
C0B
330
B7B
100
AcDbEntity
  8
0
 62
     0
370
    -2
100
AcDbBlockReference
  2
_Open30
 10
444.1425368501263
 20
249.6698683418142
 30
0.0
 41
2.5
 42
2.5
 43
2.5
  0
MTEXT
  5
C0C
330
B7B
100
AcDbEntity
  8
0
 62
     4
100
AcDbMText
 10
434.0175368501262
 20
251.7948683418142
 30
0.0
 40
3.0
 41
0.0
 71
     5
 72
     1
  1
2.46
 73
     1
 44
1.0
1001
ACAD
1000
MTEXTBEGIN
1070
    73
1070
     1
1070
    44
1040
1.0
1070
    74
1070
     0
1000
MTEXTEND
  0
POINT
  5
C0D
330
B7B
100
AcDbEntity
  8
Defpoints
 62
     0
100
AcDbPoint
 10
446.5997239042465
 20
251.579499763823
 30
0.0
  0
POINT
  5
C0E
330
B7B
100
AcDbEntity
  8
Defpoints
 62
     0
100
AcDbPoint
 10
444.1425368501263
 20
251.579499763823
 30
0.0
  0
POINT
  5
C0F
330
B7B
100
AcDbEntity
  8
Defpoints
 62
     0
100
AcDbPoint
 10
444.1425368501263
 20
249.6698683418142
 30
0.0
  0
ENDBLK
  5
B7D
330
B7B
100
AcDbEntity
  8
0
100
AcDbBlockEnd
  0
BLOCK
  5
B8A
330
B89
100
AcDbEntity
  8
0
100
AcDbBlockBegin
  2
*D21
 70
     1
 10
0.0
 20
0.0
 30
0.0
  3
*D21
  1

  0
LINE
  5
C10
330
B89
100
AcDbEntity
  8
0
 62
     0
370
    -2
100
AcDbLine
 10
448.2378488103197
 20
245.8734101910607
 30
0.0
 11
448.2378488103197
 21
243.3275181215973
 31
0.0
  0
LINE
  5
C11
330
B89
100
AcDbEntity
  8
0
 62
     0
370
    -2
100
AcDbLine
 10
445.1436130121768
 20
245.8734101910607
 30
0.0
 11
445.1436130121768
 21
243.3275181215973
 31
0.0
  0
LINE
  5
C12
330
B89
100
AcDbEntity
  8
0
 62
     0
370
    -2
100
AcDbLine
 10
450.7378488103197
 20
244.5775181215974
 30
0.0
 11
453.2378488103197
 21
244.5775181215974
 31
0.0
  0
LINE
  5
C13
330
B89
100
AcDbEntity
  8
0
 62
     0
370
    -2
100
AcDbLine
 10
442.6436130121768
 20
244.5775181215974
 30
0.0
 11
428.8102796788434
 21
244.5775181215974
 31
0.0
  0
LINE
  5
C14
330
B89
100
AcDbEntity
  8
0
 62
     0
370
    -2
100
AcDbLine
 10
448.2378488103197
 20
244.5775181215974
 30
0.0
 11
445.1436130121768
 21
244.5775181215974
 31
0.0
  0
INSERT
  5
C15
330
B89
100
AcDbEntity
  8
0
 62
     0
370
    -2
100
AcDbBlockReference
  2
_Open30
 10
448.2378488103197
 20
244.5775181215974
 30
0.0
 41
2.5
 42
2.5
 43
2.5
 50
180.0
  0
INSERT
  5
C16
330
B89
100
AcDbEntity
  8
0
 62
     0
370
    -2
100
AcDbBlockReference
  2
_Open30
 10
445.1436130121768
 20
244.5775181215974
 30
0.0
 41
2.5
 42
2.5
 43
2.5
  0
MTEXT
  5
C17
330
B89
100
AcDbEntity
  8
0
 62
     4
100
AcDbMText
 10
434.0186130121768
 20
246.4525181215973
 30
0.0
 40
2.5
 41
0.0
 71
     5
 72
     1
  1
15.47
  7
高2.5
 73
     1
 44
1.0
1001
ACAD
1000
MTEXTBEGIN
1070
    73
1070
     1
1070
    44
1040
1.0
1070
    74
1070
     0
1000
MTEXTEND
  0
POINT
  5
C18
330
B89
100
AcDbEntity
  8
Defpoints
 62
     0
100
AcDbPoint
 10
448.2378488103197
 20
246.1234101910607
 30
0.0
  0
POINT
  5
C19
330
B89
100
AcDbEntity
  8
Defpoints
 62
     0
100
AcDbPoint
 10
445.1436130121768
 20
246.1234101910607
 30
0.0
  0
POINT
  5
C1A
330
B89
100
AcDbEntity
  8
Defpoints
 62
     0
100
AcDbPoint
 10
445.1436130121768
 20
244.5775181215974
 30
0.0
  0
ENDBLK
  5
B8B
330
B89
100
AcDbEntity
  8
0
100
AcDbBlockEnd
  0
BLOCK
  5
B98
330
B97
100
AcDbEntity
  8
0
100
AcDbBlockBegin
  2
*D22
 70
     1
 10
0.0
 20
0.0
 30
0.0
  3
*D22
  1

  0
LINE
  5
C1B
330
B97
100
AcDbEntity
  8
0
 62
     0
370
    -2
100
AcDbLine
 10
449.9669804184052
 20
240.4173204752142
 30
0.0
 11
449.9669804184052
 21
238.1442328128469
 31
0.0
  0
LINE
  5
C1C
330
B97
100
AcDbEntity
  8
0
 62
     0
370
    -2
100
AcDbLine
 10
445.9626754652133
 20
240.4173204752142
 30
0.0
 11
445.9626754652133
 21
238.1442328128469
 31
0.0
  0
LINE
  5
C1D
330
B97
100
AcDbEntity
  8
0
 62
     0
370
    -2
100
AcDbLine
 10
452.4669804184052
 20
239.3942328128469
 30
0.0
 11
454.9669804184052
 21
239.3942328128469
 31
0.0
  0
LINE
  5
C1E
330
B97
100
AcDbEntity
  8
0
 62
     0
370
    -2
100
AcDbLine
 10
443.4626754652134
 20
239.3942328128469
 30
0.0
 11
431.7126754652134
 21
239.3942328128469
 31
0.0
  0
LINE
  5
C1F
330
B97
100
AcDbEntity
  8
0
 62
     0
370
    -2
100
AcDbLine
 10
449.9669804184052
 20
239.3942328128469
 30
0.0
 11
445.9626754652133
 21
239.3942328128469
 31
0.0
  0
INSERT
  5
C20
330
B97
100
AcDbEntity
  8
0
 62
     0
370
    -2
100
AcDbBlockReference
  2
_Open30
 10
449.9669804184052
 20
239.3942328128469
 30
0.0
 41
2.5
 42
2.5
 43
2.5
 50
180.0
  0
INSERT
  5
C21
330
B97
100
AcDbEntity
  8
0
 62
     0
370
    -2
100
AcDbBlockReference
  2
_Open30
 10
445.9626754652133
 20
239.3942328128469
 30
0.0
 41
2.5
 42
2.5
 43
2.5
  0
MTEXT
  5
C22
330
B97
100
AcDbEntity
  8
0
 62
     4
100
AcDbMText
 10
436.3376754652134
 20
241.6192328128469
 30
0.0
 40
3.2
 41
0.0
 71
     5
 72
     1
  1
8.01
  7
高3.2
 73
     1
 44
1.0
1001
ACAD
1000
MTEXTBEGIN
1070
    73
1070
     1
1070
    44
1040
1.0
1070
    74
1070
     0
1000
MTEXTEND
  0
POINT
  5
C23
330
B97
100
AcDbEntity
  8
Defpoints
 62
     0
100
AcDbPoint
 10
449.9669804184052
 20
240.6673204752142
 30
0.0
  0
POINT
  5
C24
330
B97
100
AcDbEntity
  8
Defpoints
 62
     0
100
AcDbPoint
 10
445.9626754652133
 20
240.6673204752142
 30
0.0
  0
POINT
  5
C25
330
B97
100
AcDbEntity
  8
Defpoints
 62
     0
100
AcDbPoint
 10
445.9626754652133
 20
239.3942328128469
 30
0.0
  0
ENDBLK
  5
B99
330
B97
100
AcDbEntity
  8
0
100
AcDbBlockEnd
  0
BLOCK
  5
BA6
330
BA5
100
AcDbEntity
  8
0
100
AcDbBlockBegin
  2
*D23
 70
     1
 10
0.0
 20
0.0
 30
0.0
  3
*D23
  1

  0
LINE
  5
C26
330
BA5
100
AcDbEntity
  8
0
 62
     0
370
    -2
100
AcDbLine
 10
449.8759737163929
 20
235.1431005071826
 30
0.0
 11
449.8759737163929
 21
233.3246869997262
 31
0.0
  0
LINE
  5
C27
330
BA5
100
AcDbEntity
  8
0
 62
     0
370
    -2
100
AcDbLine
 10
445.1436130121768
 20
235.1431005071826
 30
0.0
 11
445.1436130121768
 21
233.3246869997262
 31
0.0
  0
LINE
  5
C28
330
BA5
100
AcDbEntity
  8
0
 62
     0
370
    -2
100
AcDbLine
 10
452.3759737163929
 20
234.5746869997262
 30
0.0
 11
454.8759737163929
 21
234.5746869997262
 31
0.0
  0
LINE
  5
C29
330
BA5
100
AcDbEntity
  8
0
 62
     0
370
    -2
100
AcDbLine
 10
442.6436130121768
 20
234.5746869997262
 30
0.0
 11
420.8936130121768
 21
234.5746869997262
 31
0.0
  0
LINE
  5
C2A
330
BA5
100
AcDbEntity
  8
0
 62
     0
370
    -2
100
AcDbLine
 10
449.8759737163929
 20
234.5746869997262
 30
0.0
 11
445.1436130121768
 21
234.5746869997262
 31
0.0
  0
INSERT
  5
C2B
330
BA5
100
AcDbEntity
  8
0
 62
     0
370
    -2
100
AcDbBlockReference
  2
_Open30
 10
449.8759737163929
 20
234.5746869997262
 30
0.0
 41
2.5
 42
2.5
 43
2.5
 50
180.0
  0
INSERT
  5
C2C
330
BA5
100
AcDbEntity
  8
0
 62
     0
370
    -2
100
AcDbBlockReference
  2
_Open30
 10
445.1436130121768
 20
234.5746869997262
 30
0.0
 41
2.5
 42
2.5
 43
2.5
  0
MTEXT
  5
C2D
330
BA5
100
AcDbEntity
  8
0
 62
     4
100
AcDbMText
 10
430.5186130121768
 20
237.4496869997262
 30
0.0
 40
4.5
 41
0.0
 71
     5
 72
     1
  1
47.32
  7
高4.5
 73
     1
 44
1.0
1001
ACAD
1000
MTEXTBEGIN
1070
    73
1070
     1
1070
    44
1040
1.0
1070
    74
1070
     0
1000
MTEXTEND
  0
POINT
  5
C2E
330
BA5
100
AcDbEntity
  8
Defpoints
 62
     0
100
AcDbPoint
 10
449.8759737163929
 20
235.3931005071826
 30
0.0
  0
POINT
  5
C2F
330
BA5
100
AcDbEntity
  8
Defpoints
 62
     0
100
AcDbPoint
 10
445.1436130121768
 20
235.3931005071826
 30
0.0
  0
POINT
  5
C30
330
BA5
100
AcDbEntity
  8
Defpoints
 62
     0
100
AcDbPoint
 10
445.1436130121768
 20
234.5746869997262
 30
0.0
  0
ENDBLK
  5
BA7
330
BA5
100
AcDbEntity
  8
0
100
AcDbBlockEnd
  0
BLOCK
  5
BB4
330
BB3
100
AcDbEntity
  8
0
100
AcDbBlockBegin
  2
*D24
 70
     1
 10
0.0
 20
0.0
 30
0.0
  3
*D24
  1

  0
LINE
  5
C31
330
BB3
100
AcDbEntity
  8
0
 62
     0
370
    -2
100
AcDbLine
 10
471.3536099844004
 20
251.329499763823
 30
0.0
 11
471.3536099844004
 21
248.4198683418142
 31
0.0
  0
LINE
  5
C32
330
BB3
100
AcDbEntity
  8
0
 62
     0
370
    -2
100
AcDbLine
 10
468.8964229302801
 20
251.329499763823
 30
0.0
 11
468.8964229302801
 21
248.4198683418142
 31
0.0
  0
LINE
  5
C33
330
BB3
100
AcDbEntity
  8
0
 62
     0
370
    -2
100
AcDbLine
 10
473.8536099844004
 20
249.6698683418142
 30
0.0
 11
476.3536099844004
 21
249.6698683418142
 31
0.0
  0
LINE
  5
C34
330
BB3
100
AcDbEntity
  8
0
 62
     0
370
    -2
100
AcDbLine
 10
466.39642293028
 20
249.6698683418142
 30
0.0
 11
444.79642293028
 21
249.6698683418142
 31
0.0
  0
LINE
  5
C35
330
BB3
100
AcDbEntity
  8
0
 62
     0
370
    -2
100
AcDbLine
 10
471.3536099844004
 20
249.6698683418142
 30
0.0
 11
468.8964229302801
 21
249.6698683418142
 31
0.0
  0
INSERT
  5
C36
330
BB3
100
AcDbEntity
  8
0
 62
     0
370
    -2
100
AcDbBlockReference
  2
_Open30
 10
471.3536099844004
 20
249.6698683418142
 30
0.0
 41
2.5
 42
2.5
 43
2.5
 50
180.0
  0
INSERT
  5
C37
330
BB3
100
AcDbEntity
  8
0
 62
     0
370
    -2
100
AcDbBlockReference
  2
_Open30
 10
468.8964229302801
 20
249.6698683418142
 30
0.0
 41
2.5
 42
2.5
 43
2.5
  0
MTEXT
  5
C38
330
BB3
100
AcDbEntity
  8
0
 62
     4
100
AcDbMText
 10
454.34642293028
 20
253.4448683418142
 30
0.0
 40
6.299999999999999
 41
0.0
 71
     5
 72
     1
  1
0.25
  7
高6.3
 73
     1
 44
1.0
1001
ACAD
1000
MTEXTBEGIN
1070
    73
1070
     1
1070
    44
1040
1.0
1070
    74
1070
     0
1000
MTEXTEND
  0
POINT
  5
C39
330
BB3
100
AcDbEntity
  8
Defpoints
 62
     0
100
AcDbPoint
 10
471.3536099844004
 20
251.579499763823
 30
0.0
  0
POINT
  5
C3A
330
BB3
100
AcDbEntity
  8
Defpoints
 62
     0
100
AcDbPoint
 10
468.8964229302801
 20
251.579499763823
 30
0.0
  0
POINT
  5
C3B
330
BB3
100
AcDbEntity
  8
Defpoints
 62
     0
100
AcDbPoint
 10
468.8964229302801
 20
249.6698683418142
 30
0.0
  0
ENDBLK
  5
BB5
330
BB3
100
AcDbEntity
  8
0
100
AcDbBlockEnd
  0
BLOCK
  5
BC2
330
BC1
100
AcDbEntity
  8
0
100
AcDbBlockBegin
  2
*D25
 70
     1
 10
0.0
 20
0.0
 30
0.0
  3
*D25
  1

  0
LINE
  5
C3C
330
BC1
100
AcDbEntity
  8
0
 62
     0
370
    -2
100
AcDbLine
 10
472.9917348904735
 20
245.8734101910607
 30
0.0
 11
472.9917348904735
 21
243.3275181215973
 31
0.0
  0
LINE
  5
C3D
330
BC1
100
AcDbEntity
  8
0
 62
     0
370
    -2
100
AcDbLine
 10
469.8974990923306
 20
245.8734101910607
 30
0.0
 11
469.8974990923306
 21
243.3275181215973
 31
0.0
  0
LINE
  5
C3E
330
BC1
100
AcDbEntity
  8
0
 62
     0
370
    -2
100
AcDbLine
 10
475.4917348904736
 20
244.5775181215974
 30
0.0
 11
477.9917348904736
 21
244.5775181215974
 31
0.0
  0
LINE
  5
C3F
330
BC1
100
AcDbEntity
  8
0
 62
     0
370
    -2
100
AcDbLine
 10
467.3974990923307
 20
244.5775181215974
 30
0.0
 11
455.3974990923307
 21
244.5775181215974
 31
0.0
  0
LINE
  5
C40
330
BC1
100
AcDbEntity
  8
0
 62
     0
370
    -2
100
AcDbLine
 10
472.9917348904735
 20
244.5775181215974
 30
0.0
 11
469.8974990923306
 21
244.5775181215974
 31
0.0
  0
INSERT
  5
C41
330
BC1
100
AcDbEntity
  8
0
 62
     0
370
    -2
100
AcDbBlockReference
  2
_Open30
 10
472.9917348904735
 20
244.5775181215974
 30
0.0
 41
2.5
 42
2.5
 43
2.5
 50
180.0
  0
INSERT
  5
C42
330
BC1
100
AcDbEntity
  8
0
 62
     0
370
    -2
100
AcDbBlockReference
  2
_Open30
 10
469.8974990923306
 20
244.5775181215974
 30
0.0
 41
2.5
 42
2.5
 43
2.5
  0
MTEXT
  5
C43
330
BC1
100
AcDbEntity
  8
0
 62
     4
100
AcDbMText
 10
460.0224990923306
 20
246.7025181215973
 30
0.0
 40
3.0
 41
0.0
 71
     5
 72
     1
  1
1.55
 73
     1
 44
1.0
1001
ACAD
1000
MTEXTBEGIN
1070
    73
1070
     1
1070
    44
1040
1.0
1070
    74
1070
     0
1000
MTEXTEND
  0
POINT
  5
C44
330
BC1
100
AcDbEntity
  8
Defpoints
 62
     0
100
AcDbPoint
 10
472.9917348904735
 20
246.1234101910607
 30
0.0
  0
POINT
  5
C45
330
BC1
100
AcDbEntity
  8
Defpoints
 62
     0
100
AcDbPoint
 10
469.8974990923306
 20
246.1234101910607
 30
0.0
  0
POINT
  5
C46
330
BC1
100
AcDbEntity
  8
Defpoints
 62
     0
100
AcDbPoint
 10
469.8974990923306
 20
244.5775181215974
 30
0.0
  0
ENDBLK
  5
BC3
330
BC1
100
AcDbEntity
  8
0
100
AcDbBlockEnd
  0
BLOCK
  5
BD0
330
BCF
100
AcDbEntity
  8
0
100
AcDbBlockBegin
  2
*D26
 70
     1
 10
0.0
 20
0.0
 30
0.0
  3
*D26
  1

  0
LINE
  5
C47
330
BCF
100
AcDbEntity
  8
0
 62
     0
370
    -2
100
AcDbLine
 10
474.720866498559
 20
240.4173204752142
 30
0.0
 11
474.720866498559
 21
238.1442328128469
 31
0.0
  0
LINE
  5
C48
330
BCF
100
AcDbEntity
  8
0
 62
     0
370
    -2
100
AcDbLine
 10
470.7165615453672
 20
240.4173204752142
 30
0.0
 11
470.7165615453672
 21
238.1442328128469
 31
0.0
  0
LINE
  5
C49
330
BCF
100
AcDbEntity
  8
0
 62
     0
370
    -2
100
AcDbLine
 10
477.2208664985591
 20
239.3942328128469
 30
0.0
 11
479.720866498559
 21
239.3942328128469
 31
0.0
  0
LINE
  5
C4A
330
BCF
100
AcDbEntity
  8
0
 62
     0
370
    -2
100
AcDbLine
 10
468.2165615453672
 20
239.3942328128469
 30
0.0
 11
459.8832282120339
 21
239.3942328128469
 31
0.0
  0
LINE
  5
C4B
330
BCF
100
AcDbEntity
  8
0
 62
     0
370
    -2
100
AcDbLine
 10
474.720866498559
 20
239.3942328128469
 30
0.0
 11
470.7165615453672
 21
239.3942328128469
 31
0.0
  0
INSERT
  5
C4C
330
BCF
100
AcDbEntity
  8
0
 62
     0
370
    -2
100
AcDbBlockReference
  2
_Open30
 10
474.720866498559
 20
239.3942328128469
 30
0.0
 41
2.5
 42
2.5
 43
2.5
 50
180.0
  0
INSERT
  5
C4D
330
BCF
100
AcDbEntity
  8
0
 62
     0
370
    -2
100
AcDbBlockReference
  2
_Open30
 10
470.7165615453672
 20
239.3942328128469
 30
0.0
 41
2.5
 42
2.5
 43
2.5
  0
MTEXT
  5
C4E
330
BCF
100
AcDbEntity
  8
0
 62
     4
100
AcDbMText
 10
462.3415615453672
 20
241.0192328128469
 30
0.0
 40
2.0
 41
0.0
 71
     5
 72
     1
  1
0.8
  7
高2
 73
     1
 44
1.0
1001
ACAD
1000
MTEXTBEGIN
1070
    73
1070
     1
1070
    44
1040
1.0
1070
    74
1070
     0
1000
MTEXTEND
  0
POINT
  5
C4F
330
BCF
100
AcDbEntity
  8
Defpoints
 62
     0
100
AcDbPoint
 10
474.720866498559
 20
240.6673204752142
 30
0.0
  0
POINT
  5
C50
330
BCF
100
AcDbEntity
  8
Defpoints
 62
     0
100
AcDbPoint
 10
470.7165615453672
 20
240.6673204752142
 30
0.0
  0
POINT
  5
C51
330
BCF
100
AcDbEntity
  8
Defpoints
 62
     0
100
AcDbPoint
 10
470.7165615453672
 20
239.3942328128469
 30
0.0
  0
ENDBLK
  5
BD1
330
BCF
100
AcDbEntity
  8
0
100
AcDbBlockEnd
  0
BLOCK
  5
BDE
330
BDD
100
AcDbEntity
  8
0
100
AcDbBlockBegin
  2
*D27
 70
     1
 10
0.0
 20
0.0
 30
0.0
  3
*D27
  1

  0
LINE
  5
C52
330
BDD
100
AcDbEntity
  8
0
 62
     0
370
    -2
100
AcDbLine
 10
474.6298597965467
 20
235.1431005071826
 30
0.0
 11
474.6298597965467
 21
233.3246869997262
 31
0.0
  0
LINE
  5
C53
330
BDD
100
AcDbEntity
  8
0
 62
     0
370
    -2
100
AcDbLine
 10
469.8974990923306
 20
235.1431005071826
 30
0.0
 11
469.8974990923306
 21
233.3246869997262
 31
0.0
  0
LINE
  5
C54
330
BDD
100
AcDbEntity
  8
0
 62
     0
370
    -2
100
AcDbLine
 10
477.1298597965468
 20
234.5746869997262
 30
0.0
 11
479.6298597965467
 21
234.5746869997262
 31
0.0
  0
LINE
  5
C55
330
BDD
100
AcDbEntity
  8
0
 62
     0
370
    -2
100
AcDbLine
 10
467.3974990923307
 20
234.5746869997262
 30
0.0
 11
452.6474990923307
 21
234.5746869997262
 31
0.0
  0
LINE
  5
C56
330
BDD
100
AcDbEntity
  8
0
 62
     0
370
    -2
100
AcDbLine
 10
474.6298597965467
 20
234.5746869997262
 30
0.0
 11
469.8974990923306
 21
234.5746869997262
 31
0.0
  0
INSERT
  5
C57
330
BDD
100
AcDbEntity
  8
0
 62
     0
370
    -2
100
AcDbBlockReference
  2
_Open30
 10
474.6298597965467
 20
234.5746869997262
 30
0.0
 41
2.5
 42
2.5
 43
2.5
 50
180.0
  0
INSERT
  5
C58
330
BDD
100
AcDbEntity
  8
0
 62
     0
370
    -2
100
AcDbBlockReference
  2
_Open30
 10
469.8974990923306
 20
234.5746869997262
 30
0.0
 41
2.5
 42
2.5
 43
2.5
  0
MTEXT
  5
C59
330
BDD
100
AcDbEntity
  8
0
 62
     4
100
AcDbMText
 10
458.7724990923306
 20
236.6996869997262
 30
0.0
 40
3.0
 41
0.0
 71
     5
 72
     1
  1
18.93
 73
     1
 44
1.0
1001
ACAD
1000
MTEXTBEGIN
1070
    73
1070
     1
1070
    44
1040
1.0
1070
    74
1070
     0
1000
MTEXTEND
  0
POINT
  5
C5A
330
BDD
100
AcDbEntity
  8
Defpoints
 62
     0
100
AcDbPoint
 10
474.6298597965467
 20
235.3931005071826
 30
0.0
  0
POINT
  5
C5B
330
BDD
100
AcDbEntity
  8
Defpoints
 62
     0
100
AcDbPoint
 10
469.8974990923306
 20
235.3931005071826
 30
0.0
  0
POINT
  5
C5C
330
BDD
100
AcDbEntity
  8
Defpoints
 62
     0
100
AcDbPoint
 10
469.8974990923306
 20
234.5746869997262
 30
0.0
  0
ENDBLK
  5
BDF
330
BDD
100
AcDbEntity
  8
0
100
AcDbBlockEnd
  0
BLOCK
  5
BEC
330
BEB
100
AcDbEntity
  8
0
100
AcDbBlockBegin
  2
*D28
 70
     1
 10
0.0
 20
0.0
 30
0.0
  3
*D28
  1

  0
LINE
  5
C5D
330
BEB
100
AcDbEntity
  8
0
 62
     0
370
    -2
100
AcDbLine
 10
471.8254329454084
 20
230.0872603005928
 30
0.0
 11
471.8254329454084
 21
227.7773392237173
 31
0.0
  0
LINE
  5
C5E
330
BEB
100
AcDbEntity
  8
0
 62
     0
370
    -2
100
AcDbLine
 10
467.2367577432606
 20
230.0872603005928
 30
0.0
 11
467.2367577432606
 21
227.7773392237173
 31
0.0
  0
LINE
  5
C5F
330
BEB
100
AcDbEntity
  8
0
 62
     0
370
    -2
100
AcDbLine
 10
474.3254329454084
 20
229.0273392237172
 30
0.0
 11
476.8254329454085
 21
229.0273392237172
 31
0.0
  0
LINE
  5
C60
330
BEB
100
AcDbEntity
  8
0
 62
     0
370
    -2
100
AcDbLine
 10
464.7367577432605
 20
229.0273392237172
 30
0.0
 11
449.9867577432605
 21
229.0273392237172
 31
0.0
  0
LINE
  5
C61
330
BEB
100
AcDbEntity
  8
0
 62
     0
370
    -2
100
AcDbLine
 10
471.8254329454084
 20
229.0273392237172
 30
0.0
 11
467.2367577432606
 21
229.0273392237172
 31
0.0
  0
INSERT
  5
C62
330
BEB
100
AcDbEntity
  8
0
 62
     0
370
    -2
100
AcDbBlockReference
  2
_Open30
 10
471.8254329454084
 20
229.0273392237172
 30
0.0
 41
2.5
 42
2.5
 43
2.5
 50
180.0
  0
INSERT
  5
C63
330
BEB
100
AcDbEntity
  8
0
 62
     0
370
    -2
100
AcDbBlockReference
  2
_Open30
 10
467.2367577432606
 20
229.0273392237172
 30
0.0
 41
2.5
 42
2.5
 43
2.5
  0
MTEXT
  5
C64
330
BEB
100
AcDbEntity
  8
0
 62
     4
100
AcDbMText
 10
456.1117577432606
 20
231.1523392237173
 30
0.0
 40
3.0
 41
0.0
 71
     5
 72
     1
  1
13.77
 73
     1
 44
1.0
1001
ACAD
1000
MTEXTBEGIN
1070
    73
1070
     1
1070
    44
1040
1.0
1070
    74
1070
     0
1000
MTEXTEND
  0
POINT
  5
C65
330
BEB
100
AcDbEntity
  8
Defpoints
 62
     0
100
AcDbPoint
 10
471.8254329454084
 20
230.3372603005928
 30
0.0
  0
POINT
  5
C66
330
BEB
100
AcDbEntity
  8
Defpoints
 62
     0
100
AcDbPoint
 10
467.2367577432606
 20
230.3372603005928
 30
0.0
  0
POINT
  5
C67
330
BEB
100
AcDbEntity
  8
Defpoints
 62
     0
100
AcDbPoint
 10
467.2367577432606
 20
229.0273392237172
 30
0.0
  0
ENDBLK
  5
BED
330
BEB
100
AcDbEntity
  8
0
100
AcDbBlockEnd
  0
BLOCK
  5
BFA
330
BF9
100
AcDbEntity
  8
0
100
AcDbBlockBegin
  2
*D29
 70
     1
 10
0.0
 20
0.0
 30
0.0
  3
*D29
  1

  0
LINE
  5
C68
330
BF9
100
AcDbEntity
  8
0
 62
     0
370
    -2
100
AcDbLine
 10
464.7291501122581
 20
261.0167516188671
 30
0.0
 11
464.7291501122581
 21
268.4132850968049
 31
0.0
  0
LINE
  5
C69
330
BF9
100
AcDbEntity
  8
0
 62
     0
370
    -2
100
AcDbLine
 10
454.7906757427681
 20
261.0167516188671
 30
0.0
 11
454.7906757427681
 21
268.4132850968049
 31
0.0
  0
LINE
  5
C6A
330
BF9
100
AcDbEntity
  8
0
 62
     0
370
    -2
100
AcDbLine
 10
462.2291501122581
 20
267.1632850968049
 30
0.0
 11
457.2906757427681
 21
267.1632850968049
 31
0.0
  0
INSERT
  5
C6B
330
BF9
100
AcDbEntity
  8
0
 62
     0
370
    -2
100
AcDbBlockReference
  2
_Open30
 10
464.7291501122581
 20
267.1632850968049
 30
0.0
 41
2.5
 42
2.5
 43
2.5
  0
INSERT
  5
C6C
330
BF9
100
AcDbEntity
  8
0
 62
     0
370
    -2
100
AcDbBlockReference
  2
_Open30
 10
454.7906757427681
 20
267.1632850968049
 30
0.0
 41
2.5
 42
2.5
 43
2.5
 50
180.0
  0
MTEXT
  5
C6D
330
BF9
100
AcDbEntity
  8
0
 62
     4
100
AcDbMText
 10
459.7599129275131
 20
270.2382850968049
 30
0.0
 40
3.0
 41
0.0
 71
     5
 72
     1
  1
9.94\H0.7X;\S+0^ -0.02;
 73
     1
 44
1.0
1001
ACAD
1000
MTEXTBEGIN
1070
    73
1070
     1
1070
    44
1040
1.0
1070
    74
1070
     0
1000
MTEXTEND
  0
POINT
  5
C6E
330
BF9
100
AcDbEntity
  8
Defpoints
 62
     0
100
AcDbPoint
 10
464.7291501122581
 20
260.7667516188671
 30
0.0
  0
POINT
  5
C6F
330
BF9
100
AcDbEntity
  8
Defpoints
 62
     0
100
AcDbPoint
 10
454.7906757427681
 20
260.7667516188671
 30
0.0
  0
POINT
  5
C70
330
BF9
100
AcDbEntity
  8
Defpoints
 62
     0
100
AcDbPoint
 10
454.7906757427681
 20
267.1632850968049
 30
0.0
  0
ENDBLK
  5
BFB
330
BF9
100
AcDbEntity
  8
0
100
AcDbBlockEnd
  0
BLOCK
  5
C73
330
C72
100
AcDbEntity
  8
0
100
AcDbBlockBegin
  2
*D30
 70
     1
 10
0.0
 20
0.0
 30
0.0
  3
*D30
  1

  0
LINE
  5
D91
330
C72
100
AcDbEntity
  8
0
  6
Continuous
 62
     0
370
    -2
100
AcDbLine
 10
-289.549214854477
 20
105.9743616319429
 30
0.0
 11
-276.3762193127068
 21
105.9743616319429
 31
0.0
  0
LINE
  5
D92
330
C72
100
AcDbEntity
  8
0
  6
Continuous
 62
     0
370
    -2
100
AcDbLine
 10
-285.749214854477
 20
130.9743616319429
 30
0.0
 11
-276.3762193127067
 21
130.9743616319429
 31
0.0
  0
LINE
  5
D93
330
C72
100
AcDbEntity
  8
0
  6
Continuous
 62
     0
370
    -2
100
AcDbLine
 10
-277.6262193127068
 20
108.4743616319429
 30
0.0
 11
-277.6262193127067
 21
128.4743616319429
 31
0.0
  0
INSERT
  5
D94
330
C72
100
AcDbEntity
  8
0
  6
Continuous
 62
     0
370
    -2
100
AcDbBlockReference
  2
_Open30
 10
-277.6262193127068
 20
105.9743616319429
 30
0.0
 41
2.5
 42
2.5
 43
2.5
 50
270.0
  0
INSERT
  5
D95
330
C72
100
AcDbEntity
  8
0
  6
Continuous
 62
     0
370
    -2
100
AcDbBlockReference
  2
_Open30
 10
-277.6262193127067
 20
130.9743616319429
 30
0.0
 41
2.5
 42
2.5
 43
2.5
 50
90.0
  0
MTEXT
  5
D96
330
C72
100
AcDbEntity
  8
0
  6
Continuous
 62
     4
100
AcDbMText
 10
-279.7512193127068
 20
117.4424872379634
 30
0.0
 40
3.0
 41
0.0
 71
     5
 72
     1
  1
250
 11
0.0000000000000001
 21
1.0
 31
0.0
 73
     1
 44
1.0
1001
ACAD
1000
MTEXTBEGIN
1070
    73
1070
     1
1070
    44
1040
1.0
1070
    74
1070
     0
1000
MTEXTEND
  0
POINT
  5
D97
330
C72
100
AcDbEntity
  8
Defpoints
  6
Continuous
 62
     0
100
AcDbPoint
 10
-289.799214854477
 20
105.9743616319429
 30
0.0
  0
POINT
  5
D98
330
C72
100
AcDbEntity
  8
Defpoints
  6
Continuous
 62
     0
100
AcDbPoint
 10
-285.999214854477
 20
130.9743616319429
 30
0.0
  0
POINT
  5
D99
330
C72
100
AcDbEntity
  8
Defpoints
  6
Continuous
 62
     0
100
AcDbPoint
 10
-277.6262193127067
 20
130.9743616319429
 30
0.0
  0
ENDBLK
  5
C74
330
C72
100
AcDbEntity
  8
0
100
AcDbBlockEnd
  0
BLOCK
  5
C80
330
C7F
100
AcDbEntity
  8
0
100
AcDbBlockBegin
  2
*D31
 70
     1
 10
0.0
 20
0.0
 30
0.0
  3
*D31
  1

  0
LINE
  5
D9A
330
C7F
100
AcDbEntity
  8
0
  6
Continuous
 62
     0
370
    -2
100
AcDbLine
 10
-292.799214854477
 20
134.7243616319429
 30
0.0
 11
-292.799214854477
 21
149.4326378975877
 31
0.0
  0
LINE
  5
D9B
330
C7F
100
AcDbEntity
  8
0
  6
Continuous
 62
     0
370
    -2
100
AcDbLine
 10
-324.1621015188699
 20
133.7243616319429
 30
0.0
 11
-324.1621015188699
 21
149.4326378975877
 31
0.0
  0
LINE
  5
D9C
330
C7F
100
AcDbEntity
  8
0
  6
Continuous
 62
     0
370
    -2
100
AcDbLine
 10
-295.299214854477
 20
148.1826378975877
 30
0.0
 11
-321.6621015188699
 21
148.1826378975877
 31
0.0
  0
INSERT
  5
D9D
330
C7F
100
AcDbEntity
  8
0
  6
Continuous
 62
     0
370
    -2
100
AcDbBlockReference
  2
_Open30
 10
-292.799214854477
 20
148.1826378975877
 30
0.0
 41
2.5
 42
2.5
 43
2.5
  0
INSERT
  5
D9E
330
C7F
100
AcDbEntity
  8
0
  6
Continuous
 62
     0
370
    -2
100
AcDbBlockReference
  2
_Open30
 10
-324.1621015188699
 20
148.1826378975877
 30
0.0
 41
2.5
 42
2.5
 43
2.5
 50
180.0
  0
MTEXT
  5
D9F
330
C7F
100
AcDbEntity
  8
0
  6
Continuous
 62
     4
100
AcDbMText
 10
-307.44037964572
 20
150.3076378975877
 30
0.0
 40
3.0
 41
0.0
 71
     5
 72
     1
  1
2500
 73
     1
 44
1.0
1001
ACAD
1000
MTEXTBEGIN
1070
    73
1070
     1
1070
    44
1040
1.0
1070
    74
1070
     0
1000
MTEXTEND
  0
POINT
  5
DA0
330
C7F
100
AcDbEntity
  8
Defpoints
  6
Continuous
 62
     0
100
AcDbPoint
 10
-292.799214854477
 20
134.4743616319429
 30
0.0
  0
POINT
  5
DA1
330
C7F
100
AcDbEntity
  8
Defpoints
  6
Continuous
 62
     0
100
AcDbPoint
 10
-324.1621015188699
 20
133.4743616319429
 30
0.0
  0
POINT
  5
DA2
330
C7F
100
AcDbEntity
  8
Defpoints
  6
Continuous
 62
     0
100
AcDbPoint
 10
-324.1621015188699
 20
148.1826378975877
 30
0.0
  0
ENDBLK
  5
C81
330
C7F
100
AcDbEntity
  8
0
100
AcDbBlockEnd
  0
BLOCK
  5
C98
330
C97
100
AcDbEntity
  8
0
100
AcDbBlockBegin
  2
*D32
 70
     1
 10
0.0
 20
0.0
 30
0.0
  3
*D32
  1

  0
LINE
  5
DA3
330
C97
100
AcDbEntity
  8
0
  6
Continuous
 62
     0
370
    -2
100
AcDbLine
 10
-112.957316363872
 20
134.2243616319429
 30
0.0
 11
-112.957316363872
 21
149.4326378975877
 31
0.0
  0
LINE
  5
DA4
330
C97
100
AcDbEntity
  8
0
  6
Continuous
 62
     0
370
    -2
100
AcDbLine
 10
-141.6597138504268
 20
134.7243616319429
 30
0.0
 11
-141.6597138504268
 21
149.4326378975877
 31
0.0
  0
LINE
  5
DA5
330
C97
100
AcDbEntity
  8
0
  6
Continuous
 62
     0
370
    -2
100
AcDbLine
 10
-115.4573163638721
 20
148.1826378975877
 30
0.0
 11
-139.1597138504268
 21
148.1826378975877
 31
0.0
  0
INSERT
  5
DA6
330
C97
100
AcDbEntity
  8
0
  6
Continuous
 62
     0
370
    -2
100
AcDbBlockReference
  2
_Open30
 10
-112.957316363872
 20
148.1826378975877
 30
0.0
 41
2.5
 42
2.5
 43
2.5
  0
INSERT
  5
DA7
330
C97
100
AcDbEntity
  8
0
  6
Continuous
 62
     0
370
    -2
100
AcDbBlockReference
  2
_Open30
 10
-141.6597138504268
 20
148.1826378975877
 30
0.0
 41
2.5
 42
2.5
 43
2.5
 50
180.0
  0
MTEXT
  5
DA8
330
C97
100
AcDbEntity
  8
0
  6
Continuous
 62
     4
100
AcDbMText
 10
-127.3085151071494
 20
150.3076378975877
 30
0.0
 40
3.0
 41
0.0
 71
     5
 72
     1
  1
2500
 73
     1
 44
1.0
1001
ACAD
1000
MTEXTBEGIN
1070
    73
1070
     1
1070
    44
1040
1.0
1070
    74
1070
     0
1000
MTEXTEND
  0
POINT
  5
DA9
330
C97
100
AcDbEntity
  8
Defpoints
  6
Continuous
 62
     0
100
AcDbPoint
 10
-112.957316363872
 20
133.9743616319429
 30
0.0
  0
POINT
  5
DAA
330
C97
100
AcDbEntity
  8
Defpoints
  6
Continuous
 62
     0
100
AcDbPoint
 10
-141.6597138504268
 20
134.4743616319429
 30
0.0
  0
POINT
  5
DAB
330
C97
100
AcDbEntity
  8
Defpoints
  6
Continuous
 62
     0
100
AcDbPoint
 10
-141.6597138504268
 20
148.1826378975877
 30
0.0
  0
ENDBLK
  5
C99
330
C97
100
AcDbEntity
  8
0
100
AcDbBlockEnd
  0
BLOCK
  5
CB7
330
CB6
100
AcDbEntity
  8
0
100
AcDbBlockBegin
  2
*D33
 70
     1
 10
0.0
 20
0.0
 30
0.0
  3
*D33
  1

  0
LINE
  5
DAC
330
CB6
100
AcDbEntity
  8
0
  6
Continuous
 62
     0
370
    -2
100
AcDbLine
 10
-141.6597138504268
 20
134.7243616319429
 30
0.0
 11
-141.6597138504268
 21
149.4326378975877
 31
0.0
  0
LINE
  5
DAD
330
CB6
100
AcDbEntity
  8
0
  6
Continuous
 62
     0
370
    -2
100
AcDbLine
 10
-192.0726999973065
 20
134.7243616319429
 30
0.0
 11
-192.0726999973065
 21
149.4326378975877
 31
0.0
  0
LINE
  5
DAE
330
CB6
100
AcDbEntity
  8
0
  6
Continuous
 62
     0
370
    -2
100
AcDbLine
 10
-144.1597138504268
 20
148.1826378975877
 30
0.0
 11
-189.5726999973065
 21
148.1826378975877
 31
0.0
  0
INSERT
  5
DAF
330
CB6
100
AcDbEntity
  8
0
  6
Continuous
 62
     0
370
    -2
100
AcDbBlockReference
  2
_Open30
 10
-141.6597138504268
 20
148.1826378975877
 30
0.0
 41
2.5
 42
2.5
 43
2.5
  0
INSERT
  5
DB0
330
CB6
100
AcDbEntity
  8
0
  6
Continuous
 62
     0
370
    -2
100
AcDbBlockReference
  2
_Open30
 10
-192.0726999973065
 20
148.1826378975877
 30
0.0
 41
2.5
 42
2.5
 43
2.5
 50
180.0
  0
MTEXT
  5
DB1
330
CB6
100
AcDbEntity
  8
0
  6
Continuous
 62
     4
100
AcDbMText
 10
-166.8662069238667
 20
150.3076378975877
 30
0.0
 40
3.0
 41
0.0
 71
     5
 72
     1
  1
5000
 73
     1
 44
1.0
1001
ACAD
1000
MTEXTBEGIN
1070
    73
1070
     1
1070
    44
1040
1.0
1070
    74
1070
     0
1000
MTEXTEND
  0
POINT
  5
DB2
330
CB6
100
AcDbEntity
  8
Defpoints
  6
Continuous
 62
     0
100
AcDbPoint
 10
-141.6597138504268
 20
134.4743616319429
 30
0.0
  0
POINT
  5
DB3
330
CB6
100
AcDbEntity
  8
Defpoints
  6
Continuous
 62
     0
100
AcDbPoint
 10
-192.0726999973065
 20
134.4743616319429
 30
0.0
  0
POINT
  5
DB4
330
CB6
100
AcDbEntity
  8
Defpoints
  6
Continuous
 62
     0
100
AcDbPoint
 10
-192.0726999973065
 20
148.1826378975877
 30
0.0
  0
ENDBLK
  5
CB8
330
CB6
100
AcDbEntity
  8
0
100
AcDbBlockEnd
  0
BLOCK
  5
CC4
330
CC3
100
AcDbEntity
  8
0
100
AcDbBlockBegin
  2
*D34
 70
     1
 10
0.0
 20
0.0
 30
0.0
  3
*D34
  1

  0
LINE
  5
DB5
330
CC3
100
AcDbEntity
  8
0
  6
Continuous
 62
     0
370
    -2
100
AcDbLine
 10
-192.0726999973065
 20
134.7243616319429
 30
0.0
 11
-192.0726999973065
 21
149.4326378975877
 31
0.0
  0
LINE
  5
DB6
330
CC3
100
AcDbEntity
  8
0
  6
Continuous
 62
     0
370
    -2
100
AcDbLine
 10
-242.3870699841522
 20
134.7243616319429
 30
0.0
 11
-242.3870699841522
 21
149.4326378975877
 31
0.0
  0
LINE
  5
DB7
330
CC3
100
AcDbEntity
  8
0
  6
Continuous
 62
     0
370
    -2
100
AcDbLine
 10
-194.5726999973065
 20
148.1826378975877
 30
0.0
 11
-239.8870699841522
 21
148.1826378975877
 31
0.0
  0
INSERT
  5
DB8
330
CC3
100
AcDbEntity
  8
0
  6
Continuous
 62
     0
370
    -2
100
AcDbBlockReference
  2
_Open30
 10
-192.0726999973065
 20
148.1826378975877
 30
0.0
 41
2.5
 42
2.5
 43
2.5
  0
INSERT
  5
DB9
330
CC3
100
AcDbEntity
  8
0
  6
Continuous
 62
     0
370
    -2
100
AcDbBlockReference
  2
_Open30
 10
-242.3870699841522
 20
148.1826378975877
 30
0.0
 41
2.5
 42
2.5
 43
2.5
 50
180.0
  0
MTEXT
  5
DBA
330
CC3
100
AcDbEntity
  8
0
  6
Continuous
 62
     4
100
AcDbMText
 10
-217.2298849907294
 20
150.3076378975877
 30
0.0
 40
3.0
 41
0.0
 71
     5
 72
     1
  1
5000
 73
     1
 44
1.0
1001
ACAD
1000
MTEXTBEGIN
1070
    73
1070
     1
1070
    44
1040
1.0
1070
    74
1070
     0
1000
MTEXTEND
  0
POINT
  5
DBB
330
CC3
100
AcDbEntity
  8
Defpoints
  6
Continuous
 62
     0
100
AcDbPoint
 10
-192.0726999973065
 20
134.4743616319429
 30
0.0
  0
POINT
  5
DBC
330
CC3
100
AcDbEntity
  8
Defpoints
  6
Continuous
 62
     0
100
AcDbPoint
 10
-242.3870699841522
 20
134.4743616319429
 30
0.0
  0
POINT
  5
DBD
330
CC3
100
AcDbEntity
  8
Defpoints
  6
Continuous
 62
     0
100
AcDbPoint
 10
-242.3870699841522
 20
148.1826378975877
 30
0.0
  0
ENDBLK
  5
CC5
330
CC3
100
AcDbEntity
  8
0
100
AcDbBlockEnd
  0
BLOCK
  5
CD1
330
CD0
100
AcDbEntity
  8
0
100
AcDbBlockBegin
  2
*D35
 70
     1
 10
0.0
 20
0.0
 30
0.0
  3
*D35
  1

  0
LINE
  5
DBE
330
CD0
100
AcDbEntity
  8
0
  6
Continuous
 62
     0
370
    -2
100
AcDbLine
 10
-242.3870699841522
 20
134.7243616319429
 30
0.0
 11
-242.3870699841522
 21
149.4326378975877
 31
0.0
  0
LINE
  5
DBF
330
CD0
100
AcDbEntity
  8
0
  6
Continuous
 62
     0
370
    -2
100
AcDbLine
 10
-292.799214854477
 20
134.7243616319429
 30
0.0
 11
-292.799214854477
 21
149.4326378975877
 31
0.0
  0
LINE
  5
DC0
330
CD0
100
AcDbEntity
  8
0
  6
Continuous
 62
     0
370
    -2
100
AcDbLine
 10
-244.8870699841521
 20
148.1826378975877
 30
0.0
 11
-290.299214854477
 21
148.1826378975877
 31
0.0
  0
INSERT
  5
DC1
330
CD0
100
AcDbEntity
  8
0
  6
Continuous
 62
     0
370
    -2
100
AcDbBlockReference
  2
_Open30
 10
-242.3870699841522
 20
148.1826378975877
 30
0.0
 41
2.5
 42
2.5
 43
2.5
  0
INSERT
  5
DC2
330
CD0
100
AcDbEntity
  8
0
  6
Continuous
 62
     0
370
    -2
100
AcDbBlockReference
  2
_Open30
 10
-292.799214854477
 20
148.1826378975877
 30
0.0
 41
2.5
 42
2.5
 43
2.5
 50
180.0
  0
MTEXT
  5
DC3
330
CD0
100
AcDbEntity
  8
0
  6
Continuous
 62
     4
100
AcDbMText
 10
-267.9017141582499
 20
150.3076378975877
 30
0.0
 40
3.0
 41
0.0
 71
     5
 72
     1
  1
5000
 73
     1
 44
1.0
1001
ACAD
1000
MTEXTBEGIN
1070
    73
1070
     1
1070
    44
1040
1.0
1070
    74
1070
     0
1000
MTEXTEND
  0
POINT
  5
DC4
330
CD0
100
AcDbEntity
  8
Defpoints
  6
Continuous
 62
     0
100
AcDbPoint
 10
-242.3870699841522
 20
134.4743616319429
 30
0.0
  0
POINT
  5
DC5
330
CD0
100
AcDbEntity
  8
Defpoints
  6
Continuous
 62
     0
100
AcDbPoint
 10
-292.799214854477
 20
134.4743616319429
 30
0.0
  0
POINT
  5
DC6
330
CD0
100
AcDbEntity
  8
Defpoints
  6
Continuous
 62
     0
100
AcDbPoint
 10
-292.799214854477
 20
148.1826378975877
 30
0.0
  0
ENDBLK
  5
CD2
330
CD0
100
AcDbEntity
  8
0
100
AcDbBlockEnd
  0
BLOCK
  5
D5F
330
D5E
100
AcDbEntity
  8
0
100
AcDbBlockBegin
  2
*D36
 70
     1
 10
0.0
 20
0.0
 30
0.0
  3
*D36
  1

  0
LINE
  5
DC7
330
D5E
100
AcDbEntity
  8
0
  6
Continuous
 62
     0
370
    -2
100
AcDbLine
 10
-324.1621015188699
 20
141.8284997647653
 30
0.0
 11
-324.1621015188699
 21
161.8351256316512
 31
0.0
  0
LINE
  5
DC8
330
D5E
100
AcDbEntity
  8
0
  6
Continuous
 62
     0
370
    -2
100
AcDbLine
 10
-112.957316363872
 20
142.0784997647653
 30
0.0
 11
-112.957316363872
 21
161.8351256316512
 31
0.0
  0
LINE
  5
DC9
330
D5E
100
AcDbEntity
  8
0
  6
Continuous
 62
     0
370
    -2
100
AcDbLine
 10
-321.6621015188699
 20
160.5851256316512
 30
0.0
 11
-115.4573163638721
 21
160.5851256316512
 31
0.0
  0
INSERT
  5
DCA
330
D5E
100
AcDbEntity
  8
0
  6
Continuous
 62
     0
370
    -2
100
AcDbBlockReference
  2
_Open30
 10
-324.1621015188699
 20
160.5851256316512
 30
0.0
 41
2.5
 42
2.5
 43
2.5
 50
180.0
  0
INSERT
  5
DCB
330
D5E
100
AcDbEntity
  8
0
  6
Continuous
 62
     0
370
    -2
100
AcDbBlockReference
  2
_Open30
 10
-112.957316363872
 20
160.5851256316512
 30
0.0
 41
2.5
 42
2.5
 43
2.5
  0
MTEXT
  5
DCC
330
D5E
100
AcDbEntity
  8
0
  6
Continuous
 62
     4
100
AcDbMText
 10
-220.1704449247654
 20
162.7101256316512
 30
0.0
 40
3.0
 41
0.0
 71
     5
 72
     1
  1
20000
 73
     1
 44
1.0
1001
ACAD
1000
MTEXTBEGIN
1070
    73
1070
     1
1070
    44
1040
1.0
1070
    74
1070
     0
1000
MTEXTEND
  0
POINT
  5
DCD
330
D5E
100
AcDbEntity
  8
Defpoints
  6
Continuous
 62
     0
100
AcDbPoint
 10
-324.1621015188699
 20
141.5784997647653
 30
0.0
  0
POINT
  5
DCE
330
D5E
100
AcDbEntity
  8
Defpoints
  6
Continuous
 62
     0
100
AcDbPoint
 10
-112.957316363872
 20
141.8284997647653
 30
0.0
  0
POINT
  5
DCF
330
D5E
100
AcDbEntity
  8
Defpoints
  6
Continuous
 62
     0
100
AcDbPoint
 10
-112.957316363872
 20
160.5851256316512
 30
0.0
  0
ENDBLK
  5
D60
330
D5E
100
AcDbEntity
  8
0
100
AcDbBlockEnd
  0
ENDSEC
  0
SECTION
  2
ENTITIES
  0
LINE
  5
E4
330
6B
100
AcDbEntity
  8
0
 62
     3
100
AcDbLine
 10
-51.41686400000001
 20
-27.625528
 30
0.0
 11
-51.41686400000001
 21
-4.625528
 31
0.0
  0
LINE
  5
E6
330
6B
100
AcDbEntity
  8
0
 62
     3
100
AcDbLine
 10
-104.470473
 20
-34.625528
 30
0.0
 11
-104.470473
 21
-20.625528
 31
0.0
  0
TEXT
  5
E8
330
6B
100
AcDbEntity
  8
0
 62
     3
100
AcDbText
 10
-75.40654599999999
 20
-8.420411999999998
 30
0.0
 40
2.0
  1
A
 41
0.7
100
AcDbText
  0
TEXT
  5
E9
330
6B
100
AcDbEntity
  8
0
 62
     3
100
AcDbText
 10
-72.87125999999999
 20
-8.420411999999998
 30
0.0
 40
2.0
  1
P
 41
0.7
100
AcDbText
  0
TEXT
  5
EA
330
6B
100
AcDbEntity
  8
0
 62
     3
100
AcDbText
 10
-70.335973
 20
-8.420411999999998
 30
0.0
 40
2.0
  1
P
 41
0.7
100
AcDbText
  0
TEXT
  5
EB
330
6B
100
AcDbEntity
  8
0
 62
     3
100
AcDbText
 10
-67.800687
 20
-8.420411999999998
 30
0.0
 40
2.0
  1
D
 41
0.7
100
AcDbText
  0
TEXT
  5
EC
330
6B
100
AcDbEntity
  8
0
 62
     3
100
AcDbText
 10
-62.432004
 20
-8.420411999999998
 30
0.0
 40
2.0
  1
C
 41
0.7
100
AcDbText
  0
TEXT
  5
ED
330
6B
100
AcDbEntity
  8
0
 62
     3
100
AcDbText
 10
-59.896718
 20
-8.420411999999998
 30
0.0
 40
2.0
  1
H
 41
0.7
100
AcDbText
  0
TEXT
  5
EE
330
6B
100
AcDbEntity
  8
0
 62
     3
100
AcDbText
 10
-57.36143199999999
 20
-8.420411999999998
 30
0.0
 40
2.0
  1
C
 41
0.7
100
AcDbText
  0
TEXT
  5
EF
330
6B
100
AcDbEntity
  8
0
 62
     3
100
AcDbText
 10
-54.826145
 20
-8.420411999999998
 30
0.0
 40
2.0
  1
K
 41
0.7
100
AcDbText
  0
TEXT
  5
F0
330
6B
100
AcDbEntity
  8
0
 62
     3
100
AcDbText
 10
-49.152179
 20
-8.420411999999998
 30
0.0
 40
2.0
  1
DESN
 41
1.216762999999999
100
AcDbText
  0
TEXT
  5
F1
330
6B
100
AcDbEntity
  8
0
 62
     3
100
AcDbText
 10
-134.158538
 20
-37.76691
 30
0.0
 40
2.0
  1
NICHIDO IND.CO.LTD
 41
1.274876
100
AcDbText
  0
LINE
  5
F2
330
6B
100
AcDbEntity
  8
0
 62
     3
100
AcDbLine
 10
-123.775508
 20
-4.625528
 30
0.0
 11
-123.775508
 21
-27.625528
 31
0.0
  0
LINE
  5
F3
330
6B
100
AcDbEntity
  8
0
 62
     3
100
AcDbLine
 10
-77.41686399999998
 20
-4.625527999999999
 30
0.0
 11
-77.416864
 21
-44.291251
 31
0.0
  0
LINE
  5
F8
330
6B
100
AcDbEntity
  8
0
 62
     3
100
AcDbLine
 10
-64.416864
 20
-4.625528
 30
0.0
 11
-64.416864
 21
-34.625528
 31
0.0
  0
TEXT
  5
F9
330
6B
100
AcDbEntity
  8
0
 62
     3
100
AcDbText
 10
-76.304419
 20
-33.760841
 30
0.0
 40
3.2
  1
作成日
 41
1.017225999999999
100
AcDbText
  0
LINE
  5
FA
330
6B
100
AcDbEntity
  8
0
 62
     3
100
AcDbLine
 10
-25.7175
 20
-4.625528
 30
0.0
 11
-137.020943
 21
-4.625528
 31
0.0
  0
LINE
  5
FB
330
6B
100
AcDbEntity
  8
0
 62
     3
100
AcDbLine
 10
-38.416864
 20
-27.625528
 30
0.0
 11
-38.416864
 21
-4.625528
 31
0.0
  0
TEXT
  5
FC
330
6B
100
AcDbEntity
  8
0
 62
     3
100
AcDbText
 10
-35.093061
 20
-8.334594
 30
0.0
 40
1.8
  1
D
 41
0.666667
100
AcDbText
  0
TEXT
  5
FD
330
6B
100
AcDbEntity
  8
0
 62
     3
100
AcDbText
 10
-32.276432
 20
-8.334594
 30
0.0
 40
1.8
  1
E
 41
0.666667
100
AcDbText
  0
TEXT
  5
FE
330
6B
100
AcDbEntity
  8
0
 62
     3
100
AcDbText
 10
-29.459804
 20
-8.334594
 30
0.0
 40
1.8
  1
F
 41
0.666667
100
AcDbText
  0
TEXT
  5
FF
330
6B
100
AcDbEntity
  8
0
 62
     3
100
AcDbText
 10
-35.093061
 20
-12.327147
 30
0.0
 40
3.2
  1
製図
 41
1.076369
100
AcDbText
  0
LINE
  5
100
330
6B
100
AcDbEntity
  8
0
 62
     3
100
AcDbLine
 10
-137.020943
 20
-4.625528
 30
0.0
 11
-137.020943
 21
-44.291251
 31
0.0
  0
TEXT
  5
101
330
6B
100
AcDbEntity
  8
0
 62
     3
100
AcDbText
 10
-135.64429
 20
-43.958785
 30
0.0
 40
5.0
  1
日動工業株式会社
 41
0.833333
100
AcDbText
  0
LINE
  5
102
330
6B
100
AcDbEntity
  8
0
 62
     3
100
AcDbLine
 10
-94.13853900000001
 20
-20.625528
 30
0.0
 11
-94.13853899999999
 21
-44.291251
 31
0.0
  0
LINE
  5
103
330
6B
100
AcDbEntity
  8
0
 62
     3
100
AcDbLine
 10
-94.13853899999999
 20
-39.458389
 30
0.0
 11
-77.416864
 21
-39.458389
 31
0.0
  0
TEXT
  5
104
330
6B
100
AcDbEntity
  8
0
 62
     3
100
AcDbText
 10
-93.55193699999999
 20
-38.641959
 30
0.0
 40
3.2
  1
出図コード
 41
0.8356860000000001
100
AcDbText
  0
LINE
  5
116
330
6B
100
AcDbEntity
  8
0
 62
     3
100
AcDbLine
 10
-137.020943
 20
-34.625528
 30
0.0
 11
-25.7175
 21
-34.625528
 31
0.0
  0
LINE
  5
118
330
6B
100
AcDbEntity
  8
0
 62
     3
100
AcDbLine
 10
-137.020943
 20
-13.625528
 30
0.0
 11
-25.7175
 21
-13.625528
 31
0.0
  0
LINE
  5
11E
330
6B
100
AcDbEntity
  8
0
 62
     3
100
AcDbLine
 10
-137.020943
 20
-20.625528
 30
0.0
 11
-77.416864
 21
-20.625528
 31
0.0
  0
LINE
  5
124
330
6B
100
AcDbEntity
  8
0
 62
     3
100
AcDbLine
 10
-137.020943
 20
-27.625528
 30
0.0
 11
-25.7175
 21
-27.625528
 31
0.0
  0
LINE
  5
128
330
6B
100
AcDbEntity
  8
0
 62
     3
100
AcDbLine
 10
-25.7175
 20
229.76411
 30
0.0
 11
-25.7175
 21
-44.29125099999999
 31
0.0
  0
LINE
  5
129
330
6B
100
AcDbEntity
  8
0
 62
     3
100
AcDbLine
 10
-415.7174999999999
 20
229.76411
 30
0.0
 11
-415.7174999999999
 21
-44.291251
 31
0.0
  0
LINE
  5
12A
330
6B
100
AcDbEntity
  8
0
 62
     3
100
AcDbLine
 10
-25.7175
 20
-44.291251
 30
0.0
 11
-415.7174999999999
 21
-44.291251
 31
0.0
  0
TEXT
  5
12D
330
6B
100
AcDbEntity
  8
0
 62
     3
100
AcDbText
 10
-93.68448499999999
 20
-43.91069129973402
 30
0.0
 40
3.2
  1
ZK-A3X
 41
0.8112849999999999
100
AcDbText
  0
LINE
  5
12E
330
6B
100
AcDbEntity
  8
0
 62
     2
100
AcDbLine
 10
-237.942611
 20
232.204113
 30
0.0
 11
-237.320114
 21
231.879158
 31
0.0
  0
LINE
  5
12F
330
6B
100
AcDbEntity
  8
0
 62
     2
100
AcDbLine
 10
-237.942611
 20
226.87464
 30
0.0
 11
-237.320114
 21
227.199595
 31
0.0
  0
LINE
  5
130
330
6B
100
AcDbEntity
  8
0
 62
     2
100
AcDbLine
 10
-237.320114
 20
231.879158
 30
0.0
 11
-237.320114
 21
227.199595
 31
0.0
  0
LINE
  5
131
330
6B
100
AcDbEntity
  8
0
 62
     2
100
AcDbLine
 10
-235.74366
 20
226.87464
 30
0.0
 11
-236.366157
 21
227.199595
 31
0.0
  0
LINE
  5
132
330
6B
100
AcDbEntity
  8
0
 62
     2
100
AcDbLine
 10
-236.366157
 20
230.05225
 30
0.0
 11
-236.366157
 21
227.199595
 31
0.0
  0
LINE
  5
133
330
6B
100
AcDbEntity
  8
0
 62
     2
100
AcDbLine
 10
-232.112428
 20
232.204113
 30
0.0
 11
-232.734925
 21
231.879158
 31
0.0
  0
LINE
  5
134
330
6B
100
AcDbEntity
  8
0
 62
     2
100
AcDbLine
 10
-234.311378
 20
232.204113
 30
0.0
 11
-233.688881
 21
231.879158
 31
0.0
  0
LINE
  5
135
330
6B
100
AcDbEntity
  8
0
 62
     2
100
AcDbLine
 10
-233.688881
 20
231.879158
 30
0.0
 11
-233.688881
 21
229.818677
 31
0.0
  0
LINE
  5
136
330
6B
100
AcDbEntity
  8
0
 62
     2
100
AcDbLine
 10
-232.734925
 20
231.879158
 30
0.0
 11
-232.734925
 21
226.57241
 31
0.0
  0
LINE
  5
137
330
6B
100
AcDbEntity
  8
0
 62
     2
100
AcDbLine
 10
-231.80486
 20
232.204109
 30
0.0
 11
-231.182366
 21
231.87915
 31
0.0
  0
LINE
  5
138
330
6B
100
AcDbEntity
  8
0
 62
     2
100
AcDbLine
 10
-231.804972
 20
226.874712
 30
0.0
 11
-231.182464
 21
227.199645
 31
0.0
  0
LINE
  5
139
330
6B
100
AcDbEntity
  8
0
 62
     2
100
AcDbLine
 10
-231.182366
 20
231.87915
 30
0.0
 11
-231.182366
 21
227.199645
 31
0.0
  0
LINE
  5
13A
330
6B
100
AcDbEntity
  8
0
 62
     2
100
AcDbLine
 10
-229.04838
 20
232.204075
 30
0.0
 11
-229.670881
 21
231.879129
 31
0.0
  0
LINE
  5
13B
330
6B
100
AcDbEntity
  8
0
 62
     2
100
AcDbLine
 10
-229.670881
 20
231.879129
 30
0.0
 11
-229.670881
 21
227.199624
 31
0.0
  0
LINE
  5
13C
330
6B
100
AcDbEntity
  8
0
 62
     2
100
AcDbLine
 10
-229.04838
 20
226.874678
 30
0.0
 11
-229.670881
 21
227.199624
 31
0.0
  0
LINE
  5
13D
330
6B
100
AcDbEntity
  8
0
 62
     2
100
AcDbLine
 10
-223.776589
 20
232.204016
 30
0.0
 11
-223.154093
 21
231.87906
 31
0.0
  0
LINE
  5
13E
330
6B
100
AcDbEntity
  8
0
 62
     2
100
AcDbLine
 10
-223.154093
 20
231.87906
 30
0.0
 11
-223.154175
 21
227.199554
 31
0.0
  0
LINE
  5
13F
330
6B
100
AcDbEntity
  8
0
 62
     2
100
AcDbLine
 10
-223.776682
 20
226.874619
 30
0.0
 11
-223.154175
 21
227.199554
 31
0.0
  0
LINE
  5
140
330
6B
100
AcDbEntity
  8
0
 62
     2
100
AcDbLine
 10
-220.987645
 20
232.204016
 30
0.0
 11
-221.610141
 21
231.87906
 31
0.0
  0
LINE
  5
141
330
6B
100
AcDbEntity
  8
0
 62
     2
100
AcDbLine
 10
-220.987552
 20
226.874619
 30
0.0
 11
-221.610059
 21
227.199554
 31
0.0
  0
LINE
  5
142
330
6B
100
AcDbEntity
  8
0
 62
     2
100
AcDbLine
 10
-220.696605
 20
232.204016
 30
0.0
 11
-220.074109
 21
231.87906
 31
0.0
  0
LINE
  5
143
330
6B
100
AcDbEntity
  8
0
 62
     2
100
AcDbLine
 10
-220.696698
 20
226.874619
 30
0.0
 11
-220.074191
 21
227.199554
 31
0.0
  0
LINE
  5
144
330
6B
100
AcDbEntity
  8
0
 62
     2
100
AcDbLine
 10
-217.907661
 20
232.204016
 30
0.0
 11
-218.530157
 21
231.87906
 31
0.0
  0
LINE
  5
145
330
6B
100
AcDbEntity
  8
0
 62
     2
100
AcDbLine
 10
-218.530157
 20
231.87906
 30
0.0
 11
-218.530075
 21
227.199554
 31
0.0
  0
LINE
  5
146
330
6B
100
AcDbEntity
  8
0
 62
     2
100
AcDbLine
 10
-217.907568
 20
226.874619
 30
0.0
 11
-218.530075
 21
227.199554
 31
0.0
  0
LINE
  5
147
330
6B
100
AcDbEntity
  8
0
 62
     2
100
AcDbLine
 10
-220.074145
 20
229.840298
 30
0.0
 11
-221.610105
 21
229.840298
 31
0.0
  0
LINE
  5
148
330
6B
100
AcDbEntity
  8
0
 62
     2
100
AcDbLine
 10
-220.074155
 20
229.238455
 30
0.0
 11
-221.610095
 21
229.238455
 31
0.0
  0
LINE
  5
149
330
6B
100
AcDbEntity
  8
0
 62
     2
100
AcDbLine
 10
-220.074109
 20
231.87906
 30
0.0
 11
-220.074145
 21
229.840298
 31
0.0
  0
LINE
  5
14A
330
6B
100
AcDbEntity
  8
0
 62
     2
100
AcDbLine
 10
-220.074155
 20
229.238455
 30
0.0
 11
-220.074191
 21
227.199554
 31
0.0
  0
LINE
  5
14B
330
6B
100
AcDbEntity
  8
0
 62
     2
100
AcDbLine
 10
-221.610141
 20
231.87906
 30
0.0
 11
-221.610105
 21
229.840298
 31
0.0
  0
LINE
  5
14C
330
6B
100
AcDbEntity
  8
0
 62
     2
100
AcDbLine
 10
-221.610095
 20
229.238455
 30
0.0
 11
-221.610059
 21
227.199554
 31
0.0
  0
LINE
  5
14D
330
6B
100
AcDbEntity
  8
0
 62
     2
100
AcDbLine
 10
-217.612005
 20
232.204016
 30
0.0
 11
-216.989509
 21
231.87906
 31
0.0
  0
LINE
  5
14E
330
6B
100
AcDbEntity
  8
0
 62
     2
100
AcDbLine
 10
-216.989509
 20
231.87906
 30
0.0
 11
-216.989591
 21
227.199554
 31
0.0
  0
LINE
  5
14F
330
6B
100
AcDbEntity
  8
0
 62
     2
100
AcDbLine
 10
-217.612098
 20
226.874619
 30
0.0
 11
-216.989591
 21
227.199554
 31
0.0
  0
LINE
  5
150
330
6B
100
AcDbEntity
  8
0
 62
     2
100
AcDbLine
 10
-214.855562
 20
232.204016
 30
0.0
 11
-215.478058
 21
231.87906
 31
0.0
  0
LINE
  5
151
330
6B
100
AcDbEntity
  8
0
 62
     2
100
AcDbLine
 10
-215.478058
 20
231.87906
 30
0.0
 11
-215.477976
 21
227.199554
 31
0.0
  0
LINE
  5
152
330
6B
100
AcDbEntity
  8
0
 62
     2
100
AcDbLine
 10
-214.855469
 20
226.874619
 30
0.0
 11
-215.477976
 21
227.199554
 31
0.0
  0
LINE
  5
153
330
6B
100
AcDbEntity
  8
0
 62
     2
100
AcDbLine
 10
-214.549334
 20
232.204016
 30
0.0
 11
-213.926838
 21
231.87906
 31
0.0
  0
LINE
  5
154
330
6B
100
AcDbEntity
  8
0
 62
     2
100
AcDbLine
 10
-213.926838
 20
231.87906
 30
0.0
 11
-213.92692
 21
227.199554
 31
0.0
  0
LINE
  5
155
330
6B
100
AcDbEntity
  8
0
 62
     2
100
AcDbLine
 10
-214.549427
 20
226.874619
 30
0.0
 11
-213.92692
 21
227.199554
 31
0.0
  0
ARC
  5
156
330
6B
100
AcDbEntity
  8
0
 62
     2
100
AcDbCircle
 10
-225.765034
 20
229.55279
 30
0.0
 40
2.980408
100
AcDbArc
 50
97.701524
 51
270.0
  0
ARC
  5
157
330
6B
100
AcDbEntity
  8
0
 62
     2
100
AcDbCircle
 10
-207.364176
 20
229.522852
 30
0.0
 40
3.012775999999999
100
AcDbArc
 50
0.31425
 51
69.00558199999998
  0
ARC
  5
158
330
6B
100
AcDbEntity
  8
0
 62
     2
100
AcDbCircle
 10
-206.706068
 20
229.522852
 30
0.0
 40
3.012775999999999
100
AcDbArc
 50
110.994418
 51
148.116611
  0
ARC
  5
159
330
6B
100
AcDbEntity
  8
0
 62
     2
100
AcDbCircle
 10
-207.364176
 20
229.555901
 30
0.0
 40
3.012775999999999
100
AcDbArc
 50
290.994418
 51
359.68575
  0
ARC
  5
15A
330
6B
100
AcDbEntity
  8
0
 62
     2
100
AcDbCircle
 10
-206.706068
 20
229.555901
 30
0.0
 40
3.012775999999999
100
AcDbArc
 50
211.883389
 51
249.005582
  0
ARC
  5
15B
330
6B
100
AcDbEntity
  8
0
 62
     2
100
AcDbCircle
 10
-207.035122
 20
230.771956
 30
0.0
 40
1.734386999999999
100
AcDbArc
 50
64.365172
 51
115.634828
  0
ARC
  5
15C
330
6B
100
AcDbEntity
  8
0
 62
     2
100
AcDbCircle
 10
-207.035122
 20
228.306797
 30
0.0
 40
1.734386999999999
100
AcDbArc
 50
244.365172
 51
295.634828
  0
ARC
  5
15D
330
6B
100
AcDbEntity
  8
0
 62
     2
100
AcDbCircle
 10
-207.035122
 20
230.804901
 30
0.0
 40
0.8512219999999999
100
AcDbArc
 50
19.486606
 51
160.513394
  0
ARC
  5
15E
330
6B
100
AcDbEntity
  8
0
 62
     2
100
AcDbCircle
 10
-207.035122
 20
228.273852
 30
0.0
 40
0.8512219999999999
100
AcDbArc
 50
199.4866059999999
 51
340.513394
  0
ARC
  5
15F
330
6B
100
AcDbEntity
  8
0
 62
     3
100
AcDbCircle
 10
-213.810083
 20
197.785005
 30
0.0
 40
37.20000000000001
100
AcDbArc
 50
69.50571500000001
 51
81.689988
  0
ARC
  5
160
330
6B
100
AcDbEntity
  8
0
 62
     3
100
AcDbCircle
 10
-213.810083
 20
261.293748
 30
0.0
 40
37.20000000000001
100
AcDbArc
 50
278.310012
 51
290.494285
  0
ARC
  5
161
330
6B
100
AcDbEntity
  8
0
 62
     3
100
AcDbCircle
 10
-201.941219
 20
229.539376
 30
0.0
 40
3.299999999999999
100
AcDbArc
 50
290.494285
 51
69.50571500000001
  0
ARC
  5
162
330
6B
100
AcDbEntity
  8
0
 62
     3
100
AcDbCircle
 10
-240.941219
 20
229.539376
 30
0.0
 40
3.299999999999999
100
AcDbArc
 50
110.494285
 51
249.505715
  0
ARC
  5
163
330
6B
100
AcDbEntity
  8
0
 62
     3
100
AcDbCircle
 10
-229.072356
 20
197.785005
 30
0.0
 40
37.20000000000001
100
AcDbArc
 50
98.31001200000001
 51
110.494285
  0
ARC
  5
164
330
6B
100
AcDbEntity
  8
0
 62
     3
100
AcDbCircle
 10
-229.072356
 20
261.293748
 30
0.0
 40
37.20000000000001
100
AcDbArc
 50
249.505715
 51
261.689988
  0
ARC
  5
165
330
6B
100
AcDbEntity
  8
0
 62
     3
100
AcDbCircle
 10
-221.441219
 20
145.539376
 30
0.0
 40
90.0
100
AcDbArc
 50
81.689988
 51
98.31001200000001
  0
ARC
  5
166
330
6B
100
AcDbEntity
  8
0
 62
     3
100
AcDbCircle
 10
-221.441219
 20
313.539376
 30
0.0
 40
90.0
100
AcDbArc
 50
261.689988
 51
278.310012
  0
ARC
  5
167
330
6B
100
AcDbEntity
  8
0
 62
     3
100
AcDbCircle
 10
-221.441219
 20
145.539376
 30
0.0
 40
89.1
100
AcDbArc
 50
81.689988
 51
98.31001200000001
  0
ARC
  5
168
330
6B
100
AcDbEntity
  8
0
 62
     3
100
AcDbCircle
 10
-221.441219
 20
313.539376
 30
0.0
 40
89.1
100
AcDbArc
 50
261.689988
 51
278.310012
  0
ARC
  5
169
330
6B
100
AcDbEntity
  8
0
 62
     3
100
AcDbCircle
 10
-213.810083
 20
261.293748
 30
0.0
 40
36.3
100
AcDbArc
 50
278.310012
 51
290.494285
  0
ARC
  5
16A
330
6B
100
AcDbEntity
  8
0
 62
     3
100
AcDbCircle
 10
-213.810083
 20
197.785005
 30
0.0
 40
36.3
100
AcDbArc
 50
69.50571500000001
 51
81.689988
  0
ARC
  5
16B
330
6B
100
AcDbEntity
  8
0
 62
     3
100
AcDbCircle
 10
-201.941219
 20
229.539376
 30
0.0
 40
2.399999999999999
100
AcDbArc
 50
290.494285
 51
69.50571500000001
  0
ARC
  5
16C
330
6B
100
AcDbEntity
  8
0
 62
     3
100
AcDbCircle
 10
-240.941219
 20
229.539376
 30
0.0
 40
2.399999999999999
100
AcDbArc
 50
110.494285
 51
249.505715
  0
ARC
  5
16D
330
6B
100
AcDbEntity
  8
0
 62
     3
100
AcDbCircle
 10
-229.072356
 20
197.785005
 30
0.0
 40
36.3
100
AcDbArc
 50
98.31001200000001
 51
110.494285
  0
ARC
  5
16E
330
6B
100
AcDbEntity
  8
0
 62
     3
100
AcDbCircle
 10
-229.072356
 20
261.293748
 30
0.0
 40
36.3
100
AcDbArc
 50
249.505715
 51
261.689988
  0
LINE
  5
16F
330
6B
100
AcDbEntity
  8
0
 62
     2
100
AcDbLine
 10
-214.855561
 20
226.57241
 30
0.0
 11
-217.612006
 21
226.57241
 31
0.0
  0
LINE
  5
170
330
6B
100
AcDbEntity
  8
0
 62
     2
100
AcDbLine
 10
-214.855561
 20
226.87464
 30
0.0
 11
-214.855561
 21
226.57241
 31
0.0
  0
LINE
  5
171
330
6B
100
AcDbEntity
  8
0
 62
     2
100
AcDbLine
 10
-217.90766
 20
232.506202
 30
0.0
 11
-220.696606
 21
232.506202
 31
0.0
  0
LINE
  5
172
330
6B
100
AcDbEntity
  8
0
 62
     2
100
AcDbLine
 10
-217.90766
 20
232.506202
 30
0.0
 11
-217.90766
 21
232.204113
 31
0.0
  0
LINE
  5
173
330
6B
100
AcDbEntity
  8
0
 62
     2
100
AcDbLine
 10
-217.90766
 20
226.87464
 30
0.0
 11
-217.90766
 21
226.572269
 31
0.0
  0
LINE
  5
174
330
6B
100
AcDbEntity
  8
0
 62
     2
100
AcDbLine
 10
-217.90766
 20
226.572269
 30
0.0
 11
-220.696606
 21
226.572269
 31
0.0
  0
LINE
  5
175
330
6B
100
AcDbEntity
  8
0
 62
     2
100
AcDbLine
 10
-214.855561
 20
232.506343
 30
0.0
 11
-214.855561
 21
232.204113
 31
0.0
  0
LINE
  5
176
330
6B
100
AcDbEntity
  8
0
 62
     2
100
AcDbLine
 10
-214.855561
 20
232.506343
 30
0.0
 11
-217.612006
 21
232.506343
 31
0.0
  0
LINE
  5
177
330
6B
100
AcDbEntity
  8
0
 62
     2
100
AcDbLine
 10
-217.612006
 20
232.506343
 30
0.0
 11
-217.612006
 21
232.204113
 31
0.0
  0
LINE
  5
178
330
6B
100
AcDbEntity
  8
0
 62
     2
100
AcDbLine
 10
-214.549335
 20
226.87464
 30
0.0
 11
-214.549335
 21
226.57241
 31
0.0
  0
LINE
  5
179
330
6B
100
AcDbEntity
  8
0
 62
     2
100
AcDbLine
 10
-211.71462
 20
226.57241
 30
0.0
 11
-214.549335
 21
226.57241
 31
0.0
  0
LINE
  5
17A
330
6B
100
AcDbEntity
  8
0
 62
     2
100
AcDbLine
 10
-212.415387
 20
231.552386
 30
0.0
 11
-212.415387
 21
227.526367
 31
0.0
  0
LINE
  5
17B
330
6B
100
AcDbEntity
  8
0
 62
     2
100
AcDbLine
 10
-212.415387
 20
227.526367
 30
0.0
 11
-212.143888
 21
227.526367
 31
0.0
  0
ARC
  5
17C
330
6B
100
AcDbEntity
  8
0
 62
     2
100
AcDbCircle
 10
-213.532153
 20
229.539376
 30
0.0
 40
2.445299
100
AcDbArc
 50
304.591955
 51
55.408045
  0
LINE
  5
17D
330
6B
100
AcDbEntity
  8
0
 62
     2
100
AcDbLine
 10
-211.71462
 20
232.506343
 30
0.0
 11
-214.549335
 21
232.506343
 31
0.0
  0
LINE
  5
17E
330
6B
100
AcDbEntity
  8
0
 62
     2
100
AcDbLine
 10
-214.549335
 20
232.506343
 30
0.0
 11
-214.549335
 21
232.204113
 31
0.0
  0
LINE
  5
17F
330
6B
100
AcDbEntity
  8
0
 62
     2
100
AcDbLine
 10
-217.612006
 20
226.87464
 30
0.0
 11
-217.612006
 21
226.57241
 31
0.0
  0
LINE
  5
180
330
6B
100
AcDbEntity
  8
0
 62
     2
100
AcDbLine
 10
-212.415387
 20
231.552386
 30
0.0
 11
-212.143888
 21
231.552386
 31
0.0
  0
LINE
  5
181
330
6B
100
AcDbEntity
  8
0
 62
     2
100
AcDbLine
 10
-229.048472
 20
226.87464
 30
0.0
 11
-229.048477
 21
226.572382
 31
0.0
  0
LINE
  5
182
330
6B
100
AcDbEntity
  8
0
 62
     2
100
AcDbLine
 10
-231.804923
 20
226.572438
 30
0.0
 11
-229.048477
 21
226.57239
 31
0.0
  0
LINE
  5
183
330
6B
100
AcDbEntity
  8
0
 62
     2
100
AcDbLine
 10
-237.942611
 20
226.57241
 30
0.0
 11
-235.74366
 21
226.57241
 31
0.0
  0
ARC
  5
184
330
6B
100
AcDbEntity
  8
0
 62
     2
100
AcDbCircle
 10
-245.059672
 20
229.609243
 30
0.0
 40
21.019379
100
AcDbArc
 50
353.866006
 51
357.694034
  0
LINE
  5
185
330
6B
100
AcDbEntity
  8
0
 62
     2
100
AcDbLine
 10
-225.464558
 20
228.768718
 30
0.0
 11
-224.057314
 21
228.763511
 31
0.0
  0
LINE
  5
1C8
330
6B
100
AcDbEntity
  8
0
 62
     2
100
AcDbLine
 10
-225.458874
 20
230.304739
 30
0.0
 11
-224.05163
 21
230.299532
 31
0.0
  0
ARC
  5
1C9
330
6B
100
AcDbEntity
  8
0
 62
     2
100
AcDbCircle
 10
-245.059672
 20
229.609243
 30
0.0
 40
21.019379
100
AcDbArc
 50
1.881965999999999
 51
5.709994
  0
LINE
  5
1CA
330
6B
100
AcDbEntity
  8
0
 62
     2
100
AcDbLine
 10
-229.048374
 20
232.506314
 30
0.0
 11
-229.048379
 21
232.204113
 31
0.0
  0
LINE
  5
1CB
330
6B
100
AcDbEntity
  8
0
 62
     2
100
AcDbLine
 10
-231.804819
 20
232.506371
 30
0.0
 11
-229.048374
 21
232.506323
 31
0.0
  0
LINE
  5
1CC
330
6B
100
AcDbEntity
  8
0
 62
     2
100
AcDbLine
 10
-231.804917
 20
226.87464
 30
0.0
 11
-231.804923
 21
226.572438
 31
0.0
  0
LINE
  5
1CD
330
6B
100
AcDbEntity
  8
0
 62
     2
100
AcDbLine
 10
-231.804819
 20
232.506371
 30
0.0
 11
-231.804824
 21
232.204113
 31
0.0
  0
LINE
  5
1CE
330
6B
100
AcDbEntity
  8
0
 62
     2
100
AcDbLine
 10
-235.74366
 20
226.87464
 30
0.0
 11
-235.74366
 21
226.57241
 31
0.0
  0
LINE
  5
1CF
330
6B
100
AcDbEntity
  8
0
 62
     2
100
AcDbLine
 10
-236.366157
 20
230.05225
 30
0.0
 11
-234.191257
 21
226.57241
 31
0.0
  0
LINE
  5
1D0
330
6B
100
AcDbEntity
  8
0
 62
     2
100
AcDbLine
 10
-234.191257
 20
226.57241
 30
0.0
 11
-232.734925
 21
226.57241
 31
0.0
  0
LINE
  5
1D1
330
6B
100
AcDbEntity
  8
0
 62
     2
100
AcDbLine
 10
-232.112428
 20
232.506343
 30
0.0
 11
-232.112428
 21
232.204113
 31
0.0
  0
LINE
  5
1D2
330
6B
100
AcDbEntity
  8
0
 62
     2
100
AcDbLine
 10
-234.311378
 20
232.506343
 30
0.0
 11
-232.112428
 21
232.506343
 31
0.0
  0
LINE
  5
1D3
330
6B
100
AcDbEntity
  8
0
 62
     2
100
AcDbLine
 10
-234.311378
 20
232.506343
 30
0.0
 11
-234.311378
 21
232.204113
 31
0.0
  0
LINE
  5
1D4
330
6B
100
AcDbEntity
  8
0
 62
     2
100
AcDbLine
 10
-233.688881
 20
229.818677
 30
0.0
 11
-235.452662
 21
232.506343
 31
0.0
  0
LINE
  5
1D5
330
6B
100
AcDbEntity
  8
0
 62
     2
100
AcDbLine
 10
-237.942611
 20
232.506343
 30
0.0
 11
-235.452662
 21
232.506343
 31
0.0
  0
LINE
  5
1D6
330
6B
100
AcDbEntity
  8
0
 62
     2
100
AcDbLine
 10
-223.77659
 20
232.506202
 30
0.0
 11
-220.987644
 21
232.506202
 31
0.0
  0
LINE
  5
1D7
330
6B
100
AcDbEntity
  8
0
 62
     2
100
AcDbLine
 10
-223.77659
 20
232.204113
 30
0.0
 11
-223.77659
 21
232.506202
 31
0.0
  0
LINE
  5
1D8
330
6B
100
AcDbEntity
  8
0
 62
     2
100
AcDbLine
 10
-223.77659
 20
226.572269
 30
0.0
 11
-223.77659
 21
226.87464
 31
0.0
  0
LINE
  5
1D9
330
6B
100
AcDbEntity
  8
0
 62
     2
100
AcDbLine
 10
-223.77659
 20
226.572269
 30
0.0
 11
-220.987644
 21
226.572269
 31
0.0
  0
LINE
  5
1DA
330
6B
100
AcDbEntity
  8
0
 62
     2
100
AcDbLine
 10
-220.696606
 20
226.87464
 30
0.0
 11
-220.696606
 21
226.572269
 31
0.0
  0
LINE
  5
1DB
330
6B
100
AcDbEntity
  8
0
 62
     2
100
AcDbLine
 10
-220.987644
 20
226.87464
 30
0.0
 11
-220.987644
 21
226.572269
 31
0.0
  0
LINE
  5
1DC
330
6B
100
AcDbEntity
  8
0
 62
     2
100
AcDbLine
 10
-220.987644
 20
232.204113
 30
0.0
 11
-220.987644
 21
232.506202
 31
0.0
  0
LINE
  5
1DD
330
6B
100
AcDbEntity
  8
0
 62
     2
100
AcDbLine
 10
-220.696606
 20
232.204113
 30
0.0
 11
-220.696606
 21
232.506202
 31
0.0
  0
LINE
  5
1DE
330
6B
100
AcDbEntity
  8
0
 62
     2
100
AcDbLine
 10
-237.942611
 20
226.87464
 30
0.0
 11
-237.942611
 21
226.57241
 31
0.0
  0
LINE
  5
1DF
330
6B
100
AcDbEntity
  8
0
 62
     2
100
AcDbLine
 10
-237.942611
 20
232.506343
 30
0.0
 11
-237.942611
 21
232.204113
 31
0.0
  0
ARC
  5
1E0
330
6B
100
AcDbEntity
  8
0
 62
     2
100
AcDbCircle
 10
-211.41462
 20
230.161873
 30
0.0
 40
2.344468999999999
100
AcDbArc
 50
17.308749
 51
23.765071
  0
ARC
  5
1E1
330
6B
100
AcDbEntity
  8
0
 62
     2
100
AcDbCircle
 10
-213.412153
 20
229.539376
 30
0.0
 40
4.436751
100
AcDbArc
 50
342.691251
 51
17.308566
  0
ARC
  5
1E2
330
6B
100
AcDbEntity
  8
0
 62
     2
100
AcDbCircle
 10
-211.41462
 20
228.916879
 30
0.0
 40
2.344468999999999
100
AcDbArc
 50
336.234929
 51
342.691251
  0
ARC
  5
1E3
330
6B
100
AcDbEntity
  8
0
 62
     2
100
AcDbCircle
 10
-211.71462
 20
230.161873
 30
0.0
 40
2.344468999999999
100
AcDbArc
 50
17.308749
 51
90.0
  0
ARC
  5
1E4
330
6B
100
AcDbEntity
  8
0
 62
     2
100
AcDbCircle
 10
-213.712153
 20
229.539376
 30
0.0
 40
4.436751
100
AcDbArc
 50
342.691251
 51
17.308566
  0
ARC
  5
1E5
330
6B
100
AcDbEntity
  8
0
 62
     2
100
AcDbCircle
 10
-211.71462
 20
228.916879
 30
0.0
 40
2.344468999999999
100
AcDbArc
 50
270.0
 51
342.691251
  0
ARC
  5
1E6
330
6B
100
AcDbEntity
  8
0
 62
     2
100
AcDbCircle
 10
-226.177392
 20
229.539376
 30
0.0
 40
2.966965999999999
100
AcDbArc
 50
46.75287999999999
 51
89.749998
  0
ARC
  5
1E7
330
6B
100
AcDbEntity
  8
0
 62
     2
100
AcDbCircle
 10
-226.177392
 20
229.539376
 30
0.0
 40
2.966965999999999
100
AcDbArc
 50
273.976333
 51
312.82312
  0
ARC
  5
1E8
330
6B
100
AcDbEntity
  8
0
 62
     2
100
AcDbCircle
 10
-209.831952
 20
229.493574
 30
0.0
 40
3.936983999999999
100
AcDbArc
 50
0.6665840000000001
 51
23.903928
  0
ARC
  5
1E9
330
6B
100
AcDbEntity
  8
0
 62
     2
100
AcDbCircle
 10
-204.238292
 20
229.493574
 30
0.0
 40
3.936983999999999
100
AcDbArc
 50
156.096072
 51
179.333416
  0
ARC
  5
1EA
330
6B
100
AcDbEntity
  8
0
 62
     2
100
AcDbCircle
 10
-209.831952
 20
229.585179
 30
0.0
 40
3.936983999999999
100
AcDbArc
 50
336.096072
 51
359.333416
  0
ARC
  5
1EB
330
6B
100
AcDbEntity
  8
0
 62
     2
100
AcDbCircle
 10
-204.238292
 20
229.585179
 30
0.0
 40
3.936983999999999
100
AcDbArc
 50
180.666584
 51
203.903928
  0
LINE
  5
1EC
330
6B
100
AcDbEntity
  8
0
 62
     3
100
AcDbLine
 10
-197.060775
 20
229.76411
 30
0.0
 11
-25.7175
 21
229.76411
 31
0.0
  0
LINE
  5
1ED
330
6B
100
AcDbEntity
  8
0
 62
     3
100
AcDbLine
 10
-245.61481
 20
229.76411
 30
0.0
 11
-415.7174999999999
 21
229.76411
 31
0.0
  0
TEXT
  5
1EE
330
6B
100
AcDbEntity
  8
0
 62
     3
100
AcDbText
 10
-135.203546
 20
-8.456001999999999
 30
0.0
 40
2.0
  1
CONPONENTS
 41
0.5331600000000001
100
AcDbText
  0
TEXT
  5
1EF
330
6B
100
AcDbEntity
  8
0
 62
     3
100
AcDbText
 10
-135.553273
 20
-27.388179
 30
0.0
 40
3.0
  1
材
 41
0.833333
100
AcDbText
  0
TEXT
  5
1F0
330
6B
100
AcDbEntity
  8
0
 62
     3
100
AcDbText
 10
-128.01763
 20
-27.388179
 30
0.0
 40
3.0
  1
質
 41
0.833333
100
AcDbText
  0
TEXT
  5
1F1
330
6B
100
AcDbEntity
  8
0
 62
     3
100
AcDbText
 10
-135.465202
 20
-16.763655
 30
0.0
 40
2.0
  1
MODEL
 41
1.031072999999999
100
AcDbText
  0
TEXT
  5
1F2
330
6B
100
AcDbEntity
  8
0
 62
     3
100
AcDbText
 10
-135.553273
 20
-23.705871
 30
0.0
 40
2.0
  1
MATERIAL
 41
0.659278
100
AcDbText
  0
TEXT
  5
1F3
330
6B
100
AcDbEntity
  8
0
 62
     3
100
AcDbText
 10
-104.245992
 20
-27.388179
 30
0.0
 40
3.0
  1
備
 41
0.833333
100
AcDbText
  0
TEXT
  5
1F4
330
6B
100
AcDbEntity
  8
0
 62
     3
100
AcDbText
 10
-97.51299000000001
 20
-27.388179
 30
0.0
 40
3.0
  1
考
 41
0.833333
100
AcDbText
  0
TEXT
  5
1F5
330
6B
100
AcDbEntity
  8
0
 62
     3
100
AcDbText
 10
-103.8642755849478
 20
-23.705871
 30
0.0
 40
2.0
  1
REMARKS
 41
0.675794
100
AcDbText
  0
TEXT
  5
1F6
330
6B
100
AcDbEntity
  8
0
 62
     3
100
AcDbText
 10
-133.963544
 20
-30.625992
 30
0.0
 40
2.0
  1
3AD
 41
1.42614
100
AcDbText
  0
TEXT
  5
1F7
330
6B
100
AcDbEntity
  8
0
 62
     3
100
AcDbText
 10
-124.6525639999999
 20
-30.46025800000001
 30
0.0
 40
2.0
  1
ANGLE
 41
1.669883999999999
100
AcDbText
  0
TEXT
  5
1F8
330
6B
100
AcDbEntity
  8
0
 62
     3
100
AcDbText
 10
-103.718677
 20
-30.837099
 30
0.0
 40
2.0
  1
SCALE
 41
0.7719630000000001
100
AcDbText
  0
TEXT
  5
1F9
330
6B
100
AcDbEntity
  8
0
 62
     3
100
AcDbText
 10
-134.277414
 20
-34.625528
 30
0.0
 40
3.0
  1
第
 41
0.833333
100
AcDbText
  0
TEXT
  5
1FA
330
6B
100
AcDbEntity
  8
0
 62
     3
100
AcDbText
 10
-126.490564
 20
-34.625528
 30
0.0
 40
3.0
  1
三
 41
0.833333
100
AcDbText
  0
TEXT
  5
1FB
330
6B
100
AcDbEntity
  8
0
 62
     3
100
AcDbText
 10
-118.703714
 20
-34.625528
 30
0.0
 40
3.0
  1
角
 41
0.833333
100
AcDbText
  0
TEXT
  5
1FC
330
6B
100
AcDbEntity
  8
0
 62
     3
100
AcDbText
 10
-110.916864
 20
-34.625528
 30
0.0
 40
3.0
  1
法
 41
0.833333
100
AcDbText
  0
TEXT
  5
1FD
330
6B
100
AcDbEntity
  8
0
 62
     3
100
AcDbText
 10
-103.855472
 20
-34.337099
 30
0.0
 40
3.0
  1
尺
 41
0.833333
100
AcDbText
  0
TEXT
  5
1FE
330
6B
100
AcDbEntity
  8
0
 62
     3
100
AcDbText
 10
-97.12246999999999
 20
-34.337099
 30
0.0
 40
3.0
  1
度
 41
0.833333
100
AcDbText
  0
TEXT
  5
1FF
330
6B
100
AcDbEntity
  8
0
 62
     3
100
AcDbText
 10
-74.5392
 20
-12.167799
 30
0.0
 40
3.0
  1
承認
 41
1.089472999999999
100
AcDbText
  0
TEXT
  5
200
330
6B
100
AcDbEntity
  8
0
 62
     3
100
AcDbText
 10
-61.29631899999999
 20
-12.225528
 30
0.0
 40
3.0
  1
検図
 41
0.931761
100
AcDbText
  0
TEXT
  5
201
330
6B
100
AcDbEntity
  8
0
 62
     3
100
AcDbText
 10
-48.29592299999999
 20
-12.225528
 30
0.0
 40
3.0
  1
設
 41
0.833333
100
AcDbText
  0
TEXT
  5
202
330
6B
100
AcDbEntity
  8
0
 62
     3
100
AcDbText
 10
-43.806055
 20
-12.225528
 30
0.0
 40
3.0
  1
計
 41
0.833333
100
AcDbText
  0
TEXT
  5
203
330
6B
100
AcDbEntity
  8
0
 62
     3
100
AcDbText
 10
-135.133439
 20
-12.052976
 30
0.0
 40
3.0
  1
品
 41
0.833333
100
AcDbText
  0
TEXT
  5
204
330
6B
100
AcDbEntity
  8
0
 62
     3
100
AcDbText
 10
-127.597797
 20
-12.052976
 30
0.0
 40
3.0
  1
名
 41
0.833333
100
AcDbText
  0
TEXT
  5
205
330
6B
100
AcDbEntity
  8
0
 62
     3
100
AcDbText
 10
-135.465202
 20
-20.32076073676896
 30
0.0
 40
3.0
  1
型
 41
0.833333
100
AcDbText
  0
TEXT
  5
206
330
6B
100
AcDbEntity
  8
0
 62
     3
100
AcDbText
 10
-127.917111
 20
-20.32076073676896
 30
0.0
 40
3.0
  1
式
 41
0.833333
100
AcDbText
  0
TEXT
  5
20E
330
6B
100
AcDbEntity
  8
0
 62
     3
100
AcDbText
 10
-121.616478
 20
-26.64084649665117
 30
0.0
 40
3.2
  1
別掲
  7
高3.2
100
AcDbText
  0
LINE
  5
20F
330
6B
100
AcDbEntity
  8
0
 62
     3
100
AcDbLine
 10
-25.7175
 20
1.374471999999999
 30
0.0
 11
-77.416864
 21
1.374471999999999
 31
0.0
  0
TEXT
  5
210
330
6B
100
AcDbEntity
  8
0
 62
     3
100
AcDbText
 10
-70.46987800000001
 20
-3.521652999999999
 30
0.0
 40
4.5
  1
コード
  7
高4.5
100
AcDbText
  0
LINE
  5
211
330
6B
100
AcDbEntity
  8
0
 62
     3
100
AcDbLine
 10
-51.41686400000001
 20
-4.625528
 30
0.0
 11
-51.41686400000001
 21
1.374471999999999
 31
0.0
  0
LINE
  5
212
330
6B
100
AcDbEntity
  8
0
 62
     3
100
AcDbLine
 10
-77.416864
 20
-4.625528
 30
0.0
 11
-77.416864
 21
1.374471999999999
 31
0.0
  0
LINE
  5
2C1
330
6B
100
AcDbEntity
  8
0
 62
     7
100
AcDbLine
 10
-168.063377
 20
18.667299
 30
0.0
 11
-162.729335
 21
18.667299
 31
0.0
  0
LINE
  5
2C2
330
6B
100
AcDbEntity
  8
0
 62
     7
100
AcDbLine
 10
-144.229517
 20
18.667299
 30
0.0
 11
-138.853446
 21
18.667299
 31
0.0
  0
LINE
  5
2C3
330
6B
100
AcDbEntity
  8
0
 62
     7
100
AcDbLine
 10
-156.125432
 20
18.413396
 30
0.0
 11
-150.79139
 21
18.413396
 31
0.0
  0
LINE
  5
2C4
330
6B
100
AcDbEntity
  8
0
 62
     7
100
AcDbLine
 10
-180.467443
 20
18.413396
 30
0.0
 11
-175.133402
 21
18.413396
 31
0.0
  0
LINE
  5
2C5
330
6B
100
AcDbEntity
  8
0
 62
     7
100
AcDbLine
 10
-167.089793
 20
26.160382
 30
0.0
 11
-164.676848
 21
26.160382
 31
0.0
  0
LINE
  5
2C6
330
6B
100
AcDbEntity
  8
0
 62
     7
100
AcDbLine
 10
-169.291209
 20
26.160382
 30
0.0
 11
-170.984818
 21
26.160382
 31
0.0
  0
LINE
  5
2C7
330
6B
100
AcDbEntity
  8
0
 62
     7
100
AcDbLine
 10
-143.255933
 20
26.160382
 30
0.0
 11
-140.800614
 21
26.160382
 31
0.0
  0
LINE
  5
2C8
330
6B
100
AcDbEntity
  8
0
 62
     7
100
AcDbLine
 10
-145.457349
 20
26.160382
 30
0.0
 11
-147.150614
 21
26.160382
 31
0.0
  0
LINE
  5
2C9
330
6B
100
AcDbEntity
  8
0
 62
     7
100
AcDbLine
 10
-155.151848
 20
25.906479
 30
0.0
 11
-152.738903
 21
25.906479
 31
0.0
  0
LINE
  5
2CA
330
6B
100
AcDbEntity
  8
0
 62
     7
100
AcDbLine
 10
-157.353264
 20
25.906479
 30
0.0
 11
-159.046873
 21
25.906479
 31
0.0
  0
LINE
  5
2CB
330
6B
100
AcDbEntity
  8
0
 62
     7
100
AcDbLine
 10
-181.69493
 20
25.906479
 30
0.0
 11
-183.388539
 21
25.906479
 31
0.0
  0
LINE
  5
2CC
330
6B
100
AcDbEntity
  8
0
 62
     7
100
AcDbLine
 10
-143.848145
 20
26.329536
 30
0.0
 11
-143.848145
 21
24.763396
 31
0.0
  0
LINE
  5
2CD
330
6B
100
AcDbEntity
  8
0
 62
     7
100
AcDbLine
 10
-143.848145
 20
24.763396
 30
0.0
 11
-143.297619
 21
24.763396
 31
0.0
  0
LINE
  5
2CE
330
6B
100
AcDbEntity
  8
0
 62
     7
100
AcDbLine
 10
-143.297619
 20
24.763396
 30
0.0
 11
-143.297619
 21
26.329536
 31
0.0
  0
LINE
  5
2CF
330
6B
100
AcDbEntity
  8
0
 62
     7
100
AcDbLine
 10
-143.297619
 20
26.329536
 30
0.0
 11
-143.848145
 21
26.329536
 31
0.0
  0
LINE
  5
2D0
330
6B
100
AcDbEntity
  8
0
 62
     7
100
AcDbLine
 10
-145.457005
 20
26.329536
 30
0.0
 11
-145.457005
 21
24.763396
 31
0.0
  0
LINE
  5
2D1
330
6B
100
AcDbEntity
  8
0
 62
     7
100
AcDbLine
 10
-145.457005
 20
24.763396
 30
0.0
 11
-144.948853
 21
24.763396
 31
0.0
  0
LINE
  5
2D2
330
6B
100
AcDbEntity
  8
0
 62
     7
100
AcDbLine
 10
-144.948853
 20
24.763396
 30
0.0
 11
-144.948853
 21
26.329536
 31
0.0
  0
LINE
  5
2D3
330
6B
100
AcDbEntity
  8
0
 62
     7
100
AcDbLine
 10
-144.948853
 20
26.329536
 30
0.0
 11
-145.457005
 21
26.329536
 31
0.0
  0
LINE
  5
2D4
330
6B
100
AcDbEntity
  8
0
 62
     7
100
AcDbLine
 10
-143.890864
 20
23.662688
 30
0.0
 11
-143.890864
 21
24.022373
 31
0.0
  0
LINE
  5
2D5
330
6B
100
AcDbEntity
  8
0
 62
     7
100
AcDbLine
 10
-144.779699
 20
23.662688
 30
0.0
 11
-144.779699
 21
24.022373
 31
0.0
  0
LINE
  5
2D6
330
6B
100
AcDbEntity
  8
0
 62
     7
100
AcDbLine
 10
-143.890864
 20
23.662688
 30
0.0
 11
-144.779699
 21
23.662688
 31
0.0
  0
ARC
  5
2D7
330
6B
100
AcDbEntity
  8
0
 62
     7
100
AcDbCircle
 10
-144.335281
 20
24.022373
 30
0.0
 40
0.444417
100
AcDbArc
 50
0.0
 51
180.0
  0
LINE
  5
2D8
330
6B
100
AcDbEntity
  8
0
 62
     7
100
AcDbLine
 10
-155.74406
 20
26.329536
 30
0.0
 11
-155.74406
 21
24.763396
 31
0.0
  0
LINE
  5
2D9
330
6B
100
AcDbEntity
  8
0
 62
     7
100
AcDbLine
 10
-155.74406
 20
24.763396
 30
0.0
 11
-155.193533
 21
24.763396
 31
0.0
  0
LINE
  5
2DA
330
6B
100
AcDbEntity
  8
0
 62
     7
100
AcDbLine
 10
-155.193533
 20
24.763396
 30
0.0
 11
-155.193533
 21
26.329536
 31
0.0
  0
LINE
  5
2DB
330
6B
100
AcDbEntity
  8
0
 62
     7
100
AcDbLine
 10
-155.193533
 20
26.329536
 30
0.0
 11
-155.74406
 21
26.329536
 31
0.0
  0
LINE
  5
2DC
330
6B
100
AcDbEntity
  8
0
 62
     7
100
AcDbLine
 10
-157.352919
 20
26.329536
 30
0.0
 11
-157.352919
 21
24.763396
 31
0.0
  0
LINE
  5
2DD
330
6B
100
AcDbEntity
  8
0
 62
     7
100
AcDbLine
 10
-157.352919
 20
24.763396
 30
0.0
 11
-156.844768
 21
24.763396
 31
0.0
  0
LINE
  5
2DE
330
6B
100
AcDbEntity
  8
0
 62
     7
100
AcDbLine
 10
-156.844768
 20
24.763396
 30
0.0
 11
-156.844768
 21
26.329536
 31
0.0
  0
LINE
  5
2DF
330
6B
100
AcDbEntity
  8
0
 62
     7
100
AcDbLine
 10
-156.844768
 20
26.329536
 30
0.0
 11
-157.352919
 21
26.329536
 31
0.0
  0
LINE
  5
2E0
330
6B
100
AcDbEntity
  8
0
 62
     7
100
AcDbLine
 10
-155.786779
 20
23.662688
 30
0.0
 11
-155.786779
 21
24.022373
 31
0.0
  0
LINE
  5
2E1
330
6B
100
AcDbEntity
  8
0
 62
     7
100
AcDbLine
 10
-156.675614
 20
23.662688
 30
0.0
 11
-156.675614
 21
24.022373
 31
0.0
  0
LINE
  5
2E2
330
6B
100
AcDbEntity
  8
0
 62
     7
100
AcDbLine
 10
-155.786779
 20
23.662688
 30
0.0
 11
-156.675614
 21
23.662688
 31
0.0
  0
ARC
  5
2E3
330
6B
100
AcDbEntity
  8
0
 62
     7
100
AcDbCircle
 10
-156.231196
 20
24.022373
 30
0.0
 40
0.444417
100
AcDbArc
 50
0.0
 51
180.0
  0
LINE
  5
2E4
330
6B
100
AcDbEntity
  8
0
 62
     7
100
AcDbLine
 10
-167.682005
 20
26.329536
 30
0.0
 11
-167.682005
 21
24.763396
 31
0.0
  0
LINE
  5
2E5
330
6B
100
AcDbEntity
  8
0
 62
     7
100
AcDbLine
 10
-167.682005
 20
24.763396
 30
0.0
 11
-167.131478
 21
24.763396
 31
0.0
  0
LINE
  5
2E6
330
6B
100
AcDbEntity
  8
0
 62
     7
100
AcDbLine
 10
-167.131478
 20
24.763396
 30
0.0
 11
-167.131478
 21
26.329536
 31
0.0
  0
LINE
  5
2E7
330
6B
100
AcDbEntity
  8
0
 62
     7
100
AcDbLine
 10
-167.131478
 20
26.329536
 30
0.0
 11
-167.682005
 21
26.329536
 31
0.0
  0
LINE
  5
2E8
330
6B
100
AcDbEntity
  8
0
 62
     7
100
AcDbLine
 10
-169.290864
 20
26.329536
 30
0.0
 11
-169.290864
 21
24.763396
 31
0.0
  0
LINE
  5
2E9
330
6B
100
AcDbEntity
  8
0
 62
     7
100
AcDbLine
 10
-169.290864
 20
24.763396
 30
0.0
 11
-168.782713
 21
24.763396
 31
0.0
  0
LINE
  5
2EA
330
6B
100
AcDbEntity
  8
0
 62
     7
100
AcDbLine
 10
-168.782713
 20
24.763396
 30
0.0
 11
-168.782713
 21
26.329536
 31
0.0
  0
LINE
  5
2EB
330
6B
100
AcDbEntity
  8
0
 62
     7
100
AcDbLine
 10
-168.782713
 20
26.329536
 30
0.0
 11
-169.290864
 21
26.329536
 31
0.0
  0
LINE
  5
2EC
330
6B
100
AcDbEntity
  8
0
 62
     7
100
AcDbLine
 10
-167.724724
 20
23.662688
 30
0.0
 11
-167.724724
 21
24.022373
 31
0.0
  0
LINE
  5
2ED
330
6B
100
AcDbEntity
  8
0
 62
     7
100
AcDbLine
 10
-168.613558
 20
23.662688
 30
0.0
 11
-168.613558
 21
24.022373
 31
0.0
  0
LINE
  5
2EE
330
6B
100
AcDbEntity
  8
0
 62
     7
100
AcDbLine
 10
-167.724724
 20
23.662688
 30
0.0
 11
-168.613558
 21
23.662688
 31
0.0
  0
ARC
  5
2EF
330
6B
100
AcDbEntity
  8
0
 62
     7
100
AcDbCircle
 10
-168.169141
 20
24.022373
 30
0.0
 40
0.444417
100
AcDbArc
 50
0.0
 51
180.0
  0
LINE
  5
2F0
330
6B
100
AcDbEntity
  8
0
 62
     7
100
AcDbLine
 10
-180.086071
 20
26.329536
 30
0.0
 11
-180.086071
 21
24.763396
 31
0.0
  0
LINE
  5
2F1
330
6B
100
AcDbEntity
  8
0
 62
     7
100
AcDbLine
 10
-180.086071
 20
24.763396
 30
0.0
 11
-179.535545
 21
24.763396
 31
0.0
  0
LINE
  5
2F2
330
6B
100
AcDbEntity
  8
0
 62
     7
100
AcDbLine
 10
-179.535545
 20
24.763396
 30
0.0
 11
-179.535545
 21
26.329536
 31
0.0
  0
LINE
  5
2F3
330
6B
100
AcDbEntity
  8
0
 62
     7
100
AcDbLine
 10
-179.535545
 20
26.329536
 30
0.0
 11
-180.086071
 21
26.329536
 31
0.0
  0
LINE
  5
2F4
330
6B
100
AcDbEntity
  8
0
 62
     7
100
AcDbLine
 10
-181.69493
 20
26.329536
 30
0.0
 11
-181.69493
 21
24.763396
 31
0.0
  0
LINE
  5
2F5
330
6B
100
AcDbEntity
  8
0
 62
     7
100
AcDbLine
 10
-181.69493
 20
24.763396
 30
0.0
 11
-181.186779
 21
24.763396
 31
0.0
  0
LINE
  5
2F6
330
6B
100
AcDbEntity
  8
0
 62
     7
100
AcDbLine
 10
-181.186779
 20
24.763396
 30
0.0
 11
-181.186779
 21
26.329536
 31
0.0
  0
LINE
  5
2F7
330
6B
100
AcDbEntity
  8
0
 62
     7
100
AcDbLine
 10
-181.186779
 20
26.329536
 30
0.0
 11
-181.69493
 21
26.329536
 31
0.0
  0
LINE
  5
2F8
330
6B
100
AcDbEntity
  8
0
 62
     7
100
AcDbLine
 10
-180.12879
 20
23.662688
 30
0.0
 11
-180.12879
 21
24.022373
 31
0.0
  0
LINE
  5
2F9
330
6B
100
AcDbEntity
  8
0
 62
     7
100
AcDbLine
 10
-181.017625
 20
23.662688
 30
0.0
 11
-181.017625
 21
24.022373
 31
0.0
  0
LINE
  5
2FA
330
6B
100
AcDbEntity
  8
0
 62
     7
100
AcDbLine
 10
-180.12879
 20
23.662688
 30
0.0
 11
-181.017625
 21
23.662688
 31
0.0
  0
ARC
  5
2FB
330
6B
100
AcDbEntity
  8
0
 62
     7
100
AcDbCircle
 10
-180.573207
 20
24.022373
 30
0.0
 40
0.444417
100
AcDbArc
 50
0.0
 51
180.0
  0
LINE
  5
2FC
330
6B
100
AcDbEntity
  8
0
 62
     7
100
AcDbLine
 10
-170.984818
 20
26.160382
 30
0.0
 11
-170.984818
 21
44.363578
 31
0.0
  0
LINE
  5
2FD
330
6B
100
AcDbEntity
  8
0
 62
     7
100
AcDbLine
 10
-147.150614
 20
26.160382
 30
0.0
 11
-147.150614
 21
44.363578
 31
0.0
  0
LINE
  5
2FE
330
6B
100
AcDbEntity
  8
0
 62
     7
100
AcDbLine
 10
-159.046873
 20
25.906479
 30
0.0
 11
-159.046873
 21
44.10967399999999
 31
0.0
  0
LINE
  5
2FF
330
6B
100
AcDbEntity
  8
0
 62
     7
100
AcDbLine
 10
-183.388539
 20
25.906479
 30
0.0
 11
-183.388539
 21
44.10967399999999
 31
0.0
  0
LINE
  5
300
330
6B
100
AcDbEntity
  8
0
 62
     7
100
AcDbLine
 10
-140.800614
 20
26.160382
 30
0.0
 11
-140.800614
 21
40.045495
 31
0.0
  0
LINE
  5
301
330
6B
100
AcDbEntity
  8
0
 62
     7
100
AcDbLine
 10
-152.738903
 20
25.906479
 30
0.0
 11
-152.738903
 21
40.045495
 31
0.0
  0
LINE
  5
302
330
6B
100
AcDbEntity
  8
0
 62
     7
100
AcDbLine
 10
-164.676848
 20
26.160382
 30
0.0
 11
-164.676848
 21
40.045495
 31
0.0
  0
LINE
  5
303
330
6B
100
AcDbEntity
  8
0
 62
     7
100
AcDbLine
 10
-177.08057
 20
25.906479
 30
0.0
 11
-177.08057
 21
40.045495
 31
0.0
  0
LINE
  5
304
330
6B
100
AcDbEntity
  8
0
 62
     7
100
AcDbLine
 10
-168.063377
 20
23.662688
 30
0.0
 11
-168.063377
 21
18.667299
 31
0.0
  0
LINE
  5
305
330
6B
100
AcDbEntity
  8
0
 62
     7
100
AcDbLine
 10
-144.229517
 20
23.662688
 30
0.0
 11
-144.229517
 21
18.667299
 31
0.0
  0
LINE
  5
306
330
6B
100
AcDbEntity
  8
0
 62
     7
100
AcDbLine
 10
-156.125432
 20
23.662688
 30
0.0
 11
-156.125432
 21
18.413396
 31
0.0
  0
LINE
  5
307
330
6B
100
AcDbEntity
  8
0
 62
     7
100
AcDbLine
 10
-180.467443
 20
23.662688
 30
0.0
 11
-180.467443
 21
18.413396
 31
0.0
  0
LINE
  5
308
330
6B
100
AcDbEntity
  8
0
 62
     7
100
AcDbLine
 10
-162.729335
 20
18.667299
 30
0.0
 11
-162.729335
 21
35.854536
 31
0.0
  0
LINE
  5
309
330
6B
100
AcDbEntity
  8
0
 62
     7
100
AcDbLine
 10
-138.853446
 20
18.667299
 30
0.0
 11
-138.853446
 21
35.854536
 31
0.0
  0
LINE
  5
30A
330
6B
100
AcDbEntity
  8
0
 62
     7
100
AcDbLine
 10
-150.79139
 20
18.413396
 30
0.0
 11
-150.79139
 21
35.72775700000001
 31
0.0
  0
LINE
  5
30B
330
6B
100
AcDbEntity
  8
0
 62
     7
100
AcDbLine
 10
-175.133402
 20
18.413396
 30
0.0
 11
-175.133402
 21
35.72775700000001
 31
0.0
  0
LINE
  5
30C
330
6B
100
AcDbEntity
  8
0
 62
     7
100
AcDbLine
 10
-179.4935139999999
 20
25.906479
 30
0.0
 11
-177.08057
 21
25.906479
 31
0.0
  0
CIRCLE
  5
30D
330
6B
100
AcDbEntity
  8
0
 62
     3
100
AcDbCircle
 10
-144.318807
 20
25.09941400000001
 30
0.0
 40
2.291049
  0
CIRCLE
  5
30E
330
6B
100
AcDbEntity
  8
0
 62
     3
100
AcDbCircle
 10
-156.214722
 20
25.09941400000001
 30
0.0
 40
2.291049
  0
CIRCLE
  5
30F
330
6B
100
AcDbEntity
  8
0
 62
     3
100
AcDbCircle
 10
-168.152667
 20
25.09941400000001
 30
0.0
 40
2.291049
  0
CIRCLE
  5
310
330
6B
100
AcDbEntity
  8
0
 62
     3
100
AcDbCircle
 10
-180.556733
 20
25.09941400000001
 30
0.0
 40
2.291049
  0
TEXT
  5
311
330
6B
100
AcDbEntity
  8
0
 62
     3
100
AcDbText
 10
-60.83331499999999
 20
-33.64084649665116
 30
0.0
 40
3.2
  1
2008.08.27
  7
高3.2
100
AcDbText
  0
LINE
  5
319
330
6B
100
AcDbEntity
  8
0
 62
     3
100
AcDbLine
 10
-428.119424
 20
96.208749
 30
0.0
 11
-430.7174999999999
 21
94.708749
 31
0.0
  0
LINE
  5
31A
330
6B
100
AcDbEntity
  8
0
 62
     3
100
AcDbLine
 10
-428.119424
 20
96.208749
 30
0.0
 11
-430.7174999999999
 21
97.708749
 31
0.0
  0
LINE
  5
31B
330
6B
100
AcDbEntity
  8
0
 62
     3
100
AcDbLine
 10
-430.7174999999999
 20
94.708749
 30
0.0
 11
-430.7174999999999
 21
97.708749
 31
0.0
  0
LINE
  5
344
330
6B
100
AcDbEntity
  8
0
 62
     7
100
AcDbLine
 10
-189.483947
 20
44.10967399999999
 30
0.0
 11
-126.87347
 21
44.10967399999999
 31
0.0
  0
LINE
  5
345
330
6B
100
AcDbEntity
  8
0
 62
     7
100
AcDbLine
 10
-189.230043
 20
40.045495
 30
0.0
 11
-126.87347
 21
40.045495
 31
0.0
  0
LINE
  5
346
330
6B
100
AcDbEntity
  8
0
 62
     7
100
AcDbLine
 10
-189.230043
 20
35.72775700000001
 30
0.0
 11
-126.87347
 21
35.72775700000001
 31
0.0
  0
TEXT
  5
347
330
6B
100
AcDbEntity
  8
0
 62
     3
100
AcDbText
 10
-90.819887
 20
-33.64084649665116
 30
0.0
 40
3.2
  1
FREE
  7
高3.2
100
AcDbText
  0
TEXT
  5
350
330
6B
100
AcDbEntity
  8
0
 62
     3
100
AcDbText
 10
-414.2174999999999
 20
-33.791251
 30
0.0
 40
3.2
  1
02
 41
0.8
  7
高3.2
100
AcDbText
  0
TEXT
  5
351
330
6B
100
AcDbEntity
  8
0
 62
     3
100
AcDbText
 10
-414.2174999999999
 20
-28.791251
 30
0.0
 40
3.2
  1
03
 41
0.8
  7
高3.2
100
AcDbText
  0
TEXT
  5
352
330
6B
100
AcDbEntity
  8
0
 62
     3
100
AcDbText
 10
-414.2174999999999
 20
-23.791251
 30
0.0
 40
3.2
  1
04
 41
0.8
  7
高3.2
100
AcDbText
  0
TEXT
  5
354
330
6B
100
AcDbEntity
  8
0
 62
     3
100
AcDbText
 10
-414.2174999999999
 20
-38.791251
 30
0.0
 40
3.2
  1
01
 41
0.8
  7
高3.2
100
AcDbText
  0
TEXT
  5
355
330
6B
100
AcDbEntity
  8
0
 62
     3
100
AcDbText
 10
-406.2135437223891
 20
-28.791251
 30
0.0
 40
3.2
  1
電線
 41
0.8
  7
高3.2
100
AcDbText
  0
TEXT
  5
356
330
6B
100
AcDbEntity
  8
0
 62
     3
100
AcDbText
 10
-406.2135437223891
 20
-23.791251
 30
0.0
 40
3.2
  1
分岐電線
 41
0.8
  7
高3.2
100
AcDbText
  0
LINE
  5
358
330
6B
100
AcDbEntity
  8
0
 62
     7
100
AcDbLine
 10
-323.0485732900299
 20
-44.291251
 30
0.0
 11
-323.0485732900299
 21
-14.291251
 31
0.0
  0
LINE
  5
359
330
6B
100
AcDbEntity
  8
0
 62
     7
100
AcDbLine
 10
-382.9766944049678
 20
-44.291251
 30
0.0
 11
-382.9766944049678
 21
-14.291251
 31
0.0
  0
LINE
  5
35A
330
6B
100
AcDbEntity
  8
0
 62
     7
100
AcDbLine
 10
-407.7135437223891
 20
-44.291251
 30
0.0
 11
-407.7135437223891
 21
-14.291251
 31
0.0
  0
TEXT
  5
35C
330
6B
100
AcDbEntity
  8
0
 62
     3
100
AcDbText
 10
-381.4766944049678
 20
-28.791251
 30
0.0
 40
3.2
  1
600V VCT 2.0sqx3c
 41
0.8
  7
高3.2
100
AcDbText
  0
TEXT
  5
35D
330
6B
100
AcDbEntity
  8
0
 62
     3
100
AcDbText
 10
-381.4766944049678
 20
-23.791251
 30
0.0
 40
3.2
  1
600V VCT 2.0sqx3c
 41
0.8
  7
高3.2
100
AcDbText
  0
TEXT
  5
35E
330
6B
100
AcDbEntity
  8
0
 62
     3
100
AcDbText
 10
-321.5485732900299
 20
-38.791251
 30
0.0
 40
3.2
  1
1
 41
0.8
  7
高3.2
100
AcDbText
  0
TEXT
  5
35F
330
6B
100
AcDbEntity
  8
0
 62
     3
100
AcDbText
 10
-321.5485732900299
 20
-28.791251
 30
0.0
 40
3.2
  1
1
 41
0.8
  7
高3.2
100
AcDbText
  0
TEXT
  5
360
330
6B
100
AcDbEntity
  8
0
 62
     3
100
AcDbText
 10
-321.5485732900299
 20
-18.791251
 30
0.0
 40
3.2
  1
5
 41
0.8
  7
高3.2
100
AcDbText
  0
LINE
  5
361
330
6B
100
AcDbEntity
  8
0
 62
     3
100
AcDbLine
 10
-314.0718260544027
 20
-44.291251
 30
0.0
 11
-314.0718260544027
 21
-14.291251
 31
0.0
  0
TEXT
  5
362
330
6B
100
AcDbEntity
  8
0
 62
     3
100
AcDbText
 10
-406.2135437223891
 20
-38.791251
 30
0.0
 40
3.2
  1
防水プラグ
 41
0.8
  7
高3.2
100
AcDbText
  0
TEXT
  5
363
330
6B
100
AcDbEntity
  8
0
 62
     3
100
AcDbText
 10
-406.2135437223891
 20
-18.791251
 30
0.0
 40
3.2
  1
キャップ
 41
0.8
  7
高3.2
100
AcDbText
  0
TEXT
  5
364
330
6B
100
AcDbEntity
  8
0
 62
     3
100
AcDbText
 10
-406.2135437223891
 20
-33.791251
 30
0.0
 40
3.2
  1
防水コンセント
 41
0.8
  7
高3.2
100
AcDbText
  0
TEXT
  5
366
330
6B
100
AcDbEntity
  8
0
 62
     3
100
AcDbText
 10
-381.4766944049678
 20
-18.791251
 30
0.0
 40
3.2
  1
PE
 41
0.8
  7
高3.2
100
AcDbText
  0
TEXT
  5
367
330
6B
100
AcDbEntity
  8
0
 62
     3
100
AcDbText
 10
-381.4766944049678
 20
-33.791251
 30
0.0
 40
3.2
  1
PVC 125V接地2P 15A(一体成型)
 41
0.8
  7
高3.2
100
AcDbText
  0
TEXT
  5
368
330
6B
100
AcDbEntity
  8
0
 62
     3
100
AcDbText
 10
-381.4766944049678
 20
-38.791251
 30
0.0
 40
3.2
  1
PVC 125V接地2P 15A(一体成型)
 41
0.8
  7
高3.2
100
AcDbText
  0
TEXT
  5
471
330
6B
100
AcDbEntity
  8
0
 62
     3
100
AcDbText
 10
-321.5485732900299
 20
-33.791251
 30
0.0
 40
3.2
  1
5
 41
0.8
  7
高3.2
100
AcDbText
  0
TEXT
  5
472
330
6B
100
AcDbEntity
  8
0
 62
     3
100
AcDbText
 10
-321.5485732900299
 20
-23.791251
 30
0.0
 40
3.2
  1
4
 41
0.8
  7
高3.2
100
AcDbText
  0
TEXT
  5
473
330
6B
100
AcDbEntity
  8
0
 62
     3
100
AcDbText
 10
-321.5485732900299
 20
-43.791251
 30
0.0
 40
3.2
  1
個数
 41
0.8
  7
高3.2
100
AcDbText
  0
TEXT
  5
475
330
6B
100
AcDbEntity
  8
0
 62
     3
100
AcDbText
 10
-381.4766944049678
 20
-43.791251
 30
0.0
 40
3.2
  1
備　　　　考
 41
0.8
  7
高3.2
100
AcDbText
  0
TEXT
  5
476
330
6B
100
AcDbEntity
  8
0
 62
     3
100
AcDbText
 10
-406.2135437223891
 20
-43.791251
 30
0.0
 40
3.2
  1
部　品　名
 41
0.8
  7
高3.2
100
AcDbText
  0
TEXT
  5
477
330
6B
100
AcDbEntity
  8
0
 62
     3
100
AcDbText
 10
-414.2174999999999
 20
-43.791251
 30
0.0
 40
3.2
  1
NO
 41
0.8
  7
高3.2
100
AcDbText
  0
TEXT
  5
4C8
330
6B
100
AcDbEntity
  8
0
 62
     3
100
AcDbText
 10
-202.232671
 20
42.41354499999999
 30
0.0
 40
3.2
  1
100V
 41
1.090908999999999
100
AcDbText
  0
TEXT
  5
4C9
330
6B
100
AcDbEntity
  8
0
 62
     3
100
AcDbText
 10
-201.853997
 20
38.095462
 30
0.0
 40
3.2
  1
100V
 41
1.090908999999999
100
AcDbText
  0
TEXT
  5
4CA
330
6B
100
AcDbEntity
  8
0
 62
     3
100
AcDbText
 10
-201.821068
 20
33.777379
 30
0.0
 40
3.2
  1
アース
 41
0.833333
100
AcDbText
  0
TEXT
  5
4CB
330
6B
100
AcDbEntity
  8
0
 62
     3
100
AcDbText
 10
-121.9333721006032
 20
-11.95705169847861
 30
0.0
 40
4.5
  1
分岐ケーブル（電源専用）
 41
0.7
  7
高4.5
100
AcDbText
  0
TEXT
  5
4CC
330
6B
100
AcDbEntity
  8
0
 62
     3
100
AcDbText
 10
-121.8158835955919
 20
-19.91585862515967
 30
0.0
 40
4.5
  1
ESTC-20M-23-4
 41
0.7
  7
高4.5
100
AcDbText
  0
TEXT
  5
4CD
330
6B
100
AcDbEntity
  8
0
 62
     3
100
AcDbText
 10
-76.116649
 20
-43.21736079047968
 30
0.0
 40
6.299999999999999
  1
ESTC-20M-23-4
 41
0.6
  7
高6.3
100
AcDbText
  0
TEXT
  5
4CE
330
6B
100
AcDbEntity
  8
0
 62
     3
100
AcDbText
 10
-49.00363099999999
 20
-4.110163
 30
0.0
 40
4.5
  1
9403
  7
高4.5
100
AcDbText
  0
LINE
  5
7BF
330
6B
100
AcDbEntity
  8
0
 62
     3
100
AcDbLine
 10
-289.799214854477
 20
105.9743616319429
 30
0.0
 11
-295.799214854477
 21
105.9743616319429
 31
0.0
  0
LINE
  5
7C0
330
6B
100
AcDbEntity
  8
0
 62
     3
100
AcDbLine
 10
-289.549214854477
 20
104.7743616319429
 30
0.0
 11
-296.049214854477
 21
104.7743616319429
 31
0.0
  0
LINE
  5
7C1
330
6B
100
AcDbEntity
  8
0
 62
     3
100
AcDbLine
 10
-289.549214854477
 20
104.0243616319429
 30
0.0
 11
-296.049214854477
 21
104.0243616319429
 31
0.0
  0
LINE
  5
7C2
330
6B
100
AcDbEntity
  8
0
 62
     3
100
AcDbLine
 10
-318.5621015188699
 20
130.8243616319429
 30
0.0
 11
-317.3621015188698
 21
130.8243616319429
 31
0.0
  0
LINE
  5
7C3
330
6B
100
AcDbEntity
  8
0
 62
     3
100
AcDbLine
 10
-318.5621015188699
 20
131.1243616319429
 30
0.0
 11
-317.3621015188698
 21
131.1243616319429
 31
0.0
  0
LINE
  5
7C4
330
6B
100
AcDbEntity
  8
0
 62
     3
100
AcDbLine
 10
-318.5621015188699
 20
130.3743616319429
 30
0.0
 11
-317.3621015188698
 21
130.3743616319429
 31
0.0
  0
LINE
  5
7C5
330
6B
100
AcDbEntity
  8
0
 62
     3
100
AcDbLine
 10
-318.5621015188699
 20
131.5743616319429
 30
0.0
 11
-317.3621015188698
 21
131.5743616319429
 31
0.0
  0
LINE
  5
7C6
330
6B
100
AcDbEntity
  8
0
 62
     3
100
AcDbLine
 10
-324.1621015188699
 20
128.4743616319429
 30
0.0
 11
-323.9121015188699
 21
128.4743616319429
 31
0.0
  0
LINE
  5
7C7
330
6B
100
AcDbEntity
  8
0
 62
     3
100
AcDbLine
 10
-323.9121015188699
 20
133.4743616319429
 30
0.0
 11
-324.1621015188699
 21
133.4743616319429
 31
0.0
  0
LINE
  5
7C8
330
6B
100
AcDbEntity
  8
0
 62
     3
100
AcDbLine
 10
-320.2121015188699
 20
129.2243616319429
 30
0.0
 11
-320.5121015188699
 21
129.2243616319429
 31
0.0
  0
LINE
  5
7C9
330
6B
100
AcDbEntity
  8
0
 62
     3
100
AcDbLine
 10
-320.5121015188699
 20
132.7243616319429
 30
0.0
 11
-320.2121015188699
 21
132.7243616319429
 31
0.0
  0
LINE
  5
7CA
330
6B
100
AcDbEntity
  8
0
 62
     3
100
AcDbLine
 10
-318.5621015188699
 20
129.6743616319429
 30
0.0
 11
-320.2121015188699
 21
129.6743616319429
 31
0.0
  0
LINE
  5
7CB
330
6B
100
AcDbEntity
  8
0
 62
     3
100
AcDbLine
 10
-320.5121015188699
 20
129.6743616319429
 30
0.0
 11
-321.1121015188699
 21
129.6743616319429
 31
0.0
  0
LINE
  5
7CC
330
6B
100
AcDbEntity
  8
0
 62
     3
100
AcDbLine
 10
-318.5621015188699
 20
132.2743616319429
 30
0.0
 11
-320.2121015188699
 21
132.2743616319429
 31
0.0
  0
LINE
  5
7CD
330
6B
100
AcDbEntity
  8
0
 62
     3
100
AcDbLine
 10
-320.5121015188699
 20
132.2743616319429
 30
0.0
 11
-321.1121015188699
 21
132.2743616319429
 31
0.0
  0
LINE
  5
7CE
330
6B
100
AcDbEntity
  8
0
 62
     3
100
AcDbLine
 10
-316.6121015188699
 20
129.8743616319429
 30
0.0
 11
-318.5621015188699
 21
129.8743616319429
 31
0.0
  0
LINE
  5
7CF
330
6B
100
AcDbEntity
  8
0
 62
     3
100
AcDbLine
 10
-316.6121015188699
 20
132.0743616319429
 30
0.0
 11
-318.5621015188699
 21
132.0743616319429
 31
0.0
  0
LINE
  5
7D0
330
6B
100
AcDbEntity
  8
0
 62
     3
100
AcDbLine
 10
-291.299214854477
 20
126.1743616319428
 30
0.0
 11
-294.299214854477
 21
126.1743616319428
 31
0.0
  0
LINE
  5
7D1
330
6B
100
AcDbEntity
  8
0
 62
     3
100
AcDbLine
 10
-291.399214854477
 20
113.0743616319429
 30
0.0
 11
-294.199214854477
 21
113.0743616319429
 31
0.0
  0
LINE
  5
7D2
330
6B
100
AcDbEntity
  8
0
 62
     3
100
AcDbLine
 10
-291.299214854477
 20
112.5743616319429
 30
0.0
 11
-294.299214854477
 21
112.5743616319429
 31
0.0
  0
LINE
  5
7D3
330
6B
100
AcDbEntity
  8
0
 62
     3
100
AcDbLine
 10
-291.299214854477
 20
111.0743616319429
 30
0.0
 11
-294.299214854477
 21
111.0743616319429
 31
0.0
  0
LINE
  5
7D4
330
6B
100
AcDbEntity
  8
0
 62
     3
100
AcDbLine
 10
-290.399214854477
 20
109.3743616319429
 30
0.0
 11
-295.199214854477
 21
109.3743616319429
 31
0.0
  0
LINE
  5
7D5
330
6B
100
AcDbEntity
  8
0
 62
     3
100
AcDbLine
 10
-290.399214854477
 20
106.4743616319429
 30
0.0
 11
-295.199214854477
 21
106.4743616319429
 31
0.0
  0
LINE
  5
7D6
330
6B
100
AcDbEntity
  8
0
 62
     3
100
AcDbLine
 10
-286.5992148544771
 20
129.6743616319429
 30
0.0
 11
-289.799214854477
 21
129.6743616319429
 31
0.0
  0
LINE
  5
7D7
330
6B
100
AcDbEntity
  8
0
 62
     3
100
AcDbLine
 10
-295.799214854477
 20
129.6743616319429
 30
0.0
 11
-298.999214854477
 21
129.6743616319429
 31
0.0
  0
LINE
  5
7D8
330
6B
100
AcDbEntity
  8
0
 62
     3
100
AcDbLine
 10
-286.5992148544771
 20
132.2743616319429
 30
0.0
 11
-290.799214854477
 21
132.2743616319429
 31
0.0
  0
LINE
  5
7D9
330
6B
100
AcDbEntity
  8
0
 62
     3
100
AcDbLine
 10
-294.799214854477
 20
132.2743616319429
 30
0.0
 11
-298.999214854477
 21
132.2743616319429
 31
0.0
  0
LINE
  5
7DA
330
6B
100
AcDbEntity
  8
0
 62
     3
100
AcDbLine
 10
-291.799214854477
 20
134.4743616319429
 30
0.0
 11
-293.799214854477
 21
134.4743616319429
 31
0.0
  0
LINE
  5
7DB
330
6B
100
AcDbEntity
  8
0
 62
     3
100
AcDbLine
 10
-316.6121015188699
 20
130.4293616319428
 30
0.0
 11
-308.8074716376123
 21
130.4293616319428
 31
0.0
  0
LINE
  5
7DC
330
6B
100
AcDbEntity
  8
0
 62
     3
100
AcDbLine
 10
-285.999214854477
 20
130.4293616319428
 30
0.0
 11
-267.5235519939397
 21
130.4293616319428
 31
0.0
  0
LINE
  5
7DD
330
6B
100
AcDbEntity
  8
0
 62
     3
100
AcDbLine
 10
-235.5870699841522
 20
130.4293616319428
 30
0.0
 11
-217.4946872968257
 21
130.4293616319429
 31
0.0
  0
LINE
  5
7DE
330
6B
100
AcDbEntity
  8
0
 62
     3
100
AcDbLine
 10
-185.2726999973065
 20
130.4293616319428
 30
0.0
 11
-167.4754286063425
 21
130.4293616319428
 31
0.0
  0
LINE
  5
7E1
330
6B
100
AcDbEntity
  8
0
 62
     3
100
AcDbLine
 10
-134.8597138504268
 20
130.4293616319428
 30
0.0
 11
-132.3437040179842
 21
130.4293616319428
 31
0.0
  0
LINE
  5
7E2
330
6B
100
AcDbEntity
  8
0
 62
     3
100
AcDbLine
 10
-316.6121015188699
 20
131.5193616319429
 30
0.0
 11
-308.8074716376123
 21
131.5193616319429
 31
0.0
  0
LINE
  5
7E3
330
6B
100
AcDbEntity
  8
0
 62
     3
100
AcDbLine
 10
-285.999214854477
 20
131.5193616319429
 30
0.0
 11
-267.5235519939395
 21
131.5193616319429
 31
0.0
  0
LINE
  5
7E4
330
6B
100
AcDbEntity
  8
0
 62
     3
100
AcDbLine
 10
-235.5870699841522
 20
131.5193616319429
 30
0.0
 11
-217.4946872968255
 21
131.5193616319429
 31
0.0
  0
LINE
  5
7E5
330
6B
100
AcDbEntity
  8
0
 62
     3
100
AcDbLine
 10
-185.2726999973065
 20
131.5193616319429
 30
0.0
 11
-167.4754286063423
 21
131.5193616319429
 31
0.0
  0
LINE
  5
7E8
330
6B
100
AcDbEntity
  8
0
 62
     3
100
AcDbLine
 10
-134.8597138504268
 20
131.5193616319429
 30
0.0
 11
-132.343704017984
 21
131.5193616319429
 31
0.0
  0
LINE
  5
7E9
330
6B
100
AcDbEntity
  8
0
 62
     3
100
AcDbLine
 10
-334.6166489279198
 20
131.7829299589439
 30
0.0
 11
-334.6166489279198
 21
131.0941582260987
 31
0.0
  0
LINE
  5
7EA
330
6B
100
AcDbEntity
  8
0
 62
     3
100
AcDbLine
 10
-334.4666489279198
 20
131.7829299589439
 30
0.0
 11
-334.4666489279198
 21
131.0941582260987
 31
0.0
  0
LINE
  5
7EB
330
6B
100
AcDbEntity
  8
0
 62
     3
100
AcDbLine
 10
-333.1966489279198
 20
131.0941582260987
 30
0.0
 11
-333.1966489279198
 21
131.7829299589439
 31
0.0
  0
LINE
  5
7EC
330
6B
100
AcDbEntity
  8
0
 62
     3
100
AcDbLine
 10
-333.3466489279198
 20
131.0941582260987
 30
0.0
 11
-333.3466489279198
 21
131.7829299589439
 31
0.0
  0
CIRCLE
  5
7ED
330
6B
100
AcDbEntity
  8
0
 62
     3
100
AcDbCircle
 10
-333.9066489279197
 20
130.9743616319429
 30
0.0
 40
2.75
  0
LINE
  5
7EE
330
6B
100
AcDbEntity
  8
0
 62
     3
100
AcDbLine
 10
-296.049214854477
 20
104.0243616319429
 30
0.0
 11
-296.049214854477
 21
104.7743616319429
 31
0.0
  0
LINE
  5
7EF
330
6B
100
AcDbEntity
  8
0
 62
     3
100
AcDbLine
 10
-289.549214854477
 20
104.7743616319429
 30
0.0
 11
-289.549214854477
 21
104.0243616319429
 31
0.0
  0
LINE
  5
7F0
330
6B
100
AcDbEntity
  8
0
 62
     3
100
AcDbLine
 10
-295.799214854477
 20
105.9743616319429
 30
0.0
 11
-295.799214854477
 21
104.7743616319429
 31
0.0
  0
LINE
  5
7F1
330
6B
100
AcDbEntity
  8
0
 62
     3
100
AcDbLine
 10
-289.799214854477
 20
105.9743616319429
 30
0.0
 11
-289.799214854477
 21
104.7743616319429
 31
0.0
  0
LINE
  5
7F2
330
6B
100
AcDbEntity
  8
0
 62
     3
100
AcDbLine
 10
-295.199214854477
 20
106.4743616319429
 30
0.0
 11
-295.199214854477
 21
109.3743616319429
 31
0.0
  0
LINE
  5
7F3
330
6B
100
AcDbEntity
  8
0
 62
     3
100
AcDbLine
 10
-290.399214854477
 20
106.4743616319429
 30
0.0
 11
-290.399214854477
 21
109.3743616319429
 31
0.0
  0
LINE
  5
7F4
330
6B
100
AcDbEntity
  8
0
 62
     3
100
AcDbLine
 10
-293.149214854477
 20
115.2243616319429
 30
0.0
 11
-293.149214854477
 21
115.0243616319429
 31
0.0
  0
LINE
  5
7F5
330
6B
100
AcDbEntity
  8
0
 62
     3
100
AcDbLine
 10
-293.149214854477
 20
114.4743616319429
 30
0.0
 11
-293.149214854477
 21
114.2743616319429
 31
0.0
  0
LINE
  5
7F6
330
6B
100
AcDbEntity
  8
0
 62
     3
100
AcDbLine
 10
-293.149214854477
 20
113.7243616319429
 30
0.0
 11
-293.149214854477
 21
113.5243616319429
 31
0.0
  0
LINE
  5
7F7
330
6B
100
AcDbEntity
  8
0
 62
     3
100
AcDbLine
 10
-292.449214854477
 20
115.2243616319429
 30
0.0
 11
-292.449214854477
 21
115.0243616319429
 31
0.0
  0
LINE
  5
7F8
330
6B
100
AcDbEntity
  8
0
 62
     3
100
AcDbLine
 10
-292.449214854477
 20
114.4743616319429
 30
0.0
 11
-292.449214854477
 21
114.2743616319429
 31
0.0
  0
LINE
  5
7F9
330
6B
100
AcDbEntity
  8
0
 62
     3
100
AcDbLine
 10
-292.449214854477
 20
113.7243616319429
 30
0.0
 11
-292.449214854477
 21
113.5243616319429
 31
0.0
  0
LINE
  5
7FA
330
6B
100
AcDbEntity
  8
0
 62
     3
100
AcDbLine
 10
-294.299214854477
 20
112.5743616319429
 30
0.0
 11
-294.299214854477
 21
111.0743616319429
 31
0.0
  0
LINE
  5
7FB
330
6B
100
AcDbEntity
  8
0
 62
     3
100
AcDbLine
 10
-291.299214854477
 20
112.5743616319429
 30
0.0
 11
-291.299214854477
 21
111.0743616319429
 31
0.0
  0
LINE
  5
7FC
330
6B
100
AcDbEntity
  8
0
 62
     3
100
AcDbLine
 10
-293.344214854477
 20
125.4743616319429
 30
0.0
 11
-293.344214854477
 21
117.1439565033918
 31
0.0
  0
LINE
  5
7FD
330
6B
100
AcDbEntity
  8
0
 62
     3
100
AcDbLine
 10
-293.344214854477
 20
116.6283961457334
 30
0.0
 11
-293.344214854477
 21
115.9743616319429
 31
0.0
  0
LINE
  5
7FE
330
6B
100
AcDbEntity
  8
0
 62
     3
100
AcDbLine
 10
-292.254214854477
 20
125.4743616319429
 30
0.0
 11
-292.254214854477
 21
117.1439565033918
 31
0.0
  0
LINE
  5
7FF
330
6B
100
AcDbEntity
  8
0
 62
     3
100
AcDbLine
 10
-292.254214854477
 20
116.6283961457334
 30
0.0
 11
-292.254214854477
 21
115.9743616319429
 31
0.0
  0
LINE
  5
800
330
6B
100
AcDbEntity
  8
0
 62
     3
100
AcDbLine
 10
-298.999214854477
 20
132.2743616319429
 30
0.0
 11
-298.999214854477
 21
129.6743616319429
 31
0.0
  0
LINE
  5
801
330
6B
100
AcDbEntity
  8
0
 62
     3
100
AcDbLine
 10
-286.5992148544771
 20
129.6743616319429
 30
0.0
 11
-286.5992148544771
 21
132.2743616319429
 31
0.0
  0
LINE
  5
802
330
6B
100
AcDbEntity
  8
0
 62
     3
100
AcDbLine
 10
-294.299214854477
 20
126.1743616319428
 30
0.0
 11
-294.299214854477
 21
128.1743616319428
 31
0.0
  0
ARC
  5
803
330
6B
100
AcDbEntity
  8
0
 62
     3
100
AcDbCircle
 10
-295.799214854477
 20
128.1743616319428
 30
0.0
 40
1.5
100
AcDbArc
 50
0.0
 51
90.0
  0
LINE
  5
804
330
6B
100
AcDbEntity
  8
0
 62
     3
100
AcDbLine
 10
-294.299214854477
 20
132.7743616319429
 30
0.0
 11
-294.299214854477
 21
133.9743616319429
 31
0.0
  0
LINE
  5
805
330
6B
100
AcDbEntity
  8
0
 62
     3
100
AcDbLine
 10
-291.299214854477
 20
126.1743616319428
 30
0.0
 11
-291.299214854477
 21
128.1743616319428
 31
0.0
  0
ARC
  5
806
330
6B
100
AcDbEntity
  8
0
 62
     3
100
AcDbCircle
 10
-289.799214854477
 20
128.1743616319428
 30
0.0
 40
1.5
100
AcDbArc
 50
90.0
 51
180.0
  0
LINE
  5
807
330
6B
100
AcDbEntity
  8
0
 62
     3
100
AcDbLine
 10
-291.299214854477
 20
132.7743616319429
 30
0.0
 11
-291.299214854477
 21
133.9743616319429
 31
0.0
  0
LINE
  5
808
330
6B
100
AcDbEntity
  8
0
 62
     3
100
AcDbLine
 10
-286.5992148544771
 20
132.2743616319429
 30
0.0
 11
-285.999214854477
 21
132.0243616319429
 31
0.0
  0
LINE
  5
809
330
6B
100
AcDbEntity
  8
0
 62
     3
100
AcDbLine
 10
-285.999214854477
 20
132.0243616319429
 30
0.0
 11
-285.999214854477
 21
129.9243616319428
 31
0.0
  0
LINE
  5
80A
330
6B
100
AcDbEntity
  8
0
 62
     3
100
AcDbLine
 10
-285.999214854477
 20
129.9243616319428
 30
0.0
 11
-286.5992148544771
 21
129.6743616319429
 31
0.0
  0
LINE
  5
80B
330
6B
100
AcDbEntity
  8
0
 62
     3
100
AcDbLine
 10
-298.999214854477
 20
132.2743616319429
 30
0.0
 11
-299.599214854477
 21
132.0243616319429
 31
0.0
  0
LINE
  5
80C
330
6B
100
AcDbEntity
  8
0
 62
     3
100
AcDbLine
 10
-299.599214854477
 20
132.0243616319429
 30
0.0
 11
-299.599214854477
 21
129.9243616319428
 31
0.0
  0
LINE
  5
80D
330
6B
100
AcDbEntity
  8
0
 62
     3
100
AcDbLine
 10
-299.599214854477
 20
129.9243616319428
 30
0.0
 11
-298.999214854477
 21
129.6743616319429
 31
0.0
  0
CIRCLE
  5
80E
330
6B
100
AcDbEntity
  8
0
 62
     3
100
AcDbCircle
 10
-292.799214854477
 20
133.0032779776052
 30
0.0
 40
0.55
  0
LINE
  5
80F
330
6B
100
AcDbEntity
  8
0
 62
     3
100
AcDbLine
 10
-291.299214854477
 20
126.1743616319428
 30
0.0
 11
-291.649214854477
 21
125.4743616319429
 31
0.0
  0
LINE
  5
810
330
6B
100
AcDbEntity
  8
0
 62
     3
100
AcDbLine
 10
-291.649214854477
 20
125.4743616319429
 30
0.0
 11
-293.949214854477
 21
125.4743616319429
 31
0.0
  0
LINE
  5
811
330
6B
100
AcDbEntity
  8
0
 62
     3
100
AcDbLine
 10
-293.949214854477
 20
125.4743616319429
 30
0.0
 11
-294.299214854477
 21
126.1743616319428
 31
0.0
  0
ARC
  5
812
330
6B
100
AcDbEntity
  8
0
 62
     3
100
AcDbCircle
 10
-290.799214854477
 20
132.7743616319429
 30
0.0
 40
0.5
100
AcDbArc
 50
180.0
 51
270.0
  0
ARC
  5
813
330
6B
100
AcDbEntity
  8
0
 62
     3
100
AcDbCircle
 10
-294.799214854477
 20
132.7743616319429
 30
0.0
 40
0.5
100
AcDbArc
 50
270.0
 51
0.0
  0
ARC
  5
814
330
6B
100
AcDbEntity
  8
0
 62
     3
100
AcDbCircle
 10
-291.799214854477
 20
133.9743616319429
 30
0.0
 40
0.5
100
AcDbArc
 50
0.0
 51
90.0
  0
ARC
  5
815
330
6B
100
AcDbEntity
  8
0
 62
     3
100
AcDbCircle
 10
-293.799214854477
 20
133.9743616319429
 30
0.0
 40
0.5
100
AcDbArc
 50
90.0
 51
180.0
  0
LINE
  5
816
330
6B
100
AcDbEntity
  8
0
 62
     3
100
AcDbLine
 10
-316.6121015188699
 20
132.0743616319429
 30
0.0
 11
-316.6121015188699
 21
129.8743616319429
 31
0.0
  0
LINE
  5
817
330
6B
100
AcDbEntity
  8
0
 62
     3
100
AcDbLine
 10
-323.2121015188699
 20
133.4743616319429
 30
0.0
 11
-323.2121015188699
 21
128.4743616319429
 31
0.0
  0
LINE
  5
818
330
6B
100
AcDbEntity
  8
0
 62
     3
100
AcDbLine
 10
-323.9121015188699
 20
133.4743616319429
 30
0.0
 11
-323.9121015188699
 21
128.4743616319429
 31
0.0
  0
LINE
  5
819
330
6B
100
AcDbEntity
  8
0
 62
     3
100
AcDbLine
 10
-324.1621015188699
 20
133.4743616319429
 30
0.0
 11
-324.1621015188699
 21
128.4743616319429
 31
0.0
  0
LINE
  5
81A
330
6B
100
AcDbEntity
  8
0
 62
     3
100
AcDbLine
 10
-320.2121015188699
 20
132.7243616319429
 30
0.0
 11
-320.2121015188699
 21
129.2243616319429
 31
0.0
  0
LINE
  5
81B
330
6B
100
AcDbEntity
  8
0
 62
     3
100
AcDbLine
 10
-320.5121015188699
 20
132.7243616319429
 30
0.0
 11
-320.5121015188699
 21
129.2243616319429
 31
0.0
  0
LINE
  5
81C
330
6B
100
AcDbEntity
  8
0
 62
     3
100
AcDbLine
 10
-317.3621015188698
 20
129.8743616319429
 30
0.0
 11
-317.3621015188698
 21
132.0743616319429
 31
0.0
  0
LINE
  5
81D
330
6B
100
AcDbEntity
  8
0
 62
     3
100
AcDbLine
 10
-318.5621015188699
 20
129.6743616319429
 30
0.0
 11
-318.5621015188699
 21
132.2743616319429
 31
0.0
  0
LINE
  5
81E
330
6B
100
AcDbEntity
  8
0
 62
     3
100
AcDbLine
 10
-318.0621015188699
 20
129.8743616319429
 30
0.0
 11
-318.0621015188699
 21
132.0743616319429
 31
0.0
  0
LINE
  5
81F
330
6B
100
AcDbEntity
  8
0
 62
     3
100
AcDbLine
 10
-317.8621015188698
 20
129.8743616319429
 30
0.0
 11
-317.8621015188698
 21
132.0743616319429
 31
0.0
  0
ARC
  5
820
330
6B
100
AcDbEntity
  8
0
 62
     3
100
AcDbCircle
 10
-323.5621015188699
 20
133.3543616319429
 30
0.0
 40
0.3700000000000104
100
AcDbArc
 50
18.92464441604424
 51
161.0753555839557
  0
ARC
  5
821
330
6B
100
AcDbEntity
  8
0
 62
     3
100
AcDbCircle
 10
-323.5621015188699
 20
128.5943616319429
 30
0.0
 40
0.3699999999999997
100
AcDbArc
 50
198.9246444160442
 51
341.0753555839558
  0
ARC
  5
822
330
6B
100
AcDbEntity
  8
0
 62
     3
100
AcDbCircle
 10
-323.2449272068957
 20
130.5004276870886
 30
0.0
 40
2.774128161460717
100
AcDbArc
 50
39.75129487413449
 51
89.32201500212075
  0
ARC
  5
823
330
6B
100
AcDbEntity
  8
0
 62
     3
100
AcDbCircle
 10
-323.2449272068957
 20
131.4482955767972
 30
0.0
 40
2.774128161460717
100
AcDbArc
 50
270.6779849978793
 51
320.2487051258655
  0
LINE
  5
824
330
6B
100
AcDbEntity
  8
0
 62
     3
100
AcDbLine
 10
-326.3795541661553
 20
131.7829299589439
 30
0.0
 11
-324.1621015188699
 21
131.7829299589439
 31
0.0
  0
LINE
  5
825
330
6B
100
AcDbEntity
  8
0
 62
     3
100
AcDbLine
 10
-326.3795541661553
 20
131.0941582260987
 30
0.0
 11
-324.1621015188699
 21
131.0941582260987
 31
0.0
  0
LINE
  5
826
330
6B
100
AcDbEntity
  8
0
 62
     3
100
AcDbLine
 10
-326.3795541661553
 20
131.7829299589439
 30
0.0
 11
-326.3795541661553
 21
131.0941582260987
 31
0.0
  0
LINE
  5
827
330
6B
100
AcDbEntity
  8
0
 62
     3
100
AcDbLine
 10
-326.8133103436309
 20
130.0980903531845
 30
0.0
 11
-324.1621015188699
 21
130.0980903531845
 31
0.0
  0
LINE
  5
828
330
6B
100
AcDbEntity
  8
0
 62
     3
100
AcDbLine
 10
-326.8133103436309
 20
129.3709610115406
 30
0.0
 11
-324.1621015188699
 21
129.3709610115406
 31
0.0
  0
ARC
  5
829
330
6B
100
AcDbEntity
  8
0
 62
     3
100
AcDbCircle
 10
-326.8133103436309
 20
129.7345256823625
 30
0.0
 40
0.3635646708219724
100
AcDbArc
 50
90.0
 51
270.0
  0
LINE
  5
82A
330
6B
100
AcDbEntity
  8
0
 62
     3
100
AcDbLine
 10
-334.4666489279198
 20
131.7829299589439
 30
0.0
 11
-334.6166489279198
 21
131.7829299589439
 31
0.0
  0
LINE
  5
82B
330
6B
100
AcDbEntity
  8
0
 62
     3
100
AcDbLine
 10
-333.3466489279198
 20
131.7829299589439
 30
0.0
 11
-333.1966489279198
 21
131.7829299589439
 31
0.0
  0
LINE
  5
82C
330
6B
100
AcDbEntity
  8
0
 62
     3
100
AcDbLine
 10
-334.4666489279198
 20
131.0941582260987
 30
0.0
 11
-334.6166489279198
 21
131.0941582260987
 31
0.0
  0
LINE
  5
82D
330
6B
100
AcDbEntity
  8
0
 62
     3
100
AcDbLine
 10
-333.3466489279198
 20
131.0941582260987
 30
0.0
 11
-333.1966489279198
 21
131.0941582260987
 31
0.0
  0
CIRCLE
  5
82E
330
6B
100
AcDbEntity
  8
0
 62
     3
100
AcDbCircle
 10
-333.9066489279197
 20
129.7345256823625
 30
0.0
 40
0.3635646708219554
  0
ARC
  5
82F
330
6B
100
AcDbEntity
  8
0
 62
     3
100
AcDbCircle
 10
-292.799214854477
 20
119.0682680686015
 30
0.0
 40
2.0
100
AcDbArc
 50
105.8130857291989
 51
74.18691427080104
  0
ARC
  5
830
330
6B
100
AcDbEntity
  8
0
 62
     3
100
AcDbCircle
 10
-292.799214854477
 20
119.0682680686015
 30
0.0
 40
2.5
100
AcDbArc
 50
102.5915904786076
 51
77.40840952139241
  0
LINE
  5
831
330
6B
100
AcDbEntity
  8
0
 62
     3
100
AcDbLine
 10
-294.199214854477
 20
113.0743616319429
 30
0.0
 11
-293.999214854477
 21
115.9743616319429
 31
0.0
  0
LINE
  5
832
330
6B
100
AcDbEntity
  8
0
 62
     3
100
AcDbLine
 10
-293.999214854477
 20
115.9743616319429
 30
0.0
 11
-291.599214854477
 21
115.9743616319429
 31
0.0
  0
LINE
  5
833
330
6B
100
AcDbEntity
  8
0
 62
     3
100
AcDbLine
 10
-294.0509389924081
 20
115.2243616319429
 30
0.0
 11
-293.149214854477
 21
115.2243616319429
 31
0.0
  0
LINE
  5
834
330
6B
100
AcDbEntity
  8
0
 62
     3
100
AcDbLine
 10
-292.449214854477
 20
115.2243616319429
 30
0.0
 11
-291.547490716546
 21
115.2243616319429
 31
0.0
  0
LINE
  5
835
330
6B
100
AcDbEntity
  8
0
 62
     3
100
AcDbLine
 10
-294.0647320958563
 20
115.0243616319429
 30
0.0
 11
-293.149214854477
 21
115.0243616319429
 31
0.0
  0
LINE
  5
836
330
6B
100
AcDbEntity
  8
0
 62
     3
100
AcDbLine
 10
-292.449214854477
 20
115.0243616319429
 30
0.0
 11
-291.5336976130977
 21
115.0243616319429
 31
0.0
  0
LINE
  5
837
330
6B
100
AcDbEntity
  8
0
 62
     3
100
AcDbLine
 10
-294.1026631303391
 20
114.4743616319429
 30
0.0
 11
-293.149214854477
 21
114.4743616319429
 31
0.0
  0
LINE
  5
838
330
6B
100
AcDbEntity
  8
0
 62
     3
100
AcDbLine
 10
-292.449214854477
 20
114.4743616319429
 30
0.0
 11
-291.495766578615
 21
114.4743616319429
 31
0.0
  0
LINE
  5
839
330
6B
100
AcDbEntity
  8
0
 62
     3
100
AcDbLine
 10
-294.1164562337874
 20
114.2743616319429
 30
0.0
 11
-293.149214854477
 21
114.2743616319429
 31
0.0
  0
LINE
  5
83A
330
6B
100
AcDbEntity
  8
0
 62
     3
100
AcDbLine
 10
-292.449214854477
 20
114.2743616319429
 30
0.0
 11
-291.4819734751667
 21
114.2743616319429
 31
0.0
  0
LINE
  5
83B
330
6B
100
AcDbEntity
  8
0
 62
     3
100
AcDbLine
 10
-294.1543872682701
 20
113.7243616319429
 30
0.0
 11
-293.149214854477
 21
113.7243616319429
 31
0.0
  0
LINE
  5
83C
330
6B
100
AcDbEntity
  8
0
 62
     3
100
AcDbLine
 10
-292.449214854477
 20
113.7243616319429
 30
0.0
 11
-291.4440424406839
 21
113.7243616319429
 31
0.0
  0
LINE
  5
83D
330
6B
100
AcDbEntity
  8
0
 62
     3
100
AcDbLine
 10
-294.1681803717184
 20
113.5243616319429
 30
0.0
 11
-293.149214854477
 21
113.5243616319429
 31
0.0
  0
LINE
  5
83E
330
6B
100
AcDbEntity
  8
0
 62
     3
100
AcDbLine
 10
-292.449214854477
 20
113.5243616319429
 30
0.0
 11
-291.4302493372357
 21
113.5243616319429
 31
0.0
  0
LINE
  5
83F
330
6B
100
AcDbEntity
  8
0
 62
     3
100
AcDbLine
 10
-291.599214854477
 20
115.9743616319429
 30
0.0
 11
-291.399214854477
 21
113.0743616319429
 31
0.0
  0
LINE
  5
840
330
6B
100
AcDbEntity
  8
0
 62
     3
100
AcDbLine
 10
-291.399214854477
 20
113.0743616319429
 30
0.0
 11
-290.749214854477
 21
112.8243616319429
 31
0.0
  0
LINE
  5
841
330
6B
100
AcDbEntity
  8
0
 62
     3
100
AcDbLine
 10
-294.199214854477
 20
113.0743616319429
 30
0.0
 11
-294.8492148544771
 21
112.8243616319429
 31
0.0
  0
LINE
  5
842
330
6B
100
AcDbEntity
  8
0
 62
     3
100
AcDbLine
 10
-291.299214854477
 20
112.5743616319429
 30
0.0
 11
-290.749214854477
 21
112.8243616319429
 31
0.0
  0
LINE
  5
843
330
6B
100
AcDbEntity
  8
0
 62
     3
100
AcDbLine
 10
-294.299214854477
 20
112.5743616319429
 30
0.0
 11
-294.8492148544771
 21
112.8243616319429
 31
0.0
  0
LINE
  5
844
330
6B
100
AcDbEntity
  8
0
 62
     3
100
AcDbLine
 10
-294.299214854477
 20
111.0743616319429
 30
0.0
 11
-295.199214854477
 21
109.3743616319429
 31
0.0
  0
LINE
  5
845
330
6B
100
AcDbEntity
  8
0
 62
     3
100
AcDbLine
 10
-291.299214854477
 20
111.0743616319429
 30
0.0
 11
-290.399214854477
 21
109.3743616319429
 31
0.0
  0
LINE
  5
846
330
6B
100
AcDbEntity
  8
0
 62
     3
100
AcDbLine
 10
-290.399214854477
 20
106.4743616319429
 30
0.0
 11
-289.799214854477
 21
105.9743616319429
 31
0.0
  0
LINE
  5
847
330
6B
100
AcDbEntity
  8
0
 62
     3
100
AcDbLine
 10
-295.199214854477
 20
106.4743616319429
 30
0.0
 11
-295.799214854477
 21
105.9743616319429
 31
0.0
  0
CIRCLE
  5
848
330
6B
100
AcDbEntity
  8
0
 62
     3
100
AcDbCircle
 10
-292.799214854477
 20
93.01363260579325
 30
0.0
 40
3.25
  0
CIRCLE
  5
849
330
6B
100
AcDbEntity
  8
0
 62
     3
100
AcDbCircle
 10
-292.799214854477
 20
93.01363260579325
 30
0.0
 40
2.75
  0
LINE
  5
84A
330
6B
100
AcDbEntity
  8
0
 62
     3
100
AcDbLine
 10
-293.559214854477
 20
93.87220093279422
 30
0.0
 11
-293.559214854477
 21
93.08342919994908
 31
0.0
  0
LINE
  5
84B
330
6B
100
AcDbEntity
  8
0
 62
     3
100
AcDbLine
 10
-293.3092148544769
 20
93.87220093279422
 30
0.0
 11
-293.3092148544769
 21
93.08342919994908
 31
0.0
  0
LINE
  5
84C
330
6B
100
AcDbEntity
  8
0
 62
     3
100
AcDbLine
 10
-292.039214854477
 20
93.08342919994908
 30
0.0
 11
-292.039214854477
 21
93.87220093279422
 31
0.0
  0
LINE
  5
84D
330
6B
100
AcDbEntity
  8
0
 62
     3
100
AcDbLine
 10
-292.289214854477
 20
93.08342919994908
 30
0.0
 11
-292.289214854477
 21
93.87220093279422
 31
0.0
  0
LINE
  5
84E
330
6B
100
AcDbEntity
  8
0
 62
     3
100
AcDbLine
 10
-293.3092148544769
 20
93.87220093279422
 30
0.0
 11
-293.559214854477
 21
93.87220093279422
 31
0.0
  0
LINE
  5
84F
330
6B
100
AcDbEntity
  8
0
 62
     3
100
AcDbLine
 10
-292.289214854477
 20
93.87220093279422
 30
0.0
 11
-292.039214854477
 21
93.87220093279422
 31
0.0
  0
LINE
  5
850
330
6B
100
AcDbEntity
  8
0
 62
     3
100
AcDbLine
 10
-293.3092148544769
 20
93.08342919994908
 30
0.0
 11
-293.559214854477
 21
93.08342919994908
 31
0.0
  0
LINE
  5
851
330
6B
100
AcDbEntity
  8
0
 62
     3
100
AcDbLine
 10
-292.289214854477
 20
93.08342919994908
 30
0.0
 11
-292.039214854477
 21
93.08342919994908
 31
0.0
  0
CIRCLE
  5
852
330
6B
100
AcDbEntity
  8
0
 62
     3
100
AcDbCircle
 10
-292.799214854477
 20
91.77379665621293
 30
0.0
 40
0.4135646708219554
  0
CIRCLE
  5
853
330
6B
100
AcDbEntity
  8
0
 62
     3
100
AcDbCircle
 10
-284.8261468050687
 20
105.457217897516
 30
0.0
 40
2.0
  0
CIRCLE
  5
854
330
6B
100
AcDbEntity
  8
0
 62
     3
100
AcDbCircle
 10
-284.8261468050687
 20
105.457217897516
 30
0.0
 40
3.0
  0
LINE
  5
855
330
6B
100
AcDbEntity
  8
0
 62
     3
100
AcDbLine
 10
-287.1721308975774
 20
109.0664226073788
 30
0.0
 11
-291.7122249013448
 21
116.816945603518
 31
0.0
  0
LINE
  5
856
330
6B
100
AcDbEntity
  8
0
 62
     3
100
AcDbLine
 10
-286.8269873018751
 20
109.2686004952539
 30
0.0
 11
-291.3670813056425
 21
117.0191234913931
 31
0.0
  0
ARC
  5
857
330
6B
100
AcDbEntity
  8
0
 62
     3
100
AcDbCircle
 10
-284.8261468050687
 20
105.457217897516
 30
0.0
 40
4.0
100
AcDbArc
 50
290.2822201888458
 51
310.4395364044003
  0
LINE
  5
858
330
6B
100
AcDbEntity
  8
0
 62
     3
100
AcDbLine
 10
-282.6030831179602
 20
103.4427730997964
 30
0.0
 11
-282.2315658493053
 21
102.412854308194
 31
0.0
  0
LINE
  5
859
330
6B
100
AcDbEntity
  8
0
 62
     3
100
AcDbLine
 10
-284.1562292986208
 20
102.5329726043583
 30
0.0
 11
-283.4395684342635
 21
101.705231700631
 31
0.0
  0
LINE
  5
85A
330
6B
100
AcDbEntity
  8
0
 62
     3
100
AcDbLine
 10
-285.8422078795306
 20
108.2799151701548
 30
0.0
 11
-286.6975584534866
 21
109.3444172032071
 31
0.0
  0
LINE
  5
85B
330
6B
100
AcDbEntity
  8
0
 62
     3
100
AcDbLine
 10
-286.6975584534866
 20
109.3444172032071
 30
0.0
 11
-287.3015597459659
 21
108.9906058994257
 31
0.0
  0
LINE
  5
85C
330
6B
100
AcDbEntity
  8
0
 62
     3
100
AcDbLine
 10
-287.3015597459659
 20
108.9906058994257
 30
0.0
 11
-286.7913527677121
 21
107.7239259784983
 31
0.0
  0
LINE
  5
85D
330
6B
100
AcDbEntity
  8
0
 62
     3
100
AcDbLine
 10
-112.957316363872
 20
133.9743616319429
 30
0.0
 11
-112.957316363872
 21
127.9743616319429
 31
0.0
  0
LINE
  5
85E
330
6B
100
AcDbEntity
  8
0
 62
     3
100
AcDbLine
 10
-111.7573163638721
 20
134.2243616319429
 30
0.0
 11
-111.7573163638721
 21
127.7243616319429
 31
0.0
  0
LINE
  5
85F
330
6B
100
AcDbEntity
  8
0
 62
     3
100
AcDbLine
 10
-111.0073163638721
 20
134.2243616319429
 30
0.0
 11
-111.0073163638721
 21
127.7243616319429
 31
0.0
  0
LINE
  5
860
330
6B
100
AcDbEntity
  8
0
 62
     3
100
AcDbLine
 10
-120.057316363872
 20
132.3743616319429
 30
0.0
 11
-120.0573163638721
 21
129.5743616319429
 31
0.0
  0
LINE
  5
861
330
6B
100
AcDbEntity
  8
0
 62
     3
100
AcDbLine
 10
-119.557316363872
 20
132.4743616319429
 30
0.0
 11
-119.5573163638721
 21
129.4743616319429
 31
0.0
  0
LINE
  5
862
330
6B
100
AcDbEntity
  8
0
 62
     3
100
AcDbLine
 10
-118.057316363872
 20
132.4743616319429
 30
0.0
 11
-118.0573163638721
 21
129.4743616319429
 31
0.0
  0
LINE
  5
863
330
6B
100
AcDbEntity
  8
0
 62
     3
100
AcDbLine
 10
-116.3573163638721
 20
133.3743616319429
 30
0.0
 11
-116.3573163638721
 21
128.5743616319429
 31
0.0
  0
LINE
  5
864
330
6B
100
AcDbEntity
  8
0
 62
     3
100
AcDbLine
 10
-113.4573163638721
 20
133.3743616319429
 30
0.0
 11
-113.4573163638721
 21
128.5743616319429
 31
0.0
  0
LINE
  5
865
330
6B
100
AcDbEntity
  8
0
 62
     3
100
AcDbLine
 10
-111.0073163638721
 20
127.7243616319429
 30
0.0
 11
-111.7573163638721
 21
127.7243616319429
 31
0.0
  0
LINE
  5
866
330
6B
100
AcDbEntity
  8
0
 62
     3
100
AcDbLine
 10
-111.7573163638721
 20
134.2243616319429
 30
0.0
 11
-111.0073163638721
 21
134.2243616319429
 31
0.0
  0
LINE
  5
867
330
6B
100
AcDbEntity
  8
0
 62
     3
100
AcDbLine
 10
-112.957316363872
 20
127.9743616319429
 30
0.0
 11
-111.7573163638721
 21
127.9743616319429
 31
0.0
  0
LINE
  5
868
330
6B
100
AcDbEntity
  8
0
 62
     3
100
AcDbLine
 10
-112.957316363872
 20
133.9743616319429
 30
0.0
 11
-111.7573163638721
 21
133.9743616319429
 31
0.0
  0
LINE
  5
869
330
6B
100
AcDbEntity
  8
0
 62
     3
100
AcDbLine
 10
-113.4573163638721
 20
128.5743616319429
 30
0.0
 11
-116.3573163638721
 21
128.5743616319429
 31
0.0
  0
LINE
  5
86A
330
6B
100
AcDbEntity
  8
0
 62
     3
100
AcDbLine
 10
-113.4573163638721
 20
133.3743616319429
 30
0.0
 11
-116.3573163638721
 21
133.3743616319429
 31
0.0
  0
LINE
  5
86B
330
6B
100
AcDbEntity
  8
0
 62
     3
100
AcDbLine
 10
-122.207316363872
 20
130.6243616319429
 30
0.0
 11
-122.007316363872
 21
130.6243616319429
 31
0.0
  0
LINE
  5
86C
330
6B
100
AcDbEntity
  8
0
 62
     3
100
AcDbLine
 10
-121.457316363872
 20
130.6243616319429
 30
0.0
 11
-121.257316363872
 21
130.6243616319429
 31
0.0
  0
LINE
  5
86D
330
6B
100
AcDbEntity
  8
0
 62
     3
100
AcDbLine
 10
-120.707316363872
 20
130.6243616319429
 30
0.0
 11
-120.507316363872
 21
130.6243616319429
 31
0.0
  0
LINE
  5
86E
330
6B
100
AcDbEntity
  8
0
 62
     3
100
AcDbLine
 10
-122.207316363872
 20
131.3243616319429
 30
0.0
 11
-122.007316363872
 21
131.3243616319429
 31
0.0
  0
LINE
  5
86F
330
6B
100
AcDbEntity
  8
0
 62
     3
100
AcDbLine
 10
-121.457316363872
 20
131.3243616319429
 30
0.0
 11
-121.257316363872
 21
131.3243616319429
 31
0.0
  0
LINE
  5
870
330
6B
100
AcDbEntity
  8
0
 62
     3
100
AcDbLine
 10
-120.707316363872
 20
131.3243616319429
 30
0.0
 11
-120.507316363872
 21
131.3243616319429
 31
0.0
  0
LINE
  5
871
330
6B
100
AcDbEntity
  8
0
 62
     3
100
AcDbLine
 10
-119.5573163638721
 20
129.4743616319429
 30
0.0
 11
-118.0573163638721
 21
129.4743616319429
 31
0.0
  0
LINE
  5
872
330
6B
100
AcDbEntity
  8
0
 62
     3
100
AcDbLine
 10
-119.557316363872
 20
132.4743616319429
 30
0.0
 11
-118.057316363872
 21
132.4743616319429
 31
0.0
  0
LINE
  5
873
330
6B
100
AcDbEntity
  8
0
 62
     3
100
AcDbLine
 10
-132.457316363872
 20
130.429361631943
 30
0.0
 11
-132.3437040179841
 21
130.429361631943
 31
0.0
  0
LINE
  5
874
330
6B
100
AcDbEntity
  8
0
 62
     3
100
AcDbLine
 10
-123.6113508776626
 20
130.429361631943
 30
0.0
 11
-122.957316363872
 21
130.429361631943
 31
0.0
  0
LINE
  5
875
330
6B
100
AcDbEntity
  8
0
 62
     3
100
AcDbLine
 10
-132.457316363872
 20
131.5193616319429
 30
0.0
 11
-132.343704017984
 21
131.5193616319428
 31
0.0
  0
LINE
  5
876
330
6B
100
AcDbEntity
  8
0
 62
     3
100
AcDbLine
 10
-123.6113508776626
 20
131.5193616319429
 30
0.0
 11
-122.957316363872
 21
131.5193616319429
 31
0.0
  0
ARC
  5
877
330
6B
100
AcDbEntity
  8
0
 62
     3
100
AcDbCircle
 10
-126.0512228005308
 20
130.9743616319429
 30
0.0
 40
2.0
100
AcDbArc
 50
195.8130857291874
 51
164.1869142708126
  0
ARC
  5
878
330
6B
100
AcDbEntity
  8
0
 62
     3
100
AcDbCircle
 10
-126.0512228005308
 20
130.9743616319429
 30
0.0
 40
2.5
100
AcDbArc
 50
192.5915904786062
 51
167.4084095213938
  0
LINE
  5
879
330
6B
100
AcDbEntity
  8
0
 62
     3
100
AcDbLine
 10
-120.0573163638721
 20
129.5743616319429
 30
0.0
 11
-122.9573163638721
 21
129.7743616319429
 31
0.0
  0
LINE
  5
87A
330
6B
100
AcDbEntity
  8
0
 62
     3
100
AcDbLine
 10
-122.9573163638721
 20
129.7743616319429
 30
0.0
 11
-122.957316363872
 21
132.1743616319428
 31
0.0
  0
LINE
  5
87B
330
6B
100
AcDbEntity
  8
0
 62
     3
100
AcDbLine
 10
-122.207316363872
 20
129.7226374940118
 30
0.0
 11
-122.207316363872
 21
130.6243616319429
 31
0.0
  0
LINE
  5
87C
330
6B
100
AcDbEntity
  8
0
 62
     3
100
AcDbLine
 10
-122.207316363872
 20
131.3243616319429
 30
0.0
 11
-122.207316363872
 21
132.226085769874
 31
0.0
  0
LINE
  5
87D
330
6B
100
AcDbEntity
  8
0
 62
     3
100
AcDbLine
 10
-122.0073163638721
 20
129.7088443905636
 30
0.0
 11
-122.007316363872
 21
130.6243616319429
 31
0.0
  0
LINE
  5
87E
330
6B
100
AcDbEntity
  8
0
 62
     3
100
AcDbLine
 10
-122.007316363872
 20
131.3243616319429
 30
0.0
 11
-122.007316363872
 21
132.2398788733223
 31
0.0
  0
LINE
  5
87F
330
6B
100
AcDbEntity
  8
0
 62
     3
100
AcDbLine
 10
-121.4573163638721
 20
129.6709133560809
 30
0.0
 11
-121.457316363872
 21
130.6243616319429
 31
0.0
  0
LINE
  5
880
330
6B
100
AcDbEntity
  8
0
 62
     3
100
AcDbLine
 10
-121.457316363872
 20
131.3243616319429
 30
0.0
 11
-121.457316363872
 21
132.2778099078049
 31
0.0
  0
LINE
  5
881
330
6B
100
AcDbEntity
  8
0
 62
     3
100
AcDbLine
 10
-121.2573163638721
 20
129.6571202526326
 30
0.0
 11
-121.257316363872
 21
130.6243616319429
 31
0.0
  0
LINE
  5
882
330
6B
100
AcDbEntity
  8
0
 62
     3
100
AcDbLine
 10
-121.257316363872
 20
131.3243616319429
 30
0.0
 11
-121.257316363872
 21
132.2916030112532
 31
0.0
  0
LINE
  5
883
330
6B
100
AcDbEntity
  8
0
 62
     3
100
AcDbLine
 10
-120.7073163638721
 20
129.6191892181497
 30
0.0
 11
-120.707316363872
 21
130.6243616319429
 31
0.0
  0
LINE
  5
884
330
6B
100
AcDbEntity
  8
0
 62
     3
100
AcDbLine
 10
-120.707316363872
 20
131.3243616319429
 30
0.0
 11
-120.707316363872
 21
132.329534045736
 31
0.0
  0
LINE
  5
885
330
6B
100
AcDbEntity
  8
0
 62
     3
100
AcDbLine
 10
-120.5073163638721
 20
129.6053961147014
 30
0.0
 11
-120.507316363872
 21
130.6243616319429
 31
0.0
  0
LINE
  5
886
330
6B
100
AcDbEntity
  8
0
 62
     3
100
AcDbLine
 10
-120.507316363872
 20
131.3243616319429
 30
0.0
 11
-120.507316363872
 21
132.3433271491843
 31
0.0
  0
LINE
  5
887
330
6B
100
AcDbEntity
  8
0
 62
     3
100
AcDbLine
 10
-122.957316363872
 20
132.1743616319428
 30
0.0
 11
-120.057316363872
 21
132.3743616319429
 31
0.0
  0
LINE
  5
888
330
6B
100
AcDbEntity
  8
0
 62
     3
100
AcDbLine
 10
-120.057316363872
 20
132.3743616319429
 30
0.0
 11
-119.807316363872
 21
133.0243616319429
 31
0.0
  0
LINE
  5
889
330
6B
100
AcDbEntity
  8
0
 62
     3
100
AcDbLine
 10
-120.0573163638721
 20
129.5743616319429
 30
0.0
 11
-119.807316363872
 21
128.9243616319428
 31
0.0
  0
LINE
  5
88A
330
6B
100
AcDbEntity
  8
0
 62
     3
100
AcDbLine
 10
-119.557316363872
 20
132.4743616319429
 30
0.0
 11
-119.807316363872
 21
133.0243616319429
 31
0.0
  0
LINE
  5
88B
330
6B
100
AcDbEntity
  8
0
 62
     3
100
AcDbLine
 10
-119.5573163638721
 20
129.4743616319429
 30
0.0
 11
-119.8073163638721
 21
128.9243616319428
 31
0.0
  0
LINE
  5
88C
330
6B
100
AcDbEntity
  8
0
 62
     3
100
AcDbLine
 10
-118.0573163638721
 20
129.4743616319429
 30
0.0
 11
-116.3573163638721
 21
128.5743616319429
 31
0.0
  0
LINE
  5
88D
330
6B
100
AcDbEntity
  8
0
 62
     3
100
AcDbLine
 10
-118.057316363872
 20
132.4743616319429
 30
0.0
 11
-116.3573163638721
 21
133.3743616319429
 31
0.0
  0
LINE
  5
88E
330
6B
100
AcDbEntity
  8
0
 62
     3
100
AcDbLine
 10
-113.4573163638721
 20
133.3743616319429
 30
0.0
 11
-112.957316363872
 21
133.9743616319429
 31
0.0
  0
LINE
  5
88F
330
6B
100
AcDbEntity
  8
0
 62
     3
100
AcDbLine
 10
-113.4573163638721
 20
128.5743616319429
 30
0.0
 11
-112.957316363872
 21
127.9743616319429
 31
0.0
  0
CIRCLE
  5
890
330
6B
100
AcDbEntity
  8
0
 62
     3
100
AcDbCircle
 10
-99.99658733772239
 20
130.9743616319429
 30
0.0
 40
3.25
  0
CIRCLE
  5
891
330
6B
100
AcDbEntity
  8
0
 62
     3
100
AcDbCircle
 10
-99.99658733772239
 20
130.9743616319429
 30
0.0
 40
2.75
  0
LINE
  5
892
330
6B
100
AcDbEntity
  8
0
 62
     3
100
AcDbLine
 10
-100.7565873377224
 20
131.8329299589439
 30
0.0
 11
-100.7565873377224
 21
131.0441582260988
 31
0.0
  0
LINE
  5
893
330
6B
100
AcDbEntity
  8
0
 62
     3
100
AcDbLine
 10
-100.5065873377224
 20
131.8329299589439
 30
0.0
 11
-100.5065873377224
 21
131.0441582260988
 31
0.0
  0
LINE
  5
894
330
6B
100
AcDbEntity
  8
0
 62
     3
100
AcDbLine
 10
-99.2365873377224
 20
131.0441582260988
 30
0.0
 11
-99.2365873377224
 21
131.8329299589439
 31
0.0
  0
LINE
  5
895
330
6B
100
AcDbEntity
  8
0
 62
     3
100
AcDbLine
 10
-99.48658733772241
 20
131.0441582260988
 30
0.0
 11
-99.48658733772241
 21
131.8329299589439
 31
0.0
  0
LINE
  5
896
330
6B
100
AcDbEntity
  8
0
 62
     3
100
AcDbLine
 10
-100.5065873377224
 20
131.8329299589439
 30
0.0
 11
-100.7565873377224
 21
131.8329299589439
 31
0.0
  0
LINE
  5
897
330
6B
100
AcDbEntity
  8
0
 62
     3
100
AcDbLine
 10
-99.48658733772241
 20
131.8329299589439
 30
0.0
 11
-99.2365873377224
 21
131.8329299589439
 31
0.0
  0
LINE
  5
898
330
6B
100
AcDbEntity
  8
0
 62
     3
100
AcDbLine
 10
-100.5065873377224
 20
131.0441582260988
 30
0.0
 11
-100.7565873377224
 21
131.0441582260988
 31
0.0
  0
LINE
  5
899
330
6B
100
AcDbEntity
  8
0
 62
     3
100
AcDbLine
 10
-99.48658733772241
 20
131.0441582260988
 30
0.0
 11
-99.2365873377224
 21
131.0441582260988
 31
0.0
  0
CIRCLE
  5
89A
330
6B
100
AcDbEntity
  8
0
 62
     3
100
AcDbCircle
 10
-99.99658733772239
 20
129.7345256823625
 30
0.0
 40
0.4135646708219554
  0
CIRCLE
  5
89B
330
6B
100
AcDbEntity
  8
0
 62
     3
100
AcDbCircle
 10
-112.4401726294452
 20
138.9474296813512
 30
0.0
 40
2.0
  0
CIRCLE
  5
89C
330
6B
100
AcDbEntity
  8
0
 62
     3
100
AcDbCircle
 10
-112.4401726294452
 20
138.9474296813512
 30
0.0
 40
3.0
  0
LINE
  5
89D
330
6B
100
AcDbEntity
  8
0
 62
     3
100
AcDbLine
 10
-116.049377339308
 20
136.6014455888425
 30
0.0
 11
-123.7999003354472
 21
132.0613515850752
 31
0.0
  0
LINE
  5
89E
330
6B
100
AcDbEntity
  8
0
 62
     3
100
AcDbLine
 10
-116.251555227183
 20
136.9465891845448
 30
0.0
 11
-124.0020782233223
 21
132.4064951807774
 31
0.0
  0
ARC
  5
89F
330
6B
100
AcDbEntity
  8
0
 62
     3
100
AcDbCircle
 10
-112.4401726294452
 20
138.9474296813512
 30
0.0
 40
4.0
100
AcDbArc
 50
20.2822201888759
 51
40.43953640444708
  0
LINE
  5
8A0
330
6B
100
AcDbEntity
  8
0
 62
     3
100
AcDbLine
 10
-110.4257278317255
 20
141.1704933684597
 30
0.0
 11
-109.3958090401231
 21
141.5420106371146
 31
0.0
  0
LINE
  5
8A1
330
6B
100
AcDbEntity
  8
0
 62
     3
100
AcDbLine
 10
-109.5159273362875
 20
139.6173471877992
 30
0.0
 11
-108.6881864325601
 21
140.3340080521564
 31
0.0
  0
LINE
  5
8A2
330
6B
100
AcDbEntity
  8
0
 62
     3
100
AcDbLine
 10
-115.2628699020841
 20
137.9313686068893
 30
0.0
 11
-116.3273719351362
 21
137.0760180329333
 31
0.0
  0
LINE
  5
8A3
330
6B
100
AcDbEntity
  8
0
 62
     3
100
AcDbLine
 10
-116.3273719351362
 20
137.0760180329333
 30
0.0
 11
-115.9735606313548
 21
136.4720167404541
 31
0.0
  0
LINE
  5
8A4
330
6B
100
AcDbEntity
  8
0
 62
     3
100
AcDbLine
 10
-115.9735606313548
 20
136.4720167404541
 30
0.0
 11
-114.7068807104275
 21
136.9822237187078
 31
0.0
  0
LINE
  5
8A5
330
6B
100
AcDbEntity
  8
0
 62
     3
100
AcDbLine
 10
-239.3870699841522
 20
105.9743616319429
 30
0.0
 11
-245.3870699841522
 21
105.9743616319429
 31
0.0
  0
LINE
  5
8A6
330
6B
100
AcDbEntity
  8
0
 62
     3
100
AcDbLine
 10
-239.1370699841522
 20
104.7743616319429
 30
0.0
 11
-245.6370699841522
 21
104.7743616319429
 31
0.0
  0
LINE
  5
8A7
330
6B
100
AcDbEntity
  8
0
 62
     3
100
AcDbLine
 10
-239.1370699841522
 20
104.0243616319429
 30
0.0
 11
-245.6370699841522
 21
104.0243616319429
 31
0.0
  0
LINE
  5
8A8
330
6B
100
AcDbEntity
  8
0
 62
     3
100
AcDbLine
 10
-240.8870699841521
 20
126.1743616319428
 30
0.0
 11
-243.8870699841522
 21
126.1743616319428
 31
0.0
  0
LINE
  5
8A9
330
6B
100
AcDbEntity
  8
0
 62
     3
100
AcDbLine
 10
-240.9870699841522
 20
113.0743616319429
 30
0.0
 11
-243.7870699841521
 21
113.0743616319429
 31
0.0
  0
LINE
  5
8AA
330
6B
100
AcDbEntity
  8
0
 62
     3
100
AcDbLine
 10
-240.8870699841521
 20
112.5743616319429
 30
0.0
 11
-243.8870699841522
 21
112.5743616319429
 31
0.0
  0
LINE
  5
8AB
330
6B
100
AcDbEntity
  8
0
 62
     3
100
AcDbLine
 10
-240.8870699841521
 20
111.0743616319429
 30
0.0
 11
-243.8870699841522
 21
111.0743616319429
 31
0.0
  0
LINE
  5
8AC
330
6B
100
AcDbEntity
  8
0
 62
     3
100
AcDbLine
 10
-239.9870699841522
 20
109.3743616319429
 30
0.0
 11
-244.7870699841522
 21
109.3743616319429
 31
0.0
  0
LINE
  5
8AD
330
6B
100
AcDbEntity
  8
0
 62
     3
100
AcDbLine
 10
-239.9870699841522
 20
106.4743616319429
 30
0.0
 11
-244.7870699841522
 21
106.4743616319429
 31
0.0
  0
LINE
  5
8AE
330
6B
100
AcDbEntity
  8
0
 62
     3
100
AcDbLine
 10
-236.1870699841522
 20
129.6743616319429
 30
0.0
 11
-239.3870699841522
 21
129.6743616319429
 31
0.0
  0
LINE
  5
8AF
330
6B
100
AcDbEntity
  8
0
 62
     3
100
AcDbLine
 10
-245.3870699841522
 20
129.6743616319429
 30
0.0
 11
-248.5870699841522
 21
129.6743616319429
 31
0.0
  0
LINE
  5
8B0
330
6B
100
AcDbEntity
  8
0
 62
     3
100
AcDbLine
 10
-236.1870699841522
 20
132.2743616319429
 30
0.0
 11
-240.3870699841522
 21
132.2743616319429
 31
0.0
  0
LINE
  5
8B1
330
6B
100
AcDbEntity
  8
0
 62
     3
100
AcDbLine
 10
-244.3870699841522
 20
132.2743616319429
 30
0.0
 11
-248.5870699841522
 21
132.2743616319429
 31
0.0
  0
LINE
  5
8B2
330
6B
100
AcDbEntity
  8
0
 62
     3
100
AcDbLine
 10
-241.3870699841522
 20
134.4743616319429
 30
0.0
 11
-243.3870699841522
 21
134.4743616319429
 31
0.0
  0
LINE
  5
8B3
330
6B
100
AcDbEntity
  8
0
 62
     3
100
AcDbLine
 10
-245.6370699841522
 20
104.0243616319429
 30
0.0
 11
-245.6370699841522
 21
104.7743616319429
 31
0.0
  0
LINE
  5
8B4
330
6B
100
AcDbEntity
  8
0
 62
     3
100
AcDbLine
 10
-239.1370699841522
 20
104.7743616319429
 30
0.0
 11
-239.1370699841522
 21
104.0243616319429
 31
0.0
  0
LINE
  5
8B5
330
6B
100
AcDbEntity
  8
0
 62
     3
100
AcDbLine
 10
-245.3870699841522
 20
105.9743616319429
 30
0.0
 11
-245.3870699841522
 21
104.7743616319429
 31
0.0
  0
LINE
  5
8B6
330
6B
100
AcDbEntity
  8
0
 62
     3
100
AcDbLine
 10
-239.3870699841522
 20
105.9743616319429
 30
0.0
 11
-239.3870699841522
 21
104.7743616319429
 31
0.0
  0
LINE
  5
8B7
330
6B
100
AcDbEntity
  8
0
 62
     3
100
AcDbLine
 10
-244.7870699841522
 20
106.4743616319429
 30
0.0
 11
-244.7870699841522
 21
109.3743616319429
 31
0.0
  0
LINE
  5
8B8
330
6B
100
AcDbEntity
  8
0
 62
     3
100
AcDbLine
 10
-239.9870699841522
 20
106.4743616319429
 30
0.0
 11
-239.9870699841522
 21
109.3743616319429
 31
0.0
  0
LINE
  5
8B9
330
6B
100
AcDbEntity
  8
0
 62
     3
100
AcDbLine
 10
-242.7370699841522
 20
115.2243616319429
 30
0.0
 11
-242.7370699841522
 21
115.0243616319429
 31
0.0
  0
LINE
  5
8BA
330
6B
100
AcDbEntity
  8
0
 62
     3
100
AcDbLine
 10
-242.7370699841522
 20
114.4743616319429
 30
0.0
 11
-242.7370699841522
 21
114.2743616319429
 31
0.0
  0
LINE
  5
8BB
330
6B
100
AcDbEntity
  8
0
 62
     3
100
AcDbLine
 10
-242.7370699841522
 20
113.7243616319429
 30
0.0
 11
-242.7370699841522
 21
113.5243616319429
 31
0.0
  0
LINE
  5
8BC
330
6B
100
AcDbEntity
  8
0
 62
     3
100
AcDbLine
 10
-242.0370699841521
 20
115.2243616319429
 30
0.0
 11
-242.0370699841521
 21
115.0243616319429
 31
0.0
  0
LINE
  5
8BD
330
6B
100
AcDbEntity
  8
0
 62
     3
100
AcDbLine
 10
-242.0370699841521
 20
114.4743616319429
 30
0.0
 11
-242.0370699841521
 21
114.2743616319429
 31
0.0
  0
LINE
  5
8BE
330
6B
100
AcDbEntity
  8
0
 62
     3
100
AcDbLine
 10
-242.0370699841521
 20
113.7243616319429
 30
0.0
 11
-242.0370699841521
 21
113.5243616319429
 31
0.0
  0
LINE
  5
8BF
330
6B
100
AcDbEntity
  8
0
 62
     3
100
AcDbLine
 10
-243.8870699841522
 20
112.5743616319429
 30
0.0
 11
-243.8870699841522
 21
111.0743616319429
 31
0.0
  0
LINE
  5
8C0
330
6B
100
AcDbEntity
  8
0
 62
     3
100
AcDbLine
 10
-240.8870699841521
 20
112.5743616319429
 30
0.0
 11
-240.8870699841521
 21
111.0743616319429
 31
0.0
  0
LINE
  5
8C1
330
6B
100
AcDbEntity
  8
0
 62
     3
100
AcDbLine
 10
-242.9320699841522
 20
125.4743616319429
 30
0.0
 11
-242.9320699841522
 21
117.1439565033918
 31
0.0
  0
LINE
  5
8C2
330
6B
100
AcDbEntity
  8
0
 62
     3
100
AcDbLine
 10
-242.9320699841522
 20
116.6283961457334
 30
0.0
 11
-242.9320699841522
 21
115.9743616319429
 31
0.0
  0
LINE
  5
8C3
330
6B
100
AcDbEntity
  8
0
 62
     3
100
AcDbLine
 10
-241.8420699841522
 20
125.4743616319429
 30
0.0
 11
-241.8420699841522
 21
117.1439565033918
 31
0.0
  0
LINE
  5
8C4
330
6B
100
AcDbEntity
  8
0
 62
     3
100
AcDbLine
 10
-241.8420699841522
 20
116.6283961457334
 30
0.0
 11
-241.8420699841522
 21
115.9743616319429
 31
0.0
  0
LINE
  5
8C5
330
6B
100
AcDbEntity
  8
0
 62
     3
100
AcDbLine
 10
-248.5870699841522
 20
132.2743616319429
 30
0.0
 11
-248.5870699841522
 21
129.6743616319429
 31
0.0
  0
LINE
  5
8C6
330
6B
100
AcDbEntity
  8
0
 62
     3
100
AcDbLine
 10
-236.1870699841522
 20
129.6743616319429
 30
0.0
 11
-236.1870699841522
 21
132.2743616319429
 31
0.0
  0
LINE
  5
8C7
330
6B
100
AcDbEntity
  8
0
 62
     3
100
AcDbLine
 10
-243.8870699841522
 20
126.1743616319428
 30
0.0
 11
-243.8870699841522
 21
128.1743616319428
 31
0.0
  0
ARC
  5
8C8
330
6B
100
AcDbEntity
  8
0
 62
     3
100
AcDbCircle
 10
-245.3870699841522
 20
128.1743616319428
 30
0.0
 40
1.5
100
AcDbArc
 50
0.0
 51
90.0
  0
LINE
  5
8C9
330
6B
100
AcDbEntity
  8
0
 62
     3
100
AcDbLine
 10
-243.8870699841522
 20
132.7743616319429
 30
0.0
 11
-243.8870699841522
 21
133.9743616319429
 31
0.0
  0
LINE
  5
8CA
330
6B
100
AcDbEntity
  8
0
 62
     3
100
AcDbLine
 10
-240.8870699841521
 20
126.1743616319428
 30
0.0
 11
-240.8870699841521
 21
128.1743616319428
 31
0.0
  0
ARC
  5
8CB
330
6B
100
AcDbEntity
  8
0
 62
     3
100
AcDbCircle
 10
-239.3870699841522
 20
128.1743616319428
 30
0.0
 40
1.5
100
AcDbArc
 50
90.0
 51
180.0
  0
LINE
  5
8CC
330
6B
100
AcDbEntity
  8
0
 62
     3
100
AcDbLine
 10
-240.8870699841521
 20
132.7743616319429
 30
0.0
 11
-240.8870699841521
 21
133.9743616319429
 31
0.0
  0
LINE
  5
8CD
330
6B
100
AcDbEntity
  8
0
 62
     3
100
AcDbLine
 10
-236.1870699841522
 20
132.2743616319429
 30
0.0
 11
-235.5870699841522
 21
132.0243616319429
 31
0.0
  0
LINE
  5
8CE
330
6B
100
AcDbEntity
  8
0
 62
     3
100
AcDbLine
 10
-235.5870699841522
 20
132.0243616319429
 30
0.0
 11
-235.5870699841522
 21
129.9243616319428
 31
0.0
  0
LINE
  5
8CF
330
6B
100
AcDbEntity
  8
0
 62
     3
100
AcDbLine
 10
-235.5870699841522
 20
129.9243616319428
 30
0.0
 11
-236.1870699841522
 21
129.6743616319429
 31
0.0
  0
LINE
  5
8D0
330
6B
100
AcDbEntity
  8
0
 62
     3
100
AcDbLine
 10
-248.5870699841522
 20
132.2743616319429
 30
0.0
 11
-249.1870699841522
 21
132.0243616319429
 31
0.0
  0
LINE
  5
8D1
330
6B
100
AcDbEntity
  8
0
 62
     3
100
AcDbLine
 10
-249.1870699841522
 20
132.0243616319429
 30
0.0
 11
-249.1870699841522
 21
129.9243616319428
 31
0.0
  0
LINE
  5
8D2
330
6B
100
AcDbEntity
  8
0
 62
     3
100
AcDbLine
 10
-249.1870699841522
 20
129.9243616319428
 30
0.0
 11
-248.5870699841522
 21
129.6743616319429
 31
0.0
  0
CIRCLE
  5
8D3
330
6B
100
AcDbEntity
  8
0
 62
     3
100
AcDbCircle
 10
-242.3870699841522
 20
133.0032779776052
 30
0.0
 40
0.55
  0
LINE
  5
8D4
330
6B
100
AcDbEntity
  8
0
 62
     3
100
AcDbLine
 10
-240.8870699841521
 20
126.1743616319428
 30
0.0
 11
-241.2370699841522
 21
125.4743616319429
 31
0.0
  0
LINE
  5
8D5
330
6B
100
AcDbEntity
  8
0
 62
     3
100
AcDbLine
 10
-241.2370699841522
 20
125.4743616319429
 30
0.0
 11
-243.5370699841521
 21
125.4743616319429
 31
0.0
  0
LINE
  5
8D6
330
6B
100
AcDbEntity
  8
0
 62
     3
100
AcDbLine
 10
-243.5370699841521
 20
125.4743616319429
 30
0.0
 11
-243.8870699841522
 21
126.1743616319428
 31
0.0
  0
ARC
  5
8D7
330
6B
100
AcDbEntity
  8
0
 62
     3
100
AcDbCircle
 10
-240.3870699841522
 20
132.7743616319429
 30
0.0
 40
0.5
100
AcDbArc
 50
180.0
 51
270.0
  0
ARC
  5
8D8
330
6B
100
AcDbEntity
  8
0
 62
     3
100
AcDbCircle
 10
-244.3870699841522
 20
132.7743616319429
 30
0.0
 40
0.5
100
AcDbArc
 50
270.0
 51
0.0
  0
ARC
  5
8D9
330
6B
100
AcDbEntity
  8
0
 62
     3
100
AcDbCircle
 10
-241.3870699841522
 20
133.9743616319429
 30
0.0
 40
0.5
100
AcDbArc
 50
0.0
 51
90.0
  0
ARC
  5
8DA
330
6B
100
AcDbEntity
  8
0
 62
     3
100
AcDbCircle
 10
-243.3870699841522
 20
133.9743616319429
 30
0.0
 40
0.5
100
AcDbArc
 50
90.0
 51
180.0
  0
ARC
  5
8DB
330
6B
100
AcDbEntity
  8
0
 62
     3
100
AcDbCircle
 10
-242.3870699841522
 20
119.0682680686015
 30
0.0
 40
2.0
100
AcDbArc
 50
105.8130857291989
 51
74.18691427080104
  0
ARC
  5
8DC
330
6B
100
AcDbEntity
  8
0
 62
     3
100
AcDbCircle
 10
-242.3870699841522
 20
119.0682680686015
 30
0.0
 40
2.5
100
AcDbArc
 50
102.5915904786076
 51
77.40840952139241
  0
LINE
  5
8DD
330
6B
100
AcDbEntity
  8
0
 62
     3
100
AcDbLine
 10
-243.7870699841521
 20
113.0743616319429
 30
0.0
 11
-243.5870699841522
 21
115.9743616319429
 31
0.0
  0
LINE
  5
8DE
330
6B
100
AcDbEntity
  8
0
 62
     3
100
AcDbLine
 10
-243.5870699841522
 20
115.9743616319429
 30
0.0
 11
-241.1870699841522
 21
115.9743616319429
 31
0.0
  0
LINE
  5
8DF
330
6B
100
AcDbEntity
  8
0
 62
     3
100
AcDbLine
 10
-243.6387941220833
 20
115.2243616319429
 30
0.0
 11
-242.7370699841522
 21
115.2243616319429
 31
0.0
  0
LINE
  5
8E0
330
6B
100
AcDbEntity
  8
0
 62
     3
100
AcDbLine
 10
-242.0370699841521
 20
115.2243616319429
 30
0.0
 11
-241.1353458462211
 21
115.2243616319429
 31
0.0
  0
LINE
  5
8E1
330
6B
100
AcDbEntity
  8
0
 62
     3
100
AcDbLine
 10
-243.6525872255315
 20
115.0243616319429
 30
0.0
 11
-242.7370699841522
 21
115.0243616319429
 31
0.0
  0
LINE
  5
8E2
330
6B
100
AcDbEntity
  8
0
 62
     3
100
AcDbLine
 10
-242.0370699841521
 20
115.0243616319429
 30
0.0
 11
-241.1215527427728
 21
115.0243616319429
 31
0.0
  0
LINE
  5
8E3
330
6B
100
AcDbEntity
  8
0
 62
     3
100
AcDbLine
 10
-243.6905182600142
 20
114.4743616319429
 30
0.0
 11
-242.7370699841522
 21
114.4743616319429
 31
0.0
  0
LINE
  5
8E4
330
6B
100
AcDbEntity
  8
0
 62
     3
100
AcDbLine
 10
-242.0370699841521
 20
114.4743616319429
 30
0.0
 11
-241.0836217082902
 21
114.4743616319429
 31
0.0
  0
LINE
  5
8E5
330
6B
100
AcDbEntity
  8
0
 62
     3
100
AcDbLine
 10
-243.7043113634625
 20
114.2743616319429
 30
0.0
 11
-242.7370699841522
 21
114.2743616319429
 31
0.0
  0
LINE
  5
8E6
330
6B
100
AcDbEntity
  8
0
 62
     3
100
AcDbLine
 10
-242.0370699841521
 20
114.2743616319429
 30
0.0
 11
-241.0698286048418
 21
114.2743616319429
 31
0.0
  0
LINE
  5
8E7
330
6B
100
AcDbEntity
  8
0
 62
     3
100
AcDbLine
 10
-243.7422423979452
 20
113.7243616319429
 30
0.0
 11
-242.7370699841522
 21
113.7243616319429
 31
0.0
  0
LINE
  5
8E8
330
6B
100
AcDbEntity
  8
0
 62
     3
100
AcDbLine
 10
-242.0370699841521
 20
113.7243616319429
 30
0.0
 11
-241.0318975703591
 21
113.7243616319429
 31
0.0
  0
LINE
  5
8E9
330
6B
100
AcDbEntity
  8
0
 62
     3
100
AcDbLine
 10
-243.7560355013935
 20
113.5243616319429
 30
0.0
 11
-242.7370699841522
 21
113.5243616319429
 31
0.0
  0
LINE
  5
8EA
330
6B
100
AcDbEntity
  8
0
 62
     3
100
AcDbLine
 10
-242.0370699841521
 20
113.5243616319429
 30
0.0
 11
-241.0181044669108
 21
113.5243616319429
 31
0.0
  0
LINE
  5
8EB
330
6B
100
AcDbEntity
  8
0
 62
     3
100
AcDbLine
 10
-241.1870699841522
 20
115.9743616319429
 30
0.0
 11
-240.9870699841522
 21
113.0743616319429
 31
0.0
  0
LINE
  5
8EC
330
6B
100
AcDbEntity
  8
0
 62
     3
100
AcDbLine
 10
-240.9870699841522
 20
113.0743616319429
 30
0.0
 11
-240.3370699841522
 21
112.8243616319429
 31
0.0
  0
LINE
  5
8ED
330
6B
100
AcDbEntity
  8
0
 62
     3
100
AcDbLine
 10
-243.7870699841521
 20
113.0743616319429
 30
0.0
 11
-244.4370699841522
 21
112.8243616319429
 31
0.0
  0
LINE
  5
8EE
330
6B
100
AcDbEntity
  8
0
 62
     3
100
AcDbLine
 10
-240.8870699841521
 20
112.5743616319429
 30
0.0
 11
-240.3370699841522
 21
112.8243616319429
 31
0.0
  0
LINE
  5
8EF
330
6B
100
AcDbEntity
  8
0
 62
     3
100
AcDbLine
 10
-243.8870699841522
 20
112.5743616319429
 30
0.0
 11
-244.4370699841522
 21
112.8243616319429
 31
0.0
  0
LINE
  5
8F0
330
6B
100
AcDbEntity
  8
0
 62
     3
100
AcDbLine
 10
-243.8870699841522
 20
111.0743616319429
 30
0.0
 11
-244.7870699841522
 21
109.3743616319429
 31
0.0
  0
LINE
  5
8F1
330
6B
100
AcDbEntity
  8
0
 62
     3
100
AcDbLine
 10
-240.8870699841521
 20
111.0743616319429
 30
0.0
 11
-239.9870699841522
 21
109.3743616319429
 31
0.0
  0
LINE
  5
8F2
330
6B
100
AcDbEntity
  8
0
 62
     3
100
AcDbLine
 10
-239.9870699841522
 20
106.4743616319429
 30
0.0
 11
-239.3870699841522
 21
105.9743616319429
 31
0.0
  0
LINE
  5
8F3
330
6B
100
AcDbEntity
  8
0
 62
     3
100
AcDbLine
 10
-244.7870699841522
 20
106.4743616319429
 30
0.0
 11
-245.3870699841522
 21
105.9743616319429
 31
0.0
  0
CIRCLE
  5
8F4
330
6B
100
AcDbEntity
  8
0
 62
     3
100
AcDbCircle
 10
-242.3870699841522
 20
93.01363260579325
 30
0.0
 40
3.25
  0
CIRCLE
  5
8F5
330
6B
100
AcDbEntity
  8
0
 62
     3
100
AcDbCircle
 10
-242.3870699841522
 20
93.01363260579325
 30
0.0
 40
2.75
  0
LINE
  5
8F6
330
6B
100
AcDbEntity
  8
0
 62
     3
100
AcDbLine
 10
-243.1470699841522
 20
93.87220093279422
 30
0.0
 11
-243.1470699841522
 21
93.08342919994908
 31
0.0
  0
LINE
  5
8F7
330
6B
100
AcDbEntity
  8
0
 62
     3
100
AcDbLine
 10
-242.8970699841522
 20
93.87220093279422
 30
0.0
 11
-242.8970699841522
 21
93.08342919994908
 31
0.0
  0
LINE
  5
8F8
330
6B
100
AcDbEntity
  8
0
 62
     3
100
AcDbLine
 10
-241.6270699841522
 20
93.08342919994908
 30
0.0
 11
-241.6270699841522
 21
93.87220093279422
 31
0.0
  0
LINE
  5
8F9
330
6B
100
AcDbEntity
  8
0
 62
     3
100
AcDbLine
 10
-241.8770699841522
 20
93.08342919994908
 30
0.0
 11
-241.8770699841522
 21
93.87220093279422
 31
0.0
  0
LINE
  5
8FA
330
6B
100
AcDbEntity
  8
0
 62
     3
100
AcDbLine
 10
-242.8970699841522
 20
93.87220093279422
 30
0.0
 11
-243.1470699841522
 21
93.87220093279422
 31
0.0
  0
LINE
  5
8FB
330
6B
100
AcDbEntity
  8
0
 62
     3
100
AcDbLine
 10
-241.8770699841522
 20
93.87220093279422
 30
0.0
 11
-241.6270699841522
 21
93.87220093279422
 31
0.0
  0
LINE
  5
8FC
330
6B
100
AcDbEntity
  8
0
 62
     3
100
AcDbLine
 10
-242.8970699841522
 20
93.08342919994908
 30
0.0
 11
-243.1470699841522
 21
93.08342919994908
 31
0.0
  0
LINE
  5
8FD
330
6B
100
AcDbEntity
  8
0
 62
     3
100
AcDbLine
 10
-241.8770699841522
 20
93.08342919994908
 30
0.0
 11
-241.6270699841522
 21
93.08342919994908
 31
0.0
  0
CIRCLE
  5
8FE
330
6B
100
AcDbEntity
  8
0
 62
     3
100
AcDbCircle
 10
-242.3870699841522
 20
91.77379665621293
 30
0.0
 40
0.4135646708219554
  0
CIRCLE
  5
8FF
330
6B
100
AcDbEntity
  8
0
 62
     3
100
AcDbCircle
 10
-234.4140019347439
 20
105.457217897516
 30
0.0
 40
2.0
  0
CIRCLE
  5
900
330
6B
100
AcDbEntity
  8
0
 62
     3
100
AcDbCircle
 10
-234.4140019347439
 20
105.457217897516
 30
0.0
 40
3.0
  0
LINE
  5
901
330
6B
100
AcDbEntity
  8
0
 62
     3
100
AcDbLine
 10
-236.7599860272526
 20
109.0664226073788
 30
0.0
 11
-241.30008003102
 21
116.816945603518
 31
0.0
  0
LINE
  5
902
330
6B
100
AcDbEntity
  8
0
 62
     3
100
AcDbLine
 10
-236.4148424315502
 20
109.2686004952539
 30
0.0
 11
-240.9549364353176
 21
117.0191234913931
 31
0.0
  0
ARC
  5
903
330
6B
100
AcDbEntity
  8
0
 62
     3
100
AcDbCircle
 10
-234.4140019347439
 20
105.457217897516
 30
0.0
 40
4.0
100
AcDbArc
 50
290.2822201888458
 51
310.4395364044003
  0
LINE
  5
904
330
6B
100
AcDbEntity
  8
0
 62
     3
100
AcDbLine
 10
-232.1909382476353
 20
103.4427730997964
 30
0.0
 11
-231.8194209789804
 21
102.412854308194
 31
0.0
  0
LINE
  5
905
330
6B
100
AcDbEntity
  8
0
 62
     3
100
AcDbLine
 10
-233.7440844282959
 20
102.5329726043583
 30
0.0
 11
-233.0274235639387
 21
101.705231700631
 31
0.0
  0
LINE
  5
906
330
6B
100
AcDbEntity
  8
0
 62
     3
100
AcDbLine
 10
-235.4300630092058
 20
108.2799151701548
 30
0.0
 11
-236.2854135831618
 21
109.3444172032071
 31
0.0
  0
LINE
  5
907
330
6B
100
AcDbEntity
  8
0
 62
     3
100
AcDbLine
 10
-236.2854135831618
 20
109.3444172032071
 30
0.0
 11
-236.889414875641
 21
108.9906058994257
 31
0.0
  0
LINE
  5
908
330
6B
100
AcDbEntity
  8
0
 62
     3
100
AcDbLine
 10
-236.889414875641
 20
108.9906058994257
 30
0.0
 11
-236.3792078973873
 21
107.7239259784983
 31
0.0
  0
LINE
  5
909
330
6B
100
AcDbEntity
  8
0
 62
     3
100
AcDbLine
 10
-189.0726999973065
 20
105.9743616319429
 30
0.0
 11
-195.0726999973065
 21
105.9743616319429
 31
0.0
  0
LINE
  5
90A
330
6B
100
AcDbEntity
  8
0
 62
     3
100
AcDbLine
 10
-188.8226999973065
 20
104.7743616319429
 30
0.0
 11
-195.3226999973065
 21
104.7743616319429
 31
0.0
  0
LINE
  5
90B
330
6B
100
AcDbEntity
  8
0
 62
     3
100
AcDbLine
 10
-188.8226999973065
 20
104.0243616319429
 30
0.0
 11
-195.3226999973065
 21
104.0243616319429
 31
0.0
  0
LINE
  5
90C
330
6B
100
AcDbEntity
  8
0
 62
     3
100
AcDbLine
 10
-190.5726999973065
 20
126.1743616319428
 30
0.0
 11
-193.5726999973065
 21
126.1743616319428
 31
0.0
  0
LINE
  5
90D
330
6B
100
AcDbEntity
  8
0
 62
     3
100
AcDbLine
 10
-190.6726999973065
 20
113.0743616319429
 30
0.0
 11
-193.4726999973065
 21
113.0743616319429
 31
0.0
  0
LINE
  5
90E
330
6B
100
AcDbEntity
  8
0
 62
     3
100
AcDbLine
 10
-190.5726999973065
 20
112.5743616319429
 30
0.0
 11
-193.5726999973065
 21
112.5743616319429
 31
0.0
  0
LINE
  5
90F
330
6B
100
AcDbEntity
  8
0
 62
     3
100
AcDbLine
 10
-190.5726999973065
 20
111.0743616319429
 30
0.0
 11
-193.5726999973065
 21
111.0743616319429
 31
0.0
  0
LINE
  5
910
330
6B
100
AcDbEntity
  8
0
 62
     3
100
AcDbLine
 10
-189.6726999973065
 20
109.3743616319429
 30
0.0
 11
-194.4726999973065
 21
109.3743616319429
 31
0.0
  0
LINE
  5
911
330
6B
100
AcDbEntity
  8
0
 62
     3
100
AcDbLine
 10
-189.6726999973065
 20
106.4743616319429
 30
0.0
 11
-194.4726999973065
 21
106.4743616319429
 31
0.0
  0
LINE
  5
912
330
6B
100
AcDbEntity
  8
0
 62
     3
100
AcDbLine
 10
-185.8726999973065
 20
129.6743616319429
 30
0.0
 11
-189.0726999973065
 21
129.6743616319429
 31
0.0
  0
LINE
  5
913
330
6B
100
AcDbEntity
  8
0
 62
     3
100
AcDbLine
 10
-195.0726999973065
 20
129.6743616319429
 30
0.0
 11
-198.2726999973065
 21
129.6743616319429
 31
0.0
  0
LINE
  5
914
330
6B
100
AcDbEntity
  8
0
 62
     3
100
AcDbLine
 10
-185.8726999973065
 20
132.2743616319429
 30
0.0
 11
-190.0726999973065
 21
132.2743616319429
 31
0.0
  0
LINE
  5
915
330
6B
100
AcDbEntity
  8
0
 62
     3
100
AcDbLine
 10
-194.0726999973065
 20
132.2743616319429
 30
0.0
 11
-198.2726999973065
 21
132.2743616319429
 31
0.0
  0
LINE
  5
916
330
6B
100
AcDbEntity
  8
0
 62
     3
100
AcDbLine
 10
-191.0726999973065
 20
134.4743616319429
 30
0.0
 11
-193.0726999973065
 21
134.4743616319429
 31
0.0
  0
LINE
  5
917
330
6B
100
AcDbEntity
  8
0
 62
     3
100
AcDbLine
 10
-195.3226999973065
 20
104.0243616319429
 30
0.0
 11
-195.3226999973065
 21
104.7743616319429
 31
0.0
  0
LINE
  5
918
330
6B
100
AcDbEntity
  8
0
 62
     3
100
AcDbLine
 10
-188.8226999973065
 20
104.7743616319429
 30
0.0
 11
-188.8226999973065
 21
104.0243616319429
 31
0.0
  0
LINE
  5
919
330
6B
100
AcDbEntity
  8
0
 62
     3
100
AcDbLine
 10
-195.0726999973065
 20
105.9743616319429
 30
0.0
 11
-195.0726999973065
 21
104.7743616319429
 31
0.0
  0
LINE
  5
91A
330
6B
100
AcDbEntity
  8
0
 62
     3
100
AcDbLine
 10
-189.0726999973065
 20
105.9743616319429
 30
0.0
 11
-189.0726999973065
 21
104.7743616319429
 31
0.0
  0
LINE
  5
91B
330
6B
100
AcDbEntity
  8
0
 62
     3
100
AcDbLine
 10
-194.4726999973065
 20
106.4743616319429
 30
0.0
 11
-194.4726999973065
 21
109.3743616319429
 31
0.0
  0
LINE
  5
91C
330
6B
100
AcDbEntity
  8
0
 62
     3
100
AcDbLine
 10
-189.6726999973065
 20
106.4743616319429
 30
0.0
 11
-189.6726999973065
 21
109.3743616319429
 31
0.0
  0
LINE
  5
91D
330
6B
100
AcDbEntity
  8
0
 62
     3
100
AcDbLine
 10
-192.4226999973065
 20
115.2243616319429
 30
0.0
 11
-192.4226999973065
 21
115.0243616319429
 31
0.0
  0
LINE
  5
91E
330
6B
100
AcDbEntity
  8
0
 62
     3
100
AcDbLine
 10
-192.4226999973065
 20
114.4743616319429
 30
0.0
 11
-192.4226999973065
 21
114.2743616319429
 31
0.0
  0
LINE
  5
91F
330
6B
100
AcDbEntity
  8
0
 62
     3
100
AcDbLine
 10
-192.4226999973065
 20
113.7243616319429
 30
0.0
 11
-192.4226999973065
 21
113.5243616319429
 31
0.0
  0
LINE
  5
920
330
6B
100
AcDbEntity
  8
0
 62
     3
100
AcDbLine
 10
-191.7226999973065
 20
115.2243616319429
 30
0.0
 11
-191.7226999973065
 21
115.0243616319429
 31
0.0
  0
LINE
  5
921
330
6B
100
AcDbEntity
  8
0
 62
     3
100
AcDbLine
 10
-191.7226999973065
 20
114.4743616319429
 30
0.0
 11
-191.7226999973065
 21
114.2743616319429
 31
0.0
  0
LINE
  5
922
330
6B
100
AcDbEntity
  8
0
 62
     3
100
AcDbLine
 10
-191.7226999973065
 20
113.7243616319429
 30
0.0
 11
-191.7226999973065
 21
113.5243616319429
 31
0.0
  0
LINE
  5
923
330
6B
100
AcDbEntity
  8
0
 62
     3
100
AcDbLine
 10
-193.5726999973065
 20
112.5743616319429
 30
0.0
 11
-193.5726999973065
 21
111.0743616319429
 31
0.0
  0
LINE
  5
924
330
6B
100
AcDbEntity
  8
0
 62
     3
100
AcDbLine
 10
-190.5726999973065
 20
112.5743616319429
 30
0.0
 11
-190.5726999973065
 21
111.0743616319429
 31
0.0
  0
LINE
  5
925
330
6B
100
AcDbEntity
  8
0
 62
     3
100
AcDbLine
 10
-192.6176999973065
 20
125.4743616319429
 30
0.0
 11
-192.6176999973065
 21
117.1439565033918
 31
0.0
  0
LINE
  5
926
330
6B
100
AcDbEntity
  8
0
 62
     3
100
AcDbLine
 10
-192.6176999973065
 20
116.6283961457334
 30
0.0
 11
-192.6176999973065
 21
115.9743616319429
 31
0.0
  0
LINE
  5
927
330
6B
100
AcDbEntity
  8
0
 62
     3
100
AcDbLine
 10
-191.5276999973065
 20
125.4743616319429
 30
0.0
 11
-191.5276999973065
 21
117.1439565033918
 31
0.0
  0
LINE
  5
928
330
6B
100
AcDbEntity
  8
0
 62
     3
100
AcDbLine
 10
-191.5276999973065
 20
116.6283961457334
 30
0.0
 11
-191.5276999973065
 21
115.9743616319429
 31
0.0
  0
LINE
  5
929
330
6B
100
AcDbEntity
  8
0
 62
     3
100
AcDbLine
 10
-198.2726999973065
 20
132.2743616319429
 30
0.0
 11
-198.2726999973065
 21
129.6743616319429
 31
0.0
  0
LINE
  5
92A
330
6B
100
AcDbEntity
  8
0
 62
     3
100
AcDbLine
 10
-185.8726999973065
 20
129.6743616319429
 30
0.0
 11
-185.8726999973065
 21
132.2743616319429
 31
0.0
  0
LINE
  5
92B
330
6B
100
AcDbEntity
  8
0
 62
     3
100
AcDbLine
 10
-193.5726999973065
 20
126.1743616319428
 30
0.0
 11
-193.5726999973065
 21
128.1743616319428
 31
0.0
  0
ARC
  5
92C
330
6B
100
AcDbEntity
  8
0
 62
     3
100
AcDbCircle
 10
-195.0726999973065
 20
128.1743616319428
 30
0.0
 40
1.5
100
AcDbArc
 50
0.0
 51
90.0
  0
LINE
  5
92D
330
6B
100
AcDbEntity
  8
0
 62
     3
100
AcDbLine
 10
-193.5726999973065
 20
132.7743616319429
 30
0.0
 11
-193.5726999973065
 21
133.9743616319429
 31
0.0
  0
LINE
  5
92E
330
6B
100
AcDbEntity
  8
0
 62
     3
100
AcDbLine
 10
-190.5726999973065
 20
126.1743616319428
 30
0.0
 11
-190.5726999973065
 21
128.1743616319428
 31
0.0
  0
ARC
  5
92F
330
6B
100
AcDbEntity
  8
0
 62
     3
100
AcDbCircle
 10
-189.0726999973065
 20
128.1743616319428
 30
0.0
 40
1.5
100
AcDbArc
 50
90.0
 51
180.0
  0
LINE
  5
930
330
6B
100
AcDbEntity
  8
0
 62
     3
100
AcDbLine
 10
-190.5726999973065
 20
132.7743616319429
 30
0.0
 11
-190.5726999973065
 21
133.9743616319429
 31
0.0
  0
LINE
  5
931
330
6B
100
AcDbEntity
  8
0
 62
     3
100
AcDbLine
 10
-185.8726999973065
 20
132.2743616319429
 30
0.0
 11
-185.2726999973065
 21
132.0243616319429
 31
0.0
  0
LINE
  5
932
330
6B
100
AcDbEntity
  8
0
 62
     3
100
AcDbLine
 10
-185.2726999973065
 20
132.0243616319429
 30
0.0
 11
-185.2726999973065
 21
129.9243616319428
 31
0.0
  0
LINE
  5
933
330
6B
100
AcDbEntity
  8
0
 62
     3
100
AcDbLine
 10
-185.2726999973065
 20
129.9243616319428
 30
0.0
 11
-185.8726999973065
 21
129.6743616319429
 31
0.0
  0
LINE
  5
934
330
6B
100
AcDbEntity
  8
0
 62
     3
100
AcDbLine
 10
-198.2726999973065
 20
132.2743616319429
 30
0.0
 11
-198.8726999973065
 21
132.0243616319429
 31
0.0
  0
LINE
  5
935
330
6B
100
AcDbEntity
  8
0
 62
     3
100
AcDbLine
 10
-198.8726999973065
 20
132.0243616319429
 30
0.0
 11
-198.8726999973065
 21
129.9243616319428
 31
0.0
  0
LINE
  5
936
330
6B
100
AcDbEntity
  8
0
 62
     3
100
AcDbLine
 10
-198.8726999973065
 20
129.9243616319428
 30
0.0
 11
-198.2726999973065
 21
129.6743616319429
 31
0.0
  0
CIRCLE
  5
937
330
6B
100
AcDbEntity
  8
0
 62
     3
100
AcDbCircle
 10
-192.0726999973065
 20
133.0032779776052
 30
0.0
 40
0.55
  0
LINE
  5
938
330
6B
100
AcDbEntity
  8
0
 62
     3
100
AcDbLine
 10
-190.5726999973065
 20
126.1743616319428
 30
0.0
 11
-190.9226999973065
 21
125.4743616319429
 31
0.0
  0
LINE
  5
939
330
6B
100
AcDbEntity
  8
0
 62
     3
100
AcDbLine
 10
-190.9226999973065
 20
125.4743616319429
 30
0.0
 11
-193.2226999973065
 21
125.4743616319429
 31
0.0
  0
LINE
  5
93A
330
6B
100
AcDbEntity
  8
0
 62
     3
100
AcDbLine
 10
-193.2226999973065
 20
125.4743616319429
 30
0.0
 11
-193.5726999973065
 21
126.1743616319428
 31
0.0
  0
ARC
  5
93B
330
6B
100
AcDbEntity
  8
0
 62
     3
100
AcDbCircle
 10
-190.0726999973064
 20
132.7743616319429
 30
0.0
 40
0.5
100
AcDbArc
 50
180.0
 51
270.0
  0
ARC
  5
93C
330
6B
100
AcDbEntity
  8
0
 62
     3
100
AcDbCircle
 10
-194.0726999973065
 20
132.7743616319429
 30
0.0
 40
0.5
100
AcDbArc
 50
270.0
 51
0.0
  0
ARC
  5
93D
330
6B
100
AcDbEntity
  8
0
 62
     3
100
AcDbCircle
 10
-191.0726999973065
 20
133.9743616319429
 30
0.0
 40
0.5
100
AcDbArc
 50
0.0
 51
90.0
  0
ARC
  5
93E
330
6B
100
AcDbEntity
  8
0
 62
     3
100
AcDbCircle
 10
-193.0726999973065
 20
133.9743616319429
 30
0.0
 40
0.5
100
AcDbArc
 50
90.0
 51
180.0
  0
ARC
  5
93F
330
6B
100
AcDbEntity
  8
0
 62
     3
100
AcDbCircle
 10
-192.0726999973065
 20
119.0682680686015
 30
0.0
 40
2.0
100
AcDbArc
 50
105.8130857291989
 51
74.18691427080104
  0
ARC
  5
940
330
6B
100
AcDbEntity
  8
0
 62
     3
100
AcDbCircle
 10
-192.0726999973065
 20
119.0682680686015
 30
0.0
 40
2.5
100
AcDbArc
 50
102.5915904786076
 51
77.40840952139241
  0
LINE
  5
941
330
6B
100
AcDbEntity
  8
0
 62
     3
100
AcDbLine
 10
-193.4726999973065
 20
113.0743616319429
 30
0.0
 11
-193.2726999973065
 21
115.9743616319429
 31
0.0
  0
LINE
  5
942
330
6B
100
AcDbEntity
  8
0
 62
     3
100
AcDbLine
 10
-193.2726999973065
 20
115.9743616319429
 30
0.0
 11
-190.8726999973065
 21
115.9743616319429
 31
0.0
  0
LINE
  5
943
330
6B
100
AcDbEntity
  8
0
 62
     3
100
AcDbLine
 10
-193.3244241352376
 20
115.2243616319429
 30
0.0
 11
-192.4226999973065
 21
115.2243616319429
 31
0.0
  0
LINE
  5
944
330
6B
100
AcDbEntity
  8
0
 62
     3
100
AcDbLine
 10
-191.7226999973065
 20
115.2243616319429
 30
0.0
 11
-190.8209758593754
 21
115.2243616319429
 31
0.0
  0
LINE
  5
945
330
6B
100
AcDbEntity
  8
0
 62
     3
100
AcDbLine
 10
-193.3382172386858
 20
115.0243616319429
 30
0.0
 11
-192.4226999973065
 21
115.0243616319429
 31
0.0
  0
LINE
  5
946
330
6B
100
AcDbEntity
  8
0
 62
     3
100
AcDbLine
 10
-191.7226999973065
 20
115.0243616319429
 30
0.0
 11
-190.8071827559271
 21
115.0243616319429
 31
0.0
  0
LINE
  5
947
330
6B
100
AcDbEntity
  8
0
 62
     3
100
AcDbLine
 10
-193.3761482731685
 20
114.4743616319429
 30
0.0
 11
-192.4226999973065
 21
114.4743616319429
 31
0.0
  0
LINE
  5
948
330
6B
100
AcDbEntity
  8
0
 62
     3
100
AcDbLine
 10
-191.7226999973065
 20
114.4743616319429
 30
0.0
 11
-190.7692517214444
 21
114.4743616319429
 31
0.0
  0
LINE
  5
949
330
6B
100
AcDbEntity
  8
0
 62
     3
100
AcDbLine
 10
-193.3899413766168
 20
114.2743616319429
 30
0.0
 11
-192.4226999973065
 21
114.2743616319429
 31
0.0
  0
LINE
  5
94A
330
6B
100
AcDbEntity
  8
0
 62
     3
100
AcDbLine
 10
-191.7226999973065
 20
114.2743616319429
 30
0.0
 11
-190.7554586179961
 21
114.2743616319429
 31
0.0
  0
LINE
  5
94B
330
6B
100
AcDbEntity
  8
0
 62
     3
100
AcDbLine
 10
-193.4278724110996
 20
113.7243616319429
 30
0.0
 11
-192.4226999973065
 21
113.7243616319429
 31
0.0
  0
LINE
  5
94C
330
6B
100
AcDbEntity
  8
0
 62
     3
100
AcDbLine
 10
-191.7226999973065
 20
113.7243616319429
 30
0.0
 11
-190.7175275835134
 21
113.7243616319429
 31
0.0
  0
LINE
  5
94D
330
6B
100
AcDbEntity
  8
0
 62
     3
100
AcDbLine
 10
-193.4416655145479
 20
113.5243616319429
 30
0.0
 11
-192.4226999973065
 21
113.5243616319429
 31
0.0
  0
LINE
  5
94E
330
6B
100
AcDbEntity
  8
0
 62
     3
100
AcDbLine
 10
-191.7226999973065
 20
113.5243616319429
 30
0.0
 11
-190.7037344800651
 21
113.5243616319429
 31
0.0
  0
LINE
  5
94F
330
6B
100
AcDbEntity
  8
0
 62
     3
100
AcDbLine
 10
-190.8726999973065
 20
115.9743616319429
 30
0.0
 11
-190.6726999973065
 21
113.0743616319429
 31
0.0
  0
LINE
  5
950
330
6B
100
AcDbEntity
  8
0
 62
     3
100
AcDbLine
 10
-190.6726999973065
 20
113.0743616319429
 30
0.0
 11
-190.0226999973065
 21
112.8243616319429
 31
0.0
  0
LINE
  5
951
330
6B
100
AcDbEntity
  8
0
 62
     3
100
AcDbLine
 10
-193.4726999973065
 20
113.0743616319429
 30
0.0
 11
-194.1226999973065
 21
112.8243616319429
 31
0.0
  0
LINE
  5
952
330
6B
100
AcDbEntity
  8
0
 62
     3
100
AcDbLine
 10
-190.5726999973065
 20
112.5743616319429
 30
0.0
 11
-190.0226999973065
 21
112.8243616319429
 31
0.0
  0
LINE
  5
953
330
6B
100
AcDbEntity
  8
0
 62
     3
100
AcDbLine
 10
-193.5726999973065
 20
112.5743616319429
 30
0.0
 11
-194.1226999973065
 21
112.8243616319429
 31
0.0
  0
LINE
  5
954
330
6B
100
AcDbEntity
  8
0
 62
     3
100
AcDbLine
 10
-193.5726999973065
 20
111.0743616319429
 30
0.0
 11
-194.4726999973065
 21
109.3743616319429
 31
0.0
  0
LINE
  5
955
330
6B
100
AcDbEntity
  8
0
 62
     3
100
AcDbLine
 10
-190.5726999973065
 20
111.0743616319429
 30
0.0
 11
-189.6726999973065
 21
109.3743616319429
 31
0.0
  0
LINE
  5
956
330
6B
100
AcDbEntity
  8
0
 62
     3
100
AcDbLine
 10
-189.6726999973065
 20
106.4743616319429
 30
0.0
 11
-189.0726999973065
 21
105.9743616319429
 31
0.0
  0
LINE
  5
957
330
6B
100
AcDbEntity
  8
0
 62
     3
100
AcDbLine
 10
-194.4726999973065
 20
106.4743616319429
 30
0.0
 11
-195.0726999973065
 21
105.9743616319429
 31
0.0
  0
CIRCLE
  5
958
330
6B
100
AcDbEntity
  8
0
 62
     3
100
AcDbCircle
 10
-192.0726999973065
 20
93.01363260579325
 30
0.0
 40
3.25
  0
CIRCLE
  5
959
330
6B
100
AcDbEntity
  8
0
 62
     3
100
AcDbCircle
 10
-192.0726999973065
 20
93.01363260579325
 30
0.0
 40
2.75
  0
LINE
  5
95A
330
6B
100
AcDbEntity
  8
0
 62
     3
100
AcDbLine
 10
-192.8326999973065
 20
93.87220093279422
 30
0.0
 11
-192.8326999973065
 21
93.08342919994908
 31
0.0
  0
LINE
  5
95B
330
6B
100
AcDbEntity
  8
0
 62
     3
100
AcDbLine
 10
-192.5826999973065
 20
93.87220093279422
 30
0.0
 11
-192.5826999973065
 21
93.08342919994908
 31
0.0
  0
LINE
  5
95C
330
6B
100
AcDbEntity
  8
0
 62
     3
100
AcDbLine
 10
-191.3126999973065
 20
93.08342919994908
 30
0.0
 11
-191.3126999973065
 21
93.87220093279422
 31
0.0
  0
LINE
  5
95D
330
6B
100
AcDbEntity
  8
0
 62
     3
100
AcDbLine
 10
-191.5626999973065
 20
93.08342919994908
 30
0.0
 11
-191.5626999973065
 21
93.87220093279422
 31
0.0
  0
LINE
  5
95E
330
6B
100
AcDbEntity
  8
0
 62
     3
100
AcDbLine
 10
-192.5826999973065
 20
93.87220093279422
 30
0.0
 11
-192.8326999973065
 21
93.87220093279422
 31
0.0
  0
LINE
  5
95F
330
6B
100
AcDbEntity
  8
0
 62
     3
100
AcDbLine
 10
-191.5626999973065
 20
93.87220093279422
 30
0.0
 11
-191.3126999973065
 21
93.87220093279422
 31
0.0
  0
LINE
  5
960
330
6B
100
AcDbEntity
  8
0
 62
     3
100
AcDbLine
 10
-192.5826999973065
 20
93.08342919994908
 30
0.0
 11
-192.8326999973065
 21
93.08342919994908
 31
0.0
  0
LINE
  5
961
330
6B
100
AcDbEntity
  8
0
 62
     3
100
AcDbLine
 10
-191.5626999973065
 20
93.08342919994908
 30
0.0
 11
-191.3126999973065
 21
93.08342919994908
 31
0.0
  0
CIRCLE
  5
962
330
6B
100
AcDbEntity
  8
0
 62
     3
100
AcDbCircle
 10
-192.0726999973065
 20
91.77379665621293
 30
0.0
 40
0.4135646708219554
  0
CIRCLE
  5
963
330
6B
100
AcDbEntity
  8
0
 62
     3
100
AcDbCircle
 10
-184.0996319478981
 20
105.457217897516
 30
0.0
 40
2.0
  0
CIRCLE
  5
964
330
6B
100
AcDbEntity
  8
0
 62
     3
100
AcDbCircle
 10
-184.0996319478981
 20
105.457217897516
 30
0.0
 40
3.0
  0
LINE
  5
965
330
6B
100
AcDbEntity
  8
0
 62
     3
100
AcDbLine
 10
-186.4456160404069
 20
109.0664226073788
 30
0.0
 11
-190.9857100441743
 21
116.816945603518
 31
0.0
  0
LINE
  5
966
330
6B
100
AcDbEntity
  8
0
 62
     3
100
AcDbLine
 10
-186.1004724447045
 20
109.2686004952539
 30
0.0
 11
-190.6405664484719
 21
117.0191234913931
 31
0.0
  0
ARC
  5
967
330
6B
100
AcDbEntity
  8
0
 62
     3
100
AcDbCircle
 10
-184.0996319478981
 20
105.457217897516
 30
0.0
 40
4.0
100
AcDbArc
 50
290.2822201888458
 51
310.4395364044003
  0
LINE
  5
968
330
6B
100
AcDbEntity
  8
0
 62
     3
100
AcDbLine
 10
-181.8765682607896
 20
103.4427730997964
 30
0.0
 11
-181.5050509921347
 21
102.412854308194
 31
0.0
  0
LINE
  5
969
330
6B
100
AcDbEntity
  8
0
 62
     3
100
AcDbLine
 10
-183.4297144414503
 20
102.5329726043583
 30
0.0
 11
-182.713053577093
 21
101.705231700631
 31
0.0
  0
LINE
  5
96A
330
6B
100
AcDbEntity
  8
0
 62
     3
100
AcDbLine
 10
-185.1156930223601
 20
108.2799151701548
 30
0.0
 11
-185.9710435963162
 21
109.3444172032071
 31
0.0
  0
LINE
  5
96B
330
6B
100
AcDbEntity
  8
0
 62
     3
100
AcDbLine
 10
-185.9710435963162
 20
109.3444172032071
 30
0.0
 11
-186.5750448887953
 21
108.9906058994257
 31
0.0
  0
LINE
  5
96C
330
6B
100
AcDbEntity
  8
0
 62
     3
100
AcDbLine
 10
-186.5750448887953
 20
108.9906058994257
 30
0.0
 11
-186.0648379105416
 21
107.7239259784983
 31
0.0
  0
LINE
  5
96D
330
6B
100
AcDbEntity
  8
0
 62
     3
100
AcDbLine
 10
-138.6597138504268
 20
105.9743616319429
 30
0.0
 11
-144.6597138504268
 21
105.9743616319429
 31
0.0
  0
LINE
  5
96E
330
6B
100
AcDbEntity
  8
0
 62
     3
100
AcDbLine
 10
-138.4097138504268
 20
104.7743616319429
 30
0.0
 11
-144.9097138504268
 21
104.7743616319429
 31
0.0
  0
LINE
  5
96F
330
6B
100
AcDbEntity
  8
0
 62
     3
100
AcDbLine
 10
-138.4097138504268
 20
104.0243616319429
 30
0.0
 11
-144.9097138504268
 21
104.0243616319429
 31
0.0
  0
LINE
  5
970
330
6B
100
AcDbEntity
  8
0
 62
     3
100
AcDbLine
 10
-140.1597138504268
 20
126.1743616319428
 30
0.0
 11
-143.1597138504268
 21
126.1743616319428
 31
0.0
  0
LINE
  5
971
330
6B
100
AcDbEntity
  8
0
 62
     3
100
AcDbLine
 10
-140.2597138504268
 20
113.0743616319429
 30
0.0
 11
-143.0597138504268
 21
113.0743616319429
 31
0.0
  0
LINE
  5
972
330
6B
100
AcDbEntity
  8
0
 62
     3
100
AcDbLine
 10
-140.1597138504268
 20
112.5743616319429
 30
0.0
 11
-143.1597138504268
 21
112.5743616319429
 31
0.0
  0
LINE
  5
973
330
6B
100
AcDbEntity
  8
0
 62
     3
100
AcDbLine
 10
-140.1597138504268
 20
111.0743616319429
 30
0.0
 11
-143.1597138504268
 21
111.0743616319429
 31
0.0
  0
LINE
  5
974
330
6B
100
AcDbEntity
  8
0
 62
     3
100
AcDbLine
 10
-139.2597138504268
 20
109.3743616319429
 30
0.0
 11
-144.0597138504268
 21
109.3743616319429
 31
0.0
  0
LINE
  5
975
330
6B
100
AcDbEntity
  8
0
 62
     3
100
AcDbLine
 10
-139.2597138504268
 20
106.4743616319429
 30
0.0
 11
-144.0597138504268
 21
106.4743616319429
 31
0.0
  0
LINE
  5
976
330
6B
100
AcDbEntity
  8
0
 62
     3
100
AcDbLine
 10
-135.4597138504268
 20
129.6743616319429
 30
0.0
 11
-138.6597138504268
 21
129.6743616319429
 31
0.0
  0
LINE
  5
977
330
6B
100
AcDbEntity
  8
0
 62
     3
100
AcDbLine
 10
-144.6597138504268
 20
129.6743616319429
 30
0.0
 11
-147.8597138504268
 21
129.6743616319429
 31
0.0
  0
LINE
  5
978
330
6B
100
AcDbEntity
  8
0
 62
     3
100
AcDbLine
 10
-135.4597138504268
 20
132.2743616319429
 30
0.0
 11
-139.6597138504268
 21
132.2743616319429
 31
0.0
  0
LINE
  5
979
330
6B
100
AcDbEntity
  8
0
 62
     3
100
AcDbLine
 10
-143.6597138504268
 20
132.2743616319429
 30
0.0
 11
-147.8597138504268
 21
132.2743616319429
 31
0.0
  0
LINE
  5
97A
330
6B
100
AcDbEntity
  8
0
 62
     3
100
AcDbLine
 10
-140.6597138504268
 20
134.4743616319429
 30
0.0
 11
-142.6597138504268
 21
134.4743616319429
 31
0.0
  0
LINE
  5
97B
330
6B
100
AcDbEntity
  8
0
 62
     3
100
AcDbLine
 10
-144.9097138504268
 20
104.0243616319429
 30
0.0
 11
-144.9097138504268
 21
104.7743616319429
 31
0.0
  0
LINE
  5
97C
330
6B
100
AcDbEntity
  8
0
 62
     3
100
AcDbLine
 10
-138.4097138504268
 20
104.7743616319429
 30
0.0
 11
-138.4097138504268
 21
104.0243616319429
 31
0.0
  0
LINE
  5
97D
330
6B
100
AcDbEntity
  8
0
 62
     3
100
AcDbLine
 10
-144.6597138504268
 20
105.9743616319429
 30
0.0
 11
-144.6597138504268
 21
104.7743616319429
 31
0.0
  0
LINE
  5
97E
330
6B
100
AcDbEntity
  8
0
 62
     3
100
AcDbLine
 10
-138.6597138504268
 20
105.9743616319429
 30
0.0
 11
-138.6597138504268
 21
104.7743616319429
 31
0.0
  0
LINE
  5
97F
330
6B
100
AcDbEntity
  8
0
 62
     3
100
AcDbLine
 10
-144.0597138504268
 20
106.4743616319429
 30
0.0
 11
-144.0597138504268
 21
109.3743616319429
 31
0.0
  0
LINE
  5
980
330
6B
100
AcDbEntity
  8
0
 62
     3
100
AcDbLine
 10
-139.2597138504268
 20
106.4743616319429
 30
0.0
 11
-139.2597138504268
 21
109.3743616319429
 31
0.0
  0
LINE
  5
981
330
6B
100
AcDbEntity
  8
0
 62
     3
100
AcDbLine
 10
-142.0097138504268
 20
115.2243616319429
 30
0.0
 11
-142.0097138504268
 21
115.0243616319429
 31
0.0
  0
LINE
  5
982
330
6B
100
AcDbEntity
  8
0
 62
     3
100
AcDbLine
 10
-142.0097138504268
 20
114.4743616319429
 30
0.0
 11
-142.0097138504268
 21
114.2743616319429
 31
0.0
  0
LINE
  5
983
330
6B
100
AcDbEntity
  8
0
 62
     3
100
AcDbLine
 10
-142.0097138504268
 20
113.7243616319429
 30
0.0
 11
-142.0097138504268
 21
113.5243616319429
 31
0.0
  0
LINE
  5
984
330
6B
100
AcDbEntity
  8
0
 62
     3
100
AcDbLine
 10
-141.3097138504268
 20
115.2243616319429
 30
0.0
 11
-141.3097138504268
 21
115.0243616319429
 31
0.0
  0
LINE
  5
985
330
6B
100
AcDbEntity
  8
0
 62
     3
100
AcDbLine
 10
-141.3097138504268
 20
114.4743616319429
 30
0.0
 11
-141.3097138504268
 21
114.2743616319429
 31
0.0
  0
LINE
  5
986
330
6B
100
AcDbEntity
  8
0
 62
     3
100
AcDbLine
 10
-141.3097138504268
 20
113.7243616319429
 30
0.0
 11
-141.3097138504268
 21
113.5243616319429
 31
0.0
  0
LINE
  5
987
330
6B
100
AcDbEntity
  8
0
 62
     3
100
AcDbLine
 10
-143.1597138504268
 20
112.5743616319429
 30
0.0
 11
-143.1597138504268
 21
111.0743616319429
 31
0.0
  0
LINE
  5
988
330
6B
100
AcDbEntity
  8
0
 62
     3
100
AcDbLine
 10
-140.1597138504268
 20
112.5743616319429
 30
0.0
 11
-140.1597138504268
 21
111.0743616319429
 31
0.0
  0
LINE
  5
989
330
6B
100
AcDbEntity
  8
0
 62
     3
100
AcDbLine
 10
-142.2047138504268
 20
125.4743616319429
 30
0.0
 11
-142.2047138504268
 21
117.1439565033918
 31
0.0
  0
LINE
  5
98A
330
6B
100
AcDbEntity
  8
0
 62
     3
100
AcDbLine
 10
-142.2047138504268
 20
116.6283961457334
 30
0.0
 11
-142.2047138504268
 21
115.9743616319429
 31
0.0
  0
LINE
  5
98B
330
6B
100
AcDbEntity
  8
0
 62
     3
100
AcDbLine
 10
-141.1147138504268
 20
125.4743616319429
 30
0.0
 11
-141.1147138504268
 21
117.1439565033918
 31
0.0
  0
LINE
  5
98C
330
6B
100
AcDbEntity
  8
0
 62
     3
100
AcDbLine
 10
-141.1147138504268
 20
116.6283961457334
 30
0.0
 11
-141.1147138504268
 21
115.9743616319429
 31
0.0
  0
LINE
  5
98D
330
6B
100
AcDbEntity
  8
0
 62
     3
100
AcDbLine
 10
-147.8597138504268
 20
132.2743616319429
 30
0.0
 11
-147.8597138504268
 21
129.6743616319429
 31
0.0
  0
LINE
  5
98E
330
6B
100
AcDbEntity
  8
0
 62
     3
100
AcDbLine
 10
-135.4597138504268
 20
129.6743616319429
 30
0.0
 11
-135.4597138504268
 21
132.2743616319429
 31
0.0
  0
LINE
  5
98F
330
6B
100
AcDbEntity
  8
0
 62
     3
100
AcDbLine
 10
-143.1597138504268
 20
126.1743616319428
 30
0.0
 11
-143.1597138504268
 21
128.1743616319428
 31
0.0
  0
ARC
  5
990
330
6B
100
AcDbEntity
  8
0
 62
     3
100
AcDbCircle
 10
-144.6597138504268
 20
128.1743616319428
 30
0.0
 40
1.5
100
AcDbArc
 50
0.0
 51
90.0
  0
LINE
  5
991
330
6B
100
AcDbEntity
  8
0
 62
     3
100
AcDbLine
 10
-143.1597138504268
 20
132.7743616319429
 30
0.0
 11
-143.1597138504268
 21
133.9743616319429
 31
0.0
  0
LINE
  5
992
330
6B
100
AcDbEntity
  8
0
 62
     3
100
AcDbLine
 10
-140.1597138504268
 20
126.1743616319428
 30
0.0
 11
-140.1597138504268
 21
128.1743616319428
 31
0.0
  0
ARC
  5
993
330
6B
100
AcDbEntity
  8
0
 62
     3
100
AcDbCircle
 10
-138.6597138504268
 20
128.1743616319428
 30
0.0
 40
1.5
100
AcDbArc
 50
90.0
 51
180.0
  0
LINE
  5
994
330
6B
100
AcDbEntity
  8
0
 62
     3
100
AcDbLine
 10
-140.1597138504268
 20
132.7743616319429
 30
0.0
 11
-140.1597138504268
 21
133.9743616319429
 31
0.0
  0
LINE
  5
995
330
6B
100
AcDbEntity
  8
0
 62
     3
100
AcDbLine
 10
-135.4597138504268
 20
132.2743616319429
 30
0.0
 11
-134.8597138504268
 21
132.0243616319429
 31
0.0
  0
LINE
  5
996
330
6B
100
AcDbEntity
  8
0
 62
     3
100
AcDbLine
 10
-134.8597138504268
 20
132.0243616319429
 30
0.0
 11
-134.8597138504268
 21
129.9243616319428
 31
0.0
  0
LINE
  5
997
330
6B
100
AcDbEntity
  8
0
 62
     3
100
AcDbLine
 10
-134.8597138504268
 20
129.9243616319428
 30
0.0
 11
-135.4597138504268
 21
129.6743616319429
 31
0.0
  0
LINE
  5
998
330
6B
100
AcDbEntity
  8
0
 62
     3
100
AcDbLine
 10
-147.8597138504268
 20
132.2743616319429
 30
0.0
 11
-148.4597138504268
 21
132.0243616319429
 31
0.0
  0
LINE
  5
999
330
6B
100
AcDbEntity
  8
0
 62
     3
100
AcDbLine
 10
-148.4597138504268
 20
132.0243616319429
 30
0.0
 11
-148.4597138504268
 21
129.9243616319428
 31
0.0
  0
LINE
  5
99A
330
6B
100
AcDbEntity
  8
0
 62
     3
100
AcDbLine
 10
-148.4597138504268
 20
129.9243616319428
 30
0.0
 11
-147.8597138504268
 21
129.6743616319429
 31
0.0
  0
CIRCLE
  5
99B
330
6B
100
AcDbEntity
  8
0
 62
     3
100
AcDbCircle
 10
-141.6597138504268
 20
133.0032779776052
 30
0.0
 40
0.55
  0
LINE
  5
99C
330
6B
100
AcDbEntity
  8
0
 62
     3
100
AcDbLine
 10
-140.1597138504268
 20
126.1743616319428
 30
0.0
 11
-140.5097138504268
 21
125.4743616319429
 31
0.0
  0
LINE
  5
99D
330
6B
100
AcDbEntity
  8
0
 62
     3
100
AcDbLine
 10
-140.5097138504268
 20
125.4743616319429
 30
0.0
 11
-142.8097138504268
 21
125.4743616319429
 31
0.0
  0
LINE
  5
99E
330
6B
100
AcDbEntity
  8
0
 62
     3
100
AcDbLine
 10
-142.8097138504268
 20
125.4743616319429
 30
0.0
 11
-143.1597138504268
 21
126.1743616319428
 31
0.0
  0
ARC
  5
99F
330
6B
100
AcDbEntity
  8
0
 62
     3
100
AcDbCircle
 10
-139.6597138504268
 20
132.7743616319429
 30
0.0
 40
0.5
100
AcDbArc
 50
180.0
 51
270.0
  0
ARC
  5
9A0
330
6B
100
AcDbEntity
  8
0
 62
     3
100
AcDbCircle
 10
-143.6597138504268
 20
132.7743616319429
 30
0.0
 40
0.5
100
AcDbArc
 50
270.0
 51
0.0
  0
ARC
  5
9A1
330
6B
100
AcDbEntity
  8
0
 62
     3
100
AcDbCircle
 10
-140.6597138504268
 20
133.9743616319429
 30
0.0
 40
0.5
100
AcDbArc
 50
0.0
 51
90.0
  0
ARC
  5
9A2
330
6B
100
AcDbEntity
  8
0
 62
     3
100
AcDbCircle
 10
-142.6597138504268
 20
133.9743616319429
 30
0.0
 40
0.5
100
AcDbArc
 50
90.0
 51
180.0
  0
ARC
  5
9A3
330
6B
100
AcDbEntity
  8
0
 62
     3
100
AcDbCircle
 10
-141.6597138504268
 20
119.0682680686015
 30
0.0
 40
2.0
100
AcDbArc
 50
105.8130857291989
 51
74.18691427080104
  0
ARC
  5
9A4
330
6B
100
AcDbEntity
  8
0
 62
     3
100
AcDbCircle
 10
-141.6597138504268
 20
119.0682680686015
 30
0.0
 40
2.5
100
AcDbArc
 50
102.5915904786226
 51
77.40840952137741
  0
LINE
  5
9A5
330
6B
100
AcDbEntity
  8
0
 62
     3
100
AcDbLine
 10
-143.0597138504268
 20
113.0743616319429
 30
0.0
 11
-142.8597138504268
 21
115.9743616319429
 31
0.0
  0
LINE
  5
9A6
330
6B
100
AcDbEntity
  8
0
 62
     3
100
AcDbLine
 10
-142.8597138504268
 20
115.9743616319429
 30
0.0
 11
-140.4597138504268
 21
115.9743616319429
 31
0.0
  0
LINE
  5
9A7
330
6B
100
AcDbEntity
  8
0
 62
     3
100
AcDbLine
 10
-142.9114379883579
 20
115.2243616319429
 30
0.0
 11
-142.0097138504268
 21
115.2243616319429
 31
0.0
  0
LINE
  5
9A8
330
6B
100
AcDbEntity
  8
0
 62
     3
100
AcDbLine
 10
-141.3097138504268
 20
115.2243616319429
 30
0.0
 11
-140.4079897124957
 21
115.2243616319429
 31
0.0
  0
LINE
  5
9A9
330
6B
100
AcDbEntity
  8
0
 62
     3
100
AcDbLine
 10
-142.9252310918061
 20
115.0243616319429
 30
0.0
 11
-142.0097138504268
 21
115.0243616319429
 31
0.0
  0
LINE
  5
9AA
330
6B
100
AcDbEntity
  8
0
 62
     3
100
AcDbLine
 10
-141.3097138504268
 20
115.0243616319429
 30
0.0
 11
-140.3941966090475
 21
115.0243616319429
 31
0.0
  0
LINE
  5
9AB
330
6B
100
AcDbEntity
  8
0
 62
     3
100
AcDbLine
 10
-142.9631621262889
 20
114.4743616319429
 30
0.0
 11
-142.0097138504268
 21
114.4743616319429
 31
0.0
  0
LINE
  5
9AC
330
6B
100
AcDbEntity
  8
0
 62
     3
100
AcDbLine
 10
-141.3097138504268
 20
114.4743616319429
 30
0.0
 11
-140.3562655745648
 21
114.4743616319429
 31
0.0
  0
LINE
  5
9AD
330
6B
100
AcDbEntity
  8
0
 62
     3
100
AcDbLine
 10
-142.9769552297371
 20
114.2743616319429
 30
0.0
 11
-142.0097138504268
 21
114.2743616319429
 31
0.0
  0
LINE
  5
9AE
330
6B
100
AcDbEntity
  8
0
 62
     3
100
AcDbLine
 10
-141.3097138504268
 20
114.2743616319429
 30
0.0
 11
-140.3424724711165
 21
114.2743616319429
 31
0.0
  0
LINE
  5
9AF
330
6B
100
AcDbEntity
  8
0
 62
     3
100
AcDbLine
 10
-143.0148862642199
 20
113.7243616319429
 30
0.0
 11
-142.0097138504268
 21
113.7243616319429
 31
0.0
  0
LINE
  5
9B0
330
6B
100
AcDbEntity
  8
0
 62
     3
100
AcDbLine
 10
-141.3097138504268
 20
113.7243616319429
 30
0.0
 11
-140.3045414366337
 21
113.7243616319429
 31
0.0
  0
LINE
  5
9B1
330
6B
100
AcDbEntity
  8
0
 62
     3
100
AcDbLine
 10
-143.0286793676682
 20
113.5243616319429
 30
0.0
 11
-142.0097138504268
 21
113.5243616319429
 31
0.0
  0
LINE
  5
9B2
330
6B
100
AcDbEntity
  8
0
 62
     3
100
AcDbLine
 10
-141.3097138504268
 20
113.5243616319429
 30
0.0
 11
-140.2907483331854
 21
113.5243616319429
 31
0.0
  0
LINE
  5
9B3
330
6B
100
AcDbEntity
  8
0
 62
     3
100
AcDbLine
 10
-140.4597138504268
 20
115.9743616319429
 30
0.0
 11
-140.2597138504268
 21
113.0743616319429
 31
0.0
  0
LINE
  5
9B4
330
6B
100
AcDbEntity
  8
0
 62
     3
100
AcDbLine
 10
-140.2597138504268
 20
113.0743616319429
 30
0.0
 11
-139.6097138504268
 21
112.8243616319429
 31
0.0
  0
LINE
  5
9B5
330
6B
100
AcDbEntity
  8
0
 62
     3
100
AcDbLine
 10
-143.0597138504268
 20
113.0743616319429
 30
0.0
 11
-143.7097138504268
 21
112.8243616319429
 31
0.0
  0
LINE
  5
9B6
330
6B
100
AcDbEntity
  8
0
 62
     3
100
AcDbLine
 10
-140.1597138504268
 20
112.5743616319429
 30
0.0
 11
-139.6097138504268
 21
112.8243616319429
 31
0.0
  0
LINE
  5
9B7
330
6B
100
AcDbEntity
  8
0
 62
     3
100
AcDbLine
 10
-143.1597138504268
 20
112.5743616319429
 30
0.0
 11
-143.7097138504268
 21
112.8243616319429
 31
0.0
  0
LINE
  5
9B8
330
6B
100
AcDbEntity
  8
0
 62
     3
100
AcDbLine
 10
-143.1597138504268
 20
111.0743616319429
 30
0.0
 11
-144.0597138504268
 21
109.3743616319429
 31
0.0
  0
LINE
  5
9B9
330
6B
100
AcDbEntity
  8
0
 62
     3
100
AcDbLine
 10
-140.1597138504268
 20
111.0743616319429
 30
0.0
 11
-139.2597138504268
 21
109.3743616319429
 31
0.0
  0
LINE
  5
9BA
330
6B
100
AcDbEntity
  8
0
 62
     3
100
AcDbLine
 10
-139.2597138504268
 20
106.4743616319429
 30
0.0
 11
-138.6597138504268
 21
105.9743616319429
 31
0.0
  0
LINE
  5
9BB
330
6B
100
AcDbEntity
  8
0
 62
     3
100
AcDbLine
 10
-144.0597138504268
 20
106.4743616319429
 30
0.0
 11
-144.6597138504268
 21
105.9743616319429
 31
0.0
  0
CIRCLE
  5
9BC
330
6B
100
AcDbEntity
  8
0
 62
     3
100
AcDbCircle
 10
-141.6597138504268
 20
93.01363260579325
 30
0.0
 40
3.25
  0
CIRCLE
  5
9BD
330
6B
100
AcDbEntity
  8
0
 62
     3
100
AcDbCircle
 10
-141.6597138504268
 20
93.01363260579325
 30
0.0
 40
2.75
  0
LINE
  5
9BE
330
6B
100
AcDbEntity
  8
0
 62
     3
100
AcDbLine
 10
-142.4197138504268
 20
93.87220093279422
 30
0.0
 11
-142.4197138504268
 21
93.08342919994908
 31
0.0
  0
LINE
  5
9BF
330
6B
100
AcDbEntity
  8
0
 62
     3
100
AcDbLine
 10
-142.1697138504268
 20
93.87220093279422
 30
0.0
 11
-142.1697138504268
 21
93.08342919994908
 31
0.0
  0
LINE
  5
9C0
330
6B
100
AcDbEntity
  8
0
 62
     3
100
AcDbLine
 10
-140.8997138504268
 20
93.08342919994908
 30
0.0
 11
-140.8997138504268
 21
93.87220093279422
 31
0.0
  0
LINE
  5
9C1
330
6B
100
AcDbEntity
  8
0
 62
     3
100
AcDbLine
 10
-141.1497138504268
 20
93.08342919994908
 30
0.0
 11
-141.1497138504268
 21
93.87220093279422
 31
0.0
  0
LINE
  5
9C2
330
6B
100
AcDbEntity
  8
0
 62
     3
100
AcDbLine
 10
-142.1697138504268
 20
93.87220093279422
 30
0.0
 11
-142.4197138504268
 21
93.87220093279422
 31
0.0
  0
LINE
  5
9C3
330
6B
100
AcDbEntity
  8
0
 62
     3
100
AcDbLine
 10
-141.1497138504268
 20
93.87220093279422
 30
0.0
 11
-140.8997138504268
 21
93.87220093279422
 31
0.0
  0
LINE
  5
9C4
330
6B
100
AcDbEntity
  8
0
 62
     3
100
AcDbLine
 10
-142.1697138504268
 20
93.08342919994908
 30
0.0
 11
-142.4197138504268
 21
93.08342919994908
 31
0.0
  0
LINE
  5
9C5
330
6B
100
AcDbEntity
  8
0
 62
     3
100
AcDbLine
 10
-141.1497138504268
 20
93.08342919994908
 30
0.0
 11
-140.8997138504268
 21
93.08342919994908
 31
0.0
  0
CIRCLE
  5
9C6
330
6B
100
AcDbEntity
  8
0
 62
     3
100
AcDbCircle
 10
-141.6597138504268
 20
91.77379665621293
 30
0.0
 40
0.4135646708219554
  0
CIRCLE
  5
9C7
330
6B
100
AcDbEntity
  8
0
 62
     3
100
AcDbCircle
 10
-133.6866458010185
 20
105.457217897516
 30
0.0
 40
2.0
  0
CIRCLE
  5
9C8
330
6B
100
AcDbEntity
  8
0
 62
     3
100
AcDbCircle
 10
-133.6866458010185
 20
105.457217897516
 30
0.0
 40
3.0
  0
LINE
  5
9C9
330
6B
100
AcDbEntity
  8
0
 62
     3
100
AcDbLine
 10
-136.0326298935272
 20
109.0664226073788
 30
0.0
 11
-140.5727238972946
 21
116.816945603518
 31
0.0
  0
LINE
  5
9CA
330
6B
100
AcDbEntity
  8
0
 62
     3
100
AcDbLine
 10
-135.6874862978249
 20
109.2686004952539
 30
0.0
 11
-140.2275803015923
 21
117.0191234913931
 31
0.0
  0
ARC
  5
9CB
330
6B
100
AcDbEntity
  8
0
 62
     3
100
AcDbCircle
 10
-133.6866458010185
 20
105.457217897516
 30
0.0
 40
4.0
100
AcDbArc
 50
290.2822201888458
 51
310.4395364044003
  0
LINE
  5
9CC
330
6B
100
AcDbEntity
  8
0
 62
     3
100
AcDbLine
 10
-131.46358211391
 20
103.4427730997964
 30
0.0
 11
-131.092064845255
 21
102.412854308194
 31
0.0
  0
LINE
  5
9CD
330
6B
100
AcDbEntity
  8
0
 62
     3
100
AcDbLine
 10
-133.0167282945706
 20
102.5329726043583
 30
0.0
 11
-132.3000674302133
 21
101.705231700631
 31
0.0
  0
LINE
  5
9CE
330
6B
100
AcDbEntity
  8
0
 62
     3
100
AcDbLine
 10
-134.7027068754804
 20
108.2799151701548
 30
0.0
 11
-135.5580574494365
 21
109.3444172032071
 31
0.0
  0
LINE
  5
9CF
330
6B
100
AcDbEntity
  8
0
 62
     3
100
AcDbLine
 10
-135.5580574494365
 20
109.3444172032071
 30
0.0
 11
-136.1620587419156
 21
108.9906058994257
 31
0.0
  0
LINE
  5
9D0
330
6B
100
AcDbEntity
  8
0
 62
     3
100
AcDbLine
 10
-136.1620587419156
 20
108.9906058994257
 30
0.0
 11
-135.6518517636619
 21
107.7239259784983
 31
0.0
  0
TEXT
  5
B66
330
6B
100
AcDbEntity
  8
0
 62
     3
100
AcDbText
 10
-38.21750000000012
 20
220.26411
 30
0.0
 40
3.2
  1
担　当
  7
高3.2
100
AcDbText
  0
TEXT
  5
B67
330
6B
100
AcDbEntity
  8
0
 62
     3
100
AcDbText
 10
-82.21750000000012
 20
220.26411
 30
0.0
 40
3.2
  1
変更・追記内容
  7
高3.2
100
AcDbText
  0
TEXT
  5
B68
330
6B
100
AcDbEntity
  8
0
 62
     3
100
AcDbText
 10
-107.1039849996608
 20
215.5935714900917
 30
0.0
 40
2.0
  1
1
  7
高2
100
AcDbText
  0
TEXT
  5
B69
330
6B
100
AcDbEntity
  8
0
 62
     3
100
AcDbText
 10
-107.4124964764181
 20
210.4237547778188
 30
0.0
 40
2.0
  1
2
  7
高2
100
AcDbText
  0
TEXT
  5
B6A
330
6B
100
AcDbEntity
  8
0
 62
     3
100
AcDbText
 10
-100.2175000000001
 20
220.26411
 30
0.0
 40
3.2
  1
日　付
  7
高3.2
100
AcDbText
  0
TEXT
  5
B6B
330
6B
100
AcDbEntity
  8
0
 62
     3
100
AcDbText
 10
-100.2175000000001
 20
225.26411
 30
0.0
 40
3.2
  1
図　　　　面　　　　略　　　　歴
  7
高3.2
100
AcDbText
  0
TEXT
  5
B6C
330
6B
100
AcDbEntity
  8
0
 62
     3
100
AcDbText
 10
-110.2175000000001
 20
220.26411
 30
0.0
 40
3.2
  1
記号
  7
高3.2
100
AcDbText
  0
LINE
  5
B6D
330
6B
100
AcDbEntity
  8
0
 62
     7
100
AcDbLine
 10
-106.7175000000001
 20
213.5550060000001
 30
0.0
 11
-108.6175000000001
 21
210.26411
 31
0.0
  0
LINE
  5
B6E
330
6B
100
AcDbEntity
  8
0
 62
     7
100
AcDbLine
 10
-106.7175000000001
 20
213.5550060000001
 30
0.0
 11
-104.8175000000001
 21
210.26411
 31
0.0
  0
LINE
  5
B6F
330
6B
100
AcDbEntity
  8
0
 62
     7
100
AcDbLine
 10
-108.6175000000001
 20
210.26411
 30
0.0
 11
-104.8175000000001
 21
210.26411
 31
0.0
  0
LINE
  5
B70
330
6B
100
AcDbEntity
  8
0
 62
     7
100
AcDbLine
 10
-106.7175000000001
 20
218.5550070000001
 30
0.0
 11
-108.6175000000001
 21
215.26411
 31
0.0
  0
LINE
  5
B71
330
6B
100
AcDbEntity
  8
0
 62
     7
100
AcDbLine
 10
-106.7175000000001
 20
218.5550070000001
 30
0.0
 11
-104.8175000000001
 21
215.26411
 31
0.0
  0
LINE
  5
B72
330
6B
100
AcDbEntity
  8
0
 62
     7
100
AcDbLine
 10
-108.6175000000001
 20
215.26411
 30
0.0
 11
-104.8175000000001
 21
215.26411
 31
0.0
  0
LINE
  5
B73
330
6B
100
AcDbEntity
  8
0
 62
     3
100
AcDbLine
 10
-111.7175000000001
 20
224.76411
 30
0.0
 11
-25.71750000000012
 21
224.76411
 31
0.0
  0
LINE
  5
B74
330
6B
100
AcDbEntity
  8
0
 62
     3
100
AcDbLine
 10
-111.7175000000001
 20
219.76411
 30
0.0
 11
-25.71750000000012
 21
219.76411
 31
0.0
  0
LINE
  5
B75
330
6B
100
AcDbEntity
  8
0
 62
     7
100
AcDbLine
 10
-111.7175000000001
 20
214.76411
 30
0.0
 11
-25.71750000000012
 21
214.76411
 31
0.0
  0
LINE
  5
B76
330
6B
100
AcDbEntity
  8
0
 62
     3
100
AcDbLine
 10
-111.7175000000001
 20
209.76411
 30
0.0
 11
-25.71750000000012
 21
209.76411
 31
0.0
  0
LINE
  5
B77
330
6B
100
AcDbEntity
  8
0
 62
     7
100
AcDbLine
 10
-39.71750000000023
 20
209.76411
 30
0.0
 11
-39.71750000000012
 21
224.76411
 31
0.0
  0
LINE
  5
B78
330
6B
100
AcDbEntity
  8
0
 62
     7
100
AcDbLine
 10
-83.71750000000011
 20
209.76411
 30
0.0
 11
-83.71750000000011
 21
224.76411
 31
0.0
  0
LINE
  5
B79
330
6B
100
AcDbEntity
  8
0
 62
     7
100
AcDbLine
 10
-101.7175000000001
 20
209.76411
 30
0.0
 11
-101.7175000000001
 21
224.76411
 31
0.0
  0
LINE
  5
B7A
330
6B
100
AcDbEntity
  8
0
 62
     3
100
AcDbLine
 10
-111.7175000000001
 20
209.76411
 30
0.0
 11
-111.7175000000001
 21
229.76411
 31
0.0
  0
LINE
  5
CF9
330
6B
100
AcDbEntity
  8
0
 62
     3
100
AcDbLine
 10
-307.6295747941113
 20
131.5193616319429
 30
0.0
 11
-299.599214854477
 21
131.5193616319429
 31
0.0
  0
LINE
  5
CFC
330
6B
100
AcDbEntity
  8
0
 62
     3
100
AcDbLine
 10
-307.6295747941113
 20
130.4293616319428
 30
0.0
 11
-299.599214854477
 21
130.4293616319428
 31
0.0
  0
ARC
  5
CFE
330
6B
100
AcDbEntity
  8
0
  6
Continuous
100
AcDbCircle
 10
-309.093596637612
 20
131.246861631943
 30
0.0
 40
0.395124999999923
100
AcDbArc
 50
316.3971810272903
 51
43.60281897270963
  0
ARC
  5
CFF
330
6B
100
AcDbEntity
  8
0
  6
Continuous
100
AcDbCircle
 10
-308.5213466376122
 20
131.246861631943
 30
0.0
 40
0.395124999999923
100
AcDbArc
 50
136.3971810272906
 51
223.6028189727093
  0
ARC
  5
D00
330
6B
100
AcDbEntity
  8
0
  6
Continuous
100
AcDbCircle
 10
-309.093596637612
 20
130.7018616319429
 30
0.0
 40
0.395124999999923
100
AcDbArc
 50
316.3971810272927
 51
43.60281897270733
  0
ARC
  5
D02
330
6B
100
AcDbEntity
  8
0
  6
Continuous
100
AcDbCircle
 10
-307.3434497941113
 20
130.7018616319429
 30
0.0
 40
0.3951250000000034
100
AcDbArc
 50
136.3971810273016
 51
223.6028189727111
  0
ARC
  5
D03
330
6B
100
AcDbEntity
  8
0
  6
Continuous
100
AcDbCircle
 10
-307.9156997941112
 20
130.7018616319428
 30
0.0
 40
0.3951250000000034
100
AcDbArc
 50
316.3971810273016
 51
43.60281897270935
  0
ARC
  5
D04
330
6B
100
AcDbEntity
  8
0
  6
Continuous
100
AcDbCircle
 10
-307.3434497941113
 20
131.246861631943
 30
0.0
 40
0.3951250000000034
100
AcDbArc
 50
136.3971810273016
 51
223.6028189727074
  0
ARC
  5
D05
330
6B
100
AcDbEntity
  8
0
  6
Continuous
100
AcDbCircle
 10
-267.8096769939394
 20
131.246861631943
 30
0.0
 40
0.395124999999923
100
AcDbArc
 50
316.3971810272903
 51
43.60281897270963
  0
ARC
  5
D06
330
6B
100
AcDbEntity
  8
0
  6
Continuous
100
AcDbCircle
 10
-267.2374269939396
 20
131.246861631943
 30
0.0
 40
0.395124999999923
100
AcDbArc
 50
136.3971810272906
 51
223.6028189727093
  0
ARC
  5
D07
330
6B
100
AcDbEntity
  8
0
  6
Continuous
100
AcDbCircle
 10
-267.8096769939395
 20
130.7018616319429
 30
0.0
 40
0.395124999999923
100
AcDbArc
 50
316.3971810272927
 51
43.60281897270733
  0
ARC
  5
D08
330
6B
100
AcDbEntity
  8
0
  6
Continuous
100
AcDbCircle
 10
-266.0595301504387
 20
130.7018616319429
 30
0.0
 40
0.3951250000000034
100
AcDbArc
 50
136.3971810273016
 51
223.6028189727111
  0
ARC
  5
D09
330
6B
100
AcDbEntity
  8
0
  6
Continuous
100
AcDbCircle
 10
-266.6317801504387
 20
130.7018616319428
 30
0.0
 40
0.3951250000000034
100
AcDbArc
 50
316.3971810273016
 51
43.60281897270935
  0
ARC
  5
D0A
330
6B
100
AcDbEntity
  8
0
  6
Continuous
100
AcDbCircle
 10
-266.0595301504388
 20
131.246861631943
 30
0.0
 40
0.3951250000000034
100
AcDbArc
 50
136.3971810273016
 51
223.6028189727074
  0
ARC
  5
D0B
330
6B
100
AcDbEntity
  8
0
  6
Continuous
100
AcDbCircle
 10
-217.7808122968255
 20
131.246861631943
 30
0.0
 40
0.395124999999923
100
AcDbArc
 50
316.3971810272903
 51
43.60281897270963
  0
ARC
  5
D0C
330
6B
100
AcDbEntity
  8
0
  6
Continuous
100
AcDbCircle
 10
-217.2085622968257
 20
131.246861631943
 30
0.0
 40
0.395124999999923
100
AcDbArc
 50
136.3971810272903
 51
223.6028189727096
  0
ARC
  5
D0D
330
6B
100
AcDbEntity
  8
0
  6
Continuous
100
AcDbCircle
 10
-217.7808122968256
 20
130.7018616319429
 30
0.0
 40
0.395124999999923
100
AcDbArc
 50
316.3971810272927
 51
43.60281897270733
  0
ARC
  5
D0E
330
6B
100
AcDbEntity
  8
0
  6
Continuous
100
AcDbCircle
 10
-216.0306654533248
 20
130.7018616319429
 30
0.0
 40
0.3951250000000034
100
AcDbArc
 50
136.3971810273018
 51
223.6028189727096
  0
ARC
  5
D0F
330
6B
100
AcDbEntity
  8
0
  6
Continuous
100
AcDbCircle
 10
-216.6029154533247
 20
130.7018616319428
 30
0.0
 40
0.3951250000000034
100
AcDbArc
 50
316.3971810273013
 51
43.60281897270963
  0
ARC
  5
D10
330
6B
100
AcDbEntity
  8
0
  6
Continuous
100
AcDbCircle
 10
-216.0306654533248
 20
131.246861631943
 30
0.0
 40
0.3951250000000034
100
AcDbArc
 50
136.3971810273018
 51
223.6028189727074
  0
ARC
  5
D11
330
6B
100
AcDbEntity
  8
0
  6
Continuous
100
AcDbCircle
 10
-167.7615536063423
 20
131.246861631943
 30
0.0
 40
0.395124999999923
100
AcDbArc
 50
316.3971810272889
 51
43.60281897271109
  0
ARC
  5
D12
330
6B
100
AcDbEntity
  8
0
  6
Continuous
100
AcDbCircle
 10
-167.1893036063425
 20
131.246861631943
 30
0.0
 40
0.395124999999923
100
AcDbArc
 50
136.3971810272906
 51
223.6028189727093
  0
ARC
  5
D13
330
6B
100
AcDbEntity
  8
0
  6
Continuous
100
AcDbCircle
 10
-167.7615536063423
 20
130.7018616319429
 30
0.0
 40
0.395124999999923
100
AcDbArc
 50
316.3971810272912
 51
43.60281897270879
  0
ARC
  5
D14
330
6B
100
AcDbEntity
  8
0
  6
Continuous
100
AcDbCircle
 10
-166.0114067628416
 20
130.7018616319429
 30
0.0
 40
0.3951250000000034
100
AcDbArc
 50
136.3971810273016
 51
223.6028189727111
  0
ARC
  5
D15
330
6B
100
AcDbEntity
  8
0
  6
Continuous
100
AcDbCircle
 10
-166.5836567628415
 20
130.7018616319428
 30
0.0
 40
0.3951250000000034
100
AcDbArc
 50
316.3971810273013
 51
43.60281897270935
  0
ARC
  5
D16
330
6B
100
AcDbEntity
  8
0
  6
Continuous
100
AcDbCircle
 10
-166.0114067628416
 20
131.246861631943
 30
0.0
 40
0.3951250000000034
100
AcDbArc
 50
136.3971810273016
 51
223.6028189727088
  0
ARC
  5
D17
330
6B
100
AcDbEntity
  8
0
  6
Continuous
100
AcDbCircle
 10
-132.629829017984
 20
131.246861631943
 30
0.0
 40
0.395124999999923
100
AcDbArc
 50
316.3971810272889
 51
43.60281897271109
  0
ARC
  5
D18
330
6B
100
AcDbEntity
  8
0
  6
Continuous
100
AcDbCircle
 10
-132.0575790179841
 20
131.246861631943
 30
0.0
 40
0.395124999999923
100
AcDbArc
 50
136.3971810272906
 51
223.6028189727093
  0
ARC
  5
D19
330
6B
100
AcDbEntity
  8
0
  6
Continuous
100
AcDbCircle
 10
-132.629829017984
 20
130.7018616319429
 30
0.0
 40
0.395124999999923
100
AcDbArc
 50
316.3971810272912
 51
43.60281897270879
  0
ARC
  5
D1A
330
6B
100
AcDbEntity
  8
0
  6
Continuous
100
AcDbCircle
 10
-130.8796821744832
 20
130.7018616319429
 30
0.0
 40
0.3951250000000034
100
AcDbArc
 50
136.3971810273016
 51
223.6028189727111
  0
ARC
  5
D1B
330
6B
100
AcDbEntity
  8
0
  6
Continuous
100
AcDbCircle
 10
-131.4519321744832
 20
130.7018616319428
 30
0.0
 40
0.3951250000000034
100
AcDbArc
 50
316.3971810273013
 51
43.60281897270935
  0
ARC
  5
D1C
330
6B
100
AcDbEntity
  8
0
  6
Continuous
100
AcDbCircle
 10
-130.8796821744833
 20
131.246861631943
 30
0.0
 40
0.3951250000000034
100
AcDbArc
 50
136.3971810273016
 51
223.6028189727088
  0
LINE
  5
D1D
330
6B
100
AcDbEntity
  8
0
 62
     3
100
AcDbLine
 10
-131.1658071744834
 20
131.5193616319428
 30
0.0
 11
-124.126911235321
 21
131.5193616319429
 31
0.0
  0
LINE
  5
D1E
330
6B
100
AcDbEntity
  8
0
 62
     3
100
AcDbLine
 10
-131.1658071744834
 20
131.5193616319429
 30
0.0
 11
-122.9573163638721
 21
131.5193616319429
 31
0.0
  0
LINE
  5
D1F
330
6B
100
AcDbEntity
  8
0
 62
     3
100
AcDbLine
 10
-131.1658071744833
 20
130.429361631943
 30
0.0
 11
-124.126911235321
 21
130.429361631943
 31
0.0
  0
LINE
  5
D20
330
6B
100
AcDbEntity
  8
0
 62
     3
100
AcDbLine
 10
-131.1658071744832
 20
130.4293616319428
 30
0.0
 11
-122.9573163638721
 21
130.4293616319428
 31
0.0
  0
LINE
  5
D21
330
6B
100
AcDbEntity
  8
0
 62
     3
100
AcDbLine
 10
-166.2975317628415
 20
130.4293616319428
 30
0.0
 11
-148.4597138504268
 21
130.4293616319428
 31
0.0
  0
LINE
  5
D22
330
6B
100
AcDbEntity
  8
0
 62
     3
100
AcDbLine
 10
-166.2975317628417
 20
131.5193616319429
 30
0.0
 11
-148.4597138504268
 21
131.5193616319429
 31
0.0
  0
LINE
  5
D23
330
6B
100
AcDbEntity
  8
0
 62
     3
100
AcDbLine
 10
-216.3167904533247
 20
130.4293616319428
 30
0.0
 11
-198.8726999973065
 21
130.4293616319428
 31
0.0
  0
LINE
  5
D24
330
6B
100
AcDbEntity
  8
0
 62
     3
100
AcDbLine
 10
-216.3167904533249
 20
131.5193616319429
 30
0.0
 11
-198.8726999973065
 21
131.5193616319429
 31
0.0
  0
LINE
  5
D25
330
6B
100
AcDbEntity
  8
0
 62
     3
100
AcDbLine
 10
-266.3456551504387
 20
130.4293616319428
 30
0.0
 11
-249.1870699841522
 21
130.4293616319428
 31
0.0
  0
LINE
  5
D26
330
6B
100
AcDbEntity
  8
0
 62
     3
100
AcDbLine
 10
-266.3456551504388
 20
131.5193616319429
 30
0.0
 11
-249.1870699841522
 21
131.5193616319429
 31
0.0
  0
CIRCLE
  5
D73
330
6B
100
AcDbEntity
  8
0
 62
     7
100
AcDbCircle
 10
-325.3688897500361
 20
102.0252595303985
 30
0.0
 40
5.0
  0
TEXT
  5
D74
330
6B
100
AcDbEntity
  8
0
 62
     4
100
AcDbText
 10
-327.9429493452438
 20
99.59692009623218
 30
0.0
 40
4.5
  1
01
  7
高4.5
100
AcDbText
  0
TEXT
  5
D75
330
6B
100
AcDbEntity
  8
0
 62
     4
100
AcDbText
 10
-358.2255270066383
 20
120.5715567129272
 30
0.0
 40
3.2
  1
2PE15A125V
  7
高3.2
100
AcDbText
  0
TEXT
  5
D76
330
6B
100
AcDbEntity
  8
0
 62
     4
100
AcDbText
 10
-103.5574953980621
 20
117.177998907585
 30
0.0
 40
3.2
  1
2PE15A125V
  7
高3.2
100
AcDbText
  0
CIRCLE
  5
D7F
330
6B
100
AcDbEntity
  8
0
 62
     7
100
AcDbCircle
 10
-309.2895201129626
 20
101.0033268595272
 30
0.0
 40
5.0
  0
TEXT
  5
D80
330
6B
100
AcDbEntity
  8
0
 62
     4
100
AcDbText
 10
-312.5598336574043
 20
98.7175546262892
 30
0.0
 40
4.5
  1
02
  7
高4.5
100
AcDbText
  0
CIRCLE
  5
D81
330
6B
100
AcDbEntity
  8
0
 62
     7
100
AcDbCircle
 10
-111.8426415585803
 20
110.9228512909541
 30
0.0
 40
5.0
  0
TEXT
  5
D82
330
6B
100
AcDbEntity
  8
0
 62
     4
100
AcDbText
 10
-115.112955103022
 20
108.6370790577161
 30
0.0
 40
4.5
  1
02
  7
高4.5
100
AcDbText
  0
CIRCLE
  5
D83
330
6B
100
AcDbEntity
  8
0
 62
     7
100
AcDbCircle
 10
-262.4193059187728
 20
99.64311134195424
 30
0.0
 40
5.0
  0
TEXT
  5
D84
330
6B
100
AcDbEntity
  8
0
 62
     4
100
AcDbText
 10
-265.6896194632145
 20
97.35733910871619
 30
0.0
 40
4.5
  1
03
  7
高4.5
100
AcDbText
  0
CIRCLE
  5
D85
330
6B
100
AcDbEntity
  8
0
 62
     7
100
AcDbCircle
 10
-212.1999457292905
 20
121.7021604300183
 30
0.0
 40
5.0
  0
TEXT
  5
D86
330
6B
100
AcDbEntity
  8
0
 62
     4
100
AcDbText
 10
-215.4702592737322
 20
119.4163881967802
 30
0.0
 40
4.5
  1
04
  7
高4.5
100
AcDbText
  0
CIRCLE
  5
D87
330
6B
100
AcDbEntity
  8
0
 62
     7
100
AcDbCircle
 10
-212.2654387005168
 20
104.8590032127152
 30
0.0
 40
5.0
  0
TEXT
  5
D88
330
6B
100
AcDbEntity
  8
0
 62
     4
100
AcDbText
 10
-215.5357522449585
 20
102.5732309794771
 30
0.0
 40
4.5
  1
05
  7
高4.5
100
AcDbText
  0
TEXT
  5
D8F
330
6B
100
AcDbEntity
  8
0
 62
     4
100
AcDbText
 10
-305.0723285410389
 20
83.86352227325057
 30
0.0
 40
3.2
  1
2PE15A125V
  7
高3.2
100
AcDbText
  0
TEXT
  5
D90
330
6B
100
AcDbEntity
  8
0
 62
     3
100
AcDbText
 10
-414.2174999999999
 20
-18.791251
 30
0.0
 40
3.2
  1
05
 41
0.8
  7
高3.2
100
AcDbText
  0
LINE
  5
DD8
330
6B
100
AcDbEntity
  8
0
 62
     7
100
AcDbLine
 10
-314.0718260544026
 20
-39.291251
 30
0.0
 11
-415.7174999999999
 21
-39.291251
 31
0.0
  0
LINE
  5
DD9
330
6B
100
AcDbEntity
  8
0
 62
     7
100
AcDbLine
 10
-314.0718260544026
 20
-34.291251
 30
0.0
 11
-415.7174999999999
 21
-34.291251
 31
0.0
  0
LINE
  5
DDA
330
6B
100
AcDbEntity
  8
0
 62
     7
100
AcDbLine
 10
-314.0718260544026
 20
-29.291251
 30
0.0
 11
-415.7174999999999
 21
-29.291251
 31
0.0
  0
LINE
  5
DDB
330
6B
100
AcDbEntity
  8
0
 62
     7
100
AcDbLine
 10
-314.0718260544026
 20
-24.291251
 30
0.0
 11
-415.7174999999999
 21
-24.291251
 31
0.0
  0
LINE
  5
DDC
330
6B
100
AcDbEntity
  8
0
 62
     7
100
AcDbLine
 10
-314.0718260544026
 20
-19.291251
 30
0.0
 11
-415.7174999999999
 21
-19.291251
 31
0.0
  0
LINE
  5
DDD
330
6B
100
AcDbEntity
  8
0
 62
     3
100
AcDbLine
 10
-314.0718260544026
 20
-14.291251
 30
0.0
 11
-415.7174999999999
 21
-14.291251
 31
0.0
  0
LINE
  5
E3D
330
6B
100
AcDbEntity
  8
0
  6
Continuous
100
AcDbLine
 10
-324.1621015188699
 20
141.8284997647653
 30
0.0
 11
-324.1621015188699
 21
161.8351256316512
 31
0.0
  0
LINE
  5
E3E
330
6B
100
AcDbEntity
  8
0
  6
Continuous
100
AcDbLine
 10
-112.957316363872
 20
142.0784997647653
 30
0.0
 11
-112.957316363872
 21
161.8351256316512
 31
0.0
  0
LINE
  5
E3F
330
6B
100
AcDbEntity
  8
0
  6
Continuous
100
AcDbLine
 10
-321.6621015188699
 20
160.5851256316512
 30
0.0
 11
-115.4573163638721
 21
160.5851256316512
 31
0.0
  0
LINE
  5
E43
330
6B
100
AcDbEntity
  8
0
  6
Continuous
100
AcDbLine
 10
-242.3870699841522
 20
134.7243616319429
 30
0.0
 11
-242.3870699841522
 21
149.4326378975877
 31
0.0
  0
LINE
  5
E44
330
6B
100
AcDbEntity
  8
0
  6
Continuous
100
AcDbLine
 10
-292.799214854477
 20
134.7243616319429
 30
0.0
 11
-292.799214854477
 21
149.4326378975877
 31
0.0
  0
LINE
  5
E45
330
6B
100
AcDbEntity
  8
0
  6
Continuous
100
AcDbLine
 10
-244.8870699841521
 20
148.1826378975877
 30
0.0
 11
-290.299214854477
 21
148.1826378975877
 31
0.0
  0
LINE
  5
E49
330
6B
100
AcDbEntity
  8
0
  6
Continuous
100
AcDbLine
 10
-192.0726999973065
 20
134.7243616319429
 30
0.0
 11
-192.0726999973065
 21
149.4326378975877
 31
0.0
  0
LINE
  5
E4A
330
6B
100
AcDbEntity
  8
0
  6
Continuous
100
AcDbLine
 10
-242.3870699841522
 20
134.7243616319429
 30
0.0
 11
-242.3870699841522
 21
149.4326378975877
 31
0.0
  0
LINE
  5
E4B
330
6B
100
AcDbEntity
  8
0
  6
Continuous
100
AcDbLine
 10
-194.5726999973065
 20
148.1826378975877
 30
0.0
 11
-239.8870699841522
 21
148.1826378975877
 31
0.0
  0
LINE
  5
E4F
330
6B
100
AcDbEntity
  8
0
  6
Continuous
100
AcDbLine
 10
-141.6597138504268
 20
134.7243616319429
 30
0.0
 11
-141.6597138504268
 21
149.4326378975877
 31
0.0
  0
LINE
  5
E50
330
6B
100
AcDbEntity
  8
0
  6
Continuous
100
AcDbLine
 10
-192.0726999973065
 20
134.7243616319429
 30
0.0
 11
-192.0726999973065
 21
149.4326378975877
 31
0.0
  0
LINE
  5
E51
330
6B
100
AcDbEntity
  8
0
  6
Continuous
100
AcDbLine
 10
-144.1597138504268
 20
148.1826378975877
 30
0.0
 11
-189.5726999973065
 21
148.1826378975877
 31
0.0
  0
LINE
  5
E55
330
6B
100
AcDbEntity
  8
0
  6
Continuous
100
AcDbLine
 10
-112.957316363872
 20
134.2243616319429
 30
0.0
 11
-112.957316363872
 21
149.4326378975877
 31
0.0
  0
LINE
  5
E56
330
6B
100
AcDbEntity
  8
0
  6
Continuous
100
AcDbLine
 10
-141.6597138504268
 20
134.7243616319429
 30
0.0
 11
-141.6597138504268
 21
149.4326378975877
 31
0.0
  0
LINE
  5
E57
330
6B
100
AcDbEntity
  8
0
  6
Continuous
100
AcDbLine
 10
-115.4573163638721
 20
148.1826378975877
 30
0.0
 11
-139.1597138504268
 21
148.1826378975877
 31
0.0
  0
LINE
  5
E5B
330
6B
100
AcDbEntity
  8
0
  6
Continuous
100
AcDbLine
 10
-292.799214854477
 20
134.7243616319429
 30
0.0
 11
-292.799214854477
 21
149.4326378975877
 31
0.0
  0
LINE
  5
E5C
330
6B
100
AcDbEntity
  8
0
  6
Continuous
100
AcDbLine
 10
-324.1621015188699
 20
133.7243616319429
 30
0.0
 11
-324.1621015188699
 21
149.4326378975877
 31
0.0
  0
LINE
  5
E5D
330
6B
100
AcDbEntity
  8
0
  6
Continuous
100
AcDbLine
 10
-295.299214854477
 20
148.1826378975877
 30
0.0
 11
-321.6621015188699
 21
148.1826378975877
 31
0.0
  0
LINE
  5
E61
330
6B
100
AcDbEntity
  8
0
  6
Continuous
100
AcDbLine
 10
-289.549214854477
 20
105.9743616319429
 30
0.0
 11
-276.3762193127068
 21
105.9743616319429
 31
0.0
  0
LINE
  5
E62
330
6B
100
AcDbEntity
  8
0
  6
Continuous
100
AcDbLine
 10
-285.749214854477
 20
130.9743616319429
 30
0.0
 11
-276.3762193127067
 21
130.9743616319429
 31
0.0
  0
LINE
  5
E63
330
6B
100
AcDbEntity
  8
0
  6
Continuous
100
AcDbLine
 10
-277.6262193127068
 20
108.4743616319429
 30
0.0
 11
-277.6262193127067
 21
128.4743616319429
 31
0.0
  0
LINE
  5
E67
330
6B
100
AcDbEntity
  8
0
 62
     2
100
AcDbLine
 10
-225.458874
 20
230.304739
 30
0.0
 11
-225.485485
 21
230.475121
 31
0.0
  0
LINE
  5
E68
330
6B
100
AcDbEntity
  8
0
 62
     2
100
AcDbLine
 10
-225.485485
 20
230.475121
 30
0.0
 11
-225.517444
 21
230.638271
 31
0.0
  0
LINE
  5
E69
330
6B
100
AcDbEntity
  8
0
 62
     2
100
AcDbLine
 10
-225.517444
 20
230.638271
 30
0.0
 11
-225.554504
 21
230.792927
 31
0.0
  0
LINE
  5
E6A
330
6B
100
AcDbEntity
  8
0
 62
     2
100
AcDbLine
 10
-225.554504
 20
230.792927
 30
0.0
 11
-225.596378
 21
230.937893
 31
0.0
  0
LINE
  5
E6B
330
6B
100
AcDbEntity
  8
0
 62
     2
100
AcDbLine
 10
-225.596378
 20
230.937893
 30
0.0
 11
-225.642744
 21
231.07205
 31
0.0
  0
LINE
  5
E6C
330
6B
100
AcDbEntity
  8
0
 62
     2
100
AcDbLine
 10
-225.642744
 20
231.07205
 30
0.0
 11
-225.693242
 21
231.19436
 31
0.0
  0
LINE
  5
E6D
330
6B
100
AcDbEntity
  8
0
 62
     2
100
AcDbLine
 10
-225.693242
 20
231.19436
 30
0.0
 11
-225.747482
 21
231.303878
 31
0.0
  0
LINE
  5
E6E
330
6B
100
AcDbEntity
  8
0
 62
     2
100
AcDbLine
 10
-225.747482
 20
231.303878
 30
0.0
 11
-225.805045
 21
231.399757
 31
0.0
  0
LINE
  5
E6F
330
6B
100
AcDbEntity
  8
0
 62
     2
100
AcDbLine
 10
-225.805045
 20
231.399757
 30
0.0
 11
-225.865486
 21
231.481256
 31
0.0
  0
LINE
  5
E70
330
6B
100
AcDbEntity
  8
0
 62
     2
100
AcDbLine
 10
-225.865486
 20
231.481256
 30
0.0
 11
-225.928339
 21
231.547746
 31
0.0
  0
LINE
  5
E71
330
6B
100
AcDbEntity
  8
0
 62
     2
100
AcDbLine
 10
-225.928339
 20
231.547746
 30
0.0
 11
-225.993116
 21
231.598711
 31
0.0
  0
LINE
  5
E72
330
6B
100
AcDbEntity
  8
0
 62
     2
100
AcDbLine
 10
-225.993116
 20
231.598711
 30
0.0
 11
-226.059317
 21
231.63376
 31
0.0
  0
LINE
  5
E73
330
6B
100
AcDbEntity
  8
0
 62
     2
100
AcDbLine
 10
-226.059317
 20
231.63376
 30
0.0
 11
-226.126431
 21
231.65262
 31
0.0
  0
LINE
  5
E74
330
6B
100
AcDbEntity
  8
0
 62
     2
100
AcDbLine
 10
-226.126431
 20
231.65262
 30
0.0
 11
-226.19394
 21
231.655145
 31
0.0
  0
LINE
  5
E75
330
6B
100
AcDbEntity
  8
0
 62
     2
100
AcDbLine
 10
-226.19394
 20
231.655145
 30
0.0
 11
-226.26132
 21
231.641317
 31
0.0
  0
LINE
  5
E76
330
6B
100
AcDbEntity
  8
0
 62
     2
100
AcDbLine
 10
-226.26132
 20
231.641317
 30
0.0
 11
-226.328051
 21
231.611242
 31
0.0
  0
LINE
  5
E77
330
6B
100
AcDbEntity
  8
0
 62
     2
100
AcDbLine
 10
-226.328051
 20
231.611242
 30
0.0
 11
-226.393618
 21
231.565152
 31
0.0
  0
LINE
  5
E78
330
6B
100
AcDbEntity
  8
0
 62
     2
100
AcDbLine
 10
-226.393618
 20
231.565152
 30
0.0
 11
-226.457514
 21
231.503404
 31
0.0
  0
LINE
  5
E79
330
6B
100
AcDbEntity
  8
0
 62
     2
100
AcDbLine
 10
-226.457514
 20
231.503404
 30
0.0
 11
-226.519244
 21
231.426475
 31
0.0
  0
LINE
  5
E7A
330
6B
100
AcDbEntity
  8
0
 62
     2
100
AcDbLine
 10
-226.519244
 20
231.426475
 30
0.0
 11
-226.578332
 21
231.33496
 31
0.0
  0
LINE
  5
E7B
330
6B
100
AcDbEntity
  8
0
 62
     2
100
AcDbLine
 10
-226.578332
 20
231.33496
 30
0.0
 11
-226.634321
 21
231.229566
 31
0.0
  0
LINE
  5
E7C
330
6B
100
AcDbEntity
  8
0
 62
     2
100
AcDbLine
 10
-226.634321
 20
231.229566
 30
0.0
 11
-226.686779
 21
231.111108
 31
0.0
  0
LINE
  5
E7D
330
6B
100
AcDbEntity
  8
0
 62
     2
100
AcDbLine
 10
-226.686779
 20
231.111108
 30
0.0
 11
-226.735298
 21
230.980501
 31
0.0
  0
LINE
  5
E7E
330
6B
100
AcDbEntity
  8
0
 62
     2
100
AcDbLine
 10
-226.735298
 20
230.980501
 30
0.0
 11
-226.779506
 21
230.838755
 31
0.0
  0
LINE
  5
E7F
330
6B
100
AcDbEntity
  8
0
 62
     2
100
AcDbLine
 10
-226.779506
 20
230.838755
 30
0.0
 11
-226.81906
 21
230.686965
 31
0.0
  0
LINE
  5
E80
330
6B
100
AcDbEntity
  8
0
 62
     2
100
AcDbLine
 10
-226.81906
 20
230.686965
 30
0.0
 11
-226.853653
 21
230.526305
 31
0.0
  0
LINE
  5
E81
330
6B
100
AcDbEntity
  8
0
 62
     2
100
AcDbLine
 10
-226.853653
 20
230.526305
 30
0.0
 11
-226.88302
 21
230.358017
 31
0.0
  0
LINE
  5
E82
330
6B
100
AcDbEntity
  8
0
 62
     2
100
AcDbLine
 10
-226.88302
 20
230.358017
 30
0.0
 11
-226.906932
 21
230.1834
 31
0.0
  0
LINE
  5
E83
330
6B
100
AcDbEntity
  8
0
 62
     2
100
AcDbLine
 10
-226.906932
 20
230.1834
 30
0.0
 11
-226.925206
 21
230.003806
 31
0.0
  0
LINE
  5
E84
330
6B
100
AcDbEntity
  8
0
 62
     2
100
AcDbLine
 10
-226.925206
 20
230.003806
 30
0.0
 11
-226.937699
 21
229.820623
 31
0.0
  0
LINE
  5
E85
330
6B
100
AcDbEntity
  8
0
 62
     2
100
AcDbLine
 10
-226.937699
 20
229.820623
 30
0.0
 11
-226.944316
 21
229.635265
 31
0.0
  0
LINE
  5
E86
330
6B
100
AcDbEntity
  8
0
 62
     2
100
AcDbLine
 10
-226.944316
 20
229.635265
 30
0.0
 11
-226.945004
 21
229.449166
 31
0.0
  0
LINE
  5
E87
330
6B
100
AcDbEntity
  8
0
 62
     2
100
AcDbLine
 10
-226.945004
 20
229.449166
 30
0.0
 11
-226.93976
 21
229.263764
 31
0.0
  0
LINE
  5
E88
330
6B
100
AcDbEntity
  8
0
 62
     2
100
AcDbLine
 10
-226.93976
 20
229.263764
 30
0.0
 11
-226.928622
 21
229.080493
 31
0.0
  0
LINE
  5
E89
330
6B
100
AcDbEntity
  8
0
 62
     2
100
AcDbLine
 10
-226.928622
 20
229.080493
 30
0.0
 11
-226.911678
 21
228.900769
 31
0.0
  0
LINE
  5
E8A
330
6B
100
AcDbEntity
  8
0
 62
     2
100
AcDbLine
 10
-226.911678
 20
228.900769
 30
0.0
 11
-226.889059
 21
228.725981
 31
0.0
  0
LINE
  5
E8B
330
6B
100
AcDbEntity
  8
0
 62
     2
100
AcDbLine
 10
-226.889059
 20
228.725981
 30
0.0
 11
-226.860938
 21
228.557479
 31
0.0
  0
LINE
  5
E8C
330
6B
100
AcDbEntity
  8
0
 62
     2
100
AcDbLine
 10
-226.860938
 20
228.557479
 30
0.0
 11
-226.827534
 21
228.396568
 31
0.0
  0
LINE
  5
E8D
330
6B
100
AcDbEntity
  8
0
 62
     2
100
AcDbLine
 10
-226.827534
 20
228.396568
 30
0.0
 11
-226.789105
 21
228.24449
 31
0.0
  0
LINE
  5
E8E
330
6B
100
AcDbEntity
  8
0
 62
     2
100
AcDbLine
 10
-226.789105
 20
228.24449
 30
0.0
 11
-226.745948
 21
228.10242
 31
0.0
  0
LINE
  5
E8F
330
6B
100
AcDbEntity
  8
0
 62
     2
100
AcDbLine
 10
-226.745948
 20
228.10242
 30
0.0
 11
-226.698396
 21
227.971458
 31
0.0
  0
LINE
  5
E90
330
6B
100
AcDbEntity
  8
0
 62
     2
100
AcDbLine
 10
-226.698396
 20
227.971458
 30
0.0
 11
-226.646816
 21
227.852615
 31
0.0
  0
LINE
  5
E91
330
6B
100
AcDbEntity
  8
0
 62
     2
100
AcDbLine
 10
-226.646816
 20
227.852615
 30
0.0
 11
-226.591609
 21
227.746809
 31
0.0
  0
LINE
  5
E92
330
6B
100
AcDbEntity
  8
0
 62
     2
100
AcDbLine
 10
-226.591609
 20
227.746809
 30
0.0
 11
-226.5332
 21
227.654859
 31
0.0
  0
LINE
  5
E93
330
6B
100
AcDbEntity
  8
0
 62
     2
100
AcDbLine
 10
-226.5332
 20
227.654859
 30
0.0
 11
-226.47204
 21
227.577476
 31
0.0
  0
LINE
  5
E94
330
6B
100
AcDbEntity
  8
0
 62
     2
100
AcDbLine
 10
-226.47204
 20
227.577476
 30
0.0
 11
-226.408603
 21
227.515257
 31
0.0
  0
LINE
  5
E95
330
6B
100
AcDbEntity
  8
0
 62
     2
100
AcDbLine
 10
-226.408603
 20
227.515257
 30
0.0
 11
-226.343379
 21
227.468683
 31
0.0
  0
LINE
  5
E96
330
6B
100
AcDbEntity
  8
0
 62
     2
100
AcDbLine
 10
-226.343379
 20
227.468683
 30
0.0
 11
-226.276872
 21
227.438115
 31
0.0
  0
LINE
  5
E97
330
6B
100
AcDbEntity
  8
0
 62
     2
100
AcDbLine
 10
-226.276872
 20
227.438115
 30
0.0
 11
-226.209596
 21
227.423788
 31
0.0
  0
LINE
  5
E98
330
6B
100
AcDbEntity
  8
0
 62
     2
100
AcDbLine
 10
-226.209596
 20
227.423788
 30
0.0
 11
-226.142071
 21
227.425814
 31
0.0
  0
LINE
  5
E99
330
6B
100
AcDbEntity
  8
0
 62
     2
100
AcDbLine
 10
-226.142071
 20
227.425814
 30
0.0
 11
-226.074819
 21
227.444177
 31
0.0
  0
LINE
  5
E9A
330
6B
100
AcDbEntity
  8
0
 62
     2
100
AcDbLine
 10
-226.074819
 20
227.444177
 30
0.0
 11
-226.00836
 21
227.478734
 31
0.0
  0
LINE
  5
E9B
330
6B
100
AcDbEntity
  8
0
 62
     2
100
AcDbLine
 10
-226.00836
 20
227.478734
 30
0.0
 11
-225.943208
 21
227.529219
 31
0.0
  0
LINE
  5
E9C
330
6B
100
AcDbEntity
  8
0
 62
     2
100
AcDbLine
 10
-225.943208
 20
227.529219
 30
0.0
 11
-225.879865
 21
227.595242
 31
0.0
  0
LINE
  5
E9D
330
6B
100
AcDbEntity
  8
0
 62
     2
100
AcDbLine
 10
-225.879865
 20
227.595242
 30
0.0
 11
-225.818822
 21
227.676292
 31
0.0
  0
LINE
  5
E9E
330
6B
100
AcDbEntity
  8
0
 62
     2
100
AcDbLine
 10
-225.818822
 20
227.676292
 30
0.0
 11
-225.760551
 21
227.771742
 31
0.0
  0
LINE
  5
E9F
330
6B
100
AcDbEntity
  8
0
 62
     2
100
AcDbLine
 10
-225.760551
 20
227.771742
 30
0.0
 11
-225.705502
 21
227.880855
 31
0.0
  0
LINE
  5
EA0
330
6B
100
AcDbEntity
  8
0
 62
     2
100
AcDbLine
 10
-225.705502
 20
227.880855
 30
0.0
 11
-225.6541
 21
228.002788
 31
0.0
  0
LINE
  5
EA1
330
6B
100
AcDbEntity
  8
0
 62
     2
100
AcDbLine
 10
-225.6541
 20
228.002788
 30
0.0
 11
-225.606743
 21
228.136598
 31
0.0
  0
LINE
  5
EA2
330
6B
100
AcDbEntity
  8
0
 62
     2
100
AcDbLine
 10
-225.606743
 20
228.136598
 30
0.0
 11
-225.563797
 21
228.281251
 31
0.0
  0
LINE
  5
EA3
330
6B
100
AcDbEntity
  8
0
 62
     2
100
AcDbLine
 10
-225.563797
 20
228.281251
 30
0.0
 11
-225.525594
 21
228.435628
 31
0.0
  0
LINE
  5
EA4
330
6B
100
AcDbEntity
  8
0
 62
     2
100
AcDbLine
 10
-225.525594
 20
228.435628
 30
0.0
 11
-225.492429
 21
228.598537
 31
0.0
  0
LINE
  5
EA5
330
6B
100
AcDbEntity
  8
0
 62
     2
100
AcDbLine
 10
-225.492429
 20
228.598537
 30
0.0
 11
-225.464558
 21
228.768718
 31
0.0
  0
LINE
  5
EA6
330
6B
100
AcDbEntity
  8
0
  6
Continuous
100
AcDbLine
 10
-229.7795423625115
 20
107.2099763891656
 30
0.0
 11
-217.220992112005
 21
105.5242027210495
 31
0.0
1001
ACAD
1000
DSTYLE
1002
{
1070
   147
1040
0.625
1070
    77
1070
     0
1002
}
  0
LINE
  5
EA7
330
6B
100
AcDbEntity
  8
0
  6
ByBlock
 62
     0
370
    -2
100
AcDbLine
 10
-229.8686621340408
 20
106.5460585986382
 30
0.0
 11
-232.2573190682556
 21
107.5425761433328
 31
0.0
  0
LINE
  5
EA8
330
6B
100
AcDbEntity
  8
0
  6
ByBlock
 62
     0
370
    -2
100
AcDbLine
 10
-232.2573190682556
 20
107.5425761433328
 30
0.0
 11
-229.6904225909822
 21
107.873894179693
 31
0.0
  0
LINE
  5
EA9
330
6B
100
AcDbEntity
  8
0
  6
ByBlock
 62
     0
370
    -2
100
AcDbLine
 10
-232.2573190682556
 20
107.5425761433328
 30
0.0
 11
-229.7795423625115
 21
107.2099763891656
 31
0.0
  0
LINE
  5
EAA
330
6B
100
AcDbEntity
  8
0
  6
Continuous
100
AcDbLine
 10
-239.3507642742779
 20
123.9724437238126
 30
0.0
 11
-217.1825571490389
 21
122.1187938897786
 31
0.0
1001
ACAD
1000
DSTYLE
1002
{
1070
   147
1040
0.625
1070
    77
1070
     0
1002
}
  0
LINE
  5
EAB
330
6B
100
AcDbEntity
  8
0
  6
ByBlock
 62
     0
370
    -2
100
AcDbLine
 10
-239.4065825337326
 20
123.3049008501575
 30
0.0
 11
-241.8420699841522
 21
124.1807604536928
 31
0.0
  0
LINE
  5
EAC
330
6B
100
AcDbEntity
  8
0
  6
ByBlock
 62
     0
370
    -2
100
AcDbLine
 10
-241.8420699841522
 20
124.1807604536928
 30
0.0
 11
-239.2949460148233
 21
124.6399865974677
 31
0.0
  0
LINE
  5
EAD
330
6B
100
AcDbEntity
  8
0
  6
ByBlock
 62
     0
370
    -2
100
AcDbLine
 10
-241.8420699841522
 20
124.1807604536928
 30
0.0
 11
-239.3507642742779
 21
123.9724437238126
 31
0.0
  0
LINE
  5
EAE
330
6B
100
AcDbEntity
  8
0
  6
Continuous
100
AcDbLine
 10
-258.1399623494912
 20
127.9574346098115
 30
0.0
 11
-261.6721063543813
 21
104.586965386217
 31
0.0
1001
ACAD
1000
DSTYLE
1002
{
1070
   147
1040
0.625
1070
    77
1070
     0
1002
}
  0
LINE
  5
EAF
330
6B
100
AcDbEntity
  8
0
  6
ByBlock
 62
     0
370
    -2
100
AcDbLine
 10
-258.8023127231443
 20
128.057540297851
 30
0.0
 11
-257.7663625672955
 21
130.4293616319428
 31
0.0
  0
LINE
  5
EB0
330
6B
100
AcDbEntity
  8
0
  6
ByBlock
 62
     0
370
    -2
100
AcDbLine
 10
-257.7663625672955
 20
130.4293616319428
 30
0.0
 11
-257.4776119758381
 21
127.8573289217719
 31
0.0
  0
LINE
  5
EB1
330
6B
100
AcDbEntity
  8
0
  6
ByBlock
 62
     0
370
    -2
100
AcDbLine
 10
-257.7663625672955
 20
130.4293616319428
 30
0.0
 11
-258.1399623494912
 21
127.9574346098115
 31
0.0
  0
LINE
  5
EB2
330
6B
100
AcDbEntity
  8
0
  6
Continuous
100
AcDbLine
 10
-297.4431333582691
 20
106.8221684781176
 30
0.0
 11
-304.8016831053784
 21
103.2077131671779
 31
0.0
1001
ACAD
1000
DSTYLE
1002
{
1070
   147
1040
0.625
1070
    77
1070
     0
1002
}
  0
LINE
  5
EB3
330
6B
100
AcDbEntity
  8
0
  6
ByBlock
 62
     0
370
    -2
100
AcDbLine
 10
-297.7384649116435
 20
107.4234241972902
 30
0.0
 11
-295.199214854477
 21
107.9243616319429
 31
0.0
  0
LINE
  5
EB4
330
6B
100
AcDbEntity
  8
0
  6
ByBlock
 62
     0
370
    -2
100
AcDbLine
 10
-295.199214854477
 20
107.9243616319429
 30
0.0
 11
-297.1478018048948
 21
106.220912758945
 31
0.0
  0
LINE
  5
EB5
330
6B
100
AcDbEntity
  8
0
  6
ByBlock
 62
     0
370
    -2
100
AcDbLine
 10
-295.199214854477
 20
107.9243616319429
 30
0.0
 11
-297.4431333582691
 21
106.8221684781176
 31
0.0
  0
LINE
  5
EB6
330
6B
100
AcDbEntity
  8
0
  6
Continuous
100
AcDbLine
 10
-323.4215156202175
 20
125.9645443204864
 30
0.0
 11
-324.9634969336473
 21
107.008798098968
 31
0.0
1001
ACAD
1000
DSTYLE
1002
{
1070
   147
1040
0.625
1070
    77
1070
     0
1002
}
  0
LINE
  5
EB7
330
6B
100
AcDbEntity
  8
0
  6
ByBlock
 62
     0
370
    -2
100
AcDbLine
 10
-324.0891827081723
 20
126.0188566203657
 30
0.0
 11
-323.2188192120232
 21
128.4563136047712
 31
0.0
  0
LINE
  5
EB8
330
6B
100
AcDbEntity
  8
0
  6
ByBlock
 62
     0
370
    -2
100
AcDbLine
 10
-323.2188192120232
 20
128.4563136047712
 30
0.0
 11
-322.7538485322627
 21
125.9102320206072
 31
0.0
  0
LINE
  5
EB9
330
6B
100
AcDbEntity
  8
0
  6
ByBlock
 62
     0
370
    -2
100
AcDbLine
 10
-323.2188192120232
 20
128.4563136047712
 30
0.0
 11
-323.4215156202175
 21
125.9645443204864
 31
0.0
  0
TEXT
  5
EBA
330
6B
100
AcDbEntity
  8
0
  6
Continuous
 62
     4
100
AcDbText
 10
-226.1704449247655
 20
161.2101256316512
 30
0.0
 40
3.0
  1
20000
100
AcDbText
  0
LINE
  5
EBB
330
6B
100
AcDbEntity
  8
0
  6
ByBlock
 62
     0
370
    -2
100
AcDbLine
 10
-115.4573163638721
 20
161.2549981316512
 30
0.0
 11
-112.957316363872
 21
160.5851256316512
 31
0.0
  0
LINE
  5
EBC
330
6B
100
AcDbEntity
  8
0
  6
ByBlock
 62
     0
370
    -2
100
AcDbLine
 10
-112.957316363872
 20
160.5851256316512
 30
0.0
 11
-115.4573163638721
 21
159.9152531316512
 31
0.0
  0
LINE
  5
EBD
330
6B
100
AcDbEntity
  8
0
  6
ByBlock
 62
     0
370
    -2
100
AcDbLine
 10
-112.957316363872
 20
160.5851256316512
 30
0.0
 11
-115.4573163638721
 21
160.5851256316512
 31
0.0
  0
LINE
  5
EBE
330
6B
100
AcDbEntity
  8
0
  6
ByBlock
 62
     0
370
    -2
100
AcDbLine
 10
-321.6621015188699
 20
159.9152531316512
 30
0.0
 11
-324.1621015188699
 21
160.5851256316512
 31
0.0
  0
LINE
  5
EBF
330
6B
100
AcDbEntity
  8
0
  6
ByBlock
 62
     0
370
    -2
100
AcDbLine
 10
-324.1621015188699
 20
160.5851256316512
 30
0.0
 11
-321.6621015188699
 21
161.2549981316512
 31
0.0
  0
LINE
  5
EC0
330
6B
100
AcDbEntity
  8
0
  6
ByBlock
 62
     0
370
    -2
100
AcDbLine
 10
-324.1621015188699
 20
160.5851256316512
 30
0.0
 11
-321.6621015188699
 21
160.5851256316512
 31
0.0
  0
TEXT
  5
EC1
330
6B
100
AcDbEntity
  8
0
  6
Continuous
 62
     4
100
AcDbText
 10
-272.6517141582499
 20
148.8076378975877
 30
0.0
 40
3.0
  1
5000
100
AcDbText
  0
LINE
  5
EC2
330
6B
100
AcDbEntity
  8
0
  6
ByBlock
 62
     0
370
    -2
100
AcDbLine
 10
-290.299214854477
 20
147.5127653975877
 30
0.0
 11
-292.799214854477
 21
148.1826378975877
 31
0.0
  0
LINE
  5
EC3
330
6B
100
AcDbEntity
  8
0
  6
ByBlock
 62
     0
370
    -2
100
AcDbLine
 10
-292.799214854477
 20
148.1826378975877
 30
0.0
 11
-290.299214854477
 21
148.8525103975877
 31
0.0
  0
LINE
  5
EC4
330
6B
100
AcDbEntity
  8
0
  6
ByBlock
 62
     0
370
    -2
100
AcDbLine
 10
-292.799214854477
 20
148.1826378975877
 30
0.0
 11
-290.299214854477
 21
148.1826378975877
 31
0.0
  0
LINE
  5
EC5
330
6B
100
AcDbEntity
  8
0
  6
ByBlock
 62
     0
370
    -2
100
AcDbLine
 10
-244.8870699841521
 20
148.8525103975877
 30
0.0
 11
-242.3870699841522
 21
148.1826378975877
 31
0.0
  0
LINE
  5
EC6
330
6B
100
AcDbEntity
  8
0
  6
ByBlock
 62
     0
370
    -2
100
AcDbLine
 10
-242.3870699841522
 20
148.1826378975877
 30
0.0
 11
-244.8870699841521
 21
147.5127653975877
 31
0.0
  0
LINE
  5
EC7
330
6B
100
AcDbEntity
  8
0
  6
ByBlock
 62
     0
370
    -2
100
AcDbLine
 10
-242.3870699841522
 20
148.1826378975877
 30
0.0
 11
-244.8870699841521
 21
148.1826378975877
 31
0.0
  0
TEXT
  5
EC8
330
6B
100
AcDbEntity
  8
0
  6
Continuous
 62
     4
100
AcDbText
 10
-221.9798849907294
 20
148.8076378975877
 30
0.0
 40
3.0
  1
5000
100
AcDbText
  0
LINE
  5
EC9
330
6B
100
AcDbEntity
  8
0
  6
ByBlock
 62
     0
370
    -2
100
AcDbLine
 10
-239.8870699841522
 20
147.5127653975877
 30
0.0
 11
-242.3870699841522
 21
148.1826378975877
 31
0.0
  0
LINE
  5
ECA
330
6B
100
AcDbEntity
  8
0
  6
ByBlock
 62
     0
370
    -2
100
AcDbLine
 10
-242.3870699841522
 20
148.1826378975877
 30
0.0
 11
-239.8870699841522
 21
148.8525103975877
 31
0.0
  0
LINE
  5
ECB
330
6B
100
AcDbEntity
  8
0
  6
ByBlock
 62
     0
370
    -2
100
AcDbLine
 10
-242.3870699841522
 20
148.1826378975877
 30
0.0
 11
-239.8870699841522
 21
148.1826378975877
 31
0.0
  0
LINE
  5
ECC
330
6B
100
AcDbEntity
  8
0
  6
ByBlock
 62
     0
370
    -2
100
AcDbLine
 10
-194.5726999973065
 20
148.8525103975877
 30
0.0
 11
-192.0726999973065
 21
148.1826378975877
 31
0.0
  0
LINE
  5
ECD
330
6B
100
AcDbEntity
  8
0
  6
ByBlock
 62
     0
370
    -2
100
AcDbLine
 10
-192.0726999973065
 20
148.1826378975877
 30
0.0
 11
-194.5726999973065
 21
147.5127653975877
 31
0.0
  0
LINE
  5
ECE
330
6B
100
AcDbEntity
  8
0
  6
ByBlock
 62
     0
370
    -2
100
AcDbLine
 10
-192.0726999973065
 20
148.1826378975877
 30
0.0
 11
-194.5726999973065
 21
148.1826378975877
 31
0.0
  0
TEXT
  5
ECF
330
6B
100
AcDbEntity
  8
0
  6
Continuous
 62
     4
100
AcDbText
 10
-171.6162069238667
 20
148.8076378975877
 30
0.0
 40
3.0
  1
5000
100
AcDbText
  0
LINE
  5
ED0
330
6B
100
AcDbEntity
  8
0
  6
ByBlock
 62
     0
370
    -2
100
AcDbLine
 10
-189.5726999973065
 20
147.5127653975877
 30
0.0
 11
-192.0726999973065
 21
148.1826378975877
 31
0.0
  0
LINE
  5
ED1
330
6B
100
AcDbEntity
  8
0
  6
ByBlock
 62
     0
370
    -2
100
AcDbLine
 10
-192.0726999973065
 20
148.1826378975877
 30
0.0
 11
-189.5726999973065
 21
148.8525103975877
 31
0.0
  0
LINE
  5
ED2
330
6B
100
AcDbEntity
  8
0
  6
ByBlock
 62
     0
370
    -2
100
AcDbLine
 10
-192.0726999973065
 20
148.1826378975877
 30
0.0
 11
-189.5726999973065
 21
148.1826378975877
 31
0.0
  0
LINE
  5
ED3
330
6B
100
AcDbEntity
  8
0
  6
ByBlock
 62
     0
370
    -2
100
AcDbLine
 10
-144.1597138504268
 20
148.8525103975877
 30
0.0
 11
-141.6597138504268
 21
148.1826378975877
 31
0.0
  0
LINE
  5
ED4
330
6B
100
AcDbEntity
  8
0
  6
ByBlock
 62
     0
370
    -2
100
AcDbLine
 10
-141.6597138504268
 20
148.1826378975877
 30
0.0
 11
-144.1597138504268
 21
147.5127653975877
 31
0.0
  0
LINE
  5
ED5
330
6B
100
AcDbEntity
  8
0
  6
ByBlock
 62
     0
370
    -2
100
AcDbLine
 10
-141.6597138504268
 20
148.1826378975877
 30
0.0
 11
-144.1597138504268
 21
148.1826378975877
 31
0.0
  0
TEXT
  5
ED6
330
6B
100
AcDbEntity
  8
0
  6
Continuous
 62
     4
100
AcDbText
 10
-132.3085151071494
 20
148.8076378975877
 30
0.0
 40
3.0
  1
2500
100
AcDbText
  0
LINE
  5
ED7
330
6B
100
AcDbEntity
  8
0
  6
ByBlock
 62
     0
370
    -2
100
AcDbLine
 10
-139.1597138504268
 20
147.5127653975877
 30
0.0
 11
-141.6597138504268
 21
148.1826378975877
 31
0.0
  0
LINE
  5
ED8
330
6B
100
AcDbEntity
  8
0
  6
ByBlock
 62
     0
370
    -2
100
AcDbLine
 10
-141.6597138504268
 20
148.1826378975877
 30
0.0
 11
-139.1597138504268
 21
148.8525103975877
 31
0.0
  0
LINE
  5
ED9
330
6B
100
AcDbEntity
  8
0
  6
ByBlock
 62
     0
370
    -2
100
AcDbLine
 10
-141.6597138504268
 20
148.1826378975877
 30
0.0
 11
-139.1597138504268
 21
148.1826378975877
 31
0.0
  0
LINE
  5
EDA
330
6B
100
AcDbEntity
  8
0
  6
ByBlock
 62
     0
370
    -2
100
AcDbLine
 10
-115.4573163638721
 20
148.8525103975877
 30
0.0
 11
-112.957316363872
 21
148.1826378975877
 31
0.0
  0
LINE
  5
EDB
330
6B
100
AcDbEntity
  8
0
  6
ByBlock
 62
     0
370
    -2
100
AcDbLine
 10
-112.957316363872
 20
148.1826378975877
 30
0.0
 11
-115.4573163638721
 21
147.5127653975877
 31
0.0
  0
LINE
  5
EDC
330
6B
100
AcDbEntity
  8
0
  6
ByBlock
 62
     0
370
    -2
100
AcDbLine
 10
-112.957316363872
 20
148.1826378975877
 30
0.0
 11
-115.4573163638721
 21
148.1826378975877
 31
0.0
  0
TEXT
  5
EDD
330
6B
100
AcDbEntity
  8
0
  6
Continuous
 62
     4
100
AcDbText
 10
-312.44037964572
 20
148.8076378975877
 30
0.0
 40
3.0
  1
2500
100
AcDbText
  0
LINE
  5
EDE
330
6B
100
AcDbEntity
  8
0
  6
ByBlock
 62
     0
370
    -2
100
AcDbLine
 10
-321.6621015188699
 20
147.5127653975877
 30
0.0
 11
-324.1621015188699
 21
148.1826378975877
 31
0.0
  0
LINE
  5
EDF
330
6B
100
AcDbEntity
  8
0
  6
ByBlock
 62
     0
370
    -2
100
AcDbLine
 10
-324.1621015188699
 20
148.1826378975877
 30
0.0
 11
-321.6621015188699
 21
148.8525103975877
 31
0.0
  0
LINE
  5
EE0
330
6B
100
AcDbEntity
  8
0
  6
ByBlock
 62
     0
370
    -2
100
AcDbLine
 10
-324.1621015188699
 20
148.1826378975877
 30
0.0
 11
-321.6621015188699
 21
148.1826378975877
 31
0.0
  0
LINE
  5
EE1
330
6B
100
AcDbEntity
  8
0
  6
ByBlock
 62
     0
370
    -2
100
AcDbLine
 10
-295.299214854477
 20
148.8525103975877
 30
0.0
 11
-292.799214854477
 21
148.1826378975877
 31
0.0
  0
LINE
  5
EE2
330
6B
100
AcDbEntity
  8
0
  6
ByBlock
 62
     0
370
    -2
100
AcDbLine
 10
-292.799214854477
 20
148.1826378975877
 30
0.0
 11
-295.299214854477
 21
147.5127653975877
 31
0.0
  0
LINE
  5
EE3
330
6B
100
AcDbEntity
  8
0
  6
ByBlock
 62
     0
370
    -2
100
AcDbLine
 10
-292.799214854477
 20
148.1826378975877
 30
0.0
 11
-295.299214854477
 21
148.1826378975877
 31
0.0
  0
TEXT
  5
EE4
330
6B
100
AcDbEntity
  8
0
  6
Continuous
 62
     4
100
AcDbText
 10
-278.2512193127068
 20
113.6924872379634
 30
0.0
 40
3.0
  1
250
 50
90.0
100
AcDbText
  0
LINE
  5
EE5
330
6B
100
AcDbEntity
  8
0
  6
ByBlock
 62
     0
370
    -2
100
AcDbLine
 10
-278.2960918127067
 20
128.4743616319429
 30
0.0
 11
-277.6262193127067
 21
130.9743616319429
 31
0.0
  0
LINE
  5
EE6
330
6B
100
AcDbEntity
  8
0
  6
ByBlock
 62
     0
370
    -2
100
AcDbLine
 10
-277.6262193127067
 20
130.9743616319429
 30
0.0
 11
-276.9563468127067
 21
128.4743616319429
 31
0.0
  0
LINE
  5
EE7
330
6B
100
AcDbEntity
  8
0
  6
ByBlock
 62
     0
370
    -2
100
AcDbLine
 10
-277.6262193127067
 20
130.9743616319429
 30
0.0
 11
-277.6262193127067
 21
128.4743616319429
 31
0.0
  0
LINE
  5
EE8
330
6B
100
AcDbEntity
  8
0
  6
ByBlock
 62
     0
370
    -2
100
AcDbLine
 10
-276.9563468127068
 20
108.4743616319429
 30
0.0
 11
-277.6262193127068
 21
105.9743616319429
 31
0.0
  0
LINE
  5
EE9
330
6B
100
AcDbEntity
  8
0
  6
ByBlock
 62
     0
370
    -2
100
AcDbLine
 10
-277.6262193127068
 20
105.9743616319429
 30
0.0
 11
-278.2960918127068
 21
108.4743616319429
 31
0.0
  0
LINE
  5
EEA
330
6B
100
AcDbEntity
  8
0
  6
ByBlock
 62
     0
370
    -2
100
AcDbLine
 10
-277.6262193127068
 20
105.9743616319429
 30
0.0
 11
-277.6262193127068
 21
108.4743616319429
 31
0.0
  0
ENDSEC
  0
SECTION
  2
OBJECTS
  0
DICTIONARY
  5
C
330
0
100
AcDbDictionary
281
     1
  3
ACAD_2007HEADERVARS_RT
350
EEF
  3
ACAD_COLOR
350
62
  3
ACAD_GROUP
350
D
  3
ACAD_LAYOUT
350
61
  3
ACAD_MATERIAL
350
10
  3
ACAD_MLEADERSTYLE
350
65
  3
ACAD_MLINESTYLE
350
5E
  3
ACAD_PLOTSETTINGS
350
60
  3
ACAD_PLOTSTYLENAME
350
E
  3
ACAD_SCALELIST
350
42
  3
ACAD_TABLESTYLE
350
63
  3
ACAD_VISUALSTYLE
350
29
  3
ACDB_RECOMPOSE_DATA
350
EED
  3
AcDbVariableDictionary
350
DE2
  3
DWGPROPS
350
EEE
  0
DICTIONARY
  5
4DD
330
2
100
AcDbDictionary
280
     1
281
     1
  3
ACAD_LAYERSTATES
360
4DE
  0
DICTIONARY
  5
DE0
330
54
100
AcDbDictionary
280
     1
281
     1
  3
ADSK_XREC_LAYER_RECONCILED
360
DE1
  0
DICTIONARY
  5
CFA
330
6B
100
AcDbDictionary
280
     1
281
     1
  3
ACAD_SORTENTS
360
CFB
  0
DICTIONARY
  5
EEF
102
{ACAD_REACTORS
330
C
102
}
330
C
100
AcDbDictionary
281
     1
  3
DIMARCSYM
350
EF1
  3
DIMFXL
350
EF0
  3
DIMJOGANG
350
EF2
  0
DICTIONARY
  5
62
102
{ACAD_REACTORS
330
C
102
}
330
C
100
AcDbDictionary
281
     1
  0
DICTIONARY
  5
D
102
{ACAD_REACTORS
330
C
102
}
330
C
100
AcDbDictionary
281
     1
  0
DICTIONARY
  5
61
102
{ACAD_REACTORS
330
C
102
}
330
C
100
AcDbDictionary
281
     1
  3
Model
350
6E
  3
レイアウト1
350
6A
  0
DICTIONARY
  5
10
102
{ACAD_REACTORS
330
C
102
}
330
C
100
AcDbDictionary
281
     1
  3
ByBlock
350
19
  3
ByLayer
350
11
  3
Global
350
21
  0
DICTIONARY
  5
65
102
{ACAD_REACTORS
330
C
102
}
330
C
100
AcDbDictionary
281
     1
  3
Standard
350
66
  0
DICTIONARY
  5
5E
102
{ACAD_REACTORS
330
C
102
}
330
C
100
AcDbDictionary
281
     1
  3
Standard
350
5F
  0
DICTIONARY
  5
60
102
{ACAD_REACTORS
330
C
102
}
330
C
100
AcDbDictionary
281
     1
  0
ACDBDICTIONARYWDFLT
  5
E
102
{ACAD_REACTORS
330
C
102
}
330
C
100
AcDbDictionary
281
     1
  3
Normal
350
F
100
AcDbDictionaryWithDefault
340
F
  0
DICTIONARY
  5
42
102
{ACAD_REACTORS
330
C
102
}
330
C
100
AcDbDictionary
281
     1
  3
A0
350
43
  3
A1
350
44
  3
A2
350
45
  3
A3
350
46
  3
A4
350
47
  3
A5
350
48
  3
A6
350
49
  3
A7
350
4A
  3
A8
350
4B
  3
A9
350
4C
  3
B0
350
4D
  3
B1
350
4E
  3
B2
350
4F
  3
B3
350
50
  3
B4
350
51
  3
B5
350
52
  3
B6
350
53
  0
DICTIONARY
  5
63
102
{ACAD_REACTORS
330
C
102
}
330
C
100
AcDbDictionary
281
     1
  3
Standard
350
64
  0
DICTIONARY
  5
29
102
{ACAD_REACTORS
330
C
102
}
330
C
100
AcDbDictionary
281
     1
  3
2dWireframe
350
2F
  3
3dWireframe
350
B30
  3
Basic
350
2E
  3
Brighten
350
35
  3
ColorChange
350
39
  3
Conceptual
350
32
  3
Dim
350
34
  3
EdgeColorOff
350
41
  3
Facepattern
350
38
  3
Flat
350
2A
  3
FlatWithEdges
350
2B
  3
Gouraud
350
2C
  3
GouraudWithEdges
350
2D
  3
Hidden
350
31
  3
JitterOff
350
3F
  3
Linepattern
350
37
  3
OverhangOff
350
40
  3
Realistic
350
33
  3
Shaded
350
3E
  3
Shaded with edges
350
3D
  3
Shades of Gray
350
3A
  3
Sketchy
350
3B
  3
Thicken
350
36
  3
Wireframe
350
30
  3
X-Ray
350
3C
  0
XRECORD
  5
EED
102
{ACAD_REACTORS
330
C
102
}
330
C
100
AcDbXrecord
280
     1
 90
        1
330
64
  0
DICTIONARY
  5
DE2
102
{ACAD_REACTORS
330
C
102
}
330
C
100
AcDbDictionary
281
     1
  3
CANNOSCALE
350
DE5
  3
CMLEADERSTYLE
350
DE4
  3
CTABLESTYLE
350
DE3
  3
DIMASSOC
350
DE8
  3
INDEXCTL
350
DE7
  3
SORTENTS
350
DE6
  3
XCLIPFRAME
350
DE9
  0
XRECORD
  5
EEE
102
{ACAD_REACTORS
330
C
102
}
330
C
100
AcDbXrecord
280
     1
  1
DWGPROPS COOKIE
  2

  3

  4

  6

  7

  8
imamura
  9

300
=
301
=
302
=
303
=
304
=
305
=
306
=
307
=
308
=
309
=
 40
0.0348933449074074
 41
2456829.440370937
 42
2456829.475264097
  1

 90
        0
  0
DICTIONARY
  5
4DE
102
{ACAD_REACTORS
330
4DD
102
}
330
4DD
100
AcDbDictionary
281
     1
  0
XRECORD
  5
DE1
102
{ACAD_REACTORS
330
DE0
102
}
330
DE0
100
AcDbXrecord
280
     1
290
     1
  0
SORTENTSTABLE
  5
CFB
102
{ACAD_REACTORS
330
CFA
102
}
330
CFA
100
AcDbSortentsTable
330
6B
331
8A0
  5
8F3
331
EB8
  5
ED6
331
D08
  5
EA8
331
1D8
  5
2D4
331
8B1
  5
904
331
7C1
  5
80C
331
D19
  5
EB9
331
EC9
  5
E84
331
961
  5
9B4
331
2C9
  5
310
331
150
  5
158
331
8C2
  5
915
331
7D2
  5
81D
331
EDA
  5
E6D
331
972
  5
9C5
331
1E2
  5
2DE
331
161
  5
169
331
8D3
  5
926
331
7E3
  5
832
331
983
  5
B5F
331
2D3
  5
351
331
1F3
  5
2EF
331
D23
  5
82B
331
8E4
  5
937
331
E44
  5
E8C
331
994
  5
C7E
331
2E4
  5
366
331
204
  5
300
331
7F4
  5
845
331
7FD
  5
84E
331
E55
  5
E6A
331
9A5
  5
D09
331
80E
  5
85F
331
9B6
  5
D20
331
9C7
  5
D85
331
81F
  5
870
331
B69
  5
DDF
331
8F1
  5
944
331
841
  5
892
331
830
  5
881
331
E77
  5
1E0
331
B7A
  5
E43
331
902
  5
955
331
863
  5
8B4
331
913
  5
966
331
183
  5
1CC
331
172
  5
17A
331
852
  5
8A3
331
306
  5
7D1
331
2F5
  5
7C0
331
924
  5
977
331
935
  5
988
331
354
  5
7EB
331
946
  5
999
331
87E
  5
8D1
331
EA7
  5
EE5
331
957
  5
9AA
331
88F
  5
8E2
331
12E
  5
136
331
13F
  5
147
331
E96
  5
1FF
331
FB
  5
FB
331
890
  5
8E3
331
EA8
  5
EE6
331
958
  5
9AB
331
1C8
  5
2C4
331
8A1
  5
8F4
331
EB9
  5
ED7
331
D09
  5
EA9
331
1D9
  5
2D5
331
140
  5
148
331
8B2
  5
905
331
7C2
  5
80D
331
D1A
  5
EBA
331
ECA
  5
E85
331
962
  5
9B5
331
2CA
  5
311
331
151
  5
159
331
8C3
  5
916
331
7D3
  5
81E
331
EDB
  5
E6E
331
973
  5
9C6
331
1E3
  5
2DF
331
162
  5
16A
331
8D4
  5
927
331
7E4
  5
834
331
984
  5
B60
331
2D4
  5
352
331
1F4
  5
2F0
331
D24
  5
835
331
8E5
  5
938
331
E45
  5
E8D
331
995
  5
C96
331
2E5
  5
367
331
205
  5
301
331
7FE
  5
84F
331
E56
  5
E6B
331
9A6
  5
D0A
331
80F
  5
860
331
9B7
  5
D21
331
9C8
  5
D86
331
820
  5
871
331
E67
  5
1D0
331
4C8
  5
803
331
B6A
  5
E33
331
8F2
  5
945
331
842
  5
893
331
831
  5
882
331
853
  5
8A4
331
903
  5
956
331
864
  5
8B5
331
914
  5
967
331
184
  5
1CD
331
173
  5
17B
331
E78
  5
1E1
331
307
  5
7D2
331
2F6
  5
7C1
331
7F5
  5
846
331
925
  5
978
331
936
  5
989
331
355
  5
7EC
331
366
  5
7FA
331
947
  5
99A
331
87F
  5
8D2
331
E97
  5
200
331
12F
  5
137
331
11E
  5
11E
331
FC
  5
FC
331
948
  5
99B
331
880
  5
8D3
331
E98
  5
201
331
891
  5
8E4
331
959
  5
9AC
331
1C9
  5
2C5
331
130
  5
138
331
EA9
  5
EE7
331
CF9
  5
831
331
8A2
  5
8F5
331
EBA
  5
EC6
331
D0A
  5
EAA
331
1DA
  5
2D6
331
141
  5
149
331
8B3
  5
906
331
7C3
  5
80E
331
D1B
  5
EBB
331
ECB
  5
E86
331
963
  5
9B6
331
2CB
  5
319
331
152
  5
15A
331
8C4
  5
917
331
7D4
  5
81F
331
EDC
  5
E6F
331
974
  5
9C7
331
1E4
  5
2E0
331
163
  5
16B
331
8D5
  5
928
331
985
  5
B61
331
2D5
  5
354
331
1F5
  5
2F1
331
D25
  5
829
331
8E6
  5
939
331
996
  5
CB5
331
2E6
  5
368
331
206
  5
302
331
E57
  5
E6C
331
9A7
  5
D11
331
2F7
  5
7C2
331
9B8
  5
D22
331
308
  5
7D3
331
821
  5
872
331
E68
  5
1D1
331
9C9
  5
D87
331
4C9
  5
804
331
B6B
  5
E34
331
8F3
  5
946
331
843
  5
894
331
832
  5
883
331
E79
  5
1E2
331
319
  5
7DD
331
810
  5
861
331
7FF
  5
850
331
7F6
  5
847
331
7E5
  5
836
331
904
  5
957
331
865
  5
8B6
331
174
  5
17C
331
915
  5
968
331
185
  5
1CE
331
926
  5
979
331
937
  5
98A
331
356
  5
7ED
331
367
  5
7FB
331
FD
  5
FD
331
854
  5
8A5
331
938
  5
98B
331
870
  5
8C1
331
368
  5
7FC
331
949
  5
99C
331
881
  5
8D4
331
E88
  5
1F1
331
892
  5
8E5
331
EAA
  5
EE4
331
95A
  5
9AD
331
1CA
  5
2C6
331
131
  5
139
331
8A3
  5
8F6
331
EBB
  5
EC3
331
D0B
  5
EAB
331
1DB
  5
2D7
331
142
  5
14A
331
8B4
  5
907
331
7C4
  5
80F
331
D1C
  5
EBC
331
ECC
  5
E81
331
964
  5
9B7
331
2CC
  5
31A
331
153
  5
15B
331
8C5
  5
918
331
7D5
  5
820
331
EDD
  5
E69
331
975
  5
9C8
331
1E5
  5
2E1
331
164
  5
16C
331
8D6
  5
929
331
986
  5
B62
331
2D6
  5
355
331
D26
  5
833
331
8E7
  5
93A
331
997
  5
CC2
331
2E7
  5
471
331
800
  5
851
331
9A8
  5
D12
331
811
  5
862
331
9B9
  5
D23
331
822
  5
873
331
E69
  5
1D2
331
9CA
  5
D88
331
31A
  5
7DE
331
B6C
  5
E35
331
8F4
  5
947
331
844
  5
895
331
833
  5
884
331
E7A
  5
1E3
331
4CA
  5
805
331
309
  5
7D4
331
2F8
  5
7C3
331
7F7
  5
848
331
1F6
  5
2F2
331
E99
  5
202
331
905
  5
958
331
866
  5
8B7
331
175
  5
17D
331
916
  5
969
331
927
  5
97A
331
FE
  5
FE
331
855
  5
8A6
331
928
  5
97B
331
358
  5
7EE
331
939
  5
98C
331
871
  5
8C2
331
94A
  5
99D
331
882
  5
8D5
331
E89
  5
1F2
331
DD8
  5
12B
331
893
  5
8E6
331
EAB
  5
EE1
331
95B
  5
9AE
331
1CB
  5
2C7
331
132
  5
13A
331
8A4
  5
8F7
331
EBC
  5
EC4
331
D0C
  5
EAC
331
1DC
  5
2D8
331
143
  5
14B
331
8B5
  5
908
331
7C5
  5
810
331
965
  5
9B8
331
2CD
  5
31B
331
154
  5
15C
331
ECD
  5
E82
331
D1D
  5
8C8
331
8C6
  5
919
331
7D6
  5
821
331
EDE
  5
E63
331
976
  5
9C9
331
1E6
  5
2E2
331
165
  5
16D
331
987
  5
B63
331
2D7
  5
356
331
1F7
  5
2F3
331
998
  5
CCF
331
801
  5
852
331
9A9
  5
D13
331
812
  5
863
331
9BA
  5
D24
331
30A
  5
7D5
331
823
  5
874
331
9CB
  5
D89
331
31B
  5
7E1
331
4CB
  5
806
331
834
  5
885
331
E7B
  5
1E4
331
E6A
  5
1D3
331
2F9
  5
7C4
331
2E8
  5
472
331
8D7
  5
92A
331
E9A
  5
203
331
B6D
  5
E36
331
8F5
  5
948
331
845
  5
896
331
856
  5
8A7
331
906
  5
959
331
917
  5
96A
331
867
  5
8B8
331
176
  5
17E
331
FF
  5
FF
331
E4
  5
E4
331
918
  5
96B
331
868
  5
8B9
331
929
  5
97C
331
359
  5
7EF
331
93A
  5
98D
331
872
  5
8C3
331
94B
  5
99E
331
883
  5
8D6
331
E8A
  5
1F3
331
DD9
  5
12C
331
894
  5
8E7
331
95C
  5
9AF
331
1CC
  5
2C8
331
133
  5
13B
331
EAC
  5
EE2
331
CFC
  5
827
331
8A5
  5
8F8
331
EBD
  5
EC5
331
D0D
  5
EAD
331
1DD
  5
2D9
331
144
  5
14C
331
8B6
  5
909
331
7C6
  5
811
331
966
  5
9B9
331
2CE
  5
344
331
155
  5
15D
331
ECE
  5
E83
331
D1E
  5
839
331
8C7
  5
91A
331
7D7
  5
822
331
EDF
  5
E64
331
977
  5
9CA
331
1E7
  5
2E3
331
8D8
  5
92B
331
7E8
  5
838
331
988
  5
B64
331
2D8
  5
358
331
1F8
  5
2F4
331
E49
  5
E7E
331
999
  5
CF7
331
802
  5
853
331
9AA
  5
D14
331
813
  5
864
331
9BB
  5
D25
331
30B
  5
7D6
331
9CC
  5
D8A
331
824
  5
875
331
4CC
  5
807
331
B6E
  5
E37
331
8F6
  5
949
331
846
  5
897
331
835
  5
886
331
E7C
  5
1E5
331
E6B
  5
1D4
331
2FA
  5
7C5
331
2E9
  5
473
331
166
  5
16E
331
E9B
  5
204
331
100
  5
100
331
907
  5
95A
331
177
  5
17F
331
857
  5
8A8
331
858
  5
8A9
331
908
  5
95B
331
178
  5
180
331
919
  5
96C
331
869
  5
8BA
331
92A
  5
97D
331
35A
  5
7F0
331
93B
  5
98E
331
873
  5
8C4
331
94C
  5
99F
331
884
  5
8D7
331
E8B
  5
1F4
331
DDA
  5
12D
331
895
  5
8E8
331
EAD
  5
EE3
331
95D
  5
9B0
331
1CD
  5
2C9
331
134
  5
13C
331
8A6
  5
8F9
331
EBE
  5
EC0
331
D0E
  5
EAE
331
1DE
  5
2DA
331
145
  5
14D
331
8B7
  5
90A
331
7C7
  5
812
331
967
  5
9BA
331
2CF
  5
345
331
156
  5
15E
331
ECF
  5
E7D
331
D1F
  5
8C5
331
8C8
  5
91B
331
7D8
  5
823
331
EE0
  5
E68
331
978
  5
9CB
331
1E8
  5
2E4
331
167
  5
16F
331
8D9
  5
92C
331
989
  5
B65
331
2D9
  5
359
331
1F9
  5
2F5
331
E4A
  5
E7F
331
99A
  5
CF8
331
803
  5
854
331
E5B
  5
E57
331
9AB
  5
D15
331
814
  5
865
331
9BC
  5
D26
331
30C
  5
7D7
331
9CD
  5
D8B
331
825
  5
876
331
4CD
  5
808
331
836
  5
887
331
E7D
  5
1E6
331
E6C
  5
1D5
331
2FB
  5
7C6
331
2EA
  5
475
331
7E9
  5
83A
331
E9C
  5
205
331
101
  5
101
331
F0
  5
F0
331
D8F
  5
EE9
331
B6F
  5
E38
331
8F7
  5
94A
331
847
  5
898
331
E6
  5
E6
331
848
  5
899
331
D90
  5
EEA
331
B70
  5
E39
331
8F8
  5
94B
331
859
  5
8AA
331
168
  5
170
331
909
  5
95C
331
179
  5
181
331
91A
  5
96D
331
86A
  5
8BB
331
92B
  5
97E
331
93C
  5
98F
331
874
  5
8C6
331
E8C
  5
1F5
331
DDB
  5
12E
331
94D
  5
9A0
331
885
  5
8D8
331
E9D
  5
206
331
896
  5
8E9
331
EAE
  5
EE0
331
CFE
  5
E95
331
95E
  5
9B1
331
1CE
  5
2CA
331
135
  5
13D
331
8A7
  5
8FA
331
EBF
  5
EC1
331
D0F
  5
EAF
331
1DF
  5
2DB
331
146
  5
14E
331
ED0
  5
E7A
331
968
  5
9BB
331
8B8
  5
90B
331
7C8
  5
813
331
8C9
  5
91C
331
7D9
  5
824
331
157
  5
15F
331
EE1
  5
E5D
331
979
  5
9CC
331
1E9
  5
2E5
331
8DA
  5
92D
331
7EA
  5
83B
331
98A
  5
B66
331
2DA
  5
35A
331
1FA
  5
2F6
331
E4B
  5
E80
331
99B
  5
CFE
331
804
  5
855
331
E5C
  5
E58
331
9AC
  5
D16
331
815
  5
866
331
9BD
  5
D5D
331
9CE
  5
D8D
331
826
  5
877
331
E6D
  5
1D6
331
D7F
  5
ECB
331
837
  5
888
331
E7E
  5
1E7
331
4CE
  5
809
331
30D
  5
7D8
331
2FC
  5
7C7
331
2EB
  5
476
331
124
  5
124
331
102
  5
102
331
F1
  5
F1
331
D80
  5
ECC
331
8E8
  5
93B
331
838
  5
889
331
849
  5
89A
331
B71
  5
E3A
331
8F9
  5
94C
331
85A
  5
8AB
331
169
  5
171
331
90A
  5
95D
331
17A
  5
182
331
91B
  5
96E
331
86B
  5
8BC
331
92C
  5
97F
331
35C
  5
7F1
331
93D
  5
990
331
875
  5
8C7
331
94E
  5
9A1
331
886
  5
8D9
331
E8D
  5
1F6
331
E9E
  5
20E
331
897
  5
8EA
331
EAF
  5
EDD
331
CFF
  5
E96
331
95F
  5
9B2
331
1CF
  5
2CB
331
136
  5
13E
331
EC0
  5
EC2
331
D10
  5
EB0
331
8A8
  5
8FB
331
147
  5
14F
331
DDC
  5
12F
331
ED1
  5
E7B
331
969
  5
9BC
331
8B9
  5
90C
331
7C9
  5
814
331
8CA
  5
91D
331
7DA
  5
825
331
158
  5
160
331
EE2
  5
E5E
331
97A
  5
9CD
331
1EA
  5
2E6
331
8DB
  5
92E
331
7EB
  5
83C
331
98B
  5
B67
331
2DB
  5
35B
331
99C
  5
CFF
331
2EC
  5
477
331
E5D
  5
E5C
331
9AD
  5
D17
331
2FD
  5
7C8
331
9BE
  5
D73
331
30E
  5
7D9
331
9CF
  5
D8E
331
827
  5
878
331
E6E
  5
1D7
331
E7F
  5
1E8
331
816
  5
867
331
805
  5
856
331
1FB
  5
2F7
331
103
  5
103
331
F2
  5
F2
331
E8
  5
E8
331
9D0
  5
D8F
331
828
  5
879
331
D81
  5
ECD
331
8E9
  5
93C
331
839
  5
88A
331
E80
  5
1E9
331
84A
  5
89B
331
B72
  5
E3B
331
8FA
  5
94D
331
85B
  5
8AC
331
16A
  5
172
331
90B
  5
95E
331
17B
  5
183
331
91C
  5
96F
331
86C
  5
8BD
331
92D
  5
980
331
35D
  5
7F2
331
93E
  5
991
331
876
  5
8C9
331
DDD
  5
130
331
94F
  5
9A2
331
887
  5
8DA
331
E9F
  5
20F
331
898
  5
8EB
331
EB0
  5
EDE
331
D00
  5
E97
331
1D0
  5
2CC
331
137
  5
13F
331
8A9
  5
8FC
331
D11
  5
EB1
331
EC1
  5
E94
331
471
  5
7FD
331
2C1
  5
308
331
148
  5
150
331
ED2
  5
E7C
331
96A
  5
9BD
331
8BA
  5
90D
331
7CA
  5
815
331
8CB
  5
91E
331
7DB
  5
826
331
159
  5
161
331
EE3
  5
E62
331
97B
  5
9CE
331
1EB
  5
2E7
331
8DC
  5
92F
331
7EC
  5
83D
331
98C
  5
B68
331
2DC
  5
35C
331
99D
  5
D00
331
2ED
  5
4C8
331
806
  5
857
331
9AE
  5
D18
331
817
  5
868
331
9BF
  5
D74
331
E6F
  5
1D8
331
30F
  5
7DA
331
2FE
  5
7C9
331
1FC
  5
2F8
331
E8E
  5
1F7
331
104
  5
104
331
F3
  5
F3
331
E9
  5
E9
331
818
  5
869
331
9C0
  5
D75
331
310
  5
7DB
331
829
  5
87A
331
E70
  5
1D9
331
D82
  5
ECE
331
8EA
  5
93D
331
83A
  5
88B
331
E81
  5
1EA
331
84B
  5
89C
331
B73
  5
E3C
331
8FB
  5
94E
331
85C
  5
8AD
331
16B
  5
173
331
90C
  5
95F
331
92E
  5
981
331
91D
  5
970
331
86D
  5
8BE
331
17C
  5
184
331
93F
  5
992
331
877
  5
8CA
331
950
  5
9A3
331
888
  5
8DB
331
E8F
  5
1F8
331
EA0
  5
210
331
899
  5
8EC
331
EB1
  5
EDF
331
1D1
  5
2CD
331
138
  5
140
331
8AA
  5
8FD
331
D12
  5
EB2
331
EC2
  5
E91
331
472
  5
7FE
331
2C2
  5
309
331
149
  5
151
331
ED3
  5
E77
331
96B
  5
9BE
331
8BB
  5
90E
331
7CB
  5
816
331
8CC
  5
91F
331
7DC
  5
828
331
15A
  5
162
331
EE4
  5
E56
331
97C
  5
9CF
331
1EC
  5
2E8
331
8DD
  5
930
331
7ED
  5
83E
331
E3D
  5
EBD
331
98D
  5
B69
331
2DD
  5
35D
331
99E
  5
D02
331
2EE
  5
4C9
331
20E
  5
303
331
807
  5
858
331
9AF
  5
D19
331
2FF
  5
7CA
331
1FD
  5
2F9
331
116
  5
116
331
35E
  5
7F3
331
EA
  5
EA
331
808
  5
859
331
9B0
  5
D1A
331
300
  5
7CB
331
819
  5
86A
331
9C1
  5
D76
331
311
  5
7DC
331
82A
  5
87B
331
E71
  5
1DA
331
D83
  5
ECF
331
8EB
  5
93E
331
83B
  5
88C
331
E82
  5
1EB
331
84C
  5
89D
331
8FC
  5
94F
331
B74
  5
E3D
331
344
  5
7E2
331
16C
  5
174
331
85D
  5
8AE
331
90D
  5
960
331
92F
  5
982
331
91E
  5
971
331
86E
  5
8BF
331
17D
  5
185
331
940
  5
993
331
878
  5
8CB
331
951
  5
9A4
331
889
  5
8DC
331
EA1
  5
211
331
89A
  5
8ED
331
EB2
  5
EDC
331
D02
  5
E98
331
1D2
  5
2CE
331
139
  5
141
331
8AB
  5
8FE
331
D13
  5
EB3
331
EC3
  5
E92
331
473
  5
7FF
331
2C3
  5
30A
331
14A
  5
152
331
ED4
  5
E78
331
96C
  5
9BF
331
8BC
  5
90F
331
7CC
  5
817
331
8CD
  5
920
331
7DD
  5
82A
331
15B
  5
163
331
EE5
  5
E50
331
97D
  5
9D0
331
1ED
  5
2E9
331
8DE
  5
931
331
7EE
  5
83F
331
E3E
  5
EBE
331
98E
  5
B6A
331
2DE
  5
35E
331
1FE
  5
2FA
331
E4F
  5
E74
331
99F
  5
D03
331
2EF
  5
4CA
331
20F
  5
304
331
128
  5
128
331
E90
  5
1F9
331
35F
  5
7F4
331
EB
  5
EB
331
7F8
  5
849
331
E50
  5
E75
331
9A0
  5
D04
331
2F0
  5
4CB
331
210
  5
305
331
809
  5
85A
331
E61
  5
E44
331
9B1
  5
D1B
331
301
  5
7CC
331
9C2
  5
D7F
331
81A
  5
86B
331
D73
  5
EC7
331
82B
  5
87C
331
E72
  5
1DB
331
D84
  5
ED0
331
8EC
  5
93F
331
83C
  5
88D
331
E83
  5
1EC
331
84D
  5
89E
331
8FD
  5
950
331
B75
  5
E3E
331
345
  5
7E3
331
16D
  5
175
331
85E
  5
8AF
331
90E
  5
961
331
930
  5
983
331
91F
  5
972
331
86F
  5
8C0
331
17E
  5
186
331
941
  5
994
331
879
  5
8CC
331
E91
  5
1FA
331
952
  5
9A5
331
88A
  5
8DD
331
EA2
  5
212
331
89B
  5
8EE
331
EB3
  5
ED9
331
D03
  5
E99
331
1D3
  5
2CF
331
13A
  5
142
331
8AC
  5
8FF
331
D14
  5
EB4
331
EC4
  5
E93
331
2C4
  5
30B
331
14B
  5
153
331
ED5
  5
E79
331
96D
  5
9C0
331
8BD
  5
910
331
7CD
  5
818
331
8CE
  5
921
331
7DE
  5
82C
331
15C
  5
164
331
EE6
  5
E51
331
97E
  5
B5A
331
1EE
  5
2EA
331
8DF
  5
932
331
7EF
  5
840
331
E3F
  5
EBF
331
98F
  5
B6B
331
2DF
  5
35F
331
1FF
  5
2FB
331
129
  5
129
331
118
  5
118
331
360
  5
7F5
331
EC
  5
EC
331
8E0
  5
933
331
7F0
  5
841
331
990
  5
B6C
331
2E0
  5
360
331
200
  5
2FC
331
7F9
  5
84A
331
E51
  5
E76
331
9A1
  5
D05
331
2F1
  5
4CC
331
211
  5
306
331
80A
  5
85B
331
E62
  5
E45
331
9B2
  5
D1C
331
302
  5
7CD
331
9C3
  5
D80
331
81B
  5
86C
331
D74
  5
EC8
331
82C
  5
87D
331
E73
  5
1DC
331
D85
  5
ED1
331
8ED
  5
940
331
83D
  5
88E
331
E84
  5
1ED
331
84E
  5
89F
331
8FE
  5
951
331
B76
  5
E3F
331
346
  5
7E4
331
16E
  5
176
331
85F
  5
8B0
331
920
  5
973
331
90F
  5
962
331
17F
  5
1C8
331
931
  5
984
331
942
  5
995
331
87A
  5
8CD
331
361
  5
7F6
331
953
  5
9A6
331
88B
  5
8DE
331
EA3
  5
2C1
331
89C
  5
8EF
331
EB4
  5
EDA
331
D04
  5
EA4
331
1D4
  5
2D0
331
13B
  5
143
331
8AD
  5
900
331
D15
  5
EB5
331
EC5
  5
E8E
331
475
  5
800
331
2C5
  5
30C
331
14C
  5
154
331
ED6
  5
E73
331
96E
  5
9C1
331
8BE
  5
911
331
7CE
  5
819
331
8CF
  5
922
331
15D
  5
165
331
EE7
  5
E52
331
97F
  5
B5B
331
1EF
  5
2EB
331
12A
  5
12A
331
E92
  5
1FB
331
350
  5
7E8
331
ED
  5
ED
331
8D0
  5
923
331
980
  5
B5C
331
2D0
  5
346
331
1F0
  5
2EC
331
EE8
  5
E4A
331
8E1
  5
934
331
7F1
  5
842
331
D20
  5
82F
331
991
  5
B6D
331
2E1
  5
361
331
201
  5
2FD
331
7FA
  5
84B
331
9A2
  5
D06
331
2F2
  5
4CD
331
212
  5
307
331
80B
  5
85C
331
E63
  5
E46
331
9B3
  5
D1D
331
303
  5
7CE
331
9C4
  5
D81
331
81C
  5
86D
331
D75
  5
EC9
331
82D
  5
87E
331
E74
  5
1DD
331
D86
  5
ED2
331
B66
  5
D90
331
8EE
  5
941
331
83E
  5
88F
331
E85
  5
1EE
331
84F
  5
8A0
331
8FF
  5
952
331
B77
  5
E40
331
347
  5
7E5
331
16F
  5
177
331
860
  5
8B1
331
910
  5
963
331
180
  5
1C9
331
921
  5
974
331
932
  5
985
331
351
  5
7E9
331
943
  5
996
331
87B
  5
8CE
331
362
  5
7F7
331
954
  5
9A7
331
88C
  5
8DF
331
EA4
  5
2C2
331
89D
  5
8F0
331
EB5
  5
EDB
331
D05
  5
EA5
331
1D5
  5
2D1
331
13C
  5
144
331
8AE
  5
901
331
D16
  5
EB6
331
EC6
  5
E8F
331
476
  5
801
331
2C6
  5
30D
331
14D
  5
155
331
ED7
  5
E70
331
96F
  5
9C2
331
8BF
  5
912
331
7CF
  5
81A
331
15E
  5
166
331
E93
  5
1FC
331
F8
  5
F8
331
EE
  5
EE
331
8C0
  5
913
331
7D0
  5
81B
331
ED8
  5
E71
331
970
  5
9C3
331
1E0
  5
2DC
331
8D1
  5
924
331
7E1
  5
82E
331
981
  5
B5D
331
2D1
  5
347
331
1F1
  5
2ED
331
EE9
  5
E4B
331
8E2
  5
935
331
7F2
  5
843
331
D21
  5
82D
331
992
  5
B7A
331
2E2
  5
362
331
202
  5
2FE
331
7FB
  5
84C
331
9A3
  5
D07
331
2F3
  5
4CE
331
80C
  5
85D
331
9B4
  5
D1E
331
304
  5
7CF
331
9C5
  5
D83
331
D76
  5
ECA
331
82E
  5
87F
331
E75
  5
1DE
331
D87
  5
ED3
331
B67
  5
DD8
331
8EF
  5
942
331
83F
  5
890
331
E86
  5
1EF
331
81D
  5
86E
331
850
  5
8A1
331
B78
  5
E41
331
900
  5
953
331
861
  5
8B2
331
170
  5
178
331
911
  5
964
331
181
  5
1CA
331
922
  5
975
331
933
  5
986
331
352
  5
7EA
331
944
  5
997
331
87C
  5
8CF
331
363
  5
7F8
331
955
  5
9A8
331
88D
  5
8E0
331
EA5
  5
2C3
331
89E
  5
8F1
331
EB6
  5
ED8
331
D06
  5
EA6
331
1D6
  5
2D2
331
13D
  5
145
331
8AF
  5
902
331
7BF
  5
80A
331
D17
  5
EB7
331
EC7
  5
E90
331
477
  5
802
331
2C7
  5
30E
331
14E
  5
156
331
15F
  5
167
331
E94
  5
1FD
331
F9
  5
F9
331
EF
  5
EF
331
8B0
  5
903
331
7C0
  5
80B
331
D18
  5
EB8
331
EC8
  5
E87
331
960
  5
9B3
331
2C8
  5
30F
331
8C1
  5
914
331
7D1
  5
81C
331
ED9
  5
E72
331
971
  5
9C4
331
1E1
  5
2DD
331
160
  5
168
331
8D2
  5
925
331
7E2
  5
830
331
982
  5
B5E
331
2D2
  5
350
331
1F2
  5
2EE
331
EEA
  5
E4C
331
8E3
  5
936
331
7F3
  5
844
331
D22
  5
837
331
E43
  5
E88
331
993
  5
C71
331
2E3
  5
364
331
203
  5
2FF
331
7FC
  5
84D
331
9A4
  5
D08
331
2F4
  5
7BF
331
9B5
  5
D1F
331
305
  5
7D0
331
9C6
  5
D84
331
81E
  5
86F
331
82F
  5
880
331
E76
  5
1DF
331
D88
  5
ED4
331
B68
  5
DDE
331
8F0
  5
943
331
840
  5
891
331
851
  5
8A2
331
B79
  5
E42
331
901
  5
954
331
862
  5
8B3
331
912
  5
965
331
182
  5
1CB
331
171
  5
179
331
E87
  5
1F0
331
80D
  5
85E
331
934
  5
987
331
923
  5
976
331
945
  5
998
331
87D
  5
8D0
331
364
  5
7F9
331
EA6
  5
EE8
331
956
  5
9A9
331
88E
  5
8E1
331
12D
  5
135
331
89F
  5
8F2
331
EB7
  5
ED5
331
D07
  5
EA7
331
1D7
  5
2D3
331
13E
  5
146
331
14F
  5
157
331
E95
  5
1FE
331
FA
  5
FA
  0
XRECORD
  5
EF1
102
{ACAD_REACTORS
330
EEF
102
}
330
EEF
100
AcDbXrecord
280
     1
 70
     2
  0
XRECORD
  5
EF0
102
{ACAD_REACTORS
330
EEF
102
}
330
EEF
100
AcDbXrecord
280
     1
 40
1.25
  0
XRECORD
  5
EF2
102
{ACAD_REACTORS
330
EEF
102
}
330
EEF
100
AcDbXrecord
280
     1
 40
1.570796326794896
  0
LAYOUT
  5
6E
102
{ACAD_XDICTIONARY
360
F2A
102
}
102
{ACAD_REACTORS
330
61
102
}
330
61
100
AcDbPlotSettings
  1

  2
FX DP 205
  4

  6

 40
0.0
 41
0.0
 42
0.0
 43
0.0
 44
0.0
 45
0.0
 46
0.0
 47
0.0
 48
0.0
 49
0.0
140
0.0
141
0.0
142
1.0
143
1.0
 70
  1712
 72
     0
 73
     0
 74
     0
  7

 75
     0
147
1.0
148
0.0
149
0.0
100
AcDbLayout
  1
Model
 70
     1
 71
     0
 10
0.0
 20
0.0
 11
12.0
 21
9.0
 12
0.0
 22
0.0
 32
0.0
 14
0.0
 24
0.0
 34
0.0
 15
0.0
 25
0.0
 35
0.0
146
0.0
 13
0.0
 23
0.0
 33
0.0
 16
1.0
 26
0.0
 36
0.0
 17
0.0
 27
1.0
 37
0.0
 76
     0
330
6B
331
8B
  0
LAYOUT
  5
6A
102
{ACAD_XDICTIONARY
360
F28
102
}
102
{ACAD_REACTORS
330
61
102
}
330
61
100
AcDbPlotSettings
  1

  2
FX DP 205
  4

  6

 40
0.0
 41
0.0
 42
0.0
 43
0.0
 44
0.0
 45
0.0
 46
0.0
 47
0.0
 48
0.0
 49
0.0
140
0.0
141
0.0
142
1.0
143
1.0
 70
   688
 72
     0
 73
     0
 74
     5
  7

 75
    16
147
1.0
148
0.0
149
0.0
100
AcDbLayout
  1
レイアウト1
 70
     1
 71
     1
 10
0.0
 20
0.0
 11
12.0
 21
9.0
 12
0.0
 22
0.0
 32
0.0
 14
1.000000000000000E+20
 24
1.000000000000000E+20
 34
1.000000000000000E+20
 15
-1.000000000000000E+20
 25
-1.000000000000000E+20
 35
-1.000000000000000E+20
146
0.0
 13
0.0
 23
0.0
 33
0.0
 16
1.0
 26
0.0
 36
0.0
 17
0.0
 27
1.0
 37
0.0
 76
     0
330
67
  0
MATERIAL
  5
19
102
{ACAD_XDICTIONARY
360
1A
102
}
102
{ACAD_REACTORS
330
10
102
}
330
10
100
AcDbMaterial
  1
ByBlock
 72
     0
 43
0.0208333333333333
 43
0.0
 43
0.0
 43
0.0
 43
0.0
 43
0.0208333333333333
 43
0.0
 43
0.0
 43
0.0
 43
0.0
 43
1.0
 43
0.0
 43
0.0
 43
0.0
 43
0.0
 43
1.0
 77
     0
 47
0.0208333333333333
 47
0.0
 47
0.0
 47
0.0
 47
0.0
 47
0.0208333333333333
 47
0.0
 47
0.0
 47
0.0
 47
0.0
 47
1.0
 47
0.0
 47
0.0
 47
0.0
 47
0.0
 47
1.0
171
     0
 49
0.0208333333333333
 49
0.0
 49
0.0
 49
0.0
 49
0.0
 49
0.0208333333333333
 49
0.0
 49
0.0
 49
0.0
 49
0.0
 49
1.0
 49
0.0
 49
0.0
 49
0.0
 49
0.0
 49
1.0
175
     0
142
0.0208333333333333
142
0.0
142
0.0
142
0.0
142
0.0
142
0.0208333333333333
142
0.0
142
0.0
142
0.0
142
0.0
142
1.0
142
0.0
142
0.0
142
0.0
142
0.0
142
1.0
179
     0
144
0.0208333333333333
144
0.0
144
0.0
144
0.0
144
0.0
144
0.0208333333333333
144
0.0
144
0.0
144
0.0
144
0.0
144
1.0
144
0.0
144
0.0
144
0.0
144
0.0
144
1.0
147
0.0208333333333333
147
0.0
147
0.0
147
0.0
147
0.0
147
0.0208333333333333
147
0.0
147
0.0
147
0.0
147
0.0
147
1.0
147
0.0
147
0.0
147
0.0
147
0.0
147
1.0
  0
MATERIAL
  5
11
102
{ACAD_XDICTIONARY
360
12
102
}
102
{ACAD_REACTORS
330
10
102
}
330
10
100
AcDbMaterial
  1
ByLayer
 72
     0
 43
0.0208333333333333
 43
0.0
 43
0.0
 43
0.0
 43
0.0
 43
0.0208333333333333
 43
0.0
 43
0.0
 43
0.0
 43
0.0
 43
1.0
 43
0.0
 43
0.0
 43
0.0
 43
0.0
 43
1.0
 77
     0
 47
0.0208333333333333
 47
0.0
 47
0.0
 47
0.0
 47
0.0
 47
0.0208333333333333
 47
0.0
 47
0.0
 47
0.0
 47
0.0
 47
1.0
 47
0.0
 47
0.0
 47
0.0
 47
0.0
 47
1.0
171
     0
 49
0.0208333333333333
 49
0.0
 49
0.0
 49
0.0
 49
0.0
 49
0.0208333333333333
 49
0.0
 49
0.0
 49
0.0
 49
0.0
 49
1.0
 49
0.0
 49
0.0
 49
0.0
 49
0.0
 49
1.0
175
     0
142
0.0208333333333333
142
0.0
142
0.0
142
0.0
142
0.0
142
0.0208333333333333
142
0.0
142
0.0
142
0.0
142
0.0
142
1.0
142
0.0
142
0.0
142
0.0
142
0.0
142
1.0
179
     0
144
0.0208333333333333
144
0.0
144
0.0
144
0.0
144
0.0
144
0.0208333333333333
144
0.0
144
0.0
144
0.0
144
0.0
144
1.0
144
0.0
144
0.0
144
0.0
144
0.0
144
1.0
147
0.0208333333333333
147
0.0
147
0.0
147
0.0
147
0.0
147
0.0208333333333333
147
0.0
147
0.0
147
0.0
147
0.0
147
1.0
147
0.0
147
0.0
147
0.0
147
0.0
147
1.0
  0
MATERIAL
  5
21
102
{ACAD_XDICTIONARY
360
22
102
}
102
{ACAD_REACTORS
330
10
102
}
330
10
100
AcDbMaterial
  1
Global
 72
     0
 43
0.0208333333333333
 43
0.0
 43
0.0
 43
0.0
 43
0.0
 43
0.0208333333333333
 43
0.0
 43
0.0
 43
0.0
 43
0.0
 43
1.0
 43
0.0
 43
0.0
 43
0.0
 43
0.0
 43
1.0
 77
     0
 47
0.0208333333333333
 47
0.0
 47
0.0
 47
0.0
 47
0.0
 47
0.0208333333333333
 47
0.0
 47
0.0
 47
0.0
 47
0.0
 47
1.0
 47
0.0
 47
0.0
 47
0.0
 47
0.0
 47
1.0
171
     0
 49
0.0208333333333333
 49
0.0
 49
0.0
 49
0.0
 49
0.0
 49
0.0208333333333333
 49
0.0
 49
0.0
 49
0.0
 49
0.0
 49
1.0
 49
0.0
 49
0.0
 49
0.0
 49
0.0
 49
1.0
175
     0
142
0.0208333333333333
142
0.0
142
0.0
142
0.0
142
0.0
142
0.0208333333333333
142
0.0
142
0.0
142
0.0
142
0.0
142
1.0
142
0.0
142
0.0
142
0.0
142
0.0
142
1.0
179
     0
144
0.0208333333333333
144
0.0
144
0.0
144
0.0
144
0.0
144
0.0208333333333333
144
0.0
144
0.0
144
0.0
144
0.0
144
1.0
144
0.0
144
0.0
144
0.0
144
0.0
144
1.0
147
0.0208333333333333
147
0.0
147
0.0
147
0.0
147
0.0
147
0.0208333333333333
147
0.0
147
0.0
147
0.0
147
0.0
147
1.0
147
0.0
147
0.0
147
0.0
147
0.0
147
1.0
  0
MLEADERSTYLE
  5
66
102
{ACAD_REACTORS
330
65
102
}
330
65
100
AcDbMLeaderStyle
170
     2
171
     1
172
     0
 90
        2
 40
0.0
 41
0.0
173
     1
 91
-1056964608
340
5A
 92
       -2
290
     1
 42
0.09
291
     1
 43
0.36
  3
Standard
 44
0.18
300

342
55
174
     1
178
     6
175
     1
176
     0
 93
-1056964608
 45
0.18
292
     0
297
     0
 46
0.18
 94
-1056964608
 47
1.0
 49
1.0
140
1.0
293
     1
141
0.0
294
     1
177
     0
142
1.0
295
     0
296
     0
143
0.125
1001
ACAD_MLEADERVER
1070
     2
  0
MLINESTYLE
  5
5F
102
{ACAD_REACTORS
330
5E
102
}
330
5E
100
AcDbMlineStyle
  2
STANDARD
 70
     0
  3

 62
   256
 51
90.0
 52
90.0
 71
     2
 49
0.5
 62
   256
  6
BYLAYER
 49
-0.5
 62
   256
  6
BYLAYER
  0
ACDBPLACEHOLDER
  5
F
102
{ACAD_REACTORS
330
E
102
}
330
E
  0
SCALE
  5
43
102
{ACAD_REACTORS
330
42
102
}
330
42
100
AcDbScale
 70
     0
300
1:1
140
1.0
141
1.0
290
     1
  0
SCALE
  5
44
102
{ACAD_REACTORS
330
42
102
}
330
42
100
AcDbScale
 70
     0
300
1/128" = 1'-0"
140
0.0078125
141
12.0
290
     0
  0
SCALE
  5
45
102
{ACAD_REACTORS
330
42
102
}
330
42
100
AcDbScale
 70
     0
300
1/64" = 1'-0"
140
0.015625
141
12.0
290
     0
  0
SCALE
  5
46
102
{ACAD_REACTORS
330
42
102
}
330
42
100
AcDbScale
 70
     0
300
1/32" = 1'-0"
140
0.03125
141
12.0
290
     0
  0
SCALE
  5
47
102
{ACAD_REACTORS
330
42
102
}
330
42
100
AcDbScale
 70
     0
300
1/16" = 1'-0"
140
0.0625
141
12.0
290
     0
  0
SCALE
  5
48
102
{ACAD_REACTORS
330
42
102
}
330
42
100
AcDbScale
 70
     0
300
3/32" = 1'-0"
140
0.09375
141
12.0
290
     0
  0
SCALE
  5
49
102
{ACAD_REACTORS
330
42
102
}
330
42
100
AcDbScale
 70
     0
300
1/8" = 1'-0"
140
0.125
141
12.0
290
     0
  0
SCALE
  5
4A
102
{ACAD_REACTORS
330
42
102
}
330
42
100
AcDbScale
 70
     0
300
3/16" = 1'-0"
140
0.1875
141
12.0
290
     0
  0
SCALE
  5
4B
102
{ACAD_REACTORS
330
42
102
}
330
42
100
AcDbScale
 70
     0
300
1/4" = 1'-0"
140
0.25
141
12.0
290
     0
  0
SCALE
  5
4C
102
{ACAD_REACTORS
330
42
102
}
330
42
100
AcDbScale
 70
     0
300
3/8" = 1'-0"
140
0.375
141
12.0
290
     0
  0
SCALE
  5
4D
102
{ACAD_REACTORS
330
42
102
}
330
42
100
AcDbScale
 70
     0
300
1/2" = 1'-0"
140
0.5
141
12.0
290
     0
  0
SCALE
  5
4E
102
{ACAD_REACTORS
330
42
102
}
330
42
100
AcDbScale
 70
     0
300
3/4" = 1'-0"
140
0.75
141
12.0
290
     0
  0
SCALE
  5
4F
102
{ACAD_REACTORS
330
42
102
}
330
42
100
AcDbScale
 70
     0
300
1" = 1'-0"
140
1.0
141
12.0
290
     0
  0
SCALE
  5
50
102
{ACAD_REACTORS
330
42
102
}
330
42
100
AcDbScale
 70
     0
300
1-1/2" = 1'-0"
140
1.5
141
12.0
290
     0
  0
SCALE
  5
51
102
{ACAD_REACTORS
330
42
102
}
330
42
100
AcDbScale
 70
     0
300
3" = 1'-0"
140
3.0
141
12.0
290
     0
  0
SCALE
  5
52
102
{ACAD_REACTORS
330
42
102
}
330
42
100
AcDbScale
 70
     0
300
6" = 1'-0"
140
6.0
141
12.0
290
     0
  0
SCALE
  5
53
102
{ACAD_REACTORS
330
42
102
}
330
42
100
AcDbScale
 70
     0
300
1'-0" = 1'-0"
140
12.0
141
12.0
290
     0
  0
TABLESTYLE
  5
64
102
{ACAD_XDICTIONARY
360
EEB
102
}
102
{ACAD_REACTORS
330
63
102
}
330
63
100
AcDbTableStyle
  3
Standard
 70
     0
 71
     0
 40
0.06
 41
0.06
280
     0
281
     0
  7
STANDARD
140
0.18
170
     2
 62
     0
 63
     7
283
     0
274
    -2
284
     1
 64
     0
275
    -2
285
     1
 65
     0
276
    -2
286
     1
 66
     0
277
    -2
287
     1
 67
     0
278
    -2
288
     1
 68
     0
279
    -2
289
     1
 69
     0
  7
STANDARD
140
0.25
170
     5
 62
     0
 63
     7
283
     0
274
    -2
284
     1
 64
     0
275
    -2
285
     1
 65
     0
276
    -2
286
     1
 66
     0
277
    -2
287
     1
 67
     0
278
    -2
288
     1
 68
     0
279
    -2
289
     1
 69
     0
  7
STANDARD
140
0.18
170
     5
 62
     0
 63
     7
283
     0
274
    -2
284
     1
 64
     0
275
    -2
285
     1
 65
     0
276
    -2
286
     1
 66
     0
277
    -2
287
     1
 67
     0
278
    -2
288
     1
 68
     0
279
    -2
289
     1
 69
     0
  0
VISUALSTYLE
  5
2F
102
{ACAD_XDICTIONARY
360
F00
102
}
102
{ACAD_REACTORS
330
29
102
}
330
29
100
AcDbVisualStyle
  2
2dWireframe
 70
     4
 71
     0
 72
     2
 73
     0
 90
        0
 40
-0.6
 41
-30.0
 62
     5
 63
     7
 74
     1
 91
        4
 64
     7
 65
   257
 75
     1
175
     1
 42
1.0
 92
        0
 66
   257
 43
1.0
 76
     1
 77
     6
 78
     2
 67
     7
 79
     5
170
     0
171
     0
290
     0
174
     0
 93
        1
 44
0.0
173
     0
291
     0
 45
0.0
1001
ACAD
1000
AcDbSavedByObjectVersion
1070
     0
  0
VISUALSTYLE
  5
B30
102
{ACAD_XDICTIONARY
360
F2E
102
}
102
{ACAD_REACTORS
330
29
102
}
330
29
100
AcDbVisualStyle
  2
3dWireframe
 70
     5
 71
     0
 72
     2
 73
     1
 90
        0
 40
-0.6
 41
-30.0
 62
     5
 63
     7
 74
     1
 91
        4
 64
     7
 65
   257
 75
     1
175
     1
 42
1.0
 92
        0
 66
   257
 43
1.0
 76
     1
 77
     6
 78
     2
 67
     7
 79
     5
170
     0
171
     0
290
     0
174
     0
 93
        1
 44
0.0
173
     0
291
     0
 45
0.0
1001
ACAD
1000
AcDbSavedByObjectVersion
1070
     0
  0
VISUALSTYLE
  5
2E
102
{ACAD_XDICTIONARY
360
EFE
102
}
102
{ACAD_REACTORS
330
29
102
}
330
29
100
AcDbVisualStyle
  2
Basic
 70
     7
 71
     1
 72
     0
 73
     1
 90
        0
 40
-0.6
 41
-30.0
 62
     5
 63
     7
 74
     0
 91
        4
 64
     7
 65
   257
 75
     1
175
     1
 42
1.0
 92
        8
 66
     7
 43
1.0
 76
     1
 77
     6
 78
     2
 67
     7
 79
     5
170
     0
171
     0
290
     0
174
     0
 93
        1
 44
0.0
173
     0
291
     1
 45
0.0
1001
ACAD
1000
AcDbSavedByObjectVersion
1070
     0
  0
VISUALSTYLE
  5
35
102
{ACAD_XDICTIONARY
360
F0C
102
}
102
{ACAD_REACTORS
330
29
102
}
330
29
100
AcDbVisualStyle
  2
Brighten
 70
    12
 71
     2
 72
     2
 73
     0
 90
        0
 40
-0.6
 41
-30.0
 62
     5
 63
     7
 74
     1
 91
        4
 64
     7
 65
   257
 75
     1
175
     1
 42
1.0
 92
        8
 66
     7
 43
1.0
 76
     1
 77
     6
 78
     2
 67
     7
 79
     5
170
     0
171
     0
290
     0
174
     0
 93
        1
 44
50.0
173
     0
291
     1
 45
0.0
1001
ACAD
1000
AcDbSavedByObjectVersion
1070
     0
  0
VISUALSTYLE
  5
39
102
{ACAD_XDICTIONARY
360
F14
102
}
102
{ACAD_REACTORS
330
29
102
}
330
29
100
AcDbVisualStyle
  2
ColorChange
 70
    16
 71
     2
 72
     2
 73
     3
 90
        0
 40
-0.6
 41
-30.0
 62
     5
 63
     8
 74
     1
 91
        4
 64
     7
 65
   257
 75
     1
175
     1
 42
1.0
 92
        8
 66
     8
 43
1.0
 76
     1
 77
     6
 78
     2
 67
     7
 79
     5
170
     0
171
     0
290
     0
174
     0
 93
        1
 44
0.0
173
     0
291
     1
 45
0.0
1001
ACAD
1000
AcDbSavedByObjectVersion
1070
     0
  0
VISUALSTYLE
  5
32
102
{ACAD_XDICTIONARY
360
F06
102
}
102
{ACAD_REACTORS
330
29
102
}
330
29
100
AcDbVisualStyle
  2
Conceptual
 70
     9
 71
     3
 72
     2
 73
     0
 90
        0
 40
-0.6
 41
-30.0
 62
     5
 63
     7
 74
     2
 91
        2
 64
     7
 65
   257
 75
     1
175
     1
 42
179.0
 92
        8
 66
     7
 43
1.0
 76
     1
 77
     6
 78
     2
 67
     7
 79
     3
170
     0
171
     0
290
     0
174
     0
 93
        1
 44
0.0
173
     0
291
     0
 45
0.0
1001
ACAD
1000
AcDbSavedByObjectVersion
1070
     0
  0
VISUALSTYLE
  5
34
102
{ACAD_XDICTIONARY
360
F0A
102
}
102
{ACAD_REACTORS
330
29
102
}
330
29
100
AcDbVisualStyle
  2
Dim
 70
    11
 71
     2
 72
     2
 73
     0
 90
        0
 40
-0.6
 41
-30.0
 62
     5
 63
     7
 74
     1
 91
        4
 64
     7
 65
   257
 75
     1
175
     1
 42
1.0
 92
        8
 66
     7
 43
1.0
 76
     1
 77
     6
 78
     2
 67
     7
 79
     5
170
     0
171
     0
290
     0
174
     0
 93
        1
 44
-50.0
173
     0
291
     1
 45
0.0
1001
ACAD
1000
AcDbSavedByObjectVersion
1070
     0
  0
VISUALSTYLE
  5
41
102
{ACAD_XDICTIONARY
360
F24
102
}
102
{ACAD_REACTORS
330
29
102
}
330
29
100
AcDbVisualStyle
  2
EdgeColorOff
 70
    22
 71
     2
 72
     2
 73
     0
 90
        0
 40
-0.6
 41
-30.0
 62
     5
 63
     7
 74
     1
 91
        4
 64
     7
 65
   257
 75
     1
175
     1
 42
1.0
 92
        8
 66
     7
 43
1.0
 76
     1
 77
     6
 78
     2
 67
     7
 79
     5
170
     0
171
     0
290
     0
174
     0
 93
        1
 44
0.0
173
     0
291
     1
 45
0.0
1001
ACAD
1000
AcDbSavedByObjectVersion
1070
     0
  0
VISUALSTYLE
  5
38
102
{ACAD_XDICTIONARY
360
F12
102
}
102
{ACAD_REACTORS
330
29
102
}
330
29
100
AcDbVisualStyle
  2
Facepattern
 70
    15
 71
     2
 72
     2
 73
     0
 90
        0
 40
-0.6
 41
-30.0
 62
     5
 63
     7
 74
     1
 91
        4
 64
     7
 65
   257
 75
     1
175
     1
 42
1.0
 92
        8
 66
     7
 43
1.0
 76
     1
 77
     6
 78
     2
 67
     7
 79
     5
170
     0
171
     0
290
     0
174
     0
 93
        1
 44
0.0
173
     0
291
     1
 45
0.0
1001
ACAD
1000
AcDbSavedByObjectVersion
1070
     0
  0
VISUALSTYLE
  5
2A
102
{ACAD_XDICTIONARY
360
EF6
102
}
102
{ACAD_REACTORS
330
29
102
}
330
29
100
AcDbVisualStyle
  2
Flat
 70
     0
 71
     2
 72
     1
 73
     1
 90
        2
 40
-0.6
 41
30.0
 62
     5
 63
     7
 74
     0
 91
        0
 64
     7
 65
   257
 75
     1
175
     1
 42
1.0
 92
        8
 66
     7
 43
1.0
 76
     1
 77
     6
 78
     2
 67
     7
 79
     5
170
     0
171
     0
290
     0
174
     0
 93
       13
 44
0.0
173
     0
291
     1
 45
0.0
1001
ACAD
1000
AcDbSavedByObjectVersion
1070
     0
  0
VISUALSTYLE
  5
2B
102
{ACAD_XDICTIONARY
360
EF8
102
}
102
{ACAD_REACTORS
330
29
102
}
330
29
100
AcDbVisualStyle
  2
FlatWithEdges
 70
     1
 71
     2
 72
     1
 73
     1
 90
        2
 40
-0.6
 41
30.0
 62
     5
 63
     7
 74
     1
 91
        0
 64
     7
 65
   257
 75
     1
175
     1
 42
1.0
 92
        0
 66
   257
 43
1.0
 76
     1
 77
     6
 78
     2
 67
     7
 79
     5
170
     0
171
     0
290
     0
174
     0
 93
       13
 44
0.0
173
     0
291
     1
 45
0.0
1001
ACAD
1000
AcDbSavedByObjectVersion
1070
     0
  0
VISUALSTYLE
  5
2C
102
{ACAD_XDICTIONARY
360
EFA
102
}
102
{ACAD_REACTORS
330
29
102
}
330
29
100
AcDbVisualStyle
  2
Gouraud
 70
     2
 71
     2
 72
     2
 73
     1
 90
        2
 40
-0.6
 41
30.0
 62
     5
 63
     7
 74
     0
 91
        0
 64
     7
 65
   257
 75
     1
175
     1
 42
1.0
 92
        0
 66
     7
 43
1.0
 76
     1
 77
     6
 78
     2
 67
     7
 79
     5
170
     0
171
     0
290
     0
174
     0
 93
       13
 44
0.0
173
     0
291
     1
 45
0.0
1001
ACAD
1000
AcDbSavedByObjectVersion
1070
     0
  0
VISUALSTYLE
  5
2D
102
{ACAD_XDICTIONARY
360
EFC
102
}
102
{ACAD_REACTORS
330
29
102
}
330
29
100
AcDbVisualStyle
  2
GouraudWithEdges
 70
     3
 71
     2
 72
     2
 73
     1
 90
        2
 40
-0.6
 41
30.0
 62
     5
 63
     7
 74
     1
 91
        0
 64
     7
 65
   257
 75
     1
175
     1
 42
1.0
 92
        0
 66
   257
 43
1.0
 76
     1
 77
     6
 78
     2
 67
     7
 79
     5
170
     0
171
     0
290
     0
174
     0
 93
       13
 44
0.0
173
     0
291
     1
 45
0.0
1001
ACAD
1000
AcDbSavedByObjectVersion
1070
     0
  0
VISUALSTYLE
  5
31
102
{ACAD_XDICTIONARY
360
F04
102
}
102
{ACAD_REACTORS
330
29
102
}
330
29
100
AcDbVisualStyle
  2
Hidden
 70
     6
 71
     1
 72
     2
 73
     2
 90
        0
 40
-0.6
 41
-30.0
 62
     5
 63
     7
 74
     2
 91
        2
 64
     7
 65
   257
 75
     2
175
     1
 42
40.0
 92
        0
 66
   257
 43
1.0
 76
     1
 77
     6
 78
     2
 67
     7
 79
     3
170
     0
171
     0
290
     0
174
     0
 93
        1
 44
0.0
173
     0
291
     0
 45
0.0
1001
ACAD
1000
AcDbSavedByObjectVersion
1070
     0
  0
VISUALSTYLE
  5
3F
102
{ACAD_XDICTIONARY
360
F20
102
}
102
{ACAD_REACTORS
330
29
102
}
330
29
100
AcDbVisualStyle
  2
JitterOff
 70
    20
 71
     2
 72
     2
 73
     0
 90
        0
 40
-0.6
 41
-30.0
 62
     5
 63
     7
 74
     1
 91
        4
 64
     7
 65
   257
 75
     1
175
     1
 42
1.0
 92
       10
 66
     7
 43
1.0
 76
     1
 77
     6
 78
     2
 67
     7
 79
     5
170
     0
171
     0
290
     0
174
     0
 93
        1
 44
0.0
173
     0
291
     1
 45
0.0
1001
ACAD
1000
AcDbSavedByObjectVersion
1070
     0
  0
VISUALSTYLE
  5
37
102
{ACAD_XDICTIONARY
360
F10
102
}
102
{ACAD_REACTORS
330
29
102
}
330
29
100
AcDbVisualStyle
  2
Linepattern
 70
    14
 71
     2
 72
     2
 73
     0
 90
        0
 40
-0.6
 41
-30.0
 62
     5
 63
     7
 74
     1
 91
        4
 64
     7
 65
   257
 75
     7
175
     7
 42
1.0
 92
        8
 66
     7
 43
1.0
 76
     1
 77
     6
 78
     2
 67
     7
 79
     5
170
     0
171
     0
290
     0
174
     0
 93
        1
 44
0.0
173
     0
291
     1
 45
0.0
1001
ACAD
1000
AcDbSavedByObjectVersion
1070
     0
  0
VISUALSTYLE
  5
40
102
{ACAD_XDICTIONARY
360
F22
102
}
102
{ACAD_REACTORS
330
29
102
}
330
29
100
AcDbVisualStyle
  2
OverhangOff
 70
    21
 71
     2
 72
     2
 73
     0
 90
        0
 40
-0.6
 41
-30.0
 62
     5
 63
     7
 74
     1
 91
        4
 64
     7
 65
   257
 75
     1
175
     1
 42
1.0
 92
        9
 66
     7
 43
1.0
 76
     1
 77
     6
 78
     2
 67
     7
 79
     5
170
     0
171
     0
290
     0
174
     0
 93
        1
 44
0.0
173
     0
291
     1
 45
0.0
1001
ACAD
1000
AcDbSavedByObjectVersion
1070
     0
  0
VISUALSTYLE
  5
33
102
{ACAD_XDICTIONARY
360
F08
102
}
102
{ACAD_REACTORS
330
29
102
}
330
29
100
AcDbVisualStyle
  2
Realistic
 70
     8
 71
     2
 72
     3
 73
     0
 90
        2
 40
-0.6
 41
30.0
 62
     5
 63
     7
 74
     0
 91
        0
 64
     7
 65
   257
 75
     1
175
     1
 42
1.0
 92
        8
 66
   257
 43
1.0
 76
     1
 77
     6
 78
     2
 67
     7
 79
     3
170
     0
171
     0
290
     0
174
     0
 93
       13
 44
0.0
173
     0
291
     0
 45
0.0
1001
ACAD
1000
AcDbSavedByObjectVersion
1070
     0
  0
VISUALSTYLE
  5
3E
102
{ACAD_XDICTIONARY
360
F1E
102
}
102
{ACAD_REACTORS
330
29
102
}
330
29
100
AcDbVisualStyle
  2
Shaded
 70
    27
 71
     2
 72
     2
 73
     1
 90
        2
 40
-0.6
 41
30.0
 62
     5
 63
     7
 74
     0
 91
        4
 64
     7
 65
   257
 75
     1
175
     1
 42
1.0
 92
        8
 66
   257
 43
1.0
 76
     1
 77
     6
 78
     2
 67
     8
 79
     3
170
     0
171
     0
290
     0
174
     0
 93
        5
 44
0.0
173
     0
291
     0
 45
0.0
1001
ACAD
1000
AcDbSavedByObjectVersion
1070
     0
  0
VISUALSTYLE
  5
3D
102
{ACAD_XDICTIONARY
360
F1C
102
}
102
{ACAD_REACTORS
330
29
102
}
330
29
100
AcDbVisualStyle
  2
Shaded with edges
 70
    26
 71
     2
 72
     2
 73
     1
 90
        2
 40
-0.6
 41
30.0
 62
     5
 63
     7
 74
     1
 91
       10
 64
     7
 65
   257
 75
     2
175
     1
 42
1.0
 92
        8
 66
   257
 43
1.0
 76
     1
 77
     6
 78
     2
 67
     7
 79
     3
170
     0
171
     0
290
     0
174
     0
 93
        5
 44
0.0
173
     0
291
     0
 45
0.0
1001
ACAD
1000
AcDbSavedByObjectVersion
1070
     0
  0
VISUALSTYLE
  5
3A
102
{ACAD_XDICTIONARY
360
F16
102
}
102
{ACAD_REACTORS
330
29
102
}
330
29
100
AcDbVisualStyle
  2
Shades of Gray
 70
    23
 71
     2
 72
     2
 73
     3
 90
        0
 40
-0.6
 41
-30.0
 62
     5
 63
     7
 74
     2
 91
        2
 64
     7
 65
     7
 75
     1
175
     1
 42
40.0
 92
        8
 66
     7
 43
1.0
 76
     1
 77
     6
 78
     2
 67
     7
 79
     3
170
     0
171
     0
290
     0
174
     0
 93
        1
 44
0.0
173
     0
291
     0
 45
0.0
1001
ACAD
1000
AcDbSavedByObjectVersion
1070
     0
  0
VISUALSTYLE
  5
3B
102
{ACAD_XDICTIONARY
360
F18
102
}
102
{ACAD_REACTORS
330
29
102
}
330
29
100
AcDbVisualStyle
  2
Sketchy
 70
    24
 71
     1
 72
     2
 73
     2
 90
        0
 40
-0.6
 41
-30.0
 62
     5
 63
     7
 74
     2
 91
        2
 64
     7
 65
     7
 75
     1
175
     1
 42
40.0
 92
       11
 66
     7
 43
1.0
 76
     1
 77
     6
 78
     2
 67
     7
 79
     6
170
     0
171
     0
290
     0
174
     0
 93
        1
 44
0.0
173
     0
291
     0
 45
0.0
1001
ACAD
1000
AcDbSavedByObjectVersion
1070
     0
  0
VISUALSTYLE
  5
36
102
{ACAD_XDICTIONARY
360
F0E
102
}
102
{ACAD_REACTORS
330
29
102
}
330
29
100
AcDbVisualStyle
  2
Thicken
 70
    13
 71
     2
 72
     2
 73
     0
 90
        0
 40
-0.6
 41
-30.0
 62
     5
 63
     7
 74
     1
 91
        4
 64
     7
 65
   257
 75
     1
175
     1
 42
1.0
 92
       12
 66
     7
 43
1.0
 76
     1
 77
     6
 78
     2
 67
     7
 79
     5
170
     0
171
     0
290
     0
174
     0
 93
        1
 44
0.0
173
     0
291
     1
 45
0.0
1001
ACAD
1000
AcDbSavedByObjectVersion
1070
     0
  0
VISUALSTYLE
  5
30
102
{ACAD_XDICTIONARY
360
F02
102
}
102
{ACAD_REACTORS
330
29
102
}
330
29
100
AcDbVisualStyle
  2
Wireframe
 70
     5
 71
     0
 72
     2
 73
     0
 90
        0
 40
-0.6
 41
-30.0
 62
     5
 63
     7
 74
     1
 91
        4
 64
     7
 65
   257
 75
     1
175
     1
 42
1.0
 92
        0
 66
   257
 43
1.0
 76
     1
 77
     6
 78
     2
 67
     7
 79
     3
170
     0
171
     0
290
     0
174
     0
 93
        1
 44
0.0
173
     0
291
     0
 45
0.0
1001
ACAD
1000
AcDbSavedByObjectVersion
1070
     0
  0
VISUALSTYLE
  5
3C
102
{ACAD_XDICTIONARY
360
F1A
102
}
102
{ACAD_REACTORS
330
29
102
}
330
29
100
AcDbVisualStyle
  2
X-Ray
 70
    25
 71
     2
 72
     2
 73
     1
 90
        1
 40
0.5
 41
-30.0
 62
     5
 63
     7
 74
     1
 91
        0
 64
     7
 65
   257
 75
     1
175
     1
 42
1.0
 92
        8
 66
     7
 43
1.0
 76
     1
 77
     6
 78
     2
 67
     7
 79
     3
170
     0
171
     0
290
     0
174
     0
 93
       13
 44
0.0
173
     0
291
     0
 45
0.0
1001
ACAD
1000
AcDbSavedByObjectVersion
1070
     0
  0
DICTIONARYVAR
  5
DE5
102
{ACAD_REACTORS
330
DE2
102
}
330
DE2
100
DictionaryVariables
280
     0
  1
1:1
  0
DICTIONARYVAR
  5
DE4
102
{ACAD_REACTORS
330
DE2
102
}
330
DE2
100
DictionaryVariables
280
     0
  1
STANDARD
  0
DICTIONARYVAR
  5
DE3
102
{ACAD_REACTORS
330
DE2
102
}
330
DE2
100
DictionaryVariables
280
     0
  1
STANDARD
  0
DICTIONARYVAR
  5
DE8
102
{ACAD_REACTORS
330
DE2
102
}
330
DE2
100
DictionaryVariables
280
     0
  1
1
  0
DICTIONARYVAR
  5
DE7
102
{ACAD_REACTORS
330
DE2
102
}
330
DE2
100
DictionaryVariables
280
     0
  1
0
  0
DICTIONARYVAR
  5
DE6
102
{ACAD_REACTORS
330
DE2
102
}
330
DE2
100
DictionaryVariables
280
     0
  1
127
  0
DICTIONARYVAR
  5
DE9
102
{ACAD_REACTORS
330
DE2
102
}
330
DE2
100
DictionaryVariables
280
     0
  1
2
  0
DICTIONARY
  5
F2A
330
6E
100
AcDbDictionary
280
     1
281
     1
  3
ACAD_XREC_ROUNDTRIP
360
F2B
  0
DICTIONARY
  5
F28
330
6A
100
AcDbDictionary
280
     1
281
     1
  3
ACAD_XREC_ROUNDTRIP
360
F29
  0
DICTIONARY
  5
1A
330
19
100
AcDbDictionary
280
     1
281
     1
  3
ACAD_XREC_ROUNDTRIP
360
EF4
  3
BUMPTILE
360
1C
  3
DIFFUSETILE
360
1B
  3
OPACITYTILE
360
1F
  3
REFLECTIONTILE
360
1E
  3
REFRACTIONTILE
360
20
  3
SPECULARTILE
360
1D
  0
DICTIONARY
  5
12
330
11
100
AcDbDictionary
280
     1
281
     1
  3
ACAD_XREC_ROUNDTRIP
360
EF3
  3
BUMPTILE
360
14
  3
DIFFUSETILE
360
13
  3
OPACITYTILE
360
17
  3
REFLECTIONTILE
360
16
  3
REFRACTIONTILE
360
18
  3
SPECULARTILE
360
15
  0
DICTIONARY
  5
22
330
21
100
AcDbDictionary
280
     1
281
     1
  3
ACAD_XREC_ROUNDTRIP
360
EF5
  3
BUMPTILE
360
24
  3
DIFFUSETILE
360
23
  3
OPACITYTILE
360
27
  3
REFLECTIONTILE
360
26
  3
REFRACTIONTILE
360
28
  3
SPECULARTILE
360
25
  0
DICTIONARY
  5
EEB
330
64
100
AcDbDictionary
280
     1
281
     1
  3
ACAD_ROUNDTRIP_2008_TABLESTYLE_CELLSTYLEMAP
360
EEC
  3
ACAD_XREC_ROUNDTRIP
360
F26
  0
DICTIONARY
  5
F00
330
2F
100
AcDbDictionary
280
     1
281
     1
  3
ACAD_XREC_ROUNDTRIP
360
F01
  0
DICTIONARY
  5
F2E
330
B30
100
AcDbDictionary
280
     1
281
     1
  3
ACAD_XREC_ROUNDTRIP
360
F2F
  0
DICTIONARY
  5
EFE
330
2E
100
AcDbDictionary
280
     1
281
     1
  3
ACAD_XREC_ROUNDTRIP
360
EFF
  0
DICTIONARY
  5
F0C
330
35
100
AcDbDictionary
280
     1
281
     1
  3
ACAD_XREC_ROUNDTRIP
360
F0D
  0
DICTIONARY
  5
F14
330
39
100
AcDbDictionary
280
     1
281
     1
  3
ACAD_XREC_ROUNDTRIP
360
F15
  0
DICTIONARY
  5
F06
330
32
100
AcDbDictionary
280
     1
281
     1
  3
ACAD_XREC_ROUNDTRIP
360
F07
  0
DICTIONARY
  5
F0A
330
34
100
AcDbDictionary
280
     1
281
     1
  3
ACAD_XREC_ROUNDTRIP
360
F0B
  0
DICTIONARY
  5
F24
330
41
100
AcDbDictionary
280
     1
281
     1
  3
ACAD_XREC_ROUNDTRIP
360
F25
  0
DICTIONARY
  5
F12
330
38
100
AcDbDictionary
280
     1
281
     1
  3
ACAD_XREC_ROUNDTRIP
360
F13
  0
DICTIONARY
  5
EF6
330
2A
100
AcDbDictionary
280
     1
281
     1
  3
ACAD_XREC_ROUNDTRIP
360
EF7
  0
DICTIONARY
  5
EF8
330
2B
100
AcDbDictionary
280
     1
281
     1
  3
ACAD_XREC_ROUNDTRIP
360
EF9
  0
DICTIONARY
  5
EFA
330
2C
100
AcDbDictionary
280
     1
281
     1
  3
ACAD_XREC_ROUNDTRIP
360
EFB
  0
DICTIONARY
  5
EFC
330
2D
100
AcDbDictionary
280
     1
281
     1
  3
ACAD_XREC_ROUNDTRIP
360
EFD
  0
DICTIONARY
  5
F04
330
31
100
AcDbDictionary
280
     1
281
     1
  3
ACAD_XREC_ROUNDTRIP
360
F05
  0
DICTIONARY
  5
F20
330
3F
100
AcDbDictionary
280
     1
281
     1
  3
ACAD_XREC_ROUNDTRIP
360
F21
  0
DICTIONARY
  5
F10
330
37
100
AcDbDictionary
280
     1
281
     1
  3
ACAD_XREC_ROUNDTRIP
360
F11
  0
DICTIONARY
  5
F22
330
40
100
AcDbDictionary
280
     1
281
     1
  3
ACAD_XREC_ROUNDTRIP
360
F23
  0
DICTIONARY
  5
F08
330
33
100
AcDbDictionary
280
     1
281
     1
  3
ACAD_XREC_ROUNDTRIP
360
F09
  0
DICTIONARY
  5
F1E
330
3E
100
AcDbDictionary
280
     1
281
     1
  3
ACAD_XREC_ROUNDTRIP
360
F1F
  0
DICTIONARY
  5
F1C
330
3D
100
AcDbDictionary
280
     1
281
     1
  3
ACAD_XREC_ROUNDTRIP
360
F1D
  0
DICTIONARY
  5
F16
330
3A
100
AcDbDictionary
280
     1
281
     1
  3
ACAD_XREC_ROUNDTRIP
360
F17
  0
DICTIONARY
  5
F18
330
3B
100
AcDbDictionary
280
     1
281
     1
  3
ACAD_XREC_ROUNDTRIP
360
F19
  0
DICTIONARY
  5
F0E
330
36
100
AcDbDictionary
280
     1
281
     1
  3
ACAD_XREC_ROUNDTRIP
360
F0F
  0
DICTIONARY
  5
F02
330
30
100
AcDbDictionary
280
     1
281
     1
  3
ACAD_XREC_ROUNDTRIP
360
F03
  0
DICTIONARY
  5
F1A
330
3C
100
AcDbDictionary
280
     1
281
     1
  3
ACAD_XREC_ROUNDTRIP
360
F1B
  0
XRECORD
  5
F2B
102
{ACAD_REACTORS
330
F2A
102
}
330
F2A
100
AcDbXrecord
280
     1
102
SHADEPLOT
 70
     0
102
SHADEPLOTRESLEVEL
 70
     2
102
SHADEPLOTCUSTOMDPI
 70
   300
  0
XRECORD
  5
F29
102
{ACAD_REACTORS
330
F28
102
}
330
F28
100
AcDbXrecord
280
     1
102
SHADEPLOT
 70
     0
102
SHADEPLOTRESLEVEL
 70
     2
102
SHADEPLOTCUSTOMDPI
 70
   300
  0
XRECORD
  5
EF4
102
{ACAD_REACTORS
330
1A
102
}
330
1A
100
AcDbXrecord
280
     1
102
MATERIAL
148
0.0
149
0.0
149
0.0
 93
        0
 94
      127
282
     0
 72
     0
 77
     0
171
     0
175
     0
179
     0
273
     0
  0
XRECORD
  5
1C
102
{ACAD_REACTORS
330
1A
102
}
330
1A
100
AcDbXrecord
280
     1
270
     1
271
     1
  0
XRECORD
  5
1B
102
{ACAD_REACTORS
330
1A
102
}
330
1A
100
AcDbXrecord
280
     1
270
     1
271
     1
  0
XRECORD
  5
1F
102
{ACAD_REACTORS
330
1A
102
}
330
1A
100
AcDbXrecord
280
     1
270
     1
271
     1
  0
XRECORD
  5
1E
102
{ACAD_REACTORS
330
1A
102
}
330
1A
100
AcDbXrecord
280
     1
270
     1
271
     1
  0
XRECORD
  5
20
102
{ACAD_REACTORS
330
1A
102
}
330
1A
100
AcDbXrecord
280
     1
270
     1
271
     1
  0
XRECORD
  5
1D
102
{ACAD_REACTORS
330
1A
102
}
330
1A
100
AcDbXrecord
280
     1
270
     1
271
     1
  0
XRECORD
  5
EF3
102
{ACAD_REACTORS
330
12
102
}
330
12
100
AcDbXrecord
280
     1
102
MATERIAL
148
0.0
149
0.0
149
0.0
 93
        0
 94
      127
282
     0
 72
     0
 77
     0
171
     0
175
     0
179
     0
273
     0
  0
XRECORD
  5
14
102
{ACAD_REACTORS
330
12
102
}
330
12
100
AcDbXrecord
280
     1
270
     1
271
     1
  0
XRECORD
  5
13
102
{ACAD_REACTORS
330
12
102
}
330
12
100
AcDbXrecord
280
     1
270
     1
271
     1
  0
XRECORD
  5
17
102
{ACAD_REACTORS
330
12
102
}
330
12
100
AcDbXrecord
280
     1
270
     1
271
     1
  0
XRECORD
  5
16
102
{ACAD_REACTORS
330
12
102
}
330
12
100
AcDbXrecord
280
     1
270
     1
271
     1
  0
XRECORD
  5
18
102
{ACAD_REACTORS
330
12
102
}
330
12
100
AcDbXrecord
280
     1
270
     1
271
     1
  0
XRECORD
  5
15
102
{ACAD_REACTORS
330
12
102
}
330
12
100
AcDbXrecord
280
     1
270
     1
271
     1
  0
XRECORD
  5
EF5
102
{ACAD_REACTORS
330
22
102
}
330
22
100
AcDbXrecord
280
     1
102
MATERIAL
148
0.0
149
0.0
149
0.0
 93
        0
 94
      127
282
     0
 72
     0
 77
     0
171
     0
175
     0
179
     0
273
     0
  0
XRECORD
  5
24
102
{ACAD_REACTORS
330
22
102
}
330
22
100
AcDbXrecord
280
     1
270
     1
271
     1
  0
XRECORD
  5
23
102
{ACAD_REACTORS
330
22
102
}
330
22
100
AcDbXrecord
280
     1
270
     1
271
     1
  0
XRECORD
  5
27
102
{ACAD_REACTORS
330
22
102
}
330
22
100
AcDbXrecord
280
     1
270
     1
271
     1
  0
XRECORD
  5
26
102
{ACAD_REACTORS
330
22
102
}
330
22
100
AcDbXrecord
280
     1
270
     1
271
     1
  0
XRECORD
  5
28
102
{ACAD_REACTORS
330
22
102
}
330
22
100
AcDbXrecord
280
     1
270
     1
271
     1
  0
XRECORD
  5
25
102
{ACAD_REACTORS
330
22
102
}
330
22
100
AcDbXrecord
280
     1
270
     1
271
     1
  0
CELLSTYLEMAP
  5
EEC
102
{ACAD_REACTORS
330
EEB
102
}
330
EEB
100
AcDbCellStyleMap
 90
        3
300
CELLSTYLE
  1
TABLEFORMAT_BEGIN
 90
        5
170
     1
 91
        0
 92
    32768
 62
   257
 93
        1
300
CONTENTFORMAT
  1
CONTENTFORMAT_BEGIN
 90
        0
 91
        0
 92
      512
 93
        0
300

 40
0.0
140
1.0
 94
        5
 62
     0
340
55
144
0.25
309
CONTENTFORMAT_END
171
     0
 94
        0
309
TABLEFORMAT_END
  1
CELLSTYLE_BEGIN
 90
        1
 91
        1
300
_TITLE
309
CELLSTYLE_END
300
CELLSTYLE
  1
TABLEFORMAT_BEGIN
 90
        5
170
     1
 91
        0
 92
        0
 62
   257
 93
        1
300
CONTENTFORMAT
  1
CONTENTFORMAT_BEGIN
 90
        0
 91
        0
 92
      512
 93
        0
300

 40
0.0
140
1.0
 94
        5
 62
     0
340
55
144
0.18
309
CONTENTFORMAT_END
171
     0
 94
        0
309
TABLEFORMAT_END
  1
CELLSTYLE_BEGIN
 90
        2
 91
        1
300
_HEADER
309
CELLSTYLE_END
300
CELLSTYLE
  1
TABLEFORMAT_BEGIN
 90
        5
170
     1
 91
        0
 92
        0
 62
   257
 93
        1
300
CONTENTFORMAT
  1
CONTENTFORMAT_BEGIN
 90
        0
 91
        0
 92
      512
 93
        0
300

 40
0.0
140
1.0
 94
        2
 62
     0
340
55
144
0.18
309
CONTENTFORMAT_END
171
     0
 94
        0
309
TABLEFORMAT_END
  1
CELLSTYLE_BEGIN
 90
        3
 91
        2
300
_DATA
309
CELLSTYLE_END
  0
XRECORD
  5
F26
102
{ACAD_REACTORS
330
EEB
102
}
330
EEB
100
AcDbXrecord
280
     1
102
ACAD_ROUNDTRIP_PRE2007_TABLESTYLE
 90
      512
 91
        0
  1

 92
      512
 93
        0
  2

 94
      512
 95
        0
  3

  0
XRECORD
  5
F01
102
{ACAD_REACTORS
330
F00
102
}
330
F00
100
AcDbXrecord
280
     1
102
RTVSPropertyOp0
 70
     1
102
RTVSPropertyOp1
 70
     1
102
RTVSPropertyOp2
 70
     1
102
RTVSPropertyOp3
 70
     1
102
RTVSPropertyOp4
 70
     1
102
RTVSPropertyOp5
 70
     1
102
RTVSPropertyOp6
 70
     1
102
RTVSPropertyOp7
 70
     1
102
RTVSPropertyOp8
 70
     1
102
RTVSPropertyOp9
 70
     1
102
RTVSPropertyOp10
 70
     1
102
RTVSPropertyOp11
 70
     1
102
RTVSPropertyOp12
 70
     1
102
RTVSPropertyOp13
 70
     1
102
RTVSPropertyOp14
 70
     1
102
RTVSPropertyOp15
 70
     1
102
RTVSPropertyOp16
 70
     1
102
RTVSPropertyOp17
 70
     1
102
RTVSPropertyOp18
 70
     1
102
RTVSPropertyOp19
 70
     1
102
RTVSPropertyOp20
 70
     1
102
RTVSPropertyOp21
 70
     1
102
RTVSPropertyOp22
 70
     1
102
RTVSPropertyOp23
 70
     1
102
RTVSPropertyOp24
 70
     1
102
RTVSPropertyOp25
 70
     1
102
RTVSPropertyOp26
 70
     1
102
RTVSPropertyOp27
 70
     1
102
RTVSPropertyOp28
 70
     1
102
RTVSPropertyOp29
 70
     1
102
RTVSPropertyOp30
 70
     1
102
RTVSPropertyOp31
 70
     1
102
RTVSPropertyOp32
 70
     1
  0
XRECORD
  5
F2F
102
{ACAD_REACTORS
330
F2E
102
}
330
F2E
100
AcDbXrecord
280
     1
102
RTVSPropertyOp0
 70
     1
102
RTVSPropertyOp1
 70
     1
102
RTVSPropertyOp2
 70
     1
102
RTVSPropertyOp3
 70
     1
102
RTVSPropertyOp4
 70
     1
102
RTVSPropertyOp5
 70
     1
102
RTVSPropertyOp6
 70
     1
102
RTVSPropertyOp7
 70
     1
102
RTVSPropertyOp8
 70
     1
102
RTVSPropertyOp9
 70
     1
102
RTVSPropertyOp10
 70
     1
102
RTVSPropertyOp11
 70
     1
102
RTVSPropertyOp12
 70
     1
102
RTVSPropertyOp13
 70
     1
102
RTVSPropertyOp14
 70
     1
102
RTVSPropertyOp15
 70
     1
102
RTVSPropertyOp16
 70
     1
102
RTVSPropertyOp17
 70
     1
102
RTVSPropertyOp18
 70
     1
102
RTVSPropertyOp19
 70
     1
102
RTVSPropertyOp20
 70
     1
102
RTVSPropertyOp21
 70
     1
102
RTVSPropertyOp22
 70
     1
102
RTVSPropertyOp23
 70
     1
102
RTVSPropertyOp24
 70
     1
102
RTVSPropertyOp25
 70
     1
102
RTVSPropertyOp26
 70
     1
102
RTVSPropertyOp27
 70
     1
102
RTVSPropertyOp28
 70
     1
102
RTVSPropertyOp29
 70
     1
102
RTVSPropertyOp30
 70
     1
102
RTVSPropertyOp31
 70
     1
102
RTVSPropertyOp32
 70
     1
  0
XRECORD
  5
EFF
102
{ACAD_REACTORS
330
EFE
102
}
330
EFE
100
AcDbXrecord
280
     1
102
RTVSPropertyOp0
 70
     1
102
RTVSPropertyOp1
 70
     1
102
RTVSPropertyOp2
 70
     1
102
RTVSPropertyOp3
 70
     1
102
RTVSPropertyOp4
 70
     1
102
RTVSPropertyOp5
 70
     1
102
RTVSPropertyOp6
 70
     1
102
RTVSPropertyOp7
 70
     1
102
RTVSPropertyOp8
 70
     1
102
RTVSPropertyOp9
 70
     1
102
RTVSPropertyOp10
 70
     1
102
RTVSPropertyOp11
 70
     1
102
RTVSPropertyOp12
 70
     1
102
RTVSPropertyOp13
 70
     1
102
RTVSPropertyOp14
 70
     1
102
RTVSPropertyOp15
 70
     1
102
RTVSPropertyOp16
 70
     1
102
RTVSPropertyOp17
 70
     1
102
RTVSPropertyOp18
 70
     1
102
RTVSPropertyOp19
 70
     1
102
RTVSPropertyOp20
 70
     1
102
RTVSPropertyOp21
 70
     1
102
RTVSPropertyOp22
 70
     1
102
RTVSPropertyOp23
 70
     1
102
RTVSPropertyOp24
 70
     1
102
RTVSPropertyOp25
 70
     1
102
RTVSPropertyOp26
 70
     1
102
RTVSPropertyOp27
 70
     1
102
RTVSPropertyOp28
 70
     1
102
RTVSPropertyOp29
 70
     1
102
RTVSPropertyOp30
 70
     1
102
RTVSPropertyOp31
 70
     1
102
RTVSPropertyOp32
 70
     1
  0
XRECORD
  5
F0D
102
{ACAD_REACTORS
330
F0C
102
}
330
F0C
100
AcDbXrecord
280
     1
102
RTVSPropertyOp0
 70
     1
102
RTVSPropertyOp1
 70
     1
102
RTVSPropertyOp2
 70
     1
102
RTVSPropertyOp3
 70
     1
102
RTVSPropertyOp4
 70
     1
102
RTVSPropertyOp5
 70
     1
102
RTVSPropertyOp6
 70
     1
102
RTVSPropertyOp7
 70
     1
102
RTVSPropertyOp8
 70
     1
102
RTVSPropertyOp9
 70
     1
102
RTVSPropertyOp10
 70
     1
102
RTVSPropertyOp11
 70
     1
102
RTVSPropertyOp12
 70
     1
102
RTVSPropertyOp13
 70
     1
102
RTVSPropertyOp14
 70
     1
102
RTVSPropertyOp15
 70
     1
102
RTVSPropertyOp16
 70
     1
102
RTVSPropertyOp17
 70
     1
102
RTVSPropertyOp18
 70
     1
102
RTVSPropertyOp19
 70
     1
102
RTVSPropertyOp20
 70
     1
102
RTVSPropertyOp21
 70
     1
102
RTVSPropertyOp22
 70
     1
102
RTVSPropertyOp23
 70
     1
102
RTVSPropertyOp24
 70
     1
102
RTVSPropertyOp25
 70
     1
102
RTVSPropertyOp26
 70
     1
102
RTVSPropertyOp27
 70
     1
102
RTVSPropertyOp28
 70
     1
102
RTVSPropertyOp29
 70
     1
102
RTVSPropertyOp30
 70
     1
102
RTVSPropertyOp31
 70
     1
102
RTVSPropertyOp32
 70
     1
  0
XRECORD
  5
F15
102
{ACAD_REACTORS
330
F14
102
}
330
F14
100
AcDbXrecord
280
     1
102
RTVSPropertyOp0
 70
     1
102
RTVSPropertyOp1
 70
     1
102
RTVSPropertyOp2
 70
     1
102
RTVSPropertyOp3
 70
     1
102
RTVSPropertyOp4
 70
     1
102
RTVSPropertyOp5
 70
     1
102
RTVSPropertyOp6
 70
     1
102
RTVSPropertyOp7
 70
     1
102
RTVSPropertyOp8
 70
     1
102
RTVSPropertyOp9
 70
     1
102
RTVSPropertyOp10
 70
     1
102
RTVSPropertyOp11
 70
     1
102
RTVSPropertyOp12
 70
     1
102
RTVSPropertyOp13
 70
     1
102
RTVSPropertyOp14
 70
     1
102
RTVSPropertyOp15
 70
     1
102
RTVSPropertyOp16
 70
     1
102
RTVSPropertyOp17
 70
     1
102
RTVSPropertyOp18
 70
     1
102
RTVSPropertyOp19
 70
     1
102
RTVSPropertyOp20
 70
     1
102
RTVSPropertyOp21
 70
     1
102
RTVSPropertyOp22
 70
     1
102
RTVSPropertyOp23
 70
     1
102
RTVSPropertyOp24
 70
     1
102
RTVSPropertyOp25
 70
     1
102
RTVSPropertyOp26
 70
     1
102
RTVSPropertyOp27
 70
     1
102
RTVSPropertyOp28
 70
     1
102
RTVSPropertyOp29
 70
     1
102
RTVSPropertyOp30
 70
     1
102
RTVSPropertyOp31
 70
     1
102
RTVSPropertyOp32
 70
     1
  0
XRECORD
  5
F07
102
{ACAD_REACTORS
330
F06
102
}
330
F06
100
AcDbXrecord
280
     1
102
RTVSPropertyOp0
 70
     1
102
RTVSPropertyOp1
 70
     1
102
RTVSPropertyOp2
 70
     1
102
RTVSPropertyOp3
 70
     1
102
RTVSPropertyOp4
 70
     1
102
RTVSPropertyOp5
 70
     1
102
RTVSPropertyOp6
 70
     1
102
RTVSPropertyOp7
 70
     1
102
RTVSPropertyOp8
 70
     1
102
RTVSPropertyOp9
 70
     1
102
RTVSPropertyOp10
 70
     1
102
RTVSPropertyOp11
 70
     1
102
RTVSPropertyOp12
 70
     1
102
RTVSPropertyOp13
 70
     1
102
RTVSPropertyOp14
 70
     1
102
RTVSPropertyOp15
 70
     1
102
RTVSPropertyOp16
 70
     1
102
RTVSPropertyOp17
 70
     1
102
RTVSPropertyOp18
 70
     1
102
RTVSPropertyOp19
 70
     1
102
RTVSPropertyOp20
 70
     1
102
RTVSPropertyOp21
 70
     1
102
RTVSPropertyOp22
 70
     1
102
RTVSPropertyOp23
 70
     1
102
RTVSPropertyOp24
 70
     1
102
RTVSPropertyOp25
 70
     1
102
RTVSPropertyOp26
 70
     1
102
RTVSPropertyOp27
 70
     1
102
RTVSPropertyOp28
 70
     1
102
RTVSPropertyOp29
 70
     1
102
RTVSPropertyOp30
 70
     1
102
RTVSPropertyOp31
 70
     1
102
RTVSPropertyOp32
 70
     1
  0
XRECORD
  5
F0B
102
{ACAD_REACTORS
330
F0A
102
}
330
F0A
100
AcDbXrecord
280
     1
102
RTVSPropertyOp0
 70
     1
102
RTVSPropertyOp1
 70
     1
102
RTVSPropertyOp2
 70
     1
102
RTVSPropertyOp3
 70
     1
102
RTVSPropertyOp4
 70
     1
102
RTVSPropertyOp5
 70
     1
102
RTVSPropertyOp6
 70
     1
102
RTVSPropertyOp7
 70
     1
102
RTVSPropertyOp8
 70
     1
102
RTVSPropertyOp9
 70
     1
102
RTVSPropertyOp10
 70
     1
102
RTVSPropertyOp11
 70
     1
102
RTVSPropertyOp12
 70
     1
102
RTVSPropertyOp13
 70
     1
102
RTVSPropertyOp14
 70
     1
102
RTVSPropertyOp15
 70
     1
102
RTVSPropertyOp16
 70
     1
102
RTVSPropertyOp17
 70
     1
102
RTVSPropertyOp18
 70
     1
102
RTVSPropertyOp19
 70
     1
102
RTVSPropertyOp20
 70
     1
102
RTVSPropertyOp21
 70
     1
102
RTVSPropertyOp22
 70
     1
102
RTVSPropertyOp23
 70
     1
102
RTVSPropertyOp24
 70
     1
102
RTVSPropertyOp25
 70
     1
102
RTVSPropertyOp26
 70
     1
102
RTVSPropertyOp27
 70
     1
102
RTVSPropertyOp28
 70
     1
102
RTVSPropertyOp29
 70
     1
102
RTVSPropertyOp30
 70
     1
102
RTVSPropertyOp31
 70
     1
102
RTVSPropertyOp32
 70
     1
  0
XRECORD
  5
F25
102
{ACAD_REACTORS
330
F24
102
}
330
F24
100
AcDbXrecord
280
     1
102
RTVSPropertyOp0
 70
     0
102
RTVSPropertyOp1
 70
     0
102
RTVSPropertyOp2
 70
     0
102
RTVSPropertyOp3
 70
     0
102
RTVSPropertyOp4
 70
     0
102
RTVSPropertyOp5
 70
     0
102
RTVSPropertyOp6
 70
     0
102
RTVSPropertyOp7
 70
     0
102
RTVSPropertyOp8
 70
     0
102
RTVSPropertyOp9
 70
     0
102
RTVSPropertyOp10
 70
     0
102
RTVSPropertyOp11
 70
     0
102
RTVSPropertyOp12
 70
     0
102
RTVSPropertyOp13
 70
     0
102
RTVSPropertyOp14
 70
     2
102
RTVSPropertyOp15
 70
     0
102
RTVSPropertyOp16
 70
     0
102
RTVSPropertyOp17
 70
     0
102
RTVSPropertyOp18
 70
     0
102
RTVSPropertyOp19
 70
     0
102
RTVSPropertyOp20
 70
     0
102
RTVSPropertyOp21
 70
     0
102
RTVSPropertyOp22
 70
     0
102
RTVSPropertyOp23
 70
     0
102
RTVSPropertyOp24
 70
     0
102
RTVSPropertyOp25
 70
     0
102
RTVSPropertyOp26
 70
     0
102
RTVSPropertyOp27
 70
     0
102
RTVSPropertyOp28
 70
     0
102
RTVSPropertyOp29
 70
     0
102
RTVSPropertyOp30
 70
     0
102
RTVSPropertyOp31
 70
     0
102
RTVSPropertyOp32
 70
     0
  0
XRECORD
  5
F13
102
{ACAD_REACTORS
330
F12
102
}
330
F12
100
AcDbXrecord
280
     1
102
RTVSPropertyOp0
 70
     1
102
RTVSPropertyOp1
 70
     1
102
RTVSPropertyOp2
 70
     1
102
RTVSPropertyOp3
 70
     1
102
RTVSPropertyOp4
 70
     1
102
RTVSPropertyOp5
 70
     1
102
RTVSPropertyOp6
 70
     1
102
RTVSPropertyOp7
 70
     1
102
RTVSPropertyOp8
 70
     1
102
RTVSPropertyOp9
 70
     1
102
RTVSPropertyOp10
 70
     1
102
RTVSPropertyOp11
 70
     1
102
RTVSPropertyOp12
 70
     1
102
RTVSPropertyOp13
 70
     1
102
RTVSPropertyOp14
 70
     1
102
RTVSPropertyOp15
 70
     1
102
RTVSPropertyOp16
 70
     1
102
RTVSPropertyOp17
 70
     1
102
RTVSPropertyOp18
 70
     1
102
RTVSPropertyOp19
 70
     1
102
RTVSPropertyOp20
 70
     1
102
RTVSPropertyOp21
 70
     1
102
RTVSPropertyOp22
 70
     1
102
RTVSPropertyOp23
 70
     1
102
RTVSPropertyOp24
 70
     1
102
RTVSPropertyOp25
 70
     1
102
RTVSPropertyOp26
 70
     1
102
RTVSPropertyOp27
 70
     1
102
RTVSPropertyOp28
 70
     1
102
RTVSPropertyOp29
 70
     1
102
RTVSPropertyOp30
 70
     1
102
RTVSPropertyOp31
 70
     1
102
RTVSPropertyOp32
 70
     1
  0
XRECORD
  5
EF7
102
{ACAD_REACTORS
330
EF6
102
}
330
EF6
100
AcDbXrecord
280
     1
102
RTVSPropertyOp0
 70
     1
102
RTVSPropertyOp1
 70
     1
102
RTVSPropertyOp2
 70
     1
102
RTVSPropertyOp3
 70
     1
102
RTVSPropertyOp4
 70
     1
102
RTVSPropertyOp5
 70
     1
102
RTVSPropertyOp6
 70
     1
102
RTVSPropertyOp7
 70
     1
102
RTVSPropertyOp8
 70
     1
102
RTVSPropertyOp9
 70
     1
102
RTVSPropertyOp10
 70
     1
102
RTVSPropertyOp11
 70
     1
102
RTVSPropertyOp12
 70
     1
102
RTVSPropertyOp13
 70
     1
102
RTVSPropertyOp14
 70
     1
102
RTVSPropertyOp15
 70
     1
102
RTVSPropertyOp16
 70
     1
102
RTVSPropertyOp17
 70
     1
102
RTVSPropertyOp18
 70
     1
102
RTVSPropertyOp19
 70
     1
102
RTVSPropertyOp20
 70
     1
102
RTVSPropertyOp21
 70
     1
102
RTVSPropertyOp22
 70
     1
102
RTVSPropertyOp23
 70
     1
102
RTVSPropertyOp24
 70
     1
102
RTVSPropertyOp25
 70
     1
102
RTVSPropertyOp26
 70
     1
102
RTVSPropertyOp27
 70
     1
102
RTVSPropertyOp28
 70
     1
102
RTVSPropertyOp29
 70
     1
102
RTVSPropertyOp30
 70
     1
102
RTVSPropertyOp31
 70
     1
102
RTVSPropertyOp32
 70
     1
  0
XRECORD
  5
EF9
102
{ACAD_REACTORS
330
EF8
102
}
330
EF8
100
AcDbXrecord
280
     1
102
RTVSPropertyOp0
 70
     1
102
RTVSPropertyOp1
 70
     1
102
RTVSPropertyOp2
 70
     1
102
RTVSPropertyOp3
 70
     1
102
RTVSPropertyOp4
 70
     1
102
RTVSPropertyOp5
 70
     1
102
RTVSPropertyOp6
 70
     1
102
RTVSPropertyOp7
 70
     1
102
RTVSPropertyOp8
 70
     1
102
RTVSPropertyOp9
 70
     1
102
RTVSPropertyOp10
 70
     1
102
RTVSPropertyOp11
 70
     1
102
RTVSPropertyOp12
 70
     1
102
RTVSPropertyOp13
 70
     1
102
RTVSPropertyOp14
 70
     1
102
RTVSPropertyOp15
 70
     1
102
RTVSPropertyOp16
 70
     1
102
RTVSPropertyOp17
 70
     1
102
RTVSPropertyOp18
 70
     1
102
RTVSPropertyOp19
 70
     1
102
RTVSPropertyOp20
 70
     1
102
RTVSPropertyOp21
 70
     1
102
RTVSPropertyOp22
 70
     1
102
RTVSPropertyOp23
 70
     1
102
RTVSPropertyOp24
 70
     1
102
RTVSPropertyOp25
 70
     1
102
RTVSPropertyOp26
 70
     1
102
RTVSPropertyOp27
 70
     1
102
RTVSPropertyOp28
 70
     1
102
RTVSPropertyOp29
 70
     1
102
RTVSPropertyOp30
 70
     1
102
RTVSPropertyOp31
 70
     1
102
RTVSPropertyOp32
 70
     1
  0
XRECORD
  5
EFB
102
{ACAD_REACTORS
330
EFA
102
}
330
EFA
100
AcDbXrecord
280
     1
102
RTVSPropertyOp0
 70
     1
102
RTVSPropertyOp1
 70
     1
102
RTVSPropertyOp2
 70
     1
102
RTVSPropertyOp3
 70
     1
102
RTVSPropertyOp4
 70
     1
102
RTVSPropertyOp5
 70
     1
102
RTVSPropertyOp6
 70
     1
102
RTVSPropertyOp7
 70
     1
102
RTVSPropertyOp8
 70
     1
102
RTVSPropertyOp9
 70
     1
102
RTVSPropertyOp10
 70
     1
102
RTVSPropertyOp11
 70
     1
102
RTVSPropertyOp12
 70
     1
102
RTVSPropertyOp13
 70
     1
102
RTVSPropertyOp14
 70
     1
102
RTVSPropertyOp15
 70
     1
102
RTVSPropertyOp16
 70
     1
102
RTVSPropertyOp17
 70
     1
102
RTVSPropertyOp18
 70
     1
102
RTVSPropertyOp19
 70
     1
102
RTVSPropertyOp20
 70
     1
102
RTVSPropertyOp21
 70
     1
102
RTVSPropertyOp22
 70
     1
102
RTVSPropertyOp23
 70
     1
102
RTVSPropertyOp24
 70
     1
102
RTVSPropertyOp25
 70
     1
102
RTVSPropertyOp26
 70
     1
102
RTVSPropertyOp27
 70
     1
102
RTVSPropertyOp28
 70
     1
102
RTVSPropertyOp29
 70
     1
102
RTVSPropertyOp30
 70
     1
102
RTVSPropertyOp31
 70
     1
102
RTVSPropertyOp32
 70
     1
  0
XRECORD
  5
EFD
102
{ACAD_REACTORS
330
EFC
102
}
330
EFC
100
AcDbXrecord
280
     1
102
RTVSPropertyOp0
 70
     1
102
RTVSPropertyOp1
 70
     1
102
RTVSPropertyOp2
 70
     1
102
RTVSPropertyOp3
 70
     1
102
RTVSPropertyOp4
 70
     1
102
RTVSPropertyOp5
 70
     1
102
RTVSPropertyOp6
 70
     1
102
RTVSPropertyOp7
 70
     1
102
RTVSPropertyOp8
 70
     1
102
RTVSPropertyOp9
 70
     1
102
RTVSPropertyOp10
 70
     1
102
RTVSPropertyOp11
 70
     1
102
RTVSPropertyOp12
 70
     1
102
RTVSPropertyOp13
 70
     1
102
RTVSPropertyOp14
 70
     1
102
RTVSPropertyOp15
 70
     1
102
RTVSPropertyOp16
 70
     1
102
RTVSPropertyOp17
 70
     1
102
RTVSPropertyOp18
 70
     1
102
RTVSPropertyOp19
 70
     1
102
RTVSPropertyOp20
 70
     1
102
RTVSPropertyOp21
 70
     1
102
RTVSPropertyOp22
 70
     1
102
RTVSPropertyOp23
 70
     1
102
RTVSPropertyOp24
 70
     1
102
RTVSPropertyOp25
 70
     1
102
RTVSPropertyOp26
 70
     1
102
RTVSPropertyOp27
 70
     1
102
RTVSPropertyOp28
 70
     1
102
RTVSPropertyOp29
 70
     1
102
RTVSPropertyOp30
 70
     1
102
RTVSPropertyOp31
 70
     1
102
RTVSPropertyOp32
 70
     1
  0
XRECORD
  5
F05
102
{ACAD_REACTORS
330
F04
102
}
330
F04
100
AcDbXrecord
280
     1
102
RTVSPropertyOp0
 70
     1
102
RTVSPropertyOp1
 70
     1
102
RTVSPropertyOp2
 70
     1
102
RTVSPropertyOp3
 70
     1
102
RTVSPropertyOp4
 70
     1
102
RTVSPropertyOp5
 70
     1
102
RTVSPropertyOp6
 70
     1
102
RTVSPropertyOp7
 70
     1
102
RTVSPropertyOp8
 70
     1
102
RTVSPropertyOp9
 70
     1
102
RTVSPropertyOp10
 70
     1
102
RTVSPropertyOp11
 70
     1
102
RTVSPropertyOp12
 70
     1
102
RTVSPropertyOp13
 70
     1
102
RTVSPropertyOp14
 70
     1
102
RTVSPropertyOp15
 70
     1
102
RTVSPropertyOp16
 70
     1
102
RTVSPropertyOp17
 70
     1
102
RTVSPropertyOp18
 70
     1
102
RTVSPropertyOp19
 70
     1
102
RTVSPropertyOp20
 70
     1
102
RTVSPropertyOp21
 70
     1
102
RTVSPropertyOp22
 70
     1
102
RTVSPropertyOp23
 70
     1
102
RTVSPropertyOp24
 70
     1
102
RTVSPropertyOp25
 70
     1
102
RTVSPropertyOp26
 70
     1
102
RTVSPropertyOp27
 70
     1
102
RTVSPropertyOp28
 70
     1
102
RTVSPropertyOp29
 70
     1
102
RTVSPropertyOp30
 70
     1
102
RTVSPropertyOp31
 70
     1
102
RTVSPropertyOp32
 70
     1
  0
XRECORD
  5
F21
102
{ACAD_REACTORS
330
F20
102
}
330
F20
100
AcDbXrecord
280
     1
102
RTVSPropertyOp0
 70
     0
102
RTVSPropertyOp1
 70
     0
102
RTVSPropertyOp2
 70
     0
102
RTVSPropertyOp3
 70
     0
102
RTVSPropertyOp4
 70
     0
102
RTVSPropertyOp5
 70
     0
102
RTVSPropertyOp6
 70
     0
102
RTVSPropertyOp7
 70
     0
102
RTVSPropertyOp8
 70
     0
102
RTVSPropertyOp9
 70
     0
102
RTVSPropertyOp10
 70
     0
102
RTVSPropertyOp11
 70
     0
102
RTVSPropertyOp12
 70
     0
102
RTVSPropertyOp13
 70
     0
102
RTVSPropertyOp14
 70
     2
102
RTVSPropertyOp15
 70
     0
102
RTVSPropertyOp16
 70
     0
102
RTVSPropertyOp17
 70
     0
102
RTVSPropertyOp18
 70
     0
102
RTVSPropertyOp19
 70
     0
102
RTVSPropertyOp20
 70
     0
102
RTVSPropertyOp21
 70
     0
102
RTVSPropertyOp22
 70
     0
102
RTVSPropertyOp23
 70
     0
102
RTVSPropertyOp24
 70
     0
102
RTVSPropertyOp25
 70
     0
102
RTVSPropertyOp26
 70
     0
102
RTVSPropertyOp27
 70
     0
102
RTVSPropertyOp28
 70
     0
102
RTVSPropertyOp29
 70
     0
102
RTVSPropertyOp30
 70
     0
102
RTVSPropertyOp31
 70
     0
102
RTVSPropertyOp32
 70
     0
  0
XRECORD
  5
F11
102
{ACAD_REACTORS
330
F10
102
}
330
F10
100
AcDbXrecord
280
     1
102
RTVSPropertyOp0
 70
     1
102
RTVSPropertyOp1
 70
     1
102
RTVSPropertyOp2
 70
     1
102
RTVSPropertyOp3
 70
     1
102
RTVSPropertyOp4
 70
     1
102
RTVSPropertyOp5
 70
     1
102
RTVSPropertyOp6
 70
     1
102
RTVSPropertyOp7
 70
     1
102
RTVSPropertyOp8
 70
     1
102
RTVSPropertyOp9
 70
     1
102
RTVSPropertyOp10
 70
     1
102
RTVSPropertyOp11
 70
     1
102
RTVSPropertyOp12
 70
     1
102
RTVSPropertyOp13
 70
     1
102
RTVSPropertyOp14
 70
     1
102
RTVSPropertyOp15
 70
     1
102
RTVSPropertyOp16
 70
     1
102
RTVSPropertyOp17
 70
     1
102
RTVSPropertyOp18
 70
     1
102
RTVSPropertyOp19
 70
     1
102
RTVSPropertyOp20
 70
     1
102
RTVSPropertyOp21
 70
     1
102
RTVSPropertyOp22
 70
     1
102
RTVSPropertyOp23
 70
     1
102
RTVSPropertyOp24
 70
     1
102
RTVSPropertyOp25
 70
     1
102
RTVSPropertyOp26
 70
     1
102
RTVSPropertyOp27
 70
     1
102
RTVSPropertyOp28
 70
     1
102
RTVSPropertyOp29
 70
     1
102
RTVSPropertyOp30
 70
     1
102
RTVSPropertyOp31
 70
     1
102
RTVSPropertyOp32
 70
     1
  0
XRECORD
  5
F23
102
{ACAD_REACTORS
330
F22
102
}
330
F22
100
AcDbXrecord
280
     1
102
RTVSPropertyOp0
 70
     0
102
RTVSPropertyOp1
 70
     0
102
RTVSPropertyOp2
 70
     0
102
RTVSPropertyOp3
 70
     0
102
RTVSPropertyOp4
 70
     0
102
RTVSPropertyOp5
 70
     0
102
RTVSPropertyOp6
 70
     0
102
RTVSPropertyOp7
 70
     0
102
RTVSPropertyOp8
 70
     0
102
RTVSPropertyOp9
 70
     0
102
RTVSPropertyOp10
 70
     0
102
RTVSPropertyOp11
 70
     0
102
RTVSPropertyOp12
 70
     0
102
RTVSPropertyOp13
 70
     0
102
RTVSPropertyOp14
 70
     2
102
RTVSPropertyOp15
 70
     0
102
RTVSPropertyOp16
 70
     0
102
RTVSPropertyOp17
 70
     0
102
RTVSPropertyOp18
 70
     0
102
RTVSPropertyOp19
 70
     0
102
RTVSPropertyOp20
 70
     0
102
RTVSPropertyOp21
 70
     0
102
RTVSPropertyOp22
 70
     0
102
RTVSPropertyOp23
 70
     0
102
RTVSPropertyOp24
 70
     0
102
RTVSPropertyOp25
 70
     0
102
RTVSPropertyOp26
 70
     0
102
RTVSPropertyOp27
 70
     0
102
RTVSPropertyOp28
 70
     0
102
RTVSPropertyOp29
 70
     0
102
RTVSPropertyOp30
 70
     0
102
RTVSPropertyOp31
 70
     0
102
RTVSPropertyOp32
 70
     0
  0
XRECORD
  5
F09
102
{ACAD_REACTORS
330
F08
102
}
330
F08
100
AcDbXrecord
280
     1
102
RTVSPropertyOp0
 70
     1
102
RTVSPropertyOp1
 70
     1
102
RTVSPropertyOp2
 70
     1
102
RTVSPropertyOp3
 70
     1
102
RTVSPropertyOp4
 70
     1
102
RTVSPropertyOp5
 70
     1
102
RTVSPropertyOp6
 70
     1
102
RTVSPropertyOp7
 70
     1
102
RTVSPropertyOp8
 70
     1
102
RTVSPropertyOp9
 70
     1
102
RTVSPropertyOp10
 70
     1
102
RTVSPropertyOp11
 70
     1
102
RTVSPropertyOp12
 70
     1
102
RTVSPropertyOp13
 70
     1
102
RTVSPropertyOp14
 70
     1
102
RTVSPropertyOp15
 70
     1
102
RTVSPropertyOp16
 70
     1
102
RTVSPropertyOp17
 70
     1
102
RTVSPropertyOp18
 70
     1
102
RTVSPropertyOp19
 70
     1
102
RTVSPropertyOp20
 70
     1
102
RTVSPropertyOp21
 70
     1
102
RTVSPropertyOp22
 70
     1
102
RTVSPropertyOp23
 70
     1
102
RTVSPropertyOp24
 70
     1
102
RTVSPropertyOp25
 70
     1
102
RTVSPropertyOp26
 70
     1
102
RTVSPropertyOp27
 70
     1
102
RTVSPropertyOp28
 70
     1
102
RTVSPropertyOp29
 70
     1
102
RTVSPropertyOp30
 70
     1
102
RTVSPropertyOp31
 70
     1
102
RTVSPropertyOp32
 70
     1
  0
XRECORD
  5
F1F
102
{ACAD_REACTORS
330
F1E
102
}
330
F1E
100
AcDbXrecord
280
     1
102
RTVSPropertyOp0
 70
     1
102
RTVSPropertyOp1
 70
     1
102
RTVSPropertyOp2
 70
     1
102
RTVSPropertyOp3
 70
     1
102
RTVSPropertyOp4
 70
     1
102
RTVSPropertyOp5
 70
     1
102
RTVSPropertyOp6
 70
     1
102
RTVSPropertyOp7
 70
     1
102
RTVSPropertyOp8
 70
     1
102
RTVSPropertyOp9
 70
     1
102
RTVSPropertyOp10
 70
     1
102
RTVSPropertyOp11
 70
     1
102
RTVSPropertyOp12
 70
     1
102
RTVSPropertyOp13
 70
     1
102
RTVSPropertyOp14
 70
     1
102
RTVSPropertyOp15
 70
     1
102
RTVSPropertyOp16
 70
     1
102
RTVSPropertyOp17
 70
     1
102
RTVSPropertyOp18
 70
     1
102
RTVSPropertyOp19
 70
     1
102
RTVSPropertyOp20
 70
     1
102
RTVSPropertyOp21
 70
     1
102
RTVSPropertyOp22
 70
     1
102
RTVSPropertyOp23
 70
     1
102
RTVSPropertyOp24
 70
     1
102
RTVSPropertyOp25
 70
     1
102
RTVSPropertyOp26
 70
     1
102
RTVSPropertyOp27
 70
     1
102
RTVSPropertyOp28
 70
     1
102
RTVSPropertyOp29
 70
     1
102
RTVSPropertyOp30
 70
     1
102
RTVSPropertyOp31
 70
     1
102
RTVSPropertyOp32
 70
     1
  0
XRECORD
  5
F1D
102
{ACAD_REACTORS
330
F1C
102
}
330
F1C
100
AcDbXrecord
280
     1
102
RTVSPropertyOp0
 70
     1
102
RTVSPropertyOp1
 70
     1
102
RTVSPropertyOp2
 70
     1
102
RTVSPropertyOp3
 70
     1
102
RTVSPropertyOp4
 70
     1
102
RTVSPropertyOp5
 70
     1
102
RTVSPropertyOp6
 70
     1
102
RTVSPropertyOp7
 70
     1
102
RTVSPropertyOp8
 70
     1
102
RTVSPropertyOp9
 70
     1
102
RTVSPropertyOp10
 70
     1
102
RTVSPropertyOp11
 70
     1
102
RTVSPropertyOp12
 70
     1
102
RTVSPropertyOp13
 70
     1
102
RTVSPropertyOp14
 70
     1
102
RTVSPropertyOp15
 70
     1
102
RTVSPropertyOp16
 70
     1
102
RTVSPropertyOp17
 70
     1
102
RTVSPropertyOp18
 70
     1
102
RTVSPropertyOp19
 70
     1
102
RTVSPropertyOp20
 70
     1
102
RTVSPropertyOp21
 70
     1
102
RTVSPropertyOp22
 70
     1
102
RTVSPropertyOp23
 70
     1
102
RTVSPropertyOp24
 70
     1
102
RTVSPropertyOp25
 70
     1
102
RTVSPropertyOp26
 70
     1
102
RTVSPropertyOp27
 70
     1
102
RTVSPropertyOp28
 70
     1
102
RTVSPropertyOp29
 70
     1
102
RTVSPropertyOp30
 70
     1
102
RTVSPropertyOp31
 70
     1
102
RTVSPropertyOp32
 70
     1
  0
XRECORD
  5
F17
102
{ACAD_REACTORS
330
F16
102
}
330
F16
100
AcDbXrecord
280
     1
102
RTVSPropertyOp0
 70
     1
102
RTVSPropertyOp1
 70
     1
102
RTVSPropertyOp2
 70
     1
102
RTVSPropertyOp3
 70
     1
102
RTVSPropertyOp4
 70
     1
102
RTVSPropertyOp5
 70
     1
102
RTVSPropertyOp6
 70
     1
102
RTVSPropertyOp7
 70
     1
102
RTVSPropertyOp8
 70
     1
102
RTVSPropertyOp9
 70
     1
102
RTVSPropertyOp10
 70
     1
102
RTVSPropertyOp11
 70
     1
102
RTVSPropertyOp12
 70
     1
102
RTVSPropertyOp13
 70
     1
102
RTVSPropertyOp14
 70
     1
102
RTVSPropertyOp15
 70
     1
102
RTVSPropertyOp16
 70
     1
102
RTVSPropertyOp17
 70
     1
102
RTVSPropertyOp18
 70
     1
102
RTVSPropertyOp19
 70
     1
102
RTVSPropertyOp20
 70
     1
102
RTVSPropertyOp21
 70
     1
102
RTVSPropertyOp22
 70
     1
102
RTVSPropertyOp23
 70
     1
102
RTVSPropertyOp24
 70
     1
102
RTVSPropertyOp25
 70
     1
102
RTVSPropertyOp26
 70
     1
102
RTVSPropertyOp27
 70
     1
102
RTVSPropertyOp28
 70
     1
102
RTVSPropertyOp29
 70
     1
102
RTVSPropertyOp30
 70
     1
102
RTVSPropertyOp31
 70
     1
102
RTVSPropertyOp32
 70
     1
  0
XRECORD
  5
F19
102
{ACAD_REACTORS
330
F18
102
}
330
F18
100
AcDbXrecord
280
     1
102
RTVSPropertyOp0
 70
     1
102
RTVSPropertyOp1
 70
     1
102
RTVSPropertyOp2
 70
     1
102
RTVSPropertyOp3
 70
     1
102
RTVSPropertyOp4
 70
     1
102
RTVSPropertyOp5
 70
     1
102
RTVSPropertyOp6
 70
     1
102
RTVSPropertyOp7
 70
     1
102
RTVSPropertyOp8
 70
     1
102
RTVSPropertyOp9
 70
     1
102
RTVSPropertyOp10
 70
     1
102
RTVSPropertyOp11
 70
     1
102
RTVSPropertyOp12
 70
     1
102
RTVSPropertyOp13
 70
     1
102
RTVSPropertyOp14
 70
     1
102
RTVSPropertyOp15
 70
     1
102
RTVSPropertyOp16
 70
     1
102
RTVSPropertyOp17
 70
     1
102
RTVSPropertyOp18
 70
     1
102
RTVSPropertyOp19
 70
     1
102
RTVSPropertyOp20
 70
     1
102
RTVSPropertyOp21
 70
     1
102
RTVSPropertyOp22
 70
     1
102
RTVSPropertyOp23
 70
     1
102
RTVSPropertyOp24
 70
     1
102
RTVSPropertyOp25
 70
     1
102
RTVSPropertyOp26
 70
     1
102
RTVSPropertyOp27
 70
     1
102
RTVSPropertyOp28
 70
     1
102
RTVSPropertyOp29
 70
     1
102
RTVSPropertyOp30
 70
     1
102
RTVSPropertyOp31
 70
     1
102
RTVSPropertyOp32
 70
     1
  0
XRECORD
  5
F0F
102
{ACAD_REACTORS
330
F0E
102
}
330
F0E
100
AcDbXrecord
280
     1
102
RTVSPropertyOp0
 70
     1
102
RTVSPropertyOp1
 70
     1
102
RTVSPropertyOp2
 70
     1
102
RTVSPropertyOp3
 70
     1
102
RTVSPropertyOp4
 70
     1
102
RTVSPropertyOp5
 70
     1
102
RTVSPropertyOp6
 70
     1
102
RTVSPropertyOp7
 70
     1
102
RTVSPropertyOp8
 70
     1
102
RTVSPropertyOp9
 70
     1
102
RTVSPropertyOp10
 70
     1
102
RTVSPropertyOp11
 70
     1
102
RTVSPropertyOp12
 70
     1
102
RTVSPropertyOp13
 70
     1
102
RTVSPropertyOp14
 70
     1
102
RTVSPropertyOp15
 70
     1
102
RTVSPropertyOp16
 70
     1
102
RTVSPropertyOp17
 70
     1
102
RTVSPropertyOp18
 70
     1
102
RTVSPropertyOp19
 70
     1
102
RTVSPropertyOp20
 70
     1
102
RTVSPropertyOp21
 70
     1
102
RTVSPropertyOp22
 70
     1
102
RTVSPropertyOp23
 70
     1
102
RTVSPropertyOp24
 70
     1
102
RTVSPropertyOp25
 70
     1
102
RTVSPropertyOp26
 70
     1
102
RTVSPropertyOp27
 70
     1
102
RTVSPropertyOp28
 70
     1
102
RTVSPropertyOp29
 70
     1
102
RTVSPropertyOp30
 70
     1
102
RTVSPropertyOp31
 70
     1
102
RTVSPropertyOp32
 70
     1
  0
XRECORD
  5
F03
102
{ACAD_REACTORS
330
F02
102
}
330
F02
100
AcDbXrecord
280
     1
102
RTVSPropertyOp0
 70
     1
102
RTVSPropertyOp1
 70
     1
102
RTVSPropertyOp2
 70
     1
102
RTVSPropertyOp3
 70
     1
102
RTVSPropertyOp4
 70
     1
102
RTVSPropertyOp5
 70
     1
102
RTVSPropertyOp6
 70
     1
102
RTVSPropertyOp7
 70
     1
102
RTVSPropertyOp8
 70
     1
102
RTVSPropertyOp9
 70
     1
102
RTVSPropertyOp10
 70
     1
102
RTVSPropertyOp11
 70
     1
102
RTVSPropertyOp12
 70
     1
102
RTVSPropertyOp13
 70
     1
102
RTVSPropertyOp14
 70
     1
102
RTVSPropertyOp15
 70
     1
102
RTVSPropertyOp16
 70
     1
102
RTVSPropertyOp17
 70
     1
102
RTVSPropertyOp18
 70
     1
102
RTVSPropertyOp19
 70
     1
102
RTVSPropertyOp20
 70
     1
102
RTVSPropertyOp21
 70
     1
102
RTVSPropertyOp22
 70
     1
102
RTVSPropertyOp23
 70
     1
102
RTVSPropertyOp24
 70
     1
102
RTVSPropertyOp25
 70
     1
102
RTVSPropertyOp26
 70
     1
102
RTVSPropertyOp27
 70
     1
102
RTVSPropertyOp28
 70
     1
102
RTVSPropertyOp29
 70
     1
102
RTVSPropertyOp30
 70
     1
102
RTVSPropertyOp31
 70
     1
102
RTVSPropertyOp32
 70
     1
  0
XRECORD
  5
F1B
102
{ACAD_REACTORS
330
F1A
102
}
330
F1A
100
AcDbXrecord
280
     1
102
RTVSPropertyOp0
 70
     1
102
RTVSPropertyOp1
 70
     1
102
RTVSPropertyOp2
 70
     1
102
RTVSPropertyOp3
 70
     1
102
RTVSPropertyOp4
 70
     1
102
RTVSPropertyOp5
 70
     1
102
RTVSPropertyOp6
 70
     1
102
RTVSPropertyOp7
 70
     1
102
RTVSPropertyOp8
 70
     1
102
RTVSPropertyOp9
 70
     1
102
RTVSPropertyOp10
 70
     1
102
RTVSPropertyOp11
 70
     1
102
RTVSPropertyOp12
 70
     1
102
RTVSPropertyOp13
 70
     1
102
RTVSPropertyOp14
 70
     1
102
RTVSPropertyOp15
 70
     1
102
RTVSPropertyOp16
 70
     1
102
RTVSPropertyOp17
 70
     1
102
RTVSPropertyOp18
 70
     1
102
RTVSPropertyOp19
 70
     1
102
RTVSPropertyOp20
 70
     1
102
RTVSPropertyOp21
 70
     1
102
RTVSPropertyOp22
 70
     1
102
RTVSPropertyOp23
 70
     1
102
RTVSPropertyOp24
 70
     1
102
RTVSPropertyOp25
 70
     1
102
RTVSPropertyOp26
 70
     1
102
RTVSPropertyOp27
 70
     1
102
RTVSPropertyOp28
 70
     1
102
RTVSPropertyOp29
 70
     1
102
RTVSPropertyOp30
 70
     1
102
RTVSPropertyOp31
 70
     1
102
RTVSPropertyOp32
 70
     1
  0
ENDSEC
  0
EOF
