  0
SECTION
  2
HEADER
  9
$ACADVER
  1
AC1015
  9
$ACADMAINTVER
 70
    20
  9
$DWGCODEPAGE
  3
ANSI_932
  9
$INSBASE
 10
0.0
 20
0.0
 30
0.0
  9
$EXTMIN
 10
-242.967434
 20
-153.4762490000001
 30
0.0
  9
$EXTMAX
 10
483.7938448907967
 20
165.7679729963023
 30
0.0
  9
$LIMMIN
 10
-242.968438
 20
-153.477242
  9
$LIMMAX
 10
162.611199
 20
131.0851219999999
  9
$ORTHOMODE
 70
     1
  9
$REGENMODE
 70
     1
  9
$FILLMODE
 70
     1
  9
$QTEXTMODE
 70
     0
  9
$MIRRTEXT
 70
     0
  9
$LTSCALE
 40
6.759627
  9
$ATTMODE
 70
     1
  9
$TEXTSIZE
 40
3.2
  9
$TRACEWID
 40
0.05
  9
$TEXTSTYLE
  7
高3.2
  9
$CLAYER
  8
0
  9
$CELTYPE
  6
CONTINUOUS
  9
$CECOLOR
 62
   256
  9
$CELTSCALE
 40
1.0
  9
$DISPSILH
 70
     0
  9
$DIMSCALE
 40
1.0
  9
$DIMASZ
 40
2.5
  9
$DIMEXO
 40
0.25
  9
$DIMDLI
 40
0.2
  9
$DIMRND
 40
0.0
  9
$DIMDLE
 40
0.0
  9
$DIMEXE
 40
1.25
  9
$DIMTP
 40
0.0
  9
$DIMTM
 40
0.0
  9
$DIMTXT
 40
3.0
  9
$DIMCEN
 40
0.0
  9
$DIMTSZ
 40
0.0
  9
$DIMTOL
 70
     0
  9
$DIMLIM
 70
     0
  9
$DIMTIH
 70
     0
  9
$DIMTOH
 70
     0
  9
$DIMSE1
 70
     0
  9
$DIMSE2
 70
     0
  9
$DIMTAD
 70
     3
  9
$DIMZIN
 70
     8
  9
$DIMBLK
  1
Open30
  9
$DIMASO
 70
     1
  9
$DIMSHO
 70
     1
  9
$DIMPOST
  1

  9
$DIMAPOST
  1

  9
$DIMALT
 70
     0
  9
$DIMALTD
 70
     3
  9
$DIMALTF
 40
0.03937007874016
  9
$DIMLFAC
 40
2.0
  9
$DIMTOFL
 70
     1
  9
$DIMTVP
 40
0.0
  9
$DIMTIX
 70
     0
  9
$DIMSOXD
 70
     0
  9
$DIMSAH
 70
     0
  9
$DIMBLK1
  1

  9
$DIMBLK2
  1

  9
$DIMSTYLE
  2
1／2
  9
$DIMCLRD
 70
     0
  9
$DIMCLRE
 70
     0
  9
$DIMCLRT
 70
     4
  9
$DIMTFAC
 40
1.0
  9
$DIMGAP
 40
0.625
  9
$DIMJUST
 70
     0
  9
$DIMSD1
 70
     0
  9
$DIMSD2
 70
     0
  9
$DIMTOLJ
 70
     0
  9
$DIMTZIN
 70
     8
  9
$DIMALTZ
 70
     0
  9
$DIMALTTZ
 70
     0
  9
$DIMUPT
 70
     1
  9
$DIMDEC
 70
     2
  9
$DIMTDEC
 70
     2
  9
$DIMALTU
 70
     2
  9
$DIMALTTD
 70
     3
  9
$DIMTXSTY
  7
STANDARD
  9
$DIMAUNIT
 70
     0
  9
$DIMADEC
 70
     1
  9
$DIMALTRND
 40
0.0
  9
$DIMAZIN
 70
     2
  9
$DIMDSEP
 70
    46
  9
$DIMATFIT
 70
     0
  9
$DIMFRAC
 70
     0
  9
$DIMLDRBLK
  1
Open30
  9
$DIMLUNIT
 70
     2
  9
$DIMLWD
 70
    -2
  9
$DIMLWE
 70
    -2
  9
$DIMTMOVE
 70
     0
  9
$LUNITS
 70
     2
  9
$LUPREC
 70
     4
  9
$SKETCHINC
 40
0.1
  9
$FILLETRAD
 40
0.0
  9
$AUNITS
 70
     0
  9
$AUPREC
 70
     0
  9
$MENU
  1
.
  9
$ELEVATION
 40
0.0
  9
$PELEVATION
 40
0.0
  9
$THICKNESS
 40
0.0
  9
$LIMCHECK
 70
     0
  9
$CHAMFERA
 40
0.0
  9
$CHAMFERB
 40
0.0
  9
$CHAMFERC
 40
0.0
  9
$CHAMFERD
 40
0.0
  9
$SKPOLY
 70
     0
  9
$TDCREATE
 40
2455503.465491169
  9
$TDUCREATE
 40
2455503.090491169
  9
$TDUPDATE
 40
2456850.627496910
  9
$TDUUPDATE
 40
2456850.252496910
  9
$TDINDWG
 40
0.0640337384
  9
$TDUSRTIMER
 40
0.0640335648
  9
$USRTIMER
 70
     1
  9
$ANGBASE
 50
0.0
  9
$ANGDIR
 70
     0
  9
$PDMODE
 70
     0
  9
$PDSIZE
 40
0.0
  9
$PLINEWID
 40
0.0
  9
$SPLFRAME
 70
     0
  9
$SPLINETYPE
 70
     6
  9
$SPLINESEGS
 70
     8
  9
$HANDSEED
  5
7D6
  9
$SURFTAB1
 70
     6
  9
$SURFTAB2
 70
     6
  9
$SURFTYPE
 70
     6
  9
$SURFU
 70
     6
  9
$SURFV
 70
     6
  9
$UCSBASE
  2

  9
$UCSNAME
  2

  9
$UCSORG
 10
0.0
 20
0.0
 30
0.0
  9
$UCSXDIR
 10
1.0
 20
0.0
 30
0.0
  9
$UCSYDIR
 10
0.0
 20
1.0
 30
0.0
  9
$UCSORTHOREF
  2

  9
$UCSORTHOVIEW
 70
     0
  9
$UCSORGTOP
 10
0.0
 20
0.0
 30
0.0
  9
$UCSORGBOTTOM
 10
0.0
 20
0.0
 30
0.0
  9
$UCSORGLEFT
 10
0.0
 20
0.0
 30
0.0
  9
$UCSORGRIGHT
 10
0.0
 20
0.0
 30
0.0
  9
$UCSORGFRONT
 10
0.0
 20
0.0
 30
0.0
  9
$UCSORGBACK
 10
0.0
 20
0.0
 30
0.0
  9
$PUCSBASE
  2

  9
$PUCSNAME
  2

  9
$PUCSORG
 10
0.0
 20
0.0
 30
0.0
  9
$PUCSXDIR
 10
1.0
 20
0.0
 30
0.0
  9
$PUCSYDIR
 10
0.0
 20
1.0
 30
0.0
  9
$PUCSORTHOREF
  2

  9
$PUCSORTHOVIEW
 70
     0
  9
$PUCSORGTOP
 10
0.0
 20
0.0
 30
0.0
  9
$PUCSORGBOTTOM
 10
0.0
 20
0.0
 30
0.0
  9
$PUCSORGLEFT
 10
0.0
 20
0.0
 30
0.0
  9
$PUCSORGRIGHT
 10
0.0
 20
0.0
 30
0.0
  9
$PUCSORGFRONT
 10
0.0
 20
0.0
 30
0.0
  9
$PUCSORGBACK
 10
0.0
 20
0.0
 30
0.0
  9
$USERI1
 70
     0
  9
$USERI2
 70
     0
  9
$USERI3
 70
     0
  9
$USERI4
 70
     0
  9
$USERI5
 70
     0
  9
$USERR1
 40
0.0
  9
$USERR2
 40
0.0
  9
$USERR3
 40
0.0
  9
$USERR4
 40
0.0
  9
$USERR5
 40
0.0
  9
$WORLDVIEW
 70
     1
  9
$SHADEDGE
 70
     3
  9
$SHADEDIF
 70
    70
  9
$TILEMODE
 70
     1
  9
$MAXACTVP
 70
    64
  9
$PINSBASE
 10
0.0
 20
0.0
 30
0.0
  9
$PLIMCHECK
 70
     0
  9
$PEXTMIN
 10
1.000000000000000E+20
 20
1.000000000000000E+20
 30
1.000000000000000E+20
  9
$PEXTMAX
 10
-1.000000000000000E+20
 20
-1.000000000000000E+20
 30
-1.000000000000000E+20
  9
$PLIMMIN
 10
0.0
 20
0.0
  9
$PLIMMAX
 10
12.0
 20
9.0
  9
$UNITMODE
 70
     0
  9
$VISRETAIN
 70
     1
  9
$PLINEGEN
 70
     0
  9
$PSLTSCALE
 70
     1
  9
$TREEDEPTH
 70
  3020
  9
$CMLSTYLE
  2
Standard
  9
$CMLJUST
 70
     0
  9
$CMLSCALE
 40
1.0
  9
$PROXYGRAPHICS
 70
     1
  9
$MEASUREMENT
 70
     0
  9
$CELWEIGHT
370
    -1
  9
$ENDCAPS
280
     0
  9
$JOINSTYLE
280
     0
  9
$LWDISPLAY
290
     0
  9
$INSUNITS
 70
     0
  9
$HYPERLINKBASE
  1

  9
$STYLESHEET
  1
N-PLOT.CTB
  9
$XEDIT
290
     1
  9
$CEPSNTYPE
380
     0
  9
$PSTYLEMODE
290
     1
  9
$FINGERPRINTGUID
  2
{6BDFC829-F8D5-422F-8492-77ECD808FFBF}
  9
$VERSIONGUID
  2
{7B5F22F2-3671-432D-A9D5-B15C27E80B15}
  9
$EXTNAMES
290
     1
  9
$PSVPSCALE
 40
0.0
  9
$OLESTARTUP
290
     0
  0
ENDSEC
  0
SECTION
  2
CLASSES
  0
CLASS
  1
ACDBDICTIONARYWDFLT
  2
AcDbDictionaryWithDefault
  3
ObjectDBX Classes
 90
        0
280
     0
281
     0
  0
CLASS
  1
MATERIAL
  2
AcDbMaterial
  3
ObjectDBX Classes
 90
     1153
280
     0
281
     0
  0
CLASS
  1
VISUALSTYLE
  2
AcDbVisualStyle
  3
ObjectDBX Classes
 90
     4095
280
     0
281
     0
  0
CLASS
  1
TABLESTYLE
  2
AcDbTableStyle
  3
ObjectDBX Classes
 90
     4095
280
     0
281
     0
  0
CLASS
  1
DICTIONARYVAR
  2
AcDbDictionaryVar
  3
ObjectDBX Classes
 90
        0
280
     0
281
     0
  0
CLASS
  1
ACDBPLACEHOLDER
  2
AcDbPlaceHolder
  3
ObjectDBX Classes
 90
        0
280
     0
281
     0
  0
CLASS
  1
LAYOUT
  2
AcDbLayout
  3
ObjectDBX Classes
 90
        0
280
     0
281
     0
  0
CLASS
  1
SORTENTSTABLE
  2
AcDbSortentsTable
  3
ObjectDBX Classes
 90
        0
280
     0
281
     0
  0
CLASS
  1
SCALE
  2
AcDbScale
  3
ObjectDBX Classes
 90
     1153
280
     0
281
     0
  0
CLASS
  1
MLEADERSTYLE
  2
AcDbMLeaderStyle
  3
ACDB_MLEADERSTYLE_CLASS
 90
     4095
280
     0
281
     0
  0
CLASS
  1
CELLSTYLEMAP
  2
AcDbCellStyleMap
  3
ObjectDBX Classes
 90
     1152
280
     0
281
     0
  0
ENDSEC
  0
SECTION
  2
TABLES
  0
TABLE
  2
VPORT
  5
8
330
0
100
AcDbSymbolTable
 70
     1
  0
VPORT
  5
56
330
8
100
AcDbSymbolTableRecord
100
AcDbViewportTableRecord
  2
*Active
 70
     0
 10
0.0
 20
0.0
 11
1.0
 21
1.0
 12
77.70114223419921
 22
-25.3928353673945
 13
0.0
 23
0.0
 14
1.0
 24
1.0
 15
0.0
 25
0.0
 16
0.0
 26
0.0
 36
1.0
 17
0.0
 27
0.0
 37
0.0
 40
440.5572869093834
 41
2.22889305816135
 42
50.0
 43
0.0
 44
0.0
 50
0.0
 51
0.0
 71
     0
 72
   100
 73
     1
 74
     1
 75
     0
 76
     0
 77
     0
 78
     0
281
     0
 65
     1
110
0.0
120
0.0
130
0.0
111
1.0
121
0.0
131
0.0
112
0.0
122
1.0
132
0.0
 79
     0
146
0.0
  0
ENDTAB
  0
TABLE
  2
LTYPE
  5
5
330
0
100
AcDbSymbolTable
 70
    27
  0
LTYPE
  5
28
330
5
100
AcDbSymbolTableRecord
100
AcDbLinetypeTableRecord
  2
ByBlock
 70
     0
  3

 72
    65
 73
     0
 40
0.0
  0
LTYPE
  5
29
330
5
100
AcDbSymbolTableRecord
100
AcDbLinetypeTableRecord
  2
ByLayer
 70
     0
  3

 72
    65
 73
     0
 40
0.0
  0
LTYPE
  5
2A
330
5
100
AcDbSymbolTableRecord
100
AcDbLinetypeTableRecord
  2
CONTINUOUS
 70
     0
  3
Solid-line
 72
    65
 73
     0
 40
0.0
  0
LTYPE
  5
3D
330
5
100
AcDbSymbolTableRecord
100
AcDbLinetypeTableRecord
  2
CENTER
 70
     0
  3
CENTER
 72
    65
 73
     4
 40
2.0
 49
1.25
 74
     0
 49
-0.25
 74
     0
 49
0.25
 74
     0
 49
-0.25
 74
     0
  0
ENDTAB
  0
TABLE
  2
LAYER
  5
2
102
{ACAD_XDICTIONARY
360
38B
102
}
330
0
100
AcDbSymbolTable
 70
     3
  0
LAYER
  5
25
102
{ACAD_XDICTIONARY
360
6D6
102
}
330
2
100
AcDbSymbolTableRecord
100
AcDbLayerTableRecord
  2
0
 70
     0
 62
     7
  6
CONTINUOUS
370
    -3
390
F
  0
LAYER
  5
44F
330
2
100
AcDbSymbolTableRecord
100
AcDbLayerTableRecord
  2
Defpoints
 70
     0
 62
     7
  6
CONTINUOUS
290
     0
370
    -3
390
F
  0
ENDTAB
  0
TABLE
  2
STYLE
  5
3
330
0
100
AcDbSymbolTable
 70
     7
  0
STYLE
  5
26
330
3
100
AcDbSymbolTableRecord
100
AcDbTextStyleTableRecord
  2
STANDARD
 70
     0
 40
0.0
 41
1.0
 50
0.0
 71
     0
 42
6.299999999999998
  3
TXT
  4
BIGFONT
  0
STYLE
  5
386
330
3
100
AcDbSymbolTableRecord
100
AcDbTextStyleTableRecord
  2
高3.2
 70
     0
 40
3.2
 41
1.0
 50
0.0
 71
     0
 42
3.2
  3
txt.shx
  4
bigfont.shx
  0
STYLE
  5
387
330
3
100
AcDbSymbolTableRecord
100
AcDbTextStyleTableRecord
  2
高2.5
 70
     0
 40
2.5
 41
1.0
 50
0.0
 71
     0
 42
0.2
  3
txt.shx
  4
bigfont.shx
  0
STYLE
  5
450
330
3
100
AcDbSymbolTableRecord
100
AcDbTextStyleTableRecord
  2
高6.3
 70
     0
 40
6.299999999999999
 41
1.0
 50
0.0
 71
     0
 42
6.299999999999999
  3
txt.shx
  4
bigfont.shx
  0
STYLE
  5
451
330
3
100
AcDbSymbolTableRecord
100
AcDbTextStyleTableRecord
  2
高4.5
 70
     0
 40
4.5
 41
1.0
 50
0.0
 71
     0
 42
6.299999999999999
  3
txt.shx
  4
bigfont.shx
  0
STYLE
  5
452
330
3
100
AcDbSymbolTableRecord
100
AcDbTextStyleTableRecord
  2
高2
 70
     0
 40
2.0
 41
1.0
 50
0.0
 71
     0
 42
2.0
  3
txt.shx
  4
bigfont.shx
  0
ENDTAB
  0
TABLE
  2
VIEW
  5
6
330
0
100
AcDbSymbolTable
 70
     0
  0
ENDTAB
  0
TABLE
  2
UCS
  5
7
330
0
100
AcDbSymbolTable
 70
     0
  0
ENDTAB
  0
TABLE
  2
APPID
  5
9
330
0
100
AcDbSymbolTable
 70
    11
  0
APPID
  5
27
330
9
100
AcDbSymbolTableRecord
100
AcDbRegAppTableRecord
  2
ACAD
 70
     0
  0
APPID
  5
2BA
330
9
100
AcDbSymbolTableRecord
100
AcDbRegAppTableRecord
  2
ACAD_PSEXT
 70
     0
  0
APPID
  5
38A
330
9
100
AcDbSymbolTableRecord
100
AcDbRegAppTableRecord
  2
ACAD_DSTYLE_DIMJOGGED_JOGANGLE_SYMBOL
 70
     0
  0
APPID
  5
3A0
330
9
100
AcDbSymbolTableRecord
100
AcDbRegAppTableRecord
  2
ACAD_DSTYLE_DIMARC_LENGTH_SYMBOL
 70
     0
  0
APPID
  5
3A1
330
9
100
AcDbSymbolTableRecord
100
AcDbRegAppTableRecord
  2
ACAD_DSTYLE_DIMEXT_LENGTH
 70
     0
  0
APPID
  5
45B
330
9
100
AcDbSymbolTableRecord
100
AcDbRegAppTableRecord
  2
ACAD_DSTYLE_DIMJAG
 70
     0
  0
APPID
  5
45C
330
9
100
AcDbSymbolTableRecord
100
AcDbRegAppTableRecord
  2
ACAD_DSTYLE_DIMBREAK
 70
     0
  0
APPID
  5
45D
330
9
100
AcDbSymbolTableRecord
100
AcDbRegAppTableRecord
  2
ACAD_DSTYLE_DIMTALN
 70
     0
  0
APPID
  5
5B8
330
9
100
AcDbSymbolTableRecord
100
AcDbRegAppTableRecord
  2
ACAD_DSTYLE_DIMRADIAL_EXTENSION
 70
     0
  0
APPID
  5
64C
330
9
100
AcDbSymbolTableRecord
100
AcDbRegAppTableRecord
  2
ACAD_EXEMPT_FROM_CAD_STANDARDS
 70
     0
  0
APPID
  5
7D3
330
9
100
AcDbSymbolTableRecord
100
AcDbRegAppTableRecord
  2
ACAD_MLEADERVER
 70
     0
  0
ENDTAB
  0
TABLE
  2
DIMSTYLE
  5
A
330
0
100
AcDbSymbolTable
 70
    12
100
AcDbDimStyleTable
 71
     2
340
456
340
2B4
  0
DIMSTYLE
105
2B4
330
A
100
AcDbSymbolTableRecord
100
AcDbDimStyleTableRecord
  2
Standard
 70
     0
340
26
  0
DIMSTYLE
105
388
330
A
100
AcDbSymbolTableRecord
100
AcDbDimStyleTableRecord
  2
1：1
 70
     0
 41
2.5
 42
0.25
 43
0.2
 44
1.25
 73
     0
 74
     0
 77
     3
 78
     8
 79
     2
140
2.5
141
0.0
143
0.03937007874016
147
0.625
171
     3
172
     1
178
     4
179
     1
271
     2
272
     2
274
     3
283
     0
284
     8
288
     1
289
     0
340
26
341
380
342
380
1001
ACAD_DSTYLE_DIMARC_LENGTH_SYMBOL
1070
   379
1070
     2
1001
ACAD_DSTYLE_DIMEXT_LENGTH
1070
   378
1040
1.25
1001
ACAD_DSTYLE_DIMJOGGED_JOGANGLE_SYMBOL
1070
   384
1040
1.570796326794896
  0
DIMSTYLE
105
389
330
A
100
AcDbSymbolTableRecord
100
AcDbDimStyleTableRecord
  2
1／10
 70
     0
 41
2.5
 42
0.25
 43
0.2
 44
1.25
 73
     0
 74
     0
 77
     3
 78
     8
 79
     2
140
2.5
141
0.0
143
0.03937007874016
144
10.0
147
0.625
171
     3
172
     1
178
     4
179
     1
271
     2
272
     2
274
     3
283
     0
284
     8
288
     1
289
     0
340
26
341
380
342
380
1001
ACAD_DSTYLE_DIMARC_LENGTH_SYMBOL
1070
   379
1070
     2
1001
ACAD_DSTYLE_DIMEXT_LENGTH
1070
   378
1040
1.25
1001
ACAD_DSTYLE_DIMJOGGED_JOGANGLE_SYMBOL
1070
   384
1040
1.570796326794896
  0
DIMSTYLE
105
453
102
{ACAD_REACTORS
330
466
102
}
330
A
100
AcDbSymbolTableRecord
100
AcDbDimStyleTableRecord
  2
2：1
 70
     0
 41
2.5
 42
0.25
 43
0.2
 44
1.25
 73
     0
 74
     0
 77
     3
 78
     8
 79
     2
140
3.0
141
0.0
143
0.03937007874016
144
0.5
147
0.625
171
     3
172
     1
178
     4
179
     1
271
     2
272
     2
274
     3
283
     0
284
     8
288
     1
289
     0
340
26
341
380
342
380
1001
ACAD_DSTYLE_DIMARC_LENGTH_SYMBOL
1070
   379
1070
     2
1001
ACAD_DSTYLE_DIMEXT_LENGTH
1070
   378
1040
1.25
1001
ACAD_DSTYLE_DIMJOGGED_JOGANGLE_SYMBOL
1070
   384
1040
1.570796326794896
  0
DIMSTYLE
105
454
102
{ACAD_REACTORS
330
467
102
}
330
A
100
AcDbSymbolTableRecord
100
AcDbDimStyleTableRecord
  2
5：1
 70
     0
 41
2.5
 42
0.25
 43
0.2
 44
1.25
 73
     0
 74
     0
 77
     3
 78
     8
 79
     2
140
3.0
141
0.0
143
0.03937007874016
144
0.2
147
0.625
171
     3
172
     1
178
     4
179
     1
271
     2
272
     2
274
     3
283
     0
284
     8
288
     1
289
     0
340
26
341
380
342
380
1001
ACAD_DSTYLE_DIMARC_LENGTH_SYMBOL
1070
   379
1070
     2
1001
ACAD_DSTYLE_DIMEXT_LENGTH
1070
   378
1040
1.25
1001
ACAD_DSTYLE_DIMJOGGED_JOGANGLE_SYMBOL
1070
   384
1040
1.570796326794896
  0
DIMSTYLE
105
455
102
{ACAD_REACTORS
330
465
102
}
330
A
100
AcDbSymbolTableRecord
100
AcDbDimStyleTableRecord
  2
10：1
 70
     0
 41
2.5
 42
0.25
 43
0.2
 44
1.25
 73
     0
 74
     0
 77
     3
 78
     8
 79
     2
140
3.0
141
0.0
143
0.03937007874016
144
0.1
147
0.625
171
     3
172
     1
178
     4
179
     1
271
     2
272
     2
274
     3
283
     0
284
     8
288
     1
289
     0
340
26
341
380
342
380
1001
ACAD_DSTYLE_DIMARC_LENGTH_SYMBOL
1070
   379
1070
     2
1001
ACAD_DSTYLE_DIMEXT_LENGTH
1070
   378
1040
1.25
1001
ACAD_DSTYLE_DIMJOGGED_JOGANGLE_SYMBOL
1070
   384
1040
1.570796326794896
  0
DIMSTYLE
105
456
102
{ACAD_REACTORS
330
463
102
}
330
A
100
AcDbSymbolTableRecord
100
AcDbDimStyleTableRecord
  2
1／2
 70
     0
 41
2.5
 42
0.25
 43
0.2
 44
1.25
 73
     0
 74
     0
 77
     3
 78
     8
 79
     2
140
3.0
141
0.0
143
0.03937007874016
144
2.0
147
0.625
171
     3
172
     1
178
     4
179
     1
271
     2
272
     2
274
     3
283
     0
284
     8
288
     1
289
     0
340
26
341
380
342
380
1001
ACAD_DSTYLE_DIMARC_LENGTH_SYMBOL
1070
   379
1070
     2
1001
ACAD_DSTYLE_DIMEXT_LENGTH
1070
   378
1040
1.25
1001
ACAD_DSTYLE_DIMJOGGED_JOGANGLE_SYMBOL
1070
   384
1040
1.570796326794896
  0
DIMSTYLE
105
457
102
{ACAD_REACTORS
330
462
102
}
330
A
100
AcDbSymbolTableRecord
100
AcDbDimStyleTableRecord
  2
1／5
 70
     0
 41
2.5
 42
0.25
 43
0.2
 44
1.25
 73
     0
 74
     0
 77
     3
 78
     8
 79
     2
140
3.0
141
0.0
143
0.03937007874016
144
5.0
147
0.625
171
     3
172
     1
178
     4
179
     1
271
     2
272
     2
274
     3
283
     0
284
     8
288
     1
289
     0
340
26
341
380
342
380
1001
ACAD_DSTYLE_DIMARC_LENGTH_SYMBOL
1070
   379
1070
     2
1001
ACAD_DSTYLE_DIMEXT_LENGTH
1070
   378
1040
1.25
1001
ACAD_DSTYLE_DIMJOGGED_JOGANGLE_SYMBOL
1070
   384
1040
1.570796326794896
  0
DIMSTYLE
105
458
102
{ACAD_REACTORS
330
468
102
}
330
A
100
AcDbSymbolTableRecord
100
AcDbDimStyleTableRecord
  2
1／4
 70
     0
 41
2.5
 42
0.25
 43
0.2
 44
1.25
 73
     0
 74
     0
 77
     3
 78
     8
 79
     2
140
3.0
141
0.0
143
0.03937007874016
144
4.0
147
0.625
171
     3
172
     1
178
     4
179
     1
271
     2
272
     2
274
     3
283
     0
284
     8
288
     1
289
     0
340
26
341
380
342
380
1001
ACAD_DSTYLE_DIMARC_LENGTH_SYMBOL
1070
   379
1070
     2
1001
ACAD_DSTYLE_DIMEXT_LENGTH
1070
   378
1040
1.25
1001
ACAD_DSTYLE_DIMJOGGED_JOGANGLE_SYMBOL
1070
   384
1040
1.570796326794896
  0
DIMSTYLE
105
459
102
{ACAD_REACTORS
330
469
102
}
330
A
100
AcDbSymbolTableRecord
100
AcDbDimStyleTableRecord
  2
1／3
 70
     0
 41
2.5
 42
0.25
 43
0.2
 44
1.25
 73
     0
 74
     0
 77
     3
 78
     8
 79
     2
140
3.0
141
0.0
143
0.03937007874016
144
3.0
147
0.625
171
     3
172
     1
178
     4
179
     1
271
     2
272
     2
274
     3
283
     0
284
     8
288
     1
289
     0
340
26
341
380
342
380
1001
ACAD_DSTYLE_DIMARC_LENGTH_SYMBOL
1070
   379
1070
     2
1001
ACAD_DSTYLE_DIMEXT_LENGTH
1070
   378
1040
1.25
1001
ACAD_DSTYLE_DIMJOGGED_JOGANGLE_SYMBOL
1070
   384
1040
1.570796326794896
  0
DIMSTYLE
105
45A
102
{ACAD_REACTORS
330
46A
102
}
330
A
100
AcDbSymbolTableRecord
100
AcDbDimStyleTableRecord
  2
FREE
 70
     0
 41
2.5
 42
0.25
 43
0.2
 44
1.25
 73
     0
 74
     0
 77
     3
 78
     8
 79
     2
140
3.0
141
0.0
143
0.03937007874016
147
0.625
171
     3
172
     1
178
     4
179
     1
271
     2
272
     2
274
     3
283
     0
284
     8
288
     1
289
     0
340
26
341
380
342
380
1001
ACAD_DSTYLE_DIMBREAK
1070
   391
1040
3.75
1001
ACAD_DSTYLE_DIMJAG
1070
   388
1040
1.5
1001
ACAD_DSTYLE_DIMTALN
1070
   392
1070
     0
1001
ACAD_DSTYLE_DIMARC_LENGTH_SYMBOL
1070
   379
1070
     2
1001
ACAD_DSTYLE_DIMEXT_LENGTH
1070
   378
1040
1.25
1001
ACAD_DSTYLE_DIMJOGGED_JOGANGLE_SYMBOL
1070
   384
1040
1.570796326794896
  0
ENDTAB
  0
TABLE
  2
BLOCK_RECORD
  5
1
330
0
100
AcDbSymbolTable
 70
    42
  0
BLOCK_RECORD
  5
36
102
{ACAD_XDICTIONARY
360
2FA
102
}
330
1
100
AcDbSymbolTableRecord
100
AcDbBlockTableRecord
  2
*Model_Space
340
39
  0
BLOCK_RECORD
  5
32
330
1
100
AcDbSymbolTableRecord
100
AcDbBlockTableRecord
  2
*Paper_Space
340
35
  0
BLOCK_RECORD
  5
380
330
1
100
AcDbSymbolTableRecord
100
AcDbBlockTableRecord
  2
_Open30
340
0
102
{BLKREFS
331
537
331
538
331
542
331
543
331
54D
331
54E
331
558
331
559
331
563
331
564
331
56E
331
56F
331
579
331
57A
331
584
331
585
331
58F
331
590
331
598
331
599
331
5A5
331
5A6
331
5B2
331
5B3
331
5BE
331
5BF
331
651
331
652
331
65A
331
65B
331
667
331
668
331
674
331
675
331
6B2
331
6B3
331
6C4
331
6C5
102
}
  0
BLOCK_RECORD
  5
4A8
330
1
100
AcDbSymbolTableRecord
100
AcDbBlockTableRecord
  2
*D22
340
0
  0
BLOCK_RECORD
  5
4B6
330
1
100
AcDbSymbolTableRecord
100
AcDbBlockTableRecord
  2
*D23
340
0
  0
BLOCK_RECORD
  5
4C4
330
1
100
AcDbSymbolTableRecord
100
AcDbBlockTableRecord
  2
*D24
340
0
  0
BLOCK_RECORD
  5
4D2
330
1
100
AcDbSymbolTableRecord
100
AcDbBlockTableRecord
  2
*D25
340
0
  0
BLOCK_RECORD
  5
4E0
330
1
100
AcDbSymbolTableRecord
100
AcDbBlockTableRecord
  2
*D26
340
0
  0
BLOCK_RECORD
  5
4EE
330
1
100
AcDbSymbolTableRecord
100
AcDbBlockTableRecord
  2
*D27
340
0
  0
BLOCK_RECORD
  5
4FC
330
1
100
AcDbSymbolTableRecord
100
AcDbBlockTableRecord
  2
*D28
340
0
  0
BLOCK_RECORD
  5
50A
330
1
100
AcDbSymbolTableRecord
100
AcDbBlockTableRecord
  2
*D29
340
0
  0
BLOCK_RECORD
  5
518
330
1
100
AcDbSymbolTableRecord
100
AcDbBlockTableRecord
  2
*D30
340
0
  0
BLOCK_RECORD
  5
526
330
1
100
AcDbSymbolTableRecord
100
AcDbBlockTableRecord
  2
*D31
340
0
  0
BLOCK_RECORD
  5
59F
330
1
100
AcDbSymbolTableRecord
100
AcDbBlockTableRecord
  2
*D32
340
0
  0
BLOCK_RECORD
  5
5AC
330
1
100
AcDbSymbolTableRecord
100
AcDbBlockTableRecord
  2
*D33
340
0
  0
BLOCK_RECORD
  5
5BA
330
1
100
AcDbSymbolTableRecord
100
AcDbBlockTableRecord
  2
*D34
340
0
  0
BLOCK_RECORD
  5
5C4
330
1
100
AcDbSymbolTableRecord
100
AcDbBlockTableRecord
  2
*D35
340
0
  0
BLOCK_RECORD
  5
5F0
330
1
100
AcDbSymbolTableRecord
100
AcDbBlockTableRecord
  2
*D36
340
0
  0
BLOCK_RECORD
  5
661
330
1
100
AcDbSymbolTableRecord
100
AcDbBlockTableRecord
  2
*D37
340
0
  0
BLOCK_RECORD
  5
66E
330
1
100
AcDbSymbolTableRecord
100
AcDbBlockTableRecord
  2
*D38
340
0
  0
BLOCK_RECORD
  5
67B
330
1
100
AcDbSymbolTableRecord
100
AcDbBlockTableRecord
  2
*D39
340
0
  0
BLOCK_RECORD
  5
691
330
1
100
AcDbSymbolTableRecord
100
AcDbBlockTableRecord
  2
*D40
340
0
  0
ENDTAB
  0
ENDSEC
  0
SECTION
  2
BLOCKS
  0
BLOCK
  5
37
330
36
100
AcDbEntity
  8
0
100
AcDbBlockBegin
  2
*Model_Space
 70
     0
 10
0.0
 20
0.0
 30
0.0
  3
*Model_Space
  1

  0
ENDBLK
  5
38
330
36
100
AcDbEntity
  8
0
100
AcDbBlockEnd
  0
BLOCK
  5
33
330
32
100
AcDbEntity
 67
     1
  8
0
100
AcDbBlockBegin
  2
*Paper_Space
 70
     0
 10
0.0
 20
0.0
 30
0.0
  3
*Paper_Space
  1

  0
ENDBLK
  5
34
330
32
100
AcDbEntity
 67
     1
  8
0
100
AcDbBlockEnd
  0
BLOCK
  5
381
330
380
100
AcDbEntity
  8
0
100
AcDbBlockBegin
  2
_Open30
 70
     0
 10
0.0
 20
0.0
 30
0.0
  3
_Open30
  1

  0
LINE
  5
382
330
380
100
AcDbEntity
  8
0
  6
ByBlock
 62
     0
370
    -2
100
AcDbLine
 10
-1.0
 20
0.267949
 30
0.0
 11
0.0
 21
0.0
 31
0.0
  0
LINE
  5
383
330
380
100
AcDbEntity
  8
0
  6
ByBlock
 62
     0
370
    -2
100
AcDbLine
 10
0.0
 20
0.0
 30
0.0
 11
-1.0
 21
-0.267949
 31
0.0
  0
LINE
  5
384
330
380
100
AcDbEntity
  8
0
  6
ByBlock
 62
     0
370
    -2
100
AcDbLine
 10
0.0
 20
0.0
 30
0.0
 11
-1.0
 21
0.0
 31
0.0
  0
ENDBLK
  5
385
330
380
100
AcDbEntity
  8
0
100
AcDbBlockEnd
  0
BLOCK
  5
4A9
330
4A8
100
AcDbEntity
  8
0
100
AcDbBlockBegin
  2
*D22
 70
     1
 10
0.0
 20
0.0
 30
0.0
  3
*D22
  1

  0
LINE
  5
532
330
4A8
100
AcDbEntity
  8
0
 62
     0
370
    -2
100
AcDbLine
 10
450.6727022964843
 20
104.6573901618509
 30
0.0
 11
450.6727022964843
 21
101.747758739842
 31
0.0
  0
LINE
  5
533
330
4A8
100
AcDbEntity
  8
0
 62
     0
370
    -2
100
AcDbLine
 10
448.2155152423639
 20
104.6573901618509
 30
0.0
 11
448.2155152423639
 21
101.747758739842
 31
0.0
  0
LINE
  5
534
330
4A8
100
AcDbEntity
  8
0
 62
     0
370
    -2
100
AcDbLine
 10
453.1727022964842
 20
102.9977587398421
 30
0.0
 11
455.6727022964842
 21
102.9977587398421
 31
0.0
  0
LINE
  5
535
330
4A8
100
AcDbEntity
  8
0
 62
     0
370
    -2
100
AcDbLine
 10
445.7155152423639
 20
102.9977587398421
 30
0.0
 11
433.715515242364
 21
102.9977587398421
 31
0.0
  0
LINE
  5
536
330
4A8
100
AcDbEntity
  8
0
 62
     0
370
    -2
100
AcDbLine
 10
450.6727022964843
 20
102.9977587398421
 30
0.0
 11
448.2155152423639
 21
102.9977587398421
 31
0.0
  0
INSERT
  5
537
330
4A8
100
AcDbEntity
  8
0
 62
     0
370
    -2
100
AcDbBlockReference
  2
_Open30
 10
450.6727022964843
 20
102.9977587398421
 30
0.0
 41
2.5
 42
2.5
 43
2.5
 50
180.0
  0
INSERT
  5
538
330
4A8
100
AcDbEntity
  8
0
 62
     0
370
    -2
100
AcDbBlockReference
  2
_Open30
 10
448.2155152423639
 20
102.9977587398421
 30
0.0
 41
2.5
 42
2.5
 43
2.5
  0
MTEXT
  5
539
330
4A8
100
AcDbEntity
  8
0
 62
     4
100
AcDbMText
 10
438.0905152423639
 20
104.872758739842
 30
0.0
 40
2.5
 41
0.0
 71
     5
 72
     1
  1
2.46
 73
     1
 44
1.0
1001
ACAD
1000
MTEXTBEGIN
1070
    73
1070
     1
1070
    44
1040
1.0
1070
    74
1070
     0
1000
MTEXTEND
  0
POINT
  5
53A
330
4A8
100
AcDbEntity
  8
Defpoints
 62
     0
100
AcDbPoint
 10
450.6727022964843
 20
104.9073901618509
 30
0.0
  0
POINT
  5
53B
330
4A8
100
AcDbEntity
  8
Defpoints
 62
     0
100
AcDbPoint
 10
448.2155152423639
 20
104.9073901618509
 30
0.0
  0
POINT
  5
53C
330
4A8
100
AcDbEntity
  8
Defpoints
 62
     0
100
AcDbPoint
 10
448.2155152423639
 20
102.9977587398421
 30
0.0
  0
ENDBLK
  5
4AA
330
4A8
100
AcDbEntity
  8
0
100
AcDbBlockEnd
  0
BLOCK
  5
4B7
330
4B6
100
AcDbEntity
  8
0
100
AcDbBlockBegin
  2
*D23
 70
     1
 10
0.0
 20
0.0
 30
0.0
  3
*D23
  1

  0
LINE
  5
53D
330
4B6
100
AcDbEntity
  8
0
 62
     0
370
    -2
100
AcDbLine
 10
452.3108272025574
 20
99.20130058908853
 30
0.0
 11
452.3108272025574
 21
96.65540851962521
 31
0.0
  0
LINE
  5
53E
330
4B6
100
AcDbEntity
  8
0
 62
     0
370
    -2
100
AcDbLine
 10
449.2165914044145
 20
99.20130058908853
 30
0.0
 11
449.2165914044145
 21
96.65540851962521
 31
0.0
  0
LINE
  5
53F
330
4B6
100
AcDbEntity
  8
0
 62
     0
370
    -2
100
AcDbLine
 10
454.8108272025574
 20
97.90540851962521
 30
0.0
 11
457.3108272025574
 21
97.90540851962521
 31
0.0
  0
LINE
  5
540
330
4B6
100
AcDbEntity
  8
0
 62
     0
370
    -2
100
AcDbLine
 10
446.7165914044145
 20
97.90540851962521
 30
0.0
 11
432.8832580710812
 21
97.90540851962521
 31
0.0
  0
LINE
  5
541
330
4B6
100
AcDbEntity
  8
0
 62
     0
370
    -2
100
AcDbLine
 10
452.3108272025574
 20
97.90540851962521
 30
0.0
 11
449.2165914044145
 21
97.90540851962521
 31
0.0
  0
INSERT
  5
542
330
4B6
100
AcDbEntity
  8
0
 62
     0
370
    -2
100
AcDbBlockReference
  2
_Open30
 10
452.3108272025574
 20
97.90540851962521
 30
0.0
 41
2.5
 42
2.5
 43
2.5
 50
180.0
  0
INSERT
  5
543
330
4B6
100
AcDbEntity
  8
0
 62
     0
370
    -2
100
AcDbBlockReference
  2
_Open30
 10
449.2165914044145
 20
97.90540851962521
 30
0.0
 41
2.5
 42
2.5
 43
2.5
  0
MTEXT
  5
544
330
4B6
100
AcDbEntity
  8
0
 62
     4
100
AcDbMText
 10
438.0915914044145
 20
99.78040851962521
 30
0.0
 40
2.5
 41
0.0
 71
     5
 72
     1
  1
15.47
  7
高2.5
 73
     1
 44
1.0
1001
ACAD
1000
MTEXTBEGIN
1070
    73
1070
     1
1070
    44
1040
1.0
1070
    74
1070
     0
1000
MTEXTEND
  0
POINT
  5
545
330
4B6
100
AcDbEntity
  8
Defpoints
 62
     0
100
AcDbPoint
 10
452.3108272025574
 20
99.45130058908853
 30
0.0
  0
POINT
  5
546
330
4B6
100
AcDbEntity
  8
Defpoints
 62
     0
100
AcDbPoint
 10
449.2165914044145
 20
99.45130058908853
 30
0.0
  0
POINT
  5
547
330
4B6
100
AcDbEntity
  8
Defpoints
 62
     0
100
AcDbPoint
 10
449.2165914044145
 20
97.90540851962521
 30
0.0
  0
ENDBLK
  5
4B8
330
4B6
100
AcDbEntity
  8
0
100
AcDbBlockEnd
  0
BLOCK
  5
4C5
330
4C4
100
AcDbEntity
  8
0
100
AcDbBlockBegin
  2
*D24
 70
     1
 10
0.0
 20
0.0
 30
0.0
  3
*D24
  1

  0
LINE
  5
548
330
4C4
100
AcDbEntity
  8
0
 62
     0
370
    -2
100
AcDbLine
 10
454.0399588106429
 20
93.74521087324206
 30
0.0
 11
454.0399588106429
 21
91.47212321087478
 31
0.0
  0
LINE
  5
549
330
4C4
100
AcDbEntity
  8
0
 62
     0
370
    -2
100
AcDbLine
 10
450.0356538574511
 20
93.74521087324206
 30
0.0
 11
450.0356538574511
 21
91.47212321087478
 31
0.0
  0
LINE
  5
54A
330
4C4
100
AcDbEntity
  8
0
 62
     0
370
    -2
100
AcDbLine
 10
456.5399588106429
 20
92.72212321087478
 30
0.0
 11
459.0399588106429
 21
92.72212321087478
 31
0.0
  0
LINE
  5
54B
330
4C4
100
AcDbEntity
  8
0
 62
     0
370
    -2
100
AcDbLine
 10
447.535653857451
 20
92.72212321087478
 30
0.0
 11
435.7856538574511
 21
92.72212321087478
 31
0.0
  0
LINE
  5
54C
330
4C4
100
AcDbEntity
  8
0
 62
     0
370
    -2
100
AcDbLine
 10
454.0399588106429
 20
92.72212321087478
 30
0.0
 11
450.0356538574511
 21
92.72212321087478
 31
0.0
  0
INSERT
  5
54D
330
4C4
100
AcDbEntity
  8
0
 62
     0
370
    -2
100
AcDbBlockReference
  2
_Open30
 10
454.0399588106429
 20
92.72212321087478
 30
0.0
 41
2.5
 42
2.5
 43
2.5
 50
180.0
  0
INSERT
  5
54E
330
4C4
100
AcDbEntity
  8
0
 62
     0
370
    -2
100
AcDbBlockReference
  2
_Open30
 10
450.0356538574511
 20
92.72212321087478
 30
0.0
 41
2.5
 42
2.5
 43
2.5
  0
MTEXT
  5
54F
330
4C4
100
AcDbEntity
  8
0
 62
     4
100
AcDbMText
 10
440.410653857451
 20
94.94712321087476
 30
0.0
 40
3.2
 41
0.0
 71
     5
 72
     1
  1
8.01
  7
高3.2
 73
     1
 44
1.0
1001
ACAD
1000
MTEXTBEGIN
1070
    73
1070
     1
1070
    44
1040
1.0
1070
    74
1070
     0
1000
MTEXTEND
  0
POINT
  5
550
330
4C4
100
AcDbEntity
  8
Defpoints
 62
     0
100
AcDbPoint
 10
454.0399588106429
 20
93.99521087324206
 30
0.0
  0
POINT
  5
551
330
4C4
100
AcDbEntity
  8
Defpoints
 62
     0
100
AcDbPoint
 10
450.0356538574511
 20
93.99521087324206
 30
0.0
  0
POINT
  5
552
330
4C4
100
AcDbEntity
  8
Defpoints
 62
     0
100
AcDbPoint
 10
450.0356538574511
 20
92.72212321087478
 30
0.0
  0
ENDBLK
  5
4C6
330
4C4
100
AcDbEntity
  8
0
100
AcDbBlockEnd
  0
BLOCK
  5
4D3
330
4D2
100
AcDbEntity
  8
0
100
AcDbBlockBegin
  2
*D25
 70
     1
 10
0.0
 20
0.0
 30
0.0
  3
*D25
  1

  0
LINE
  5
553
330
4D2
100
AcDbEntity
  8
0
 62
     0
370
    -2
100
AcDbLine
 10
453.9489521086306
 20
88.47099090521044
 30
0.0
 11
453.9489521086306
 21
86.65257739775404
 31
0.0
  0
LINE
  5
554
330
4D2
100
AcDbEntity
  8
0
 62
     0
370
    -2
100
AcDbLine
 10
449.2165914044145
 20
88.47099090521044
 30
0.0
 11
449.2165914044145
 21
86.65257739775404
 31
0.0
  0
LINE
  5
555
330
4D2
100
AcDbEntity
  8
0
 62
     0
370
    -2
100
AcDbLine
 10
456.4489521086306
 20
87.90257739775404
 30
0.0
 11
458.9489521086306
 21
87.90257739775404
 31
0.0
  0
LINE
  5
556
330
4D2
100
AcDbEntity
  8
0
 62
     0
370
    -2
100
AcDbLine
 10
446.7165914044145
 20
87.90257739775404
 30
0.0
 11
424.9665914044145
 21
87.90257739775404
 31
0.0
  0
LINE
  5
557
330
4D2
100
AcDbEntity
  8
0
 62
     0
370
    -2
100
AcDbLine
 10
453.9489521086306
 20
87.90257739775404
 30
0.0
 11
449.2165914044145
 21
87.90257739775404
 31
0.0
  0
INSERT
  5
558
330
4D2
100
AcDbEntity
  8
0
 62
     0
370
    -2
100
AcDbBlockReference
  2
_Open30
 10
453.9489521086306
 20
87.90257739775404
 30
0.0
 41
2.5
 42
2.5
 43
2.5
 50
180.0
  0
INSERT
  5
559
330
4D2
100
AcDbEntity
  8
0
 62
     0
370
    -2
100
AcDbBlockReference
  2
_Open30
 10
449.2165914044145
 20
87.90257739775404
 30
0.0
 41
2.5
 42
2.5
 43
2.5
  0
MTEXT
  5
55A
330
4D2
100
AcDbEntity
  8
0
 62
     4
100
AcDbMText
 10
434.5915914044145
 20
90.77757739775405
 30
0.0
 40
4.5
 41
0.0
 71
     5
 72
     1
  1
47.32
  7
高4.5
 73
     1
 44
1.0
1001
ACAD
1000
MTEXTBEGIN
1070
    73
1070
     1
1070
    44
1040
1.0
1070
    74
1070
     0
1000
MTEXTEND
  0
POINT
  5
55B
330
4D2
100
AcDbEntity
  8
Defpoints
 62
     0
100
AcDbPoint
 10
453.9489521086306
 20
88.72099090521045
 30
0.0
  0
POINT
  5
55C
330
4D2
100
AcDbEntity
  8
Defpoints
 62
     0
100
AcDbPoint
 10
449.2165914044145
 20
88.72099090521045
 30
0.0
  0
POINT
  5
55D
330
4D2
100
AcDbEntity
  8
Defpoints
 62
     0
100
AcDbPoint
 10
449.2165914044145
 20
87.90257739775404
 30
0.0
  0
ENDBLK
  5
4D4
330
4D2
100
AcDbEntity
  8
0
100
AcDbBlockEnd
  0
BLOCK
  5
4E1
330
4E0
100
AcDbEntity
  8
0
100
AcDbBlockBegin
  2
*D26
 70
     1
 10
0.0
 20
0.0
 30
0.0
  3
*D26
  1

  0
LINE
  5
55E
330
4E0
100
AcDbEntity
  8
0
 62
     0
370
    -2
100
AcDbLine
 10
475.4265883766381
 20
104.6573901618509
 30
0.0
 11
475.4265883766381
 21
101.747758739842
 31
0.0
  0
LINE
  5
55F
330
4E0
100
AcDbEntity
  8
0
 62
     0
370
    -2
100
AcDbLine
 10
472.9694013225177
 20
104.6573901618509
 30
0.0
 11
472.9694013225177
 21
101.747758739842
 31
0.0
  0
LINE
  5
560
330
4E0
100
AcDbEntity
  8
0
 62
     0
370
    -2
100
AcDbLine
 10
477.9265883766381
 20
102.9977587398421
 30
0.0
 11
480.426588376638
 21
102.9977587398421
 31
0.0
  0
LINE
  5
561
330
4E0
100
AcDbEntity
  8
0
 62
     0
370
    -2
100
AcDbLine
 10
470.4694013225178
 20
102.9977587398421
 30
0.0
 11
448.8694013225178
 21
102.9977587398421
 31
0.0
  0
LINE
  5
562
330
4E0
100
AcDbEntity
  8
0
 62
     0
370
    -2
100
AcDbLine
 10
475.4265883766381
 20
102.9977587398421
 30
0.0
 11
472.9694013225177
 21
102.9977587398421
 31
0.0
  0
INSERT
  5
563
330
4E0
100
AcDbEntity
  8
0
 62
     0
370
    -2
100
AcDbBlockReference
  2
_Open30
 10
475.4265883766381
 20
102.9977587398421
 30
0.0
 41
2.5
 42
2.5
 43
2.5
 50
180.0
  0
INSERT
  5
564
330
4E0
100
AcDbEntity
  8
0
 62
     0
370
    -2
100
AcDbBlockReference
  2
_Open30
 10
472.9694013225177
 20
102.9977587398421
 30
0.0
 41
2.5
 42
2.5
 43
2.5
  0
MTEXT
  5
565
330
4E0
100
AcDbEntity
  8
0
 62
     4
100
AcDbMText
 10
458.4194013225178
 20
106.7727587398421
 30
0.0
 40
6.299999999999999
 41
0.0
 71
     5
 72
     1
  1
0.25
  7
高6.3
 73
     1
 44
1.0
1001
ACAD
1000
MTEXTBEGIN
1070
    73
1070
     1
1070
    44
1040
1.0
1070
    74
1070
     0
1000
MTEXTEND
  0
POINT
  5
566
330
4E0
100
AcDbEntity
  8
Defpoints
 62
     0
100
AcDbPoint
 10
475.4265883766381
 20
104.9073901618509
 30
0.0
  0
POINT
  5
567
330
4E0
100
AcDbEntity
  8
Defpoints
 62
     0
100
AcDbPoint
 10
472.9694013225177
 20
104.9073901618509
 30
0.0
  0
POINT
  5
568
330
4E0
100
AcDbEntity
  8
Defpoints
 62
     0
100
AcDbPoint
 10
472.9694013225177
 20
102.9977587398421
 30
0.0
  0
ENDBLK
  5
4E2
330
4E0
100
AcDbEntity
  8
0
100
AcDbBlockEnd
  0
BLOCK
  5
4EF
330
4EE
100
AcDbEntity
  8
0
100
AcDbBlockBegin
  2
*D27
 70
     1
 10
0.0
 20
0.0
 30
0.0
  3
*D27
  1

  0
LINE
  5
569
330
4EE
100
AcDbEntity
  8
0
 62
     0
370
    -2
100
AcDbLine
 10
477.0647132827113
 20
99.20130058908853
 30
0.0
 11
477.0647132827113
 21
96.65540851962521
 31
0.0
  0
LINE
  5
56A
330
4EE
100
AcDbEntity
  8
0
 62
     0
370
    -2
100
AcDbLine
 10
473.9704774845684
 20
99.20130058908853
 30
0.0
 11
473.9704774845684
 21
96.65540851962521
 31
0.0
  0
LINE
  5
56B
330
4EE
100
AcDbEntity
  8
0
 62
     0
370
    -2
100
AcDbLine
 10
479.5647132827112
 20
97.90540851962521
 30
0.0
 11
482.0647132827112
 21
97.90540851962521
 31
0.0
  0
LINE
  5
56C
330
4EE
100
AcDbEntity
  8
0
 62
     0
370
    -2
100
AcDbLine
 10
471.4704774845683
 20
97.90540851962521
 30
0.0
 11
459.4704774845683
 21
97.90540851962521
 31
0.0
  0
LINE
  5
56D
330
4EE
100
AcDbEntity
  8
0
 62
     0
370
    -2
100
AcDbLine
 10
477.0647132827113
 20
97.90540851962521
 30
0.0
 11
473.9704774845684
 21
97.90540851962521
 31
0.0
  0
INSERT
  5
56E
330
4EE
100
AcDbEntity
  8
0
 62
     0
370
    -2
100
AcDbBlockReference
  2
_Open30
 10
477.0647132827113
 20
97.90540851962521
 30
0.0
 41
2.5
 42
2.5
 43
2.5
 50
180.0
  0
INSERT
  5
56F
330
4EE
100
AcDbEntity
  8
0
 62
     0
370
    -2
100
AcDbBlockReference
  2
_Open30
 10
473.9704774845684
 20
97.90540851962521
 30
0.0
 41
2.5
 42
2.5
 43
2.5
  0
MTEXT
  5
570
330
4EE
100
AcDbEntity
  8
0
 62
     4
100
AcDbMText
 10
464.0954774845684
 20
100.0304085196252
 30
0.0
 40
3.0
 41
0.0
 71
     5
 72
     1
  1
1.55
 73
     1
 44
1.0
1001
ACAD
1000
MTEXTBEGIN
1070
    73
1070
     1
1070
    44
1040
1.0
1070
    74
1070
     0
1000
MTEXTEND
  0
POINT
  5
571
330
4EE
100
AcDbEntity
  8
Defpoints
 62
     0
100
AcDbPoint
 10
477.0647132827113
 20
99.45130058908853
 30
0.0
  0
POINT
  5
572
330
4EE
100
AcDbEntity
  8
Defpoints
 62
     0
100
AcDbPoint
 10
473.9704774845684
 20
99.45130058908853
 30
0.0
  0
POINT
  5
573
330
4EE
100
AcDbEntity
  8
Defpoints
 62
     0
100
AcDbPoint
 10
473.9704774845684
 20
97.90540851962521
 30
0.0
  0
ENDBLK
  5
4F0
330
4EE
100
AcDbEntity
  8
0
100
AcDbBlockEnd
  0
BLOCK
  5
4FD
330
4FC
100
AcDbEntity
  8
0
100
AcDbBlockBegin
  2
*D28
 70
     1
 10
0.0
 20
0.0
 30
0.0
  3
*D28
  1

  0
LINE
  5
574
330
4FC
100
AcDbEntity
  8
0
 62
     0
370
    -2
100
AcDbLine
 10
478.7938448907968
 20
93.74521087324206
 30
0.0
 11
478.7938448907968
 21
91.47212321087478
 31
0.0
  0
LINE
  5
575
330
4FC
100
AcDbEntity
  8
0
 62
     0
370
    -2
100
AcDbLine
 10
474.7895399376049
 20
93.74521087324206
 30
0.0
 11
474.7895399376049
 21
91.47212321087478
 31
0.0
  0
LINE
  5
576
330
4FC
100
AcDbEntity
  8
0
 62
     0
370
    -2
100
AcDbLine
 10
481.2938448907967
 20
92.72212321087478
 30
0.0
 11
483.7938448907967
 21
92.72212321087478
 31
0.0
  0
LINE
  5
577
330
4FC
100
AcDbEntity
  8
0
 62
     0
370
    -2
100
AcDbLine
 10
472.2895399376049
 20
92.72212321087478
 30
0.0
 11
463.9562066042715
 21
92.72212321087478
 31
0.0
  0
LINE
  5
578
330
4FC
100
AcDbEntity
  8
0
 62
     0
370
    -2
100
AcDbLine
 10
478.7938448907968
 20
92.72212321087478
 30
0.0
 11
474.7895399376049
 21
92.72212321087478
 31
0.0
  0
INSERT
  5
579
330
4FC
100
AcDbEntity
  8
0
 62
     0
370
    -2
100
AcDbBlockReference
  2
_Open30
 10
478.7938448907968
 20
92.72212321087478
 30
0.0
 41
2.5
 42
2.5
 43
2.5
 50
180.0
  0
INSERT
  5
57A
330
4FC
100
AcDbEntity
  8
0
 62
     0
370
    -2
100
AcDbBlockReference
  2
_Open30
 10
474.7895399376049
 20
92.72212321087478
 30
0.0
 41
2.5
 42
2.5
 43
2.5
  0
MTEXT
  5
57B
330
4FC
100
AcDbEntity
  8
0
 62
     4
100
AcDbMText
 10
466.4145399376049
 20
94.34712321087477
 30
0.0
 40
2.0
 41
0.0
 71
     5
 72
     1
  1
0.8
  7
高2
 73
     1
 44
1.0
1001
ACAD
1000
MTEXTBEGIN
1070
    73
1070
     1
1070
    44
1040
1.0
1070
    74
1070
     0
1000
MTEXTEND
  0
POINT
  5
57C
330
4FC
100
AcDbEntity
  8
Defpoints
 62
     0
100
AcDbPoint
 10
478.7938448907968
 20
93.99521087324206
 30
0.0
  0
POINT
  5
57D
330
4FC
100
AcDbEntity
  8
Defpoints
 62
     0
100
AcDbPoint
 10
474.7895399376049
 20
93.99521087324206
 30
0.0
  0
POINT
  5
57E
330
4FC
100
AcDbEntity
  8
Defpoints
 62
     0
100
AcDbPoint
 10
474.7895399376049
 20
92.72212321087478
 30
0.0
  0
ENDBLK
  5
4FE
330
4FC
100
AcDbEntity
  8
0
100
AcDbBlockEnd
  0
BLOCK
  5
50B
330
50A
100
AcDbEntity
  8
0
100
AcDbBlockBegin
  2
*D29
 70
     1
 10
0.0
 20
0.0
 30
0.0
  3
*D29
  1

  0
LINE
  5
57F
330
50A
100
AcDbEntity
  8
0
 62
     0
370
    -2
100
AcDbLine
 10
478.7028381887845
 20
88.47099090521044
 30
0.0
 11
478.7028381887845
 21
86.65257739775404
 31
0.0
  0
LINE
  5
580
330
50A
100
AcDbEntity
  8
0
 62
     0
370
    -2
100
AcDbLine
 10
473.9704774845684
 20
88.47099090521044
 30
0.0
 11
473.9704774845684
 21
86.65257739775404
 31
0.0
  0
LINE
  5
581
330
50A
100
AcDbEntity
  8
0
 62
     0
370
    -2
100
AcDbLine
 10
481.2028381887844
 20
87.90257739775404
 30
0.0
 11
483.7028381887845
 21
87.90257739775404
 31
0.0
  0
LINE
  5
582
330
50A
100
AcDbEntity
  8
0
 62
     0
370
    -2
100
AcDbLine
 10
471.4704774845683
 20
87.90257739775404
 30
0.0
 11
456.7204774845683
 21
87.90257739775404
 31
0.0
  0
LINE
  5
583
330
50A
100
AcDbEntity
  8
0
 62
     0
370
    -2
100
AcDbLine
 10
478.7028381887845
 20
87.90257739775404
 30
0.0
 11
473.9704774845684
 21
87.90257739775404
 31
0.0
  0
INSERT
  5
584
330
50A
100
AcDbEntity
  8
0
 62
     0
370
    -2
100
AcDbBlockReference
  2
_Open30
 10
478.7028381887845
 20
87.90257739775404
 30
0.0
 41
2.5
 42
2.5
 43
2.5
 50
180.0
  0
INSERT
  5
585
330
50A
100
AcDbEntity
  8
0
 62
     0
370
    -2
100
AcDbBlockReference
  2
_Open30
 10
473.9704774845684
 20
87.90257739775404
 30
0.0
 41
2.5
 42
2.5
 43
2.5
  0
MTEXT
  5
586
330
50A
100
AcDbEntity
  8
0
 62
     4
100
AcDbMText
 10
462.8454774845684
 20
90.02757739775404
 30
0.0
 40
3.0
 41
0.0
 71
     5
 72
     1
  1
18.93
 73
     1
 44
1.0
1001
ACAD
1000
MTEXTBEGIN
1070
    73
1070
     1
1070
    44
1040
1.0
1070
    74
1070
     0
1000
MTEXTEND
  0
POINT
  5
587
330
50A
100
AcDbEntity
  8
Defpoints
 62
     0
100
AcDbPoint
 10
478.7028381887845
 20
88.72099090521045
 30
0.0
  0
POINT
  5
588
330
50A
100
AcDbEntity
  8
Defpoints
 62
     0
100
AcDbPoint
 10
473.9704774845684
 20
88.72099090521045
 30
0.0
  0
POINT
  5
589
330
50A
100
AcDbEntity
  8
Defpoints
 62
     0
100
AcDbPoint
 10
473.9704774845684
 20
87.90257739775404
 30
0.0
  0
ENDBLK
  5
50C
330
50A
100
AcDbEntity
  8
0
100
AcDbBlockEnd
  0
BLOCK
  5
519
330
518
100
AcDbEntity
  8
0
100
AcDbBlockBegin
  2
*D30
 70
     1
 10
0.0
 20
0.0
 30
0.0
  3
*D30
  1

  0
LINE
  5
58A
330
518
100
AcDbEntity
  8
0
 62
     0
370
    -2
100
AcDbLine
 10
475.8984113376461
 20
83.41515069862067
 30
0.0
 11
475.8984113376461
 21
81.10522962174513
 31
0.0
  0
LINE
  5
58B
330
518
100
AcDbEntity
  8
0
 62
     0
370
    -2
100
AcDbLine
 10
471.3097361354982
 20
83.41515069862067
 30
0.0
 11
471.3097361354982
 21
81.10522962174513
 31
0.0
  0
LINE
  5
58C
330
518
100
AcDbEntity
  8
0
 62
     0
370
    -2
100
AcDbLine
 10
478.3984113376461
 20
82.35522962174513
 30
0.0
 11
480.8984113376461
 21
82.35522962174513
 31
0.0
  0
LINE
  5
58D
330
518
100
AcDbEntity
  8
0
 62
     0
370
    -2
100
AcDbLine
 10
468.8097361354983
 20
82.35522962174513
 30
0.0
 11
454.0597361354982
 21
82.35522962174513
 31
0.0
  0
LINE
  5
58E
330
518
100
AcDbEntity
  8
0
 62
     0
370
    -2
100
AcDbLine
 10
475.8984113376461
 20
82.35522962174513
 30
0.0
 11
471.3097361354982
 21
82.35522962174513
 31
0.0
  0
INSERT
  5
58F
330
518
100
AcDbEntity
  8
0
 62
     0
370
    -2
100
AcDbBlockReference
  2
_Open30
 10
475.8984113376461
 20
82.35522962174513
 30
0.0
 41
2.5
 42
2.5
 43
2.5
 50
180.0
  0
INSERT
  5
590
330
518
100
AcDbEntity
  8
0
 62
     0
370
    -2
100
AcDbBlockReference
  2
_Open30
 10
471.3097361354982
 20
82.35522962174513
 30
0.0
 41
2.5
 42
2.5
 43
2.5
  0
MTEXT
  5
591
330
518
100
AcDbEntity
  8
0
 62
     4
100
AcDbMText
 10
460.1847361354982
 20
84.48022962174514
 30
0.0
 40
3.0
 41
0.0
 71
     5
 72
     1
  1
13.77
 73
     1
 44
1.0
1001
ACAD
1000
MTEXTBEGIN
1070
    73
1070
     1
1070
    44
1040
1.0
1070
    74
1070
     0
1000
MTEXTEND
  0
POINT
  5
592
330
518
100
AcDbEntity
  8
Defpoints
 62
     0
100
AcDbPoint
 10
475.8984113376461
 20
83.66515069862066
 30
0.0
  0
POINT
  5
593
330
518
100
AcDbEntity
  8
Defpoints
 62
     0
100
AcDbPoint
 10
471.3097361354982
 20
83.66515069862066
 30
0.0
  0
POINT
  5
594
330
518
100
AcDbEntity
  8
Defpoints
 62
     0
100
AcDbPoint
 10
471.3097361354982
 20
82.35522962174513
 30
0.0
  0
ENDBLK
  5
51A
330
518
100
AcDbEntity
  8
0
100
AcDbBlockEnd
  0
BLOCK
  5
527
330
526
100
AcDbEntity
  8
0
100
AcDbBlockBegin
  2
*D31
 70
     1
 10
0.0
 20
0.0
 30
0.0
  3
*D31
  1

  0
LINE
  5
595
330
526
100
AcDbEntity
  8
0
 62
     0
370
    -2
100
AcDbLine
 10
468.8021285044958
 20
114.344642016895
 30
0.0
 11
468.8021285044958
 21
121.7411754948327
 31
0.0
  0
LINE
  5
596
330
526
100
AcDbEntity
  8
0
 62
     0
370
    -2
100
AcDbLine
 10
458.8636541350058
 20
114.344642016895
 30
0.0
 11
458.8636541350058
 21
121.7411754948327
 31
0.0
  0
LINE
  5
597
330
526
100
AcDbEntity
  8
0
 62
     0
370
    -2
100
AcDbLine
 10
466.3021285044958
 20
120.4911754948327
 30
0.0
 11
461.3636541350058
 21
120.4911754948327
 31
0.0
  0
INSERT
  5
598
330
526
100
AcDbEntity
  8
0
 62
     0
370
    -2
100
AcDbBlockReference
  2
_Open30
 10
468.8021285044958
 20
120.4911754948327
 30
0.0
 41
2.5
 42
2.5
 43
2.5
  0
INSERT
  5
599
330
526
100
AcDbEntity
  8
0
 62
     0
370
    -2
100
AcDbBlockReference
  2
_Open30
 10
458.8636541350058
 20
120.4911754948327
 30
0.0
 41
2.5
 42
2.5
 43
2.5
 50
180.0
  0
MTEXT
  5
59A
330
526
100
AcDbEntity
  8
0
 62
     4
100
AcDbMText
 10
463.8328913197508
 20
123.5661754948327
 30
0.0
 40
3.0
 41
0.0
 71
     5
 72
     1
  1
9.94\H0.7X;\S+0^ -0.02;
 73
     1
 44
1.0
1001
ACAD
1000
MTEXTBEGIN
1070
    73
1070
     1
1070
    44
1040
1.0
1070
    74
1070
     0
1000
MTEXTEND
  0
POINT
  5
59B
330
526
100
AcDbEntity
  8
Defpoints
 62
     0
100
AcDbPoint
 10
468.8021285044958
 20
114.094642016895
 30
0.0
  0
POINT
  5
59C
330
526
100
AcDbEntity
  8
Defpoints
 62
     0
100
AcDbPoint
 10
458.8636541350058
 20
114.094642016895
 30
0.0
  0
POINT
  5
59D
330
526
100
AcDbEntity
  8
Defpoints
 62
     0
100
AcDbPoint
 10
458.8636541350058
 20
120.4911754948327
 30
0.0
  0
ENDBLK
  5
528
330
526
100
AcDbEntity
  8
0
100
AcDbBlockEnd
  0
BLOCK
  5
5A0
330
59F
100
AcDbEntity
  8
0
100
AcDbBlockBegin
  2
*D32
 70
     1
 10
0.0
 20
0.0
 30
0.0
  3
*D32
  1

  0
LINE
  5
5A2
330
59F
100
AcDbEntity
  8
0
  6
Continuous
 62
     0
370
    -2
100
AcDbLine
 10
13.699634
 20
-31.540495
 30
0.0
 11
13.699634
 21
-48.34217595743519
 31
0.0
  0
LINE
  5
5A3
330
59F
100
AcDbEntity
  8
0
  6
Continuous
 62
     0
370
    -2
100
AcDbLine
 10
46.199634
 20
-31.540495
 30
0.0
 11
46.199634
 21
-48.34217595743519
 31
0.0
  0
LINE
  5
5A4
330
59F
100
AcDbEntity
  8
0
  6
Continuous
 62
     0
370
    -2
100
AcDbLine
 10
16.19963399999999
 20
-47.09217595743519
 30
0.0
 11
43.699634
 21
-47.09217595743519
 31
0.0
  0
INSERT
  5
5A5
330
59F
100
AcDbEntity
  8
0
  6
Continuous
 62
     0
370
    -2
100
AcDbBlockReference
  2
_Open30
 10
13.699634
 20
-47.09217595743519
 30
0.0
 41
2.5
 42
2.5
 43
2.5
 50
180.0
  0
INSERT
  5
5A6
330
59F
100
AcDbEntity
  8
0
  6
Continuous
 62
     0
370
    -2
100
AcDbBlockReference
  2
_Open30
 10
46.199634
 20
-47.09217595743519
 30
0.0
 41
2.5
 42
2.5
 43
2.5
  0
MTEXT
  5
5A7
330
59F
100
AcDbEntity
  8
0
  6
Continuous
 62
     4
100
AcDbMText
 10
29.58426192740035
 20
-44.96717595743518
 30
0.0
 40
3.0
 41
0.0
 71
     5
 72
     1
  1
65
 73
     1
 44
1.0
1001
ACAD
1000
MTEXTBEGIN
1070
    73
1070
     1
1070
    44
1040
1.0
1070
    74
1070
     0
1000
MTEXTEND
  0
POINT
  5
5A8
330
59F
100
AcDbEntity
  8
Defpoints
  6
Continuous
 62
     0
100
AcDbPoint
 10
13.699634
 20
-31.290495
 30
0.0
  0
POINT
  5
5A9
330
59F
100
AcDbEntity
  8
Defpoints
  6
Continuous
 62
     0
100
AcDbPoint
 10
46.199634
 20
-31.290495
 30
0.0
  0
POINT
  5
5AA
330
59F
100
AcDbEntity
  8
Defpoints
  6
Continuous
 62
     0
100
AcDbPoint
 10
46.199634
 20
-47.09217595743519
 30
0.0
  0
ENDBLK
  5
5A1
330
59F
100
AcDbEntity
  8
0
100
AcDbBlockEnd
  0
BLOCK
  5
5AD
330
5AC
100
AcDbEntity
  8
0
100
AcDbBlockBegin
  2
*D33
 70
     1
 10
0.0
 20
0.0
 30
0.0
  3
*D33
  1

  0
LINE
  5
5AF
330
5AC
100
AcDbEntity
  8
0
  6
Continuous
 62
     0
370
    -2
100
AcDbLine
 10
6.949633999999997
 20
-28.99578300000001
 30
0.0
 11
6.949633999999996
 21
-54.56742866803677
 31
0.0
  0
LINE
  5
5B0
330
5AC
100
AcDbEntity
  8
0
  6
Continuous
 62
     0
370
    -2
100
AcDbLine
 10
52.949634
 20
-28.99578300000001
 30
0.0
 11
52.949634
 21
-54.56742866803677
 31
0.0
  0
LINE
  5
5B1
330
5AC
100
AcDbEntity
  8
0
  6
Continuous
 62
     0
370
    -2
100
AcDbLine
 10
9.449633999999996
 20
-53.31742866803677
 30
0.0
 11
50.449634
 21
-53.31742866803677
 31
0.0
  0
INSERT
  5
5B2
330
5AC
100
AcDbEntity
  8
0
  6
Continuous
 62
     0
370
    -2
100
AcDbBlockReference
  2
_Open30
 10
6.949633999999996
 20
-53.31742866803677
 30
0.0
 41
2.5
 42
2.5
 43
2.5
 50
180.0
  0
INSERT
  5
5B3
330
5AC
100
AcDbEntity
  8
0
  6
Continuous
 62
     0
370
    -2
100
AcDbBlockReference
  2
_Open30
 10
52.949634
 20
-53.31742866803677
 30
0.0
 41
2.5
 42
2.5
 43
2.5
  0
MTEXT
  5
5B4
330
5AC
100
AcDbEntity
  8
0
  6
Continuous
 62
     4
100
AcDbMText
 10
30.05457791516142
 20
-51.19242866803677
 30
0.0
 40
3.0
 41
0.0
 71
     5
 72
     1
  1
92
 73
     1
 44
1.0
1001
ACAD
1000
MTEXTBEGIN
1070
    73
1070
     1
1070
    44
1040
1.0
1070
    74
1070
     0
1000
MTEXTEND
  0
POINT
  5
5B5
330
5AC
100
AcDbEntity
  8
Defpoints
  6
Continuous
 62
     0
100
AcDbPoint
 10
6.949633999999997
 20
-28.74578300000001
 30
0.0
  0
POINT
  5
5B6
330
5AC
100
AcDbEntity
  8
Defpoints
  6
Continuous
 62
     0
100
AcDbPoint
 10
52.949634
 20
-28.74578300000001
 30
0.0
  0
POINT
  5
5B7
330
5AC
100
AcDbEntity
  8
Defpoints
  6
Continuous
 62
     0
100
AcDbPoint
 10
52.949634
 20
-53.31742866803677
 30
0.0
  0
ENDBLK
  5
5AE
330
5AC
100
AcDbEntity
  8
0
100
AcDbBlockEnd
  0
BLOCK
  5
5BB
330
5BA
100
AcDbEntity
  8
0
100
AcDbBlockBegin
  2
*D34
 70
     1
 10
0.0
 20
0.0
 30
0.0
  3
*D34
  1

  0
LINE
  5
5BD
330
5BA
100
AcDbEntity
  8
0
  6
Continuous
 62
     0
370
    -2
100
AcDbLine
 10
69.1672162517613
 20
39.62703367043868
 30
0.0
 11
-9.267948251761286
 21
23.88140032956127
 31
0.0
  0
INSERT
  5
5BE
330
5BA
100
AcDbEntity
  8
0
  6
Continuous
 62
     0
370
    -2
100
AcDbBlockReference
  2
_Open30
 10
71.61831514249638
 20
40.1190847123411
 30
0.0
 41
2.5
 42
2.5
 43
2.5
 50
11.35108693248123
  0
INSERT
  5
5BF
330
5BA
100
AcDbEntity
  8
0
  6
Continuous
 62
     0
370
    -2
100
AcDbBlockReference
  2
_Open30
 10
-11.71904714249637
 20
23.3893492876589
 30
0.0
 41
2.5
 42
2.5
 43
2.5
 50
191.3510869324812
  0
MTEXT
  5
5C0
102
{ACAD_XDICTIONARY
360
7D4
102
}
330
5BA
100
AcDbEntity
  8
0
  6
Continuous
 62
     4
100
AcDbMText
 10
10.51179297454305
 20
30.01952161705096
 30
0.0
 40
3.0
 41
0.0
 71
     5
 72
     1
  1
\U+2205170
 11
0.9804395562940323
 21
0.1968204167609676
 31
0.0
 73
     1
 44
1.0
1001
ACAD
1000
MTEXTBEGIN
1070
    73
1070
     1
1070
    44
1040
1.0
1070
    74
1070
     0
1000
MTEXTEND
  0
POINT
  5
5C1
330
5BA
100
AcDbEntity
  8
Defpoints
  6
Continuous
 62
     0
100
AcDbPoint
 10
-11.71904714249637
 20
23.3893492876589
 30
0.0
  0
POINT
  5
5C2
330
5BA
100
AcDbEntity
  8
Defpoints
  6
Continuous
 62
     0
100
AcDbPoint
 10
71.61831514249638
 20
40.1190847123411
 30
0.0
  0
ENDBLK
  5
5BC
330
5BA
100
AcDbEntity
  8
0
100
AcDbBlockEnd
  0
BLOCK
  5
5C5
330
5C4
100
AcDbEntity
  8
0
100
AcDbBlockBegin
  2
*D35
 70
     1
 10
0.0
 20
0.0
 30
0.0
  3
*D35
  1

  0
LINE
  5
64E
330
5C4
100
AcDbEntity
  8
0
  6
Continuous
 62
     0
370
    -2
100
AcDbLine
 10
-11.73882
 20
31.754217
 30
0.0
 11
-20.9230006061216
 21
31.754217
 31
0.0
  0
LINE
  5
64F
330
5C4
100
AcDbEntity
  8
0
  6
Continuous
 62
     0
370
    -2
100
AcDbLine
 10
6.699633999999997
 20
-28.74578300000001
 30
0.0
 11
-20.92300060612161
 21
-28.74578300000001
 31
0.0
  0
LINE
  5
650
330
5C4
100
AcDbEntity
  8
0
  6
Continuous
 62
     0
370
    -2
100
AcDbLine
 10
-19.6730006061216
 20
29.254217
 30
0.0
 11
-19.67300060612161
 21
-26.24578300000001
 31
0.0
  0
INSERT
  5
651
330
5C4
100
AcDbEntity
  8
0
  6
Continuous
 62
     0
370
    -2
100
AcDbBlockReference
  2
_Open30
 10
-19.6730006061216
 20
31.754217
 30
0.0
 41
2.5
 42
2.5
 43
2.5
 50
90.0
  0
INSERT
  5
652
330
5C4
100
AcDbEntity
  8
0
  6
Continuous
 62
     0
370
    -2
100
AcDbBlockReference
  2
_Open30
 10
-19.67300060612161
 20
-28.74578300000001
 30
0.0
 41
2.5
 42
2.5
 43
2.5
 50
270.0
  0
MTEXT
  5
653
330
5C4
100
AcDbEntity
  8
0
  6
Continuous
 62
     4
100
AcDbMText
 10
-21.7980006061216
 20
0.0533393175260247
 30
0.0
 40
3.0
 41
0.0
 71
     5
 72
     1
  1
121.2
 11
0.0000000000000001
 21
1.0
 31
0.0
 73
     1
 44
1.0
1001
ACAD
1000
MTEXTBEGIN
1070
    73
1070
     1
1070
    44
1040
1.0
1070
    74
1070
     0
1000
MTEXTEND
  0
POINT
  5
654
330
5C4
100
AcDbEntity
  8
Defpoints
  6
Continuous
 62
     0
100
AcDbPoint
 10
-11.48882
 20
31.754217
 30
0.0
  0
POINT
  5
655
330
5C4
100
AcDbEntity
  8
Defpoints
  6
Continuous
 62
     0
100
AcDbPoint
 10
6.949633999999997
 20
-28.74578300000001
 30
0.0
  0
POINT
  5
656
330
5C4
100
AcDbEntity
  8
Defpoints
  6
Continuous
 62
     0
100
AcDbPoint
 10
-19.67300060612161
 20
-28.74578300000001
 30
0.0
  0
ENDBLK
  5
5C6
330
5C4
100
AcDbEntity
  8
0
100
AcDbBlockEnd
  0
BLOCK
  5
5F1
330
5F0
100
AcDbEntity
  8
0
100
AcDbBlockBegin
  2
*D36
 70
     1
 10
0.0
 20
0.0
 30
0.0
  3
*D36
  1

  0
LINE
  5
657
330
5F0
100
AcDbEntity
  8
0
  6
Continuous
 62
     0
370
    -2
100
AcDbLine
 10
23.139412
 20
73.921165
 30
0.0
 11
-32.33250298938695
 21
73.92116500000001
 31
0.0
  0
LINE
  5
658
330
5F0
100
AcDbEntity
  8
0
  6
Continuous
 62
     0
370
    -2
100
AcDbLine
 10
6.699633999999997
 20
-28.74578300000001
 30
0.0
 11
-32.33250298938698
 21
-28.745783
 31
0.0
  0
LINE
  5
659
330
5F0
100
AcDbEntity
  8
0
  6
Continuous
 62
     0
370
    -2
100
AcDbLine
 10
-31.08250298938695
 20
71.421165
 30
0.0
 11
-31.08250298938698
 21
-26.245783
 31
0.0
  0
INSERT
  5
65A
330
5F0
100
AcDbEntity
  8
0
  6
Continuous
 62
     0
370
    -2
100
AcDbBlockReference
  2
_Open30
 10
-31.08250298938695
 20
73.921165
 30
0.0
 41
2.5
 42
2.5
 43
2.5
 50
90.0
  0
INSERT
  5
65B
330
5F0
100
AcDbEntity
  8
0
  6
Continuous
 62
     0
370
    -2
100
AcDbBlockReference
  2
_Open30
 10
-31.08250298938698
 20
-28.745783
 30
0.0
 41
2.5
 42
2.5
 43
2.5
 50
270.0
  0
MTEXT
  5
65C
330
5F0
100
AcDbEntity
  8
0
  6
Continuous
 62
     4
100
AcDbMText
 10
-33.20750298938697
 20
20.38324410883297
 30
0.0
 40
3.0
 41
0.0
 71
     5
 72
     1
  1
206.2
 11
0.0000000000000001
 21
1.0
 31
0.0
 73
     1
 44
1.0
1001
ACAD
1000
MTEXTBEGIN
1070
    73
1070
     1
1070
    44
1040
1.0
1070
    74
1070
     0
1000
MTEXTEND
  0
POINT
  5
65D
330
5F0
100
AcDbEntity
  8
Defpoints
  6
Continuous
 62
     0
100
AcDbPoint
 10
23.389412
 20
73.921165
 30
0.0
  0
POINT
  5
65E
330
5F0
100
AcDbEntity
  8
Defpoints
  6
Continuous
 62
     0
100
AcDbPoint
 10
6.949633999999997
 20
-28.74578300000001
 30
0.0
  0
POINT
  5
65F
330
5F0
100
AcDbEntity
  8
Defpoints
  6
Continuous
 62
     0
100
AcDbPoint
 10
-31.08250298938698
 20
-28.745783
 30
0.0
  0
ENDBLK
  5
5F2
330
5F0
100
AcDbEntity
  8
0
100
AcDbBlockEnd
  0
BLOCK
  5
662
330
661
100
AcDbEntity
  8
0
100
AcDbBlockBegin
  2
*D37
 70
     1
 10
0.0
 20
0.0
 30
0.0
  3
*D37
  1

  0
LINE
  5
664
330
661
100
AcDbEntity
  8
0
  6
Continuous
 62
     0
370
    -2
100
AcDbLine
 10
-117.228027
 20
71.004227
 30
0.0
 11
-117.228027
 21
82.86155981649461
 31
0.0
  0
LINE
  5
665
330
661
100
AcDbEntity
  8
0
  6
Continuous
 62
     0
370
    -2
100
AcDbLine
 10
-99.97802700000001
 20
71.004227
 30
0.0
 11
-99.97802700000001
 21
82.86155981649461
 31
0.0
  0
LINE
  5
666
330
661
100
AcDbEntity
  8
0
  6
Continuous
 62
     0
370
    -2
100
AcDbLine
 10
-114.728027
 20
81.61155981649461
 30
0.0
 11
-102.478027
 21
81.61155981649461
 31
0.0
  0
INSERT
  5
667
330
661
100
AcDbEntity
  8
0
  6
Continuous
 62
     0
370
    -2
100
AcDbBlockReference
  2
_Open30
 10
-117.228027
 20
81.61155981649461
 30
0.0
 41
2.5
 42
2.5
 43
2.5
 50
180.0
  0
INSERT
  5
668
330
661
100
AcDbEntity
  8
0
  6
Continuous
 62
     0
370
    -2
100
AcDbBlockReference
  2
_Open30
 10
-99.97802700000001
 20
81.61155981649461
 30
0.0
 41
2.5
 42
2.5
 43
2.5
  0
MTEXT
  5
669
330
661
100
AcDbEntity
  8
0
  6
Continuous
 62
     4
100
AcDbMText
 10
-108.3267043967662
 20
83.73655981649461
 30
0.0
 40
3.0
 41
0.0
 71
     5
 72
     1
  1
34.5
 73
     1
 44
1.0
1001
ACAD
1000
MTEXTBEGIN
1070
    73
1070
     1
1070
    44
1040
1.0
1070
    74
1070
     0
1000
MTEXTEND
  0
POINT
  5
66A
330
661
100
AcDbEntity
  8
Defpoints
  6
Continuous
 62
     0
100
AcDbPoint
 10
-117.228027
 20
70.754227
 30
0.0
  0
POINT
  5
66B
330
661
100
AcDbEntity
  8
Defpoints
  6
Continuous
 62
     0
100
AcDbPoint
 10
-99.97802700000001
 20
70.754227
 30
0.0
  0
POINT
  5
66C
330
661
100
AcDbEntity
  8
Defpoints
  6
Continuous
 62
     0
100
AcDbPoint
 10
-99.97802700000001
 20
81.61155981649461
 30
0.0
  0
ENDBLK
  5
663
330
661
100
AcDbEntity
  8
0
100
AcDbBlockEnd
  0
BLOCK
  5
66F
330
66E
100
AcDbEntity
  8
0
100
AcDbBlockBegin
  2
*D38
 70
     1
 10
0.0
 20
0.0
 30
0.0
  3
*D38
  1

  0
LINE
  5
671
330
66E
100
AcDbEntity
  8
0
  6
Continuous
 62
     0
370
    -2
100
AcDbLine
 10
-110.973546
 20
-31.49452800000001
 30
0.0
 11
-110.973546
 21
-37.58233984450749
 31
0.0
  0
LINE
  5
672
330
66E
100
AcDbEntity
  8
0
  6
Continuous
 62
     0
370
    -2
100
AcDbLine
 10
-103.473546
 20
-28.99578300000001
 30
0.0
 11
-103.473546
 21
-37.58233984450749
 31
0.0
  0
LINE
  5
673
330
66E
100
AcDbEntity
  8
0
  6
Continuous
 62
     0
370
    -2
100
AcDbLine
 10
-108.473546
 20
-36.33233984450749
 30
0.0
 11
-105.973546
 21
-36.33233984450749
 31
0.0
  0
INSERT
  5
674
330
66E
100
AcDbEntity
  8
0
  6
Continuous
 62
     0
370
    -2
100
AcDbBlockReference
  2
_Open30
 10
-110.973546
 20
-36.33233984450749
 30
0.0
 41
2.5
 42
2.5
 43
2.5
 50
180.0
  0
INSERT
  5
675
330
66E
100
AcDbEntity
  8
0
  6
Continuous
 62
     0
370
    -2
100
AcDbBlockReference
  2
_Open30
 10
-103.473546
 20
-36.33233984450749
 30
0.0
 41
2.5
 42
2.5
 43
2.5
  0
MTEXT
  5
676
330
66E
100
AcDbEntity
  8
0
  6
Continuous
 62
     4
100
AcDbMText
 10
-107.2238752053667
 20
-34.20733984450749
 30
0.0
 40
3.0
 41
0.0
 71
     5
 72
     1
  1
15
 73
     1
 44
1.0
1001
ACAD
1000
MTEXTBEGIN
1070
    73
1070
     1
1070
    44
1040
1.0
1070
    74
1070
     0
1000
MTEXTEND
  0
POINT
  5
677
330
66E
100
AcDbEntity
  8
Defpoints
  6
Continuous
 62
     0
100
AcDbPoint
 10
-110.973546
 20
-31.244528
 30
0.0
  0
POINT
  5
678
330
66E
100
AcDbEntity
  8
Defpoints
  6
Continuous
 62
     0
100
AcDbPoint
 10
-103.473546
 20
-28.74578300000001
 30
0.0
  0
POINT
  5
679
330
66E
100
AcDbEntity
  8
Defpoints
  6
Continuous
 62
     0
100
AcDbPoint
 10
-103.473546
 20
-36.33233984450749
 30
0.0
  0
ENDBLK
  5
670
330
66E
100
AcDbEntity
  8
0
100
AcDbBlockEnd
  0
BLOCK
  5
67C
330
67B
100
AcDbEntity
  8
0
100
AcDbBlockBegin
  2
*D39
 70
     1
 10
0.0
 20
0.0
 30
0.0
  3
*D39
  1

  0
LINE
  5
6AF
330
67B
100
AcDbEntity
  8
0
  6
Continuous
 62
     0
370
    -2
100
AcDbLine
 10
-82.63098499999998
 20
63.947586
 30
0.0
 11
-82.63098499999998
 21
-47.48889239755828
 31
0.0
  0
LINE
  5
6B0
330
67B
100
AcDbEntity
  8
0
  6
Continuous
 62
     0
370
    -2
100
AcDbLine
 10
-125.973546
 20
-23.395783
 30
0.0
 11
-125.973546
 21
-47.48889239755828
 31
0.0
  0
LINE
  5
6B1
330
67B
100
AcDbEntity
  8
0
  6
Continuous
 62
     0
370
    -2
100
AcDbLine
 10
-85.13098499999998
 20
-46.23889239755828
 30
0.0
 11
-123.473546
 21
-46.23889239755828
 31
0.0
  0
INSERT
  5
6B2
330
67B
100
AcDbEntity
  8
0
  6
Continuous
 62
     0
370
    -2
100
AcDbBlockReference
  2
_Open30
 10
-82.63098499999998
 20
-46.23889239755828
 30
0.0
 41
2.5
 42
2.5
 43
2.5
  0
INSERT
  5
6B3
330
67B
100
AcDbEntity
  8
0
  6
Continuous
 62
     0
370
    -2
100
AcDbBlockReference
  2
_Open30
 10
-125.973546
 20
-46.23889239755828
 30
0.0
 41
2.5
 42
2.5
 43
2.5
 50
180.0
  0
MTEXT
  5
6B4
330
67B
100
AcDbEntity
  8
0
  6
Continuous
 62
     4
100
AcDbMText
 10
-105.5543272397408
 20
-44.11389239755829
 30
0.0
 40
3.0
 41
0.0
 71
     5
 72
     1
  1
90
 73
     1
 44
1.0
1001
ACAD
1000
MTEXTBEGIN
1070
    73
1070
     1
1070
    44
1040
1.0
1070
    74
1070
     0
1000
MTEXTEND
  0
POINT
  5
6B5
330
67B
100
AcDbEntity
  8
Defpoints
  6
Continuous
 62
     0
100
AcDbPoint
 10
-82.63098499999998
 20
64.197586
 30
0.0
  0
POINT
  5
6B6
330
67B
100
AcDbEntity
  8
Defpoints
  6
Continuous
 62
     0
100
AcDbPoint
 10
-125.973546
 20
-23.145783
 30
0.0
  0
POINT
  5
6B7
330
67B
100
AcDbEntity
  8
Defpoints
  6
Continuous
 62
     0
100
AcDbPoint
 10
-125.973546
 20
-46.23889239755828
 30
0.0
  0
ENDBLK
  5
67D
330
67B
100
AcDbEntity
  8
0
100
AcDbBlockEnd
  0
BLOCK
  5
692
330
691
100
AcDbEntity
  8
0
100
AcDbBlockBegin
  2
*D40
 70
     1
 10
0.0
 20
0.0
 30
0.0
  3
*D40
  1

  0
LINE
  5
6C1
330
691
100
AcDbEntity
  8
0
  6
Continuous
 62
     0
370
    -2
100
AcDbLine
 10
-129.373546
 20
27.629217
 30
0.0
 11
-129.373546
 21
-57.03312729915251
 31
0.0
  0
LINE
  5
6C2
330
691
100
AcDbEntity
  8
0
  6
Continuous
 62
     0
370
    -2
100
AcDbLine
 10
-82.63098499999998
 20
63.697586
 30
0.0
 11
-82.63098499999999
 21
-57.03312729915251
 31
0.0
  0
LINE
  5
6C3
330
691
100
AcDbEntity
  8
0
  6
Continuous
 62
     0
370
    -2
100
AcDbLine
 10
-126.873546
 20
-55.78312729915251
 30
0.0
 11
-85.13098499999999
 21
-55.78312729915251
 31
0.0
  0
INSERT
  5
6C4
330
691
100
AcDbEntity
  8
0
  6
Continuous
 62
     0
370
    -2
100
AcDbBlockReference
  2
_Open30
 10
-129.373546
 20
-55.78312729915251
 30
0.0
 41
2.5
 42
2.5
 43
2.5
 50
180.0
  0
INSERT
  5
6C5
330
691
100
AcDbEntity
  8
0
  6
Continuous
 62
     0
370
    -2
100
AcDbBlockReference
  2
_Open30
 10
-82.63098499999999
 20
-55.78312729915251
 30
0.0
 41
2.5
 42
2.5
 43
2.5
  0
MTEXT
  5
6C6
330
691
100
AcDbEntity
  8
0
  6
Continuous
 62
     4
100
AcDbMText
 10
-105.5543272397408
 20
-53.65812729915251
 30
0.0
 40
3.0
 41
0.0
 71
     5
 72
     1
  1
(97)
 73
     1
 44
1.0
1001
ACAD
1000
MTEXTBEGIN
1070
    73
1070
     1
1070
    44
1040
1.0
1070
    74
1070
     0
1000
MTEXTEND
  0
POINT
  5
6C7
330
691
100
AcDbEntity
  8
Defpoints
  6
Continuous
 62
     0
100
AcDbPoint
 10
-129.373546
 20
27.879217
 30
0.0
  0
POINT
  5
6C8
330
691
100
AcDbEntity
  8
Defpoints
  6
Continuous
 62
     0
100
AcDbPoint
 10
-82.63098499999998
 20
63.947586
 30
0.0
  0
POINT
  5
6C9
330
691
100
AcDbEntity
  8
Defpoints
  6
Continuous
 62
     0
100
AcDbPoint
 10
-82.63098499999999
 20
-55.78312729915251
 30
0.0
  0
ENDBLK
  5
693
330
691
100
AcDbEntity
  8
0
100
AcDbBlockEnd
  0
ENDSEC
  0
SECTION
  2
ENTITIES
  0
TEXT
  5
D2
330
36
100
AcDbEntity
  8
0
 62
     3
100
AcDbText
 10
70.51094548622995
 20
-120.888153
 30
0.0
 40
4.5
  1
アースリール
  7
高4.5
100
AcDbText
  0
TEXT
  5
D3
330
36
100
AcDbEntity
  8
0
 62
     3
100
AcDbText
 10
126.916881
 20
-142.419006
 30
0.0
 40
3.2
  1
2010.10.28
  7
高3.2
100
AcDbText
  0
TEXT
  5
D4
330
36
100
AcDbEntity
  8
0
 62
     3
100
AcDbText
 10
69.165723
 20
-135.731583
 30
0.0
 40
3.2
  1
別　掲
  7
高3.2
100
AcDbText
  0
TEXT
  5
D5
330
36
100
AcDbEntity
  8
0
 62
     3
100
AcDbText
 10
113.079171
 20
-152.084525
 30
0.0
 40
6.299999999999998
  1
ER-421M
  7
高6.3
100
AcDbText
  0
TEXT
  5
D6
330
36
100
AcDbEntity
  8
0
 62
     3
100
AcDbText
 10
72.001727
 20
-128.585713
 30
0.0
 40
4.5
  1
ER-421M
  7
高4.5
100
AcDbText
  0
LINE
  5
D7
330
36
100
AcDbEntity
  8
0
 62
     3
100
AcDbLine
 10
12.048715
 20
-6.791952
 30
0.0
 11
6.949633999999997
 21
-27.145783
 31
0.0
  0
LINE
  5
D8
330
36
100
AcDbEntity
  8
0
 62
     3
100
AcDbLine
 10
47.850553
 20
-6.791952
 30
0.0
 11
52.949634
 21
-27.145783
 31
0.0
  0
CIRCLE
  5
D9
330
36
100
AcDbEntity
  8
0
 62
     3
100
AcDbCircle
 10
29.94963400000001
 20
45.439246
 30
0.0
 40
2.279179999999999
  0
LINE
  5
DA
330
36
100
AcDbEntity
  8
0
 62
     3
100
AcDbLine
 10
32.449634
 20
46.882621
 30
0.0
 11
32.449634
 21
43.99587
 31
0.0
  0
LINE
  5
DB
330
36
100
AcDbEntity
  8
0
 62
     3
100
AcDbLine
 10
29.94963400000001
 20
42.552494
 30
0.0
 11
32.449634
 21
43.99587
 31
0.0
  0
LINE
  5
DC
330
36
100
AcDbEntity
  8
0
 62
     3
100
AcDbLine
 10
27.449634
 20
43.99587
 30
0.0
 11
29.94963400000001
 21
42.552494
 31
0.0
  0
LINE
  5
DD
330
36
100
AcDbEntity
  8
0
 62
     3
100
AcDbLine
 10
27.449634
 20
46.882621
 30
0.0
 11
27.449634
 21
43.99587
 31
0.0
  0
LINE
  5
DE
330
36
100
AcDbEntity
  8
0
 62
     3
100
AcDbLine
 10
27.449634
 20
46.882621
 30
0.0
 11
29.94963400000001
 21
48.32599699999999
 31
0.0
  0
LINE
  5
DF
330
36
100
AcDbEntity
  8
0
 62
     3
100
AcDbLine
 10
29.94963400000001
 20
48.32599699999999
 30
0.0
 11
32.449634
 21
46.882621
 31
0.0
  0
LINE
  5
E0
330
36
100
AcDbEntity
  8
0
 62
     3
100
AcDbLine
 10
6.949633999999997
 20
-27.145783
 30
0.0
 11
52.949634
 21
-27.145783
 31
0.0
  0
LINE
  5
E1
330
36
100
AcDbEntity
  8
0
 62
     3
100
AcDbLine
 10
52.949634
 20
-27.145783
 30
0.0
 11
52.949634
 21
-28.74578300000001
 31
0.0
  0
LINE
  5
E2
330
36
100
AcDbEntity
  8
0
 62
     3
100
AcDbLine
 10
52.949634
 20
-28.74578300000001
 30
0.0
 11
6.949633999999997
 21
-28.74578300000001
 31
0.0
  0
LINE
  5
E3
330
36
100
AcDbEntity
  8
0
 62
     3
100
AcDbLine
 10
6.949633999999997
 20
-27.145783
 30
0.0
 11
6.949633999999997
 21
-28.74578300000001
 31
0.0
  0
LINE
  5
E4
330
36
100
AcDbEntity
  8
0
  6
CENTER
 62
     7
100
AcDbLine
 10
46.199634
 20
-24.230652
 30
0.0
 11
46.199634
 21
-31.290495
 31
0.0
  0
LINE
  5
E5
330
36
100
AcDbEntity
  8
0
  6
CENTER
 62
     7
100
AcDbLine
 10
13.699634
 20
-24.230652
 30
0.0
 11
13.699634
 21
-31.290495
 31
0.0
  0
LINE
  5
E6
330
36
100
AcDbEntity
  8
0
 62
     3
100
AcDbLine
 10
25.649141
 20
-10.527644
 30
0.0
 11
25.649141
 21
-27.145783
 31
0.0
  0
LINE
  5
E7
330
36
100
AcDbEntity
  8
0
 62
     3
100
AcDbLine
 10
34.250126
 20
-10.527644
 30
0.0
 11
34.250126
 21
-27.145783
 31
0.0
  0
CIRCLE
  5
E8
330
36
100
AcDbEntity
  8
0
 62
     3
100
AcDbCircle
 10
29.94963400000001
 20
65.447586
 30
0.0
 40
10.0
  0
CIRCLE
  5
E9
330
36
100
AcDbEntity
  8
0
 62
     3
100
AcDbCircle
 10
29.94963400000001
 20
65.447586
 30
0.0
 40
3.511392999999998
  0
ARC
  5
EA
330
36
100
AcDbEntity
  8
0
 62
     3
100
AcDbCircle
 10
29.94963400000001
 20
31.754217
 30
0.0
 40
38.861629
100
AcDbArc
 50
103.587128
 51
76.41287199999998
  0
ARC
  5
EB
330
36
100
AcDbEntity
  8
0
 62
     3
100
AcDbCircle
 10
29.94963400000001
 20
31.754217
 30
0.0
 40
42.5
100
AcDbArc
 50
97.17766000000001
 51
82.82234
  0
LINE
  5
EC
330
36
100
AcDbEntity
  8
0
 62
     3
100
AcDbLine
 10
-99.97802700000001
 20
-7.245792999999999
 30
0.0
 11
-98.729855
 21
-10.745783
 31
0.0
  0
LINE
  5
ED
330
36
100
AcDbEntity
  8
0
 62
     3
100
AcDbLine
 10
-98.729855
 20
-10.745783
 30
0.0
 11
-97.95886500000001
 21
-10.526057
 31
0.0
  0
LINE
  5
EE
330
36
100
AcDbEntity
  8
0
 62
     3
100
AcDbLine
 10
-99.97802700000001
 20
70.754227
 30
0.0
 11
-98.729855
 21
74.25421700000002
 31
0.0
  0
LINE
  5
EF
330
36
100
AcDbEntity
  8
0
 62
     3
100
AcDbLine
 10
-98.729855
 20
74.25421700000002
 30
0.0
 11
-97.95886500000001
 21
74.034491
 31
0.0
  0
LINE
  5
F0
330
36
100
AcDbEntity
  8
0
 62
     3
100
AcDbLine
 10
-117.228027
 20
36.054217
 30
0.0
 11
-117.228027
 21
70.754227
 31
0.0
  0
LINE
  5
F1
330
36
100
AcDbEntity
  8
0
 62
     3
100
AcDbLine
 10
-117.228027
 20
70.754227
 30
0.0
 11
-118.476198
 21
74.25421700000002
 31
0.0
  0
LINE
  5
F2
330
36
100
AcDbEntity
  8
0
 62
     3
100
AcDbLine
 10
-118.476198
 20
74.25421700000002
 30
0.0
 11
-119.247189
 21
74.034491
 31
0.0
  0
LINE
  5
F3
330
36
100
AcDbEntity
  8
0
 62
     3
100
AcDbLine
 10
-117.228027
 20
27.454217
 30
0.0
 11
-117.228027
 21
-7.245792999999999
 31
0.0
  0
LINE
  5
F4
330
36
100
AcDbEntity
  8
0
 62
     3
100
AcDbLine
 10
-117.228027
 20
-7.245792999999999
 30
0.0
 11
-118.476198
 21
-10.745783
 31
0.0
  0
LINE
  5
F5
330
36
100
AcDbEntity
  8
0
 62
     3
100
AcDbLine
 10
-118.476198
 20
-10.745783
 30
0.0
 11
-119.247189
 21
-10.526057
 31
0.0
  0
CIRCLE
  5
F6
330
36
100
AcDbEntity
  8
0
 62
     3
100
AcDbCircle
 10
18.098051
 20
24.911702
 30
0.0
 40
2.279179999999999
  0
LINE
  5
F7
330
36
100
AcDbEntity
  8
0
 62
     3
100
AcDbLine
 10
18.098051
 20
22.024951
 30
0.0
 11
15.598051
 21
23.468327
 31
0.0
  0
LINE
  5
F8
330
36
100
AcDbEntity
  8
0
 62
     3
100
AcDbLine
 10
18.098051
 20
22.024951
 30
0.0
 11
20.598051
 21
23.468327
 31
0.0
  0
LINE
  5
F9
330
36
100
AcDbEntity
  8
0
 62
     3
100
AcDbLine
 10
20.598051
 20
23.468327
 30
0.0
 11
20.598051
 21
26.355078
 31
0.0
  0
LINE
  5
FA
330
36
100
AcDbEntity
  8
0
 62
     3
100
AcDbLine
 10
15.598051
 20
23.468327
 30
0.0
 11
15.598051
 21
26.355078
 31
0.0
  0
LINE
  5
FB
330
36
100
AcDbEntity
  8
0
 62
     3
100
AcDbLine
 10
15.598051
 20
26.355078
 30
0.0
 11
18.098051
 21
27.798454
 31
0.0
  0
LINE
  5
FC
330
36
100
AcDbEntity
  8
0
 62
     3
100
AcDbLine
 10
20.598051
 20
26.355078
 30
0.0
 11
18.098051
 21
27.798454
 31
0.0
  0
CIRCLE
  5
FD
330
36
100
AcDbEntity
  8
0
 62
     3
100
AcDbCircle
 10
41.80121599999996
 20
24.911702
 30
0.0
 40
2.279179999999999
  0
LINE
  5
FE
330
36
100
AcDbEntity
  8
0
 62
     3
100
AcDbLine
 10
44.30121599999998
 20
26.355078
 30
0.0
 11
44.30121599999998
 21
23.468327
 31
0.0
  0
LINE
  5
FF
330
36
100
AcDbEntity
  8
0
 62
     3
100
AcDbLine
 10
44.30121599999998
 20
26.355078
 30
0.0
 11
41.80121599999996
 21
27.798454
 31
0.0
  0
LINE
  5
100
330
36
100
AcDbEntity
  8
0
 62
     3
100
AcDbLine
 10
41.80121599999996
 20
27.798454
 30
0.0
 11
39.301216
 21
26.355078
 31
0.0
  0
LINE
  5
101
330
36
100
AcDbEntity
  8
0
 62
     3
100
AcDbLine
 10
44.30121599999998
 20
23.468327
 30
0.0
 11
41.80121599999996
 21
22.024951
 31
0.0
  0
LINE
  5
102
330
36
100
AcDbEntity
  8
0
 62
     3
100
AcDbLine
 10
41.80121599999996
 20
22.024951
 30
0.0
 11
39.301216
 21
23.468327
 31
0.0
  0
LINE
  5
103
330
36
100
AcDbEntity
  8
0
 62
     3
100
AcDbLine
 10
39.301216
 20
26.355078
 30
0.0
 11
39.301216
 21
23.468327
 31
0.0
  0
LINE
  5
104
330
36
100
AcDbEntity
  8
0
 62
     3
100
AcDbLine
 10
-122.773546
 20
41.50421699999998
 30
0.0
 11
-122.773546
 21
-16.076019
 31
0.0
  0
LINE
  5
105
330
36
100
AcDbEntity
  8
0
 62
     3
100
AcDbLine
 10
-125.973546
 20
-23.145783
 30
0.0
 11
-125.973546
 21
21.255127
 31
0.0
  0
LINE
  5
106
330
36
100
AcDbEntity
  8
0
 62
     3
100
AcDbLine
 10
-122.773546
 20
41.50421699999998
 30
0.0
 11
-124.373546
 21
41.50421699999998
 31
0.0
  0
LINE
  5
107
330
36
100
AcDbEntity
  8
0
 62
     3
100
AcDbLine
 10
-124.373546
 20
23.017837
 30
0.0
 11
-125.973546
 21
21.255127
 31
0.0
  0
LINE
  5
108
330
36
100
AcDbEntity
  8
0
 62
     3
100
AcDbLine
 10
-124.373546
 20
20.63726
 30
0.0
 11
-122.773546
 21
22.39997
 31
0.0
  0
LINE
  5
109
330
36
100
AcDbEntity
  8
0
 62
     3
100
AcDbLine
 10
-124.373546
 20
41.50421699999998
 30
0.0
 11
-124.373546
 21
23.017837
 31
0.0
  0
LINE
  5
10A
330
36
100
AcDbEntity
  8
0
 62
     3
100
AcDbLine
 10
-124.373546
 20
-23.145783
 30
0.0
 11
-124.373546
 21
20.63726
 31
0.0
  0
LINE
  5
10B
330
36
100
AcDbEntity
  8
0
 62
     3
100
AcDbLine
 10
-120.373546
 20
-28.74578300000001
 30
0.0
 11
-103.473546
 21
-28.74578300000001
 31
0.0
  0
LINE
  5
10C
330
36
100
AcDbEntity
  8
0
 62
     3
100
AcDbLine
 10
-116.411534
 20
-27.145783
 30
0.0
 11
-122.773546
 21
-18.729371
 31
0.0
  0
LINE
  5
10D
330
36
100
AcDbEntity
  8
0
 62
     3
100
AcDbLine
 10
-103.473546
 20
-27.145783
 30
0.0
 11
-103.473546
 21
-28.74578300000001
 31
0.0
  0
ARC
  5
10E
330
36
100
AcDbEntity
  8
0
 62
     3
100
AcDbCircle
 10
-120.373546
 20
-23.145783
 30
0.0
 40
4.0
100
AcDbArc
 50
180.0
 51
270.0
  0
ARC
  5
10F
330
36
100
AcDbEntity
  8
0
 62
     3
100
AcDbCircle
 10
-120.373546
 20
-23.145783
 30
0.0
 40
5.599999999999997
100
AcDbArc
 50
180.0
 51
270.0
  0
LINE
  5
110
330
36
100
AcDbEntity
  8
0
 62
     3
100
AcDbLine
 10
-124.373546
 20
-19.266057
 30
0.0
 11
-118.417217
 21
-27.145783
 31
0.0
  0
LINE
  5
111
330
36
100
AcDbEntity
  8
0
 62
     3
100
AcDbLine
 10
-122.773546
 20
-16.076019
 30
0.0
 11
-122.773546
 21
-18.729371
 31
0.0
  0
LINE
  5
112
330
36
100
AcDbEntity
  8
0
  6
CENTER
 62
     7
100
AcDbLine
 10
-110.973546
 20
-24.901957
 30
0.0
 11
-110.973546
 21
-31.244528
 31
0.0
  0
LINE
  5
113
330
36
100
AcDbEntity
  8
0
 62
     3
100
AcDbLine
 10
-122.773546
 20
35.254217
 30
0.0
 11
-119.247189
 21
35.254217
 31
0.0
  0
LINE
  5
114
330
36
100
AcDbEntity
  8
0
 62
     3
100
AcDbLine
 10
-122.773546
 20
28.254217
 30
0.0
 11
-119.247189
 21
28.254217
 31
0.0
  0
CIRCLE
  5
115
330
36
100
AcDbEntity
  8
0
 62
     3
100
AcDbCircle
 10
29.94963400000001
 20
31.754217
 30
0.0
 40
9.75
  0
LINE
  5
116
330
36
100
AcDbEntity
  8
0
 62
     3
100
AcDbLine
 10
-99.97802700000001
 20
38.779393
 30
0.0
 11
-99.97802700000001
 21
70.754227
 31
0.0
  0
LINE
  5
117
330
36
100
AcDbEntity
  8
0
 62
     3
100
AcDbLine
 10
-99.97802700000001
 20
24.729041
 30
0.0
 11
-99.97802700000001
 21
-7.245792999999999
 31
0.0
  0
LINE
  5
118
330
36
100
AcDbEntity
  8
0
 62
     3
100
AcDbLine
 10
-124.373546
 20
36.504217
 30
0.0
 11
-128.687911
 21
36.504217
 31
0.0
  0
LINE
  5
119
330
36
100
AcDbEntity
  8
0
 62
     3
100
AcDbLine
 10
-124.373546
 20
27.004217
 30
0.0
 11
-128.687911
 21
27.004217
 31
0.0
  0
LINE
  5
11A
330
36
100
AcDbEntity
  8
0
 62
     3
100
AcDbLine
 10
-97.779872
 20
67.273015
 30
0.0
 11
-99.237113
 21
67.273015
 31
0.0
  0
LINE
  5
11B
330
36
100
AcDbEntity
  8
0
 62
     3
100
AcDbLine
 10
-97.779872
 20
63.597673
 30
0.0
 11
-99.237113
 21
63.597673
 31
0.0
  0
ARC
  5
11C
330
36
100
AcDbEntity
  8
0
 62
     3
100
AcDbCircle
 10
-92.571031
 20
74.53913299999998
 30
0.0
 40
7.197953
100
AcDbArc
 50
290.902267
 51
358.528926
  0
ARC
  5
11D
330
36
100
AcDbEntity
  8
0
 62
     3
100
AcDbCircle
 10
-84.213099
 20
74.283051
 30
0.0
 40
1.164535
100
AcDbArc
 50
0.0
 51
180.0
  0
ARC
  5
11E
330
36
100
AcDbEntity
  8
0
 62
     3
100
AcDbCircle
 10
-84.213099
 20
56.612121
 30
0.0
 40
1.164535
100
AcDbArc
 50
180.0
 51
0.0
  0
ARC
  5
11F
330
36
100
AcDbEntity
  8
0
 62
     3
100
AcDbCircle
 10
-92.571031
 20
56.356039
 30
0.0
 40
7.197953
100
AcDbArc
 50
1.471073999999999
 51
69.09773299999999
  0
LINE
  5
120
330
36
100
AcDbEntity
  8
0
 62
     3
100
AcDbLine
 10
-97.779872
 20
67.273015
 30
0.0
 11
-90.002981
 21
67.814875
 31
0.0
  0
LINE
  5
121
330
36
100
AcDbEntity
  8
0
 62
     3
100
AcDbLine
 10
-97.779872
 20
63.597673
 30
0.0
 11
-90.002981
 21
63.08029699999998
 31
0.0
  0
ARC
  5
122
330
36
100
AcDbEntity
  8
0
 62
     3
100
AcDbCircle
 10
-176.313565
 20
65.447586
 30
0.0
 40
93.68258
100
AcDbArc
 50
354.452206
 51
5.547794
  0
LINE
  5
123
330
36
100
AcDbEntity
  8
0
 62
     3
100
AcDbLine
 10
-119.247189
 20
74.034491
 30
0.0
 11
-119.247189
 21
48.079461
 31
0.0
  0
LINE
  5
124
330
36
100
AcDbEntity
  8
0
 62
     3
100
AcDbLine
 10
-97.95886500000001
 20
74.034491
 30
0.0
 11
-97.95886500000001
 21
67.273015
 31
0.0
  0
LINE
  5
125
330
36
100
AcDbEntity
  8
0
 62
     3
100
AcDbLine
 10
-97.95886500000001
 20
63.597673
 30
0.0
 11
-97.95886500000001
 21
48.079461
 31
0.0
  0
LINE
  5
126
330
36
100
AcDbEntity
  8
0
 62
     3
100
AcDbLine
 10
-119.247189
 20
-10.526057
 30
0.0
 11
-119.247189
 21
23.673764
 31
0.0
  0
LINE
  5
127
330
36
100
AcDbEntity
  8
0
 62
     3
100
AcDbLine
 10
-97.95886500000001
 20
-10.526057
 30
0.0
 11
-97.95886500000001
 21
23.27116
 31
0.0
  0
LINE
  5
128
330
36
100
AcDbEntity
  8
0
 62
     3
100
AcDbLine
 10
93.541403
 20
-12.333155
 30
0.0
 11
88.753121
 21
-25.488851
 31
0.0
  0
LINE
  5
129
330
36
100
AcDbEntity
  8
0
 62
     3
100
AcDbLine
 10
74.74755
 20
-5.492751999999997
 30
0.0
 11
93.541403
 21
-12.333155
 31
0.0
  0
LINE
  5
12A
330
36
100
AcDbEntity
  8
0
 62
     3
100
AcDbLine
 10
60.617089
 20
-6.306417999999997
 30
0.0
 11
59.65772199999999
 21
-8.942258
 31
0.0
  0
LINE
  5
12B
330
36
100
AcDbEntity
  8
0
 62
     3
100
AcDbLine
 10
62.23713100000001
 20
-6.896064999999999
 30
0.0
 11
60.617089
 21
-6.306417999999997
 31
0.0
  0
ARC
  5
12C
330
36
100
AcDbEntity
  8
0
 62
     3
100
AcDbCircle
 10
70.90379899999998
 20
-21.592908
 30
0.0
 40
16.55262699999999
100
AcDbArc
 50
76.572547
 51
116.850195
  0
ARC
  5
12D
330
36
100
AcDbEntity
  8
0
 62
     3
100
AcDbCircle
 10
62.75016199999999
 20
-5.486526
 30
0.0
 40
1.5
100
AcDbArc
 50
250.0
 51
296.850195
  0
LINE
  5
12E
330
36
100
AcDbEntity
  8
0
 62
     3
100
AcDbLine
 10
69.95926800000001
 20
-18.648449
 30
0.0
 11
88.753121
 21
-25.488851
 31
0.0
  0
ARC
  5
12F
330
36
100
AcDbEntity
  8
0
 62
     3
100
AcDbCircle
 10
77.363765
 20
-3.844297
 30
0.0
 40
16.55262699999999
100
AcDbArc
 50
203.149805
 51
243.427453
  0
ARC
  5
130
330
36
100
AcDbEntity
  8
0
 62
     3
100
AcDbCircle
 10
60.764734
 20
-10.941445
 30
0.0
 40
1.5
100
AcDbArc
 50
23.14980499999999
 51
70.0
  0
LINE
  5
131
330
36
100
AcDbEntity
  8
0
 62
     3
100
AcDbLine
 10
61.27776400000001
 20
-9.531905999999999
 30
0.0
 11
59.65772199999999
 21
-8.942258
 31
0.0
  0
LINE
  5
132
330
36
100
AcDbEntity
  8
0
 62
     7
100
AcDbLine
 10
92.014648
 20
-16.527879
 30
0.0
 11
96.745879
 21
-18.249907
 31
0.0
  0
LINE
  5
133
330
36
100
AcDbEntity
  8
0
 62
     7
100
AcDbLine
 10
91.71623999999999
 20
-17.347748
 30
0.0
 11
95.935813
 21
-18.883547
 31
0.0
  0
LINE
  5
134
330
36
100
AcDbEntity
  8
0
 62
     7
100
AcDbLine
 10
96.745879
 20
-18.249907
 30
0.0
 11
96.92820199999999
 21
-21.015093
 31
0.0
  0
LINE
  5
135
330
36
100
AcDbEntity
  8
0
 62
     7
100
AcDbLine
 10
95.935813
 20
-18.883547
 30
0.0
 11
96.05541100000001
 21
-20.697423
 31
0.0
  0
LINE
  5
136
330
36
100
AcDbEntity
  8
0
 62
     7
100
AcDbLine
 10
90.27987600000001
 20
-21.294127
 30
0.0
 11
95.01110699999999
 21
-23.016154
 31
0.0
  0
LINE
  5
137
330
36
100
AcDbEntity
  8
0
 62
     7
100
AcDbLine
 10
90.578283
 20
-20.474258
 30
0.0
 11
94.79785599999999
 21
-22.010057
 31
0.0
  0
LINE
  5
138
330
36
100
AcDbEntity
  8
0
 62
     7
100
AcDbLine
 10
95.01110699999999
 20
-23.016154
 30
0.0
 11
96.92820199999999
 21
-21.015093
 31
0.0
  0
LINE
  5
139
330
36
100
AcDbEntity
  8
0
 62
     7
100
AcDbLine
 10
94.79785599999999
 20
-22.010057
 30
0.0
 11
96.05541100000001
 21
-20.697423
 31
0.0
  0
LINE
  5
13A
330
36
100
AcDbEntity
  8
0
 62
     7
100
AcDbLine
 10
96.05541100000001
 20
-20.697423
 30
0.0
 11
96.92820199999999
 21
-21.015093
 31
0.0
  0
LINE
  5
13B
330
36
100
AcDbEntity
  8
0
 62
     3
100
AcDbLine
 10
60.39391999999999
 20
-6.919569
 30
0.0
 11
52.72467800000001
 21
-4.128193
 31
0.0
  0
LINE
  5
13C
330
36
100
AcDbEntity
  8
0
 62
     3
100
AcDbLine
 10
59.88089
 20
-8.329107999999997
 30
0.0
 11
51.074481
 21
-5.123836999999999
 31
0.0
  0
LINE
  5
13D
330
36
100
AcDbEntity
  8
0
 62
     3
100
AcDbLine
 10
36.087831
 20
35.59554
 30
0.0
 11
34.680361
 21
34.18807000000001
 31
0.0
  0
LINE
  5
13E
330
36
100
AcDbEntity
  8
0
 62
     3
100
AcDbLine
 10
36.087831
 20
34.18807000000001
 30
0.0
 11
34.680361
 21
35.59554
 31
0.0
  0
LINE
  5
13F
330
36
100
AcDbEntity
  8
0
 62
     3
100
AcDbLine
 10
23.811437
 20
34.18807000000001
 30
0.0
 11
25.218907
 21
35.59554
 31
0.0
  0
LINE
  5
140
330
36
100
AcDbEntity
  8
0
 62
     3
100
AcDbLine
 10
23.811437
 20
35.59554
 30
0.0
 11
25.218907
 21
34.18807000000001
 31
0.0
  0
LINE
  5
141
330
36
100
AcDbEntity
  8
0
 62
     3
100
AcDbLine
 10
30.653369
 20
24.775306
 30
0.0
 11
29.245899
 21
26.182776
 31
0.0
  0
LINE
  5
142
330
36
100
AcDbEntity
  8
0
 62
     3
100
AcDbLine
 10
29.245899
 20
24.775306
 30
0.0
 11
30.653369
 21
26.182776
 31
0.0
  0
TEXT
  5
143
330
36
100
AcDbEntity
  8
0
 62
     3
100
AcDbText
 10
98.110034
 20
-141.997728
 30
0.0
 40
3.2
  1
1/2
  7
高3.2
100
AcDbText
  0
LINE
  5
15D
330
36
100
AcDbEntity
  8
0
 62
     3
100
AcDbLine
 10
45.48690999999998
 20
-68.370249
 30
0.0
 11
117.7687405862053
 21
-68.370249
 31
0.0
  0
LINE
  5
15E
330
36
100
AcDbEntity
  8
0
 62
     7
100
AcDbLine
 10
45.48690999999998
 20
-75.023049
 30
0.0
 11
117.7687405862053
 21
-75.023049
 31
0.0
  0
LINE
  5
15F
330
36
100
AcDbEntity
  8
0
 62
     7
100
AcDbLine
 10
45.48690999999998
 20
-81.67584899999999
 30
0.0
 11
117.7687405862053
 21
-81.67584899999999
 31
0.0
  0
LINE
  5
160
330
36
100
AcDbEntity
  8
0
 62
     7
100
AcDbLine
 10
45.48690999999998
 20
-88.328649
 30
0.0
 11
117.7687405862053
 21
-88.328649
 31
0.0
  0
LINE
  5
161
330
36
100
AcDbEntity
  8
0
 62
     3
100
AcDbLine
 10
117.7687405862053
 20
-68.370249
 30
0.0
 11
117.7687405862053
 21
-94.98144899999999
 31
0.0
  0
LINE
  5
162
330
36
100
AcDbEntity
  8
0
 62
     3
100
AcDbLine
 10
45.48690999999998
 20
-68.370249
 30
0.0
 11
45.48690999999998
 21
-94.98144899999999
 31
0.0
  0
LINE
  5
163
330
36
100
AcDbEntity
  8
0
 62
     7
100
AcDbLine
 10
75.052966
 20
-68.370249
 30
0.0
 11
75.052966
 21
-94.98144899999999
 31
0.0
  0
CIRCLE
  5
164
330
36
100
AcDbEntity
  8
0
 62
     3
100
AcDbCircle
 10
54.706468
 20
31.754217
 30
0.0
 40
1.0
  0
CIRCLE
  5
165
330
36
100
AcDbEntity
  8
0
 62
     3
100
AcDbCircle
 10
35.384096
 20
34.891805
 30
0.0
 40
1.5
  0
CIRCLE
  5
166
330
36
100
AcDbEntity
  8
0
 62
     3
100
AcDbCircle
 10
24.515172
 20
34.891805
 30
0.0
 40
1.5
  0
CIRCLE
  5
167
330
36
100
AcDbEntity
  8
0
 62
     3
100
AcDbCircle
 10
29.94963400000001
 20
25.479041
 30
0.0
 40
1.5
  0
LINE
  5
168
330
36
100
AcDbEntity
  8
0
 62
     3
100
AcDbLine
 10
26.699634
 20
29.87782800000001
 30
0.0
 11
29.94963400000001
 21
28.00144
 31
0.0
  0
LINE
  5
169
330
36
100
AcDbEntity
  8
0
 62
     3
100
AcDbLine
 10
26.699634
 20
33.630605
 30
0.0
 11
26.699634
 21
29.87782800000001
 31
0.0
  0
LINE
  5
16A
330
36
100
AcDbEntity
  8
0
 62
     3
100
AcDbLine
 10
26.699634
 20
33.630605
 30
0.0
 11
29.94963400000001
 21
35.506994
 31
0.0
  0
CIRCLE
  5
16B
330
36
100
AcDbEntity
  8
0
 62
     3
100
AcDbCircle
 10
29.94963400000001
 20
31.754217
 30
0.0
 40
4.347686
  0
LINE
  5
16C
330
36
100
AcDbEntity
  8
0
 62
     3
100
AcDbLine
 10
29.94963400000001
 20
35.506994
 30
0.0
 11
33.19963400000001
 21
33.630605
 31
0.0
  0
LINE
  5
16D
330
36
100
AcDbEntity
  8
0
 62
     3
100
AcDbLine
 10
33.19963400000001
 20
33.630605
 30
0.0
 11
33.19963400000001
 21
29.87782800000001
 31
0.0
  0
LINE
  5
16E
330
36
100
AcDbEntity
  8
0
 62
     3
100
AcDbLine
 10
29.94963400000001
 20
28.00144
 30
0.0
 11
33.19963400000001
 21
29.87782800000001
 31
0.0
  0
LINE
  5
16F
330
36
100
AcDbEntity
  8
0
 62
     3
100
AcDbLine
 10
-118.628027
 20
46.95421699999999
 30
0.0
 11
-120.7098
 21
46.95421699999999
 31
0.0
  0
ARC
  5
170
330
36
100
AcDbEntity
  8
0
 62
     3
100
AcDbCircle
 10
-118.228985
 20
45.454217
 30
0.0
 40
2.899041
100
AcDbArc
 50
148.841159
 51
211.158841
  0
ARC
  5
171
330
36
100
AcDbEntity
  8
0
 62
     3
100
AcDbCircle
 10
-120.540478
 20
47.516839
 30
0.0
 40
0.587549
100
AcDbArc
 50
106.749244
 51
253.250756
  0
LINE
  5
172
330
36
100
AcDbEntity
  8
0
 62
     3
100
AcDbLine
 10
-118.628027
 20
43.95421699999999
 30
0.0
 11
-120.7098
 21
43.95421699999999
 31
0.0
  0
ARC
  5
173
330
36
100
AcDbEntity
  8
0
 62
     3
100
AcDbCircle
 10
-120.540478
 20
43.391595
 30
0.0
 40
0.587549
100
AcDbArc
 50
106.749244
 51
253.250756
  0
LINE
  5
174
330
36
100
AcDbEntity
  8
0
 62
     3
100
AcDbLine
 10
-121.128027
 20
47.516839
 30
0.0
 11
-121.128027
 21
43.391595
 31
0.0
  0
LINE
  5
175
330
36
100
AcDbEntity
  8
0
 62
     3
100
AcDbLine
 10
-120.7098
 20
48.079461
 30
0.0
 11
-118.628027
 21
48.079461
 31
0.0
  0
LINE
  5
176
330
36
100
AcDbEntity
  8
0
 62
     3
100
AcDbLine
 10
-120.7098
 20
42.828973
 30
0.0
 11
-118.628027
 21
42.828973
 31
0.0
  0
LINE
  5
177
330
36
100
AcDbEntity
  8
0
 62
     3
100
AcDbLine
 10
-121.862935
 20
39.83467
 30
0.0
 11
-121.862935
 21
35.254217
 31
0.0
  0
LINE
  5
178
330
36
100
AcDbEntity
  8
0
 62
     3
100
AcDbLine
 10
-121.767139
 20
38.809436
 30
0.0
 11
-120.809185
 21
35.265006
 31
0.0
  0
LINE
  5
179
330
36
100
AcDbEntity
  8
0
 62
     3
100
AcDbLine
 10
-121.767139
 20
24.698998
 30
0.0
 11
-120.809185
 21
28.243427
 31
0.0
  0
LINE
  5
17A
330
36
100
AcDbEntity
  8
0
 62
     3
100
AcDbLine
 10
-121.862935
 20
28.254217
 30
0.0
 11
-121.862935
 21
23.673764
 31
0.0
  0
LINE
  5
17B
330
36
100
AcDbEntity
  8
0
 62
     3
100
AcDbLine
 10
-118.628027
 20
48.55230999999999
 30
0.0
 11
-118.628027
 21
42.35612399999999
 31
0.0
  0
LINE
  5
17C
330
36
100
AcDbEntity
  8
0
 62
     3
100
AcDbLine
 10
-118.628027
 20
42.35612399999999
 30
0.0
 11
-118.028027
 21
42.35612399999999
 31
0.0
  0
LINE
  5
17D
330
36
100
AcDbEntity
  8
0
 62
     3
100
AcDbLine
 10
-118.628027
 20
48.55230999999999
 30
0.0
 11
-118.028027
 21
48.55230999999999
 31
0.0
  0
LINE
  5
17E
330
36
100
AcDbEntity
  8
0
 62
     3
100
AcDbLine
 10
-121.862935
 20
39.83467
 30
0.0
 11
-122.773546
 21
39.83467
 31
0.0
  0
ARC
  5
17F
330
36
100
AcDbEntity
  8
0
 62
     3
100
AcDbCircle
 10
-122.467465
 20
31.754217
 30
0.0
 40
6.906080999999997
100
AcDbArc
 50
154.252892
 51
205.747108
  0
ARC
  5
180
330
36
100
AcDbEntity
  8
0
 62
     3
100
AcDbCircle
 10
-128.472395
 20
27.879217
 30
0.0
 40
0.9011499999999999
100
AcDbArc
 50
103.836757
 51
256.163243
  0
ARC
  5
181
330
36
100
AcDbEntity
  8
0
 62
     3
100
AcDbCircle
 10
-128.472395
 20
35.629217
 30
0.0
 40
0.9011499999999999
100
AcDbArc
 50
103.836757
 51
256.163243
  0
LINE
  5
182
330
36
100
AcDbEntity
  8
0
 62
     3
100
AcDbLine
 10
-129.373546
 20
35.629217
 30
0.0
 11
-129.373546
 21
27.879217
 31
0.0
  0
LINE
  5
183
330
36
100
AcDbEntity
  8
0
 62
     3
100
AcDbLine
 10
-121.862935
 20
23.673764
 30
0.0
 11
-122.773546
 21
23.673764
 31
0.0
  0
LINE
  5
184
330
36
100
AcDbEntity
  8
0
 62
     3
100
AcDbLine
 10
-98.578027
 20
43.95421699999999
 30
0.0
 11
-96.49625399999999
 21
43.95421699999999
 31
0.0
  0
ARC
  5
185
330
36
100
AcDbEntity
  8
0
 62
     3
100
AcDbCircle
 10
-96.66557500000001
 20
43.391595
 30
0.0
 40
0.587549
100
AcDbArc
 50
286.749244
 51
73.25075600000002
  0
LINE
  5
186
330
36
100
AcDbEntity
  8
0
 62
     3
100
AcDbLine
 10
-96.078027
 20
47.516839
 30
0.0
 11
-96.078027
 21
43.391595
 31
0.0
  0
LINE
  5
187
330
36
100
AcDbEntity
  8
0
 62
     3
100
AcDbLine
 10
-98.578027
 20
46.95421699999999
 30
0.0
 11
-96.49625399999999
 21
46.95421699999999
 31
0.0
  0
LINE
  5
188
330
36
100
AcDbEntity
  8
0
 62
     3
100
AcDbLine
 10
-96.49625399999999
 20
48.079461
 30
0.0
 11
-98.578027
 21
48.079461
 31
0.0
  0
ARC
  5
189
330
36
100
AcDbEntity
  8
0
 62
     3
100
AcDbCircle
 10
-96.66557500000001
 20
47.516839
 30
0.0
 40
0.587549
100
AcDbArc
 50
286.749244
 51
73.25075600000002
  0
LINE
  5
18A
330
36
100
AcDbEntity
  8
0
 62
     3
100
AcDbLine
 10
-98.578027
 20
48.55230999999999
 30
0.0
 11
-99.17802700000001
 21
48.55230999999999
 31
0.0
  0
LINE
  5
18B
330
36
100
AcDbEntity
  8
0
 62
     3
100
AcDbLine
 10
-98.578027
 20
48.55230999999999
 30
0.0
 11
-98.578027
 21
42.35612399999999
 31
0.0
  0
LINE
  5
18C
330
36
100
AcDbEntity
  8
0
 62
     3
100
AcDbLine
 10
-98.578027
 20
42.35612399999999
 30
0.0
 11
-99.17802700000001
 21
42.35612399999999
 31
0.0
  0
LINE
  5
18D
330
36
100
AcDbEntity
  8
0
 62
     3
100
AcDbLine
 10
-96.49625399999999
 20
42.828973
 30
0.0
 11
-98.578027
 21
42.828973
 31
0.0
  0
ARC
  5
18E
330
36
100
AcDbEntity
  8
0
 62
     3
100
AcDbCircle
 10
-98.97706800000001
 20
45.454217
 30
0.0
 40
2.899041
100
AcDbArc
 50
328.841159
 51
31.158841
  0
LINE
  5
18F
330
36
100
AcDbEntity
  8
0
 62
     3
100
AcDbLine
 10
-97.178027
 20
33.254217
 30
0.0
 11
-95.096254
 21
33.254217
 31
0.0
  0
ARC
  5
190
330
36
100
AcDbEntity
  8
0
 62
     3
100
AcDbCircle
 10
-95.265575
 20
33.816839
 30
0.0
 40
0.587549
100
AcDbArc
 50
286.749244
 51
73.25075600000002
  0
ARC
  5
191
330
36
100
AcDbEntity
  8
0
 62
     3
100
AcDbCircle
 10
-97.57706800000001
 20
31.754217
 30
0.0
 40
2.899041
100
AcDbArc
 50
328.841159
 51
31.158841
  0
LINE
  5
192
330
36
100
AcDbEntity
  8
0
 62
     3
100
AcDbLine
 10
-94.678027
 20
29.691595
 30
0.0
 11
-94.678027
 21
33.816839
 31
0.0
  0
ARC
  5
193
330
36
100
AcDbEntity
  8
0
 62
     3
100
AcDbCircle
 10
-95.265575
 20
29.691595
 30
0.0
 40
0.587549
100
AcDbArc
 50
286.749244
 51
73.25075600000002
  0
LINE
  5
194
330
36
100
AcDbEntity
  8
0
 62
     3
100
AcDbLine
 10
-97.178027
 20
30.254217
 30
0.0
 11
-95.096254
 21
30.254217
 31
0.0
  0
LINE
  5
195
330
36
100
AcDbEntity
  8
0
 62
     3
100
AcDbLine
 10
-95.096254
 20
29.128973
 30
0.0
 11
-97.178027
 21
29.128973
 31
0.0
  0
LINE
  5
196
330
36
100
AcDbEntity
  8
0
 62
     3
100
AcDbLine
 10
-95.096254
 20
34.379461
 30
0.0
 11
-97.178027
 21
34.379461
 31
0.0
  0
LINE
  5
197
330
36
100
AcDbEntity
  8
0
 62
     3
100
AcDbLine
 10
-97.178027
 20
35.257148
 30
0.0
 11
-97.95886500000001
 21
35.257148
 31
0.0
  0
LINE
  5
198
330
36
100
AcDbEntity
  8
0
 62
     3
100
AcDbLine
 10
-97.178027
 20
35.257148
 30
0.0
 11
-97.178027
 21
28.251286
 31
0.0
  0
LINE
  5
199
330
36
100
AcDbEntity
  8
0
 62
     3
100
AcDbLine
 10
-97.178027
 20
28.251286
 30
0.0
 11
-97.95886500000001
 21
28.251286
 31
0.0
  0
LINE
  5
19A
330
36
100
AcDbEntity
  8
0
 62
     3
100
AcDbLine
 10
-99.17802700000001
 20
24.729041
 30
0.0
 11
-99.17802700000001
 21
-7.107413
 31
0.0
  0
LINE
  5
19B
330
36
100
AcDbEntity
  8
0
 62
     3
100
AcDbLine
 10
-99.17802700000001
 20
-7.107413
 30
0.0
 11
-97.95886500000001
 21
-10.526057
 31
0.0
  0
LINE
  5
19C
330
36
100
AcDbEntity
  8
0
 62
     3
100
AcDbLine
 10
-118.028027
 20
28.254217
 30
0.0
 11
-118.028027
 21
-7.107413
 31
0.0
  0
LINE
  5
19D
330
36
100
AcDbEntity
  8
0
 62
     3
100
AcDbLine
 10
-118.028027
 20
-7.107413
 30
0.0
 11
-119.247189
 21
-10.526057
 31
0.0
  0
LINE
  5
19E
330
36
100
AcDbEntity
  8
0
 62
     3
100
AcDbLine
 10
-99.17802700000001
 20
38.779393
 30
0.0
 11
-99.17802700000001
 21
70.61584599999997
 31
0.0
  0
LINE
  5
19F
330
36
100
AcDbEntity
  8
0
 62
     3
100
AcDbLine
 10
-99.17802700000001
 20
70.61584599999997
 30
0.0
 11
-97.95886500000001
 21
74.034491
 31
0.0
  0
LINE
  5
1A0
330
36
100
AcDbEntity
  8
0
 62
     3
100
AcDbLine
 10
-118.028027
 20
70.61584599999997
 30
0.0
 11
-119.247189
 21
74.034491
 31
0.0
  0
LINE
  5
1A1
330
36
100
AcDbEntity
  8
0
 62
     3
100
AcDbLine
 10
-118.028027
 20
36.004217
 30
0.0
 11
-118.028027
 21
70.61584599999997
 31
0.0
  0
LINE
  5
1A2
330
36
100
AcDbEntity
  8
0
 62
     3
100
AcDbLine
 10
-99.237113
 20
66.48534399999999
 30
0.0
 11
-97.779872
 21
66.48534399999999
 31
0.0
  0
ARC
  5
1A3
330
36
100
AcDbEntity
  8
0
 62
     3
100
AcDbCircle
 10
-97.89839800000001
 20
66.87918
 30
0.0
 40
0.4112840000000002
100
AcDbArc
 50
286.749244
 51
73.25075600000002
  0
ARC
  5
1A4
330
36
100
AcDbEntity
  8
0
 62
     3
100
AcDbCircle
 10
-99.516442
 20
65.435344
 30
0.0
 40
2.029329
100
AcDbArc
 50
328.841159
 51
31.158841
  0
LINE
  5
1A5
330
36
100
AcDbEntity
  8
0
 62
     3
100
AcDbLine
 10
-97.487113
 20
66.87918
 30
0.0
 11
-97.487113
 21
63.99150899999999
 31
0.0
  0
LINE
  5
1A6
330
36
100
AcDbEntity
  8
0
 62
     3
100
AcDbLine
 10
-99.237113
 20
64.38534399999999
 30
0.0
 11
-97.779872
 21
64.38534399999999
 31
0.0
  0
ARC
  5
1A7
330
36
100
AcDbEntity
  8
0
 62
     3
100
AcDbCircle
 10
-97.89839800000001
 20
63.99150899999999
 30
0.0
 40
0.4112840000000002
100
AcDbArc
 50
286.749244
 51
73.25075600000002
  0
LINE
  5
1A8
330
36
100
AcDbEntity
  8
0
 62
     3
100
AcDbLine
 10
45.48690999999998
 20
-94.98144899999999
 30
0.0
 11
117.7687405862053
 21
-94.98144899999999
 31
0.0
  0
LINE
  5
1A9
330
36
100
AcDbEntity
  8
0
 62
     3
100
AcDbLine
 10
-97.95886500000001
 20
42.828973
 30
0.0
 11
-97.95886500000001
 21
23.27116
 31
0.0
  0
LINE
  5
1AA
330
36
100
AcDbEntity
  8
0
 62
     3
100
AcDbLine
 10
-99.97802700000001
 20
38.779393
 30
0.0
 11
-99.97802700000001
 21
24.729041
 31
0.0
  0
LINE
  5
1AB
330
36
100
AcDbEntity
  8
0
 62
     3
100
AcDbLine
 10
-119.247189
 20
42.828973
 30
0.0
 11
-119.247189
 21
23.673764
 31
0.0
  0
LINE
  5
1AC
330
36
100
AcDbEntity
  8
0
 62
     3
100
AcDbLine
 10
-117.228027
 20
36.054217
 30
0.0
 11
-117.228027
 21
27.454217
 31
0.0
  0
ARC
  5
1AD
330
36
100
AcDbEntity
  8
0
 62
     3
100
AcDbCircle
 10
-100.978027
 20
48.754217
 30
0.0
 40
1.0
100
AcDbArc
 50
355.620691
 51
180.0
  0
ARC
  5
1AE
330
36
100
AcDbEntity
  8
0
 62
     3
100
AcDbCircle
 10
-102.978027
 20
48.754217
 30
0.0
 40
1.0
100
AcDbArc
 50
355.620691
 51
180.0
  0
ARC
  5
1AF
330
36
100
AcDbEntity
  8
0
 62
     3
100
AcDbCircle
 10
-104.978027
 20
48.754217
 30
0.0
 40
1.0
100
AcDbArc
 50
355.620691
 51
180.0
  0
ARC
  5
1B0
330
36
100
AcDbEntity
  8
0
 62
     3
100
AcDbCircle
 10
-106.978027
 20
48.754217
 30
0.0
 40
1.0
100
AcDbArc
 50
355.620691
 51
180.0
  0
ARC
  5
1B1
330
36
100
AcDbEntity
  8
0
 62
     3
100
AcDbCircle
 10
-108.978027
 20
48.754217
 30
0.0
 40
1.0
100
AcDbArc
 50
355.620691
 51
180.0
  0
ARC
  5
1B2
330
36
100
AcDbEntity
  8
0
 62
     3
100
AcDbCircle
 10
-110.978027
 20
48.754217
 30
0.0
 40
1.0
100
AcDbArc
 50
355.620691
 51
180.0
  0
ARC
  5
1B3
330
36
100
AcDbEntity
  8
0
 62
     3
100
AcDbCircle
 10
-112.978027
 20
48.754217
 30
0.0
 40
1.0
100
AcDbArc
 50
355.620691
 51
180.0
  0
ARC
  5
1B4
330
36
100
AcDbEntity
  8
0
 62
     3
100
AcDbCircle
 10
-114.978027
 20
48.754217
 30
0.0
 40
1.0
100
AcDbArc
 50
355.620691
 51
180.0
  0
LINE
  5
1B5
330
36
100
AcDbEntity
  8
0
 62
     3
100
AcDbLine
 10
-115.978027
 20
48.754217
 30
0.0
 11
-117.278027
 21
14.754217
 31
0.0
  0
ARC
  5
1B6
330
36
100
AcDbEntity
  8
0
 62
     3
100
AcDbCircle
 10
-102.278027
 20
14.754217
 30
0.0
 40
1.0
100
AcDbArc
 50
175.620691
 51
0.0
  0
ARC
  5
1B7
330
36
100
AcDbEntity
  8
0
 62
     3
100
AcDbCircle
 10
-104.278027
 20
14.754217
 30
0.0
 40
1.0
100
AcDbArc
 50
175.620691
 51
0.0
  0
ARC
  5
1B8
330
36
100
AcDbEntity
  8
0
 62
     3
100
AcDbCircle
 10
-106.278027
 20
14.754217
 30
0.0
 40
1.0
100
AcDbArc
 50
175.620691
 51
0.0
  0
ARC
  5
1B9
330
36
100
AcDbEntity
  8
0
 62
     3
100
AcDbCircle
 10
-108.278027
 20
14.754217
 30
0.0
 40
1.0
100
AcDbArc
 50
175.620691
 51
0.0
  0
ARC
  5
1BA
330
36
100
AcDbEntity
  8
0
 62
     3
100
AcDbCircle
 10
-110.278027
 20
14.754217
 30
0.0
 40
1.0
100
AcDbArc
 50
175.620691
 51
0.0
  0
ARC
  5
1BB
330
36
100
AcDbEntity
  8
0
 62
     3
100
AcDbCircle
 10
-112.278027
 20
14.754217
 30
0.0
 40
1.0
100
AcDbArc
 50
175.620691
 51
0.0
  0
ARC
  5
1BC
330
36
100
AcDbEntity
  8
0
 62
     3
100
AcDbCircle
 10
-114.278027
 20
14.754217
 30
0.0
 40
1.0
100
AcDbArc
 50
175.620691
 51
0.0
  0
ARC
  5
1BD
330
36
100
AcDbEntity
  8
0
 62
     3
100
AcDbCircle
 10
-116.278027
 20
14.754217
 30
0.0
 40
1.0
100
AcDbArc
 50
175.620691
 51
0.0
  0
LINE
  5
1BE
330
36
100
AcDbEntity
  8
0
 62
     3
100
AcDbLine
 10
-102.096048
 20
9.999309999999999
 30
0.0
 11
-102.096048
 21
13.770914
 31
0.0
  0
LINE
  5
1BF
330
36
100
AcDbEntity
  8
0
 62
     3
100
AcDbLine
 10
-101.978027
 20
48.754217
 30
0.0
 11
-103.278027
 21
14.754217
 31
0.0
  0
LINE
  5
1C0
330
36
100
AcDbEntity
  8
0
 62
     3
100
AcDbLine
 10
-103.978027
 20
48.754217
 30
0.0
 11
-105.278027
 21
14.754217
 31
0.0
  0
LINE
  5
1C1
330
36
100
AcDbEntity
  8
0
 62
     3
100
AcDbLine
 10
-105.978027
 20
48.754217
 30
0.0
 11
-107.278027
 21
14.754217
 31
0.0
  0
LINE
  5
1C2
330
36
100
AcDbEntity
  8
0
 62
     3
100
AcDbLine
 10
-107.978027
 20
48.754217
 30
0.0
 11
-109.278027
 21
14.754217
 31
0.0
  0
LINE
  5
1C3
330
36
100
AcDbEntity
  8
0
 62
     3
100
AcDbLine
 10
-109.978027
 20
48.754217
 30
0.0
 11
-111.278027
 21
14.754217
 31
0.0
  0
LINE
  5
1C4
330
36
100
AcDbEntity
  8
0
 62
     3
100
AcDbLine
 10
-111.978027
 20
48.754217
 30
0.0
 11
-113.278027
 21
14.754217
 31
0.0
  0
LINE
  5
1C5
330
36
100
AcDbEntity
  8
0
 62
     3
100
AcDbLine
 10
-113.978027
 20
48.754217
 30
0.0
 11
-115.278027
 21
14.754217
 31
0.0
  0
LINE
  5
1C6
330
36
100
AcDbEntity
  8
0
 62
     3
100
AcDbLine
 10
-118.028027
 20
36.004217
 30
0.0
 11
-118.028027
 21
28.254217
 31
0.0
  0
LINE
  5
1C7
330
36
100
AcDbEntity
  8
0
 62
     3
100
AcDbLine
 10
-99.17802700000001
 20
38.779393
 30
0.0
 11
-99.17802700000001
 21
24.729041
 31
0.0
  0
LINE
  5
1C8
330
36
100
AcDbEntity
  8
0
 62
     3
100
AcDbLine
 10
-101.278027
 20
14.754217
 30
0.0
 11
-99.97802700000001
 21
48.754217
 31
0.0
  0
LINE
  5
1C9
330
36
100
AcDbEntity
  8
0
 62
     3
100
AcDbLine
 10
-117.228027
 20
47.75421699999998
 30
0.0
 11
-116.016262
 21
47.75421699999998
 31
0.0
  0
ARC
  5
1CA
330
36
100
AcDbEntity
  8
0
 62
     3
100
AcDbCircle
 10
-101.098968
 20
9.922950999999999
 30
0.0
 40
1.0
100
AcDbArc
 50
175.620691
 51
0.0
  0
LINE
  5
1CB
330
36
100
AcDbEntity
  8
0
 62
     3
100
AcDbLine
 10
-128.687911
 20
34.754217
 30
0.0
 11
-124.373546
 21
34.754217
 31
0.0
  0
LINE
  5
1CC
330
36
100
AcDbEntity
  8
0
 62
     3
100
AcDbLine
 10
-128.687911
 20
28.754217
 30
0.0
 11
-124.373546
 21
28.754217
 31
0.0
  0
LINE
  5
1CE
330
36
100
AcDbEntity
  8
0
 62
     3
100
AcDbLine
 10
-103.473546
 20
-27.145783
 30
0.0
 11
-120.373546
 21
-27.145783
 31
0.0
  0
LINE
  5
1D4
330
36
100
AcDbEntity
  8
0
 62
     7
100
AcDbLine
 10
78.628461
 20
-6.905288
 30
0.0
 11
86.833714
 21
7.831639
 31
0.0
  0
CIRCLE
  5
1D5
330
36
100
AcDbEntity
  8
0
 62
     7
100
AcDbCircle
 10
89.266021
 20
12.200149
 30
0.0
 40
5.0
  0
TEXT
  5
1D6
330
36
100
AcDbEntity
  8
0
 62
     4
100
AcDbText
 10
87.13305842867937
 20
8.95670934630707
 30
0.0
 40
6.299999999999999
  1
7
  7
高6.3
100
AcDbText
  0
LINE
  5
1DC
330
36
100
AcDbEntity
  8
0
 62
     7
100
AcDbLine
 10
-126.495915
 20
6.345486
 30
0.0
 11
-140.613231
 21
18.875129
 31
0.0
  0
CIRCLE
  5
1DD
330
36
100
AcDbEntity
  8
0
 62
     7
100
AcDbCircle
 10
-144.352786
 20
22.194124
 30
0.0
 40
5.0
  0
TEXT
  5
1DE
330
36
100
AcDbEntity
  8
0
 62
     4
100
AcDbText
 10
-145.5892370447848
 20
19.07166731968039
 30
0.0
 40
6.299999999999999
  1
1
  7
高6.3
100
AcDbText
  0
LINE
  5
1E4
330
36
100
AcDbEntity
  8
0
 62
     7
100
AcDbLine
 10
-128.268484
 20
33.095066
 30
0.0
 11
-140.30269
 21
41.80707899999997
 31
0.0
  0
CIRCLE
  5
1E5
330
36
100
AcDbEntity
  8
0
 62
     7
100
AcDbCircle
 10
-144.352786
 20
44.739095
 30
0.0
 40
5.0
  0
TEXT
  5
1E6
330
36
100
AcDbEntity
  8
0
 62
     4
100
AcDbText
 10
-146.4857485713206
 20
41.49565534630706
 30
0.0
 40
6.299999999999999
  1
2
  7
高6.3
100
AcDbText
  0
LINE
  5
1EC
330
36
100
AcDbEntity
  8
0
 62
     7
100
AcDbLine
 10
-120.154893
 20
62.88634899999999
 30
0.0
 11
-140.3116629999999
 21
77.572614
 31
0.0
  0
CIRCLE
  5
1ED
330
36
100
AcDbEntity
  8
0
 62
     7
100
AcDbCircle
 10
-144.352786
 20
80.51698499999998
 30
0.0
 40
5.0
  0
TEXT
  5
1EE
330
36
100
AcDbEntity
  8
0
 62
     4
100
AcDbText
 10
-146.4857485713206
 20
77.27354534630707
 30
0.0
 40
6.299999999999999
  1
3
  7
高6.3
100
AcDbText
  0
LINE
  5
1F4
330
36
100
AcDbEntity
  8
0
 62
     7
100
AcDbLine
 10
-81.876806
 20
67.686373
 30
0.0
 11
-72.19597399999997
 21
77.586225
 31
0.0
  0
CIRCLE
  5
1F5
330
36
100
AcDbEntity
  8
0
 62
     7
100
AcDbCircle
 10
-68.70020600000001
 20
81.16108199999997
 30
0.0
 40
5.0
  0
TEXT
  5
1F6
330
36
100
AcDbEntity
  8
0
 62
     4
100
AcDbText
 10
-70.83316857132061
 20
77.91764234630704
 30
0.0
 40
6.299999999999999
  1
4
  7
高6.3
100
AcDbText
  0
LINE
  5
1FC
330
36
100
AcDbEntity
  8
0
 62
     7
100
AcDbLine
 10
-102.21774
 20
18.784343
 30
0.0
 11
-73.52249399999998
 21
10.922568
 31
0.0
  0
CIRCLE
  5
1FD
330
36
100
AcDbEntity
  8
0
 62
     7
100
AcDbCircle
 10
-68.70020600000001
 20
9.601383
 30
0.0
 40
5.0
  0
TEXT
  5
1FE
330
36
100
AcDbEntity
  8
0
 62
     4
100
AcDbText
 10
-70.83316857132061
 20
6.357942346307071
 30
0.0
 40
6.299999999999999
  1
5
  7
高6.3
100
AcDbText
  0
LINE
  5
204
330
36
100
AcDbEntity
  8
0
 62
     7
100
AcDbLine
 10
-101.52146
 20
10.097874
 30
0.0
 11
-73.36756899999997
 21
-0.719107
 31
0.0
  0
CIRCLE
  5
205
330
36
100
AcDbEntity
  8
0
 62
     7
100
AcDbCircle
 10
-68.70020600000001
 20
-2.51235
 30
0.0
 40
5.0
  0
TEXT
  5
206
330
36
100
AcDbEntity
  8
0
 62
     4
100
AcDbText
 10
-70.83316857132061
 20
-5.755789653692928
 30
0.0
 40
6.299999999999999
  1
6
  7
高6.3
100
AcDbText
  0
TEXT
  5
207
330
36
100
AcDbEntity
  8
0
 62
     3
100
AcDbText
 10
97.680857
 20
-135.029873
 30
0.0
 40
3.2
  1
参考図
  7
高3.2
100
AcDbText
  0
LINE
  5
208
330
36
100
AcDbEntity
  8
0
 62
     3
100
AcDbLine
 10
-227.404362
 20
123.523751
 30
0.0
 11
-227.404362
 21
-153.476249
 31
0.0
  0
LINE
  5
209
330
36
100
AcDbEntity
  8
0
 62
     3
100
AcDbLine
 10
162.595638
 20
-153.476249
 30
0.0
 11
162.595638
 21
123.523751
 31
0.0
  0
LINE
  5
20A
330
36
100
AcDbEntity
  8
0
 62
     3
100
AcDbLine
 10
-227.404362
 20
123.523751
 30
0.0
 11
162.595638
 21
123.523751
 31
0.0
  0
LINE
  5
20B
330
36
100
AcDbEntity
  8
0
 62
     3
100
AcDbLine
 10
-227.404362
 20
-153.476249
 30
0.0
 11
162.595638
 21
-153.476249
 31
0.0
  0
TEXT
  5
20C
330
36
100
AcDbEntity
  8
0
 62
     3
100
AcDbText
 10
47.38770999999998
 20
-74.072649
 30
0.0
 40
3.2
  1
型　　　　　式
  7
高3.2
100
AcDbText
  0
TEXT
  5
20D
330
36
100
AcDbEntity
  8
0
 62
     3
100
AcDbText
 10
65.763442
 20
-65.94846
 30
0.0
 40
4.5
  1
主　　仕　　様
  7
高4.5
100
AcDbText
  0
TEXT
  5
20E
330
36
100
AcDbEntity
  8
0
 62
     3
100
AcDbText
 10
87.41744636253702
 20
-73.898212
 30
0.0
 40
3.2
  1
ER-421M
  7
高3.2
100
AcDbText
  0
TEXT
  5
20F
330
36
100
AcDbEntity
  8
0
 62
     3
100
AcDbText
 10
47.38770999999998
 20
-80.725449
 30
0.0
 40
3.2
  1
コードサイズ
  7
高3.2
100
AcDbText
  0
TEXT
  5
210
330
36
100
AcDbEntity
  8
0
 62
     3
100
AcDbText
 10
78.15571
 20
-80.72516400000003
 30
0.0
 40
3.2
  1
0.75sqx1cx21m
  7
高3.2
100
AcDbText
  0
TEXT
  5
211
330
36
100
AcDbEntity
  8
0
 62
     3
100
AcDbText
 10
46.837973
 20
-93.749184
 30
0.0
 40
3.2
  1
質　　　　　量
  7
高3.2
100
AcDbText
  0
TEXT
  5
212
330
36
100
AcDbEntity
  8
0
 62
     3
100
AcDbText
 10
90.51944500000001
 20
-93.748613
 30
0.0
 40
3.2
  1
1.5kg
  7
高3.2
100
AcDbText
  0
TEXT
  5
213
330
36
100
AcDbEntity
  8
0
 62
     3
100
AcDbText
 10
46.837973
 20
-87.083034
 30
0.0
 40
3.2
  1
巻　取　方　式
  7
高3.2
100
AcDbText
  0
TEXT
  5
214
330
36
100
AcDbEntity
  8
0
 62
     3
100
AcDbText
 10
86.86313815089148
 20
-87.082464
 30
0.0
 40
3.2
  1
手動巻取り
  7
高3.2
100
AcDbText
  0
LINE
  5
21C
330
36
100
AcDbEntity
  8
0
 62
     7
100
AcDbLine
 10
65.98363978813786
 20
-66.79062498988049
 30
0.0
 11
102.5142039525715
 21
-66.79062498988049
 31
0.0
  0
LINE
  5
21F
330
36
100
AcDbEntity
  8
0
 62
     3
100
AcDbLine
 10
136.896275
 20
-136.810526
 30
0.0
 11
136.896275
 21
-113.810526
 31
0.0
  0
LINE
  5
221
330
36
100
AcDbEntity
  8
0
 62
     3
100
AcDbLine
 10
83.842665
 20
-143.810526
 30
0.0
 11
83.842665
 21
-129.810526
 31
0.0
  0
TEXT
  5
223
330
36
100
AcDbEntity
  8
0
 62
     3
100
AcDbText
 10
112.906593
 20
-117.60541
 30
0.0
 40
2.0
  1
A
 41
0.7
100
AcDbText
  0
TEXT
  5
224
330
36
100
AcDbEntity
  8
0
 62
     3
100
AcDbText
 10
115.441879
 20
-117.60541
 30
0.0
 40
2.0
  1
P
 41
0.7
100
AcDbText
  0
TEXT
  5
225
330
36
100
AcDbEntity
  8
0
 62
     3
100
AcDbText
 10
117.977165
 20
-117.60541
 30
0.0
 40
2.0
  1
P
 41
0.7
100
AcDbText
  0
TEXT
  5
226
330
36
100
AcDbEntity
  8
0
 62
     3
100
AcDbText
 10
120.512452
 20
-117.60541
 30
0.0
 40
2.0
  1
D
 41
0.7
100
AcDbText
  0
TEXT
  5
227
330
36
100
AcDbEntity
  8
0
 62
     3
100
AcDbText
 10
125.881135
 20
-117.60541
 30
0.0
 40
2.0
  1
C
 41
0.7
100
AcDbText
  0
TEXT
  5
228
330
36
100
AcDbEntity
  8
0
 62
     3
100
AcDbText
 10
128.416421
 20
-117.60541
 30
0.0
 40
2.0
  1
H
 41
0.7
100
AcDbText
  0
TEXT
  5
229
330
36
100
AcDbEntity
  8
0
 62
     3
100
AcDbText
 10
130.951707
 20
-117.60541
 30
0.0
 40
2.0
  1
C
 41
0.7
100
AcDbText
  0
TEXT
  5
22A
330
36
100
AcDbEntity
  8
0
 62
     3
100
AcDbText
 10
133.4869929999999
 20
-117.60541
 30
0.0
 40
2.0
  1
K
 41
0.7
100
AcDbText
  0
TEXT
  5
22B
330
36
100
AcDbEntity
  8
0
 62
     3
100
AcDbText
 10
139.16096
 20
-117.60541
 30
0.0
 40
2.0
  1
DESN
 41
1.216762999999998
100
AcDbText
  0
TEXT
  5
22C
330
36
100
AcDbEntity
  8
0
 62
     3
100
AcDbText
 10
54.154601
 20
-146.951908
 30
0.0
 40
2.0
  1
NICHIDO IND.CO.LTD
 41
1.274876
100
AcDbText
  0
LINE
  5
22D
330
36
100
AcDbEntity
  8
0
 62
     3
100
AcDbLine
 10
64.53763100000002
 20
-113.810526
 30
0.0
 11
64.537631
 21
-136.810526
 31
0.0
  0
LINE
  5
22E
330
36
100
AcDbEntity
  8
0
 62
     3
100
AcDbLine
 10
110.896275
 20
-113.810526
 30
0.0
 11
110.896275
 21
-153.476249
 31
0.0
  0
LINE
  5
233
330
36
100
AcDbEntity
  8
0
 62
     3
100
AcDbLine
 10
123.896275
 20
-113.810526
 30
0.0
 11
123.896275
 21
-143.810526
 31
0.0
  0
TEXT
  5
234
330
36
100
AcDbEntity
  8
0
 62
     3
100
AcDbText
 10
112.00872
 20
-142.94584
 30
0.0
 40
3.2
  1
作成日
 41
1.017225999999997
100
AcDbText
  0
LINE
  5
235
330
36
100
AcDbEntity
  8
0
 62
     3
100
AcDbLine
 10
162.595638
 20
-113.810526
 30
0.0
 11
51.292196
 21
-113.810526
 31
0.0
  0
LINE
  5
236
330
36
100
AcDbEntity
  8
0
 62
     3
100
AcDbLine
 10
149.896275
 20
-136.810526
 30
0.0
 11
149.896275
 21
-113.810526
 31
0.0
  0
TEXT
  5
237
330
36
100
AcDbEntity
  8
0
 62
     3
100
AcDbText
 10
153.220078
 20
-117.519592
 30
0.0
 40
1.8
  1
D
 41
0.666667
100
AcDbText
  0
TEXT
  5
238
330
36
100
AcDbEntity
  8
0
 62
     3
100
AcDbText
 10
156.036706
 20
-117.519592
 30
0.0
 40
1.8
  1
E
 41
0.666667
100
AcDbText
  0
TEXT
  5
239
330
36
100
AcDbEntity
  8
0
 62
     3
100
AcDbText
 10
158.853335
 20
-117.519592
 30
0.0
 40
1.8
  1
F
 41
0.666667
100
AcDbText
  0
TEXT
  5
23A
330
36
100
AcDbEntity
  8
0
 62
     3
100
AcDbText
 10
153.220078
 20
-121.512145
 30
0.0
 40
3.2
  1
製図
 41
1.076369
100
AcDbText
  0
LINE
  5
23B
330
36
100
AcDbEntity
  8
0
 62
     3
100
AcDbLine
 10
51.292196
 20
-113.810526
 30
0.0
 11
51.292196
 21
-153.476249
 31
0.0
  0
TEXT
  5
23C
330
36
100
AcDbEntity
  8
0
 62
     3
100
AcDbText
 10
52.668849
 20
-153.143783
 30
0.0
 40
5.0
  1
日動工業株式会社
 41
0.833333
100
AcDbText
  0
LINE
  5
23D
330
36
100
AcDbEntity
  8
0
 62
     3
100
AcDbLine
 10
94.17459999999998
 20
-129.810526
 30
0.0
 11
94.1746
 21
-153.476249
 31
0.0
  0
LINE
  5
23E
330
36
100
AcDbEntity
  8
0
 62
     3
100
AcDbLine
 10
94.1746
 20
-148.643388
 30
0.0
 11
110.896275
 21
-148.643388
 31
0.0
  0
TEXT
  5
23F
330
36
100
AcDbEntity
  8
0
 62
     3
100
AcDbText
 10
94.761202
 20
-147.826957
 30
0.0
 40
3.2
  1
出図コード
 41
0.8356860000000001
100
AcDbText
  0
LINE
  5
241
330
36
100
AcDbEntity
  8
0
 62
     3
100
AcDbLine
 10
51.292196
 20
-143.810526
 30
0.0
 11
162.595638
 21
-143.810526
 31
0.0
  0
LINE
  5
243
330
36
100
AcDbEntity
  8
0
 62
     3
100
AcDbLine
 10
51.292196
 20
-122.810526
 30
0.0
 11
162.595638
 21
-122.810526
 31
0.0
  0
LINE
  5
249
330
36
100
AcDbEntity
  8
0
 62
     3
100
AcDbLine
 10
51.292196
 20
-129.810526
 30
0.0
 11
110.896275
 21
-129.810526
 31
0.0
  0
LINE
  5
24F
330
36
100
AcDbEntity
  8
0
 62
     3
100
AcDbLine
 10
51.292196
 20
-136.810526
 30
0.0
 11
162.595638
 21
-136.810526
 31
0.0
  0
TEXT
  5
250
330
36
100
AcDbEntity
  8
0
 62
     3
100
AcDbText
 10
53.109593
 20
-117.641001
 30
0.0
 40
2.0
  1
CONPONENTS
 41
0.5331600000000001
100
AcDbText
  0
TEXT
  5
251
330
36
100
AcDbEntity
  8
0
 62
     3
100
AcDbText
 10
52.759866
 20
-136.573177
 30
0.0
 40
3.0
  1
材
 41
0.833333
100
AcDbText
  0
TEXT
  5
252
330
36
100
AcDbEntity
  8
0
 62
     3
100
AcDbText
 10
60.295509
 20
-136.573177
 30
0.0
 40
3.0
  1
質
 41
0.833333
100
AcDbText
  0
TEXT
  5
253
330
36
100
AcDbEntity
  8
0
 62
     3
100
AcDbText
 10
52.847937
 20
-125.948653
 30
0.0
 40
2.0
  1
MODEL
 41
1.031072999999999
100
AcDbText
  0
TEXT
  5
254
330
36
100
AcDbEntity
  8
0
 62
     3
100
AcDbText
 10
52.759866
 20
-132.890869
 30
0.0
 40
2.0
  1
MATERIAL
 41
0.659278
100
AcDbText
  0
TEXT
  5
255
330
36
100
AcDbEntity
  8
0
 62
     3
100
AcDbText
 10
84.067147
 20
-136.573177
 30
0.0
 40
3.0
  1
備
 41
0.833333
100
AcDbText
  0
TEXT
  5
256
330
36
100
AcDbEntity
  8
0
 62
     3
100
AcDbText
 10
90.80014799999998
 20
-136.573177
 30
0.0
 40
3.0
  1
考
 41
0.833333
100
AcDbText
  0
TEXT
  5
257
330
36
100
AcDbEntity
  8
0
 62
     3
100
AcDbText
 10
84.39421278722965
 20
-132.890869
 30
0.0
 40
2.0
  1
REMARKS
 41
0.675794
100
AcDbText
  0
TEXT
  5
258
330
36
100
AcDbEntity
  8
0
 62
     3
100
AcDbText
 10
54.34959499999999
 20
-139.81099
 30
0.0
 40
2.0
  1
3AD
 41
1.42614
100
AcDbText
  0
TEXT
  5
259
330
36
100
AcDbEntity
  8
0
 62
     3
100
AcDbText
 10
63.660575
 20
-139.645256
 30
0.0
 40
2.0
  1
ANGLE
 41
1.669883999999996
100
AcDbText
  0
TEXT
  5
25A
330
36
100
AcDbEntity
  8
0
 62
     3
100
AcDbText
 10
84.594462
 20
-140.022097
 30
0.0
 40
2.0
  1
SCALE
 41
0.7719630000000001
100
AcDbText
  0
TEXT
  5
25B
330
36
100
AcDbEntity
  8
0
 62
     3
100
AcDbText
 10
54.035725
 20
-143.810526
 30
0.0
 40
3.0
  1
第
 41
0.833333
100
AcDbText
  0
TEXT
  5
25C
330
36
100
AcDbEntity
  8
0
 62
     3
100
AcDbText
 10
61.822575
 20
-143.810526
 30
0.0
 40
3.0
  1
三
 41
0.833333
100
AcDbText
  0
TEXT
  5
25D
330
36
100
AcDbEntity
  8
0
 62
     3
100
AcDbText
 10
69.609425
 20
-143.810526
 30
0.0
 40
3.0
  1
角
 41
0.833333
100
AcDbText
  0
TEXT
  5
25E
330
36
100
AcDbEntity
  8
0
 62
     3
100
AcDbText
 10
77.396275
 20
-143.810526
 30
0.0
 40
3.0
  1
法
 41
0.833333
100
AcDbText
  0
TEXT
  5
25F
330
36
100
AcDbEntity
  8
0
 62
     3
100
AcDbText
 10
84.457667
 20
-143.522097
 30
0.0
 40
3.0
  1
尺
 41
0.833333
100
AcDbText
  0
TEXT
  5
260
330
36
100
AcDbEntity
  8
0
 62
     3
100
AcDbText
 10
91.19066899999999
 20
-143.522097
 30
0.0
 40
3.0
  1
度
 41
0.833333
100
AcDbText
  0
TEXT
  5
261
330
36
100
AcDbEntity
  8
0
 62
     3
100
AcDbText
 10
113.773939
 20
-121.352797
 30
0.0
 40
3.0
  1
承認
 41
1.089472999999999
100
AcDbText
  0
TEXT
  5
262
330
36
100
AcDbEntity
  8
0
 62
     3
100
AcDbText
 10
127.016819
 20
-121.410526
 30
0.0
 40
3.0
  1
検図
 41
0.931761
100
AcDbText
  0
TEXT
  5
263
330
36
100
AcDbEntity
  8
0
 62
     3
100
AcDbText
 10
140.017216
 20
-121.410526
 30
0.0
 40
3.0
  1
設
 41
0.833333
100
AcDbText
  0
TEXT
  5
264
330
36
100
AcDbEntity
  8
0
 62
     3
100
AcDbText
 10
144.507084
 20
-121.410526
 30
0.0
 40
3.0
  1
計
 41
0.833333
100
AcDbText
  0
TEXT
  5
265
330
36
100
AcDbEntity
  8
0
 62
     3
100
AcDbText
 10
53.179699
 20
-121.237974
 30
0.0
 40
3.0
  1
品
 41
0.833333
100
AcDbText
  0
TEXT
  5
266
330
36
100
AcDbEntity
  8
0
 62
     3
100
AcDbText
 10
60.71534200000001
 20
-121.237974
 30
0.0
 40
3.0
  1
名
 41
0.833333
100
AcDbText
  0
TEXT
  5
267
330
36
100
AcDbEntity
  8
0
 62
     3
100
AcDbText
 10
52.847937
 20
-129.467062386701
 30
0.0
 40
3.0
  1
型
 41
0.833333
100
AcDbText
  0
TEXT
  5
268
330
36
100
AcDbEntity
  8
0
 62
     3
100
AcDbText
 10
60.396027
 20
-129.467062386701
 30
0.0
 40
3.0
  1
式
 41
0.833333
100
AcDbText
  0
TEXT
  5
269
330
36
100
AcDbEntity
  8
0
 62
     3
100
AcDbText
 10
94.628653
 20
-152.8086261439006
 30
0.0
 40
3.2
  1
ZK-A3X
 41
0.8112849999999999
100
AcDbText
  0
LINE
  5
26A
330
36
100
AcDbEntity
  8
0
 62
     3
100
AcDbLine
 10
-240.369358
 20
-22.604396
 30
0.0
 11
-242.967434
 21
-24.104396
 31
0.0
  0
LINE
  5
26B
330
36
100
AcDbEntity
  8
0
 62
     3
100
AcDbLine
 10
-240.369358
 20
-22.604396
 30
0.0
 11
-242.967434
 21
-21.104396
 31
0.0
  0
LINE
  5
26C
330
36
100
AcDbEntity
  8
0
 62
     3
100
AcDbLine
 10
-242.967434
 20
-24.104396
 30
0.0
 11
-242.967434
 21
-21.104396
 31
0.0
  0
LINE
  5
26D
330
36
100
AcDbEntity
  8
0
 62
     3
100
AcDbLine
 10
22.834857
 20
-29.05822800000001
 30
0.0
 11
22.834857
 21
-32.651361
 31
0.0
  0
LINE
  5
26E
330
36
100
AcDbEntity
  8
0
 62
     3
100
AcDbLine
 10
22.834857
 20
-32.651361
 30
0.0
 11
24.415835
 21
-31.501558
 31
0.0
  0
LINE
  5
26F
330
36
100
AcDbEntity
  8
0
 62
     3
100
AcDbLine
 10
22.834857
 20
-32.651361
 30
0.0
 11
21.253878
 21
-31.501558
 31
0.0
  0
LINE
  5
270
330
36
100
AcDbEntity
  8
0
 62
     7
100
AcDbLine
 10
18.805186
 20
-36.487498
 30
0.0
 11
26.95773
 21
-36.487498
 31
0.0
  0
LINE
  5
271
330
36
100
AcDbEntity
  8
0
 62
     7
100
AcDbLine
 10
20.196471
 20
-38.030794
 30
0.0
 11
25.514307
 21
-38.030794
 31
0.0
  0
LINE
  5
272
330
36
100
AcDbEntity
  8
0
 62
     7
100
AcDbLine
 10
21.418136
 20
-39.396184
 30
0.0
 11
24.436367
 21
-39.396184
 31
0.0
  0
LINE
  5
273
330
36
100
AcDbEntity
  8
0
 62
     7
100
AcDbLine
 10
22.881458
 20
-36.487498
 30
0.0
 11
22.881458
 21
-33.431584
 31
0.0
  0
TEXT
  5
274
330
36
100
AcDbEntity
  8
0
 62
     3
100
AcDbText
 10
116.0844846609291
 20
-113.254441
 30
0.0
 40
4.5
  1
コード
  7
高4.5
100
AcDbText
  0
LINE
  5
275
330
36
100
AcDbEntity
  8
0
 62
     3
100
AcDbLine
 10
136.896239
 20
-113.810526
 30
0.0
 11
136.896239
 21
-107.810526
 31
0.0
  0
LINE
  5
276
330
36
100
AcDbEntity
  8
0
 62
     3
100
AcDbLine
 10
110.896239
 20
-113.810526
 30
0.0
 11
110.896239
 21
-107.810526
 31
0.0
  0
TEXT
  5
277
330
36
100
AcDbEntity
  8
0
 62
     3
100
AcDbText
 10
141.4453904463273
 20
-113.31217
 30
0.0
 40
4.5
  1
7826
  7
高4.5
100
AcDbText
  0
LINE
  5
278
330
36
100
AcDbEntity
  8
0
 62
     3
100
AcDbLine
 10
162.495602
 20
-107.810526
 30
0.0
 11
110.896239
 21
-107.810526
 31
0.0
  0
LINE
  5
279
330
36
100
AcDbEntity
  8
0
 62
     3
100
AcDbLine
 10
-105.9756916875
 20
-153.476249
 30
0.0
 11
-105.9756916875
 21
-113.476249
 31
0.0
  0
LINE
  5
27A
330
36
100
AcDbEntity
  8
0
 62
     7
100
AcDbLine
 10
-113.8374291875
 20
-153.476249
 30
0.0
 11
-113.8374291875
 21
-113.476249
 31
0.0
  0
TEXT
  5
27B
330
36
100
AcDbEntity
  8
0
 62
     3
100
AcDbText
 10
-112.3374291875
 20
-117.976249
 30
0.0
 40
3.2
  1
1式
 41
0.8
  7
高3.2
100
AcDbText
  0
TEXT
  5
27C
330
36
100
AcDbEntity
  8
0
 62
     3
100
AcDbText
 10
-112.3374291875
 20
-127.976249
 30
0.0
 40
3.2
  1
1式
 41
0.8
  7
高3.2
100
AcDbText
  0
TEXT
  5
27D
330
36
100
AcDbEntity
  8
0
 62
     3
100
AcDbText
 10
-112.3374291875
 20
-122.976249
 30
0.0
 40
3.2
  1
1
 41
0.8
  7
高3.2
100
AcDbText
  0
TEXT
  5
27E
330
36
100
AcDbEntity
  8
0
 62
     3
100
AcDbText
 10
-112.3374291875
 20
-142.976249
 30
0.0
 40
3.2
  1
1式
 41
0.8
  7
高3.2
100
AcDbText
  0
TEXT
  5
27F
330
36
100
AcDbEntity
  8
0
 62
     3
100
AcDbText
 10
-112.3374291875
 20
-132.976249
 30
0.0
 40
3.2
  1
1
 41
0.8
  7
高3.2
100
AcDbText
  0
TEXT
  5
280
330
36
100
AcDbEntity
  8
0
 62
     3
100
AcDbText
 10
-112.3374291875
 20
-137.976249
 30
0.0
 40
3.2
  1
2
 41
0.8
  7
高3.2
100
AcDbText
  0
TEXT
  5
281
330
36
100
AcDbEntity
  8
0
 62
     3
100
AcDbText
 10
-112.3374291875
 20
-147.976249
 30
0.0
 40
3.2
  1
1
 41
0.8
  7
高3.2
100
AcDbText
  0
TEXT
  5
282
330
36
100
AcDbEntity
  8
0
 62
     3
100
AcDbText
 10
-154.03004871875
 20
-147.976249
 30
0.0
 40
3.2
  1
t=3.2　メッキ処理
 41
0.8
  7
高3.2
100
AcDbText
  0
LINE
  5
283
330
36
100
AcDbEntity
  8
0
 62
     7
100
AcDbLine
 10
-179.7526979375
 20
-153.476249
 30
0.0
 11
-179.7526979375
 21
-113.476249
 31
0.0
  0
LINE
  5
284
330
36
100
AcDbEntity
  8
0
 62
     7
100
AcDbLine
 10
-155.53004871875
 20
-153.476249
 30
0.0
 11
-155.53004871875
 21
-113.476249
 31
0.0
  0
LINE
  5
285
330
36
100
AcDbEntity
  8
0
 62
     7
100
AcDbLine
 10
-219.84582059375
 20
-153.476249
 30
0.0
 11
-219.84582059375
 21
-113.476249
 31
0.0
  0
TEXT
  5
286
330
36
100
AcDbEntity
  8
0
 62
     3
100
AcDbText
 10
-225.904362
 20
-147.976249
 30
0.0
 40
3.2
  1
1
 41
0.8
  7
高3.2
100
AcDbText
  0
TEXT
  5
287
330
36
100
AcDbEntity
  8
0
 62
     3
100
AcDbText
 10
-225.904362
 20
-142.976249
 30
0.0
 40
3.2
  1
2
 41
0.8
  7
高3.2
100
AcDbText
  0
TEXT
  5
288
330
36
100
AcDbEntity
  8
0
 62
     3
100
AcDbText
 10
-225.904362
 20
-137.976249
 30
0.0
 40
3.2
  1
3
 41
0.8
  7
高3.2
100
AcDbText
  0
TEXT
  5
289
330
36
100
AcDbEntity
  8
0
 62
     3
100
AcDbText
 10
-225.904362
 20
-132.976249
 30
0.0
 40
3.2
  1
4
 41
0.8
  7
高3.2
100
AcDbText
  0
TEXT
  5
28A
330
36
100
AcDbEntity
  8
0
 62
     3
100
AcDbText
 10
-225.904362
 20
-127.976249
 30
0.0
 40
3.2
  1
5
 41
0.8
  7
高3.2
100
AcDbText
  0
TEXT
  5
28B
330
36
100
AcDbEntity
  8
0
 62
     3
100
AcDbText
 10
-225.904362
 20
-122.976249
 30
0.0
 40
3.2
  1
6
 41
0.8
  7
高3.2
100
AcDbText
  0
TEXT
  5
28C
330
36
100
AcDbEntity
  8
0
 62
     3
100
AcDbText
 10
-225.904362
 20
-117.976249
 30
0.0
 40
3.2
  1
7
 41
0.8
  7
高3.2
100
AcDbText
  0
TEXT
  5
28D
330
36
100
AcDbEntity
  8
0
 62
     3
100
AcDbText
 10
-218.34582059375
 20
-117.976249
 30
0.0
 40
3.2
  1
アースクリップ
 41
0.8
  7
高3.2
100
AcDbText
  0
TEXT
  5
28E
330
36
100
AcDbEntity
  8
0
 62
     3
100
AcDbText
 10
-218.34582059375
 20
-132.976249
 30
0.0
 40
3.2
  1
ハンドル
 41
0.8
  7
高3.2
100
AcDbText
  0
TEXT
  5
28F
330
36
100
AcDbEntity
  8
0
 62
     3
100
AcDbText
 10
-218.34582059375
 20
-127.976249
 30
0.0
 40
3.2
  1
ドラム
 41
0.8
  7
高3.2
100
AcDbText
  0
TEXT
  5
290
330
36
100
AcDbEntity
  8
0
 62
     3
100
AcDbText
 10
-218.34582059375
 20
-137.976249
 30
0.0
 40
3.2
  1
ドラムプレート
 41
0.8
  7
高3.2
100
AcDbText
  0
TEXT
  5
291
330
36
100
AcDbEntity
  8
0
 62
     3
100
AcDbText
 10
-218.34582059375
 20
-142.976249
 30
0.0
 40
3.2
  1
メインシャフト
 41
0.8
  7
高3.2
100
AcDbText
  0
TEXT
  5
292
330
36
100
AcDbEntity
  8
0
 62
     3
100
AcDbText
 10
-218.34582059375
 20
-147.976249
 30
0.0
 40
3.2
  1
スタンドプレート
 41
0.8
  7
高3.2
100
AcDbText
  0
TEXT
  5
293
330
36
100
AcDbEntity
  8
0
 62
     3
100
AcDbText
 10
-178.2526979375
 20
-127.976249
 30
0.0
 40
3.2
  1
SPCC
 41
0.8
  7
高3.2
100
AcDbText
  0
TEXT
  5
294
330
36
100
AcDbEntity
  8
0
 62
     3
100
AcDbText
 10
-178.2526979375
 20
-142.976249
 30
0.0
 40
3.2
  1
SS400
 41
0.8
  7
高3.2
100
AcDbText
  0
TEXT
  5
295
330
36
100
AcDbEntity
  8
0
 62
     3
100
AcDbText
 10
-178.2526979375
 20
-132.976249
 30
0.0
 40
3.2
  1
ABS
 41
0.8
  7
高3.2
100
AcDbText
  0
TEXT
  5
296
330
36
100
AcDbEntity
  8
0
 62
     3
100
AcDbText
 10
-178.2526979375
 20
-137.976249
 30
0.0
 40
3.2
  1
SPCC
 41
0.8
  7
高3.2
100
AcDbText
  0
TEXT
  5
297
330
36
100
AcDbEntity
  8
0
 62
     3
100
AcDbText
 10
-178.2526979375
 20
-147.976249
 30
0.0
 40
3.2
  1
SPCC
 41
0.8
  7
高3.2
100
AcDbText
  0
TEXT
  5
298
330
36
100
AcDbEntity
  8
0
 62
     3
100
AcDbText
 10
-154.03004871875
 20
-117.976249
 30
0.0
 40
3.2
  1
50A
 41
0.8
  7
高3.2
100
AcDbText
  0
TEXT
  5
299
330
36
100
AcDbEntity
  8
0
 62
     3
100
AcDbText
 10
-154.03004871875
 20
-127.976249
 30
0.0
 40
3.2
  1
M6ボルト、ナット
 41
0.8
  7
高3.2
100
AcDbText
  0
TEXT
  5
29A
330
36
100
AcDbEntity
  8
0
 62
     3
100
AcDbText
 10
-154.03004871875
 20
-142.976249
 30
0.0
 40
3.2
  1
M12ナット
 41
0.8
  7
高3.2
100
AcDbText
  0
TEXT
  5
29B
330
36
100
AcDbEntity
  8
0
 62
     3
100
AcDbText
 10
-154.03004871875
 20
-137.976249
 30
0.0
 40
3.2
  1
t=1.6　焼付塗装
 41
0.8
  7
高3.2
100
AcDbText
  0
TEXT
  5
29C
330
36
100
AcDbEntity
  8
0
 62
     3
100
AcDbText
 10
-154.03004871875
 20
-122.976249
 30
0.0
 40
3.2
  1
0.75sq 21ｍ
 41
0.8
  7
高3.2
100
AcDbText
  0
TEXT
  5
29D
330
36
100
AcDbEntity
  8
0
 62
     3
100
AcDbText
 10
-218.34582059375
 20
-122.976249
 30
0.0
 40
3.2
  1
ワイヤー
 41
0.8
  7
高3.2
100
AcDbText
  0
TEXT
  5
29E
330
36
100
AcDbEntity
  8
0
 62
     3
100
AcDbText
 10
-178.2526979375
 20
-122.976249
 30
0.0
 40
3.2
  1
塩ビ被覆
 41
0.8
  7
高3.2
100
AcDbText
  0
TEXT
  5
29F
330
36
100
AcDbEntity
  8
0
 62
     3
100
AcDbText
 10
-112.3374291875
 20
-152.976249
 30
0.0
 40
3.2
  1
個数
 41
0.8
  7
高3.2
100
AcDbText
  0
TEXT
  5
2A0
330
36
100
AcDbEntity
  8
0
 62
     3
100
AcDbText
 10
-154.03004871875
 20
-152.976249
 30
0.0
 40
3.2
  1
備　　　　　考
 41
0.8
  7
高3.2
100
AcDbText
  0
TEXT
  5
2A1
330
36
100
AcDbEntity
  8
0
 62
     3
100
AcDbText
 10
-178.2526979375
 20
-152.976249
 30
0.0
 40
3.2
  1
材　　　質
 41
0.8
  7
高3.2
100
AcDbText
  0
TEXT
  5
2A2
330
36
100
AcDbEntity
  8
0
 62
     3
100
AcDbText
 10
-218.34582059375
 20
-152.976249
 30
0.0
 40
3.2
  1
部　　品　　名
 41
0.8
  7
高3.2
100
AcDbText
  0
TEXT
  5
2A3
330
36
100
AcDbEntity
  8
0
 62
     3
100
AcDbText
 10
-225.904362
 20
-152.976249
 30
0.0
 40
3.2
  1
No
 41
0.8
  7
高3.2
100
AcDbText
  0
LINE
  5
2A4
330
36
100
AcDbEntity
  8
0
 62
     3
100
AcDbLine
 10
-105.9756916875
 20
-113.476249
 30
0.0
 11
-227.404362
 21
-113.476249
 31
0.0
  0
LINE
  5
2A5
330
36
100
AcDbEntity
  8
0
 62
     7
100
AcDbLine
 10
-105.9756916875
 20
-143.476249
 30
0.0
 11
-227.404362
 21
-143.476249
 31
0.0
  0
LINE
  5
2A6
330
36
100
AcDbEntity
  8
0
 62
     7
100
AcDbLine
 10
-105.9756916875
 20
-138.476249
 30
0.0
 11
-227.404362
 21
-138.476249
 31
0.0
  0
LINE
  5
2A7
330
36
100
AcDbEntity
  8
0
 62
     7
100
AcDbLine
 10
-105.9756916875
 20
-133.476249
 30
0.0
 11
-227.404362
 21
-133.476249
 31
0.0
  0
LINE
  5
2A8
330
36
100
AcDbEntity
  8
0
 62
     7
100
AcDbLine
 10
-105.9756916875
 20
-128.476249
 30
0.0
 11
-227.404362
 21
-128.476249
 31
0.0
  0
LINE
  5
2A9
330
36
100
AcDbEntity
  8
0
 62
     7
100
AcDbLine
 10
-105.9756916875
 20
-123.476249
 30
0.0
 11
-227.404362
 21
-123.476249
 31
0.0
  0
LINE
  5
2AA
330
36
100
AcDbEntity
  8
0
 62
     7
100
AcDbLine
 10
-105.9756916875
 20
-118.476249
 30
0.0
 11
-227.404362
 21
-118.476249
 31
0.0
  0
LINE
  5
2AB
330
36
100
AcDbEntity
  8
0
 62
     3
100
AcDbLine
 10
-105.9756916875
 20
-148.476249
 30
0.0
 11
-227.404362
 21
-148.476249
 31
0.0
  0
LINE
  5
2B1
330
36
100
AcDbEntity
  8
0
 62
     7
100
AcDbLine
 10
-110.901992
 20
-26.819327
 30
0.0
 11
-105.000374
 21
-21.201916
 31
0.0
  0
LINE
  5
2B2
330
36
100
AcDbEntity
  8
0
 62
     7
100
AcDbLine
 10
-105.000374
 20
-21.201916
 30
0.0
 11
-85.75037399999997
 21
-21.201916
 31
0.0
  0
TEXT
  5
2B3
330
36
100
AcDbEntity
  8
0
 62
     4
100
AcDbText
 10
-102.250374
 20
-20.201916
 30
0.0
 40
3.2
  1
2-%%c10
 41
0.954861
100
AcDbText
  0
LINE
  5
2F8
330
36
100
AcDbEntity
  8
0
 62
     7
100
AcDbLine
 10
-109.553004
 20
-24.61049
 30
0.0
 11
-110.901992
 21
-26.819327
 31
0.0
  0
LINE
  5
2F9
330
36
100
AcDbEntity
  8
0
 62
     7
100
AcDbLine
 10
-110.901992
 20
-26.819327
 30
0.0
 11
-108.629316
 21
-25.580912
 31
0.0
  0
LINE
  5
2FC
330
36
100
AcDbEntity
  8
0
 62
     7
100
AcDbLine
 10
-99.46231500000001
 20
9.880822999999999
 30
0.0
 11
-101.52146
 21
10.097874
 31
0.0
  0
LINE
  5
2FD
330
36
100
AcDbEntity
  8
0
 62
     7
100
AcDbLine
 10
-101.52146
 20
10.097874
 30
0.0
 11
-99.84671400000001
 21
8.88033
 31
0.0
  0
LINE
  5
2FE
330
36
100
AcDbEntity
  8
0
 62
     7
100
AcDbLine
 10
-100.147221
 20
18.77272
 30
0.0
 11
-102.21774
 21
18.784343
 31
0.0
  0
LINE
  5
2FF
330
36
100
AcDbEntity
  8
0
 62
     7
100
AcDbLine
 10
-102.21774
 20
18.784343
 30
0.0
 11
-100.430429
 21
17.739018
 31
0.0
  0
LINE
  5
300
330
36
100
AcDbEntity
  8
0
 62
     7
100
AcDbLine
 10
-80.861651
 20
69.49099100000001
 30
0.0
 11
-81.876806
 21
67.686373
 31
0.0
  0
LINE
  5
301
330
36
100
AcDbEntity
  8
0
 62
     7
100
AcDbLine
 10
-81.876806
 20
67.686373
 30
0.0
 11
-80.09534700000001
 21
68.741641
 31
0.0
  0
LINE
  5
302
330
36
100
AcDbEntity
  8
0
 62
     7
100
AcDbLine
 10
-122.086919
 20
63.630971
 30
0.0
 11
-120.154893
 21
62.88634899999999
 31
0.0
  0
LINE
  5
303
330
36
100
AcDbEntity
  8
0
 62
     7
100
AcDbLine
 10
-120.154893
 20
62.88634899999999
 30
0.0
 11
-121.455766
 21
64.497224
 31
0.0
  0
LINE
  5
304
330
36
100
AcDbEntity
  8
0
 62
     7
100
AcDbLine
 10
-130.202775
 20
33.833785
 30
0.0
 11
-128.268484
 21
33.095066
 31
0.0
  0
LINE
  5
305
330
36
100
AcDbEntity
  8
0
 62
     7
100
AcDbLine
 10
-128.268484
 20
33.095066
 30
0.0
 11
-129.57427
 21
34.701961
 31
0.0
  0
LINE
  5
306
330
36
100
AcDbEntity
  8
0
 62
     7
100
AcDbLine
 10
-128.347466
 20
7.272278999999997
 30
0.0
 11
-126.495915
 21
6.345486
 31
0.0
  0
LINE
  5
307
330
36
100
AcDbEntity
  8
0
 62
     7
100
AcDbLine
 10
-126.495915
 20
6.345486
 30
0.0
 11
-127.636009
 21
8.073888
 31
0.0
  0
LINE
  5
308
330
36
100
AcDbEntity
  8
0
 62
     7
100
AcDbLine
 10
79.13316800000003
 20
-4.89719
 30
0.0
 11
78.628461
 21
-6.905288
 31
0.0
  0
LINE
  5
309
330
36
100
AcDbEntity
  8
0
 62
     7
100
AcDbLine
 10
78.628461
 20
-6.905288
 30
0.0
 11
80.069599
 21
-5.418576999999999
 31
0.0
  0
TEXT
  5
396
330
36
100
AcDbEntity
  8
0
 62
     7
100
AcDbText
 10
88.09563799999997
 20
109.023751
 30
0.0
 40
2.5
  1
`12,10,18
  7
高2.5
100
AcDbText
  0
TEXT
  5
397
330
36
100
AcDbEntity
  8
0
 62
     7
100
AcDbText
 10
106.095638
 20
109.023751
 30
0.0
 40
2.5
  1
クリップ仕様変更
  7
高2.5
100
AcDbText
  0
TEXT
  5
398
330
36
100
AcDbEntity
  8
0
 62
     7
100
AcDbText
 10
150.0956379999999
 20
109.023751
 30
0.0
 40
2.5
  1
片岡
  7
高2.5
100
AcDbText
  0
TEXT
  5
493
330
36
100
AcDbEntity
  8
0
 62
     3
100
AcDbText
 10
150.095638
 20
114.023751
 30
0.0
 40
3.2
  1
担　当
  7
高3.2
100
AcDbText
  0
TEXT
  5
494
330
36
100
AcDbEntity
  8
0
 62
     3
100
AcDbText
 10
106.095638
 20
114.023751
 30
0.0
 40
3.2
  1
変更・追記内容
  7
高3.2
100
AcDbText
  0
TEXT
  5
495
330
36
100
AcDbEntity
  8
0
 62
     3
100
AcDbText
 10
81.20915300033923
 20
109.3532124900917
 30
0.0
 40
2.0
  1
1
  7
高2
100
AcDbText
  0
TEXT
  5
496
330
36
100
AcDbEntity
  8
0
 62
     3
100
AcDbText
 10
80.90064152358193
 20
104.1833957778188
 30
0.0
 40
2.0
  1
2
  7
高2
100
AcDbText
  0
TEXT
  5
497
330
36
100
AcDbEntity
  8
0
 62
     3
100
AcDbText
 10
88.09563799999997
 20
114.023751
 30
0.0
 40
3.2
  1
日　付
  7
高3.2
100
AcDbText
  0
TEXT
  5
498
330
36
100
AcDbEntity
  8
0
 62
     3
100
AcDbText
 10
88.09563799999997
 20
119.023751
 30
0.0
 40
3.2
  1
図　　　　面　　　　略　　　　歴
  7
高3.2
100
AcDbText
  0
TEXT
  5
499
330
36
100
AcDbEntity
  8
0
 62
     3
100
AcDbText
 10
78.09563799999998
 20
114.023751
 30
0.0
 40
3.2
  1
記号
  7
高3.2
100
AcDbText
  0
LINE
  5
49A
330
36
100
AcDbEntity
  8
0
 62
     7
100
AcDbLine
 10
81.59563799999999
 20
107.3146470000001
 30
0.0
 11
79.695638
 21
104.023751
 31
0.0
  0
LINE
  5
49B
330
36
100
AcDbEntity
  8
0
 62
     7
100
AcDbLine
 10
81.59563799999999
 20
107.3146470000001
 30
0.0
 11
83.49563799999996
 21
104.023751
 31
0.0
  0
LINE
  5
49C
330
36
100
AcDbEntity
  8
0
 62
     7
100
AcDbLine
 10
79.695638
 20
104.023751
 30
0.0
 11
83.49563799999996
 21
104.023751
 31
0.0
  0
LINE
  5
49D
330
36
100
AcDbEntity
  8
0
 62
     7
100
AcDbLine
 10
81.59563799999999
 20
112.3146480000001
 30
0.0
 11
79.695638
 21
109.023751
 31
0.0
  0
LINE
  5
49E
330
36
100
AcDbEntity
  8
0
 62
     7
100
AcDbLine
 10
81.59563799999999
 20
112.3146480000001
 30
0.0
 11
83.49563799999996
 21
109.023751
 31
0.0
  0
LINE
  5
49F
330
36
100
AcDbEntity
  8
0
 62
     7
100
AcDbLine
 10
79.695638
 20
109.023751
 30
0.0
 11
83.49563799999996
 21
109.023751
 31
0.0
  0
LINE
  5
4A0
330
36
100
AcDbEntity
  8
0
 62
     3
100
AcDbLine
 10
76.59563799999998
 20
118.523751
 30
0.0
 11
162.595638
 21
118.523751
 31
0.0
  0
LINE
  5
4A1
330
36
100
AcDbEntity
  8
0
 62
     3
100
AcDbLine
 10
76.59563799999998
 20
113.523751
 30
0.0
 11
162.595638
 21
113.523751
 31
0.0
  0
LINE
  5
4A2
330
36
100
AcDbEntity
  8
0
 62
     7
100
AcDbLine
 10
76.59563799999998
 20
108.523751
 30
0.0
 11
162.595638
 21
108.523751
 31
0.0
  0
LINE
  5
4A3
330
36
100
AcDbEntity
  8
0
 62
     3
100
AcDbLine
 10
76.59563799999998
 20
103.523751
 30
0.0
 11
162.595638
 21
103.523751
 31
0.0
  0
LINE
  5
4A4
330
36
100
AcDbEntity
  8
0
 62
     7
100
AcDbLine
 10
148.5956379999998
 20
103.523751
 30
0.0
 11
148.595638
 21
118.523751
 31
0.0
  0
LINE
  5
4A5
330
36
100
AcDbEntity
  8
0
 62
     7
100
AcDbLine
 10
104.595638
 20
103.523751
 30
0.0
 11
104.595638
 21
118.523751
 31
0.0
  0
LINE
  5
4A6
330
36
100
AcDbEntity
  8
0
 62
     7
100
AcDbLine
 10
86.59563799999999
 20
103.523751
 30
0.0
 11
86.59563799999999
 21
118.523751
 31
0.0
  0
LINE
  5
4A7
330
36
100
AcDbEntity
  8
0
 62
     3
100
AcDbLine
 10
76.59563799999998
 20
103.523751
 30
0.0
 11
76.59563799999998
 21
123.523751
 31
0.0
  0
LINE
  5
71F
330
36
100
AcDbEntity
  8
0
  6
Continuous
100
AcDbLine
 10
-129.373546
 20
27.629217
 30
0.0
 11
-129.373546
 21
-57.03312729915251
 31
0.0
  0
LINE
  5
720
330
36
100
AcDbEntity
  8
0
  6
Continuous
100
AcDbLine
 10
-82.63098499999998
 20
63.697586
 30
0.0
 11
-82.63098499999999
 21
-57.03312729915251
 31
0.0
  0
LINE
  5
721
330
36
100
AcDbEntity
  8
0
  6
Continuous
100
AcDbLine
 10
-126.873546
 20
-55.78312729915251
 30
0.0
 11
-85.13098499999999
 21
-55.78312729915251
 31
0.0
  0
LINE
  5
725
330
36
100
AcDbEntity
  8
0
  6
Continuous
100
AcDbLine
 10
-82.63098499999998
 20
63.947586
 30
0.0
 11
-82.63098499999998
 21
-47.48889239755828
 31
0.0
  0
LINE
  5
726
330
36
100
AcDbEntity
  8
0
  6
Continuous
100
AcDbLine
 10
-125.973546
 20
-23.395783
 30
0.0
 11
-125.973546
 21
-47.48889239755828
 31
0.0
  0
LINE
  5
727
330
36
100
AcDbEntity
  8
0
  6
Continuous
100
AcDbLine
 10
-85.13098499999998
 20
-46.23889239755828
 30
0.0
 11
-123.473546
 21
-46.23889239755828
 31
0.0
  0
LINE
  5
72B
330
36
100
AcDbEntity
  8
0
  6
Continuous
100
AcDbLine
 10
-110.973546
 20
-31.49452800000001
 30
0.0
 11
-110.973546
 21
-37.58233984450749
 31
0.0
  0
LINE
  5
72C
330
36
100
AcDbEntity
  8
0
  6
Continuous
100
AcDbLine
 10
-103.473546
 20
-28.99578300000001
 30
0.0
 11
-103.473546
 21
-37.58233984450749
 31
0.0
  0
LINE
  5
72D
330
36
100
AcDbEntity
  8
0
  6
Continuous
100
AcDbLine
 10
-108.473546
 20
-36.33233984450749
 30
0.0
 11
-105.973546
 21
-36.33233984450749
 31
0.0
  0
LINE
  5
731
330
36
100
AcDbEntity
  8
0
  6
Continuous
100
AcDbLine
 10
-117.228027
 20
71.004227
 30
0.0
 11
-117.228027
 21
82.86155981649461
 31
0.0
  0
LINE
  5
732
330
36
100
AcDbEntity
  8
0
  6
Continuous
100
AcDbLine
 10
-99.97802700000001
 20
71.004227
 30
0.0
 11
-99.97802700000001
 21
82.86155981649461
 31
0.0
  0
LINE
  5
733
330
36
100
AcDbEntity
  8
0
  6
Continuous
100
AcDbLine
 10
-114.728027
 20
81.61155981649461
 30
0.0
 11
-102.478027
 21
81.61155981649461
 31
0.0
  0
LINE
  5
737
330
36
100
AcDbEntity
  8
0
  6
Continuous
100
AcDbLine
 10
23.139412
 20
73.921165
 30
0.0
 11
-32.33250298938695
 21
73.92116500000001
 31
0.0
  0
LINE
  5
738
330
36
100
AcDbEntity
  8
0
  6
Continuous
100
AcDbLine
 10
6.699633999999997
 20
-28.74578300000001
 30
0.0
 11
-32.33250298938698
 21
-28.745783
 31
0.0
  0
LINE
  5
739
330
36
100
AcDbEntity
  8
0
  6
Continuous
100
AcDbLine
 10
-31.08250298938695
 20
71.421165
 30
0.0
 11
-31.08250298938698
 21
-26.245783
 31
0.0
  0
LINE
  5
73D
330
36
100
AcDbEntity
  8
0
  6
Continuous
100
AcDbLine
 10
-11.73882
 20
31.754217
 30
0.0
 11
-20.9230006061216
 21
31.754217
 31
0.0
  0
LINE
  5
73E
330
36
100
AcDbEntity
  8
0
  6
Continuous
100
AcDbLine
 10
6.699633999999997
 20
-28.74578300000001
 30
0.0
 11
-20.92300060612161
 21
-28.74578300000001
 31
0.0
  0
LINE
  5
73F
330
36
100
AcDbEntity
  8
0
  6
Continuous
100
AcDbLine
 10
-19.6730006061216
 20
29.254217
 30
0.0
 11
-19.67300060612161
 21
-26.24578300000001
 31
0.0
  0
LINE
  5
743
330
36
100
AcDbEntity
  8
0
  6
Continuous
100
AcDbLine
 10
69.1672162517613
 20
39.62703367043868
 30
0.0
 11
-9.267948251761286
 21
23.88140032956127
 31
0.0
  0
LINE
  5
747
330
36
100
AcDbEntity
  8
0
  6
Continuous
100
AcDbLine
 10
6.949633999999997
 20
-28.99578300000001
 30
0.0
 11
6.949633999999996
 21
-54.56742866803677
 31
0.0
  0
LINE
  5
748
330
36
100
AcDbEntity
  8
0
  6
Continuous
100
AcDbLine
 10
52.949634
 20
-28.99578300000001
 30
0.0
 11
52.949634
 21
-54.56742866803677
 31
0.0
  0
LINE
  5
749
330
36
100
AcDbEntity
  8
0
  6
Continuous
100
AcDbLine
 10
9.449633999999996
 20
-53.31742866803677
 30
0.0
 11
50.449634
 21
-53.31742866803677
 31
0.0
  0
LINE
  5
74D
330
36
100
AcDbEntity
  8
0
  6
Continuous
100
AcDbLine
 10
13.699634
 20
-31.540495
 30
0.0
 11
13.699634
 21
-48.34217595743519
 31
0.0
  0
LINE
  5
74E
330
36
100
AcDbEntity
  8
0
  6
Continuous
100
AcDbLine
 10
46.199634
 20
-31.540495
 30
0.0
 11
46.199634
 21
-48.34217595743519
 31
0.0
  0
LINE
  5
74F
330
36
100
AcDbEntity
  8
0
  6
Continuous
100
AcDbLine
 10
16.19963399999999
 20
-47.09217595743519
 30
0.0
 11
43.699634
 21
-47.09217595743519
 31
0.0
  0
TEXT
  5
753
330
36
100
AcDbEntity
  8
0
  6
Continuous
 62
     4
100
AcDbText
 10
-110.0543272397408
 20
-55.15812729915251
 30
0.0
 40
3.0
  1
(97)
100
AcDbText
  0
LINE
  5
754
330
36
100
AcDbEntity
  8
0
  6
ByBlock
 62
     0
370
    -2
100
AcDbLine
 10
-85.13098499999999
 20
-55.11325479915251
 30
0.0
 11
-82.63098499999999
 21
-55.78312729915251
 31
0.0
  0
LINE
  5
755
330
36
100
AcDbEntity
  8
0
  6
ByBlock
 62
     0
370
    -2
100
AcDbLine
 10
-82.63098499999999
 20
-55.78312729915251
 30
0.0
 11
-85.13098499999999
 21
-56.4529997991525
 31
0.0
  0
LINE
  5
756
330
36
100
AcDbEntity
  8
0
  6
ByBlock
 62
     0
370
    -2
100
AcDbLine
 10
-82.63098499999999
 20
-55.78312729915251
 30
0.0
 11
-85.13098499999999
 21
-55.78312729915251
 31
0.0
  0
LINE
  5
757
330
36
100
AcDbEntity
  8
0
  6
ByBlock
 62
     0
370
    -2
100
AcDbLine
 10
-126.873546
 20
-56.4529997991525
 30
0.0
 11
-129.373546
 21
-55.78312729915251
 31
0.0
  0
LINE
  5
758
330
36
100
AcDbEntity
  8
0
  6
ByBlock
 62
     0
370
    -2
100
AcDbLine
 10
-129.373546
 20
-55.78312729915251
 30
0.0
 11
-126.873546
 21
-55.11325479915251
 31
0.0
  0
LINE
  5
759
330
36
100
AcDbEntity
  8
0
  6
ByBlock
 62
     0
370
    -2
100
AcDbLine
 10
-129.373546
 20
-55.78312729915251
 30
0.0
 11
-126.873546
 21
-55.78312729915251
 31
0.0
  0
TEXT
  5
75A
330
36
100
AcDbEntity
  8
0
  6
Continuous
 62
     4
100
AcDbText
 10
-107.8043272397408
 20
-45.61389239755828
 30
0.0
 40
3.0
  1
90
100
AcDbText
  0
LINE
  5
75B
330
36
100
AcDbEntity
  8
0
  6
ByBlock
 62
     0
370
    -2
100
AcDbLine
 10
-123.473546
 20
-46.90876489755829
 30
0.0
 11
-125.973546
 21
-46.23889239755828
 31
0.0
  0
LINE
  5
75C
330
36
100
AcDbEntity
  8
0
  6
ByBlock
 62
     0
370
    -2
100
AcDbLine
 10
-125.973546
 20
-46.23889239755828
 30
0.0
 11
-123.473546
 21
-45.56901989755829
 31
0.0
  0
LINE
  5
75D
330
36
100
AcDbEntity
  8
0
  6
ByBlock
 62
     0
370
    -2
100
AcDbLine
 10
-125.973546
 20
-46.23889239755828
 30
0.0
 11
-123.473546
 21
-46.23889239755828
 31
0.0
  0
LINE
  5
75E
330
36
100
AcDbEntity
  8
0
  6
ByBlock
 62
     0
370
    -2
100
AcDbLine
 10
-85.13098499999998
 20
-45.56901989755829
 30
0.0
 11
-82.63098499999998
 21
-46.23889239755828
 31
0.0
  0
LINE
  5
75F
330
36
100
AcDbEntity
  8
0
  6
ByBlock
 62
     0
370
    -2
100
AcDbLine
 10
-82.63098499999998
 20
-46.23889239755828
 30
0.0
 11
-85.13098499999998
 21
-46.90876489755829
 31
0.0
  0
LINE
  5
760
330
36
100
AcDbEntity
  8
0
  6
ByBlock
 62
     0
370
    -2
100
AcDbLine
 10
-82.63098499999998
 20
-46.23889239755828
 30
0.0
 11
-85.13098499999998
 21
-46.23889239755828
 31
0.0
  0
TEXT
  5
761
330
36
100
AcDbEntity
  8
0
  6
Continuous
 62
     4
100
AcDbText
 10
-109.2238752053667
 20
-35.70733984450749
 30
0.0
 40
3.0
  1
15
100
AcDbText
  0
LINE
  5
762
330
36
100
AcDbEntity
  8
0
  6
ByBlock
 62
     0
370
    -2
100
AcDbLine
 10
-105.973546
 20
-35.66246734450749
 30
0.0
 11
-103.473546
 21
-36.33233984450749
 31
0.0
  0
LINE
  5
763
330
36
100
AcDbEntity
  8
0
  6
ByBlock
 62
     0
370
    -2
100
AcDbLine
 10
-103.473546
 20
-36.33233984450749
 30
0.0
 11
-105.973546
 21
-37.00221234450749
 31
0.0
  0
LINE
  5
764
330
36
100
AcDbEntity
  8
0
  6
ByBlock
 62
     0
370
    -2
100
AcDbLine
 10
-103.473546
 20
-36.33233984450749
 30
0.0
 11
-105.973546
 21
-36.33233984450749
 31
0.0
  0
LINE
  5
765
330
36
100
AcDbEntity
  8
0
  6
ByBlock
 62
     0
370
    -2
100
AcDbLine
 10
-108.473546
 20
-37.00221234450749
 30
0.0
 11
-110.973546
 21
-36.33233984450749
 31
0.0
  0
LINE
  5
766
330
36
100
AcDbEntity
  8
0
  6
ByBlock
 62
     0
370
    -2
100
AcDbLine
 10
-110.973546
 20
-36.33233984450749
 30
0.0
 11
-108.473546
 21
-35.66246734450749
 31
0.0
  0
LINE
  5
767
330
36
100
AcDbEntity
  8
0
  6
ByBlock
 62
     0
370
    -2
100
AcDbLine
 10
-110.973546
 20
-36.33233984450749
 30
0.0
 11
-108.473546
 21
-36.33233984450749
 31
0.0
  0
TEXT
  5
768
330
36
100
AcDbEntity
  8
0
  6
Continuous
 62
     4
100
AcDbText
 10
-112.8267043967662
 20
82.23655981649461
 30
0.0
 40
3.0
  1
34.5
100
AcDbText
  0
LINE
  5
769
330
36
100
AcDbEntity
  8
0
  6
ByBlock
 62
     0
370
    -2
100
AcDbLine
 10
-102.478027
 20
82.28143231649459
 30
0.0
 11
-99.97802700000001
 21
81.61155981649461
 31
0.0
  0
LINE
  5
76A
330
36
100
AcDbEntity
  8
0
  6
ByBlock
 62
     0
370
    -2
100
AcDbLine
 10
-99.97802700000001
 20
81.61155981649461
 30
0.0
 11
-102.478027
 21
80.9416873164946
 31
0.0
  0
LINE
  5
76B
330
36
100
AcDbEntity
  8
0
  6
ByBlock
 62
     0
370
    -2
100
AcDbLine
 10
-99.97802700000001
 20
81.61155981649461
 30
0.0
 11
-102.478027
 21
81.61155981649461
 31
0.0
  0
LINE
  5
76C
330
36
100
AcDbEntity
  8
0
  6
ByBlock
 62
     0
370
    -2
100
AcDbLine
 10
-114.728027
 20
80.9416873164946
 30
0.0
 11
-117.228027
 21
81.61155981649461
 31
0.0
  0
LINE
  5
76D
330
36
100
AcDbEntity
  8
0
  6
ByBlock
 62
     0
370
    -2
100
AcDbLine
 10
-117.228027
 20
81.61155981649461
 30
0.0
 11
-114.728027
 21
82.28143231649459
 31
0.0
  0
LINE
  5
76E
330
36
100
AcDbEntity
  8
0
  6
ByBlock
 62
     0
370
    -2
100
AcDbLine
 10
-117.228027
 20
81.61155981649461
 30
0.0
 11
-114.728027
 21
81.61155981649461
 31
0.0
  0
TEXT
  5
76F
330
36
100
AcDbEntity
  8
0
  6
Continuous
 62
     4
100
AcDbText
 10
-31.70750298938697
 20
14.63324410883297
 30
0.0
 40
3.0
  1
206.2
 50
90.0
100
AcDbText
  0
LINE
  5
770
330
36
100
AcDbEntity
  8
0
  6
ByBlock
 62
     0
370
    -2
100
AcDbLine
 10
-30.41263048938697
 20
-26.245783
 30
0.0
 11
-31.08250298938698
 21
-28.745783
 31
0.0
  0
LINE
  5
771
330
36
100
AcDbEntity
  8
0
  6
ByBlock
 62
     0
370
    -2
100
AcDbLine
 10
-31.08250298938698
 20
-28.745783
 30
0.0
 11
-31.75237548938698
 21
-26.245783
 31
0.0
  0
LINE
  5
772
330
36
100
AcDbEntity
  8
0
  6
ByBlock
 62
     0
370
    -2
100
AcDbLine
 10
-31.08250298938698
 20
-28.745783
 30
0.0
 11
-31.08250298938698
 21
-26.245783
 31
0.0
  0
LINE
  5
773
330
36
100
AcDbEntity
  8
0
  6
ByBlock
 62
     0
370
    -2
100
AcDbLine
 10
-31.75237548938695
 20
71.421165
 30
0.0
 11
-31.08250298938695
 21
73.921165
 31
0.0
  0
LINE
  5
774
330
36
100
AcDbEntity
  8
0
  6
ByBlock
 62
     0
370
    -2
100
AcDbLine
 10
-31.08250298938695
 20
73.921165
 30
0.0
 11
-30.41263048938695
 21
71.421165
 31
0.0
  0
LINE
  5
775
330
36
100
AcDbEntity
  8
0
  6
ByBlock
 62
     0
370
    -2
100
AcDbLine
 10
-31.08250298938695
 20
73.921165
 30
0.0
 11
-31.08250298938695
 21
71.421165
 31
0.0
  0
TEXT
  5
776
330
36
100
AcDbEntity
  8
0
  6
Continuous
 62
     4
100
AcDbText
 10
-20.2980006061216
 20
-4.946660682473975
 30
0.0
 40
3.0
  1
121.2
 50
90.0
100
AcDbText
  0
LINE
  5
777
330
36
100
AcDbEntity
  8
0
  6
ByBlock
 62
     0
370
    -2
100
AcDbLine
 10
-19.00312810612161
 20
-26.24578300000001
 30
0.0
 11
-19.67300060612161
 21
-28.74578300000001
 31
0.0
  0
LINE
  5
778
330
36
100
AcDbEntity
  8
0
  6
ByBlock
 62
     0
370
    -2
100
AcDbLine
 10
-19.67300060612161
 20
-28.74578300000001
 30
0.0
 11
-20.34287310612161
 21
-26.24578300000001
 31
0.0
  0
LINE
  5
779
330
36
100
AcDbEntity
  8
0
  6
ByBlock
 62
     0
370
    -2
100
AcDbLine
 10
-19.67300060612161
 20
-28.74578300000001
 30
0.0
 11
-19.67300060612161
 21
-26.24578300000001
 31
0.0
  0
LINE
  5
77A
330
36
100
AcDbEntity
  8
0
  6
ByBlock
 62
     0
370
    -2
100
AcDbLine
 10
-20.3428731061216
 20
29.254217
 30
0.0
 11
-19.6730006061216
 21
31.754217
 31
0.0
  0
LINE
  5
77B
330
36
100
AcDbEntity
  8
0
  6
ByBlock
 62
     0
370
    -2
100
AcDbLine
 10
-19.6730006061216
 20
31.754217
 30
0.0
 11
-19.0031281061216
 21
29.254217
 31
0.0
  0
LINE
  5
77C
330
36
100
AcDbEntity
  8
0
  6
ByBlock
 62
     0
370
    -2
100
AcDbLine
 10
-19.6730006061216
 20
31.754217
 30
0.0
 11
-19.6730006061216
 21
29.254217
 31
0.0
  0
TEXT
  5
77D
330
36
100
AcDbEntity
  8
0
  6
Continuous
 62
     4
100
AcDbText
 10
6.149935707287845
 20
27.61396530299531
 30
0.0
 40
3.0
  1
\U+2205170
 50
11.35108693248123
100
AcDbText
  0
LINE
  5
77E
330
36
100
AcDbEntity
  8
0
  6
ByBlock
 62
     0
370
    -2
100
AcDbLine
 10
-9.136103667134584
 20
23.22463083288774
 30
0.0
 11
-11.71904714249637
 21
23.3893492876589
 31
0.0
  0
LINE
  5
77F
330
36
100
AcDbEntity
  8
0
  6
ByBlock
 62
     0
370
    -2
100
AcDbLine
 10
-11.71904714249637
 20
23.3893492876589
 30
0.0
 11
-9.399792836388007
 21
24.53816982623489
 31
0.0
  0
LINE
  5
780
330
36
100
AcDbEntity
  8
0
  6
ByBlock
 62
     0
370
    -2
100
AcDbLine
 10
-11.71904714249637
 20
23.3893492876589
 30
0.0
 11
-9.267948251761296
 21
23.88140032956131
 31
0.0
  0
LINE
  5
781
330
36
100
AcDbEntity
  8
0
  6
ByBlock
 62
     0
370
    -2
100
AcDbLine
 10
69.03537166713459
 20
40.28380316711225
 30
0.0
 11
71.61831514249638
 21
40.1190847123411
 31
0.0
  0
LINE
  5
782
330
36
100
AcDbEntity
  8
0
  6
ByBlock
 62
     0
370
    -2
100
AcDbLine
 10
71.61831514249638
 20
40.1190847123411
 30
0.0
 11
69.29906083638801
 21
38.9702641737651
 31
0.0
  0
LINE
  5
783
330
36
100
AcDbEntity
  8
0
  6
ByBlock
 62
     0
370
    -2
100
AcDbLine
 10
71.61831514249638
 20
40.1190847123411
 30
0.0
 11
69.1672162517613
 21
39.62703367043868
 31
0.0
  0
TEXT
  5
784
330
36
100
AcDbEntity
  8
0
  6
Continuous
 62
     4
100
AcDbText
 10
27.55457791516142
 20
-52.69242866803677
 30
0.0
 40
3.0
  1
92
100
AcDbText
  0
LINE
  5
785
330
36
100
AcDbEntity
  8
0
  6
ByBlock
 62
     0
370
    -2
100
AcDbLine
 10
50.449634
 20
-52.64755616803677
 30
0.0
 11
52.949634
 21
-53.31742866803677
 31
0.0
  0
LINE
  5
786
330
36
100
AcDbEntity
  8
0
  6
ByBlock
 62
     0
370
    -2
100
AcDbLine
 10
52.949634
 20
-53.31742866803677
 30
0.0
 11
50.449634
 21
-53.98730116803676
 31
0.0
  0
LINE
  5
787
330
36
100
AcDbEntity
  8
0
  6
ByBlock
 62
     0
370
    -2
100
AcDbLine
 10
52.949634
 20
-53.31742866803677
 30
0.0
 11
50.449634
 21
-53.31742866803677
 31
0.0
  0
LINE
  5
788
330
36
100
AcDbEntity
  8
0
  6
ByBlock
 62
     0
370
    -2
100
AcDbLine
 10
9.449633999999996
 20
-53.98730116803676
 30
0.0
 11
6.949633999999996
 21
-53.31742866803677
 31
0.0
  0
LINE
  5
789
330
36
100
AcDbEntity
  8
0
  6
ByBlock
 62
     0
370
    -2
100
AcDbLine
 10
6.949633999999996
 20
-53.31742866803677
 30
0.0
 11
9.449633999999996
 21
-52.64755616803677
 31
0.0
  0
LINE
  5
78A
330
36
100
AcDbEntity
  8
0
  6
ByBlock
 62
     0
370
    -2
100
AcDbLine
 10
6.949633999999996
 20
-53.31742866803677
 30
0.0
 11
9.449633999999996
 21
-53.31742866803677
 31
0.0
  0
TEXT
  5
78B
330
36
100
AcDbEntity
  8
0
  6
Continuous
 62
     4
100
AcDbText
 10
27.08426192740035
 20
-46.46717595743519
 30
0.0
 40
3.0
  1
65
100
AcDbText
  0
LINE
  5
78C
330
36
100
AcDbEntity
  8
0
  6
ByBlock
 62
     0
370
    -2
100
AcDbLine
 10
43.699634
 20
-46.42230345743519
 30
0.0
 11
46.199634
 21
-47.09217595743519
 31
0.0
  0
LINE
  5
78D
330
36
100
AcDbEntity
  8
0
  6
ByBlock
 62
     0
370
    -2
100
AcDbLine
 10
46.199634
 20
-47.09217595743519
 30
0.0
 11
43.699634
 21
-47.76204845743518
 31
0.0
  0
LINE
  5
78E
330
36
100
AcDbEntity
  8
0
  6
ByBlock
 62
     0
370
    -2
100
AcDbLine
 10
46.199634
 20
-47.09217595743519
 30
0.0
 11
43.699634
 21
-47.09217595743519
 31
0.0
  0
LINE
  5
78F
330
36
100
AcDbEntity
  8
0
  6
ByBlock
 62
     0
370
    -2
100
AcDbLine
 10
16.19963399999999
 20
-47.76204845743518
 30
0.0
 11
13.699634
 21
-47.09217595743519
 31
0.0
  0
LINE
  5
790
330
36
100
AcDbEntity
  8
0
  6
ByBlock
 62
     0
370
    -2
100
AcDbLine
 10
13.699634
 20
-47.09217595743519
 30
0.0
 11
16.19963399999999
 21
-46.42230345743519
 31
0.0
  0
LINE
  5
791
330
36
100
AcDbEntity
  8
0
  6
ByBlock
 62
     0
370
    -2
100
AcDbLine
 10
13.699634
 20
-47.09217595743519
 30
0.0
 11
16.19963399999999
 21
-47.09217595743519
 31
0.0
  0
ENDSEC
  0
SECTION
  2
OBJECTS
  0
DICTIONARY
  5
C
330
0
100
AcDbDictionary
281
     1
  3
ACAD_2007HEADERVARS_RT
350
796
  3
ACAD_COLOR
350
2F
  3
ACAD_GROUP
350
D
  3
ACAD_LAYOUT
350
2E
  3
ACAD_MATERIAL
350
10
  3
ACAD_MLEADERSTYLE
350
3C2
  3
ACAD_MLINESTYLE
350
2B
  3
ACAD_PLOTSETTINGS
350
2D
  3
ACAD_PLOTSTYLENAME
350
E
  3
ACAD_SCALELIST
350
3B0
  3
ACAD_TABLESTYLE
350
30
  3
ACAD_VISUALSTYLE
350
14
  3
ACDB_RECOMPOSE_DATA
350
794
  3
AcDbVariableDictionary
350
2B8
  3
DWGPROPS
350
795
  0
DICTIONARY
  5
38B
330
2
100
AcDbDictionary
280
     1
281
     1
  3
ACAD_LAYERSTATES
360
38C
  0
DICTIONARY
  5
6D6
330
25
100
AcDbDictionary
280
     1
281
     1
  3
ADSK_XREC_LAYER_RECONCILED
360
6D7
  0
DICTIONARY
  5
2FA
330
36
100
AcDbDictionary
280
     1
281
     1
  3
ACAD_SORTENTS
360
2FB
  0
DICTIONARY
  5
7D4
330
5C0
100
AcDbDictionary
280
     1
281
     1
  3
ACAD_MTEXT_RT
360
7D5
  0
DICTIONARY
  5
796
102
{ACAD_REACTORS
330
C
102
}
330
C
100
AcDbDictionary
281
     1
  3
DIMARCSYM
350
798
  3
DIMFXL
350
797
  3
DIMJOGANG
350
799
  0
DICTIONARY
  5
2F
102
{ACAD_REACTORS
330
C
102
}
330
C
100
AcDbDictionary
281
     1
  0
DICTIONARY
  5
D
102
{ACAD_REACTORS
330
C
102
}
330
C
100
AcDbDictionary
281
     1
  0
DICTIONARY
  5
2E
102
{ACAD_REACTORS
330
C
102
}
330
C
100
AcDbDictionary
281
     1
  3
Model
350
39
  3
レイアウト1
350
35
  0
DICTIONARY
  5
10
102
{ACAD_REACTORS
330
C
102
}
330
C
100
AcDbDictionary
281
     1
  3
ByBlock
350
12
  3
ByLayer
350
11
  3
Global
350
13
  0
DICTIONARY
  5
3C2
102
{ACAD_REACTORS
330
C
102
}
330
C
100
AcDbDictionary
281
     1
  3
Standard
350
3C3
  0
DICTIONARY
  5
2B
102
{ACAD_REACTORS
330
C
102
}
330
C
100
AcDbDictionary
281
     1
  3
Standard
350
2C
  0
DICTIONARY
  5
2D
102
{ACAD_REACTORS
330
C
102
}
330
C
100
AcDbDictionary
281
     1
  0
ACDBDICTIONARYWDFLT
  5
E
102
{ACAD_REACTORS
330
C
102
}
330
C
100
AcDbDictionary
281
     1
  3
Normal
350
F
100
AcDbDictionaryWithDefault
340
F
  0
DICTIONARY
  5
3B0
102
{ACAD_REACTORS
330
C
102
}
330
C
100
AcDbDictionary
281
     1
  3
A0
350
3B1
  3
A1
350
3B2
  3
A2
350
3B3
  3
A3
350
3B4
  3
A4
350
3B5
  3
A5
350
3B6
  3
A6
350
3B7
  3
A7
350
3B8
  3
A8
350
3B9
  3
A9
350
3BA
  3
B0
350
3BB
  3
B1
350
3BC
  3
B2
350
3BD
  3
B3
350
3BE
  3
B4
350
3BF
  3
B5
350
3C0
  3
B6
350
3C1
  0
DICTIONARY
  5
30
102
{ACAD_REACTORS
330
C
102
}
330
C
100
AcDbDictionary
281
     1
  3
Standard
350
31
  0
DICTIONARY
  5
14
102
{ACAD_REACTORS
330
C
102
}
330
C
100
AcDbDictionary
281
     1
  3
2dWireframe
350
1A
  3
3D Hidden
350
1C
  3
3dWireframe
350
1B
  3
Basic
350
19
  3
Brighten
350
20
  3
ColorChange
350
24
  3
Conceptual
350
1D
  3
Dim
350
1F
  3
EdgeColorOff
350
3AF
  3
Facepattern
350
23
  3
Flat
350
15
  3
FlatWithEdges
350
16
  3
Gouraud
350
17
  3
GouraudWithEdges
350
18
  3
Hidden
350
3A7
  3
JitterOff
350
3AD
  3
Linepattern
350
22
  3
OverhangOff
350
3AE
  3
Realistic
350
1E
  3
Shaded
350
3AC
  3
Shaded with edges
350
3AB
  3
Shades of Gray
350
3A8
  3
Sketchy
350
3A9
  3
Thicken
350
21
  3
Wireframe
350
3A6
  3
X-Ray
350
3AA
  0
XRECORD
  5
794
102
{ACAD_REACTORS
330
C
102
}
330
C
100
AcDbXrecord
280
     1
 90
        1
330
31
  0
DICTIONARY
  5
2B8
102
{ACAD_REACTORS
330
C
102
}
330
C
100
AcDbDictionary
281
     1
  3
CANNOSCALE
350
6D9
  3
CMLEADERSTYLE
350
6D8
  3
CTABLESTYLE
350
2B9
  3
DIMASSOC
350
2CE
  3
INDEXCTL
350
2CD
  3
SORTENTS
350
2CC
  3
XCLIPFRAME
350
6DA
  0
XRECORD
  5
795
102
{ACAD_REACTORS
330
C
102
}
330
C
100
AcDbXrecord
280
     1
  1
DWGPROPS COOKIE
  2

  3

  4

  6

  7

  8
imamura
  9

300
=
301
=
302
=
303
=
304
=
305
=
306
=
307
=
308
=
309
=
 40
0.0640336111111111
 41
2455503.465491169
 42
2456850.62749691
  1

 90
        0
  0
DICTIONARY
  5
38C
102
{ACAD_REACTORS
330
38B
102
}
330
38B
100
AcDbDictionary
281
     1
  0
XRECORD
  5
6D7
102
{ACAD_REACTORS
330
6D6
102
}
330
6D6
100
AcDbXrecord
280
     1
290
     1
  0
SORTENTSTABLE
  5
2FB
102
{ACAD_REACTORS
330
2FA
102
}
330
2FA
100
AcDbSortentsTable
330
36
331
78E
  5
730
331
78A
  5
73D
331
786
  5
742
331
782
  5
74D
331
DC
  5
146
331
D8
  5
142
331
11E
  5
188
331
194
  5
221
331
11A
  5
184
331
116
  5
180
331
190
  5
21D
331
1CB
  5
258
331
112
  5
17C
331
18C
  5
219
331
188
  5
215
331
74F
  5
721
331
20E
  5
286
331
20A
  5
282
331
284
  5
347
331
206
  5
27E
331
280
  5
343
331
241
  5
304
331
27C
  5
33F
331
278
  5
33B
331
77E
  5
74F
331
77A
  5
759
331
776
  5
75F
331
772
  5
768
331
D4
  5
13E
331
1C7
  5
254
331
10E
  5
178
331
184
  5
211
331
1C3
  5
250
331
10A
  5
174
331
4A7
  5
4A7
331
106
  5
170
331
180
  5
20D
331
1BF
  5
24C
331
4A3
  5
4A3
331
1BB
  5
248
331
102
  5
16C
331
141
  5
1AB
331
747
  5
735
331
17C
  5
209
331
743
  5
748
331
178
  5
205
331
73F
  5
758
331
23D
  5
300
331
307
  5
262
331
1FE
  5
279
331
239
  5
2FC
331
274
  5
337
331
303
  5
26C
331
1F6
  5
274
331
235
  5
2B2
331
270
  5
333
331
26C
  5
32F
331
2AB
  5
36E
331
268
  5
32B
331
76E
  5
76F
331
396
  5
396
331
76A
  5
771
331
766
  5
778
331
762
  5
77A
331
2FE
  5
275
331
2B2
  5
372
331
49F
  5
49F
331
1B7
  5
244
331
FE
  5
168
331
13D
  5
1A7
331
139
  5
1A3
331
49B
  5
49B
331
174
  5
1FC
331
1B3
  5
240
331
FA
  5
164
331
497
  5
497
331
F6
  5
160
331
135
  5
19F
331
170
  5
1EE
331
1AF
  5
23C
331
493
  5
493
331
F2
  5
15C
331
131
  5
19B
331
737
  5
760
331
16C
  5
1E5
331
1AB
  5
238
331
733
  5
76C
331
168
  5
1DC
331
72B
  5
774
331
22D
  5
2A5
331
2A7
  5
36A
331
1EE
  5
26F
331
229
  5
2A1
331
264
  5
327
331
2A3
  5
366
331
29F
  5
362
331
1E6
  5
26A
331
225
  5
29D
331
260
  5
323
331
25C
  5
31F
331
29B
  5
35E
331
221
  5
299
331
258
  5
31B
331
75E
  5
781
331
75A
  5
787
331
756
  5
790
331
791
  5
727
331
1A7
  5
234
331
EE
  5
158
331
12D
  5
197
331
129
  5
193
331
164
  5
1CE
331
1A3
  5
230
331
EA
  5
154
331
125
  5
18F
331
160
  5
1CA
331
19F
  5
22C
331
E6
  5
150
331
E2
  5
14C
331
121
  5
18B
331
727
  5
780
331
19B
  5
228
331
71F
  5
788
331
297
  5
35A
331
1DE
  5
265
331
254
  5
317
331
293
  5
356
331
28F
  5
352
331
1D6
  5
260
331
250
  5
313
331
28B
  5
34E
331
211
  5
289
331
78D
  5
72F
331
789
  5
73C
331
785
  5
741
331
781
  5
749
331
DF
  5
149
331
DB
  5
145
331
197
  5
224
331
11D
  5
187
331
193
  5
220
331
119
  5
183
331
115
  5
17F
331
18F
  5
21C
331
1CE
  5
25B
331
1CA
  5
257
331
111
  5
17B
331
18B
  5
218
331
74E
  5
720
331
20D
  5
285
331
287
  5
34A
331
209
  5
281
331
283
  5
346
331
205
  5
27D
331
27F
  5
342
331
27B
  5
33E
331
77D
  5
755
331
779
  5
75E
331
775
  5
765
331
D7
  5
141
331
771
  5
767
331
D3
  5
13D
331
187
  5
214
331
1C6
  5
253
331
10D
  5
177
331
183
  5
210
331
1C2
  5
24F
331
109
  5
173
331
4A6
  5
4A6
331
105
  5
16F
331
17F
  5
20C
331
1BE
  5
24B
331
4A2
  5
4A2
331
1BA
  5
247
331
101
  5
16B
331
140
  5
1AA
331
17B
  5
208
331
73E
  5
757
331
1FD
  5
278
331
23C
  5
2FF
331
277
  5
33A
331
306
  5
261
331
238
  5
2F9
331
273
  5
336
331
302
  5
26B
331
1F5
  5
273
331
234
  5
2B1
331
26F
  5
332
331
26B
  5
32E
331
2AA
  5
36D
331
76D
  5
76E
331
769
  5
770
331
765
  5
777
331
761
  5
77D
331
2FD
  5
27B
331
2F9
  5
370
331
2B1
  5
371
331
49E
  5
49E
331
177
  5
204
331
1B6
  5
243
331
FD
  5
167
331
13C
  5
1A6
331
138
  5
1A2
331
49A
  5
49A
331
173
  5
1F6
331
1B2
  5
23F
331
F9
  5
163
331
496
  5
496
331
F5
  5
15F
331
134
  5
19E
331
16F
  5
1ED
331
1AE
  5
23B
331
1AA
  5
237
331
F1
  5
15B
331
130
  5
19A
331
16B
  5
1E4
331
732
  5
76B
331
22C
  5
2A4
331
267
  5
32A
331
2A6
  5
369
331
1ED
  5
26E
331
228
  5
2A0
331
263
  5
326
331
2A2
  5
365
331
29E
  5
361
331
1E5
  5
269
331
224
  5
29C
331
25F
  5
322
331
25B
  5
31E
331
29A
  5
35D
331
75D
  5
786
331
759
  5
78D
331
755
  5
78F
331
790
  5
726
331
1A6
  5
233
331
ED
  5
157
331
12C
  5
196
331
167
  5
1D6
331
128
  5
192
331
163
  5
1CD
331
1A2
  5
22F
331
E9
  5
153
331
E5
  5
14F
331
124
  5
18E
331
15F
  5
1C9
331
19E
  5
22B
331
E1
  5
14B
331
120
  5
18A
331
726
  5
77F
331
19A
  5
227
331
21C
  5
294
331
257
  5
31A
331
296
  5
359
331
1DD
  5
264
331
253
  5
316
331
292
  5
355
331
28E
  5
351
331
1D5
  5
25F
331
214
  5
28C
331
24F
  5
312
331
28A
  5
34D
331
210
  5
288
331
78C
  5
72B
331
788
  5
73B
331
784
  5
747
331
780
  5
754
331
DE
  5
148
331
DA
  5
144
331
196
  5
223
331
11C
  5
186
331
118
  5
182
331
192
  5
21F
331
114
  5
17E
331
18E
  5
21B
331
1C9
  5
256
331
110
  5
17A
331
18A
  5
217
331
74D
  5
71F
331
749
  5
737
331
20C
  5
284
331
286
  5
349
331
208
  5
280
331
282
  5
345
331
27E
  5
341
331
204
  5
27C
331
243
  5
306
331
27A
  5
33D
331
309
  5
25D
331
77C
  5
75B
331
778
  5
75D
331
774
  5
764
331
D6
  5
140
331
770
  5
766
331
398
  5
398
331
D2
  5
13C
331
186
  5
213
331
1C5
  5
252
331
10C
  5
176
331
182
  5
20F
331
1C1
  5
24E
331
108
  5
172
331
4A5
  5
4A5
331
104
  5
16E
331
143
  5
1AD
331
17E
  5
20B
331
1BD
  5
24A
331
4A1
  5
4A1
331
1B9
  5
246
331
100
  5
16A
331
17A
  5
207
331
73D
  5
756
331
23F
  5
302
331
739
  5
762
331
1FC
  5
277
331
23B
  5
2FE
331
276
  5
339
331
305
  5
267
331
301
  5
271
331
237
  5
2F8
331
272
  5
335
331
1F4
  5
272
331
233
  5
2AB
331
26E
  5
331
331
26A
  5
32D
331
2A9
  5
36C
331
76C
  5
76D
331
768
  5
773
331
764
  5
77C
331
760
  5
783
331
2FC
  5
27A
331
2F8
  5
36F
331
13F
  5
1A9
331
49D
  5
49D
331
176
  5
1FE
331
1B5
  5
242
331
FC
  5
166
331
13B
  5
1A5
331
137
  5
1A1
331
499
  5
499
331
172
  5
1F5
331
1B1
  5
23E
331
F8
  5
162
331
495
  5
495
331
F4
  5
15E
331
133
  5
19D
331
16E
  5
1EC
331
1AD
  5
23A
331
1A9
  5
236
331
F0
  5
15A
331
16A
  5
1DE
331
731
  5
76A
331
72D
  5
776
331
1EC
  5
26D
331
22B
  5
2A3
331
266
  5
329
331
2A5
  5
368
331
227
  5
29F
331
262
  5
325
331
2A1
  5
364
331
29D
  5
360
331
1E4
  5
268
331
223
  5
29B
331
25E
  5
321
331
25A
  5
31D
331
299
  5
35C
331
75C
  5
785
331
758
  5
78C
331
754
  5
78E
331
12F
  5
199
331
166
  5
1D5
331
1A5
  5
232
331
EC
  5
156
331
12B
  5
195
331
127
  5
191
331
162
  5
1CC
331
1A1
  5
22E
331
E8
  5
152
331
E4
  5
14E
331
123
  5
18D
331
15E
  5
1C8
331
19D
  5
22A
331
725
  5
77E
331
199
  5
226
331
E0
  5
14A
331
721
  5
78A
331
21F
  5
297
331
256
  5
319
331
295
  5
358
331
1DC
  5
263
331
252
  5
315
331
291
  5
354
331
28D
  5
350
331
1D4
  5
25E
331
213
  5
28B
331
289
  5
34C
331
78F
  5
725
331
78B
  5
731
331
787
  5
743
331
783
  5
74E
331
DD
  5
147
331
D9
  5
143
331
11F
  5
189
331
195
  5
222
331
11B
  5
185
331
117
  5
181
331
191
  5
21E
331
1CC
  5
259
331
113
  5
17D
331
18D
  5
21A
331
1C8
  5
255
331
189
  5
216
331
20F
  5
287
331
748
  5
736
331
20B
  5
283
331
285
  5
348
331
207
  5
27F
331
281
  5
344
331
27D
  5
340
331
279
  5
33C
331
308
  5
25C
331
77F
  5
753
331
77B
  5
75A
331
777
  5
75C
331
773
  5
763
331
D5
  5
13F
331
10F
  5
179
331
185
  5
212
331
1C4
  5
251
331
10B
  5
175
331
107
  5
171
331
181
  5
20E
331
1C0
  5
24D
331
4A4
  5
4A4
331
103
  5
16D
331
142
  5
1AC
331
17D
  5
20A
331
1BC
  5
249
331
4A0
  5
4A0
331
1B8
  5
245
331
179
  5
206
331
23E
  5
301
331
738
  5
761
331
23A
  5
2FD
331
275
  5
338
331
304
  5
266
331
300
  5
270
331
236
  5
2B3
331
271
  5
334
331
26D
  5
330
331
269
  5
32C
331
2A8
  5
36B
331
76F
  5
769
331
397
  5
397
331
76B
  5
772
331
767
  5
779
331
763
  5
77B
331
2FF
  5
276
331
2B3
  5
373
331
FF
  5
169
331
13E
  5
1A8
331
13A
  5
1A4
331
49C
  5
49C
331
175
  5
1FD
331
1B4
  5
241
331
FB
  5
165
331
136
  5
1A0
331
498
  5
498
331
171
  5
1F4
331
1B0
  5
23D
331
F7
  5
161
331
494
  5
494
331
F3
  5
15D
331
132
  5
19C
331
16D
  5
1E6
331
1AC
  5
239
331
1A8
  5
235
331
169
  5
1DD
331
72C
  5
775
331
22E
  5
2A6
331
22A
  5
2A2
331
265
  5
328
331
2A4
  5
367
331
2A0
  5
363
331
226
  5
29E
331
261
  5
324
331
29C
  5
35F
331
25D
  5
320
331
259
  5
31C
331
298
  5
35B
331
75F
  5
782
331
75B
  5
784
331
757
  5
78B
331
753
  5
791
331
EF
  5
159
331
12E
  5
198
331
165
  5
1D4
331
1A4
  5
231
331
EB
  5
155
331
12A
  5
194
331
126
  5
190
331
161
  5
1CB
331
1A0
  5
22D
331
E7
  5
151
331
E3
  5
14D
331
122
  5
18C
331
15D
  5
1C7
331
19C
  5
229
331
198
  5
225
331
720
  5
789
331
255
  5
318
331
294
  5
357
331
251
  5
314
331
290
  5
353
331
28C
  5
34F
331
212
  5
28A
331
249
  5
30C
331
288
  5
34B
  0
XRECORD
  5
7D5
102
{ACAD_REACTORS
330
7D4
102
}
330
7D4
100
AcDbXrecord
280
     1
 40
2867.0
  1
\U+2205170
  0
XRECORD
  5
798
102
{ACAD_REACTORS
330
796
102
}
330
796
100
AcDbXrecord
280
     1
 70
     2
  0
XRECORD
  5
797
102
{ACAD_REACTORS
330
796
102
}
330
796
100
AcDbXrecord
280
     1
 40
1.25
  0
XRECORD
  5
799
102
{ACAD_REACTORS
330
796
102
}
330
796
100
AcDbXrecord
280
     1
 40
1.570796326794896
  0
LAYOUT
  5
39
102
{ACAD_XDICTIONARY
360
7BD
102
}
102
{ACAD_REACTORS
330
2E
102
}
330
2E
100
AcDbPlotSettings
  1

  2
DocuPrint 205 - 開発角地
  4
A4
  6

 40
4.900083065032958
 41
4.900057315826416
 42
4.90008544921875
 43
4.90008544921875
 44
210.0156707763672
 45
297.0106506347656
 46
0.0
 47
0.0
 48
0.0
 49
0.0
140
0.0
141
0.0
142
1.0
143
1.421453875755494
 70
 11952
 72
     1
 73
     1
 74
     1
  7
n-plot.ctb
 75
     0
147
0.7035050641150813
148
242.9931914833109
149
153.4946095132714
100
AcDbLayout
  1
Model
 70
     1
 71
     0
 10
0.0
 20
0.0
 11
12.0
 21
9.0
 12
0.0
 22
0.0
 32
0.0
 14
0.0
 24
0.0
 34
0.0
 15
0.0
 25
0.0
 35
0.0
146
0.0
 13
0.0
 23
0.0
 33
0.0
 16
1.0
 26
0.0
 36
0.0
 17
0.0
 27
1.0
 37
0.0
 76
     0
330
36
331
56
1001
ACAD_PSEXT
1000
DocuPrint 205 - 開発角地
1000
FX DocuPrint 205
1000
FX-872EB2
1000

1070
     0
  0
LAYOUT
  5
35
102
{ACAD_XDICTIONARY
360
7BB
102
}
102
{ACAD_REACTORS
330
2E
102
}
330
2E
100
AcDbPlotSettings
  1

  2
PDF Complete
  4

  6

 40
0.0
 41
0.0
 42
0.0
 43
0.0
 44
0.0
 45
0.0
 46
0.0
 47
0.0
 48
0.0
 49
0.0
140
0.0
141
0.0
142
1.0
143
1.0
 70
   688
 72
     0
 73
     0
 74
     5
  7
n-plot.ctb
 75
    16
147
1.0
148
0.0
149
0.0
100
AcDbLayout
  1
レイアウト1
 70
     1
 71
     1
 10
0.0
 20
0.0
 11
12.0
 21
9.0
 12
0.0
 22
0.0
 32
0.0
 14
1.000000000000000E+20
 24
1.000000000000000E+20
 34
1.000000000000000E+20
 15
-1.000000000000000E+20
 25
-1.000000000000000E+20
 35
-1.000000000000000E+20
146
0.0
 13
0.0
 23
0.0
 33
0.0
 16
1.0
 26
0.0
 36
0.0
 17
0.0
 27
1.0
 37
0.0
 76
     0
330
32
  0
MATERIAL
  5
12
102
{ACAD_XDICTIONARY
360
2D2
102
}
102
{ACAD_REACTORS
330
10
102
}
330
10
100
AcDbMaterial
  1
ByBlock
  0
MATERIAL
  5
11
102
{ACAD_XDICTIONARY
360
2D0
102
}
102
{ACAD_REACTORS
330
10
102
}
330
10
100
AcDbMaterial
  1
ByLayer
  0
MATERIAL
  5
13
102
{ACAD_XDICTIONARY
360
2D4
102
}
102
{ACAD_REACTORS
330
10
102
}
330
10
100
AcDbMaterial
  1
Global
  0
MLEADERSTYLE
  5
3C3
102
{ACAD_REACTORS
330
3C2
102
}
330
3C2
100
AcDbMLeaderStyle
170
     2
171
     1
172
     0
 90
        2
 40
0.0
 41
0.0
173
     1
 91
-1056964608
340
28
 92
       -2
290
     1
 42
0.09
291
     1
 43
0.36
  3
Standard
 44
0.18
300

342
26
174
     1
178
     6
175
     1
176
     0
 93
-1056964608
 45
0.18
292
     0
297
     0
 46
0.18
 94
-1056964608
 47
1.0
 49
1.0
140
1.0
293
     1
141
0.0
294
     1
177
     0
142
1.0
295
     0
296
     0
143
0.125
1001
ACAD_MLEADERVER
1070
     2
  0
MLINESTYLE
  5
2C
102
{ACAD_REACTORS
330
2B
102
}
330
2B
100
AcDbMlineStyle
  2
STANDARD
 70
     0
  3

 62
   256
 51
90.0
 52
90.0
 71
     2
 49
0.5
 62
   256
  6
BYLAYER
 49
-0.5
 62
   256
  6
BYLAYER
  0
ACDBPLACEHOLDER
  5
F
102
{ACAD_REACTORS
330
E
102
}
330
E
  0
SCALE
  5
3B1
102
{ACAD_REACTORS
330
3B0
102
}
330
3B0
100
AcDbScale
 70
     0
300
1:1
140
1.0
141
1.0
290
     1
  0
SCALE
  5
3B2
102
{ACAD_REACTORS
330
3B0
102
}
330
3B0
100
AcDbScale
 70
     0
300
1/128" = 1'-0"
140
0.0078125
141
12.0
290
     0
  0
SCALE
  5
3B3
102
{ACAD_REACTORS
330
3B0
102
}
330
3B0
100
AcDbScale
 70
     0
300
1/64" = 1'-0"
140
0.015625
141
12.0
290
     0
  0
SCALE
  5
3B4
102
{ACAD_REACTORS
330
3B0
102
}
330
3B0
100
AcDbScale
 70
     0
300
1/32" = 1'-0"
140
0.03125
141
12.0
290
     0
  0
SCALE
  5
3B5
102
{ACAD_REACTORS
330
3B0
102
}
330
3B0
100
AcDbScale
 70
     0
300
1/16" = 1'-0"
140
0.0625
141
12.0
290
     0
  0
SCALE
  5
3B6
102
{ACAD_REACTORS
330
3B0
102
}
330
3B0
100
AcDbScale
 70
     0
300
3/32" = 1'-0"
140
0.09375
141
12.0
290
     0
  0
SCALE
  5
3B7
102
{ACAD_REACTORS
330
3B0
102
}
330
3B0
100
AcDbScale
 70
     0
300
1/8" = 1'-0"
140
0.125
141
12.0
290
     0
  0
SCALE
  5
3B8
102
{ACAD_REACTORS
330
3B0
102
}
330
3B0
100
AcDbScale
 70
     0
300
3/16" = 1'-0"
140
0.1875
141
12.0
290
     0
  0
SCALE
  5
3B9
102
{ACAD_REACTORS
330
3B0
102
}
330
3B0
100
AcDbScale
 70
     0
300
1/4" = 1'-0"
140
0.25
141
12.0
290
     0
  0
SCALE
  5
3BA
102
{ACAD_REACTORS
330
3B0
102
}
330
3B0
100
AcDbScale
 70
     0
300
3/8" = 1'-0"
140
0.375
141
12.0
290
     0
  0
SCALE
  5
3BB
102
{ACAD_REACTORS
330
3B0
102
}
330
3B0
100
AcDbScale
 70
     0
300
1/2" = 1'-0"
140
0.5
141
12.0
290
     0
  0
SCALE
  5
3BC
102
{ACAD_REACTORS
330
3B0
102
}
330
3B0
100
AcDbScale
 70
     0
300
3/4" = 1'-0"
140
0.75
141
12.0
290
     0
  0
SCALE
  5
3BD
102
{ACAD_REACTORS
330
3B0
102
}
330
3B0
100
AcDbScale
 70
     0
300
1" = 1'-0"
140
1.0
141
12.0
290
     0
  0
SCALE
  5
3BE
102
{ACAD_REACTORS
330
3B0
102
}
330
3B0
100
AcDbScale
 70
     0
300
1-1/2" = 1'-0"
140
1.5
141
12.0
290
     0
  0
SCALE
  5
3BF
102
{ACAD_REACTORS
330
3B0
102
}
330
3B0
100
AcDbScale
 70
     0
300
3" = 1'-0"
140
3.0
141
12.0
290
     0
  0
SCALE
  5
3C0
102
{ACAD_REACTORS
330
3B0
102
}
330
3B0
100
AcDbScale
 70
     0
300
6" = 1'-0"
140
6.0
141
12.0
290
     0
  0
SCALE
  5
3C1
102
{ACAD_REACTORS
330
3B0
102
}
330
3B0
100
AcDbScale
 70
     0
300
1'-0" = 1'-0"
140
12.0
141
12.0
290
     0
  0
TABLESTYLE
  5
31
102
{ACAD_XDICTIONARY
360
792
102
}
102
{ACAD_REACTORS
330
30
102
}
330
30
100
AcDbTableStyle
  3
Standard
 70
     0
 71
     0
 40
0.06
 41
0.06
280
     0
281
     0
  7
STANDARD
140
0.18
170
     2
 62
     0
 63
     7
283
     0
274
    -2
284
     1
 64
     0
275
    -2
285
     1
 65
     0
276
    -2
286
     1
 66
     0
277
    -2
287
     1
 67
     0
278
    -2
288
     1
 68
     0
279
    -2
289
     1
 69
     0
  7
STANDARD
140
0.25
170
     5
 62
     0
 63
     7
283
     0
274
    -2
284
     1
 64
     0
275
    -2
285
     1
 65
     0
276
    -2
286
     1
 66
     0
277
    -2
287
     1
 67
     0
278
    -2
288
     1
 68
     0
279
    -2
289
     1
 69
     0
  7
STANDARD
140
0.18
170
     5
 62
     0
 63
     7
283
     0
274
    -2
284
     1
 64
     0
275
    -2
285
     1
 65
     0
276
    -2
286
     1
 66
     0
277
    -2
287
     1
 67
     0
278
    -2
288
     1
 68
     0
279
    -2
289
     1
 69
     0
  0
VISUALSTYLE
  5
1A
102
{ACAD_XDICTIONARY
360
7A4
102
}
102
{ACAD_REACTORS
330
14
102
}
330
14
100
AcDbVisualStyle
  2

 70
     4
 71
     0
 72
     2
 73
     0
 90
        0
 40
-0.6
 41
-30.0
 62
     5
 63
     7
 74
     1
 91
        4
 64
     7
 65
   257
 75
     1
175
     1
 42
1.0
 92
        0
 66
   257
 43
1.0
 76
     1
 77
     6
 78
     2
 67
     7
 79
     5
170
     0
171
     0
290
     0
174
     0
 93
        1
 44
0.0
173
     0
291
     0
 45
0.0
1001
ACAD
1000
AcDbSavedByObjectVersion
1070
     0
  0
VISUALSTYLE
  5
1C
102
{ACAD_XDICTIONARY
360
7A8
102
}
102
{ACAD_REACTORS
330
14
102
}
330
14
100
AcDbVisualStyle
  2

 70
     6
 71
     1
 72
     2
 73
     2
 90
        0
 40
-0.6
 41
-30.0
 62
     5
 63
     7
 74
     2
 91
        2
 64
     7
 65
   257
 75
     2
175
     1
 42
40.0
 92
        0
 66
   257
 43
1.0
 76
     1
 77
     6
 78
     2
 67
     7
 79
     3
170
     0
171
     0
290
     0
174
     0
 93
        1
 44
0.0
173
     0
291
     0
 45
0.0
1001
ACAD
1000
AcDbSavedByObjectVersion
1070
     0
  0
VISUALSTYLE
  5
1B
102
{ACAD_XDICTIONARY
360
7A6
102
}
102
{ACAD_REACTORS
330
14
102
}
330
14
100
AcDbVisualStyle
  2

 70
     5
 71
     0
 72
     2
 73
     0
 90
        0
 40
-0.6
 41
-30.0
 62
     5
 63
     7
 74
     1
 91
        4
 64
     7
 65
   257
 75
     1
175
     1
 42
1.0
 92
        0
 66
   257
 43
1.0
 76
     1
 77
     6
 78
     2
 67
     7
 79
     5
170
     0
171
     0
290
     0
174
     0
 93
        1
 44
0.0
173
     0
291
     0
 45
0.0
1001
ACAD
1000
AcDbSavedByObjectVersion
1070
     0
  0
VISUALSTYLE
  5
19
102
{ACAD_XDICTIONARY
360
7A2
102
}
102
{ACAD_REACTORS
330
14
102
}
330
14
100
AcDbVisualStyle
  2

 70
     7
 71
     1
 72
     0
 73
     1
 90
        0
 40
-0.6
 41
-30.0
 62
     5
 63
     7
 74
     0
 91
        4
 64
     7
 65
   257
 75
     1
175
     1
 42
1.0
 92
        8
 66
     7
 43
1.0
 76
     1
 77
     6
 78
     2
 67
     7
 79
     5
170
     0
171
     0
290
     0
174
     0
 93
        1
 44
0.0
173
     0
291
     1
 45
0.0
1001
ACAD
1000
AcDbSavedByObjectVersion
1070
     0
  0
VISUALSTYLE
  5
20
102
{ACAD_XDICTIONARY
360
7B0
102
}
102
{ACAD_REACTORS
330
14
102
}
330
14
100
AcDbVisualStyle
  2

 70
    12
 71
     2
 72
     2
 73
     0
 90
        0
 40
-0.6
 41
-30.0
 62
     5
 63
     7
 74
     1
 91
        4
 64
     7
 65
   257
 75
     1
175
     1
 42
1.0
 92
        8
 66
     7
 43
1.0
 76
     1
 77
     6
 78
     2
 67
     7
 79
     5
170
     0
171
     0
290
     0
174
     0
 93
        1
 44
50.0
173
     0
291
     1
 45
0.0
1001
ACAD
1000
AcDbSavedByObjectVersion
1070
     0
  0
VISUALSTYLE
  5
24
102
{ACAD_XDICTIONARY
360
7B8
102
}
102
{ACAD_REACTORS
330
14
102
}
330
14
100
AcDbVisualStyle
  2

 70
    16
 71
     2
 72
     2
 73
     3
 90
        0
 40
-0.6
 41
-30.0
 62
     5
 63
     8
 74
     1
 91
        4
 64
     7
 65
   257
 75
     1
175
     1
 42
1.0
 92
        8
 66
     8
 43
1.0
 76
     1
 77
     6
 78
     2
 67
     7
 79
     5
170
     0
171
     0
290
     0
174
     0
 93
        1
 44
0.0
173
     0
291
     1
 45
0.0
1001
ACAD
1000
AcDbSavedByObjectVersion
1070
     0
  0
VISUALSTYLE
  5
1D
102
{ACAD_XDICTIONARY
360
7AA
102
}
102
{ACAD_REACTORS
330
14
102
}
330
14
100
AcDbVisualStyle
  2

 70
     9
 71
     3
 72
     2
 73
     0
 90
        0
 40
-0.6
 41
-30.0
 62
     5
 63
     7
 74
     2
 91
        2
 64
     7
 65
   257
 75
     1
175
     1
 42
40.0
 92
        8
 66
     7
 43
1.0
 76
     1
 77
     6
 78
     2
 67
     7
 79
     3
170
     0
171
     0
290
     0
174
     0
 93
        1
 44
0.0
173
     0
291
     0
 45
0.0
1001
ACAD
1000
AcDbSavedByObjectVersion
1070
     0
  0
VISUALSTYLE
  5
1F
102
{ACAD_XDICTIONARY
360
7AE
102
}
102
{ACAD_REACTORS
330
14
102
}
330
14
100
AcDbVisualStyle
  2

 70
    11
 71
     2
 72
     2
 73
     0
 90
        0
 40
-0.6
 41
-30.0
 62
     5
 63
     7
 74
     1
 91
        4
 64
     7
 65
   257
 75
     1
175
     1
 42
1.0
 92
        8
 66
     7
 43
1.0
 76
     1
 77
     6
 78
     2
 67
     7
 79
     5
170
     0
171
     0
290
     0
174
     0
 93
        1
 44
-50.0
173
     0
291
     1
 45
0.0
1001
ACAD
1000
AcDbSavedByObjectVersion
1070
     0
  0
VISUALSTYLE
  5
3AF
102
{ACAD_XDICTIONARY
360
7D1
102
}
102
{ACAD_REACTORS
330
14
102
}
330
14
100
AcDbVisualStyle
  2
EdgeColorOff
 70
    22
 71
     2
 72
     2
 73
     0
 90
        0
 40
-0.6
 41
-30.0
 62
     5
 63
     7
 74
     1
 91
        4
 64
     7
 65
   257
 75
     1
175
     1
 42
1.0
 92
        8
 66
     7
 43
1.0
 76
     1
 77
     6
 78
     2
 67
     7
 79
     5
170
     0
171
     0
290
     0
174
     0
 93
        1
 44
0.0
173
     0
291
     1
 45
0.0
1001
ACAD
1000
AcDbSavedByObjectVersion
1070
     0
  0
VISUALSTYLE
  5
23
102
{ACAD_XDICTIONARY
360
7B6
102
}
102
{ACAD_REACTORS
330
14
102
}
330
14
100
AcDbVisualStyle
  2

 70
    15
 71
     2
 72
     2
 73
     0
 90
        0
 40
-0.6
 41
-30.0
 62
     5
 63
     7
 74
     1
 91
        4
 64
     7
 65
   257
 75
     1
175
     1
 42
1.0
 92
        8
 66
     7
 43
1.0
 76
     1
 77
     6
 78
     2
 67
     7
 79
     5
170
     0
171
     0
290
     0
174
     0
 93
        1
 44
0.0
173
     0
291
     1
 45
0.0
1001
ACAD
1000
AcDbSavedByObjectVersion
1070
     0
  0
VISUALSTYLE
  5
15
102
{ACAD_XDICTIONARY
360
79A
102
}
102
{ACAD_REACTORS
330
14
102
}
330
14
100
AcDbVisualStyle
  2

 70
     0
 71
     2
 72
     1
 73
     1
 90
        2
 40
-0.6
 41
30.0
 62
     5
 63
     7
 74
     0
 91
        4
 64
     7
 65
   257
 75
     1
175
     1
 42
1.0
 92
        8
 66
     7
 43
1.0
 76
     1
 77
     6
 78
     2
 67
     7
 79
     5
170
     0
171
     0
290
     0
174
     0
 93
       13
 44
0.0
173
     0
291
     1
 45
0.0
1001
ACAD
1000
AcDbSavedByObjectVersion
1070
     0
  0
VISUALSTYLE
  5
16
102
{ACAD_XDICTIONARY
360
79C
102
}
102
{ACAD_REACTORS
330
14
102
}
330
14
100
AcDbVisualStyle
  2

 70
     1
 71
     2
 72
     1
 73
     1
 90
        2
 40
-0.6
 41
30.0
 62
     5
 63
     7
 74
     1
 91
        4
 64
     7
 65
   257
 75
     1
175
     1
 42
1.0
 92
        0
 66
   257
 43
1.0
 76
     1
 77
     6
 78
     2
 67
     7
 79
     5
170
     0
171
     0
290
     0
174
     0
 93
       13
 44
0.0
173
     0
291
     1
 45
0.0
1001
ACAD
1000
AcDbSavedByObjectVersion
1070
     0
  0
VISUALSTYLE
  5
17
102
{ACAD_XDICTIONARY
360
79E
102
}
102
{ACAD_REACTORS
330
14
102
}
330
14
100
AcDbVisualStyle
  2

 70
     2
 71
     2
 72
     2
 73
     1
 90
        2
 40
-0.6
 41
30.0
 62
     5
 63
     7
 74
     0
 91
        4
 64
     7
 65
   257
 75
     1
175
     1
 42
1.0
 92
        0
 66
     7
 43
1.0
 76
     1
 77
     6
 78
     2
 67
     7
 79
     5
170
     0
171
     0
290
     0
174
     0
 93
       13
 44
0.0
173
     0
291
     1
 45
0.0
1001
ACAD
1000
AcDbSavedByObjectVersion
1070
     0
  0
VISUALSTYLE
  5
18
102
{ACAD_XDICTIONARY
360
7A0
102
}
102
{ACAD_REACTORS
330
14
102
}
330
14
100
AcDbVisualStyle
  2

 70
     3
 71
     2
 72
     2
 73
     1
 90
        2
 40
-0.6
 41
30.0
 62
     5
 63
     7
 74
     1
 91
        4
 64
     7
 65
   257
 75
     1
175
     1
 42
1.0
 92
        0
 66
   257
 43
1.0
 76
     1
 77
     6
 78
     2
 67
     7
 79
     5
170
     0
171
     0
290
     0
174
     0
 93
       13
 44
0.0
173
     0
291
     1
 45
0.0
1001
ACAD
1000
AcDbSavedByObjectVersion
1070
     0
  0
VISUALSTYLE
  5
3A7
102
{ACAD_XDICTIONARY
360
7C1
102
}
102
{ACAD_REACTORS
330
14
102
}
330
14
100
AcDbVisualStyle
  2
Hidden
 70
     6
 71
     1
 72
     2
 73
     2
 90
        0
 40
-0.6
 41
-30.0
 62
     5
 63
     7
 74
     2
 91
        2
 64
     7
 65
   257
 75
     2
175
     1
 42
40.0
 92
        0
 66
   257
 43
1.0
 76
     1
 77
     6
 78
     2
 67
     7
 79
     3
170
     0
171
     0
290
     0
174
     0
 93
        1
 44
0.0
173
     0
291
     0
 45
0.0
1001
ACAD
1000
AcDbSavedByObjectVersion
1070
     0
  0
VISUALSTYLE
  5
3AD
102
{ACAD_XDICTIONARY
360
7CD
102
}
102
{ACAD_REACTORS
330
14
102
}
330
14
100
AcDbVisualStyle
  2
JitterOff
 70
    20
 71
     2
 72
     2
 73
     0
 90
        0
 40
-0.6
 41
-30.0
 62
     5
 63
     7
 74
     1
 91
        4
 64
     7
 65
   257
 75
     1
175
     1
 42
1.0
 92
       10
 66
     7
 43
1.0
 76
     1
 77
     6
 78
     2
 67
     7
 79
     5
170
     0
171
     0
290
     0
174
     0
 93
        1
 44
0.0
173
     0
291
     1
 45
0.0
1001
ACAD
1000
AcDbSavedByObjectVersion
1070
     0
  0
VISUALSTYLE
  5
22
102
{ACAD_XDICTIONARY
360
7B4
102
}
102
{ACAD_REACTORS
330
14
102
}
330
14
100
AcDbVisualStyle
  2

 70
    14
 71
     2
 72
     2
 73
     0
 90
        0
 40
-0.6
 41
-30.0
 62
     5
 63
     7
 74
     1
 91
        4
 64
     7
 65
   257
 75
     7
175
     7
 42
1.0
 92
        8
 66
     7
 43
1.0
 76
     1
 77
     6
 78
     2
 67
     7
 79
     5
170
     0
171
     0
290
     0
174
     0
 93
        1
 44
0.0
173
     0
291
     1
 45
0.0
1001
ACAD
1000
AcDbSavedByObjectVersion
1070
     0
  0
VISUALSTYLE
  5
3AE
102
{ACAD_XDICTIONARY
360
7CF
102
}
102
{ACAD_REACTORS
330
14
102
}
330
14
100
AcDbVisualStyle
  2
OverhangOff
 70
    21
 71
     2
 72
     2
 73
     0
 90
        0
 40
-0.6
 41
-30.0
 62
     5
 63
     7
 74
     1
 91
        4
 64
     7
 65
   257
 75
     1
175
     1
 42
1.0
 92
        9
 66
     7
 43
1.0
 76
     1
 77
     6
 78
     2
 67
     7
 79
     5
170
     0
171
     0
290
     0
174
     0
 93
        1
 44
0.0
173
     0
291
     1
 45
0.0
1001
ACAD
1000
AcDbSavedByObjectVersion
1070
     0
  0
VISUALSTYLE
  5
1E
102
{ACAD_XDICTIONARY
360
7AC
102
}
102
{ACAD_REACTORS
330
14
102
}
330
14
100
AcDbVisualStyle
  2

 70
     8
 71
     2
 72
     2
 73
     0
 90
        0
 40
-0.6
 41
-30.0
 62
     5
 63
     7
 74
     1
 91
        0
 64
     7
 65
   257
 75
     1
175
     1
 42
1.0
 92
        8
 66
     8
 43
1.0
 76
     1
 77
     6
 78
     2
 67
     7
 79
     5
170
     0
171
     0
290
     0
174
     0
 93
       13
 44
0.0
173
     0
291
     0
 45
0.0
1001
ACAD
1000
AcDbSavedByObjectVersion
1070
     0
  0
VISUALSTYLE
  5
3AC
102
{ACAD_XDICTIONARY
360
7CB
102
}
102
{ACAD_REACTORS
330
14
102
}
330
14
100
AcDbVisualStyle
  2
Shaded
 70
    27
 71
     2
 72
     2
 73
     1
 90
        2
 40
-0.6
 41
30.0
 62
     5
 63
     7
 74
     0
 91
        4
 64
     7
 65
   257
 75
     1
175
     1
 42
1.0
 92
        8
 66
   257
 43
1.0
 76
     1
 77
     6
 78
     2
 67
     8
 79
     3
170
     0
171
     0
290
     0
174
     0
 93
        5
 44
0.0
173
     0
291
     0
 45
0.0
1001
ACAD
1000
AcDbSavedByObjectVersion
1070
     0
  0
VISUALSTYLE
  5
3AB
102
{ACAD_XDICTIONARY
360
7C9
102
}
102
{ACAD_REACTORS
330
14
102
}
330
14
100
AcDbVisualStyle
  2
Shaded with edges
 70
    26
 71
     2
 72
     2
 73
     1
 90
        2
 40
-0.6
 41
30.0
 62
     5
 63
     7
 74
     1
 91
       10
 64
     7
 65
   257
 75
     2
175
     1
 42
1.0
 92
        8
 66
   257
 43
1.0
 76
     1
 77
     6
 78
     2
 67
     7
 79
     3
170
     0
171
     0
290
     0
174
     0
 93
        5
 44
0.0
173
     0
291
     0
 45
0.0
1001
ACAD
1000
AcDbSavedByObjectVersion
1070
     0
  0
VISUALSTYLE
  5
3A8
102
{ACAD_XDICTIONARY
360
7C3
102
}
102
{ACAD_REACTORS
330
14
102
}
330
14
100
AcDbVisualStyle
  2
Shades of Gray
 70
    23
 71
     2
 72
     2
 73
     3
 90
        0
 40
-0.6
 41
-30.0
 62
     5
 63
     7
 74
     2
 91
        2
 64
     7
 65
     7
 75
     1
175
     1
 42
40.0
 92
        8
 66
     7
 43
1.0
 76
     1
 77
     6
 78
     2
 67
     7
 79
     3
170
     0
171
     0
290
     0
174
     0
 93
        1
 44
0.0
173
     0
291
     0
 45
0.0
1001
ACAD
1000
AcDbSavedByObjectVersion
1070
     0
  0
VISUALSTYLE
  5
3A9
102
{ACAD_XDICTIONARY
360
7C5
102
}
102
{ACAD_REACTORS
330
14
102
}
330
14
100
AcDbVisualStyle
  2
Sketchy
 70
    24
 71
     1
 72
     2
 73
     2
 90
        0
 40
-0.6
 41
-30.0
 62
     5
 63
     7
 74
     2
 91
        2
 64
     7
 65
     7
 75
     1
175
     1
 42
40.0
 92
       11
 66
     7
 43
1.0
 76
     1
 77
     6
 78
     2
 67
     7
 79
     6
170
     0
171
     0
290
     0
174
     0
 93
        1
 44
0.0
173
     0
291
     0
 45
0.0
1001
ACAD
1000
AcDbSavedByObjectVersion
1070
     0
  0
VISUALSTYLE
  5
21
102
{ACAD_XDICTIONARY
360
7B2
102
}
102
{ACAD_REACTORS
330
14
102
}
330
14
100
AcDbVisualStyle
  2

 70
    13
 71
     2
 72
     2
 73
     0
 90
        0
 40
-0.6
 41
-30.0
 62
     5
 63
     7
 74
     1
 91
        4
 64
     7
 65
   257
 75
     1
175
     1
 42
1.0
 92
       12
 66
     7
 43
1.0
 76
     1
 77
     6
 78
     2
 67
     7
 79
     5
170
     0
171
     0
290
     0
174
     0
 93
        1
 44
0.0
173
     0
291
     1
 45
0.0
1001
ACAD
1000
AcDbSavedByObjectVersion
1070
     0
  0
VISUALSTYLE
  5
3A6
102
{ACAD_XDICTIONARY
360
7BF
102
}
102
{ACAD_REACTORS
330
14
102
}
330
14
100
AcDbVisualStyle
  2
Wireframe
 70
     5
 71
     0
 72
     2
 73
     0
 90
        0
 40
-0.6
 41
-30.0
 62
     5
 63
     7
 74
     1
 91
        4
 64
     7
 65
   257
 75
     1
175
     1
 42
1.0
 92
        0
 66
   257
 43
1.0
 76
     1
 77
     6
 78
     2
 67
     7
 79
     3
170
     0
171
     0
290
     0
174
     0
 93
        1
 44
0.0
173
     0
291
     0
 45
0.0
1001
ACAD
1000
AcDbSavedByObjectVersion
1070
     0
  0
VISUALSTYLE
  5
3AA
102
{ACAD_XDICTIONARY
360
7C7
102
}
102
{ACAD_REACTORS
330
14
102
}
330
14
100
AcDbVisualStyle
  2
X-Ray
 70
    25
 71
     2
 72
     2
 73
     1
 90
        1
 40
0.5
 41
-30.0
 62
     5
 63
     7
 74
     1
 91
        0
 64
     7
 65
   257
 75
     1
175
     1
 42
1.0
 92
        8
 66
     7
 43
1.0
 76
     1
 77
     6
 78
     2
 67
     7
 79
     3
170
     0
171
     0
290
     0
174
     0
 93
       13
 44
0.0
173
     0
291
     0
 45
0.0
1001
ACAD
1000
AcDbSavedByObjectVersion
1070
     0
  0
DICTIONARYVAR
  5
6D9
102
{ACAD_REACTORS
330
2B8
102
}
330
2B8
100
DictionaryVariables
280
     0
  1
1:1
  0
DICTIONARYVAR
  5
6D8
102
{ACAD_REACTORS
330
2B8
102
}
330
2B8
100
DictionaryVariables
280
     0
  1
STANDARD
  0
DICTIONARYVAR
  5
2B9
102
{ACAD_REACTORS
330
2B8
102
}
330
2B8
100
DictionaryVariables
280
     0
  1
STANDARD
  0
DICTIONARYVAR
  5
2CE
102
{ACAD_REACTORS
330
2B8
102
}
330
2B8
100
DictionaryVariables
280
     0
  1
1
  0
DICTIONARYVAR
  5
2CD
102
{ACAD_REACTORS
330
2B8
102
}
330
2B8
100
DictionaryVariables
280
     0
  1
0
  0
DICTIONARYVAR
  5
2CC
102
{ACAD_REACTORS
330
2B8
102
}
330
2B8
100
DictionaryVariables
280
     0
  1
127
  0
DICTIONARYVAR
  5
6DA
102
{ACAD_REACTORS
330
2B8
102
}
330
2B8
100
DictionaryVariables
280
     0
  1
2
  0
DICTIONARY
  5
7BD
330
39
100
AcDbDictionary
280
     1
281
     1
  3
ACAD_XREC_ROUNDTRIP
360
7BE
  0
DICTIONARY
  5
7BB
330
35
100
AcDbDictionary
280
     1
281
     1
  3
ACAD_XREC_ROUNDTRIP
360
7BC
  0
DICTIONARY
  5
2D2
330
12
100
AcDbDictionary
280
     1
281
     1
  3
ACAD_XREC_ROUNDTRIP
360
2D3
  0
DICTIONARY
  5
2D0
330
11
100
AcDbDictionary
280
     1
281
     1
  3
ACAD_XREC_ROUNDTRIP
360
2D1
  0
DICTIONARY
  5
2D4
330
13
100
AcDbDictionary
280
     1
281
     1
  3
ACAD_XREC_ROUNDTRIP
360
2D5
  0
DICTIONARY
  5
792
330
31
100
AcDbDictionary
280
     1
281
     1
  3
ACAD_ROUNDTRIP_2008_TABLESTYLE_CELLSTYLEMAP
360
793
  3
ACAD_XREC_ROUNDTRIP
360
7BA
  0
DICTIONARY
  5
7A4
330
1A
100
AcDbDictionary
280
     1
281
     1
  3
ACAD_XREC_ROUNDTRIP
360
7A5
  0
DICTIONARY
  5
7A8
330
1C
100
AcDbDictionary
280
     1
281
     1
  3
ACAD_XREC_ROUNDTRIP
360
7A9
  0
DICTIONARY
  5
7A6
330
1B
100
AcDbDictionary
280
     1
281
     1
  3
ACAD_XREC_ROUNDTRIP
360
7A7
  0
DICTIONARY
  5
7A2
330
19
100
AcDbDictionary
280
     1
281
     1
  3
ACAD_XREC_ROUNDTRIP
360
7A3
  0
DICTIONARY
  5
7B0
330
20
100
AcDbDictionary
280
     1
281
     1
  3
ACAD_XREC_ROUNDTRIP
360
7B1
  0
DICTIONARY
  5
7B8
330
24
100
AcDbDictionary
280
     1
281
     1
  3
ACAD_XREC_ROUNDTRIP
360
7B9
  0
DICTIONARY
  5
7AA
330
1D
100
AcDbDictionary
280
     1
281
     1
  3
ACAD_XREC_ROUNDTRIP
360
7AB
  0
DICTIONARY
  5
7AE
330
1F
100
AcDbDictionary
280
     1
281
     1
  3
ACAD_XREC_ROUNDTRIP
360
7AF
  0
DICTIONARY
  5
7D1
330
3AF
100
AcDbDictionary
280
     1
281
     1
  3
ACAD_XREC_ROUNDTRIP
360
7D2
  0
DICTIONARY
  5
7B6
330
23
100
AcDbDictionary
280
     1
281
     1
  3
ACAD_XREC_ROUNDTRIP
360
7B7
  0
DICTIONARY
  5
79A
330
15
100
AcDbDictionary
280
     1
281
     1
  3
ACAD_XREC_ROUNDTRIP
360
79B
  0
DICTIONARY
  5
79C
330
16
100
AcDbDictionary
280
     1
281
     1
  3
ACAD_XREC_ROUNDTRIP
360
79D
  0
DICTIONARY
  5
79E
330
17
100
AcDbDictionary
280
     1
281
     1
  3
ACAD_XREC_ROUNDTRIP
360
79F
  0
DICTIONARY
  5
7A0
330
18
100
AcDbDictionary
280
     1
281
     1
  3
ACAD_XREC_ROUNDTRIP
360
7A1
  0
DICTIONARY
  5
7C1
330
3A7
100
AcDbDictionary
280
     1
281
     1
  3
ACAD_XREC_ROUNDTRIP
360
7C2
  0
DICTIONARY
  5
7CD
330
3AD
100
AcDbDictionary
280
     1
281
     1
  3
ACAD_XREC_ROUNDTRIP
360
7CE
  0
DICTIONARY
  5
7B4
330
22
100
AcDbDictionary
280
     1
281
     1
  3
ACAD_XREC_ROUNDTRIP
360
7B5
  0
DICTIONARY
  5
7CF
330
3AE
100
AcDbDictionary
280
     1
281
     1
  3
ACAD_XREC_ROUNDTRIP
360
7D0
  0
DICTIONARY
  5
7AC
330
1E
100
AcDbDictionary
280
     1
281
     1
  3
ACAD_XREC_ROUNDTRIP
360
7AD
  0
DICTIONARY
  5
7CB
330
3AC
100
AcDbDictionary
280
     1
281
     1
  3
ACAD_XREC_ROUNDTRIP
360
7CC
  0
DICTIONARY
  5
7C9
330
3AB
100
AcDbDictionary
280
     1
281
     1
  3
ACAD_XREC_ROUNDTRIP
360
7CA
  0
DICTIONARY
  5
7C3
330
3A8
100
AcDbDictionary
280
     1
281
     1
  3
ACAD_XREC_ROUNDTRIP
360
7C4
  0
DICTIONARY
  5
7C5
330
3A9
100
AcDbDictionary
280
     1
281
     1
  3
ACAD_XREC_ROUNDTRIP
360
7C6
  0
DICTIONARY
  5
7B2
330
21
100
AcDbDictionary
280
     1
281
     1
  3
ACAD_XREC_ROUNDTRIP
360
7B3
  0
DICTIONARY
  5
7BF
330
3A6
100
AcDbDictionary
280
     1
281
     1
  3
ACAD_XREC_ROUNDTRIP
360
7C0
  0
DICTIONARY
  5
7C7
330
3AA
100
AcDbDictionary
280
     1
281
     1
  3
ACAD_XREC_ROUNDTRIP
360
7C8
  0
XRECORD
  5
7BE
102
{ACAD_REACTORS
330
7BD
102
}
330
7BD
100
AcDbXrecord
280
     1
102
SHADEPLOT
 70
     0
102
SHADEPLOTRESLEVEL
 70
     2
102
SHADEPLOTCUSTOMDPI
 70
   300
  0
XRECORD
  5
7BC
102
{ACAD_REACTORS
330
7BB
102
}
330
7BB
100
AcDbXrecord
280
     1
102
SHADEPLOT
 70
     0
102
SHADEPLOTRESLEVEL
 70
     2
102
SHADEPLOTCUSTOMDPI
 70
   300
  0
XRECORD
  5
2D3
102
{ACAD_REACTORS
330
2D2
102
}
330
2D2
100
AcDbXrecord
280
     1
102
MATERIAL
148
0.0
149
0.0
149
0.0
 93
        0
 94
      127
282
     0
 72
     1
 77
     1
171
     1
175
     1
179
     1
273
     0
  0
XRECORD
  5
2D1
102
{ACAD_REACTORS
330
2D0
102
}
330
2D0
100
AcDbXrecord
280
     1
102
MATERIAL
148
0.0
149
0.0
149
0.0
 93
        0
 94
      127
282
     0
 72
     1
 77
     1
171
     1
175
     1
179
     1
273
     0
  0
XRECORD
  5
2D5
102
{ACAD_REACTORS
330
2D4
102
}
330
2D4
100
AcDbXrecord
280
     1
102
MATERIAL
148
0.0
149
0.0
149
0.0
 93
        0
 94
      127
282
     0
 72
     1
 77
     1
171
     1
175
     1
179
     1
273
     0
  0
CELLSTYLEMAP
  5
793
102
{ACAD_REACTORS
330
792
102
}
330
792
100
AcDbCellStyleMap
 90
        3
300
CELLSTYLE
  1
TABLEFORMAT_BEGIN
 90
        5
170
     1
 91
        0
 92
    32768
 62
   257
 93
        1
300
CONTENTFORMAT
  1
CONTENTFORMAT_BEGIN
 90
        0
 91
        0
 92
      512
 93
        0
300

 40
0.0
140
1.0
 94
        5
 62
     0
340
26
144
0.25
309
CONTENTFORMAT_END
171
     0
 94
        6
 95
        1
302
GRIDFORMAT
  1
GRIDFORMAT_BEGIN
 90
        0
 91
        1
 62
     0
 92
       -2
340
0
 93
        0
 40
0.045
309
GRIDFORMAT_END
 95
        2
302
GRIDFORMAT
  1
GRIDFORMAT_BEGIN
 90
        0
 91
        1
 62
     0
 92
       -2
340
0
 93
        0
 40
0.045
309
GRIDFORMAT_END
 95
        4
302
GRIDFORMAT
  1
GRIDFORMAT_BEGIN
 90
        0
 91
        1
 62
     0
 92
       -2
340
0
 93
        0
 40
0.045
309
GRIDFORMAT_END
 95
        8
302
GRIDFORMAT
  1
GRIDFORMAT_BEGIN
 90
        0
 91
        1
 62
     0
 92
       -2
340
0
 93
        0
 40
0.045
309
GRIDFORMAT_END
 95
       16
302
GRIDFORMAT
  1
GRIDFORMAT_BEGIN
 90
        0
 91
        1
 62
     0
 92
       -2
340
0
 93
        0
 40
0.045
309
GRIDFORMAT_END
 95
       32
302
GRIDFORMAT
  1
GRIDFORMAT_BEGIN
 90
        0
 91
        1
 62
     0
 92
       -2
340
0
 93
        0
 40
0.045
309
GRIDFORMAT_END
309
TABLEFORMAT_END
  1
CELLSTYLE_BEGIN
 90
        1
 91
        1
300
_TITLE
309
CELLSTYLE_END
300
CELLSTYLE
  1
TABLEFORMAT_BEGIN
 90
        5
170
     1
 91
        0
 92
        0
 62
   257
 93
        1
300
CONTENTFORMAT
  1
CONTENTFORMAT_BEGIN
 90
        0
 91
        0
 92
      512
 93
        0
300

 40
0.0
140
1.0
 94
        5
 62
     0
340
26
144
0.18
309
CONTENTFORMAT_END
171
     0
 94
        6
 95
        1
302
GRIDFORMAT
  1
GRIDFORMAT_BEGIN
 90
        0
 91
        1
 62
     0
 92
       -2
340
0
 93
        0
 40
0.045
309
GRIDFORMAT_END
 95
        2
302
GRIDFORMAT
  1
GRIDFORMAT_BEGIN
 90
        0
 91
        1
 62
     0
 92
       -2
340
0
 93
        0
 40
0.045
309
GRIDFORMAT_END
 95
        4
302
GRIDFORMAT
  1
GRIDFORMAT_BEGIN
 90
        0
 91
        1
 62
     0
 92
       -2
340
0
 93
        0
 40
0.045
309
GRIDFORMAT_END
 95
        8
302
GRIDFORMAT
  1
GRIDFORMAT_BEGIN
 90
        0
 91
        1
 62
     0
 92
       -2
340
0
 93
        0
 40
0.045
309
GRIDFORMAT_END
 95
       16
302
GRIDFORMAT
  1
GRIDFORMAT_BEGIN
 90
        0
 91
        1
 62
     0
 92
       -2
340
0
 93
        0
 40
0.045
309
GRIDFORMAT_END
 95
       32
302
GRIDFORMAT
  1
GRIDFORMAT_BEGIN
 90
        0
 91
        1
 62
     0
 92
       -2
340
0
 93
        0
 40
0.045
309
GRIDFORMAT_END
309
TABLEFORMAT_END
  1
CELLSTYLE_BEGIN
 90
        2
 91
        1
300
_HEADER
309
CELLSTYLE_END
300
CELLSTYLE
  1
TABLEFORMAT_BEGIN
 90
        5
170
     1
 91
        0
 92
        0
 62
   257
 93
        1
300
CONTENTFORMAT
  1
CONTENTFORMAT_BEGIN
 90
        0
 91
        0
 92
      512
 93
        0
300

 40
0.0
140
1.0
 94
        2
 62
     0
340
26
144
0.18
309
CONTENTFORMAT_END
171
     0
 94
        6
 95
        1
302
GRIDFORMAT
  1
GRIDFORMAT_BEGIN
 90
        0
 91
        1
 62
     0
 92
       -2
340
0
 93
        0
 40
0.045
309
GRIDFORMAT_END
 95
        2
302
GRIDFORMAT
  1
GRIDFORMAT_BEGIN
 90
        0
 91
        1
 62
     0
 92
       -2
340
0
 93
        0
 40
0.045
309
GRIDFORMAT_END
 95
        4
302
GRIDFORMAT
  1
GRIDFORMAT_BEGIN
 90
        0
 91
        1
 62
     0
 92
       -2
340
0
 93
        0
 40
0.045
309
GRIDFORMAT_END
 95
        8
302
GRIDFORMAT
  1
GRIDFORMAT_BEGIN
 90
        0
 91
        1
 62
     0
 92
       -2
340
0
 93
        0
 40
0.045
309
GRIDFORMAT_END
 95
       16
302
GRIDFORMAT
  1
GRIDFORMAT_BEGIN
 90
        0
 91
        1
 62
     0
 92
       -2
340
0
 93
        0
 40
0.045
309
GRIDFORMAT_END
 95
       32
302
GRIDFORMAT
  1
GRIDFORMAT_BEGIN
 90
        0
 91
        1
 62
     0
 92
       -2
340
0
 93
        0
 40
0.045
309
GRIDFORMAT_END
309
TABLEFORMAT_END
  1
CELLSTYLE_BEGIN
 90
        3
 91
        2
300
_DATA
309
CELLSTYLE_END
  0
XRECORD
  5
7BA
102
{ACAD_REACTORS
330
792
102
}
330
792
100
AcDbXrecord
280
     1
102
ACAD_ROUNDTRIP_PRE2007_TABLESTYLE
 90
      512
 91
        0
  1

 92
      512
 93
        0
  2

 94
      512
 95
        0
  3

  0
XRECORD
  5
7A5
102
{ACAD_REACTORS
330
7A4
102
}
330
7A4
100
AcDbXrecord
280
     1
102
RTVSPropertyOp0
 70
     1
102
RTVSPropertyOp1
 70
     1
102
RTVSPropertyOp2
 70
     1
102
RTVSPropertyOp3
 70
     1
102
RTVSPropertyOp4
 70
     1
102
RTVSPropertyOp5
 70
     1
102
RTVSPropertyOp6
 70
     1
102
RTVSPropertyOp7
 70
     1
102
RTVSPropertyOp8
 70
     1
102
RTVSPropertyOp9
 70
     1
102
RTVSPropertyOp10
 70
     1
102
RTVSPropertyOp11
 70
     1
102
RTVSPropertyOp12
 70
     1
102
RTVSPropertyOp13
 70
     1
102
RTVSPropertyOp14
 70
     1
102
RTVSPropertyOp15
 70
     1
102
RTVSPropertyOp16
 70
     1
102
RTVSPropertyOp17
 70
     1
102
RTVSPropertyOp18
 70
     1
102
RTVSPropertyOp19
 70
     1
102
RTVSPropertyOp20
 70
     1
102
RTVSPropertyOp21
 70
     1
102
RTVSPropertyOp22
 70
     1
102
RTVSPropertyOp23
 70
     1
102
RTVSPropertyOp24
 70
     1
102
RTVSPropertyOp25
 70
     1
102
RTVSPropertyOp26
 70
     1
102
RTVSPropertyOp27
 70
     1
102
RTVSPropertyOp28
 70
     1
102
RTVSPropertyOp29
 70
     1
102
RTVSPropertyOp30
 70
     1
102
RTVSPropertyOp31
 70
     1
102
RTVSPropertyOp32
 70
     1
  0
XRECORD
  5
7A9
102
{ACAD_REACTORS
330
7A8
102
}
330
7A8
100
AcDbXrecord
280
     1
102
RTVSPropertyOp0
 70
     1
102
RTVSPropertyOp1
 70
     1
102
RTVSPropertyOp2
 70
     1
102
RTVSPropertyOp3
 70
     1
102
RTVSPropertyOp4
 70
     1
102
RTVSPropertyOp5
 70
     1
102
RTVSPropertyOp6
 70
     1
102
RTVSPropertyOp7
 70
     1
102
RTVSPropertyOp8
 70
     1
102
RTVSPropertyOp9
 70
     1
102
RTVSPropertyOp10
 70
     1
102
RTVSPropertyOp11
 70
     1
102
RTVSPropertyOp12
 70
     1
102
RTVSPropertyOp13
 70
     1
102
RTVSPropertyOp14
 70
     1
102
RTVSPropertyOp15
 70
     1
102
RTVSPropertyOp16
 70
     1
102
RTVSPropertyOp17
 70
     1
102
RTVSPropertyOp18
 70
     1
102
RTVSPropertyOp19
 70
     1
102
RTVSPropertyOp20
 70
     1
102
RTVSPropertyOp21
 70
     1
102
RTVSPropertyOp22
 70
     1
102
RTVSPropertyOp23
 70
     1
102
RTVSPropertyOp24
 70
     1
102
RTVSPropertyOp25
 70
     1
102
RTVSPropertyOp26
 70
     1
102
RTVSPropertyOp27
 70
     1
102
RTVSPropertyOp28
 70
     1
102
RTVSPropertyOp29
 70
     1
102
RTVSPropertyOp30
 70
     1
102
RTVSPropertyOp31
 70
     1
102
RTVSPropertyOp32
 70
     1
  0
XRECORD
  5
7A7
102
{ACAD_REACTORS
330
7A6
102
}
330
7A6
100
AcDbXrecord
280
     1
102
RTVSPropertyOp0
 70
     1
102
RTVSPropertyOp1
 70
     1
102
RTVSPropertyOp2
 70
     1
102
RTVSPropertyOp3
 70
     1
102
RTVSPropertyOp4
 70
     1
102
RTVSPropertyOp5
 70
     1
102
RTVSPropertyOp6
 70
     1
102
RTVSPropertyOp7
 70
     1
102
RTVSPropertyOp8
 70
     1
102
RTVSPropertyOp9
 70
     1
102
RTVSPropertyOp10
 70
     1
102
RTVSPropertyOp11
 70
     1
102
RTVSPropertyOp12
 70
     1
102
RTVSPropertyOp13
 70
     1
102
RTVSPropertyOp14
 70
     1
102
RTVSPropertyOp15
 70
     1
102
RTVSPropertyOp16
 70
     1
102
RTVSPropertyOp17
 70
     1
102
RTVSPropertyOp18
 70
     1
102
RTVSPropertyOp19
 70
     1
102
RTVSPropertyOp20
 70
     1
102
RTVSPropertyOp21
 70
     1
102
RTVSPropertyOp22
 70
     1
102
RTVSPropertyOp23
 70
     1
102
RTVSPropertyOp24
 70
     1
102
RTVSPropertyOp25
 70
     1
102
RTVSPropertyOp26
 70
     1
102
RTVSPropertyOp27
 70
     1
102
RTVSPropertyOp28
 70
     1
102
RTVSPropertyOp29
 70
     1
102
RTVSPropertyOp30
 70
     1
102
RTVSPropertyOp31
 70
     1
102
RTVSPropertyOp32
 70
     1
  0
XRECORD
  5
7A3
102
{ACAD_REACTORS
330
7A2
102
}
330
7A2
100
AcDbXrecord
280
     1
102
RTVSPropertyOp0
 70
     1
102
RTVSPropertyOp1
 70
     1
102
RTVSPropertyOp2
 70
     1
102
RTVSPropertyOp3
 70
     1
102
RTVSPropertyOp4
 70
     1
102
RTVSPropertyOp5
 70
     1
102
RTVSPropertyOp6
 70
     1
102
RTVSPropertyOp7
 70
     1
102
RTVSPropertyOp8
 70
     1
102
RTVSPropertyOp9
 70
     1
102
RTVSPropertyOp10
 70
     1
102
RTVSPropertyOp11
 70
     1
102
RTVSPropertyOp12
 70
     1
102
RTVSPropertyOp13
 70
     1
102
RTVSPropertyOp14
 70
     1
102
RTVSPropertyOp15
 70
     1
102
RTVSPropertyOp16
 70
     1
102
RTVSPropertyOp17
 70
     1
102
RTVSPropertyOp18
 70
     1
102
RTVSPropertyOp19
 70
     1
102
RTVSPropertyOp20
 70
     1
102
RTVSPropertyOp21
 70
     1
102
RTVSPropertyOp22
 70
     1
102
RTVSPropertyOp23
 70
     1
102
RTVSPropertyOp24
 70
     1
102
RTVSPropertyOp25
 70
     1
102
RTVSPropertyOp26
 70
     1
102
RTVSPropertyOp27
 70
     1
102
RTVSPropertyOp28
 70
     1
102
RTVSPropertyOp29
 70
     1
102
RTVSPropertyOp30
 70
     1
102
RTVSPropertyOp31
 70
     1
102
RTVSPropertyOp32
 70
     1
  0
XRECORD
  5
7B1
102
{ACAD_REACTORS
330
7B0
102
}
330
7B0
100
AcDbXrecord
280
     1
102
RTVSPropertyOp0
 70
     1
102
RTVSPropertyOp1
 70
     1
102
RTVSPropertyOp2
 70
     1
102
RTVSPropertyOp3
 70
     1
102
RTVSPropertyOp4
 70
     1
102
RTVSPropertyOp5
 70
     1
102
RTVSPropertyOp6
 70
     1
102
RTVSPropertyOp7
 70
     1
102
RTVSPropertyOp8
 70
     1
102
RTVSPropertyOp9
 70
     1
102
RTVSPropertyOp10
 70
     1
102
RTVSPropertyOp11
 70
     1
102
RTVSPropertyOp12
 70
     1
102
RTVSPropertyOp13
 70
     1
102
RTVSPropertyOp14
 70
     1
102
RTVSPropertyOp15
 70
     1
102
RTVSPropertyOp16
 70
     1
102
RTVSPropertyOp17
 70
     1
102
RTVSPropertyOp18
 70
     1
102
RTVSPropertyOp19
 70
     1
102
RTVSPropertyOp20
 70
     1
102
RTVSPropertyOp21
 70
     1
102
RTVSPropertyOp22
 70
     1
102
RTVSPropertyOp23
 70
     1
102
RTVSPropertyOp24
 70
     1
102
RTVSPropertyOp25
 70
     1
102
RTVSPropertyOp26
 70
     1
102
RTVSPropertyOp27
 70
     1
102
RTVSPropertyOp28
 70
     1
102
RTVSPropertyOp29
 70
     1
102
RTVSPropertyOp30
 70
     1
102
RTVSPropertyOp31
 70
     1
102
RTVSPropertyOp32
 70
     1
  0
XRECORD
  5
7B9
102
{ACAD_REACTORS
330
7B8
102
}
330
7B8
100
AcDbXrecord
280
     1
102
RTVSPropertyOp0
 70
     1
102
RTVSPropertyOp1
 70
     1
102
RTVSPropertyOp2
 70
     1
102
RTVSPropertyOp3
 70
     1
102
RTVSPropertyOp4
 70
     1
102
RTVSPropertyOp5
 70
     1
102
RTVSPropertyOp6
 70
     1
102
RTVSPropertyOp7
 70
     1
102
RTVSPropertyOp8
 70
     1
102
RTVSPropertyOp9
 70
     1
102
RTVSPropertyOp10
 70
     1
102
RTVSPropertyOp11
 70
     1
102
RTVSPropertyOp12
 70
     1
102
RTVSPropertyOp13
 70
     1
102
RTVSPropertyOp14
 70
     1
102
RTVSPropertyOp15
 70
     1
102
RTVSPropertyOp16
 70
     1
102
RTVSPropertyOp17
 70
     1
102
RTVSPropertyOp18
 70
     1
102
RTVSPropertyOp19
 70
     1
102
RTVSPropertyOp20
 70
     1
102
RTVSPropertyOp21
 70
     1
102
RTVSPropertyOp22
 70
     1
102
RTVSPropertyOp23
 70
     1
102
RTVSPropertyOp24
 70
     1
102
RTVSPropertyOp25
 70
     1
102
RTVSPropertyOp26
 70
     1
102
RTVSPropertyOp27
 70
     1
102
RTVSPropertyOp28
 70
     1
102
RTVSPropertyOp29
 70
     1
102
RTVSPropertyOp30
 70
     1
102
RTVSPropertyOp31
 70
     1
102
RTVSPropertyOp32
 70
     1
  0
XRECORD
  5
7AB
102
{ACAD_REACTORS
330
7AA
102
}
330
7AA
100
AcDbXrecord
280
     1
102
RTVSPropertyOp0
 70
     1
102
RTVSPropertyOp1
 70
     1
102
RTVSPropertyOp2
 70
     1
102
RTVSPropertyOp3
 70
     1
102
RTVSPropertyOp4
 70
     1
102
RTVSPropertyOp5
 70
     1
102
RTVSPropertyOp6
 70
     1
102
RTVSPropertyOp7
 70
     1
102
RTVSPropertyOp8
 70
     1
102
RTVSPropertyOp9
 70
     1
102
RTVSPropertyOp10
 70
     1
102
RTVSPropertyOp11
 70
     1
102
RTVSPropertyOp12
 70
     1
102
RTVSPropertyOp13
 70
     1
102
RTVSPropertyOp14
 70
     1
102
RTVSPropertyOp15
 70
     1
102
RTVSPropertyOp16
 70
     1
102
RTVSPropertyOp17
 70
     1
102
RTVSPropertyOp18
 70
     1
102
RTVSPropertyOp19
 70
     1
102
RTVSPropertyOp20
 70
     1
102
RTVSPropertyOp21
 70
     1
102
RTVSPropertyOp22
 70
     1
102
RTVSPropertyOp23
 70
     1
102
RTVSPropertyOp24
 70
     1
102
RTVSPropertyOp25
 70
     1
102
RTVSPropertyOp26
 70
     1
102
RTVSPropertyOp27
 70
     1
102
RTVSPropertyOp28
 70
     1
102
RTVSPropertyOp29
 70
     1
102
RTVSPropertyOp30
 70
     1
102
RTVSPropertyOp31
 70
     1
102
RTVSPropertyOp32
 70
     1
  0
XRECORD
  5
7AF
102
{ACAD_REACTORS
330
7AE
102
}
330
7AE
100
AcDbXrecord
280
     1
102
RTVSPropertyOp0
 70
     1
102
RTVSPropertyOp1
 70
     1
102
RTVSPropertyOp2
 70
     1
102
RTVSPropertyOp3
 70
     1
102
RTVSPropertyOp4
 70
     1
102
RTVSPropertyOp5
 70
     1
102
RTVSPropertyOp6
 70
     1
102
RTVSPropertyOp7
 70
     1
102
RTVSPropertyOp8
 70
     1
102
RTVSPropertyOp9
 70
     1
102
RTVSPropertyOp10
 70
     1
102
RTVSPropertyOp11
 70
     1
102
RTVSPropertyOp12
 70
     1
102
RTVSPropertyOp13
 70
     1
102
RTVSPropertyOp14
 70
     1
102
RTVSPropertyOp15
 70
     1
102
RTVSPropertyOp16
 70
     1
102
RTVSPropertyOp17
 70
     1
102
RTVSPropertyOp18
 70
     1
102
RTVSPropertyOp19
 70
     1
102
RTVSPropertyOp20
 70
     1
102
RTVSPropertyOp21
 70
     1
102
RTVSPropertyOp22
 70
     1
102
RTVSPropertyOp23
 70
     1
102
RTVSPropertyOp24
 70
     1
102
RTVSPropertyOp25
 70
     1
102
RTVSPropertyOp26
 70
     1
102
RTVSPropertyOp27
 70
     1
102
RTVSPropertyOp28
 70
     1
102
RTVSPropertyOp29
 70
     1
102
RTVSPropertyOp30
 70
     1
102
RTVSPropertyOp31
 70
     1
102
RTVSPropertyOp32
 70
     1
  0
XRECORD
  5
7D2
102
{ACAD_REACTORS
330
7D1
102
}
330
7D1
100
AcDbXrecord
280
     1
102
RTVSPropertyOp0
 70
     0
102
RTVSPropertyOp1
 70
     0
102
RTVSPropertyOp2
 70
     0
102
RTVSPropertyOp3
 70
     0
102
RTVSPropertyOp4
 70
     0
102
RTVSPropertyOp5
 70
     0
102
RTVSPropertyOp6
 70
     0
102
RTVSPropertyOp7
 70
     0
102
RTVSPropertyOp8
 70
     0
102
RTVSPropertyOp9
 70
     0
102
RTVSPropertyOp10
 70
     0
102
RTVSPropertyOp11
 70
     0
102
RTVSPropertyOp12
 70
     0
102
RTVSPropertyOp13
 70
     0
102
RTVSPropertyOp14
 70
     2
102
RTVSPropertyOp15
 70
     0
102
RTVSPropertyOp16
 70
     0
102
RTVSPropertyOp17
 70
     0
102
RTVSPropertyOp18
 70
     0
102
RTVSPropertyOp19
 70
     0
102
RTVSPropertyOp20
 70
     0
102
RTVSPropertyOp21
 70
     0
102
RTVSPropertyOp22
 70
     0
102
RTVSPropertyOp23
 70
     0
102
RTVSPropertyOp24
 70
     0
102
RTVSPropertyOp25
 70
     0
102
RTVSPropertyOp26
 70
     0
102
RTVSPropertyOp27
 70
     0
102
RTVSPropertyOp28
 70
     0
102
RTVSPropertyOp29
 70
     0
102
RTVSPropertyOp30
 70
     0
102
RTVSPropertyOp31
 70
     0
102
RTVSPropertyOp32
 70
     0
  0
XRECORD
  5
7B7
102
{ACAD_REACTORS
330
7B6
102
}
330
7B6
100
AcDbXrecord
280
     1
102
RTVSPropertyOp0
 70
     1
102
RTVSPropertyOp1
 70
     1
102
RTVSPropertyOp2
 70
     1
102
RTVSPropertyOp3
 70
     1
102
RTVSPropertyOp4
 70
     1
102
RTVSPropertyOp5
 70
     1
102
RTVSPropertyOp6
 70
     1
102
RTVSPropertyOp7
 70
     1
102
RTVSPropertyOp8
 70
     1
102
RTVSPropertyOp9
 70
     1
102
RTVSPropertyOp10
 70
     1
102
RTVSPropertyOp11
 70
     1
102
RTVSPropertyOp12
 70
     1
102
RTVSPropertyOp13
 70
     1
102
RTVSPropertyOp14
 70
     1
102
RTVSPropertyOp15
 70
     1
102
RTVSPropertyOp16
 70
     1
102
RTVSPropertyOp17
 70
     1
102
RTVSPropertyOp18
 70
     1
102
RTVSPropertyOp19
 70
     1
102
RTVSPropertyOp20
 70
     1
102
RTVSPropertyOp21
 70
     1
102
RTVSPropertyOp22
 70
     1
102
RTVSPropertyOp23
 70
     1
102
RTVSPropertyOp24
 70
     1
102
RTVSPropertyOp25
 70
     1
102
RTVSPropertyOp26
 70
     1
102
RTVSPropertyOp27
 70
     1
102
RTVSPropertyOp28
 70
     1
102
RTVSPropertyOp29
 70
     1
102
RTVSPropertyOp30
 70
     1
102
RTVSPropertyOp31
 70
     1
102
RTVSPropertyOp32
 70
     1
  0
XRECORD
  5
79B
102
{ACAD_REACTORS
330
79A
102
}
330
79A
100
AcDbXrecord
280
     1
102
RTVSPropertyOp0
 70
     1
102
RTVSPropertyOp1
 70
     1
102
RTVSPropertyOp2
 70
     1
102
RTVSPropertyOp3
 70
     1
102
RTVSPropertyOp4
 70
     1
102
RTVSPropertyOp5
 70
     1
102
RTVSPropertyOp6
 70
     1
102
RTVSPropertyOp7
 70
     1
102
RTVSPropertyOp8
 70
     1
102
RTVSPropertyOp9
 70
     1
102
RTVSPropertyOp10
 70
     1
102
RTVSPropertyOp11
 70
     1
102
RTVSPropertyOp12
 70
     1
102
RTVSPropertyOp13
 70
     1
102
RTVSPropertyOp14
 70
     1
102
RTVSPropertyOp15
 70
     1
102
RTVSPropertyOp16
 70
     1
102
RTVSPropertyOp17
 70
     1
102
RTVSPropertyOp18
 70
     1
102
RTVSPropertyOp19
 70
     1
102
RTVSPropertyOp20
 70
     1
102
RTVSPropertyOp21
 70
     1
102
RTVSPropertyOp22
 70
     1
102
RTVSPropertyOp23
 70
     1
102
RTVSPropertyOp24
 70
     1
102
RTVSPropertyOp25
 70
     1
102
RTVSPropertyOp26
 70
     1
102
RTVSPropertyOp27
 70
     1
102
RTVSPropertyOp28
 70
     1
102
RTVSPropertyOp29
 70
     1
102
RTVSPropertyOp30
 70
     1
102
RTVSPropertyOp31
 70
     1
102
RTVSPropertyOp32
 70
     1
  0
XRECORD
  5
79D
102
{ACAD_REACTORS
330
79C
102
}
330
79C
100
AcDbXrecord
280
     1
102
RTVSPropertyOp0
 70
     1
102
RTVSPropertyOp1
 70
     1
102
RTVSPropertyOp2
 70
     1
102
RTVSPropertyOp3
 70
     1
102
RTVSPropertyOp4
 70
     1
102
RTVSPropertyOp5
 70
     1
102
RTVSPropertyOp6
 70
     1
102
RTVSPropertyOp7
 70
     1
102
RTVSPropertyOp8
 70
     1
102
RTVSPropertyOp9
 70
     1
102
RTVSPropertyOp10
 70
     1
102
RTVSPropertyOp11
 70
     1
102
RTVSPropertyOp12
 70
     1
102
RTVSPropertyOp13
 70
     1
102
RTVSPropertyOp14
 70
     1
102
RTVSPropertyOp15
 70
     1
102
RTVSPropertyOp16
 70
     1
102
RTVSPropertyOp17
 70
     1
102
RTVSPropertyOp18
 70
     1
102
RTVSPropertyOp19
 70
     1
102
RTVSPropertyOp20
 70
     1
102
RTVSPropertyOp21
 70
     1
102
RTVSPropertyOp22
 70
     1
102
RTVSPropertyOp23
 70
     1
102
RTVSPropertyOp24
 70
     1
102
RTVSPropertyOp25
 70
     1
102
RTVSPropertyOp26
 70
     1
102
RTVSPropertyOp27
 70
     1
102
RTVSPropertyOp28
 70
     1
102
RTVSPropertyOp29
 70
     1
102
RTVSPropertyOp30
 70
     1
102
RTVSPropertyOp31
 70
     1
102
RTVSPropertyOp32
 70
     1
  0
XRECORD
  5
79F
102
{ACAD_REACTORS
330
79E
102
}
330
79E
100
AcDbXrecord
280
     1
102
RTVSPropertyOp0
 70
     1
102
RTVSPropertyOp1
 70
     1
102
RTVSPropertyOp2
 70
     1
102
RTVSPropertyOp3
 70
     1
102
RTVSPropertyOp4
 70
     1
102
RTVSPropertyOp5
 70
     1
102
RTVSPropertyOp6
 70
     1
102
RTVSPropertyOp7
 70
     1
102
RTVSPropertyOp8
 70
     1
102
RTVSPropertyOp9
 70
     1
102
RTVSPropertyOp10
 70
     1
102
RTVSPropertyOp11
 70
     1
102
RTVSPropertyOp12
 70
     1
102
RTVSPropertyOp13
 70
     1
102
RTVSPropertyOp14
 70
     1
102
RTVSPropertyOp15
 70
     1
102
RTVSPropertyOp16
 70
     1
102
RTVSPropertyOp17
 70
     1
102
RTVSPropertyOp18
 70
     1
102
RTVSPropertyOp19
 70
     1
102
RTVSPropertyOp20
 70
     1
102
RTVSPropertyOp21
 70
     1
102
RTVSPropertyOp22
 70
     1
102
RTVSPropertyOp23
 70
     1
102
RTVSPropertyOp24
 70
     1
102
RTVSPropertyOp25
 70
     1
102
RTVSPropertyOp26
 70
     1
102
RTVSPropertyOp27
 70
     1
102
RTVSPropertyOp28
 70
     1
102
RTVSPropertyOp29
 70
     1
102
RTVSPropertyOp30
 70
     1
102
RTVSPropertyOp31
 70
     1
102
RTVSPropertyOp32
 70
     1
  0
XRECORD
  5
7A1
102
{ACAD_REACTORS
330
7A0
102
}
330
7A0
100
AcDbXrecord
280
     1
102
RTVSPropertyOp0
 70
     1
102
RTVSPropertyOp1
 70
     1
102
RTVSPropertyOp2
 70
     1
102
RTVSPropertyOp3
 70
     1
102
RTVSPropertyOp4
 70
     1
102
RTVSPropertyOp5
 70
     1
102
RTVSPropertyOp6
 70
     1
102
RTVSPropertyOp7
 70
     1
102
RTVSPropertyOp8
 70
     1
102
RTVSPropertyOp9
 70
     1
102
RTVSPropertyOp10
 70
     1
102
RTVSPropertyOp11
 70
     1
102
RTVSPropertyOp12
 70
     1
102
RTVSPropertyOp13
 70
     1
102
RTVSPropertyOp14
 70
     1
102
RTVSPropertyOp15
 70
     1
102
RTVSPropertyOp16
 70
     1
102
RTVSPropertyOp17
 70
     1
102
RTVSPropertyOp18
 70
     1
102
RTVSPropertyOp19
 70
     1
102
RTVSPropertyOp20
 70
     1
102
RTVSPropertyOp21
 70
     1
102
RTVSPropertyOp22
 70
     1
102
RTVSPropertyOp23
 70
     1
102
RTVSPropertyOp24
 70
     1
102
RTVSPropertyOp25
 70
     1
102
RTVSPropertyOp26
 70
     1
102
RTVSPropertyOp27
 70
     1
102
RTVSPropertyOp28
 70
     1
102
RTVSPropertyOp29
 70
     1
102
RTVSPropertyOp30
 70
     1
102
RTVSPropertyOp31
 70
     1
102
RTVSPropertyOp32
 70
     1
  0
XRECORD
  5
7C2
102
{ACAD_REACTORS
330
7C1
102
}
330
7C1
100
AcDbXrecord
280
     1
102
RTVSPropertyOp0
 70
     1
102
RTVSPropertyOp1
 70
     1
102
RTVSPropertyOp2
 70
     1
102
RTVSPropertyOp3
 70
     1
102
RTVSPropertyOp4
 70
     1
102
RTVSPropertyOp5
 70
     1
102
RTVSPropertyOp6
 70
     1
102
RTVSPropertyOp7
 70
     1
102
RTVSPropertyOp8
 70
     1
102
RTVSPropertyOp9
 70
     1
102
RTVSPropertyOp10
 70
     1
102
RTVSPropertyOp11
 70
     1
102
RTVSPropertyOp12
 70
     1
102
RTVSPropertyOp13
 70
     1
102
RTVSPropertyOp14
 70
     1
102
RTVSPropertyOp15
 70
     1
102
RTVSPropertyOp16
 70
     1
102
RTVSPropertyOp17
 70
     1
102
RTVSPropertyOp18
 70
     1
102
RTVSPropertyOp19
 70
     1
102
RTVSPropertyOp20
 70
     1
102
RTVSPropertyOp21
 70
     1
102
RTVSPropertyOp22
 70
     1
102
RTVSPropertyOp23
 70
     1
102
RTVSPropertyOp24
 70
     1
102
RTVSPropertyOp25
 70
     1
102
RTVSPropertyOp26
 70
     1
102
RTVSPropertyOp27
 70
     1
102
RTVSPropertyOp28
 70
     1
102
RTVSPropertyOp29
 70
     1
102
RTVSPropertyOp30
 70
     1
102
RTVSPropertyOp31
 70
     1
102
RTVSPropertyOp32
 70
     1
  0
XRECORD
  5
7CE
102
{ACAD_REACTORS
330
7CD
102
}
330
7CD
100
AcDbXrecord
280
     1
102
RTVSPropertyOp0
 70
     0
102
RTVSPropertyOp1
 70
     0
102
RTVSPropertyOp2
 70
     0
102
RTVSPropertyOp3
 70
     0
102
RTVSPropertyOp4
 70
     0
102
RTVSPropertyOp5
 70
     0
102
RTVSPropertyOp6
 70
     0
102
RTVSPropertyOp7
 70
     0
102
RTVSPropertyOp8
 70
     0
102
RTVSPropertyOp9
 70
     0
102
RTVSPropertyOp10
 70
     0
102
RTVSPropertyOp11
 70
     0
102
RTVSPropertyOp12
 70
     0
102
RTVSPropertyOp13
 70
     0
102
RTVSPropertyOp14
 70
     2
102
RTVSPropertyOp15
 70
     0
102
RTVSPropertyOp16
 70
     0
102
RTVSPropertyOp17
 70
     0
102
RTVSPropertyOp18
 70
     0
102
RTVSPropertyOp19
 70
     0
102
RTVSPropertyOp20
 70
     0
102
RTVSPropertyOp21
 70
     0
102
RTVSPropertyOp22
 70
     0
102
RTVSPropertyOp23
 70
     0
102
RTVSPropertyOp24
 70
     0
102
RTVSPropertyOp25
 70
     0
102
RTVSPropertyOp26
 70
     0
102
RTVSPropertyOp27
 70
     0
102
RTVSPropertyOp28
 70
     0
102
RTVSPropertyOp29
 70
     0
102
RTVSPropertyOp30
 70
     0
102
RTVSPropertyOp31
 70
     0
102
RTVSPropertyOp32
 70
     0
  0
XRECORD
  5
7B5
102
{ACAD_REACTORS
330
7B4
102
}
330
7B4
100
AcDbXrecord
280
     1
102
RTVSPropertyOp0
 70
     1
102
RTVSPropertyOp1
 70
     1
102
RTVSPropertyOp2
 70
     1
102
RTVSPropertyOp3
 70
     1
102
RTVSPropertyOp4
 70
     1
102
RTVSPropertyOp5
 70
     1
102
RTVSPropertyOp6
 70
     1
102
RTVSPropertyOp7
 70
     1
102
RTVSPropertyOp8
 70
     1
102
RTVSPropertyOp9
 70
     1
102
RTVSPropertyOp10
 70
     1
102
RTVSPropertyOp11
 70
     1
102
RTVSPropertyOp12
 70
     1
102
RTVSPropertyOp13
 70
     1
102
RTVSPropertyOp14
 70
     1
102
RTVSPropertyOp15
 70
     1
102
RTVSPropertyOp16
 70
     1
102
RTVSPropertyOp17
 70
     1
102
RTVSPropertyOp18
 70
     1
102
RTVSPropertyOp19
 70
     1
102
RTVSPropertyOp20
 70
     1
102
RTVSPropertyOp21
 70
     1
102
RTVSPropertyOp22
 70
     1
102
RTVSPropertyOp23
 70
     1
102
RTVSPropertyOp24
 70
     1
102
RTVSPropertyOp25
 70
     1
102
RTVSPropertyOp26
 70
     1
102
RTVSPropertyOp27
 70
     1
102
RTVSPropertyOp28
 70
     1
102
RTVSPropertyOp29
 70
     1
102
RTVSPropertyOp30
 70
     1
102
RTVSPropertyOp31
 70
     1
102
RTVSPropertyOp32
 70
     1
  0
XRECORD
  5
7D0
102
{ACAD_REACTORS
330
7CF
102
}
330
7CF
100
AcDbXrecord
280
     1
102
RTVSPropertyOp0
 70
     0
102
RTVSPropertyOp1
 70
     0
102
RTVSPropertyOp2
 70
     0
102
RTVSPropertyOp3
 70
     0
102
RTVSPropertyOp4
 70
     0
102
RTVSPropertyOp5
 70
     0
102
RTVSPropertyOp6
 70
     0
102
RTVSPropertyOp7
 70
     0
102
RTVSPropertyOp8
 70
     0
102
RTVSPropertyOp9
 70
     0
102
RTVSPropertyOp10
 70
     0
102
RTVSPropertyOp11
 70
     0
102
RTVSPropertyOp12
 70
     0
102
RTVSPropertyOp13
 70
     0
102
RTVSPropertyOp14
 70
     2
102
RTVSPropertyOp15
 70
     0
102
RTVSPropertyOp16
 70
     0
102
RTVSPropertyOp17
 70
     0
102
RTVSPropertyOp18
 70
     0
102
RTVSPropertyOp19
 70
     0
102
RTVSPropertyOp20
 70
     0
102
RTVSPropertyOp21
 70
     0
102
RTVSPropertyOp22
 70
     0
102
RTVSPropertyOp23
 70
     0
102
RTVSPropertyOp24
 70
     0
102
RTVSPropertyOp25
 70
     0
102
RTVSPropertyOp26
 70
     0
102
RTVSPropertyOp27
 70
     0
102
RTVSPropertyOp28
 70
     0
102
RTVSPropertyOp29
 70
     0
102
RTVSPropertyOp30
 70
     0
102
RTVSPropertyOp31
 70
     0
102
RTVSPropertyOp32
 70
     0
  0
XRECORD
  5
7AD
102
{ACAD_REACTORS
330
7AC
102
}
330
7AC
100
AcDbXrecord
280
     1
102
RTVSPropertyOp0
 70
     1
102
RTVSPropertyOp1
 70
     1
102
RTVSPropertyOp2
 70
     1
102
RTVSPropertyOp3
 70
     1
102
RTVSPropertyOp4
 70
     1
102
RTVSPropertyOp5
 70
     1
102
RTVSPropertyOp6
 70
     1
102
RTVSPropertyOp7
 70
     1
102
RTVSPropertyOp8
 70
     1
102
RTVSPropertyOp9
 70
     1
102
RTVSPropertyOp10
 70
     1
102
RTVSPropertyOp11
 70
     1
102
RTVSPropertyOp12
 70
     1
102
RTVSPropertyOp13
 70
     1
102
RTVSPropertyOp14
 70
     1
102
RTVSPropertyOp15
 70
     1
102
RTVSPropertyOp16
 70
     1
102
RTVSPropertyOp17
 70
     1
102
RTVSPropertyOp18
 70
     1
102
RTVSPropertyOp19
 70
     1
102
RTVSPropertyOp20
 70
     1
102
RTVSPropertyOp21
 70
     1
102
RTVSPropertyOp22
 70
     1
102
RTVSPropertyOp23
 70
     1
102
RTVSPropertyOp24
 70
     1
102
RTVSPropertyOp25
 70
     1
102
RTVSPropertyOp26
 70
     1
102
RTVSPropertyOp27
 70
     1
102
RTVSPropertyOp28
 70
     1
102
RTVSPropertyOp29
 70
     1
102
RTVSPropertyOp30
 70
     1
102
RTVSPropertyOp31
 70
     1
102
RTVSPropertyOp32
 70
     1
  0
XRECORD
  5
7CC
102
{ACAD_REACTORS
330
7CB
102
}
330
7CB
100
AcDbXrecord
280
     1
102
RTVSPropertyOp0
 70
     1
102
RTVSPropertyOp1
 70
     1
102
RTVSPropertyOp2
 70
     1
102
RTVSPropertyOp3
 70
     1
102
RTVSPropertyOp4
 70
     1
102
RTVSPropertyOp5
 70
     1
102
RTVSPropertyOp6
 70
     1
102
RTVSPropertyOp7
 70
     1
102
RTVSPropertyOp8
 70
     1
102
RTVSPropertyOp9
 70
     1
102
RTVSPropertyOp10
 70
     1
102
RTVSPropertyOp11
 70
     1
102
RTVSPropertyOp12
 70
     1
102
RTVSPropertyOp13
 70
     1
102
RTVSPropertyOp14
 70
     1
102
RTVSPropertyOp15
 70
     1
102
RTVSPropertyOp16
 70
     1
102
RTVSPropertyOp17
 70
     1
102
RTVSPropertyOp18
 70
     1
102
RTVSPropertyOp19
 70
     1
102
RTVSPropertyOp20
 70
     1
102
RTVSPropertyOp21
 70
     1
102
RTVSPropertyOp22
 70
     1
102
RTVSPropertyOp23
 70
     1
102
RTVSPropertyOp24
 70
     1
102
RTVSPropertyOp25
 70
     1
102
RTVSPropertyOp26
 70
     1
102
RTVSPropertyOp27
 70
     1
102
RTVSPropertyOp28
 70
     1
102
RTVSPropertyOp29
 70
     1
102
RTVSPropertyOp30
 70
     1
102
RTVSPropertyOp31
 70
     1
102
RTVSPropertyOp32
 70
     1
  0
XRECORD
  5
7CA
102
{ACAD_REACTORS
330
7C9
102
}
330
7C9
100
AcDbXrecord
280
     1
102
RTVSPropertyOp0
 70
     1
102
RTVSPropertyOp1
 70
     1
102
RTVSPropertyOp2
 70
     1
102
RTVSPropertyOp3
 70
     1
102
RTVSPropertyOp4
 70
     1
102
RTVSPropertyOp5
 70
     1
102
RTVSPropertyOp6
 70
     1
102
RTVSPropertyOp7
 70
     1
102
RTVSPropertyOp8
 70
     1
102
RTVSPropertyOp9
 70
     1
102
RTVSPropertyOp10
 70
     1
102
RTVSPropertyOp11
 70
     1
102
RTVSPropertyOp12
 70
     1
102
RTVSPropertyOp13
 70
     1
102
RTVSPropertyOp14
 70
     1
102
RTVSPropertyOp15
 70
     1
102
RTVSPropertyOp16
 70
     1
102
RTVSPropertyOp17
 70
     1
102
RTVSPropertyOp18
 70
     1
102
RTVSPropertyOp19
 70
     1
102
RTVSPropertyOp20
 70
     1
102
RTVSPropertyOp21
 70
     1
102
RTVSPropertyOp22
 70
     1
102
RTVSPropertyOp23
 70
     1
102
RTVSPropertyOp24
 70
     1
102
RTVSPropertyOp25
 70
     1
102
RTVSPropertyOp26
 70
     1
102
RTVSPropertyOp27
 70
     1
102
RTVSPropertyOp28
 70
     1
102
RTVSPropertyOp29
 70
     1
102
RTVSPropertyOp30
 70
     1
102
RTVSPropertyOp31
 70
     1
102
RTVSPropertyOp32
 70
     1
  0
XRECORD
  5
7C4
102
{ACAD_REACTORS
330
7C3
102
}
330
7C3
100
AcDbXrecord
280
     1
102
RTVSPropertyOp0
 70
     1
102
RTVSPropertyOp1
 70
     1
102
RTVSPropertyOp2
 70
     1
102
RTVSPropertyOp3
 70
     1
102
RTVSPropertyOp4
 70
     1
102
RTVSPropertyOp5
 70
     1
102
RTVSPropertyOp6
 70
     1
102
RTVSPropertyOp7
 70
     1
102
RTVSPropertyOp8
 70
     1
102
RTVSPropertyOp9
 70
     1
102
RTVSPropertyOp10
 70
     1
102
RTVSPropertyOp11
 70
     1
102
RTVSPropertyOp12
 70
     1
102
RTVSPropertyOp13
 70
     1
102
RTVSPropertyOp14
 70
     1
102
RTVSPropertyOp15
 70
     1
102
RTVSPropertyOp16
 70
     1
102
RTVSPropertyOp17
 70
     1
102
RTVSPropertyOp18
 70
     1
102
RTVSPropertyOp19
 70
     1
102
RTVSPropertyOp20
 70
     1
102
RTVSPropertyOp21
 70
     1
102
RTVSPropertyOp22
 70
     1
102
RTVSPropertyOp23
 70
     1
102
RTVSPropertyOp24
 70
     1
102
RTVSPropertyOp25
 70
     1
102
RTVSPropertyOp26
 70
     1
102
RTVSPropertyOp27
 70
     1
102
RTVSPropertyOp28
 70
     1
102
RTVSPropertyOp29
 70
     1
102
RTVSPropertyOp30
 70
     1
102
RTVSPropertyOp31
 70
     1
102
RTVSPropertyOp32
 70
     1
  0
XRECORD
  5
7C6
102
{ACAD_REACTORS
330
7C5
102
}
330
7C5
100
AcDbXrecord
280
     1
102
RTVSPropertyOp0
 70
     1
102
RTVSPropertyOp1
 70
     1
102
RTVSPropertyOp2
 70
     1
102
RTVSPropertyOp3
 70
     1
102
RTVSPropertyOp4
 70
     1
102
RTVSPropertyOp5
 70
     1
102
RTVSPropertyOp6
 70
     1
102
RTVSPropertyOp7
 70
     1
102
RTVSPropertyOp8
 70
     1
102
RTVSPropertyOp9
 70
     1
102
RTVSPropertyOp10
 70
     1
102
RTVSPropertyOp11
 70
     1
102
RTVSPropertyOp12
 70
     1
102
RTVSPropertyOp13
 70
     1
102
RTVSPropertyOp14
 70
     1
102
RTVSPropertyOp15
 70
     1
102
RTVSPropertyOp16
 70
     1
102
RTVSPropertyOp17
 70
     1
102
RTVSPropertyOp18
 70
     1
102
RTVSPropertyOp19
 70
     1
102
RTVSPropertyOp20
 70
     1
102
RTVSPropertyOp21
 70
     1
102
RTVSPropertyOp22
 70
     1
102
RTVSPropertyOp23
 70
     1
102
RTVSPropertyOp24
 70
     1
102
RTVSPropertyOp25
 70
     1
102
RTVSPropertyOp26
 70
     1
102
RTVSPropertyOp27
 70
     1
102
RTVSPropertyOp28
 70
     1
102
RTVSPropertyOp29
 70
     1
102
RTVSPropertyOp30
 70
     1
102
RTVSPropertyOp31
 70
     1
102
RTVSPropertyOp32
 70
     1
  0
XRECORD
  5
7B3
102
{ACAD_REACTORS
330
7B2
102
}
330
7B2
100
AcDbXrecord
280
     1
102
RTVSPropertyOp0
 70
     1
102
RTVSPropertyOp1
 70
     1
102
RTVSPropertyOp2
 70
     1
102
RTVSPropertyOp3
 70
     1
102
RTVSPropertyOp4
 70
     1
102
RTVSPropertyOp5
 70
     1
102
RTVSPropertyOp6
 70
     1
102
RTVSPropertyOp7
 70
     1
102
RTVSPropertyOp8
 70
     1
102
RTVSPropertyOp9
 70
     1
102
RTVSPropertyOp10
 70
     1
102
RTVSPropertyOp11
 70
     1
102
RTVSPropertyOp12
 70
     1
102
RTVSPropertyOp13
 70
     1
102
RTVSPropertyOp14
 70
     1
102
RTVSPropertyOp15
 70
     1
102
RTVSPropertyOp16
 70
     1
102
RTVSPropertyOp17
 70
     1
102
RTVSPropertyOp18
 70
     1
102
RTVSPropertyOp19
 70
     1
102
RTVSPropertyOp20
 70
     1
102
RTVSPropertyOp21
 70
     1
102
RTVSPropertyOp22
 70
     1
102
RTVSPropertyOp23
 70
     1
102
RTVSPropertyOp24
 70
     1
102
RTVSPropertyOp25
 70
     1
102
RTVSPropertyOp26
 70
     1
102
RTVSPropertyOp27
 70
     1
102
RTVSPropertyOp28
 70
     1
102
RTVSPropertyOp29
 70
     1
102
RTVSPropertyOp30
 70
     1
102
RTVSPropertyOp31
 70
     1
102
RTVSPropertyOp32
 70
     1
  0
XRECORD
  5
7C0
102
{ACAD_REACTORS
330
7BF
102
}
330
7BF
100
AcDbXrecord
280
     1
102
RTVSPropertyOp0
 70
     1
102
RTVSPropertyOp1
 70
     1
102
RTVSPropertyOp2
 70
     1
102
RTVSPropertyOp3
 70
     1
102
RTVSPropertyOp4
 70
     1
102
RTVSPropertyOp5
 70
     1
102
RTVSPropertyOp6
 70
     1
102
RTVSPropertyOp7
 70
     1
102
RTVSPropertyOp8
 70
     1
102
RTVSPropertyOp9
 70
     1
102
RTVSPropertyOp10
 70
     1
102
RTVSPropertyOp11
 70
     1
102
RTVSPropertyOp12
 70
     1
102
RTVSPropertyOp13
 70
     1
102
RTVSPropertyOp14
 70
     1
102
RTVSPropertyOp15
 70
     1
102
RTVSPropertyOp16
 70
     1
102
RTVSPropertyOp17
 70
     1
102
RTVSPropertyOp18
 70
     1
102
RTVSPropertyOp19
 70
     1
102
RTVSPropertyOp20
 70
     1
102
RTVSPropertyOp21
 70
     1
102
RTVSPropertyOp22
 70
     1
102
RTVSPropertyOp23
 70
     1
102
RTVSPropertyOp24
 70
     1
102
RTVSPropertyOp25
 70
     1
102
RTVSPropertyOp26
 70
     1
102
RTVSPropertyOp27
 70
     1
102
RTVSPropertyOp28
 70
     1
102
RTVSPropertyOp29
 70
     1
102
RTVSPropertyOp30
 70
     1
102
RTVSPropertyOp31
 70
     1
102
RTVSPropertyOp32
 70
     1
  0
XRECORD
  5
7C8
102
{ACAD_REACTORS
330
7C7
102
}
330
7C7
100
AcDbXrecord
280
     1
102
RTVSPropertyOp0
 70
     1
102
RTVSPropertyOp1
 70
     1
102
RTVSPropertyOp2
 70
     1
102
RTVSPropertyOp3
 70
     1
102
RTVSPropertyOp4
 70
     1
102
RTVSPropertyOp5
 70
     1
102
RTVSPropertyOp6
 70
     1
102
RTVSPropertyOp7
 70
     1
102
RTVSPropertyOp8
 70
     1
102
RTVSPropertyOp9
 70
     1
102
RTVSPropertyOp10
 70
     1
102
RTVSPropertyOp11
 70
     1
102
RTVSPropertyOp12
 70
     1
102
RTVSPropertyOp13
 70
     1
102
RTVSPropertyOp14
 70
     1
102
RTVSPropertyOp15
 70
     1
102
RTVSPropertyOp16
 70
     1
102
RTVSPropertyOp17
 70
     1
102
RTVSPropertyOp18
 70
     1
102
RTVSPropertyOp19
 70
     1
102
RTVSPropertyOp20
 70
     1
102
RTVSPropertyOp21
 70
     1
102
RTVSPropertyOp22
 70
     1
102
RTVSPropertyOp23
 70
     1
102
RTVSPropertyOp24
 70
     1
102
RTVSPropertyOp25
 70
     1
102
RTVSPropertyOp26
 70
     1
102
RTVSPropertyOp27
 70
     1
102
RTVSPropertyOp28
 70
     1
102
RTVSPropertyOp29
 70
     1
102
RTVSPropertyOp30
 70
     1
102
RTVSPropertyOp31
 70
     1
102
RTVSPropertyOp32
 70
     1
  0
ENDSEC
  0
EOF
