  0
SECTION
  2
HEADER
  9
$ACADVER
  1
AC1015
  9
$ACADMAINTVER
 70
    20
  9
$DWGCODEPAGE
  3
ANSI_932
  9
$INSBASE
 10
0.0
 20
0.0
 30
0.0
  9
$EXTMIN
 10
-210.0133595264679
 20
-138.5095391625302
 30
-0.0015258207003583
  9
$EXTMAX
 10
195.0083242387837
 20
141.3401674656024
 30
0.0000000349246037
  9
$LIMMIN
 10
-210.001
 20
-138.501
  9
$LIMMAX
 10
195.026864
 20
141.331627
  9
$ORTHOMODE
 70
     1
  9
$REGENMODE
 70
     1
  9
$FILLMODE
 70
     1
  9
$QTEXTMODE
 70
     0
  9
$MIRRTEXT
 70
     0
  9
$LTSCALE
 40
6.750430999999997
  9
$ATTMODE
 70
     1
  9
$TEXTSIZE
 40
3.2
  9
$TRACEWID
 40
0.05
  9
$TEXTSTYLE
  7
高3.2
  9
$CLAYER
  8
0
  9
$CELTYPE
  6
CONTINUOUS
  9
$CECOLOR
 62
   256
  9
$CELTSCALE
 40
1.0
  9
$DISPSILH
 70
     0
  9
$DIMSCALE
 40
1.0
  9
$DIMASZ
 40
2.5
  9
$DIMEXO
 40
0.25
  9
$DIMDLI
 40
0.2
  9
$DIMRND
 40
0.0
  9
$DIMDLE
 40
0.0
  9
$DIMEXE
 40
1.25
  9
$DIMTP
 40
0.0
  9
$DIMTM
 40
0.0
  9
$DIMTXT
 40
2.5
  9
$DIMCEN
 40
0.0
  9
$DIMTSZ
 40
0.0
  9
$DIMTOL
 70
     0
  9
$DIMLIM
 70
     0
  9
$DIMTIH
 70
     0
  9
$DIMTOH
 70
     0
  9
$DIMSE1
 70
     0
  9
$DIMSE2
 70
     0
  9
$DIMTAD
 70
     3
  9
$DIMZIN
 70
     8
  9
$DIMBLK
  1
Open30
  9
$DIMASO
 70
     1
  9
$DIMSHO
 70
     1
  9
$DIMPOST
  1

  9
$DIMAPOST
  1

  9
$DIMALT
 70
     0
  9
$DIMALTD
 70
     3
  9
$DIMALTF
 40
0.03937007874016
  9
$DIMLFAC
 40
2.0
  9
$DIMTOFL
 70
     1
  9
$DIMTVP
 40
0.0
  9
$DIMTIX
 70
     0
  9
$DIMSOXD
 70
     0
  9
$DIMSAH
 70
     0
  9
$DIMBLK1
  1

  9
$DIMBLK2
  1

  9
$DIMSTYLE
  2
1／2
  9
$DIMCLRD
 70
     0
  9
$DIMCLRE
 70
     0
  9
$DIMCLRT
 70
     4
  9
$DIMTFAC
 40
1.0
  9
$DIMGAP
 40
0.625
  9
$DIMJUST
 70
     0
  9
$DIMSD1
 70
     0
  9
$DIMSD2
 70
     0
  9
$DIMTOLJ
 70
     0
  9
$DIMTZIN
 70
     8
  9
$DIMALTZ
 70
     0
  9
$DIMALTTZ
 70
     0
  9
$DIMUPT
 70
     1
  9
$DIMDEC
 70
     2
  9
$DIMTDEC
 70
     2
  9
$DIMALTU
 70
     2
  9
$DIMALTTD
 70
     3
  9
$DIMTXSTY
  7
STANDARD
  9
$DIMAUNIT
 70
     0
  9
$DIMADEC
 70
     1
  9
$DIMALTRND
 40
0.0
  9
$DIMAZIN
 70
     2
  9
$DIMDSEP
 70
    46
  9
$DIMATFIT
 70
     0
  9
$DIMFRAC
 70
     0
  9
$DIMLDRBLK
  1
Open30
  9
$DIMLUNIT
 70
     2
  9
$DIMLWD
 70
    -2
  9
$DIMLWE
 70
    -2
  9
$DIMTMOVE
 70
     0
  9
$LUNITS
 70
     2
  9
$LUPREC
 70
     4
  9
$SKETCHINC
 40
0.1
  9
$FILLETRAD
 40
0.0
  9
$AUNITS
 70
     0
  9
$AUPREC
 70
     0
  9
$MENU
  1
.
  9
$ELEVATION
 40
0.0
  9
$PELEVATION
 40
0.0
  9
$THICKNESS
 40
0.0
  9
$LIMCHECK
 70
     0
  9
$CHAMFERA
 40
0.0
  9
$CHAMFERB
 40
0.0
  9
$CHAMFERC
 40
0.0
  9
$CHAMFERD
 40
0.0
  9
$SKPOLY
 70
     0
  9
$TDCREATE
 40
2455553.555372176
  9
$TDUCREATE
 40
2455553.180372176
  9
$TDUPDATE
 40
2459548.737068345
  9
$TDUUPDATE
 40
2459548.362068345
  9
$TDINDWG
 40
0.0759341782
  9
$TDUSRTIMER
 40
0.0759250116
  9
$USRTIMER
 70
     1
  9
$ANGBASE
 50
0.0
  9
$ANGDIR
 70
     0
  9
$PDMODE
 70
     0
  9
$PDSIZE
 40
0.0
  9
$PLINEWID
 40
0.0
  9
$SPLFRAME
 70
     0
  9
$SPLINETYPE
 70
     6
  9
$SPLINESEGS
 70
     8
  9
$HANDSEED
  5
1128
  9
$SURFTAB1
 70
     6
  9
$SURFTAB2
 70
     6
  9
$SURFTYPE
 70
     6
  9
$SURFU
 70
     6
  9
$SURFV
 70
     6
  9
$UCSBASE
  2

  9
$UCSNAME
  2

  9
$UCSORG
 10
0.0
 20
0.0
 30
0.0
  9
$UCSXDIR
 10
1.0
 20
0.0
 30
0.0
  9
$UCSYDIR
 10
0.0
 20
1.0
 30
0.0
  9
$UCSORTHOREF
  2

  9
$UCSORTHOVIEW
 70
     0
  9
$UCSORGTOP
 10
0.0
 20
0.0
 30
0.0
  9
$UCSORGBOTTOM
 10
0.0
 20
0.0
 30
0.0
  9
$UCSORGLEFT
 10
0.0
 20
0.0
 30
0.0
  9
$UCSORGRIGHT
 10
0.0
 20
0.0
 30
0.0
  9
$UCSORGFRONT
 10
0.0
 20
0.0
 30
0.0
  9
$UCSORGBACK
 10
0.0
 20
0.0
 30
0.0
  9
$PUCSBASE
  2

  9
$PUCSNAME
  2

  9
$PUCSORG
 10
0.0
 20
0.0
 30
0.0
  9
$PUCSXDIR
 10
1.0
 20
0.0
 30
0.0
  9
$PUCSYDIR
 10
0.0
 20
1.0
 30
0.0
  9
$PUCSORTHOREF
  2

  9
$PUCSORTHOVIEW
 70
     0
  9
$PUCSORGTOP
 10
0.0
 20
0.0
 30
0.0
  9
$PUCSORGBOTTOM
 10
0.0
 20
0.0
 30
0.0
  9
$PUCSORGLEFT
 10
0.0
 20
0.0
 30
0.0
  9
$PUCSORGRIGHT
 10
0.0
 20
0.0
 30
0.0
  9
$PUCSORGFRONT
 10
0.0
 20
0.0
 30
0.0
  9
$PUCSORGBACK
 10
0.0
 20
0.0
 30
0.0
  9
$USERI1
 70
     0
  9
$USERI2
 70
     0
  9
$USERI3
 70
     0
  9
$USERI4
 70
     0
  9
$USERI5
 70
     0
  9
$USERR1
 40
0.0
  9
$USERR2
 40
0.0
  9
$USERR3
 40
0.0
  9
$USERR4
 40
0.0
  9
$USERR5
 40
0.0
  9
$WORLDVIEW
 70
     1
  9
$SHADEDGE
 70
     3
  9
$SHADEDIF
 70
    70
  9
$TILEMODE
 70
     1
  9
$MAXACTVP
 70
    64
  9
$PINSBASE
 10
0.0
 20
0.0
 30
0.0
  9
$PLIMCHECK
 70
     0
  9
$PEXTMIN
 10
1.000000000000000E+20
 20
1.000000000000000E+20
 30
1.000000000000000E+20
  9
$PEXTMAX
 10
-1.000000000000000E+20
 20
-1.000000000000000E+20
 30
-1.000000000000000E+20
  9
$PLIMMIN
 10
0.0
 20
0.0
  9
$PLIMMAX
 10
12.0
 20
9.0
  9
$UNITMODE
 70
     0
  9
$VISRETAIN
 70
     1
  9
$PLINEGEN
 70
     0
  9
$PSLTSCALE
 70
     1
  9
$TREEDEPTH
 70
  3020
  9
$CMLSTYLE
  2
Standard
  9
$CMLJUST
 70
     0
  9
$CMLSCALE
 40
1.0
  9
$PROXYGRAPHICS
 70
     1
  9
$MEASUREMENT
 70
     0
  9
$CELWEIGHT
370
    -1
  9
$ENDCAPS
280
     0
  9
$JOINSTYLE
280
     0
  9
$LWDISPLAY
290
     0
  9
$INSUNITS
 70
     0
  9
$HYPERLINKBASE
  1

  9
$STYLESHEET
  1
n-plot.ctb
  9
$XEDIT
290
     1
  9
$CEPSNTYPE
380
     0
  9
$PSTYLEMODE
290
     1
  9
$FINGERPRINTGUID
  2
{3023903E-962F-40CC-A07B-0AE00ABCDDD4}
  9
$VERSIONGUID
  2
{AA9679A2-E24E-45E3-BCE8-514C99A492F1}
  9
$EXTNAMES
290
     1
  9
$PSVPSCALE
 40
0.0
  9
$OLESTARTUP
290
     0
  0
ENDSEC
  0
SECTION
  2
CLASSES
  0
CLASS
  1
ACDBDICTIONARYWDFLT
  2
AcDbDictionaryWithDefault
  3
ObjectDBX Classes
 90
        0
280
     0
281
     0
  0
CLASS
  1
MATERIAL
  2
AcDbMaterial
  3
ObjectDBX Classes
 90
     1153
280
     0
281
     0
  0
CLASS
  1
VISUALSTYLE
  2
AcDbVisualStyle
  3
ObjectDBX Classes
 90
     4095
280
     0
281
     0
  0
CLASS
  1
TABLESTYLE
  2
AcDbTableStyle
  3
ObjectDBX Classes
 90
     4095
280
     0
281
     0
  0
CLASS
  1
DICTIONARYVAR
  2
AcDbDictionaryVar
  3
ObjectDBX Classes
 90
        0
280
     0
281
     0
  0
CLASS
  1
ACDBPLACEHOLDER
  2
AcDbPlaceHolder
  3
ObjectDBX Classes
 90
        0
280
     0
281
     0
  0
CLASS
  1
LAYOUT
  2
AcDbLayout
  3
ObjectDBX Classes
 90
        0
280
     0
281
     0
  0
CLASS
  1
SORTENTSTABLE
  2
AcDbSortentsTable
  3
ObjectDBX Classes
 90
        0
280
     0
281
     0
  0
CLASS
  1
SCALE
  2
AcDbScale
  3
ObjectDBX Classes
 90
     1153
280
     0
281
     0
  0
CLASS
  1
MLEADERSTYLE
  2
AcDbMLeaderStyle
  3
ACDB_MLEADERSTYLE_CLASS
 90
     4095
280
     0
281
     0
  0
CLASS
  1
CELLSTYLEMAP
  2
AcDbCellStyleMap
  3
ObjectDBX Classes
 90
     1152
280
     0
281
     0
  0
CLASS
  1
AEC_REFEDIT_STATUS_TRACKER
  2
AecDbRefEditStatusTracker
  3
AecArchBase60|Product Desc: Autodesk Architectural Desktop 2007 |Company: Autodesk,Inc. |WEB Address: www.autodesk.com
 90
      129
280
     0
281
     0
  0
CLASS
  1
NPOCOLLECTION
  2
AcDbImpNonPersistentObjectsCollection
  3
ObjectDBX Classes
 90
     1153
280
     0
281
     0
  0
ENDSEC
  0
SECTION
  2
TABLES
  0
TABLE
  2
VPORT
  5
8
330
0
100
AcDbSymbolTable
 70
     1
  0
VPORT
  5
56
330
8
100
AcDbSymbolTableRecord
100
AcDbViewportTableRecord
  2
*Active
 70
     0
 10
0.0
 20
0.0
 11
1.0
 21
1.0
 12
1.986336379149406
 22
-21.2949519454331
 13
0.0
 23
0.0
 14
1.0
 24
1.0
 15
0.0
 25
0.0
 16
0.0
 26
0.0
 36
1.0
 17
0.0
 27
0.0
 37
0.0
 40
461.3705361085544
 41
1.412556053811659
 42
50.0
 43
0.0
 44
0.0
 50
0.0
 51
0.0
 71
     0
 72
  1000
 73
     1
 74
     1
 75
     0
 76
     0
 77
     0
 78
     0
281
     0
 65
     1
110
0.0
120
0.0
130
0.0
111
1.0
121
0.0
131
0.0
112
0.0
122
1.0
132
0.0
 79
     0
146
0.0
  0
ENDTAB
  0
TABLE
  2
LTYPE
  5
5
330
0
100
AcDbSymbolTable
 70
     5
  0
LTYPE
  5
28
330
5
100
AcDbSymbolTableRecord
100
AcDbLinetypeTableRecord
  2
ByBlock
 70
     0
  3

 72
    65
 73
     0
 40
0.0
  0
LTYPE
  5
29
330
5
100
AcDbSymbolTableRecord
100
AcDbLinetypeTableRecord
  2
ByLayer
 70
     0
  3

 72
    65
 73
     0
 40
0.0
  0
LTYPE
  5
2A
330
5
100
AcDbSymbolTableRecord
100
AcDbLinetypeTableRecord
  2
CONTINUOUS
 70
     0
  3
Solid-line
 72
    65
 73
     0
 40
0.0
  0
LTYPE
  5
3D
330
5
100
AcDbSymbolTableRecord
100
AcDbLinetypeTableRecord
  2
CENTER
 70
     0
  3
CENTER
 72
    65
 73
     4
 40
2.0
 49
1.25
 74
     0
 49
-0.25
 74
     0
 49
0.25
 74
     0
 49
-0.25
 74
     0
  0
LTYPE
  5
4C
330
5
100
AcDbSymbolTableRecord
100
AcDbLinetypeTableRecord
  2
HIDDEN
 70
     0
  3
HIDDEN
 72
    65
 73
     2
 40
0.375
 49
0.25
 74
     0
 49
-0.125
 74
     0
  0
LTYPE
  5
4F
330
5
100
AcDbSymbolTableRecord
100
AcDbLinetypeTableRecord
  2
PHANTOM
 70
     0
  3
PHANTOM
 72
    65
 73
     6
 40
2.5
 49
1.25
 74
     0
 49
-0.25
 74
     0
 49
0.25
 74
     0
 49
-0.25
 74
     0
 49
0.25
 74
     0
 49
-0.25
 74
     0
  0
ENDTAB
  0
TABLE
  2
LAYER
  5
2
102
{ACAD_XDICTIONARY
360
41B
102
}
330
0
100
AcDbSymbolTable
 70
     2
  0
LAYER
  5
25
102
{ACAD_XDICTIONARY
360
9AA
102
}
330
2
100
AcDbSymbolTableRecord
100
AcDbLayerTableRecord
  2
0
 70
     0
 62
     7
  6
CONTINUOUS
370
    -3
390
F
  0
LAYER
  5
412
330
2
100
AcDbSymbolTableRecord
100
AcDbLayerTableRecord
  2
Defpoints
 70
     0
 62
     7
  6
CONTINUOUS
290
     0
370
    -3
390
F
  0
ENDTAB
  0
TABLE
  2
STYLE
  5
3
330
0
100
AcDbSymbolTable
 70
     8
  0
STYLE
  5
26
330
3
100
AcDbSymbolTableRecord
100
AcDbTextStyleTableRecord
  2
STANDARD
 70
     0
 40
3.2
 41
1.0
 50
0.0
 71
     0
 42
0.2
  3
TXT.shx
  4
BIGFONT.shx
  0
STYLE
  5
413
330
3
100
AcDbSymbolTableRecord
100
AcDbTextStyleTableRecord
  2
高3.2
 70
     0
 40
3.2
 41
1.0
 50
0.0
 71
     0
 42
3.2
  3
txt.shx
  4
bigfont.shx
  0
STYLE
  5
7E1
330
3
100
AcDbSymbolTableRecord
100
AcDbTextStyleTableRecord
  2
高6.3
 70
     0
 40
6.299999999999998
 41
1.0
 50
0.0
 71
     0
 42
6.299999999999998
  3
txt.shx
  4
bigfont.shx
  0
STYLE
  5
7E2
330
3
100
AcDbSymbolTableRecord
100
AcDbTextStyleTableRecord
  2
高2.5
 70
     0
 40
2.5
 41
1.0
 50
0.0
 71
     0
 42
0.2
  3
txt.shx
  4
bigfont.shx
  0
STYLE
  5
7E3
330
3
100
AcDbSymbolTableRecord
100
AcDbTextStyleTableRecord
  2
高4.5
 70
     0
 40
4.5
 41
1.0
 50
0.0
 71
     0
 42
6.299999999999998
  3
txt.shx
  4
bigfont.shx
  0
STYLE
  5
7E4
330
3
100
AcDbSymbolTableRecord
100
AcDbTextStyleTableRecord
  2
高2
 70
     0
 40
2.0
 41
1.0
 50
0.0
 71
     0
 42
2.0
  3
txt.shx
  4
bigfont.shx
  0
ENDTAB
  0
TABLE
  2
VIEW
  5
6
330
0
100
AcDbSymbolTable
 70
     0
  0
ENDTAB
  0
TABLE
  2
UCS
  5
7
330
0
100
AcDbSymbolTable
 70
     0
  0
ENDTAB
  0
TABLE
  2
APPID
  5
9
330
0
100
AcDbSymbolTable
 70
    10
  0
APPID
  5
27
330
9
100
AcDbSymbolTableRecord
100
AcDbRegAppTableRecord
  2
ACAD
 70
     0
  0
APPID
  5
41A
330
9
100
AcDbSymbolTableRecord
100
AcDbRegAppTableRecord
  2
ACAD_DSTYLE_DIMJOGGED_JOGANGLE_SYMBOL
 70
     0
  0
APPID
  5
63E
330
9
100
AcDbSymbolTableRecord
100
AcDbRegAppTableRecord
  2
ACAD_DSTYLE_DIMARC_LENGTH_SYMBOL
 70
     0
  0
APPID
  5
63F
330
9
100
AcDbSymbolTableRecord
100
AcDbRegAppTableRecord
  2
ACAD_DSTYLE_DIMEXT_LENGTH
 70
     0
  0
APPID
  5
7E9
330
9
100
AcDbSymbolTableRecord
100
AcDbRegAppTableRecord
  2
ACAD_DSTYLE_DIMJAG
 70
     0
  0
APPID
  5
7EA
330
9
100
AcDbSymbolTableRecord
100
AcDbRegAppTableRecord
  2
ACAD_DSTYLE_DIMBREAK
 70
     0
  0
APPID
  5
7EB
330
9
100
AcDbSymbolTableRecord
100
AcDbRegAppTableRecord
  2
ACAD_DSTYLE_DIMTALN
 70
     0
  0
APPID
  5
92A
330
9
100
AcDbSymbolTableRecord
100
AcDbRegAppTableRecord
  2
ACAD_EXEMPT_FROM_CAD_STANDARDS
 70
     0
  0
APPID
  5
9F0
330
9
100
AcDbSymbolTableRecord
100
AcDbRegAppTableRecord
  2
ACAD_MLEADERVER
 70
     0
  0
APPID
  5
F63
330
9
100
AcDbSymbolTableRecord
100
AcDbRegAppTableRecord
  2
ACAD_PSEXT
 70
     0
  0
ENDTAB
  0
TABLE
  2
DIMSTYLE
  5
A
330
0
100
AcDbSymbolTable
 70
    13
100
AcDbDimStyleTable
 71
     2
340
417
340
414
  0
DIMSTYLE
105
3CA
330
A
100
AcDbSymbolTableRecord
100
AcDbDimStyleTableRecord
  2
Standard
 70
     0
340
26
  0
DIMSTYLE
105
414
330
A
100
AcDbSymbolTableRecord
100
AcDbDimStyleTableRecord
  2
1：1
 70
     0
 41
2.5
 42
0.25
 43
0.2
 44
1.25
 73
     0
 74
     0
 77
     3
 78
     8
 79
     2
140
2.5
141
0.0
143
0.03937007874016
147
0.625
171
     3
172
     1
178
     4
179
     1
271
     2
272
     2
274
     3
283
     0
284
     8
288
     1
289
     0
340
26
341
400
342
400
1001
ACAD_DSTYLE_DIMARC_LENGTH_SYMBOL
1070
   379
1070
     2
1001
ACAD_DSTYLE_DIMEXT_LENGTH
1070
   378
1040
1.25
1001
ACAD_DSTYLE_DIMJOGGED_JOGANGLE_SYMBOL
1070
   384
1040
1.570796326794896
  0
DIMSTYLE
105
415
330
A
100
AcDbSymbolTableRecord
100
AcDbDimStyleTableRecord
  2
2：1
 70
     0
 41
2.5
 42
0.25
 43
0.2
 44
1.25
 73
     0
 74
     0
 77
     3
 78
     8
 79
     2
140
2.5
141
0.0
143
0.03937007874016
144
0.5
147
0.625
171
     3
172
     1
178
     4
179
     1
271
     2
272
     2
274
     3
283
     0
284
     8
288
     1
289
     0
340
26
341
400
342
400
1001
ACAD_DSTYLE_DIMARC_LENGTH_SYMBOL
1070
   379
1070
     2
1001
ACAD_DSTYLE_DIMEXT_LENGTH
1070
   378
1040
1.25
1001
ACAD_DSTYLE_DIMJOGGED_JOGANGLE_SYMBOL
1070
   384
1040
1.570796326794896
  0
DIMSTYLE
105
416
330
A
100
AcDbSymbolTableRecord
100
AcDbDimStyleTableRecord
  2
5：1
 70
     0
 41
2.5
 42
0.25
 43
0.2
 44
1.25
 73
     0
 74
     0
 77
     3
 78
     8
 79
     2
140
2.5
141
0.0
143
0.03937007874016
144
0.2
147
0.625
171
     3
178
     4
179
     1
271
     2
272
     2
274
     3
283
     0
284
     8
288
     1
289
     0
340
26
341
400
342
400
1001
ACAD_DSTYLE_DIMARC_LENGTH_SYMBOL
1070
   379
1070
     2
1001
ACAD_DSTYLE_DIMEXT_LENGTH
1070
   378
1040
1.25
1001
ACAD_DSTYLE_DIMJOGGED_JOGANGLE_SYMBOL
1070
   384
1040
1.570796326794896
  0
DIMSTYLE
105
417
330
A
100
AcDbSymbolTableRecord
100
AcDbDimStyleTableRecord
  2
1／2
 70
     0
 41
2.5
 42
0.25
 43
0.2
 44
1.25
 73
     0
 74
     0
 77
     3
 78
     8
 79
     2
140
2.5
141
0.0
143
0.03937007874016
144
2.0
147
0.625
171
     3
172
     1
178
     4
179
     1
271
     2
272
     2
274
     3
283
     0
284
     8
288
     1
289
     0
340
26
341
400
342
400
1001
ACAD_DSTYLE_DIMARC_LENGTH_SYMBOL
1070
   379
1070
     2
1001
ACAD_DSTYLE_DIMEXT_LENGTH
1070
   378
1040
1.25
1001
ACAD_DSTYLE_DIMJOGGED_JOGANGLE_SYMBOL
1070
   384
1040
1.570796326794896
  0
DIMSTYLE
105
418
330
A
100
AcDbSymbolTableRecord
100
AcDbDimStyleTableRecord
  2
1／5
 70
     0
 41
2.5
 42
0.25
 43
0.2
 44
1.25
 73
     0
 74
     0
 77
     3
 78
     8
 79
     2
140
2.5
141
0.0
143
0.03937007874016
144
5.0
147
0.625
171
     3
172
     1
178
     4
179
     1
271
     2
272
     2
274
     3
283
     0
284
     8
288
     1
289
     0
340
26
341
400
342
400
1001
ACAD_DSTYLE_DIMARC_LENGTH_SYMBOL
1070
   379
1070
     2
1001
ACAD_DSTYLE_DIMEXT_LENGTH
1070
   378
1040
1.25
1001
ACAD_DSTYLE_DIMJOGGED_JOGANGLE_SYMBOL
1070
   384
1040
1.570796326794896
  0
DIMSTYLE
105
419
330
A
100
AcDbSymbolTableRecord
100
AcDbDimStyleTableRecord
  2
1／10
 70
     0
 41
2.5
 42
0.25
 43
0.2
 44
1.25
 73
     0
 74
     0
 77
     3
 78
     8
 79
     2
140
2.5
141
0.0
143
0.03937007874016
144
10.0
147
0.625
171
     3
172
     1
178
     4
179
     1
271
     2
272
     2
274
     3
283
     0
284
     8
288
     1
289
     0
340
26
341
400
342
400
1001
ACAD_DSTYLE_DIMARC_LENGTH_SYMBOL
1070
   379
1070
     2
1001
ACAD_DSTYLE_DIMEXT_LENGTH
1070
   378
1040
1.25
1001
ACAD_DSTYLE_DIMJOGGED_JOGANGLE_SYMBOL
1070
   384
1040
1.570796326794896
  0
DIMSTYLE
105
7E5
330
A
100
AcDbSymbolTableRecord
100
AcDbDimStyleTableRecord
  2
10：1
 70
     0
 41
2.5
 42
0.25
 43
0.2
 44
1.25
 73
     0
 74
     0
 77
     3
 78
     8
 79
     2
140
3.0
141
0.0
143
0.03937007874016
144
0.1
147
0.625
171
     3
172
     1
178
     4
179
     1
271
     2
272
     2
274
     3
283
     0
284
     8
288
     1
289
     0
340
26
341
400
342
400
1001
ACAD_DSTYLE_DIMARC_LENGTH_SYMBOL
1070
   379
1070
     2
1001
ACAD_DSTYLE_DIMEXT_LENGTH
1070
   378
1040
1.25
1001
ACAD_DSTYLE_DIMJOGGED_JOGANGLE_SYMBOL
1070
   384
1040
1.570796326794896
  0
DIMSTYLE
105
7E6
330
A
100
AcDbSymbolTableRecord
100
AcDbDimStyleTableRecord
  2
1／4
 70
     0
 41
2.5
 42
0.25
 43
0.2
 44
1.25
 73
     0
 74
     0
 77
     3
 78
     8
 79
     2
140
3.0
141
0.0
143
0.03937007874016
144
4.0
147
0.625
171
     3
172
     1
178
     4
179
     1
271
     2
272
     2
274
     3
283
     0
284
     8
288
     1
289
     0
340
26
341
400
342
400
1001
ACAD_DSTYLE_DIMARC_LENGTH_SYMBOL
1070
   379
1070
     2
1001
ACAD_DSTYLE_DIMEXT_LENGTH
1070
   378
1040
1.25
1001
ACAD_DSTYLE_DIMJOGGED_JOGANGLE_SYMBOL
1070
   384
1040
1.570796326794896
  0
DIMSTYLE
105
7E7
330
A
100
AcDbSymbolTableRecord
100
AcDbDimStyleTableRecord
  2
1／3
 70
     0
 41
2.5
 42
0.25
 43
0.2
 44
1.25
 73
     0
 74
     0
 77
     3
 78
     8
 79
     2
140
3.0
141
0.0
143
0.03937007874016
144
3.0
147
0.625
171
     3
172
     1
178
     4
179
     1
271
     2
272
     2
274
     3
283
     0
284
     8
288
     1
289
     0
340
26
341
400
342
400
1001
ACAD_DSTYLE_DIMARC_LENGTH_SYMBOL
1070
   379
1070
     2
1001
ACAD_DSTYLE_DIMEXT_LENGTH
1070
   378
1040
1.25
1001
ACAD_DSTYLE_DIMJOGGED_JOGANGLE_SYMBOL
1070
   384
1040
1.570796326794896
  0
DIMSTYLE
105
7E8
330
A
100
AcDbSymbolTableRecord
100
AcDbDimStyleTableRecord
  2
FREE
 70
     0
 41
2.5
 42
0.25
 43
0.2
 44
1.25
 73
     0
 74
     0
 77
     3
 78
     8
 79
     2
140
3.0
141
0.0
143
0.03937007874016
147
0.625
171
     3
172
     1
178
     4
179
     1
271
     2
272
     2
274
     3
283
     0
284
     8
288
     1
289
     0
340
26
341
400
342
400
1001
ACAD_DSTYLE_DIMBREAK
1070
   391
1040
3.75
1001
ACAD_DSTYLE_DIMJAG
1070
   388
1040
1.5
1001
ACAD_DSTYLE_DIMTALN
1070
   392
1070
     0
1001
ACAD_DSTYLE_DIMARC_LENGTH_SYMBOL
1070
   379
1070
     2
1001
ACAD_DSTYLE_DIMEXT_LENGTH
1070
   378
1040
1.25
1001
ACAD_DSTYLE_DIMJOGGED_JOGANGLE_SYMBOL
1070
   384
1040
1.570796326794896
  0
ENDTAB
  0
TABLE
  2
BLOCK_RECORD
  5
1
330
0
100
AcDbSymbolTable
 70
    29
  0
BLOCK_RECORD
  5
36
102
{ACAD_XDICTIONARY
360
3E7
102
}
330
1
100
AcDbSymbolTableRecord
100
AcDbBlockTableRecord
  2
*Model_Space
340
39
  0
BLOCK_RECORD
  5
32
330
1
100
AcDbSymbolTableRecord
100
AcDbBlockTableRecord
  2
*Paper_Space
340
35
  0
BLOCK_RECORD
  5
400
330
1
100
AcDbSymbolTableRecord
100
AcDbBlockTableRecord
  2
_Open30
340
0
102
{BLKREFS
331
8C4
331
8C5
331
8CF
331
8D0
331
8DA
331
8DB
331
8E5
331
8E6
331
8F0
331
8F1
331
8FB
331
8FC
331
905
331
906
331
910
331
911
331
91B
331
91C
331
924
331
925
331
A6F
331
A70
331
E2D
331
E2E
331
E36
331
E37
331
E3F
331
E40
331
E48
331
E49
331
E51
331
E52
331
E5A
331
E5B
331
E63
331
E64
331
E6C
331
E6D
331
E75
331
E76
331
E80
331
E81
331
E8B
331
E8C
331
E96
331
E97
331
EBA
331
EBB
331
EC3
331
EC4
331
ECC
331
ECD
102
}
  0
BLOCK_RECORD
  5
43B
330
1
100
AcDbSymbolTableRecord
100
AcDbBlockTableRecord
  2
*D1
340
0
  0
BLOCK_RECORD
  5
447
330
1
100
AcDbSymbolTableRecord
100
AcDbBlockTableRecord
  2
*D2
340
0
  0
BLOCK_RECORD
  5
453
330
1
100
AcDbSymbolTableRecord
100
AcDbBlockTableRecord
  2
*D3
340
0
  0
BLOCK_RECORD
  5
45F
330
1
100
AcDbSymbolTableRecord
100
AcDbBlockTableRecord
  2
*D4
340
0
  0
BLOCK_RECORD
  5
480
330
1
100
AcDbSymbolTableRecord
100
AcDbBlockTableRecord
  2
*D5
340
0
  0
BLOCK_RECORD
  5
495
330
1
100
AcDbSymbolTableRecord
100
AcDbBlockTableRecord
  2
*D6
340
0
  0
BLOCK_RECORD
  5
4A1
330
1
100
AcDbSymbolTableRecord
100
AcDbBlockTableRecord
  2
*D7
340
0
  0
BLOCK_RECORD
  5
4AD
330
1
100
AcDbSymbolTableRecord
100
AcDbBlockTableRecord
  2
*D8
340
0
  0
BLOCK_RECORD
  5
4B9
330
1
100
AcDbSymbolTableRecord
100
AcDbBlockTableRecord
  2
*D9
340
0
  0
BLOCK_RECORD
  5
4C5
330
1
100
AcDbSymbolTableRecord
100
AcDbBlockTableRecord
  2
*D10
340
0
  0
BLOCK_RECORD
  5
4D3
330
1
100
AcDbSymbolTableRecord
100
AcDbBlockTableRecord
  2
*D11
340
0
  0
BLOCK_RECORD
  5
4DF
330
1
100
AcDbSymbolTableRecord
100
AcDbBlockTableRecord
  2
*D12
340
0
  0
BLOCK_RECORD
  5
836
330
1
100
AcDbSymbolTableRecord
100
AcDbBlockTableRecord
  2
*D13
340
0
  0
BLOCK_RECORD
  5
844
330
1
100
AcDbSymbolTableRecord
100
AcDbBlockTableRecord
  2
*D14
340
0
  0
BLOCK_RECORD
  5
852
330
1
100
AcDbSymbolTableRecord
100
AcDbBlockTableRecord
  2
*D15
340
0
  0
BLOCK_RECORD
  5
860
330
1
100
AcDbSymbolTableRecord
100
AcDbBlockTableRecord
  2
*D16
340
0
  0
BLOCK_RECORD
  5
86E
330
1
100
AcDbSymbolTableRecord
100
AcDbBlockTableRecord
  2
*D17
340
0
  0
BLOCK_RECORD
  5
87C
330
1
100
AcDbSymbolTableRecord
100
AcDbBlockTableRecord
  2
*D18
340
0
  0
BLOCK_RECORD
  5
88A
330
1
100
AcDbSymbolTableRecord
100
AcDbBlockTableRecord
  2
*D19
340
0
  0
BLOCK_RECORD
  5
897
330
1
100
AcDbSymbolTableRecord
100
AcDbBlockTableRecord
  2
*D20
340
0
  0
BLOCK_RECORD
  5
8A5
330
1
100
AcDbSymbolTableRecord
100
AcDbBlockTableRecord
  2
*D21
340
0
  0
BLOCK_RECORD
  5
8B3
330
1
100
AcDbSymbolTableRecord
100
AcDbBlockTableRecord
  2
*D22
340
0
  0
BLOCK_RECORD
  5
A69
330
1
100
AcDbSymbolTableRecord
100
AcDbBlockTableRecord
  2
*D23
340
0
  0
BLOCK_RECORD
  5
A76
330
1
100
AcDbSymbolTableRecord
100
AcDbBlockTableRecord
  2
*D24
340
0
  0
BLOCK_RECORD
  5
A8D
330
1
100
AcDbSymbolTableRecord
100
AcDbBlockTableRecord
  2
*D25
340
0
  0
BLOCK_RECORD
  5
ABC
330
1
100
AcDbSymbolTableRecord
100
AcDbBlockTableRecord
  2
*D26
340
0
  0
ENDTAB
  0
ENDSEC
  0
SECTION
  2
BLOCKS
  0
BLOCK
  5
37
330
36
100
AcDbEntity
  8
0
100
AcDbBlockBegin
  2
*Model_Space
 70
     0
 10
0.0
 20
0.0
 30
0.0
  3
*Model_Space
  1

  0
ENDBLK
  5
38
330
36
100
AcDbEntity
  8
0
100
AcDbBlockEnd
  0
BLOCK
  5
33
330
32
100
AcDbEntity
 67
     1
  8
0
100
AcDbBlockBegin
  2
*Paper_Space
 70
     0
 10
0.0
 20
0.0
 30
0.0
  3
*Paper_Space
  1

  0
ENDBLK
  5
34
330
32
100
AcDbEntity
 67
     1
  8
0
100
AcDbBlockEnd
  0
BLOCK
  5
401
330
400
100
AcDbEntity
  8
0
100
AcDbBlockBegin
  2
_Open30
 70
     0
 10
0.0
 20
0.0
 30
0.0
  3
_Open30
  1

  0
LINE
  5
402
330
400
100
AcDbEntity
  8
0
  6
ByBlock
 62
     0
370
    -2
100
AcDbLine
 10
-1.0
 20
0.267949
 30
0.0
 11
0.0
 21
0.0
 31
0.0
  0
LINE
  5
403
330
400
100
AcDbEntity
  8
0
  6
ByBlock
 62
     0
370
    -2
100
AcDbLine
 10
0.0
 20
0.0
 30
0.0
 11
-1.0
 21
-0.267949
 31
0.0
  0
LINE
  5
404
330
400
100
AcDbEntity
  8
0
  6
ByBlock
 62
     0
370
    -2
100
AcDbLine
 10
0.0
 20
0.0
 30
0.0
 11
-1.0
 21
0.0
 31
0.0
  0
ENDBLK
  5
405
330
400
100
AcDbEntity
  8
0
100
AcDbBlockEnd
  0
BLOCK
  5
445
330
43B
100
AcDbEntity
  8
0
100
AcDbBlockBegin
  2
*D1
 70
     1
 10
0.0
 20
0.0
 30
0.0
  3
*D1
  1

  0
LINE
  5
E2A
330
43B
100
AcDbEntity
  8
0
 62
     0
370
    -2
100
AcDbLine
 10
63.539163
 20
-4.029655999999998
 30
0.0
 11
63.539163
 21
-20.614368
 31
0.0
  0
LINE
  5
E2B
330
43B
100
AcDbEntity
  8
0
 62
     0
370
    -2
100
AcDbLine
 10
96.03916300000001
 20
-4.029655999999998
 30
0.0
 11
96.03916300000001
 21
-20.614368
 31
0.0
  0
LINE
  5
E2C
330
43B
100
AcDbEntity
  8
0
 62
     0
370
    -2
100
AcDbLine
 10
66.039163
 20
-19.364368
 30
0.0
 11
93.53916299999999
 21
-19.364368
 31
0.0
  0
INSERT
  5
E2D
330
43B
100
AcDbEntity
  8
0
 62
     0
370
    -2
100
AcDbBlockReference
  2
_Open30
 10
63.539163
 20
-19.364368
 30
0.0
 41
2.5
 42
2.5
 43
2.5
 50
180.0
  0
INSERT
  5
E2E
330
43B
100
AcDbEntity
  8
0
 62
     0
370
    -2
100
AcDbBlockReference
  2
_Open30
 10
96.03916300000001
 20
-19.364368
 30
0.0
 41
2.5
 42
2.5
 43
2.5
  0
MTEXT
  5
E2F
330
43B
100
AcDbEntity
  8
0
 62
     4
100
AcDbMText
 10
79.789163
 20
-17.139368
 30
0.0
 40
3.2
 41
0.0
 71
     5
 72
     1
  1
65
 73
     1
 44
1.0
1001
ACAD
1000
MTEXTBEGIN
1070
    73
1070
     1
1070
    44
1040
1.0
1070
    74
1070
     0
1000
MTEXTEND
  0
POINT
  5
E30
330
43B
100
AcDbEntity
  8
Defpoints
 62
     0
100
AcDbPoint
 10
63.539163
 20
-3.779655999999998
 30
0.0
  0
POINT
  5
E31
330
43B
100
AcDbEntity
  8
Defpoints
 62
     0
100
AcDbPoint
 10
96.03916300000001
 20
-3.779655999999998
 30
0.0
  0
POINT
  5
E32
330
43B
100
AcDbEntity
  8
Defpoints
 62
     0
100
AcDbPoint
 10
96.03916300000001
 20
-19.364368
 30
0.0
  0
ENDBLK
  5
446
330
43B
100
AcDbEntity
  8
0
100
AcDbBlockEnd
  0
BLOCK
  5
451
330
447
100
AcDbEntity
  8
0
100
AcDbBlockBegin
  2
*D2
 70
     1
 10
0.0
 20
0.0
 30
0.0
  3
*D2
  1

  0
LINE
  5
E33
330
447
100
AcDbEntity
  8
0
 62
     0
370
    -2
100
AcDbLine
 10
70.289163
 20
5.11615
 30
0.0
 11
70.289163
 21
-13.340081
 31
0.0
  0
LINE
  5
E34
330
447
100
AcDbEntity
  8
0
 62
     0
370
    -2
100
AcDbLine
 10
89.289163
 20
5.11615
 30
0.0
 11
89.289163
 21
-13.340081
 31
0.0
  0
LINE
  5
E35
330
447
100
AcDbEntity
  8
0
 62
     0
370
    -2
100
AcDbLine
 10
72.789163
 20
-12.090081
 30
0.0
 11
86.789163
 21
-12.090081
 31
0.0
  0
INSERT
  5
E36
330
447
100
AcDbEntity
  8
0
 62
     0
370
    -2
100
AcDbBlockReference
  2
_Open30
 10
70.289163
 20
-12.090081
 30
0.0
 41
2.5
 42
2.5
 43
2.5
 50
180.0
  0
INSERT
  5
E37
330
447
100
AcDbEntity
  8
0
 62
     0
370
    -2
100
AcDbBlockReference
  2
_Open30
 10
89.289163
 20
-12.090081
 30
0.0
 41
2.5
 42
2.5
 43
2.5
  0
MTEXT
  5
E38
330
447
100
AcDbEntity
  8
0
 62
     4
100
AcDbMText
 10
79.789163
 20
-9.865080999999999
 30
0.0
 40
3.2
 41
0.0
 71
     5
 72
     1
  1
38
 73
     1
 44
1.0
1001
ACAD
1000
MTEXTBEGIN
1070
    73
1070
     1
1070
    44
1040
1.0
1070
    74
1070
     0
1000
MTEXTEND
  0
POINT
  5
E39
330
447
100
AcDbEntity
  8
Defpoints
 62
     0
100
AcDbPoint
 10
70.289163
 20
5.36615
 30
0.0
  0
POINT
  5
E3A
330
447
100
AcDbEntity
  8
Defpoints
 62
     0
100
AcDbPoint
 10
89.289163
 20
5.36615
 30
0.0
  0
POINT
  5
E3B
330
447
100
AcDbEntity
  8
Defpoints
 62
     0
100
AcDbPoint
 10
89.289163
 20
-12.090081
 30
0.0
  0
ENDBLK
  5
452
330
447
100
AcDbEntity
  8
0
100
AcDbBlockEnd
  0
BLOCK
  5
45D
330
453
100
AcDbEntity
  8
0
100
AcDbBlockBegin
  2
*D3
 70
     1
 10
0.0
 20
0.0
 30
0.0
  3
*D3
  1

  0
LINE
  5
E3C
330
453
100
AcDbEntity
  8
0
 62
     0
370
    -2
100
AcDbLine
 10
62.039163
 20
93.22034399999999
 30
0.0
 11
62.039163
 21
122.3050166318263
 31
0.0
  0
LINE
  5
E3D
330
453
100
AcDbEntity
  8
0
 62
     0
370
    -2
100
AcDbLine
 10
97.539163
 20
55.53284399999999
 30
0.0
 11
97.539163
 21
122.3050166318263
 31
0.0
  0
LINE
  5
E3E
330
453
100
AcDbEntity
  8
0
 62
     0
370
    -2
100
AcDbLine
 10
64.539163
 20
121.0550166318263
 30
0.0
 11
95.039163
 21
121.0550166318263
 31
0.0
  0
INSERT
  5
E3F
330
453
100
AcDbEntity
  8
0
 62
     0
370
    -2
100
AcDbBlockReference
  2
_Open30
 10
62.039163
 20
121.0550166318263
 30
0.0
 41
2.5
 42
2.5
 43
2.5
 50
180.0
  0
INSERT
  5
E40
330
453
100
AcDbEntity
  8
0
 62
     0
370
    -2
100
AcDbBlockReference
  2
_Open30
 10
97.539163
 20
121.0550166318263
 30
0.0
 41
2.5
 42
2.5
 43
2.5
  0
MTEXT
  5
E41
330
453
100
AcDbEntity
  8
0
 62
     4
100
AcDbMText
 10
79.77703339474761
 20
123.2800166318263
 30
0.0
 40
3.2
 41
0.0
 71
     5
 72
     1
  1
71
 73
     1
 44
1.0
1001
ACAD
1000
MTEXTBEGIN
1070
    73
1070
     1
1070
    44
1040
1.0
1070
    74
1070
     0
1000
MTEXTEND
  0
POINT
  5
E42
330
453
100
AcDbEntity
  8
Defpoints
 62
     0
100
AcDbPoint
 10
62.039163
 20
92.97034399999999
 30
0.0
  0
POINT
  5
E43
330
453
100
AcDbEntity
  8
Defpoints
 62
     0
100
AcDbPoint
 10
97.539163
 20
55.282844
 30
0.0
  0
POINT
  5
E44
330
453
100
AcDbEntity
  8
Defpoints
 62
     0
100
AcDbPoint
 10
97.539163
 20
121.0550166318263
 30
0.0
  0
ENDBLK
  5
45E
330
453
100
AcDbEntity
  8
0
100
AcDbBlockEnd
  0
BLOCK
  5
469
330
45F
100
AcDbEntity
  8
0
100
AcDbBlockBegin
  2
*D4
 70
     1
 10
0.0
 20
0.0
 30
0.0
  3
*D4
  1

  0
LINE
  5
E45
330
45F
100
AcDbEntity
  8
0
 62
     0
370
    -2
100
AcDbLine
 10
70.789163
 20
107.970344
 30
0.0
 11
70.789163
 21
115.6389413749283
 31
0.0
  0
LINE
  5
E46
330
45F
100
AcDbEntity
  8
0
 62
     0
370
    -2
100
AcDbLine
 10
88.789163
 20
107.970344
 30
0.0
 11
88.789163
 21
115.6389413749283
 31
0.0
  0
LINE
  5
E47
330
45F
100
AcDbEntity
  8
0
 62
     0
370
    -2
100
AcDbLine
 10
73.289163
 20
114.3889413749283
 30
0.0
 11
86.289163
 21
114.3889413749283
 31
0.0
  0
INSERT
  5
E48
330
45F
100
AcDbEntity
  8
0
 62
     0
370
    -2
100
AcDbBlockReference
  2
_Open30
 10
70.789163
 20
114.3889413749283
 30
0.0
 41
2.5
 42
2.5
 43
2.5
 50
180.0
  0
INSERT
  5
E49
330
45F
100
AcDbEntity
  8
0
 62
     0
370
    -2
100
AcDbBlockReference
  2
_Open30
 10
88.789163
 20
114.3889413749283
 30
0.0
 41
2.5
 42
2.5
 43
2.5
  0
MTEXT
  5
E4A
330
45F
100
AcDbEntity
  8
0
 62
     4
100
AcDbMText
 10
80.02404213710702
 20
116.6139413749283
 30
0.0
 40
3.2
 41
0.0
 71
     5
 72
     1
  1
36
 73
     1
 44
1.0
1001
ACAD
1000
MTEXTBEGIN
1070
    73
1070
     1
1070
    44
1040
1.0
1070
    74
1070
     0
1000
MTEXTEND
  0
POINT
  5
E4B
330
45F
100
AcDbEntity
  8
Defpoints
 62
     0
100
AcDbPoint
 10
70.789163
 20
107.720344
 30
0.0
  0
POINT
  5
E4C
330
45F
100
AcDbEntity
  8
Defpoints
 62
     0
100
AcDbPoint
 10
88.789163
 20
107.720344
 30
0.0
  0
POINT
  5
E4D
330
45F
100
AcDbEntity
  8
Defpoints
 62
     0
100
AcDbPoint
 10
88.789163
 20
114.3889413749283
 30
0.0
  0
ENDBLK
  5
46A
330
45F
100
AcDbEntity
  8
0
100
AcDbBlockEnd
  0
BLOCK
  5
48A
330
480
100
AcDbEntity
  8
0
100
AcDbBlockBegin
  2
*D5
 70
     1
 10
0.0
 20
0.0
 30
0.0
  3
*D5
  1

  0
LINE
  5
E4E
330
480
100
AcDbEntity
  8
0
 62
     0
370
    -2
100
AcDbLine
 10
-129.678077
 20
-3.779655999999998
 30
0.0
 11
-151.1737893515058
 21
-3.779655999999992
 31
0.0
  0
LINE
  5
E4F
330
480
100
AcDbEntity
  8
0
 62
     0
370
    -2
100
AcDbLine
 10
-72.178077
 20
108.970344
 30
0.0
 11
-151.1737893515058
 21
108.970344
 31
0.0
  0
LINE
  5
E50
330
480
100
AcDbEntity
  8
0
 62
     0
370
    -2
100
AcDbLine
 10
-149.9237893515058
 20
-1.279655999999992
 30
0.0
 11
-149.9237893515058
 21
106.470344
 31
0.0
  0
INSERT
  5
E51
330
480
100
AcDbEntity
  8
0
 62
     0
370
    -2
100
AcDbBlockReference
  2
_Open30
 10
-149.9237893515058
 20
-3.779655999999992
 30
0.0
 41
2.5
 42
2.5
 43
2.5
 50
270.0
  0
INSERT
  5
E52
330
480
100
AcDbEntity
  8
0
 62
     0
370
    -2
100
AcDbBlockReference
  2
_Open30
 10
-149.9237893515058
 20
108.970344
 30
0.0
 41
2.5
 42
2.5
 43
2.5
 50
90.0
  0
MTEXT
  5
E53
330
480
100
AcDbEntity
  8
0
 62
     4
100
AcDbMText
 10
-152.1487893515058
 20
53.98012100761604
 30
0.0
 40
3.2
 41
0.0
 71
     5
 72
     1
  1
226
 11
0.0000000000000001
 21
1.0
 31
0.0
 73
     1
 44
1.0
1001
ACAD
1000
MTEXTBEGIN
1070
    73
1070
     1
1070
    44
1040
1.0
1070
    74
1070
     0
1000
MTEXTEND
  0
POINT
  5
E54
330
480
100
AcDbEntity
  8
Defpoints
 62
     0
100
AcDbPoint
 10
-129.428077
 20
-3.779655999999998
 30
0.0
  0
POINT
  5
E55
330
480
100
AcDbEntity
  8
Defpoints
 62
     0
100
AcDbPoint
 10
-71.928077
 20
108.970344
 30
0.0
  0
POINT
  5
E56
330
480
100
AcDbEntity
  8
Defpoints
 62
     0
100
AcDbPoint
 10
-149.9237893515058
 20
108.970344
 30
0.0
  0
ENDBLK
  5
48B
330
480
100
AcDbEntity
  8
0
100
AcDbBlockEnd
  0
BLOCK
  5
49F
330
495
100
AcDbEntity
  8
0
100
AcDbBlockBegin
  2
*D6
 70
     1
 10
0.0
 20
0.0
 30
0.0
  3
*D6
  1

  0
LINE
  5
E57
330
495
100
AcDbEntity
  8
0
 62
     0
370
    -2
100
AcDbLine
 10
-121.678077
 20
-3.779655999999998
 30
0.0
 11
-139.5009573617003
 21
-3.779655999999993
 31
0.0
  0
LINE
  5
E58
330
495
100
AcDbEntity
  8
0
 62
     0
370
    -2
100
AcDbLine
 10
-132.928077
 20
54.220344
 30
0.0
 11
-139.5009573617003
 21
54.220344
 31
0.0
  0
LINE
  5
E59
330
495
100
AcDbEntity
  8
0
 62
     0
370
    -2
100
AcDbLine
 10
-138.2509573617003
 20
-1.279655999999993
 30
0.0
 11
-138.2509573617003
 21
51.720344
 31
0.0
  0
INSERT
  5
E5A
330
495
100
AcDbEntity
  8
0
 62
     0
370
    -2
100
AcDbBlockReference
  2
_Open30
 10
-138.2509573617003
 20
-3.779655999999993
 30
0.0
 41
2.5
 42
2.5
 43
2.5
 50
270.0
  0
INSERT
  5
E5B
330
495
100
AcDbEntity
  8
0
 62
     0
370
    -2
100
AcDbBlockReference
  2
_Open30
 10
-138.2509573617003
 20
54.220344
 30
0.0
 41
2.5
 42
2.5
 43
2.5
 50
90.0
  0
MTEXT
  5
E5C
330
495
100
AcDbEntity
  8
0
 62
     4
100
AcDbMText
 10
-140.4759573617003
 20
26.27028709132833
 30
0.0
 40
3.2
 41
0.0
 71
     5
 72
     1
  1
116
 11
0.0000000000000001
 21
1.0
 31
0.0
 73
     1
 44
1.0
1001
ACAD
1000
MTEXTBEGIN
1070
    73
1070
     1
1070
    44
1040
1.0
1070
    74
1070
     0
1000
MTEXTEND
  0
POINT
  5
E5D
330
495
100
AcDbEntity
  8
Defpoints
 62
     0
100
AcDbPoint
 10
-121.428077
 20
-3.779655999999998
 30
0.0
  0
POINT
  5
E5E
330
495
100
AcDbEntity
  8
Defpoints
 62
     0
100
AcDbPoint
 10
-132.678077
 20
54.220344
 30
0.0
  0
POINT
  5
E5F
330
495
100
AcDbEntity
  8
Defpoints
 62
     0
100
AcDbPoint
 10
-138.2509573617003
 20
54.220344
 30
0.0
  0
ENDBLK
  5
4A0
330
495
100
AcDbEntity
  8
0
100
AcDbBlockEnd
  0
BLOCK
  5
4AB
330
4A1
100
AcDbEntity
  8
0
100
AcDbBlockBegin
  2
*D7
 70
     1
 10
0.0
 20
0.0
 30
0.0
  3
*D7
  1

  0
LINE
  5
E60
330
4A1
100
AcDbEntity
  8
0
 62
     0
370
    -2
100
AcDbLine
 10
-129.428077
 20
-4.029655999999998
 30
0.0
 11
-129.428077
 21
-19.971692
 31
0.0
  0
LINE
  5
E61
330
4A1
100
AcDbEntity
  8
0
 62
     0
370
    -2
100
AcDbLine
 10
-14.428077
 20
-2.429656
 30
0.0
 11
-14.428077
 21
-19.971692
 31
0.0
  0
LINE
  5
E62
330
4A1
100
AcDbEntity
  8
0
 62
     0
370
    -2
100
AcDbLine
 10
-126.928077
 20
-18.721692
 30
0.0
 11
-16.928077
 21
-18.721692
 31
0.0
  0
INSERT
  5
E63
330
4A1
100
AcDbEntity
  8
0
 62
     0
370
    -2
100
AcDbBlockReference
  2
_Open30
 10
-129.428077
 20
-18.721692
 30
0.0
 41
2.5
 42
2.5
 43
2.5
 50
180.0
  0
INSERT
  5
E64
330
4A1
100
AcDbEntity
  8
0
 62
     0
370
    -2
100
AcDbBlockReference
  2
_Open30
 10
-14.428077
 20
-18.721692
 30
0.0
 41
2.5
 42
2.5
 43
2.5
  0
MTEXT
  5
E65
330
4A1
100
AcDbEntity
  8
0
 62
     4
100
AcDbMText
 10
-71.928077
 20
-16.496692
 30
0.0
 40
3.2
 41
0.0
 71
     5
 72
     1
  1
230
 73
     1
 44
1.0
1001
ACAD
1000
MTEXTBEGIN
1070
    73
1070
     1
1070
    44
1040
1.0
1070
    74
1070
     0
1000
MTEXTEND
  0
POINT
  5
E66
330
4A1
100
AcDbEntity
  8
Defpoints
 62
     0
100
AcDbPoint
 10
-129.428077
 20
-3.779655999999998
 30
0.0
  0
POINT
  5
E67
330
4A1
100
AcDbEntity
  8
Defpoints
 62
     0
100
AcDbPoint
 10
-14.428077
 20
-2.179656
 30
0.0
  0
POINT
  5
E68
330
4A1
100
AcDbEntity
  8
Defpoints
 62
     0
100
AcDbPoint
 10
-14.428077
 20
-18.721692
 30
0.0
  0
ENDBLK
  5
4AC
330
4A1
100
AcDbEntity
  8
0
100
AcDbBlockEnd
  0
BLOCK
  5
4B7
330
4AD
100
AcDbEntity
  8
0
100
AcDbBlockBegin
  2
*D8
 70
     1
 10
0.0
 20
0.0
 30
0.0
  3
*D8
  1

  0
LINE
  5
E69
330
4AD
100
AcDbEntity
  8
0
 62
     0
370
    -2
100
AcDbLine
 10
-120.428077
 20
-58.874249
 30
0.0
 11
-120.428077
 21
-70.600929
 31
0.0
  0
LINE
  5
E6A
330
4AD
100
AcDbEntity
  8
0
 62
     0
370
    -2
100
AcDbLine
 10
-23.428077
 20
-58.874249
 30
0.0
 11
-23.428077
 21
-70.600929
 31
0.0
  0
LINE
  5
E6B
330
4AD
100
AcDbEntity
  8
0
 62
     0
370
    -2
100
AcDbLine
 10
-117.928077
 20
-69.350929
 30
0.0
 11
-25.928077
 21
-69.350929
 31
0.0
  0
INSERT
  5
E6C
330
4AD
100
AcDbEntity
  8
0
 62
     0
370
    -2
100
AcDbBlockReference
  2
_Open30
 10
-120.428077
 20
-69.350929
 30
0.0
 41
2.5
 42
2.5
 43
2.5
 50
180.0
  0
INSERT
  5
E6D
330
4AD
100
AcDbEntity
  8
0
 62
     0
370
    -2
100
AcDbBlockReference
  2
_Open30
 10
-23.428077
 20
-69.350929
 30
0.0
 41
2.5
 42
2.5
 43
2.5
  0
MTEXT
  5
E6E
330
4AD
100
AcDbEntity
  8
0
 62
     4
100
AcDbMText
 10
-71.928077
 20
-67.12592900000001
 30
0.0
 40
3.2
 41
0.0
 71
     5
 72
     1
  1
194
  7
高3.2
 73
     1
 44
1.0
1001
ACAD
1000
MTEXTBEGIN
1070
    73
1070
     1
1070
    44
1040
1.0
1070
    74
1070
     0
1000
MTEXTEND
  0
POINT
  5
E6F
330
4AD
100
AcDbEntity
  8
Defpoints
 62
     0
100
AcDbPoint
 10
-120.428077
 20
-58.624249
 30
0.0
  0
POINT
  5
E70
330
4AD
100
AcDbEntity
  8
Defpoints
 62
     0
100
AcDbPoint
 10
-23.428077
 20
-58.624249
 30
0.0
  0
POINT
  5
E71
330
4AD
100
AcDbEntity
  8
Defpoints
 62
     0
100
AcDbPoint
 10
-23.428077
 20
-69.350929
 30
0.0
  0
ENDBLK
  5
4B8
330
4AD
100
AcDbEntity
  8
0
100
AcDbBlockEnd
  0
BLOCK
  5
4C3
330
4B9
100
AcDbEntity
  8
0
100
AcDbBlockBegin
  2
*D9
 70
     1
 10
0.0
 20
0.0
 30
0.0
  3
*D9
  1

  0
LINE
  5
E72
330
4B9
100
AcDbEntity
  8
0
 62
     0
370
    -2
100
AcDbLine
 10
-14.178077
 20
-51.87424899999999
 30
0.0
 11
-2.131246000000001
 21
-51.87424899999999
 31
0.0
  0
LINE
  5
E73
330
4B9
100
AcDbEntity
  8
0
 62
     0
370
    -2
100
AcDbLine
 10
-14.178077
 20
-32.874249
 30
0.0
 11
-2.131245999999997
 21
-32.874249
 31
0.0
  0
LINE
  5
E74
330
4B9
100
AcDbEntity
  8
0
 62
     0
370
    -2
100
AcDbLine
 10
-3.381246000000002
 20
-49.37424899999999
 30
0.0
 11
-3.381245999999999
 21
-35.374249
 31
0.0
  0
INSERT
  5
E75
330
4B9
100
AcDbEntity
  8
0
 62
     0
370
    -2
100
AcDbBlockReference
  2
_Open30
 10
-3.381246000000002
 20
-51.87424899999999
 30
0.0
 41
2.5
 42
2.5
 43
2.5
 50
270.0
  0
INSERT
  5
E76
330
4B9
100
AcDbEntity
  8
0
 62
     0
370
    -2
100
AcDbBlockReference
  2
_Open30
 10
-3.381245999999998
 20
-32.874249
 30
0.0
 41
2.5
 42
2.5
 43
2.5
 50
90.0
  0
MTEXT
  5
E77
330
4B9
100
AcDbEntity
  8
0
 62
     4
100
AcDbMText
 10
-5.606245999999994
 20
-42.37424899999999
 30
0.0
 40
3.2
 41
0.0
 71
     5
 72
     1
  1
38
 11
0.0000000000000001
 21
1.0
 31
0.0
 73
     1
 44
1.0
1001
ACAD
1000
MTEXTBEGIN
1070
    73
1070
     1
1070
    44
1040
1.0
1070
    74
1070
     0
1000
MTEXTEND
  0
POINT
  5
E78
330
4B9
100
AcDbEntity
  8
Defpoints
 62
     0
100
AcDbPoint
 10
-14.428077
 20
-51.87424899999999
 30
0.0
  0
POINT
  5
E79
330
4B9
100
AcDbEntity
  8
Defpoints
 62
     0
100
AcDbPoint
 10
-14.428077
 20
-32.874249
 30
0.0
  0
POINT
  5
E7A
330
4B9
100
AcDbEntity
  8
Defpoints
 62
     0
100
AcDbPoint
 10
-3.381245999999998
 20
-32.874249
 30
0.0
  0
ENDBLK
  5
4C4
330
4B9
100
AcDbEntity
  8
0
100
AcDbBlockEnd
  0
BLOCK
  5
4D1
330
4C5
100
AcDbEntity
  8
0
100
AcDbBlockBegin
  2
*D10
 70
     1
 10
0.0
 20
0.0
 30
0.0
  3
*D10
  1

  0
LINE
  5
E7B
330
4C5
100
AcDbEntity
  8
0
 62
     0
370
    -2
100
AcDbLine
 10
-14.178077
 20
-3.779655999999998
 30
0.0
 11
-4.413243690325772
 21
-3.779656000000001
 31
0.0
  0
LINE
  5
E7C
330
4C5
100
AcDbEntity
  8
0
 62
     0
370
    -2
100
AcDbLine
 10
-14.178077
 20
-2.179656
 30
0.0
 11
-4.413243690325772
 21
-2.179656000000002
 31
0.0
  0
LINE
  5
E7D
330
4C5
100
AcDbEntity
  8
0
 62
     0
370
    -2
100
AcDbLine
 10
-5.66324369032577
 20
0.3203439999999977
 30
0.0
 11
-5.663243690325769
 21
2.820343999999997
 31
0.0
  0
LINE
  5
E7E
330
4C5
100
AcDbEntity
  8
0
 62
     0
370
    -2
100
AcDbLine
 10
-5.663243690325772
 20
-6.279656000000001
 30
0.0
 11
-5.663243690325774
 21
-19.629656
 31
0.0
  0
LINE
  5
E7F
330
4C5
100
AcDbEntity
  8
0
 62
     0
370
    -2
100
AcDbLine
 10
-5.663243690325771
 20
-2.179656000000002
 30
0.0
 11
-5.663243690325771
 21
-3.779656
 31
0.0
  0
INSERT
  5
E80
330
4C5
100
AcDbEntity
  8
0
 62
     0
370
    -2
100
AcDbBlockReference
  2
_Open30
 10
-5.663243690325771
 20
-2.179656000000002
 30
0.0
 41
2.5
 42
2.5
 43
2.5
 50
270.0
  0
INSERT
  5
E81
330
4C5
100
AcDbEntity
  8
0
 62
     0
370
    -2
100
AcDbBlockReference
  2
_Open30
 10
-5.663243690325771
 20
-3.779656
 30
0.0
 41
2.5
 42
2.5
 43
2.5
 50
90.0
  0
MTEXT
  5
E82
330
4C5
100
AcDbEntity
  8
0
 62
     4
100
AcDbMText
 10
-7.888243690325771
 20
-14.204656
 30
0.0
 40
3.2
 41
0.0
 71
     5
 72
     1
  1
3.2t
 11
0.0000000000000001
 21
1.0
 31
0.0
 73
     1
 44
1.0
1001
ACAD
1000
MTEXTBEGIN
1070
    73
1070
     1
1070
    44
1040
1.0
1070
    74
1070
     0
1000
MTEXTEND
  0
POINT
  5
E83
330
4C5
100
AcDbEntity
  8
Defpoints
 62
     0
100
AcDbPoint
 10
-14.428077
 20
-3.779655999999998
 30
0.0
  0
POINT
  5
E84
330
4C5
100
AcDbEntity
  8
Defpoints
 62
     0
100
AcDbPoint
 10
-14.428077
 20
-2.179656
 30
0.0
  0
POINT
  5
E85
330
4C5
100
AcDbEntity
  8
Defpoints
 62
     0
100
AcDbPoint
 10
-5.663243690325771
 20
-2.179656000000002
 30
0.0
  0
ENDBLK
  5
4D2
330
4C5
100
AcDbEntity
  8
0
100
AcDbBlockEnd
  0
BLOCK
  5
4DD
330
4D3
100
AcDbEntity
  8
0
100
AcDbBlockBegin
  2
*D11
 70
     1
 10
0.0
 20
0.0
 30
0.0
  3
*D11
  1

  0
LINE
  5
E86
330
4D3
100
AcDbEntity
  8
0
 62
     0
370
    -2
100
AcDbLine
 10
-124.178077
 20
-51.62424899999999
 30
0.0
 11
-124.178077
 21
-44.68135888033054
 31
0.0
  0
LINE
  5
E87
330
4D3
100
AcDbEntity
  8
0
 62
     0
370
    -2
100
AcDbLine
 10
-116.678077
 20
-51.62424899999999
 30
0.0
 11
-116.678077
 21
-44.68135888033054
 31
0.0
  0
LINE
  5
E88
330
4D3
100
AcDbEntity
  8
0
 62
     0
370
    -2
100
AcDbLine
 10
-114.178077
 20
-45.93135888033054
 30
0.0
 11
-111.678077
 21
-45.93135888033054
 31
0.0
  0
LINE
  5
E89
330
4D3
100
AcDbEntity
  8
0
 62
     0
370
    -2
100
AcDbLine
 10
-126.678077
 20
-45.93135888033054
 30
0.0
 11
-141.841189551537
 21
-45.93135888033054
 31
0.0
  0
LINE
  5
E8A
330
4D3
100
AcDbEntity
  8
0
 62
     0
370
    -2
100
AcDbLine
 10
-116.678077
 20
-45.93135888033054
 30
0.0
 11
-124.178077
 21
-45.93135888033054
 31
0.0
  0
INSERT
  5
E8B
330
4D3
100
AcDbEntity
  8
0
 62
     0
370
    -2
100
AcDbBlockReference
  2
_Open30
 10
-116.678077
 20
-45.93135888033054
 30
0.0
 41
2.5
 42
2.5
 43
2.5
 50
180.0
  0
INSERT
  5
E8C
330
4D3
100
AcDbEntity
  8
0
 62
     0
370
    -2
100
AcDbBlockReference
  2
_Open30
 10
-124.178077
 20
-45.93135888033054
 30
0.0
 41
2.5
 42
2.5
 43
2.5
  0
MTEXT
  5
E8D
330
4D3
100
AcDbEntity
  8
0
 62
     4
100
AcDbMText
 10
-139.0828562182037
 20
-43.70635888033054
 30
0.0
 40
3.2
 41
0.0
 71
     5
 72
     1
  1
15
 73
     1
 44
1.0
1001
ACAD
1000
MTEXTBEGIN
1070
    73
1070
     1
1070
    44
1040
1.0
1070
    74
1070
     0
1000
MTEXTEND
  0
POINT
  5
E8E
330
4D3
100
AcDbEntity
  8
Defpoints
 62
     0
100
AcDbPoint
 10
-124.178077
 20
-51.87424899999999
 30
0.0
  0
POINT
  5
E8F
330
4D3
100
AcDbEntity
  8
Defpoints
 62
     0
100
AcDbPoint
 10
-116.678077
 20
-51.87424899999999
 30
0.0
  0
POINT
  5
E90
330
4D3
100
AcDbEntity
  8
Defpoints
 62
     0
100
AcDbPoint
 10
-116.678077
 20
-45.93135888033054
 30
0.0
  0
ENDBLK
  5
4DE
330
4D3
100
AcDbEntity
  8
0
100
AcDbBlockEnd
  0
BLOCK
  5
4EB
330
4DF
100
AcDbEntity
  8
0
100
AcDbBlockBegin
  2
*D12
 70
     1
 10
0.0
 20
0.0
 30
0.0
  3
*D12
  1

  0
LINE
  5
E91
330
4DF
100
AcDbEntity
  8
0
 62
     0
370
    -2
100
AcDbLine
 10
-120.178077
 20
-54.37424899999999
 30
0.0
 11
-107.6315260152018
 21
-54.37424899999999
 31
0.0
  0
LINE
  5
E92
330
4DF
100
AcDbEntity
  8
0
 62
     0
370
    -2
100
AcDbLine
 10
-120.178077
 20
-49.37424899999999
 30
0.0
 11
-107.6315260152018
 21
-49.37424899999999
 31
0.0
  0
LINE
  5
E93
330
4DF
100
AcDbEntity
  8
0
 62
     0
370
    -2
100
AcDbLine
 10
-108.8815260152018
 20
-46.87424899999999
 30
0.0
 11
-108.8815260152018
 21
-44.37424899999999
 31
0.0
  0
LINE
  5
E94
330
4DF
100
AcDbEntity
  8
0
 62
     0
370
    -2
100
AcDbLine
 10
-108.8815260152018
 20
-56.87424899999999
 30
0.0
 11
-108.8815260152018
 21
-65.87216722629747
 31
0.0
  0
LINE
  5
E95
330
4DF
100
AcDbEntity
  8
0
 62
     0
370
    -2
100
AcDbLine
 10
-108.8815260152018
 20
-49.37424899999999
 30
0.0
 11
-108.8815260152018
 21
-54.37424899999999
 31
0.0
  0
INSERT
  5
E96
330
4DF
100
AcDbEntity
  8
0
 62
     0
370
    -2
100
AcDbBlockReference
  2
_Open30
 10
-108.8815260152018
 20
-49.37424899999999
 30
0.0
 41
2.5
 42
2.5
 43
2.5
 50
270.0
  0
INSERT
  5
E97
330
4DF
100
AcDbEntity
  8
0
 62
     0
370
    -2
100
AcDbBlockReference
  2
_Open30
 10
-108.8815260152018
 20
-54.37424899999999
 30
0.0
 41
2.5
 42
2.5
 43
2.5
 50
90.0
  0
MTEXT
  5
E98
330
4DF
100
AcDbEntity
  8
0
 62
     4
100
AcDbMText
 10
-111.1065260152018
 20
-63.38050055963083
 30
0.0
 40
3.2
 41
0.0
 71
     5
 72
     1
  1
10
 11
0.0000000000000001
 21
1.0
 31
0.0
 73
     1
 44
1.0
1001
ACAD
1000
MTEXTBEGIN
1070
    73
1070
     1
1070
    44
1040
1.0
1070
    74
1070
     0
1000
MTEXTEND
  0
POINT
  5
E99
330
4DF
100
AcDbEntity
  8
Defpoints
 62
     0
100
AcDbPoint
 10
-120.428077
 20
-54.37424899999999
 30
0.0
  0
POINT
  5
E9A
330
4DF
100
AcDbEntity
  8
Defpoints
 62
     0
100
AcDbPoint
 10
-120.428077
 20
-49.37424899999999
 30
0.0
  0
POINT
  5
E9B
330
4DF
100
AcDbEntity
  8
Defpoints
 62
     0
100
AcDbPoint
 10
-108.8815260152018
 20
-49.37424899999999
 30
0.0
  0
ENDBLK
  5
4EC
330
4DF
100
AcDbEntity
  8
0
100
AcDbBlockEnd
  0
BLOCK
  5
837
330
836
100
AcDbEntity
  8
0
100
AcDbBlockBegin
  2
*D13
 70
     1
 10
0.0
 20
0.0
 30
0.0
  3
*D13
  1

  0
LINE
  5
8BF
330
836
100
AcDbEntity
  8
0
 62
     0
370
    -2
100
AcDbLine
 10
498.7351168152324
 20
124.714326079501
 30
0.0
 11
498.7351168152324
 21
121.8046946574921
 31
0.0
  0
LINE
  5
8C0
330
836
100
AcDbEntity
  8
0
 62
     0
370
    -2
100
AcDbLine
 10
496.2779297611121
 20
124.714326079501
 30
0.0
 11
496.2779297611121
 21
121.8046946574921
 31
0.0
  0
LINE
  5
8C1
330
836
100
AcDbEntity
  8
0
 62
     0
370
    -2
100
AcDbLine
 10
501.2351168152322
 20
123.0546946574921
 30
0.0
 11
503.7351168152325
 21
123.0546946574921
 31
0.0
  0
LINE
  5
8C2
330
836
100
AcDbEntity
  8
0
 62
     0
370
    -2
100
AcDbLine
 10
493.7779297611122
 20
123.0546946574921
 30
0.0
 11
480.4279297611121
 21
123.0546946574921
 31
0.0
  0
LINE
  5
8C3
330
836
100
AcDbEntity
  8
0
 62
     0
370
    -2
100
AcDbLine
 10
498.7351168152324
 20
123.0546946574921
 30
0.0
 11
496.2779297611121
 21
123.0546946574921
 31
0.0
  0
INSERT
  5
8C4
330
836
100
AcDbEntity
  8
0
 62
     0
370
    -2
100
AcDbBlockReference
  2
_Open30
 10
498.7351168152324
 20
123.0546946574921
 30
0.0
 41
2.5
 42
2.5
 43
2.5
 50
180.0
  0
INSERT
  5
8C5
330
836
100
AcDbEntity
  8
0
 62
     0
370
    -2
100
AcDbBlockReference
  2
_Open30
 10
496.2779297611121
 20
123.0546946574921
 30
0.0
 41
2.5
 42
2.5
 43
2.5
  0
MTEXT
  5
8C6
330
836
100
AcDbEntity
  8
0
 62
     4
100
AcDbMText
 10
485.8529297611122
 20
125.2796946574922
 30
0.0
 40
3.2
 41
0.0
 71
     5
 72
     1
  1
2.46
 73
     1
 44
1.0
1001
ACAD
1000
MTEXTBEGIN
1070
    73
1070
     1
1070
    44
1040
1.0
1070
    74
1070
     0
1000
MTEXTEND
  0
POINT
  5
8C7
330
836
100
AcDbEntity
  8
Defpoints
 62
     0
100
AcDbPoint
 10
498.7351168152324
 20
124.964326079501
 30
0.0
  0
POINT
  5
8C8
330
836
100
AcDbEntity
  8
Defpoints
 62
     0
100
AcDbPoint
 10
496.2779297611121
 20
124.964326079501
 30
0.0
  0
POINT
  5
8C9
330
836
100
AcDbEntity
  8
Defpoints
 62
     0
100
AcDbPoint
 10
496.2779297611121
 20
123.0546946574921
 30
0.0
  0
ENDBLK
  5
838
330
836
100
AcDbEntity
  8
0
100
AcDbBlockEnd
  0
BLOCK
  5
845
330
844
100
AcDbEntity
  8
0
100
AcDbBlockBegin
  2
*D14
 70
     1
 10
0.0
 20
0.0
 30
0.0
  3
*D14
  1

  0
LINE
  5
8CA
330
844
100
AcDbEntity
  8
0
 62
     0
370
    -2
100
AcDbLine
 10
500.3732417213057
 20
119.2582365067386
 30
0.0
 11
500.3732417213057
 21
116.7123444372753
 31
0.0
  0
LINE
  5
8CB
330
844
100
AcDbEntity
  8
0
 62
     0
370
    -2
100
AcDbLine
 10
497.2790059231628
 20
119.2582365067386
 30
0.0
 11
497.2790059231628
 21
116.7123444372753
 31
0.0
  0
LINE
  5
8CC
330
844
100
AcDbEntity
  8
0
 62
     0
370
    -2
100
AcDbLine
 10
502.8732417213056
 20
117.9623444372753
 30
0.0
 11
505.3732417213057
 21
117.9623444372753
 31
0.0
  0
LINE
  5
8CD
330
844
100
AcDbEntity
  8
0
 62
     0
370
    -2
100
AcDbLine
 10
494.7790059231627
 20
117.9623444372753
 30
0.0
 11
480.9456725898294
 21
117.9623444372753
 31
0.0
  0
LINE
  5
8CE
330
844
100
AcDbEntity
  8
0
 62
     0
370
    -2
100
AcDbLine
 10
500.3732417213057
 20
117.9623444372753
 30
0.0
 11
497.2790059231628
 21
117.9623444372753
 31
0.0
  0
INSERT
  5
8CF
330
844
100
AcDbEntity
  8
0
 62
     0
370
    -2
100
AcDbBlockReference
  2
_Open30
 10
500.3732417213057
 20
117.9623444372753
 30
0.0
 41
2.5
 42
2.5
 43
2.5
 50
180.0
  0
INSERT
  5
8D0
330
844
100
AcDbEntity
  8
0
 62
     0
370
    -2
100
AcDbBlockReference
  2
_Open30
 10
497.2790059231628
 20
117.9623444372753
 30
0.0
 41
2.5
 42
2.5
 43
2.5
  0
MTEXT
  5
8D1
330
844
100
AcDbEntity
  8
0
 62
     4
100
AcDbMText
 10
486.1540059231628
 20
119.8373444372753
 30
0.0
 40
2.5
 41
0.0
 71
     5
 72
     1
  1
15.47
  7
高2.5
 73
     1
 44
1.0
1001
ACAD
1000
MTEXTBEGIN
1070
    73
1070
     1
1070
    44
1040
1.0
1070
    74
1070
     0
1000
MTEXTEND
  0
POINT
  5
8D2
330
844
100
AcDbEntity
  8
Defpoints
 62
     0
100
AcDbPoint
 10
500.3732417213057
 20
119.5082365067386
 30
0.0
  0
POINT
  5
8D3
330
844
100
AcDbEntity
  8
Defpoints
 62
     0
100
AcDbPoint
 10
497.2790059231628
 20
119.5082365067386
 30
0.0
  0
POINT
  5
8D4
330
844
100
AcDbEntity
  8
Defpoints
 62
     0
100
AcDbPoint
 10
497.2790059231628
 20
117.9623444372753
 30
0.0
  0
ENDBLK
  5
846
330
844
100
AcDbEntity
  8
0
100
AcDbBlockEnd
  0
BLOCK
  5
853
330
852
100
AcDbEntity
  8
0
100
AcDbBlockBegin
  2
*D15
 70
     1
 10
0.0
 20
0.0
 30
0.0
  3
*D15
  1

  0
LINE
  5
8D5
330
852
100
AcDbEntity
  8
0
 62
     0
370
    -2
100
AcDbLine
 10
502.1023733293912
 20
113.8021467908921
 30
0.0
 11
502.1023733293912
 21
111.5290591285248
 31
0.0
  0
LINE
  5
8D6
330
852
100
AcDbEntity
  8
0
 62
     0
370
    -2
100
AcDbLine
 10
498.0980683761993
 20
113.8021467908921
 30
0.0
 11
498.0980683761993
 21
111.5290591285248
 31
0.0
  0
LINE
  5
8D7
330
852
100
AcDbEntity
  8
0
 62
     0
370
    -2
100
AcDbLine
 10
504.6023733293908
 20
112.7790591285248
 30
0.0
 11
507.1023733293912
 21
112.7790591285248
 31
0.0
  0
LINE
  5
8D8
330
852
100
AcDbEntity
  8
0
 62
     0
370
    -2
100
AcDbLine
 10
495.5980683761993
 20
112.7790591285248
 30
0.0
 11
483.8480683761993
 21
112.7790591285248
 31
0.0
  0
LINE
  5
8D9
330
852
100
AcDbEntity
  8
0
 62
     0
370
    -2
100
AcDbLine
 10
502.1023733293912
 20
112.7790591285248
 30
0.0
 11
498.0980683761993
 21
112.7790591285248
 31
0.0
  0
INSERT
  5
8DA
330
852
100
AcDbEntity
  8
0
 62
     0
370
    -2
100
AcDbBlockReference
  2
_Open30
 10
502.1023733293912
 20
112.7790591285248
 30
0.0
 41
2.5
 42
2.5
 43
2.5
 50
180.0
  0
INSERT
  5
8DB
330
852
100
AcDbEntity
  8
0
 62
     0
370
    -2
100
AcDbBlockReference
  2
_Open30
 10
498.0980683761993
 20
112.7790591285248
 30
0.0
 41
2.5
 42
2.5
 43
2.5
  0
MTEXT
  5
8DC
330
852
100
AcDbEntity
  8
0
 62
     4
100
AcDbMText
 10
488.4730683761993
 20
115.0040591285248
 30
0.0
 40
3.2
 41
0.0
 71
     5
 72
     1
  1
8.01
  7
高3.2
 73
     1
 44
1.0
1001
ACAD
1000
MTEXTBEGIN
1070
    73
1070
     1
1070
    44
1040
1.0
1070
    74
1070
     0
1000
MTEXTEND
  0
POINT
  5
8DD
330
852
100
AcDbEntity
  8
Defpoints
 62
     0
100
AcDbPoint
 10
502.1023733293912
 20
114.0521467908921
 30
0.0
  0
POINT
  5
8DE
330
852
100
AcDbEntity
  8
Defpoints
 62
     0
100
AcDbPoint
 10
498.0980683761993
 20
114.0521467908921
 30
0.0
  0
POINT
  5
8DF
330
852
100
AcDbEntity
  8
Defpoints
 62
     0
100
AcDbPoint
 10
498.0980683761993
 20
112.7790591285248
 30
0.0
  0
ENDBLK
  5
854
330
852
100
AcDbEntity
  8
0
100
AcDbBlockEnd
  0
BLOCK
  5
861
330
860
100
AcDbEntity
  8
0
100
AcDbBlockBegin
  2
*D16
 70
     1
 10
0.0
 20
0.0
 30
0.0
  3
*D16
  1

  0
LINE
  5
8E0
330
860
100
AcDbEntity
  8
0
 62
     0
370
    -2
100
AcDbLine
 10
502.0113666273788
 20
108.5279268228605
 30
0.0
 11
502.0113666273788
 21
106.7095133154041
 31
0.0
  0
LINE
  5
8E1
330
860
100
AcDbEntity
  8
0
 62
     0
370
    -2
100
AcDbLine
 10
497.2790059231628
 20
108.5279268228605
 30
0.0
 11
497.2790059231628
 21
106.7095133154041
 31
0.0
  0
LINE
  5
8E2
330
860
100
AcDbEntity
  8
0
 62
     0
370
    -2
100
AcDbLine
 10
504.5113666273788
 20
107.9595133154041
 30
0.0
 11
507.0113666273788
 21
107.9595133154041
 31
0.0
  0
LINE
  5
8E3
330
860
100
AcDbEntity
  8
0
 62
     0
370
    -2
100
AcDbLine
 10
494.7790059231627
 20
107.9595133154041
 30
0.0
 11
473.0290059231626
 21
107.9595133154041
 31
0.0
  0
LINE
  5
8E4
330
860
100
AcDbEntity
  8
0
 62
     0
370
    -2
100
AcDbLine
 10
502.0113666273788
 20
107.9595133154041
 30
0.0
 11
497.2790059231628
 21
107.9595133154041
 31
0.0
  0
INSERT
  5
8E5
330
860
100
AcDbEntity
  8
0
 62
     0
370
    -2
100
AcDbBlockReference
  2
_Open30
 10
502.0113666273788
 20
107.9595133154041
 30
0.0
 41
2.5
 42
2.5
 43
2.5
 50
180.0
  0
INSERT
  5
8E6
330
860
100
AcDbEntity
  8
0
 62
     0
370
    -2
100
AcDbBlockReference
  2
_Open30
 10
497.2790059231628
 20
107.9595133154041
 30
0.0
 41
2.5
 42
2.5
 43
2.5
  0
MTEXT
  5
8E7
330
860
100
AcDbEntity
  8
0
 62
     4
100
AcDbMText
 10
482.6540059231628
 20
110.8345133154041
 30
0.0
 40
4.5
 41
0.0
 71
     5
 72
     1
  1
47.32
  7
高4.5
 73
     1
 44
1.0
1001
ACAD
1000
MTEXTBEGIN
1070
    73
1070
     1
1070
    44
1040
1.0
1070
    74
1070
     0
1000
MTEXTEND
  0
POINT
  5
8E8
330
860
100
AcDbEntity
  8
Defpoints
 62
     0
100
AcDbPoint
 10
502.0113666273788
 20
108.7779268228605
 30
0.0
  0
POINT
  5
8E9
330
860
100
AcDbEntity
  8
Defpoints
 62
     0
100
AcDbPoint
 10
497.2790059231628
 20
108.7779268228605
 30
0.0
  0
POINT
  5
8EA
330
860
100
AcDbEntity
  8
Defpoints
 62
     0
100
AcDbPoint
 10
497.2790059231628
 20
107.9595133154041
 30
0.0
  0
ENDBLK
  5
862
330
860
100
AcDbEntity
  8
0
100
AcDbBlockEnd
  0
BLOCK
  5
86F
330
86E
100
AcDbEntity
  8
0
100
AcDbBlockBegin
  2
*D17
 70
     1
 10
0.0
 20
0.0
 30
0.0
  3
*D17
  1

  0
LINE
  5
8EB
330
86E
100
AcDbEntity
  8
0
 62
     0
370
    -2
100
AcDbLine
 10
523.4890028953863
 20
124.714326079501
 30
0.0
 11
523.4890028953863
 21
121.8046946574921
 31
0.0
  0
LINE
  5
8EC
330
86E
100
AcDbEntity
  8
0
 62
     0
370
    -2
100
AcDbLine
 10
521.031815841266
 20
124.714326079501
 30
0.0
 11
521.031815841266
 21
121.8046946574921
 31
0.0
  0
LINE
  5
8ED
330
86E
100
AcDbEntity
  8
0
 62
     0
370
    -2
100
AcDbLine
 10
525.9890028953861
 20
123.0546946574921
 30
0.0
 11
528.4890028953863
 21
123.0546946574921
 31
0.0
  0
LINE
  5
8EE
330
86E
100
AcDbEntity
  8
0
 62
     0
370
    -2
100
AcDbLine
 10
518.531815841266
 20
123.0546946574921
 30
0.0
 11
496.931815841266
 21
123.0546946574921
 31
0.0
  0
LINE
  5
8EF
330
86E
100
AcDbEntity
  8
0
 62
     0
370
    -2
100
AcDbLine
 10
523.4890028953863
 20
123.0546946574921
 30
0.0
 11
521.031815841266
 21
123.0546946574921
 31
0.0
  0
INSERT
  5
8F0
330
86E
100
AcDbEntity
  8
0
 62
     0
370
    -2
100
AcDbBlockReference
  2
_Open30
 10
523.4890028953863
 20
123.0546946574921
 30
0.0
 41
2.5
 42
2.5
 43
2.5
 50
180.0
  0
INSERT
  5
8F1
330
86E
100
AcDbEntity
  8
0
 62
     0
370
    -2
100
AcDbBlockReference
  2
_Open30
 10
521.031815841266
 20
123.0546946574921
 30
0.0
 41
2.5
 42
2.5
 43
2.5
  0
MTEXT
  5
8F2
330
86E
100
AcDbEntity
  8
0
 62
     4
100
AcDbMText
 10
506.481815841266
 20
126.8296946574922
 30
0.0
 40
6.299999999999998
 41
0.0
 71
     5
 72
     1
  1
0.25
  7
高6.3
 73
     1
 44
1.0
1001
ACAD
1000
MTEXTBEGIN
1070
    73
1070
     1
1070
    44
1040
1.0
1070
    74
1070
     0
1000
MTEXTEND
  0
POINT
  5
8F3
330
86E
100
AcDbEntity
  8
Defpoints
 62
     0
100
AcDbPoint
 10
523.4890028953863
 20
124.964326079501
 30
0.0
  0
POINT
  5
8F4
330
86E
100
AcDbEntity
  8
Defpoints
 62
     0
100
AcDbPoint
 10
521.031815841266
 20
124.964326079501
 30
0.0
  0
POINT
  5
8F5
330
86E
100
AcDbEntity
  8
Defpoints
 62
     0
100
AcDbPoint
 10
521.031815841266
 20
123.0546946574921
 30
0.0
  0
ENDBLK
  5
870
330
86E
100
AcDbEntity
  8
0
100
AcDbBlockEnd
  0
BLOCK
  5
87D
330
87C
100
AcDbEntity
  8
0
100
AcDbBlockBegin
  2
*D18
 70
     1
 10
0.0
 20
0.0
 30
0.0
  3
*D18
  1

  0
LINE
  5
8F6
330
87C
100
AcDbEntity
  8
0
 62
     0
370
    -2
100
AcDbLine
 10
525.1271278014595
 20
119.2582365067386
 30
0.0
 11
525.1271278014595
 21
116.7123444372753
 31
0.0
  0
LINE
  5
8F7
330
87C
100
AcDbEntity
  8
0
 62
     0
370
    -2
100
AcDbLine
 10
522.0328920033166
 20
119.2582365067386
 30
0.0
 11
522.0328920033166
 21
116.7123444372753
 31
0.0
  0
LINE
  5
8F8
330
87C
100
AcDbEntity
  8
0
 62
     0
370
    -2
100
AcDbLine
 10
527.6271278014595
 20
117.9623444372753
 30
0.0
 11
530.1271278014595
 21
117.9623444372753
 31
0.0
  0
LINE
  5
8F9
330
87C
100
AcDbEntity
  8
0
 62
     0
370
    -2
100
AcDbLine
 10
519.5328920033166
 20
117.9623444372753
 30
0.0
 11
507.2495586699832
 21
117.9623444372753
 31
0.0
  0
LINE
  5
8FA
330
87C
100
AcDbEntity
  8
0
 62
     0
370
    -2
100
AcDbLine
 10
525.1271278014595
 20
117.9623444372753
 30
0.0
 11
522.0328920033166
 21
117.9623444372753
 31
0.0
  0
INSERT
  5
8FB
330
87C
100
AcDbEntity
  8
0
 62
     0
370
    -2
100
AcDbBlockReference
  2
_Open30
 10
525.1271278014595
 20
117.9623444372753
 30
0.0
 41
2.5
 42
2.5
 43
2.5
 50
180.0
  0
INSERT
  5
8FC
330
87C
100
AcDbEntity
  8
0
 62
     0
370
    -2
100
AcDbBlockReference
  2
_Open30
 10
522.0328920033166
 20
117.9623444372753
 30
0.0
 41
2.5
 42
2.5
 43
2.5
  0
MTEXT
  5
8FD
330
87C
100
AcDbEntity
  8
0
 62
     4
100
AcDbMText
 10
512.1412253366496
 20
120.1873444372753
 30
0.0
 40
3.2
 41
0.0
 71
     5
 72
     1
  1
1.55
 73
     1
 44
1.0
1001
ACAD
1000
MTEXTBEGIN
1070
    73
1070
     1
1070
    44
1040
1.0
1070
    74
1070
     0
1000
MTEXTEND
  0
POINT
  5
8FE
330
87C
100
AcDbEntity
  8
Defpoints
 62
     0
100
AcDbPoint
 10
525.1271278014595
 20
119.5082365067386
 30
0.0
  0
POINT
  5
8FF
330
87C
100
AcDbEntity
  8
Defpoints
 62
     0
100
AcDbPoint
 10
522.0328920033166
 20
119.5082365067386
 30
0.0
  0
POINT
  5
900
330
87C
100
AcDbEntity
  8
Defpoints
 62
     0
100
AcDbPoint
 10
522.0328920033166
 20
117.9623444372753
 30
0.0
  0
ENDBLK
  5
87E
330
87C
100
AcDbEntity
  8
0
100
AcDbBlockEnd
  0
BLOCK
  5
88B
330
88A
100
AcDbEntity
  8
0
100
AcDbBlockBegin
  2
*D19
 70
     1
 10
0.0
 20
0.0
 30
0.0
  3
*D19
  1

  0
LINE
  5
901
330
88A
100
AcDbEntity
  8
0
 62
     0
370
    -2
100
AcDbLine
 10
526.856259409545
 20
113.8021467908921
 30
0.0
 11
526.856259409545
 21
111.5290591285248
 31
0.0
  0
LINE
  5
902
330
88A
100
AcDbEntity
  8
0
 62
     0
370
    -2
100
AcDbLine
 10
522.8519544563531
 20
113.8021467908921
 30
0.0
 11
522.8519544563531
 21
111.5290591285248
 31
0.0
  0
LINE
  5
903
330
88A
100
AcDbEntity
  8
0
 62
     0
370
    -2
100
AcDbLine
 10
529.356259409545
 20
112.7790591285248
 30
0.0
 11
531.856259409545
 21
112.7790591285248
 31
0.0
  0
LINE
  5
904
330
88A
100
AcDbEntity
  8
0
 62
     0
370
    -2
100
AcDbLine
 10
520.3519544563532
 20
112.7790591285248
 30
0.0
 11
512.0186211230199
 21
112.7790591285248
 31
0.0
  0
INSERT
  5
905
330
88A
100
AcDbEntity
  8
0
 62
     0
370
    -2
100
AcDbBlockReference
  2
_Open30
 10
526.856259409545
 20
112.7790591285248
 30
0.0
 41
2.5
 42
2.5
 43
2.5
 50
180.0
  0
INSERT
  5
906
330
88A
100
AcDbEntity
  8
0
 62
     0
370
    -2
100
AcDbBlockReference
  2
_Open30
 10
522.8519544563531
 20
112.7790591285248
 30
0.0
 41
2.5
 42
2.5
 43
2.5
  0
MTEXT
  5
907
330
88A
100
AcDbEntity
  8
0
 62
     4
100
AcDbMText
 10
514.4769544563533
 20
114.4040591285248
 30
0.0
 40
2.0
 41
0.0
 71
     5
 72
     1
  1
0.8
  7
高2
 73
     1
 44
1.0
1001
ACAD
1000
MTEXTBEGIN
1070
    73
1070
     1
1070
    44
1040
1.0
1070
    74
1070
     0
1000
MTEXTEND
  0
POINT
  5
908
330
88A
100
AcDbEntity
  8
Defpoints
 62
     0
100
AcDbPoint
 10
526.856259409545
 20
114.0521467908921
 30
0.0
  0
POINT
  5
909
330
88A
100
AcDbEntity
  8
Defpoints
 62
     0
100
AcDbPoint
 10
522.8519544563531
 20
114.0521467908921
 30
0.0
  0
POINT
  5
90A
330
88A
100
AcDbEntity
  8
Defpoints
 62
     0
100
AcDbPoint
 10
522.8519544563531
 20
112.7790591285248
 30
0.0
  0
ENDBLK
  5
88C
330
88A
100
AcDbEntity
  8
0
100
AcDbBlockEnd
  0
BLOCK
  5
898
330
897
100
AcDbEntity
  8
0
100
AcDbBlockBegin
  2
*D20
 70
     1
 10
0.0
 20
0.0
 30
0.0
  3
*D20
  1

  0
LINE
  5
90B
330
897
100
AcDbEntity
  8
0
 62
     0
370
    -2
100
AcDbLine
 10
526.7652527075326
 20
108.5279268228605
 30
0.0
 11
526.7652527075326
 21
106.7095133154041
 31
0.0
  0
LINE
  5
90C
330
897
100
AcDbEntity
  8
0
 62
     0
370
    -2
100
AcDbLine
 10
522.0328920033166
 20
108.5279268228605
 30
0.0
 11
522.0328920033166
 21
106.7095133154041
 31
0.0
  0
LINE
  5
90D
330
897
100
AcDbEntity
  8
0
 62
     0
370
    -2
100
AcDbLine
 10
529.2652527075326
 20
107.9595133154041
 30
0.0
 11
531.7652527075327
 21
107.9595133154041
 31
0.0
  0
LINE
  5
90E
330
897
100
AcDbEntity
  8
0
 62
     0
370
    -2
100
AcDbLine
 10
519.5328920033166
 20
107.9595133154041
 30
0.0
 11
504.0495586699832
 21
107.9595133154041
 31
0.0
  0
LINE
  5
90F
330
897
100
AcDbEntity
  8
0
 62
     0
370
    -2
100
AcDbLine
 10
526.7652527075326
 20
107.9595133154041
 30
0.0
 11
522.0328920033166
 21
107.9595133154041
 31
0.0
  0
INSERT
  5
910
330
897
100
AcDbEntity
  8
0
 62
     0
370
    -2
100
AcDbBlockReference
  2
_Open30
 10
526.7652527075326
 20
107.9595133154041
 30
0.0
 41
2.5
 42
2.5
 43
2.5
 50
180.0
  0
INSERT
  5
911
330
897
100
AcDbEntity
  8
0
 62
     0
370
    -2
100
AcDbBlockReference
  2
_Open30
 10
522.0328920033166
 20
107.9595133154041
 30
0.0
 41
2.5
 42
2.5
 43
2.5
  0
MTEXT
  5
912
330
897
100
AcDbEntity
  8
0
 62
     4
100
AcDbMText
 10
510.5412253366496
 20
110.1845133154041
 30
0.0
 40
3.2
 41
0.0
 71
     5
 72
     1
  1
18.93
 73
     1
 44
1.0
1001
ACAD
1000
MTEXTBEGIN
1070
    73
1070
     1
1070
    44
1040
1.0
1070
    74
1070
     0
1000
MTEXTEND
  0
POINT
  5
913
330
897
100
AcDbEntity
  8
Defpoints
 62
     0
100
AcDbPoint
 10
526.7652527075326
 20
108.7779268228605
 30
0.0
  0
POINT
  5
914
330
897
100
AcDbEntity
  8
Defpoints
 62
     0
100
AcDbPoint
 10
522.0328920033166
 20
108.7779268228605
 30
0.0
  0
POINT
  5
915
330
897
100
AcDbEntity
  8
Defpoints
 62
     0
100
AcDbPoint
 10
522.0328920033166
 20
107.9595133154041
 30
0.0
  0
ENDBLK
  5
899
330
897
100
AcDbEntity
  8
0
100
AcDbBlockEnd
  0
BLOCK
  5
8A6
330
8A5
100
AcDbEntity
  8
0
100
AcDbBlockBegin
  2
*D21
 70
     1
 10
0.0
 20
0.0
 30
0.0
  3
*D21
  1

  0
LINE
  5
916
330
8A5
100
AcDbEntity
  8
0
 62
     0
370
    -2
100
AcDbLine
 10
523.9608258563943
 20
103.4720866162707
 30
0.0
 11
523.9608258563943
 21
101.1621655393952
 31
0.0
  0
LINE
  5
917
330
8A5
100
AcDbEntity
  8
0
 62
     0
370
    -2
100
AcDbLine
 10
519.3721506542465
 20
103.4720866162707
 30
0.0
 11
519.3721506542465
 21
101.1621655393952
 31
0.0
  0
LINE
  5
918
330
8A5
100
AcDbEntity
  8
0
 62
     0
370
    -2
100
AcDbLine
 10
526.4608258563943
 20
102.4121655393952
 30
0.0
 11
528.9608258563943
 21
102.4121655393952
 31
0.0
  0
LINE
  5
919
330
8A5
100
AcDbEntity
  8
0
 62
     0
370
    -2
100
AcDbLine
 10
516.8721506542465
 20
102.4121655393952
 30
0.0
 11
501.3888173209132
 21
102.4121655393952
 31
0.0
  0
LINE
  5
91A
330
8A5
100
AcDbEntity
  8
0
 62
     0
370
    -2
100
AcDbLine
 10
523.9608258563943
 20
102.4121655393952
 30
0.0
 11
519.3721506542465
 21
102.4121655393952
 31
0.0
  0
INSERT
  5
91B
330
8A5
100
AcDbEntity
  8
0
 62
     0
370
    -2
100
AcDbBlockReference
  2
_Open30
 10
523.9608258563943
 20
102.4121655393952
 30
0.0
 41
2.5
 42
2.5
 43
2.5
 50
180.0
  0
INSERT
  5
91C
330
8A5
100
AcDbEntity
  8
0
 62
     0
370
    -2
100
AcDbBlockReference
  2
_Open30
 10
519.3721506542465
 20
102.4121655393952
 30
0.0
 41
2.5
 42
2.5
 43
2.5
  0
MTEXT
  5
91D
330
8A5
100
AcDbEntity
  8
0
 62
     4
100
AcDbMText
 10
507.8804839875799
 20
104.6371655393952
 30
0.0
 40
3.2
 41
0.0
 71
     5
 72
     1
  1
13.77
 73
     1
 44
1.0
1001
ACAD
1000
MTEXTBEGIN
1070
    73
1070
     1
1070
    44
1040
1.0
1070
    74
1070
     0
1000
MTEXTEND
  0
POINT
  5
91E
330
8A5
100
AcDbEntity
  8
Defpoints
 62
     0
100
AcDbPoint
 10
523.9608258563943
 20
103.7220866162707
 30
0.0
  0
POINT
  5
91F
330
8A5
100
AcDbEntity
  8
Defpoints
 62
     0
100
AcDbPoint
 10
519.3721506542465
 20
103.7220866162707
 30
0.0
  0
POINT
  5
920
330
8A5
100
AcDbEntity
  8
Defpoints
 62
     0
100
AcDbPoint
 10
519.3721506542465
 20
102.4121655393952
 30
0.0
  0
ENDBLK
  5
8A7
330
8A5
100
AcDbEntity
  8
0
100
AcDbBlockEnd
  0
BLOCK
  5
8B4
330
8B3
100
AcDbEntity
  8
0
100
AcDbBlockBegin
  2
*D22
 70
     1
 10
0.0
 20
0.0
 30
0.0
  3
*D22
  1

  0
LINE
  5
921
330
8B3
100
AcDbEntity
  8
0
 62
     0
370
    -2
100
AcDbLine
 10
516.8645430232441
 20
134.4015779345451
 30
0.0
 11
516.8645430232441
 21
141.7981114124828
 31
0.0
  0
LINE
  5
922
330
8B3
100
AcDbEntity
  8
0
 62
     0
370
    -2
100
AcDbLine
 10
506.9260686537541
 20
134.4015779345451
 30
0.0
 11
506.9260686537541
 21
141.7981114124828
 31
0.0
  0
LINE
  5
923
330
8B3
100
AcDbEntity
  8
0
 62
     0
370
    -2
100
AcDbLine
 10
514.3645430232441
 20
140.5481114124828
 30
0.0
 11
509.4260686537539
 21
140.5481114124828
 31
0.0
  0
INSERT
  5
924
330
8B3
100
AcDbEntity
  8
0
 62
     0
370
    -2
100
AcDbBlockReference
  2
_Open30
 10
516.8645430232441
 20
140.5481114124828
 30
0.0
 41
2.5
 42
2.5
 43
2.5
  0
INSERT
  5
925
330
8B3
100
AcDbEntity
  8
0
 62
     0
370
    -2
100
AcDbBlockReference
  2
_Open30
 10
506.9260686537541
 20
140.5481114124828
 30
0.0
 41
2.5
 42
2.5
 43
2.5
 50
180.0
  0
MTEXT
  5
926
330
8B3
100
AcDbEntity
  8
0
 62
     4
100
AcDbMText
 10
511.8953058384991
 20
143.7864447458162
 30
0.0
 40
3.2
 41
0.0
 71
     5
 72
     1
  1
9.94\H0.7X;\S+0^ -0.02;
 73
     1
 44
1.0
1001
ACAD
1000
MTEXTBEGIN
1070
    73
1070
     1
1070
    44
1040
1.0
1070
    74
1070
     0
1000
MTEXTEND
  0
POINT
  5
927
330
8B3
100
AcDbEntity
  8
Defpoints
 62
     0
100
AcDbPoint
 10
516.8645430232441
 20
134.1515779345451
 30
0.0
  0
POINT
  5
928
330
8B3
100
AcDbEntity
  8
Defpoints
 62
     0
100
AcDbPoint
 10
506.9260686537541
 20
134.1515779345451
 30
0.0
  0
POINT
  5
929
330
8B3
100
AcDbEntity
  8
Defpoints
 62
     0
100
AcDbPoint
 10
506.9260686537541
 20
140.5481114124828
 30
0.0
  0
ENDBLK
  5
8B5
330
8B3
100
AcDbEntity
  8
0
100
AcDbBlockEnd
  0
BLOCK
  5
A6A
330
A69
100
AcDbEntity
  8
0
100
AcDbBlockBegin
  2
*D23
 70
     1
 10
0.0
 20
0.0
 30
0.0
  3
*D23
  1

  0
LINE
  5
A6C
330
A69
100
AcDbEntity
  8
0
  6
Continuous
 62
     0
370
    -2
100
AcDbLine
 10
-11.092628
 20
100.095344
 30
0.0
 11
-11.092628
 21
112.3738656936273
 31
0.0
  0
LINE
  5
A6D
330
A69
100
AcDbEntity
  8
0
  6
Continuous
 62
     0
370
    -2
100
AcDbLine
 10
32.657372
 20
99.22034400000001
 30
0.0
 11
32.657372
 21
112.3738656936273
 31
0.0
  0
LINE
  5
A6E
330
A69
100
AcDbEntity
  8
0
  6
Continuous
 62
     0
370
    -2
100
AcDbLine
 10
-8.592627999999999
 20
111.1238656936273
 30
0.0
 11
30.157372
 21
111.1238656936273
 31
0.0
  0
INSERT
  5
A6F
330
A69
100
AcDbEntity
  8
0
  6
Continuous
 62
     0
370
    -2
100
AcDbBlockReference
  2
_Open30
 10
-11.092628
 20
111.1238656936273
 30
0.0
 41
2.5
 42
2.5
 43
2.5
 50
180.0
  0
INSERT
  5
A70
330
A69
100
AcDbEntity
  8
0
  6
Continuous
 62
     0
370
    -2
100
AcDbBlockReference
  2
_Open30
 10
32.657372
 20
111.1238656936273
 30
0.0
 41
2.5
 42
2.5
 43
2.5
  0
MTEXT
  5
A71
330
A69
100
AcDbEntity
  8
0
  6
Continuous
 62
     4
100
AcDbMText
 10
11.50771337474725
 20
113.3488656936273
 30
0.0
 40
3.2
 41
0.0
 71
     5
 72
     1
  1
87.5
 73
     1
 44
1.0
1001
ACAD
1000
MTEXTBEGIN
1070
    73
1070
     1
1070
    44
1040
1.0
1070
    74
1070
     0
1000
MTEXTEND
  0
POINT
  5
A72
330
A69
100
AcDbEntity
  8
Defpoints
  6
Continuous
 62
     0
100
AcDbPoint
 10
-11.092628
 20
99.84534400000001
 30
0.0
  0
POINT
  5
A73
330
A69
100
AcDbEntity
  8
Defpoints
  6
Continuous
 62
     0
100
AcDbPoint
 10
32.657372
 20
98.970344
 30
0.0
  0
POINT
  5
A74
330
A69
100
AcDbEntity
  8
Defpoints
  6
Continuous
 62
     0
100
AcDbPoint
 10
32.657372
 20
111.1238656936273
 30
0.0
  0
ENDBLK
  5
A6B
330
A69
100
AcDbEntity
  8
0
100
AcDbBlockEnd
  0
BLOCK
  5
A77
330
A76
100
AcDbEntity
  8
0
100
AcDbBlockBegin
  2
*D24
 70
     1
 10
0.0
 20
0.0
 30
0.0
  3
*D24
  1

  0
LINE
  5
EB7
330
A76
100
AcDbEntity
  8
0
  6
Continuous
 62
     0
370
    -2
100
AcDbLine
 10
27.407372
 20
104.470344
 30
0.0
 11
42.50297202461343
 21
104.470344
 31
0.0
  0
LINE
  5
EB8
330
A76
100
AcDbEntity
  8
0
  6
Continuous
 62
     0
370
    -2
100
AcDbLine
 10
27.407372
 20
91.220344
 30
0.0
 11
42.50297202461343
 21
91.22034399999998
 31
0.0
  0
LINE
  5
EB9
330
A76
100
AcDbEntity
  8
0
  6
Continuous
 62
     0
370
    -2
100
AcDbLine
 10
41.25297202461343
 20
101.970344
 30
0.0
 11
41.25297202461343
 21
93.72034399999998
 31
0.0
  0
INSERT
  5
EBA
330
A76
100
AcDbEntity
  8
0
  6
Continuous
 62
     0
370
    -2
100
AcDbBlockReference
  2
_Open30
 10
41.25297202461343
 20
104.470344
 30
0.0
 41
2.5
 42
2.5
 43
2.5
 50
90.0
  0
INSERT
  5
EBB
330
A76
100
AcDbEntity
  8
0
  6
Continuous
 62
     0
370
    -2
100
AcDbBlockReference
  2
_Open30
 10
41.25297202461343
 20
91.22034399999998
 30
0.0
 41
2.5
 42
2.5
 43
2.5
 50
270.0
  0
MTEXT
  5
EBC
330
A76
100
AcDbEntity
  8
0
  6
Continuous
 62
     4
100
AcDbMText
 10
39.02797202461342
 20
96.85749285208636
 30
0.0
 40
3.2
 41
0.0
 71
     5
 72
     1
  1
56
 11
0.0000000000000001
 21
1.0
 31
0.0
 73
     1
 44
1.0
1001
ACAD
1000
MTEXTBEGIN
1070
    73
1070
     1
1070
    44
1040
1.0
1070
    74
1070
     0
1000
MTEXTEND
  0
POINT
  5
EBD
330
A76
100
AcDbEntity
  8
Defpoints
  6
Continuous
 62
     0
100
AcDbPoint
 10
27.157372
 20
104.470344
 30
0.0
  0
POINT
  5
EBE
330
A76
100
AcDbEntity
  8
Defpoints
  6
Continuous
 62
     0
100
AcDbPoint
 10
27.157372
 20
91.220344
 30
0.0
  0
POINT
  5
EBF
330
A76
100
AcDbEntity
  8
Defpoints
  6
Continuous
 62
     0
100
AcDbPoint
 10
41.25297202461343
 20
91.22034399999998
 30
0.0
  0
ENDBLK
  5
A78
330
A76
100
AcDbEntity
  8
0
100
AcDbBlockEnd
  0
BLOCK
  5
A8E
330
A8D
100
AcDbEntity
  8
0
100
AcDbBlockBegin
  2
*D25
 70
     1
 10
0.0
 20
0.0
 30
0.0
  3
*D25
  1

  0
LINE
  5
EC0
330
A8D
100
AcDbEntity
  8
0
  6
Continuous
 62
     0
370
    -2
100
AcDbLine
 10
-11.092628
 20
95.595344
 30
0.0
 11
-11.092628
 21
78.323049137608
 31
0.0
  0
LINE
  5
EC1
330
A8D
100
AcDbEntity
  8
0
  6
Continuous
 62
     0
370
    -2
100
AcDbLine
 10
32.657372
 20
96.09534400000001
 30
0.0
 11
32.657372
 21
78.323049137608
 31
0.0
  0
LINE
  5
EC2
330
A8D
100
AcDbEntity
  8
0
  6
Continuous
 62
     0
370
    -2
100
AcDbLine
 10
-8.592628000000001
 20
79.573049137608
 30
0.0
 11
30.157372
 21
79.573049137608
 31
0.0
  0
INSERT
  5
EC3
330
A8D
100
AcDbEntity
  8
0
  6
Continuous
 62
     0
370
    -2
100
AcDbBlockReference
  2
_Open30
 10
-11.092628
 20
79.573049137608
 30
0.0
 41
2.5
 42
2.5
 43
2.5
 50
180.0
  0
INSERT
  5
EC4
330
A8D
100
AcDbEntity
  8
0
  6
Continuous
 62
     0
370
    -2
100
AcDbBlockReference
  2
_Open30
 10
32.657372
 20
79.573049137608
 30
0.0
 41
2.5
 42
2.5
 43
2.5
  0
MTEXT
  5
EC5
330
A8D
100
AcDbEntity
  8
0
  6
Continuous
 62
     4
100
AcDbMText
 10
9.716701309388554
 20
81.79804913760801
 30
0.0
 40
3.2
 41
0.0
 71
     5
 72
     1
  1
174
 73
     1
 44
1.0
1001
ACAD
1000
MTEXTBEGIN
1070
    73
1070
     1
1070
    44
1040
1.0
1070
    74
1070
     0
1000
MTEXTEND
  0
POINT
  5
EC6
330
A8D
100
AcDbEntity
  8
Defpoints
  6
Continuous
 62
     0
100
AcDbPoint
 10
-11.092628
 20
95.845344
 30
0.0
  0
POINT
  5
EC7
330
A8D
100
AcDbEntity
  8
Defpoints
  6
Continuous
 62
     0
100
AcDbPoint
 10
32.657372
 20
96.34534399999999
 30
0.0
  0
POINT
  5
EC8
330
A8D
100
AcDbEntity
  8
Defpoints
  6
Continuous
 62
     0
100
AcDbPoint
 10
32.657372
 20
79.573049137608
 30
0.0
  0
ENDBLK
  5
A8F
330
A8D
100
AcDbEntity
  8
0
100
AcDbBlockEnd
  0
BLOCK
  5
ABD
330
ABC
100
AcDbEntity
  8
0
100
AcDbBlockBegin
  2
*D26
 70
     1
 10
0.0
 20
0.0
 30
0.0
  3
*D26
  1

  0
LINE
  5
EC9
330
ABC
100
AcDbEntity
  8
0
  6
Continuous
 62
     0
370
    -2
100
AcDbLine
 10
27.157372
 20
90.970344
 30
0.0
 11
27.157372
 21
83.56944020969626
 31
0.0
  0
LINE
  5
ECA
330
ABC
100
AcDbEntity
  8
0
  6
Continuous
 62
     0
370
    -2
100
AcDbLine
 10
-11.092628
 20
95.595344
 30
0.0
 11
-11.092628
 21
83.56944020969626
 31
0.0
  0
LINE
  5
ECB
330
ABC
100
AcDbEntity
  8
0
  6
Continuous
 62
     0
370
    -2
100
AcDbLine
 10
24.657372
 20
84.81944020969626
 30
0.0
 11
-8.592627999999999
 21
84.81944020969626
 31
0.0
  0
INSERT
  5
ECC
330
ABC
100
AcDbEntity
  8
0
  6
Continuous
 62
     0
370
    -2
100
AcDbBlockReference
  2
_Open30
 10
27.157372
 20
84.81944020969626
 30
0.0
 41
2.5
 42
2.5
 43
2.5
  0
INSERT
  5
ECD
330
ABC
100
AcDbEntity
  8
0
  6
Continuous
 62
     0
370
    -2
100
AcDbBlockReference
  2
_Open30
 10
-11.092628
 20
84.81944020969626
 30
0.0
 41
2.5
 42
2.5
 43
2.5
 50
180.0
  0
MTEXT
  5
ECE
330
ABC
100
AcDbEntity
  8
0
  6
Continuous
 62
     4
100
AcDbMText
 10
7.513808699702167
 20
87.04444020969626
 30
0.0
 40
3.2
 41
0.0
 71
     5
 72
     1
  1
144
 73
     1
 44
1.0
1001
ACAD
1000
MTEXTBEGIN
1070
    73
1070
     1
1070
    44
1040
1.0
1070
    74
1070
     0
1000
MTEXTEND
  0
POINT
  5
ECF
330
ABC
100
AcDbEntity
  8
Defpoints
  6
Continuous
 62
     0
100
AcDbPoint
 10
27.157372
 20
91.220344
 30
0.0
  0
POINT
  5
ED0
330
ABC
100
AcDbEntity
  8
Defpoints
  6
Continuous
 62
     0
100
AcDbPoint
 10
-11.092628
 20
95.845344
 30
0.0
  0
POINT
  5
ED1
330
ABC
100
AcDbEntity
  8
Defpoints
  6
Continuous
 62
     0
100
AcDbPoint
 10
-11.092628
 20
84.81944020969626
 30
0.0
  0
ENDBLK
  5
ABE
330
ABC
100
AcDbEntity
  8
0
100
AcDbBlockEnd
  0
ENDSEC
  0
SECTION
  2
ENTITIES
  0
LINE
  5
10E
330
36
100
AcDbEntity
  8
0
 62
     3
100
AcDbLine
 10
-14.428077
 20
-2.179656
 30
0.0
 11
-14.428077
 21
-3.779655999999998
 31
0.0
  0
LINE
  5
10F
330
36
100
AcDbEntity
  8
0
 62
     3
100
AcDbLine
 10
-129.428077
 20
-2.179656
 30
0.0
 11
-129.428077
 21
-3.779655999999998
 31
0.0
  0
ARC
  5
110
330
36
100
AcDbEntity
  8
0
 62
     3
100
AcDbCircle
 10
-71.928077
 20
54.220344
 30
0.0
 40
56.35
100
AcDbArc
 50
243.165484
 51
296.834516
  0
ARC
  5
111
330
36
100
AcDbEntity
  8
0
 62
     3
100
AcDbCircle
 10
-45.768568
 20
2.510745
 30
0.0
 40
1.6
100
AcDbArc
 50
30.0
 51
116.834516
  0
ARC
  5
112
330
36
100
AcDbEntity
  8
0
 62
     3
100
AcDbCircle
 10
-98.087586
 20
2.510745
 30
0.0
 40
1.6
100
AcDbArc
 50
63.16548399999999
 51
150.0
  0
ARC
  5
113
330
36
100
AcDbEntity
  8
0
 62
     3
100
AcDbCircle
 10
-45.768568
 20
2.510745
 30
0.0
 40
3.2
100
AcDbArc
 50
30.0
 51
116.834516
  0
ARC
  5
114
330
36
100
AcDbEntity
  8
0
 62
     3
100
AcDbCircle
 10
-98.087586
 20
2.510745
 30
0.0
 40
3.2
100
AcDbArc
 50
63.16548399999999
 51
150.0
  0
LINE
  5
115
330
36
100
AcDbEntity
  8
0
 62
     3
100
AcDbLine
 10
-36.47877000000001
 20
-2.179656
 30
0.0
 11
-14.428077
 21
-2.179656
 31
0.0
  0
LINE
  5
116
330
36
100
AcDbEntity
  8
0
 62
     3
100
AcDbLine
 10
-107.377383
 20
-2.179656
 30
0.0
 11
-129.428077
 21
-2.179656
 31
0.0
  0
LINE
  5
117
330
36
100
AcDbEntity
  8
0
 62
     3
100
AcDbLine
 10
-103.047256
 20
0.320344
 30
0.0
 11
-100.858867
 21
4.110744999999996
 31
0.0
  0
LINE
  5
118
330
36
100
AcDbEntity
  8
0
 62
     3
100
AcDbLine
 10
-40.80889699999999
 20
0.320344
 30
0.0
 11
-42.99728599999999
 21
4.110744999999996
 31
0.0
  0
ARC
  5
119
330
36
100
AcDbEntity
  8
0
 62
     3
100
AcDbCircle
 10
-36.47877000000001
 20
2.820344
 30
0.0
 40
5.0
100
AcDbArc
 50
210.0
 51
270.0
  0
ARC
  5
11A
330
36
100
AcDbEntity
  8
0
 62
     3
100
AcDbCircle
 10
-107.377383
 20
2.820344
 30
0.0
 40
5.0
100
AcDbArc
 50
270.0
 51
330.0
  0
ARC
  5
11B
330
36
100
AcDbEntity
  8
0
 62
     3
100
AcDbCircle
 10
-107.377383
 20
2.820344
 30
0.0
 40
6.599999999999997
100
AcDbArc
 50
270.0
 51
330.0
  0
LINE
  5
11C
330
36
100
AcDbEntity
  8
0
 62
     3
100
AcDbLine
 10
-101.661615
 20
-0.4796560000000003
 30
0.0
 11
-99.47322599999999
 21
3.310744999999998
 31
0.0
  0
LINE
  5
11D
330
36
100
AcDbEntity
  8
0
 62
     3
100
AcDbLine
 10
-107.377383
 20
-3.779655999999998
 30
0.0
 11
-129.428077
 21
-3.779655999999998
 31
0.0
  0
ARC
  5
11E
330
36
100
AcDbEntity
  8
0
 62
     3
100
AcDbCircle
 10
-36.47877000000001
 20
2.820344
 30
0.0
 40
6.599999999999997
100
AcDbArc
 50
210.0
 51
270.0
  0
LINE
  5
11F
330
36
100
AcDbEntity
  8
0
 62
     3
100
AcDbLine
 10
-42.194538
 20
-0.4796560000000003
 30
0.0
 11
-44.382927
 21
3.310744999999998
 31
0.0
  0
LINE
  5
120
330
36
100
AcDbEntity
  8
0
 62
     3
100
AcDbLine
 10
-36.47877000000001
 20
-3.779655999999998
 30
0.0
 11
-14.428077
 21
-3.779655999999998
 31
0.0
  0
LINE
  5
121
330
36
100
AcDbEntity
  8
0
 62
     3
100
AcDbLine
 10
63.539163
 20
-3.779655999999998
 30
0.0
 11
96.03916300000001
 21
-3.779655999999998
 31
0.0
  0
LINE
  5
122
330
36
100
AcDbEntity
  8
0
 62
     3
100
AcDbLine
 10
63.539163
 20
-2.179656
 30
0.0
 11
63.539163
 21
-3.779655999999998
 31
0.0
  0
LINE
  5
123
330
36
100
AcDbEntity
  8
0
 62
     3
100
AcDbLine
 10
96.03916300000001
 20
-2.179656
 30
0.0
 11
96.03916300000001
 21
-3.779655999999998
 31
0.0
  0
LINE
  5
124
330
36
100
AcDbEntity
  8
0
 62
     3
100
AcDbLine
 10
62.039163
 20
15.470344
 30
0.0
 11
62.039163
 21
92.97034399999999
 31
0.0
  0
LINE
  5
125
330
36
100
AcDbEntity
  8
0
 62
     3
100
AcDbLine
 10
97.539163
 20
92.97034399999999
 30
0.0
 11
97.539163
 21
15.470344
 31
0.0
  0
LINE
  5
126
330
36
100
AcDbEntity
  8
0
 62
     3
100
AcDbLine
 10
66.414163
 20
5.970343999999997
 30
0.0
 11
66.414163
 21
102.470344
 31
0.0
  0
LINE
  5
127
330
36
100
AcDbEntity
  8
0
 62
     3
100
AcDbLine
 10
93.164163
 20
102.470344
 30
0.0
 11
93.164163
 21
5.970343999999997
 31
0.0
  0
LINE
  5
128
330
36
100
AcDbEntity
  8
0
 62
     3
100
AcDbLine
 10
63.289163
 20
94.22034399999999
 30
0.0
 11
66.414163
 21
94.22034399999999
 31
0.0
  0
LINE
  5
129
330
36
100
AcDbEntity
  8
0
 62
     3
100
AcDbLine
 10
96.289163
 20
94.22034399999999
 30
0.0
 11
93.164163
 21
94.22034399999999
 31
0.0
  0
LINE
  5
12A
330
36
100
AcDbEntity
  8
0
 62
     3
100
AcDbLine
 10
63.289163
 20
14.220344
 30
0.0
 11
66.414163
 21
14.220344
 31
0.0
  0
LINE
  5
12B
330
36
100
AcDbEntity
  8
0
 62
     3
100
AcDbLine
 10
96.289163
 20
14.220344
 30
0.0
 11
93.164163
 21
14.220344
 31
0.0
  0
LINE
  5
12C
330
36
100
AcDbEntity
  8
0
 62
     3
100
AcDbLine
 10
88.789163
 20
107.720344
 30
0.0
 11
88.789163
 21
5.36615
 31
0.0
  0
LINE
  5
12D
330
36
100
AcDbEntity
  8
0
 62
     3
100
AcDbLine
 10
70.789163
 20
107.720344
 30
0.0
 11
70.789163
 21
5.36615
 31
0.0
  0
LINE
  5
12E
330
36
100
AcDbEntity
  8
0
 62
     3
100
AcDbLine
 10
67.664163
 20
4.720343999999998
 30
0.0
 11
69.711466
 21
4.720343999999998
 31
0.0
  0
LINE
  5
12F
330
36
100
AcDbEntity
  8
0
 62
     3
100
AcDbLine
 10
91.914163
 20
4.720343999999998
 30
0.0
 11
89.86686
 21
4.720343999999998
 31
0.0
  0
LINE
  5
130
330
36
100
AcDbEntity
  8
0
 62
     3
100
AcDbLine
 10
67.664163
 20
103.720344
 30
0.0
 11
70.789163
 21
103.720344
 31
0.0
  0
LINE
  5
131
330
36
100
AcDbEntity
  8
0
 62
     3
100
AcDbLine
 10
91.914163
 20
103.720344
 30
0.0
 11
88.789163
 21
103.720344
 31
0.0
  0
ARC
  5
132
330
36
100
AcDbEntity
  8
0
 62
     3
100
AcDbCircle
 10
63.289163
 20
92.97034399999999
 30
0.0
 40
1.25
100
AcDbArc
 50
90.0
 51
180.0
  0
ARC
  5
133
330
36
100
AcDbEntity
  8
0
 62
     3
100
AcDbCircle
 10
63.289163
 20
15.470344
 30
0.0
 40
1.25
100
AcDbArc
 50
180.0
 51
270.0
  0
ARC
  5
134
330
36
100
AcDbEntity
  8
0
 62
     3
100
AcDbCircle
 10
67.664163
 20
102.470344
 30
0.0
 40
1.25
100
AcDbArc
 50
90.0
 51
180.0
  0
ARC
  5
135
330
36
100
AcDbEntity
  8
0
 62
     3
100
AcDbCircle
 10
72.039163
 20
107.720344
 30
0.0
 40
1.25
100
AcDbArc
 50
90.0
 51
180.0
  0
ARC
  5
136
330
36
100
AcDbEntity
  8
0
 62
     3
100
AcDbCircle
 10
67.664163
 20
5.970343999999997
 30
0.0
 40
1.25
100
AcDbArc
 50
180.0
 51
270.0
  0
ARC
  5
137
330
36
100
AcDbEntity
  8
0
 62
     3
100
AcDbCircle
 10
91.914163
 20
5.970343999999997
 30
0.0
 40
1.25
100
AcDbArc
 50
270.0
 51
0.0
  0
ARC
  5
138
330
36
100
AcDbEntity
  8
0
 62
     3
100
AcDbCircle
 10
96.289163
 20
15.470344
 30
0.0
 40
1.25
100
AcDbArc
 50
270.0
 51
0.0
  0
ARC
  5
139
330
36
100
AcDbEntity
  8
0
 62
     3
100
AcDbCircle
 10
96.289163
 20
92.97034399999999
 30
0.0
 40
1.25
100
AcDbArc
 50
0.0
 51
90.0
  0
LINE
  5
13A
330
36
100
AcDbEntity
  8
0
  6
HIDDEN
 62
     7
100
AcDbLine
 10
97.539163
 20
92.97034399999999
 30
0.0
 11
97.539163
 21
94.22034399999999
 31
0.0
  0
ARC
  5
13B
330
36
100
AcDbEntity
  8
0
 62
     3
100
AcDbCircle
 10
91.914163
 20
102.470344
 30
0.0
 40
1.25
100
AcDbArc
 50
0.0
 51
90.0
  0
ARC
  5
13C
330
36
100
AcDbEntity
  8
0
 62
     3
100
AcDbCircle
 10
87.539163
 20
107.720344
 30
0.0
 40
1.25
100
AcDbArc
 50
0.0
 51
90.0
  0
LINE
  5
13D
330
36
100
AcDbEntity
  8
0
 62
     3
100
AcDbLine
 10
-60.178077
 20
54.220344
 30
0.0
 11
-59.45059699999998
 21
53.470344
 31
0.0
  0
ARC
  5
13E
330
36
100
AcDbEntity
  8
0
 62
     3
100
AcDbCircle
 10
-71.928077
 20
54.220344
 30
0.0
 40
15.0
100
AcDbArc
 50
330.0
 51
135.0
  0
ARC
  5
13F
330
36
100
AcDbEntity
  8
0
 62
     3
100
AcDbCircle
 10
-71.928077
 20
54.220344
 30
0.0
 40
7.5
100
AcDbArc
 50
330.0
 51
135.0
  0
LINE
  5
140
330
36
100
AcDbEntity
  8
0
 62
     3
100
AcDbLine
 10
72.039163
 20
108.970344
 30
0.0
 11
87.539163
 21
108.970344
 31
0.0
  0
LINE
  5
141
330
36
100
AcDbEntity
  8
0
 62
     3
100
AcDbLine
 10
-51.385438
 20
104.970344
 30
0.0
 11
-26.678077
 21
104.970344
 31
0.0
  0
LINE
  5
142
330
36
100
AcDbEntity
  8
0
 62
     3
100
AcDbLine
 10
-26.678077
 20
85.72034399999997
 30
0.0
 11
-27.147361
 21
85.72034399999997
 31
0.0
  0
LINE
  5
143
330
36
100
AcDbEntity
  8
0
 62
     3
100
AcDbLine
 10
-26.678077
 20
104.970344
 30
0.0
 11
-26.678077
 21
85.04241400000003
 31
0.0
  0
LINE
  5
144
330
36
100
AcDbEntity
  8
0
 62
     3
100
AcDbLine
 10
-26.665577
 20
104.970344
 30
0.0
 11
-26.665577
 21
85.72034399999997
 31
0.0
  0
LINE
  5
145
330
36
100
AcDbEntity
  8
0
 62
     3
100
AcDbLine
 10
-11.092628
 20
99.84534400000001
 30
0.0
 11
-11.092628
 21
95.845344
 31
0.0
  0
LINE
  5
146
330
36
100
AcDbEntity
  8
0
 62
     3
100
AcDbLine
 10
27.157372
 20
104.470344
 30
0.0
 11
27.157372
 21
91.220344
 31
0.0
  0
LINE
  5
147
330
36
100
AcDbEntity
  8
0
 62
     3
100
AcDbLine
 10
-3.592627999999998
 20
95.595344
 30
0.0
 11
-3.592627999999998
 21
100.095344
 31
0.0
  0
LINE
  5
148
330
36
100
AcDbEntity
  8
0
 62
     3
100
AcDbLine
 10
-11.092628
 20
99.84534400000001
 30
0.0
 11
-3.592627999999998
 21
100.095344
 31
0.0
  0
LINE
  5
149
330
36
100
AcDbEntity
  8
0
 62
     3
100
AcDbLine
 10
-11.092628
 20
95.845344
 30
0.0
 11
-3.592627999999998
 21
95.595344
 31
0.0
  0
LINE
  5
14A
330
36
100
AcDbEntity
  8
0
 62
     3
100
AcDbLine
 10
-2.092627999999999
 20
101.845344
 30
0.0
 11
-2.092627999999999
 21
93.84534399999999
 31
0.0
  0
LINE
  5
14B
330
36
100
AcDbEntity
  8
0
 62
     3
100
AcDbLine
 10
-3.592627999999998
 20
100.095344
 30
0.0
 11
-2.092627999999999
 21
101.845344
 31
0.0
  0
LINE
  5
14C
330
36
100
AcDbEntity
  8
0
 62
     3
100
AcDbLine
 10
-3.592627999999998
 20
95.595344
 30
0.0
 11
-2.092627999999999
 21
93.84534399999999
 31
0.0
  0
LINE
  5
14D
330
36
100
AcDbEntity
  8
0
 62
     3
100
AcDbLine
 10
-2.092627999999999
 20
101.845344
 30
0.0
 11
5.407372
 21
102.518421
 31
0.0
  0
LINE
  5
14E
330
36
100
AcDbEntity
  8
0
 62
     3
100
AcDbLine
 10
-2.092627999999999
 20
93.84534399999999
 30
0.0
 11
5.407372
 21
93.172267
 31
0.0
  0
LINE
  5
14F
330
36
100
AcDbEntity
  8
0
 62
     3
100
AcDbLine
 10
14.407372
 20
104.470344
 30
0.0
 11
27.157372
 21
104.470344
 31
0.0
  0
LINE
  5
150
330
36
100
AcDbEntity
  8
0
 62
     3
100
AcDbLine
 10
14.407372
 20
91.220344
 30
0.0
 11
27.157372
 21
91.220344
 31
0.0
  0
LINE
  5
151
330
36
100
AcDbEntity
  8
0
 62
     3
100
AcDbLine
 10
14.407372
 20
104.470344
 30
0.0
 11
14.407372
 21
91.220344
 31
0.0
  0
LINE
  5
152
330
36
100
AcDbEntity
  8
0
 62
     3
100
AcDbLine
 10
5.407372
 20
102.518421
 30
0.0
 11
14.407372
 21
104.470344
 31
0.0
  0
LINE
  5
153
330
36
100
AcDbEntity
  8
0
 62
     3
100
AcDbLine
 10
5.407372
 20
93.172267
 30
0.0
 11
14.407372
 21
91.220344
 31
0.0
  0
LINE
  5
154
330
36
100
AcDbEntity
  8
0
 62
     3
100
AcDbLine
 10
27.407372
 20
100.095344
 30
0.0
 11
27.157372
 21
100.095344
 31
0.0
  0
LINE
  5
155
330
36
100
AcDbEntity
  8
0
 62
     3
100
AcDbLine
 10
27.407372
 20
95.595344
 30
0.0
 11
27.157372
 21
95.595344
 31
0.0
  0
ARC
  5
156
330
36
100
AcDbEntity
  8
0
 62
     3
100
AcDbCircle
 10
-71.928077
 20
54.220344
 30
0.0
 40
25.5
100
AcDbArc
 50
330.0
 51
32.0
  0
ARC
  5
157
330
36
100
AcDbEntity
  8
0
 62
     3
100
AcDbCircle
 10
-71.928077
 20
54.220344
 30
0.0
 40
21.5
100
AcDbArc
 50
330.0
 51
32.0
  0
ARC
  5
158
330
36
100
AcDbEntity
  8
0
 62
     3
100
AcDbCircle
 10
-71.928077
 20
54.220344
 30
0.0
 40
37.5
100
AcDbArc
 50
330.0
 51
32.0
  0
ARC
  5
159
330
36
100
AcDbEntity
  8
0
 62
     3
100
AcDbCircle
 10
-71.928077
 20
54.220344
 30
0.0
 40
45.0
100
AcDbArc
 50
330.0
 51
32.0
  0
LINE
  5
15A
330
36
100
AcDbEntity
  8
0
  6
CENTER
 62
     7
100
AcDbLine
 10
-126.678077
 20
54.220344
 30
0.0
 11
-131.678077
 21
54.220344
 31
0.0
  0
LINE
  5
15B
330
36
100
AcDbEntity
  8
0
  6
CENTER
 62
     7
100
AcDbLine
 10
-23.428077
 20
0.820344
 30
0.0
 11
-23.428077
 21
-6.779656
 31
0.0
  0
LINE
  5
15C
330
36
100
AcDbEntity
  8
0
  6
CENTER
 62
     7
100
AcDbLine
 10
-120.428077
 20
0.820344
 30
0.0
 11
-120.428077
 21
-6.779656
 31
0.0
  0
LINE
  5
15D
330
36
100
AcDbEntity
  8
0
 62
     3
100
AcDbLine
 10
88.789163
 20
85.72034399999997
 30
0.0
 11
70.789163
 21
85.72034399999997
 31
0.0
  0
ARC
  5
15E
330
36
100
AcDbEntity
  8
0
 62
     3
100
AcDbCircle
 10
97.539163
 20
54.220344
 30
0.0
 40
1.0625
100
AcDbArc
 50
270.0
 51
90.0
  0
ARC
  5
15F
330
36
100
AcDbEntity
  8
0
 62
     3
100
AcDbCircle
 10
62.039163
 20
54.220344
 30
0.0
 40
1.0625
100
AcDbArc
 50
90.0
 51
270.0
  0
LINE
  5
160
330
36
100
AcDbEntity
  8
0
 62
     3
100
AcDbLine
 10
96.03916300000001
 20
-2.179656
 30
0.0
 11
89.289163
 21
5.36615
 31
0.0
  0
LINE
  5
161
330
36
100
AcDbEntity
  8
0
 62
     3
100
AcDbLine
 10
63.539163
 20
-2.179656
 30
0.0
 11
70.289163
 21
5.36615
 31
0.0
  0
ARC
  5
162
330
36
100
AcDbEntity
  8
0
 62
     3
100
AcDbCircle
 10
-121.678077
 20
-32.874249
 30
0.0
 40
2.5
100
AcDbArc
 50
90.0
 51
270.0
  0
LINE
  5
163
330
36
100
AcDbEntity
  8
0
 62
     3
100
AcDbLine
 10
-119.178077
 20
-30.374249
 30
0.0
 11
-121.678077
 21
-30.374249
 31
0.0
  0
ARC
  5
164
330
36
100
AcDbEntity
  8
0
 62
     3
100
AcDbCircle
 10
-119.178077
 20
-32.874249
 30
0.0
 40
2.5
100
AcDbArc
 50
270.0
 51
90.0
  0
LINE
  5
165
330
36
100
AcDbEntity
  8
0
 62
     3
100
AcDbLine
 10
-119.178077
 20
-35.374249
 30
0.0
 11
-121.678077
 21
-35.374249
 31
0.0
  0
ARC
  5
166
330
36
100
AcDbEntity
  8
0
 62
     3
100
AcDbCircle
 10
-119.178077
 20
-51.87424899999999
 30
0.0
 40
2.5
100
AcDbArc
 50
270.0
 51
90.0
  0
LINE
  5
167
330
36
100
AcDbEntity
  8
0
 62
     3
100
AcDbLine
 10
-119.178077
 20
-49.37424899999999
 30
0.0
 11
-121.678077
 21
-49.37424899999999
 31
0.0
  0
ARC
  5
168
330
36
100
AcDbEntity
  8
0
 62
     3
100
AcDbCircle
 10
-121.678077
 20
-51.87424899999999
 30
0.0
 40
2.5
100
AcDbArc
 50
90.0
 51
270.0
  0
LINE
  5
169
330
36
100
AcDbEntity
  8
0
 62
     3
100
AcDbLine
 10
-119.178077
 20
-54.37424899999999
 30
0.0
 11
-121.678077
 21
-54.37424899999999
 31
0.0
  0
LINE
  5
16A
330
36
100
AcDbEntity
  8
0
  6
CENTER
 62
     7
100
AcDbLine
 10
-120.428077
 20
-60.281835
 30
0.0
 11
-120.428077
 21
-46.518178
 31
0.0
  0
LINE
  5
16B
330
36
100
AcDbEntity
  8
0
  6
CENTER
 62
     7
100
AcDbLine
 10
-127.178077
 20
-51.87424899999999
 30
0.0
 11
-113.678077
 21
-51.87424899999999
 31
0.0
  0
LINE
  5
16C
330
36
100
AcDbEntity
  8
0
  6
CENTER
 62
     7
100
AcDbLine
 10
-120.428077
 20
-38.23032
 30
0.0
 11
-120.428077
 21
-27.374249
 31
0.0
  0
LINE
  5
16D
330
36
100
AcDbEntity
  8
0
  6
CENTER
 62
     7
100
AcDbLine
 10
-127.178077
 20
-32.874249
 30
0.0
 11
-113.678077
 21
-32.874249
 31
0.0
  0
ARC
  5
16E
330
36
100
AcDbEntity
  8
0
 62
     3
100
AcDbCircle
 10
-24.678077
 20
-32.874249
 30
0.0
 40
2.5
100
AcDbArc
 50
90.0
 51
270.0
  0
LINE
  5
16F
330
36
100
AcDbEntity
  8
0
 62
     3
100
AcDbLine
 10
-22.178077
 20
-30.374249
 30
0.0
 11
-24.678077
 21
-30.374249
 31
0.0
  0
ARC
  5
170
330
36
100
AcDbEntity
  8
0
 62
     3
100
AcDbCircle
 10
-22.178077
 20
-32.874249
 30
0.0
 40
2.5
100
AcDbArc
 50
270.0
 51
90.0
  0
LINE
  5
171
330
36
100
AcDbEntity
  8
0
 62
     3
100
AcDbLine
 10
-22.178077
 20
-35.374249
 30
0.0
 11
-24.678077
 21
-35.374249
 31
0.0
  0
LINE
  5
172
330
36
100
AcDbEntity
  8
0
  6
CENTER
 62
     7
100
AcDbLine
 10
-23.428077
 20
-38.23032
 30
0.0
 11
-23.428077
 21
-27.374249
 31
0.0
  0
LINE
  5
173
330
36
100
AcDbEntity
  8
0
  6
CENTER
 62
     7
100
AcDbLine
 10
-30.178077
 20
-32.874249
 30
0.0
 11
-16.678077
 21
-32.874249
 31
0.0
  0
ARC
  5
174
330
36
100
AcDbEntity
  8
0
 62
     3
100
AcDbCircle
 10
-22.178077
 20
-51.87424899999999
 30
0.0
 40
2.5
100
AcDbArc
 50
270.0
 51
90.0
  0
LINE
  5
175
330
36
100
AcDbEntity
  8
0
 62
     3
100
AcDbLine
 10
-22.178077
 20
-49.37424899999999
 30
0.0
 11
-24.678077
 21
-49.37424899999999
 31
0.0
  0
ARC
  5
176
330
36
100
AcDbEntity
  8
0
 62
     3
100
AcDbCircle
 10
-24.678077
 20
-51.87424899999999
 30
0.0
 40
2.5
100
AcDbArc
 50
90.0
 51
270.0
  0
LINE
  5
177
330
36
100
AcDbEntity
  8
0
 62
     3
100
AcDbLine
 10
-22.178077
 20
-54.37424899999999
 30
0.0
 11
-24.678077
 21
-54.37424899999999
 31
0.0
  0
LINE
  5
178
330
36
100
AcDbEntity
  8
0
  6
CENTER
 62
     7
100
AcDbLine
 10
-23.428077
 20
-60.281835
 30
0.0
 11
-23.428077
 21
-46.518178
 31
0.0
  0
LINE
  5
179
330
36
100
AcDbEntity
  8
0
  6
CENTER
 62
     7
100
AcDbLine
 10
-30.178077
 20
-51.87424899999999
 30
0.0
 11
-16.678077
 21
-51.87424899999999
 31
0.0
  0
LINE
  5
17A
330
36
100
AcDbEntity
  8
0
  6
CENTER
 62
     7
100
AcDbLine
 10
-132.428077
 20
-42.37424899999999
 30
0.0
 11
-11.428077
 21
-42.37424899999999
 31
0.0
  0
LINE
  5
17B
330
36
100
AcDbEntity
  8
0
  6
CENTER
 62
     7
100
AcDbLine
 10
-71.928077
 20
-61.624249
 30
0.0
 11
-71.928077
 21
-23.124249
 31
0.0
  0
LINE
  5
17C
330
36
100
AcDbEntity
  8
0
  6
PHANTOM
 62
     7
100
AcDbLine
 10
-14.428077
 20
-58.624249
 30
0.0
 11
-129.428077
 21
-58.624249
 31
0.0
  0
LINE
  5
17E
330
36
100
AcDbEntity
  8
0
  6
PHANTOM
 62
     7
100
AcDbLine
 10
-14.428077
 20
-26.17424899999999
 30
0.0
 11
-14.428077
 21
-58.624249
 31
0.0
  0
LINE
  5
17F
330
36
100
AcDbEntity
  8
0
  6
PHANTOM
 62
     7
100
AcDbLine
 10
-129.428077
 20
-58.624249
 30
0.0
 11
-129.428077
 21
-26.174249
 31
0.0
  0
LINE
  5
180
330
36
100
AcDbEntity
  8
0
 62
     7
100
AcDbLine
 10
-25.497443
 20
83.233423
 30
0.0
 11
-59.20735500000001
 21
62.16913299999998
 31
0.0
  0
LINE
  5
181
330
36
100
AcDbEntity
  8
0
 62
     7
100
AcDbLine
 10
-24.513186
 20
26.845344
 30
0.0
 11
-71.928077
 21
54.220344
 31
0.0
  0
LINE
  5
182
330
36
100
AcDbEntity
  8
0
 62
     7
100
AcDbLine
 10
-71.928077
 20
54.220344
 30
0.0
 11
-110.642173
 21
92.93444
 31
0.0
  0
LINE
  5
188
330
36
100
AcDbEntity
  8
0
 62
     7
100
AcDbLine
 10
-18.630545
 20
-1.839845999999999
 30
0.0
 11
1.338281999999997
 21
12.308238
 31
0.0
  0
CIRCLE
  5
189
330
36
100
AcDbEntity
  8
0
 62
     7
100
AcDbCircle
 10
5.418066999999997
 20
15.198801
 30
0.0
 40
5.0
  0
TEXT
  5
18A
330
36
100
AcDbEntity
  8
0
 62
     4
100
AcDbText
 10
3.558487260338487
 20
11.99286078045405
 30
0.0
 40
6.981817999999997
  1
2
 41
0.859375
100
AcDbText
  0
LINE
  5
18B
330
36
100
AcDbEntity
  8
0
 62
     3
100
AcDbLine
 10
-27.165577
 20
85.74622299999999
 30
0.0
 11
-27.165577
 21
85.72034399999997
 31
0.0
  0
ARC
  5
18C
330
36
100
AcDbEntity
  8
0
 62
     3
100
AcDbCircle
 10
-71.928077
 20
54.220344
 30
0.0
 40
54.75
100
AcDbArc
 50
53.480365
 51
52.181245
  0
LINE
  5
192
330
36
100
AcDbEntity
  8
0
 62
     7
100
AcDbLine
 10
-57.272539
 20
49.174037
 30
0.0
 11
6.731324
 21
70.734265
 31
0.0
  0
CIRCLE
  5
193
330
36
100
AcDbEntity
  8
0
 62
     7
100
AcDbCircle
 10
11.469706
 20
72.33042799999998
 30
0.0
 40
5.0
  0
TEXT
  5
194
330
36
100
AcDbEntity
  8
0
 62
     4
100
AcDbText
 10
9.610126260338489
 20
69.12448778045405
 30
0.0
 40
6.981817999999997
  1
7
 41
0.859375
100
AcDbText
  0
TEXT
  5
195
330
36
100
AcDbEntity
  8
0
 62
     3
100
AcDbText
 10
-175.483437
 20
-46.98499
 30
0.0
 40
4.5
  1
取付穴寸法
 41
0.833333
100
AcDbText
  0
LINE
  5
196
330
36
100
AcDbEntity
  8
0
 62
     3
100
AcDbLine
 10
-152.8998835078194
 20
-47.79921450202524
 30
0.0
 11
-175.6608925078194
 21
-47.79921450202524
 31
0.0
  0
LINE
  5
197
330
36
100
AcDbEntity
  8
0
 62
     3
100
AcDbLine
 10
85.16416300000001
 20
96.220344
 30
0.0
 11
85.16416300000001
 21
99.47034399999999
 31
0.0
  0
ARC
  5
198
330
36
100
AcDbEntity
  8
0
 62
     3
100
AcDbCircle
 10
80.16416300000001
 20
99.47034399999999
 30
0.0
 40
5.0
100
AcDbArc
 50
0.0
 51
90.0
  0
ARC
  5
199
330
36
100
AcDbEntity
  8
0
 62
     3
100
AcDbCircle
 10
80.16416300000001
 20
96.220344
 30
0.0
 40
5.0
100
AcDbArc
 50
270.0
 51
0.0
  0
LINE
  5
19A
330
36
100
AcDbEntity
  8
0
 62
     3
100
AcDbLine
 10
80.41416299999999
 20
97.34534400000001
 30
0.0
 11
80.78916300000001
 21
98.095344
 31
0.0
  0
LINE
  5
19B
330
36
100
AcDbEntity
  8
0
 62
     3
100
AcDbLine
 10
82.03916300000001
 20
98.84534399999999
 30
0.0
 11
81.41416300000001
 21
97.34534400000001
 31
0.0
  0
LINE
  5
19C
330
36
100
AcDbEntity
  8
0
 62
     3
100
AcDbLine
 10
81.41416300000001
 20
97.34534400000001
 30
0.0
 11
80.78916300000001
 21
98.095344
 31
0.0
  0
LINE
  5
19D
330
36
100
AcDbEntity
  8
0
 62
     3
100
AcDbLine
 10
82.789163
 20
98.84534399999999
 30
0.0
 11
82.03916300000001
 21
98.84534399999999
 31
0.0
  0
LINE
  5
19E
330
36
100
AcDbEntity
  8
0
 62
     3
100
AcDbLine
 10
83.164163
 20
96.220344
 30
0.0
 11
83.164163
 21
95.595344
 31
0.0
  0
LINE
  5
19F
330
36
100
AcDbEntity
  8
0
 62
     3
100
AcDbLine
 10
82.789163
 20
100.095344
 30
0.0
 11
83.164163
 21
100.095344
 31
0.0
  0
LINE
  5
1A0
330
36
100
AcDbEntity
  8
0
 62
     3
100
AcDbLine
 10
82.789163
 20
95.595344
 30
0.0
 11
83.164163
 21
95.595344
 31
0.0
  0
ARC
  5
1A1
330
36
100
AcDbEntity
  8
0
 62
     3
100
AcDbCircle
 10
82.66416300000001
 20
96.220344
 30
0.0
 40
0.5
100
AcDbArc
 50
0.0
 51
90.0
  0
LINE
  5
1A2
330
36
100
AcDbEntity
  8
0
 62
     3
100
AcDbLine
 10
83.164163
 20
99.47034399999999
 30
0.0
 11
83.164163
 21
100.095344
 31
0.0
  0
ARC
  5
1A3
330
36
100
AcDbEntity
  8
0
 62
     3
100
AcDbCircle
 10
82.66416300000001
 20
99.47034399999999
 30
0.0
 40
0.5
100
AcDbArc
 50
270.0
 51
0.0
  0
LINE
  5
1A4
330
36
100
AcDbEntity
  8
0
 62
     3
100
AcDbLine
 10
81.539163
 20
99.345344
 30
0.0
 11
81.539163
 21
102.720344
 31
0.0
  0
LINE
  5
1A5
330
36
100
AcDbEntity
  8
0
 62
     3
100
AcDbLine
 10
82.789163
 20
92.97034399999999
 30
0.0
 11
82.789163
 21
102.720344
 31
0.0
  0
LINE
  5
1A6
330
36
100
AcDbEntity
  8
0
 62
     3
100
AcDbLine
 10
81.539163
 20
96.34534399999999
 30
0.0
 11
81.539163
 21
93.345344
 31
0.0
  0
LINE
  5
1A7
330
36
100
AcDbEntity
  8
0
 62
     3
100
AcDbLine
 10
83.85166299999999
 20
104.970344
 30
0.0
 11
83.85166299999999
 21
102.847079
 31
0.0
  0
LINE
  5
1A8
330
36
100
AcDbEntity
  8
0
 62
     3
100
AcDbLine
 10
74.414163
 20
96.220344
 30
0.0
 11
74.414163
 21
99.47034399999999
 31
0.0
  0
ARC
  5
1A9
330
36
100
AcDbEntity
  8
0
 62
     3
100
AcDbCircle
 10
79.414163
 20
99.47034399999999
 30
0.0
 40
5.0
100
AcDbArc
 50
90.0
 51
180.0
  0
ARC
  5
1AA
330
36
100
AcDbEntity
  8
0
 62
     3
100
AcDbCircle
 10
79.414163
 20
96.220344
 30
0.0
 40
5.0
100
AcDbArc
 50
180.0
 51
270.0
  0
LINE
  5
1AB
330
36
100
AcDbEntity
  8
0
 62
     3
100
AcDbLine
 10
79.164163
 20
97.34534400000001
 30
0.0
 11
78.789163
 21
98.095344
 31
0.0
  0
LINE
  5
1AC
330
36
100
AcDbEntity
  8
0
 62
     3
100
AcDbLine
 10
78.789163
 20
98.095344
 30
0.0
 11
78.164163
 21
97.34534400000001
 31
0.0
  0
LINE
  5
1AD
330
36
100
AcDbEntity
  8
0
 62
     3
100
AcDbLine
 10
77.539163
 20
98.84534399999999
 30
0.0
 11
76.789163
 21
98.84534399999999
 31
0.0
  0
LINE
  5
1AE
330
36
100
AcDbEntity
  8
0
 62
     3
100
AcDbLine
 10
77.539163
 20
98.84534399999999
 30
0.0
 11
78.164163
 21
97.34534400000001
 31
0.0
  0
LINE
  5
1AF
330
36
100
AcDbEntity
  8
0
 62
     3
100
AcDbLine
 10
76.789163
 20
100.095344
 30
0.0
 11
76.414163
 21
100.095344
 31
0.0
  0
LINE
  5
1B0
330
36
100
AcDbEntity
  8
0
 62
     3
100
AcDbLine
 10
76.414163
 20
99.47034399999999
 30
0.0
 11
76.414163
 21
100.095344
 31
0.0
  0
LINE
  5
1B1
330
36
100
AcDbEntity
  8
0
 62
     3
100
AcDbLine
 10
76.414163
 20
95.595344
 30
0.0
 11
76.789163
 21
95.595344
 31
0.0
  0
ARC
  5
1B2
330
36
100
AcDbEntity
  8
0
 62
     3
100
AcDbCircle
 10
76.914163
 20
99.47034399999999
 30
0.0
 40
0.5
100
AcDbArc
 50
180.0
 51
270.0
  0
LINE
  5
1B3
330
36
100
AcDbEntity
  8
0
 62
     3
100
AcDbLine
 10
76.414163
 20
96.220344
 30
0.0
 11
76.414163
 21
95.595344
 31
0.0
  0
ARC
  5
1B4
330
36
100
AcDbEntity
  8
0
 62
     3
100
AcDbCircle
 10
76.914163
 20
96.220344
 30
0.0
 40
0.5
100
AcDbArc
 50
90.0
 51
180.0
  0
LINE
  5
1B5
330
36
100
AcDbEntity
  8
0
 62
     3
100
AcDbLine
 10
78.039163
 20
99.345344
 30
0.0
 11
78.039163
 21
102.345344
 31
0.0
  0
LINE
  5
1B6
330
36
100
AcDbEntity
  8
0
 62
     3
100
AcDbLine
 10
78.039163
 20
96.72034400000001
 30
0.0
 11
78.039163
 21
93.345344
 31
0.0
  0
LINE
  5
1B7
330
36
100
AcDbEntity
  8
0
 62
     3
100
AcDbLine
 10
76.789163
 20
92.97034399999999
 30
0.0
 11
76.789163
 21
102.720344
 31
0.0
  0
LINE
  5
1B8
330
36
100
AcDbEntity
  8
0
 62
     3
100
AcDbLine
 10
75.726663
 20
104.970344
 30
0.0
 11
75.726663
 21
102.847079
 31
0.0
  0
LINE
  5
1B9
330
36
100
AcDbEntity
  8
0
 62
     3
100
AcDbLine
 10
79.164163
 20
97.34534400000001
 30
0.0
 11
80.41416299999999
 21
97.34534400000001
 31
0.0
  0
LINE
  5
1BA
330
36
100
AcDbEntity
  8
0
 62
     3
100
AcDbLine
 10
82.789163
 20
96.72034400000001
 30
0.0
 11
76.789163
 21
96.72034400000001
 31
0.0
  0
LINE
  5
1BB
330
36
100
AcDbEntity
  8
0
 62
     3
100
AcDbLine
 10
82.789163
 20
98.970344
 30
0.0
 11
76.789163
 21
98.970344
 31
0.0
  0
LINE
  5
1BC
330
36
100
AcDbEntity
  8
0
 62
     3
100
AcDbLine
 10
82.789163
 20
92.97034399999999
 30
0.0
 11
76.789163
 21
92.97034399999999
 31
0.0
  0
LINE
  5
1BD
330
36
100
AcDbEntity
  8
0
 62
     3
100
AcDbLine
 10
82.789163
 20
102.720344
 30
0.0
 11
76.789163
 21
102.720344
 31
0.0
  0
LINE
  5
1BE
330
36
100
AcDbEntity
  8
0
 62
     3
100
AcDbLine
 10
75.726663
 20
104.970344
 30
0.0
 11
83.85166299999999
 21
104.970344
 31
0.0
  0
LINE
  5
1BF
330
36
100
AcDbEntity
  8
0
 62
     3
100
AcDbLine
 10
80.16416300000001
 20
104.470344
 30
0.0
 11
79.414163
 21
104.470344
 31
0.0
  0
LINE
  5
1C0
330
36
100
AcDbEntity
  8
0
 62
     3
100
AcDbLine
 10
79.414163
 20
91.220344
 30
0.0
 11
80.16416300000001
 21
91.220344
 31
0.0
  0
LINE
  5
1C1
330
36
100
AcDbEntity
  8
0
 62
     3
100
AcDbLine
 10
32.657372
 20
98.970344
 30
0.0
 11
32.657372
 21
96.34534399999999
 31
0.0
  0
LINE
  5
1C2
330
36
100
AcDbEntity
  8
0
 62
     3
100
AcDbLine
 10
32.657372
 20
98.970344
 30
0.0
 11
32.282372
 21
98.970344
 31
0.0
  0
LINE
  5
1C3
330
36
100
AcDbEntity
  8
0
 62
     3
100
AcDbLine
 10
32.282372
 20
96.72034400000001
 30
0.0
 11
27.157372
 21
96.72034400000001
 31
0.0
  0
LINE
  5
1C4
330
36
100
AcDbEntity
  8
0
 62
     3
100
AcDbLine
 10
32.282372
 20
99.345344
 30
0.0
 11
28.407372
 21
99.345344
 31
0.0
  0
LINE
  5
1C5
330
36
100
AcDbEntity
  8
0
 62
     3
100
AcDbLine
 10
32.282372
 20
99.345344
 30
0.0
 11
32.282372
 21
96.72034400000001
 31
0.0
  0
LINE
  5
1C6
330
36
100
AcDbEntity
  8
0
 62
     3
100
AcDbLine
 10
31.907372
 20
98.84534399999999
 30
0.0
 11
31.907372
 21
96.845344
 31
0.0
  0
LINE
  5
1C7
330
36
100
AcDbEntity
  8
0
 62
     3
100
AcDbLine
 10
32.282372
 20
96.845344
 30
0.0
 11
31.907372
 21
96.845344
 31
0.0
  0
ARC
  5
1C8
330
36
100
AcDbEntity
  8
0
 62
     3
100
AcDbCircle
 10
27.407372
 20
99.095344
 30
0.0
 40
1.0
100
AcDbArc
 50
43.43253699999999
 51
90.0
  0
ARC
  5
1C9
330
36
100
AcDbEntity
  8
0
 62
     3
100
AcDbCircle
 10
27.407372
 20
96.595344
 30
0.0
 40
1.0
100
AcDbArc
 50
270.0
 51
345.522488
  0
LINE
  5
1CA
330
36
100
AcDbEntity
  8
0
 62
     3
100
AcDbLine
 10
31.157372
 20
99.78284399999999
 30
0.0
 11
28.133556
 21
99.78284399999999
 31
0.0
  0
ARC
  5
1CB
330
36
100
AcDbEntity
  8
0
 62
     3
100
AcDbCircle
 10
31.157372
 20
99.282844
 30
0.0
 40
0.5
100
AcDbArc
 50
7.180755999999997
 51
90.0
  0
ARC
  5
1CC
330
36
100
AcDbEntity
  8
0
 62
     3
100
AcDbCircle
 10
31.157372
 20
96.845344
 30
0.0
 40
0.5
100
AcDbArc
 50
270.0
 51
345.522488
  0
LINE
  5
1CD
330
36
100
AcDbEntity
  8
0
 62
     3
100
AcDbLine
 10
31.907372
 20
98.84534399999999
 30
0.0
 11
27.157372
 21
98.84534399999999
 31
0.0
  0
LINE
  5
1CE
330
36
100
AcDbEntity
  8
0
 62
     3
100
AcDbLine
 10
32.657372
 20
96.34534399999999
 30
0.0
 11
28.375618
 21
96.34534399999999
 31
0.0
  0
LINE
  5
1CF
330
36
100
AcDbEntity
  8
0
 62
     3
100
AcDbLine
 10
26.157372
 20
104.470344
 30
0.0
 11
26.157372
 21
91.220344
 31
0.0
  0
LINE
  5
1D0
330
36
100
AcDbEntity
  8
0
 62
     3
100
AcDbLine
 10
-11.092628
 20
98.22034399999999
 30
0.0
 11
-13.415577
 21
98.22034399999999
 31
0.0
  0
LINE
  5
1D1
330
36
100
AcDbEntity
  8
0
 62
     3
100
AcDbLine
 10
-11.092628
 20
97.470344
 30
0.0
 11
-13.415577
 21
97.470344
 31
0.0
  0
LINE
  5
1D2
330
36
100
AcDbEntity
  8
0
 62
     3
100
AcDbLine
 10
-21.165577
 20
98.22034399999999
 30
0.0
 11
-71.928077
 21
98.22034399999999
 31
0.0
  0
LINE
  5
1D3
330
36
100
AcDbEntity
  8
0
 62
     3
100
AcDbLine
 10
-21.165577
 20
97.470344
 30
0.0
 11
-71.928077
 21
97.470344
 31
0.0
  0
LINE
  5
1D4
330
36
100
AcDbEntity
  8
0
 62
     3
100
AcDbLine
 10
-15.165577
 20
97.470344
 30
0.0
 11
-19.415577
 21
97.470344
 31
0.0
  0
LINE
  5
1D5
330
36
100
AcDbEntity
  8
0
 62
     3
100
AcDbLine
 10
-19.415577
 20
100.568868
 30
0.0
 11
-19.415577
 21
95.12182000000001
 31
0.0
  0
CIRCLE
  5
1D6
330
36
100
AcDbEntity
  8
0
 62
     3
100
AcDbCircle
 10
-17.290577
 20
99.81048000000001
 30
0.0
 40
1.0
  0
LINE
  5
1D7
330
36
100
AcDbEntity
  8
0
 62
     3
100
AcDbLine
 10
-15.165577
 20
98.22034399999999
 30
0.0
 11
-19.415577
 21
98.22034399999999
 31
0.0
  0
CIRCLE
  5
1D8
330
36
100
AcDbEntity
  8
0
 62
     3
100
AcDbCircle
 10
-17.290577
 20
95.907844
 30
0.0
 40
1.0
  0
LINE
  5
1D9
330
36
100
AcDbEntity
  8
0
 62
     3
100
AcDbLine
 10
-15.165577
 20
100.568868
 30
0.0
 11
-15.165577
 21
95.12182000000001
 31
0.0
  0
ARC
  5
1DA
330
36
100
AcDbEntity
  8
0
 62
     3
100
AcDbCircle
 10
-71.928077
 20
54.220344
 30
0.0
 40
37.935
100
AcDbArc
 50
32.0
 51
135.0
  0
ARC
  5
1DB
330
36
100
AcDbEntity
  8
0
 62
     3
100
AcDbCircle
 10
-71.928077
 20
54.220344
 30
0.0
 40
39.435
100
AcDbArc
 50
32.0
 51
135.0
  0
ARC
  5
1DC
330
36
100
AcDbEntity
  8
0
 62
     3
100
AcDbCircle
 10
-71.928077
 20
54.220344
 30
0.0
 40
38.685
100
AcDbArc
 50
32.0
 51
135.0
  0
ARC
  5
1DD
330
36
100
AcDbEntity
  8
0
 62
     3
100
AcDbCircle
 10
-71.928077
 20
54.220344
 30
0.0
 40
40.935
100
AcDbArc
 50
32.0
 51
135.0
  0
ARC
  5
1DE
330
36
100
AcDbEntity
  8
0
 62
     3
100
AcDbCircle
 10
-71.928077
 20
54.220344
 30
0.0
 40
40.185
100
AcDbArc
 50
32.0
 51
135.0
  0
ARC
  5
1DF
330
36
100
AcDbEntity
  8
0
 62
     3
100
AcDbCircle
 10
-71.928077
 20
54.220344
 30
0.0
 40
41.685
100
AcDbArc
 50
32.0
 51
135.0
  0
ARC
  5
1E0
330
36
100
AcDbEntity
  8
0
 62
     3
100
AcDbCircle
 10
-71.928077
 20
54.220344
 30
0.0
 40
43.185
100
AcDbArc
 50
32.0
 51
135.0
  0
ARC
  5
1E1
330
36
100
AcDbEntity
  8
0
 62
     3
100
AcDbCircle
 10
-71.928077
 20
54.220344
 30
0.0
 40
43.935
100
AcDbArc
 50
32.0
 51
135.0
  0
ARC
  5
1E2
330
36
100
AcDbEntity
  8
0
 62
     3
100
AcDbCircle
 10
-71.928077
 20
54.220344
 30
0.0
 40
42.435
100
AcDbArc
 50
32.0
 51
135.0
  0
CIRCLE
  5
1E3
330
36
100
AcDbEntity
  8
0
 62
     3
100
AcDbCircle
 10
-58.92719599999999
 20
49.743782
 30
0.0
 40
0.5
  0
ARC
  5
1E4
330
36
100
AcDbEntity
  8
0
 62
     3
100
AcDbCircle
 10
-59.68669499999999
 20
51.32038
 30
0.0
 40
0.5
100
AcDbArc
 50
295.721631
 51
36.452396
  0
LINE
  5
1E5
330
36
100
AcDbEntity
  8
0
 62
     3
100
AcDbLine
 10
-59.28451899999998
 20
51.617457
 30
0.0
 11
-59.45059699999998
 21
51.842288
 31
0.0
  0
ARC
  5
1E6
330
36
100
AcDbEntity
  8
0
 62
     3
100
AcDbCircle
 10
-60.028059
 20
50.39417199999999
 30
0.0
 40
2.5
100
AcDbArc
 50
342.176023
 51
66.22894599999999
  0
ARC
  5
1E7
330
36
100
AcDbEntity
  8
0
 62
     3
100
AcDbCircle
 10
-58.92719599999999
 20
49.743782
 30
0.0
 40
1.25
100
AcDbArc
 50
115.721631
 51
341.0
  0
CIRCLE
  5
1E8
330
36
100
AcDbEntity
  8
0
 62
     3
100
AcDbCircle
 10
-18.803077
 20
54.220344
 30
0.0
 40
1.625
  0
CIRCLE
  5
1E9
330
36
100
AcDbEntity
  8
0
 62
     3
100
AcDbCircle
 10
-71.928077
 20
107.345344
 30
0.0
 40
1.625
  0
CIRCLE
  5
1EA
330
36
100
AcDbEntity
  8
0
 62
     3
100
AcDbCircle
 10
-125.053077
 20
54.220344
 30
0.0
 40
1.625
  0
CIRCLE
  5
1EB
330
36
100
AcDbEntity
  8
0
 62
     3
100
AcDbCircle
 10
-71.928077
 20
1.095344
 30
0.0
 40
1.625
  0
ARC
  5
1EC
330
36
100
AcDbEntity
  8
0
 62
     3
100
AcDbCircle
 10
-41.918043
 20
2.241441
 30
0.0
 40
2.5
100
AcDbArc
 50
300.0
 51
120.0
  0
ARC
  5
1ED
330
36
100
AcDbEntity
  8
0
 62
     3
100
AcDbCircle
 10
-71.928077
 20
54.220344
 30
0.0
 40
26.5
100
AcDbArc
 50
32.0
 51
135.0
  0
ARC
  5
1EE
330
36
100
AcDbEntity
  8
0
 62
     3
100
AcDbCircle
 10
-71.928077
 20
54.220344
 30
0.0
 40
27.5
100
AcDbArc
 50
32.0
 51
135.0
  0
ARC
  5
1EF
330
36
100
AcDbEntity
  8
0
 62
     3
100
AcDbCircle
 10
-71.928077
 20
54.220344
 30
0.0
 40
31.5
100
AcDbArc
 50
32.0
 51
135.0
  0
ARC
  5
1F0
330
36
100
AcDbEntity
  8
0
 62
     3
100
AcDbCircle
 10
-71.928077
 20
54.220344
 30
0.0
 40
32.5
100
AcDbArc
 50
32.0
 51
135.0
  0
ARC
  5
1F1
330
36
100
AcDbEntity
  8
0
 62
     3
100
AcDbCircle
 10
-71.928077
 20
54.220344
 30
0.0
 40
22.5
100
AcDbArc
 50
32.0
 51
135.0
  0
ARC
  5
1F2
330
36
100
AcDbEntity
  8
0
 62
     3
100
AcDbCircle
 10
-71.928077
 20
54.220344
 30
0.0
 40
21.5
100
AcDbArc
 50
32.0
 51
135.0
  0
ARC
  5
1F3
330
36
100
AcDbEntity
  8
0
 62
     3
100
AcDbCircle
 10
-71.928077
 20
54.220344
 30
0.0
 40
12.5
100
AcDbArc
 50
3.439812999999998
 51
86.560187
  0
ARC
  5
1F4
330
36
100
AcDbEntity
  8
0
 62
     3
100
AcDbCircle
 10
-71.928077
 20
54.220344
 30
0.0
 40
49.5
100
AcDbArc
 50
330.0
 51
60.89589499999999
  0
ARC
  5
1F5
330
36
100
AcDbEntity
  8
0
 62
     3
100
AcDbCircle
 10
-71.928077
 20
54.220344
 30
0.0
 40
50.5
100
AcDbArc
 50
330.0
 51
58.918702
  0
ARC
  5
1F6
330
36
100
AcDbEntity
  8
0
 62
     3
100
AcDbCircle
 10
-71.928077
 20
54.220344
 30
0.0
 40
49.5
100
AcDbArc
 50
62.73395600000001
 51
135.0
  0
ARC
  5
1F7
330
36
100
AcDbEntity
  8
0
 62
     3
100
AcDbCircle
 10
-71.928077
 20
54.220344
 30
0.0
 40
50.5
100
AcDbArc
 50
60.60855799999999
 51
135.0
  0
LINE
  5
1F8
330
36
100
AcDbEntity
  8
0
 62
     3
100
AcDbLine
 10
63.539163
 20
-2.179656
 30
0.0
 11
96.03916300000001
 21
-2.179656
 31
0.0
  0
TEXT
  5
1F9
330
36
100
AcDbEntity
  8
0
 62
     3
100
AcDbText
 10
99.87435836526323
 20
-106.328784
 30
0.0
 40
4.5
  1
自動巻アースリール
 41
0.8
  7
高4.5
100
AcDbText
  0
TEXT
  5
1FA
330
36
100
AcDbEntity
  8
0
 62
     3
100
AcDbText
 10
101.309446
 20
-114.137093
 30
0.0
 40
4.5
  1
ER-3515R
  7
高4.5
100
AcDbText
  0
TEXT
  5
1FB
330
36
100
AcDbEntity
  8
0
 62
     3
100
AcDbText
 10
159.387075
 20
-128.310936
 30
0.0
 40
3.2
  1
1999.04.19
  7
高3.2
100
AcDbText
  0
TEXT
  5
1FC
330
36
100
AcDbEntity
  8
0
 62
     3
100
AcDbText
 10
145.0268892904046
 20
-137.1816017347164
 30
0.0
 40
6.299999999999998
  1
ER-3515R
  7
高6.3
100
AcDbText
  0
CIRCLE
  5
1FD
330
36
100
AcDbEntity
  8
0
 62
     3
100
AcDbCircle
 10
-71.928077
 20
54.220344
 30
0.0
 40
2.125
  0
ARC
  5
1FE
330
36
100
AcDbEntity
  8
0
 62
     3
100
AcDbCircle
 10
-71.928077
 20
54.220344
 30
0.0
 40
12.5
100
AcDbArc
 50
93.43981300000001
 51
135.0
  0
LINE
  5
1FF
330
36
100
AcDbEntity
  8
0
 62
     3
100
AcDbLine
 10
-50.451345
 20
55.22034399999999
 30
0.0
 11
-56.961447
 21
55.22034399999999
 31
0.0
  0
LINE
  5
200
330
36
100
AcDbEntity
  8
0
 62
     3
100
AcDbLine
 10
-50.451345
 20
53.22034399999999
 30
0.0
 11
-56.961447
 21
53.22034399999999
 31
0.0
  0
LINE
  5
201
330
36
100
AcDbEntity
  8
0
 62
     3
100
AcDbLine
 10
-34.441412
 20
55.22034399999999
 30
0.0
 11
-46.44769199999998
 21
55.22034399999999
 31
0.0
  0
LINE
  5
202
330
36
100
AcDbEntity
  8
0
 62
     3
100
AcDbLine
 10
-34.441412
 20
53.22034399999999
 30
0.0
 11
-46.44769199999998
 21
53.22034399999999
 31
0.0
  0
ARC
  5
203
330
36
100
AcDbEntity
  8
0
 62
     3
100
AcDbCircle
 10
-71.928077
 20
54.220344
 30
0.0
 40
38.5
100
AcDbArc
 50
135.0
 51
330.0
  0
ARC
  5
204
330
36
100
AcDbEntity
  8
0
 62
     3
100
AcDbCircle
 10
-71.928077
 20
54.220344
 30
0.0
 40
40.0
100
AcDbArc
 50
135.0
 51
330.0
  0
ARC
  5
205
330
36
100
AcDbEntity
  8
0
 62
     3
100
AcDbCircle
 10
-71.928077
 20
54.220344
 30
0.0
 40
49.5
100
AcDbArc
 50
135.0
 51
330.0
  0
ARC
  5
206
330
36
100
AcDbEntity
  8
0
 62
     3
100
AcDbCircle
 10
-71.928077
 20
54.220344
 30
0.0
 40
51.0
100
AcDbArc
 50
135.0
 51
330.0
  0
LINE
  5
207
330
36
100
AcDbEntity
  8
0
 62
     3
100
AcDbLine
 10
-22.165577
 20
94.720344
 30
0.0
 11
-25.415577
 21
94.720344
 31
0.0
  0
LINE
  5
208
330
36
100
AcDbEntity
  8
0
 62
     3
100
AcDbLine
 10
-25.415577
 20
100.970344
 30
0.0
 11
-25.415577
 21
94.720344
 31
0.0
  0
LINE
  5
209
330
36
100
AcDbEntity
  8
0
 62
     3
100
AcDbLine
 10
-25.415577
 20
100.345344
 30
0.0
 11
-26.678077
 21
100.345344
 31
0.0
  0
LINE
  5
20A
330
36
100
AcDbEntity
  8
0
 62
     3
100
AcDbLine
 10
-22.165577
 20
100.970344
 30
0.0
 11
-25.415577
 21
100.970344
 31
0.0
  0
LINE
  5
20B
330
36
100
AcDbEntity
  8
0
 62
     3
100
AcDbLine
 10
-25.415577
 20
95.345344
 30
0.0
 11
-26.678077
 21
95.345344
 31
0.0
  0
LINE
  5
20C
330
36
100
AcDbEntity
  8
0
 62
     3
100
AcDbLine
 10
-22.165577
 20
100.970344
 30
0.0
 11
-22.165577
 21
94.720344
 31
0.0
  0
LINE
  5
20D
330
36
100
AcDbEntity
  8
0
 62
     3
100
AcDbLine
 10
-21.165577
 20
100.095344
 30
0.0
 11
-21.165577
 21
95.595344
 31
0.0
  0
LINE
  5
21C
330
36
100
AcDbEntity
  8
0
 62
     3
100
AcDbLine
 10
-13.415577
 20
100.095344
 30
0.0
 11
-13.415577
 21
95.595344
 31
0.0
  0
ARC
  5
21D
330
36
100
AcDbEntity
  8
0
 62
     3
100
AcDbCircle
 10
-71.928077
 20
54.220344
 30
0.0
 40
12.5
100
AcDbArc
 50
330.0
 51
356.560187
  0
LINE
  5
21E
330
36
100
AcDbEntity
  8
0
 62
     3
100
AcDbLine
 10
-71.928077
 20
65.970344
 30
0.0
 11
-72.678077
 21
66.697823
 31
0.0
  0
LINE
  5
21F
330
36
100
AcDbEntity
  8
0
 62
     3
100
AcDbLine
 10
-71.928077
 20
65.970344
 30
0.0
 11
-71.178077
 21
66.697823
 31
0.0
  0
LINE
  5
220
330
36
100
AcDbEntity
  8
0
 62
     3
100
AcDbLine
 10
-59.45059699999998
 20
54.970344
 30
0.0
 11
-60.178077
 21
54.220344
 31
0.0
  0
ARC
  5
221
330
36
100
AcDbEntity
  8
0
 62
     3
100
AcDbCircle
 10
-59.088128
 20
52.18669600000001
 30
0.0
 40
0.5
100
AcDbArc
 50
82.20941899999997
 51
223.536357
  0
LINE
  5
224
330
36
100
AcDbEntity
  8
0
 62
     3
100
AcDbLine
 10
169.300637
 20
-121.834277
 30
0.0
 11
169.300637
 21
-98.834277
 31
0.0
  0
LINE
  5
226
330
36
100
AcDbEntity
  8
0
 62
     3
100
AcDbLine
 10
116.247027
 20
-128.834277
 30
0.0
 11
116.247027
 21
-114.834277
 31
0.0
  0
TEXT
  5
228
330
36
100
AcDbEntity
  8
0
 62
     3
100
AcDbText
 10
145.310955
 20
-102.629161
 30
0.0
 40
2.0
  1
A
 41
0.7
100
AcDbText
  0
TEXT
  5
229
330
36
100
AcDbEntity
  8
0
 62
     3
100
AcDbText
 10
147.846241
 20
-102.629161
 30
0.0
 40
2.0
  1
P
 41
0.7
100
AcDbText
  0
TEXT
  5
22A
330
36
100
AcDbEntity
  8
0
 62
     3
100
AcDbText
 10
150.381527
 20
-102.629161
 30
0.0
 40
2.0
  1
P
 41
0.7
100
AcDbText
  0
TEXT
  5
22B
330
36
100
AcDbEntity
  8
0
 62
     3
100
AcDbText
 10
152.916813
 20
-102.629161
 30
0.0
 40
2.0
  1
D
 41
0.7
100
AcDbText
  0
TEXT
  5
22C
330
36
100
AcDbEntity
  8
0
 62
     3
100
AcDbText
 10
158.285496
 20
-102.629161
 30
0.0
 40
2.0
  1
C
 41
0.7
100
AcDbText
  0
TEXT
  5
22D
330
36
100
AcDbEntity
  8
0
 62
     3
100
AcDbText
 10
160.820783
 20
-102.629161
 30
0.0
 40
2.0
  1
H
 41
0.7
100
AcDbText
  0
TEXT
  5
22E
330
36
100
AcDbEntity
  8
0
 62
     3
100
AcDbText
 10
163.356069
 20
-102.629161
 30
0.0
 40
2.0
  1
C
 41
0.7
100
AcDbText
  0
TEXT
  5
22F
330
36
100
AcDbEntity
  8
0
 62
     3
100
AcDbText
 10
165.891355
 20
-102.629161
 30
0.0
 40
2.0
  1
K
 41
0.7
100
AcDbText
  0
TEXT
  5
230
330
36
100
AcDbEntity
  8
0
 62
     3
100
AcDbText
 10
171.565322
 20
-102.629161
 30
0.0
 40
2.0
  1
DESN
 41
1.216762999999998
100
AcDbText
  0
TEXT
  5
231
330
36
100
AcDbEntity
  8
0
 62
     3
100
AcDbText
 10
86.558963
 20
-131.975659
 30
0.0
 40
2.0
  1
NICHIDO IND.CO.LTD
 41
1.274876
100
AcDbText
  0
LINE
  5
232
330
36
100
AcDbEntity
  8
0
 62
     3
100
AcDbLine
 10
96.94199199999999
 20
-98.83427700000002
 30
0.0
 11
96.94199199999999
 21
-121.834277
 31
0.0
  0
LINE
  5
233
330
36
100
AcDbEntity
  8
0
 62
     3
100
AcDbLine
 10
143.300637
 20
-98.834277
 30
0.0
 11
143.300637
 21
-138.5
 31
0.0
  0
LINE
  5
238
330
36
100
AcDbEntity
  8
0
 62
     3
100
AcDbLine
 10
156.300637
 20
-98.834277
 30
0.0
 11
156.300637
 21
-128.834277
 31
0.0
  0
TEXT
  5
239
330
36
100
AcDbEntity
  8
0
 62
     3
100
AcDbText
 10
144.413081
 20
-127.969591
 30
0.0
 40
3.2
  1
作成日
 41
1.017225999999997
100
AcDbText
  0
LINE
  5
23A
330
36
100
AcDbEntity
  8
0
 62
     3
100
AcDbLine
 10
195.0
 20
-98.834277
 30
0.0
 11
83.696558
 21
-98.834277
 31
0.0
  0
LINE
  5
23B
330
36
100
AcDbEntity
  8
0
 62
     3
100
AcDbLine
 10
182.300637
 20
-121.834277
 30
0.0
 11
182.300637
 21
-98.834277
 31
0.0
  0
TEXT
  5
23C
330
36
100
AcDbEntity
  8
0
 62
     3
100
AcDbText
 10
185.62444
 20
-102.543343
 30
0.0
 40
1.8
  1
D
 41
0.666667
100
AcDbText
  0
TEXT
  5
23D
330
36
100
AcDbEntity
  8
0
 62
     3
100
AcDbText
 10
188.441068
 20
-102.543343
 30
0.0
 40
1.8
  1
E
 41
0.666667
100
AcDbText
  0
TEXT
  5
23E
330
36
100
AcDbEntity
  8
0
 62
     3
100
AcDbText
 10
191.257696
 20
-102.543343
 30
0.0
 40
1.8
  1
F
 41
0.666667
100
AcDbText
  0
TEXT
  5
23F
330
36
100
AcDbEntity
  8
0
 62
     3
100
AcDbText
 10
185.62444
 20
-106.535896
 30
0.0
 40
3.2
  1
製図
 41
1.076369
100
AcDbText
  0
LINE
  5
240
330
36
100
AcDbEntity
  8
0
 62
     3
100
AcDbLine
 10
83.696558
 20
-98.834277
 30
0.0
 11
83.696558
 21
-138.5
 31
0.0
  0
TEXT
  5
241
330
36
100
AcDbEntity
  8
0
 62
     3
100
AcDbText
 10
85.07321000000002
 20
-138.167535
 30
0.0
 40
5.0
  1
日動工業株式会社
 41
0.833333
100
AcDbText
  0
LINE
  5
242
330
36
100
AcDbEntity
  8
0
 62
     3
100
AcDbLine
 10
126.578961
 20
-114.834277
 30
0.0
 11
126.578961
 21
-138.5
 31
0.0
  0
LINE
  5
243
330
36
100
AcDbEntity
  8
0
 62
     3
100
AcDbLine
 10
126.578961
 20
-133.667139
 30
0.0
 11
143.300637
 21
-133.667139
 31
0.0
  0
TEXT
  5
244
330
36
100
AcDbEntity
  8
0
 62
     3
100
AcDbText
 10
127.165563
 20
-132.850708
 30
0.0
 40
3.2
  1
出図コード
 41
0.8356860000000001
100
AcDbText
  0
LINE
  5
256
330
36
100
AcDbEntity
  8
0
 62
     3
100
AcDbLine
 10
83.696558
 20
-128.834277
 30
0.0
 11
195.0
 21
-128.834277
 31
0.0
  0
LINE
  5
258
330
36
100
AcDbEntity
  8
0
 62
     3
100
AcDbLine
 10
83.696558
 20
-107.834277
 30
0.0
 11
195.0
 21
-107.834277
 31
0.0
  0
LINE
  5
25E
330
36
100
AcDbEntity
  8
0
 62
     3
100
AcDbLine
 10
83.696558
 20
-114.834277
 30
0.0
 11
143.300637
 21
-114.834277
 31
0.0
  0
LINE
  5
264
330
36
100
AcDbEntity
  8
0
 62
     3
100
AcDbLine
 10
83.696558
 20
-121.834277
 30
0.0
 11
195.0
 21
-121.834277
 31
0.0
  0
LINE
  5
268
330
36
100
AcDbEntity
  8
0
 62
     3
100
AcDbLine
 10
195.0
 20
135.555361
 30
0.0
 11
195.0
 21
-138.5
 31
0.0
  0
LINE
  5
269
330
36
100
AcDbEntity
  8
0
 62
     3
100
AcDbLine
 10
-195.0
 20
135.555361
 30
0.0
 11
-195.0
 21
-138.5
 31
0.0
  0
LINE
  5
26A
330
36
100
AcDbEntity
  8
0
 62
     3
100
AcDbLine
 10
195.0
 20
-138.5
 30
0.0
 11
-195.0
 21
-138.5
 31
0.0
  0
TEXT
  5
26D
330
36
100
AcDbEntity
  8
0
 62
     3
100
AcDbText
 10
127.033015
 20
-137.8499053344873
 30
0.0
 40
3.2
  1
ZK-A3X
 41
0.8112849999999999
100
AcDbText
  0
LINE
  5
26E
330
36
100
AcDbEntity
  8
0
 62
     2
100
AcDbLine
 10
-17.225111
 20
137.995363
 30
0.0
 11
-16.602614
 21
137.670409
 31
0.0
  0
LINE
  5
26F
330
36
100
AcDbEntity
  8
0
 62
     2
100
AcDbLine
 10
-17.225111
 20
132.665891
 30
0.0
 11
-16.602614
 21
132.990846
 31
0.0
  0
LINE
  5
270
330
36
100
AcDbEntity
  8
0
 62
     2
100
AcDbLine
 10
-16.602614
 20
137.670409
 30
0.0
 11
-16.602614
 21
132.990846
 31
0.0
  0
LINE
  5
271
330
36
100
AcDbEntity
  8
0
 62
     2
100
AcDbLine
 10
-15.02616
 20
132.665891
 30
0.0
 11
-15.648657
 21
132.990846
 31
0.0
  0
LINE
  5
272
330
36
100
AcDbEntity
  8
0
 62
     2
100
AcDbLine
 10
-15.648657
 20
135.843501
 30
0.0
 11
-15.648657
 21
132.990846
 31
0.0
  0
LINE
  5
273
330
36
100
AcDbEntity
  8
0
 62
     2
100
AcDbLine
 10
-11.394928
 20
137.995363
 30
0.0
 11
-12.017425
 21
137.670409
 31
0.0
  0
LINE
  5
274
330
36
100
AcDbEntity
  8
0
 62
     2
100
AcDbLine
 10
-13.593878
 20
137.995363
 30
0.0
 11
-12.971381
 21
137.670409
 31
0.0
  0
LINE
  5
275
330
36
100
AcDbEntity
  8
0
 62
     2
100
AcDbLine
 10
-12.971381
 20
137.670409
 30
0.0
 11
-12.971381
 21
135.609927
 31
0.0
  0
LINE
  5
276
330
36
100
AcDbEntity
  8
0
 62
     2
100
AcDbLine
 10
-12.017425
 20
137.670409
 30
0.0
 11
-12.017425
 21
132.363661
 31
0.0
  0
LINE
  5
277
330
36
100
AcDbEntity
  8
0
 62
     2
100
AcDbLine
 10
-11.08736
 20
137.995359
 30
0.0
 11
-10.464865
 21
137.670401
 31
0.0
  0
LINE
  5
278
330
36
100
AcDbEntity
  8
0
 62
     2
100
AcDbLine
 10
-11.087471
 20
132.665962
 30
0.0
 11
-10.464963
 21
132.990895
 31
0.0
  0
LINE
  5
279
330
36
100
AcDbEntity
  8
0
 62
     2
100
AcDbLine
 10
-10.464865
 20
137.670401
 30
0.0
 11
-10.464865
 21
132.990895
 31
0.0
  0
LINE
  5
27A
330
36
100
AcDbEntity
  8
0
 62
     2
100
AcDbLine
 10
-8.33088
 20
137.995326
 30
0.0
 11
-8.953381
 21
137.67038
 31
0.0
  0
LINE
  5
27B
330
36
100
AcDbEntity
  8
0
 62
     2
100
AcDbLine
 10
-8.953381
 20
137.67038
 30
0.0
 11
-8.953381
 21
132.990874
 31
0.0
  0
LINE
  5
27C
330
36
100
AcDbEntity
  8
0
 62
     2
100
AcDbLine
 10
-8.33088
 20
132.665929
 30
0.0
 11
-8.953381
 21
132.990874
 31
0.0
  0
LINE
  5
27D
330
36
100
AcDbEntity
  8
0
 62
     2
100
AcDbLine
 10
-3.059088999999998
 20
137.9952669999999
 30
0.0
 11
-2.436593
 21
137.67031
 31
0.0
  0
LINE
  5
27E
330
36
100
AcDbEntity
  8
0
 62
     2
100
AcDbLine
 10
-2.436593
 20
137.67031
 30
0.0
 11
-2.436675
 21
132.990805
 31
0.0
  0
LINE
  5
27F
330
36
100
AcDbEntity
  8
0
 62
     2
100
AcDbLine
 10
-3.059181999999998
 20
132.66587
 30
0.0
 11
-2.436675
 21
132.990805
 31
0.0
  0
LINE
  5
280
330
36
100
AcDbEntity
  8
0
 62
     2
100
AcDbLine
 10
-0.2701449999999999
 20
137.9952669999999
 30
0.0
 11
-0.892641
 21
137.67031
 31
0.0
  0
LINE
  5
281
330
36
100
AcDbEntity
  8
0
 62
     2
100
AcDbLine
 10
-0.270052
 20
132.66587
 30
0.0
 11
-0.8925589999999999
 21
132.990805
 31
0.0
  0
LINE
  5
282
330
36
100
AcDbEntity
  8
0
 62
     2
100
AcDbLine
 10
0.020895
 20
137.9952669999999
 30
0.0
 11
0.643391
 21
137.67031
 31
0.0
  0
LINE
  5
283
330
36
100
AcDbEntity
  8
0
 62
     2
100
AcDbLine
 10
0.020802
 20
132.66587
 30
0.0
 11
0.643309
 21
132.990805
 31
0.0
  0
LINE
  5
284
330
36
100
AcDbEntity
  8
0
 62
     2
100
AcDbLine
 10
2.809838999999998
 20
137.9952669999999
 30
0.0
 11
2.187342999999998
 21
137.67031
 31
0.0
  0
LINE
  5
285
330
36
100
AcDbEntity
  8
0
 62
     2
100
AcDbLine
 10
2.187342999999998
 20
137.67031
 30
0.0
 11
2.187425
 21
132.990805
 31
0.0
  0
LINE
  5
286
330
36
100
AcDbEntity
  8
0
 62
     2
100
AcDbLine
 10
2.809931999999998
 20
132.66587
 30
0.0
 11
2.187425
 21
132.990805
 31
0.0
  0
LINE
  5
287
330
36
100
AcDbEntity
  8
0
 62
     2
100
AcDbLine
 10
0.6433550000000002
 20
135.631549
 30
0.0
 11
-0.892605
 21
135.631549
 31
0.0
  0
LINE
  5
288
330
36
100
AcDbEntity
  8
0
 62
     2
100
AcDbLine
 10
0.643345
 20
135.029705
 30
0.0
 11
-0.892594
 21
135.029705
 31
0.0
  0
LINE
  5
289
330
36
100
AcDbEntity
  8
0
 62
     2
100
AcDbLine
 10
0.643391
 20
137.67031
 30
0.0
 11
0.6433550000000002
 21
135.631549
 31
0.0
  0
LINE
  5
28A
330
36
100
AcDbEntity
  8
0
 62
     2
100
AcDbLine
 10
0.643345
 20
135.029705
 30
0.0
 11
0.643309
 21
132.990805
 31
0.0
  0
LINE
  5
28B
330
36
100
AcDbEntity
  8
0
 62
     2
100
AcDbLine
 10
-0.892641
 20
137.67031
 30
0.0
 11
-0.892605
 21
135.631549
 31
0.0
  0
LINE
  5
28C
330
36
100
AcDbEntity
  8
0
 62
     2
100
AcDbLine
 10
-0.892594
 20
135.029705
 30
0.0
 11
-0.8925589999999999
 21
132.990805
 31
0.0
  0
LINE
  5
28D
330
36
100
AcDbEntity
  8
0
 62
     2
100
AcDbLine
 10
3.105494999999999
 20
137.9952669999999
 30
0.0
 11
3.727991
 21
137.67031
 31
0.0
  0
LINE
  5
28E
330
36
100
AcDbEntity
  8
0
 62
     2
100
AcDbLine
 10
3.727991
 20
137.67031
 30
0.0
 11
3.727908999999999
 21
132.990805
 31
0.0
  0
LINE
  5
28F
330
36
100
AcDbEntity
  8
0
 62
     2
100
AcDbLine
 10
3.105402
 20
132.66587
 30
0.0
 11
3.727908999999999
 21
132.990805
 31
0.0
  0
LINE
  5
290
330
36
100
AcDbEntity
  8
0
 62
     2
100
AcDbLine
 10
5.861938999999997
 20
137.9952669999999
 30
0.0
 11
5.239442999999996
 21
137.67031
 31
0.0
  0
LINE
  5
291
330
36
100
AcDbEntity
  8
0
 62
     2
100
AcDbLine
 10
5.239442999999996
 20
137.67031
 30
0.0
 11
5.239523999999998
 21
132.990805
 31
0.0
  0
LINE
  5
292
330
36
100
AcDbEntity
  8
0
 62
     2
100
AcDbLine
 10
5.862032
 20
132.66587
 30
0.0
 11
5.239523999999998
 21
132.990805
 31
0.0
  0
LINE
  5
293
330
36
100
AcDbEntity
  8
0
 62
     2
100
AcDbLine
 10
6.168166
 20
137.9952669999999
 30
0.0
 11
6.790661999999997
 21
137.67031
 31
0.0
  0
LINE
  5
294
330
36
100
AcDbEntity
  8
0
 62
     2
100
AcDbLine
 10
6.790661999999997
 20
137.67031
 30
0.0
 11
6.790580999999997
 21
132.990805
 31
0.0
  0
LINE
  5
295
330
36
100
AcDbEntity
  8
0
 62
     2
100
AcDbLine
 10
6.168073
 20
132.66587
 30
0.0
 11
6.790580999999997
 21
132.990805
 31
0.0
  0
ARC
  5
296
330
36
100
AcDbEntity
  8
0
 62
     2
100
AcDbCircle
 10
-5.047533999999997
 20
135.344041
 30
0.0
 40
2.980408
100
AcDbArc
 50
97.701524
 51
270.0
  0
ARC
  5
297
330
36
100
AcDbEntity
  8
0
 62
     2
100
AcDbCircle
 10
13.353325
 20
135.314103
 30
0.0
 40
3.012775999999998
100
AcDbArc
 50
0.31425
 51
69.00558199999998
  0
ARC
  5
298
330
36
100
AcDbEntity
  8
0
 62
     2
100
AcDbCircle
 10
14.011432
 20
135.314103
 30
0.0
 40
3.012775999999998
100
AcDbArc
 50
110.994418
 51
148.116611
  0
ARC
  5
299
330
36
100
AcDbEntity
  8
0
 62
     2
100
AcDbCircle
 10
13.353325
 20
135.347151
 30
0.0
 40
3.012775999999998
100
AcDbArc
 50
290.994418
 51
359.68575
  0
ARC
  5
29A
330
36
100
AcDbEntity
  8
0
 62
     2
100
AcDbCircle
 10
14.011432
 20
135.347151
 30
0.0
 40
3.012775999999998
100
AcDbArc
 50
211.883389
 51
249.005582
  0
ARC
  5
29B
330
36
100
AcDbEntity
  8
0
 62
     2
100
AcDbCircle
 10
13.682379
 20
136.563206
 30
0.0
 40
1.734386999999999
100
AcDbArc
 50
64.365172
 51
115.634828
  0
ARC
  5
29C
330
36
100
AcDbEntity
  8
0
 62
     2
100
AcDbCircle
 10
13.682379
 20
134.098048
 30
0.0
 40
1.734386999999999
100
AcDbArc
 50
244.365172
 51
295.634828
  0
ARC
  5
29D
330
36
100
AcDbEntity
  8
0
 62
     2
100
AcDbCircle
 10
13.682379
 20
136.596152
 30
0.0
 40
0.8512219999999999
100
AcDbArc
 50
19.486606
 51
160.513394
  0
ARC
  5
29E
330
36
100
AcDbEntity
  8
0
 62
     2
100
AcDbCircle
 10
13.682379
 20
134.065103
 30
0.0
 40
0.8512219999999999
100
AcDbArc
 50
199.4866059999999
 51
340.513394
  0
ARC
  5
29F
330
36
100
AcDbEntity
  8
0
 62
     3
100
AcDbCircle
 10
6.907417999999998
 20
103.576256
 30
0.0
 40
37.20000000000001
100
AcDbArc
 50
69.50571500000001
 51
81.689988
  0
ARC
  5
2A0
330
36
100
AcDbEntity
  8
0
 62
     3
100
AcDbCircle
 10
6.907417999999998
 20
167.084998
 30
0.0
 40
37.20000000000001
100
AcDbArc
 50
278.310012
 51
290.494285
  0
ARC
  5
2A1
330
36
100
AcDbEntity
  8
0
 62
     3
100
AcDbCircle
 10
18.776281
 20
135.330627
 30
0.0
 40
3.299999999999998
100
AcDbArc
 50
290.494285
 51
69.50571500000001
  0
ARC
  5
2A2
330
36
100
AcDbEntity
  8
0
 62
     3
100
AcDbCircle
 10
-20.223719
 20
135.330627
 30
0.0
 40
3.299999999999998
100
AcDbArc
 50
110.494285
 51
249.505715
  0
ARC
  5
2A3
330
36
100
AcDbEntity
  8
0
 62
     3
100
AcDbCircle
 10
-8.354855999999998
 20
103.576256
 30
0.0
 40
37.20000000000001
100
AcDbArc
 50
98.31001200000001
 51
110.494285
  0
ARC
  5
2A4
330
36
100
AcDbEntity
  8
0
 62
     3
100
AcDbCircle
 10
-8.354855999999998
 20
167.084998
 30
0.0
 40
37.20000000000001
100
AcDbArc
 50
249.505715
 51
261.689988
  0
ARC
  5
2A5
330
36
100
AcDbEntity
  8
0
 62
     3
100
AcDbCircle
 10
-0.723719
 20
51.33062699999999
 30
0.0
 40
90.0
100
AcDbArc
 50
81.689988
 51
98.31001200000001
  0
ARC
  5
2A6
330
36
100
AcDbEntity
  8
0
 62
     3
100
AcDbCircle
 10
-0.723719
 20
219.330627
 30
0.0
 40
90.0
100
AcDbArc
 50
261.689988
 51
278.310012
  0
ARC
  5
2A7
330
36
100
AcDbEntity
  8
0
 62
     3
100
AcDbCircle
 10
-0.723719
 20
51.33062699999999
 30
0.0
 40
89.1
100
AcDbArc
 50
81.689988
 51
98.31001200000001
  0
ARC
  5
2A8
330
36
100
AcDbEntity
  8
0
 62
     3
100
AcDbCircle
 10
-0.723719
 20
219.330627
 30
0.0
 40
89.1
100
AcDbArc
 50
261.689988
 51
278.310012
  0
ARC
  5
2A9
330
36
100
AcDbEntity
  8
0
 62
     3
100
AcDbCircle
 10
6.907417999999998
 20
167.084998
 30
0.0
 40
36.3
100
AcDbArc
 50
278.310012
 51
290.494285
  0
ARC
  5
2AA
330
36
100
AcDbEntity
  8
0
 62
     3
100
AcDbCircle
 10
6.907417999999998
 20
103.576256
 30
0.0
 40
36.3
100
AcDbArc
 50
69.50571500000001
 51
81.689988
  0
ARC
  5
2AB
330
36
100
AcDbEntity
  8
0
 62
     3
100
AcDbCircle
 10
18.776281
 20
135.330627
 30
0.0
 40
2.399999999999999
100
AcDbArc
 50
290.494285
 51
69.50571500000001
  0
ARC
  5
2AC
330
36
100
AcDbEntity
  8
0
 62
     3
100
AcDbCircle
 10
-20.223719
 20
135.330627
 30
0.0
 40
2.399999999999999
100
AcDbArc
 50
110.494285
 51
249.505715
  0
ARC
  5
2AD
330
36
100
AcDbEntity
  8
0
 62
     3
100
AcDbCircle
 10
-8.354855999999998
 20
103.576256
 30
0.0
 40
36.3
100
AcDbArc
 50
98.31001200000001
 51
110.494285
  0
ARC
  5
2AE
330
36
100
AcDbEntity
  8
0
 62
     3
100
AcDbCircle
 10
-8.354855999999998
 20
167.084998
 30
0.0
 40
36.3
100
AcDbArc
 50
249.505715
 51
261.689988
  0
LINE
  5
2AF
330
36
100
AcDbEntity
  8
0
 62
     2
100
AcDbLine
 10
5.861939999999997
 20
132.363661
 30
0.0
 11
3.105493999999998
 21
132.363661
 31
0.0
  0
LINE
  5
2B0
330
36
100
AcDbEntity
  8
0
 62
     2
100
AcDbLine
 10
5.861939999999997
 20
132.665891
 30
0.0
 11
5.861939999999997
 21
132.363661
 31
0.0
  0
LINE
  5
2B1
330
36
100
AcDbEntity
  8
0
 62
     2
100
AcDbLine
 10
2.809841
 20
138.297452
 30
0.0
 11
0.020894
 21
138.297452
 31
0.0
  0
LINE
  5
2B2
330
36
100
AcDbEntity
  8
0
 62
     2
100
AcDbLine
 10
2.809841
 20
138.297452
 30
0.0
 11
2.809841
 21
137.995363
 31
0.0
  0
LINE
  5
2B3
330
36
100
AcDbEntity
  8
0
 62
     2
100
AcDbLine
 10
2.809841
 20
132.665891
 30
0.0
 11
2.809841
 21
132.36352
 31
0.0
  0
LINE
  5
2B4
330
36
100
AcDbEntity
  8
0
 62
     2
100
AcDbLine
 10
2.809841
 20
132.36352
 30
0.0
 11
0.020894
 21
132.36352
 31
0.0
  0
LINE
  5
2B5
330
36
100
AcDbEntity
  8
0
 62
     2
100
AcDbLine
 10
5.861939999999997
 20
138.297593
 30
0.0
 11
5.861939999999997
 21
137.995363
 31
0.0
  0
LINE
  5
2B6
330
36
100
AcDbEntity
  8
0
 62
     2
100
AcDbLine
 10
5.861939999999997
 20
138.297593
 30
0.0
 11
3.105493999999998
 21
138.297593
 31
0.0
  0
LINE
  5
2B7
330
36
100
AcDbEntity
  8
0
 62
     2
100
AcDbLine
 10
3.105493999999998
 20
138.297593
 30
0.0
 11
3.105493999999998
 21
137.995363
 31
0.0
  0
LINE
  5
2B8
330
36
100
AcDbEntity
  8
0
 62
     2
100
AcDbLine
 10
6.168165
 20
132.665891
 30
0.0
 11
6.168165
 21
132.363661
 31
0.0
  0
LINE
  5
2B9
330
36
100
AcDbEntity
  8
0
 62
     2
100
AcDbLine
 10
9.002880000000002
 20
132.363661
 30
0.0
 11
6.168165
 21
132.363661
 31
0.0
  0
LINE
  5
2BA
330
36
100
AcDbEntity
  8
0
 62
     2
100
AcDbLine
 10
8.302113999999999
 20
137.343637
 30
0.0
 11
8.302113999999999
 21
133.3176169999999
 31
0.0
  0
LINE
  5
2BB
330
36
100
AcDbEntity
  8
0
 62
     2
100
AcDbLine
 10
8.302113999999999
 20
133.3176169999999
 30
0.0
 11
8.573611999999997
 21
133.3176169999999
 31
0.0
  0
ARC
  5
2BC
330
36
100
AcDbEntity
  8
0
 62
     2
100
AcDbCircle
 10
7.185347
 20
135.330627
 30
0.0
 40
2.445299
100
AcDbArc
 50
304.591955
 51
55.408045
  0
LINE
  5
2BD
330
36
100
AcDbEntity
  8
0
 62
     2
100
AcDbLine
 10
9.002880000000002
 20
138.297593
 30
0.0
 11
6.168165
 21
138.297593
 31
0.0
  0
LINE
  5
2BE
330
36
100
AcDbEntity
  8
0
 62
     2
100
AcDbLine
 10
6.168165
 20
138.297593
 30
0.0
 11
6.168165
 21
137.995363
 31
0.0
  0
LINE
  5
2BF
330
36
100
AcDbEntity
  8
0
 62
     2
100
AcDbLine
 10
3.105493999999998
 20
132.665891
 30
0.0
 11
3.105493999999998
 21
132.363661
 31
0.0
  0
LINE
  5
2C0
330
36
100
AcDbEntity
  8
0
 62
     2
100
AcDbLine
 10
8.302113999999999
 20
137.343637
 30
0.0
 11
8.573611999999997
 21
137.343637
 31
0.0
  0
LINE
  5
2C1
330
36
100
AcDbEntity
  8
0
 62
     2
100
AcDbLine
 10
-8.330970999999998
 20
132.665891
 30
0.0
 11
-8.330977
 21
132.363633
 31
0.0
  0
LINE
  5
2C2
330
36
100
AcDbEntity
  8
0
 62
     2
100
AcDbLine
 10
-11.087422
 20
132.363689
 30
0.0
 11
-8.330977
 21
132.363641
 31
0.0
  0
LINE
  5
2C3
330
36
100
AcDbEntity
  8
0
 62
     2
100
AcDbLine
 10
-17.225111
 20
132.363661
 30
0.0
 11
-15.02616
 21
132.363661
 31
0.0
  0
ARC
  5
2C4
330
36
100
AcDbEntity
  8
0
 62
     2
100
AcDbCircle
 10
-24.342172
 20
135.400494
 30
0.0
 40
21.019379
100
AcDbArc
 50
353.866006
 51
357.694034
  0
LINE
  5
2C5
330
36
100
AcDbEntity
  8
0
 62
     2
100
AcDbLine
 10
-4.747056999999998
 20
134.559969
 30
0.0
 11
-3.339812999999998
 21
134.554762
 31
0.0
  0
LINE
  5
308
330
36
100
AcDbEntity
  8
0
 62
     2
100
AcDbLine
 10
-4.741373999999998
 20
136.09599
 30
0.0
 11
-3.33413
 21
136.090783
 31
0.0
  0
ARC
  5
309
330
36
100
AcDbEntity
  8
0
 62
     2
100
AcDbCircle
 10
-24.342172
 20
135.400494
 30
0.0
 40
21.019379
100
AcDbArc
 50
1.881965999999999
 51
5.709994
  0
LINE
  5
30A
330
36
100
AcDbEntity
  8
0
 62
     2
100
AcDbLine
 10
-8.330873
 20
138.297565
 30
0.0
 11
-8.330878
 21
137.995363
 31
0.0
  0
LINE
  5
30B
330
36
100
AcDbEntity
  8
0
 62
     2
100
AcDbLine
 10
-11.087319
 20
138.297622
 30
0.0
 11
-8.330873
 21
138.297574
 31
0.0
  0
LINE
  5
30C
330
36
100
AcDbEntity
  8
0
 62
     2
100
AcDbLine
 10
-11.087417
 20
132.665891
 30
0.0
 11
-11.087422
 21
132.363689
 31
0.0
  0
LINE
  5
30D
330
36
100
AcDbEntity
  8
0
 62
     2
100
AcDbLine
 10
-11.087319
 20
138.297622
 30
0.0
 11
-11.087324
 21
137.995363
 31
0.0
  0
LINE
  5
30E
330
36
100
AcDbEntity
  8
0
 62
     2
100
AcDbLine
 10
-15.02616
 20
132.665891
 30
0.0
 11
-15.02616
 21
132.363661
 31
0.0
  0
LINE
  5
30F
330
36
100
AcDbEntity
  8
0
 62
     2
100
AcDbLine
 10
-15.648657
 20
135.843501
 30
0.0
 11
-13.473757
 21
132.363661
 31
0.0
  0
LINE
  5
310
330
36
100
AcDbEntity
  8
0
 62
     2
100
AcDbLine
 10
-13.473757
 20
132.363661
 30
0.0
 11
-12.017425
 21
132.363661
 31
0.0
  0
LINE
  5
311
330
36
100
AcDbEntity
  8
0
 62
     2
100
AcDbLine
 10
-11.394928
 20
138.297593
 30
0.0
 11
-11.394928
 21
137.995363
 31
0.0
  0
LINE
  5
312
330
36
100
AcDbEntity
  8
0
 62
     2
100
AcDbLine
 10
-13.593878
 20
138.297593
 30
0.0
 11
-11.394928
 21
138.297593
 31
0.0
  0
LINE
  5
313
330
36
100
AcDbEntity
  8
0
 62
     2
100
AcDbLine
 10
-13.593878
 20
138.297593
 30
0.0
 11
-13.593878
 21
137.995363
 31
0.0
  0
LINE
  5
314
330
36
100
AcDbEntity
  8
0
 62
     2
100
AcDbLine
 10
-12.971381
 20
135.609927
 30
0.0
 11
-14.735162
 21
138.297593
 31
0.0
  0
LINE
  5
315
330
36
100
AcDbEntity
  8
0
 62
     2
100
AcDbLine
 10
-17.225111
 20
138.297593
 30
0.0
 11
-14.735162
 21
138.297593
 31
0.0
  0
LINE
  5
316
330
36
100
AcDbEntity
  8
0
 62
     2
100
AcDbLine
 10
-3.05909
 20
138.297452
 30
0.0
 11
-0.270144
 21
138.297452
 31
0.0
  0
LINE
  5
317
330
36
100
AcDbEntity
  8
0
 62
     2
100
AcDbLine
 10
-3.05909
 20
137.995363
 30
0.0
 11
-3.05909
 21
138.297452
 31
0.0
  0
LINE
  5
318
330
36
100
AcDbEntity
  8
0
 62
     2
100
AcDbLine
 10
-3.05909
 20
132.36352
 30
0.0
 11
-3.05909
 21
132.665891
 31
0.0
  0
LINE
  5
319
330
36
100
AcDbEntity
  8
0
 62
     2
100
AcDbLine
 10
-3.05909
 20
132.36352
 30
0.0
 11
-0.270144
 21
132.36352
 31
0.0
  0
LINE
  5
31A
330
36
100
AcDbEntity
  8
0
 62
     2
100
AcDbLine
 10
0.020894
 20
132.665891
 30
0.0
 11
0.020894
 21
132.36352
 31
0.0
  0
LINE
  5
31B
330
36
100
AcDbEntity
  8
0
 62
     2
100
AcDbLine
 10
-0.270144
 20
132.665891
 30
0.0
 11
-0.270144
 21
132.36352
 31
0.0
  0
LINE
  5
31C
330
36
100
AcDbEntity
  8
0
 62
     2
100
AcDbLine
 10
-0.270144
 20
137.995363
 30
0.0
 11
-0.270144
 21
138.297452
 31
0.0
  0
LINE
  5
31D
330
36
100
AcDbEntity
  8
0
 62
     2
100
AcDbLine
 10
0.020894
 20
137.995363
 30
0.0
 11
0.020894
 21
138.297452
 31
0.0
  0
LINE
  5
31E
330
36
100
AcDbEntity
  8
0
 62
     2
100
AcDbLine
 10
-17.225111
 20
132.665891
 30
0.0
 11
-17.225111
 21
132.363661
 31
0.0
  0
LINE
  5
31F
330
36
100
AcDbEntity
  8
0
 62
     2
100
AcDbLine
 10
-17.225111
 20
138.297593
 30
0.0
 11
-17.225111
 21
137.995363
 31
0.0
  0
ARC
  5
320
330
36
100
AcDbEntity
  8
0
 62
     2
100
AcDbCircle
 10
9.30288
 20
135.953124
 30
0.0
 40
2.344468999999999
100
AcDbArc
 50
17.308749
 51
23.765071
  0
ARC
  5
321
330
36
100
AcDbEntity
  8
0
 62
     2
100
AcDbCircle
 10
7.305347
 20
135.330627
 30
0.0
 40
4.436751
100
AcDbArc
 50
342.691251
 51
17.308566
  0
ARC
  5
322
330
36
100
AcDbEntity
  8
0
 62
     2
100
AcDbCircle
 10
9.30288
 20
134.70813
 30
0.0
 40
2.344468999999999
100
AcDbArc
 50
336.234929
 51
342.691251
  0
ARC
  5
323
330
36
100
AcDbEntity
  8
0
 62
     2
100
AcDbCircle
 10
9.002880000000002
 20
135.953124
 30
0.0
 40
2.344468999999999
100
AcDbArc
 50
17.308749
 51
90.0
  0
ARC
  5
324
330
36
100
AcDbEntity
  8
0
 62
     2
100
AcDbCircle
 10
7.005347
 20
135.330627
 30
0.0
 40
4.436751
100
AcDbArc
 50
342.691251
 51
17.308566
  0
ARC
  5
325
330
36
100
AcDbEntity
  8
0
 62
     2
100
AcDbCircle
 10
9.002880000000002
 20
134.70813
 30
0.0
 40
2.344468999999999
100
AcDbArc
 50
270.0
 51
342.691251
  0
ARC
  5
326
330
36
100
AcDbEntity
  8
0
 62
     2
100
AcDbCircle
 10
-5.459891999999999
 20
135.330627
 30
0.0
 40
2.966965999999997
100
AcDbArc
 50
46.75287999999999
 51
89.749998
  0
ARC
  5
327
330
36
100
AcDbEntity
  8
0
 62
     2
100
AcDbCircle
 10
-5.459891999999999
 20
135.330627
 30
0.0
 40
2.966965999999997
100
AcDbArc
 50
273.976333
 51
312.82312
  0
ARC
  5
328
330
36
100
AcDbEntity
  8
0
 62
     2
100
AcDbCircle
 10
10.885548
 20
135.284825
 30
0.0
 40
3.936983999999998
100
AcDbArc
 50
0.6665840000000001
 51
23.903928
  0
ARC
  5
329
330
36
100
AcDbEntity
  8
0
 62
     2
100
AcDbCircle
 10
16.479209
 20
135.284825
 30
0.0
 40
3.936983999999998
100
AcDbArc
 50
156.096072
 51
179.333416
  0
ARC
  5
32A
330
36
100
AcDbEntity
  8
0
 62
     2
100
AcDbCircle
 10
10.885548
 20
135.376429
 30
0.0
 40
3.936983999999998
100
AcDbArc
 50
336.096072
 51
359.333416
  0
ARC
  5
32B
330
36
100
AcDbEntity
  8
0
 62
     2
100
AcDbCircle
 10
16.479209
 20
135.376429
 30
0.0
 40
3.936983999999998
100
AcDbArc
 50
180.666584
 51
203.903928
  0
LINE
  5
32C
330
36
100
AcDbEntity
  8
0
 62
     3
100
AcDbLine
 10
23.656725
 20
135.555361
 30
0.0
 11
195.0
 21
135.555361
 31
0.0
  0
LINE
  5
32D
330
36
100
AcDbEntity
  8
0
 62
     3
100
AcDbLine
 10
-24.897309
 20
135.555361
 30
0.0
 11
-195.0
 21
135.555361
 31
0.0
  0
TEXT
  5
32E
330
36
100
AcDbEntity
  8
0
 62
     3
100
AcDbText
 10
85.513954
 20
-102.664752
 30
0.0
 40
2.0
  1
CONPONENTS
 41
0.5331600000000001
100
AcDbText
  0
TEXT
  5
32F
330
36
100
AcDbEntity
  8
0
 62
     3
100
AcDbText
 10
85.164228
 20
-121.596928
 30
0.0
 40
3.0
  1
材
 41
0.833333
100
AcDbText
  0
TEXT
  5
330
330
36
100
AcDbEntity
  8
0
 62
     3
100
AcDbText
 10
92.69986999999998
 20
-121.596928
 30
0.0
 40
3.0
  1
質
 41
0.833333
100
AcDbText
  0
TEXT
  5
331
330
36
100
AcDbEntity
  8
0
 62
     3
100
AcDbText
 10
85.25229799999998
 20
-110.972404
 30
0.0
 40
2.0
  1
MODEL
 41
1.031072999999999
100
AcDbText
  0
TEXT
  5
332
330
36
100
AcDbEntity
  8
0
 62
     3
100
AcDbText
 10
85.164228
 20
-117.91462
 30
0.0
 40
2.0
  1
MATERIAL
 41
0.659278
100
AcDbText
  0
TEXT
  5
333
330
36
100
AcDbEntity
  8
0
 62
     3
100
AcDbText
 10
116.471508
 20
-121.596928
 30
0.0
 40
3.0
  1
備
 41
0.833333
100
AcDbText
  0
TEXT
  5
334
330
36
100
AcDbEntity
  8
0
 62
     3
100
AcDbText
 10
123.20451
 20
-121.596928
 30
0.0
 40
3.0
  1
考
 41
0.833333
100
AcDbText
  0
TEXT
  5
335
330
36
100
AcDbEntity
  8
0
 62
     3
100
AcDbText
 10
116.8128824127536
 20
-117.91462
 30
0.0
 40
2.0
  1
REMARKS
 41
0.675794
100
AcDbText
  0
TEXT
  5
336
330
36
100
AcDbEntity
  8
0
 62
     3
100
AcDbText
 10
86.75395700000001
 20
-124.834741
 30
0.0
 40
2.0
  1
3AD
 41
1.42614
100
AcDbText
  0
TEXT
  5
337
330
36
100
AcDbEntity
  8
0
 62
     3
100
AcDbText
 10
96.06493700000001
 20
-124.669007
 30
0.0
 40
2.0
  1
ANGLE
 41
1.669883999999995
100
AcDbText
  0
TEXT
  5
338
330
36
100
AcDbEntity
  8
0
 62
     3
100
AcDbText
 10
116.998824
 20
-125.045848
 30
0.0
 40
2.0
  1
SCALE
 41
0.7719630000000001
100
AcDbText
  0
TEXT
  5
339
330
36
100
AcDbEntity
  8
0
 62
     3
100
AcDbText
 10
86.440087
 20
-128.834277
 30
0.0
 40
3.0
  1
第
 41
0.833333
100
AcDbText
  0
TEXT
  5
33A
330
36
100
AcDbEntity
  8
0
 62
     3
100
AcDbText
 10
94.22693700000001
 20
-128.834277
 30
0.0
 40
3.0
  1
三
 41
0.833333
100
AcDbText
  0
TEXT
  5
33B
330
36
100
AcDbEntity
  8
0
 62
     3
100
AcDbText
 10
102.013787
 20
-128.834277
 30
0.0
 40
3.0
  1
角
 41
0.833333
100
AcDbText
  0
TEXT
  5
33C
330
36
100
AcDbEntity
  8
0
 62
     3
100
AcDbText
 10
109.800637
 20
-128.834277
 30
0.0
 40
3.0
  1
法
 41
0.833333
100
AcDbText
  0
TEXT
  5
33D
330
36
100
AcDbEntity
  8
0
 62
     3
100
AcDbText
 10
116.862029
 20
-128.545848
 30
0.0
 40
3.0
  1
尺
 41
0.833333
100
AcDbText
  0
TEXT
  5
33E
330
36
100
AcDbEntity
  8
0
 62
     3
100
AcDbText
 10
123.59503
 20
-128.545848
 30
0.0
 40
3.0
  1
度
 41
0.833333
100
AcDbText
  0
TEXT
  5
33F
330
36
100
AcDbEntity
  8
0
 62
     3
100
AcDbText
 10
146.178301
 20
-106.376549
 30
0.0
 40
3.0
  1
承認
 41
1.089472999999999
100
AcDbText
  0
TEXT
  5
340
330
36
100
AcDbEntity
  8
0
 62
     3
100
AcDbText
 10
159.421181
 20
-106.434277
 30
0.0
 40
3.0
  1
検図
 41
0.931761
100
AcDbText
  0
TEXT
  5
341
330
36
100
AcDbEntity
  8
0
 62
     3
100
AcDbText
 10
172.421578
 20
-106.434277
 30
0.0
 40
3.0
  1
設
 41
0.833333
100
AcDbText
  0
TEXT
  5
342
330
36
100
AcDbEntity
  8
0
 62
     3
100
AcDbText
 10
176.911446
 20
-106.434277
 30
0.0
 40
3.0
  1
計
 41
0.833333
100
AcDbText
  0
TEXT
  5
343
330
36
100
AcDbEntity
  8
0
 62
     3
100
AcDbText
 10
85.584061
 20
-106.261725
 30
0.0
 40
3.0
  1
品
 41
0.833333
100
AcDbText
  0
TEXT
  5
344
330
36
100
AcDbEntity
  8
0
 62
     3
100
AcDbText
 10
93.119703
 20
-106.261725
 30
0.0
 40
3.0
  1
名
 41
0.833333
100
AcDbText
  0
TEXT
  5
345
330
36
100
AcDbEntity
  8
0
 62
     3
100
AcDbText
 10
85.25229799999998
 20
-114.4880327065826
 30
0.0
 40
3.0
  1
型
 41
0.833333
100
AcDbText
  0
TEXT
  5
346
330
36
100
AcDbEntity
  8
0
 62
     3
100
AcDbText
 10
92.80038899999999
 20
-114.4880327065826
 30
0.0
 40
3.0
  1
式
 41
0.833333
100
AcDbText
  0
LINE
  5
34D
330
36
100
AcDbEntity
  8
0
 62
     3
100
AcDbLine
 10
-207.401924
 20
2.0
 30
0.0
 11
-210.0
 21
0.5
 31
0.0
  0
LINE
  5
34E
330
36
100
AcDbEntity
  8
0
 62
     3
100
AcDbLine
 10
-207.401924
 20
2.0
 30
0.0
 11
-210.0
 21
3.5
 31
0.0
  0
LINE
  5
34F
330
36
100
AcDbEntity
  8
0
 62
     3
100
AcDbLine
 10
-210.0
 20
0.5
 30
0.0
 11
-210.0
 21
3.5
 31
0.0
  0
TEXT
  5
357
330
36
100
AcDbEntity
  8
0
 62
     3
100
AcDbText
 10
128.9176854775073
 20
-127.7102
 30
0.0
 40
3.2
  1
FREE
  7
高3.2
100
AcDbText
  0
TEXT
  5
358
330
36
100
AcDbEntity
  8
0
 62
     3
100
AcDbText
 10
101.371401
 20
-121.673186
 30
0.0
 40
3.2
  1
別　掲
  7
高3.2
100
AcDbText
  0
LINE
  5
359
330
36
100
AcDbEntity
  8
0
 62
     3
100
AcDbLine
 10
80.76361099999997
 20
3.013625
 30
0.0
 11
78.814715
 21
4.962520999999997
 31
0.0
  0
LINE
  5
35A
330
36
100
AcDbEntity
  8
0
 62
     3
100
AcDbLine
 10
80.76361099999997
 20
4.962520999999997
 30
0.0
 11
78.814715
 21
3.013625
 31
0.0
  0
CIRCLE
  5
35B
330
36
100
AcDbEntity
  8
0
 62
     3
100
AcDbCircle
 10
79.789163
 20
3.988073
 30
0.0
 40
2.0
  0
LINE
  5
35C
330
36
100
AcDbEntity
  8
0
 62
     3
100
AcDbLine
 10
70.289163
 20
5.36615
 30
0.0
 11
78.339714
 21
5.36615
 31
0.0
  0
LINE
  5
35D
330
36
100
AcDbEntity
  8
0
 62
     3
100
AcDbLine
 10
81.238612
 20
5.36615
 30
0.0
 11
89.289163
 21
5.36615
 31
0.0
  0
LINE
  5
363
330
36
100
AcDbEntity
  8
0
 62
     7
100
AcDbLine
 10
81.69313999999998
 20
3.898851999999998
 30
0.0
 11
103.838016
 21
20.22038
 31
0.0
  0
LINE
  5
364
330
36
100
AcDbEntity
  8
0
 62
     7
100
AcDbLine
 10
103.838016
 20
20.22038
 30
0.0
 11
142.3380159999999
 21
20.22038
 31
0.0
  0
TEXT
  5
365
330
36
100
AcDbEntity
  8
0
 62
     4
100
AcDbText
 10
106.588016
 20
21.22038
 30
0.0
 40
3.2
  1
リール本体アース端子ねじ
 41
0.716146
100
AcDbText
  0
LINE
  5
366
330
36
100
AcDbEntity
  8
0
 62
     7
100
AcDbLine
 10
-31.499745
 20
-13.08572
 30
0.0
 11
-31.499745
 21
-8.610732
 31
0.0
  0
LINE
  5
367
330
36
100
AcDbEntity
  8
0
 62
     7
100
AcDbLine
 10
-35.974733
 20
-13.08572
 30
0.0
 11
-27.024758
 21
-13.08572
 31
0.0
  0
LINE
  5
368
330
36
100
AcDbEntity
  8
0
 62
     7
100
AcDbLine
 10
-35.26442
 20
-14.496123
 30
0.0
 11
-27.89842800000001
 21
-14.496123
 31
0.0
  0
LINE
  5
369
330
36
100
AcDbEntity
  8
0
 62
     7
100
AcDbLine
 10
-33.93187800000001
 20
-16.050754
 30
0.0
 11
-28.89783400000001
 21
-16.050754
 31
0.0
  0
LINE
  5
36A
330
36
100
AcDbEntity
  8
0
 62
     3
100
AcDbLine
 10
-31.440572
 20
-4.066130999999998
 30
0.0
 11
-31.440572
 21
-7.811411999999998
 31
0.0
  0
LINE
  5
36B
330
36
100
AcDbEntity
  8
0
 62
     3
100
AcDbLine
 10
-31.440572
 20
-7.811411999999998
 30
0.0
 11
-29.514428
 21
-6.527314999999997
 31
0.0
  0
LINE
  5
36C
330
36
100
AcDbEntity
  8
0
 62
     3
100
AcDbLine
 10
-31.440572
 20
-7.811411999999998
 30
0.0
 11
-33.366716
 21
-6.527314999999997
 31
0.0
  0
TEXT
  5
36D
330
36
100
AcDbEntity
  8
0
 62
     3
100
AcDbText
 10
72.800527
 20
-0.018023
 30
0.0
 40
4.5
  1
E
100
AcDbText
  0
TEXT
  5
36E
330
36
100
AcDbEntity
  8
0
 62
     3
100
AcDbText
 10
-186.3571428571428
 20
-138.0
 30
0.0
 40
3.2
  1
部品名称
 41
0.8
  7
高3.2
100
AcDbText
  0
TEXT
  5
36F
330
36
100
AcDbEntity
  8
0
 62
     3
100
AcDbText
 10
-145.2113721428571
 20
-138.0
 30
0.0
 40
3.2
  1
材質（備考）
 41
0.8
  7
高3.2
100
AcDbText
  0
TEXT
  5
370
330
36
100
AcDbEntity
  8
0
 62
     3
100
AcDbText
 10
-193.5
 20
-138.0
 30
0.0
 40
3.2
  1
No
 41
0.8
  7
高3.2
100
AcDbText
  0
LINE
  5
371
330
36
100
AcDbEntity
  8
0
 62
     7
100
AcDbLine
 10
-146.7113721428571
 20
-88.49999999999999
 30
0.0
 11
-146.7113721428571
 21
-138.5
 31
0.0
  0
LINE
  5
372
330
36
100
AcDbEntity
  8
0
 62
     7
100
AcDbLine
 10
-187.8571428571428
 20
-88.49999999999999
 30
0.0
 11
-187.8571428571428
 21
-138.5
 31
0.0
  0
TEXT
  5
373
330
36
100
AcDbEntity
  8
0
 62
     3
100
AcDbText
 10
-193.5
 20
-128.0
 30
0.0
 40
3.2
  1
2
 41
0.8
  7
高3.2
100
AcDbText
  0
TEXT
  5
374
330
36
100
AcDbEntity
  8
0
 62
     3
100
AcDbText
 10
-193.5
 20
-123.0
 30
0.0
 40
3.2
  1
3
 41
0.8
  7
高3.2
100
AcDbText
  0
TEXT
  5
375
330
36
100
AcDbEntity
  8
0
 62
     3
100
AcDbText
 10
-193.5
 20
-118.0
 30
0.0
 40
3.2
  1
4
 41
0.8
  7
高3.2
100
AcDbText
  0
TEXT
  5
376
330
36
100
AcDbEntity
  8
0
 62
     3
100
AcDbText
 10
-193.5
 20
-113.0
 30
0.0
 40
3.2
  1
5
 41
0.8
  7
高3.2
100
AcDbText
  0
TEXT
  5
377
330
36
100
AcDbEntity
  8
0
 62
     3
100
AcDbText
 10
-193.5
 20
-108.0
 30
0.0
 40
3.2
  1
6
 41
0.8
  7
高3.2
100
AcDbText
  0
TEXT
  5
378
330
36
100
AcDbEntity
  8
0
 62
     3
100
AcDbText
 10
-193.5
 20
-103.0
 30
0.0
 40
3.2
  1
7
 41
0.8
  7
高3.2
100
AcDbText
  0
TEXT
  5
379
330
36
100
AcDbEntity
  8
0
 62
     3
100
AcDbText
 10
-193.5
 20
-98.0
 30
0.0
 40
3.2
  1
8
 41
0.8
  7
高3.2
100
AcDbText
  0
TEXT
  5
37A
330
36
100
AcDbEntity
  8
0
 62
     3
100
AcDbText
 10
-186.3571428571428
 20
-133.0
 30
0.0
 40
3.2
  1
本体
 41
0.8
  7
高3.2
100
AcDbText
  0
TEXT
  5
37B
330
36
100
AcDbEntity
  8
0
 62
     3
100
AcDbText
 10
-186.3571428571428
 20
-128.0
 30
0.0
 40
3.2
  1
支持脚（固定金具）
 41
0.8
  7
高3.2
100
AcDbText
  0
TEXT
  5
37C
330
36
100
AcDbEntity
  8
0
 62
     3
100
AcDbText
 10
-186.3571428571428
 20
-118.0
 30
0.0
 40
3.2
  1
ワイヤー
 41
0.8
  7
高3.2
100
AcDbText
  0
TEXT
  5
37D
330
36
100
AcDbEntity
  8
0
 62
     3
100
AcDbText
 10
-186.3571428571428
 20
-108.0
 30
0.0
 40
3.2
  1
アースクリップ(100A)
 41
0.8
  7
高3.2
100
AcDbText
  0
TEXT
  5
37E
330
36
100
AcDbEntity
  8
0
 62
     3
100
AcDbText
 10
-186.3571428571428
 20
-103.0
 30
0.0
 40
3.2
  1
ラチェット爪
 41
0.8
  7
高3.2
100
AcDbText
  0
TEXT
  5
37F
330
36
100
AcDbEntity
  8
0
 62
     3
100
AcDbText
 10
-186.3571428571428
 20
-98.0
 30
0.0
 40
3.2
  1
ラチェット
 41
0.8
  7
高3.2
100
AcDbText
  0
TEXT
  5
380
330
36
100
AcDbEntity
  8
0
 62
     3
100
AcDbText
 10
-145.2113721428571
 20
-133.0
 30
0.0
 40
3.2
  1
SPCC
 41
0.8
  7
高3.2
100
AcDbText
  0
TEXT
  5
381
330
36
100
AcDbEntity
  8
0
 62
     3
100
AcDbText
 10
-145.2113721428571
 20
-128.0
 30
0.0
 40
3.2
  1
SPCC
 41
0.8
  7
高3.2
100
AcDbText
  0
TEXT
  5
382
330
36
100
AcDbEntity
  8
0
 62
     3
100
AcDbText
 10
-145.2113721428571
 20
-123.0
 30
0.0
 40
3.2
  1
SK-5
 41
0.8
  7
高3.2
100
AcDbText
  0
TEXT
  5
383
330
36
100
AcDbEntity
  8
0
 62
     3
100
AcDbText
 10
-145.2113721428571
 20
-113.0
 30
0.0
 40
3.2
  1
AC3A
 41
0.8
  7
高3.2
100
AcDbText
  0
TEXT
  5
384
330
36
100
AcDbEntity
  8
0
 62
     3
100
AcDbText
 10
-145.2113721428571
 20
-108.0
 30
0.0
 40
3.2
  1
CUP･GR
 41
0.8
  7
高3.2
100
AcDbText
  0
TEXT
  5
385
330
36
100
AcDbEntity
  8
0
 62
     3
100
AcDbText
 10
-145.2113721428571
 20
-103.0
 30
0.0
 40
3.2
  1
SPCC
 41
0.8
  7
高3.2
100
AcDbText
  0
TEXT
  5
386
330
36
100
AcDbEntity
  8
0
 62
     3
100
AcDbText
 10
-145.2113721428571
 20
-98.0
 30
0.0
 40
3.2
  1
SPCC
 41
0.8
  7
高3.2
100
AcDbText
  0
TEXT
  5
387
330
36
100
AcDbEntity
  8
0
 62
     3
100
AcDbText
 10
-186.3571428571428
 20
-113.0
 30
0.0
 40
3.2
  1
ストッパー
 41
0.8
  7
高3.2
100
AcDbText
  0
TEXT
  5
388
330
36
100
AcDbEntity
  8
0
 62
     3
100
AcDbText
 10
-145.2113721428571
 20
-118.0
 30
0.0
 40
3.2
  1
SWRH･%%C2.5x15m
 41
0.8
  7
高3.2
100
AcDbText
  0
TEXT
  5
389
330
36
100
AcDbEntity
  8
0
 62
     3
100
AcDbText
 10
-186.3571428571428
 20
-123.0
 30
0.0
 40
3.2
  1
ゼンマイバネ
 41
0.8
  7
高3.2
100
AcDbText
  0
TEXT
  5
38A
330
36
100
AcDbEntity
  8
0
 62
     3
100
AcDbText
 10
-193.5
 20
-133.0
 30
0.0
 40
3.2
  1
1
 41
0.8
  7
高3.2
100
AcDbText
  0
LINE
  5
38B
330
36
100
AcDbEntity
  8
0
 62
     3
100
AcDbLine
 10
-103.002985
 20
-138.5
 30
0.0
 11
-103.002985
 21
-88.49999999999999
 31
0.0
  0
TEXT
  5
38C
330
36
100
AcDbEntity
  8
0
 62
     3
100
AcDbText
 10
148.4861512035256
 20
-98.278192
 30
0.0
 40
4.5
  1
コード
  7
高4.5
100
AcDbText
  0
LINE
  5
38D
330
36
100
AcDbEntity
  8
0
 62
     3
100
AcDbLine
 10
169.3006
 20
-98.834277
 30
0.0
 11
169.3006
 21
-92.834277
 31
0.0
  0
LINE
  5
38E
330
36
100
AcDbEntity
  8
0
 62
     3
100
AcDbLine
 10
143.3006
 20
-98.834277
 30
0.0
 11
143.3006
 21
-92.834277
 31
0.0
  0
TEXT
  5
38F
330
36
100
AcDbEntity
  8
0
 62
     3
100
AcDbText
 10
173.8476522690166
 20
-98.335921
 30
0.0
 40
4.5
  1
7830
  7
高4.5
100
AcDbText
  0
LINE
  5
390
330
36
100
AcDbEntity
  8
0
 62
     7
100
AcDbLine
 10
-103.002985
 20
-93.49999999999999
 30
0.0
 11
-195.0
 21
-93.49999999999999
 31
0.0
  0
LINE
  5
391
330
36
100
AcDbEntity
  8
0
 62
     7
100
AcDbLine
 10
-103.002985
 20
-98.50000000000001
 30
0.0
 11
-195.0
 21
-98.50000000000001
 31
0.0
  0
LINE
  5
392
330
36
100
AcDbEntity
  8
0
 62
     7
100
AcDbLine
 10
-103.002985
 20
-103.5
 30
0.0
 11
-195.0
 21
-103.5
 31
0.0
  0
LINE
  5
393
330
36
100
AcDbEntity
  8
0
 62
     7
100
AcDbLine
 10
-103.002985
 20
-108.5
 30
0.0
 11
-195.0
 21
-108.5
 31
0.0
  0
LINE
  5
394
330
36
100
AcDbEntity
  8
0
 62
     7
100
AcDbLine
 10
-103.002985
 20
-113.5
 30
0.0
 11
-195.0
 21
-113.5
 31
0.0
  0
LINE
  5
395
330
36
100
AcDbEntity
  8
0
 62
     7
100
AcDbLine
 10
-103.002985
 20
-118.5
 30
0.0
 11
-195.0
 21
-118.5
 31
0.0
  0
LINE
  5
396
330
36
100
AcDbEntity
  8
0
 62
     7
100
AcDbLine
 10
-103.002985
 20
-123.5
 30
0.0
 11
-195.0
 21
-123.5
 31
0.0
  0
LINE
  5
397
330
36
100
AcDbEntity
  8
0
 62
     7
100
AcDbLine
 10
-103.002985
 20
-128.5
 30
0.0
 11
-195.0
 21
-128.5
 31
0.0
  0
LINE
  5
398
330
36
100
AcDbEntity
  8
0
 62
     3
100
AcDbLine
 10
-103.002985
 20
-133.5
 30
0.0
 11
-195.0
 21
-133.5
 31
0.0
  0
LINE
  5
399
330
36
100
AcDbEntity
  8
0
 62
     3
100
AcDbLine
 10
194.899964
 20
-92.834277
 30
0.0
 11
143.3006
 21
-92.834277
 31
0.0
  0
LINE
  5
39F
330
36
100
AcDbEntity
  8
0
 62
     7
100
AcDbLine
 10
14.407372
 20
98.316536
 30
0.0
 11
18.924022
 21
115.121855
 31
0.0
  0
CIRCLE
  5
3A0
330
36
100
AcDbEntity
  8
0
 62
     7
100
AcDbCircle
 10
20.221784
 20
119.9505
 30
0.0
 40
5.0
  0
TEXT
  5
3A1
330
36
100
AcDbEntity
  8
0
 62
     4
100
AcDbText
 10
18.36220426033849
 20
116.744559780454
 30
0.0
 40
6.981817999999997
  1
6
 41
0.859375
100
AcDbText
  0
CIRCLE
  5
3A8
330
36
100
AcDbEntity
  8
0
 62
     7
100
AcDbCircle
 10
-8.385863999999997
 20
119.9505
 30
0.0
 40
5.0
  0
TEXT
  5
3A9
330
36
100
AcDbEntity
  8
0
 62
     4
100
AcDbText
 10
-10.24544373966151
 20
116.744559780454
 30
0.0
 40
6.981817999999997
  1
5
 41
0.859375
100
AcDbText
  0
LINE
  5
3AF
330
36
100
AcDbEntity
  8
0
 62
     7
100
AcDbLine
 10
-53.75140899999999
 20
89.21645699999997
 30
0.0
 11
-44.619751
 21
115.232679
 31
0.0
  0
CIRCLE
  5
3B0
330
36
100
AcDbEntity
  8
0
 62
     7
100
AcDbCircle
 10
-42.963802
 20
119.9505
 30
0.0
 40
5.0
  0
TEXT
  5
3B1
330
36
100
AcDbEntity
  8
0
 62
     4
100
AcDbText
 10
-45.39359237940607
 20
116.459591
 30
0.0
 40
6.981817999999997
  1
4
 41
0.859375
100
AcDbText
  0
LINE
  5
3B7
330
36
100
AcDbEntity
  8
0
 62
     7
100
AcDbLine
 10
-67.273499
 20
65.82141700000001
 30
0.0
 11
-63.49667
 21
114.965201
 31
0.0
  0
CIRCLE
  5
3B8
330
36
100
AcDbEntity
  8
0
 62
     7
100
AcDbCircle
 10
-63.113536
 20
119.9505
 30
0.0
 40
5.0
  0
TEXT
  5
3B9
330
36
100
AcDbEntity
  8
0
 62
     4
100
AcDbText
 10
-64.9731157396615
 20
116.744559780454
 30
0.0
 40
6.981817999999997
  1
8
 41
0.859375
100
AcDbText
  0
LINE
  5
3BF
330
36
100
AcDbEntity
  8
0
 62
     7
100
AcDbLine
 10
-77.791426
 20
74.90539
 30
0.0
 11
-92.49665099999999
 21
115.252785
 31
0.0
  0
CIRCLE
  5
3C0
330
36
100
AcDbEntity
  8
0
 62
     7
100
AcDbCircle
 10
-94.208805
 20
119.9505
 30
0.0
 40
5.0
  0
TEXT
  5
3C1
330
36
100
AcDbEntity
  8
0
 62
     4
100
AcDbText
 10
-96.06838473966153
 20
116.744559780454
 30
0.0
 40
6.981817999999997
  1
3
 41
0.859375
100
AcDbText
  0
LINE
  5
3C7
330
36
100
AcDbEntity
  8
0
 62
     7
100
AcDbLine
 10
-110.398369
 20
55.732505
 30
0.0
 11
-132.518017
 21
115.263582
 31
0.0
  0
CIRCLE
  5
3C8
330
36
100
AcDbEntity
  8
0
 62
     7
100
AcDbCircle
 10
-134.259511
 20
119.9505
 30
0.0
 40
5.0
  0
TEXT
  5
3C9
330
36
100
AcDbEntity
  8
0
 62
     4
100
AcDbText
 10
-135.5488800999171
 20
116.459591
 30
0.0
 40
6.981817999999997
  1
1
 41
1.289062
100
AcDbText
  0
TEXT
  5
3E3
330
36
100
AcDbEntity
  8
0
 62
     3
100
AcDbText
 10
87.800374264351
 20
-46.34232781375892
 30
0.0
 40
4.5
  1
ワイヤー長さ
 41
0.833333
100
AcDbText
  0
LINE
  5
3E4
330
36
100
AcDbEntity
  8
0
  6
Continuous
 62
     3
100
AcDbLine
 10
83.38413014432076
 20
-40.44296021346361
 30
0.0
 11
180.2101075521548
 21
-40.44296021346361
 31
0.0
  0
TEXT
  5
3E5
330
36
100
AcDbEntity
  8
0
 62
     3
100
AcDbText
 10
119.4921851962152
 20
-37.78946716085383
 30
0.0
 40
4.5
  1
主　仕　様
  7
高4.5
100
AcDbText
  0
LINE
  5
3E6
330
36
100
AcDbEntity
  8
0
  6
Continuous
100
AcDbLine
 10
83.38413014432076
 20
-47.44296021346361
 30
0.0
 11
180.2101075521548
 21
-47.44296021346361
 31
0.0
  0
LINE
  5
3E9
330
36
100
AcDbEntity
  8
0
  6
Continuous
100
AcDbLine
 10
83.38413014432076
 20
-54.4429602134636
 30
0.0
 11
180.2101075521548
 21
-54.44296021346359
 31
0.0
  0
LINE
  5
3EA
330
36
100
AcDbEntity
  8
0
  6
Continuous
100
AcDbLine
 10
83.38413014432076
 20
-61.44296021346359
 30
0.0
 11
180.2101075521548
 21
-61.44296021346359
 31
0.0
  0
LINE
  5
3EB
330
36
100
AcDbEntity
  8
0
  6
Continuous
100
AcDbLine
 10
83.38413014432076
 20
-68.44296021346361
 30
0.0
 11
180.2101075521548
 21
-68.44296021346361
 31
0.0
  0
LINE
  5
3EC
330
36
100
AcDbEntity
  8
0
  6
Continuous
100
AcDbLine
 10
83.38413014432076
 20
-75.44296021346361
 30
0.0
 11
180.2101075521548
 21
-75.44296021346361
 31
0.0
  0
LINE
  5
3ED
330
36
100
AcDbEntity
  8
0
  6
Continuous
 62
     3
100
AcDbLine
 10
83.38413014432076
 20
-82.44296021346359
 30
0.0
 11
180.2101075521548
 21
-82.44296021346359
 31
0.0
  0
TEXT
  5
3EE
330
36
100
AcDbEntity
  8
0
 62
     3
100
AcDbText
 10
87.800374264351
 20
-53.51968359841016
 30
0.0
 40
4.5
  1
ワイヤー径
 41
0.833333
100
AcDbText
  0
TEXT
  5
3EF
330
36
100
AcDbEntity
  8
0
 62
     3
100
AcDbText
 10
87.800374264351
 20
-60.69703938306155
 30
0.0
 40
4.5
  1
被覆外径
 41
0.833333
100
AcDbText
  0
TEXT
  5
3F0
330
36
100
AcDbEntity
  8
0
 62
     3
100
AcDbText
 10
87.800374264351
 20
-67.58144251799283
 30
0.0
 40
4.5
  1
ゼンマイバネ
 41
0.833333
100
AcDbText
  0
TEXT
  5
3F1
330
36
100
AcDbEntity
  8
0
 62
     3
100
AcDbText
 10
87.800374264351
 20
-74.6123213166795
 30
0.0
 40
4.5
  1
本体塗装
 41
0.833333
100
AcDbText
  0
LINE
  5
3F3
330
36
100
AcDbEntity
  8
0
  6
Continuous
100
AcDbLine
 10
121.4451150200988
 20
-40.44296021346361
 30
0.0
 11
121.4451150200988
 21
-82.44296021346359
 31
0.0
  0
TEXT
  5
3F4
330
36
100
AcDbEntity
  8
0
 62
     3
100
AcDbText
 10
125.7558195714746
 20
-46.34232781375892
 30
0.0
 40
4.5
  1
15m
 41
0.833333
100
AcDbText
  0
TEXT
  5
3F5
330
36
100
AcDbEntity
  8
0
 62
     3
100
AcDbText
 10
125.7558195714746
 20
-53.37320661244561
 30
0.0
 40
4.5
  1
%%C2.5mm
 41
0.833333
100
AcDbText
  0
TEXT
  5
3F6
330
36
100
AcDbEntity
  8
0
 62
     3
100
AcDbText
 10
125.7558195714746
 20
-60.25760908627236
 30
0.0
 40
4.5
  1
%%C3.35mm
 41
0.833333
100
AcDbText
  0
TEXT
  5
3F7
330
36
100
AcDbEntity
  8
0
 62
     3
100
AcDbText
 10
125.7558195714746
 20
-67.28848854606358
 30
0.0
 40
4.5
  1
0.5\U+00D725.4\U+00D715m
 41
0.833333
100
AcDbText
  0
TEXT
  5
3F8
330
36
100
AcDbEntity
  8
0
 62
     3
100
AcDbText
 10
125.7558195714746
 20
-74.46584433071492
 30
0.0
 40
4.5
  1
赤色（7.5R4／14）
 41
0.833333
100
AcDbText
  0
TEXT
  5
3FB
330
36
100
AcDbEntity
  8
0
 62
     3
100
AcDbText
 10
87.800374264351
 20
-81.39981577018224
 30
0.0
 40
4.5
  1
本体質量
 41
0.833333
100
AcDbText
  0
TEXT
  5
3FC
330
36
100
AcDbEntity
  8
0
 62
     3
100
AcDbText
 10
125.7558195714746
 20
-81.54629209504227
 30
0.0
 40
4.5
  1
3.5kg
 41
0.833333
100
AcDbText
  0
LINE
  5
3FD
330
36
100
AcDbEntity
  8
0
  6
Continuous
 62
     3
100
AcDbLine
 10
83.38413014432076
 20
-40.44296021346361
 30
0.0
 11
83.38413014432076
 21
-82.44296021346359
 31
0.0
  0
LINE
  5
3FE
330
36
100
AcDbEntity
  8
0
  6
Continuous
 62
     3
100
AcDbLine
 10
180.2101075521548
 20
-40.44296021346361
 30
0.0
 11
180.2101075521545
 21
-82.44296021346359
 31
0.0
  0
LINE
  5
3FF
330
36
100
AcDbEntity
  8
0
  6
Continuous
 62
     7
100
AcDbLine
 10
117.7482606070986
 20
-38.89902373562893
 30
0.0
 11
145.8459770893769
 21
-38.89902373562893
 31
0.0
  0
LINE
  5
631
330
36
100
AcDbEntity
  8
0
  6
CENTER
 62
     7
100
AcDbLine
 10
-129.428077
 20
-26.174249
 30
0.0
 11
-14.428077
 21
-26.17424899999999
 31
0.0
  0
TEXT
  5
821
330
36
100
AcDbEntity
  8
0
 62
     3
100
AcDbText
 10
182.4999999999999
 20
126.055361
 30
0.0
 40
3.2
  1
担　当
  7
高3.2
100
AcDbText
  0
TEXT
  5
822
330
36
100
AcDbEntity
  8
0
 62
     3
100
AcDbText
 10
138.4999999999999
 20
126.055361
 30
0.0
 40
3.2
  1
変更・追記内容
  7
高3.2
100
AcDbText
  0
TEXT
  5
823
330
36
100
AcDbEntity
  8
0
 62
     3
100
AcDbText
 10
113.6135150003391
 20
121.3848224900917
 30
0.0
 40
2.0
  1
1
  7
高2
100
AcDbText
  0
TEXT
  5
824
330
36
100
AcDbEntity
  8
0
 62
     3
100
AcDbText
 10
113.3050035235818
 20
116.2150057778188
 30
0.0
 40
2.0
  1
2
  7
高2
100
AcDbText
  0
TEXT
  5
825
330
36
100
AcDbEntity
  8
0
 62
     3
100
AcDbText
 10
120.4999999999999
 20
126.055361
 30
0.0
 40
3.2
  1
日　付
  7
高3.2
100
AcDbText
  0
TEXT
  5
826
330
36
100
AcDbEntity
  8
0
 62
     3
100
AcDbText
 10
120.4999999999999
 20
131.055361
 30
0.0
 40
3.2
  1
図　　　　面　　　　略　　　　歴
  7
高3.2
100
AcDbText
  0
TEXT
  5
827
330
36
100
AcDbEntity
  8
0
 62
     3
100
AcDbText
 10
110.4999999999999
 20
126.055361
 30
0.0
 40
3.2
  1
記号
  7
高3.2
100
AcDbText
  0
LINE
  5
828
330
36
100
AcDbEntity
  8
0
 62
     7
100
AcDbLine
 10
113.9999999999999
 20
119.3462570000001
 30
0.0
 11
112.0999999999999
 21
116.055361
 31
0.0
  0
LINE
  5
829
330
36
100
AcDbEntity
  8
0
 62
     7
100
AcDbLine
 10
113.9999999999999
 20
119.3462570000001
 30
0.0
 11
115.8999999999998
 21
116.055361
 31
0.0
  0
LINE
  5
82A
330
36
100
AcDbEntity
  8
0
 62
     7
100
AcDbLine
 10
112.0999999999999
 20
116.055361
 30
0.0
 11
115.8999999999998
 21
116.055361
 31
0.0
  0
LINE
  5
82B
330
36
100
AcDbEntity
  8
0
 62
     7
100
AcDbLine
 10
113.9999999999999
 20
124.3462580000001
 30
0.0
 11
112.0999999999999
 21
121.055361
 31
0.0
  0
LINE
  5
82C
330
36
100
AcDbEntity
  8
0
 62
     7
100
AcDbLine
 10
113.9999999999999
 20
124.3462580000001
 30
0.0
 11
115.8999999999998
 21
121.055361
 31
0.0
  0
LINE
  5
82D
330
36
100
AcDbEntity
  8
0
 62
     7
100
AcDbLine
 10
112.0999999999999
 20
121.055361
 30
0.0
 11
115.8999999999998
 21
121.055361
 31
0.0
  0
LINE
  5
82E
330
36
100
AcDbEntity
  8
0
 62
     3
100
AcDbLine
 10
108.9999999999999
 20
130.555361
 30
0.0
 11
194.9999999999999
 21
130.555361
 31
0.0
  0
LINE
  5
82F
330
36
100
AcDbEntity
  8
0
 62
     3
100
AcDbLine
 10
108.9999999999999
 20
125.555361
 30
0.0
 11
194.9999999999999
 21
125.555361
 31
0.0
  0
LINE
  5
830
330
36
100
AcDbEntity
  8
0
 62
     7
100
AcDbLine
 10
108.9999999999999
 20
120.555361
 30
0.0
 11
194.9999999999999
 21
120.555361
 31
0.0
  0
LINE
  5
831
330
36
100
AcDbEntity
  8
0
 62
     3
100
AcDbLine
 10
108.9999999999999
 20
115.555361
 30
0.0
 11
194.9999999999999
 21
115.555361
 31
0.0
  0
LINE
  5
832
330
36
100
AcDbEntity
  8
0
 62
     7
100
AcDbLine
 10
180.9999999999998
 20
115.555361
 30
0.0
 11
180.9999999999999
 21
130.555361
 31
0.0
  0
LINE
  5
833
330
36
100
AcDbEntity
  8
0
 62
     7
100
AcDbLine
 10
136.9999999999999
 20
115.555361
 30
0.0
 11
136.9999999999999
 21
130.555361
 31
0.0
  0
LINE
  5
834
330
36
100
AcDbEntity
  8
0
 62
     7
100
AcDbLine
 10
118.9999999999999
 20
115.555361
 30
0.0
 11
118.9999999999999
 21
130.555361
 31
0.0
  0
LINE
  5
835
330
36
100
AcDbEntity
  8
0
 62
     3
100
AcDbLine
 10
108.9999999999999
 20
115.555361
 30
0.0
 11
108.9999999999999
 21
135.555361
 31
0.0
  0
TEXT
  5
F5A
330
36
100
AcDbEntity
  8
0
 62
     3
100
AcDbText
 10
-193.5
 20
-93.0
 30
0.0
 40
3.2
  1
9
 41
0.8
  7
高3.2
100
AcDbText
  0
TEXT
  5
F5B
330
36
100
AcDbEntity
  8
0
 62
     3
100
AcDbText
 10
-186.3571428571428
 20
-93.0
 30
0.0
 40
3.2
  1
ゴムクッション
 41
0.8
  7
高3.2
100
AcDbText
  0
TEXT
  5
F5C
330
36
100
AcDbEntity
  8
0
 62
     3
100
AcDbText
 10
-145.2113721428571
 20
-93.0
 30
0.0
 40
3.2
  1
EPT50
 41
0.8
  7
高3.2
100
AcDbText
  0
LINE
  5
F5D
330
36
100
AcDbEntity
  8
0
 62
     3
100
AcDbLine
 10
-103.002985
 20
-88.49999999999999
 30
0.0
 11
-195.0
 21
-88.49999999999999
 31
0.0
  0
CIRCLE
  5
F60
330
36
100
AcDbEntity
  8
0
 62
     7
100
AcDbCircle
 10
-19.19813578490667
 20
119.9505
 30
0.0
 40
5.0
  0
TEXT
  5
F61
330
36
100
AcDbEntity
  8
0
 62
     4
100
AcDbText
 10
-21.05771552456818
 20
116.744559780454
 30
0.0
 40
6.981817999999997
  1
9
 41
0.859375
100
AcDbText
  0
LINE
  5
FB8
330
36
100
AcDbEntity
  8
0
  6
Continuous
100
AcDbLine
 10
27.157372
 20
90.970344
 30
0.0
 11
27.157372
 21
83.56944020969626
 31
0.0
  0
LINE
  5
FB9
330
36
100
AcDbEntity
  8
0
  6
Continuous
100
AcDbLine
 10
-11.092628
 20
95.595344
 30
0.0
 11
-11.092628
 21
83.56944020969626
 31
0.0
  0
LINE
  5
FBA
330
36
100
AcDbEntity
  8
0
  6
Continuous
100
AcDbLine
 10
24.657372
 20
84.81944020969626
 30
0.0
 11
-8.592627999999999
 21
84.81944020969626
 31
0.0
  0
TEXT
  5
FBE
330
36
100
AcDbEntity
  8
0
  6
Continuous
 62
     4
100
AcDbText
 10
38.0163432402067
 20
107.5267727717859
 30
0.0
 40
3.2
  1
開口約14
100
AcDbText
1001
ACAD
1000
MTEXTBEGIN
1070
    73
1070
     1
1070
    44
1040
1.0
1070
    74
1070
     0
1000
MTEXTEND
  0
LINE
  5
FC1
330
36
100
AcDbEntity
  8
0
  6
Continuous
100
AcDbLine
 10
-11.092628
 20
95.595344
 30
0.0
 11
-11.092628
 21
78.323049137608
 31
0.0
  0
LINE
  5
FC2
330
36
100
AcDbEntity
  8
0
  6
Continuous
100
AcDbLine
 10
32.657372
 20
96.09534400000001
 30
0.0
 11
32.657372
 21
78.323049137608
 31
0.0
  0
LINE
  5
FC3
330
36
100
AcDbEntity
  8
0
  6
Continuous
100
AcDbLine
 10
-8.592628000000001
 20
79.573049137608
 30
0.0
 11
30.157372
 21
79.573049137608
 31
0.0
  0
LINE
  5
FC7
330
36
100
AcDbEntity
  8
0
  6
Continuous
100
AcDbLine
 10
27.407372
 20
104.470344
 30
0.0
 11
42.50297202461343
 21
104.470344
 31
0.0
  0
LINE
  5
FC8
330
36
100
AcDbEntity
  8
0
  6
Continuous
100
AcDbLine
 10
27.407372
 20
91.220344
 30
0.0
 11
42.50297202461343
 21
91.22034399999998
 31
0.0
  0
LINE
  5
FC9
330
36
100
AcDbEntity
  8
0
  6
Continuous
100
AcDbLine
 10
41.25297202461343
 20
101.970344
 30
0.0
 11
41.25297202461343
 21
93.72034399999998
 31
0.0
  0
LINE
  5
FCD
330
36
100
AcDbEntity
  8
0
 62
     7
100
AcDbLine
 10
-111.597308
 20
57.42061899999999
 30
0.0
 11
-110.398369
 21
55.732505
 31
0.0
  0
LINE
  5
FCE
330
36
100
AcDbEntity
  8
0
 62
     7
100
AcDbLine
 10
-110.398369
 20
55.732505
 30
0.0
 11
-110.592624
 21
57.793925
 31
0.0
  0
LINE
  5
FCF
330
36
100
AcDbEntity
  8
0
 62
     7
100
AcDbLine
 10
-78.979787
 20
76.60096800000002
 30
0.0
 11
-77.791426
 21
74.90539
 31
0.0
  0
LINE
  5
FD0
330
36
100
AcDbEntity
  8
0
 62
     7
100
AcDbLine
 10
-77.791426
 20
74.90539
 30
0.0
 11
-77.97278799999998
 21
76.967984
 31
0.0
  0
LINE
  5
FD1
330
36
100
AcDbEntity
  8
0
 62
     7
100
AcDbLine
 10
-67.65456800000001
 20
67.856601
 30
0.0
 11
-67.273499
 21
65.82141700000001
 31
0.0
  0
LINE
  5
FD2
330
36
100
AcDbEntity
  8
0
 62
     7
100
AcDbLine
 10
-67.273499
 20
65.82141700000001
 30
0.0
 11
-66.58592299999999
 21
67.774473
 31
0.0
  0
LINE
  5
FD3
330
36
100
AcDbEntity
  8
0
 62
     7
100
AcDbLine
 10
-53.59468399999999
 20
91.28106999999999
 30
0.0
 11
-53.75140899999999
 21
89.21645699999997
 31
0.0
  0
LINE
  5
FD4
330
36
100
AcDbEntity
  8
0
 62
     7
100
AcDbLine
 10
-53.75140899999999
 20
89.21645699999997
 30
0.0
 11
-52.58337499999999
 21
90.92610200000001
 31
0.0
  0
LINE
  5
FD5
330
36
100
AcDbEntity
  8
0
 62
     7
100
AcDbLine
 10
14.408944
 20
100.387087
 30
0.0
 11
14.407372
 21
98.316536
 31
0.0
  0
LINE
  5
FD6
330
36
100
AcDbEntity
  8
0
 62
     7
100
AcDbLine
 10
14.407372
 20
98.316536
 30
0.0
 11
15.444009
 21
100.1089
 31
0.0
  0
LINE
  5
FD7
330
36
100
AcDbEntity
  8
0
 62
     7
100
AcDbLine
 10
82.98515599999998
 20
5.516839
 30
0.0
 11
81.69313999999998
 21
3.898851999999998
 31
0.0
  0
LINE
  5
FD8
330
36
100
AcDbEntity
  8
0
 62
     7
100
AcDbLine
 10
81.69313999999998
 20
3.898851999999998
 30
0.0
 11
83.621052
 21
4.654062
 31
0.0
  0
LINE
  5
FD9
330
36
100
AcDbEntity
  8
0
 62
     2
100
AcDbLine
 10
-4.741373999999998
 20
136.09599
 30
0.0
 11
-4.767984999999998
 21
136.266372
 31
0.0
  0
LINE
  5
FDA
330
36
100
AcDbEntity
  8
0
 62
     2
100
AcDbLine
 10
-4.767984999999998
 20
136.266372
 30
0.0
 11
-4.799943999999999
 21
136.429522
 31
0.0
  0
LINE
  5
FDB
330
36
100
AcDbEntity
  8
0
 62
     2
100
AcDbLine
 10
-4.799943999999999
 20
136.429522
 30
0.0
 11
-4.837003
 21
136.584178
 31
0.0
  0
LINE
  5
FDC
330
36
100
AcDbEntity
  8
0
 62
     2
100
AcDbLine
 10
-4.837003
 20
136.584178
 30
0.0
 11
-4.878878
 21
136.729144
 31
0.0
  0
LINE
  5
FDD
330
36
100
AcDbEntity
  8
0
 62
     2
100
AcDbLine
 10
-4.878878
 20
136.729144
 30
0.0
 11
-4.925243
 21
136.863301
 31
0.0
  0
LINE
  5
FDE
330
36
100
AcDbEntity
  8
0
 62
     2
100
AcDbLine
 10
-4.925243
 20
136.863301
 30
0.0
 11
-4.975741
 21
136.985611
 31
0.0
  0
LINE
  5
FDF
330
36
100
AcDbEntity
  8
0
 62
     2
100
AcDbLine
 10
-4.975741
 20
136.985611
 30
0.0
 11
-5.029982
 21
137.095128
 31
0.0
  0
LINE
  5
FE0
330
36
100
AcDbEntity
  8
0
 62
     2
100
AcDbLine
 10
-5.029982
 20
137.095128
 30
0.0
 11
-5.087544999999998
 21
137.191007
 31
0.0
  0
LINE
  5
FE1
330
36
100
AcDbEntity
  8
0
 62
     2
100
AcDbLine
 10
-5.087544999999998
 20
137.191007
 30
0.0
 11
-5.147986
 21
137.272507
 31
0.0
  0
LINE
  5
FE2
330
36
100
AcDbEntity
  8
0
 62
     2
100
AcDbLine
 10
-5.147986
 20
137.272507
 30
0.0
 11
-5.210837999999998
 21
137.338996
 31
0.0
  0
LINE
  5
FE3
330
36
100
AcDbEntity
  8
0
 62
     2
100
AcDbLine
 10
-5.210837999999998
 20
137.338996
 30
0.0
 11
-5.275615
 21
137.389962
 31
0.0
  0
LINE
  5
FE4
330
36
100
AcDbEntity
  8
0
 62
     2
100
AcDbLine
 10
-5.275615
 20
137.389962
 30
0.0
 11
-5.341816999999998
 21
137.42501
 31
0.0
  0
LINE
  5
FE5
330
36
100
AcDbEntity
  8
0
 62
     2
100
AcDbLine
 10
-5.341816999999998
 20
137.42501
 30
0.0
 11
-5.408930999999999
 21
137.44387
 31
0.0
  0
LINE
  5
FE6
330
36
100
AcDbEntity
  8
0
 62
     2
100
AcDbLine
 10
-5.408930999999999
 20
137.44387
 30
0.0
 11
-5.476439
 21
137.446396
 31
0.0
  0
LINE
  5
FE7
330
36
100
AcDbEntity
  8
0
 62
     2
100
AcDbLine
 10
-5.476439
 20
137.446396
 30
0.0
 11
-5.543819
 21
137.432567
 31
0.0
  0
LINE
  5
FE8
330
36
100
AcDbEntity
  8
0
 62
     2
100
AcDbLine
 10
-5.543819
 20
137.432567
 30
0.0
 11
-5.610551
 21
137.402492
 31
0.0
  0
LINE
  5
FE9
330
36
100
AcDbEntity
  8
0
 62
     2
100
AcDbLine
 10
-5.610551
 20
137.402492
 30
0.0
 11
-5.676117999999997
 21
137.356403
 31
0.0
  0
LINE
  5
FEA
330
36
100
AcDbEntity
  8
0
 62
     2
100
AcDbLine
 10
-5.676117999999997
 20
137.356403
 30
0.0
 11
-5.740012999999997
 21
137.294655
 31
0.0
  0
LINE
  5
FEB
330
36
100
AcDbEntity
  8
0
 62
     2
100
AcDbLine
 10
-5.740012999999997
 20
137.294655
 30
0.0
 11
-5.801744
 21
137.217726
 31
0.0
  0
LINE
  5
FEC
330
36
100
AcDbEntity
  8
0
 62
     2
100
AcDbLine
 10
-5.801744
 20
137.217726
 30
0.0
 11
-5.860832
 21
137.126211
 31
0.0
  0
LINE
  5
FED
330
36
100
AcDbEntity
  8
0
 62
     2
100
AcDbLine
 10
-5.860832
 20
137.126211
 30
0.0
 11
-5.916820999999997
 21
137.020817
 31
0.0
  0
LINE
  5
FEE
330
36
100
AcDbEntity
  8
0
 62
     2
100
AcDbLine
 10
-5.916820999999997
 20
137.020817
 30
0.0
 11
-5.969278
 21
136.902358
 31
0.0
  0
LINE
  5
FEF
330
36
100
AcDbEntity
  8
0
 62
     2
100
AcDbLine
 10
-5.969278
 20
136.902358
 30
0.0
 11
-6.017797999999999
 21
136.771751
 31
0.0
  0
LINE
  5
FF0
330
36
100
AcDbEntity
  8
0
 62
     2
100
AcDbLine
 10
-6.017797999999999
 20
136.771751
 30
0.0
 11
-6.062005999999997
 21
136.630005
 31
0.0
  0
LINE
  5
FF1
330
36
100
AcDbEntity
  8
0
 62
     2
100
AcDbLine
 10
-6.062005999999997
 20
136.630005
 30
0.0
 11
-6.101558999999999
 21
136.478216
 31
0.0
  0
LINE
  5
FF2
330
36
100
AcDbEntity
  8
0
 62
     2
100
AcDbLine
 10
-6.101558999999999
 20
136.478216
 30
0.0
 11
-6.136153
 21
136.317556
 31
0.0
  0
LINE
  5
FF3
330
36
100
AcDbEntity
  8
0
 62
     2
100
AcDbLine
 10
-6.136153
 20
136.317556
 30
0.0
 11
-6.165519999999999
 21
136.149267
 31
0.0
  0
LINE
  5
FF4
330
36
100
AcDbEntity
  8
0
 62
     2
100
AcDbLine
 10
-6.165519999999999
 20
136.149267
 30
0.0
 11
-6.189432
 21
135.974651
 31
0.0
  0
LINE
  5
FF5
330
36
100
AcDbEntity
  8
0
 62
     2
100
AcDbLine
 10
-6.189432
 20
135.974651
 30
0.0
 11
-6.207705999999999
 21
135.795057
 31
0.0
  0
LINE
  5
FF6
330
36
100
AcDbEntity
  8
0
 62
     2
100
AcDbLine
 10
-6.207705999999999
 20
135.795057
 30
0.0
 11
-6.220199
 21
135.611873
 31
0.0
  0
LINE
  5
FF7
330
36
100
AcDbEntity
  8
0
 62
     2
100
AcDbLine
 10
-6.220199
 20
135.611873
 30
0.0
 11
-6.226815
 21
135.426516
 31
0.0
  0
LINE
  5
FF8
330
36
100
AcDbEntity
  8
0
 62
     2
100
AcDbLine
 10
-6.226815
 20
135.426516
 30
0.0
 11
-6.227503999999997
 21
135.240417
 31
0.0
  0
LINE
  5
FF9
330
36
100
AcDbEntity
  8
0
 62
     2
100
AcDbLine
 10
-6.227503999999997
 20
135.240417
 30
0.0
 11
-6.222258999999997
 21
135.055015
 31
0.0
  0
LINE
  5
FFA
330
36
100
AcDbEntity
  8
0
 62
     2
100
AcDbLine
 10
-6.222258999999997
 20
135.055015
 30
0.0
 11
-6.211122
 21
134.871744
 31
0.0
  0
LINE
  5
FFB
330
36
100
AcDbEntity
  8
0
 62
     2
100
AcDbLine
 10
-6.211122
 20
134.871744
 30
0.0
 11
-6.194177999999999
 21
134.692019
 31
0.0
  0
LINE
  5
FFC
330
36
100
AcDbEntity
  8
0
 62
     2
100
AcDbLine
 10
-6.194177999999999
 20
134.692019
 30
0.0
 11
-6.171558
 21
134.517231
 31
0.0
  0
LINE
  5
FFD
330
36
100
AcDbEntity
  8
0
 62
     2
100
AcDbLine
 10
-6.171558
 20
134.517231
 30
0.0
 11
-6.143437999999997
 21
134.34873
 31
0.0
  0
LINE
  5
FFE
330
36
100
AcDbEntity
  8
0
 62
     2
100
AcDbLine
 10
-6.143437999999997
 20
134.34873
 30
0.0
 11
-6.110033999999997
 21
134.187819
 31
0.0
  0
LINE
  5
FFF
330
36
100
AcDbEntity
  8
0
 62
     2
100
AcDbLine
 10
-6.110033999999997
 20
134.187819
 30
0.0
 11
-6.071604999999999
 21
134.03574
 31
0.0
  0
LINE
  5
1000
330
36
100
AcDbEntity
  8
0
 62
     2
100
AcDbLine
 10
-6.071604999999999
 20
134.03574
 30
0.0
 11
-6.028446999999999
 21
133.893671
 31
0.0
  0
LINE
  5
1001
330
36
100
AcDbEntity
  8
0
 62
     2
100
AcDbLine
 10
-6.028446999999999
 20
133.893671
 30
0.0
 11
-5.980894999999997
 21
133.762708
 31
0.0
  0
LINE
  5
1002
330
36
100
AcDbEntity
  8
0
 62
     2
100
AcDbLine
 10
-5.980894999999997
 20
133.762708
 30
0.0
 11
-5.929316
 21
133.643865
 31
0.0
  0
LINE
  5
1003
330
36
100
AcDbEntity
  8
0
 62
     2
100
AcDbLine
 10
-5.929316
 20
133.643865
 30
0.0
 11
-5.874108
 21
133.53806
 31
0.0
  0
LINE
  5
1004
330
36
100
AcDbEntity
  8
0
 62
     2
100
AcDbLine
 10
-5.874108
 20
133.53806
 30
0.0
 11
-5.815698999999997
 21
133.44611
 31
0.0
  0
LINE
  5
1005
330
36
100
AcDbEntity
  8
0
 62
     2
100
AcDbLine
 10
-5.815698999999997
 20
133.44611
 30
0.0
 11
-5.75454
 21
133.368726
 31
0.0
  0
LINE
  5
1006
330
36
100
AcDbEntity
  8
0
 62
     2
100
AcDbLine
 10
-5.75454
 20
133.368726
 30
0.0
 11
-5.691103
 21
133.306507
 31
0.0
  0
LINE
  5
1007
330
36
100
AcDbEntity
  8
0
 62
     2
100
AcDbLine
 10
-5.691103
 20
133.306507
 30
0.0
 11
-5.625879
 21
133.259934
 31
0.0
  0
LINE
  5
1008
330
36
100
AcDbEntity
  8
0
 62
     2
100
AcDbLine
 10
-5.625879
 20
133.259934
 30
0.0
 11
-5.559371999999997
 21
133.229366
 31
0.0
  0
LINE
  5
1009
330
36
100
AcDbEntity
  8
0
 62
     2
100
AcDbLine
 10
-5.559371999999997
 20
133.229366
 30
0.0
 11
-5.492096
 21
133.215039
 31
0.0
  0
LINE
  5
100A
330
36
100
AcDbEntity
  8
0
 62
     2
100
AcDbLine
 10
-5.492096
 20
133.215039
 30
0.0
 11
-5.424571
 21
133.217065
 31
0.0
  0
LINE
  5
100B
330
36
100
AcDbEntity
  8
0
 62
     2
100
AcDbLine
 10
-5.424571
 20
133.217065
 30
0.0
 11
-5.357319
 21
133.235427
 31
0.0
  0
LINE
  5
100C
330
36
100
AcDbEntity
  8
0
 62
     2
100
AcDbLine
 10
-5.357319
 20
133.235427
 30
0.0
 11
-5.290859999999998
 21
133.269985
 31
0.0
  0
LINE
  5
100D
330
36
100
AcDbEntity
  8
0
 62
     2
100
AcDbLine
 10
-5.290859999999998
 20
133.269985
 30
0.0
 11
-5.225706999999998
 21
133.32047
 31
0.0
  0
LINE
  5
100E
330
36
100
AcDbEntity
  8
0
 62
     2
100
AcDbLine
 10
-5.225706999999998
 20
133.32047
 30
0.0
 11
-5.162365
 21
133.386493
 31
0.0
  0
LINE
  5
100F
330
36
100
AcDbEntity
  8
0
 62
     2
100
AcDbLine
 10
-5.162365
 20
133.386493
 30
0.0
 11
-5.101321999999997
 21
133.4675419999999
 31
0.0
  0
LINE
  5
1010
330
36
100
AcDbEntity
  8
0
 62
     2
100
AcDbLine
 10
-5.101321999999997
 20
133.4675419999999
 30
0.0
 11
-5.043051
 21
133.562993
 31
0.0
  0
LINE
  5
1011
330
36
100
AcDbEntity
  8
0
 62
     2
100
AcDbLine
 10
-5.043051
 20
133.562993
 30
0.0
 11
-4.988001999999998
 21
133.672106
 31
0.0
  0
LINE
  5
1012
330
36
100
AcDbEntity
  8
0
 62
     2
100
AcDbLine
 10
-4.988001999999998
 20
133.672106
 30
0.0
 11
-4.9366
 21
133.794039
 31
0.0
  0
LINE
  5
1013
330
36
100
AcDbEntity
  8
0
 62
     2
100
AcDbLine
 10
-4.9366
 20
133.794039
 30
0.0
 11
-4.889243
 21
133.927849
 31
0.0
  0
LINE
  5
1014
330
36
100
AcDbEntity
  8
0
 62
     2
100
AcDbLine
 10
-4.889243
 20
133.927849
 30
0.0
 11
-4.846296999999998
 21
134.072502
 31
0.0
  0
LINE
  5
1015
330
36
100
AcDbEntity
  8
0
 62
     2
100
AcDbLine
 10
-4.846296999999998
 20
134.072502
 30
0.0
 11
-4.808094
 21
134.226879
 31
0.0
  0
LINE
  5
1016
330
36
100
AcDbEntity
  8
0
 62
     2
100
AcDbLine
 10
-4.808094
 20
134.226879
 30
0.0
 11
-4.774928
 21
134.389788
 31
0.0
  0
LINE
  5
1017
330
36
100
AcDbEntity
  8
0
 62
     2
100
AcDbLine
 10
-4.774928
 20
134.389788
 30
0.0
 11
-4.747056999999998
 21
134.559969
 31
0.0
  0
LINE
  5
1018
330
36
100
AcDbEntity
  8
0
 62
     3
100
AcDbLine
 10
-21.165577
 20
100.095344
 30
0.0
 11
-19.228077
 21
100.610969
 31
0.0
  0
LINE
  5
1019
330
36
100
AcDbEntity
  8
0
 62
     3
100
AcDbLine
 10
-19.228077
 20
100.610969
 30
0.0
 11
-17.290577
 21
100.845344
 31
0.0
  0
LINE
  5
101A
330
36
100
AcDbEntity
  8
0
 62
     3
100
AcDbLine
 10
-17.290577
 20
100.845344
 30
0.0
 11
-15.353077
 21
100.610969
 31
0.0
  0
LINE
  5
101B
330
36
100
AcDbEntity
  8
0
 62
     3
100
AcDbLine
 10
-15.353077
 20
100.610969
 30
0.0
 11
-13.415577
 21
100.095344
 31
0.0
  0
LINE
  5
101C
330
36
100
AcDbEntity
  8
0
 62
     3
100
AcDbLine
 10
-21.165577
 20
95.595344
 30
0.0
 11
-19.228077
 21
95.07971899999999
 31
0.0
  0
LINE
  5
101D
330
36
100
AcDbEntity
  8
0
 62
     3
100
AcDbLine
 10
-19.228077
 20
95.07971899999999
 30
0.0
 11
-17.290577
 21
94.84534399999999
 31
0.0
  0
LINE
  5
101E
330
36
100
AcDbEntity
  8
0
 62
     3
100
AcDbLine
 10
-17.290577
 20
94.84534399999999
 30
0.0
 11
-15.353077
 21
95.07971899999999
 31
0.0
  0
LINE
  5
101F
330
36
100
AcDbEntity
  8
0
 62
     3
100
AcDbLine
 10
-15.353077
 20
95.07971899999999
 30
0.0
 11
-13.415577
 21
95.595344
 31
0.0
  0
LINE
  5
1020
330
36
100
AcDbEntity
  8
0
 62
     7
100
AcDbLine
 10
-55.548262
 20
50.320361
 30
0.0
 11
-57.272539
 21
49.174037
 31
0.0
  0
LINE
  5
1021
330
36
100
AcDbEntity
  8
0
 62
     7
100
AcDbLine
 10
-57.272539
 20
49.174037
 30
0.0
 11
-55.20610999999998
 21
49.304644
 31
0.0
  0
LINE
  5
1022
330
36
100
AcDbEntity
  8
0
 62
     7
100
AcDbLine
 10
-17.30844
 20
-0.246351
 30
0.0
 11
-18.630545
 21
-1.839845999999999
 31
0.0
  0
LINE
  5
1023
330
36
100
AcDbEntity
  8
0
 62
     7
100
AcDbLine
 10
-18.630545
 20
-1.839845999999999
 30
0.0
 11
-16.688821
 21
-1.120891
 31
0.0
  0
LINE
  5
1024
330
36
100
AcDbEntity
  8
0
100
AcDbLine
 10
-129.428077
 20
-4.029655999999998
 30
0.0
 11
-129.428077
 21
-19.971692
 31
0.0
  0
LINE
  5
1025
330
36
100
AcDbEntity
  8
0
100
AcDbLine
 10
-14.428077
 20
-2.429656
 30
0.0
 11
-14.428077
 21
-19.971692
 31
0.0
  0
LINE
  5
1026
330
36
100
AcDbEntity
  8
0
100
AcDbLine
 10
-126.928077
 20
-18.721692
 30
0.0
 11
-16.928077
 21
-18.721692
 31
0.0
  0
LINE
  5
102A
330
36
100
AcDbEntity
  8
0
100
AcDbLine
 10
-14.178077
 20
-51.87424899999999
 30
0.0
 11
-2.131246000000001
 21
-51.87424899999999
 31
0.0
  0
LINE
  5
102B
330
36
100
AcDbEntity
  8
0
100
AcDbLine
 10
-14.178077
 20
-32.874249
 30
0.0
 11
-2.131245999999997
 21
-32.874249
 31
0.0
  0
LINE
  5
102C
330
36
100
AcDbEntity
  8
0
100
AcDbLine
 10
-3.381246000000002
 20
-49.37424899999999
 30
0.0
 11
-3.381245999999999
 21
-35.374249
 31
0.0
  0
LINE
  5
1030
330
36
100
AcDbEntity
  8
0
100
AcDbLine
 10
62.039163
 20
93.22034399999999
 30
0.0
 11
62.039163
 21
122.3050166318263
 31
0.0
  0
LINE
  5
1031
330
36
100
AcDbEntity
  8
0
100
AcDbLine
 10
97.539163
 20
55.53284399999999
 30
0.0
 11
97.539163
 21
122.3050166318263
 31
0.0
  0
LINE
  5
1032
330
36
100
AcDbEntity
  8
0
100
AcDbLine
 10
64.539163
 20
121.0550166318263
 30
0.0
 11
95.039163
 21
121.0550166318263
 31
0.0
  0
LINE
  5
1036
330
36
100
AcDbEntity
  8
0
100
AcDbLine
 10
70.789163
 20
107.970344
 30
0.0
 11
70.789163
 21
115.6389413749283
 31
0.0
  0
LINE
  5
1037
330
36
100
AcDbEntity
  8
0
100
AcDbLine
 10
88.789163
 20
107.970344
 30
0.0
 11
88.789163
 21
115.6389413749283
 31
0.0
  0
LINE
  5
1038
330
36
100
AcDbEntity
  8
0
100
AcDbLine
 10
73.289163
 20
114.3889413749283
 30
0.0
 11
86.289163
 21
114.3889413749283
 31
0.0
  0
LINE
  5
103C
330
36
100
AcDbEntity
  8
0
100
AcDbLine
 10
63.539163
 20
-4.029655999999998
 30
0.0
 11
63.539163
 21
-20.614368
 31
0.0
  0
LINE
  5
103D
330
36
100
AcDbEntity
  8
0
100
AcDbLine
 10
96.03916300000001
 20
-4.029655999999998
 30
0.0
 11
96.03916300000001
 21
-20.614368
 31
0.0
  0
LINE
  5
103E
330
36
100
AcDbEntity
  8
0
100
AcDbLine
 10
66.039163
 20
-19.364368
 30
0.0
 11
93.53916299999999
 21
-19.364368
 31
0.0
  0
LINE
  5
1042
330
36
100
AcDbEntity
  8
0
100
AcDbLine
 10
70.289163
 20
5.11615
 30
0.0
 11
70.289163
 21
-13.340081
 31
0.0
  0
LINE
  5
1043
330
36
100
AcDbEntity
  8
0
100
AcDbLine
 10
89.289163
 20
5.11615
 30
0.0
 11
89.289163
 21
-13.340081
 31
0.0
  0
LINE
  5
1044
330
36
100
AcDbEntity
  8
0
100
AcDbLine
 10
72.789163
 20
-12.090081
 30
0.0
 11
86.789163
 21
-12.090081
 31
0.0
  0
LINE
  5
1048
330
36
100
AcDbEntity
  8
0
100
AcDbLine
 10
-14.178077
 20
-3.779655999999998
 30
0.0
 11
-4.413243690325772
 21
-3.779656000000001
 31
0.0
  0
LINE
  5
1049
330
36
100
AcDbEntity
  8
0
100
AcDbLine
 10
-14.178077
 20
-2.179656
 30
0.0
 11
-4.413243690325772
 21
-2.179656000000002
 31
0.0
  0
LINE
  5
104A
330
36
100
AcDbEntity
  8
0
100
AcDbLine
 10
-5.66324369032577
 20
0.3203439999999977
 30
0.0
 11
-5.663243690325769
 21
2.820343999999997
 31
0.0
  0
LINE
  5
104B
330
36
100
AcDbEntity
  8
0
100
AcDbLine
 10
-5.663243690325772
 20
-6.279656000000001
 30
0.0
 11
-5.663243690325774
 21
-19.629656
 31
0.0
  0
LINE
  5
104C
330
36
100
AcDbEntity
  8
0
100
AcDbLine
 10
-5.663243690325771
 20
-2.179656000000002
 30
0.0
 11
-5.663243690325771
 21
-3.779656
 31
0.0
  0
LINE
  5
1050
330
36
100
AcDbEntity
  8
0
100
AcDbLine
 10
-129.678077
 20
-3.779655999999998
 30
0.0
 11
-151.1737893515058
 21
-3.779655999999992
 31
0.0
  0
LINE
  5
1051
330
36
100
AcDbEntity
  8
0
100
AcDbLine
 10
-72.178077
 20
108.970344
 30
0.0
 11
-151.1737893515058
 21
108.970344
 31
0.0
  0
LINE
  5
1052
330
36
100
AcDbEntity
  8
0
100
AcDbLine
 10
-149.9237893515058
 20
-1.279655999999992
 30
0.0
 11
-149.9237893515058
 21
106.470344
 31
0.0
  0
LINE
  5
1056
330
36
100
AcDbEntity
  8
0
100
AcDbLine
 10
-121.678077
 20
-3.779655999999998
 30
0.0
 11
-139.5009573617003
 21
-3.779655999999993
 31
0.0
  0
LINE
  5
1057
330
36
100
AcDbEntity
  8
0
100
AcDbLine
 10
-132.928077
 20
54.220344
 30
0.0
 11
-139.5009573617003
 21
54.220344
 31
0.0
  0
LINE
  5
1058
330
36
100
AcDbEntity
  8
0
100
AcDbLine
 10
-138.2509573617003
 20
-1.279655999999993
 30
0.0
 11
-138.2509573617003
 21
51.720344
 31
0.0
  0
LINE
  5
105C
330
36
100
AcDbEntity
  8
0
100
AcDbLine
 10
-120.428077
 20
-58.874249
 30
0.0
 11
-120.428077
 21
-70.600929
 31
0.0
  0
LINE
  5
105D
330
36
100
AcDbEntity
  8
0
100
AcDbLine
 10
-23.428077
 20
-58.874249
 30
0.0
 11
-23.428077
 21
-70.600929
 31
0.0
  0
LINE
  5
105E
330
36
100
AcDbEntity
  8
0
100
AcDbLine
 10
-117.928077
 20
-69.350929
 30
0.0
 11
-25.928077
 21
-69.350929
 31
0.0
  0
LINE
  5
1062
330
36
100
AcDbEntity
  8
0
100
AcDbLine
 10
-120.178077
 20
-54.37424899999999
 30
0.0
 11
-107.6315260152018
 21
-54.37424899999999
 31
0.0
  0
LINE
  5
1063
330
36
100
AcDbEntity
  8
0
100
AcDbLine
 10
-120.178077
 20
-49.37424899999999
 30
0.0
 11
-107.6315260152018
 21
-49.37424899999999
 31
0.0
  0
LINE
  5
1064
330
36
100
AcDbEntity
  8
0
100
AcDbLine
 10
-108.8815260152018
 20
-46.87424899999999
 30
0.0
 11
-108.8815260152018
 21
-44.37424899999999
 31
0.0
  0
LINE
  5
1065
330
36
100
AcDbEntity
  8
0
100
AcDbLine
 10
-108.8815260152018
 20
-56.87424899999999
 30
0.0
 11
-108.8815260152018
 21
-65.87216722629747
 31
0.0
  0
LINE
  5
1066
330
36
100
AcDbEntity
  8
0
100
AcDbLine
 10
-108.8815260152018
 20
-49.37424899999999
 30
0.0
 11
-108.8815260152018
 21
-54.37424899999999
 31
0.0
  0
LINE
  5
106A
330
36
100
AcDbEntity
  8
0
100
AcDbLine
 10
-124.178077
 20
-51.62424899999999
 30
0.0
 11
-124.178077
 21
-44.68135888033054
 31
0.0
  0
LINE
  5
106B
330
36
100
AcDbEntity
  8
0
100
AcDbLine
 10
-116.678077
 20
-51.62424899999999
 30
0.0
 11
-116.678077
 21
-44.68135888033054
 31
0.0
  0
LINE
  5
106C
330
36
100
AcDbEntity
  8
0
100
AcDbLine
 10
-114.178077
 20
-45.93135888033054
 30
0.0
 11
-111.678077
 21
-45.93135888033054
 31
0.0
  0
LINE
  5
106D
330
36
100
AcDbEntity
  8
0
100
AcDbLine
 10
-126.678077
 20
-45.93135888033054
 30
0.0
 11
-141.841189551537
 21
-45.93135888033054
 31
0.0
  0
LINE
  5
106E
330
36
100
AcDbEntity
  8
0
100
AcDbLine
 10
-116.678077
 20
-45.93135888033054
 30
0.0
 11
-124.178077
 21
-45.93135888033054
 31
0.0
  0
LINE
  5
1072
330
36
100
AcDbEntity
  8
0
  6
Continuous
100
AcDbLine
 10
-23.2026421093029
 20
103.4002272408782
 30
0.0
 11
-20.37400556630086
 21
115.0907335182435
 31
0.0
1001
ACAD
1000
DSTYLE
1002
{
1070
   147
1040
0.625
1070
    77
1070
     0
1002
}
  0
LINE
  5
1073
330
36
100
AcDbEntity
  8
0
  6
ByBlock
 62
     0
370
    -2
100
AcDbLine
 10
-22.55155732479282
 20
103.2426906748508
 30
0.0
 11
-23.790577
 21
100.970344
 31
0.0
  0
LINE
  5
1074
330
36
100
AcDbEntity
  8
0
  6
ByBlock
 62
     0
370
    -2
100
AcDbLine
 10
-23.790577
 20
100.970344
 30
0.0
 11
-23.85372689381299
 21
103.5577638069056
 31
0.0
  0
LINE
  5
1075
330
36
100
AcDbEntity
  8
0
  6
ByBlock
 62
     0
370
    -2
100
AcDbLine
 10
-23.790577
 20
100.970344
 30
0.0
 11
-23.2026421093029
 21
103.4002272408782
 31
0.0
  0
LINE
  5
1076
330
36
100
AcDbEntity
  8
0
  6
Continuous
100
AcDbLine
 10
-15.36780666054756
 20
103.0389670054095
 30
0.0
 11
-10.29390467890487
 21
115.3288789891809
 31
0.0
1001
ACAD
1000
DSTYLE
1002
{
1070
   147
1040
0.625
1070
    77
1070
     0
1002
}
  0
LINE
  5
1077
330
36
100
AcDbEntity
  8
0
  6
ByBlock
 62
     0
370
    -2
100
AcDbLine
 10
-14.74862729643358
 20
102.7833382094736
 30
0.0
 11
-16.321827
 21
100.7281565
 31
0.0
  0
LINE
  5
1078
330
36
100
AcDbEntity
  8
0
  6
ByBlock
 62
     0
370
    -2
100
AcDbLine
 10
-16.321827
 20
100.7281565
 30
0.0
 11
-15.98698602466154
 21
103.2945958013454
 31
0.0
  0
LINE
  5
1079
330
36
100
AcDbEntity
  8
0
  6
ByBlock
 62
     0
370
    -2
100
AcDbLine
 10
-16.321827
 20
100.7281565
 30
0.0
 11
-15.36780666054756
 21
103.0389670054095
 31
0.0
  0
TEXT
  5
107A
330
36
100
AcDbEntity
  8
0
  6
Continuous
 62
     4
100
AcDbText
 10
3.780475366368833
 20
85.44444020969626
 30
0.0
 40
3.2
  1
144
100
AcDbText
  0
LINE
  5
107B
330
36
100
AcDbEntity
  8
0
  6
ByBlock
 62
     0
370
    -2
100
AcDbLine
 10
-8.592627999999999
 20
84.14956770969627
 30
0.0
 11
-11.092628
 21
84.81944020969626
 31
0.0
  0
LINE
  5
107C
330
36
100
AcDbEntity
  8
0
  6
ByBlock
 62
     0
370
    -2
100
AcDbLine
 10
-11.092628
 20
84.81944020969626
 30
0.0
 11
-8.592627999999999
 21
85.48931270969626
 31
0.0
  0
LINE
  5
107D
330
36
100
AcDbEntity
  8
0
  6
ByBlock
 62
     0
370
    -2
100
AcDbLine
 10
-11.092628
 20
84.81944020969626
 30
0.0
 11
-8.592627999999999
 21
84.81944020969626
 31
0.0
  0
LINE
  5
107E
330
36
100
AcDbEntity
  8
0
  6
ByBlock
 62
     0
370
    -2
100
AcDbLine
 10
24.657372
 20
85.48931270969626
 30
0.0
 11
27.157372
 21
84.81944020969626
 31
0.0
  0
LINE
  5
107F
330
36
100
AcDbEntity
  8
0
  6
ByBlock
 62
     0
370
    -2
100
AcDbLine
 10
27.157372
 20
84.81944020969626
 30
0.0
 11
24.657372
 21
84.14956770969627
 31
0.0
  0
LINE
  5
1080
330
36
100
AcDbEntity
  8
0
  6
ByBlock
 62
     0
370
    -2
100
AcDbLine
 10
27.157372
 20
84.81944020969626
 30
0.0
 11
24.657372
 21
84.81944020969626
 31
0.0
  0
LINE
  5
1081
330
36
100
AcDbEntity
  8
0
  6
Continuous
100
AcDbLine
 10
33.09764718539441
 20
101.3902403441856
 30
0.0
 11
35.10467657354003
 21
109.1267727717859
 31
0.0
1001
ACAD
1000
DSTYLE
1002
{
1070
   147
1040
0.625
1070
    77
1070
     0
1002
}
  0
LINE
  5
1082
330
36
100
AcDbEntity
  8
0
  6
Continuous
100
AcDbLine
 10
35.10467657354003
 20
109.1267727717859
 30
0.0
 11
37.60467657354003
 21
109.1267727717859
 31
0.0
1001
ACAD
1000
DSTYLE
1002
{
1070
   147
1040
0.625
1070
    77
1070
     0
1002
}
  0
LINE
  5
1083
330
36
100
AcDbEntity
  8
0
  6
ByBlock
 62
     0
370
    -2
100
AcDbLine
 10
33.74605599092261
 20
101.2220286110344
 30
0.0
 11
32.46987199999999
 21
98.970344
 31
0.0
  0
LINE
  5
1084
330
36
100
AcDbEntity
  8
0
  6
ByBlock
 62
     0
370
    -2
100
AcDbLine
 10
32.46987199999999
 20
98.970344
 30
0.0
 11
32.44923837986621
 21
101.5584520773369
 31
0.0
  0
LINE
  5
1085
330
36
100
AcDbEntity
  8
0
  6
ByBlock
 62
     0
370
    -2
100
AcDbLine
 10
32.46987199999999
 20
98.970344
 30
0.0
 11
33.09764718539441
 21
101.3902403441856
 31
0.0
  0
TEXT
  5
1086
330
36
100
AcDbEntity
  8
0
  6
Continuous
 62
     4
100
AcDbText
 10
5.98336797605522
 20
80.19804913760799
 30
0.0
 40
3.2
  1
174
100
AcDbText
  0
LINE
  5
1087
330
36
100
AcDbEntity
  8
0
  6
ByBlock
 62
     0
370
    -2
100
AcDbLine
 10
30.157372
 20
80.24292163760801
 30
0.0
 11
32.657372
 21
79.573049137608
 31
0.0
  0
LINE
  5
1088
330
36
100
AcDbEntity
  8
0
  6
ByBlock
 62
     0
370
    -2
100
AcDbLine
 10
32.657372
 20
79.573049137608
 30
0.0
 11
30.157372
 21
78.90317663760801
 31
0.0
  0
LINE
  5
1089
330
36
100
AcDbEntity
  8
0
  6
ByBlock
 62
     0
370
    -2
100
AcDbLine
 10
32.657372
 20
79.573049137608
 30
0.0
 11
30.157372
 21
79.573049137608
 31
0.0
  0
LINE
  5
108A
330
36
100
AcDbEntity
  8
0
  6
ByBlock
 62
     0
370
    -2
100
AcDbLine
 10
-8.592628000000001
 20
78.90317663760801
 30
0.0
 11
-11.092628
 21
79.573049137608
 31
0.0
  0
LINE
  5
108B
330
36
100
AcDbEntity
  8
0
  6
ByBlock
 62
     0
370
    -2
100
AcDbLine
 10
-11.092628
 20
79.573049137608
 30
0.0
 11
-8.592628000000001
 21
80.24292163760801
 31
0.0
  0
LINE
  5
108C
330
36
100
AcDbEntity
  8
0
  6
ByBlock
 62
     0
370
    -2
100
AcDbLine
 10
-11.092628
 20
79.573049137608
 30
0.0
 11
-8.592628000000001
 21
79.573049137608
 31
0.0
  0
TEXT
  5
108D
330
36
100
AcDbEntity
  8
0
  6
Continuous
 62
     4
100
AcDbText
 10
40.62797202461342
 20
94.19082618541969
 30
0.0
 40
3.2
  1
56
 50
90.0
100
AcDbText
  0
LINE
  5
108E
330
36
100
AcDbEntity
  8
0
  6
ByBlock
 62
     0
370
    -2
100
AcDbLine
 10
41.92284452461343
 20
93.72034399999998
 30
0.0
 11
41.25297202461343
 21
91.22034399999998
 31
0.0
  0
LINE
  5
108F
330
36
100
AcDbEntity
  8
0
  6
ByBlock
 62
     0
370
    -2
100
AcDbLine
 10
41.25297202461343
 20
91.22034399999998
 30
0.0
 11
40.58309952461343
 21
93.72034399999998
 31
0.0
  0
LINE
  5
1090
330
36
100
AcDbEntity
  8
0
  6
ByBlock
 62
     0
370
    -2
100
AcDbLine
 10
41.25297202461343
 20
91.22034399999998
 30
0.0
 11
41.25297202461343
 21
93.72034399999998
 31
0.0
  0
LINE
  5
1091
330
36
100
AcDbEntity
  8
0
  6
ByBlock
 62
     0
370
    -2
100
AcDbLine
 10
40.58309952461343
 20
101.970344
 30
0.0
 11
41.25297202461343
 21
104.470344
 31
0.0
  0
LINE
  5
1092
330
36
100
AcDbEntity
  8
0
  6
ByBlock
 62
     0
370
    -2
100
AcDbLine
 10
41.25297202461343
 20
104.470344
 30
0.0
 11
41.92284452461342
 21
101.970344
 31
0.0
  0
LINE
  5
1093
330
36
100
AcDbEntity
  8
0
  6
ByBlock
 62
     0
370
    -2
100
AcDbLine
 10
41.25297202461343
 20
104.470344
 30
0.0
 11
41.25297202461343
 21
101.970344
 31
0.0
  0
TEXT
  5
1094
330
36
100
AcDbEntity
  8
0
  6
Continuous
 62
     4
100
AcDbText
 10
-75.928077
 20
-18.096692
 30
0.0
 40
3.2
  1
230
100
AcDbText
  0
LINE
  5
1095
330
36
100
AcDbEntity
  8
0
  6
ByBlock
 62
     0
370
    -2
100
AcDbLine
 10
-16.928077
 20
-18.0518195
 30
0.0
 11
-14.428077
 21
-18.721692
 31
0.0
  0
LINE
  5
1096
330
36
100
AcDbEntity
  8
0
  6
ByBlock
 62
     0
370
    -2
100
AcDbLine
 10
-14.428077
 20
-18.721692
 30
0.0
 11
-16.928077
 21
-19.3915645
 31
0.0
  0
LINE
  5
1097
330
36
100
AcDbEntity
  8
0
  6
ByBlock
 62
     0
370
    -2
100
AcDbLine
 10
-14.428077
 20
-18.721692
 30
0.0
 11
-16.928077
 21
-18.721692
 31
0.0
  0
LINE
  5
1098
330
36
100
AcDbEntity
  8
0
  6
ByBlock
 62
     0
370
    -2
100
AcDbLine
 10
-126.928077
 20
-19.3915645
 30
0.0
 11
-129.428077
 21
-18.721692
 31
0.0
  0
LINE
  5
1099
330
36
100
AcDbEntity
  8
0
  6
ByBlock
 62
     0
370
    -2
100
AcDbLine
 10
-129.428077
 20
-18.721692
 30
0.0
 11
-126.928077
 21
-18.0518195
 31
0.0
  0
LINE
  5
109A
330
36
100
AcDbEntity
  8
0
  6
ByBlock
 62
     0
370
    -2
100
AcDbLine
 10
-129.428077
 20
-18.721692
 30
0.0
 11
-126.928077
 21
-18.721692
 31
0.0
  0
TEXT
  5
109B
330
36
100
AcDbEntity
  8
0
  6
Continuous
 62
     4
100
AcDbText
 10
-4.006245999999994
 20
-45.04091566666665
 30
0.0
 40
3.2
  1
38
 50
90.0
100
AcDbText
  0
LINE
  5
109C
330
36
100
AcDbEntity
  8
0
  6
ByBlock
 62
     0
370
    -2
100
AcDbLine
 10
-4.051118499999998
 20
-35.374249
 30
0.0
 11
-3.381245999999998
 21
-32.874249
 31
0.0
  0
LINE
  5
109D
330
36
100
AcDbEntity
  8
0
  6
ByBlock
 62
     0
370
    -2
100
AcDbLine
 10
-3.381245999999998
 20
-32.874249
 30
0.0
 11
-2.711373499999998
 21
-35.374249
 31
0.0
  0
LINE
  5
109E
330
36
100
AcDbEntity
  8
0
  6
ByBlock
 62
     0
370
    -2
100
AcDbLine
 10
-3.381245999999998
 20
-32.874249
 30
0.0
 11
-3.381245999999998
 21
-35.374249
 31
0.0
  0
LINE
  5
109F
330
36
100
AcDbEntity
  8
0
  6
ByBlock
 62
     0
370
    -2
100
AcDbLine
 10
-2.711373500000002
 20
-49.37424899999999
 30
0.0
 11
-3.381246000000002
 21
-51.87424899999999
 31
0.0
  0
LINE
  5
10A0
330
36
100
AcDbEntity
  8
0
  6
ByBlock
 62
     0
370
    -2
100
AcDbLine
 10
-3.381246000000002
 20
-51.87424899999999
 30
0.0
 11
-4.051118500000002
 21
-49.37424899999999
 31
0.0
  0
LINE
  5
10A1
330
36
100
AcDbEntity
  8
0
  6
ByBlock
 62
     0
370
    -2
100
AcDbLine
 10
-3.381246000000002
 20
-51.87424899999999
 30
0.0
 11
-3.381246000000002
 21
-49.37424899999999
 31
0.0
  0
TEXT
  5
10A2
330
36
100
AcDbEntity
  8
0
  6
Continuous
 62
     4
100
AcDbText
 10
77.64370006141426
 20
121.6800166318263
 30
0.0
 40
3.2
  1
71
100
AcDbText
  0
LINE
  5
10A3
330
36
100
AcDbEntity
  8
0
  6
ByBlock
 62
     0
370
    -2
100
AcDbLine
 10
95.039163
 20
121.7248891318263
 30
0.0
 11
97.539163
 21
121.0550166318263
 31
0.0
  0
LINE
  5
10A4
330
36
100
AcDbEntity
  8
0
  6
ByBlock
 62
     0
370
    -2
100
AcDbLine
 10
97.539163
 20
121.0550166318263
 30
0.0
 11
95.039163
 21
120.3851441318263
 31
0.0
  0
LINE
  5
10A5
330
36
100
AcDbEntity
  8
0
  6
ByBlock
 62
     0
370
    -2
100
AcDbLine
 10
97.539163
 20
121.0550166318263
 30
0.0
 11
95.039163
 21
121.0550166318263
 31
0.0
  0
LINE
  5
10A6
330
36
100
AcDbEntity
  8
0
  6
ByBlock
 62
     0
370
    -2
100
AcDbLine
 10
64.539163
 20
120.3851441318263
 30
0.0
 11
62.039163
 21
121.0550166318263
 31
0.0
  0
LINE
  5
10A7
330
36
100
AcDbEntity
  8
0
  6
ByBlock
 62
     0
370
    -2
100
AcDbLine
 10
62.039163
 20
121.0550166318263
 30
0.0
 11
64.539163
 21
121.7248891318263
 31
0.0
  0
LINE
  5
10A8
330
36
100
AcDbEntity
  8
0
  6
ByBlock
 62
     0
370
    -2
100
AcDbLine
 10
62.039163
 20
121.0550166318263
 30
0.0
 11
64.539163
 21
121.0550166318263
 31
0.0
  0
TEXT
  5
10A9
330
36
100
AcDbEntity
  8
0
  6
Continuous
 62
     4
100
AcDbText
 10
77.35737547044035
 20
115.0139413749283
 30
0.0
 40
3.2
  1
36
100
AcDbText
  0
LINE
  5
10AA
330
36
100
AcDbEntity
  8
0
  6
ByBlock
 62
     0
370
    -2
100
AcDbLine
 10
86.289163
 20
115.0588138749283
 30
0.0
 11
88.789163
 21
114.3889413749283
 31
0.0
  0
LINE
  5
10AB
330
36
100
AcDbEntity
  8
0
  6
ByBlock
 62
     0
370
    -2
100
AcDbLine
 10
88.789163
 20
114.3889413749283
 30
0.0
 11
86.289163
 21
113.7190688749283
 31
0.0
  0
LINE
  5
10AC
330
36
100
AcDbEntity
  8
0
  6
ByBlock
 62
     0
370
    -2
100
AcDbLine
 10
88.789163
 20
114.3889413749283
 30
0.0
 11
86.289163
 21
114.3889413749283
 31
0.0
  0
LINE
  5
10AD
330
36
100
AcDbEntity
  8
0
  6
ByBlock
 62
     0
370
    -2
100
AcDbLine
 10
73.289163
 20
113.7190688749283
 30
0.0
 11
70.789163
 21
114.3889413749283
 31
0.0
  0
LINE
  5
10AE
330
36
100
AcDbEntity
  8
0
  6
ByBlock
 62
     0
370
    -2
100
AcDbLine
 10
70.789163
 20
114.3889413749283
 30
0.0
 11
73.289163
 21
115.0588138749283
 31
0.0
  0
LINE
  5
10AF
330
36
100
AcDbEntity
  8
0
  6
ByBlock
 62
     0
370
    -2
100
AcDbLine
 10
70.789163
 20
114.3889413749283
 30
0.0
 11
73.289163
 21
114.3889413749283
 31
0.0
  0
TEXT
  5
10B0
330
36
100
AcDbEntity
  8
0
  6
Continuous
 62
     4
100
AcDbText
 10
77.12249633333333
 20
-18.739368
 30
0.0
 40
3.2
  1
65
100
AcDbText
  0
LINE
  5
10B1
330
36
100
AcDbEntity
  8
0
  6
ByBlock
 62
     0
370
    -2
100
AcDbLine
 10
93.53916299999999
 20
-18.6944955
 30
0.0
 11
96.03916300000001
 21
-19.364368
 31
0.0
  0
LINE
  5
10B2
330
36
100
AcDbEntity
  8
0
  6
ByBlock
 62
     0
370
    -2
100
AcDbLine
 10
96.03916300000001
 20
-19.364368
 30
0.0
 11
93.53916299999999
 21
-20.0342405
 31
0.0
  0
LINE
  5
10B3
330
36
100
AcDbEntity
  8
0
  6
ByBlock
 62
     0
370
    -2
100
AcDbLine
 10
96.03916300000001
 20
-19.364368
 30
0.0
 11
93.53916299999999
 21
-19.364368
 31
0.0
  0
LINE
  5
10B4
330
36
100
AcDbEntity
  8
0
  6
ByBlock
 62
     0
370
    -2
100
AcDbLine
 10
66.039163
 20
-20.0342405
 30
0.0
 11
63.539163
 21
-19.364368
 31
0.0
  0
LINE
  5
10B5
330
36
100
AcDbEntity
  8
0
  6
ByBlock
 62
     0
370
    -2
100
AcDbLine
 10
63.539163
 20
-19.364368
 30
0.0
 11
66.039163
 21
-18.6944955
 31
0.0
  0
LINE
  5
10B6
330
36
100
AcDbEntity
  8
0
  6
ByBlock
 62
     0
370
    -2
100
AcDbLine
 10
63.539163
 20
-19.364368
 30
0.0
 11
66.039163
 21
-19.364368
 31
0.0
  0
TEXT
  5
10B7
330
36
100
AcDbEntity
  8
0
  6
Continuous
 62
     4
100
AcDbText
 10
77.12249633333333
 20
-11.465081
 30
0.0
 40
3.2
  1
38
100
AcDbText
  0
LINE
  5
10B8
330
36
100
AcDbEntity
  8
0
  6
ByBlock
 62
     0
370
    -2
100
AcDbLine
 10
86.789163
 20
-11.4202085
 30
0.0
 11
89.289163
 21
-12.090081
 31
0.0
  0
LINE
  5
10B9
330
36
100
AcDbEntity
  8
0
  6
ByBlock
 62
     0
370
    -2
100
AcDbLine
 10
89.289163
 20
-12.090081
 30
0.0
 11
86.789163
 21
-12.7599535
 31
0.0
  0
LINE
  5
10BA
330
36
100
AcDbEntity
  8
0
  6
ByBlock
 62
     0
370
    -2
100
AcDbLine
 10
89.289163
 20
-12.090081
 30
0.0
 11
86.789163
 21
-12.090081
 31
0.0
  0
LINE
  5
10BB
330
36
100
AcDbEntity
  8
0
  6
ByBlock
 62
     0
370
    -2
100
AcDbLine
 10
72.789163
 20
-12.7599535
 30
0.0
 11
70.289163
 21
-12.090081
 31
0.0
  0
LINE
  5
10BC
330
36
100
AcDbEntity
  8
0
  6
ByBlock
 62
     0
370
    -2
100
AcDbLine
 10
70.289163
 20
-12.090081
 30
0.0
 11
72.789163
 21
-11.4202085
 31
0.0
  0
LINE
  5
10BD
330
36
100
AcDbEntity
  8
0
  6
ByBlock
 62
     0
370
    -2
100
AcDbLine
 10
70.289163
 20
-12.090081
 30
0.0
 11
72.789163
 21
-12.090081
 31
0.0
  0
TEXT
  5
10BE
330
36
100
AcDbEntity
  8
0
  6
Continuous
 62
     4
100
AcDbText
 10
-6.288243690325772
 20
-19.004656
 30
0.0
 40
3.2
  1
3.2t
 50
90.0
100
AcDbText
  0
LINE
  5
10BF
330
36
100
AcDbEntity
  8
0
  6
ByBlock
 62
     0
370
    -2
100
AcDbLine
 10
-6.333116190325771
 20
-6.279656000000001
 30
0.0
 11
-5.663243690325771
 21
-3.779656
 31
0.0
  0
LINE
  5
10C0
330
36
100
AcDbEntity
  8
0
  6
ByBlock
 62
     0
370
    -2
100
AcDbLine
 10
-5.663243690325771
 20
-3.779656
 30
0.0
 11
-4.99337119032577
 21
-6.279656000000001
 31
0.0
  0
LINE
  5
10C1
330
36
100
AcDbEntity
  8
0
  6
ByBlock
 62
     0
370
    -2
100
AcDbLine
 10
-5.663243690325771
 20
-3.779656
 30
0.0
 11
-5.663243690325771
 21
-6.279656000000001
 31
0.0
  0
LINE
  5
10C2
330
36
100
AcDbEntity
  8
0
  6
ByBlock
 62
     0
370
    -2
100
AcDbLine
 10
-4.99337119032577
 20
0.3203439999999977
 30
0.0
 11
-5.663243690325771
 21
-2.179656000000002
 31
0.0
  0
LINE
  5
10C3
330
36
100
AcDbEntity
  8
0
  6
ByBlock
 62
     0
370
    -2
100
AcDbLine
 10
-5.663243690325771
 20
-2.179656000000002
 30
0.0
 11
-6.33311619032577
 21
0.3203439999999977
 31
0.0
  0
LINE
  5
10C4
330
36
100
AcDbEntity
  8
0
  6
ByBlock
 62
     0
370
    -2
100
AcDbLine
 10
-5.663243690325771
 20
-2.179656000000002
 30
0.0
 11
-5.66324369032577
 21
0.3203439999999977
 31
0.0
  0
TEXT
  5
10C5
330
36
100
AcDbEntity
  8
0
  6
Continuous
 62
     4
100
AcDbText
 10
-150.5487893515058
 20
49.71345434094938
 30
0.0
 40
3.2
  1
226
 50
90.0
100
AcDbText
  0
LINE
  5
10C6
330
36
100
AcDbEntity
  8
0
  6
ByBlock
 62
     0
370
    -2
100
AcDbLine
 10
-150.5936618515058
 20
106.470344
 30
0.0
 11
-149.9237893515058
 21
108.970344
 31
0.0
  0
LINE
  5
10C7
330
36
100
AcDbEntity
  8
0
  6
ByBlock
 62
     0
370
    -2
100
AcDbLine
 10
-149.9237893515058
 20
108.970344
 30
0.0
 11
-149.2539168515057
 21
106.470344
 31
0.0
  0
LINE
  5
10C8
330
36
100
AcDbEntity
  8
0
  6
ByBlock
 62
     0
370
    -2
100
AcDbLine
 10
-149.9237893515058
 20
108.970344
 30
0.0
 11
-149.9237893515058
 21
106.470344
 31
0.0
  0
LINE
  5
10C9
330
36
100
AcDbEntity
  8
0
  6
ByBlock
 62
     0
370
    -2
100
AcDbLine
 10
-149.2539168515058
 20
-1.279655999999992
 30
0.0
 11
-149.9237893515058
 21
-3.779655999999992
 31
0.0
  0
LINE
  5
10CA
330
36
100
AcDbEntity
  8
0
  6
ByBlock
 62
     0
370
    -2
100
AcDbLine
 10
-149.9237893515058
 20
-3.779655999999992
 30
0.0
 11
-150.5936618515058
 21
-1.279655999999992
 31
0.0
  0
LINE
  5
10CB
330
36
100
AcDbEntity
  8
0
  6
ByBlock
 62
     0
370
    -2
100
AcDbLine
 10
-149.9237893515058
 20
-3.779655999999992
 30
0.0
 11
-149.9237893515058
 21
-1.279655999999992
 31
0.0
  0
TEXT
  5
10CC
330
36
100
AcDbEntity
  8
0
  6
Continuous
 62
     4
100
AcDbText
 10
-138.8759573617003
 20
23.07028709132833
 30
0.0
 40
3.2
  1
116
 50
90.0
100
AcDbText
  0
LINE
  5
10CD
330
36
100
AcDbEntity
  8
0
  6
ByBlock
 62
     0
370
    -2
100
AcDbLine
 10
-138.9208298617003
 20
51.720344
 30
0.0
 11
-138.2509573617003
 21
54.220344
 31
0.0
  0
LINE
  5
10CE
330
36
100
AcDbEntity
  8
0
  6
ByBlock
 62
     0
370
    -2
100
AcDbLine
 10
-138.2509573617003
 20
54.220344
 30
0.0
 11
-137.5810848617003
 21
51.720344
 31
0.0
  0
LINE
  5
10CF
330
36
100
AcDbEntity
  8
0
  6
ByBlock
 62
     0
370
    -2
100
AcDbLine
 10
-138.2509573617003
 20
54.220344
 30
0.0
 11
-138.2509573617003
 21
51.720344
 31
0.0
  0
LINE
  5
10D0
330
36
100
AcDbEntity
  8
0
  6
ByBlock
 62
     0
370
    -2
100
AcDbLine
 10
-137.5810848617003
 20
-1.279655999999993
 30
0.0
 11
-138.2509573617003
 21
-3.779655999999993
 31
0.0
  0
LINE
  5
10D1
330
36
100
AcDbEntity
  8
0
  6
ByBlock
 62
     0
370
    -2
100
AcDbLine
 10
-138.2509573617003
 20
-3.779655999999993
 30
0.0
 11
-138.9208298617003
 21
-1.279655999999993
 31
0.0
  0
LINE
  5
10D2
330
36
100
AcDbEntity
  8
0
  6
ByBlock
 62
     0
370
    -2
100
AcDbLine
 10
-138.2509573617003
 20
-3.779655999999993
 30
0.0
 11
-138.2509573617003
 21
-1.279655999999993
 31
0.0
  0
TEXT
  5
10D3
330
36
100
AcDbEntity
  8
0
  6
Continuous
 62
     4
100
AcDbText
 10
-75.66141033333334
 20
-68.72592900000002
 30
0.0
 40
3.2
  1
194
  7
高3.2
100
AcDbText
  0
LINE
  5
10D4
330
36
100
AcDbEntity
  8
0
  6
ByBlock
 62
     0
370
    -2
100
AcDbLine
 10
-25.928077
 20
-68.68105650000001
 30
0.0
 11
-23.428077
 21
-69.350929
 31
0.0
  0
LINE
  5
10D5
330
36
100
AcDbEntity
  8
0
  6
ByBlock
 62
     0
370
    -2
100
AcDbLine
 10
-23.428077
 20
-69.350929
 30
0.0
 11
-25.928077
 21
-70.02080150000001
 31
0.0
  0
LINE
  5
10D6
330
36
100
AcDbEntity
  8
0
  6
ByBlock
 62
     0
370
    -2
100
AcDbLine
 10
-23.428077
 20
-69.350929
 30
0.0
 11
-25.928077
 21
-69.350929
 31
0.0
  0
LINE
  5
10D7
330
36
100
AcDbEntity
  8
0
  6
ByBlock
 62
     0
370
    -2
100
AcDbLine
 10
-117.928077
 20
-70.02080150000001
 30
0.0
 11
-120.428077
 21
-69.350929
 31
0.0
  0
LINE
  5
10D8
330
36
100
AcDbEntity
  8
0
  6
ByBlock
 62
     0
370
    -2
100
AcDbLine
 10
-120.428077
 20
-69.350929
 30
0.0
 11
-117.928077
 21
-68.68105650000001
 31
0.0
  0
LINE
  5
10D9
330
36
100
AcDbEntity
  8
0
  6
ByBlock
 62
     0
370
    -2
100
AcDbLine
 10
-120.428077
 20
-69.350929
 30
0.0
 11
-117.928077
 21
-69.350929
 31
0.0
  0
TEXT
  5
10DA
330
36
100
AcDbEntity
  8
0
  6
Continuous
 62
     4
100
AcDbText
 10
-109.5065260152018
 20
-65.24716722629749
 30
0.0
 40
3.2
  1
10
 50
90.0
100
AcDbText
  0
LINE
  5
10DB
330
36
100
AcDbEntity
  8
0
  6
ByBlock
 62
     0
370
    -2
100
AcDbLine
 10
-109.5513985152018
 20
-56.87424899999999
 30
0.0
 11
-108.8815260152018
 21
-54.37424899999999
 31
0.0
  0
LINE
  5
10DC
330
36
100
AcDbEntity
  8
0
  6
ByBlock
 62
     0
370
    -2
100
AcDbLine
 10
-108.8815260152018
 20
-54.37424899999999
 30
0.0
 11
-108.2116535152018
 21
-56.87424899999999
 31
0.0
  0
LINE
  5
10DD
330
36
100
AcDbEntity
  8
0
  6
ByBlock
 62
     0
370
    -2
100
AcDbLine
 10
-108.8815260152018
 20
-54.37424899999999
 30
0.0
 11
-108.8815260152018
 21
-56.87424899999999
 31
0.0
  0
LINE
  5
10DE
330
36
100
AcDbEntity
  8
0
  6
ByBlock
 62
     0
370
    -2
100
AcDbLine
 10
-108.2116535152018
 20
-46.87424899999999
 30
0.0
 11
-108.8815260152018
 21
-49.37424899999999
 31
0.0
  0
LINE
  5
10DF
330
36
100
AcDbEntity
  8
0
  6
ByBlock
 62
     0
370
    -2
100
AcDbLine
 10
-108.8815260152018
 20
-49.37424899999999
 30
0.0
 11
-109.5513985152018
 21
-46.87424899999999
 31
0.0
  0
LINE
  5
10E0
330
36
100
AcDbEntity
  8
0
  6
ByBlock
 62
     0
370
    -2
100
AcDbLine
 10
-108.8815260152018
 20
-49.37424899999999
 30
0.0
 11
-108.8815260152018
 21
-46.87424899999999
 31
0.0
  0
TEXT
  5
10E1
330
36
100
AcDbEntity
  8
0
  6
Continuous
 62
     4
100
AcDbText
 10
-141.216189551537
 20
-45.30635888033054
 30
0.0
 40
3.2
  1
15
100
AcDbText
  0
LINE
  5
10E2
330
36
100
AcDbEntity
  8
0
  6
ByBlock
 62
     0
370
    -2
100
AcDbLine
 10
-126.678077
 20
-45.26148638033054
 30
0.0
 11
-124.178077
 21
-45.93135888033054
 31
0.0
  0
LINE
  5
10E3
330
36
100
AcDbEntity
  8
0
  6
ByBlock
 62
     0
370
    -2
100
AcDbLine
 10
-124.178077
 20
-45.93135888033054
 30
0.0
 11
-126.678077
 21
-46.60123138033053
 31
0.0
  0
LINE
  5
10E4
330
36
100
AcDbEntity
  8
0
  6
ByBlock
 62
     0
370
    -2
100
AcDbLine
 10
-124.178077
 20
-45.93135888033054
 30
0.0
 11
-126.678077
 21
-45.93135888033054
 31
0.0
  0
LINE
  5
10E5
330
36
100
AcDbEntity
  8
0
  6
ByBlock
 62
     0
370
    -2
100
AcDbLine
 10
-114.178077
 20
-46.60123138033054
 30
0.0
 11
-116.678077
 21
-45.93135888033054
 31
0.0
  0
LINE
  5
10E6
330
36
100
AcDbEntity
  8
0
  6
ByBlock
 62
     0
370
    -2
100
AcDbLine
 10
-116.678077
 20
-45.93135888033054
 30
0.0
 11
-114.178077
 21
-45.26148638033054
 31
0.0
  0
LINE
  5
10E7
330
36
100
AcDbEntity
  8
0
  6
ByBlock
 62
     0
370
    -2
100
AcDbLine
 10
-116.678077
 20
-45.93135888033054
 30
0.0
 11
-114.178077
 21
-45.93135888033054
 31
0.0
  0
ENDSEC
  0
SECTION
  2
OBJECTS
  0
DICTIONARY
  5
C
330
0
100
AcDbDictionary
281
     1
  3
ACAD_2007HEADERVARS_RT
350
10EB
  3
ACAD_COLOR
350
2F
  3
ACAD_GROUP
350
D
  3
ACAD_LAYOUT
350
2E
  3
ACAD_MATERIAL
350
10
  3
ACAD_MLEADERSTYLE
350
6E2
  3
ACAD_MLINESTYLE
350
2B
  3
ACAD_PLOTSETTINGS
350
2D
  3
ACAD_PLOTSTYLENAME
350
E
  3
ACAD_SCALELIST
350
6D0
  3
ACAD_TABLESTYLE
350
30
  3
ACAD_VISUALSTYLE
350
14
  3
AcadDim
350
AA6
  3
ACDB_RECOMPOSE_DATA
350
10E9
  3
AcDbVariableDictionary
350
3CC
  3
DWGPROPS
350
10EA
  0
DICTIONARY
  5
41B
330
2
100
AcDbDictionary
280
     1
281
     1
  3
ACAD_LAYERSTATES
360
41C
  0
DICTIONARY
  5
9AA
330
25
100
AcDbDictionary
280
     1
281
     1
  3
ADSK_XREC_LAYER_RECONCILED
360
9AB
  0
DICTIONARY
  5
3E7
330
36
100
AcDbDictionary
280
     1
281
     1
  3
ACAD_SORTENTS
360
3E8
  0
DICTIONARY
  5
10EB
102
{ACAD_REACTORS
330
C
102
}
330
C
100
AcDbDictionary
281
     1
  3
DIMARCSYM
350
10ED
  3
DIMFXL
350
10EC
  3
DIMJOGANG
350
10EE
  0
DICTIONARY
  5
2F
102
{ACAD_REACTORS
330
C
102
}
330
C
100
AcDbDictionary
281
     1
  0
DICTIONARY
  5
D
102
{ACAD_REACTORS
330
C
102
}
330
C
100
AcDbDictionary
281
     1
  0
DICTIONARY
  5
2E
102
{ACAD_REACTORS
330
C
102
}
330
C
100
AcDbDictionary
281
     1
  3
Model
350
39
  3
レイアウト1
350
35
  0
DICTIONARY
  5
10
102
{ACAD_REACTORS
330
C
102
}
330
C
100
AcDbDictionary
281
     1
  3
ByBlock
350
12
  3
ByLayer
350
11
  3
Global
350
13
  0
DICTIONARY
  5
6E2
102
{ACAD_REACTORS
330
C
102
}
330
C
100
AcDbDictionary
281
     1
  3
Standard
350
6E3
  0
DICTIONARY
  5
2B
102
{ACAD_REACTORS
330
C
102
}
330
C
100
AcDbDictionary
281
     1
  3
Standard
350
2C
  0
DICTIONARY
  5
2D
102
{ACAD_REACTORS
330
C
102
}
330
C
100
AcDbDictionary
281
     1
  0
ACDBDICTIONARYWDFLT
  5
E
102
{ACAD_REACTORS
330
C
102
}
330
C
100
AcDbDictionary
281
     1
  3
Normal
350
F
100
AcDbDictionaryWithDefault
340
F
  0
DICTIONARY
  5
6D0
102
{ACAD_REACTORS
330
C
102
}
330
C
100
AcDbDictionary
281
     1
  3
A0
350
6D1
  3
A1
350
6D2
  3
A2
350
6D3
  3
A3
350
6D4
  3
A4
350
6D5
  3
A5
350
6D6
  3
A6
350
6D7
  3
A7
350
6D8
  3
A8
350
6D9
  3
A9
350
6DA
  3
B0
350
6DB
  3
B1
350
6DC
  3
B2
350
6DD
  3
B3
350
6DE
  3
B4
350
6DF
  3
B5
350
6E0
  3
B6
350
6E1
  0
DICTIONARY
  5
30
102
{ACAD_REACTORS
330
C
102
}
330
C
100
AcDbDictionary
281
     1
  3
Standard
350
31
  0
DICTIONARY
  5
14
102
{ACAD_REACTORS
330
C
102
}
330
C
100
AcDbDictionary
281
     1
  3
2dWireframe
350
1A
  3
3D Hidden
350
1C
  3
3dWireframe
350
1B
  3
Basic
350
19
  3
Brighten
350
20
  3
ColorChange
350
24
  3
Conceptual
350
1D
  3
Dim
350
1F
  3
EdgeColorOff
350
6CF
  3
Facepattern
350
23
  3
Flat
350
15
  3
FlatWithEdges
350
16
  3
Gouraud
350
17
  3
GouraudWithEdges
350
18
  3
Hidden
350
6C7
  3
JitterOff
350
6CD
  3
Linepattern
350
22
  3
OverhangOff
350
6CE
  3
Realistic
350
1E
  3
Shaded
350
6CC
  3
Shaded with edges
350
6CB
  3
Shades of Gray
350
6C8
  3
Sketchy
350
6C9
  3
Thicken
350
21
  3
Wireframe
350
6C6
  3
X-Ray
350
6CA
  0
XRECORD
  5
AA6
102
{ACAD_REACTORS
330
C
102
}
330
C
100
AcDbXrecord
280
     1
 90
   990106
  3

 60
     0
 61
     0
 62
     1
 63
     3
 64
     0
 65
     0
 66
     0
 67
     3
 68
     1
 69
     0
 70
     0
 71
     0
 72
     0
 40
0.0
170
     0
340
AA8
  0
XRECORD
  5
10E9
102
{ACAD_REACTORS
330
C
102
}
330
C
100
AcDbXrecord
280
     1
 90
        1
330
31
  0
DICTIONARY
  5
3CC
102
{ACAD_REACTORS
330
C
102
}
330
C
100
AcDbDictionary
281
     1
  3
CANNOSCALE
350
9AD
  3
CMLEADERSTYLE
350
9AC
  3
CTABLESTYLE
350
3CD
  3
DIMASSOC
350
3D0
  3
INDEXCTL
350
3CF
  3
SORTENTS
350
3CE
  3
XCLIPFRAME
350
ED9
  0
XRECORD
  5
10EA
102
{ACAD_REACTORS
330
C
102
}
330
C
100
AcDbXrecord
280
     1
  1
DWGPROPS COOKIE
  2

  3

  4

  6

  7

  8
imamura
  9

300
=
301
=
302
=
303
=
304
=
305
=
306
=
307
=
308
=
309
=
 40
0.0759340162037037
 41
2455553.555372176
 42
2459548.737068345
  1

 90
        0
  0
DICTIONARY
  5
41C
102
{ACAD_REACTORS
330
41B
102
}
330
41B
100
AcDbDictionary
281
     1
  0
XRECORD
  5
9AB
102
{ACAD_REACTORS
330
9AA
102
}
330
9AA
100
AcDbXrecord
280
     1
290
     1
  0
SORTENTSTABLE
  5
3E8
102
{ACAD_REACTORS
330
3E7
102
}
330
3E7
100
AcDbSortentsTable
330
36
331
1DF
  5
2BE
331
1004
  5
FC9
331
1DB
  5
2BA
331
19C
  5
27B
331
1000
  5
FC5
331
1D7
  5
2B6
331
FC1
  5
10C0
331
198
  5
277
331
20A
  5
32B
331
FFC
  5
FC1
331
1D3
  5
2B2
331
194
  5
273
331
FB9
  5
10D1
331
FF8
  5
FBD
331
38E
  5
1053
331
34F
  5
101E
331
38A
  5
104F
331
314
  5
FE9
331
295
  5
399
331
386
  5
104B
331
310
  5
FE5
331
291
  5
395
331
382
  5
1047
331
343
  5
1018
331
30C
  5
FE1
331
28D
  5
391
331
107E
  5
10D3
331
10B5
  5
188
331
308
  5
FDD
331
289
  5
38D
331
10E
  5
1BC
331
107A
  5
10D9
331
10B1
  5
18B
331
1076
  5
10DD
331
10AD
  5
197
331
3C7
  5
1086
331
1037
  5
195
331
1072
  5
10E7
331
10A9
  5
19D
331
16F
  5
22F
331
3BF
  5
1081
331
16B
  5
22B
331
12C
  5
1DA
331
167
  5
223
331
128
  5
1D6
331
163
  5
21F
331
124
  5
1D2
331
120
  5
1CE
331
206
  5
327
331
1CF
  5
2AE
331
241
  5
366
331
202
  5
323
331
FF4
  5
FB9
331
1CB
  5
2AA
331
23D
  5
35D
331
1FE
  5
31F
331
FF0
  5
FB5
331
1C7
  5
2A6
331
239
  5
359
331
1FA
  5
31B
331
FEC
  5
F5D
331
1C3
  5
2A2
331
18C
  5
26C
331
FE8
  5
835
331
188
  5
260
331
37E
  5
1043
331
33F
  5
1014
331
37A
  5
103F
331
33B
  5
1010
331
2C4
  5
824
331
285
  5
389
331
376
  5
103B
331
337
  5
100C
331
2C0
  5
631
331
281
  5
385
331
372
  5
1037
331
333
  5
1008
331
2BC
  5
3FD
331
27D
  5
381
331
10A5
  5
1A6
331
10E4
  5
11E
331
106E
  5
112
331
2B8
  5
3F8
331
279
  5
37D
331
10A1
  5
1AD
331
10E0
  5
130
331
102B
  5
1A9
331
106A
  5
10E
331
109D
  5
1AF
331
10DC
  5
132
331
82E
  5
10AE
331
1066
  5
12A
331
3B7
  5
107C
331
1099
  5
1B6
331
10D8
  5
13F
331
82A
  5
10AA
331
1023
  5
25A
331
1062
  5
120
331
15F
  5
20D
331
826
  5
10A6
331
3AF
  5
1077
331
15B
  5
209
331
11C
  5
1CA
331
822
  5
10A2
331
157
  5
205
331
118
  5
1C6
331
153
  5
201
331
114
  5
1C2
331
110
  5
1BE
331
1BF
  5
29E
331
231
  5
348
331
FE4
  5
831
331
1BB
  5
29A
331
274
  5
378
331
22D
  5
344
331
101F
  5
332
331
1F6
  5
317
331
FE0
  5
82D
331
1B7
  5
296
331
270
  5
374
331
229
  5
340
331
101B
  5
336
331
1F2
  5
313
331
FDC
  5
829
331
1B3
  5
292
331
FD8
  5
1027
331
36E
  5
1033
331
36A
  5
102F
331
2B4
  5
3F3
331
366
  5
102B
331
32F
  5
1004
331
3E5
  5
1091
331
2B0
  5
3EE
331
3A1
  5
1072
331
32B
  5
1000
331
2AC
  5
3EA
331
10D4
  5
144
331
105E
  5
13A
331
2A8
  5
3E4
331
10D0
  5
151
331
1095
  5
1B8
331
10CC
  5
15D
331
1056
  5
14B
331
1091
  5
10B9
331
10C8
  5
166
331
14F
  5
1FD
331
1052
  5
160
331
3FE
  5
109F
331
14B
  5
1F9
331
147
  5
1F5
331
182
  5
246
331
143
  5
1F1
331
1017
  5
FDC
331
1EE
  5
30F
331
1AF
  5
28E
331
268
  5
36E
331
221
  5
33C
331
1013
  5
FD8
331
1EA
  5
30B
331
FD4
  5
1076
331
1AB
  5
28A
331
264
  5
36D
331
21D
  5
338
331
100F
  5
FD4
331
1E6
  5
2C5
331
F5A
  5
10DE
331
FD0
  5
1080
331
1A7
  5
286
331
100B
  5
FD0
331
1E2
  5
2C1
331
1A3
  5
282
331
FC8
  5
10B7
331
327
  5
FFC
331
835
  5
10B5
331
399
  5
106B
331
35A
  5
1022
331
323
  5
FF8
331
2A4
  5
3C2
331
831
  5
10B1
331
395
  5
1062
331
31F
  5
FF4
331
2A0
  5
3B9
331
391
  5
1059
331
31B
  5
FF0
331
29C
  5
3AF
331
108D
  5
10BF
331
10C4
  5
16F
331
298
  5
3A1
331
1089
  5
10C8
331
10C0
  5
171
331
104A
  5
16A
331
1085
  5
10CC
331
10BC
  5
178
331
3F6
  5
1099
331
1081
  5
10CD
331
10B8
  5
17A
331
17E
  5
242
331
1042
  5
174
331
13F
  5
1ED
331
3EE
  5
1092
331
17A
  5
23E
331
13B
  5
1E9
331
3EA
  5
108D
331
176
  5
23A
331
137
  5
1E5
331
172
  5
232
331
133
  5
1E1
331
1007
  5
FCC
331
1DE
  5
2BD
331
19F
  5
27E
331
258
  5
36B
331
1003
  5
FC8
331
1DA
  5
2B9
331
19B
  5
27A
331
20D
  5
32E
331
FFF
  5
FC4
331
1D6
  5
2B5
331
197
  5
276
331
209
  5
32A
331
FFB
  5
FC0
331
1D2
  5
2B1
331
193
  5
272
331
FB8
  5
10D0
331
38D
  5
1052
331
34E
  5
101D
331
317
  5
FEC
331
389
  5
104E
331
313
  5
FE8
331
294
  5
398
331
385
  5
104A
331
346
  5
101B
331
30F
  5
FE4
331
290
  5
394
331
381
  5
1046
331
342
  5
1017
331
30B
  5
FE0
331
28C
  5
390
331
107D
  5
10D8
331
10B4
  5
183
331
103E
  5
182
331
288
  5
38C
331
1079
  5
10DC
331
10B0
  5
192
331
1075
  5
10E6
331
10AC
  5
19C
331
1036
  5
194
331
10A8
  5
1A3
331
16E
  5
22E
331
1032
  5
1A0
331
12F
  5
1DD
331
16A
  5
22A
331
12B
  5
1D9
331
166
  5
222
331
127
  5
1D5
331
162
  5
21E
331
123
  5
1D1
331
244
  5
369
331
205
  5
326
331
FF7
  5
FBC
331
1CE
  5
2AD
331
240
  5
365
331
201
  5
322
331
FF3
  5
FB8
331
1CA
  5
2A9
331
23C
  5
35C
331
1FD
  5
31E
331
FEF
  5
FB4
331
1C6
  5
2A5
331
238
  5
351
331
1F9
  5
31A
331
FEB
  5
F5C
331
1C2
  5
2A1
331
18B
  5
26B
331
37D
  5
1042
331
33E
  5
1013
331
379
  5
103E
331
33A
  5
100F
331
2C3
  5
823
331
284
  5
388
331
375
  5
103A
331
336
  5
100B
331
2BF
  5
630
331
280
  5
384
331
10E7
  5
118
331
371
  5
1036
331
332
  5
1007
331
2BB
  5
3FB
331
27C
  5
380
331
10A4
  5
1A5
331
10E3
  5
11A
331
106D
  5
111
331
278
  5
37C
331
10A0
  5
1AC
331
10DF
  5
12C
331
102A
  5
1A8
331
109C
  5
1AE
331
10DB
  5
131
331
82D
  5
10AD
331
1026
  5
1B4
331
1065
  5
126
331
829
  5
10A9
331
1022
  5
258
331
1098
  5
1B5
331
15E
  5
20C
331
11F
  5
1CD
331
825
  5
10A5
331
15A
  5
208
331
11B
  5
1C9
331
821
  5
10A1
331
156
  5
204
331
117
  5
1C5
331
152
  5
200
331
113
  5
1C1
331
FE7
  5
834
331
1BE
  5
29D
331
277
  5
37B
331
230
  5
347
331
FE3
  5
830
331
1BA
  5
299
331
273
  5
377
331
22C
  5
343
331
101E
  5
331
331
1F5
  5
316
331
FDF
  5
82C
331
1B6
  5
295
331
228
  5
33F
331
101A
  5
335
331
1F1
  5
312
331
FDB
  5
828
331
1B2
  5
291
331
F61
  5
10E3
331
36D
  5
1032
331
2B7
  5
3F7
331
369
  5
102E
331
2B3
  5
3F2
331
365
  5
102A
331
32E
  5
1003
331
3E4
  5
108A
331
2AF
  5
3ED
331
10D7
  5
13E
331
3A0
  5
106F
331
32A
  5
FFF
331
2AB
  5
3E9
331
10D3
  5
14A
331
105D
  5
139
331
3C9
  5
1088
331
10CF
  5
15C
331
1094
  5
1BB
331
10CB
  5
163
331
1090
  5
10BE
331
631
  5
23F
331
1051
  5
15F
331
14E
  5
1FC
331
3FD
  5
109E
331
14A
  5
1F8
331
146
  5
1F4
331
181
  5
245
331
142
  5
1F0
331
26F
  5
373
331
224
  5
33D
331
1016
  5
FDB
331
1ED
  5
30E
331
FD7
  5
1026
331
1AE
  5
28D
331
220
  5
33B
331
1012
  5
FD7
331
1E9
  5
30A
331
F5D
  5
10E1
331
FD3
  5
1075
331
1AA
  5
289
331
21C
  5
337
331
100E
  5
FD3
331
1E5
  5
2C4
331
FCF
  5
107F
331
1A6
  5
285
331
100A
  5
FCF
331
1E1
  5
2C0
331
1A2
  5
281
331
35D
  5
1025
331
326
  5
FFB
331
2A7
  5
3E3
331
834
  5
10B4
331
398
  5
106A
331
359
  5
1021
331
322
  5
FF7
331
2A3
  5
3C1
331
830
  5
10B0
331
394
  5
1061
331
31E
  5
FF3
331
29F
  5
3B7
331
10C7
  5
165
331
390
  5
1055
331
31A
  5
FEF
331
29B
  5
3AA
331
108C
  5
10C5
331
10C3
  5
16E
331
1088
  5
10C7
331
10BF
  5
170
331
1049
  5
169
331
1084
  5
10CB
331
10BB
  5
177
331
3F5
  5
1098
331
1080
  5
10D5
331
3F1
  5
1095
331
13E
  5
1EC
331
3ED
  5
1090
331
179
  5
23D
331
13A
  5
1E8
331
3E9
  5
108C
331
175
  5
235
331
136
  5
1E4
331
171
  5
231
331
132
  5
1E0
331
1006
  5
FCB
331
1DD
  5
2BC
331
FC7
  5
10B6
331
19E
  5
27D
331
1002
  5
FC7
331
1D9
  5
2B8
331
FC3
  5
10C2
331
19A
  5
279
331
20C
  5
32D
331
FFE
  5
FC3
331
1D5
  5
2B4
331
196
  5
275
331
208
  5
329
331
FFA
  5
FBF
331
1D1
  5
2B0
331
192
  5
271
331
38C
  5
1051
331
34D
  5
101C
331
316
  5
FEB
331
297
  5
39F
331
388
  5
104D
331
312
  5
FE7
331
293
  5
397
331
384
  5
1049
331
345
  5
101A
331
30E
  5
FE3
331
28F
  5
393
331
10B7
  5
17E
331
380
  5
1045
331
341
  5
1016
331
30A
  5
FDF
331
28B
  5
38F
331
107C
  5
10D7
331
10B3
  5
18D
331
103D
  5
181
331
1078
  5
10DB
331
10AF
  5
199
331
1074
  5
10E5
331
10AB
  5
19B
331
3C1
  5
1083
331
1031
  5
19F
331
16D
  5
22D
331
12E
  5
1DC
331
169
  5
228
331
12A
  5
1D8
331
3B9
  5
107E
331
165
  5
221
331
126
  5
1D4
331
161
  5
215
331
122
  5
1D0
331
243
  5
368
331
204
  5
325
331
FF6
  5
FBB
331
1CD
  5
2AC
331
23F
  5
363
331
200
  5
321
331
FF2
  5
FB7
331
1C9
  5
2A8
331
23B
  5
35B
331
1FC
  5
31D
331
FEE
  5
F61
331
1C5
  5
2A4
331
1F8
  5
319
331
FEA
  5
F5B
331
1C1
  5
2A0
331
18A
  5
26A
331
37C
  5
1041
331
33D
  5
1012
331
287
  5
38B
331
378
  5
103D
331
339
  5
100E
331
2C2
  5
822
331
283
  5
387
331
374
  5
1039
331
335
  5
100A
331
2BE
  5
3FF
331
27F
  5
383
331
10A7
  5
1A2
331
10E6
  5
117
331
370
  5
1035
331
331
  5
1006
331
2BA
  5
3FA
331
27B
  5
37F
331
10A3
  5
1A4
331
10E2
  5
119
331
106C
  5
110
331
109F
  5
1AB
331
10DE
  5
12B
331
109B
  5
1B1
331
10DA
  5
134
331
82C
  5
10AC
331
1025
  5
1B3
331
1064
  5
125
331
828
  5
10A8
331
1021
  5
270
331
3B1
  5
1079
331
15D
  5
20B
331
11E
  5
1CC
331
824
  5
10A4
331
159
  5
207
331
11A
  5
1C8
331
3A9
  5
1074
331
155
  5
203
331
116
  5
1C4
331
151
  5
1FF
331
112
  5
1C0
331
233
  5
350
331
FE6
  5
833
331
1BD
  5
29C
331
276
  5
37A
331
22F
  5
346
331
FE2
  5
82F
331
1B9
  5
298
331
272
  5
376
331
22B
  5
342
331
101D
  5
330
331
1F4
  5
315
331
FDE
  5
82B
331
1B5
  5
294
331
1019
  5
334
331
1F0
  5
311
331
FDA
  5
827
331
1B1
  5
290
331
F60
  5
10E2
331
36C
  5
1031
331
2B6
  5
3F6
331
368
  5
102D
331
2B2
  5
3F1
331
364
  5
1029
331
32D
  5
1002
331
3E3
  5
1089
331
2AE
  5
3EC
331
10D6
  5
146
331
329
  5
FFE
331
2AA
  5
3E6
331
10D2
  5
156
331
105C
  5
138
331
3C8
  5
1087
331
1097
  5
1BA
331
10CE
  5
158
331
1058
  5
150
331
1093
  5
10BB
331
10CA
  5
162
331
14D
  5
1FB
331
1050
  5
15E
331
3FC
  5
109D
331
149
  5
1F7
331
3F8
  5
109B
331
145
  5
1F3
331
180
  5
244
331
141
  5
1EF
331
26E
  5
372
331
26A
  5
370
331
1015
  5
FDA
331
1EC
  5
30D
331
FD6
  5
106D
331
1AD
  5
28C
331
21F
  5
33A
331
1011
  5
FD6
331
1E8
  5
308
331
F5C
  5
10E0
331
FD2
  5
107B
331
1A9
  5
288
331
100D
  5
FD2
331
1E4
  5
2C3
331
FCE
  5
1085
331
1A5
  5
284
331
1009
  5
FCE
331
1E0
  5
2BF
331
1A1
  5
280
331
39F
  5
106E
331
35C
  5
1024
331
325
  5
FFA
331
2A6
  5
3C9
331
833
  5
10B3
331
397
  5
1064
331
358
  5
1020
331
321
  5
FF6
331
2A2
  5
3BF
331
393
  5
105B
331
31D
  5
FF2
331
29E
  5
3B2
331
108F
  5
10BD
331
10C6
  5
164
331
319
  5
FEE
331
29A
  5
3A7
331
108B
  5
10C4
331
10C2
  5
16D
331
104C
  5
16C
331
1087
  5
10C6
331
10BE
  5
173
331
1048
  5
168
331
1083
  5
10CA
331
10BA
  5
17D
331
3F4
  5
1097
331
1044
  5
176
331
3F0
  5
1094
331
17C
  5
241
331
13D
  5
1EB
331
3EC
  5
108F
331
178
  5
23C
331
139
  5
1E7
331
174
  5
234
331
135
  5
1E3
331
170
  5
230
331
131
  5
1DF
331
25E
  5
36C
331
1005
  5
FCA
331
1DC
  5
2BB
331
19D
  5
27C
331
256
  5
36A
331
1001
  5
FC6
331
1D8
  5
2B7
331
FC2
  5
10C1
331
199
  5
278
331
20B
  5
32C
331
FFD
  5
FC2
331
1D4
  5
2B3
331
FBE
  5
10CF
331
195
  5
274
331
FBA
  5
10D2
331
FF9
  5
FBE
331
1D0
  5
2AF
331
38F
  5
1054
331
38B
  5
1050
331
315
  5
FEA
331
296
  5
39A
331
387
  5
104C
331
311
  5
FE6
331
292
  5
396
331
383
  5
1048
331
344
  5
1019
331
30D
  5
FE2
331
28E
  5
392
331
107F
  5
10D4
331
10B6
  5
18A
331
340
  5
1015
331
309
  5
FDE
331
28A
  5
38E
331
10F
  5
1BD
331
107B
  5
10D6
331
10B2
  5
18C
331
103C
  5
180
331
1077
  5
10DA
331
10AE
  5
198
331
1038
  5
196
331
1073
  5
10E4
331
10AA
  5
19A
331
3C0
  5
1082
331
1030
  5
19E
331
16C
  5
22C
331
12D
  5
1DB
331
168
  5
226
331
129
  5
1D7
331
3B8
  5
107D
331
164
  5
220
331
125
  5
1D3
331
160
  5
20E
331
121
  5
1CF
331
207
  5
328
331
242
  5
367
331
203
  5
324
331
FF5
  5
FBA
331
1CC
  5
2AB
331
23E
  5
35E
331
1FF
  5
320
331
FF1
  5
FB6
331
1C8
  5
2A7
331
23A
  5
35A
331
1FB
  5
31C
331
FED
  5
F60
331
1C4
  5
2A3
331
FE9
  5
F5A
331
1C0
  5
29F
331
189
  5
266
331
37F
  5
1044
331
37B
  5
1040
331
33C
  5
1011
331
2C5
  5
825
331
286
  5
38A
331
377
  5
103C
331
338
  5
100D
331
2C1
  5
821
331
282
  5
386
331
373
  5
1038
331
334
  5
1009
331
2BD
  5
3FE
331
27E
  5
382
331
10A6
  5
1A1
331
10E5
  5
116
331
330
  5
1005
331
2B9
  5
3F9
331
27A
  5
37E
331
10A2
  5
1A7
331
10E1
  5
11F
331
102C
  5
1AA
331
106B
  5
10F
331
82F
  5
10AF
331
109E
  5
1B0
331
10DD
  5
133
331
109A
  5
1B7
331
10D9
  5
140
331
82B
  5
10AB
331
1024
  5
1B2
331
1063
  5
124
331
827
  5
10A7
331
1020
  5
26F
331
3B0
  5
1078
331
15C
  5
20A
331
11D
  5
1CB
331
823
  5
10A3
331
158
  5
206
331
119
  5
1C7
331
3A8
  5
1073
331
154
  5
202
331
115
  5
1C3
331
150
  5
1FE
331
111
  5
1BF
331
232
  5
34F
331
FE5
  5
832
331
1BC
  5
29B
331
275
  5
379
331
22E
  5
345
331
1F7
  5
318
331
FE1
  5
82E
331
1B8
  5
297
331
271
  5
375
331
22A
  5
341
331
101C
  5
32F
331
1F3
  5
314
331
FDD
  5
82A
331
1B4
  5
293
331
1018
  5
333
331
FD9
  5
826
331
1B0
  5
28F
331
36F
  5
1034
331
36B
  5
1030
331
2B5
  5
3F4
331
367
  5
102C
331
3E6
  5
108B
331
2B1
  5
3F0
331
363
  5
1028
331
32C
  5
1001
331
2AD
  5
3EB
331
10D5
  5
145
331
328
  5
FFD
331
2A9
  5
3E5
331
10D1
  5
152
331
1096
  5
1B9
331
10CD
  5
157
331
1057
  5
14C
331
1092
  5
10BA
331
10C9
  5
161
331
3FF
  5
10A0
331
14C
  5
1FA
331
3FB
  5
109C
331
148
  5
1F6
331
144
  5
1F2
331
140
  5
1EE
331
26D
  5
371
331
226
  5
33E
331
1EF
  5
310
331
269
  5
36F
331
1014
  5
FD9
331
1EB
  5
30C
331
FD5
  5
106C
331
1AC
  5
28B
331
21E
  5
339
331
1010
  5
FD5
331
1E7
  5
2C6
331
F5B
  5
10DF
331
FD1
  5
107A
331
1A8
  5
287
331
100C
  5
FD1
331
1E3
  5
2C2
331
FCD
  5
1084
331
1A4
  5
283
331
1008
  5
FCD
331
FC9
  5
10B8
331
1A0
  5
27F
331
35B
  5
1023
331
324
  5
FF9
331
2A5
  5
3C7
331
832
  5
10B2
331
396
  5
1063
331
357
  5
101F
331
320
  5
FF5
331
2A1
  5
3BA
331
392
  5
105A
331
31C
  5
FF1
331
29D
  5
3B1
331
108E
  5
10BC
331
10C5
  5
167
331
318
  5
FED
331
299
  5
3A2
331
108A
  5
10C3
331
10C1
  5
172
331
104B
  5
16B
331
1086
  5
10C9
331
10BD
  5
179
331
3F7
  5
109A
331
1082
  5
10CE
331
10B9
  5
17C
331
3F3
  5
1096
331
1043
  5
175
331
17F
  5
243
331
3EF
  5
1093
331
17B
  5
240
331
13C
  5
1EA
331
3EB
  5
108E
331
177
  5
23B
331
138
  5
1E6
331
173
  5
233
331
134
  5
1E2
331
130
  5
1DE
  0
XRECORD
  5
10ED
102
{ACAD_REACTORS
330
10EB
102
}
330
10EB
100
AcDbXrecord
280
     1
 70
     2
  0
XRECORD
  5
10EC
102
{ACAD_REACTORS
330
10EB
102
}
330
10EB
100
AcDbXrecord
280
     1
 40
1.25
  0
XRECORD
  5
10EE
102
{ACAD_REACTORS
330
10EB
102
}
330
10EB
100
AcDbXrecord
280
     1
 40
1.570796326794896
  0
LAYOUT
  5
39
102
{ACAD_XDICTIONARY
360
1112
102
}
102
{ACAD_REACTORS
330
2E
102
}
330
2E
100
AcDbPlotSettings
  1

  2
DWG To PDF.pc3
  4
ISO_expand_A4_(297.00_x_210.00_MM)
  6

 40
5.793749809265136
 41
10.79374980926513
 42
5.79376220703125
 43
10.79374694824219
 44
297.0
 45
210.0
 46
77.61444042801587
 47
0.0
 48
7672.893001999999
 49
-91.936487
140
8047.737718
141
189.786723
142
1.0
143
2.14965396029995
 70
 28340
 72
     1
 73
     1
 74
     1
  7
n-plot.ctb
 75
     0
147
0.4651911509796981
148
210.0133595264679
149
138.5095391625302
100
AcDbLayout
  1
Model
 70
     1
 71
     0
 10
0.0
 20
0.0
 11
12.0
 21
9.0
 12
0.0
 22
0.0
 32
0.0
 14
0.0
 24
0.0
 34
0.0
 15
0.0
 25
0.0
 35
0.0
146
0.0
 13
0.0
 23
0.0
 33
0.0
 16
1.0
 26
0.0
 36
0.0
 17
0.0
 27
1.0
 37
0.0
 76
     0
330
36
331
56
1001
ACAD_PSEXT
1000
DWG To PDF.pc3
1000
DWG To PDF
1000
ファイル
1000

1070
     0
  0
LAYOUT
  5
35
102
{ACAD_XDICTIONARY
360
1110
102
}
102
{ACAD_REACTORS
330
2E
102
}
330
2E
100
AcDbPlotSettings
  1

  2
PDF Complete
  4

  6

 40
0.0
 41
0.0
 42
0.0
 43
0.0
 44
0.0
 45
0.0
 46
0.0
 47
0.0
 48
0.0
 49
0.0
140
0.0
141
0.0
142
1.0
143
1.0
 70
   688
 72
     0
 73
     0
 74
     5
  7

 75
    16
147
1.0
148
0.0
149
0.0
100
AcDbLayout
  1
レイアウト1
 70
     1
 71
     1
 10
0.0
 20
0.0
 11
12.0
 21
9.0
 12
0.0
 22
0.0
 32
0.0
 14
1.000000000000000E+20
 24
1.000000000000000E+20
 34
1.000000000000000E+20
 15
-1.000000000000000E+20
 25
-1.000000000000000E+20
 35
-1.000000000000000E+20
146
0.0
 13
0.0
 23
0.0
 33
0.0
 16
1.0
 26
0.0
 36
0.0
 17
0.0
 27
1.0
 37
0.0
 76
     0
330
32
  0
MATERIAL
  5
12
102
{ACAD_XDICTIONARY
360
3D4
102
}
102
{ACAD_REACTORS
330
10
102
}
330
10
100
AcDbMaterial
  1
ByBlock
  0
MATERIAL
  5
11
102
{ACAD_XDICTIONARY
360
3D2
102
}
102
{ACAD_REACTORS
330
10
102
}
330
10
100
AcDbMaterial
  1
ByLayer
  0
MATERIAL
  5
13
102
{ACAD_XDICTIONARY
360
3D6
102
}
102
{ACAD_REACTORS
330
10
102
}
330
10
100
AcDbMaterial
  1
Global
  0
MLEADERSTYLE
  5
6E3
102
{ACAD_REACTORS
330
6E2
102
}
330
6E2
100
AcDbMLeaderStyle
170
     2
171
     1
172
     0
 90
        2
 40
0.0
 41
0.0
173
     1
 91
-1056964608
340
28
 92
       -2
290
     1
 42
0.09
291
     1
 43
0.36
  3
Standard
 44
0.18
300

342
26
174
     1
178
     6
175
     1
176
     0
 93
-1056964608
 45
0.18
292
     0
297
     0
 46
0.18
 94
-1056964608
 47
1.0
 49
1.0
140
1.0
293
     1
141
0.0
294
     1
177
     0
142
1.0
295
     0
296
     0
143
0.125
1001
ACAD_MLEADERVER
1070
     2
  0
MLINESTYLE
  5
2C
102
{ACAD_REACTORS
330
2B
102
}
330
2B
100
AcDbMlineStyle
  2
STANDARD
 70
     0
  3

 62
   256
 51
90.0
 52
90.0
 71
     2
 49
0.5
 62
   256
  6
BYLAYER
 49
-0.5
 62
   256
  6
BYLAYER
  0
ACDBPLACEHOLDER
  5
F
102
{ACAD_REACTORS
330
E
102
}
330
E
  0
SCALE
  5
6D1
102
{ACAD_REACTORS
330
6D0
102
}
330
6D0
100
AcDbScale
 70
     0
300
1:1
140
1.0
141
1.0
290
     1
  0
SCALE
  5
6D2
102
{ACAD_REACTORS
330
6D0
102
}
330
6D0
100
AcDbScale
 70
     0
300
1/128" = 1'-0"
140
0.0078125
141
12.0
290
     0
  0
SCALE
  5
6D3
102
{ACAD_REACTORS
330
6D0
102
}
330
6D0
100
AcDbScale
 70
     0
300
1/64" = 1'-0"
140
0.015625
141
12.0
290
     0
  0
SCALE
  5
6D4
102
{ACAD_REACTORS
330
6D0
102
}
330
6D0
100
AcDbScale
 70
     0
300
1/32" = 1'-0"
140
0.03125
141
12.0
290
     0
  0
SCALE
  5
6D5
102
{ACAD_REACTORS
330
6D0
102
}
330
6D0
100
AcDbScale
 70
     0
300
1/16" = 1'-0"
140
0.0625
141
12.0
290
     0
  0
SCALE
  5
6D6
102
{ACAD_REACTORS
330
6D0
102
}
330
6D0
100
AcDbScale
 70
     0
300
3/32" = 1'-0"
140
0.09375
141
12.0
290
     0
  0
SCALE
  5
6D7
102
{ACAD_REACTORS
330
6D0
102
}
330
6D0
100
AcDbScale
 70
     0
300
1/8" = 1'-0"
140
0.125
141
12.0
290
     0
  0
SCALE
  5
6D8
102
{ACAD_REACTORS
330
6D0
102
}
330
6D0
100
AcDbScale
 70
     0
300
3/16" = 1'-0"
140
0.1875
141
12.0
290
     0
  0
SCALE
  5
6D9
102
{ACAD_REACTORS
330
6D0
102
}
330
6D0
100
AcDbScale
 70
     0
300
1/4" = 1'-0"
140
0.25
141
12.0
290
     0
  0
SCALE
  5
6DA
102
{ACAD_REACTORS
330
6D0
102
}
330
6D0
100
AcDbScale
 70
     0
300
3/8" = 1'-0"
140
0.375
141
12.0
290
     0
  0
SCALE
  5
6DB
102
{ACAD_REACTORS
330
6D0
102
}
330
6D0
100
AcDbScale
 70
     0
300
1/2" = 1'-0"
140
0.5
141
12.0
290
     0
  0
SCALE
  5
6DC
102
{ACAD_REACTORS
330
6D0
102
}
330
6D0
100
AcDbScale
 70
     0
300
3/4" = 1'-0"
140
0.75
141
12.0
290
     0
  0
SCALE
  5
6DD
102
{ACAD_REACTORS
330
6D0
102
}
330
6D0
100
AcDbScale
 70
     0
300
1" = 1'-0"
140
1.0
141
12.0
290
     0
  0
SCALE
  5
6DE
102
{ACAD_REACTORS
330
6D0
102
}
330
6D0
100
AcDbScale
 70
     0
300
1-1/2" = 1'-0"
140
1.5
141
12.0
290
     0
  0
SCALE
  5
6DF
102
{ACAD_REACTORS
330
6D0
102
}
330
6D0
100
AcDbScale
 70
     0
300
3" = 1'-0"
140
3.0
141
12.0
290
     0
  0
SCALE
  5
6E0
102
{ACAD_REACTORS
330
6D0
102
}
330
6D0
100
AcDbScale
 70
     0
300
6" = 1'-0"
140
6.0
141
12.0
290
     0
  0
SCALE
  5
6E1
102
{ACAD_REACTORS
330
6D0
102
}
330
6D0
100
AcDbScale
 70
     0
300
1'-0" = 1'-0"
140
12.0
141
12.0
290
     0
  0
TABLESTYLE
  5
31
102
{ACAD_XDICTIONARY
360
9AF
102
}
102
{ACAD_REACTORS
330
30
102
}
330
30
100
AcDbTableStyle
  3
Standard
 70
     0
 71
     0
 40
0.06
 41
0.06
280
     0
281
     0
  7
STANDARD
140
0.18
170
     2
 62
     0
 63
     7
283
     0
274
    -2
284
     1
 64
     0
275
    -2
285
     1
 65
     0
276
    -2
286
     1
 66
     0
277
    -2
287
     1
 67
     0
278
    -2
288
     1
 68
     0
279
    -2
289
     1
 69
     0
  7
STANDARD
140
0.25
170
     5
 62
     0
 63
     7
283
     0
274
    -2
284
     1
 64
     0
275
    -2
285
     1
 65
     0
276
    -2
286
     1
 66
     0
277
    -2
287
     1
 67
     0
278
    -2
288
     1
 68
     0
279
    -2
289
     1
 69
     0
  7
STANDARD
140
0.18
170
     5
 62
     0
 63
     7
283
     0
274
    -2
284
     1
 64
     0
275
    -2
285
     1
 65
     0
276
    -2
286
     1
 66
     0
277
    -2
287
     1
 67
     0
278
    -2
288
     1
 68
     0
279
    -2
289
     1
 69
     0
  0
VISUALSTYLE
  5
1A
102
{ACAD_XDICTIONARY
360
10F9
102
}
102
{ACAD_REACTORS
330
14
102
}
330
14
100
AcDbVisualStyle
  2

 70
     4
 71
     0
 72
     2
 73
     0
 90
        0
 40
-0.6
 41
-30.0
 62
     5
 63
     7
 74
     1
 91
        4
 64
     7
 65
   257
 75
     1
175
     1
 42
1.0
 92
        0
 66
   257
 43
1.0
 76
     1
 77
     6
 78
     2
 67
     7
 79
     5
170
     0
171
     0
290
     0
174
     0
 93
        1
 44
0.0
173
     0
291
     0
 45
0.0
1001
ACAD
1000
AcDbSavedByObjectVersion
1070
     0
  0
VISUALSTYLE
  5
1C
102
{ACAD_XDICTIONARY
360
10FD
102
}
102
{ACAD_REACTORS
330
14
102
}
330
14
100
AcDbVisualStyle
  2

 70
     6
 71
     1
 72
     2
 73
     2
 90
        0
 40
-0.6
 41
-30.0
 62
     5
 63
     7
 74
     2
 91
        2
 64
     7
 65
   257
 75
     2
175
     1
 42
40.0
 92
        0
 66
   257
 43
1.0
 76
     1
 77
     6
 78
     2
 67
     7
 79
     3
170
     0
171
     0
290
     0
174
     0
 93
        1
 44
0.0
173
     0
291
     0
 45
0.0
1001
ACAD
1000
AcDbSavedByObjectVersion
1070
     0
  0
VISUALSTYLE
  5
1B
102
{ACAD_XDICTIONARY
360
10FB
102
}
102
{ACAD_REACTORS
330
14
102
}
330
14
100
AcDbVisualStyle
  2

 70
     5
 71
     0
 72
     2
 73
     0
 90
        0
 40
-0.6
 41
-30.0
 62
     5
 63
     7
 74
     1
 91
        4
 64
     7
 65
   257
 75
     1
175
     1
 42
1.0
 92
        0
 66
   257
 43
1.0
 76
     1
 77
     6
 78
     2
 67
     7
 79
     5
170
     0
171
     0
290
     0
174
     0
 93
        1
 44
0.0
173
     0
291
     0
 45
0.0
1001
ACAD
1000
AcDbSavedByObjectVersion
1070
     0
  0
VISUALSTYLE
  5
19
102
{ACAD_XDICTIONARY
360
10F7
102
}
102
{ACAD_REACTORS
330
14
102
}
330
14
100
AcDbVisualStyle
  2

 70
     7
 71
     1
 72
     0
 73
     1
 90
        0
 40
-0.6
 41
-30.0
 62
     5
 63
     7
 74
     0
 91
        4
 64
     7
 65
   257
 75
     1
175
     1
 42
1.0
 92
        8
 66
     7
 43
1.0
 76
     1
 77
     6
 78
     2
 67
     7
 79
     5
170
     0
171
     0
290
     0
174
     0
 93
        1
 44
0.0
173
     0
291
     1
 45
0.0
1001
ACAD
1000
AcDbSavedByObjectVersion
1070
     0
  0
VISUALSTYLE
  5
20
102
{ACAD_XDICTIONARY
360
1105
102
}
102
{ACAD_REACTORS
330
14
102
}
330
14
100
AcDbVisualStyle
  2

 70
    12
 71
     2
 72
     2
 73
     0
 90
        0
 40
-0.6
 41
-30.0
 62
     5
 63
     7
 74
     1
 91
        4
 64
     7
 65
   257
 75
     1
175
     1
 42
1.0
 92
        8
 66
     7
 43
1.0
 76
     1
 77
     6
 78
     2
 67
     7
 79
     5
170
     0
171
     0
290
     0
174
     0
 93
        1
 44
50.0
173
     0
291
     1
 45
0.0
1001
ACAD
1000
AcDbSavedByObjectVersion
1070
     0
  0
VISUALSTYLE
  5
24
102
{ACAD_XDICTIONARY
360
110D
102
}
102
{ACAD_REACTORS
330
14
102
}
330
14
100
AcDbVisualStyle
  2

 70
    16
 71
     2
 72
     2
 73
     3
 90
        0
 40
-0.6
 41
-30.0
 62
     5
 63
     8
 74
     1
 91
        4
 64
     7
 65
   257
 75
     1
175
     1
 42
1.0
 92
        8
 66
     8
 43
1.0
 76
     1
 77
     6
 78
     2
 67
     7
 79
     5
170
     0
171
     0
290
     0
174
     0
 93
        1
 44
0.0
173
     0
291
     1
 45
0.0
1001
ACAD
1000
AcDbSavedByObjectVersion
1070
     0
  0
VISUALSTYLE
  5
1D
102
{ACAD_XDICTIONARY
360
10FF
102
}
102
{ACAD_REACTORS
330
14
102
}
330
14
100
AcDbVisualStyle
  2

 70
     9
 71
     3
 72
     2
 73
     0
 90
        0
 40
-0.6
 41
-30.0
 62
     5
 63
     7
 74
     2
 91
        2
 64
     7
 65
   257
 75
     1
175
     1
 42
40.0
 92
        8
 66
     7
 43
1.0
 76
     1
 77
     6
 78
     2
 67
     7
 79
     3
170
     0
171
     0
290
     0
174
     0
 93
        1
 44
0.0
173
     0
291
     0
 45
0.0
1001
ACAD
1000
AcDbSavedByObjectVersion
1070
     0
  0
VISUALSTYLE
  5
1F
102
{ACAD_XDICTIONARY
360
1103
102
}
102
{ACAD_REACTORS
330
14
102
}
330
14
100
AcDbVisualStyle
  2

 70
    11
 71
     2
 72
     2
 73
     0
 90
        0
 40
-0.6
 41
-30.0
 62
     5
 63
     7
 74
     1
 91
        4
 64
     7
 65
   257
 75
     1
175
     1
 42
1.0
 92
        8
 66
     7
 43
1.0
 76
     1
 77
     6
 78
     2
 67
     7
 79
     5
170
     0
171
     0
290
     0
174
     0
 93
        1
 44
-50.0
173
     0
291
     1
 45
0.0
1001
ACAD
1000
AcDbSavedByObjectVersion
1070
     0
  0
VISUALSTYLE
  5
6CF
102
{ACAD_XDICTIONARY
360
1126
102
}
102
{ACAD_REACTORS
330
14
102
}
330
14
100
AcDbVisualStyle
  2

 70
    22
 71
     2
 72
     2
 73
     0
 90
        0
 40
-0.6
 41
-30.0
 62
     5
 63
     7
 74
     1
 91
        4
 64
     7
 65
   257
 75
     1
175
     1
 42
1.0
 92
        8
 66
     7
 43
1.0
 76
     1
 77
     6
 78
     2
 67
     7
 79
     5
170
     0
171
     0
290
     0
174
     0
 93
        1
 44
0.0
173
     0
291
     1
 45
0.0
1001
ACAD
1000
AcDbSavedByObjectVersion
1070
     0
  0
VISUALSTYLE
  5
23
102
{ACAD_XDICTIONARY
360
110B
102
}
102
{ACAD_REACTORS
330
14
102
}
330
14
100
AcDbVisualStyle
  2

 70
    15
 71
     2
 72
     2
 73
     0
 90
        0
 40
-0.6
 41
-30.0
 62
     5
 63
     7
 74
     1
 91
        4
 64
     7
 65
   257
 75
     1
175
     1
 42
1.0
 92
        8
 66
     7
 43
1.0
 76
     1
 77
     6
 78
     2
 67
     7
 79
     5
170
     0
171
     0
290
     0
174
     0
 93
        1
 44
0.0
173
     0
291
     1
 45
0.0
1001
ACAD
1000
AcDbSavedByObjectVersion
1070
     0
  0
VISUALSTYLE
  5
15
102
{ACAD_XDICTIONARY
360
10EF
102
}
102
{ACAD_REACTORS
330
14
102
}
330
14
100
AcDbVisualStyle
  2

 70
     0
 71
     2
 72
     1
 73
     1
 90
        2
 40
-0.6
 41
30.0
 62
     5
 63
     7
 74
     0
 91
        4
 64
     7
 65
   257
 75
     1
175
     1
 42
1.0
 92
        8
 66
     7
 43
1.0
 76
     1
 77
     6
 78
     2
 67
     7
 79
     5
170
     0
171
     0
290
     0
174
     0
 93
       13
 44
0.0
173
     0
291
     1
 45
0.0
1001
ACAD
1000
AcDbSavedByObjectVersion
1070
     0
  0
VISUALSTYLE
  5
16
102
{ACAD_XDICTIONARY
360
10F1
102
}
102
{ACAD_REACTORS
330
14
102
}
330
14
100
AcDbVisualStyle
  2

 70
     1
 71
     2
 72
     1
 73
     1
 90
        2
 40
-0.6
 41
30.0
 62
     5
 63
     7
 74
     1
 91
        4
 64
     7
 65
   257
 75
     1
175
     1
 42
1.0
 92
        0
 66
   257
 43
1.0
 76
     1
 77
     6
 78
     2
 67
     7
 79
     5
170
     0
171
     0
290
     0
174
     0
 93
       13
 44
0.0
173
     0
291
     1
 45
0.0
1001
ACAD
1000
AcDbSavedByObjectVersion
1070
     0
  0
VISUALSTYLE
  5
17
102
{ACAD_XDICTIONARY
360
10F3
102
}
102
{ACAD_REACTORS
330
14
102
}
330
14
100
AcDbVisualStyle
  2

 70
     2
 71
     2
 72
     2
 73
     1
 90
        2
 40
-0.6
 41
30.0
 62
     5
 63
     7
 74
     0
 91
        4
 64
     7
 65
   257
 75
     1
175
     1
 42
1.0
 92
        0
 66
     7
 43
1.0
 76
     1
 77
     6
 78
     2
 67
     7
 79
     5
170
     0
171
     0
290
     0
174
     0
 93
       13
 44
0.0
173
     0
291
     1
 45
0.0
1001
ACAD
1000
AcDbSavedByObjectVersion
1070
     0
  0
VISUALSTYLE
  5
18
102
{ACAD_XDICTIONARY
360
10F5
102
}
102
{ACAD_REACTORS
330
14
102
}
330
14
100
AcDbVisualStyle
  2

 70
     3
 71
     2
 72
     2
 73
     1
 90
        2
 40
-0.6
 41
30.0
 62
     5
 63
     7
 74
     1
 91
        4
 64
     7
 65
   257
 75
     1
175
     1
 42
1.0
 92
        0
 66
   257
 43
1.0
 76
     1
 77
     6
 78
     2
 67
     7
 79
     5
170
     0
171
     0
290
     0
174
     0
 93
       13
 44
0.0
173
     0
291
     1
 45
0.0
1001
ACAD
1000
AcDbSavedByObjectVersion
1070
     0
  0
VISUALSTYLE
  5
6C7
102
{ACAD_XDICTIONARY
360
1116
102
}
102
{ACAD_REACTORS
330
14
102
}
330
14
100
AcDbVisualStyle
  2

 70
     6
 71
     1
 72
     2
 73
     2
 90
        0
 40
-0.6
 41
-30.0
 62
     5
 63
     7
 74
     2
 91
        2
 64
     7
 65
   257
 75
     2
175
     1
 42
40.0
 92
        0
 66
   257
 43
1.0
 76
     1
 77
     6
 78
     2
 67
     7
 79
     3
170
     0
171
     0
290
     0
174
     0
 93
        1
 44
0.0
173
     0
291
     0
 45
0.0
1001
ACAD
1000
AcDbSavedByObjectVersion
1070
     0
  0
VISUALSTYLE
  5
6CD
102
{ACAD_XDICTIONARY
360
1122
102
}
102
{ACAD_REACTORS
330
14
102
}
330
14
100
AcDbVisualStyle
  2

 70
    20
 71
     2
 72
     2
 73
     0
 90
        0
 40
-0.6
 41
-30.0
 62
     5
 63
     7
 74
     1
 91
        4
 64
     7
 65
   257
 75
     1
175
     1
 42
1.0
 92
       10
 66
     7
 43
1.0
 76
     1
 77
     6
 78
     2
 67
     7
 79
     5
170
     0
171
     0
290
     0
174
     0
 93
        1
 44
0.0
173
     0
291
     1
 45
0.0
1001
ACAD
1000
AcDbSavedByObjectVersion
1070
     0
  0
VISUALSTYLE
  5
22
102
{ACAD_XDICTIONARY
360
1109
102
}
102
{ACAD_REACTORS
330
14
102
}
330
14
100
AcDbVisualStyle
  2

 70
    14
 71
     2
 72
     2
 73
     0
 90
        0
 40
-0.6
 41
-30.0
 62
     5
 63
     7
 74
     1
 91
        4
 64
     7
 65
   257
 75
     7
175
     7
 42
1.0
 92
        8
 66
     7
 43
1.0
 76
     1
 77
     6
 78
     2
 67
     7
 79
     5
170
     0
171
     0
290
     0
174
     0
 93
        1
 44
0.0
173
     0
291
     1
 45
0.0
1001
ACAD
1000
AcDbSavedByObjectVersion
1070
     0
  0
VISUALSTYLE
  5
6CE
102
{ACAD_XDICTIONARY
360
1124
102
}
102
{ACAD_REACTORS
330
14
102
}
330
14
100
AcDbVisualStyle
  2

 70
    21
 71
     2
 72
     2
 73
     0
 90
        0
 40
-0.6
 41
-30.0
 62
     5
 63
     7
 74
     1
 91
        4
 64
     7
 65
   257
 75
     1
175
     1
 42
1.0
 92
        9
 66
     7
 43
1.0
 76
     1
 77
     6
 78
     2
 67
     7
 79
     5
170
     0
171
     0
290
     0
174
     0
 93
        1
 44
0.0
173
     0
291
     1
 45
0.0
1001
ACAD
1000
AcDbSavedByObjectVersion
1070
     0
  0
VISUALSTYLE
  5
1E
102
{ACAD_XDICTIONARY
360
1101
102
}
102
{ACAD_REACTORS
330
14
102
}
330
14
100
AcDbVisualStyle
  2

 70
     8
 71
     2
 72
     2
 73
     0
 90
        0
 40
-0.6
 41
-30.0
 62
     5
 63
     7
 74
     1
 91
        0
 64
     7
 65
   257
 75
     1
175
     1
 42
1.0
 92
        8
 66
     8
 43
1.0
 76
     1
 77
     6
 78
     2
 67
     7
 79
     5
170
     0
171
     0
290
     0
174
     0
 93
       13
 44
0.0
173
     0
291
     0
 45
0.0
1001
ACAD
1000
AcDbSavedByObjectVersion
1070
     0
  0
VISUALSTYLE
  5
6CC
102
{ACAD_XDICTIONARY
360
1120
102
}
102
{ACAD_REACTORS
330
14
102
}
330
14
100
AcDbVisualStyle
  2

 70
    27
 71
     2
 72
     2
 73
     1
 90
        2
 40
-0.6
 41
30.0
 62
     5
 63
     7
 74
     0
 91
        4
 64
     7
 65
   257
 75
     1
175
     1
 42
1.0
 92
        8
 66
   257
 43
1.0
 76
     1
 77
     6
 78
     2
 67
     8
 79
     3
170
     0
171
     0
290
     0
174
     0
 93
        5
 44
0.0
173
     0
291
     0
 45
0.0
1001
ACAD
1000
AcDbSavedByObjectVersion
1070
     0
  0
VISUALSTYLE
  5
6CB
102
{ACAD_XDICTIONARY
360
111E
102
}
102
{ACAD_REACTORS
330
14
102
}
330
14
100
AcDbVisualStyle
  2

 70
    26
 71
     2
 72
     2
 73
     1
 90
        2
 40
-0.6
 41
30.0
 62
     5
 63
     7
 74
     1
 91
       10
 64
     7
 65
   257
 75
     2
175
     1
 42
1.0
 92
        8
 66
   257
 43
1.0
 76
     1
 77
     6
 78
     2
 67
     7
 79
     3
170
     0
171
     0
290
     0
174
     0
 93
        5
 44
0.0
173
     0
291
     0
 45
0.0
1001
ACAD
1000
AcDbSavedByObjectVersion
1070
     0
  0
VISUALSTYLE
  5
6C8
102
{ACAD_XDICTIONARY
360
1118
102
}
102
{ACAD_REACTORS
330
14
102
}
330
14
100
AcDbVisualStyle
  2

 70
    23
 71
     2
 72
     2
 73
     3
 90
        0
 40
-0.6
 41
-30.0
 62
     5
 63
     7
 74
     2
 91
        2
 64
     7
 65
     7
 75
     1
175
     1
 42
40.0
 92
        8
 66
     7
 43
1.0
 76
     1
 77
     6
 78
     2
 67
     7
 79
     3
170
     0
171
     0
290
     0
174
     0
 93
        1
 44
0.0
173
     0
291
     0
 45
0.0
1001
ACAD
1000
AcDbSavedByObjectVersion
1070
     0
  0
VISUALSTYLE
  5
6C9
102
{ACAD_XDICTIONARY
360
111A
102
}
102
{ACAD_REACTORS
330
14
102
}
330
14
100
AcDbVisualStyle
  2

 70
    24
 71
     1
 72
     2
 73
     2
 90
        0
 40
-0.6
 41
-30.0
 62
     5
 63
     7
 74
     2
 91
        2
 64
     7
 65
     7
 75
     1
175
     1
 42
40.0
 92
       11
 66
     7
 43
1.0
 76
     1
 77
     6
 78
     2
 67
     7
 79
     6
170
     0
171
     0
290
     0
174
     0
 93
        1
 44
0.0
173
     0
291
     0
 45
0.0
1001
ACAD
1000
AcDbSavedByObjectVersion
1070
     0
  0
VISUALSTYLE
  5
21
102
{ACAD_XDICTIONARY
360
1107
102
}
102
{ACAD_REACTORS
330
14
102
}
330
14
100
AcDbVisualStyle
  2

 70
    13
 71
     2
 72
     2
 73
     0
 90
        0
 40
-0.6
 41
-30.0
 62
     5
 63
     7
 74
     1
 91
        4
 64
     7
 65
   257
 75
     1
175
     1
 42
1.0
 92
       12
 66
     7
 43
1.0
 76
     1
 77
     6
 78
     2
 67
     7
 79
     5
170
     0
171
     0
290
     0
174
     0
 93
        1
 44
0.0
173
     0
291
     1
 45
0.0
1001
ACAD
1000
AcDbSavedByObjectVersion
1070
     0
  0
VISUALSTYLE
  5
6C6
102
{ACAD_XDICTIONARY
360
1114
102
}
102
{ACAD_REACTORS
330
14
102
}
330
14
100
AcDbVisualStyle
  2

 70
     5
 71
     0
 72
     2
 73
     0
 90
        0
 40
-0.6
 41
-30.0
 62
     5
 63
     7
 74
     1
 91
        4
 64
     7
 65
   257
 75
     1
175
     1
 42
1.0
 92
        0
 66
   257
 43
1.0
 76
     1
 77
     6
 78
     2
 67
     7
 79
     3
170
     0
171
     0
290
     0
174
     0
 93
        1
 44
0.0
173
     0
291
     0
 45
0.0
1001
ACAD
1000
AcDbSavedByObjectVersion
1070
     0
  0
VISUALSTYLE
  5
6CA
102
{ACAD_XDICTIONARY
360
111C
102
}
102
{ACAD_REACTORS
330
14
102
}
330
14
100
AcDbVisualStyle
  2

 70
    25
 71
     2
 72
     2
 73
     1
 90
        1
 40
0.5
 41
-30.0
 62
     5
 63
     7
 74
     1
 91
        0
 64
     7
 65
   257
 75
     1
175
     1
 42
1.0
 92
        8
 66
     7
 43
1.0
 76
     1
 77
     6
 78
     2
 67
     7
 79
     3
170
     0
171
     0
290
     0
174
     0
 93
       13
 44
0.0
173
     0
291
     0
 45
0.0
1001
ACAD
1000
AcDbSavedByObjectVersion
1070
     0
  0
DICTIONARYVAR
  5
9AD
102
{ACAD_REACTORS
330
3CC
102
}
330
3CC
100
DictionaryVariables
280
     0
  1
1:1
  0
DICTIONARYVAR
  5
9AC
102
{ACAD_REACTORS
330
3CC
102
}
330
3CC
100
DictionaryVariables
280
     0
  1
STANDARD
  0
DICTIONARYVAR
  5
3CD
102
{ACAD_REACTORS
330
3CC
102
}
330
3CC
100
DictionaryVariables
280
     0
  1
STANDARD
  0
DICTIONARYVAR
  5
3D0
102
{ACAD_REACTORS
330
3CC
102
}
330
3CC
100
DictionaryVariables
280
     0
  1
1
  0
DICTIONARYVAR
  5
3CF
102
{ACAD_REACTORS
330
3CC
102
}
330
3CC
100
DictionaryVariables
280
     0
  1
0
  0
DICTIONARYVAR
  5
3CE
102
{ACAD_REACTORS
330
3CC
102
}
330
3CC
100
DictionaryVariables
280
     0
  1
127
  0
DICTIONARYVAR
  5
ED9
102
{ACAD_REACTORS
330
3CC
102
}
330
3CC
100
DictionaryVariables
280
     0
  1
2
  0
DICTIONARY
  5
1112
330
39
100
AcDbDictionary
280
     1
281
     1
  3
ACAD_XREC_ROUNDTRIP
360
1113
  0
DICTIONARY
  5
1110
330
35
100
AcDbDictionary
280
     1
281
     1
  3
ACAD_XREC_ROUNDTRIP
360
1111
  0
DICTIONARY
  5
3D4
330
12
100
AcDbDictionary
280
     1
281
     1
  3
ACAD_XREC_ROUNDTRIP
360
3D5
  0
DICTIONARY
  5
3D2
330
11
100
AcDbDictionary
280
     1
281
     1
  3
ACAD_XREC_ROUNDTRIP
360
3D3
  0
DICTIONARY
  5
3D6
330
13
100
AcDbDictionary
280
     1
281
     1
  3
ACAD_XREC_ROUNDTRIP
360
3D7
  0
DICTIONARY
  5
9AF
330
31
100
AcDbDictionary
280
     1
281
     1
  3
ACAD_ROUNDTRIP_2008_TABLESTYLE_CELLSTYLEMAP
360
10E8
  3
ACAD_XREC_ROUNDTRIP
360
110F
  0
DICTIONARY
  5
10F9
330
1A
100
AcDbDictionary
280
     1
281
     1
  3
ACAD_XREC_ROUNDTRIP
360
10FA
  0
DICTIONARY
  5
10FD
330
1C
100
AcDbDictionary
280
     1
281
     1
  3
ACAD_XREC_ROUNDTRIP
360
10FE
  0
DICTIONARY
  5
10FB
330
1B
100
AcDbDictionary
280
     1
281
     1
  3
ACAD_XREC_ROUNDTRIP
360
10FC
  0
DICTIONARY
  5
10F7
330
19
100
AcDbDictionary
280
     1
281
     1
  3
ACAD_XREC_ROUNDTRIP
360
10F8
  0
DICTIONARY
  5
1105
330
20
100
AcDbDictionary
280
     1
281
     1
  3
ACAD_XREC_ROUNDTRIP
360
1106
  0
DICTIONARY
  5
110D
330
24
100
AcDbDictionary
280
     1
281
     1
  3
ACAD_XREC_ROUNDTRIP
360
110E
  0
DICTIONARY
  5
10FF
330
1D
100
AcDbDictionary
280
     1
281
     1
  3
ACAD_XREC_ROUNDTRIP
360
1100
  0
DICTIONARY
  5
1103
330
1F
100
AcDbDictionary
280
     1
281
     1
  3
ACAD_XREC_ROUNDTRIP
360
1104
  0
DICTIONARY
  5
1126
330
6CF
100
AcDbDictionary
280
     1
281
     1
  3
ACAD_XREC_ROUNDTRIP
360
1127
  0
DICTIONARY
  5
110B
330
23
100
AcDbDictionary
280
     1
281
     1
  3
ACAD_XREC_ROUNDTRIP
360
110C
  0
DICTIONARY
  5
10EF
330
15
100
AcDbDictionary
280
     1
281
     1
  3
ACAD_XREC_ROUNDTRIP
360
10F0
  0
DICTIONARY
  5
10F1
330
16
100
AcDbDictionary
280
     1
281
     1
  3
ACAD_XREC_ROUNDTRIP
360
10F2
  0
DICTIONARY
  5
10F3
330
17
100
AcDbDictionary
280
     1
281
     1
  3
ACAD_XREC_ROUNDTRIP
360
10F4
  0
DICTIONARY
  5
10F5
330
18
100
AcDbDictionary
280
     1
281
     1
  3
ACAD_XREC_ROUNDTRIP
360
10F6
  0
DICTIONARY
  5
1116
330
6C7
100
AcDbDictionary
280
     1
281
     1
  3
ACAD_XREC_ROUNDTRIP
360
1117
  0
DICTIONARY
  5
1122
330
6CD
100
AcDbDictionary
280
     1
281
     1
  3
ACAD_XREC_ROUNDTRIP
360
1123
  0
DICTIONARY
  5
1109
330
22
100
AcDbDictionary
280
     1
281
     1
  3
ACAD_XREC_ROUNDTRIP
360
110A
  0
DICTIONARY
  5
1124
330
6CE
100
AcDbDictionary
280
     1
281
     1
  3
ACAD_XREC_ROUNDTRIP
360
1125
  0
DICTIONARY
  5
1101
330
1E
100
AcDbDictionary
280
     1
281
     1
  3
ACAD_XREC_ROUNDTRIP
360
1102
  0
DICTIONARY
  5
1120
330
6CC
100
AcDbDictionary
280
     1
281
     1
  3
ACAD_XREC_ROUNDTRIP
360
1121
  0
DICTIONARY
  5
111E
330
6CB
100
AcDbDictionary
280
     1
281
     1
  3
ACAD_XREC_ROUNDTRIP
360
111F
  0
DICTIONARY
  5
1118
330
6C8
100
AcDbDictionary
280
     1
281
     1
  3
ACAD_XREC_ROUNDTRIP
360
1119
  0
DICTIONARY
  5
111A
330
6C9
100
AcDbDictionary
280
     1
281
     1
  3
ACAD_XREC_ROUNDTRIP
360
111B
  0
DICTIONARY
  5
1107
330
21
100
AcDbDictionary
280
     1
281
     1
  3
ACAD_XREC_ROUNDTRIP
360
1108
  0
DICTIONARY
  5
1114
330
6C6
100
AcDbDictionary
280
     1
281
     1
  3
ACAD_XREC_ROUNDTRIP
360
1115
  0
DICTIONARY
  5
111C
330
6CA
100
AcDbDictionary
280
     1
281
     1
  3
ACAD_XREC_ROUNDTRIP
360
111D
  0
XRECORD
  5
1113
102
{ACAD_REACTORS
330
1112
102
}
330
1112
100
AcDbXrecord
280
     1
102
SHADEPLOT
 70
     1
102
SHADEPLOTRESLEVEL
 70
     2
102
SHADEPLOTCUSTOMDPI
 70
   300
  0
XRECORD
  5
1111
102
{ACAD_REACTORS
330
1110
102
}
330
1110
100
AcDbXrecord
280
     1
102
SHADEPLOT
 70
     0
102
SHADEPLOTRESLEVEL
 70
     2
102
SHADEPLOTCUSTOMDPI
 70
   300
  0
XRECORD
  5
3D5
102
{ACAD_REACTORS
330
3D4
102
}
330
3D4
100
AcDbXrecord
280
     1
102
MATERIAL
148
0.0
149
0.0
149
0.0
 93
        0
 94
      127
282
     0
 72
     1
 77
     1
171
     1
175
     1
179
     1
273
     0
  0
XRECORD
  5
3D3
102
{ACAD_REACTORS
330
3D2
102
}
330
3D2
100
AcDbXrecord
280
     1
102
MATERIAL
148
0.0
149
0.0
149
0.0
 93
        0
 94
      127
282
     0
 72
     1
 77
     1
171
     1
175
     1
179
     1
273
     0
  0
XRECORD
  5
3D7
102
{ACAD_REACTORS
330
3D6
102
}
330
3D6
100
AcDbXrecord
280
     1
102
MATERIAL
148
0.0
149
0.0
149
0.0
 93
        0
 94
      127
282
     0
 72
     1
 77
     1
171
     1
175
     1
179
     1
273
     0
  0
CELLSTYLEMAP
  5
10E8
102
{ACAD_REACTORS
330
9AF
102
}
330
9AF
100
AcDbCellStyleMap
 90
        3
300
CELLSTYLE
  1
TABLEFORMAT_BEGIN
 90
        5
170
     1
 91
        0
 92
    32768
 62
   257
 93
        1
300
CONTENTFORMAT
  1
CONTENTFORMAT_BEGIN
 90
        0
 91
        0
 92
      512
 93
        0
300

 40
0.0
140
1.0
 94
        5
 62
     0
340
26
144
0.25
309
CONTENTFORMAT_END
171
     1
301
MARGIN
  1
CELLMARGIN_BEGIN
 40
0.06
 40
0.06
 40
0.06
 40
0.06
 40
0.18
 40
0.18
309
CELLMARGIN_END
 94
        6
 95
        1
302
GRIDFORMAT
  1
GRIDFORMAT_BEGIN
 90
        0
 91
        1
 62
     0
 92
       -2
340
0
 93
        0
 40
0.045
309
GRIDFORMAT_END
 95
        2
302
GRIDFORMAT
  1
GRIDFORMAT_BEGIN
 90
        0
 91
        1
 62
     0
 92
       -2
340
0
 93
        0
 40
0.045
309
GRIDFORMAT_END
 95
        4
302
GRIDFORMAT
  1
GRIDFORMAT_BEGIN
 90
        0
 91
        1
 62
     0
 92
       -2
340
0
 93
        0
 40
0.045
309
GRIDFORMAT_END
 95
        8
302
GRIDFORMAT
  1
GRIDFORMAT_BEGIN
 90
        0
 91
        1
 62
     0
 92
       -2
340
0
 93
        0
 40
0.045
309
GRIDFORMAT_END
 95
       16
302
GRIDFORMAT
  1
GRIDFORMAT_BEGIN
 90
        0
 91
        1
 62
     0
 92
       -2
340
0
 93
        0
 40
0.045
309
GRIDFORMAT_END
 95
       32
302
GRIDFORMAT
  1
GRIDFORMAT_BEGIN
 90
        0
 91
        1
 62
     0
 92
       -2
340
0
 93
        0
 40
0.045
309
GRIDFORMAT_END
309
TABLEFORMAT_END
  1
CELLSTYLE_BEGIN
 90
        1
 91
        1
300
_TITLE
309
CELLSTYLE_END
300
CELLSTYLE
  1
TABLEFORMAT_BEGIN
 90
        5
170
     1
 91
        0
 92
        0
 62
   257
 93
        1
300
CONTENTFORMAT
  1
CONTENTFORMAT_BEGIN
 90
        0
 91
        0
 92
      512
 93
        0
300

 40
0.0
140
1.0
 94
        5
 62
     0
340
26
144
0.18
309
CONTENTFORMAT_END
171
     1
301
MARGIN
  1
CELLMARGIN_BEGIN
 40
0.06
 40
0.06
 40
0.06
 40
0.06
 40
0.18
 40
0.18
309
CELLMARGIN_END
 94
        6
 95
        1
302
GRIDFORMAT
  1
GRIDFORMAT_BEGIN
 90
        0
 91
        1
 62
     0
 92
       -2
340
0
 93
        0
 40
0.045
309
GRIDFORMAT_END
 95
        2
302
GRIDFORMAT
  1
GRIDFORMAT_BEGIN
 90
        0
 91
        1
 62
     0
 92
       -2
340
0
 93
        0
 40
0.045
309
GRIDFORMAT_END
 95
        4
302
GRIDFORMAT
  1
GRIDFORMAT_BEGIN
 90
        0
 91
        1
 62
     0
 92
       -2
340
0
 93
        0
 40
0.045
309
GRIDFORMAT_END
 95
        8
302
GRIDFORMAT
  1
GRIDFORMAT_BEGIN
 90
        0
 91
        1
 62
     0
 92
       -2
340
0
 93
        0
 40
0.045
309
GRIDFORMAT_END
 95
       16
302
GRIDFORMAT
  1
GRIDFORMAT_BEGIN
 90
        0
 91
        1
 62
     0
 92
       -2
340
0
 93
        0
 40
0.045
309
GRIDFORMAT_END
 95
       32
302
GRIDFORMAT
  1
GRIDFORMAT_BEGIN
 90
        0
 91
        1
 62
     0
 92
       -2
340
0
 93
        0
 40
0.045
309
GRIDFORMAT_END
309
TABLEFORMAT_END
  1
CELLSTYLE_BEGIN
 90
        2
 91
        1
300
_HEADER
309
CELLSTYLE_END
300
CELLSTYLE
  1
TABLEFORMAT_BEGIN
 90
        5
170
     1
 91
        0
 92
        0
 62
   257
 93
        1
300
CONTENTFORMAT
  1
CONTENTFORMAT_BEGIN
 90
        0
 91
        0
 92
      512
 93
        0
300

 40
0.0
140
1.0
 94
        2
 62
     0
340
26
144
0.18
309
CONTENTFORMAT_END
171
     1
301
MARGIN
  1
CELLMARGIN_BEGIN
 40
0.06
 40
0.06
 40
0.06
 40
0.06
 40
0.18
 40
0.18
309
CELLMARGIN_END
 94
        6
 95
        1
302
GRIDFORMAT
  1
GRIDFORMAT_BEGIN
 90
        0
 91
        1
 62
     0
 92
       -2
340
0
 93
        0
 40
0.045
309
GRIDFORMAT_END
 95
        2
302
GRIDFORMAT
  1
GRIDFORMAT_BEGIN
 90
        0
 91
        1
 62
     0
 92
       -2
340
0
 93
        0
 40
0.045
309
GRIDFORMAT_END
 95
        4
302
GRIDFORMAT
  1
GRIDFORMAT_BEGIN
 90
        0
 91
        1
 62
     0
 92
       -2
340
0
 93
        0
 40
0.045
309
GRIDFORMAT_END
 95
        8
302
GRIDFORMAT
  1
GRIDFORMAT_BEGIN
 90
        0
 91
        1
 62
     0
 92
       -2
340
0
 93
        0
 40
0.045
309
GRIDFORMAT_END
 95
       16
302
GRIDFORMAT
  1
GRIDFORMAT_BEGIN
 90
        0
 91
        1
 62
     0
 92
       -2
340
0
 93
        0
 40
0.045
309
GRIDFORMAT_END
 95
       32
302
GRIDFORMAT
  1
GRIDFORMAT_BEGIN
 90
        0
 91
        1
 62
     0
 92
       -2
340
0
 93
        0
 40
0.045
309
GRIDFORMAT_END
309
TABLEFORMAT_END
  1
CELLSTYLE_BEGIN
 90
        3
 91
        2
300
_DATA
309
CELLSTYLE_END
  0
XRECORD
  5
110F
102
{ACAD_REACTORS
330
9AF
102
}
330
9AF
100
AcDbXrecord
280
     1
102
ACAD_ROUNDTRIP_PRE2007_TABLESTYLE
 90
      512
 91
        0
  1

 92
      512
 93
        0
  2

 94
      512
 95
        0
  3

  0
XRECORD
  5
10FA
102
{ACAD_REACTORS
330
10F9
102
}
330
10F9
100
AcDbXrecord
280
     1
102
RTVSPropertyOp0
 70
     1
102
RTVSPropertyOp1
 70
     1
102
RTVSPropertyOp2
 70
     1
102
RTVSPropertyOp3
 70
     1
102
RTVSPropertyOp4
 70
     1
102
RTVSPropertyOp5
 70
     1
102
RTVSPropertyOp6
 70
     1
102
RTVSPropertyOp7
 70
     1
102
RTVSPropertyOp8
 70
     1
102
RTVSPropertyOp9
 70
     1
102
RTVSPropertyOp10
 70
     1
102
RTVSPropertyOp11
 70
     1
102
RTVSPropertyOp12
 70
     1
102
RTVSPropertyOp13
 70
     1
102
RTVSPropertyOp14
 70
     1
102
RTVSPropertyOp15
 70
     1
102
RTVSPropertyOp16
 70
     1
102
RTVSPropertyOp17
 70
     1
102
RTVSPropertyOp18
 70
     1
102
RTVSPropertyOp19
 70
     1
102
RTVSPropertyOp20
 70
     1
102
RTVSPropertyOp21
 70
     1
102
RTVSPropertyOp22
 70
     1
102
RTVSPropertyOp23
 70
     1
102
RTVSPropertyOp24
 70
     1
102
RTVSPropertyOp25
 70
     1
102
RTVSPropertyOp26
 70
     1
102
RTVSPropertyOp27
 70
     1
102
RTVSPropertyOp28
 70
     1
102
RTVSPropertyOp29
 70
     1
102
RTVSPropertyOp30
 70
     1
102
RTVSPropertyOp31
 70
     1
102
RTVSPropertyOp32
 70
     1
  0
XRECORD
  5
10FE
102
{ACAD_REACTORS
330
10FD
102
}
330
10FD
100
AcDbXrecord
280
     1
102
RTVSPropertyOp0
 70
     1
102
RTVSPropertyOp1
 70
     1
102
RTVSPropertyOp2
 70
     1
102
RTVSPropertyOp3
 70
     1
102
RTVSPropertyOp4
 70
     1
102
RTVSPropertyOp5
 70
     1
102
RTVSPropertyOp6
 70
     1
102
RTVSPropertyOp7
 70
     1
102
RTVSPropertyOp8
 70
     1
102
RTVSPropertyOp9
 70
     1
102
RTVSPropertyOp10
 70
     1
102
RTVSPropertyOp11
 70
     1
102
RTVSPropertyOp12
 70
     1
102
RTVSPropertyOp13
 70
     1
102
RTVSPropertyOp14
 70
     1
102
RTVSPropertyOp15
 70
     1
102
RTVSPropertyOp16
 70
     1
102
RTVSPropertyOp17
 70
     1
102
RTVSPropertyOp18
 70
     1
102
RTVSPropertyOp19
 70
     1
102
RTVSPropertyOp20
 70
     1
102
RTVSPropertyOp21
 70
     1
102
RTVSPropertyOp22
 70
     1
102
RTVSPropertyOp23
 70
     1
102
RTVSPropertyOp24
 70
     1
102
RTVSPropertyOp25
 70
     1
102
RTVSPropertyOp26
 70
     1
102
RTVSPropertyOp27
 70
     1
102
RTVSPropertyOp28
 70
     1
102
RTVSPropertyOp29
 70
     1
102
RTVSPropertyOp30
 70
     1
102
RTVSPropertyOp31
 70
     1
102
RTVSPropertyOp32
 70
     1
  0
XRECORD
  5
10FC
102
{ACAD_REACTORS
330
10FB
102
}
330
10FB
100
AcDbXrecord
280
     1
102
RTVSPropertyOp0
 70
     1
102
RTVSPropertyOp1
 70
     1
102
RTVSPropertyOp2
 70
     1
102
RTVSPropertyOp3
 70
     1
102
RTVSPropertyOp4
 70
     1
102
RTVSPropertyOp5
 70
     1
102
RTVSPropertyOp6
 70
     1
102
RTVSPropertyOp7
 70
     1
102
RTVSPropertyOp8
 70
     1
102
RTVSPropertyOp9
 70
     1
102
RTVSPropertyOp10
 70
     1
102
RTVSPropertyOp11
 70
     1
102
RTVSPropertyOp12
 70
     1
102
RTVSPropertyOp13
 70
     1
102
RTVSPropertyOp14
 70
     1
102
RTVSPropertyOp15
 70
     1
102
RTVSPropertyOp16
 70
     1
102
RTVSPropertyOp17
 70
     1
102
RTVSPropertyOp18
 70
     1
102
RTVSPropertyOp19
 70
     1
102
RTVSPropertyOp20
 70
     1
102
RTVSPropertyOp21
 70
     1
102
RTVSPropertyOp22
 70
     1
102
RTVSPropertyOp23
 70
     1
102
RTVSPropertyOp24
 70
     1
102
RTVSPropertyOp25
 70
     1
102
RTVSPropertyOp26
 70
     1
102
RTVSPropertyOp27
 70
     1
102
RTVSPropertyOp28
 70
     1
102
RTVSPropertyOp29
 70
     1
102
RTVSPropertyOp30
 70
     1
102
RTVSPropertyOp31
 70
     1
102
RTVSPropertyOp32
 70
     1
  0
XRECORD
  5
10F8
102
{ACAD_REACTORS
330
10F7
102
}
330
10F7
100
AcDbXrecord
280
     1
102
RTVSPropertyOp0
 70
     1
102
RTVSPropertyOp1
 70
     1
102
RTVSPropertyOp2
 70
     1
102
RTVSPropertyOp3
 70
     1
102
RTVSPropertyOp4
 70
     1
102
RTVSPropertyOp5
 70
     1
102
RTVSPropertyOp6
 70
     1
102
RTVSPropertyOp7
 70
     1
102
RTVSPropertyOp8
 70
     1
102
RTVSPropertyOp9
 70
     1
102
RTVSPropertyOp10
 70
     1
102
RTVSPropertyOp11
 70
     1
102
RTVSPropertyOp12
 70
     1
102
RTVSPropertyOp13
 70
     1
102
RTVSPropertyOp14
 70
     1
102
RTVSPropertyOp15
 70
     1
102
RTVSPropertyOp16
 70
     1
102
RTVSPropertyOp17
 70
     1
102
RTVSPropertyOp18
 70
     1
102
RTVSPropertyOp19
 70
     1
102
RTVSPropertyOp20
 70
     1
102
RTVSPropertyOp21
 70
     1
102
RTVSPropertyOp22
 70
     1
102
RTVSPropertyOp23
 70
     1
102
RTVSPropertyOp24
 70
     1
102
RTVSPropertyOp25
 70
     1
102
RTVSPropertyOp26
 70
     1
102
RTVSPropertyOp27
 70
     1
102
RTVSPropertyOp28
 70
     1
102
RTVSPropertyOp29
 70
     1
102
RTVSPropertyOp30
 70
     1
102
RTVSPropertyOp31
 70
     1
102
RTVSPropertyOp32
 70
     1
  0
XRECORD
  5
1106
102
{ACAD_REACTORS
330
1105
102
}
330
1105
100
AcDbXrecord
280
     1
102
RTVSPropertyOp0
 70
     1
102
RTVSPropertyOp1
 70
     1
102
RTVSPropertyOp2
 70
     1
102
RTVSPropertyOp3
 70
     1
102
RTVSPropertyOp4
 70
     1
102
RTVSPropertyOp5
 70
     1
102
RTVSPropertyOp6
 70
     1
102
RTVSPropertyOp7
 70
     1
102
RTVSPropertyOp8
 70
     1
102
RTVSPropertyOp9
 70
     1
102
RTVSPropertyOp10
 70
     1
102
RTVSPropertyOp11
 70
     1
102
RTVSPropertyOp12
 70
     1
102
RTVSPropertyOp13
 70
     1
102
RTVSPropertyOp14
 70
     1
102
RTVSPropertyOp15
 70
     1
102
RTVSPropertyOp16
 70
     1
102
RTVSPropertyOp17
 70
     1
102
RTVSPropertyOp18
 70
     1
102
RTVSPropertyOp19
 70
     1
102
RTVSPropertyOp20
 70
     1
102
RTVSPropertyOp21
 70
     1
102
RTVSPropertyOp22
 70
     1
102
RTVSPropertyOp23
 70
     1
102
RTVSPropertyOp24
 70
     1
102
RTVSPropertyOp25
 70
     1
102
RTVSPropertyOp26
 70
     1
102
RTVSPropertyOp27
 70
     1
102
RTVSPropertyOp28
 70
     1
102
RTVSPropertyOp29
 70
     1
102
RTVSPropertyOp30
 70
     1
102
RTVSPropertyOp31
 70
     1
102
RTVSPropertyOp32
 70
     1
  0
XRECORD
  5
110E
102
{ACAD_REACTORS
330
110D
102
}
330
110D
100
AcDbXrecord
280
     1
102
RTVSPropertyOp0
 70
     1
102
RTVSPropertyOp1
 70
     1
102
RTVSPropertyOp2
 70
     1
102
RTVSPropertyOp3
 70
     1
102
RTVSPropertyOp4
 70
     1
102
RTVSPropertyOp5
 70
     1
102
RTVSPropertyOp6
 70
     1
102
RTVSPropertyOp7
 70
     1
102
RTVSPropertyOp8
 70
     1
102
RTVSPropertyOp9
 70
     1
102
RTVSPropertyOp10
 70
     1
102
RTVSPropertyOp11
 70
     1
102
RTVSPropertyOp12
 70
     1
102
RTVSPropertyOp13
 70
     1
102
RTVSPropertyOp14
 70
     1
102
RTVSPropertyOp15
 70
     1
102
RTVSPropertyOp16
 70
     1
102
RTVSPropertyOp17
 70
     1
102
RTVSPropertyOp18
 70
     1
102
RTVSPropertyOp19
 70
     1
102
RTVSPropertyOp20
 70
     1
102
RTVSPropertyOp21
 70
     1
102
RTVSPropertyOp22
 70
     1
102
RTVSPropertyOp23
 70
     1
102
RTVSPropertyOp24
 70
     1
102
RTVSPropertyOp25
 70
     1
102
RTVSPropertyOp26
 70
     1
102
RTVSPropertyOp27
 70
     1
102
RTVSPropertyOp28
 70
     1
102
RTVSPropertyOp29
 70
     1
102
RTVSPropertyOp30
 70
     1
102
RTVSPropertyOp31
 70
     1
102
RTVSPropertyOp32
 70
     1
  0
XRECORD
  5
1100
102
{ACAD_REACTORS
330
10FF
102
}
330
10FF
100
AcDbXrecord
280
     1
102
RTVSPropertyOp0
 70
     1
102
RTVSPropertyOp1
 70
     1
102
RTVSPropertyOp2
 70
     1
102
RTVSPropertyOp3
 70
     1
102
RTVSPropertyOp4
 70
     1
102
RTVSPropertyOp5
 70
     1
102
RTVSPropertyOp6
 70
     1
102
RTVSPropertyOp7
 70
     1
102
RTVSPropertyOp8
 70
     1
102
RTVSPropertyOp9
 70
     1
102
RTVSPropertyOp10
 70
     1
102
RTVSPropertyOp11
 70
     1
102
RTVSPropertyOp12
 70
     1
102
RTVSPropertyOp13
 70
     1
102
RTVSPropertyOp14
 70
     1
102
RTVSPropertyOp15
 70
     1
102
RTVSPropertyOp16
 70
     1
102
RTVSPropertyOp17
 70
     1
102
RTVSPropertyOp18
 70
     1
102
RTVSPropertyOp19
 70
     1
102
RTVSPropertyOp20
 70
     1
102
RTVSPropertyOp21
 70
     1
102
RTVSPropertyOp22
 70
     1
102
RTVSPropertyOp23
 70
     1
102
RTVSPropertyOp24
 70
     1
102
RTVSPropertyOp25
 70
     1
102
RTVSPropertyOp26
 70
     1
102
RTVSPropertyOp27
 70
     1
102
RTVSPropertyOp28
 70
     1
102
RTVSPropertyOp29
 70
     1
102
RTVSPropertyOp30
 70
     1
102
RTVSPropertyOp31
 70
     1
102
RTVSPropertyOp32
 70
     1
  0
XRECORD
  5
1104
102
{ACAD_REACTORS
330
1103
102
}
330
1103
100
AcDbXrecord
280
     1
102
RTVSPropertyOp0
 70
     1
102
RTVSPropertyOp1
 70
     1
102
RTVSPropertyOp2
 70
     1
102
RTVSPropertyOp3
 70
     1
102
RTVSPropertyOp4
 70
     1
102
RTVSPropertyOp5
 70
     1
102
RTVSPropertyOp6
 70
     1
102
RTVSPropertyOp7
 70
     1
102
RTVSPropertyOp8
 70
     1
102
RTVSPropertyOp9
 70
     1
102
RTVSPropertyOp10
 70
     1
102
RTVSPropertyOp11
 70
     1
102
RTVSPropertyOp12
 70
     1
102
RTVSPropertyOp13
 70
     1
102
RTVSPropertyOp14
 70
     1
102
RTVSPropertyOp15
 70
     1
102
RTVSPropertyOp16
 70
     1
102
RTVSPropertyOp17
 70
     1
102
RTVSPropertyOp18
 70
     1
102
RTVSPropertyOp19
 70
     1
102
RTVSPropertyOp20
 70
     1
102
RTVSPropertyOp21
 70
     1
102
RTVSPropertyOp22
 70
     1
102
RTVSPropertyOp23
 70
     1
102
RTVSPropertyOp24
 70
     1
102
RTVSPropertyOp25
 70
     1
102
RTVSPropertyOp26
 70
     1
102
RTVSPropertyOp27
 70
     1
102
RTVSPropertyOp28
 70
     1
102
RTVSPropertyOp29
 70
     1
102
RTVSPropertyOp30
 70
     1
102
RTVSPropertyOp31
 70
     1
102
RTVSPropertyOp32
 70
     1
  0
XRECORD
  5
1127
102
{ACAD_REACTORS
330
1126
102
}
330
1126
100
AcDbXrecord
280
     1
102
RTVSPropertyOp0
 70
     0
102
RTVSPropertyOp1
 70
     0
102
RTVSPropertyOp2
 70
     0
102
RTVSPropertyOp3
 70
     0
102
RTVSPropertyOp4
 70
     0
102
RTVSPropertyOp5
 70
     0
102
RTVSPropertyOp6
 70
     0
102
RTVSPropertyOp7
 70
     0
102
RTVSPropertyOp8
 70
     0
102
RTVSPropertyOp9
 70
     0
102
RTVSPropertyOp10
 70
     0
102
RTVSPropertyOp11
 70
     0
102
RTVSPropertyOp12
 70
     0
102
RTVSPropertyOp13
 70
     0
102
RTVSPropertyOp14
 70
     2
102
RTVSPropertyOp15
 70
     0
102
RTVSPropertyOp16
 70
     0
102
RTVSPropertyOp17
 70
     0
102
RTVSPropertyOp18
 70
     0
102
RTVSPropertyOp19
 70
     0
102
RTVSPropertyOp20
 70
     0
102
RTVSPropertyOp21
 70
     0
102
RTVSPropertyOp22
 70
     0
102
RTVSPropertyOp23
 70
     0
102
RTVSPropertyOp24
 70
     0
102
RTVSPropertyOp25
 70
     0
102
RTVSPropertyOp26
 70
     0
102
RTVSPropertyOp27
 70
     0
102
RTVSPropertyOp28
 70
     0
102
RTVSPropertyOp29
 70
     0
102
RTVSPropertyOp30
 70
     0
102
RTVSPropertyOp31
 70
     0
102
RTVSPropertyOp32
 70
     0
  0
XRECORD
  5
110C
102
{ACAD_REACTORS
330
110B
102
}
330
110B
100
AcDbXrecord
280
     1
102
RTVSPropertyOp0
 70
     1
102
RTVSPropertyOp1
 70
     1
102
RTVSPropertyOp2
 70
     1
102
RTVSPropertyOp3
 70
     1
102
RTVSPropertyOp4
 70
     1
102
RTVSPropertyOp5
 70
     1
102
RTVSPropertyOp6
 70
     1
102
RTVSPropertyOp7
 70
     1
102
RTVSPropertyOp8
 70
     1
102
RTVSPropertyOp9
 70
     1
102
RTVSPropertyOp10
 70
     1
102
RTVSPropertyOp11
 70
     1
102
RTVSPropertyOp12
 70
     1
102
RTVSPropertyOp13
 70
     1
102
RTVSPropertyOp14
 70
     1
102
RTVSPropertyOp15
 70
     1
102
RTVSPropertyOp16
 70
     1
102
RTVSPropertyOp17
 70
     1
102
RTVSPropertyOp18
 70
     1
102
RTVSPropertyOp19
 70
     1
102
RTVSPropertyOp20
 70
     1
102
RTVSPropertyOp21
 70
     1
102
RTVSPropertyOp22
 70
     1
102
RTVSPropertyOp23
 70
     1
102
RTVSPropertyOp24
 70
     1
102
RTVSPropertyOp25
 70
     1
102
RTVSPropertyOp26
 70
     1
102
RTVSPropertyOp27
 70
     1
102
RTVSPropertyOp28
 70
     1
102
RTVSPropertyOp29
 70
     1
102
RTVSPropertyOp30
 70
     1
102
RTVSPropertyOp31
 70
     1
102
RTVSPropertyOp32
 70
     1
  0
XRECORD
  5
10F0
102
{ACAD_REACTORS
330
10EF
102
}
330
10EF
100
AcDbXrecord
280
     1
102
RTVSPropertyOp0
 70
     1
102
RTVSPropertyOp1
 70
     1
102
RTVSPropertyOp2
 70
     1
102
RTVSPropertyOp3
 70
     1
102
RTVSPropertyOp4
 70
     1
102
RTVSPropertyOp5
 70
     1
102
RTVSPropertyOp6
 70
     1
102
RTVSPropertyOp7
 70
     1
102
RTVSPropertyOp8
 70
     1
102
RTVSPropertyOp9
 70
     1
102
RTVSPropertyOp10
 70
     1
102
RTVSPropertyOp11
 70
     1
102
RTVSPropertyOp12
 70
     1
102
RTVSPropertyOp13
 70
     1
102
RTVSPropertyOp14
 70
     1
102
RTVSPropertyOp15
 70
     1
102
RTVSPropertyOp16
 70
     1
102
RTVSPropertyOp17
 70
     1
102
RTVSPropertyOp18
 70
     1
102
RTVSPropertyOp19
 70
     1
102
RTVSPropertyOp20
 70
     1
102
RTVSPropertyOp21
 70
     1
102
RTVSPropertyOp22
 70
     1
102
RTVSPropertyOp23
 70
     1
102
RTVSPropertyOp24
 70
     1
102
RTVSPropertyOp25
 70
     1
102
RTVSPropertyOp26
 70
     1
102
RTVSPropertyOp27
 70
     1
102
RTVSPropertyOp28
 70
     1
102
RTVSPropertyOp29
 70
     1
102
RTVSPropertyOp30
 70
     1
102
RTVSPropertyOp31
 70
     1
102
RTVSPropertyOp32
 70
     1
  0
XRECORD
  5
10F2
102
{ACAD_REACTORS
330
10F1
102
}
330
10F1
100
AcDbXrecord
280
     1
102
RTVSPropertyOp0
 70
     1
102
RTVSPropertyOp1
 70
     1
102
RTVSPropertyOp2
 70
     1
102
RTVSPropertyOp3
 70
     1
102
RTVSPropertyOp4
 70
     1
102
RTVSPropertyOp5
 70
     1
102
RTVSPropertyOp6
 70
     1
102
RTVSPropertyOp7
 70
     1
102
RTVSPropertyOp8
 70
     1
102
RTVSPropertyOp9
 70
     1
102
RTVSPropertyOp10
 70
     1
102
RTVSPropertyOp11
 70
     1
102
RTVSPropertyOp12
 70
     1
102
RTVSPropertyOp13
 70
     1
102
RTVSPropertyOp14
 70
     1
102
RTVSPropertyOp15
 70
     1
102
RTVSPropertyOp16
 70
     1
102
RTVSPropertyOp17
 70
     1
102
RTVSPropertyOp18
 70
     1
102
RTVSPropertyOp19
 70
     1
102
RTVSPropertyOp20
 70
     1
102
RTVSPropertyOp21
 70
     1
102
RTVSPropertyOp22
 70
     1
102
RTVSPropertyOp23
 70
     1
102
RTVSPropertyOp24
 70
     1
102
RTVSPropertyOp25
 70
     1
102
RTVSPropertyOp26
 70
     1
102
RTVSPropertyOp27
 70
     1
102
RTVSPropertyOp28
 70
     1
102
RTVSPropertyOp29
 70
     1
102
RTVSPropertyOp30
 70
     1
102
RTVSPropertyOp31
 70
     1
102
RTVSPropertyOp32
 70
     1
  0
XRECORD
  5
10F4
102
{ACAD_REACTORS
330
10F3
102
}
330
10F3
100
AcDbXrecord
280
     1
102
RTVSPropertyOp0
 70
     1
102
RTVSPropertyOp1
 70
     1
102
RTVSPropertyOp2
 70
     1
102
RTVSPropertyOp3
 70
     1
102
RTVSPropertyOp4
 70
     1
102
RTVSPropertyOp5
 70
     1
102
RTVSPropertyOp6
 70
     1
102
RTVSPropertyOp7
 70
     1
102
RTVSPropertyOp8
 70
     1
102
RTVSPropertyOp9
 70
     1
102
RTVSPropertyOp10
 70
     1
102
RTVSPropertyOp11
 70
     1
102
RTVSPropertyOp12
 70
     1
102
RTVSPropertyOp13
 70
     1
102
RTVSPropertyOp14
 70
     1
102
RTVSPropertyOp15
 70
     1
102
RTVSPropertyOp16
 70
     1
102
RTVSPropertyOp17
 70
     1
102
RTVSPropertyOp18
 70
     1
102
RTVSPropertyOp19
 70
     1
102
RTVSPropertyOp20
 70
     1
102
RTVSPropertyOp21
 70
     1
102
RTVSPropertyOp22
 70
     1
102
RTVSPropertyOp23
 70
     1
102
RTVSPropertyOp24
 70
     1
102
RTVSPropertyOp25
 70
     1
102
RTVSPropertyOp26
 70
     1
102
RTVSPropertyOp27
 70
     1
102
RTVSPropertyOp28
 70
     1
102
RTVSPropertyOp29
 70
     1
102
RTVSPropertyOp30
 70
     1
102
RTVSPropertyOp31
 70
     1
102
RTVSPropertyOp32
 70
     1
  0
XRECORD
  5
10F6
102
{ACAD_REACTORS
330
10F5
102
}
330
10F5
100
AcDbXrecord
280
     1
102
RTVSPropertyOp0
 70
     1
102
RTVSPropertyOp1
 70
     1
102
RTVSPropertyOp2
 70
     1
102
RTVSPropertyOp3
 70
     1
102
RTVSPropertyOp4
 70
     1
102
RTVSPropertyOp5
 70
     1
102
RTVSPropertyOp6
 70
     1
102
RTVSPropertyOp7
 70
     1
102
RTVSPropertyOp8
 70
     1
102
RTVSPropertyOp9
 70
     1
102
RTVSPropertyOp10
 70
     1
102
RTVSPropertyOp11
 70
     1
102
RTVSPropertyOp12
 70
     1
102
RTVSPropertyOp13
 70
     1
102
RTVSPropertyOp14
 70
     1
102
RTVSPropertyOp15
 70
     1
102
RTVSPropertyOp16
 70
     1
102
RTVSPropertyOp17
 70
     1
102
RTVSPropertyOp18
 70
     1
102
RTVSPropertyOp19
 70
     1
102
RTVSPropertyOp20
 70
     1
102
RTVSPropertyOp21
 70
     1
102
RTVSPropertyOp22
 70
     1
102
RTVSPropertyOp23
 70
     1
102
RTVSPropertyOp24
 70
     1
102
RTVSPropertyOp25
 70
     1
102
RTVSPropertyOp26
 70
     1
102
RTVSPropertyOp27
 70
     1
102
RTVSPropertyOp28
 70
     1
102
RTVSPropertyOp29
 70
     1
102
RTVSPropertyOp30
 70
     1
102
RTVSPropertyOp31
 70
     1
102
RTVSPropertyOp32
 70
     1
  0
XRECORD
  5
1117
102
{ACAD_REACTORS
330
1116
102
}
330
1116
100
AcDbXrecord
280
     1
102
RTVSPropertyOp0
 70
     1
102
RTVSPropertyOp1
 70
     1
102
RTVSPropertyOp2
 70
     1
102
RTVSPropertyOp3
 70
     1
102
RTVSPropertyOp4
 70
     1
102
RTVSPropertyOp5
 70
     1
102
RTVSPropertyOp6
 70
     1
102
RTVSPropertyOp7
 70
     1
102
RTVSPropertyOp8
 70
     1
102
RTVSPropertyOp9
 70
     1
102
RTVSPropertyOp10
 70
     1
102
RTVSPropertyOp11
 70
     1
102
RTVSPropertyOp12
 70
     1
102
RTVSPropertyOp13
 70
     1
102
RTVSPropertyOp14
 70
     1
102
RTVSPropertyOp15
 70
     1
102
RTVSPropertyOp16
 70
     1
102
RTVSPropertyOp17
 70
     1
102
RTVSPropertyOp18
 70
     1
102
RTVSPropertyOp19
 70
     1
102
RTVSPropertyOp20
 70
     1
102
RTVSPropertyOp21
 70
     1
102
RTVSPropertyOp22
 70
     1
102
RTVSPropertyOp23
 70
     1
102
RTVSPropertyOp24
 70
     1
102
RTVSPropertyOp25
 70
     1
102
RTVSPropertyOp26
 70
     1
102
RTVSPropertyOp27
 70
     1
102
RTVSPropertyOp28
 70
     1
102
RTVSPropertyOp29
 70
     1
102
RTVSPropertyOp30
 70
     1
102
RTVSPropertyOp31
 70
     1
102
RTVSPropertyOp32
 70
     1
  0
XRECORD
  5
1123
102
{ACAD_REACTORS
330
1122
102
}
330
1122
100
AcDbXrecord
280
     1
102
RTVSPropertyOp0
 70
     0
102
RTVSPropertyOp1
 70
     0
102
RTVSPropertyOp2
 70
     0
102
RTVSPropertyOp3
 70
     0
102
RTVSPropertyOp4
 70
     0
102
RTVSPropertyOp5
 70
     0
102
RTVSPropertyOp6
 70
     0
102
RTVSPropertyOp7
 70
     0
102
RTVSPropertyOp8
 70
     0
102
RTVSPropertyOp9
 70
     0
102
RTVSPropertyOp10
 70
     0
102
RTVSPropertyOp11
 70
     0
102
RTVSPropertyOp12
 70
     0
102
RTVSPropertyOp13
 70
     0
102
RTVSPropertyOp14
 70
     2
102
RTVSPropertyOp15
 70
     0
102
RTVSPropertyOp16
 70
     0
102
RTVSPropertyOp17
 70
     0
102
RTVSPropertyOp18
 70
     0
102
RTVSPropertyOp19
 70
     0
102
RTVSPropertyOp20
 70
     0
102
RTVSPropertyOp21
 70
     0
102
RTVSPropertyOp22
 70
     0
102
RTVSPropertyOp23
 70
     0
102
RTVSPropertyOp24
 70
     0
102
RTVSPropertyOp25
 70
     0
102
RTVSPropertyOp26
 70
     0
102
RTVSPropertyOp27
 70
     0
102
RTVSPropertyOp28
 70
     0
102
RTVSPropertyOp29
 70
     0
102
RTVSPropertyOp30
 70
     0
102
RTVSPropertyOp31
 70
     0
102
RTVSPropertyOp32
 70
     0
  0
XRECORD
  5
110A
102
{ACAD_REACTORS
330
1109
102
}
330
1109
100
AcDbXrecord
280
     1
102
RTVSPropertyOp0
 70
     1
102
RTVSPropertyOp1
 70
     1
102
RTVSPropertyOp2
 70
     1
102
RTVSPropertyOp3
 70
     1
102
RTVSPropertyOp4
 70
     1
102
RTVSPropertyOp5
 70
     1
102
RTVSPropertyOp6
 70
     1
102
RTVSPropertyOp7
 70
     1
102
RTVSPropertyOp8
 70
     1
102
RTVSPropertyOp9
 70
     1
102
RTVSPropertyOp10
 70
     1
102
RTVSPropertyOp11
 70
     1
102
RTVSPropertyOp12
 70
     1
102
RTVSPropertyOp13
 70
     1
102
RTVSPropertyOp14
 70
     1
102
RTVSPropertyOp15
 70
     1
102
RTVSPropertyOp16
 70
     1
102
RTVSPropertyOp17
 70
     1
102
RTVSPropertyOp18
 70
     1
102
RTVSPropertyOp19
 70
     1
102
RTVSPropertyOp20
 70
     1
102
RTVSPropertyOp21
 70
     1
102
RTVSPropertyOp22
 70
     1
102
RTVSPropertyOp23
 70
     1
102
RTVSPropertyOp24
 70
     1
102
RTVSPropertyOp25
 70
     1
102
RTVSPropertyOp26
 70
     1
102
RTVSPropertyOp27
 70
     1
102
RTVSPropertyOp28
 70
     1
102
RTVSPropertyOp29
 70
     1
102
RTVSPropertyOp30
 70
     1
102
RTVSPropertyOp31
 70
     1
102
RTVSPropertyOp32
 70
     1
  0
XRECORD
  5
1125
102
{ACAD_REACTORS
330
1124
102
}
330
1124
100
AcDbXrecord
280
     1
102
RTVSPropertyOp0
 70
     0
102
RTVSPropertyOp1
 70
     0
102
RTVSPropertyOp2
 70
     0
102
RTVSPropertyOp3
 70
     0
102
RTVSPropertyOp4
 70
     0
102
RTVSPropertyOp5
 70
     0
102
RTVSPropertyOp6
 70
     0
102
RTVSPropertyOp7
 70
     0
102
RTVSPropertyOp8
 70
     0
102
RTVSPropertyOp9
 70
     0
102
RTVSPropertyOp10
 70
     0
102
RTVSPropertyOp11
 70
     0
102
RTVSPropertyOp12
 70
     0
102
RTVSPropertyOp13
 70
     0
102
RTVSPropertyOp14
 70
     2
102
RTVSPropertyOp15
 70
     0
102
RTVSPropertyOp16
 70
     0
102
RTVSPropertyOp17
 70
     0
102
RTVSPropertyOp18
 70
     0
102
RTVSPropertyOp19
 70
     0
102
RTVSPropertyOp20
 70
     0
102
RTVSPropertyOp21
 70
     0
102
RTVSPropertyOp22
 70
     0
102
RTVSPropertyOp23
 70
     0
102
RTVSPropertyOp24
 70
     0
102
RTVSPropertyOp25
 70
     0
102
RTVSPropertyOp26
 70
     0
102
RTVSPropertyOp27
 70
     0
102
RTVSPropertyOp28
 70
     0
102
RTVSPropertyOp29
 70
     0
102
RTVSPropertyOp30
 70
     0
102
RTVSPropertyOp31
 70
     0
102
RTVSPropertyOp32
 70
     0
  0
XRECORD
  5
1102
102
{ACAD_REACTORS
330
1101
102
}
330
1101
100
AcDbXrecord
280
     1
102
RTVSPropertyOp0
 70
     1
102
RTVSPropertyOp1
 70
     1
102
RTVSPropertyOp2
 70
     1
102
RTVSPropertyOp3
 70
     1
102
RTVSPropertyOp4
 70
     1
102
RTVSPropertyOp5
 70
     1
102
RTVSPropertyOp6
 70
     1
102
RTVSPropertyOp7
 70
     1
102
RTVSPropertyOp8
 70
     1
102
RTVSPropertyOp9
 70
     1
102
RTVSPropertyOp10
 70
     1
102
RTVSPropertyOp11
 70
     1
102
RTVSPropertyOp12
 70
     1
102
RTVSPropertyOp13
 70
     1
102
RTVSPropertyOp14
 70
     1
102
RTVSPropertyOp15
 70
     1
102
RTVSPropertyOp16
 70
     1
102
RTVSPropertyOp17
 70
     1
102
RTVSPropertyOp18
 70
     1
102
RTVSPropertyOp19
 70
     1
102
RTVSPropertyOp20
 70
     1
102
RTVSPropertyOp21
 70
     1
102
RTVSPropertyOp22
 70
     1
102
RTVSPropertyOp23
 70
     1
102
RTVSPropertyOp24
 70
     1
102
RTVSPropertyOp25
 70
     1
102
RTVSPropertyOp26
 70
     1
102
RTVSPropertyOp27
 70
     1
102
RTVSPropertyOp28
 70
     1
102
RTVSPropertyOp29
 70
     1
102
RTVSPropertyOp30
 70
     1
102
RTVSPropertyOp31
 70
     1
102
RTVSPropertyOp32
 70
     1
  0
XRECORD
  5
1121
102
{ACAD_REACTORS
330
1120
102
}
330
1120
100
AcDbXrecord
280
     1
102
RTVSPropertyOp0
 70
     1
102
RTVSPropertyOp1
 70
     1
102
RTVSPropertyOp2
 70
     1
102
RTVSPropertyOp3
 70
     1
102
RTVSPropertyOp4
 70
     1
102
RTVSPropertyOp5
 70
     1
102
RTVSPropertyOp6
 70
     1
102
RTVSPropertyOp7
 70
     1
102
RTVSPropertyOp8
 70
     1
102
RTVSPropertyOp9
 70
     1
102
RTVSPropertyOp10
 70
     1
102
RTVSPropertyOp11
 70
     1
102
RTVSPropertyOp12
 70
     1
102
RTVSPropertyOp13
 70
     1
102
RTVSPropertyOp14
 70
     1
102
RTVSPropertyOp15
 70
     1
102
RTVSPropertyOp16
 70
     1
102
RTVSPropertyOp17
 70
     1
102
RTVSPropertyOp18
 70
     1
102
RTVSPropertyOp19
 70
     1
102
RTVSPropertyOp20
 70
     1
102
RTVSPropertyOp21
 70
     1
102
RTVSPropertyOp22
 70
     1
102
RTVSPropertyOp23
 70
     1
102
RTVSPropertyOp24
 70
     1
102
RTVSPropertyOp25
 70
     1
102
RTVSPropertyOp26
 70
     1
102
RTVSPropertyOp27
 70
     1
102
RTVSPropertyOp28
 70
     1
102
RTVSPropertyOp29
 70
     1
102
RTVSPropertyOp30
 70
     1
102
RTVSPropertyOp31
 70
     1
102
RTVSPropertyOp32
 70
     1
  0
XRECORD
  5
111F
102
{ACAD_REACTORS
330
111E
102
}
330
111E
100
AcDbXrecord
280
     1
102
RTVSPropertyOp0
 70
     1
102
RTVSPropertyOp1
 70
     1
102
RTVSPropertyOp2
 70
     1
102
RTVSPropertyOp3
 70
     1
102
RTVSPropertyOp4
 70
     1
102
RTVSPropertyOp5
 70
     1
102
RTVSPropertyOp6
 70
     1
102
RTVSPropertyOp7
 70
     1
102
RTVSPropertyOp8
 70
     1
102
RTVSPropertyOp9
 70
     1
102
RTVSPropertyOp10
 70
     1
102
RTVSPropertyOp11
 70
     1
102
RTVSPropertyOp12
 70
     1
102
RTVSPropertyOp13
 70
     1
102
RTVSPropertyOp14
 70
     1
102
RTVSPropertyOp15
 70
     1
102
RTVSPropertyOp16
 70
     1
102
RTVSPropertyOp17
 70
     1
102
RTVSPropertyOp18
 70
     1
102
RTVSPropertyOp19
 70
     1
102
RTVSPropertyOp20
 70
     1
102
RTVSPropertyOp21
 70
     1
102
RTVSPropertyOp22
 70
     1
102
RTVSPropertyOp23
 70
     1
102
RTVSPropertyOp24
 70
     1
102
RTVSPropertyOp25
 70
     1
102
RTVSPropertyOp26
 70
     1
102
RTVSPropertyOp27
 70
     1
102
RTVSPropertyOp28
 70
     1
102
RTVSPropertyOp29
 70
     1
102
RTVSPropertyOp30
 70
     1
102
RTVSPropertyOp31
 70
     1
102
RTVSPropertyOp32
 70
     1
  0
XRECORD
  5
1119
102
{ACAD_REACTORS
330
1118
102
}
330
1118
100
AcDbXrecord
280
     1
102
RTVSPropertyOp0
 70
     1
102
RTVSPropertyOp1
 70
     1
102
RTVSPropertyOp2
 70
     1
102
RTVSPropertyOp3
 70
     1
102
RTVSPropertyOp4
 70
     1
102
RTVSPropertyOp5
 70
     1
102
RTVSPropertyOp6
 70
     1
102
RTVSPropertyOp7
 70
     1
102
RTVSPropertyOp8
 70
     1
102
RTVSPropertyOp9
 70
     1
102
RTVSPropertyOp10
 70
     1
102
RTVSPropertyOp11
 70
     1
102
RTVSPropertyOp12
 70
     1
102
RTVSPropertyOp13
 70
     1
102
RTVSPropertyOp14
 70
     1
102
RTVSPropertyOp15
 70
     1
102
RTVSPropertyOp16
 70
     1
102
RTVSPropertyOp17
 70
     1
102
RTVSPropertyOp18
 70
     1
102
RTVSPropertyOp19
 70
     1
102
RTVSPropertyOp20
 70
     1
102
RTVSPropertyOp21
 70
     1
102
RTVSPropertyOp22
 70
     1
102
RTVSPropertyOp23
 70
     1
102
RTVSPropertyOp24
 70
     1
102
RTVSPropertyOp25
 70
     1
102
RTVSPropertyOp26
 70
     1
102
RTVSPropertyOp27
 70
     1
102
RTVSPropertyOp28
 70
     1
102
RTVSPropertyOp29
 70
     1
102
RTVSPropertyOp30
 70
     1
102
RTVSPropertyOp31
 70
     1
102
RTVSPropertyOp32
 70
     1
  0
XRECORD
  5
111B
102
{ACAD_REACTORS
330
111A
102
}
330
111A
100
AcDbXrecord
280
     1
102
RTVSPropertyOp0
 70
     1
102
RTVSPropertyOp1
 70
     1
102
RTVSPropertyOp2
 70
     1
102
RTVSPropertyOp3
 70
     1
102
RTVSPropertyOp4
 70
     1
102
RTVSPropertyOp5
 70
     1
102
RTVSPropertyOp6
 70
     1
102
RTVSPropertyOp7
 70
     1
102
RTVSPropertyOp8
 70
     1
102
RTVSPropertyOp9
 70
     1
102
RTVSPropertyOp10
 70
     1
102
RTVSPropertyOp11
 70
     1
102
RTVSPropertyOp12
 70
     1
102
RTVSPropertyOp13
 70
     1
102
RTVSPropertyOp14
 70
     1
102
RTVSPropertyOp15
 70
     1
102
RTVSPropertyOp16
 70
     1
102
RTVSPropertyOp17
 70
     1
102
RTVSPropertyOp18
 70
     1
102
RTVSPropertyOp19
 70
     1
102
RTVSPropertyOp20
 70
     1
102
RTVSPropertyOp21
 70
     1
102
RTVSPropertyOp22
 70
     1
102
RTVSPropertyOp23
 70
     1
102
RTVSPropertyOp24
 70
     1
102
RTVSPropertyOp25
 70
     1
102
RTVSPropertyOp26
 70
     1
102
RTVSPropertyOp27
 70
     1
102
RTVSPropertyOp28
 70
     1
102
RTVSPropertyOp29
 70
     1
102
RTVSPropertyOp30
 70
     1
102
RTVSPropertyOp31
 70
     1
102
RTVSPropertyOp32
 70
     1
  0
XRECORD
  5
1108
102
{ACAD_REACTORS
330
1107
102
}
330
1107
100
AcDbXrecord
280
     1
102
RTVSPropertyOp0
 70
     1
102
RTVSPropertyOp1
 70
     1
102
RTVSPropertyOp2
 70
     1
102
RTVSPropertyOp3
 70
     1
102
RTVSPropertyOp4
 70
     1
102
RTVSPropertyOp5
 70
     1
102
RTVSPropertyOp6
 70
     1
102
RTVSPropertyOp7
 70
     1
102
RTVSPropertyOp8
 70
     1
102
RTVSPropertyOp9
 70
     1
102
RTVSPropertyOp10
 70
     1
102
RTVSPropertyOp11
 70
     1
102
RTVSPropertyOp12
 70
     1
102
RTVSPropertyOp13
 70
     1
102
RTVSPropertyOp14
 70
     1
102
RTVSPropertyOp15
 70
     1
102
RTVSPropertyOp16
 70
     1
102
RTVSPropertyOp17
 70
     1
102
RTVSPropertyOp18
 70
     1
102
RTVSPropertyOp19
 70
     1
102
RTVSPropertyOp20
 70
     1
102
RTVSPropertyOp21
 70
     1
102
RTVSPropertyOp22
 70
     1
102
RTVSPropertyOp23
 70
     1
102
RTVSPropertyOp24
 70
     1
102
RTVSPropertyOp25
 70
     1
102
RTVSPropertyOp26
 70
     1
102
RTVSPropertyOp27
 70
     1
102
RTVSPropertyOp28
 70
     1
102
RTVSPropertyOp29
 70
     1
102
RTVSPropertyOp30
 70
     1
102
RTVSPropertyOp31
 70
     1
102
RTVSPropertyOp32
 70
     1
  0
XRECORD
  5
1115
102
{ACAD_REACTORS
330
1114
102
}
330
1114
100
AcDbXrecord
280
     1
102
RTVSPropertyOp0
 70
     1
102
RTVSPropertyOp1
 70
     1
102
RTVSPropertyOp2
 70
     1
102
RTVSPropertyOp3
 70
     1
102
RTVSPropertyOp4
 70
     1
102
RTVSPropertyOp5
 70
     1
102
RTVSPropertyOp6
 70
     1
102
RTVSPropertyOp7
 70
     1
102
RTVSPropertyOp8
 70
     1
102
RTVSPropertyOp9
 70
     1
102
RTVSPropertyOp10
 70
     1
102
RTVSPropertyOp11
 70
     1
102
RTVSPropertyOp12
 70
     1
102
RTVSPropertyOp13
 70
     1
102
RTVSPropertyOp14
 70
     1
102
RTVSPropertyOp15
 70
     1
102
RTVSPropertyOp16
 70
     1
102
RTVSPropertyOp17
 70
     1
102
RTVSPropertyOp18
 70
     1
102
RTVSPropertyOp19
 70
     1
102
RTVSPropertyOp20
 70
     1
102
RTVSPropertyOp21
 70
     1
102
RTVSPropertyOp22
 70
     1
102
RTVSPropertyOp23
 70
     1
102
RTVSPropertyOp24
 70
     1
102
RTVSPropertyOp25
 70
     1
102
RTVSPropertyOp26
 70
     1
102
RTVSPropertyOp27
 70
     1
102
RTVSPropertyOp28
 70
     1
102
RTVSPropertyOp29
 70
     1
102
RTVSPropertyOp30
 70
     1
102
RTVSPropertyOp31
 70
     1
102
RTVSPropertyOp32
 70
     1
  0
XRECORD
  5
111D
102
{ACAD_REACTORS
330
111C
102
}
330
111C
100
AcDbXrecord
280
     1
102
RTVSPropertyOp0
 70
     1
102
RTVSPropertyOp1
 70
     1
102
RTVSPropertyOp2
 70
     1
102
RTVSPropertyOp3
 70
     1
102
RTVSPropertyOp4
 70
     1
102
RTVSPropertyOp5
 70
     1
102
RTVSPropertyOp6
 70
     1
102
RTVSPropertyOp7
 70
     1
102
RTVSPropertyOp8
 70
     1
102
RTVSPropertyOp9
 70
     1
102
RTVSPropertyOp10
 70
     1
102
RTVSPropertyOp11
 70
     1
102
RTVSPropertyOp12
 70
     1
102
RTVSPropertyOp13
 70
     1
102
RTVSPropertyOp14
 70
     1
102
RTVSPropertyOp15
 70
     1
102
RTVSPropertyOp16
 70
     1
102
RTVSPropertyOp17
 70
     1
102
RTVSPropertyOp18
 70
     1
102
RTVSPropertyOp19
 70
     1
102
RTVSPropertyOp20
 70
     1
102
RTVSPropertyOp21
 70
     1
102
RTVSPropertyOp22
 70
     1
102
RTVSPropertyOp23
 70
     1
102
RTVSPropertyOp24
 70
     1
102
RTVSPropertyOp25
 70
     1
102
RTVSPropertyOp26
 70
     1
102
RTVSPropertyOp27
 70
     1
102
RTVSPropertyOp28
 70
     1
102
RTVSPropertyOp29
 70
     1
102
RTVSPropertyOp30
 70
     1
102
RTVSPropertyOp31
 70
     1
102
RTVSPropertyOp32
 70
     1
  0
ENDSEC
  0
EOF
