  0
SECTION
  2
HEADER
  9
$ACADVER
  1
AC1015
  9
$ACADMAINTVER
 70
    20
  9
$DWGCODEPAGE
  3
ANSI_932
  9
$INSBASE
 10
0.0
 20
0.0
 30
0.0
  9
$EXTMIN
 10
847.3479684730744
 20
-84.85577658896835
 30
-0.0015258207003583
  9
$EXTMAX
 10
1625.776372237267
 20
258.6164330764437
 30
0.0000000349246037
  9
$LIMMIN
 10
847.360328
 20
-83.335938
  9
$LIMMAX
 10
1252.388207
 20
190.721428
  9
$ORTHOMODE
 70
     1
  9
$REGENMODE
 70
     1
  9
$FILLMODE
 70
     1
  9
$QTEXTMODE
 70
     0
  9
$MIRRTEXT
 70
     0
  9
$LTSCALE
 40
6.750430999999999
  9
$ATTMODE
 70
     1
  9
$TEXTSIZE
 40
3.2
  9
$TRACEWID
 40
0.05
  9
$TEXTSTYLE
  7
高3.2
  9
$CLAYER
  8
0
  9
$CELTYPE
  6
CONTINUOUS
  9
$CECOLOR
 62
   256
  9
$CELTSCALE
 40
1.0
  9
$DISPSILH
 70
     0
  9
$DIMSCALE
 40
1.0
  9
$DIMASZ
 40
2.5
  9
$DIMEXO
 40
0.25
  9
$DIMDLI
 40
0.2
  9
$DIMRND
 40
0.0
  9
$DIMDLE
 40
0.0
  9
$DIMEXE
 40
1.25
  9
$DIMTP
 40
0.0
  9
$DIMTM
 40
0.0
  9
$DIMTXT
 40
3.0
  9
$DIMCEN
 40
0.0
  9
$DIMTSZ
 40
0.0
  9
$DIMTOL
 70
     0
  9
$DIMLIM
 70
     0
  9
$DIMTIH
 70
     0
  9
$DIMTOH
 70
     0
  9
$DIMSE1
 70
     0
  9
$DIMSE2
 70
     0
  9
$DIMTAD
 70
     3
  9
$DIMZIN
 70
     8
  9
$DIMBLK
  1
Open30
  9
$DIMASO
 70
     1
  9
$DIMSHO
 70
     1
  9
$DIMPOST
  1

  9
$DIMAPOST
  1

  9
$DIMALT
 70
     0
  9
$DIMALTD
 70
     3
  9
$DIMALTF
 40
0.03937007874016
  9
$DIMLFAC
 40
2.0
  9
$DIMTOFL
 70
     1
  9
$DIMTVP
 40
0.0
  9
$DIMTIX
 70
     0
  9
$DIMSOXD
 70
     0
  9
$DIMSAH
 70
     0
  9
$DIMBLK1
  1

  9
$DIMBLK2
  1

  9
$DIMSTYLE
  2
1／2
  9
$DIMCLRD
 70
     0
  9
$DIMCLRE
 70
     0
  9
$DIMCLRT
 70
     4
  9
$DIMTFAC
 40
1.0
  9
$DIMGAP
 40
0.625
  9
$DIMJUST
 70
     0
  9
$DIMSD1
 70
     0
  9
$DIMSD2
 70
     0
  9
$DIMTOLJ
 70
     0
  9
$DIMTZIN
 70
     8
  9
$DIMALTZ
 70
     0
  9
$DIMALTTZ
 70
     0
  9
$DIMUPT
 70
     1
  9
$DIMDEC
 70
     2
  9
$DIMTDEC
 70
     2
  9
$DIMALTU
 70
     2
  9
$DIMALTTD
 70
     3
  9
$DIMTXSTY
  7
STANDARD
  9
$DIMAUNIT
 70
     0
  9
$DIMADEC
 70
     1
  9
$DIMALTRND
 40
0.0
  9
$DIMAZIN
 70
     2
  9
$DIMDSEP
 70
    46
  9
$DIMATFIT
 70
     0
  9
$DIMFRAC
 70
     0
  9
$DIMLDRBLK
  1
Open30
  9
$DIMLUNIT
 70
     2
  9
$DIMLWD
 70
    -2
  9
$DIMLWE
 70
    -2
  9
$DIMTMOVE
 70
     0
  9
$LUNITS
 70
     2
  9
$LUPREC
 70
     4
  9
$SKETCHINC
 40
0.1
  9
$FILLETRAD
 40
0.0
  9
$AUNITS
 70
     0
  9
$AUPREC
 70
     0
  9
$MENU
  1
.
  9
$ELEVATION
 40
0.0
  9
$PELEVATION
 40
0.0
  9
$THICKNESS
 40
0.0
  9
$LIMCHECK
 70
     0
  9
$CHAMFERA
 40
0.0
  9
$CHAMFERB
 40
0.0
  9
$CHAMFERC
 40
0.0
  9
$CHAMFERD
 40
0.0
  9
$SKPOLY
 70
     0
  9
$TDCREATE
 40
2456850.553099595
  9
$TDUCREATE
 40
2456850.178099595
  9
$TDUPDATE
 40
2456850.558863496
  9
$TDUUPDATE
 40
2456850.183863496
  9
$TDINDWG
 40
0.0057645255
  9
$TDUSRTIMER
 40
0.0057645370
  9
$USRTIMER
 70
     1
  9
$ANGBASE
 50
0.0
  9
$ANGDIR
 70
     0
  9
$PDMODE
 70
     0
  9
$PDSIZE
 40
0.0
  9
$PLINEWID
 40
0.0
  9
$SPLFRAME
 70
     0
  9
$SPLINETYPE
 70
     6
  9
$SPLINESEGS
 70
     8
  9
$HANDSEED
  5
6A2
  9
$SURFTAB1
 70
     6
  9
$SURFTAB2
 70
     6
  9
$SURFTYPE
 70
     6
  9
$SURFU
 70
     6
  9
$SURFV
 70
     6
  9
$UCSBASE
  2

  9
$UCSNAME
  2

  9
$UCSORG
 10
0.0
 20
0.0
 30
0.0
  9
$UCSXDIR
 10
1.0
 20
0.0
 30
0.0
  9
$UCSYDIR
 10
0.0
 20
1.0
 30
0.0
  9
$UCSORTHOREF
  2

  9
$UCSORTHOVIEW
 70
     0
  9
$UCSORGTOP
 10
0.0
 20
0.0
 30
0.0
  9
$UCSORGBOTTOM
 10
0.0
 20
0.0
 30
0.0
  9
$UCSORGLEFT
 10
0.0
 20
0.0
 30
0.0
  9
$UCSORGRIGHT
 10
0.0
 20
0.0
 30
0.0
  9
$UCSORGFRONT
 10
0.0
 20
0.0
 30
0.0
  9
$UCSORGBACK
 10
0.0
 20
0.0
 30
0.0
  9
$PUCSBASE
  2

  9
$PUCSNAME
  2

  9
$PUCSORG
 10
0.0
 20
0.0
 30
0.0
  9
$PUCSXDIR
 10
1.0
 20
0.0
 30
0.0
  9
$PUCSYDIR
 10
0.0
 20
1.0
 30
0.0
  9
$PUCSORTHOREF
  2

  9
$PUCSORTHOVIEW
 70
     0
  9
$PUCSORGTOP
 10
0.0
 20
0.0
 30
0.0
  9
$PUCSORGBOTTOM
 10
0.0
 20
0.0
 30
0.0
  9
$PUCSORGLEFT
 10
0.0
 20
0.0
 30
0.0
  9
$PUCSORGRIGHT
 10
0.0
 20
0.0
 30
0.0
  9
$PUCSORGFRONT
 10
0.0
 20
0.0
 30
0.0
  9
$PUCSORGBACK
 10
0.0
 20
0.0
 30
0.0
  9
$USERI1
 70
     0
  9
$USERI2
 70
     0
  9
$USERI3
 70
     0
  9
$USERI4
 70
     0
  9
$USERI5
 70
     0
  9
$USERR1
 40
0.0
  9
$USERR2
 40
0.0
  9
$USERR3
 40
0.0
  9
$USERR4
 40
0.0
  9
$USERR5
 40
0.0
  9
$WORLDVIEW
 70
     1
  9
$SHADEDGE
 70
     3
  9
$SHADEDIF
 70
    70
  9
$TILEMODE
 70
     1
  9
$MAXACTVP
 70
    64
  9
$PINSBASE
 10
0.0
 20
0.0
 30
0.0
  9
$PLIMCHECK
 70
     0
  9
$PEXTMIN
 10
1.000000000000000E+20
 20
1.000000000000000E+20
 30
1.000000000000000E+20
  9
$PEXTMAX
 10
-1.000000000000000E+20
 20
-1.000000000000000E+20
 30
-1.000000000000000E+20
  9
$PLIMMIN
 10
0.0
 20
0.0
  9
$PLIMMAX
 10
12.0
 20
9.0
  9
$UNITMODE
 70
     0
  9
$VISRETAIN
 70
     1
  9
$PLINEGEN
 70
     0
  9
$PSLTSCALE
 70
     1
  9
$TREEDEPTH
 70
  3020
  9
$CMLSTYLE
  2
Standard
  9
$CMLJUST
 70
     0
  9
$CMLSCALE
 40
1.0
  9
$PROXYGRAPHICS
 70
     1
  9
$MEASUREMENT
 70
     0
  9
$CELWEIGHT
370
    -1
  9
$ENDCAPS
280
     0
  9
$JOINSTYLE
280
     0
  9
$LWDISPLAY
290
     0
  9
$INSUNITS
 70
     0
  9
$HYPERLINKBASE
  1

  9
$STYLESHEET
  1

  9
$XEDIT
290
     1
  9
$CEPSNTYPE
380
     0
  9
$PSTYLEMODE
290
     1
  9
$FINGERPRINTGUID
  2
{3D1B3DB1-C871-40AA-B3BB-DCDF621EDFAC}
  9
$VERSIONGUID
  2
{8CF49000-C60A-467A-85E5-2CA8906A5718}
  9
$EXTNAMES
290
     1
  9
$PSVPSCALE
 40
0.0
  9
$OLESTARTUP
290
     0
  0
ENDSEC
  0
SECTION
  2
CLASSES
  0
CLASS
  1
ACDBDICTIONARYWDFLT
  2
AcDbDictionaryWithDefault
  3
ObjectDBX Classes
 90
        0
280
     0
281
     0
  0
CLASS
  1
MATERIAL
  2
AcDbMaterial
  3
ObjectDBX Classes
 90
     1153
280
     0
281
     0
  0
CLASS
  1
VISUALSTYLE
  2
AcDbVisualStyle
  3
ObjectDBX Classes
 90
     4095
280
     0
281
     0
  0
CLASS
  1
SCALE
  2
AcDbScale
  3
ObjectDBX Classes
 90
     1153
280
     0
281
     0
  0
CLASS
  1
TABLESTYLE
  2
AcDbTableStyle
  3
ObjectDBX Classes
 90
     4095
280
     0
281
     0
  0
CLASS
  1
MLEADERSTYLE
  2
AcDbMLeaderStyle
  3
ACDB_MLEADERSTYLE_CLASS
 90
     4095
280
     0
281
     0
  0
CLASS
  1
SORTENTSTABLE
  2
AcDbSortentsTable
  3
ObjectDBX Classes
 90
        0
280
     0
281
     0
  0
CLASS
  1
DICTIONARYVAR
  2
AcDbDictionaryVar
  3
ObjectDBX Classes
 90
        0
280
     0
281
     0
  0
CLASS
  1
CELLSTYLEMAP
  2
AcDbCellStyleMap
  3
ObjectDBX Classes
 90
     1152
280
     0
281
     0
  0
CLASS
  1
ACDBPLACEHOLDER
  2
AcDbPlaceHolder
  3
ObjectDBX Classes
 90
        0
280
     0
281
     0
  0
CLASS
  1
LAYOUT
  2
AcDbLayout
  3
ObjectDBX Classes
 90
        0
280
     0
281
     0
  0
ENDSEC
  0
SECTION
  2
TABLES
  0
TABLE
  2
VPORT
  5
8
330
0
100
AcDbSymbolTable
 70
     1
  0
VPORT
  5
8B
330
8
100
AcDbSymbolTableRecord
100
AcDbViewportTableRecord
  2
*Active
 70
     0
 10
0.0
 20
0.0
 11
1.0
 21
1.0
 12
1181.451536748518
 22
29.64555836495458
 13
0.0
 23
0.0
 14
1.0
 24
1.0
 15
0.0
 25
0.0
 16
0.0
 26
0.0
 36
1.0
 17
0.0
 27
0.0
 37
0.0
 40
560.7297285562788
 41
1.995440729483282
 42
50.0
 43
0.0
 44
0.0
 50
0.0
 51
0.0
 71
     0
 72
   100
 73
     1
 74
     1
 75
     0
 76
     0
 77
     0
 78
     0
281
     0
 65
     1
110
0.0
120
0.0
130
0.0
111
1.0
121
0.0
131
0.0
112
0.0
122
1.0
132
0.0
 79
     0
146
0.0
  0
ENDTAB
  0
TABLE
  2
LTYPE
  5
5
330
0
100
AcDbSymbolTable
 70
    27
  0
LTYPE
  5
5A
330
5
100
AcDbSymbolTableRecord
100
AcDbLinetypeTableRecord
  2
ByBlock
 70
     0
  3

 72
    65
 73
     0
 40
0.0
  0
LTYPE
  5
5B
330
5
100
AcDbSymbolTableRecord
100
AcDbLinetypeTableRecord
  2
ByLayer
 70
     0
  3

 72
    65
 73
     0
 40
0.0
  0
LTYPE
  5
5C
330
5
100
AcDbSymbolTableRecord
100
AcDbLinetypeTableRecord
  2
CONTINUOUS
 70
     0
  3
Solid-line
 72
    65
 73
     0
 40
0.0
  0
ENDTAB
  0
TABLE
  2
LAYER
  5
2
102
{ACAD_XDICTIONARY
360
441
102
}
330
0
100
AcDbSymbolTable
 70
     3
  0
LAYER
  5
54
102
{ACAD_XDICTIONARY
360
5CD
102
}
330
2
100
AcDbSymbolTableRecord
100
AcDbLayerTableRecord
  2
0
 70
     0
 62
     7
  6
CONTINUOUS
370
    -3
390
F
  0
LAYER
  5
42A
330
2
100
AcDbSymbolTableRecord
100
AcDbLayerTableRecord
  2
Defpoints
 70
     0
 62
     7
  6
CONTINUOUS
290
     0
370
    -3
390
F
  0
ENDTAB
  0
TABLE
  2
STYLE
  5
3
330
0
100
AcDbSymbolTable
 70
     8
  0
STYLE
  5
55
330
3
100
AcDbSymbolTableRecord
100
AcDbTextStyleTableRecord
  2
STANDARD
 70
     0
 40
0.0
 41
1.0
 50
0.0
 71
     0
 42
0.2
  3
TXT
  4
BIGFONT
  0
STYLE
  5
42B
330
3
100
AcDbSymbolTableRecord
100
AcDbTextStyleTableRecord
  2
高3.2
 70
     0
 40
3.2
 41
1.0
 50
0.0
 71
     0
 42
3.2
  3
txt.shx
  4
bigfont.shx
  0
STYLE
  5
42C
330
3
100
AcDbSymbolTableRecord
100
AcDbTextStyleTableRecord
  2
高6.3
 70
     0
 40
6.299999999999999
 41
1.0
 50
0.0
 71
     0
 42
6.299999999999999
  3
txt.shx
  4
bigfont.shx
  0
STYLE
  5
42D
330
3
100
AcDbSymbolTableRecord
100
AcDbTextStyleTableRecord
  2
高2.5
 70
     0
 40
2.5
 41
1.0
 50
0.0
 71
     0
 42
0.2
  3
txt.shx
  4
bigfont.shx
  0
STYLE
  5
42E
330
3
100
AcDbSymbolTableRecord
100
AcDbTextStyleTableRecord
  2
高4.5
 70
     0
 40
4.5
 41
1.0
 50
0.0
 71
     0
 42
6.299999999999999
  3
txt.shx
  4
bigfont.shx
  0
STYLE
  5
42F
330
3
100
AcDbSymbolTableRecord
100
AcDbTextStyleTableRecord
  2
高2
 70
     0
 40
2.0
 41
1.0
 50
0.0
 71
     0
 42
2.0
  3
txt.shx
  4
bigfont.shx
  0
ENDTAB
  0
TABLE
  2
VIEW
  5
6
330
0
100
AcDbSymbolTable
 70
     0
  0
ENDTAB
  0
TABLE
  2
UCS
  5
7
330
0
100
AcDbSymbolTable
 70
     0
  0
ENDTAB
  0
TABLE
  2
APPID
  5
9
330
0
100
AcDbSymbolTable
 70
    10
  0
APPID
  5
56
330
9
100
AcDbSymbolTableRecord
100
AcDbRegAppTableRecord
  2
ACAD
 70
     0
  0
APPID
  5
5D
330
9
100
AcDbSymbolTableRecord
100
AcDbRegAppTableRecord
  2
AcadAnnotative
 70
     0
  0
APPID
  5
43A
330
9
100
AcDbSymbolTableRecord
100
AcDbRegAppTableRecord
  2
ACAD_DSTYLE_DIMJOGGED_JOGANGLE_SYMBOL
 70
     0
  0
APPID
  5
43B
330
9
100
AcDbSymbolTableRecord
100
AcDbRegAppTableRecord
  2
ACAD_DSTYLE_DIMJAG
 70
     0
  0
APPID
  5
43C
330
9
100
AcDbSymbolTableRecord
100
AcDbRegAppTableRecord
  2
ACAD_DSTYLE_DIMBREAK
 70
     0
  0
APPID
  5
43D
330
9
100
AcDbSymbolTableRecord
100
AcDbRegAppTableRecord
  2
ACAD_DSTYLE_DIMTALN
 70
     0
  0
APPID
  5
5A5
330
9
100
AcDbSymbolTableRecord
100
AcDbRegAppTableRecord
  2
ACAD_EXEMPT_FROM_CAD_STANDARDS
 70
     0
  0
APPID
  5
699
330
9
100
AcDbSymbolTableRecord
100
AcDbRegAppTableRecord
  2
ACAD_MLEADERVER
 70
     0
  0
APPID
  5
69E
330
9
100
AcDbSymbolTableRecord
100
AcDbRegAppTableRecord
  2
ACAD_DSTYLE_DIMARC_LENGTH_SYMBOL
 70
     0
  0
APPID
  5
69F
330
9
100
AcDbSymbolTableRecord
100
AcDbRegAppTableRecord
  2
ACAD_DSTYLE_DIMEXT_LENGTH
 70
     0
  0
ENDTAB
  0
TABLE
  2
DIMSTYLE
  5
A
330
0
100
AcDbSymbolTable
 70
    13
100
AcDbDimStyleTable
 71
     1
340
434
  0
DIMSTYLE
105
57
330
A
100
AcDbSymbolTableRecord
100
AcDbDimStyleTableRecord
  2
Standard
 70
     0
340
55
  0
DIMSTYLE
105
430
102
{ACAD_REACTORS
330
444
102
}
330
A
100
AcDbSymbolTableRecord
100
AcDbDimStyleTableRecord
  2
1：1
 70
     0
 41
2.5
 42
0.25
 43
0.2
 44
1.25
 73
     0
 74
     0
 77
     3
 78
     8
 79
     2
140
3.0
141
0.0
143
0.03937007874016
147
0.625
171
     3
172
     1
178
     4
179
     1
271
     2
272
     2
274
     3
283
     0
284
     8
288
     1
289
     0
340
55
341
39A
342
39A
1001
ACAD_DSTYLE_DIMARC_LENGTH_SYMBOL
1070
   379
1070
     2
1001
ACAD_DSTYLE_DIMEXT_LENGTH
1070
   378
1040
1.25
1001
ACAD_DSTYLE_DIMJOGGED_JOGANGLE_SYMBOL
1070
   384
1040
1.570796326794896
  0
DIMSTYLE
105
431
102
{ACAD_REACTORS
330
449
102
}
330
A
100
AcDbSymbolTableRecord
100
AcDbDimStyleTableRecord
  2
2：1
 70
     0
 41
2.5
 42
0.25
 43
0.2
 44
1.25
 73
     0
 74
     0
 77
     3
 78
     8
 79
     2
140
3.0
141
0.0
143
0.03937007874016
144
0.5
147
0.625
171
     3
172
     1
178
     4
179
     1
271
     2
272
     2
274
     3
283
     0
284
     8
288
     1
289
     0
340
55
341
39A
342
39A
1001
ACAD_DSTYLE_DIMARC_LENGTH_SYMBOL
1070
   379
1070
     2
1001
ACAD_DSTYLE_DIMEXT_LENGTH
1070
   378
1040
1.25
1001
ACAD_DSTYLE_DIMJOGGED_JOGANGLE_SYMBOL
1070
   384
1040
1.570796326794896
  0
DIMSTYLE
105
432
102
{ACAD_REACTORS
330
44A
102
}
330
A
100
AcDbSymbolTableRecord
100
AcDbDimStyleTableRecord
  2
5：1
 70
     0
 41
2.5
 42
0.25
 43
0.2
 44
1.25
 73
     0
 74
     0
 77
     3
 78
     8
 79
     2
140
3.0
141
0.0
143
0.03937007874016
144
0.2
147
0.625
171
     3
172
     1
178
     4
179
     1
271
     2
272
     2
274
     3
283
     0
284
     8
288
     1
289
     0
340
55
341
39A
342
39A
1001
ACAD_DSTYLE_DIMARC_LENGTH_SYMBOL
1070
   379
1070
     2
1001
ACAD_DSTYLE_DIMEXT_LENGTH
1070
   378
1040
1.25
1001
ACAD_DSTYLE_DIMJOGGED_JOGANGLE_SYMBOL
1070
   384
1040
1.570796326794896
  0
DIMSTYLE
105
433
102
{ACAD_REACTORS
330
448
102
}
330
A
100
AcDbSymbolTableRecord
100
AcDbDimStyleTableRecord
  2
10：1
 70
     0
 41
2.5
 42
0.25
 43
0.2
 44
1.25
 73
     0
 74
     0
 77
     3
 78
     8
 79
     2
140
3.0
141
0.0
143
0.03937007874016
144
0.1
147
0.625
171
     3
172
     1
178
     4
179
     1
271
     2
272
     2
274
     3
283
     0
284
     8
288
     1
289
     0
340
55
341
39A
342
39A
1001
ACAD_DSTYLE_DIMARC_LENGTH_SYMBOL
1070
   379
1070
     2
1001
ACAD_DSTYLE_DIMEXT_LENGTH
1070
   378
1040
1.25
1001
ACAD_DSTYLE_DIMJOGGED_JOGANGLE_SYMBOL
1070
   384
1040
1.570796326794896
  0
DIMSTYLE
105
434
102
{ACAD_REACTORS
330
446
102
}
330
A
100
AcDbSymbolTableRecord
100
AcDbDimStyleTableRecord
  2
1／2
 70
     0
 41
2.5
 42
0.25
 43
0.2
 44
1.25
 73
     0
 74
     0
 77
     3
 78
     8
 79
     2
140
3.0
141
0.0
143
0.03937007874016
144
2.0
147
0.625
171
     3
172
     1
178
     4
179
     1
271
     2
272
     2
274
     3
283
     0
284
     8
288
     1
289
     0
340
55
341
39A
342
39A
1001
ACAD_DSTYLE_DIMARC_LENGTH_SYMBOL
1070
   379
1070
     2
1001
ACAD_DSTYLE_DIMEXT_LENGTH
1070
   378
1040
1.25
1001
ACAD_DSTYLE_DIMJOGGED_JOGANGLE_SYMBOL
1070
   384
1040
1.570796326794896
  0
DIMSTYLE
105
435
102
{ACAD_REACTORS
330
445
102
}
330
A
100
AcDbSymbolTableRecord
100
AcDbDimStyleTableRecord
  2
1／5
 70
     0
 41
2.5
 42
0.25
 43
0.2
 44
1.25
 73
     0
 74
     0
 77
     3
 78
     8
 79
     2
140
3.0
141
0.0
143
0.03937007874016
144
5.0
147
0.625
171
     3
172
     1
178
     4
179
     1
271
     2
272
     2
274
     3
283
     0
284
     8
288
     1
289
     0
340
55
341
39A
342
39A
1001
ACAD_DSTYLE_DIMARC_LENGTH_SYMBOL
1070
   379
1070
     2
1001
ACAD_DSTYLE_DIMEXT_LENGTH
1070
   378
1040
1.25
1001
ACAD_DSTYLE_DIMJOGGED_JOGANGLE_SYMBOL
1070
   384
1040
1.570796326794896
  0
DIMSTYLE
105
436
102
{ACAD_REACTORS
330
447
102
}
330
A
100
AcDbSymbolTableRecord
100
AcDbDimStyleTableRecord
  2
1／10
 70
     0
 41
2.5
 42
0.25
 43
0.2
 44
1.25
 73
     0
 74
     0
 77
     3
 78
     8
 79
     2
140
3.0
141
0.0
143
0.03937007874016
144
10.0
147
0.625
171
     3
172
     1
178
     4
179
     1
271
     2
272
     2
274
     3
283
     0
284
     8
288
     1
289
     0
340
55
341
39A
342
39A
1001
ACAD_DSTYLE_DIMARC_LENGTH_SYMBOL
1070
   379
1070
     2
1001
ACAD_DSTYLE_DIMEXT_LENGTH
1070
   378
1040
1.25
1001
ACAD_DSTYLE_DIMJOGGED_JOGANGLE_SYMBOL
1070
   384
1040
1.570796326794896
  0
DIMSTYLE
105
437
102
{ACAD_REACTORS
330
44B
102
}
330
A
100
AcDbSymbolTableRecord
100
AcDbDimStyleTableRecord
  2
1／4
 70
     0
 41
2.5
 42
0.25
 43
0.2
 44
1.25
 73
     0
 74
     0
 77
     3
 78
     8
 79
     2
140
3.0
141
0.0
143
0.03937007874016
144
4.0
147
0.625
171
     3
172
     1
178
     4
179
     1
271
     2
272
     2
274
     3
283
     0
284
     8
288
     1
289
     0
340
55
341
39A
342
39A
1001
ACAD_DSTYLE_DIMARC_LENGTH_SYMBOL
1070
   379
1070
     2
1001
ACAD_DSTYLE_DIMEXT_LENGTH
1070
   378
1040
1.25
1001
ACAD_DSTYLE_DIMJOGGED_JOGANGLE_SYMBOL
1070
   384
1040
1.570796326794896
  0
DIMSTYLE
105
438
102
{ACAD_REACTORS
330
44C
102
}
330
A
100
AcDbSymbolTableRecord
100
AcDbDimStyleTableRecord
  2
1／3
 70
     0
 41
2.5
 42
0.25
 43
0.2
 44
1.25
 73
     0
 74
     0
 77
     3
 78
     8
 79
     2
140
3.0
141
0.0
143
0.03937007874016
144
3.0
147
0.625
171
     3
172
     1
178
     4
179
     1
271
     2
272
     2
274
     3
283
     0
284
     8
288
     1
289
     0
340
55
341
39A
342
39A
1001
ACAD_DSTYLE_DIMARC_LENGTH_SYMBOL
1070
   379
1070
     2
1001
ACAD_DSTYLE_DIMEXT_LENGTH
1070
   378
1040
1.25
1001
ACAD_DSTYLE_DIMJOGGED_JOGANGLE_SYMBOL
1070
   384
1040
1.570796326794896
  0
DIMSTYLE
105
439
102
{ACAD_REACTORS
330
44D
102
}
330
A
100
AcDbSymbolTableRecord
100
AcDbDimStyleTableRecord
  2
FREE
 70
     0
 41
2.5
 42
0.25
 43
0.2
 44
1.25
 73
     0
 74
     0
 77
     3
 78
     8
 79
     2
140
3.0
141
0.0
143
0.03937007874016
147
0.625
171
     3
172
     1
178
     4
179
     1
271
     2
272
     2
274
     3
283
     0
284
     8
288
     1
289
     0
340
55
341
39A
342
39A
1001
ACAD_DSTYLE_DIMBREAK
1070
   391
1040
3.75
1001
ACAD_DSTYLE_DIMJAG
1070
   388
1040
1.5
1001
ACAD_DSTYLE_DIMTALN
1070
   392
1070
     0
1001
ACAD_DSTYLE_DIMARC_LENGTH_SYMBOL
1070
   379
1070
     2
1001
ACAD_DSTYLE_DIMEXT_LENGTH
1070
   378
1040
1.25
1001
ACAD_DSTYLE_DIMJOGGED_JOGANGLE_SYMBOL
1070
   384
1040
1.570796326794896
  0
ENDTAB
  0
TABLE
  2
BLOCK_RECORD
  5
1
330
0
100
AcDbSymbolTable
 70
    33
  0
BLOCK_RECORD
  5
6B
102
{ACAD_XDICTIONARY
360
5C9
102
}
330
1
100
AcDbSymbolTableRecord
100
AcDbBlockTableRecord
  2
*Model_Space
340
6E
  0
BLOCK_RECORD
  5
67
330
1
100
AcDbSymbolTableRecord
100
AcDbBlockTableRecord
  2
*Paper_Space
340
6A
  0
BLOCK_RECORD
  5
39A
330
1
100
AcDbSymbolTableRecord
100
AcDbBlockTableRecord
  2
_Open30
340
0
102
{BLKREFS
331
51A
331
51B
331
525
331
526
331
530
331
531
331
53B
331
53C
331
546
331
547
331
551
331
552
331
55C
331
55D
331
567
331
568
331
572
331
573
331
57B
331
57C
331
5B0
331
5B1
331
5B9
331
5BA
331
5C2
331
5C3
102
}
  0
BLOCK_RECORD
  5
48B
330
1
100
AcDbSymbolTableRecord
100
AcDbBlockTableRecord
  2
*D19
340
0
  0
BLOCK_RECORD
  5
499
330
1
100
AcDbSymbolTableRecord
100
AcDbBlockTableRecord
  2
*D20
340
0
  0
BLOCK_RECORD
  5
4A7
330
1
100
AcDbSymbolTableRecord
100
AcDbBlockTableRecord
  2
*D21
340
0
  0
BLOCK_RECORD
  5
4B5
330
1
100
AcDbSymbolTableRecord
100
AcDbBlockTableRecord
  2
*D22
340
0
  0
BLOCK_RECORD
  5
4C3
330
1
100
AcDbSymbolTableRecord
100
AcDbBlockTableRecord
  2
*D23
340
0
  0
BLOCK_RECORD
  5
4D1
330
1
100
AcDbSymbolTableRecord
100
AcDbBlockTableRecord
  2
*D24
340
0
  0
BLOCK_RECORD
  5
4DF
330
1
100
AcDbSymbolTableRecord
100
AcDbBlockTableRecord
  2
*D25
340
0
  0
BLOCK_RECORD
  5
4ED
330
1
100
AcDbSymbolTableRecord
100
AcDbBlockTableRecord
  2
*D26
340
0
  0
BLOCK_RECORD
  5
4FB
330
1
100
AcDbSymbolTableRecord
100
AcDbBlockTableRecord
  2
*D27
340
0
  0
BLOCK_RECORD
  5
509
330
1
100
AcDbSymbolTableRecord
100
AcDbBlockTableRecord
  2
*D28
340
0
  0
BLOCK_RECORD
  5
581
330
1
100
AcDbSymbolTableRecord
100
AcDbBlockTableRecord
  2
*D29
340
0
  0
BLOCK_RECORD
  5
58D
330
1
100
AcDbSymbolTableRecord
100
AcDbBlockTableRecord
  2
*D30
340
0
  0
BLOCK_RECORD
  5
599
330
1
100
AcDbSymbolTableRecord
100
AcDbBlockTableRecord
  2
*D31
340
0
  0
ENDTAB
  0
ENDSEC
  0
SECTION
  2
BLOCKS
  0
BLOCK
  5
6C
330
6B
100
AcDbEntity
  8
0
100
AcDbBlockBegin
  2
*Model_Space
 70
     0
 10
0.0
 20
0.0
 30
0.0
  3
*Model_Space
  1

  0
ENDBLK
  5
6D
330
6B
100
AcDbEntity
  8
0
100
AcDbBlockEnd
  0
BLOCK
  5
68
330
67
100
AcDbEntity
 67
     1
  8
0
100
AcDbBlockBegin
  2
*Paper_Space
 70
     0
 10
0.0
 20
0.0
 30
0.0
  3
*Paper_Space
  1

  0
ENDBLK
  5
69
330
67
100
AcDbEntity
 67
     1
  8
0
100
AcDbBlockEnd
  0
BLOCK
  5
39B
330
39A
100
AcDbEntity
  8
0
100
AcDbBlockBegin
  2
_Open30
 70
     0
 10
0.0
 20
0.0
 30
0.0
  3
_Open30
  1

  0
LINE
  5
39C
330
39A
100
AcDbEntity
  8
0
  6
ByBlock
 62
     0
370
    -2
100
AcDbLine
 10
-1.0
 20
0.267949
 30
0.0
 11
0.0
 21
0.0
 31
0.0
  0
LINE
  5
39D
330
39A
100
AcDbEntity
  8
0
  6
ByBlock
 62
     0
370
    -2
100
AcDbLine
 10
0.0
 20
0.0
 30
0.0
 11
-1.0
 21
-0.267949
 31
0.0
  0
LINE
  5
39E
330
39A
100
AcDbEntity
  8
0
  6
ByBlock
 62
     0
370
    -2
100
AcDbLine
 10
0.0
 20
0.0
 30
0.0
 11
-1.0
 21
0.0
 31
0.0
  0
ENDBLK
  5
39F
330
39A
100
AcDbEntity
  8
0
100
AcDbBlockEnd
  0
BLOCK
  5
48C
330
48B
100
AcDbEntity
  8
0
100
AcDbBlockBegin
  2
*D19
 70
     1
 10
0.0
 20
0.0
 30
0.0
  3
*D19
  1

  0
LINE
  5
515
330
48B
100
AcDbEntity
  8
0
 62
     0
370
    -2
100
AcDbLine
 10
1592.655229642954
 20
197.5058502419923
 30
0.0
 11
1592.655229642954
 21
194.5962188199835
 31
0.0
  0
LINE
  5
516
330
48B
100
AcDbEntity
  8
0
 62
     0
370
    -2
100
AcDbLine
 10
1590.198042588834
 20
197.5058502419923
 30
0.0
 11
1590.198042588834
 21
194.5962188199835
 31
0.0
  0
LINE
  5
517
330
48B
100
AcDbEntity
  8
0
 62
     0
370
    -2
100
AcDbLine
 10
1595.155229642954
 20
195.8462188199835
 30
0.0
 11
1597.655229642954
 21
195.8462188199835
 31
0.0
  0
LINE
  5
518
330
48B
100
AcDbEntity
  8
0
 62
     0
370
    -2
100
AcDbLine
 10
1587.698042588834
 20
195.8462188199835
 30
0.0
 11
1574.948042588834
 21
195.8462188199835
 31
0.0
  0
LINE
  5
519
330
48B
100
AcDbEntity
  8
0
 62
     0
370
    -2
100
AcDbLine
 10
1592.655229642954
 20
195.8462188199835
 30
0.0
 11
1590.198042588834
 21
195.8462188199835
 31
0.0
  0
INSERT
  5
51A
330
48B
100
AcDbEntity
  8
0
 62
     0
370
    -2
100
AcDbBlockReference
  2
_Open30
 10
1592.655229642954
 20
195.8462188199835
 30
0.0
 41
2.5
 42
2.5
 43
2.5
 50
180.0
  0
INSERT
  5
51B
330
48B
100
AcDbEntity
  8
0
 62
     0
370
    -2
100
AcDbBlockReference
  2
_Open30
 10
1590.198042588834
 20
195.8462188199835
 30
0.0
 41
2.5
 42
2.5
 43
2.5
  0
MTEXT
  5
51C
330
48B
100
AcDbEntity
  8
0
 62
     4
100
AcDbMText
 10
1580.073042588834
 20
197.9712188199835
 30
0.0
 40
3.0
 41
0.0
 71
     5
 72
     1
  1
2.46
 73
     1
 44
1.0
1001
ACAD
1000
MTEXTBEGIN
1070
    73
1070
     1
1070
    44
1040
1.0
1070
    74
1070
     0
1000
MTEXTEND
  0
POINT
  5
51D
330
48B
100
AcDbEntity
  8
Defpoints
 62
     0
100
AcDbPoint
 10
1592.655229642954
 20
197.7558502419923
 30
0.0
  0
POINT
  5
51E
330
48B
100
AcDbEntity
  8
Defpoints
 62
     0
100
AcDbPoint
 10
1590.198042588834
 20
197.7558502419923
 30
0.0
  0
POINT
  5
51F
330
48B
100
AcDbEntity
  8
Defpoints
 62
     0
100
AcDbPoint
 10
1590.198042588834
 20
195.8462188199835
 30
0.0
  0
ENDBLK
  5
48D
330
48B
100
AcDbEntity
  8
0
100
AcDbBlockEnd
  0
BLOCK
  5
49A
330
499
100
AcDbEntity
  8
0
100
AcDbBlockBegin
  2
*D20
 70
     1
 10
0.0
 20
0.0
 30
0.0
  3
*D20
  1

  0
LINE
  5
520
330
499
100
AcDbEntity
  8
0
 62
     0
370
    -2
100
AcDbLine
 10
1594.293354549027
 20
192.0497606692299
 30
0.0
 11
1594.293354549027
 21
189.5038685997666
 31
0.0
  0
LINE
  5
521
330
499
100
AcDbEntity
  8
0
 62
     0
370
    -2
100
AcDbLine
 10
1591.199118750885
 20
192.0497606692299
 30
0.0
 11
1591.199118750885
 21
189.5038685997666
 31
0.0
  0
LINE
  5
522
330
499
100
AcDbEntity
  8
0
 62
     0
370
    -2
100
AcDbLine
 10
1596.793354549027
 20
190.7538685997666
 30
0.0
 11
1599.293354549027
 21
190.7538685997666
 31
0.0
  0
LINE
  5
523
330
499
100
AcDbEntity
  8
0
 62
     0
370
    -2
100
AcDbLine
 10
1588.699118750884
 20
190.7538685997666
 30
0.0
 11
1574.865785417551
 21
190.7538685997666
 31
0.0
  0
LINE
  5
524
330
499
100
AcDbEntity
  8
0
 62
     0
370
    -2
100
AcDbLine
 10
1594.293354549027
 20
190.7538685997666
 30
0.0
 11
1591.199118750885
 21
190.7538685997666
 31
0.0
  0
INSERT
  5
525
330
499
100
AcDbEntity
  8
0
 62
     0
370
    -2
100
AcDbBlockReference
  2
_Open30
 10
1594.293354549027
 20
190.7538685997666
 30
0.0
 41
2.5
 42
2.5
 43
2.5
 50
180.0
  0
INSERT
  5
526
330
499
100
AcDbEntity
  8
0
 62
     0
370
    -2
100
AcDbBlockReference
  2
_Open30
 10
1591.199118750885
 20
190.7538685997666
 30
0.0
 41
2.5
 42
2.5
 43
2.5
  0
MTEXT
  5
527
330
499
100
AcDbEntity
  8
0
 62
     4
100
AcDbMText
 10
1580.074118750885
 20
192.6288685997666
 30
0.0
 40
2.5
 41
0.0
 71
     5
 72
     1
  1
15.47
  7
高2.5
 73
     1
 44
1.0
1001
ACAD
1000
MTEXTBEGIN
1070
    73
1070
     1
1070
    44
1040
1.0
1070
    74
1070
     0
1000
MTEXTEND
  0
POINT
  5
528
330
499
100
AcDbEntity
  8
Defpoints
 62
     0
100
AcDbPoint
 10
1594.293354549027
 20
192.2997606692299
 30
0.0
  0
POINT
  5
529
330
499
100
AcDbEntity
  8
Defpoints
 62
     0
100
AcDbPoint
 10
1591.199118750885
 20
192.2997606692299
 30
0.0
  0
POINT
  5
52A
330
499
100
AcDbEntity
  8
Defpoints
 62
     0
100
AcDbPoint
 10
1591.199118750885
 20
190.7538685997666
 30
0.0
  0
ENDBLK
  5
49B
330
499
100
AcDbEntity
  8
0
100
AcDbBlockEnd
  0
BLOCK
  5
4A8
330
4A7
100
AcDbEntity
  8
0
100
AcDbBlockBegin
  2
*D21
 70
     1
 10
0.0
 20
0.0
 30
0.0
  3
*D21
  1

  0
LINE
  5
52B
330
4A7
100
AcDbEntity
  8
0
 62
     0
370
    -2
100
AcDbLine
 10
1596.022486157113
 20
186.5936709533835
 30
0.0
 11
1596.022486157113
 21
184.3205832910162
 31
0.0
  0
LINE
  5
52C
330
4A7
100
AcDbEntity
  8
0
 62
     0
370
    -2
100
AcDbLine
 10
1592.018181203921
 20
186.5936709533835
 30
0.0
 11
1592.018181203921
 21
184.3205832910162
 31
0.0
  0
LINE
  5
52D
330
4A7
100
AcDbEntity
  8
0
 62
     0
370
    -2
100
AcDbLine
 10
1598.522486157113
 20
185.5705832910162
 30
0.0
 11
1601.022486157113
 21
185.5705832910162
 31
0.0
  0
LINE
  5
52E
330
4A7
100
AcDbEntity
  8
0
 62
     0
370
    -2
100
AcDbLine
 10
1589.518181203921
 20
185.5705832910162
 30
0.0
 11
1577.768181203921
 21
185.5705832910162
 31
0.0
  0
LINE
  5
52F
330
4A7
100
AcDbEntity
  8
0
 62
     0
370
    -2
100
AcDbLine
 10
1596.022486157113
 20
185.5705832910162
 30
0.0
 11
1592.018181203921
 21
185.5705832910162
 31
0.0
  0
INSERT
  5
530
330
4A7
100
AcDbEntity
  8
0
 62
     0
370
    -2
100
AcDbBlockReference
  2
_Open30
 10
1596.022486157113
 20
185.5705832910162
 30
0.0
 41
2.5
 42
2.5
 43
2.5
 50
180.0
  0
INSERT
  5
531
330
4A7
100
AcDbEntity
  8
0
 62
     0
370
    -2
100
AcDbBlockReference
  2
_Open30
 10
1592.018181203921
 20
185.5705832910162
 30
0.0
 41
2.5
 42
2.5
 43
2.5
  0
MTEXT
  5
532
330
4A7
100
AcDbEntity
  8
0
 62
     4
100
AcDbMText
 10
1582.393181203921
 20
187.7955832910162
 30
0.0
 40
3.2
 41
0.0
 71
     5
 72
     1
  1
8.01
  7
高3.2
 73
     1
 44
1.0
1001
ACAD
1000
MTEXTBEGIN
1070
    73
1070
     1
1070
    44
1040
1.0
1070
    74
1070
     0
1000
MTEXTEND
  0
POINT
  5
533
330
4A7
100
AcDbEntity
  8
Defpoints
 62
     0
100
AcDbPoint
 10
1596.022486157113
 20
186.8436709533835
 30
0.0
  0
POINT
  5
534
330
4A7
100
AcDbEntity
  8
Defpoints
 62
     0
100
AcDbPoint
 10
1592.018181203921
 20
186.8436709533835
 30
0.0
  0
POINT
  5
535
330
4A7
100
AcDbEntity
  8
Defpoints
 62
     0
100
AcDbPoint
 10
1592.018181203921
 20
185.5705832910162
 30
0.0
  0
ENDBLK
  5
4A9
330
4A7
100
AcDbEntity
  8
0
100
AcDbBlockEnd
  0
BLOCK
  5
4B6
330
4B5
100
AcDbEntity
  8
0
100
AcDbBlockBegin
  2
*D22
 70
     1
 10
0.0
 20
0.0
 30
0.0
  3
*D22
  1

  0
LINE
  5
536
330
4B5
100
AcDbEntity
  8
0
 62
     0
370
    -2
100
AcDbLine
 10
1595.9314794551
 20
181.3194509853518
 30
0.0
 11
1595.9314794551
 21
179.5010374778954
 31
0.0
  0
LINE
  5
537
330
4B5
100
AcDbEntity
  8
0
 62
     0
370
    -2
100
AcDbLine
 10
1591.199118750885
 20
181.3194509853518
 30
0.0
 11
1591.199118750885
 21
179.5010374778954
 31
0.0
  0
LINE
  5
538
330
4B5
100
AcDbEntity
  8
0
 62
     0
370
    -2
100
AcDbLine
 10
1598.431479455101
 20
180.7510374778954
 30
0.0
 11
1600.931479455101
 21
180.7510374778954
 31
0.0
  0
LINE
  5
539
330
4B5
100
AcDbEntity
  8
0
 62
     0
370
    -2
100
AcDbLine
 10
1588.699118750884
 20
180.7510374778954
 30
0.0
 11
1566.949118750885
 21
180.7510374778954
 31
0.0
  0
LINE
  5
53A
330
4B5
100
AcDbEntity
  8
0
 62
     0
370
    -2
100
AcDbLine
 10
1595.9314794551
 20
180.7510374778954
 30
0.0
 11
1591.199118750885
 21
180.7510374778954
 31
0.0
  0
INSERT
  5
53B
330
4B5
100
AcDbEntity
  8
0
 62
     0
370
    -2
100
AcDbBlockReference
  2
_Open30
 10
1595.9314794551
 20
180.7510374778954
 30
0.0
 41
2.5
 42
2.5
 43
2.5
 50
180.0
  0
INSERT
  5
53C
330
4B5
100
AcDbEntity
  8
0
 62
     0
370
    -2
100
AcDbBlockReference
  2
_Open30
 10
1591.199118750885
 20
180.7510374778954
 30
0.0
 41
2.5
 42
2.5
 43
2.5
  0
MTEXT
  5
53D
330
4B5
100
AcDbEntity
  8
0
 62
     4
100
AcDbMText
 10
1576.574118750885
 20
183.6260374778954
 30
0.0
 40
4.5
 41
0.0
 71
     5
 72
     1
  1
47.32
  7
高4.5
 73
     1
 44
1.0
1001
ACAD
1000
MTEXTBEGIN
1070
    73
1070
     1
1070
    44
1040
1.0
1070
    74
1070
     0
1000
MTEXTEND
  0
POINT
  5
53E
330
4B5
100
AcDbEntity
  8
Defpoints
 62
     0
100
AcDbPoint
 10
1595.9314794551
 20
181.5694509853518
 30
0.0
  0
POINT
  5
53F
330
4B5
100
AcDbEntity
  8
Defpoints
 62
     0
100
AcDbPoint
 10
1591.199118750885
 20
181.5694509853518
 30
0.0
  0
POINT
  5
540
330
4B5
100
AcDbEntity
  8
Defpoints
 62
     0
100
AcDbPoint
 10
1591.199118750885
 20
180.7510374778954
 30
0.0
  0
ENDBLK
  5
4B7
330
4B5
100
AcDbEntity
  8
0
100
AcDbBlockEnd
  0
BLOCK
  5
4C4
330
4C3
100
AcDbEntity
  8
0
100
AcDbBlockBegin
  2
*D23
 70
     1
 10
0.0
 20
0.0
 30
0.0
  3
*D23
  1

  0
LINE
  5
541
330
4C3
100
AcDbEntity
  8
0
 62
     0
370
    -2
100
AcDbLine
 10
1617.409115723108
 20
197.5058502419923
 30
0.0
 11
1617.409115723108
 21
194.5962188199835
 31
0.0
  0
LINE
  5
542
330
4C3
100
AcDbEntity
  8
0
 62
     0
370
    -2
100
AcDbLine
 10
1614.951928668988
 20
197.5058502419923
 30
0.0
 11
1614.951928668988
 21
194.5962188199835
 31
0.0
  0
LINE
  5
543
330
4C3
100
AcDbEntity
  8
0
 62
     0
370
    -2
100
AcDbLine
 10
1619.909115723108
 20
195.8462188199835
 30
0.0
 11
1622.409115723108
 21
195.8462188199835
 31
0.0
  0
LINE
  5
544
330
4C3
100
AcDbEntity
  8
0
 62
     0
370
    -2
100
AcDbLine
 10
1612.451928668988
 20
195.8462188199835
 30
0.0
 11
1590.851928668988
 21
195.8462188199835
 31
0.0
  0
LINE
  5
545
330
4C3
100
AcDbEntity
  8
0
 62
     0
370
    -2
100
AcDbLine
 10
1617.409115723108
 20
195.8462188199835
 30
0.0
 11
1614.951928668988
 21
195.8462188199835
 31
0.0
  0
INSERT
  5
546
330
4C3
100
AcDbEntity
  8
0
 62
     0
370
    -2
100
AcDbBlockReference
  2
_Open30
 10
1617.409115723108
 20
195.8462188199835
 30
0.0
 41
2.5
 42
2.5
 43
2.5
 50
180.0
  0
INSERT
  5
547
330
4C3
100
AcDbEntity
  8
0
 62
     0
370
    -2
100
AcDbBlockReference
  2
_Open30
 10
1614.951928668988
 20
195.8462188199835
 30
0.0
 41
2.5
 42
2.5
 43
2.5
  0
MTEXT
  5
548
330
4C3
100
AcDbEntity
  8
0
 62
     4
100
AcDbMText
 10
1600.401928668988
 20
199.6212188199835
 30
0.0
 40
6.299999999999999
 41
0.0
 71
     5
 72
     1
  1
0.25
  7
高6.3
 73
     1
 44
1.0
1001
ACAD
1000
MTEXTBEGIN
1070
    73
1070
     1
1070
    44
1040
1.0
1070
    74
1070
     0
1000
MTEXTEND
  0
POINT
  5
549
330
4C3
100
AcDbEntity
  8
Defpoints
 62
     0
100
AcDbPoint
 10
1617.409115723108
 20
197.7558502419923
 30
0.0
  0
POINT
  5
54A
330
4C3
100
AcDbEntity
  8
Defpoints
 62
     0
100
AcDbPoint
 10
1614.951928668988
 20
197.7558502419923
 30
0.0
  0
POINT
  5
54B
330
4C3
100
AcDbEntity
  8
Defpoints
 62
     0
100
AcDbPoint
 10
1614.951928668988
 20
195.8462188199835
 30
0.0
  0
ENDBLK
  5
4C5
330
4C3
100
AcDbEntity
  8
0
100
AcDbBlockEnd
  0
BLOCK
  5
4D2
330
4D1
100
AcDbEntity
  8
0
100
AcDbBlockBegin
  2
*D24
 70
     1
 10
0.0
 20
0.0
 30
0.0
  3
*D24
  1

  0
LINE
  5
54C
330
4D1
100
AcDbEntity
  8
0
 62
     0
370
    -2
100
AcDbLine
 10
1619.047240629181
 20
192.0497606692299
 30
0.0
 11
1619.047240629181
 21
189.5038685997666
 31
0.0
  0
LINE
  5
54D
330
4D1
100
AcDbEntity
  8
0
 62
     0
370
    -2
100
AcDbLine
 10
1615.953004831038
 20
192.0497606692299
 30
0.0
 11
1615.953004831038
 21
189.5038685997666
 31
0.0
  0
LINE
  5
54E
330
4D1
100
AcDbEntity
  8
0
 62
     0
370
    -2
100
AcDbLine
 10
1621.547240629181
 20
190.7538685997666
 30
0.0
 11
1624.047240629181
 21
190.7538685997666
 31
0.0
  0
LINE
  5
54F
330
4D1
100
AcDbEntity
  8
0
 62
     0
370
    -2
100
AcDbLine
 10
1613.453004831038
 20
190.7538685997666
 30
0.0
 11
1601.453004831038
 21
190.7538685997666
 31
0.0
  0
LINE
  5
550
330
4D1
100
AcDbEntity
  8
0
 62
     0
370
    -2
100
AcDbLine
 10
1619.047240629181
 20
190.7538685997666
 30
0.0
 11
1615.953004831038
 21
190.7538685997666
 31
0.0
  0
INSERT
  5
551
330
4D1
100
AcDbEntity
  8
0
 62
     0
370
    -2
100
AcDbBlockReference
  2
_Open30
 10
1619.047240629181
 20
190.7538685997666
 30
0.0
 41
2.5
 42
2.5
 43
2.5
 50
180.0
  0
INSERT
  5
552
330
4D1
100
AcDbEntity
  8
0
 62
     0
370
    -2
100
AcDbBlockReference
  2
_Open30
 10
1615.953004831038
 20
190.7538685997666
 30
0.0
 41
2.5
 42
2.5
 43
2.5
  0
MTEXT
  5
553
330
4D1
100
AcDbEntity
  8
0
 62
     4
100
AcDbMText
 10
1606.078004831038
 20
192.8788685997666
 30
0.0
 40
3.0
 41
0.0
 71
     5
 72
     1
  1
1.55
 73
     1
 44
1.0
1001
ACAD
1000
MTEXTBEGIN
1070
    73
1070
     1
1070
    44
1040
1.0
1070
    74
1070
     0
1000
MTEXTEND
  0
POINT
  5
554
330
4D1
100
AcDbEntity
  8
Defpoints
 62
     0
100
AcDbPoint
 10
1619.047240629181
 20
192.2997606692299
 30
0.0
  0
POINT
  5
555
330
4D1
100
AcDbEntity
  8
Defpoints
 62
     0
100
AcDbPoint
 10
1615.953004831038
 20
192.2997606692299
 30
0.0
  0
POINT
  5
556
330
4D1
100
AcDbEntity
  8
Defpoints
 62
     0
100
AcDbPoint
 10
1615.953004831038
 20
190.7538685997666
 30
0.0
  0
ENDBLK
  5
4D3
330
4D1
100
AcDbEntity
  8
0
100
AcDbBlockEnd
  0
BLOCK
  5
4E0
330
4DF
100
AcDbEntity
  8
0
100
AcDbBlockBegin
  2
*D25
 70
     1
 10
0.0
 20
0.0
 30
0.0
  3
*D25
  1

  0
LINE
  5
557
330
4DF
100
AcDbEntity
  8
0
 62
     0
370
    -2
100
AcDbLine
 10
1620.776372237267
 20
186.5936709533835
 30
0.0
 11
1620.776372237267
 21
184.3205832910162
 31
0.0
  0
LINE
  5
558
330
4DF
100
AcDbEntity
  8
0
 62
     0
370
    -2
100
AcDbLine
 10
1616.772067284075
 20
186.5936709533835
 30
0.0
 11
1616.772067284075
 21
184.3205832910162
 31
0.0
  0
LINE
  5
559
330
4DF
100
AcDbEntity
  8
0
 62
     0
370
    -2
100
AcDbLine
 10
1623.276372237267
 20
185.5705832910162
 30
0.0
 11
1625.776372237267
 21
185.5705832910162
 31
0.0
  0
LINE
  5
55A
330
4DF
100
AcDbEntity
  8
0
 62
     0
370
    -2
100
AcDbLine
 10
1614.272067284075
 20
185.5705832910162
 30
0.0
 11
1605.938733950742
 21
185.5705832910162
 31
0.0
  0
LINE
  5
55B
330
4DF
100
AcDbEntity
  8
0
 62
     0
370
    -2
100
AcDbLine
 10
1620.776372237267
 20
185.5705832910162
 30
0.0
 11
1616.772067284075
 21
185.5705832910162
 31
0.0
  0
INSERT
  5
55C
330
4DF
100
AcDbEntity
  8
0
 62
     0
370
    -2
100
AcDbBlockReference
  2
_Open30
 10
1620.776372237267
 20
185.5705832910162
 30
0.0
 41
2.5
 42
2.5
 43
2.5
 50
180.0
  0
INSERT
  5
55D
330
4DF
100
AcDbEntity
  8
0
 62
     0
370
    -2
100
AcDbBlockReference
  2
_Open30
 10
1616.772067284075
 20
185.5705832910162
 30
0.0
 41
2.5
 42
2.5
 43
2.5
  0
MTEXT
  5
55E
330
4DF
100
AcDbEntity
  8
0
 62
     4
100
AcDbMText
 10
1608.397067284075
 20
187.1955832910162
 30
0.0
 40
2.0
 41
0.0
 71
     5
 72
     1
  1
0.8
  7
高2
 73
     1
 44
1.0
1001
ACAD
1000
MTEXTBEGIN
1070
    73
1070
     1
1070
    44
1040
1.0
1070
    74
1070
     0
1000
MTEXTEND
  0
POINT
  5
55F
330
4DF
100
AcDbEntity
  8
Defpoints
 62
     0
100
AcDbPoint
 10
1620.776372237267
 20
186.8436709533835
 30
0.0
  0
POINT
  5
560
330
4DF
100
AcDbEntity
  8
Defpoints
 62
     0
100
AcDbPoint
 10
1616.772067284075
 20
186.8436709533835
 30
0.0
  0
POINT
  5
561
330
4DF
100
AcDbEntity
  8
Defpoints
 62
     0
100
AcDbPoint
 10
1616.772067284075
 20
185.5705832910162
 30
0.0
  0
ENDBLK
  5
4E1
330
4DF
100
AcDbEntity
  8
0
100
AcDbBlockEnd
  0
BLOCK
  5
4EE
330
4ED
100
AcDbEntity
  8
0
100
AcDbBlockBegin
  2
*D26
 70
     1
 10
0.0
 20
0.0
 30
0.0
  3
*D26
  1

  0
LINE
  5
562
330
4ED
100
AcDbEntity
  8
0
 62
     0
370
    -2
100
AcDbLine
 10
1620.685365535254
 20
181.3194509853518
 30
0.0
 11
1620.685365535254
 21
179.5010374778954
 31
0.0
  0
LINE
  5
563
330
4ED
100
AcDbEntity
  8
0
 62
     0
370
    -2
100
AcDbLine
 10
1615.953004831038
 20
181.3194509853518
 30
0.0
 11
1615.953004831038
 21
179.5010374778954
 31
0.0
  0
LINE
  5
564
330
4ED
100
AcDbEntity
  8
0
 62
     0
370
    -2
100
AcDbLine
 10
1623.185365535254
 20
180.7510374778954
 30
0.0
 11
1625.685365535255
 21
180.7510374778954
 31
0.0
  0
LINE
  5
565
330
4ED
100
AcDbEntity
  8
0
 62
     0
370
    -2
100
AcDbLine
 10
1613.453004831038
 20
180.7510374778954
 30
0.0
 11
1598.703004831038
 21
180.7510374778954
 31
0.0
  0
LINE
  5
566
330
4ED
100
AcDbEntity
  8
0
 62
     0
370
    -2
100
AcDbLine
 10
1620.685365535254
 20
180.7510374778954
 30
0.0
 11
1615.953004831038
 21
180.7510374778954
 31
0.0
  0
INSERT
  5
567
330
4ED
100
AcDbEntity
  8
0
 62
     0
370
    -2
100
AcDbBlockReference
  2
_Open30
 10
1620.685365535254
 20
180.7510374778954
 30
0.0
 41
2.5
 42
2.5
 43
2.5
 50
180.0
  0
INSERT
  5
568
330
4ED
100
AcDbEntity
  8
0
 62
     0
370
    -2
100
AcDbBlockReference
  2
_Open30
 10
1615.953004831038
 20
180.7510374778954
 30
0.0
 41
2.5
 42
2.5
 43
2.5
  0
MTEXT
  5
569
330
4ED
100
AcDbEntity
  8
0
 62
     4
100
AcDbMText
 10
1604.828004831038
 20
182.8760374778955
 30
0.0
 40
3.0
 41
0.0
 71
     5
 72
     1
  1
18.93
 73
     1
 44
1.0
1001
ACAD
1000
MTEXTBEGIN
1070
    73
1070
     1
1070
    44
1040
1.0
1070
    74
1070
     0
1000
MTEXTEND
  0
POINT
  5
56A
330
4ED
100
AcDbEntity
  8
Defpoints
 62
     0
100
AcDbPoint
 10
1620.685365535254
 20
181.5694509853518
 30
0.0
  0
POINT
  5
56B
330
4ED
100
AcDbEntity
  8
Defpoints
 62
     0
100
AcDbPoint
 10
1615.953004831038
 20
181.5694509853518
 30
0.0
  0
POINT
  5
56C
330
4ED
100
AcDbEntity
  8
Defpoints
 62
     0
100
AcDbPoint
 10
1615.953004831038
 20
180.7510374778954
 30
0.0
  0
ENDBLK
  5
4EF
330
4ED
100
AcDbEntity
  8
0
100
AcDbBlockEnd
  0
BLOCK
  5
4FC
330
4FB
100
AcDbEntity
  8
0
100
AcDbBlockBegin
  2
*D27
 70
     1
 10
0.0
 20
0.0
 30
0.0
  3
*D27
  1

  0
LINE
  5
56D
330
4FB
100
AcDbEntity
  8
0
 62
     0
370
    -2
100
AcDbLine
 10
1617.880938684116
 20
176.2636107787621
 30
0.0
 11
1617.880938684116
 21
173.9536897018865
 31
0.0
  0
LINE
  5
56E
330
4FB
100
AcDbEntity
  8
0
 62
     0
370
    -2
100
AcDbLine
 10
1613.292263481968
 20
176.2636107787621
 30
0.0
 11
1613.292263481968
 21
173.9536897018865
 31
0.0
  0
LINE
  5
56F
330
4FB
100
AcDbEntity
  8
0
 62
     0
370
    -2
100
AcDbLine
 10
1620.380938684116
 20
175.2036897018865
 30
0.0
 11
1622.880938684116
 21
175.2036897018865
 31
0.0
  0
LINE
  5
570
330
4FB
100
AcDbEntity
  8
0
 62
     0
370
    -2
100
AcDbLine
 10
1610.792263481968
 20
175.2036897018865
 30
0.0
 11
1596.042263481968
 21
175.2036897018865
 31
0.0
  0
LINE
  5
571
330
4FB
100
AcDbEntity
  8
0
 62
     0
370
    -2
100
AcDbLine
 10
1617.880938684116
 20
175.2036897018865
 30
0.0
 11
1613.292263481968
 21
175.2036897018865
 31
0.0
  0
INSERT
  5
572
330
4FB
100
AcDbEntity
  8
0
 62
     0
370
    -2
100
AcDbBlockReference
  2
_Open30
 10
1617.880938684116
 20
175.2036897018865
 30
0.0
 41
2.5
 42
2.5
 43
2.5
 50
180.0
  0
INSERT
  5
573
330
4FB
100
AcDbEntity
  8
0
 62
     0
370
    -2
100
AcDbBlockReference
  2
_Open30
 10
1613.292263481968
 20
175.2036897018865
 30
0.0
 41
2.5
 42
2.5
 43
2.5
  0
MTEXT
  5
574
330
4FB
100
AcDbEntity
  8
0
 62
     4
100
AcDbMText
 10
1602.167263481968
 20
177.3286897018865
 30
0.0
 40
3.0
 41
0.0
 71
     5
 72
     1
  1
13.77
 73
     1
 44
1.0
1001
ACAD
1000
MTEXTBEGIN
1070
    73
1070
     1
1070
    44
1040
1.0
1070
    74
1070
     0
1000
MTEXTEND
  0
POINT
  5
575
330
4FB
100
AcDbEntity
  8
Defpoints
 62
     0
100
AcDbPoint
 10
1617.880938684116
 20
176.5136107787621
 30
0.0
  0
POINT
  5
576
330
4FB
100
AcDbEntity
  8
Defpoints
 62
     0
100
AcDbPoint
 10
1613.292263481968
 20
176.5136107787621
 30
0.0
  0
POINT
  5
577
330
4FB
100
AcDbEntity
  8
Defpoints
 62
     0
100
AcDbPoint
 10
1613.292263481968
 20
175.2036897018865
 30
0.0
  0
ENDBLK
  5
4FD
330
4FB
100
AcDbEntity
  8
0
100
AcDbBlockEnd
  0
BLOCK
  5
50A
330
509
100
AcDbEntity
  8
0
100
AcDbBlockBegin
  2
*D28
 70
     1
 10
0.0
 20
0.0
 30
0.0
  3
*D28
  1

  0
LINE
  5
578
330
509
100
AcDbEntity
  8
0
 62
     0
370
    -2
100
AcDbLine
 10
1610.784655850966
 20
207.1931020970364
 30
0.0
 11
1610.784655850966
 21
214.5896355749742
 31
0.0
  0
LINE
  5
579
330
509
100
AcDbEntity
  8
0
 62
     0
370
    -2
100
AcDbLine
 10
1600.846181481476
 20
207.1931020970364
 30
0.0
 11
1600.846181481476
 21
214.5896355749742
 31
0.0
  0
LINE
  5
57A
330
509
100
AcDbEntity
  8
0
 62
     0
370
    -2
100
AcDbLine
 10
1608.284655850965
 20
213.3396355749742
 30
0.0
 11
1603.346181481476
 21
213.3396355749742
 31
0.0
  0
INSERT
  5
57B
330
509
100
AcDbEntity
  8
0
 62
     0
370
    -2
100
AcDbBlockReference
  2
_Open30
 10
1610.784655850966
 20
213.3396355749742
 30
0.0
 41
2.5
 42
2.5
 43
2.5
  0
INSERT
  5
57C
330
509
100
AcDbEntity
  8
0
 62
     0
370
    -2
100
AcDbBlockReference
  2
_Open30
 10
1600.846181481476
 20
213.3396355749742
 30
0.0
 41
2.5
 42
2.5
 43
2.5
 50
180.0
  0
MTEXT
  5
57D
330
509
100
AcDbEntity
  8
0
 62
     4
100
AcDbMText
 10
1605.815418666221
 20
216.4146355749742
 30
0.0
 40
3.0
 41
0.0
 71
     5
 72
     1
  1
9.94\H0.7X;\S+0^ -0.02;
 73
     1
 44
1.0
1001
ACAD
1000
MTEXTBEGIN
1070
    73
1070
     1
1070
    44
1040
1.0
1070
    74
1070
     0
1000
MTEXTEND
  0
POINT
  5
57E
330
509
100
AcDbEntity
  8
Defpoints
 62
     0
100
AcDbPoint
 10
1610.784655850966
 20
206.9431020970364
 30
0.0
  0
POINT
  5
57F
330
509
100
AcDbEntity
  8
Defpoints
 62
     0
100
AcDbPoint
 10
1600.846181481476
 20
206.9431020970364
 30
0.0
  0
POINT
  5
580
330
509
100
AcDbEntity
  8
Defpoints
 62
     0
100
AcDbPoint
 10
1600.846181481476
 20
213.3396355749742
 30
0.0
  0
ENDBLK
  5
50B
330
509
100
AcDbEntity
  8
0
100
AcDbBlockEnd
  0
BLOCK
  5
582
330
581
100
AcDbEntity
  8
0
100
AcDbBlockBegin
  2
*D29
 70
     1
 10
0.0
 20
0.0
 30
0.0
  3
*D29
  1

  0
LINE
  5
5AD
330
581
100
AcDbEntity
  8
0
 62
     0
370
    -2
100
AcDbLine
 10
1008.28543
 20
70.021496
 30
0.0
 11
1008.28543
 21
43.815775
 31
0.0
  0
LINE
  5
5AE
330
581
100
AcDbEntity
  8
0
 62
     0
370
    -2
100
AcDbLine
 10
1120.78543
 20
70.021496
 30
0.0
 11
1120.78543
 21
43.815775
 31
0.0
  0
LINE
  5
5AF
330
581
100
AcDbEntity
  8
0
 62
     0
370
    -2
100
AcDbLine
 10
1010.78543
 20
45.065775
 30
0.0
 11
1118.28543
 21
45.065775
 31
0.0
  0
INSERT
  5
5B0
330
581
100
AcDbEntity
  8
0
 62
     0
370
    -2
100
AcDbBlockReference
  2
_Open30
 10
1008.28543
 20
45.065775
 30
0.0
 41
2.5
 42
2.5
 43
2.5
 50
180.0
  0
INSERT
  5
5B1
330
581
100
AcDbEntity
  8
0
 62
     0
370
    -2
100
AcDbBlockReference
  2
_Open30
 10
1120.78543
 20
45.065775
 30
0.0
 41
2.5
 42
2.5
 43
2.5
  0
MTEXT
  5
5B2
330
581
100
AcDbEntity
  8
0
 62
     4
100
AcDbMText
 10
1064.53543
 20
47.190775
 30
0.0
 40
3.0
 41
0.0
 71
     5
 72
     1
  1
225
 73
     1
 44
1.0
1001
ACAD
1000
MTEXTBEGIN
1070
    73
1070
     1
1070
    44
1040
1.0
1070
    74
1070
     0
1000
MTEXTEND
  0
POINT
  5
5B3
330
581
100
AcDbEntity
  8
Defpoints
 62
     0
100
AcDbPoint
 10
1008.28543
 20
70.271496
 30
0.0
  0
POINT
  5
5B4
330
581
100
AcDbEntity
  8
Defpoints
 62
     0
100
AcDbPoint
 10
1120.78543
 20
70.271496
 30
0.0
  0
POINT
  5
5B5
330
581
100
AcDbEntity
  8
Defpoints
 62
     0
100
AcDbPoint
 10
1120.78543
 20
45.065775
 30
0.0
  0
ENDBLK
  5
583
330
581
100
AcDbEntity
  8
0
100
AcDbBlockEnd
  0
BLOCK
  5
58E
330
58D
100
AcDbEntity
  8
0
100
AcDbBlockBegin
  2
*D30
 70
     1
 10
0.0
 20
0.0
 30
0.0
  3
*D30
  1

  0
LINE
  5
5B6
330
58D
100
AcDbEntity
  8
0
 62
     0
370
    -2
100
AcDbLine
 10
1010.53543
 20
67.271496
 30
0.0
 11
998.23854
 21
67.271496
 31
0.0
  0
LINE
  5
5B7
330
58D
100
AcDbEntity
  8
0
 62
     0
370
    -2
100
AcDbLine
 10
1008.03543
 20
129.771496
 30
0.0
 11
998.23854
 21
129.771496
 31
0.0
  0
LINE
  5
5B8
330
58D
100
AcDbEntity
  8
0
 62
     0
370
    -2
100
AcDbLine
 10
999.4885400000001
 20
69.771496
 30
0.0
 11
999.4885400000001
 21
127.271496
 31
0.0
  0
INSERT
  5
5B9
330
58D
100
AcDbEntity
  8
0
 62
     0
370
    -2
100
AcDbBlockReference
  2
_Open30
 10
999.4885400000001
 20
67.271496
 30
0.0
 41
2.5
 42
2.5
 43
2.5
 50
270.0
  0
INSERT
  5
5BA
330
58D
100
AcDbEntity
  8
0
 62
     0
370
    -2
100
AcDbBlockReference
  2
_Open30
 10
999.4885400000001
 20
129.771496
 30
0.0
 41
2.5
 42
2.5
 43
2.5
 50
90.0
  0
MTEXT
  5
5BB
330
58D
100
AcDbEntity
  8
0
 62
     4
100
AcDbMText
 10
997.36354
 20
98.52149600000016
 30
0.0
 40
3.0
 41
0.0
 71
     5
 72
     1
  1
125
 11
0.0000000000000001
 21
1.0
 31
0.0
 73
     1
 44
1.0
1001
ACAD
1000
MTEXTBEGIN
1070
    73
1070
     1
1070
    44
1040
1.0
1070
    74
1070
     0
1000
MTEXTEND
  0
POINT
  5
5BC
330
58D
100
AcDbEntity
  8
Defpoints
 62
     0
100
AcDbPoint
 10
1010.78543
 20
67.271496
 30
0.0
  0
POINT
  5
5BD
330
58D
100
AcDbEntity
  8
Defpoints
 62
     0
100
AcDbPoint
 10
1008.28543
 20
129.771496
 30
0.0
  0
POINT
  5
5BE
330
58D
100
AcDbEntity
  8
Defpoints
 62
     0
100
AcDbPoint
 10
999.4885400000001
 20
129.771496
 30
0.0
  0
ENDBLK
  5
58F
330
58D
100
AcDbEntity
  8
0
100
AcDbBlockEnd
  0
BLOCK
  5
59A
330
599
100
AcDbEntity
  8
0
100
AcDbBlockBegin
  2
*D31
 70
     1
 10
0.0
 20
0.0
 30
0.0
  3
*D31
  1

  0
LINE
  5
5BF
330
599
100
AcDbEntity
  8
0
 62
     0
370
    -2
100
AcDbLine
 10
888.430748
 20
70.021496
 30
0.0
 11
888.430748
 21
43.815775
 31
0.0
  0
LINE
  5
5C0
330
599
100
AcDbEntity
  8
0
 62
     0
370
    -2
100
AcDbLine
 10
985.930748
 20
70.021496
 30
0.0
 11
985.930748
 21
43.815775
 31
0.0
  0
LINE
  5
5C1
330
599
100
AcDbEntity
  8
0
 62
     0
370
    -2
100
AcDbLine
 10
890.930748
 20
45.065775
 30
0.0
 11
983.4307479999999
 21
45.065775
 31
0.0
  0
INSERT
  5
5C2
330
599
100
AcDbEntity
  8
0
 62
     0
370
    -2
100
AcDbBlockReference
  2
_Open30
 10
888.430748
 20
45.065775
 30
0.0
 41
2.5
 42
2.5
 43
2.5
 50
180.0
  0
INSERT
  5
5C3
330
599
100
AcDbEntity
  8
0
 62
     0
370
    -2
100
AcDbBlockReference
  2
_Open30
 10
985.930748
 20
45.065775
 30
0.0
 41
2.5
 42
2.5
 43
2.5
  0
MTEXT
  5
5C4
330
599
100
AcDbEntity
  8
0
 62
     4
100
AcDbMText
 10
937.1807479999999
 20
47.190775
 30
0.0
 40
3.0
 41
0.0
 71
     5
 72
     1
  1
195
 73
     1
 44
1.0
1001
ACAD
1000
MTEXTBEGIN
1070
    73
1070
     1
1070
    44
1040
1.0
1070
    74
1070
     0
1000
MTEXTEND
  0
POINT
  5
5C5
330
599
100
AcDbEntity
  8
Defpoints
 62
     0
100
AcDbPoint
 10
888.430748
 20
70.271496
 30
0.0
  0
POINT
  5
5C6
330
599
100
AcDbEntity
  8
Defpoints
 62
     0
100
AcDbPoint
 10
985.930748
 20
70.271496
 30
0.0
  0
POINT
  5
5C7
330
599
100
AcDbEntity
  8
Defpoints
 62
     0
100
AcDbPoint
 10
985.930748
 20
45.065775
 30
0.0
  0
ENDBLK
  5
59B
330
599
100
AcDbEntity
  8
0
100
AcDbBlockEnd
  0
ENDSEC
  0
SECTION
  2
ENTITIES
  0
LINE
  5
CA
330
6B
100
AcDbEntity
  8
0
 62
     3
100
AcDbLine
 10
985.930748
 20
127.271496
 30
0.0
 11
985.930748
 21
70.271496
 31
0.0
  0
LINE
  5
CB
330
6B
100
AcDbEntity
  8
0
 62
     3
100
AcDbLine
 10
888.430748
 20
127.271496
 30
0.0
 11
888.430748
 21
70.271496
 31
0.0
  0
LINE
  5
CC
330
6B
100
AcDbEntity
  8
0
 62
     3
100
AcDbLine
 10
890.930748
 20
129.771496
 30
0.0
 11
983.4307479999999
 21
129.771496
 31
0.0
  0
LINE
  5
CD
330
6B
100
AcDbEntity
  8
0
 62
     3
100
AcDbLine
 10
927.305748
 20
124.771496
 30
0.0
 11
927.305748
 21
109.771496
 31
0.0
  0
LINE
  5
CE
330
6B
100
AcDbEntity
  8
0
 62
     3
100
AcDbLine
 10
923.0557479999999
 20
109.771496
 30
0.0
 11
923.0557479999999
 21
124.771496
 31
0.0
  0
LINE
  5
CF
330
6B
100
AcDbEntity
  8
0
 62
     3
100
AcDbLine
 10
953.805748
 20
109.771496
 30
0.0
 11
953.805748
 21
124.771496
 31
0.0
  0
LINE
  5
D0
330
6B
100
AcDbEntity
  8
0
 62
     3
100
AcDbLine
 10
896.5557479999999
 20
124.771496
 30
0.0
 11
896.5557479999999
 21
109.771496
 31
0.0
  0
LINE
  5
D1
330
6B
100
AcDbEntity
  8
0
 62
     3
100
AcDbLine
 10
896.5557479999999
 20
124.771496
 30
0.0
 11
923.0557479999999
 21
124.771496
 31
0.0
  0
LINE
  5
D2
330
6B
100
AcDbEntity
  8
0
 62
     3
100
AcDbLine
 10
896.5557479999999
 20
109.771496
 30
0.0
 11
923.0557479999999
 21
109.771496
 31
0.0
  0
LINE
  5
D3
330
6B
100
AcDbEntity
  8
0
 62
     3
100
AcDbLine
 10
927.305748
 20
109.771496
 30
0.0
 11
953.805748
 21
109.771496
 31
0.0
  0
LINE
  5
D4
330
6B
100
AcDbEntity
  8
0
 62
     3
100
AcDbLine
 10
927.305748
 20
124.771496
 30
0.0
 11
953.805748
 21
124.771496
 31
0.0
  0
CIRCLE
  5
D5
330
6B
100
AcDbEntity
  8
0
 62
     3
100
AcDbCircle
 10
937.1807479999999
 20
84.27149599999999
 30
0.0
 40
3.75
  0
CIRCLE
  5
D6
330
6B
100
AcDbEntity
  8
0
 62
     3
100
AcDbCircle
 10
920.680748
 20
84.27149599999999
 30
0.0
 40
3.75
  0
CIRCLE
  5
D7
330
6B
100
AcDbEntity
  8
0
 62
     3
100
AcDbCircle
 10
901.680748
 20
86.271496
 30
0.0
 40
8.0
  0
CIRCLE
  5
D8
330
6B
100
AcDbEntity
  8
0
 62
     3
100
AcDbCircle
 10
956.430748
 20
99.771496
 30
0.0
 40
2.0
  0
LINE
  5
D9
330
6B
100
AcDbEntity
  8
0
 62
     3
100
AcDbLine
 10
951.930748
 20
88.02149599999999
 30
0.0
 11
951.930748
 21
79.771496
 31
0.0
  0
LINE
  5
DA
330
6B
100
AcDbEntity
  8
0
 62
     3
100
AcDbLine
 10
978.430748
 20
88.02149599999999
 30
0.0
 11
978.430748
 21
79.771496
 31
0.0
  0
LINE
  5
DB
330
6B
100
AcDbEntity
  8
0
 62
     3
100
AcDbLine
 10
978.430748
 20
88.02149599999999
 30
0.0
 11
951.930748
 21
88.02149599999999
 31
0.0
  0
LINE
  5
DC
330
6B
100
AcDbEntity
  8
0
 62
     3
100
AcDbLine
 10
978.430748
 20
79.771496
 30
0.0
 11
977.680748
 21
79.771496
 31
0.0
  0
LINE
  5
DD
330
6B
100
AcDbEntity
  8
0
 62
     3
100
AcDbLine
 10
952.680748
 20
79.771496
 30
0.0
 11
951.930748
 21
79.771496
 31
0.0
  0
LINE
  5
DE
330
6B
100
AcDbEntity
  8
0
 62
     3
100
AcDbLine
 10
959.680748
 20
79.771496
 30
0.0
 11
956.6807479999999
 21
79.771496
 31
0.0
  0
LINE
  5
DF
330
6B
100
AcDbEntity
  8
0
 62
     3
100
AcDbLine
 10
966.6807480000001
 20
79.771496
 30
0.0
 11
963.6807479999999
 21
79.771496
 31
0.0
  0
LINE
  5
E0
330
6B
100
AcDbEntity
  8
0
 62
     3
100
AcDbLine
 10
973.6807479999999
 20
79.771496
 30
0.0
 11
970.680748
 21
79.771496
 31
0.0
  0
LINE
  5
E1
330
6B
100
AcDbEntity
  8
0
 62
     3
100
AcDbLine
 10
974.930748
 20
122.771496
 30
0.0
 11
974.930748
 21
111.271496
 31
0.0
  0
LINE
  5
E2
330
6B
100
AcDbEntity
  8
0
 62
     3
100
AcDbLine
 10
967.4307479999999
 20
122.771496
 30
0.0
 11
967.4307479999999
 21
111.271496
 31
0.0
  0
LINE
  5
E3
330
6B
100
AcDbEntity
  8
0
 62
     3
100
AcDbLine
 10
974.930748
 20
122.771496
 30
0.0
 11
967.4307479999999
 21
122.771496
 31
0.0
  0
LINE
  5
E4
330
6B
100
AcDbEntity
  8
0
 62
     3
100
AcDbLine
 10
967.4307479999999
 20
111.271496
 30
0.0
 11
974.930748
 21
111.271496
 31
0.0
  0
ARC
  5
E5
330
6B
100
AcDbEntity
  8
0
 62
     3
100
AcDbCircle
 10
983.4307479999999
 20
127.271496
 30
0.0
 40
2.5
100
AcDbArc
 50
0.0
 51
90.0
  0
ARC
  5
E6
330
6B
100
AcDbEntity
  8
0
 62
     3
100
AcDbCircle
 10
890.930748
 20
127.271496
 30
0.0
 40
2.5
100
AcDbArc
 50
90.0
 51
180.0
  0
ARC
  5
E7
330
6B
100
AcDbEntity
  8
0
 62
     3
100
AcDbCircle
 10
890.930748
 20
72.271496
 30
0.0
 40
2.0
100
AcDbArc
 50
180.0
 51
270.0
  0
ARC
  5
E8
330
6B
100
AcDbEntity
  8
0
 62
     3
100
AcDbCircle
 10
983.4307479999999
 20
72.271496
 30
0.0
 40
2.0
100
AcDbArc
 50
270.0
 51
0.0
  0
LINE
  5
E9
330
6B
100
AcDbEntity
  8
0
 62
     3
100
AcDbLine
 10
983.4307479999999
 20
70.271496
 30
0.0
 11
890.930748
 21
70.271496
 31
0.0
  0
LINE
  5
EA
330
6B
100
AcDbEntity
  8
0
 62
     3
100
AcDbLine
 10
1008.28543
 20
129.771496
 30
0.0
 11
1120.78543
 21
129.771496
 31
0.0
  0
LINE
  5
EB
330
6B
100
AcDbEntity
  8
0
 62
     3
100
AcDbLine
 10
1008.28543
 20
70.271496
 30
0.0
 11
1120.78543
 21
70.271496
 31
0.0
  0
LINE
  5
EC
330
6B
100
AcDbEntity
  8
0
 62
     3
100
AcDbLine
 10
1008.28543
 20
129.771496
 30
0.0
 11
1008.28543
 21
70.271496
 31
0.0
  0
LINE
  5
ED
330
6B
100
AcDbEntity
  8
0
 62
     3
100
AcDbLine
 10
1120.78543
 20
70.271496
 30
0.0
 11
1120.78543
 21
129.771496
 31
0.0
  0
LINE
  5
EE
330
6B
100
AcDbEntity
  8
0
 62
     3
100
AcDbLine
 10
1018.28543
 20
99.585859
 30
0.0
 11
1059.53543
 21
99.585859
 31
0.0
  0
LINE
  5
EF
330
6B
100
AcDbEntity
  8
0
 62
     3
100
AcDbLine
 10
1018.28543
 20
94.585859
 30
0.0
 11
1059.53543
 21
94.585859
 31
0.0
  0
LINE
  5
F0
330
6B
100
AcDbEntity
  8
0
 62
     3
100
AcDbLine
 10
1018.28543
 20
89.585859
 30
0.0
 11
1059.53543
 21
89.585859
 31
0.0
  0
LINE
  5
F1
330
6B
100
AcDbEntity
  8
0
 62
     3
100
AcDbLine
 10
1018.28543
 20
84.585859
 30
0.0
 11
1059.53543
 21
84.585859
 31
0.0
  0
LINE
  5
F2
330
6B
100
AcDbEntity
  8
0
 62
     3
100
AcDbLine
 10
1018.28543
 20
79.585859
 30
0.0
 11
1059.53543
 21
79.585859
 31
0.0
  0
LINE
  5
F3
330
6B
100
AcDbEntity
  8
0
 62
     3
100
AcDbLine
 10
1110.78543
 20
99.585859
 30
0.0
 11
1069.53543
 21
99.585859
 31
0.0
  0
LINE
  5
F4
330
6B
100
AcDbEntity
  8
0
 62
     3
100
AcDbLine
 10
1110.78543
 20
94.585859
 30
0.0
 11
1069.53543
 21
94.585859
 31
0.0
  0
LINE
  5
F5
330
6B
100
AcDbEntity
  8
0
 62
     3
100
AcDbLine
 10
1110.78543
 20
89.585859
 30
0.0
 11
1069.53543
 21
89.585859
 31
0.0
  0
LINE
  5
F6
330
6B
100
AcDbEntity
  8
0
 62
     3
100
AcDbLine
 10
1110.78543
 20
84.585859
 30
0.0
 11
1069.53543
 21
84.585859
 31
0.0
  0
LINE
  5
F7
330
6B
100
AcDbEntity
  8
0
 62
     3
100
AcDbLine
 10
1110.78543
 20
79.585859
 30
0.0
 11
1069.53543
 21
79.585859
 31
0.0
  0
LINE
  5
F8
330
6B
100
AcDbEntity
  8
0
 62
     3
100
AcDbLine
 10
1137.055397
 20
127.271496
 30
0.0
 11
1137.055397
 21
70.271496
 31
0.0
  0
LINE
  5
F9
330
6B
100
AcDbEntity
  8
0
 62
     3
100
AcDbLine
 10
1234.555397
 20
70.271496
 30
0.0
 11
1234.555397
 21
127.271496
 31
0.0
  0
ARC
  5
FA
330
6B
100
AcDbEntity
  8
0
 62
     3
100
AcDbCircle
 10
1232.055397
 20
127.271496
 30
0.0
 40
2.5
100
AcDbArc
 50
0.0
 51
90.0
  0
LINE
  5
FB
330
6B
100
AcDbEntity
  8
0
 62
     3
100
AcDbLine
 10
1139.555397
 20
129.771496
 30
0.0
 11
1232.055397
 21
129.771496
 31
0.0
  0
ARC
  5
FC
330
6B
100
AcDbEntity
  8
0
 62
     3
100
AcDbCircle
 10
1139.555397
 20
127.271496
 30
0.0
 40
2.5
100
AcDbArc
 50
90.0
 51
180.0
  0
LINE
  5
FD
330
6B
100
AcDbEntity
  8
0
 62
     3
100
AcDbLine
 10
1137.055397
 20
70.271496
 30
0.0
 11
1137.555397
 21
70.271496
 31
0.0
  0
LINE
  5
FE
330
6B
100
AcDbEntity
  8
0
 62
     3
100
AcDbLine
 10
1164.805397
 20
70.271496
 30
0.0
 11
1232.055397
 21
70.271496
 31
0.0
  0
CIRCLE
  5
FF
330
6B
100
AcDbEntity
  8
0
 62
     3
100
AcDbCircle
 10
1148.305397
 20
82.271496
 30
0.0
 40
3.75
  0
ARC
  5
100
330
6B
100
AcDbEntity
  8
0
 62
     3
100
AcDbCircle
 10
1232.055397
 20
72.271496
 30
0.0
 40
2.0
100
AcDbArc
 50
270.0
 51
0.0
  0
ARC
  5
101
330
6B
100
AcDbEntity
  8
0
 62
     3
100
AcDbCircle
 10
1139.555397
 20
72.271496
 30
0.0
 40
2.0
100
AcDbArc
 50
180.0
 51
270.0
  0
LINE
  5
102
330
6B
100
AcDbEntity
  8
0
 62
     3
100
AcDbLine
 10
1234.055397
 20
70.271496
 30
0.0
 11
1234.555397
 21
70.271496
 31
0.0
  0
LINE
  5
103
330
6B
100
AcDbEntity
  8
0
 62
     3
100
AcDbLine
 10
1139.555397
 20
70.271496
 30
0.0
 11
1161.805397
 21
70.271496
 31
0.0
  0
LINE
  5
104
330
6B
100
AcDbEntity
  8
0
 62
     7
100
AcDbLine
 10
985.930748
 20
70.271496
 30
0.0
 11
985.4307480000001
 21
70.271496
 31
0.0
  0
LINE
  5
105
330
6B
100
AcDbEntity
  8
0
 62
     7
100
AcDbLine
 10
953.805748
 20
107.521496
 30
0.0
 11
953.805748
 21
108.521496
 31
0.0
  0
LINE
  5
106
330
6B
100
AcDbEntity
  8
0
 62
     7
100
AcDbLine
 10
896.5557479999999
 20
108.521496
 30
0.0
 11
896.5557479999999
 21
107.521496
 31
0.0
  0
LINE
  5
107
330
6B
100
AcDbEntity
  8
0
 62
     7
100
AcDbLine
 10
896.5557479999999
 20
108.521496
 30
0.0
 11
953.805748
 21
108.521496
 31
0.0
  0
LINE
  5
108
330
6B
100
AcDbEntity
  8
0
 62
     7
100
AcDbLine
 10
896.5557479999999
 20
107.521496
 30
0.0
 11
953.805748
 21
107.521496
 31
0.0
  0
CIRCLE
  5
109
330
6B
100
AcDbEntity
  8
0
 62
     7
100
AcDbCircle
 10
925.180748
 20
117.271496
 30
0.0
 40
1.75
  0
CIRCLE
  5
10A
330
6B
100
AcDbEntity
  8
0
 62
     7
100
AcDbCircle
 10
955.9307479999999
 20
117.271496
 30
0.0
 40
1.75
  0
CIRCLE
  5
10B
330
6B
100
AcDbEntity
  8
0
 62
     7
100
AcDbCircle
 10
894.430748
 20
117.271496
 30
0.0
 40
1.75
  0
ARC
  5
10C
330
6B
100
AcDbEntity
  8
0
 62
     7
100
AcDbCircle
 10
940.555748
 20
106.427023
 30
0.0
 40
14.275456
100
AcDbArc
 50
54.69597199999999
 51
125.304028
  0
LINE
  5
10D
330
6B
100
AcDbEntity
  8
0
 62
     7
100
AcDbLine
 10
931.358627
 20
119.071153
 30
0.0
 11
937.692
 21
109.817891
 31
0.0
  0
ARC
  5
10E
330
6B
100
AcDbEntity
  8
0
 62
     7
100
AcDbCircle
 10
940.555748
 20
107.521496
 30
0.0
 40
3.67076
100
AcDbArc
 50
37.803262
 51
142.196738
  0
ARC
  5
10F
330
6B
100
AcDbEntity
  8
0
 62
     7
100
AcDbCircle
 10
909.2060560000001
 20
92.14537299999999
 30
0.0
 40
27.329538
100
AcDbArc
 50
66.83503499999999
 51
113.164965
  0
LINE
  5
110
330
6B
100
AcDbEntity
  8
0
 62
     7
100
AcDbLine
 10
899.624865
 20
119.208882
 30
0.0
 11
906.942
 21
109.817891
 31
0.0
  0
ARC
  5
111
330
6B
100
AcDbEntity
  8
0
 62
     7
100
AcDbCircle
 10
909.8057479999999
 20
107.521496
 30
0.0
 40
3.67076
100
AcDbArc
 50
37.803262
 51
142.196738
  0
CIRCLE
  5
112
330
6B
100
AcDbEntity
  8
0
 62
     7
100
AcDbCircle
 10
937.1807479999999
 20
84.27149599999999
 30
0.0
 40
2.25
  0
CIRCLE
  5
113
330
6B
100
AcDbEntity
  8
0
 62
     7
100
AcDbCircle
 10
920.680748
 20
84.27149599999999
 30
0.0
 40
2.25
  0
LINE
  5
114
330
6B
100
AcDbEntity
  8
0
 62
     7
100
AcDbLine
 10
902.9307479999999
 20
77.271496
 30
0.0
 11
900.4307479999999
 21
77.271496
 31
0.0
  0
LINE
  5
115
330
6B
100
AcDbEntity
  8
0
 62
     7
100
AcDbLine
 10
902.9307479999999
 20
78.36975600000001
 30
0.0
 11
902.9307479999999
 21
77.271496
 31
0.0
  0
LINE
  5
116
330
6B
100
AcDbEntity
  8
0
 62
     7
100
AcDbLine
 10
900.4307479999999
 20
78.36975600000001
 30
0.0
 11
900.4307479999999
 21
77.271496
 31
0.0
  0
LINE
  5
117
330
6B
100
AcDbEntity
  8
0
 62
     7
100
AcDbLine
 10
902.680748
 20
97.021496
 30
0.0
 11
900.680748
 21
97.021496
 31
0.0
  0
LINE
  5
118
330
6B
100
AcDbEntity
  8
0
 62
     7
100
AcDbLine
 10
902.680748
 20
97.021496
 30
0.0
 11
903.1807479999999
 21
94.129613
 31
0.0
  0
LINE
  5
119
330
6B
100
AcDbEntity
  8
0
 62
     7
100
AcDbLine
 10
900.680748
 20
97.021496
 30
0.0
 11
900.180748
 21
94.129613
 31
0.0
  0
LINE
  5
11A
330
6B
100
AcDbEntity
  8
0
 62
     7
100
AcDbLine
 10
902.2597779999999
 20
96.52149600000001
 30
0.0
 11
901.101717
 21
96.52149600000001
 31
0.0
  0
LINE
  5
11B
330
6B
100
AcDbEntity
  8
0
 62
     7
100
AcDbLine
 10
902.3462269999999
 20
96.021496
 30
0.0
 11
901.015268
 21
96.021496
 31
0.0
  0
LINE
  5
11C
330
6B
100
AcDbEntity
  8
0
 62
     7
100
AcDbLine
 10
902.4326760000001
 20
95.52149599999999
 30
0.0
 11
900.92882
 21
95.52149599999999
 31
0.0
  0
LINE
  5
11D
330
6B
100
AcDbEntity
  8
0
 62
     7
100
AcDbLine
 10
902.519125
 20
95.021496
 30
0.0
 11
900.842371
 21
95.021496
 31
0.0
  0
CIRCLE
  5
11E
330
6B
100
AcDbEntity
  8
0
 62
     7
100
AcDbCircle
 10
956.430748
 20
99.771496
 30
0.0
 40
1.5
  0
LINE
  5
11F
330
6B
100
AcDbEntity
  8
0
 62
     7
100
AcDbLine
 10
978.430748
 20
86.271496
 30
0.0
 11
951.930748
 21
86.271496
 31
0.0
  0
LINE
  5
120
330
6B
100
AcDbEntity
  8
0
 62
     7
100
AcDbLine
 10
978.430748
 20
82.271496
 30
0.0
 11
951.930748
 21
82.271496
 31
0.0
  0
LINE
  5
121
330
6B
100
AcDbEntity
  8
0
 62
     7
100
AcDbLine
 10
977.680748
 20
85.771496
 30
0.0
 11
973.6807479999999
 21
85.771496
 31
0.0
  0
LINE
  5
122
330
6B
100
AcDbEntity
  8
0
 62
     7
100
AcDbLine
 10
977.680748
 20
82.77149599999999
 30
0.0
 11
973.6807479999999
 21
82.77149599999999
 31
0.0
  0
LINE
  5
123
330
6B
100
AcDbEntity
  8
0
 62
     7
100
AcDbLine
 10
977.680748
 20
85.771496
 30
0.0
 11
977.680748
 21
82.77149599999999
 31
0.0
  0
LINE
  5
124
330
6B
100
AcDbEntity
  8
0
 62
     7
100
AcDbLine
 10
973.6807479999999
 20
85.771496
 30
0.0
 11
973.6807479999999
 21
82.77149599999999
 31
0.0
  0
LINE
  5
125
330
6B
100
AcDbEntity
  8
0
 62
     7
100
AcDbLine
 10
975.980748
 20
85.021496
 30
0.0
 11
975.380748
 21
85.021496
 31
0.0
  0
LINE
  5
126
330
6B
100
AcDbEntity
  8
0
 62
     7
100
AcDbLine
 10
975.980748
 20
83.521496
 30
0.0
 11
975.380748
 21
83.521496
 31
0.0
  0
ARC
  5
127
330
6B
100
AcDbEntity
  8
0
 62
     7
100
AcDbCircle
 10
975.980748
 20
84.27149599999999
 30
0.0
 40
0.75
100
AcDbArc
 50
270.0
 51
90.0
  0
ARC
  5
128
330
6B
100
AcDbEntity
  8
0
 62
     7
100
AcDbCircle
 10
975.380748
 20
84.27149599999999
 30
0.0
 40
0.75
100
AcDbArc
 50
90.0
 51
270.0
  0
LINE
  5
129
330
6B
100
AcDbEntity
  8
0
 62
     7
100
AcDbLine
 10
977.680748
 20
85.771496
 30
0.0
 11
976.4552119999999
 21
84.85234399999999
 31
0.0
  0
LINE
  5
12A
330
6B
100
AcDbEntity
  8
0
 62
     7
100
AcDbLine
 10
973.6807479999999
 20
85.771496
 30
0.0
 11
974.906284
 21
84.85234399999999
 31
0.0
  0
LINE
  5
12B
330
6B
100
AcDbEntity
  8
0
 62
     7
100
AcDbLine
 10
974.906284
 20
83.690648
 30
0.0
 11
973.6807479999999
 21
82.77149599999999
 31
0.0
  0
LINE
  5
12C
330
6B
100
AcDbEntity
  8
0
 62
     7
100
AcDbLine
 10
976.4552119999999
 20
83.690648
 30
0.0
 11
977.680748
 21
82.77149599999999
 31
0.0
  0
LINE
  5
12D
330
6B
100
AcDbEntity
  8
0
 62
     7
100
AcDbLine
 10
977.680748
 20
82.271496
 30
0.0
 11
977.680748
 21
79.27149599999999
 31
0.0
  0
LINE
  5
12E
330
6B
100
AcDbEntity
  8
0
 62
     7
100
AcDbLine
 10
973.6807479999999
 20
82.271496
 30
0.0
 11
973.6807479999999
 21
79.27149599999999
 31
0.0
  0
LINE
  5
12F
330
6B
100
AcDbEntity
  8
0
 62
     7
100
AcDbLine
 10
977.680748
 20
79.27149599999999
 30
0.0
 11
973.6807479999999
 21
79.27149599999999
 31
0.0
  0
LINE
  5
130
330
6B
100
AcDbEntity
  8
0
 62
     7
100
AcDbLine
 10
968.980748
 20
83.521496
 30
0.0
 11
968.380748
 21
83.521496
 31
0.0
  0
LINE
  5
131
330
6B
100
AcDbEntity
  8
0
 62
     7
100
AcDbLine
 10
968.980748
 20
85.021496
 30
0.0
 11
968.380748
 21
85.021496
 31
0.0
  0
LINE
  5
132
330
6B
100
AcDbEntity
  8
0
 62
     7
100
AcDbLine
 10
970.680748
 20
82.77149599999999
 30
0.0
 11
966.6807480000001
 21
82.77149599999999
 31
0.0
  0
LINE
  5
133
330
6B
100
AcDbEntity
  8
0
 62
     7
100
AcDbLine
 10
970.680748
 20
85.771496
 30
0.0
 11
966.6807480000001
 21
85.771496
 31
0.0
  0
LINE
  5
134
330
6B
100
AcDbEntity
  8
0
 62
     7
100
AcDbLine
 10
970.680748
 20
79.27149599999999
 30
0.0
 11
966.6807480000001
 21
79.27149599999999
 31
0.0
  0
LINE
  5
135
330
6B
100
AcDbEntity
  8
0
 62
     7
100
AcDbLine
 10
966.6807480000001
 20
82.271496
 30
0.0
 11
966.6807480000001
 21
79.27149599999999
 31
0.0
  0
LINE
  5
136
330
6B
100
AcDbEntity
  8
0
 62
     7
100
AcDbLine
 10
970.680748
 20
82.271496
 30
0.0
 11
970.680748
 21
79.27149599999999
 31
0.0
  0
LINE
  5
137
330
6B
100
AcDbEntity
  8
0
 62
     7
100
AcDbLine
 10
966.6807480000001
 20
85.771496
 30
0.0
 11
966.6807480000001
 21
82.77149599999999
 31
0.0
  0
LINE
  5
138
330
6B
100
AcDbEntity
  8
0
 62
     7
100
AcDbLine
 10
970.680748
 20
85.771496
 30
0.0
 11
970.680748
 21
82.77149599999999
 31
0.0
  0
ARC
  5
139
330
6B
100
AcDbEntity
  8
0
 62
     7
100
AcDbCircle
 10
968.980748
 20
84.27149599999999
 30
0.0
 40
0.75
100
AcDbArc
 50
270.0
 51
90.0
  0
ARC
  5
13A
330
6B
100
AcDbEntity
  8
0
 62
     7
100
AcDbCircle
 10
968.380748
 20
84.27149599999999
 30
0.0
 40
0.75
100
AcDbArc
 50
90.0
 51
270.0
  0
LINE
  5
13B
330
6B
100
AcDbEntity
  8
0
 62
     7
100
AcDbLine
 10
970.680748
 20
85.771496
 30
0.0
 11
969.4552119999999
 21
84.85234399999999
 31
0.0
  0
LINE
  5
13C
330
6B
100
AcDbEntity
  8
0
 62
     7
100
AcDbLine
 10
967.906284
 20
83.690648
 30
0.0
 11
966.6807480000001
 21
82.77149599999999
 31
0.0
  0
LINE
  5
13D
330
6B
100
AcDbEntity
  8
0
 62
     7
100
AcDbLine
 10
966.6807480000001
 20
85.771496
 30
0.0
 11
967.906284
 21
84.85234399999999
 31
0.0
  0
LINE
  5
13E
330
6B
100
AcDbEntity
  8
0
 62
     7
100
AcDbLine
 10
969.4552119999999
 20
83.690648
 30
0.0
 11
970.680748
 21
82.77149599999999
 31
0.0
  0
LINE
  5
13F
330
6B
100
AcDbEntity
  8
0
 62
     7
100
AcDbLine
 10
961.980748
 20
83.521496
 30
0.0
 11
961.380748
 21
83.521496
 31
0.0
  0
LINE
  5
140
330
6B
100
AcDbEntity
  8
0
 62
     7
100
AcDbLine
 10
961.980748
 20
85.021496
 30
0.0
 11
961.380748
 21
85.021496
 31
0.0
  0
LINE
  5
141
330
6B
100
AcDbEntity
  8
0
 62
     7
100
AcDbLine
 10
963.6807479999999
 20
82.77149599999999
 30
0.0
 11
959.680748
 21
82.77149599999999
 31
0.0
  0
LINE
  5
142
330
6B
100
AcDbEntity
  8
0
 62
     7
100
AcDbLine
 10
963.6807479999999
 20
85.771496
 30
0.0
 11
959.680748
 21
85.771496
 31
0.0
  0
LINE
  5
143
330
6B
100
AcDbEntity
  8
0
 62
     7
100
AcDbLine
 10
963.6807479999999
 20
79.27149599999999
 30
0.0
 11
959.680748
 21
79.27149599999999
 31
0.0
  0
LINE
  5
144
330
6B
100
AcDbEntity
  8
0
 62
     7
100
AcDbLine
 10
959.680748
 20
82.271496
 30
0.0
 11
959.680748
 21
79.27149599999999
 31
0.0
  0
LINE
  5
145
330
6B
100
AcDbEntity
  8
0
 62
     7
100
AcDbLine
 10
963.6807479999999
 20
82.271496
 30
0.0
 11
963.6807479999999
 21
79.27149599999999
 31
0.0
  0
LINE
  5
146
330
6B
100
AcDbEntity
  8
0
 62
     7
100
AcDbLine
 10
959.680748
 20
85.771496
 30
0.0
 11
959.680748
 21
82.77149599999999
 31
0.0
  0
LINE
  5
147
330
6B
100
AcDbEntity
  8
0
 62
     7
100
AcDbLine
 10
963.6807479999999
 20
85.771496
 30
0.0
 11
963.6807479999999
 21
82.77149599999999
 31
0.0
  0
ARC
  5
148
330
6B
100
AcDbEntity
  8
0
 62
     7
100
AcDbCircle
 10
961.980748
 20
84.27149599999999
 30
0.0
 40
0.75
100
AcDbArc
 50
270.0
 51
90.0
  0
ARC
  5
149
330
6B
100
AcDbEntity
  8
0
 62
     7
100
AcDbCircle
 10
961.380748
 20
84.27149599999999
 30
0.0
 40
0.75
100
AcDbArc
 50
90.0
 51
270.0
  0
LINE
  5
14A
330
6B
100
AcDbEntity
  8
0
 62
     7
100
AcDbLine
 10
963.6807479999999
 20
85.771496
 30
0.0
 11
962.455212
 21
84.85234399999999
 31
0.0
  0
LINE
  5
14B
330
6B
100
AcDbEntity
  8
0
 62
     7
100
AcDbLine
 10
960.9062839999999
 20
83.690648
 30
0.0
 11
959.680748
 21
82.77149599999999
 31
0.0
  0
LINE
  5
14C
330
6B
100
AcDbEntity
  8
0
 62
     7
100
AcDbLine
 10
959.680748
 20
85.771496
 30
0.0
 11
960.9062839999999
 21
84.85234399999999
 31
0.0
  0
LINE
  5
14D
330
6B
100
AcDbEntity
  8
0
 62
     7
100
AcDbLine
 10
962.455212
 20
83.690648
 30
0.0
 11
963.6807479999999
 21
82.77149599999999
 31
0.0
  0
LINE
  5
14E
330
6B
100
AcDbEntity
  8
0
 62
     7
100
AcDbLine
 10
954.980748
 20
83.521496
 30
0.0
 11
954.3807479999999
 21
83.521496
 31
0.0
  0
LINE
  5
14F
330
6B
100
AcDbEntity
  8
0
 62
     7
100
AcDbLine
 10
954.980748
 20
85.021496
 30
0.0
 11
954.3807479999999
 21
85.021496
 31
0.0
  0
LINE
  5
150
330
6B
100
AcDbEntity
  8
0
 62
     7
100
AcDbLine
 10
956.6807479999999
 20
82.77149599999999
 30
0.0
 11
952.680748
 21
82.77149599999999
 31
0.0
  0
LINE
  5
151
330
6B
100
AcDbEntity
  8
0
 62
     7
100
AcDbLine
 10
956.6807479999999
 20
85.771496
 30
0.0
 11
952.680748
 21
85.771496
 31
0.0
  0
LINE
  5
152
330
6B
100
AcDbEntity
  8
0
 62
     7
100
AcDbLine
 10
956.6807479999999
 20
79.27149599999999
 30
0.0
 11
952.680748
 21
79.27149599999999
 31
0.0
  0
LINE
  5
153
330
6B
100
AcDbEntity
  8
0
 62
     7
100
AcDbLine
 10
952.680748
 20
82.271496
 30
0.0
 11
952.680748
 21
79.27149599999999
 31
0.0
  0
LINE
  5
154
330
6B
100
AcDbEntity
  8
0
 62
     7
100
AcDbLine
 10
956.6807479999999
 20
82.271496
 30
0.0
 11
956.6807479999999
 21
79.27149599999999
 31
0.0
  0
LINE
  5
155
330
6B
100
AcDbEntity
  8
0
 62
     7
100
AcDbLine
 10
952.680748
 20
85.771496
 30
0.0
 11
952.680748
 21
82.77149599999999
 31
0.0
  0
LINE
  5
156
330
6B
100
AcDbEntity
  8
0
 62
     7
100
AcDbLine
 10
956.6807479999999
 20
85.771496
 30
0.0
 11
956.6807479999999
 21
82.77149599999999
 31
0.0
  0
ARC
  5
157
330
6B
100
AcDbEntity
  8
0
 62
     7
100
AcDbCircle
 10
954.980748
 20
84.27149599999999
 30
0.0
 40
0.75
100
AcDbArc
 50
270.0
 51
90.0
  0
ARC
  5
158
330
6B
100
AcDbEntity
  8
0
 62
     7
100
AcDbCircle
 10
954.3807479999999
 20
84.27149599999999
 30
0.0
 40
0.75
100
AcDbArc
 50
90.0
 51
270.0
  0
LINE
  5
159
330
6B
100
AcDbEntity
  8
0
 62
     7
100
AcDbLine
 10
956.6807479999999
 20
85.771496
 30
0.0
 11
955.455212
 21
84.85234399999999
 31
0.0
  0
LINE
  5
15A
330
6B
100
AcDbEntity
  8
0
 62
     7
100
AcDbLine
 10
953.9062839999999
 20
83.690648
 30
0.0
 11
952.680748
 21
82.77149599999999
 31
0.0
  0
LINE
  5
15B
330
6B
100
AcDbEntity
  8
0
 62
     7
100
AcDbLine
 10
952.680748
 20
85.771496
 30
0.0
 11
953.9062839999999
 21
84.85234399999999
 31
0.0
  0
LINE
  5
15C
330
6B
100
AcDbEntity
  8
0
 62
     7
100
AcDbLine
 10
955.455212
 20
83.690648
 30
0.0
 11
956.6807479999999
 21
82.77149599999999
 31
0.0
  0
LINE
  5
15D
330
6B
100
AcDbEntity
  8
0
 62
     7
100
AcDbLine
 10
977.1807479999999
 20
79.771496
 30
0.0
 11
974.180748
 21
79.771496
 31
0.0
  0
LINE
  5
15E
330
6B
100
AcDbEntity
  8
0
 62
     7
100
AcDbLine
 10
977.1807479999999
 20
80.27149599999999
 30
0.0
 11
974.180748
 21
80.27149599999999
 31
0.0
  0
LINE
  5
15F
330
6B
100
AcDbEntity
  8
0
 62
     7
100
AcDbLine
 10
977.1807479999999
 20
80.771496
 30
0.0
 11
974.180748
 21
80.771496
 31
0.0
  0
LINE
  5
160
330
6B
100
AcDbEntity
  8
0
 62
     7
100
AcDbLine
 10
977.1807479999999
 20
81.271496
 30
0.0
 11
974.180748
 21
81.271496
 31
0.0
  0
LINE
  5
161
330
6B
100
AcDbEntity
  8
0
 62
     7
100
AcDbLine
 10
977.1807479999999
 20
81.77149599999999
 30
0.0
 11
974.180748
 21
81.77149599999999
 31
0.0
  0
LINE
  5
162
330
6B
100
AcDbEntity
  8
0
 62
     7
100
AcDbLine
 10
970.1807479999999
 20
79.771496
 30
0.0
 11
967.180748
 21
79.771496
 31
0.0
  0
LINE
  5
163
330
6B
100
AcDbEntity
  8
0
 62
     7
100
AcDbLine
 10
970.1807479999999
 20
80.27149599999999
 30
0.0
 11
967.180748
 21
80.27149599999999
 31
0.0
  0
LINE
  5
164
330
6B
100
AcDbEntity
  8
0
 62
     7
100
AcDbLine
 10
970.1807479999999
 20
80.771496
 30
0.0
 11
967.180748
 21
80.771496
 31
0.0
  0
LINE
  5
165
330
6B
100
AcDbEntity
  8
0
 62
     7
100
AcDbLine
 10
970.1807479999999
 20
81.271496
 30
0.0
 11
967.180748
 21
81.271496
 31
0.0
  0
LINE
  5
166
330
6B
100
AcDbEntity
  8
0
 62
     7
100
AcDbLine
 10
970.1807479999999
 20
81.77149599999999
 30
0.0
 11
967.180748
 21
81.77149599999999
 31
0.0
  0
LINE
  5
167
330
6B
100
AcDbEntity
  8
0
 62
     7
100
AcDbLine
 10
963.180748
 20
79.771496
 30
0.0
 11
960.1807479999999
 21
79.771496
 31
0.0
  0
LINE
  5
168
330
6B
100
AcDbEntity
  8
0
 62
     7
100
AcDbLine
 10
963.180748
 20
80.27149599999999
 30
0.0
 11
960.1807479999999
 21
80.27149599999999
 31
0.0
  0
LINE
  5
169
330
6B
100
AcDbEntity
  8
0
 62
     7
100
AcDbLine
 10
963.180748
 20
80.771496
 30
0.0
 11
960.1807479999999
 21
80.771496
 31
0.0
  0
LINE
  5
16A
330
6B
100
AcDbEntity
  8
0
 62
     7
100
AcDbLine
 10
963.180748
 20
81.271496
 30
0.0
 11
960.1807479999999
 21
81.271496
 31
0.0
  0
LINE
  5
16B
330
6B
100
AcDbEntity
  8
0
 62
     7
100
AcDbLine
 10
963.180748
 20
81.77149599999999
 30
0.0
 11
960.1807479999999
 21
81.77149599999999
 31
0.0
  0
LINE
  5
16C
330
6B
100
AcDbEntity
  8
0
 62
     7
100
AcDbLine
 10
956.180748
 20
79.771496
 30
0.0
 11
953.1807479999999
 21
79.771496
 31
0.0
  0
LINE
  5
16D
330
6B
100
AcDbEntity
  8
0
 62
     7
100
AcDbLine
 10
956.180748
 20
80.27149599999999
 30
0.0
 11
953.1807479999999
 21
80.27149599999999
 31
0.0
  0
LINE
  5
16E
330
6B
100
AcDbEntity
  8
0
 62
     7
100
AcDbLine
 10
956.180748
 20
80.771496
 30
0.0
 11
953.1807479999999
 21
80.771496
 31
0.0
  0
LINE
  5
16F
330
6B
100
AcDbEntity
  8
0
 62
     7
100
AcDbLine
 10
956.180748
 20
81.271496
 30
0.0
 11
953.1807479999999
 21
81.271496
 31
0.0
  0
LINE
  5
170
330
6B
100
AcDbEntity
  8
0
 62
     7
100
AcDbLine
 10
956.180748
 20
81.77149599999999
 30
0.0
 11
953.1807479999999
 21
81.77149599999999
 31
0.0
  0
CIRCLE
  5
171
330
6B
100
AcDbEntity
  8
0
 62
     7
100
AcDbCircle
 10
980.430748
 20
84.27149599999999
 30
0.0
 40
1.25
  0
CIRCLE
  5
172
330
6B
100
AcDbEntity
  8
0
 62
     7
100
AcDbCircle
 10
949.930748
 20
84.27149599999999
 30
0.0
 40
1.25
  0
LINE
  5
173
330
6B
100
AcDbEntity
  8
0
 62
     7
100
AcDbLine
 10
982.930748
 20
71.77149599999999
 30
0.0
 11
891.4307479999999
 21
71.77149599999999
 31
0.0
  0
LINE
  5
174
330
6B
100
AcDbEntity
  8
0
 62
     7
100
AcDbLine
 10
984.4307479999999
 20
90.771496
 30
0.0
 11
984.4307479999999
 21
73.271496
 31
0.0
  0
LINE
  5
175
330
6B
100
AcDbEntity
  8
0
 62
     7
100
AcDbLine
 10
889.930748
 20
102.771496
 30
0.0
 11
889.930748
 21
73.271496
 31
0.0
  0
LINE
  5
176
330
6B
100
AcDbEntity
  8
0
 62
     7
100
AcDbLine
 10
948.180748
 20
104.271496
 30
0.0
 11
891.4307479999999
 21
104.271496
 31
0.0
  0
LINE
  5
177
330
6B
100
AcDbEntity
  8
0
 62
     7
100
AcDbLine
 10
982.930748
 20
92.271496
 30
0.0
 11
951.1807479999999
 21
92.271496
 31
0.0
  0
LINE
  5
178
330
6B
100
AcDbEntity
  8
0
 62
     7
100
AcDbLine
 10
949.6807479999999
 20
93.771496
 30
0.0
 11
949.6807479999999
 21
102.771496
 31
0.0
  0
ARC
  5
179
330
6B
100
AcDbEntity
  8
0
 62
     7
100
AcDbCircle
 10
951.1807479999999
 20
93.771496
 30
0.0
 40
1.5
100
AcDbArc
 50
180.0
 51
270.0
  0
ARC
  5
17A
330
6B
100
AcDbEntity
  8
0
 62
     7
100
AcDbCircle
 10
948.180748
 20
102.771496
 30
0.0
 40
1.5
100
AcDbArc
 50
0.0
 51
90.0
  0
ARC
  5
17B
330
6B
100
AcDbEntity
  8
0
 62
     7
100
AcDbCircle
 10
891.4307479999999
 20
102.771496
 30
0.0
 40
1.5
100
AcDbArc
 50
90.0
 51
180.0
  0
ARC
  5
17C
330
6B
100
AcDbEntity
  8
0
 62
     7
100
AcDbCircle
 10
891.4307479999999
 20
73.271496
 30
0.0
 40
1.5
100
AcDbArc
 50
180.0
 51
270.0
  0
ARC
  5
17D
330
6B
100
AcDbEntity
  8
0
 62
     7
100
AcDbCircle
 10
982.930748
 20
73.271496
 30
0.0
 40
1.5
100
AcDbArc
 50
270.0
 51
0.0
  0
ARC
  5
17E
330
6B
100
AcDbEntity
  8
0
 62
     7
100
AcDbCircle
 10
982.930748
 20
90.771496
 30
0.0
 40
1.5
100
AcDbArc
 50
0.0
 51
90.0
  0
LINE
  5
17F
330
6B
100
AcDbEntity
  8
0
 62
     7
100
AcDbLine
 10
973.6807479999999
 20
121.271496
 30
0.0
 11
968.680748
 21
121.271496
 31
0.0
  0
LINE
  5
180
330
6B
100
AcDbEntity
  8
0
 62
     7
100
AcDbLine
 10
968.680748
 20
112.771496
 30
0.0
 11
973.6807479999999
 21
112.771496
 31
0.0
  0
LINE
  5
181
330
6B
100
AcDbEntity
  8
0
 62
     7
100
AcDbLine
 10
973.6807479999999
 20
112.771496
 30
0.0
 11
973.6807479999999
 21
121.271496
 31
0.0
  0
LINE
  5
182
330
6B
100
AcDbEntity
  8
0
 62
     7
100
AcDbLine
 10
968.680748
 20
112.771496
 30
0.0
 11
968.680748
 21
121.271496
 31
0.0
  0
LINE
  5
183
330
6B
100
AcDbEntity
  8
0
 62
     7
100
AcDbLine
 10
973.6807479999999
 20
114.335556
 30
0.0
 11
968.680748
 21
114.335556
 31
0.0
  0
LINE
  5
184
330
6B
100
AcDbEntity
  8
0
 62
     7
100
AcDbLine
 10
946.180748
 20
102.771496
 30
0.0
 11
893.4307479999999
 21
102.771496
 31
0.0
  0
LINE
  5
185
330
6B
100
AcDbEntity
  8
0
 62
     7
100
AcDbLine
 10
946.180748
 20
98.771496
 30
0.0
 11
893.4307479999999
 21
98.771496
 31
0.0
  0
ARC
  5
186
330
6B
100
AcDbEntity
  8
0
 62
     7
100
AcDbCircle
 10
946.180748
 20
100.771496
 30
0.0
 40
2.0
100
AcDbArc
 50
270.0
 51
90.0
  0
ARC
  5
187
330
6B
100
AcDbEntity
  8
0
 62
     7
100
AcDbCircle
 10
893.4307479999999
 20
100.771496
 30
0.0
 40
2.0
100
AcDbArc
 50
90.0
 51
270.0
  0
TEXT
  5
188
330
6B
100
AcDbEntity
  8
0
 62
     7
100
AcDbText
 10
976.248743
 20
119.065382
 30
0.0
 40
1.25
  1
ON
100
AcDbText
  0
TEXT
  5
189
330
6B
100
AcDbEntity
  8
0
 62
     7
100
AcDbText
 10
976.178692
 20
113.744256
 30
0.0
 40
1.25
  1
OFF
100
AcDbText
  0
TEXT
  5
18A
330
6B
100
AcDbEntity
  8
0
 62
     7
100
AcDbText
 10
898.5560470000001
 20
100.09848
 30
0.0
 40
1.35
  1
MAX.10A
100
AcDbText
  0
TEXT
  5
18B
330
6B
100
AcDbEntity
  8
0
 62
     7
100
AcDbText
 10
923.788657
 20
100.108053
 30
0.0
 40
1.35
  1
DC OUTPUT
100
AcDbText
  0
TEXT
  5
18C
330
6B
100
AcDbEntity
  8
0
 62
     7
100
AcDbText
 10
925.6898269999998
 20
90.064369
 30
0.0
 40
1.35
  1
MAX.10A
100
AcDbText
  0
TEXT
  5
18D
330
6B
100
AcDbEntity
  8
0
 62
     7
100
AcDbText
 10
963.1028859999998
 20
89.118376
 30
0.0
 40
1.5
  1
MAX.6A
100
AcDbText
  0
TEXT
  5
18E
330
6B
100
AcDbEntity
  8
0
 62
     7
100
AcDbText
 10
954.8595330000001
 20
95.074754
 30
0.0
 40
1.0
  1
FAULT
100
AcDbText
  0
TEXT
  5
18F
330
6B
100
AcDbEntity
  8
0
 62
     7
100
AcDbText
 10
922.4686420000001
 20
105.428346
 30
0.0
 40
1.35
  1
METER
100
AcDbText
  0
TEXT
  5
190
330
6B
100
AcDbEntity
  8
0
 62
     7
100
AcDbText
 10
894.037651
 20
73.490928
 30
0.0
 40
3.0
  1
+
100
AcDbText
  0
TEXT
  5
191
330
6B
100
AcDbEntity
  8
0
 62
     7
100
AcDbText
 10
908.2620829999999
 20
73.38028900000001
 30
0.0
 40
3.0
  1
-
100
AcDbText
  0
TEXT
  5
192
330
6B
100
AcDbEntity
  8
0
 62
     7
100
AcDbText
 10
920.8026339999999
 20
73.379465
 30
0.0
 40
3.0
  1
+
100
AcDbText
  0
TEXT
  5
193
330
6B
100
AcDbEntity
  8
0
 62
     7
100
AcDbText
 10
953.730563
 20
73.441662
 30
0.0
 40
3.0
  1
+
100
AcDbText
  0
TEXT
  5
194
330
6B
100
AcDbEntity
  8
0
 62
     7
100
AcDbText
 10
974.667323
 20
73.43536400000001
 30
0.0
 40
3.0
  1
+
100
AcDbText
  0
TEXT
  5
195
330
6B
100
AcDbEntity
  8
0
 62
     7
100
AcDbText
 10
936.425728
 20
73.38028900000001
 30
0.0
 40
3.0
  1
-
100
AcDbText
  0
TEXT
  5
196
330
6B
100
AcDbEntity
  8
0
 62
     7
100
AcDbText
 10
960.6062919999999
 20
73.341551
 30
0.0
 40
3.0
  1
-
100
AcDbText
  0
TEXT
  5
197
330
6B
100
AcDbEntity
  8
0
 62
     7
100
AcDbText
 10
967.7761249999999
 20
73.38083799999999
 30
0.0
 40
3.0
  1
-
100
AcDbText
  0
LINE
  5
198
330
6B
100
AcDbEntity
  8
0
 62
     7
100
AcDbLine
 10
906.930748
 20
75.021496
 30
0.0
 11
902.9307479999999
 21
75.021496
 31
0.0
  0
CIRCLE
  5
199
330
6B
100
AcDbEntity
  8
0
 62
     7
100
AcDbCircle
 10
901.680748
 20
75.021496
 30
0.0
 40
0.75
  0
ARC
  5
19A
330
6B
100
AcDbEntity
  8
0
 62
     7
100
AcDbCircle
 10
901.680748
 20
75.021496
 30
0.0
 40
1.25
100
AcDbArc
 50
203.578178
 51
156.421822
  0
LINE
  5
19B
330
6B
100
AcDbEntity
  8
0
 62
     7
100
AcDbLine
 10
900.930748
 20
75.021496
 30
0.0
 11
896.430748
 21
75.021496
 31
0.0
  0
LINE
  5
19C
330
6B
100
AcDbEntity
  8
0
 62
     7
100
AcDbLine
 10
976.4307479999999
 20
70.271496
 30
0.0
 11
975.930748
 21
67.271496
 31
0.0
  0
LINE
  5
19D
330
6B
100
AcDbEntity
  8
0
 62
     7
100
AcDbLine
 10
975.930748
 20
67.271496
 30
0.0
 11
968.4307479999999
 21
67.271496
 31
0.0
  0
LINE
  5
19E
330
6B
100
AcDbEntity
  8
0
 62
     7
100
AcDbLine
 10
968.4307479999999
 20
67.271496
 30
0.0
 11
967.930748
 21
70.271496
 31
0.0
  0
LINE
  5
19F
330
6B
100
AcDbEntity
  8
0
 62
     7
100
AcDbLine
 10
906.430748
 20
70.271496
 30
0.0
 11
905.9307479999999
 21
67.271496
 31
0.0
  0
LINE
  5
1A0
330
6B
100
AcDbEntity
  8
0
 62
     7
100
AcDbLine
 10
905.9307479999999
 20
67.271496
 30
0.0
 11
898.430748
 21
67.271496
 31
0.0
  0
LINE
  5
1A1
330
6B
100
AcDbEntity
  8
0
 62
     7
100
AcDbLine
 10
898.430748
 20
67.271496
 30
0.0
 11
897.9307480000001
 21
70.271496
 31
0.0
  0
LINE
  5
1A2
330
6B
100
AcDbEntity
  8
0
 62
     7
100
AcDbLine
 10
985.4307480000001
 20
127.271496
 30
0.0
 11
985.4307480000001
 21
70.271496
 31
0.0
  0
ARC
  5
1A3
330
6B
100
AcDbEntity
  8
0
 62
     7
100
AcDbCircle
 10
983.4307479999999
 20
127.271496
 30
0.0
 40
2.0
100
AcDbArc
 50
0.0
 51
90.0
  0
LINE
  5
1A4
330
6B
100
AcDbEntity
  8
0
 62
     7
100
AcDbLine
 10
890.930748
 20
129.271496
 30
0.0
 11
983.4307479999999
 21
129.271496
 31
0.0
  0
ARC
  5
1A5
330
6B
100
AcDbEntity
  8
0
 62
     7
100
AcDbCircle
 10
890.930748
 20
127.271496
 30
0.0
 40
2.0
100
AcDbArc
 50
90.0
 51
180.0
  0
LINE
  5
1A6
330
6B
100
AcDbEntity
  8
0
 62
     7
100
AcDbLine
 10
888.9307479999999
 20
127.271496
 30
0.0
 11
888.9307479999999
 21
70.271496
 31
0.0
  0
LINE
  5
1A7
330
6B
100
AcDbEntity
  8
0
 62
     7
100
AcDbLine
 10
888.9307479999999
 20
70.271496
 30
0.0
 11
888.430748
 21
70.271496
 31
0.0
  0
TEXT
  5
1A8
330
6B
100
AcDbEntity
  8
0
 62
     7
100
AcDbText
 10
909.180014
 20
114.153612
 30
0.0
 40
1.9
  1
A
100
AcDbText
  0
TEXT
  5
1A9
330
6B
100
AcDbEntity
  8
0
 62
     7
100
AcDbText
 10
939.467658
 20
114.940842
 30
0.0
 40
1.9
  1
V
100
AcDbText
  0
LINE
  5
1AA
330
6B
100
AcDbEntity
  8
0
 62
     7
100
AcDbLine
 10
939.4093469999999
 20
113.920929
 30
0.0
 11
941.4502349999999
 21
113.920929
 31
0.0
  0
LINE
  5
1AB
330
6B
100
AcDbEntity
  8
0
 62
     7
100
AcDbLine
 10
908.9387849999999
 20
113.456891
 30
0.0
 11
910.6914869999998
 21
113.456891
 31
0.0
  0
LINE
  5
1AC
330
6B
100
AcDbEntity
  8
0
 62
     7
100
AcDbLine
 10
1057.03543
 20
131.271496
 30
0.0
 11
1059.53543
 21
131.271496
 31
0.0
  0
LINE
  5
1AD
330
6B
100
AcDbEntity
  8
0
 62
     7
100
AcDbLine
 10
1018.28543
 20
99.585859
 30
0.0
 11
1018.28543
 21
101.585859
 31
0.0
  0
LINE
  5
1AE
330
6B
100
AcDbEntity
  8
0
 62
     7
100
AcDbLine
 10
1018.58543
 20
70.271496
 30
0.0
 11
1018.28543
 21
67.271496
 31
0.0
  0
LINE
  5
1AF
330
6B
100
AcDbEntity
  8
0
 62
     7
100
AcDbLine
 10
1018.28543
 20
67.271496
 30
0.0
 11
1010.78543
 21
67.271496
 31
0.0
  0
LINE
  5
1B0
330
6B
100
AcDbEntity
  8
0
 62
     7
100
AcDbLine
 10
1010.78543
 20
67.271496
 30
0.0
 11
1010.48543
 21
70.271496
 31
0.0
  0
LINE
  5
1B1
330
6B
100
AcDbEntity
  8
0
 62
     7
100
AcDbLine
 10
1118.58543
 20
70.271496
 30
0.0
 11
1118.28543
 21
67.271496
 31
0.0
  0
LINE
  5
1B2
330
6B
100
AcDbEntity
  8
0
 62
     7
100
AcDbLine
 10
1118.28543
 20
67.271496
 30
0.0
 11
1110.78543
 21
67.271496
 31
0.0
  0
LINE
  5
1B3
330
6B
100
AcDbEntity
  8
0
 62
     7
100
AcDbLine
 10
1110.78543
 20
67.271496
 30
0.0
 11
1110.48543
 21
70.271496
 31
0.0
  0
LINE
  5
1B4
330
6B
100
AcDbEntity
  8
0
 62
     7
100
AcDbLine
 10
1059.53543
 20
101.585859
 30
0.0
 11
1059.53543
 21
99.585859
 31
0.0
  0
LINE
  5
1B5
330
6B
100
AcDbEntity
  8
0
 62
     7
100
AcDbLine
 10
1059.53543
 20
131.271496
 30
0.0
 11
1059.53543
 21
129.771496
 31
0.0
  0
ARC
  5
1B6
330
6B
100
AcDbEntity
  8
0
 62
     7
100
AcDbCircle
 10
1057.03543
 20
129.771496
 30
0.0
 40
1.5
100
AcDbArc
 50
90.0
 51
180.0
  0
LINE
  5
1B7
330
6B
100
AcDbEntity
  8
0
 62
     7
100
AcDbLine
 10
1050.53543
 20
131.271496
 30
0.0
 11
1053.03543
 21
131.271496
 31
0.0
  0
LINE
  5
1B8
330
6B
100
AcDbEntity
  8
0
 62
     7
100
AcDbLine
 10
1053.03543
 20
131.271496
 30
0.0
 11
1053.03543
 21
129.771496
 31
0.0
  0
ARC
  5
1B9
330
6B
100
AcDbEntity
  8
0
 62
     7
100
AcDbCircle
 10
1050.53543
 20
129.771496
 30
0.0
 40
1.5
100
AcDbArc
 50
90.0
 51
180.0
  0
LINE
  5
1BA
330
6B
100
AcDbEntity
  8
0
 62
     7
100
AcDbLine
 10
1044.03543
 20
131.271496
 30
0.0
 11
1046.53543
 21
131.271496
 31
0.0
  0
LINE
  5
1BB
330
6B
100
AcDbEntity
  8
0
 62
     7
100
AcDbLine
 10
1046.53543
 20
131.271496
 30
0.0
 11
1046.53543
 21
129.771496
 31
0.0
  0
ARC
  5
1BC
330
6B
100
AcDbEntity
  8
0
 62
     7
100
AcDbCircle
 10
1044.03543
 20
129.771496
 30
0.0
 40
1.5
100
AcDbArc
 50
90.0
 51
180.0
  0
LINE
  5
1BD
330
6B
100
AcDbEntity
  8
0
 62
     7
100
AcDbLine
 10
1037.53543
 20
131.271496
 30
0.0
 11
1040.03543
 21
131.271496
 31
0.0
  0
LINE
  5
1BE
330
6B
100
AcDbEntity
  8
0
 62
     7
100
AcDbLine
 10
1040.03543
 20
131.271496
 30
0.0
 11
1040.03543
 21
129.771496
 31
0.0
  0
ARC
  5
1BF
330
6B
100
AcDbEntity
  8
0
 62
     7
100
AcDbCircle
 10
1037.53543
 20
129.771496
 30
0.0
 40
1.5
100
AcDbArc
 50
90.0
 51
180.0
  0
LINE
  5
1C0
330
6B
100
AcDbEntity
  8
0
 62
     7
100
AcDbLine
 10
1031.03543
 20
131.271496
 30
0.0
 11
1033.53543
 21
131.271496
 31
0.0
  0
LINE
  5
1C1
330
6B
100
AcDbEntity
  8
0
 62
     7
100
AcDbLine
 10
1033.53543
 20
131.271496
 30
0.0
 11
1033.53543
 21
129.771496
 31
0.0
  0
ARC
  5
1C2
330
6B
100
AcDbEntity
  8
0
 62
     7
100
AcDbCircle
 10
1031.03543
 20
129.771496
 30
0.0
 40
1.5
100
AcDbArc
 50
90.0
 51
180.0
  0
LINE
  5
1C3
330
6B
100
AcDbEntity
  8
0
 62
     7
100
AcDbLine
 10
1097.03543
 20
131.271496
 30
0.0
 11
1099.53543
 21
131.271496
 31
0.0
  0
LINE
  5
1C4
330
6B
100
AcDbEntity
  8
0
 62
     7
100
AcDbLine
 10
1099.53543
 20
131.271496
 30
0.0
 11
1099.53543
 21
129.771496
 31
0.0
  0
ARC
  5
1C5
330
6B
100
AcDbEntity
  8
0
 62
     7
100
AcDbCircle
 10
1097.03543
 20
129.771496
 30
0.0
 40
1.5
100
AcDbArc
 50
90.0
 51
180.0
  0
LINE
  5
1C6
330
6B
100
AcDbEntity
  8
0
 62
     7
100
AcDbLine
 10
1090.53543
 20
131.271496
 30
0.0
 11
1093.03543
 21
131.271496
 31
0.0
  0
LINE
  5
1C7
330
6B
100
AcDbEntity
  8
0
 62
     7
100
AcDbLine
 10
1093.03543
 20
131.271496
 30
0.0
 11
1093.03543
 21
129.771496
 31
0.0
  0
ARC
  5
1C8
330
6B
100
AcDbEntity
  8
0
 62
     7
100
AcDbCircle
 10
1090.53543
 20
129.771496
 30
0.0
 40
1.5
100
AcDbArc
 50
90.0
 51
180.0
  0
LINE
  5
1C9
330
6B
100
AcDbEntity
  8
0
 62
     7
100
AcDbLine
 10
1084.03543
 20
131.271496
 30
0.0
 11
1086.53543
 21
131.271496
 31
0.0
  0
LINE
  5
1CA
330
6B
100
AcDbEntity
  8
0
 62
     7
100
AcDbLine
 10
1086.53543
 20
131.271496
 30
0.0
 11
1086.53543
 21
129.771496
 31
0.0
  0
ARC
  5
1CB
330
6B
100
AcDbEntity
  8
0
 62
     7
100
AcDbCircle
 10
1084.03543
 20
129.771496
 30
0.0
 40
1.5
100
AcDbArc
 50
90.0
 51
180.0
  0
LINE
  5
1CC
330
6B
100
AcDbEntity
  8
0
 62
     7
100
AcDbLine
 10
1077.53543
 20
131.271496
 30
0.0
 11
1080.03543
 21
131.271496
 31
0.0
  0
LINE
  5
1CD
330
6B
100
AcDbEntity
  8
0
 62
     7
100
AcDbLine
 10
1080.03543
 20
131.271496
 30
0.0
 11
1080.03543
 21
129.771496
 31
0.0
  0
ARC
  5
1CE
330
6B
100
AcDbEntity
  8
0
 62
     7
100
AcDbCircle
 10
1077.53543
 20
129.771496
 30
0.0
 40
1.5
100
AcDbArc
 50
90.0
 51
180.0
  0
LINE
  5
1CF
330
6B
100
AcDbEntity
  8
0
 62
     7
100
AcDbLine
 10
1071.03543
 20
131.271496
 30
0.0
 11
1073.53543
 21
131.271496
 31
0.0
  0
LINE
  5
1D0
330
6B
100
AcDbEntity
  8
0
 62
     7
100
AcDbLine
 10
1073.53543
 20
131.271496
 30
0.0
 11
1073.53543
 21
129.771496
 31
0.0
  0
ARC
  5
1D1
330
6B
100
AcDbEntity
  8
0
 62
     7
100
AcDbCircle
 10
1071.03543
 20
129.771496
 30
0.0
 40
1.5
100
AcDbArc
 50
90.0
 51
180.0
  0
LINE
  5
1D2
330
6B
100
AcDbEntity
  8
0
 62
     7
100
AcDbLine
 10
1019.78543
 20
103.085859
 30
0.0
 11
1058.03543
 21
103.085859
 31
0.0
  0
ARC
  5
1D3
330
6B
100
AcDbEntity
  8
0
 62
     7
100
AcDbCircle
 10
1019.78543
 20
101.585859
 30
0.0
 40
1.5
100
AcDbArc
 50
90.0
 51
180.0
  0
ARC
  5
1D4
330
6B
100
AcDbEntity
  8
0
 62
     7
100
AcDbCircle
 10
1058.03543
 20
101.585859
 30
0.0
 40
1.5
100
AcDbArc
 50
0.0
 51
90.0
  0
LINE
  5
1D5
330
6B
100
AcDbEntity
  8
0
 62
     7
100
AcDbLine
 10
1018.28543
 20
94.585859
 30
0.0
 11
1018.28543
 21
96.585859
 31
0.0
  0
LINE
  5
1D6
330
6B
100
AcDbEntity
  8
0
 62
     7
100
AcDbLine
 10
1059.53543
 20
96.585859
 30
0.0
 11
1059.53543
 21
94.585859
 31
0.0
  0
LINE
  5
1D7
330
6B
100
AcDbEntity
  8
0
 62
     7
100
AcDbLine
 10
1019.78543
 20
98.085859
 30
0.0
 11
1058.03543
 21
98.085859
 31
0.0
  0
ARC
  5
1D8
330
6B
100
AcDbEntity
  8
0
 62
     7
100
AcDbCircle
 10
1019.78543
 20
96.585859
 30
0.0
 40
1.5
100
AcDbArc
 50
90.0
 51
180.0
  0
ARC
  5
1D9
330
6B
100
AcDbEntity
  8
0
 62
     7
100
AcDbCircle
 10
1058.03543
 20
96.585859
 30
0.0
 40
1.5
100
AcDbArc
 50
0.0
 51
90.0
  0
LINE
  5
1DA
330
6B
100
AcDbEntity
  8
0
 62
     7
100
AcDbLine
 10
1018.28543
 20
89.585859
 30
0.0
 11
1018.28543
 21
91.585859
 31
0.0
  0
LINE
  5
1DB
330
6B
100
AcDbEntity
  8
0
 62
     7
100
AcDbLine
 10
1059.53543
 20
91.585859
 30
0.0
 11
1059.53543
 21
89.585859
 31
0.0
  0
LINE
  5
1DC
330
6B
100
AcDbEntity
  8
0
 62
     7
100
AcDbLine
 10
1019.78543
 20
93.085859
 30
0.0
 11
1058.03543
 21
93.085859
 31
0.0
  0
ARC
  5
1DD
330
6B
100
AcDbEntity
  8
0
 62
     7
100
AcDbCircle
 10
1019.78543
 20
91.585859
 30
0.0
 40
1.5
100
AcDbArc
 50
90.0
 51
180.0
  0
ARC
  5
1DE
330
6B
100
AcDbEntity
  8
0
 62
     7
100
AcDbCircle
 10
1058.03543
 20
91.585859
 30
0.0
 40
1.5
100
AcDbArc
 50
0.0
 51
90.0
  0
LINE
  5
1DF
330
6B
100
AcDbEntity
  8
0
 62
     7
100
AcDbLine
 10
1018.28543
 20
84.585859
 30
0.0
 11
1018.28543
 21
86.585859
 31
0.0
  0
LINE
  5
1E0
330
6B
100
AcDbEntity
  8
0
 62
     7
100
AcDbLine
 10
1059.53543
 20
86.585859
 30
0.0
 11
1059.53543
 21
84.585859
 31
0.0
  0
LINE
  5
1E1
330
6B
100
AcDbEntity
  8
0
 62
     7
100
AcDbLine
 10
1019.78543
 20
88.085859
 30
0.0
 11
1058.03543
 21
88.085859
 31
0.0
  0
ARC
  5
1E2
330
6B
100
AcDbEntity
  8
0
 62
     7
100
AcDbCircle
 10
1019.78543
 20
86.585859
 30
0.0
 40
1.5
100
AcDbArc
 50
90.0
 51
180.0
  0
ARC
  5
1E3
330
6B
100
AcDbEntity
  8
0
 62
     7
100
AcDbCircle
 10
1058.03543
 20
86.585859
 30
0.0
 40
1.5
100
AcDbArc
 50
0.0
 51
90.0
  0
LINE
  5
1E4
330
6B
100
AcDbEntity
  8
0
 62
     7
100
AcDbLine
 10
1018.28543
 20
79.585859
 30
0.0
 11
1018.28543
 21
81.585859
 31
0.0
  0
LINE
  5
1E5
330
6B
100
AcDbEntity
  8
0
 62
     7
100
AcDbLine
 10
1059.53543
 20
81.585859
 30
0.0
 11
1059.53543
 21
79.585859
 31
0.0
  0
LINE
  5
1E6
330
6B
100
AcDbEntity
  8
0
 62
     7
100
AcDbLine
 10
1019.78543
 20
83.085859
 30
0.0
 11
1058.03543
 21
83.085859
 31
0.0
  0
ARC
  5
1E7
330
6B
100
AcDbEntity
  8
0
 62
     7
100
AcDbCircle
 10
1019.78543
 20
81.585859
 30
0.0
 40
1.5
100
AcDbArc
 50
90.0
 51
180.0
  0
ARC
  5
1E8
330
6B
100
AcDbEntity
  8
0
 62
     7
100
AcDbCircle
 10
1058.03543
 20
81.585859
 30
0.0
 40
1.5
100
AcDbArc
 50
0.0
 51
90.0
  0
LINE
  5
1E9
330
6B
100
AcDbEntity
  8
0
 62
     7
100
AcDbLine
 10
1110.78543
 20
99.585859
 30
0.0
 11
1110.78543
 21
101.585859
 31
0.0
  0
LINE
  5
1EA
330
6B
100
AcDbEntity
  8
0
 62
     7
100
AcDbLine
 10
1069.53543
 20
101.585859
 30
0.0
 11
1069.53543
 21
99.585859
 31
0.0
  0
LINE
  5
1EB
330
6B
100
AcDbEntity
  8
0
 62
     7
100
AcDbLine
 10
1109.28543
 20
103.085859
 30
0.0
 11
1071.03543
 21
103.085859
 31
0.0
  0
ARC
  5
1EC
330
6B
100
AcDbEntity
  8
0
 62
     7
100
AcDbCircle
 10
1109.28543
 20
101.585859
 30
0.0
 40
1.5
100
AcDbArc
 50
0.0
 51
90.0
  0
ARC
  5
1ED
330
6B
100
AcDbEntity
  8
0
 62
     7
100
AcDbCircle
 10
1071.03543
 20
101.585859
 30
0.0
 40
1.5
100
AcDbArc
 50
90.0
 51
180.0
  0
LINE
  5
1EE
330
6B
100
AcDbEntity
  8
0
 62
     7
100
AcDbLine
 10
1110.78543
 20
94.585859
 30
0.0
 11
1110.78543
 21
96.585859
 31
0.0
  0
LINE
  5
1EF
330
6B
100
AcDbEntity
  8
0
 62
     7
100
AcDbLine
 10
1069.53543
 20
96.585859
 30
0.0
 11
1069.53543
 21
94.585859
 31
0.0
  0
LINE
  5
1F0
330
6B
100
AcDbEntity
  8
0
 62
     7
100
AcDbLine
 10
1109.28543
 20
98.085859
 30
0.0
 11
1071.03543
 21
98.085859
 31
0.0
  0
ARC
  5
1F1
330
6B
100
AcDbEntity
  8
0
 62
     7
100
AcDbCircle
 10
1109.28543
 20
96.585859
 30
0.0
 40
1.5
100
AcDbArc
 50
0.0
 51
90.0
  0
ARC
  5
1F2
330
6B
100
AcDbEntity
  8
0
 62
     7
100
AcDbCircle
 10
1071.03543
 20
96.585859
 30
0.0
 40
1.5
100
AcDbArc
 50
90.0
 51
180.0
  0
LINE
  5
1F3
330
6B
100
AcDbEntity
  8
0
 62
     7
100
AcDbLine
 10
1110.78543
 20
89.585859
 30
0.0
 11
1110.78543
 21
91.585859
 31
0.0
  0
LINE
  5
1F4
330
6B
100
AcDbEntity
  8
0
 62
     7
100
AcDbLine
 10
1069.53543
 20
91.585859
 30
0.0
 11
1069.53543
 21
89.585859
 31
0.0
  0
LINE
  5
1F5
330
6B
100
AcDbEntity
  8
0
 62
     7
100
AcDbLine
 10
1109.28543
 20
93.085859
 30
0.0
 11
1071.03543
 21
93.085859
 31
0.0
  0
ARC
  5
1F6
330
6B
100
AcDbEntity
  8
0
 62
     7
100
AcDbCircle
 10
1109.28543
 20
91.585859
 30
0.0
 40
1.5
100
AcDbArc
 50
0.0
 51
90.0
  0
ARC
  5
1F7
330
6B
100
AcDbEntity
  8
0
 62
     7
100
AcDbCircle
 10
1071.03543
 20
91.585859
 30
0.0
 40
1.5
100
AcDbArc
 50
90.0
 51
180.0
  0
LINE
  5
1F8
330
6B
100
AcDbEntity
  8
0
 62
     7
100
AcDbLine
 10
1110.78543
 20
84.585859
 30
0.0
 11
1110.78543
 21
86.585859
 31
0.0
  0
LINE
  5
1F9
330
6B
100
AcDbEntity
  8
0
 62
     7
100
AcDbLine
 10
1069.53543
 20
86.585859
 30
0.0
 11
1069.53543
 21
84.585859
 31
0.0
  0
LINE
  5
1FA
330
6B
100
AcDbEntity
  8
0
 62
     7
100
AcDbLine
 10
1109.28543
 20
88.085859
 30
0.0
 11
1071.03543
 21
88.085859
 31
0.0
  0
ARC
  5
1FB
330
6B
100
AcDbEntity
  8
0
 62
     7
100
AcDbCircle
 10
1109.28543
 20
86.585859
 30
0.0
 40
1.5
100
AcDbArc
 50
0.0
 51
90.0
  0
ARC
  5
1FC
330
6B
100
AcDbEntity
  8
0
 62
     7
100
AcDbCircle
 10
1071.03543
 20
86.585859
 30
0.0
 40
1.5
100
AcDbArc
 50
90.0
 51
180.0
  0
LINE
  5
1FD
330
6B
100
AcDbEntity
  8
0
 62
     7
100
AcDbLine
 10
1110.78543
 20
79.585859
 30
0.0
 11
1110.78543
 21
81.585859
 31
0.0
  0
LINE
  5
1FE
330
6B
100
AcDbEntity
  8
0
 62
     7
100
AcDbLine
 10
1069.53543
 20
81.585859
 30
0.0
 11
1069.53543
 21
79.585859
 31
0.0
  0
LINE
  5
1FF
330
6B
100
AcDbEntity
  8
0
 62
     7
100
AcDbLine
 10
1109.28543
 20
83.085859
 30
0.0
 11
1071.03543
 21
83.085859
 31
0.0
  0
ARC
  5
200
330
6B
100
AcDbEntity
  8
0
 62
     7
100
AcDbCircle
 10
1109.28543
 20
81.585859
 30
0.0
 40
1.5
100
AcDbArc
 50
0.0
 51
90.0
  0
ARC
  5
201
330
6B
100
AcDbEntity
  8
0
 62
     7
100
AcDbCircle
 10
1071.03543
 20
81.585859
 30
0.0
 40
1.5
100
AcDbArc
 50
90.0
 51
180.0
  0
CIRCLE
  5
202
330
6B
100
AcDbEntity
  8
0
 62
     7
100
AcDbCircle
 10
1022.03543
 20
74.021496
 30
0.0
 40
1.625
  0
CIRCLE
  5
203
330
6B
100
AcDbEntity
  8
0
 62
     7
100
AcDbCircle
 10
1107.03543
 20
74.021496
 30
0.0
 40
1.625
  0
CIRCLE
  5
204
330
6B
100
AcDbEntity
  8
0
 62
     7
100
AcDbCircle
 10
1117.03543
 20
105.021496
 30
0.0
 40
1.625
  0
CIRCLE
  5
205
330
6B
100
AcDbEntity
  8
0
 62
     7
100
AcDbCircle
 10
1012.03543
 20
105.021496
 30
0.0
 40
1.625
  0
LINE
  5
206
330
6B
100
AcDbEntity
  8
0
 62
     7
100
AcDbLine
 10
1137.555397
 20
127.271496
 30
0.0
 11
1137.555397
 21
70.271496
 31
0.0
  0
LINE
  5
207
330
6B
100
AcDbEntity
  8
0
 62
     7
100
AcDbLine
 10
1227.055397
 20
75.271496
 30
0.0
 11
1227.055397
 21
79.27149599999999
 31
0.0
  0
LINE
  5
208
330
6B
100
AcDbEntity
  8
0
 62
     7
100
AcDbLine
 10
1227.055397
 20
80.27149599999999
 30
0.0
 11
1227.055397
 21
84.27149599999999
 31
0.0
  0
LINE
  5
209
330
6B
100
AcDbEntity
  8
0
 62
     7
100
AcDbLine
 10
1227.055397
 20
85.27149599999999
 30
0.0
 11
1227.055397
 21
89.27149599999999
 31
0.0
  0
LINE
  5
20A
330
6B
100
AcDbEntity
  8
0
 62
     7
100
AcDbLine
 10
1227.055397
 20
90.27149599999999
 30
0.0
 11
1227.055397
 21
94.27149599999999
 31
0.0
  0
LINE
  5
20B
330
6B
100
AcDbEntity
  8
0
 62
     7
100
AcDbLine
 10
1227.055397
 20
95.27149599999999
 30
0.0
 11
1227.055397
 21
99.27149599999999
 31
0.0
  0
LINE
  5
20C
330
6B
100
AcDbEntity
  8
0
 62
     7
100
AcDbLine
 10
1227.055397
 20
100.271496
 30
0.0
 11
1227.055397
 21
104.271496
 31
0.0
  0
LINE
  5
20D
330
6B
100
AcDbEntity
  8
0
 62
     7
100
AcDbLine
 10
1227.055397
 20
105.271496
 30
0.0
 11
1227.055397
 21
109.271496
 31
0.0
  0
LINE
  5
20E
330
6B
100
AcDbEntity
  8
0
 62
     7
100
AcDbLine
 10
1227.055397
 20
110.271496
 30
0.0
 11
1227.055397
 21
114.271496
 31
0.0
  0
LINE
  5
20F
330
6B
100
AcDbEntity
  8
0
 62
     7
100
AcDbLine
 10
1234.055397
 20
70.271496
 30
0.0
 11
1234.055397
 21
127.271496
 31
0.0
  0
ARC
  5
210
330
6B
100
AcDbEntity
  8
0
 62
     7
100
AcDbCircle
 10
1232.055397
 20
127.271496
 30
0.0
 40
2.0
100
AcDbArc
 50
0.0
 51
90.0
  0
LINE
  5
211
330
6B
100
AcDbEntity
  8
0
 62
     7
100
AcDbLine
 10
1139.555397
 20
129.271496
 30
0.0
 11
1232.055397
 21
129.271496
 31
0.0
  0
ARC
  5
212
330
6B
100
AcDbEntity
  8
0
 62
     7
100
AcDbCircle
 10
1139.555397
 20
127.271496
 30
0.0
 40
2.0
100
AcDbArc
 50
90.0
 51
180.0
  0
LINE
  5
213
330
6B
100
AcDbEntity
  8
0
 62
     7
100
AcDbLine
 10
1185.805397
 20
75.271496
 30
0.0
 11
1205.930397
 21
75.271496
 31
0.0
  0
LINE
  5
214
330
6B
100
AcDbEntity
  8
0
 62
     7
100
AcDbLine
 10
1206.930397
 20
75.271496
 30
0.0
 11
1227.055397
 21
75.271496
 31
0.0
  0
LINE
  5
215
330
6B
100
AcDbEntity
  8
0
 62
     7
100
AcDbLine
 10
1185.805397
 20
79.27149599999999
 30
0.0
 11
1205.930397
 21
79.27149599999999
 31
0.0
  0
LINE
  5
216
330
6B
100
AcDbEntity
  8
0
 62
     7
100
AcDbLine
 10
1206.930397
 20
79.27149599999999
 30
0.0
 11
1227.055397
 21
79.27149599999999
 31
0.0
  0
LINE
  5
217
330
6B
100
AcDbEntity
  8
0
 62
     7
100
AcDbLine
 10
1185.805397
 20
80.27149599999999
 30
0.0
 11
1205.930397
 21
80.27149599999999
 31
0.0
  0
LINE
  5
218
330
6B
100
AcDbEntity
  8
0
 62
     7
100
AcDbLine
 10
1206.930397
 20
80.27149599999999
 30
0.0
 11
1227.055397
 21
80.27149599999999
 31
0.0
  0
LINE
  5
219
330
6B
100
AcDbEntity
  8
0
 62
     7
100
AcDbLine
 10
1185.805397
 20
85.27149599999999
 30
0.0
 11
1205.930397
 21
85.27149599999999
 31
0.0
  0
LINE
  5
21A
330
6B
100
AcDbEntity
  8
0
 62
     7
100
AcDbLine
 10
1206.930397
 20
85.27149599999999
 30
0.0
 11
1227.055397
 21
85.27149599999999
 31
0.0
  0
LINE
  5
21B
330
6B
100
AcDbEntity
  8
0
 62
     7
100
AcDbLine
 10
1185.805397
 20
84.27149599999999
 30
0.0
 11
1205.930397
 21
84.27149599999999
 31
0.0
  0
LINE
  5
21C
330
6B
100
AcDbEntity
  8
0
 62
     7
100
AcDbLine
 10
1206.930397
 20
84.27149599999999
 30
0.0
 11
1227.055397
 21
84.27149599999999
 31
0.0
  0
LINE
  5
21D
330
6B
100
AcDbEntity
  8
0
 62
     7
100
AcDbLine
 10
1185.805397
 20
90.27149599999999
 30
0.0
 11
1205.930397
 21
90.27149599999999
 31
0.0
  0
LINE
  5
21E
330
6B
100
AcDbEntity
  8
0
 62
     7
100
AcDbLine
 10
1206.930397
 20
90.27149599999999
 30
0.0
 11
1227.055397
 21
90.27149599999999
 31
0.0
  0
LINE
  5
21F
330
6B
100
AcDbEntity
  8
0
 62
     7
100
AcDbLine
 10
1185.805397
 20
89.27149599999999
 30
0.0
 11
1205.930397
 21
89.27149599999999
 31
0.0
  0
LINE
  5
220
330
6B
100
AcDbEntity
  8
0
 62
     7
100
AcDbLine
 10
1206.930397
 20
89.27149599999999
 30
0.0
 11
1227.055397
 21
89.27149599999999
 31
0.0
  0
LINE
  5
221
330
6B
100
AcDbEntity
  8
0
 62
     7
100
AcDbLine
 10
1185.805397
 20
95.27149599999999
 30
0.0
 11
1205.930397
 21
95.27149599999999
 31
0.0
  0
LINE
  5
222
330
6B
100
AcDbEntity
  8
0
 62
     7
100
AcDbLine
 10
1206.930397
 20
95.27149599999999
 30
0.0
 11
1227.055397
 21
95.27149599999999
 31
0.0
  0
LINE
  5
223
330
6B
100
AcDbEntity
  8
0
 62
     7
100
AcDbLine
 10
1185.805397
 20
94.27149599999999
 30
0.0
 11
1205.930397
 21
94.27149599999999
 31
0.0
  0
LINE
  5
224
330
6B
100
AcDbEntity
  8
0
 62
     7
100
AcDbLine
 10
1206.930397
 20
94.27149599999999
 30
0.0
 11
1227.055397
 21
94.27149599999999
 31
0.0
  0
LINE
  5
225
330
6B
100
AcDbEntity
  8
0
 62
     7
100
AcDbLine
 10
1185.805397
 20
100.271496
 30
0.0
 11
1205.930397
 21
100.271496
 31
0.0
  0
LINE
  5
226
330
6B
100
AcDbEntity
  8
0
 62
     7
100
AcDbLine
 10
1206.930397
 20
100.271496
 30
0.0
 11
1227.055397
 21
100.271496
 31
0.0
  0
LINE
  5
227
330
6B
100
AcDbEntity
  8
0
 62
     7
100
AcDbLine
 10
1185.805397
 20
99.27149599999999
 30
0.0
 11
1205.930397
 21
99.27149599999999
 31
0.0
  0
LINE
  5
228
330
6B
100
AcDbEntity
  8
0
 62
     7
100
AcDbLine
 10
1206.930397
 20
99.27149599999999
 30
0.0
 11
1227.055397
 21
99.27149599999999
 31
0.0
  0
LINE
  5
229
330
6B
100
AcDbEntity
  8
0
 62
     7
100
AcDbLine
 10
1185.805397
 20
105.271496
 30
0.0
 11
1205.930397
 21
105.271496
 31
0.0
  0
LINE
  5
22A
330
6B
100
AcDbEntity
  8
0
 62
     7
100
AcDbLine
 10
1206.930397
 20
105.271496
 30
0.0
 11
1227.055397
 21
105.271496
 31
0.0
  0
LINE
  5
22B
330
6B
100
AcDbEntity
  8
0
 62
     7
100
AcDbLine
 10
1185.805397
 20
104.271496
 30
0.0
 11
1205.930397
 21
104.271496
 31
0.0
  0
LINE
  5
22C
330
6B
100
AcDbEntity
  8
0
 62
     7
100
AcDbLine
 10
1206.930397
 20
104.271496
 30
0.0
 11
1227.055397
 21
104.271496
 31
0.0
  0
LINE
  5
22D
330
6B
100
AcDbEntity
  8
0
 62
     7
100
AcDbLine
 10
1185.805397
 20
110.271496
 30
0.0
 11
1205.930397
 21
110.271496
 31
0.0
  0
LINE
  5
22E
330
6B
100
AcDbEntity
  8
0
 62
     7
100
AcDbLine
 10
1206.930397
 20
110.271496
 30
0.0
 11
1227.055397
 21
110.271496
 31
0.0
  0
LINE
  5
22F
330
6B
100
AcDbEntity
  8
0
 62
     7
100
AcDbLine
 10
1185.805397
 20
109.271496
 30
0.0
 11
1205.930397
 21
109.271496
 31
0.0
  0
LINE
  5
230
330
6B
100
AcDbEntity
  8
0
 62
     7
100
AcDbLine
 10
1206.930397
 20
109.271496
 30
0.0
 11
1227.055397
 21
109.271496
 31
0.0
  0
LINE
  5
231
330
6B
100
AcDbEntity
  8
0
 62
     7
100
AcDbLine
 10
1185.805397
 20
114.271496
 30
0.0
 11
1205.930397
 21
114.271496
 31
0.0
  0
LINE
  5
232
330
6B
100
AcDbEntity
  8
0
 62
     7
100
AcDbLine
 10
1206.930397
 20
114.271496
 30
0.0
 11
1227.055397
 21
114.271496
 31
0.0
  0
LINE
  5
233
330
6B
100
AcDbEntity
  8
0
 62
     7
100
AcDbLine
 10
1185.805397
 20
75.271496
 30
0.0
 11
1185.805397
 21
79.27149599999999
 31
0.0
  0
LINE
  5
234
330
6B
100
AcDbEntity
  8
0
 62
     7
100
AcDbLine
 10
1185.805397
 20
80.27149599999999
 30
0.0
 11
1185.805397
 21
84.27149599999999
 31
0.0
  0
LINE
  5
235
330
6B
100
AcDbEntity
  8
0
 62
     7
100
AcDbLine
 10
1163.305397
 20
61.9395
 30
0.0
 11
1163.305397
 21
81.52149599999999
 31
0.0
  0
LINE
  5
236
330
6B
100
AcDbEntity
  8
0
 62
     7
100
AcDbLine
 10
1161.805397
 20
61.604962
 30
0.0
 11
1161.805397
 21
81.52149599999999
 31
0.0
  0
LINE
  5
237
330
6B
100
AcDbEntity
  8
0
 62
     7
100
AcDbLine
 10
1164.805397
 20
62.386924
 30
0.0
 11
1164.805397
 21
81.52149599999999
 31
0.0
  0
LINE
  5
238
330
6B
100
AcDbEntity
  8
0
 62
     7
100
AcDbLine
 10
1161.055397
 20
80.287182
 30
0.0
 11
1161.055397
 21
84.25580899999999
 31
0.0
  0
LINE
  5
239
330
6B
100
AcDbEntity
  8
0
 62
     7
100
AcDbLine
 10
1165.555397
 20
80.287182
 30
0.0
 11
1165.555397
 21
84.25580899999999
 31
0.0
  0
LINE
  5
23A
330
6B
100
AcDbEntity
  8
0
 62
     7
100
AcDbLine
 10
1185.805397
 20
85.27149599999999
 30
0.0
 11
1185.805397
 21
89.27149599999999
 31
0.0
  0
LINE
  5
23B
330
6B
100
AcDbEntity
  8
0
 62
     7
100
AcDbLine
 10
1185.805397
 20
90.27149599999999
 30
0.0
 11
1185.805397
 21
94.27149599999999
 31
0.0
  0
LINE
  5
23C
330
6B
100
AcDbEntity
  8
0
 62
     7
100
AcDbLine
 10
1185.805397
 20
95.27149599999999
 30
0.0
 11
1185.805397
 21
99.27149599999999
 31
0.0
  0
LINE
  5
23D
330
6B
100
AcDbEntity
  8
0
 62
     7
100
AcDbLine
 10
1185.805397
 20
100.271496
 30
0.0
 11
1185.805397
 21
104.271496
 31
0.0
  0
LINE
  5
23E
330
6B
100
AcDbEntity
  8
0
 62
     7
100
AcDbLine
 10
1185.805397
 20
105.271496
 30
0.0
 11
1185.805397
 21
109.271496
 31
0.0
  0
LINE
  5
23F
330
6B
100
AcDbEntity
  8
0
 62
     7
100
AcDbLine
 10
1185.805397
 20
110.271496
 30
0.0
 11
1185.805397
 21
114.271496
 31
0.0
  0
LINE
  5
240
330
6B
100
AcDbEntity
  8
0
 62
     7
100
AcDbLine
 10
1205.930397
 20
75.271496
 30
0.0
 11
1205.930397
 21
79.27149599999999
 31
0.0
  0
LINE
  5
241
330
6B
100
AcDbEntity
  8
0
 62
     7
100
AcDbLine
 10
1205.930397
 20
80.27149599999999
 30
0.0
 11
1205.930397
 21
84.27149599999999
 31
0.0
  0
LINE
  5
242
330
6B
100
AcDbEntity
  8
0
 62
     7
100
AcDbLine
 10
1205.930397
 20
85.27149599999999
 30
0.0
 11
1205.930397
 21
89.27149599999999
 31
0.0
  0
LINE
  5
243
330
6B
100
AcDbEntity
  8
0
 62
     7
100
AcDbLine
 10
1205.930397
 20
90.27149599999999
 30
0.0
 11
1205.930397
 21
94.27149599999999
 31
0.0
  0
LINE
  5
244
330
6B
100
AcDbEntity
  8
0
 62
     7
100
AcDbLine
 10
1205.930397
 20
95.27149599999999
 30
0.0
 11
1205.930397
 21
99.27149599999999
 31
0.0
  0
LINE
  5
245
330
6B
100
AcDbEntity
  8
0
 62
     7
100
AcDbLine
 10
1205.930397
 20
100.271496
 30
0.0
 11
1205.930397
 21
104.271496
 31
0.0
  0
LINE
  5
246
330
6B
100
AcDbEntity
  8
0
 62
     7
100
AcDbLine
 10
1205.930397
 20
105.271496
 30
0.0
 11
1205.930397
 21
109.271496
 31
0.0
  0
LINE
  5
247
330
6B
100
AcDbEntity
  8
0
 62
     7
100
AcDbLine
 10
1205.930397
 20
110.271496
 30
0.0
 11
1205.930397
 21
114.271496
 31
0.0
  0
LINE
  5
248
330
6B
100
AcDbEntity
  8
0
 62
     7
100
AcDbLine
 10
1206.930397
 20
75.271496
 30
0.0
 11
1206.930397
 21
79.27149599999999
 31
0.0
  0
LINE
  5
249
330
6B
100
AcDbEntity
  8
0
 62
     7
100
AcDbLine
 10
1206.930397
 20
80.27149599999999
 30
0.0
 11
1206.930397
 21
84.27149599999999
 31
0.0
  0
LINE
  5
24A
330
6B
100
AcDbEntity
  8
0
 62
     7
100
AcDbLine
 10
1206.930397
 20
85.27149599999999
 30
0.0
 11
1206.930397
 21
89.27149599999999
 31
0.0
  0
LINE
  5
24B
330
6B
100
AcDbEntity
  8
0
 62
     7
100
AcDbLine
 10
1206.930397
 20
90.27149599999999
 30
0.0
 11
1206.930397
 21
94.27149599999999
 31
0.0
  0
LINE
  5
24C
330
6B
100
AcDbEntity
  8
0
 62
     7
100
AcDbLine
 10
1206.930397
 20
95.27149599999999
 30
0.0
 11
1206.930397
 21
99.27149599999999
 31
0.0
  0
LINE
  5
24D
330
6B
100
AcDbEntity
  8
0
 62
     7
100
AcDbLine
 10
1206.930397
 20
100.271496
 30
0.0
 11
1206.930397
 21
104.271496
 31
0.0
  0
LINE
  5
24E
330
6B
100
AcDbEntity
  8
0
 62
     7
100
AcDbLine
 10
1206.930397
 20
105.271496
 30
0.0
 11
1206.930397
 21
109.271496
 31
0.0
  0
LINE
  5
24F
330
6B
100
AcDbEntity
  8
0
 62
     7
100
AcDbLine
 10
1206.930397
 20
110.271496
 30
0.0
 11
1206.930397
 21
114.271496
 31
0.0
  0
CIRCLE
  5
250
330
6B
100
AcDbEntity
  8
0
 62
     7
100
AcDbCircle
 10
1148.305397
 20
82.271496
 30
0.0
 40
3.25
  0
ARC
  5
251
330
6B
100
AcDbEntity
  8
0
 62
     7
100
AcDbCircle
 10
1163.305397
 20
82.271496
 30
0.0
 40
3.0
100
AcDbArc
 50
41.40962199999999
 51
138.590378
  0
ARC
  5
252
330
6B
100
AcDbEntity
  8
0
 62
     7
100
AcDbCircle
 10
1163.305397
 20
82.271496
 30
0.0
 40
3.0
100
AcDbArc
 50
221.409622
 51
240.0
  0
ARC
  5
253
330
6B
100
AcDbEntity
  8
0
 62
     7
100
AcDbCircle
 10
1163.305397
 20
82.271496
 30
0.0
 40
3.0
100
AcDbArc
 50
300.0
 51
318.590378
  0
ARC
  5
254
330
6B
100
AcDbEntity
  8
0
 62
     7
100
AcDbCircle
 10
1164.055397
 20
81.52149599999999
 30
0.0
 40
0.75
100
AcDbArc
 50
0.0
 51
180.0
  0
ARC
  5
255
330
6B
100
AcDbEntity
  8
0
 62
     7
100
AcDbCircle
 10
1162.555397
 20
81.52149599999999
 30
0.0
 40
0.75
100
AcDbArc
 50
0.0
 51
180.0
  0
LINE
  5
25F
330
6B
100
AcDbEntity
  8
0
 62
     7
100
AcDbLine
 10
1225.055397
 20
70.271496
 30
0.0
 11
1224.555397
 21
67.271496
 31
0.0
  0
LINE
  5
260
330
6B
100
AcDbEntity
  8
0
 62
     7
100
AcDbLine
 10
1224.555397
 20
67.271496
 30
0.0
 11
1217.055397
 21
67.271496
 31
0.0
  0
LINE
  5
261
330
6B
100
AcDbEntity
  8
0
 62
     7
100
AcDbLine
 10
1217.055397
 20
67.271496
 30
0.0
 11
1216.555397
 21
70.271496
 31
0.0
  0
LINE
  5
262
330
6B
100
AcDbEntity
  8
0
 62
     7
100
AcDbLine
 10
1155.055397
 20
70.271496
 30
0.0
 11
1154.555397
 21
67.271496
 31
0.0
  0
LINE
  5
263
330
6B
100
AcDbEntity
  8
0
 62
     7
100
AcDbLine
 10
1154.555397
 20
67.271496
 30
0.0
 11
1147.055397
 21
67.271496
 31
0.0
  0
LINE
  5
264
330
6B
100
AcDbEntity
  8
0
 62
     7
100
AcDbLine
 10
1147.055397
 20
67.271496
 30
0.0
 11
1146.555397
 21
70.271496
 31
0.0
  0
TEXT
  5
265
330
6B
100
AcDbEntity
  8
0
 62
     3
100
AcDbText
 10
962.307692
 20
125.876383
 30
0.0
 40
1.9
  1
DPS-1024H
100
AcDbText
  0
TEXT
  5
266
330
6B
100
AcDbEntity
  8
0
 62
     3
100
AcDbText
 10
907.1296659999999
 20
126.007762
 30
0.0
 40
1.35
  1
REGULATED DC POWER SUPPLY
100
AcDbText
  0
LINE
  5
269
330
6B
100
AcDbEntity
  8
0
 62
     3
100
AcDbLine
 10
1226.661958
 20
-66.669213
 30
0.0
 11
1226.661958
 21
-43.669213
 31
0.0
  0
LINE
  5
26B
330
6B
100
AcDbEntity
  8
0
 62
     3
100
AcDbLine
 10
1173.608348
 20
-73.669213
 30
0.0
 11
1173.608348
 21
-59.669213
 31
0.0
  0
TEXT
  5
26D
330
6B
100
AcDbEntity
  8
0
 62
     3
100
AcDbText
 10
1202.672276
 20
-47.464097
 30
0.0
 40
2.0
  1
A
 41
0.7
100
AcDbText
  0
TEXT
  5
26E
330
6B
100
AcDbEntity
  8
0
 62
     3
100
AcDbText
 10
1205.207562
 20
-47.464097
 30
0.0
 40
2.0
  1
P
 41
0.7
100
AcDbText
  0
TEXT
  5
26F
330
6B
100
AcDbEntity
  8
0
 62
     3
100
AcDbText
 10
1207.742848
 20
-47.464097
 30
0.0
 40
2.0
  1
P
 41
0.7
100
AcDbText
  0
TEXT
  5
270
330
6B
100
AcDbEntity
  8
0
 62
     3
100
AcDbText
 10
1210.278134
 20
-47.464097
 30
0.0
 40
2.0
  1
D
 41
0.7
100
AcDbText
  0
TEXT
  5
271
330
6B
100
AcDbEntity
  8
0
 62
     3
100
AcDbText
 10
1215.646817
 20
-47.464097
 30
0.0
 40
2.0
  1
C
 41
0.7
100
AcDbText
  0
TEXT
  5
272
330
6B
100
AcDbEntity
  8
0
 62
     3
100
AcDbText
 10
1218.182104
 20
-47.464097
 30
0.0
 40
2.0
  1
H
 41
0.7
100
AcDbText
  0
TEXT
  5
273
330
6B
100
AcDbEntity
  8
0
 62
     3
100
AcDbText
 10
1220.71739
 20
-47.464097
 30
0.0
 40
2.0
  1
C
 41
0.7
100
AcDbText
  0
TEXT
  5
274
330
6B
100
AcDbEntity
  8
0
 62
     3
100
AcDbText
 10
1223.252676
 20
-47.464097
 30
0.0
 40
2.0
  1
K
 41
0.7
100
AcDbText
  0
TEXT
  5
275
330
6B
100
AcDbEntity
  8
0
 62
     3
100
AcDbText
 10
1228.926643
 20
-47.464097
 30
0.0
 40
2.0
  1
DESN
 41
1.216762999999999
100
AcDbText
  0
TEXT
  5
276
330
6B
100
AcDbEntity
  8
0
 62
     3
100
AcDbText
 10
1143.920284
 20
-76.81059399999999
 30
0.0
 40
2.0
  1
NICHIDO IND.CO.LTD
 41
1.274876
100
AcDbText
  0
LINE
  5
277
330
6B
100
AcDbEntity
  8
0
 62
     3
100
AcDbLine
 10
1154.303313
 20
-43.669213
 30
0.0
 11
1154.303313
 21
-66.669213
 31
0.0
  0
LINE
  5
278
330
6B
100
AcDbEntity
  8
0
 62
     3
100
AcDbLine
 10
1200.661958
 20
-43.66921299999999
 30
0.0
 11
1200.661958
 21
-83.33493500000001
 31
0.0
  0
LINE
  5
27D
330
6B
100
AcDbEntity
  8
0
 62
     3
100
AcDbLine
 10
1213.661958
 20
-43.669213
 30
0.0
 11
1213.661958
 21
-73.669213
 31
0.0
  0
TEXT
  5
27E
330
6B
100
AcDbEntity
  8
0
 62
     3
100
AcDbText
 10
1201.774402
 20
-72.804526
 30
0.0
 40
3.2
  1
作成日
 41
1.017225999999999
100
AcDbText
  0
LINE
  5
27F
330
6B
100
AcDbEntity
  8
0
 62
     3
100
AcDbLine
 10
1252.361321
 20
-43.669213
 30
0.0
 11
1141.057878
 21
-43.669213
 31
0.0
  0
LINE
  5
280
330
6B
100
AcDbEntity
  8
0
 62
     3
100
AcDbLine
 10
1239.661958
 20
-66.669213
 30
0.0
 11
1239.661958
 21
-43.669213
 31
0.0
  0
TEXT
  5
281
330
6B
100
AcDbEntity
  8
0
 62
     3
100
AcDbText
 10
1242.985761
 20
-47.378278
 30
0.0
 40
1.8
  1
D
 41
0.666667
100
AcDbText
  0
TEXT
  5
282
330
6B
100
AcDbEntity
  8
0
 62
     3
100
AcDbText
 10
1245.802389
 20
-47.378278
 30
0.0
 40
1.8
  1
E
 41
0.666667
100
AcDbText
  0
TEXT
  5
283
330
6B
100
AcDbEntity
  8
0
 62
     3
100
AcDbText
 10
1248.619017
 20
-47.378278
 30
0.0
 40
1.8
  1
F
 41
0.666667
100
AcDbText
  0
TEXT
  5
284
330
6B
100
AcDbEntity
  8
0
 62
     3
100
AcDbText
 10
1242.985761
 20
-51.370831
 30
0.0
 40
3.2
  1
製図
 41
1.076369
100
AcDbText
  0
LINE
  5
285
330
6B
100
AcDbEntity
  8
0
 62
     3
100
AcDbLine
 10
1141.057878
 20
-43.669213
 30
0.0
 11
1141.057878
 21
-83.33493500000001
 31
0.0
  0
TEXT
  5
286
330
6B
100
AcDbEntity
  8
0
 62
     3
100
AcDbText
 10
1142.434531
 20
-83.00247
 30
0.0
 40
5.0
  1
日動工業株式会社
 41
0.833333
100
AcDbText
  0
LINE
  5
287
330
6B
100
AcDbEntity
  8
0
 62
     3
100
AcDbLine
 10
1183.940282
 20
-59.66921299999999
 30
0.0
 11
1183.940282
 21
-83.33493500000001
 31
0.0
  0
LINE
  5
288
330
6B
100
AcDbEntity
  8
0
 62
     3
100
AcDbLine
 10
1183.940282
 20
-78.50207399999999
 30
0.0
 11
1200.661958
 21
-78.50207399999999
 31
0.0
  0
TEXT
  5
289
330
6B
100
AcDbEntity
  8
0
 62
     3
100
AcDbText
 10
1184.526884
 20
-77.685643
 30
0.0
 40
3.2
  1
出図コード
 41
0.8356860000000001
100
AcDbText
  0
LINE
  5
29B
330
6B
100
AcDbEntity
  8
0
 62
     3
100
AcDbLine
 10
1141.057877999999
 20
-73.669213
 30
0.0
 11
1252.361321
 21
-73.669213
 31
0.0
  0
LINE
  5
29D
330
6B
100
AcDbEntity
  8
0
 62
     3
100
AcDbLine
 10
1141.057878
 20
-52.669213
 30
0.0
 11
1252.361321
 21
-52.66921299999999
 31
0.0
  0
LINE
  5
2A3
330
6B
100
AcDbEntity
  8
0
 62
     3
100
AcDbLine
 10
1141.057878
 20
-59.669213
 30
0.0
 11
1200.661958
 21
-59.669213
 31
0.0
  0
LINE
  5
2A9
330
6B
100
AcDbEntity
  8
0
 62
     3
100
AcDbLine
 10
1141.057878
 20
-66.66921300000002
 30
0.0
 11
1252.361321
 21
-66.669213
 31
0.0
  0
LINE
  5
2AD
330
6B
100
AcDbEntity
  8
0
 62
     3
100
AcDbLine
 10
1252.361321
 20
190.720426
 30
0.0
 11
1252.361321
 21
-83.33493500000001
 31
0.0
  0
LINE
  5
2AE
330
6B
100
AcDbEntity
  8
0
 62
     3
100
AcDbLine
 10
862.361321
 20
190.720426
 30
0.0
 11
862.361321
 21
-83.33493500000001
 31
0.0
  0
LINE
  5
2AF
330
6B
100
AcDbEntity
  8
0
 62
     3
100
AcDbLine
 10
1252.361321
 20
-83.33493500000001
 30
0.0
 11
862.361321
 21
-83.33493500000001
 31
0.0
  0
TEXT
  5
2B2
330
6B
100
AcDbEntity
  8
0
 62
     3
100
AcDbText
 10
1184.394336
 20
-82.87505110806433
 30
0.0
 40
3.2
  1
ZK-A3X
 41
0.8112849999999999
100
AcDbText
  0
TEXT
  5
2B3
330
6B
100
AcDbEntity
  8
0
 62
     3
100
AcDbText
 10
1142.875275
 20
-47.499687
 30
0.0
 40
2.0
  1
CONPONENTS
 41
0.5331600000000001
100
AcDbText
  0
TEXT
  5
2B4
330
6B
100
AcDbEntity
  8
0
 62
     3
100
AcDbText
 10
1142.525549
 20
-66.43186400000001
 30
0.0
 40
3.0
  1
材
 41
0.833333
100
AcDbText
  0
TEXT
  5
2B5
330
6B
100
AcDbEntity
  8
0
 62
     3
100
AcDbText
 10
1150.061191
 20
-66.43186400000001
 30
0.0
 40
3.0
  1
質
 41
0.833333
100
AcDbText
  0
TEXT
  5
2B6
330
6B
100
AcDbEntity
  8
0
 62
     3
100
AcDbText
 10
1142.613619
 20
-55.807339
 30
0.0
 40
2.0
  1
MODEL
 41
1.031072999999999
100
AcDbText
  0
TEXT
  5
2B7
330
6B
100
AcDbEntity
  8
0
 62
     3
100
AcDbText
 10
1142.525549
 20
-62.749555
 30
0.0
 40
2.0
  1
MATERIAL
 41
0.659278
100
AcDbText
  0
TEXT
  5
2B8
330
6B
100
AcDbEntity
  8
0
 62
     3
100
AcDbText
 10
1173.832829
 20
-66.43186400000001
 30
0.0
 40
3.0
  1
備
 41
0.833333
100
AcDbText
  0
TEXT
  5
2B9
330
6B
100
AcDbEntity
  8
0
 62
     3
100
AcDbText
 10
1180.565831
 20
-66.43186400000001
 30
0.0
 40
3.0
  1
考
 41
0.833333
100
AcDbText
  0
TEXT
  5
2BA
330
6B
100
AcDbEntity
  8
0
 62
     3
100
AcDbText
 10
1174.154230608285
 20
-62.749555
 30
0.0
 40
2.0
  1
REMARKS
 41
0.675794
100
AcDbText
  0
TEXT
  5
2BB
330
6B
100
AcDbEntity
  8
0
 62
     3
100
AcDbText
 10
1144.115278
 20
-69.669676
 30
0.0
 40
2.0
  1
3AD
 41
1.42614
100
AcDbText
  0
TEXT
  5
2BC
330
6B
100
AcDbEntity
  8
0
 62
     3
100
AcDbText
 10
1153.426258
 20
-69.50394300000001
 30
0.0
 40
2.0
  1
ANGLE
 41
1.669883999999999
100
AcDbText
  0
TEXT
  5
2BD
330
6B
100
AcDbEntity
  8
0
 62
     3
100
AcDbText
 10
1174.360145
 20
-69.88078299999999
 30
0.0
 40
2.0
  1
SCALE
 41
0.7719630000000001
100
AcDbText
  0
TEXT
  5
2BE
330
6B
100
AcDbEntity
  8
0
 62
     3
100
AcDbText
 10
1143.801408
 20
-73.669213
 30
0.0
 40
3.0
  1
第
 41
0.833333
100
AcDbText
  0
TEXT
  5
2BF
330
6B
100
AcDbEntity
  8
0
 62
     3
100
AcDbText
 10
1151.588258
 20
-73.669213
 30
0.0
 40
3.0
  1
三
 41
0.833333
100
AcDbText
  0
TEXT
  5
2C0
330
6B
100
AcDbEntity
  8
0
 62
     3
100
AcDbText
 10
1159.375108
 20
-73.669213
 30
0.0
 40
3.0
  1
角
 41
0.833333
100
AcDbText
  0
TEXT
  5
2C1
330
6B
100
AcDbEntity
  8
0
 62
     3
100
AcDbText
 10
1167.161958
 20
-73.669213
 30
0.0
 40
3.0
  1
法
 41
0.833333
100
AcDbText
  0
TEXT
  5
2C2
330
6B
100
AcDbEntity
  8
0
 62
     3
100
AcDbText
 10
1174.22335
 20
-73.38078299999999
 30
0.0
 40
3.0
  1
尺
 41
0.833333
100
AcDbText
  0
TEXT
  5
2C3
330
6B
100
AcDbEntity
  8
0
 62
     3
100
AcDbText
 10
1180.956351
 20
-73.38078299999999
 30
0.0
 40
3.0
  1
度
 41
0.833333
100
AcDbText
  0
TEXT
  5
2C4
330
6B
100
AcDbEntity
  8
0
 62
     3
100
AcDbText
 10
1203.539622
 20
-51.211484
 30
0.0
 40
3.0
  1
承認
 41
1.089472999999999
100
AcDbText
  0
TEXT
  5
2C5
330
6B
100
AcDbEntity
  8
0
 62
     3
100
AcDbText
 10
1216.782502
 20
-51.269213
 30
0.0
 40
3.0
  1
検図
 41
0.931761
100
AcDbText
  0
TEXT
  5
2C6
330
6B
100
AcDbEntity
  8
0
 62
     3
100
AcDbText
 10
1229.782899
 20
-51.269213
 30
0.0
 40
3.0
  1
設
 41
0.833333
100
AcDbText
  0
TEXT
  5
2C7
330
6B
100
AcDbEntity
  8
0
 62
     3
100
AcDbText
 10
1234.272767
 20
-51.269213
 30
0.0
 40
3.0
  1
計
 41
0.833333
100
AcDbText
  0
TEXT
  5
2C8
330
6B
100
AcDbEntity
  8
0
 62
     3
100
AcDbText
 10
1142.945382
 20
-51.09666
 30
0.0
 40
3.0
  1
品
 41
0.833333
100
AcDbText
  0
TEXT
  5
2C9
330
6B
100
AcDbEntity
  8
0
 62
     3
100
AcDbText
 10
1150.481024
 20
-51.09666
 30
0.0
 40
3.0
  1
名
 41
0.833333
100
AcDbText
  0
TEXT
  5
2CA
330
6B
100
AcDbEntity
  8
0
 62
     3
100
AcDbText
 10
1142.613619
 20
-59.36682142756613
 30
0.0
 40
3.0
  1
型
 41
0.833333
100
AcDbText
  0
TEXT
  5
2CB
330
6B
100
AcDbEntity
  8
0
 62
     3
100
AcDbText
 10
1150.16171
 20
-59.36682142756613
 30
0.0
 40
3.0
  1
式
 41
0.833333
100
AcDbText
  0
LINE
  5
2D3
330
6B
100
AcDbEntity
  8
0
 62
     3
100
AcDbLine
 10
1252.361321
 20
190.720426
 30
0.0
 11
862.361321
 21
190.720426
 31
0.0
  0
LINE
  5
2D4
330
6B
100
AcDbEntity
  8
0
 62
     3
100
AcDbLine
 10
1226.661958
 20
-43.669213
 30
0.0
 11
1226.661958
 21
-37.669213
 31
0.0
  0
LINE
  5
2D5
330
6B
100
AcDbEntity
  8
0
 62
     3
100
AcDbLine
 10
1200.661958
 20
-43.669213
 30
0.0
 11
1200.661958
 21
-37.669213
 31
0.0
  0
LINE
  5
2D6
330
6B
100
AcDbEntity
  8
0
 62
     3
100
AcDbLine
 10
1252.361321
 20
-37.669213
 30
0.0
 11
1200.661958
 21
-37.669213
 31
0.0
  0
TEXT
  5
2D7
330
6B
100
AcDbEntity
  8
0
 62
     3
100
AcDbText
 10
1206.657556
 20
-42.872864
 30
0.0
 40
4.5
  1
コード
  7
高4.5
100
AcDbText
  0
TEXT
  5
2D8
330
6B
100
AcDbEntity
  8
0
 62
     3
100
AcDbText
 10
910.4821475625
 20
-82.834935
 30
0.0
 40
3.2
  1
個数
 41
0.8
  7
高3.2
100
AcDbText
  0
TEXT
  5
2D9
330
6B
100
AcDbEntity
  8
0
 62
     3
100
AcDbText
 10
871.4196475625
 20
-82.834935
 30
0.0
 40
3.2
  1
部　　品　　名
 41
0.8
  7
高3.2
100
AcDbText
  0
TEXT
  5
2DA
330
6B
100
AcDbEntity
  8
0
 62
     3
100
AcDbText
 10
863.861321
 20
-82.834935
 30
0.0
 40
3.2
  1
No
 41
0.8
  7
高3.2
100
AcDbText
  0
LINE
  5
2DB
330
6B
100
AcDbEntity
  8
0
 62
     7
100
AcDbLine
 10
1051.355931906932
 20
23.14128052058913
 30
0.0
 11
1088.301716453985
 21
23.14128052058913
 31
0.0
  0
TEXT
  5
2DC
330
6B
100
AcDbEntity
  8
0
 62
     3
100
AcDbText
 10
1051.274810796348
 20
23.731976
 30
0.0
 40
4.5
  1
主　　仕　　様
  7
高4.5
100
AcDbText
  0
TEXT
  5
2DD
330
6B
100
AcDbEntity
  8
0
 62
     3
100
AcDbText
 10
863.861321
 20
-67.834935
 30
0.0
 40
3.2
  1
3
 41
0.8
  7
高3.2
100
AcDbText
  0
TEXT
  5
2DE
330
6B
100
AcDbEntity
  8
0
 62
     3
100
AcDbText
 10
863.861321
 20
-62.834935
 30
0.0
 40
3.2
  1
4
 41
0.8
  7
高3.2
100
AcDbText
  0
TEXT
  5
2DF
330
6B
100
AcDbEntity
  8
0
 62
     3
100
AcDbText
 10
910.4821475625
 20
-67.834935
 30
0.0
 40
3.2
  1
1
 41
0.8
  7
高3.2
100
AcDbText
  0
TEXT
  5
2E0
330
6B
100
AcDbEntity
  8
0
 62
     3
100
AcDbText
 10
863.861321
 20
-77.83493500000002
 30
0.0
 40
3.2
  1
1
 41
0.8
  7
高3.2
100
AcDbText
  0
TEXT
  5
2E1
330
6B
100
AcDbEntity
  8
0
 62
     3
100
AcDbText
 10
863.861321
 20
-72.834935
 30
0.0
 40
3.2
  1
2
 41
0.8
  7
高3.2
100
AcDbText
  0
TEXT
  5
2E2
330
6B
100
AcDbEntity
  8
0
 62
     3
100
AcDbText
 10
871.4196475625
 20
-77.83493500000002
 30
0.0
 40
3.2
  1
ケース本体
 41
0.8
  7
高3.2
100
AcDbText
  0
TEXT
  5
2E3
330
6B
100
AcDbEntity
  8
0
 62
     3
100
AcDbText
 10
910.4821475625
 20
-62.834935
 30
0.0
 40
3.2
  1
1
 41
0.8
  7
高3.2
100
AcDbText
  0
TEXT
  5
2E4
330
6B
100
AcDbEntity
  8
0
 62
     3
100
AcDbText
 10
910.4821475625
 20
-77.83493500000002
 30
0.0
 40
3.2
  1
1式
 41
0.8
  7
高3.2
100
AcDbText
  0
TEXT
  5
2E5
330
6B
100
AcDbEntity
  8
0
 62
     3
100
AcDbText
 10
1034.657715
 20
17.018394
 30
0.0
 40
3.2
  1
型　式
 41
0.8
  7
高3.2
100
AcDbText
  0
TEXT
  5
2E6
330
6B
100
AcDbEntity
  8
0
 62
     3
100
AcDbText
 10
920.6383975625
 20
-77.83493500000002
 30
0.0
 40
3.2
  1
-
 41
0.8
  7
高3.2
100
AcDbText
  0
TEXT
  5
2E7
330
6B
100
AcDbEntity
  8
0
 62
     3
100
AcDbText
 10
920.6383975625
 20
-72.834935
 30
0.0
 40
3.2
  1
-
 41
0.8
  7
高3.2
100
AcDbText
  0
TEXT
  5
2E8
330
6B
100
AcDbEntity
  8
0
 62
     3
100
AcDbText
 10
910.4821475625
 20
-72.834935
 30
0.0
 40
3.2
  1
1
 41
0.8
  7
高3.2
100
AcDbText
  0
TEXT
  5
2E9
330
6B
100
AcDbEntity
  8
0
 62
     3
100
AcDbText
 10
910.4821475625
 20
-52.834935
 30
0.0
 40
3.2
  1
1
 41
0.8
  7
高3.2
100
AcDbText
  0
TEXT
  5
2EA
330
6B
100
AcDbEntity
  8
0
 62
     3
100
AcDbText
 10
910.4821475625
 20
-47.834935
 30
0.0
 40
3.2
  1
1
 41
0.8
  7
高3.2
100
AcDbText
  0
TEXT
  5
2EB
330
6B
100
AcDbEntity
  8
0
 62
     3
100
AcDbText
 10
910.4821475625
 20
-42.834935
 30
0.0
 40
3.2
  1
1
 41
0.8
  7
高3.2
100
AcDbText
  0
TEXT
  5
2EC
330
6B
100
AcDbEntity
  8
0
 62
     3
100
AcDbText
 10
910.4821475625
 20
-37.834935
 30
0.0
 40
3.2
  1
1
 41
0.8
  7
高3.2
100
AcDbText
  0
TEXT
  5
2ED
330
6B
100
AcDbEntity
  8
0
 62
     3
100
AcDbText
 10
1034.657715
 20
11.474394
 30
0.0
 40
3.2
  1
入力電圧
 41
0.8
  7
高3.2
100
AcDbText
  0
TEXT
  5
2EE
330
6B
100
AcDbEntity
  8
0
 62
     3
100
AcDbText
 10
1034.657715
 20
5.930394
 30
0.0
 40
3.2
  1
出力電圧
 41
0.8
  7
高3.2
100
AcDbText
  0
TEXT
  5
2EF
330
6B
100
AcDbEntity
  8
0
 62
     3
100
AcDbText
 10
1034.657715
 20
0.386394
 30
0.0
 40
3.2
  1
容　量
 41
0.8
  7
高3.2
100
AcDbText
  0
TEXT
  5
2F0
330
6B
100
AcDbEntity
  8
0
 62
     3
100
AcDbText
 10
910.4821475625
 20
-32.834935
 30
0.0
 40
3.2
  1
1
 41
0.8
  7
高3.2
100
AcDbText
  0
TEXT
  5
2F1
330
6B
100
AcDbEntity
  8
0
 62
     3
100
AcDbText
 10
871.4196475625
 20
-72.834935
 30
0.0
 40
3.2
  1
電源スイッチ
 41
0.8
  7
高3.2
100
AcDbText
  0
TEXT
  5
2F2
330
6B
100
AcDbEntity
  8
0
 62
     3
100
AcDbText
 10
910.4821475625
 20
-57.834935
 30
0.0
 40
3.2
  1
1
 41
0.8
  7
高3.2
100
AcDbText
  0
TEXT
  5
2F3
330
6B
100
AcDbEntity
  8
0
 62
     3
100
AcDbText
 10
920.6383975625
 20
-37.834935
 30
0.0
 40
3.2
  1
-
 41
0.8
  7
高3.2
100
AcDbText
  0
TEXT
  5
2F4
330
6B
100
AcDbEntity
  8
0
 62
     3
100
AcDbText
 10
920.6383975625
 20
-82.834935
 30
0.0
 40
3.2
  1
材　質／備　考
 41
0.8
  7
高3.2
100
AcDbText
  0
LINE
  5
2F5
330
6B
100
AcDbEntity
  8
0
 62
     7
100
AcDbLine
 10
862.361321
 20
-73.334935
 30
0.0
 11
958.9821475624999
 21
-73.334935
 31
0.0
  0
LINE
  5
2F6
330
6B
100
AcDbEntity
  8
0
 62
     7
100
AcDbLine
 10
862.361321
 20
-68.334935
 30
0.0
 11
958.9821475624999
 21
-68.334935
 31
0.0
  0
LINE
  5
2F7
330
6B
100
AcDbEntity
  8
0
 62
     7
100
AcDbLine
 10
862.361321
 20
-63.334935
 30
0.0
 11
958.9821475624999
 21
-63.334935
 31
0.0
  0
LINE
  5
2F8
330
6B
100
AcDbEntity
  8
0
 62
     7
100
AcDbLine
 10
862.361321
 20
-58.334935
 30
0.0
 11
958.9821475624999
 21
-58.334935
 31
0.0
  0
LINE
  5
2F9
330
6B
100
AcDbEntity
  8
0
 62
     7
100
AcDbLine
 10
862.361321
 20
-53.334935
 30
0.0
 11
958.9821475624999
 21
-53.334935
 31
0.0
  0
LINE
  5
2FA
330
6B
100
AcDbEntity
  8
0
 62
     3
100
AcDbLine
 10
862.361321
 20
-78.33493500000002
 30
0.0
 11
958.9821475624999
 21
-78.33493500000002
 31
0.0
  0
LINE
  5
2FB
330
6B
100
AcDbEntity
  8
0
 62
     7
100
AcDbLine
 10
862.361321
 20
-48.334935
 30
0.0
 11
958.9821475624999
 21
-48.334935
 31
0.0
  0
LINE
  5
2FC
330
6B
100
AcDbEntity
  8
0
 62
     7
100
AcDbLine
 10
862.361321
 20
-33.334935
 30
0.0
 11
958.9821475624999
 21
-33.334935
 31
0.0
  0
LINE
  5
2FD
330
6B
100
AcDbEntity
  8
0
 62
     7
100
AcDbLine
 10
862.361321
 20
-38.334935
 30
0.0
 11
958.9821475624999
 21
-38.334935
 31
0.0
  0
LINE
  5
2FE
330
6B
100
AcDbEntity
  8
0
 62
     7
100
AcDbLine
 10
862.361321
 20
-43.334935
 30
0.0
 11
958.9821475624999
 21
-43.334935
 31
0.0
  0
TEXT
  5
2FF
330
6B
100
AcDbEntity
  8
0
 62
     3
100
AcDbText
 10
1034.657715
 20
-32.877606
 30
0.0
 40
3.2
  1
ヒューズ
 41
0.8
  7
高3.2
100
AcDbText
  0
LINE
  5
300
330
6B
100
AcDbEntity
  8
0
 62
     7
100
AcDbLine
 10
1049.845248
 20
-11.493606
 30
0.0
 11
1103.486226
 21
-11.493606
 31
0.0
  0
LINE
  5
301
330
6B
100
AcDbEntity
  8
0
 62
     7
100
AcDbLine
 10
1049.845248
 20
-17.037606
 30
0.0
 11
1103.486226
 21
-17.037606
 31
0.0
  0
LINE
  5
302
330
6B
100
AcDbEntity
  8
0
 62
     7
100
AcDbLine
 10
1049.845248
 20
-0.4056060000000001
 30
0.0
 11
1103.486226
 21
-0.4056060000000001
 31
0.0
  0
LINE
  5
303
330
6B
100
AcDbEntity
  8
0
 62
     3
100
AcDbLine
 10
1103.486226
 20
21.770394
 30
0.0
 11
1103.486226
 21
-44.757606
 31
0.0
  0
LINE
  5
304
330
6B
100
AcDbEntity
  8
0
 62
     3
100
AcDbLine
 10
1033.073715
 20
21.770394
 30
0.0
 11
1033.073715
 21
-44.757606
 31
0.0
  0
LINE
  5
305
330
6B
100
AcDbEntity
  8
0
 62
     3
100
AcDbLine
 10
1049.845248
 20
21.770394
 30
0.0
 11
1049.845248
 21
-44.757606
 31
0.0
  0
TEXT
  5
306
330
6B
100
AcDbEntity
  8
0
 62
     3
100
AcDbText
 10
1158.85148
 20
-50.824953
 30
0.0
 40
4.5
  1
直流安定化電源
  7
高4.5
100
AcDbText
  0
TEXT
  5
307
330
6B
100
AcDbEntity
  8
0
 62
     3
100
AcDbText
 10
871.4196475625
 20
-37.834935
 30
0.0
 40
3.2
  1
冷却ファン
 41
0.8
  7
高3.2
100
AcDbText
  0
TEXT
  5
308
330
6B
100
AcDbEntity
  8
0
 62
     3
100
AcDbText
 10
1186.278667
 20
-73.148742
 30
0.0
 40
3.2
  1
FREE
  7
高3.2
100
AcDbText
  0
TEXT
  5
309
330
6B
100
AcDbEntity
  8
0
 62
     3
100
AcDbText
 10
871.4196475625
 20
-67.834935
 30
0.0
 40
3.2
  1
電流計
 41
0.8
  7
高3.2
100
AcDbText
  0
TEXT
  5
30A
330
6B
100
AcDbEntity
  8
0
 62
     3
100
AcDbText
 10
871.4196475625
 20
-62.834935
 30
0.0
 40
3.2
  1
電圧計
 41
0.8
  7
高3.2
100
AcDbText
  0
TEXT
  5
30B
330
6B
100
AcDbEntity
  8
0
 62
     3
100
AcDbText
 10
920.6383975625
 20
-57.834935
 30
0.0
 40
3.2
  1
シガーソケット
 41
0.8
  7
高3.2
100
AcDbText
  0
TEXT
  5
30C
330
6B
100
AcDbEntity
  8
0
 62
     3
100
AcDbText
 10
871.4196475625
 20
-42.834935
 30
0.0
 40
3.2
  1
ヒューズ
 41
0.8
  7
高3.2
100
AcDbText
  0
TEXT
  5
30D
330
6B
100
AcDbEntity
  8
0
 62
     3
100
AcDbText
 10
871.4196475625
 20
-32.834935
 30
0.0
 40
3.2
  1
電源コード
 41
0.8
  7
高3.2
100
AcDbText
  0
TEXT
  5
30E
330
6B
100
AcDbEntity
  8
0
 62
     3
100
AcDbText
 10
920.6383975625
 20
-32.834935
 30
0.0
 40
3.2
  1
AC100V
 41
0.8
  7
高3.2
100
AcDbText
  0
TEXT
  5
30F
330
6B
100
AcDbEntity
  8
0
 62
     3
100
AcDbText
 10
920.6383975625
 20
-62.834935
 30
0.0
 40
3.2
  1
-
 41
0.8
  7
高3.2
100
AcDbText
  0
TEXT
  5
310
330
6B
100
AcDbEntity
  8
0
 62
     3
100
AcDbText
 10
920.6383975625
 20
-67.834935
 30
0.0
 40
3.2
  1
-
 41
0.8
  7
高3.2
100
AcDbText
  0
TEXT
  5
311
330
6B
100
AcDbEntity
  8
0
 62
     3
100
AcDbText
 10
1050.652589
 20
11.496639
 30
0.0
 40
3.2
  1
AC100V
 41
0.8
  7
高3.2
100
AcDbText
  0
TEXT
  5
312
330
6B
100
AcDbEntity
  8
0
 62
     3
100
AcDbText
 10
1050.652589
 20
-5.135360999999999
 30
0.0
 40
3.2
  1
定電流保護回路内蔵
 41
0.8
  7
高3.2
100
AcDbText
  0
TEXT
  5
313
330
6B
100
AcDbEntity
  8
0
 62
     3
100
AcDbText
 10
1034.657715
 20
-10.701606
 30
0.0
 40
3.2
  1
出力端子
 41
0.8
  7
高3.2
100
AcDbText
  0
TEXT
  5
314
330
6B
100
AcDbEntity
  8
0
 62
     3
100
AcDbText
 10
1050.652589
 20
-10.679361
 30
0.0
 40
3.2
  1
シガーソケット　MAX10A
 41
0.8
  7
高3.2
100
AcDbText
  0
TEXT
  5
315
330
6B
100
AcDbEntity
  8
0
 62
     3
100
AcDbText
 10
1050.652589
 20
-21.767361
 30
0.0
 40
3.2
  1
プッシュターミナル　MAX6A
 41
0.8
  7
高3.2
100
AcDbText
  0
TEXT
  5
316
330
6B
100
AcDbEntity
  8
0
 62
     3
100
AcDbText
 10
920.6383975625
 20
-47.834935
 30
0.0
 40
3.2
  1
プッシュターミナル
 41
0.8
  7
高3.2
100
AcDbText
  0
TEXT
  5
317
330
6B
100
AcDbEntity
  8
0
 62
     3
100
AcDbText
 10
920.6383975625
 20
-52.834935
 30
0.0
 40
3.2
  1
ネジターミナル
 41
0.8
  7
高3.2
100
AcDbText
  0
TEXT
  5
318
330
6B
100
AcDbEntity
  8
0
 62
     3
100
AcDbText
 10
871.4196475625
 20
-47.834935
 30
0.0
 40
3.2
  1
出力端子
 41
0.8
  7
高3.2
100
AcDbText
  0
TEXT
  5
319
330
6B
100
AcDbEntity
  8
0
 62
     3
100
AcDbText
 10
871.4196475625
 20
-52.834935
 30
0.0
 40
3.2
  1
出力端子
 41
0.8
  7
高3.2
100
AcDbText
  0
TEXT
  5
31A
330
6B
100
AcDbEntity
  8
0
 62
     3
100
AcDbText
 10
871.4196475625
 20
-57.834935
 30
0.0
 40
3.2
  1
出力端子
 41
0.8
  7
高3.2
100
AcDbText
  0
TEXT
  5
31B
330
6B
100
AcDbEntity
  8
0
 62
     3
100
AcDbText
 10
1034.657715
 20
-27.333606
 30
0.0
 40
3.2
  1
出力表示
 41
0.8
  7
高3.2
100
AcDbText
  0
TEXT
  5
31C
330
6B
100
AcDbEntity
  8
0
 62
     3
100
AcDbText
 10
1050.652589
 20
-27.311361
 30
0.0
 40
3.2
  1
電流計・電圧計
 41
0.8
  7
高3.2
100
AcDbText
  0
TEXT
  5
31D
330
6B
100
AcDbEntity
  8
0
 62
     3
100
AcDbText
 10
1034.657715
 20
-43.96560599999999
 30
0.0
 40
3.2
  1
質　量
 41
0.8
  7
高3.2
100
AcDbText
  0
TEXT
  5
31E
330
6B
100
AcDbEntity
  8
0
 62
     3
100
AcDbText
 10
1050.652589
 20
-43.94336099999999
 30
0.0
 40
3.2
  1
約5.5kg
 41
0.8
  7
高3.2
100
AcDbText
  0
TEXT
  5
31F
330
6B
100
AcDbEntity
  8
0
 62
     3
100
AcDbText
 10
1034.657715
 20
-38.421606
 30
0.0
 40
3.2
  1
冷却方式
 41
0.8
  7
高3.2
100
AcDbText
  0
TEXT
  5
320
330
6B
100
AcDbEntity
  8
0
 62
     3
100
AcDbText
 10
1050.652589
 20
-38.399361
 30
0.0
 40
3.2
  1
FAN
 41
0.8
  7
高3.2
100
AcDbText
  0
LINE
  5
321
330
6B
100
AcDbEntity
  8
0
 62
     3
100
AcDbLine
 10
1033.073715
 20
21.770394
 30
0.0
 11
1103.486226
 21
21.770394
 31
0.0
  0
LINE
  5
322
330
6B
100
AcDbEntity
  8
0
 62
     7
100
AcDbLine
 10
1033.073715
 20
-22.581606
 30
0.0
 11
1103.486226
 21
-22.581606
 31
0.0
  0
LINE
  5
323
330
6B
100
AcDbEntity
  8
0
 62
     7
100
AcDbLine
 10
1033.073715
 20
10.682394
 30
0.0
 11
1103.486226
 21
10.682394
 31
0.0
  0
LINE
  5
324
330
6B
100
AcDbEntity
  8
0
 62
     7
100
AcDbLine
 10
1033.073715
 20
-28.125606
 30
0.0
 11
1103.486226
 21
-28.125606
 31
0.0
  0
LINE
  5
325
330
6B
100
AcDbEntity
  8
0
 62
     7
100
AcDbLine
 10
1033.073715
 20
-33.669606
 30
0.0
 11
1103.486226
 21
-33.669606
 31
0.0
  0
LINE
  5
326
330
6B
100
AcDbEntity
  8
0
 62
     7
100
AcDbLine
 10
1033.073715
 20
-39.213606
 30
0.0
 11
1103.486226
 21
-39.213606
 31
0.0
  0
LINE
  5
327
330
6B
100
AcDbEntity
  8
0
 62
     7
100
AcDbLine
 10
1033.073715
 20
16.226394
 30
0.0
 11
1103.486226
 21
16.226394
 31
0.0
  0
LINE
  5
328
330
6B
100
AcDbEntity
  8
0
 62
     7
100
AcDbLine
 10
1033.073715
 20
5.138393999999999
 30
0.0
 11
1103.486226
 21
5.138393999999999
 31
0.0
  0
LINE
  5
329
330
6B
100
AcDbEntity
  8
0
 62
     7
100
AcDbLine
 10
1033.073715
 20
-5.949606
 30
0.0
 11
1103.486226
 21
-5.949606
 31
0.0
  0
LINE
  5
32A
330
6B
100
AcDbEntity
  8
0
 62
     3
100
AcDbLine
 10
1033.073715
 20
-44.757606
 30
0.0
 11
1103.486226
 21
-44.757606
 31
0.0
  0
TEXT
  5
32B
330
6B
100
AcDbEntity
  8
0
 62
     3
100
AcDbText
 10
1218.516911
 20
-72.369509
 30
0.0
 40
3.2
  1
2008.10.06
  7
高3.2
100
AcDbText
  0
LINE
  5
332
330
6B
100
AcDbEntity
  8
0
 62
     3
100
AcDbLine
 10
849.9593970000001
 20
57.16506500000001
 30
0.0
 11
847.3613210000001
 21
55.665065
 31
0.0
  0
LINE
  5
333
330
6B
100
AcDbEntity
  8
0
 62
     3
100
AcDbLine
 10
849.9593970000001
 20
57.16506500000001
 30
0.0
 11
847.3613210000001
 21
58.665065
 31
0.0
  0
LINE
  5
334
330
6B
100
AcDbEntity
  8
0
 62
     3
100
AcDbLine
 10
847.3613210000001
 20
55.665065
 30
0.0
 11
847.3613210000001
 21
58.665065
 31
0.0
  0
LINE
  5
33A
330
6B
100
AcDbEntity
  8
0
 62
     7
100
AcDbLine
 10
970.680748
 20
122.271496
 30
0.0
 11
982.8078819999999
 21
145.212686
 31
0.0
  0
CIRCLE
  5
33B
330
6B
100
AcDbEntity
  8
0
 62
     7
100
AcDbCircle
 10
985.1445809999999
 20
149.633075
 30
0.0
 40
5.0
  0
TEXT
  5
33C
330
6B
100
AcDbEntity
  8
0
 62
     4
100
AcDbText
 10
982.9408924657696
 20
146.4074025120002
 30
0.0
 40
6.299999999999999
  1
2
  7
高6.3
100
AcDbText
  0
LINE
  5
342
330
6B
100
AcDbEntity
  8
0
 62
     7
100
AcDbLine
 10
890.930748
 20
129.771496
 30
0.0
 11
887.0339949999999
 21
144.998449
 31
0.0
  0
CIRCLE
  5
343
330
6B
100
AcDbEntity
  8
0
 62
     7
100
AcDbCircle
 10
885.7943849999999
 20
149.842349
 30
0.0
 40
5.0
  0
TEXT
  5
344
330
6B
100
AcDbEntity
  8
0
 62
     4
100
AcDbText
 10
884.6133095867099
 20
146.8635839583339
 30
0.0
 40
6.299999999999999
  1
1
  7
高6.3
100
AcDbText
  0
LINE
  5
34A
330
6B
100
AcDbEntity
  8
0
 62
     7
100
AcDbLine
 10
908.930748
 20
124.771496
 30
0.0
 11
905.493906
 21
145.360024
 31
0.0
  0
CIRCLE
  5
34B
330
6B
100
AcDbEntity
  8
0
 62
     7
100
AcDbCircle
 10
904.670647
 20
150.291783
 30
0.0
 40
5.0
  0
TEXT
  5
34C
330
6B
100
AcDbEntity
  8
0
 62
     4
100
AcDbText
 10
902.4669584657695
 20
147.0661105120002
 30
0.0
 40
6.299999999999999
  1
3
  7
高6.3
100
AcDbText
  0
LINE
  5
352
330
6B
100
AcDbEntity
  8
0
 62
     7
100
AcDbLine
 10
939.930748
 20
124.771496
 30
0.0
 11
947.113137
 21
146.004848
 31
0.0
  0
CIRCLE
  5
353
330
6B
100
AcDbEntity
  8
0
 62
     7
100
AcDbCircle
 10
948.7152599999999
 20
150.741218
 30
0.0
 40
5.0
  0
TEXT
  5
354
330
6B
100
AcDbEntity
  8
0
 62
     4
100
AcDbText
 10
946.5115714657695
 20
147.5155455120002
 30
0.0
 40
6.299999999999999
  1
4
  7
高6.3
100
AcDbText
  0
LINE
  5
35A
330
6B
100
AcDbEntity
  8
0
 62
     7
100
AcDbLine
 10
906.710754
 20
79.840008
 30
0.0
 11
910.6054659999999
 21
61.512849
 31
0.0
  0
CIRCLE
  5
35B
330
6B
100
AcDbEntity
  8
0
 62
     7
100
AcDbCircle
 10
911.644809
 20
56.62206499999999
 30
0.0
 40
5.0
  0
TEXT
  5
35C
330
6B
100
AcDbEntity
  8
0
 62
     4
100
AcDbText
 10
909.4411204657696
 20
53.39639251200023
 30
0.0
 40
6.299999999999999
  1
5
  7
高6.3
100
AcDbText
  0
LINE
  5
362
330
6B
100
AcDbEntity
  8
0
 62
     7
100
AcDbLine
 10
922.504248
 20
80.99470699999999
 30
0.0
 11
932.955523
 21
62.30555999999999
 31
0.0
  0
CIRCLE
  5
363
330
6B
100
AcDbEntity
  8
0
 62
     7
100
AcDbCircle
 10
935.3959359999999
 20
57.941572
 30
0.0
 40
5.0
  0
TEXT
  5
364
330
6B
100
AcDbEntity
  8
0
 62
     4
100
AcDbText
 10
933.1922474657694
 20
54.71589951200023
 30
0.0
 40
6.299999999999999
  1
6
  7
高6.3
100
AcDbText
  0
LINE
  5
36A
330
6B
100
AcDbEntity
  8
0
 62
     7
100
AcDbLine
 10
958.257073
 20
79.521496
 30
0.0
 11
963.5472060000001
 21
61.27856999999999
 31
0.0
  0
CIRCLE
  5
36B
330
6B
100
AcDbEntity
  8
0
 62
     7
100
AcDbCircle
 10
964.939751
 20
56.476402
 30
0.0
 40
5.0
  0
TEXT
  5
36C
330
6B
100
AcDbEntity
  8
0
 62
     4
100
AcDbText
 10
962.7360624657695
 20
53.25072951200024
 30
0.0
 40
6.299999999999999
  1
7
  7
高6.3
100
AcDbText
  0
LINE
  5
372
330
6B
100
AcDbEntity
  8
0
 62
     7
100
AcDbLine
 10
1146.949139
 20
78.775346
 30
0.0
 11
1152.854261
 21
61.21560099999999
 31
0.0
  0
CIRCLE
  5
373
330
6B
100
AcDbEntity
  8
0
 62
     7
100
AcDbCircle
 10
1154.447995
 20
56.476402
 30
0.0
 40
5.0
  0
TEXT
  5
374
330
6B
100
AcDbEntity
  8
0
 62
     4
100
AcDbText
 10
1152.244306465769
 20
53.25072951200024
 30
0.0
 40
6.299999999999999
  1
8
  7
高6.3
100
AcDbText
  0
LINE
  5
37A
330
6B
100
AcDbEntity
  8
0
 62
     7
100
AcDbLine
 10
1164.805397
 20
71.95421
 30
0.0
 11
1179.722495
 21
59.656887
 31
0.0
  0
CIRCLE
  5
37B
330
6B
100
AcDbEntity
  8
0
 62
     7
100
AcDbCircle
 10
1183.58054
 20
56.476402
 30
0.0
 40
5.0
  0
TEXT
  5
37C
330
6B
100
AcDbEntity
  8
0
 62
     4
100
AcDbText
 10
1180.852386646839
 20
54.26572802500505
 30
0.0
 40
4.5
  1
10
  7
高4.5
100
AcDbText
  0
LINE
  5
382
330
6B
100
AcDbEntity
  8
0
 62
     7
100
AcDbLine
 10
1200.330057
 20
111.904557
 30
0.0
 11
1206.562004
 21
143.004136
 31
0.0
  0
CIRCLE
  5
383
330
6B
100
AcDbEntity
  8
0
 62
     7
100
AcDbCircle
 10
1207.544408
 20
147.906674
 30
0.0
 40
5.0
  0
TEXT
  5
384
330
6B
100
AcDbEntity
  8
0
 62
     4
100
AcDbText
 10
1205.340719465769
 20
144.6810015120002
 30
0.0
 40
6.299999999999999
  1
9
  7
高6.3
100
AcDbText
  0
TEXT
  5
385
330
6B
100
AcDbEntity
  8
0
 62
     3
100
AcDbText
 10
863.861321
 20
-57.834935
 30
0.0
 40
3.2
  1
5
 41
0.8
  7
高3.2
100
AcDbText
  0
TEXT
  5
386
330
6B
100
AcDbEntity
  8
0
 62
     3
100
AcDbText
 10
863.861321
 20
-52.834935
 30
0.0
 40
3.2
  1
6
 41
0.8
  7
高3.2
100
AcDbText
  0
TEXT
  5
387
330
6B
100
AcDbEntity
  8
0
 62
     3
100
AcDbText
 10
863.861321
 20
-47.834935
 30
0.0
 40
3.2
  1
7
 41
0.8
  7
高3.2
100
AcDbText
  0
TEXT
  5
388
330
6B
100
AcDbEntity
  8
0
 62
     3
100
AcDbText
 10
863.861321
 20
-42.834935
 30
0.0
 40
3.2
  1
8
 41
0.8
  7
高3.2
100
AcDbText
  0
TEXT
  5
389
330
6B
100
AcDbEntity
  8
0
 62
     3
100
AcDbText
 10
863.861321
 20
-37.834935
 30
0.0
 40
3.2
  1
9
 41
0.8
  7
高3.2
100
AcDbText
  0
TEXT
  5
38A
330
6B
100
AcDbEntity
  8
0
 62
     3
100
AcDbText
 10
863.861321
 20
-32.834935
 30
0.0
 40
3.2
  1
10
 41
0.8
  7
高3.2
100
AcDbText
  0
LINE
  5
38B
330
6B
100
AcDbEntity
  8
0
 62
     3
100
AcDbLine
 10
862.361321
 20
-28.334935
 30
0.0
 11
958.9821475624999
 21
-28.334935
 31
0.0
  0
LINE
  5
38C
330
6B
100
AcDbEntity
  8
0
 62
     7
100
AcDbLine
 10
869.9196475624999
 20
-83.33493500000001
 30
0.0
 11
869.9196475624999
 21
-28.334935
 31
0.0
  0
LINE
  5
38D
330
6B
100
AcDbEntity
  8
0
 62
     3
100
AcDbLine
 10
958.9821475624999
 20
-83.33493500000001
 30
0.0
 11
958.9821475624999
 21
-28.334935
 31
0.0
  0
LINE
  5
38E
330
6B
100
AcDbEntity
  8
0
 62
     7
100
AcDbLine
 10
919.1383975624999
 20
-83.33493500000001
 30
0.0
 11
919.1383975624999
 21
-28.334935
 31
0.0
  0
LINE
  5
38F
330
6B
100
AcDbEntity
  8
0
 62
     7
100
AcDbLine
 10
908.9821475624999
 20
-83.33493500000001
 30
0.0
 11
908.9821475624999
 21
-28.334935
 31
0.0
  0
TEXT
  5
390
330
6B
100
AcDbEntity
  8
0
 62
     3
100
AcDbText
 10
1050.652589
 20
0.408639
 30
0.0
 40
3.2
  1
10A
 41
0.8
  7
高3.2
100
AcDbText
  0
TEXT
  5
391
330
6B
100
AcDbEntity
  8
0
 62
     3
100
AcDbText
 10
1050.652589
 20
5.952638999999999
 30
0.0
 40
3.2
  1
DC24V
 41
0.8
  7
高3.2
100
AcDbText
  0
TEXT
  5
392
330
6B
100
AcDbEntity
  8
0
 62
     3
100
AcDbText
 10
1050.652589
 20
-16.223361
 30
0.0
 40
3.2
  1
ネジターミナル　MAX10A
 41
0.8
  7
高3.2
100
AcDbText
  0
TEXT
  5
393
330
6B
100
AcDbEntity
  8
0
 62
     3
100
AcDbText
 10
1050.652589
 20
-32.855361
 30
0.0
 40
3.2
  1
4A
 41
0.8
  7
高3.2
100
AcDbText
  0
TEXT
  5
394
330
6B
100
AcDbEntity
  8
0
 62
     3
100
AcDbText
 10
920.6383975625
 20
-42.834935
 30
0.0
 40
3.2
  1
4A
 41
0.8
  7
高3.2
100
AcDbText
  0
TEXT
  5
395
330
6B
100
AcDbEntity
  8
0
 62
     3
100
AcDbText
 10
1158.210377344297
 20
-58.858235
 30
0.0
 40
4.5
  1
DPS-1024H
  7
高4.5
100
AcDbText
  0
TEXT
  5
396
330
6B
100
AcDbEntity
  8
0
 62
     3
100
AcDbText
 10
1202.090976
 20
-82.56053399999998
 30
0.0
 40
6.299999999999999
  1
DPS-1024H
 41
0.8
  7
高6.3
100
AcDbText
  0
TEXT
  5
397
330
6B
100
AcDbEntity
  8
0
 62
     3
100
AcDbText
 10
1231.10041023696
 20
-43.025076
 30
0.0
 40
4.5
  1
6418
  7
高4.5
100
AcDbText
  0
TEXT
  5
398
330
6B
100
AcDbEntity
  8
0
 62
     3
100
AcDbText
 10
1050.652589
 20
17.040639
 30
0.0
 40
3.2
  1
DPS-1024H
 41
0.8
  7
高3.2
100
AcDbText
  0
TEXT
  5
476
330
6B
100
AcDbEntity
  8
0
 62
     3
100
AcDbText
 10
1239.861321
 20
181.220426
 30
0.0
 40
3.2
  1
担　当
  7
高3.2
100
AcDbText
  0
TEXT
  5
477
330
6B
100
AcDbEntity
  8
0
 62
     3
100
AcDbText
 10
1195.861321
 20
181.220426
 30
0.0
 40
3.2
  1
変更・追記内容
  7
高3.2
100
AcDbText
  0
TEXT
  5
478
330
6B
100
AcDbEntity
  8
0
 62
     3
100
AcDbText
 10
1170.974836000339
 20
176.5498874900917
 30
0.0
 40
2.0
  1
1
  7
高2
100
AcDbText
  0
TEXT
  5
479
330
6B
100
AcDbEntity
  8
0
 62
     3
100
AcDbText
 10
1170.666324523582
 20
171.3800707778188
 30
0.0
 40
2.0
  1
2
  7
高2
100
AcDbText
  0
TEXT
  5
47A
330
6B
100
AcDbEntity
  8
0
 62
     3
100
AcDbText
 10
1177.861321
 20
181.220426
 30
0.0
 40
3.2
  1
日　付
  7
高3.2
100
AcDbText
  0
TEXT
  5
47B
330
6B
100
AcDbEntity
  8
0
 62
     3
100
AcDbText
 10
1177.861321
 20
186.220426
 30
0.0
 40
3.2
  1
図　　　　面　　　　略　　　　歴
  7
高3.2
100
AcDbText
  0
TEXT
  5
47C
330
6B
100
AcDbEntity
  8
0
 62
     3
100
AcDbText
 10
1167.861321
 20
181.220426
 30
0.0
 40
3.2
  1
記号
  7
高3.2
100
AcDbText
  0
LINE
  5
47D
330
6B
100
AcDbEntity
  8
0
 62
     7
100
AcDbLine
 10
1171.361321
 20
174.5113220000001
 30
0.0
 11
1169.461321
 21
171.220426
 31
0.0
  0
LINE
  5
47E
330
6B
100
AcDbEntity
  8
0
 62
     7
100
AcDbLine
 10
1171.361321
 20
174.5113220000001
 30
0.0
 11
1173.261321
 21
171.220426
 31
0.0
  0
LINE
  5
47F
330
6B
100
AcDbEntity
  8
0
 62
     7
100
AcDbLine
 10
1169.461321
 20
171.220426
 30
0.0
 11
1173.261321
 21
171.220426
 31
0.0
  0
LINE
  5
480
330
6B
100
AcDbEntity
  8
0
 62
     7
100
AcDbLine
 10
1171.361321
 20
179.5113230000001
 30
0.0
 11
1169.461321
 21
176.220426
 31
0.0
  0
LINE
  5
481
330
6B
100
AcDbEntity
  8
0
 62
     7
100
AcDbLine
 10
1171.361321
 20
179.5113230000001
 30
0.0
 11
1173.261321
 21
176.220426
 31
0.0
  0
LINE
  5
482
330
6B
100
AcDbEntity
  8
0
 62
     7
100
AcDbLine
 10
1169.461321
 20
176.220426
 30
0.0
 11
1173.261321
 21
176.220426
 31
0.0
  0
LINE
  5
483
330
6B
100
AcDbEntity
  8
0
 62
     3
100
AcDbLine
 10
1166.361321
 20
185.720426
 30
0.0
 11
1252.361321
 21
185.720426
 31
0.0
  0
LINE
  5
484
330
6B
100
AcDbEntity
  8
0
 62
     3
100
AcDbLine
 10
1166.361321
 20
180.720426
 30
0.0
 11
1252.361321
 21
180.720426
 31
0.0
  0
LINE
  5
485
330
6B
100
AcDbEntity
  8
0
 62
     7
100
AcDbLine
 10
1166.361321
 20
175.720426
 30
0.0
 11
1252.361321
 21
175.720426
 31
0.0
  0
LINE
  5
486
330
6B
100
AcDbEntity
  8
0
 62
     3
100
AcDbLine
 10
1166.361321
 20
170.720426
 30
0.0
 11
1252.361321
 21
170.720426
 31
0.0
  0
LINE
  5
487
330
6B
100
AcDbEntity
  8
0
 62
     7
100
AcDbLine
 10
1238.361321
 20
170.720426
 30
0.0
 11
1238.361321
 21
185.720426
 31
0.0
  0
LINE
  5
488
330
6B
100
AcDbEntity
  8
0
 62
     7
100
AcDbLine
 10
1194.361321
 20
170.720426
 30
0.0
 11
1194.361321
 21
185.720426
 31
0.0
  0
LINE
  5
489
330
6B
100
AcDbEntity
  8
0
 62
     7
100
AcDbLine
 10
1176.361321
 20
170.720426
 30
0.0
 11
1176.361321
 21
185.720426
 31
0.0
  0
LINE
  5
48A
330
6B
100
AcDbEntity
  8
0
 62
     3
100
AcDbLine
 10
1166.361321
 20
170.720426
 30
0.0
 11
1166.361321
 21
190.720426
 31
0.0
  0
TEXT
  5
5C8
330
6B
100
AcDbEntity
  8
0
 62
     7
100
AcDbText
 10
1144.50963
 20
86.36017950000001
 30
0.0
 40
1.25
  1
50/60Hz
100
AcDbText
  0
TEXT
  5
5CB
330
6B
100
AcDbEntity
  8
0
 62
     7
100
AcDbText
 10
1144.50963
 20
87.893579
 30
0.0
 40
1.25
  1
AC 100V
100
AcDbText
  0
TEXT
  5
5CC
330
6B
100
AcDbEntity
  8
0
 62
     7
100
AcDbText
 10
1144.563488
 20
89.52969949999999
 30
0.0
 40
1.25
  1
FUSE 4A
100
AcDbText
  0
LINE
  5
61C
330
6B
100
AcDbEntity
  8
0
 62
     7
100
AcDbLine
 10
1200.197567
 20
113.970866
 30
0.0
 11
1200.330057
 21
111.904557
 31
0.0
  0
LINE
  5
61D
330
6B
100
AcDbEntity
  8
0
 62
     7
100
AcDbLine
 10
1200.330057
 20
111.904557
 30
0.0
 11
1201.248472
 21
113.760278
 31
0.0
  0
LINE
  5
61E
330
6B
100
AcDbEntity
  8
0
 62
     7
100
AcDbLine
 10
1166.689498
 20
71.09551999999999
 30
0.0
 11
1164.805397
 21
71.95421
 31
0.0
  0
LINE
  5
61F
330
6B
100
AcDbEntity
  8
0
 62
     7
100
AcDbLine
 10
1164.805397
 20
71.95421
 30
0.0
 11
1166.007732
 21
70.268512
 31
0.0
  0
LINE
  5
620
330
6B
100
AcDbEntity
  8
0
 62
     7
100
AcDbLine
 10
1148.094578
 20
77.05048199999999
 30
0.0
 11
1146.949139
 21
78.775346
 31
0.0
  0
LINE
  5
621
330
6B
100
AcDbEntity
  8
0
 62
     7
100
AcDbLine
 10
1146.949139
 20
78.775346
 30
0.0
 11
1147.078687
 21
76.70885
 31
0.0
  0
LINE
  5
622
330
6B
100
AcDbEntity
  8
0
 62
     7
100
AcDbLine
 10
959.328786
 20
77.749881
 30
0.0
 11
958.257073
 21
79.521496
 31
0.0
  0
LINE
  5
623
330
6B
100
AcDbEntity
  8
0
 62
     7
100
AcDbLine
 10
958.257073
 20
79.521496
 30
0.0
 11
958.2993970000002
 21
77.45137599999999
 31
0.0
  0
LINE
  5
624
330
6B
100
AcDbEntity
  8
0
 62
     7
100
AcDbLine
 10
923.948144
 20
79.510675
 30
0.0
 11
922.504248
 21
80.99470699999999
 31
0.0
  0
LINE
  5
625
330
6B
100
AcDbEntity
  8
0
 62
     7
100
AcDbLine
 10
922.504248
 20
80.99470699999999
 30
0.0
 11
923.0126830000001
 21
78.987549
 31
0.0
  0
LINE
  5
626
330
6B
100
AcDbEntity
  8
0
 62
     7
100
AcDbLine
 10
907.650684
 20
77.995091
 30
0.0
 11
906.710754
 21
79.840008
 31
0.0
  0
LINE
  5
627
330
6B
100
AcDbEntity
  8
0
 62
     7
100
AcDbLine
 10
906.710754
 20
79.840008
 30
0.0
 11
906.6022979999999
 21
77.77229799999999
 31
0.0
  0
LINE
  5
628
330
6B
100
AcDbEntity
  8
0
 62
     7
100
AcDbLine
 10
940.0639550000001
 20
126.837759
 30
0.0
 11
939.930748
 21
124.771496
 31
0.0
  0
LINE
  5
629
330
6B
100
AcDbEntity
  8
0
 62
     7
100
AcDbLine
 10
939.930748
 20
124.771496
 30
0.0
 11
941.07924
 21
126.494329
 31
0.0
  0
LINE
  5
62A
330
6B
100
AcDbEntity
  8
0
 62
     7
100
AcDbLine
 10
908.07286
 20
126.655963
 30
0.0
 11
908.930748
 21
124.771496
 31
0.0
  0
LINE
  5
62B
330
6B
100
AcDbEntity
  8
0
 62
     7
100
AcDbLine
 10
908.930748
 20
124.771496
 30
0.0
 11
909.1300289999999
 21
126.832436
 31
0.0
  0
LINE
  5
62C
330
6B
100
AcDbEntity
  8
0
 62
     7
100
AcDbLine
 10
889.915736
 20
131.576195
 30
0.0
 11
890.930748
 21
129.771496
 31
0.0
  0
LINE
  5
62D
330
6B
100
AcDbEntity
  8
0
 62
     7
100
AcDbLine
 10
890.930748
 20
129.771496
 30
0.0
 11
890.9540710000001
 21
131.841917
 31
0.0
  0
LINE
  5
62E
330
6B
100
AcDbEntity
  8
0
 62
     7
100
AcDbLine
 10
971.1416510000001
 20
124.290098
 30
0.0
 11
970.680748
 21
122.271496
 31
0.0
  0
LINE
  5
62F
330
6B
100
AcDbEntity
  8
0
 62
     7
100
AcDbLine
 10
970.680748
 20
122.271496
 30
0.0
 11
972.0892029999999
 21
123.789205
 31
0.0
  0
LINE
  5
630
330
6B
100
AcDbEntity
  8
0
 62
     7
100
AcDbLine
 10
1160.915506
 20
64.21299300000001
 30
0.0
 11
1161.741876
 21
63.63769399999999
 31
0.0
  0
LINE
  5
631
330
6B
100
AcDbEntity
  8
0
 62
     7
100
AcDbLine
 10
1161.741876
 20
63.63769399999999
 30
0.0
 11
1162.543947
 21
63.475437
 31
0.0
  0
LINE
  5
632
330
6B
100
AcDbEntity
  8
0
 62
     7
100
AcDbLine
 10
1162.543947
 20
63.475437
 30
0.0
 11
1163.363282
 21
63.987417
 31
0.0
  0
LINE
  5
633
330
6B
100
AcDbEntity
  8
0
 62
     7
100
AcDbLine
 10
1163.363282
 20
63.987417
 30
0.0
 11
1164.172385
 21
64.49275599999999
 31
0.0
  0
LINE
  5
634
330
6B
100
AcDbEntity
  8
0
 62
     7
100
AcDbLine
 10
1164.172385
 20
64.49275599999999
 30
0.0
 11
1165.003219
 21
64.27467599999999
 31
0.0
  0
LINE
  5
635
330
6B
100
AcDbEntity
  8
0
 62
     7
100
AcDbLine
 10
1165.003219
 20
64.27467599999999
 30
0.0
 11
1165.851715
 21
63.57716899999999
 31
0.0
  0
LINE
  5
636
330
6B
100
AcDbEntity
  8
0
100
AcDbLine
 10
888.430748
 20
70.021496
 30
0.0
 11
888.430748
 21
43.815775
 31
0.0
  0
LINE
  5
637
330
6B
100
AcDbEntity
  8
0
100
AcDbLine
 10
985.930748
 20
70.021496
 30
0.0
 11
985.930748
 21
43.815775
 31
0.0
  0
LINE
  5
638
330
6B
100
AcDbEntity
  8
0
100
AcDbLine
 10
890.930748
 20
45.065775
 30
0.0
 11
983.4307479999999
 21
45.065775
 31
0.0
  0
LINE
  5
63C
330
6B
100
AcDbEntity
  8
0
100
AcDbLine
 10
1010.53543
 20
67.271496
 30
0.0
 11
998.23854
 21
67.271496
 31
0.0
  0
LINE
  5
63D
330
6B
100
AcDbEntity
  8
0
100
AcDbLine
 10
1008.03543
 20
129.771496
 30
0.0
 11
998.23854
 21
129.771496
 31
0.0
  0
LINE
  5
63E
330
6B
100
AcDbEntity
  8
0
100
AcDbLine
 10
999.4885400000001
 20
69.771496
 30
0.0
 11
999.4885400000001
 21
127.271496
 31
0.0
  0
LINE
  5
642
330
6B
100
AcDbEntity
  8
0
100
AcDbLine
 10
1008.28543
 20
70.021496
 30
0.0
 11
1008.28543
 21
43.815775
 31
0.0
  0
LINE
  5
643
330
6B
100
AcDbEntity
  8
0
100
AcDbLine
 10
1120.78543
 20
70.021496
 30
0.0
 11
1120.78543
 21
43.815775
 31
0.0
  0
LINE
  5
644
330
6B
100
AcDbEntity
  8
0
100
AcDbLine
 10
1010.78543
 20
45.065775
 30
0.0
 11
1118.28543
 21
45.065775
 31
0.0
  0
TEXT
  5
648
330
6B
100
AcDbEntity
  8
0
  6
Continuous
 62
     4
100
AcDbText
 10
933.680748
 20
45.690775
 30
0.0
 40
3.0
  1
195
100
AcDbText
  0
LINE
  5
649
330
6B
100
AcDbEntity
  8
0
  6
ByBlock
 62
     0
370
    -2
100
AcDbLine
 10
983.4307479999999
 20
45.7356475
 30
0.0
 11
985.930748
 21
45.065775
 31
0.0
  0
LINE
  5
64A
330
6B
100
AcDbEntity
  8
0
  6
ByBlock
 62
     0
370
    -2
100
AcDbLine
 10
985.930748
 20
45.065775
 30
0.0
 11
983.4307479999999
 21
44.39590250000001
 31
0.0
  0
LINE
  5
64B
330
6B
100
AcDbEntity
  8
0
  6
ByBlock
 62
     0
370
    -2
100
AcDbLine
 10
985.930748
 20
45.065775
 30
0.0
 11
983.4307479999999
 21
45.065775
 31
0.0
  0
LINE
  5
64C
330
6B
100
AcDbEntity
  8
0
  6
ByBlock
 62
     0
370
    -2
100
AcDbLine
 10
890.930748
 20
44.39590250000001
 30
0.0
 11
888.430748
 21
45.065775
 31
0.0
  0
LINE
  5
64D
330
6B
100
AcDbEntity
  8
0
  6
ByBlock
 62
     0
370
    -2
100
AcDbLine
 10
888.430748
 20
45.065775
 30
0.0
 11
890.930748
 21
45.7356475
 31
0.0
  0
LINE
  5
64E
330
6B
100
AcDbEntity
  8
0
  6
ByBlock
 62
     0
370
    -2
100
AcDbLine
 10
888.430748
 20
45.065775
 30
0.0
 11
890.930748
 21
45.065775
 31
0.0
  0
TEXT
  5
64F
330
6B
100
AcDbEntity
  8
0
  6
Continuous
 62
     4
100
AcDbText
 10
998.8635400000001
 20
95.02149600000015
 30
0.0
 40
3.0
  1
125
 50
90.0
100
AcDbText
  0
LINE
  5
650
330
6B
100
AcDbEntity
  8
0
  6
ByBlock
 62
     0
370
    -2
100
AcDbLine
 10
998.8186675000001
 20
127.271496
 30
0.0
 11
999.4885400000001
 21
129.771496
 31
0.0
  0
LINE
  5
651
330
6B
100
AcDbEntity
  8
0
  6
ByBlock
 62
     0
370
    -2
100
AcDbLine
 10
999.4885400000001
 20
129.771496
 30
0.0
 11
1000.1584125
 21
127.271496
 31
0.0
  0
LINE
  5
652
330
6B
100
AcDbEntity
  8
0
  6
ByBlock
 62
     0
370
    -2
100
AcDbLine
 10
999.4885400000001
 20
129.771496
 30
0.0
 11
999.4885400000001
 21
127.271496
 31
0.0
  0
LINE
  5
653
330
6B
100
AcDbEntity
  8
0
  6
ByBlock
 62
     0
370
    -2
100
AcDbLine
 10
1000.1584125
 20
69.771496
 30
0.0
 11
999.4885400000001
 21
67.271496
 31
0.0
  0
LINE
  5
654
330
6B
100
AcDbEntity
  8
0
  6
ByBlock
 62
     0
370
    -2
100
AcDbLine
 10
999.4885400000001
 20
67.271496
 30
0.0
 11
998.8186675000001
 21
69.771496
 31
0.0
  0
LINE
  5
655
330
6B
100
AcDbEntity
  8
0
  6
ByBlock
 62
     0
370
    -2
100
AcDbLine
 10
999.4885400000001
 20
67.271496
 30
0.0
 11
999.4885400000001
 21
69.771496
 31
0.0
  0
TEXT
  5
656
330
6B
100
AcDbEntity
  8
0
  6
Continuous
 62
     4
100
AcDbText
 10
1060.53543
 20
45.690775
 30
0.0
 40
3.0
  1
225
100
AcDbText
  0
LINE
  5
657
330
6B
100
AcDbEntity
  8
0
  6
ByBlock
 62
     0
370
    -2
100
AcDbLine
 10
1118.28543
 20
45.7356475
 30
0.0
 11
1120.78543
 21
45.065775
 31
0.0
  0
LINE
  5
658
330
6B
100
AcDbEntity
  8
0
  6
ByBlock
 62
     0
370
    -2
100
AcDbLine
 10
1120.78543
 20
45.065775
 30
0.0
 11
1118.28543
 21
44.39590250000001
 31
0.0
  0
LINE
  5
659
330
6B
100
AcDbEntity
  8
0
  6
ByBlock
 62
     0
370
    -2
100
AcDbLine
 10
1120.78543
 20
45.065775
 30
0.0
 11
1118.28543
 21
45.065775
 31
0.0
  0
LINE
  5
65A
330
6B
100
AcDbEntity
  8
0
  6
ByBlock
 62
     0
370
    -2
100
AcDbLine
 10
1010.78543
 20
44.39590250000001
 30
0.0
 11
1008.28543
 21
45.065775
 31
0.0
  0
LINE
  5
65B
330
6B
100
AcDbEntity
  8
0
  6
ByBlock
 62
     0
370
    -2
100
AcDbLine
 10
1008.28543
 20
45.065775
 30
0.0
 11
1010.78543
 21
45.7356475
 31
0.0
  0
LINE
  5
65C
330
6B
100
AcDbEntity
  8
0
  6
ByBlock
 62
     0
370
    -2
100
AcDbLine
 10
1008.28543
 20
45.065775
 30
0.0
 11
1010.78543
 21
45.065775
 31
0.0
  0
ENDSEC
  0
SECTION
  2
OBJECTS
  0
DICTIONARY
  5
C
330
0
100
AcDbDictionary
281
     1
  3
ACAD_2007HEADERVARS_RT
350
661
  3
ACAD_COLOR
350
62
  3
ACAD_GROUP
350
D
  3
ACAD_LAYOUT
350
61
  3
ACAD_MATERIAL
350
10
  3
ACAD_MLEADERSTYLE
350
65
  3
ACAD_MLINESTYLE
350
5E
  3
ACAD_PLOTSETTINGS
350
60
  3
ACAD_PLOTSTYLENAME
350
E
  3
ACAD_SCALELIST
350
42
  3
ACAD_TABLESTYLE
350
63
  3
ACAD_VISUALSTYLE
350
29
  3
ACDB_RECOMPOSE_DATA
350
65F
  3
AcDbVariableDictionary
350
5CF
  3
DWGPROPS
350
660
  0
DICTIONARY
  5
441
330
2
100
AcDbDictionary
280
     1
281
     1
  3
ACAD_LAYERSTATES
360
442
  0
DICTIONARY
  5
5CD
330
54
100
AcDbDictionary
280
     1
281
     1
  3
ADSK_XREC_LAYER_RECONCILED
360
5CE
  0
DICTIONARY
  5
5C9
330
6B
100
AcDbDictionary
280
     1
281
     1
  3
ACAD_SORTENTS
360
5CA
  0
DICTIONARY
  5
661
102
{ACAD_REACTORS
330
C
102
}
330
C
100
AcDbDictionary
281
     1
  3
DIMARCSYM
350
663
  3
DIMFXL
350
662
  3
DIMJOGANG
350
664
  0
DICTIONARY
  5
62
102
{ACAD_REACTORS
330
C
102
}
330
C
100
AcDbDictionary
281
     1
  0
DICTIONARY
  5
D
102
{ACAD_REACTORS
330
C
102
}
330
C
100
AcDbDictionary
281
     1
  0
DICTIONARY
  5
61
102
{ACAD_REACTORS
330
C
102
}
330
C
100
AcDbDictionary
281
     1
  3
Model
350
6E
  3
レイアウト1
350
6A
  0
DICTIONARY
  5
10
102
{ACAD_REACTORS
330
C
102
}
330
C
100
AcDbDictionary
281
     1
  3
ByBlock
350
19
  3
ByLayer
350
11
  3
Global
350
21
  0
DICTIONARY
  5
65
102
{ACAD_REACTORS
330
C
102
}
330
C
100
AcDbDictionary
281
     1
  3
Standard
350
66
  0
DICTIONARY
  5
5E
102
{ACAD_REACTORS
330
C
102
}
330
C
100
AcDbDictionary
281
     1
  3
Standard
350
5F
  0
DICTIONARY
  5
60
102
{ACAD_REACTORS
330
C
102
}
330
C
100
AcDbDictionary
281
     1
  0
ACDBDICTIONARYWDFLT
  5
E
102
{ACAD_REACTORS
330
C
102
}
330
C
100
AcDbDictionary
281
     1
  3
Normal
350
F
100
AcDbDictionaryWithDefault
340
F
  0
DICTIONARY
  5
42
102
{ACAD_REACTORS
330
C
102
}
330
C
100
AcDbDictionary
281
     1
  3
A0
350
43
  3
A1
350
44
  3
A2
350
45
  3
A3
350
46
  3
A4
350
47
  3
A5
350
48
  3
A6
350
49
  3
A7
350
4A
  3
A8
350
4B
  3
A9
350
4C
  3
B0
350
4D
  3
B1
350
4E
  3
B2
350
4F
  3
B3
350
50
  3
B4
350
51
  3
B5
350
52
  3
B6
350
53
  0
DICTIONARY
  5
63
102
{ACAD_REACTORS
330
C
102
}
330
C
100
AcDbDictionary
281
     1
  3
Standard
350
64
  0
DICTIONARY
  5
29
102
{ACAD_REACTORS
330
C
102
}
330
C
100
AcDbDictionary
281
     1
  3
2dWireframe
350
2F
  3
3dWireframe
350
43E
  3
Basic
350
2E
  3
Brighten
350
35
  3
ColorChange
350
39
  3
Conceptual
350
32
  3
Dim
350
34
  3
EdgeColorOff
350
41
  3
Facepattern
350
38
  3
Flat
350
2A
  3
FlatWithEdges
350
2B
  3
Gouraud
350
2C
  3
GouraudWithEdges
350
2D
  3
Hidden
350
31
  3
JitterOff
350
3F
  3
Linepattern
350
37
  3
OverhangOff
350
40
  3
Realistic
350
33
  3
Shaded
350
3E
  3
Shaded with edges
350
3D
  3
Shades of Gray
350
3A
  3
Sketchy
350
3B
  3
Thicken
350
36
  3
Wireframe
350
30
  3
X-Ray
350
3C
  0
XRECORD
  5
65F
102
{ACAD_REACTORS
330
C
102
}
330
C
100
AcDbXrecord
280
     1
 90
        1
330
64
  0
DICTIONARY
  5
5CF
102
{ACAD_REACTORS
330
C
102
}
330
C
100
AcDbDictionary
281
     1
  3
CANNOSCALE
350
5D2
  3
CMLEADERSTYLE
350
5D1
  3
CTABLESTYLE
350
5D0
  3
DIMASSOC
350
5D5
  3
INDEXCTL
350
5D4
  3
SORTENTS
350
5D3
  3
XCLIPFRAME
350
5D6
  0
XRECORD
  5
660
102
{ACAD_REACTORS
330
C
102
}
330
C
100
AcDbXrecord
280
     1
  1
DWGPROPS COOKIE
  2

  3

  4

  6

  7

  8
imamura
  9

300
=
301
=
302
=
303
=
304
=
305
=
306
=
307
=
308
=
309
=
 40
0.0057644097222222
 41
2456850.553099595
 42
2456850.558863496
  1

 90
        0
  0
DICTIONARY
  5
442
102
{ACAD_REACTORS
330
441
102
}
330
441
100
AcDbDictionary
281
     1
  0
XRECORD
  5
5CE
102
{ACAD_REACTORS
330
5CD
102
}
330
5CD
100
AcDbXrecord
280
     1
290
     1
  0
SORTENTSTABLE
  5
5CA
102
{ACAD_REACTORS
330
5C9
102
}
330
5C9
100
AcDbSortentsTable
330
6B
331
478
  5
64A
331
489
  5
65B
331
300
  5
33A
331
311
  5
365
331
1E1
  5
20B
331
322
  5
38A
331
CA
  5
F4
331
1F2
  5
21C
331
333
  5
395
331
DB
  5
105
331
203
  5
22D
331
344
  5
47D
331
EC
  5
116
331
61D
  5
630
331
225
  5
24F
331
214
  5
23E
331
26E
  5
2C3
331
F6
  5
120
331
62E
  5
397
331
236
  5
26D
331
27F
  5
2D7
331
107
  5
131
331
247
  5
282
331
118
  5
142
331
171
  5
19B
331
129
  5
153
331
650
  5
E6
331
2B2
  5
2E9
331
13A
  5
164
331
392
  5
641
331
2C3
  5
2FA
331
14B
  5
175
331
193
  5
1BD
331
2DE
  5
30E
331
1B5
  5
1DF
331
1A4
  5
1CE
331
15C
  5
186
331
2EF
  5
31F
331
1C6
  5
1F0
331
1D7
  5
201
331
182
  5
1AC
331
2F0
  5
320
331
479
  5
64B
331
1D8
  5
202
331
48A
  5
65C
331
301
  5
33B
331
312
  5
36A
331
1E2
  5
20C
331
323
  5
38B
331
CB
  5
F5
331
1F3
  5
21D
331
334
  5
396
331
DC
  5
106
331
204
  5
22E
331
61E
  5
62A
331
226
  5
250
331
215
  5
23F
331
ED
  5
117
331
26F
  5
2C4
331
F7
  5
121
331
62F
  5
398
331
237
  5
26E
331
280
  5
2D8
331
108
  5
132
331
119
  5
143
331
248
  5
283
331
382
  5
631
331
172
  5
19C
331
12A
  5
154
331
651
  5
E7
331
2B3
  5
2EA
331
393
  5
642
331
183
  5
1AD
331
13B
  5
165
331
2C4
  5
2FB
331
194
  5
1BE
331
2DF
  5
30F
331
1B6
  5
1E0
331
1A5
  5
1CF
331
15D
  5
187
331
1C7
  5
1F1
331
14C
  5
176
331
2E0
  5
310
331
2F1
  5
321
331
1C8
  5
1F2
331
47A
  5
64C
331
1D9
  5
203
331
313
  5
36B
331
302
  5
33D
331
1E3
  5
20D
331
324
  5
38C
331
CC
  5
F6
331
1F4
  5
21E
331
205
  5
22F
331
DD
  5
107
331
25F
  5
2B8
331
216
  5
240
331
EE
  5
118
331
61F
  5
62B
331
227
  5
251
331
270
  5
2C5
331
F8
  5
122
331
630
  5
2B2
331
238
  5
26F
331
281
  5
2D9
331
109
  5
133
331
249
  5
284
331
372
  5
627
331
2A3
  5
2E4
331
12B
  5
155
331
652
  5
E8
331
11A
  5
144
331
383
  5
632
331
173
  5
19D
331
2B4
  5
2EB
331
13C
  5
166
331
394
  5
643
331
184
  5
1AE
331
2C5
  5
2FC
331
14D
  5
177
331
195
  5
1BF
331
1B7
  5
1E1
331
1A6
  5
1D0
331
15E
  5
188
331
5CB
  5
C8
331
2E1
  5
311
331
1B8
  5
1E2
331
2F2
  5
322
331
1C9
  5
1F3
331
47B
  5
64D
331
1DA
  5
204
331
314
  5
36D
331
303
  5
342
331
1E4
  5
20E
331
325
  5
38D
331
CD
  5
F7
331
1F5
  5
21F
331
206
  5
230
331
DE
  5
108
331
260
  5
2B9
331
217
  5
241
331
EF
  5
119
331
620
  5
625
331
228
  5
252
331
271
  5
2C6
331
F9
  5
123
331
631
  5
2B3
331
239
  5
270
331
282
  5
2DA
331
10A
  5
134
331
362
  5
61D
331
24A
  5
285
331
373
  5
628
331
11B
  5
145
331
12C
  5
156
331
653
  5
E3
331
384
  5
633
331
174
  5
19E
331
2B5
  5
2EC
331
13D
  5
167
331
395
  5
644
331
185
  5
1AF
331
2C6
  5
2FD
331
14E
  5
178
331
196
  5
1C0
331
1A7
  5
1D1
331
15F
  5
189
331
5CC
  5
C7
331
642
  5
CD
331
2E2
  5
312
331
1B9
  5
1E3
331
1A8
  5
1D2
331
160
  5
18A
331
2F3
  5
323
331
1CA
  5
1F4
331
47C
  5
64E
331
1DB
  5
205
331
315
  5
372
331
304
  5
343
331
1E5
  5
20F
331
326
  5
38E
331
CE
  5
F8
331
1F6
  5
220
331
261
  5
2BA
331
218
  5
242
331
207
  5
231
331
DF
  5
109
331
621
  5
626
331
229
  5
253
331
272
  5
2C7
331
FA
  5
124
331
352
  5
485
331
23A
  5
271
331
632
  5
2B4
331
283
  5
2DB
331
10B
  5
135
331
363
  5
61E
331
24B
  5
286
331
374
  5
629
331
11C
  5
146
331
385
  5
634
331
175
  5
19F
331
12D
  5
157
331
654
  5
E4
331
2B6
  5
2ED
331
13E
  5
168
331
396
  5
645
331
186
  5
1B0
331
2C7
  5
2FE
331
14F
  5
179
331
197
  5
1C1
331
643
  5
CE
331
2C8
  5
2FF
331
150
  5
17A
331
198
  5
1C2
331
2E3
  5
313
331
1BA
  5
1E4
331
1A9
  5
1D3
331
161
  5
18B
331
2F4
  5
324
331
1CB
  5
1F5
331
47D
  5
64F
331
1DC
  5
206
331
316
  5
373
331
305
  5
345
331
1E6
  5
210
331
327
  5
38F
331
CF
  5
F9
331
1F7
  5
221
331
262
  5
2BB
331
219
  5
243
331
208
  5
232
331
E0
  5
10A
331
622
  5
620
331
22A
  5
254
331
273
  5
2C8
331
FB
  5
125
331
353
  5
486
331
23B
  5
272
331
633
  5
2B5
331
284
  5
2DC
331
10C
  5
136
331
364
  5
61F
331
24C
  5
287
331
11D
  5
147
331
386
  5
635
331
176
  5
1A0
331
12E
  5
158
331
655
  5
E5
331
2B7
  5
2EE
331
13F
  5
169
331
397
  5
646
331
187
  5
1B1
331
644
  5
CF
331
2B8
  5
2EF
331
140
  5
16A
331
398
  5
647
331
188
  5
1B2
331
2C9
  5
300
331
151
  5
17B
331
199
  5
1C3
331
2D3
  5
303
331
1AA
  5
1D4
331
162
  5
18C
331
2E4
  5
314
331
1BB
  5
1E5
331
2F5
  5
325
331
1CC
  5
1F6
331
47E
  5
650
331
1DD
  5
207
331
317
  5
375
331
306
  5
34A
331
1E7
  5
211
331
328
  5
390
331
D0
  5
FA
331
1F8
  5
222
331
263
  5
2BC
331
21A
  5
244
331
209
  5
233
331
E1
  5
10B
331
623
  5
621
331
22B
  5
255
331
274
  5
2C9
331
FC
  5
126
331
354
  5
487
331
23C
  5
273
331
634
  5
2B6
331
285
  5
2DD
331
24D
  5
288
331
10D
  5
137
331
11E
  5
148
331
387
  5
636
331
177
  5
1A1
331
12F
  5
159
331
656
  5
DF
331
388
  5
637
331
178
  5
1A2
331
130
  5
15A
331
2B9
  5
2F0
331
141
  5
16B
331
189
  5
1B3
331
2CA
  5
301
331
152
  5
17C
331
19A
  5
1C4
331
2D4
  5
304
331
1AB
  5
1D5
331
163
  5
18D
331
2E5
  5
315
331
1BC
  5
1E6
331
2F6
  5
326
331
1CD
  5
1F7
331
47F
  5
651
331
1DE
  5
208
331
318
  5
37A
331
307
  5
34B
331
1E8
  5
212
331
329
  5
391
331
D1
  5
FB
331
1F9
  5
223
331
33A
  5
46A
331
E2
  5
10C
331
264
  5
2BD
331
21B
  5
245
331
20A
  5
234
331
624
  5
5CC
331
22C
  5
256
331
275
  5
2CA
331
635
  5
2B7
331
23D
  5
274
331
286
  5
2DE
331
24E
  5
289
331
11F
  5
149
331
10E
  5
138
331
FD
  5
127
331
657
  5
D9
331
168
  5
192
331
120
  5
14A
331
2A9
  5
2E5
331
131
  5
15B
331
658
  5
DA
331
389
  5
638
331
179
  5
1A3
331
2BA
  5
2F1
331
142
  5
16C
331
18A
  5
1B4
331
2CB
  5
302
331
153
  5
17D
331
19B
  5
1C5
331
2D5
  5
305
331
1AC
  5
1D6
331
164
  5
18E
331
2E6
  5
316
331
1BD
  5
1E7
331
2F7
  5
327
331
1CE
  5
1F8
331
480
  5
652
331
1DF
  5
209
331
319
  5
37B
331
308
  5
34D
331
1E9
  5
213
331
32A
  5
392
331
D2
  5
FC
331
1FA
  5
224
331
33B
  5
46B
331
E3
  5
10D
331
265
  5
2BE
331
21C
  5
246
331
625
  5
61C
331
22D
  5
25F
331
276
  5
2CB
331
23E
  5
275
331
287
  5
2DF
331
10F
  5
139
331
24F
  5
29B
331
636
  5
EA
331
FE
  5
128
331
20B
  5
235
331
288
  5
2E0
331
110
  5
13A
331
250
  5
29D
331
169
  5
193
331
121
  5
14B
331
648
  5
F3
331
38A
  5
639
331
17A
  5
1A4
331
132
  5
15C
331
659
  5
DB
331
2BB
  5
2F2
331
143
  5
16D
331
18B
  5
1B5
331
19C
  5
1C6
331
154
  5
17E
331
2D6
  5
306
331
1AD
  5
1D7
331
165
  5
18F
331
2E7
  5
317
331
1BE
  5
1E8
331
481
  5
653
331
2F8
  5
328
331
1CF
  5
1F9
331
31A
  5
37D
331
309
  5
352
331
1EA
  5
214
331
32B
  5
393
331
D3
  5
FD
331
1FB
  5
225
331
33C
  5
46C
331
E4
  5
10E
331
266
  5
2BF
331
21D
  5
247
331
20C
  5
236
331
626
  5
488
331
22E
  5
260
331
277
  5
2D3
331
23F
  5
276
331
637
  5
EB
331
FF
  5
129
331
278
  5
2D4
331
100
  5
12A
331
240
  5
277
331
289
  5
2E1
331
111
  5
13B
331
638
  5
EC
331
251
  5
2A3
331
37A
  5
62C
331
16A
  5
194
331
122
  5
14C
331
649
  5
F0
331
38B
  5
63A
331
17B
  5
1A5
331
133
  5
15D
331
65A
  5
D3
331
2BC
  5
2F3
331
144
  5
16E
331
18C
  5
1B6
331
19D
  5
1C7
331
2D7
  5
307
331
1AE
  5
1D8
331
166
  5
190
331
2E8
  5
318
331
1BF
  5
1E9
331
482
  5
654
331
2F9
  5
329
331
1D0
  5
1FA
331
155
  5
17F
331
31B
  5
382
331
30A
  5
353
331
1EB
  5
215
331
1FC
  5
226
331
D4
  5
FE
331
627
  5
489
331
22F
  5
262
331
21E
  5
248
331
20D
  5
237
331
E5
  5
10F
331
628
  5
483
331
230
  5
263
331
F0
  5
11A
331
241
  5
278
331
101
  5
12B
331
36A
  5
622
331
252
  5
2A9
331
112
  5
13C
331
29B
  5
2E2
331
123
  5
14D
331
64A
  5
F1
331
37B
  5
62D
331
16B
  5
195
331
38C
  5
63B
331
17C
  5
1A6
331
134
  5
15E
331
65B
  5
D4
331
2BD
  5
2F4
331
145
  5
16F
331
18D
  5
1B7
331
19E
  5
1C8
331
2D8
  5
308
331
1AF
  5
1D9
331
167
  5
191
331
2E9
  5
319
331
1C0
  5
1EA
331
483
  5
655
331
2FA
  5
32A
331
1D1
  5
1FB
331
156
  5
180
331
31C
  5
383
331
30B
  5
355
331
1EC
  5
216
331
1FD
  5
227
331
D5
  5
FF
331
21F
  5
249
331
20E
  5
238
331
E6
  5
110
331
220
  5
24A
331
269
  5
2C0
331
F1
  5
11B
331
629
  5
484
331
231
  5
264
331
35A
  5
48A
331
242
  5
27D
331
102
  5
12C
331
36B
  5
623
331
253
  5
2AD
331
113
  5
13D
331
37C
  5
62E
331
16C
  5
196
331
124
  5
14E
331
64B
  5
F2
331
2AD
  5
2E6
331
135
  5
15F
331
65C
  5
D5
331
38D
  5
63C
331
17D
  5
1A7
331
2BE
  5
2F5
331
146
  5
170
331
18E
  5
1B8
331
2D9
  5
309
331
1B0
  5
1DA
331
19F
  5
1C9
331
157
  5
181
331
2EA
  5
31A
331
484
  5
656
331
2FB
  5
32B
331
1D2
  5
1FC
331
31D
  5
385
331
30C
  5
35A
331
1C1
  5
1EB
331
1ED
  5
217
331
1FE
  5
228
331
D6
  5
100
331
20F
  5
239
331
E7
  5
111
331
221
  5
24B
331
210
  5
23A
331
E8
  5
112
331
34A
  5
480
331
232
  5
265
331
F2
  5
11C
331
62A
  5
47E
331
35B
  5
5C8
331
243
  5
27E
331
103
  5
12D
331
36C
  5
624
331
254
  5
2AE
331
114
  5
13E
331
29D
  5
2E3
331
125
  5
14F
331
64C
  5
ED
331
16D
  5
197
331
2AE
  5
2E7
331
136
  5
160
331
38E
  5
63D
331
17E
  5
1A8
331
2BF
  5
2F6
331
147
  5
171
331
18F
  5
1B9
331
2DA
  5
30A
331
1B1
  5
1DB
331
1A0
  5
1CA
331
158
  5
182
331
2EB
  5
31B
331
485
  5
657
331
2FC
  5
332
331
1D3
  5
1FD
331
31E
  5
386
331
30D
  5
35B
331
1C2
  5
1EC
331
1EE
  5
218
331
1FF
  5
229
331
D7
  5
101
331
200
  5
22A
331
D8
  5
102
331
222
  5
24C
331
211
  5
23B
331
E9
  5
113
331
26B
  5
2C1
331
F3
  5
11D
331
34B
  5
481
331
233
  5
266
331
62B
  5
47F
331
35C
  5
5CB
331
244
  5
27F
331
104
  5
12E
331
255
  5
2AF
331
115
  5
13F
331
63C
  5
E0
331
16E
  5
198
331
126
  5
150
331
64D
  5
EE
331
2AF
  5
2E8
331
137
  5
161
331
38F
  5
63E
331
2C0
  5
2F7
331
148
  5
172
331
190
  5
1BA
331
2DB
  5
30B
331
1B2
  5
1DC
331
1A1
  5
1CB
331
159
  5
183
331
2EC
  5
31C
331
1C3
  5
1ED
331
486
  5
658
331
2FD
  5
333
331
1D4
  5
1FE
331
31F
  5
387
331
30E
  5
35D
331
1EF
  5
219
331
17F
  5
1A9
331
320
  5
388
331
1F0
  5
21A
331
201
  5
22B
331
D9
  5
103
331
342
  5
47B
331
EA
  5
114
331
223
  5
24D
331
212
  5
23C
331
34C
  5
482
331
234
  5
269
331
F4
  5
11E
331
62C
  5
479
331
27D
  5
2D5
331
105
  5
12F
331
245
  5
280
331
116
  5
140
331
63D
  5
E1
331
16F
  5
199
331
127
  5
151
331
64E
  5
EF
331
390
  5
63F
331
180
  5
1AA
331
138
  5
162
331
2C1
  5
2F8
331
191
  5
1BB
331
2DC
  5
30C
331
1B3
  5
1DD
331
1A2
  5
1CC
331
15A
  5
184
331
2ED
  5
31D
331
1C4
  5
1EE
331
476
  5
648
331
1D5
  5
1FF
331
487
  5
659
331
2FE
  5
334
331
30F
  5
362
331
149
  5
173
331
488
  5
65A
331
310
  5
363
331
321
  5
389
331
1E0
  5
20A
331
1F1
  5
21B
331
332
  5
394
331
DA
  5
104
331
202
  5
22C
331
343
  5
47C
331
EB
  5
115
331
61C
  5
62F
331
224
  5
24E
331
213
  5
23D
331
26D
  5
2C2
331
F5
  5
11F
331
62D
  5
47A
331
235
  5
26B
331
27E
  5
2D6
331
106
  5
130
331
246
  5
281
331
117
  5
141
331
63E
  5
E2
331
128
  5
152
331
64F
  5
E9
331
170
  5
19A
331
391
  5
640
331
181
  5
1AB
331
139
  5
163
331
2C2
  5
2F9
331
14A
  5
174
331
192
  5
1BC
331
2DD
  5
30D
331
1B4
  5
1DE
331
1A3
  5
1CD
331
15B
  5
185
331
2EE
  5
31E
331
1C5
  5
1EF
331
477
  5
649
331
1D6
  5
200
331
2FF
  5
335
331
5C8
  5
C9
  0
XRECORD
  5
663
102
{ACAD_REACTORS
330
661
102
}
330
661
100
AcDbXrecord
280
     1
 70
     2
  0
XRECORD
  5
662
102
{ACAD_REACTORS
330
661
102
}
330
661
100
AcDbXrecord
280
     1
 40
1.25
  0
XRECORD
  5
664
102
{ACAD_REACTORS
330
661
102
}
330
661
100
AcDbXrecord
280
     1
 40
1.570796326794896
  0
LAYOUT
  5
6E
102
{ACAD_XDICTIONARY
360
69C
102
}
102
{ACAD_REACTORS
330
61
102
}
330
61
100
AcDbPlotSettings
  1

  2
FX DP 205
  4

  6

 40
0.0
 41
0.0
 42
0.0
 43
0.0
 44
0.0
 45
0.0
 46
0.0
 47
0.0
 48
0.0
 49
0.0
140
0.0
141
0.0
142
1.0
143
1.0
 70
  1712
 72
     0
 73
     0
 74
     0
  7

 75
     0
147
1.0
148
0.0
149
0.0
100
AcDbLayout
  1
Model
 70
     1
 71
     0
 10
0.0
 20
0.0
 11
12.0
 21
9.0
 12
0.0
 22
0.0
 32
0.0
 14
0.0
 24
0.0
 34
0.0
 15
0.0
 25
0.0
 35
0.0
146
0.0
 13
0.0
 23
0.0
 33
0.0
 16
1.0
 26
0.0
 36
0.0
 17
0.0
 27
1.0
 37
0.0
 76
     0
330
6B
331
8B
  0
LAYOUT
  5
6A
102
{ACAD_XDICTIONARY
360
69A
102
}
102
{ACAD_REACTORS
330
61
102
}
330
61
100
AcDbPlotSettings
  1

  2
FX DP 205
  4

  6

 40
0.0
 41
0.0
 42
0.0
 43
0.0
 44
0.0
 45
0.0
 46
0.0
 47
0.0
 48
0.0
 49
0.0
140
0.0
141
0.0
142
1.0
143
1.0
 70
   688
 72
     0
 73
     0
 74
     5
  7

 75
    16
147
1.0
148
0.0
149
0.0
100
AcDbLayout
  1
レイアウト1
 70
     1
 71
     1
 10
0.0
 20
0.0
 11
12.0
 21
9.0
 12
0.0
 22
0.0
 32
0.0
 14
1.000000000000000E+20
 24
1.000000000000000E+20
 34
1.000000000000000E+20
 15
-1.000000000000000E+20
 25
-1.000000000000000E+20
 35
-1.000000000000000E+20
146
0.0
 13
0.0
 23
0.0
 33
0.0
 16
1.0
 26
0.0
 36
0.0
 17
0.0
 27
1.0
 37
0.0
 76
     0
330
67
  0
MATERIAL
  5
19
102
{ACAD_XDICTIONARY
360
1A
102
}
102
{ACAD_REACTORS
330
10
102
}
330
10
100
AcDbMaterial
  1
ByBlock
 72
     0
 43
0.0208333333333333
 43
0.0
 43
0.0
 43
0.0
 43
0.0
 43
0.0208333333333333
 43
0.0
 43
0.0
 43
0.0
 43
0.0
 43
1.0
 43
0.0
 43
0.0
 43
0.0
 43
0.0
 43
1.0
 77
     0
 47
0.0208333333333333
 47
0.0
 47
0.0
 47
0.0
 47
0.0
 47
0.0208333333333333
 47
0.0
 47
0.0
 47
0.0
 47
0.0
 47
1.0
 47
0.0
 47
0.0
 47
0.0
 47
0.0
 47
1.0
171
     0
 49
0.0208333333333333
 49
0.0
 49
0.0
 49
0.0
 49
0.0
 49
0.0208333333333333
 49
0.0
 49
0.0
 49
0.0
 49
0.0
 49
1.0
 49
0.0
 49
0.0
 49
0.0
 49
0.0
 49
1.0
175
     0
142
0.0208333333333333
142
0.0
142
0.0
142
0.0
142
0.0
142
0.0208333333333333
142
0.0
142
0.0
142
0.0
142
0.0
142
1.0
142
0.0
142
0.0
142
0.0
142
0.0
142
1.0
179
     0
144
0.0208333333333333
144
0.0
144
0.0
144
0.0
144
0.0
144
0.0208333333333333
144
0.0
144
0.0
144
0.0
144
0.0
144
1.0
144
0.0
144
0.0
144
0.0
144
0.0
144
1.0
147
0.0208333333333333
147
0.0
147
0.0
147
0.0
147
0.0
147
0.0208333333333333
147
0.0
147
0.0
147
0.0
147
0.0
147
1.0
147
0.0
147
0.0
147
0.0
147
0.0
147
1.0
  0
MATERIAL
  5
11
102
{ACAD_XDICTIONARY
360
12
102
}
102
{ACAD_REACTORS
330
10
102
}
330
10
100
AcDbMaterial
  1
ByLayer
 72
     0
 43
0.0208333333333333
 43
0.0
 43
0.0
 43
0.0
 43
0.0
 43
0.0208333333333333
 43
0.0
 43
0.0
 43
0.0
 43
0.0
 43
1.0
 43
0.0
 43
0.0
 43
0.0
 43
0.0
 43
1.0
 77
     0
 47
0.0208333333333333
 47
0.0
 47
0.0
 47
0.0
 47
0.0
 47
0.0208333333333333
 47
0.0
 47
0.0
 47
0.0
 47
0.0
 47
1.0
 47
0.0
 47
0.0
 47
0.0
 47
0.0
 47
1.0
171
     0
 49
0.0208333333333333
 49
0.0
 49
0.0
 49
0.0
 49
0.0
 49
0.0208333333333333
 49
0.0
 49
0.0
 49
0.0
 49
0.0
 49
1.0
 49
0.0
 49
0.0
 49
0.0
 49
0.0
 49
1.0
175
     0
142
0.0208333333333333
142
0.0
142
0.0
142
0.0
142
0.0
142
0.0208333333333333
142
0.0
142
0.0
142
0.0
142
0.0
142
1.0
142
0.0
142
0.0
142
0.0
142
0.0
142
1.0
179
     0
144
0.0208333333333333
144
0.0
144
0.0
144
0.0
144
0.0
144
0.0208333333333333
144
0.0
144
0.0
144
0.0
144
0.0
144
1.0
144
0.0
144
0.0
144
0.0
144
0.0
144
1.0
147
0.0208333333333333
147
0.0
147
0.0
147
0.0
147
0.0
147
0.0208333333333333
147
0.0
147
0.0
147
0.0
147
0.0
147
1.0
147
0.0
147
0.0
147
0.0
147
0.0
147
1.0
  0
MATERIAL
  5
21
102
{ACAD_XDICTIONARY
360
22
102
}
102
{ACAD_REACTORS
330
10
102
}
330
10
100
AcDbMaterial
  1
Global
 72
     0
 43
0.0208333333333333
 43
0.0
 43
0.0
 43
0.0
 43
0.0
 43
0.0208333333333333
 43
0.0
 43
0.0
 43
0.0
 43
0.0
 43
1.0
 43
0.0
 43
0.0
 43
0.0
 43
0.0
 43
1.0
 77
     0
 47
0.0208333333333333
 47
0.0
 47
0.0
 47
0.0
 47
0.0
 47
0.0208333333333333
 47
0.0
 47
0.0
 47
0.0
 47
0.0
 47
1.0
 47
0.0
 47
0.0
 47
0.0
 47
0.0
 47
1.0
171
     0
 49
0.0208333333333333
 49
0.0
 49
0.0
 49
0.0
 49
0.0
 49
0.0208333333333333
 49
0.0
 49
0.0
 49
0.0
 49
0.0
 49
1.0
 49
0.0
 49
0.0
 49
0.0
 49
0.0
 49
1.0
175
     0
142
0.0208333333333333
142
0.0
142
0.0
142
0.0
142
0.0
142
0.0208333333333333
142
0.0
142
0.0
142
0.0
142
0.0
142
1.0
142
0.0
142
0.0
142
0.0
142
0.0
142
1.0
179
     0
144
0.0208333333333333
144
0.0
144
0.0
144
0.0
144
0.0
144
0.0208333333333333
144
0.0
144
0.0
144
0.0
144
0.0
144
1.0
144
0.0
144
0.0
144
0.0
144
0.0
144
1.0
147
0.0208333333333333
147
0.0
147
0.0
147
0.0
147
0.0
147
0.0208333333333333
147
0.0
147
0.0
147
0.0
147
0.0
147
1.0
147
0.0
147
0.0
147
0.0
147
0.0
147
1.0
  0
MLEADERSTYLE
  5
66
102
{ACAD_REACTORS
330
65
102
}
330
65
100
AcDbMLeaderStyle
170
     2
171
     1
172
     0
 90
        2
 40
0.0
 41
0.0
173
     1
 91
-1056964608
340
5A
 92
       -2
290
     1
 42
0.09
291
     1
 43
0.36
  3
Standard
 44
0.18
300

342
55
174
     1
178
     6
175
     1
176
     0
 93
-1056964608
 45
0.18
292
     0
297
     0
 46
0.18
 94
-1056964608
 47
1.0
 49
1.0
140
1.0
293
     1
141
0.0
294
     1
177
     0
142
1.0
295
     0
296
     0
143
0.125
1001
ACAD_MLEADERVER
1070
     2
  0
MLINESTYLE
  5
5F
102
{ACAD_REACTORS
330
5E
102
}
330
5E
100
AcDbMlineStyle
  2
STANDARD
 70
     0
  3

 62
   256
 51
90.0
 52
90.0
 71
     2
 49
0.5
 62
   256
  6
BYLAYER
 49
-0.5
 62
   256
  6
BYLAYER
  0
ACDBPLACEHOLDER
  5
F
102
{ACAD_REACTORS
330
E
102
}
330
E
  0
SCALE
  5
43
102
{ACAD_REACTORS
330
42
102
}
330
42
100
AcDbScale
 70
     0
300
1:1
140
1.0
141
1.0
290
     1
  0
SCALE
  5
44
102
{ACAD_REACTORS
330
42
102
}
330
42
100
AcDbScale
 70
     0
300
1/128" = 1'-0"
140
0.0078125
141
12.0
290
     0
  0
SCALE
  5
45
102
{ACAD_REACTORS
330
42
102
}
330
42
100
AcDbScale
 70
     0
300
1/64" = 1'-0"
140
0.015625
141
12.0
290
     0
  0
SCALE
  5
46
102
{ACAD_REACTORS
330
42
102
}
330
42
100
AcDbScale
 70
     0
300
1/32" = 1'-0"
140
0.03125
141
12.0
290
     0
  0
SCALE
  5
47
102
{ACAD_REACTORS
330
42
102
}
330
42
100
AcDbScale
 70
     0
300
1/16" = 1'-0"
140
0.0625
141
12.0
290
     0
  0
SCALE
  5
48
102
{ACAD_REACTORS
330
42
102
}
330
42
100
AcDbScale
 70
     0
300
3/32" = 1'-0"
140
0.09375
141
12.0
290
     0
  0
SCALE
  5
49
102
{ACAD_REACTORS
330
42
102
}
330
42
100
AcDbScale
 70
     0
300
1/8" = 1'-0"
140
0.125
141
12.0
290
     0
  0
SCALE
  5
4A
102
{ACAD_REACTORS
330
42
102
}
330
42
100
AcDbScale
 70
     0
300
3/16" = 1'-0"
140
0.1875
141
12.0
290
     0
  0
SCALE
  5
4B
102
{ACAD_REACTORS
330
42
102
}
330
42
100
AcDbScale
 70
     0
300
1/4" = 1'-0"
140
0.25
141
12.0
290
     0
  0
SCALE
  5
4C
102
{ACAD_REACTORS
330
42
102
}
330
42
100
AcDbScale
 70
     0
300
3/8" = 1'-0"
140
0.375
141
12.0
290
     0
  0
SCALE
  5
4D
102
{ACAD_REACTORS
330
42
102
}
330
42
100
AcDbScale
 70
     0
300
1/2" = 1'-0"
140
0.5
141
12.0
290
     0
  0
SCALE
  5
4E
102
{ACAD_REACTORS
330
42
102
}
330
42
100
AcDbScale
 70
     0
300
3/4" = 1'-0"
140
0.75
141
12.0
290
     0
  0
SCALE
  5
4F
102
{ACAD_REACTORS
330
42
102
}
330
42
100
AcDbScale
 70
     0
300
1" = 1'-0"
140
1.0
141
12.0
290
     0
  0
SCALE
  5
50
102
{ACAD_REACTORS
330
42
102
}
330
42
100
AcDbScale
 70
     0
300
1-1/2" = 1'-0"
140
1.5
141
12.0
290
     0
  0
SCALE
  5
51
102
{ACAD_REACTORS
330
42
102
}
330
42
100
AcDbScale
 70
     0
300
3" = 1'-0"
140
3.0
141
12.0
290
     0
  0
SCALE
  5
52
102
{ACAD_REACTORS
330
42
102
}
330
42
100
AcDbScale
 70
     0
300
6" = 1'-0"
140
6.0
141
12.0
290
     0
  0
SCALE
  5
53
102
{ACAD_REACTORS
330
42
102
}
330
42
100
AcDbScale
 70
     0
300
1'-0" = 1'-0"
140
12.0
141
12.0
290
     0
  0
TABLESTYLE
  5
64
102
{ACAD_XDICTIONARY
360
65D
102
}
102
{ACAD_REACTORS
330
63
102
}
330
63
100
AcDbTableStyle
  3
Standard
 70
     0
 71
     0
 40
0.06
 41
0.06
280
     0
281
     0
  7
STANDARD
140
0.18
170
     2
 62
     0
 63
     7
283
     0
274
    -2
284
     1
 64
     0
275
    -2
285
     1
 65
     0
276
    -2
286
     1
 66
     0
277
    -2
287
     1
 67
     0
278
    -2
288
     1
 68
     0
279
    -2
289
     1
 69
     0
  7
STANDARD
140
0.25
170
     5
 62
     0
 63
     7
283
     0
274
    -2
284
     1
 64
     0
275
    -2
285
     1
 65
     0
276
    -2
286
     1
 66
     0
277
    -2
287
     1
 67
     0
278
    -2
288
     1
 68
     0
279
    -2
289
     1
 69
     0
  7
STANDARD
140
0.18
170
     5
 62
     0
 63
     7
283
     0
274
    -2
284
     1
 64
     0
275
    -2
285
     1
 65
     0
276
    -2
286
     1
 66
     0
277
    -2
287
     1
 67
     0
278
    -2
288
     1
 68
     0
279
    -2
289
     1
 69
     0
  0
VISUALSTYLE
  5
2F
102
{ACAD_XDICTIONARY
360
672
102
}
102
{ACAD_REACTORS
330
29
102
}
330
29
100
AcDbVisualStyle
  2
2dWireframe
 70
     4
 71
     0
 72
     2
 73
     0
 90
        0
 40
-0.6
 41
-30.0
 62
     5
 63
     7
 74
     1
 91
        4
 64
     7
 65
   257
 75
     1
175
     1
 42
1.0
 92
        0
 66
   257
 43
1.0
 76
     1
 77
     6
 78
     2
 67
     7
 79
     5
170
     0
171
     0
290
     0
174
     0
 93
        1
 44
0.0
173
     0
291
     0
 45
0.0
1001
ACAD
1000
AcDbSavedByObjectVersion
1070
     0
  0
VISUALSTYLE
  5
43E
102
{ACAD_XDICTIONARY
360
6A0
102
}
102
{ACAD_REACTORS
330
29
102
}
330
29
100
AcDbVisualStyle
  2
3dWireframe
 70
     5
 71
     0
 72
     2
 73
     1
 90
        0
 40
-0.6
 41
-30.0
 62
     5
 63
     7
 74
     1
 91
        4
 64
     7
 65
   257
 75
     1
175
     1
 42
1.0
 92
        0
 66
   257
 43
1.0
 76
     1
 77
     6
 78
     2
 67
     7
 79
     5
170
     0
171
     0
290
     0
174
     0
 93
        1
 44
0.0
173
     0
291
     0
 45
0.0
1001
ACAD
1000
AcDbSavedByObjectVersion
1070
     0
  0
VISUALSTYLE
  5
2E
102
{ACAD_XDICTIONARY
360
670
102
}
102
{ACAD_REACTORS
330
29
102
}
330
29
100
AcDbVisualStyle
  2
Basic
 70
     7
 71
     1
 72
     0
 73
     1
 90
        0
 40
-0.6
 41
-30.0
 62
     5
 63
     7
 74
     0
 91
        4
 64
     7
 65
   257
 75
     1
175
     1
 42
1.0
 92
        8
 66
     7
 43
1.0
 76
     1
 77
     6
 78
     2
 67
     7
 79
     5
170
     0
171
     0
290
     0
174
     0
 93
        1
 44
0.0
173
     0
291
     1
 45
0.0
1001
ACAD
1000
AcDbSavedByObjectVersion
1070
     0
  0
VISUALSTYLE
  5
35
102
{ACAD_XDICTIONARY
360
67E
102
}
102
{ACAD_REACTORS
330
29
102
}
330
29
100
AcDbVisualStyle
  2
Brighten
 70
    12
 71
     2
 72
     2
 73
     0
 90
        0
 40
-0.6
 41
-30.0
 62
     5
 63
     7
 74
     1
 91
        4
 64
     7
 65
   257
 75
     1
175
     1
 42
1.0
 92
        8
 66
     7
 43
1.0
 76
     1
 77
     6
 78
     2
 67
     7
 79
     5
170
     0
171
     0
290
     0
174
     0
 93
        1
 44
50.0
173
     0
291
     1
 45
0.0
1001
ACAD
1000
AcDbSavedByObjectVersion
1070
     0
  0
VISUALSTYLE
  5
39
102
{ACAD_XDICTIONARY
360
686
102
}
102
{ACAD_REACTORS
330
29
102
}
330
29
100
AcDbVisualStyle
  2
ColorChange
 70
    16
 71
     2
 72
     2
 73
     3
 90
        0
 40
-0.6
 41
-30.0
 62
     5
 63
     8
 74
     1
 91
        4
 64
     7
 65
   257
 75
     1
175
     1
 42
1.0
 92
        8
 66
     8
 43
1.0
 76
     1
 77
     6
 78
     2
 67
     7
 79
     5
170
     0
171
     0
290
     0
174
     0
 93
        1
 44
0.0
173
     0
291
     1
 45
0.0
1001
ACAD
1000
AcDbSavedByObjectVersion
1070
     0
  0
VISUALSTYLE
  5
32
102
{ACAD_XDICTIONARY
360
678
102
}
102
{ACAD_REACTORS
330
29
102
}
330
29
100
AcDbVisualStyle
  2
Conceptual
 70
     9
 71
     3
 72
     2
 73
     0
 90
        0
 40
-0.6
 41
-30.0
 62
     5
 63
     7
 74
     2
 91
        2
 64
     7
 65
   257
 75
     1
175
     1
 42
179.0
 92
        8
 66
     7
 43
1.0
 76
     1
 77
     6
 78
     2
 67
     7
 79
     3
170
     0
171
     0
290
     0
174
     0
 93
        1
 44
0.0
173
     0
291
     0
 45
0.0
1001
ACAD
1000
AcDbSavedByObjectVersion
1070
     0
  0
VISUALSTYLE
  5
34
102
{ACAD_XDICTIONARY
360
67C
102
}
102
{ACAD_REACTORS
330
29
102
}
330
29
100
AcDbVisualStyle
  2
Dim
 70
    11
 71
     2
 72
     2
 73
     0
 90
        0
 40
-0.6
 41
-30.0
 62
     5
 63
     7
 74
     1
 91
        4
 64
     7
 65
   257
 75
     1
175
     1
 42
1.0
 92
        8
 66
     7
 43
1.0
 76
     1
 77
     6
 78
     2
 67
     7
 79
     5
170
     0
171
     0
290
     0
174
     0
 93
        1
 44
-50.0
173
     0
291
     1
 45
0.0
1001
ACAD
1000
AcDbSavedByObjectVersion
1070
     0
  0
VISUALSTYLE
  5
41
102
{ACAD_XDICTIONARY
360
696
102
}
102
{ACAD_REACTORS
330
29
102
}
330
29
100
AcDbVisualStyle
  2
EdgeColorOff
 70
    22
 71
     2
 72
     2
 73
     0
 90
        0
 40
-0.6
 41
-30.0
 62
     5
 63
     7
 74
     1
 91
        4
 64
     7
 65
   257
 75
     1
175
     1
 42
1.0
 92
        8
 66
     7
 43
1.0
 76
     1
 77
     6
 78
     2
 67
     7
 79
     5
170
     0
171
     0
290
     0
174
     0
 93
        1
 44
0.0
173
     0
291
     1
 45
0.0
1001
ACAD
1000
AcDbSavedByObjectVersion
1070
     0
  0
VISUALSTYLE
  5
38
102
{ACAD_XDICTIONARY
360
684
102
}
102
{ACAD_REACTORS
330
29
102
}
330
29
100
AcDbVisualStyle
  2
Facepattern
 70
    15
 71
     2
 72
     2
 73
     0
 90
        0
 40
-0.6
 41
-30.0
 62
     5
 63
     7
 74
     1
 91
        4
 64
     7
 65
   257
 75
     1
175
     1
 42
1.0
 92
        8
 66
     7
 43
1.0
 76
     1
 77
     6
 78
     2
 67
     7
 79
     5
170
     0
171
     0
290
     0
174
     0
 93
        1
 44
0.0
173
     0
291
     1
 45
0.0
1001
ACAD
1000
AcDbSavedByObjectVersion
1070
     0
  0
VISUALSTYLE
  5
2A
102
{ACAD_XDICTIONARY
360
668
102
}
102
{ACAD_REACTORS
330
29
102
}
330
29
100
AcDbVisualStyle
  2
Flat
 70
     0
 71
     2
 72
     1
 73
     1
 90
        2
 40
-0.6
 41
30.0
 62
     5
 63
     7
 74
     0
 91
        0
 64
     7
 65
   257
 75
     1
175
     1
 42
1.0
 92
        8
 66
     7
 43
1.0
 76
     1
 77
     6
 78
     2
 67
     7
 79
     5
170
     0
171
     0
290
     0
174
     0
 93
       13
 44
0.0
173
     0
291
     1
 45
0.0
1001
ACAD
1000
AcDbSavedByObjectVersion
1070
     0
  0
VISUALSTYLE
  5
2B
102
{ACAD_XDICTIONARY
360
66A
102
}
102
{ACAD_REACTORS
330
29
102
}
330
29
100
AcDbVisualStyle
  2
FlatWithEdges
 70
     1
 71
     2
 72
     1
 73
     1
 90
        2
 40
-0.6
 41
30.0
 62
     5
 63
     7
 74
     1
 91
        0
 64
     7
 65
   257
 75
     1
175
     1
 42
1.0
 92
        0
 66
   257
 43
1.0
 76
     1
 77
     6
 78
     2
 67
     7
 79
     5
170
     0
171
     0
290
     0
174
     0
 93
       13
 44
0.0
173
     0
291
     1
 45
0.0
1001
ACAD
1000
AcDbSavedByObjectVersion
1070
     0
  0
VISUALSTYLE
  5
2C
102
{ACAD_XDICTIONARY
360
66C
102
}
102
{ACAD_REACTORS
330
29
102
}
330
29
100
AcDbVisualStyle
  2
Gouraud
 70
     2
 71
     2
 72
     2
 73
     1
 90
        2
 40
-0.6
 41
30.0
 62
     5
 63
     7
 74
     0
 91
        0
 64
     7
 65
   257
 75
     1
175
     1
 42
1.0
 92
        0
 66
     7
 43
1.0
 76
     1
 77
     6
 78
     2
 67
     7
 79
     5
170
     0
171
     0
290
     0
174
     0
 93
       13
 44
0.0
173
     0
291
     1
 45
0.0
1001
ACAD
1000
AcDbSavedByObjectVersion
1070
     0
  0
VISUALSTYLE
  5
2D
102
{ACAD_XDICTIONARY
360
66E
102
}
102
{ACAD_REACTORS
330
29
102
}
330
29
100
AcDbVisualStyle
  2
GouraudWithEdges
 70
     3
 71
     2
 72
     2
 73
     1
 90
        2
 40
-0.6
 41
30.0
 62
     5
 63
     7
 74
     1
 91
        0
 64
     7
 65
   257
 75
     1
175
     1
 42
1.0
 92
        0
 66
   257
 43
1.0
 76
     1
 77
     6
 78
     2
 67
     7
 79
     5
170
     0
171
     0
290
     0
174
     0
 93
       13
 44
0.0
173
     0
291
     1
 45
0.0
1001
ACAD
1000
AcDbSavedByObjectVersion
1070
     0
  0
VISUALSTYLE
  5
31
102
{ACAD_XDICTIONARY
360
676
102
}
102
{ACAD_REACTORS
330
29
102
}
330
29
100
AcDbVisualStyle
  2
Hidden
 70
     6
 71
     1
 72
     2
 73
     2
 90
        0
 40
-0.6
 41
-30.0
 62
     5
 63
     7
 74
     2
 91
        2
 64
     7
 65
   257
 75
     2
175
     1
 42
40.0
 92
        0
 66
   257
 43
1.0
 76
     1
 77
     6
 78
     2
 67
     7
 79
     3
170
     0
171
     0
290
     0
174
     0
 93
        1
 44
0.0
173
     0
291
     0
 45
0.0
1001
ACAD
1000
AcDbSavedByObjectVersion
1070
     0
  0
VISUALSTYLE
  5
3F
102
{ACAD_XDICTIONARY
360
692
102
}
102
{ACAD_REACTORS
330
29
102
}
330
29
100
AcDbVisualStyle
  2
JitterOff
 70
    20
 71
     2
 72
     2
 73
     0
 90
        0
 40
-0.6
 41
-30.0
 62
     5
 63
     7
 74
     1
 91
        4
 64
     7
 65
   257
 75
     1
175
     1
 42
1.0
 92
       10
 66
     7
 43
1.0
 76
     1
 77
     6
 78
     2
 67
     7
 79
     5
170
     0
171
     0
290
     0
174
     0
 93
        1
 44
0.0
173
     0
291
     1
 45
0.0
1001
ACAD
1000
AcDbSavedByObjectVersion
1070
     0
  0
VISUALSTYLE
  5
37
102
{ACAD_XDICTIONARY
360
682
102
}
102
{ACAD_REACTORS
330
29
102
}
330
29
100
AcDbVisualStyle
  2
Linepattern
 70
    14
 71
     2
 72
     2
 73
     0
 90
        0
 40
-0.6
 41
-30.0
 62
     5
 63
     7
 74
     1
 91
        4
 64
     7
 65
   257
 75
     7
175
     7
 42
1.0
 92
        8
 66
     7
 43
1.0
 76
     1
 77
     6
 78
     2
 67
     7
 79
     5
170
     0
171
     0
290
     0
174
     0
 93
        1
 44
0.0
173
     0
291
     1
 45
0.0
1001
ACAD
1000
AcDbSavedByObjectVersion
1070
     0
  0
VISUALSTYLE
  5
40
102
{ACAD_XDICTIONARY
360
694
102
}
102
{ACAD_REACTORS
330
29
102
}
330
29
100
AcDbVisualStyle
  2
OverhangOff
 70
    21
 71
     2
 72
     2
 73
     0
 90
        0
 40
-0.6
 41
-30.0
 62
     5
 63
     7
 74
     1
 91
        4
 64
     7
 65
   257
 75
     1
175
     1
 42
1.0
 92
        9
 66
     7
 43
1.0
 76
     1
 77
     6
 78
     2
 67
     7
 79
     5
170
     0
171
     0
290
     0
174
     0
 93
        1
 44
0.0
173
     0
291
     1
 45
0.0
1001
ACAD
1000
AcDbSavedByObjectVersion
1070
     0
  0
VISUALSTYLE
  5
33
102
{ACAD_XDICTIONARY
360
67A
102
}
102
{ACAD_REACTORS
330
29
102
}
330
29
100
AcDbVisualStyle
  2
Realistic
 70
     8
 71
     2
 72
     3
 73
     0
 90
        2
 40
-0.6
 41
30.0
 62
     5
 63
     7
 74
     0
 91
        0
 64
     7
 65
   257
 75
     1
175
     1
 42
1.0
 92
        8
 66
   257
 43
1.0
 76
     1
 77
     6
 78
     2
 67
     7
 79
     3
170
     0
171
     0
290
     0
174
     0
 93
       13
 44
0.0
173
     0
291
     0
 45
0.0
1001
ACAD
1000
AcDbSavedByObjectVersion
1070
     0
  0
VISUALSTYLE
  5
3E
102
{ACAD_XDICTIONARY
360
690
102
}
102
{ACAD_REACTORS
330
29
102
}
330
29
100
AcDbVisualStyle
  2
Shaded
 70
    27
 71
     2
 72
     2
 73
     1
 90
        2
 40
-0.6
 41
30.0
 62
     5
 63
     7
 74
     0
 91
        4
 64
     7
 65
   257
 75
     1
175
     1
 42
1.0
 92
        8
 66
   257
 43
1.0
 76
     1
 77
     6
 78
     2
 67
     8
 79
     3
170
     0
171
     0
290
     0
174
     0
 93
        5
 44
0.0
173
     0
291
     0
 45
0.0
1001
ACAD
1000
AcDbSavedByObjectVersion
1070
     0
  0
VISUALSTYLE
  5
3D
102
{ACAD_XDICTIONARY
360
68E
102
}
102
{ACAD_REACTORS
330
29
102
}
330
29
100
AcDbVisualStyle
  2
Shaded with edges
 70
    26
 71
     2
 72
     2
 73
     1
 90
        2
 40
-0.6
 41
30.0
 62
     5
 63
     7
 74
     1
 91
       10
 64
     7
 65
   257
 75
     2
175
     1
 42
1.0
 92
        8
 66
   257
 43
1.0
 76
     1
 77
     6
 78
     2
 67
     7
 79
     3
170
     0
171
     0
290
     0
174
     0
 93
        5
 44
0.0
173
     0
291
     0
 45
0.0
1001
ACAD
1000
AcDbSavedByObjectVersion
1070
     0
  0
VISUALSTYLE
  5
3A
102
{ACAD_XDICTIONARY
360
688
102
}
102
{ACAD_REACTORS
330
29
102
}
330
29
100
AcDbVisualStyle
  2
Shades of Gray
 70
    23
 71
     2
 72
     2
 73
     3
 90
        0
 40
-0.6
 41
-30.0
 62
     5
 63
     7
 74
     2
 91
        2
 64
     7
 65
     7
 75
     1
175
     1
 42
40.0
 92
        8
 66
     7
 43
1.0
 76
     1
 77
     6
 78
     2
 67
     7
 79
     3
170
     0
171
     0
290
     0
174
     0
 93
        1
 44
0.0
173
     0
291
     0
 45
0.0
1001
ACAD
1000
AcDbSavedByObjectVersion
1070
     0
  0
VISUALSTYLE
  5
3B
102
{ACAD_XDICTIONARY
360
68A
102
}
102
{ACAD_REACTORS
330
29
102
}
330
29
100
AcDbVisualStyle
  2
Sketchy
 70
    24
 71
     1
 72
     2
 73
     2
 90
        0
 40
-0.6
 41
-30.0
 62
     5
 63
     7
 74
     2
 91
        2
 64
     7
 65
     7
 75
     1
175
     1
 42
40.0
 92
       11
 66
     7
 43
1.0
 76
     1
 77
     6
 78
     2
 67
     7
 79
     6
170
     0
171
     0
290
     0
174
     0
 93
        1
 44
0.0
173
     0
291
     0
 45
0.0
1001
ACAD
1000
AcDbSavedByObjectVersion
1070
     0
  0
VISUALSTYLE
  5
36
102
{ACAD_XDICTIONARY
360
680
102
}
102
{ACAD_REACTORS
330
29
102
}
330
29
100
AcDbVisualStyle
  2
Thicken
 70
    13
 71
     2
 72
     2
 73
     0
 90
        0
 40
-0.6
 41
-30.0
 62
     5
 63
     7
 74
     1
 91
        4
 64
     7
 65
   257
 75
     1
175
     1
 42
1.0
 92
       12
 66
     7
 43
1.0
 76
     1
 77
     6
 78
     2
 67
     7
 79
     5
170
     0
171
     0
290
     0
174
     0
 93
        1
 44
0.0
173
     0
291
     1
 45
0.0
1001
ACAD
1000
AcDbSavedByObjectVersion
1070
     0
  0
VISUALSTYLE
  5
30
102
{ACAD_XDICTIONARY
360
674
102
}
102
{ACAD_REACTORS
330
29
102
}
330
29
100
AcDbVisualStyle
  2
Wireframe
 70
     5
 71
     0
 72
     2
 73
     0
 90
        0
 40
-0.6
 41
-30.0
 62
     5
 63
     7
 74
     1
 91
        4
 64
     7
 65
   257
 75
     1
175
     1
 42
1.0
 92
        0
 66
   257
 43
1.0
 76
     1
 77
     6
 78
     2
 67
     7
 79
     3
170
     0
171
     0
290
     0
174
     0
 93
        1
 44
0.0
173
     0
291
     0
 45
0.0
1001
ACAD
1000
AcDbSavedByObjectVersion
1070
     0
  0
VISUALSTYLE
  5
3C
102
{ACAD_XDICTIONARY
360
68C
102
}
102
{ACAD_REACTORS
330
29
102
}
330
29
100
AcDbVisualStyle
  2
X-Ray
 70
    25
 71
     2
 72
     2
 73
     1
 90
        1
 40
0.5
 41
-30.0
 62
     5
 63
     7
 74
     1
 91
        0
 64
     7
 65
   257
 75
     1
175
     1
 42
1.0
 92
        8
 66
     7
 43
1.0
 76
     1
 77
     6
 78
     2
 67
     7
 79
     3
170
     0
171
     0
290
     0
174
     0
 93
       13
 44
0.0
173
     0
291
     0
 45
0.0
1001
ACAD
1000
AcDbSavedByObjectVersion
1070
     0
  0
DICTIONARYVAR
  5
5D2
102
{ACAD_REACTORS
330
5CF
102
}
330
5CF
100
DictionaryVariables
280
     0
  1
1:1
  0
DICTIONARYVAR
  5
5D1
102
{ACAD_REACTORS
330
5CF
102
}
330
5CF
100
DictionaryVariables
280
     0
  1
STANDARD
  0
DICTIONARYVAR
  5
5D0
102
{ACAD_REACTORS
330
5CF
102
}
330
5CF
100
DictionaryVariables
280
     0
  1
STANDARD
  0
DICTIONARYVAR
  5
5D5
102
{ACAD_REACTORS
330
5CF
102
}
330
5CF
100
DictionaryVariables
280
     0
  1
1
  0
DICTIONARYVAR
  5
5D4
102
{ACAD_REACTORS
330
5CF
102
}
330
5CF
100
DictionaryVariables
280
     0
  1
0
  0
DICTIONARYVAR
  5
5D3
102
{ACAD_REACTORS
330
5CF
102
}
330
5CF
100
DictionaryVariables
280
     0
  1
127
  0
DICTIONARYVAR
  5
5D6
102
{ACAD_REACTORS
330
5CF
102
}
330
5CF
100
DictionaryVariables
280
     0
  1
2
  0
DICTIONARY
  5
69C
330
6E
100
AcDbDictionary
280
     1
281
     1
  3
ACAD_XREC_ROUNDTRIP
360
69D
  0
DICTIONARY
  5
69A
330
6A
100
AcDbDictionary
280
     1
281
     1
  3
ACAD_XREC_ROUNDTRIP
360
69B
  0
DICTIONARY
  5
1A
330
19
100
AcDbDictionary
280
     1
281
     1
  3
ACAD_XREC_ROUNDTRIP
360
666
  3
BUMPTILE
360
1C
  3
DIFFUSETILE
360
1B
  3
OPACITYTILE
360
1F
  3
REFLECTIONTILE
360
1E
  3
REFRACTIONTILE
360
20
  3
SPECULARTILE
360
1D
  0
DICTIONARY
  5
12
330
11
100
AcDbDictionary
280
     1
281
     1
  3
ACAD_XREC_ROUNDTRIP
360
665
  3
BUMPTILE
360
14
  3
DIFFUSETILE
360
13
  3
OPACITYTILE
360
17
  3
REFLECTIONTILE
360
16
  3
REFRACTIONTILE
360
18
  3
SPECULARTILE
360
15
  0
DICTIONARY
  5
22
330
21
100
AcDbDictionary
280
     1
281
     1
  3
ACAD_XREC_ROUNDTRIP
360
667
  3
BUMPTILE
360
24
  3
DIFFUSETILE
360
23
  3
OPACITYTILE
360
27
  3
REFLECTIONTILE
360
26
  3
REFRACTIONTILE
360
28
  3
SPECULARTILE
360
25
  0
DICTIONARY
  5
65D
330
64
100
AcDbDictionary
280
     1
281
     1
  3
ACAD_ROUNDTRIP_2008_TABLESTYLE_CELLSTYLEMAP
360
65E
  3
ACAD_XREC_ROUNDTRIP
360
698
  0
DICTIONARY
  5
672
330
2F
100
AcDbDictionary
280
     1
281
     1
  3
ACAD_XREC_ROUNDTRIP
360
673
  0
DICTIONARY
  5
6A0
330
43E
100
AcDbDictionary
280
     1
281
     1
  3
ACAD_XREC_ROUNDTRIP
360
6A1
  0
DICTIONARY
  5
670
330
2E
100
AcDbDictionary
280
     1
281
     1
  3
ACAD_XREC_ROUNDTRIP
360
671
  0
DICTIONARY
  5
67E
330
35
100
AcDbDictionary
280
     1
281
     1
  3
ACAD_XREC_ROUNDTRIP
360
67F
  0
DICTIONARY
  5
686
330
39
100
AcDbDictionary
280
     1
281
     1
  3
ACAD_XREC_ROUNDTRIP
360
687
  0
DICTIONARY
  5
678
330
32
100
AcDbDictionary
280
     1
281
     1
  3
ACAD_XREC_ROUNDTRIP
360
679
  0
DICTIONARY
  5
67C
330
34
100
AcDbDictionary
280
     1
281
     1
  3
ACAD_XREC_ROUNDTRIP
360
67D
  0
DICTIONARY
  5
696
330
41
100
AcDbDictionary
280
     1
281
     1
  3
ACAD_XREC_ROUNDTRIP
360
697
  0
DICTIONARY
  5
684
330
38
100
AcDbDictionary
280
     1
281
     1
  3
ACAD_XREC_ROUNDTRIP
360
685
  0
DICTIONARY
  5
668
330
2A
100
AcDbDictionary
280
     1
281
     1
  3
ACAD_XREC_ROUNDTRIP
360
669
  0
DICTIONARY
  5
66A
330
2B
100
AcDbDictionary
280
     1
281
     1
  3
ACAD_XREC_ROUNDTRIP
360
66B
  0
DICTIONARY
  5
66C
330
2C
100
AcDbDictionary
280
     1
281
     1
  3
ACAD_XREC_ROUNDTRIP
360
66D
  0
DICTIONARY
  5
66E
330
2D
100
AcDbDictionary
280
     1
281
     1
  3
ACAD_XREC_ROUNDTRIP
360
66F
  0
DICTIONARY
  5
676
330
31
100
AcDbDictionary
280
     1
281
     1
  3
ACAD_XREC_ROUNDTRIP
360
677
  0
DICTIONARY
  5
692
330
3F
100
AcDbDictionary
280
     1
281
     1
  3
ACAD_XREC_ROUNDTRIP
360
693
  0
DICTIONARY
  5
682
330
37
100
AcDbDictionary
280
     1
281
     1
  3
ACAD_XREC_ROUNDTRIP
360
683
  0
DICTIONARY
  5
694
330
40
100
AcDbDictionary
280
     1
281
     1
  3
ACAD_XREC_ROUNDTRIP
360
695
  0
DICTIONARY
  5
67A
330
33
100
AcDbDictionary
280
     1
281
     1
  3
ACAD_XREC_ROUNDTRIP
360
67B
  0
DICTIONARY
  5
690
330
3E
100
AcDbDictionary
280
     1
281
     1
  3
ACAD_XREC_ROUNDTRIP
360
691
  0
DICTIONARY
  5
68E
330
3D
100
AcDbDictionary
280
     1
281
     1
  3
ACAD_XREC_ROUNDTRIP
360
68F
  0
DICTIONARY
  5
688
330
3A
100
AcDbDictionary
280
     1
281
     1
  3
ACAD_XREC_ROUNDTRIP
360
689
  0
DICTIONARY
  5
68A
330
3B
100
AcDbDictionary
280
     1
281
     1
  3
ACAD_XREC_ROUNDTRIP
360
68B
  0
DICTIONARY
  5
680
330
36
100
AcDbDictionary
280
     1
281
     1
  3
ACAD_XREC_ROUNDTRIP
360
681
  0
DICTIONARY
  5
674
330
30
100
AcDbDictionary
280
     1
281
     1
  3
ACAD_XREC_ROUNDTRIP
360
675
  0
DICTIONARY
  5
68C
330
3C
100
AcDbDictionary
280
     1
281
     1
  3
ACAD_XREC_ROUNDTRIP
360
68D
  0
XRECORD
  5
69D
102
{ACAD_REACTORS
330
69C
102
}
330
69C
100
AcDbXrecord
280
     1
102
SHADEPLOT
 70
     0
102
SHADEPLOTRESLEVEL
 70
     2
102
SHADEPLOTCUSTOMDPI
 70
   300
  0
XRECORD
  5
69B
102
{ACAD_REACTORS
330
69A
102
}
330
69A
100
AcDbXrecord
280
     1
102
SHADEPLOT
 70
     0
102
SHADEPLOTRESLEVEL
 70
     2
102
SHADEPLOTCUSTOMDPI
 70
   300
  0
XRECORD
  5
666
102
{ACAD_REACTORS
330
1A
102
}
330
1A
100
AcDbXrecord
280
     1
102
MATERIAL
148
0.0
149
0.0
149
0.0
 93
        0
 94
      127
282
     0
 72
     0
 77
     0
171
     0
175
     0
179
     0
273
     0
  0
XRECORD
  5
1C
102
{ACAD_REACTORS
330
1A
102
}
330
1A
100
AcDbXrecord
280
     1
270
     1
271
     1
  0
XRECORD
  5
1B
102
{ACAD_REACTORS
330
1A
102
}
330
1A
100
AcDbXrecord
280
     1
270
     1
271
     1
  0
XRECORD
  5
1F
102
{ACAD_REACTORS
330
1A
102
}
330
1A
100
AcDbXrecord
280
     1
270
     1
271
     1
  0
XRECORD
  5
1E
102
{ACAD_REACTORS
330
1A
102
}
330
1A
100
AcDbXrecord
280
     1
270
     1
271
     1
  0
XRECORD
  5
20
102
{ACAD_REACTORS
330
1A
102
}
330
1A
100
AcDbXrecord
280
     1
270
     1
271
     1
  0
XRECORD
  5
1D
102
{ACAD_REACTORS
330
1A
102
}
330
1A
100
AcDbXrecord
280
     1
270
     1
271
     1
  0
XRECORD
  5
665
102
{ACAD_REACTORS
330
12
102
}
330
12
100
AcDbXrecord
280
     1
102
MATERIAL
148
0.0
149
0.0
149
0.0
 93
        0
 94
      127
282
     0
 72
     0
 77
     0
171
     0
175
     0
179
     0
273
     0
  0
XRECORD
  5
14
102
{ACAD_REACTORS
330
12
102
}
330
12
100
AcDbXrecord
280
     1
270
     1
271
     1
  0
XRECORD
  5
13
102
{ACAD_REACTORS
330
12
102
}
330
12
100
AcDbXrecord
280
     1
270
     1
271
     1
  0
XRECORD
  5
17
102
{ACAD_REACTORS
330
12
102
}
330
12
100
AcDbXrecord
280
     1
270
     1
271
     1
  0
XRECORD
  5
16
102
{ACAD_REACTORS
330
12
102
}
330
12
100
AcDbXrecord
280
     1
270
     1
271
     1
  0
XRECORD
  5
18
102
{ACAD_REACTORS
330
12
102
}
330
12
100
AcDbXrecord
280
     1
270
     1
271
     1
  0
XRECORD
  5
15
102
{ACAD_REACTORS
330
12
102
}
330
12
100
AcDbXrecord
280
     1
270
     1
271
     1
  0
XRECORD
  5
667
102
{ACAD_REACTORS
330
22
102
}
330
22
100
AcDbXrecord
280
     1
102
MATERIAL
148
0.0
149
0.0
149
0.0
 93
        0
 94
      127
282
     0
 72
     0
 77
     0
171
     0
175
     0
179
     0
273
     0
  0
XRECORD
  5
24
102
{ACAD_REACTORS
330
22
102
}
330
22
100
AcDbXrecord
280
     1
270
     1
271
     1
  0
XRECORD
  5
23
102
{ACAD_REACTORS
330
22
102
}
330
22
100
AcDbXrecord
280
     1
270
     1
271
     1
  0
XRECORD
  5
27
102
{ACAD_REACTORS
330
22
102
}
330
22
100
AcDbXrecord
280
     1
270
     1
271
     1
  0
XRECORD
  5
26
102
{ACAD_REACTORS
330
22
102
}
330
22
100
AcDbXrecord
280
     1
270
     1
271
     1
  0
XRECORD
  5
28
102
{ACAD_REACTORS
330
22
102
}
330
22
100
AcDbXrecord
280
     1
270
     1
271
     1
  0
XRECORD
  5
25
102
{ACAD_REACTORS
330
22
102
}
330
22
100
AcDbXrecord
280
     1
270
     1
271
     1
  0
CELLSTYLEMAP
  5
65E
102
{ACAD_REACTORS
330
65D
102
}
330
65D
100
AcDbCellStyleMap
 90
        3
300
CELLSTYLE
  1
TABLEFORMAT_BEGIN
 90
        5
170
     1
 91
        0
 92
    32768
 62
   257
 93
        1
300
CONTENTFORMAT
  1
CONTENTFORMAT_BEGIN
 90
        0
 91
        0
 92
      512
 93
        0
300

 40
0.0
140
1.0
 94
        5
 62
     0
340
55
144
0.25
309
CONTENTFORMAT_END
171
     0
 94
        0
309
TABLEFORMAT_END
  1
CELLSTYLE_BEGIN
 90
        1
 91
        1
300
_TITLE
309
CELLSTYLE_END
300
CELLSTYLE
  1
TABLEFORMAT_BEGIN
 90
        5
170
     1
 91
        0
 92
        0
 62
   257
 93
        1
300
CONTENTFORMAT
  1
CONTENTFORMAT_BEGIN
 90
        0
 91
        0
 92
      512
 93
        0
300

 40
0.0
140
1.0
 94
        5
 62
     0
340
55
144
0.18
309
CONTENTFORMAT_END
171
     0
 94
        0
309
TABLEFORMAT_END
  1
CELLSTYLE_BEGIN
 90
        2
 91
        1
300
_HEADER
309
CELLSTYLE_END
300
CELLSTYLE
  1
TABLEFORMAT_BEGIN
 90
        5
170
     1
 91
        0
 92
        0
 62
   257
 93
        1
300
CONTENTFORMAT
  1
CONTENTFORMAT_BEGIN
 90
        0
 91
        0
 92
      512
 93
        0
300

 40
0.0
140
1.0
 94
        2
 62
     0
340
55
144
0.18
309
CONTENTFORMAT_END
171
     0
 94
        0
309
TABLEFORMAT_END
  1
CELLSTYLE_BEGIN
 90
        3
 91
        2
300
_DATA
309
CELLSTYLE_END
  0
XRECORD
  5
698
102
{ACAD_REACTORS
330
65D
102
}
330
65D
100
AcDbXrecord
280
     1
102
ACAD_ROUNDTRIP_PRE2007_TABLESTYLE
 90
      512
 91
        0
  1

 92
      512
 93
        0
  2

 94
      512
 95
        0
  3

  0
XRECORD
  5
673
102
{ACAD_REACTORS
330
672
102
}
330
672
100
AcDbXrecord
280
     1
102
RTVSPropertyOp0
 70
     1
102
RTVSPropertyOp1
 70
     1
102
RTVSPropertyOp2
 70
     1
102
RTVSPropertyOp3
 70
     1
102
RTVSPropertyOp4
 70
     1
102
RTVSPropertyOp5
 70
     1
102
RTVSPropertyOp6
 70
     1
102
RTVSPropertyOp7
 70
     1
102
RTVSPropertyOp8
 70
     1
102
RTVSPropertyOp9
 70
     1
102
RTVSPropertyOp10
 70
     1
102
RTVSPropertyOp11
 70
     1
102
RTVSPropertyOp12
 70
     1
102
RTVSPropertyOp13
 70
     1
102
RTVSPropertyOp14
 70
     1
102
RTVSPropertyOp15
 70
     1
102
RTVSPropertyOp16
 70
     1
102
RTVSPropertyOp17
 70
     1
102
RTVSPropertyOp18
 70
     1
102
RTVSPropertyOp19
 70
     1
102
RTVSPropertyOp20
 70
     1
102
RTVSPropertyOp21
 70
     1
102
RTVSPropertyOp22
 70
     1
102
RTVSPropertyOp23
 70
     1
102
RTVSPropertyOp24
 70
     1
102
RTVSPropertyOp25
 70
     1
102
RTVSPropertyOp26
 70
     1
102
RTVSPropertyOp27
 70
     1
102
RTVSPropertyOp28
 70
     1
102
RTVSPropertyOp29
 70
     1
102
RTVSPropertyOp30
 70
     1
102
RTVSPropertyOp31
 70
     1
102
RTVSPropertyOp32
 70
     1
  0
XRECORD
  5
6A1
102
{ACAD_REACTORS
330
6A0
102
}
330
6A0
100
AcDbXrecord
280
     1
102
RTVSPropertyOp0
 70
     1
102
RTVSPropertyOp1
 70
     1
102
RTVSPropertyOp2
 70
     1
102
RTVSPropertyOp3
 70
     1
102
RTVSPropertyOp4
 70
     1
102
RTVSPropertyOp5
 70
     1
102
RTVSPropertyOp6
 70
     1
102
RTVSPropertyOp7
 70
     1
102
RTVSPropertyOp8
 70
     1
102
RTVSPropertyOp9
 70
     1
102
RTVSPropertyOp10
 70
     1
102
RTVSPropertyOp11
 70
     1
102
RTVSPropertyOp12
 70
     1
102
RTVSPropertyOp13
 70
     1
102
RTVSPropertyOp14
 70
     1
102
RTVSPropertyOp15
 70
     1
102
RTVSPropertyOp16
 70
     1
102
RTVSPropertyOp17
 70
     1
102
RTVSPropertyOp18
 70
     1
102
RTVSPropertyOp19
 70
     1
102
RTVSPropertyOp20
 70
     1
102
RTVSPropertyOp21
 70
     1
102
RTVSPropertyOp22
 70
     1
102
RTVSPropertyOp23
 70
     1
102
RTVSPropertyOp24
 70
     1
102
RTVSPropertyOp25
 70
     1
102
RTVSPropertyOp26
 70
     1
102
RTVSPropertyOp27
 70
     1
102
RTVSPropertyOp28
 70
     1
102
RTVSPropertyOp29
 70
     1
102
RTVSPropertyOp30
 70
     1
102
RTVSPropertyOp31
 70
     1
102
RTVSPropertyOp32
 70
     1
  0
XRECORD
  5
671
102
{ACAD_REACTORS
330
670
102
}
330
670
100
AcDbXrecord
280
     1
102
RTVSPropertyOp0
 70
     1
102
RTVSPropertyOp1
 70
     1
102
RTVSPropertyOp2
 70
     1
102
RTVSPropertyOp3
 70
     1
102
RTVSPropertyOp4
 70
     1
102
RTVSPropertyOp5
 70
     1
102
RTVSPropertyOp6
 70
     1
102
RTVSPropertyOp7
 70
     1
102
RTVSPropertyOp8
 70
     1
102
RTVSPropertyOp9
 70
     1
102
RTVSPropertyOp10
 70
     1
102
RTVSPropertyOp11
 70
     1
102
RTVSPropertyOp12
 70
     1
102
RTVSPropertyOp13
 70
     1
102
RTVSPropertyOp14
 70
     1
102
RTVSPropertyOp15
 70
     1
102
RTVSPropertyOp16
 70
     1
102
RTVSPropertyOp17
 70
     1
102
RTVSPropertyOp18
 70
     1
102
RTVSPropertyOp19
 70
     1
102
RTVSPropertyOp20
 70
     1
102
RTVSPropertyOp21
 70
     1
102
RTVSPropertyOp22
 70
     1
102
RTVSPropertyOp23
 70
     1
102
RTVSPropertyOp24
 70
     1
102
RTVSPropertyOp25
 70
     1
102
RTVSPropertyOp26
 70
     1
102
RTVSPropertyOp27
 70
     1
102
RTVSPropertyOp28
 70
     1
102
RTVSPropertyOp29
 70
     1
102
RTVSPropertyOp30
 70
     1
102
RTVSPropertyOp31
 70
     1
102
RTVSPropertyOp32
 70
     1
  0
XRECORD
  5
67F
102
{ACAD_REACTORS
330
67E
102
}
330
67E
100
AcDbXrecord
280
     1
102
RTVSPropertyOp0
 70
     1
102
RTVSPropertyOp1
 70
     1
102
RTVSPropertyOp2
 70
     1
102
RTVSPropertyOp3
 70
     1
102
RTVSPropertyOp4
 70
     1
102
RTVSPropertyOp5
 70
     1
102
RTVSPropertyOp6
 70
     1
102
RTVSPropertyOp7
 70
     1
102
RTVSPropertyOp8
 70
     1
102
RTVSPropertyOp9
 70
     1
102
RTVSPropertyOp10
 70
     1
102
RTVSPropertyOp11
 70
     1
102
RTVSPropertyOp12
 70
     1
102
RTVSPropertyOp13
 70
     1
102
RTVSPropertyOp14
 70
     1
102
RTVSPropertyOp15
 70
     1
102
RTVSPropertyOp16
 70
     1
102
RTVSPropertyOp17
 70
     1
102
RTVSPropertyOp18
 70
     1
102
RTVSPropertyOp19
 70
     1
102
RTVSPropertyOp20
 70
     1
102
RTVSPropertyOp21
 70
     1
102
RTVSPropertyOp22
 70
     1
102
RTVSPropertyOp23
 70
     1
102
RTVSPropertyOp24
 70
     1
102
RTVSPropertyOp25
 70
     1
102
RTVSPropertyOp26
 70
     1
102
RTVSPropertyOp27
 70
     1
102
RTVSPropertyOp28
 70
     1
102
RTVSPropertyOp29
 70
     1
102
RTVSPropertyOp30
 70
     1
102
RTVSPropertyOp31
 70
     1
102
RTVSPropertyOp32
 70
     1
  0
XRECORD
  5
687
102
{ACAD_REACTORS
330
686
102
}
330
686
100
AcDbXrecord
280
     1
102
RTVSPropertyOp0
 70
     1
102
RTVSPropertyOp1
 70
     1
102
RTVSPropertyOp2
 70
     1
102
RTVSPropertyOp3
 70
     1
102
RTVSPropertyOp4
 70
     1
102
RTVSPropertyOp5
 70
     1
102
RTVSPropertyOp6
 70
     1
102
RTVSPropertyOp7
 70
     1
102
RTVSPropertyOp8
 70
     1
102
RTVSPropertyOp9
 70
     1
102
RTVSPropertyOp10
 70
     1
102
RTVSPropertyOp11
 70
     1
102
RTVSPropertyOp12
 70
     1
102
RTVSPropertyOp13
 70
     1
102
RTVSPropertyOp14
 70
     1
102
RTVSPropertyOp15
 70
     1
102
RTVSPropertyOp16
 70
     1
102
RTVSPropertyOp17
 70
     1
102
RTVSPropertyOp18
 70
     1
102
RTVSPropertyOp19
 70
     1
102
RTVSPropertyOp20
 70
     1
102
RTVSPropertyOp21
 70
     1
102
RTVSPropertyOp22
 70
     1
102
RTVSPropertyOp23
 70
     1
102
RTVSPropertyOp24
 70
     1
102
RTVSPropertyOp25
 70
     1
102
RTVSPropertyOp26
 70
     1
102
RTVSPropertyOp27
 70
     1
102
RTVSPropertyOp28
 70
     1
102
RTVSPropertyOp29
 70
     1
102
RTVSPropertyOp30
 70
     1
102
RTVSPropertyOp31
 70
     1
102
RTVSPropertyOp32
 70
     1
  0
XRECORD
  5
679
102
{ACAD_REACTORS
330
678
102
}
330
678
100
AcDbXrecord
280
     1
102
RTVSPropertyOp0
 70
     1
102
RTVSPropertyOp1
 70
     1
102
RTVSPropertyOp2
 70
     1
102
RTVSPropertyOp3
 70
     1
102
RTVSPropertyOp4
 70
     1
102
RTVSPropertyOp5
 70
     1
102
RTVSPropertyOp6
 70
     1
102
RTVSPropertyOp7
 70
     1
102
RTVSPropertyOp8
 70
     1
102
RTVSPropertyOp9
 70
     1
102
RTVSPropertyOp10
 70
     1
102
RTVSPropertyOp11
 70
     1
102
RTVSPropertyOp12
 70
     1
102
RTVSPropertyOp13
 70
     1
102
RTVSPropertyOp14
 70
     1
102
RTVSPropertyOp15
 70
     1
102
RTVSPropertyOp16
 70
     1
102
RTVSPropertyOp17
 70
     1
102
RTVSPropertyOp18
 70
     1
102
RTVSPropertyOp19
 70
     1
102
RTVSPropertyOp20
 70
     1
102
RTVSPropertyOp21
 70
     1
102
RTVSPropertyOp22
 70
     1
102
RTVSPropertyOp23
 70
     1
102
RTVSPropertyOp24
 70
     1
102
RTVSPropertyOp25
 70
     1
102
RTVSPropertyOp26
 70
     1
102
RTVSPropertyOp27
 70
     1
102
RTVSPropertyOp28
 70
     1
102
RTVSPropertyOp29
 70
     1
102
RTVSPropertyOp30
 70
     1
102
RTVSPropertyOp31
 70
     1
102
RTVSPropertyOp32
 70
     1
  0
XRECORD
  5
67D
102
{ACAD_REACTORS
330
67C
102
}
330
67C
100
AcDbXrecord
280
     1
102
RTVSPropertyOp0
 70
     1
102
RTVSPropertyOp1
 70
     1
102
RTVSPropertyOp2
 70
     1
102
RTVSPropertyOp3
 70
     1
102
RTVSPropertyOp4
 70
     1
102
RTVSPropertyOp5
 70
     1
102
RTVSPropertyOp6
 70
     1
102
RTVSPropertyOp7
 70
     1
102
RTVSPropertyOp8
 70
     1
102
RTVSPropertyOp9
 70
     1
102
RTVSPropertyOp10
 70
     1
102
RTVSPropertyOp11
 70
     1
102
RTVSPropertyOp12
 70
     1
102
RTVSPropertyOp13
 70
     1
102
RTVSPropertyOp14
 70
     1
102
RTVSPropertyOp15
 70
     1
102
RTVSPropertyOp16
 70
     1
102
RTVSPropertyOp17
 70
     1
102
RTVSPropertyOp18
 70
     1
102
RTVSPropertyOp19
 70
     1
102
RTVSPropertyOp20
 70
     1
102
RTVSPropertyOp21
 70
     1
102
RTVSPropertyOp22
 70
     1
102
RTVSPropertyOp23
 70
     1
102
RTVSPropertyOp24
 70
     1
102
RTVSPropertyOp25
 70
     1
102
RTVSPropertyOp26
 70
     1
102
RTVSPropertyOp27
 70
     1
102
RTVSPropertyOp28
 70
     1
102
RTVSPropertyOp29
 70
     1
102
RTVSPropertyOp30
 70
     1
102
RTVSPropertyOp31
 70
     1
102
RTVSPropertyOp32
 70
     1
  0
XRECORD
  5
697
102
{ACAD_REACTORS
330
696
102
}
330
696
100
AcDbXrecord
280
     1
102
RTVSPropertyOp0
 70
     0
102
RTVSPropertyOp1
 70
     0
102
RTVSPropertyOp2
 70
     0
102
RTVSPropertyOp3
 70
     0
102
RTVSPropertyOp4
 70
     0
102
RTVSPropertyOp5
 70
     0
102
RTVSPropertyOp6
 70
     0
102
RTVSPropertyOp7
 70
     0
102
RTVSPropertyOp8
 70
     0
102
RTVSPropertyOp9
 70
     0
102
RTVSPropertyOp10
 70
     0
102
RTVSPropertyOp11
 70
     0
102
RTVSPropertyOp12
 70
     0
102
RTVSPropertyOp13
 70
     0
102
RTVSPropertyOp14
 70
     2
102
RTVSPropertyOp15
 70
     0
102
RTVSPropertyOp16
 70
     0
102
RTVSPropertyOp17
 70
     0
102
RTVSPropertyOp18
 70
     0
102
RTVSPropertyOp19
 70
     0
102
RTVSPropertyOp20
 70
     0
102
RTVSPropertyOp21
 70
     0
102
RTVSPropertyOp22
 70
     0
102
RTVSPropertyOp23
 70
     0
102
RTVSPropertyOp24
 70
     0
102
RTVSPropertyOp25
 70
     0
102
RTVSPropertyOp26
 70
     0
102
RTVSPropertyOp27
 70
     0
102
RTVSPropertyOp28
 70
     0
102
RTVSPropertyOp29
 70
     0
102
RTVSPropertyOp30
 70
     0
102
RTVSPropertyOp31
 70
     0
102
RTVSPropertyOp32
 70
     0
  0
XRECORD
  5
685
102
{ACAD_REACTORS
330
684
102
}
330
684
100
AcDbXrecord
280
     1
102
RTVSPropertyOp0
 70
     1
102
RTVSPropertyOp1
 70
     1
102
RTVSPropertyOp2
 70
     1
102
RTVSPropertyOp3
 70
     1
102
RTVSPropertyOp4
 70
     1
102
RTVSPropertyOp5
 70
     1
102
RTVSPropertyOp6
 70
     1
102
RTVSPropertyOp7
 70
     1
102
RTVSPropertyOp8
 70
     1
102
RTVSPropertyOp9
 70
     1
102
RTVSPropertyOp10
 70
     1
102
RTVSPropertyOp11
 70
     1
102
RTVSPropertyOp12
 70
     1
102
RTVSPropertyOp13
 70
     1
102
RTVSPropertyOp14
 70
     1
102
RTVSPropertyOp15
 70
     1
102
RTVSPropertyOp16
 70
     1
102
RTVSPropertyOp17
 70
     1
102
RTVSPropertyOp18
 70
     1
102
RTVSPropertyOp19
 70
     1
102
RTVSPropertyOp20
 70
     1
102
RTVSPropertyOp21
 70
     1
102
RTVSPropertyOp22
 70
     1
102
RTVSPropertyOp23
 70
     1
102
RTVSPropertyOp24
 70
     1
102
RTVSPropertyOp25
 70
     1
102
RTVSPropertyOp26
 70
     1
102
RTVSPropertyOp27
 70
     1
102
RTVSPropertyOp28
 70
     1
102
RTVSPropertyOp29
 70
     1
102
RTVSPropertyOp30
 70
     1
102
RTVSPropertyOp31
 70
     1
102
RTVSPropertyOp32
 70
     1
  0
XRECORD
  5
669
102
{ACAD_REACTORS
330
668
102
}
330
668
100
AcDbXrecord
280
     1
102
RTVSPropertyOp0
 70
     1
102
RTVSPropertyOp1
 70
     1
102
RTVSPropertyOp2
 70
     1
102
RTVSPropertyOp3
 70
     1
102
RTVSPropertyOp4
 70
     1
102
RTVSPropertyOp5
 70
     1
102
RTVSPropertyOp6
 70
     1
102
RTVSPropertyOp7
 70
     1
102
RTVSPropertyOp8
 70
     1
102
RTVSPropertyOp9
 70
     1
102
RTVSPropertyOp10
 70
     1
102
RTVSPropertyOp11
 70
     1
102
RTVSPropertyOp12
 70
     1
102
RTVSPropertyOp13
 70
     1
102
RTVSPropertyOp14
 70
     1
102
RTVSPropertyOp15
 70
     1
102
RTVSPropertyOp16
 70
     1
102
RTVSPropertyOp17
 70
     1
102
RTVSPropertyOp18
 70
     1
102
RTVSPropertyOp19
 70
     1
102
RTVSPropertyOp20
 70
     1
102
RTVSPropertyOp21
 70
     1
102
RTVSPropertyOp22
 70
     1
102
RTVSPropertyOp23
 70
     1
102
RTVSPropertyOp24
 70
     1
102
RTVSPropertyOp25
 70
     1
102
RTVSPropertyOp26
 70
     1
102
RTVSPropertyOp27
 70
     1
102
RTVSPropertyOp28
 70
     1
102
RTVSPropertyOp29
 70
     1
102
RTVSPropertyOp30
 70
     1
102
RTVSPropertyOp31
 70
     1
102
RTVSPropertyOp32
 70
     1
  0
XRECORD
  5
66B
102
{ACAD_REACTORS
330
66A
102
}
330
66A
100
AcDbXrecord
280
     1
102
RTVSPropertyOp0
 70
     1
102
RTVSPropertyOp1
 70
     1
102
RTVSPropertyOp2
 70
     1
102
RTVSPropertyOp3
 70
     1
102
RTVSPropertyOp4
 70
     1
102
RTVSPropertyOp5
 70
     1
102
RTVSPropertyOp6
 70
     1
102
RTVSPropertyOp7
 70
     1
102
RTVSPropertyOp8
 70
     1
102
RTVSPropertyOp9
 70
     1
102
RTVSPropertyOp10
 70
     1
102
RTVSPropertyOp11
 70
     1
102
RTVSPropertyOp12
 70
     1
102
RTVSPropertyOp13
 70
     1
102
RTVSPropertyOp14
 70
     1
102
RTVSPropertyOp15
 70
     1
102
RTVSPropertyOp16
 70
     1
102
RTVSPropertyOp17
 70
     1
102
RTVSPropertyOp18
 70
     1
102
RTVSPropertyOp19
 70
     1
102
RTVSPropertyOp20
 70
     1
102
RTVSPropertyOp21
 70
     1
102
RTVSPropertyOp22
 70
     1
102
RTVSPropertyOp23
 70
     1
102
RTVSPropertyOp24
 70
     1
102
RTVSPropertyOp25
 70
     1
102
RTVSPropertyOp26
 70
     1
102
RTVSPropertyOp27
 70
     1
102
RTVSPropertyOp28
 70
     1
102
RTVSPropertyOp29
 70
     1
102
RTVSPropertyOp30
 70
     1
102
RTVSPropertyOp31
 70
     1
102
RTVSPropertyOp32
 70
     1
  0
XRECORD
  5
66D
102
{ACAD_REACTORS
330
66C
102
}
330
66C
100
AcDbXrecord
280
     1
102
RTVSPropertyOp0
 70
     1
102
RTVSPropertyOp1
 70
     1
102
RTVSPropertyOp2
 70
     1
102
RTVSPropertyOp3
 70
     1
102
RTVSPropertyOp4
 70
     1
102
RTVSPropertyOp5
 70
     1
102
RTVSPropertyOp6
 70
     1
102
RTVSPropertyOp7
 70
     1
102
RTVSPropertyOp8
 70
     1
102
RTVSPropertyOp9
 70
     1
102
RTVSPropertyOp10
 70
     1
102
RTVSPropertyOp11
 70
     1
102
RTVSPropertyOp12
 70
     1
102
RTVSPropertyOp13
 70
     1
102
RTVSPropertyOp14
 70
     1
102
RTVSPropertyOp15
 70
     1
102
RTVSPropertyOp16
 70
     1
102
RTVSPropertyOp17
 70
     1
102
RTVSPropertyOp18
 70
     1
102
RTVSPropertyOp19
 70
     1
102
RTVSPropertyOp20
 70
     1
102
RTVSPropertyOp21
 70
     1
102
RTVSPropertyOp22
 70
     1
102
RTVSPropertyOp23
 70
     1
102
RTVSPropertyOp24
 70
     1
102
RTVSPropertyOp25
 70
     1
102
RTVSPropertyOp26
 70
     1
102
RTVSPropertyOp27
 70
     1
102
RTVSPropertyOp28
 70
     1
102
RTVSPropertyOp29
 70
     1
102
RTVSPropertyOp30
 70
     1
102
RTVSPropertyOp31
 70
     1
102
RTVSPropertyOp32
 70
     1
  0
XRECORD
  5
66F
102
{ACAD_REACTORS
330
66E
102
}
330
66E
100
AcDbXrecord
280
     1
102
RTVSPropertyOp0
 70
     1
102
RTVSPropertyOp1
 70
     1
102
RTVSPropertyOp2
 70
     1
102
RTVSPropertyOp3
 70
     1
102
RTVSPropertyOp4
 70
     1
102
RTVSPropertyOp5
 70
     1
102
RTVSPropertyOp6
 70
     1
102
RTVSPropertyOp7
 70
     1
102
RTVSPropertyOp8
 70
     1
102
RTVSPropertyOp9
 70
     1
102
RTVSPropertyOp10
 70
     1
102
RTVSPropertyOp11
 70
     1
102
RTVSPropertyOp12
 70
     1
102
RTVSPropertyOp13
 70
     1
102
RTVSPropertyOp14
 70
     1
102
RTVSPropertyOp15
 70
     1
102
RTVSPropertyOp16
 70
     1
102
RTVSPropertyOp17
 70
     1
102
RTVSPropertyOp18
 70
     1
102
RTVSPropertyOp19
 70
     1
102
RTVSPropertyOp20
 70
     1
102
RTVSPropertyOp21
 70
     1
102
RTVSPropertyOp22
 70
     1
102
RTVSPropertyOp23
 70
     1
102
RTVSPropertyOp24
 70
     1
102
RTVSPropertyOp25
 70
     1
102
RTVSPropertyOp26
 70
     1
102
RTVSPropertyOp27
 70
     1
102
RTVSPropertyOp28
 70
     1
102
RTVSPropertyOp29
 70
     1
102
RTVSPropertyOp30
 70
     1
102
RTVSPropertyOp31
 70
     1
102
RTVSPropertyOp32
 70
     1
  0
XRECORD
  5
677
102
{ACAD_REACTORS
330
676
102
}
330
676
100
AcDbXrecord
280
     1
102
RTVSPropertyOp0
 70
     1
102
RTVSPropertyOp1
 70
     1
102
RTVSPropertyOp2
 70
     1
102
RTVSPropertyOp3
 70
     1
102
RTVSPropertyOp4
 70
     1
102
RTVSPropertyOp5
 70
     1
102
RTVSPropertyOp6
 70
     1
102
RTVSPropertyOp7
 70
     1
102
RTVSPropertyOp8
 70
     1
102
RTVSPropertyOp9
 70
     1
102
RTVSPropertyOp10
 70
     1
102
RTVSPropertyOp11
 70
     1
102
RTVSPropertyOp12
 70
     1
102
RTVSPropertyOp13
 70
     1
102
RTVSPropertyOp14
 70
     1
102
RTVSPropertyOp15
 70
     1
102
RTVSPropertyOp16
 70
     1
102
RTVSPropertyOp17
 70
     1
102
RTVSPropertyOp18
 70
     1
102
RTVSPropertyOp19
 70
     1
102
RTVSPropertyOp20
 70
     1
102
RTVSPropertyOp21
 70
     1
102
RTVSPropertyOp22
 70
     1
102
RTVSPropertyOp23
 70
     1
102
RTVSPropertyOp24
 70
     1
102
RTVSPropertyOp25
 70
     1
102
RTVSPropertyOp26
 70
     1
102
RTVSPropertyOp27
 70
     1
102
RTVSPropertyOp28
 70
     1
102
RTVSPropertyOp29
 70
     1
102
RTVSPropertyOp30
 70
     1
102
RTVSPropertyOp31
 70
     1
102
RTVSPropertyOp32
 70
     1
  0
XRECORD
  5
693
102
{ACAD_REACTORS
330
692
102
}
330
692
100
AcDbXrecord
280
     1
102
RTVSPropertyOp0
 70
     0
102
RTVSPropertyOp1
 70
     0
102
RTVSPropertyOp2
 70
     0
102
RTVSPropertyOp3
 70
     0
102
RTVSPropertyOp4
 70
     0
102
RTVSPropertyOp5
 70
     0
102
RTVSPropertyOp6
 70
     0
102
RTVSPropertyOp7
 70
     0
102
RTVSPropertyOp8
 70
     0
102
RTVSPropertyOp9
 70
     0
102
RTVSPropertyOp10
 70
     0
102
RTVSPropertyOp11
 70
     0
102
RTVSPropertyOp12
 70
     0
102
RTVSPropertyOp13
 70
     0
102
RTVSPropertyOp14
 70
     2
102
RTVSPropertyOp15
 70
     0
102
RTVSPropertyOp16
 70
     0
102
RTVSPropertyOp17
 70
     0
102
RTVSPropertyOp18
 70
     0
102
RTVSPropertyOp19
 70
     0
102
RTVSPropertyOp20
 70
     0
102
RTVSPropertyOp21
 70
     0
102
RTVSPropertyOp22
 70
     0
102
RTVSPropertyOp23
 70
     0
102
RTVSPropertyOp24
 70
     0
102
RTVSPropertyOp25
 70
     0
102
RTVSPropertyOp26
 70
     0
102
RTVSPropertyOp27
 70
     0
102
RTVSPropertyOp28
 70
     0
102
RTVSPropertyOp29
 70
     0
102
RTVSPropertyOp30
 70
     0
102
RTVSPropertyOp31
 70
     0
102
RTVSPropertyOp32
 70
     0
  0
XRECORD
  5
683
102
{ACAD_REACTORS
330
682
102
}
330
682
100
AcDbXrecord
280
     1
102
RTVSPropertyOp0
 70
     1
102
RTVSPropertyOp1
 70
     1
102
RTVSPropertyOp2
 70
     1
102
RTVSPropertyOp3
 70
     1
102
RTVSPropertyOp4
 70
     1
102
RTVSPropertyOp5
 70
     1
102
RTVSPropertyOp6
 70
     1
102
RTVSPropertyOp7
 70
     1
102
RTVSPropertyOp8
 70
     1
102
RTVSPropertyOp9
 70
     1
102
RTVSPropertyOp10
 70
     1
102
RTVSPropertyOp11
 70
     1
102
RTVSPropertyOp12
 70
     1
102
RTVSPropertyOp13
 70
     1
102
RTVSPropertyOp14
 70
     1
102
RTVSPropertyOp15
 70
     1
102
RTVSPropertyOp16
 70
     1
102
RTVSPropertyOp17
 70
     1
102
RTVSPropertyOp18
 70
     1
102
RTVSPropertyOp19
 70
     1
102
RTVSPropertyOp20
 70
     1
102
RTVSPropertyOp21
 70
     1
102
RTVSPropertyOp22
 70
     1
102
RTVSPropertyOp23
 70
     1
102
RTVSPropertyOp24
 70
     1
102
RTVSPropertyOp25
 70
     1
102
RTVSPropertyOp26
 70
     1
102
RTVSPropertyOp27
 70
     1
102
RTVSPropertyOp28
 70
     1
102
RTVSPropertyOp29
 70
     1
102
RTVSPropertyOp30
 70
     1
102
RTVSPropertyOp31
 70
     1
102
RTVSPropertyOp32
 70
     1
  0
XRECORD
  5
695
102
{ACAD_REACTORS
330
694
102
}
330
694
100
AcDbXrecord
280
     1
102
RTVSPropertyOp0
 70
     0
102
RTVSPropertyOp1
 70
     0
102
RTVSPropertyOp2
 70
     0
102
RTVSPropertyOp3
 70
     0
102
RTVSPropertyOp4
 70
     0
102
RTVSPropertyOp5
 70
     0
102
RTVSPropertyOp6
 70
     0
102
RTVSPropertyOp7
 70
     0
102
RTVSPropertyOp8
 70
     0
102
RTVSPropertyOp9
 70
     0
102
RTVSPropertyOp10
 70
     0
102
RTVSPropertyOp11
 70
     0
102
RTVSPropertyOp12
 70
     0
102
RTVSPropertyOp13
 70
     0
102
RTVSPropertyOp14
 70
     2
102
RTVSPropertyOp15
 70
     0
102
RTVSPropertyOp16
 70
     0
102
RTVSPropertyOp17
 70
     0
102
RTVSPropertyOp18
 70
     0
102
RTVSPropertyOp19
 70
     0
102
RTVSPropertyOp20
 70
     0
102
RTVSPropertyOp21
 70
     0
102
RTVSPropertyOp22
 70
     0
102
RTVSPropertyOp23
 70
     0
102
RTVSPropertyOp24
 70
     0
102
RTVSPropertyOp25
 70
     0
102
RTVSPropertyOp26
 70
     0
102
RTVSPropertyOp27
 70
     0
102
RTVSPropertyOp28
 70
     0
102
RTVSPropertyOp29
 70
     0
102
RTVSPropertyOp30
 70
     0
102
RTVSPropertyOp31
 70
     0
102
RTVSPropertyOp32
 70
     0
  0
XRECORD
  5
67B
102
{ACAD_REACTORS
330
67A
102
}
330
67A
100
AcDbXrecord
280
     1
102
RTVSPropertyOp0
 70
     1
102
RTVSPropertyOp1
 70
     1
102
RTVSPropertyOp2
 70
     1
102
RTVSPropertyOp3
 70
     1
102
RTVSPropertyOp4
 70
     1
102
RTVSPropertyOp5
 70
     1
102
RTVSPropertyOp6
 70
     1
102
RTVSPropertyOp7
 70
     1
102
RTVSPropertyOp8
 70
     1
102
RTVSPropertyOp9
 70
     1
102
RTVSPropertyOp10
 70
     1
102
RTVSPropertyOp11
 70
     1
102
RTVSPropertyOp12
 70
     1
102
RTVSPropertyOp13
 70
     1
102
RTVSPropertyOp14
 70
     1
102
RTVSPropertyOp15
 70
     1
102
RTVSPropertyOp16
 70
     1
102
RTVSPropertyOp17
 70
     1
102
RTVSPropertyOp18
 70
     1
102
RTVSPropertyOp19
 70
     1
102
RTVSPropertyOp20
 70
     1
102
RTVSPropertyOp21
 70
     1
102
RTVSPropertyOp22
 70
     1
102
RTVSPropertyOp23
 70
     1
102
RTVSPropertyOp24
 70
     1
102
RTVSPropertyOp25
 70
     1
102
RTVSPropertyOp26
 70
     1
102
RTVSPropertyOp27
 70
     1
102
RTVSPropertyOp28
 70
     1
102
RTVSPropertyOp29
 70
     1
102
RTVSPropertyOp30
 70
     1
102
RTVSPropertyOp31
 70
     1
102
RTVSPropertyOp32
 70
     1
  0
XRECORD
  5
691
102
{ACAD_REACTORS
330
690
102
}
330
690
100
AcDbXrecord
280
     1
102
RTVSPropertyOp0
 70
     1
102
RTVSPropertyOp1
 70
     1
102
RTVSPropertyOp2
 70
     1
102
RTVSPropertyOp3
 70
     1
102
RTVSPropertyOp4
 70
     1
102
RTVSPropertyOp5
 70
     1
102
RTVSPropertyOp6
 70
     1
102
RTVSPropertyOp7
 70
     1
102
RTVSPropertyOp8
 70
     1
102
RTVSPropertyOp9
 70
     1
102
RTVSPropertyOp10
 70
     1
102
RTVSPropertyOp11
 70
     1
102
RTVSPropertyOp12
 70
     1
102
RTVSPropertyOp13
 70
     1
102
RTVSPropertyOp14
 70
     1
102
RTVSPropertyOp15
 70
     1
102
RTVSPropertyOp16
 70
     1
102
RTVSPropertyOp17
 70
     1
102
RTVSPropertyOp18
 70
     1
102
RTVSPropertyOp19
 70
     1
102
RTVSPropertyOp20
 70
     1
102
RTVSPropertyOp21
 70
     1
102
RTVSPropertyOp22
 70
     1
102
RTVSPropertyOp23
 70
     1
102
RTVSPropertyOp24
 70
     1
102
RTVSPropertyOp25
 70
     1
102
RTVSPropertyOp26
 70
     1
102
RTVSPropertyOp27
 70
     1
102
RTVSPropertyOp28
 70
     1
102
RTVSPropertyOp29
 70
     1
102
RTVSPropertyOp30
 70
     1
102
RTVSPropertyOp31
 70
     1
102
RTVSPropertyOp32
 70
     1
  0
XRECORD
  5
68F
102
{ACAD_REACTORS
330
68E
102
}
330
68E
100
AcDbXrecord
280
     1
102
RTVSPropertyOp0
 70
     1
102
RTVSPropertyOp1
 70
     1
102
RTVSPropertyOp2
 70
     1
102
RTVSPropertyOp3
 70
     1
102
RTVSPropertyOp4
 70
     1
102
RTVSPropertyOp5
 70
     1
102
RTVSPropertyOp6
 70
     1
102
RTVSPropertyOp7
 70
     1
102
RTVSPropertyOp8
 70
     1
102
RTVSPropertyOp9
 70
     1
102
RTVSPropertyOp10
 70
     1
102
RTVSPropertyOp11
 70
     1
102
RTVSPropertyOp12
 70
     1
102
RTVSPropertyOp13
 70
     1
102
RTVSPropertyOp14
 70
     1
102
RTVSPropertyOp15
 70
     1
102
RTVSPropertyOp16
 70
     1
102
RTVSPropertyOp17
 70
     1
102
RTVSPropertyOp18
 70
     1
102
RTVSPropertyOp19
 70
     1
102
RTVSPropertyOp20
 70
     1
102
RTVSPropertyOp21
 70
     1
102
RTVSPropertyOp22
 70
     1
102
RTVSPropertyOp23
 70
     1
102
RTVSPropertyOp24
 70
     1
102
RTVSPropertyOp25
 70
     1
102
RTVSPropertyOp26
 70
     1
102
RTVSPropertyOp27
 70
     1
102
RTVSPropertyOp28
 70
     1
102
RTVSPropertyOp29
 70
     1
102
RTVSPropertyOp30
 70
     1
102
RTVSPropertyOp31
 70
     1
102
RTVSPropertyOp32
 70
     1
  0
XRECORD
  5
689
102
{ACAD_REACTORS
330
688
102
}
330
688
100
AcDbXrecord
280
     1
102
RTVSPropertyOp0
 70
     1
102
RTVSPropertyOp1
 70
     1
102
RTVSPropertyOp2
 70
     1
102
RTVSPropertyOp3
 70
     1
102
RTVSPropertyOp4
 70
     1
102
RTVSPropertyOp5
 70
     1
102
RTVSPropertyOp6
 70
     1
102
RTVSPropertyOp7
 70
     1
102
RTVSPropertyOp8
 70
     1
102
RTVSPropertyOp9
 70
     1
102
RTVSPropertyOp10
 70
     1
102
RTVSPropertyOp11
 70
     1
102
RTVSPropertyOp12
 70
     1
102
RTVSPropertyOp13
 70
     1
102
RTVSPropertyOp14
 70
     1
102
RTVSPropertyOp15
 70
     1
102
RTVSPropertyOp16
 70
     1
102
RTVSPropertyOp17
 70
     1
102
RTVSPropertyOp18
 70
     1
102
RTVSPropertyOp19
 70
     1
102
RTVSPropertyOp20
 70
     1
102
RTVSPropertyOp21
 70
     1
102
RTVSPropertyOp22
 70
     1
102
RTVSPropertyOp23
 70
     1
102
RTVSPropertyOp24
 70
     1
102
RTVSPropertyOp25
 70
     1
102
RTVSPropertyOp26
 70
     1
102
RTVSPropertyOp27
 70
     1
102
RTVSPropertyOp28
 70
     1
102
RTVSPropertyOp29
 70
     1
102
RTVSPropertyOp30
 70
     1
102
RTVSPropertyOp31
 70
     1
102
RTVSPropertyOp32
 70
     1
  0
XRECORD
  5
68B
102
{ACAD_REACTORS
330
68A
102
}
330
68A
100
AcDbXrecord
280
     1
102
RTVSPropertyOp0
 70
     1
102
RTVSPropertyOp1
 70
     1
102
RTVSPropertyOp2
 70
     1
102
RTVSPropertyOp3
 70
     1
102
RTVSPropertyOp4
 70
     1
102
RTVSPropertyOp5
 70
     1
102
RTVSPropertyOp6
 70
     1
102
RTVSPropertyOp7
 70
     1
102
RTVSPropertyOp8
 70
     1
102
RTVSPropertyOp9
 70
     1
102
RTVSPropertyOp10
 70
     1
102
RTVSPropertyOp11
 70
     1
102
RTVSPropertyOp12
 70
     1
102
RTVSPropertyOp13
 70
     1
102
RTVSPropertyOp14
 70
     1
102
RTVSPropertyOp15
 70
     1
102
RTVSPropertyOp16
 70
     1
102
RTVSPropertyOp17
 70
     1
102
RTVSPropertyOp18
 70
     1
102
RTVSPropertyOp19
 70
     1
102
RTVSPropertyOp20
 70
     1
102
RTVSPropertyOp21
 70
     1
102
RTVSPropertyOp22
 70
     1
102
RTVSPropertyOp23
 70
     1
102
RTVSPropertyOp24
 70
     1
102
RTVSPropertyOp25
 70
     1
102
RTVSPropertyOp26
 70
     1
102
RTVSPropertyOp27
 70
     1
102
RTVSPropertyOp28
 70
     1
102
RTVSPropertyOp29
 70
     1
102
RTVSPropertyOp30
 70
     1
102
RTVSPropertyOp31
 70
     1
102
RTVSPropertyOp32
 70
     1
  0
XRECORD
  5
681
102
{ACAD_REACTORS
330
680
102
}
330
680
100
AcDbXrecord
280
     1
102
RTVSPropertyOp0
 70
     1
102
RTVSPropertyOp1
 70
     1
102
RTVSPropertyOp2
 70
     1
102
RTVSPropertyOp3
 70
     1
102
RTVSPropertyOp4
 70
     1
102
RTVSPropertyOp5
 70
     1
102
RTVSPropertyOp6
 70
     1
102
RTVSPropertyOp7
 70
     1
102
RTVSPropertyOp8
 70
     1
102
RTVSPropertyOp9
 70
     1
102
RTVSPropertyOp10
 70
     1
102
RTVSPropertyOp11
 70
     1
102
RTVSPropertyOp12
 70
     1
102
RTVSPropertyOp13
 70
     1
102
RTVSPropertyOp14
 70
     1
102
RTVSPropertyOp15
 70
     1
102
RTVSPropertyOp16
 70
     1
102
RTVSPropertyOp17
 70
     1
102
RTVSPropertyOp18
 70
     1
102
RTVSPropertyOp19
 70
     1
102
RTVSPropertyOp20
 70
     1
102
RTVSPropertyOp21
 70
     1
102
RTVSPropertyOp22
 70
     1
102
RTVSPropertyOp23
 70
     1
102
RTVSPropertyOp24
 70
     1
102
RTVSPropertyOp25
 70
     1
102
RTVSPropertyOp26
 70
     1
102
RTVSPropertyOp27
 70
     1
102
RTVSPropertyOp28
 70
     1
102
RTVSPropertyOp29
 70
     1
102
RTVSPropertyOp30
 70
     1
102
RTVSPropertyOp31
 70
     1
102
RTVSPropertyOp32
 70
     1
  0
XRECORD
  5
675
102
{ACAD_REACTORS
330
674
102
}
330
674
100
AcDbXrecord
280
     1
102
RTVSPropertyOp0
 70
     1
102
RTVSPropertyOp1
 70
     1
102
RTVSPropertyOp2
 70
     1
102
RTVSPropertyOp3
 70
     1
102
RTVSPropertyOp4
 70
     1
102
RTVSPropertyOp5
 70
     1
102
RTVSPropertyOp6
 70
     1
102
RTVSPropertyOp7
 70
     1
102
RTVSPropertyOp8
 70
     1
102
RTVSPropertyOp9
 70
     1
102
RTVSPropertyOp10
 70
     1
102
RTVSPropertyOp11
 70
     1
102
RTVSPropertyOp12
 70
     1
102
RTVSPropertyOp13
 70
     1
102
RTVSPropertyOp14
 70
     1
102
RTVSPropertyOp15
 70
     1
102
RTVSPropertyOp16
 70
     1
102
RTVSPropertyOp17
 70
     1
102
RTVSPropertyOp18
 70
     1
102
RTVSPropertyOp19
 70
     1
102
RTVSPropertyOp20
 70
     1
102
RTVSPropertyOp21
 70
     1
102
RTVSPropertyOp22
 70
     1
102
RTVSPropertyOp23
 70
     1
102
RTVSPropertyOp24
 70
     1
102
RTVSPropertyOp25
 70
     1
102
RTVSPropertyOp26
 70
     1
102
RTVSPropertyOp27
 70
     1
102
RTVSPropertyOp28
 70
     1
102
RTVSPropertyOp29
 70
     1
102
RTVSPropertyOp30
 70
     1
102
RTVSPropertyOp31
 70
     1
102
RTVSPropertyOp32
 70
     1
  0
XRECORD
  5
68D
102
{ACAD_REACTORS
330
68C
102
}
330
68C
100
AcDbXrecord
280
     1
102
RTVSPropertyOp0
 70
     1
102
RTVSPropertyOp1
 70
     1
102
RTVSPropertyOp2
 70
     1
102
RTVSPropertyOp3
 70
     1
102
RTVSPropertyOp4
 70
     1
102
RTVSPropertyOp5
 70
     1
102
RTVSPropertyOp6
 70
     1
102
RTVSPropertyOp7
 70
     1
102
RTVSPropertyOp8
 70
     1
102
RTVSPropertyOp9
 70
     1
102
RTVSPropertyOp10
 70
     1
102
RTVSPropertyOp11
 70
     1
102
RTVSPropertyOp12
 70
     1
102
RTVSPropertyOp13
 70
     1
102
RTVSPropertyOp14
 70
     1
102
RTVSPropertyOp15
 70
     1
102
RTVSPropertyOp16
 70
     1
102
RTVSPropertyOp17
 70
     1
102
RTVSPropertyOp18
 70
     1
102
RTVSPropertyOp19
 70
     1
102
RTVSPropertyOp20
 70
     1
102
RTVSPropertyOp21
 70
     1
102
RTVSPropertyOp22
 70
     1
102
RTVSPropertyOp23
 70
     1
102
RTVSPropertyOp24
 70
     1
102
RTVSPropertyOp25
 70
     1
102
RTVSPropertyOp26
 70
     1
102
RTVSPropertyOp27
 70
     1
102
RTVSPropertyOp28
 70
     1
102
RTVSPropertyOp29
 70
     1
102
RTVSPropertyOp30
 70
     1
102
RTVSPropertyOp31
 70
     1
102
RTVSPropertyOp32
 70
     1
  0
ENDSEC
  0
EOF
