  0
SECTION
  2
HEADER
  9
$ACADVER
  1
AC1015
  9
$ACADMAINTVER
 70
    20
  9
$DWGCODEPAGE
  3
ANSI_932
  9
$INSBASE
 10
0.0
 20
0.0
 30
0.0
  9
$EXTMIN
 10
1580.119575473104
 20
487.2616867306041
 30
-0.0015258207003583
  9
$EXTMAX
 10
2354.237822471192
 20
827.8230765924819
 30
0.0000000349246037
  9
$LIMMIN
 10
1580.131935
 20
488.6630629999999
  9
$LIMMAX
 10
1985.159813
 20
762.720421
  9
$ORTHOMODE
 70
     1
  9
$REGENMODE
 70
     1
  9
$FILLMODE
 70
     1
  9
$QTEXTMODE
 70
     0
  9
$MIRRTEXT
 70
     0
  9
$LTSCALE
 40
6.750430999999999
  9
$ATTMODE
 70
     1
  9
$TEXTSIZE
 40
3.2
  9
$TRACEWID
 40
0.05
  9
$TEXTSTYLE
  7
高3.2
  9
$CLAYER
  8
0
  9
$CELTYPE
  6
CONTINUOUS
  9
$CECOLOR
 62
   256
  9
$CELTSCALE
 40
1.0
  9
$DISPSILH
 70
     0
  9
$DIMSCALE
 40
1.0
  9
$DIMASZ
 40
2.5
  9
$DIMEXO
 40
0.25
  9
$DIMDLI
 40
0.2
  9
$DIMRND
 40
0.0
  9
$DIMDLE
 40
0.0
  9
$DIMEXE
 40
1.25
  9
$DIMTP
 40
0.0
  9
$DIMTM
 40
0.0
  9
$DIMTXT
 40
3.0
  9
$DIMCEN
 40
0.0
  9
$DIMTSZ
 40
0.0
  9
$DIMTOL
 70
     0
  9
$DIMLIM
 70
     0
  9
$DIMTIH
 70
     0
  9
$DIMTOH
 70
     0
  9
$DIMSE1
 70
     0
  9
$DIMSE2
 70
     0
  9
$DIMTAD
 70
     3
  9
$DIMZIN
 70
     8
  9
$DIMBLK
  1
Open30
  9
$DIMASO
 70
     1
  9
$DIMSHO
 70
     1
  9
$DIMPOST
  1

  9
$DIMAPOST
  1

  9
$DIMALT
 70
     0
  9
$DIMALTD
 70
     3
  9
$DIMALTF
 40
0.03937007874016
  9
$DIMLFAC
 40
2.0
  9
$DIMTOFL
 70
     1
  9
$DIMTVP
 40
0.0
  9
$DIMTIX
 70
     0
  9
$DIMSOXD
 70
     0
  9
$DIMSAH
 70
     0
  9
$DIMBLK1
  1

  9
$DIMBLK2
  1

  9
$DIMSTYLE
  2
1／2
  9
$DIMCLRD
 70
     0
  9
$DIMCLRE
 70
     0
  9
$DIMCLRT
 70
     4
  9
$DIMTFAC
 40
1.0
  9
$DIMGAP
 40
0.625
  9
$DIMJUST
 70
     0
  9
$DIMSD1
 70
     0
  9
$DIMSD2
 70
     0
  9
$DIMTOLJ
 70
     0
  9
$DIMTZIN
 70
     8
  9
$DIMALTZ
 70
     0
  9
$DIMALTTZ
 70
     0
  9
$DIMUPT
 70
     1
  9
$DIMDEC
 70
     2
  9
$DIMTDEC
 70
     2
  9
$DIMALTU
 70
     2
  9
$DIMALTTD
 70
     3
  9
$DIMTXSTY
  7
STANDARD
  9
$DIMAUNIT
 70
     0
  9
$DIMADEC
 70
     1
  9
$DIMALTRND
 40
0.0
  9
$DIMAZIN
 70
     2
  9
$DIMDSEP
 70
    46
  9
$DIMATFIT
 70
     0
  9
$DIMFRAC
 70
     0
  9
$DIMLDRBLK
  1
Open30
  9
$DIMLUNIT
 70
     2
  9
$DIMLWD
 70
    -2
  9
$DIMLWE
 70
    -2
  9
$DIMTMOVE
 70
     0
  9
$LUNITS
 70
     2
  9
$LUPREC
 70
     4
  9
$SKETCHINC
 40
0.1
  9
$FILLETRAD
 40
0.0
  9
$AUNITS
 70
     0
  9
$AUPREC
 70
     0
  9
$MENU
  1
.
  9
$ELEVATION
 40
0.0
  9
$PELEVATION
 40
0.0
  9
$THICKNESS
 40
0.0
  9
$LIMCHECK
 70
     0
  9
$CHAMFERA
 40
0.0
  9
$CHAMFERB
 40
0.0
  9
$CHAMFERC
 40
0.0
  9
$CHAMFERD
 40
0.0
  9
$SKPOLY
 70
     0
  9
$TDCREATE
 40
2456850.546111216
  9
$TDUCREATE
 40
2456850.171111216
  9
$TDUPDATE
 40
2456850.559316227
  9
$TDUUPDATE
 40
2456850.184316227
  9
$TDINDWG
 40
0.0132053356
  9
$TDUSRTIMER
 40
0.0132053356
  9
$USRTIMER
 70
     1
  9
$ANGBASE
 50
0.0
  9
$ANGDIR
 70
     0
  9
$PDMODE
 70
     0
  9
$PDSIZE
 40
0.0
  9
$PLINEWID
 40
0.0
  9
$SPLFRAME
 70
     0
  9
$SPLINETYPE
 70
     6
  9
$SPLINESEGS
 70
     8
  9
$HANDSEED
  5
7CE
  9
$SURFTAB1
 70
     6
  9
$SURFTAB2
 70
     6
  9
$SURFTYPE
 70
     6
  9
$SURFU
 70
     6
  9
$SURFV
 70
     6
  9
$UCSBASE
  2

  9
$UCSNAME
  2

  9
$UCSORG
 10
0.0
 20
0.0
 30
0.0
  9
$UCSXDIR
 10
1.0
 20
0.0
 30
0.0
  9
$UCSYDIR
 10
0.0
 20
1.0
 30
0.0
  9
$UCSORTHOREF
  2

  9
$UCSORTHOVIEW
 70
     0
  9
$UCSORGTOP
 10
0.0
 20
0.0
 30
0.0
  9
$UCSORGBOTTOM
 10
0.0
 20
0.0
 30
0.0
  9
$UCSORGLEFT
 10
0.0
 20
0.0
 30
0.0
  9
$UCSORGRIGHT
 10
0.0
 20
0.0
 30
0.0
  9
$UCSORGFRONT
 10
0.0
 20
0.0
 30
0.0
  9
$UCSORGBACK
 10
0.0
 20
0.0
 30
0.0
  9
$PUCSBASE
  2

  9
$PUCSNAME
  2

  9
$PUCSORG
 10
0.0
 20
0.0
 30
0.0
  9
$PUCSXDIR
 10
1.0
 20
0.0
 30
0.0
  9
$PUCSYDIR
 10
0.0
 20
1.0
 30
0.0
  9
$PUCSORTHOREF
  2

  9
$PUCSORTHOVIEW
 70
     0
  9
$PUCSORGTOP
 10
0.0
 20
0.0
 30
0.0
  9
$PUCSORGBOTTOM
 10
0.0
 20
0.0
 30
0.0
  9
$PUCSORGLEFT
 10
0.0
 20
0.0
 30
0.0
  9
$PUCSORGRIGHT
 10
0.0
 20
0.0
 30
0.0
  9
$PUCSORGFRONT
 10
0.0
 20
0.0
 30
0.0
  9
$PUCSORGBACK
 10
0.0
 20
0.0
 30
0.0
  9
$USERI1
 70
     0
  9
$USERI2
 70
     0
  9
$USERI3
 70
     0
  9
$USERI4
 70
     0
  9
$USERI5
 70
     0
  9
$USERR1
 40
0.0
  9
$USERR2
 40
0.0
  9
$USERR3
 40
0.0
  9
$USERR4
 40
0.0
  9
$USERR5
 40
0.0
  9
$WORLDVIEW
 70
     1
  9
$SHADEDGE
 70
     3
  9
$SHADEDIF
 70
    70
  9
$TILEMODE
 70
     1
  9
$MAXACTVP
 70
    64
  9
$PINSBASE
 10
0.0
 20
0.0
 30
0.0
  9
$PLIMCHECK
 70
     0
  9
$PEXTMIN
 10
1.000000000000000E+20
 20
1.000000000000000E+20
 30
1.000000000000000E+20
  9
$PEXTMAX
 10
-1.000000000000000E+20
 20
-1.000000000000000E+20
 30
-1.000000000000000E+20
  9
$PLIMMIN
 10
0.0
 20
0.0
  9
$PLIMMAX
 10
12.0
 20
9.0
  9
$UNITMODE
 70
     0
  9
$VISRETAIN
 70
     1
  9
$PLINEGEN
 70
     0
  9
$PSLTSCALE
 70
     1
  9
$TREEDEPTH
 70
  3020
  9
$CMLSTYLE
  2
Standard
  9
$CMLJUST
 70
     0
  9
$CMLSCALE
 40
1.0
  9
$PROXYGRAPHICS
 70
     1
  9
$MEASUREMENT
 70
     0
  9
$CELWEIGHT
370
    -1
  9
$ENDCAPS
280
     0
  9
$JOINSTYLE
280
     0
  9
$LWDISPLAY
290
     0
  9
$INSUNITS
 70
     0
  9
$HYPERLINKBASE
  1

  9
$STYLESHEET
  1

  9
$XEDIT
290
     1
  9
$CEPSNTYPE
380
     0
  9
$PSTYLEMODE
290
     1
  9
$FINGERPRINTGUID
  2
{7AEFD4FC-6C37-465F-98B8-A8D78FE7F31C}
  9
$VERSIONGUID
  2
{8D4FB243-7ACE-4A67-8BE0-27C4C9EF8132}
  9
$EXTNAMES
290
     1
  9
$PSVPSCALE
 40
0.0
  9
$OLESTARTUP
290
     0
  0
ENDSEC
  0
SECTION
  2
CLASSES
  0
CLASS
  1
ACDBDICTIONARYWDFLT
  2
AcDbDictionaryWithDefault
  3
ObjectDBX Classes
 90
        0
280
     0
281
     0
  0
CLASS
  1
MATERIAL
  2
AcDbMaterial
  3
ObjectDBX Classes
 90
     1153
280
     0
281
     0
  0
CLASS
  1
VISUALSTYLE
  2
AcDbVisualStyle
  3
ObjectDBX Classes
 90
     4095
280
     0
281
     0
  0
CLASS
  1
SCALE
  2
AcDbScale
  3
ObjectDBX Classes
 90
     1153
280
     0
281
     0
  0
CLASS
  1
TABLESTYLE
  2
AcDbTableStyle
  3
ObjectDBX Classes
 90
     4095
280
     0
281
     0
  0
CLASS
  1
MLEADERSTYLE
  2
AcDbMLeaderStyle
  3
ACDB_MLEADERSTYLE_CLASS
 90
     4095
280
     0
281
     0
  0
CLASS
  1
SORTENTSTABLE
  2
AcDbSortentsTable
  3
ObjectDBX Classes
 90
        0
280
     0
281
     0
  0
CLASS
  1
DICTIONARYVAR
  2
AcDbDictionaryVar
  3
ObjectDBX Classes
 90
        0
280
     0
281
     0
  0
CLASS
  1
CELLSTYLEMAP
  2
AcDbCellStyleMap
  3
ObjectDBX Classes
 90
     1152
280
     0
281
     0
  0
CLASS
  1
ACDBPLACEHOLDER
  2
AcDbPlaceHolder
  3
ObjectDBX Classes
 90
        0
280
     0
281
     0
  0
CLASS
  1
LAYOUT
  2
AcDbLayout
  3
ObjectDBX Classes
 90
        0
280
     0
281
     0
  0
ENDSEC
  0
SECTION
  2
TABLES
  0
TABLE
  2
VPORT
  5
8
330
0
100
AcDbSymbolTable
 70
     1
  0
VPORT
  5
8B
330
8
100
AcDbSymbolTableRecord
100
AcDbViewportTableRecord
  2
*Active
 70
     0
 10
0.0
 20
0.0
 11
1.0
 21
1.0
 12
1947.029620757943
 22
613.4440155210231
 13
0.0
 23
0.0
 14
1.0
 24
1.0
 15
0.0
 25
0.0
 16
0.0
 26
0.0
 36
1.0
 17
0.0
 27
0.0
 37
0.0
 40
695.1751344705634
 41
1.95900439238653
 42
50.0
 43
0.0
 44
0.0
 50
0.0
 51
0.0
 71
     0
 72
   100
 73
     1
 74
     1
 75
     0
 76
     0
 77
     0
 78
     0
281
     0
 65
     1
110
0.0
120
0.0
130
0.0
111
1.0
121
0.0
131
0.0
112
0.0
122
1.0
132
0.0
 79
     0
146
0.0
  0
ENDTAB
  0
TABLE
  2
LTYPE
  5
5
330
0
100
AcDbSymbolTable
 70
    27
  0
LTYPE
  5
5A
330
5
100
AcDbSymbolTableRecord
100
AcDbLinetypeTableRecord
  2
ByBlock
 70
     0
  3

 72
    65
 73
     0
 40
0.0
  0
LTYPE
  5
5B
330
5
100
AcDbSymbolTableRecord
100
AcDbLinetypeTableRecord
  2
ByLayer
 70
     0
  3

 72
    65
 73
     0
 40
0.0
  0
LTYPE
  5
5C
330
5
100
AcDbSymbolTableRecord
100
AcDbLinetypeTableRecord
  2
CONTINUOUS
 70
     0
  3
Solid-line
 72
    65
 73
     0
 40
0.0
  0
ENDTAB
  0
TABLE
  2
LAYER
  5
2
102
{ACAD_XDICTIONARY
360
503
102
}
330
0
100
AcDbSymbolTable
 70
     3
  0
LAYER
  5
54
102
{ACAD_XDICTIONARY
360
6AF
102
}
330
2
100
AcDbSymbolTableRecord
100
AcDbLayerTableRecord
  2
0
 70
     0
 62
     7
  6
CONTINUOUS
370
    -3
390
F
  0
LAYER
  5
4EC
330
2
100
AcDbSymbolTableRecord
100
AcDbLayerTableRecord
  2
Defpoints
 70
     0
 62
     7
  6
CONTINUOUS
290
     0
370
    -3
390
F
  0
ENDTAB
  0
TABLE
  2
STYLE
  5
3
330
0
100
AcDbSymbolTable
 70
     8
  0
STYLE
  5
55
330
3
100
AcDbSymbolTableRecord
100
AcDbTextStyleTableRecord
  2
STANDARD
 70
     0
 40
0.0
 41
1.0
 50
0.0
 71
     0
 42
0.2
  3
TXT
  4
BIGFONT
  0
STYLE
  5
4ED
330
3
100
AcDbSymbolTableRecord
100
AcDbTextStyleTableRecord
  2
高3.2
 70
     0
 40
3.2
 41
1.0
 50
0.0
 71
     0
 42
3.2
  3
txt.shx
  4
bigfont.shx
  0
STYLE
  5
4EE
330
3
100
AcDbSymbolTableRecord
100
AcDbTextStyleTableRecord
  2
高6.3
 70
     0
 40
6.299999999999999
 41
1.0
 50
0.0
 71
     0
 42
6.299999999999999
  3
txt.shx
  4
bigfont.shx
  0
STYLE
  5
4EF
330
3
100
AcDbSymbolTableRecord
100
AcDbTextStyleTableRecord
  2
高2.5
 70
     0
 40
2.5
 41
1.0
 50
0.0
 71
     0
 42
0.2
  3
txt.shx
  4
bigfont.shx
  0
STYLE
  5
4F0
330
3
100
AcDbSymbolTableRecord
100
AcDbTextStyleTableRecord
  2
高4.5
 70
     0
 40
4.5
 41
1.0
 50
0.0
 71
     0
 42
6.299999999999999
  3
txt.shx
  4
bigfont.shx
  0
STYLE
  5
4F1
330
3
100
AcDbSymbolTableRecord
100
AcDbTextStyleTableRecord
  2
高2
 70
     0
 40
2.0
 41
1.0
 50
0.0
 71
     0
 42
2.0
  3
txt.shx
  4
bigfont.shx
  0
ENDTAB
  0
TABLE
  2
VIEW
  5
6
330
0
100
AcDbSymbolTable
 70
     0
  0
ENDTAB
  0
TABLE
  2
UCS
  5
7
330
0
100
AcDbSymbolTable
 70
     0
  0
ENDTAB
  0
TABLE
  2
APPID
  5
9
330
0
100
AcDbSymbolTable
 70
    10
  0
APPID
  5
56
330
9
100
AcDbSymbolTableRecord
100
AcDbRegAppTableRecord
  2
ACAD
 70
     0
  0
APPID
  5
5D
330
9
100
AcDbSymbolTableRecord
100
AcDbRegAppTableRecord
  2
AcadAnnotative
 70
     0
  0
APPID
  5
4FC
330
9
100
AcDbSymbolTableRecord
100
AcDbRegAppTableRecord
  2
ACAD_DSTYLE_DIMJOGGED_JOGANGLE_SYMBOL
 70
     0
  0
APPID
  5
4FD
330
9
100
AcDbSymbolTableRecord
100
AcDbRegAppTableRecord
  2
ACAD_DSTYLE_DIMJAG
 70
     0
  0
APPID
  5
4FE
330
9
100
AcDbSymbolTableRecord
100
AcDbRegAppTableRecord
  2
ACAD_DSTYLE_DIMBREAK
 70
     0
  0
APPID
  5
4FF
330
9
100
AcDbSymbolTableRecord
100
AcDbRegAppTableRecord
  2
ACAD_DSTYLE_DIMTALN
 70
     0
  0
APPID
  5
67D
330
9
100
AcDbSymbolTableRecord
100
AcDbRegAppTableRecord
  2
ACAD_EXEMPT_FROM_CAD_STANDARDS
 70
     0
  0
APPID
  5
7C5
330
9
100
AcDbSymbolTableRecord
100
AcDbRegAppTableRecord
  2
ACAD_MLEADERVER
 70
     0
  0
APPID
  5
7CA
330
9
100
AcDbSymbolTableRecord
100
AcDbRegAppTableRecord
  2
ACAD_DSTYLE_DIMARC_LENGTH_SYMBOL
 70
     0
  0
APPID
  5
7CB
330
9
100
AcDbSymbolTableRecord
100
AcDbRegAppTableRecord
  2
ACAD_DSTYLE_DIMEXT_LENGTH
 70
     0
  0
ENDTAB
  0
TABLE
  2
DIMSTYLE
  5
A
330
0
100
AcDbSymbolTable
 70
    14
100
AcDbDimStyleTable
 71
     3
340
643
340
4F6
340
4FA
  0
DIMSTYLE
105
57
330
A
100
AcDbSymbolTableRecord
100
AcDbDimStyleTableRecord
  2
Standard
 70
     0
340
55
  0
DIMSTYLE
105
4F2
102
{ACAD_REACTORS
330
506
102
}
330
A
100
AcDbSymbolTableRecord
100
AcDbDimStyleTableRecord
  2
1：1
 70
     0
 41
2.5
 42
0.25
 43
0.2
 44
1.25
 73
     0
 74
     0
 77
     3
 78
     8
 79
     2
140
3.0
141
0.0
143
0.03937007874016
147
0.625
171
     3
172
     1
178
     4
179
     1
271
     2
272
     2
274
     3
283
     0
284
     8
288
     1
289
     0
340
55
341
45C
342
45C
1001
ACAD_DSTYLE_DIMARC_LENGTH_SYMBOL
1070
   379
1070
     2
1001
ACAD_DSTYLE_DIMEXT_LENGTH
1070
   378
1040
1.25
1001
ACAD_DSTYLE_DIMJOGGED_JOGANGLE_SYMBOL
1070
   384
1040
1.570796326794896
  0
DIMSTYLE
105
4F3
102
{ACAD_REACTORS
330
50B
102
}
330
A
100
AcDbSymbolTableRecord
100
AcDbDimStyleTableRecord
  2
2：1
 70
     0
 41
2.5
 42
0.25
 43
0.2
 44
1.25
 73
     0
 74
     0
 77
     3
 78
     8
 79
     2
140
3.0
141
0.0
143
0.03937007874016
144
0.5
147
0.625
171
     3
172
     1
178
     4
179
     1
271
     2
272
     2
274
     3
283
     0
284
     8
288
     1
289
     0
340
55
341
45C
342
45C
1001
ACAD_DSTYLE_DIMARC_LENGTH_SYMBOL
1070
   379
1070
     2
1001
ACAD_DSTYLE_DIMEXT_LENGTH
1070
   378
1040
1.25
1001
ACAD_DSTYLE_DIMJOGGED_JOGANGLE_SYMBOL
1070
   384
1040
1.570796326794896
  0
DIMSTYLE
105
4F4
102
{ACAD_REACTORS
330
50C
102
}
330
A
100
AcDbSymbolTableRecord
100
AcDbDimStyleTableRecord
  2
5：1
 70
     0
 41
2.5
 42
0.25
 43
0.2
 44
1.25
 73
     0
 74
     0
 77
     3
 78
     8
 79
     2
140
3.0
141
0.0
143
0.03937007874016
144
0.2
147
0.625
171
     3
172
     1
178
     4
179
     1
271
     2
272
     2
274
     3
283
     0
284
     8
288
     1
289
     0
340
55
341
45C
342
45C
1001
ACAD_DSTYLE_DIMARC_LENGTH_SYMBOL
1070
   379
1070
     2
1001
ACAD_DSTYLE_DIMEXT_LENGTH
1070
   378
1040
1.25
1001
ACAD_DSTYLE_DIMJOGGED_JOGANGLE_SYMBOL
1070
   384
1040
1.570796326794896
  0
DIMSTYLE
105
4F5
102
{ACAD_REACTORS
330
50A
102
}
330
A
100
AcDbSymbolTableRecord
100
AcDbDimStyleTableRecord
  2
10：1
 70
     0
 41
2.5
 42
0.25
 43
0.2
 44
1.25
 73
     0
 74
     0
 77
     3
 78
     8
 79
     2
140
3.0
141
0.0
143
0.03937007874016
144
0.1
147
0.625
171
     3
172
     1
178
     4
179
     1
271
     2
272
     2
274
     3
283
     0
284
     8
288
     1
289
     0
340
55
341
45C
342
45C
1001
ACAD_DSTYLE_DIMARC_LENGTH_SYMBOL
1070
   379
1070
     2
1001
ACAD_DSTYLE_DIMEXT_LENGTH
1070
   378
1040
1.25
1001
ACAD_DSTYLE_DIMJOGGED_JOGANGLE_SYMBOL
1070
   384
1040
1.570796326794896
  0
DIMSTYLE
105
4F6
102
{ACAD_REACTORS
330
508
102
}
330
A
100
AcDbSymbolTableRecord
100
AcDbDimStyleTableRecord
  2
1／2
 70
     0
 41
2.5
 42
0.25
 43
0.2
 44
1.25
 73
     0
 74
     0
 77
     3
 78
     8
 79
     2
140
3.0
141
0.0
143
0.03937007874016
144
2.0
147
0.625
171
     3
172
     1
178
     4
179
     1
271
     2
272
     2
274
     3
283
     0
284
     8
288
     1
289
     0
340
55
341
45C
342
45C
1001
ACAD_DSTYLE_DIMARC_LENGTH_SYMBOL
1070
   379
1070
     2
1001
ACAD_DSTYLE_DIMEXT_LENGTH
1070
   378
1040
1.25
1001
ACAD_DSTYLE_DIMJOGGED_JOGANGLE_SYMBOL
1070
   384
1040
1.570796326794896
  0
DIMSTYLE
105
4F7
102
{ACAD_REACTORS
330
507
102
}
330
A
100
AcDbSymbolTableRecord
100
AcDbDimStyleTableRecord
  2
1／5
 70
     0
 41
2.5
 42
0.25
 43
0.2
 44
1.25
 73
     0
 74
     0
 77
     3
 78
     8
 79
     2
140
3.0
141
0.0
143
0.03937007874016
144
5.0
147
0.625
171
     3
172
     1
178
     4
179
     1
271
     2
272
     2
274
     3
283
     0
284
     8
288
     1
289
     0
340
55
341
45C
342
45C
1001
ACAD_DSTYLE_DIMARC_LENGTH_SYMBOL
1070
   379
1070
     2
1001
ACAD_DSTYLE_DIMEXT_LENGTH
1070
   378
1040
1.25
1001
ACAD_DSTYLE_DIMJOGGED_JOGANGLE_SYMBOL
1070
   384
1040
1.570796326794896
  0
DIMSTYLE
105
4F8
102
{ACAD_REACTORS
330
509
102
}
330
A
100
AcDbSymbolTableRecord
100
AcDbDimStyleTableRecord
  2
1／10
 70
     0
 41
2.5
 42
0.25
 43
0.2
 44
1.25
 73
     0
 74
     0
 77
     3
 78
     8
 79
     2
140
3.0
141
0.0
143
0.03937007874016
144
10.0
147
0.625
171
     3
172
     1
178
     4
179
     1
271
     2
272
     2
274
     3
283
     0
284
     8
288
     1
289
     0
340
55
341
45C
342
45C
1001
ACAD_DSTYLE_DIMARC_LENGTH_SYMBOL
1070
   379
1070
     2
1001
ACAD_DSTYLE_DIMEXT_LENGTH
1070
   378
1040
1.25
1001
ACAD_DSTYLE_DIMJOGGED_JOGANGLE_SYMBOL
1070
   384
1040
1.570796326794896
  0
DIMSTYLE
105
4F9
102
{ACAD_REACTORS
330
50D
102
}
330
A
100
AcDbSymbolTableRecord
100
AcDbDimStyleTableRecord
  2
1／4
 70
     0
 41
2.5
 42
0.25
 43
0.2
 44
1.25
 73
     0
 74
     0
 77
     3
 78
     8
 79
     2
140
3.0
141
0.0
143
0.03937007874016
144
4.0
147
0.625
171
     3
172
     1
178
     4
179
     1
271
     2
272
     2
274
     3
283
     0
284
     8
288
     1
289
     0
340
55
341
45C
342
45C
1001
ACAD_DSTYLE_DIMARC_LENGTH_SYMBOL
1070
   379
1070
     2
1001
ACAD_DSTYLE_DIMEXT_LENGTH
1070
   378
1040
1.25
1001
ACAD_DSTYLE_DIMJOGGED_JOGANGLE_SYMBOL
1070
   384
1040
1.570796326794896
  0
DIMSTYLE
105
4FA
102
{ACAD_REACTORS
330
50E
102
}
330
A
100
AcDbSymbolTableRecord
100
AcDbDimStyleTableRecord
  2
1／3
 70
     0
 41
2.5
 42
0.25
 43
0.2
 44
1.25
 73
     0
 74
     0
 77
     3
 78
     8
 79
     2
140
3.0
141
0.0
143
0.03937007874016
144
3.0
147
0.625
171
     3
172
     1
178
     4
179
     1
271
     2
272
     2
274
     3
283
     0
284
     8
288
     1
289
     0
340
55
341
45C
342
45C
1001
ACAD_DSTYLE_DIMARC_LENGTH_SYMBOL
1070
   379
1070
     2
1001
ACAD_DSTYLE_DIMEXT_LENGTH
1070
   378
1040
1.25
1001
ACAD_DSTYLE_DIMJOGGED_JOGANGLE_SYMBOL
1070
   384
1040
1.570796326794896
  0
DIMSTYLE
105
4FB
102
{ACAD_REACTORS
330
50F
102
}
330
A
100
AcDbSymbolTableRecord
100
AcDbDimStyleTableRecord
  2
FREE
 70
     0
 41
2.5
 42
0.25
 43
0.2
 44
1.25
 73
     0
 74
     0
 77
     3
 78
     8
 79
     2
140
3.0
141
0.0
143
0.03937007874016
147
0.625
171
     3
172
     1
178
     4
179
     1
271
     2
272
     2
274
     3
283
     0
284
     8
288
     1
289
     0
340
55
341
45C
342
45C
1001
ACAD_DSTYLE_DIMBREAK
1070
   391
1040
3.75
1001
ACAD_DSTYLE_DIMJAG
1070
   388
1040
1.5
1001
ACAD_DSTYLE_DIMTALN
1070
   392
1070
     0
1001
ACAD_DSTYLE_DIMARC_LENGTH_SYMBOL
1070
   379
1070
     2
1001
ACAD_DSTYLE_DIMEXT_LENGTH
1070
   378
1040
1.25
1001
ACAD_DSTYLE_DIMJOGGED_JOGANGLE_SYMBOL
1070
   384
1040
1.570796326794896
  0
DIMSTYLE
105
643
330
A
100
AcDbSymbolTableRecord
100
AcDbDimStyleTableRecord
  2
1／2.5
 70
     0
 41
2.5
 42
0.25
 43
0.2
 44
1.25
 73
     0
 74
     0
 77
     3
 78
     8
 79
     2
140
3.0
141
0.0
143
0.03937007874016
144
2.5
147
0.625
171
     3
172
     1
178
     4
179
     1
271
     2
272
     2
274
     3
283
     0
284
     8
288
     1
289
     0
340
55
341
45C
342
45C
1001
ACAD_DSTYLE_DIMBREAK
1070
   391
1040
0.125
1001
ACAD_DSTYLE_DIMJAG
1070
   388
1040
1.5
1001
ACAD_DSTYLE_DIMTALN
1070
   392
1070
     0
1001
ACAD_DSTYLE_DIMARC_LENGTH_SYMBOL
1070
   379
1070
     2
1001
ACAD_DSTYLE_DIMEXT_LENGTH
1070
   378
1040
1.25
1001
ACAD_DSTYLE_DIMJOGGED_JOGANGLE_SYMBOL
1070
   384
1040
1.570796326794896
  0
ENDTAB
  0
TABLE
  2
BLOCK_RECORD
  5
1
330
0
100
AcDbSymbolTable
 70
    43
  0
BLOCK_RECORD
  5
6B
102
{ACAD_XDICTIONARY
360
6A1
102
}
330
1
100
AcDbSymbolTableRecord
100
AcDbBlockTableRecord
  2
*Model_Space
340
6E
  0
BLOCK_RECORD
  5
67
330
1
100
AcDbSymbolTableRecord
100
AcDbBlockTableRecord
  2
*Paper_Space
340
6A
  0
BLOCK_RECORD
  5
45C
330
1
100
AcDbSymbolTableRecord
100
AcDbBlockTableRecord
  2
_Open30
340
0
102
{BLKREFS
331
5DC
331
5DD
331
5E7
331
5E8
331
5F2
331
5F3
331
5FD
331
5FE
331
608
331
609
331
613
331
614
331
61E
331
61F
331
629
331
62A
331
634
331
635
331
63D
331
63E
331
688
331
689
331
691
331
692
331
69A
331
69B
102
}
  0
BLOCK_RECORD
  5
54D
330
1
100
AcDbSymbolTableRecord
100
AcDbBlockTableRecord
  2
*D29
340
0
  0
BLOCK_RECORD
  5
55B
330
1
100
AcDbSymbolTableRecord
100
AcDbBlockTableRecord
  2
*D30
340
0
  0
BLOCK_RECORD
  5
569
330
1
100
AcDbSymbolTableRecord
100
AcDbBlockTableRecord
  2
*D31
340
0
  0
BLOCK_RECORD
  5
577
330
1
100
AcDbSymbolTableRecord
100
AcDbBlockTableRecord
  2
*D32
340
0
  0
BLOCK_RECORD
  5
585
330
1
100
AcDbSymbolTableRecord
100
AcDbBlockTableRecord
  2
*D33
340
0
  0
BLOCK_RECORD
  5
593
330
1
100
AcDbSymbolTableRecord
100
AcDbBlockTableRecord
  2
*D34
340
0
  0
BLOCK_RECORD
  5
5A1
330
1
100
AcDbSymbolTableRecord
100
AcDbBlockTableRecord
  2
*D35
340
0
  0
BLOCK_RECORD
  5
5AF
330
1
100
AcDbSymbolTableRecord
100
AcDbBlockTableRecord
  2
*D36
340
0
  0
BLOCK_RECORD
  5
5BD
330
1
100
AcDbSymbolTableRecord
100
AcDbBlockTableRecord
  2
*D37
340
0
  0
BLOCK_RECORD
  5
5CB
330
1
100
AcDbSymbolTableRecord
100
AcDbBlockTableRecord
  2
*D38
340
0
  0
BLOCK_RECORD
  5
650
330
1
100
AcDbSymbolTableRecord
100
AcDbBlockTableRecord
  2
*D39
340
0
  0
BLOCK_RECORD
  5
665
330
1
100
AcDbSymbolTableRecord
100
AcDbBlockTableRecord
  2
*D40
340
0
  0
BLOCK_RECORD
  5
671
330
1
100
AcDbSymbolTableRecord
100
AcDbBlockTableRecord
  2
*D41
340
0
  0
ENDTAB
  0
ENDSEC
  0
SECTION
  2
BLOCKS
  0
BLOCK
  5
6C
330
6B
100
AcDbEntity
  8
0
100
AcDbBlockBegin
  2
*Model_Space
 70
     0
 10
0.0
 20
0.0
 30
0.0
  3
*Model_Space
  1

  0
ENDBLK
  5
6D
330
6B
100
AcDbEntity
  8
0
100
AcDbBlockEnd
  0
BLOCK
  5
68
330
67
100
AcDbEntity
 67
     1
  8
0
100
AcDbBlockBegin
  2
*Paper_Space
 70
     0
 10
0.0
 20
0.0
 30
0.0
  3
*Paper_Space
  1

  0
ENDBLK
  5
69
330
67
100
AcDbEntity
 67
     1
  8
0
100
AcDbBlockEnd
  0
BLOCK
  5
45D
330
45C
100
AcDbEntity
  8
0
100
AcDbBlockBegin
  2
_Open30
 70
     0
 10
0.0
 20
0.0
 30
0.0
  3
_Open30
  1

  0
LINE
  5
45E
330
45C
100
AcDbEntity
  8
0
  6
ByBlock
 62
     0
370
    -2
100
AcDbLine
 10
-1.0
 20
0.267949
 30
0.0
 11
0.0
 21
0.0
 31
0.0
  0
LINE
  5
45F
330
45C
100
AcDbEntity
  8
0
  6
ByBlock
 62
     0
370
    -2
100
AcDbLine
 10
0.0
 20
0.0
 30
0.0
 11
-1.0
 21
-0.267949
 31
0.0
  0
LINE
  5
460
330
45C
100
AcDbEntity
  8
0
  6
ByBlock
 62
     0
370
    -2
100
AcDbLine
 10
0.0
 20
0.0
 30
0.0
 11
-1.0
 21
0.0
 31
0.0
  0
ENDBLK
  5
461
330
45C
100
AcDbEntity
  8
0
100
AcDbBlockEnd
  0
BLOCK
  5
54E
330
54D
100
AcDbEntity
  8
0
100
AcDbBlockBegin
  2
*D29
 70
     1
 10
0.0
 20
0.0
 30
0.0
  3
*D29
  1

  0
LINE
  5
5D7
330
54D
100
AcDbEntity
  8
0
 62
     0
370
    -2
100
AcDbLine
 10
2321.11667987688
 20
766.7124937580305
 30
0.0
 11
2321.11667987688
 21
763.8028623360217
 31
0.0
  0
LINE
  5
5D8
330
54D
100
AcDbEntity
  8
0
 62
     0
370
    -2
100
AcDbLine
 10
2318.659492822759
 20
766.7124937580305
 30
0.0
 11
2318.659492822759
 21
763.8028623360217
 31
0.0
  0
LINE
  5
5D9
330
54D
100
AcDbEntity
  8
0
 62
     0
370
    -2
100
AcDbLine
 10
2323.61667987688
 20
765.0528623360217
 30
0.0
 11
2326.116679876879
 21
765.0528623360217
 31
0.0
  0
LINE
  5
5DA
330
54D
100
AcDbEntity
  8
0
 62
     0
370
    -2
100
AcDbLine
 10
2316.159492822759
 20
765.0528623360217
 30
0.0
 11
2303.409492822759
 21
765.0528623360217
 31
0.0
  0
LINE
  5
5DB
330
54D
100
AcDbEntity
  8
0
 62
     0
370
    -2
100
AcDbLine
 10
2321.11667987688
 20
765.0528623360217
 30
0.0
 11
2318.659492822759
 21
765.0528623360217
 31
0.0
  0
INSERT
  5
5DC
330
54D
100
AcDbEntity
  8
0
 62
     0
370
    -2
100
AcDbBlockReference
  2
_Open30
 10
2321.11667987688
 20
765.0528623360217
 30
0.0
 41
2.5
 42
2.5
 43
2.5
 50
180.0
  0
INSERT
  5
5DD
330
54D
100
AcDbEntity
  8
0
 62
     0
370
    -2
100
AcDbBlockReference
  2
_Open30
 10
2318.659492822759
 20
765.0528623360217
 30
0.0
 41
2.5
 42
2.5
 43
2.5
  0
MTEXT
  5
5DE
330
54D
100
AcDbEntity
  8
0
 62
     4
100
AcDbMText
 10
2308.534492822759
 20
767.1778623360217
 30
0.0
 40
3.0
 41
0.0
 71
     5
 72
     1
  1
2.46
 73
     1
 44
1.0
1001
ACAD
1000
MTEXTBEGIN
1070
    73
1070
     1
1070
    44
1040
1.0
1070
    74
1070
     0
1000
MTEXTEND
  0
POINT
  5
5DF
330
54D
100
AcDbEntity
  8
Defpoints
 62
     0
100
AcDbPoint
 10
2321.11667987688
 20
766.9624937580305
 30
0.0
  0
POINT
  5
5E0
330
54D
100
AcDbEntity
  8
Defpoints
 62
     0
100
AcDbPoint
 10
2318.659492822759
 20
766.9624937580305
 30
0.0
  0
POINT
  5
5E1
330
54D
100
AcDbEntity
  8
Defpoints
 62
     0
100
AcDbPoint
 10
2318.659492822759
 20
765.0528623360217
 30
0.0
  0
ENDBLK
  5
54F
330
54D
100
AcDbEntity
  8
0
100
AcDbBlockEnd
  0
BLOCK
  5
55C
330
55B
100
AcDbEntity
  8
0
100
AcDbBlockBegin
  2
*D30
 70
     1
 10
0.0
 20
0.0
 30
0.0
  3
*D30
  1

  0
LINE
  5
5E2
330
55B
100
AcDbEntity
  8
0
 62
     0
370
    -2
100
AcDbLine
 10
2322.754804782952
 20
761.2564041852681
 30
0.0
 11
2322.754804782952
 21
758.7105121158048
 31
0.0
  0
LINE
  5
5E3
330
55B
100
AcDbEntity
  8
0
 62
     0
370
    -2
100
AcDbLine
 10
2319.66056898481
 20
761.2564041852681
 30
0.0
 11
2319.66056898481
 21
758.7105121158048
 31
0.0
  0
LINE
  5
5E4
330
55B
100
AcDbEntity
  8
0
 62
     0
370
    -2
100
AcDbLine
 10
2325.254804782952
 20
759.9605121158048
 30
0.0
 11
2327.754804782952
 21
759.9605121158048
 31
0.0
  0
LINE
  5
5E5
330
55B
100
AcDbEntity
  8
0
 62
     0
370
    -2
100
AcDbLine
 10
2317.16056898481
 20
759.9605121158048
 30
0.0
 11
2303.327235651477
 21
759.9605121158048
 31
0.0
  0
LINE
  5
5E6
330
55B
100
AcDbEntity
  8
0
 62
     0
370
    -2
100
AcDbLine
 10
2322.754804782952
 20
759.9605121158048
 30
0.0
 11
2319.66056898481
 21
759.9605121158048
 31
0.0
  0
INSERT
  5
5E7
330
55B
100
AcDbEntity
  8
0
 62
     0
370
    -2
100
AcDbBlockReference
  2
_Open30
 10
2322.754804782952
 20
759.9605121158048
 30
0.0
 41
2.5
 42
2.5
 43
2.5
 50
180.0
  0
INSERT
  5
5E8
330
55B
100
AcDbEntity
  8
0
 62
     0
370
    -2
100
AcDbBlockReference
  2
_Open30
 10
2319.66056898481
 20
759.9605121158048
 30
0.0
 41
2.5
 42
2.5
 43
2.5
  0
MTEXT
  5
5E9
330
55B
100
AcDbEntity
  8
0
 62
     4
100
AcDbMText
 10
2308.53556898481
 20
761.8355121158048
 30
0.0
 40
2.5
 41
0.0
 71
     5
 72
     1
  1
15.47
  7
高2.5
 73
     1
 44
1.0
1001
ACAD
1000
MTEXTBEGIN
1070
    73
1070
     1
1070
    44
1040
1.0
1070
    74
1070
     0
1000
MTEXTEND
  0
POINT
  5
5EA
330
55B
100
AcDbEntity
  8
Defpoints
 62
     0
100
AcDbPoint
 10
2322.754804782952
 20
761.5064041852681
 30
0.0
  0
POINT
  5
5EB
330
55B
100
AcDbEntity
  8
Defpoints
 62
     0
100
AcDbPoint
 10
2319.66056898481
 20
761.5064041852681
 30
0.0
  0
POINT
  5
5EC
330
55B
100
AcDbEntity
  8
Defpoints
 62
     0
100
AcDbPoint
 10
2319.66056898481
 20
759.9605121158048
 30
0.0
  0
ENDBLK
  5
55D
330
55B
100
AcDbEntity
  8
0
100
AcDbBlockEnd
  0
BLOCK
  5
56A
330
569
100
AcDbEntity
  8
0
100
AcDbBlockBegin
  2
*D31
 70
     1
 10
0.0
 20
0.0
 30
0.0
  3
*D31
  1

  0
LINE
  5
5ED
330
569
100
AcDbEntity
  8
0
 62
     0
370
    -2
100
AcDbLine
 10
2324.483936391038
 20
755.8003144694216
 30
0.0
 11
2324.483936391038
 21
753.5272268070543
 31
0.0
  0
LINE
  5
5EE
330
569
100
AcDbEntity
  8
0
 62
     0
370
    -2
100
AcDbLine
 10
2320.479631437846
 20
755.8003144694216
 30
0.0
 11
2320.479631437846
 21
753.5272268070543
 31
0.0
  0
LINE
  5
5EF
330
569
100
AcDbEntity
  8
0
 62
     0
370
    -2
100
AcDbLine
 10
2326.983936391038
 20
754.7772268070543
 30
0.0
 11
2329.483936391038
 21
754.7772268070543
 31
0.0
  0
LINE
  5
5F0
330
569
100
AcDbEntity
  8
0
 62
     0
370
    -2
100
AcDbLine
 10
2317.979631437847
 20
754.7772268070543
 30
0.0
 11
2306.229631437846
 21
754.7772268070543
 31
0.0
  0
LINE
  5
5F1
330
569
100
AcDbEntity
  8
0
 62
     0
370
    -2
100
AcDbLine
 10
2324.483936391038
 20
754.7772268070543
 30
0.0
 11
2320.479631437846
 21
754.7772268070543
 31
0.0
  0
INSERT
  5
5F2
330
569
100
AcDbEntity
  8
0
 62
     0
370
    -2
100
AcDbBlockReference
  2
_Open30
 10
2324.483936391038
 20
754.7772268070543
 30
0.0
 41
2.5
 42
2.5
 43
2.5
 50
180.0
  0
INSERT
  5
5F3
330
569
100
AcDbEntity
  8
0
 62
     0
370
    -2
100
AcDbBlockReference
  2
_Open30
 10
2320.479631437846
 20
754.7772268070543
 30
0.0
 41
2.5
 42
2.5
 43
2.5
  0
MTEXT
  5
5F4
330
569
100
AcDbEntity
  8
0
 62
     4
100
AcDbMText
 10
2310.854631437846
 20
757.0022268070544
 30
0.0
 40
3.2
 41
0.0
 71
     5
 72
     1
  1
8.01
  7
高3.2
 73
     1
 44
1.0
1001
ACAD
1000
MTEXTBEGIN
1070
    73
1070
     1
1070
    44
1040
1.0
1070
    74
1070
     0
1000
MTEXTEND
  0
POINT
  5
5F5
330
569
100
AcDbEntity
  8
Defpoints
 62
     0
100
AcDbPoint
 10
2324.483936391038
 20
756.0503144694216
 30
0.0
  0
POINT
  5
5F6
330
569
100
AcDbEntity
  8
Defpoints
 62
     0
100
AcDbPoint
 10
2320.479631437846
 20
756.0503144694216
 30
0.0
  0
POINT
  5
5F7
330
569
100
AcDbEntity
  8
Defpoints
 62
     0
100
AcDbPoint
 10
2320.479631437846
 20
754.7772268070543
 30
0.0
  0
ENDBLK
  5
56B
330
569
100
AcDbEntity
  8
0
100
AcDbBlockEnd
  0
BLOCK
  5
578
330
577
100
AcDbEntity
  8
0
100
AcDbBlockBegin
  2
*D32
 70
     1
 10
0.0
 20
0.0
 30
0.0
  3
*D32
  1

  0
LINE
  5
5F8
330
577
100
AcDbEntity
  8
0
 62
     0
370
    -2
100
AcDbLine
 10
2324.392929689025
 20
750.52609450139
 30
0.0
 11
2324.392929689025
 21
748.7076809939336
 31
0.0
  0
LINE
  5
5F9
330
577
100
AcDbEntity
  8
0
 62
     0
370
    -2
100
AcDbLine
 10
2319.66056898481
 20
750.52609450139
 30
0.0
 11
2319.66056898481
 21
748.7076809939336
 31
0.0
  0
LINE
  5
5FA
330
577
100
AcDbEntity
  8
0
 62
     0
370
    -2
100
AcDbLine
 10
2326.892929689026
 20
749.9576809939336
 30
0.0
 11
2329.392929689026
 21
749.9576809939336
 31
0.0
  0
LINE
  5
5FB
330
577
100
AcDbEntity
  8
0
 62
     0
370
    -2
100
AcDbLine
 10
2317.16056898481
 20
749.9576809939336
 30
0.0
 11
2295.41056898481
 21
749.9576809939336
 31
0.0
  0
LINE
  5
5FC
330
577
100
AcDbEntity
  8
0
 62
     0
370
    -2
100
AcDbLine
 10
2324.392929689025
 20
749.9576809939336
 30
0.0
 11
2319.66056898481
 21
749.9576809939336
 31
0.0
  0
INSERT
  5
5FD
330
577
100
AcDbEntity
  8
0
 62
     0
370
    -2
100
AcDbBlockReference
  2
_Open30
 10
2324.392929689025
 20
749.9576809939336
 30
0.0
 41
2.5
 42
2.5
 43
2.5
 50
180.0
  0
INSERT
  5
5FE
330
577
100
AcDbEntity
  8
0
 62
     0
370
    -2
100
AcDbBlockReference
  2
_Open30
 10
2319.66056898481
 20
749.9576809939336
 30
0.0
 41
2.5
 42
2.5
 43
2.5
  0
MTEXT
  5
5FF
330
577
100
AcDbEntity
  8
0
 62
     4
100
AcDbMText
 10
2305.03556898481
 20
752.8326809939336
 30
0.0
 40
4.5
 41
0.0
 71
     5
 72
     1
  1
47.32
  7
高4.5
 73
     1
 44
1.0
1001
ACAD
1000
MTEXTBEGIN
1070
    73
1070
     1
1070
    44
1040
1.0
1070
    74
1070
     0
1000
MTEXTEND
  0
POINT
  5
600
330
577
100
AcDbEntity
  8
Defpoints
 62
     0
100
AcDbPoint
 10
2324.392929689025
 20
750.77609450139
 30
0.0
  0
POINT
  5
601
330
577
100
AcDbEntity
  8
Defpoints
 62
     0
100
AcDbPoint
 10
2319.66056898481
 20
750.77609450139
 30
0.0
  0
POINT
  5
602
330
577
100
AcDbEntity
  8
Defpoints
 62
     0
100
AcDbPoint
 10
2319.66056898481
 20
749.9576809939336
 30
0.0
  0
ENDBLK
  5
579
330
577
100
AcDbEntity
  8
0
100
AcDbBlockEnd
  0
BLOCK
  5
586
330
585
100
AcDbEntity
  8
0
100
AcDbBlockBegin
  2
*D33
 70
     1
 10
0.0
 20
0.0
 30
0.0
  3
*D33
  1

  0
LINE
  5
603
330
585
100
AcDbEntity
  8
0
 62
     0
370
    -2
100
AcDbLine
 10
2345.870565957033
 20
766.7124937580305
 30
0.0
 11
2345.870565957033
 21
763.8028623360217
 31
0.0
  0
LINE
  5
604
330
585
100
AcDbEntity
  8
0
 62
     0
370
    -2
100
AcDbLine
 10
2343.413378902913
 20
766.7124937580305
 30
0.0
 11
2343.413378902913
 21
763.8028623360217
 31
0.0
  0
LINE
  5
605
330
585
100
AcDbEntity
  8
0
 62
     0
370
    -2
100
AcDbLine
 10
2348.370565957033
 20
765.0528623360217
 30
0.0
 11
2350.870565957033
 21
765.0528623360217
 31
0.0
  0
LINE
  5
606
330
585
100
AcDbEntity
  8
0
 62
     0
370
    -2
100
AcDbLine
 10
2340.913378902913
 20
765.0528623360217
 30
0.0
 11
2319.313378902913
 21
765.0528623360217
 31
0.0
  0
LINE
  5
607
330
585
100
AcDbEntity
  8
0
 62
     0
370
    -2
100
AcDbLine
 10
2345.870565957033
 20
765.0528623360217
 30
0.0
 11
2343.413378902913
 21
765.0528623360217
 31
0.0
  0
INSERT
  5
608
330
585
100
AcDbEntity
  8
0
 62
     0
370
    -2
100
AcDbBlockReference
  2
_Open30
 10
2345.870565957033
 20
765.0528623360217
 30
0.0
 41
2.5
 42
2.5
 43
2.5
 50
180.0
  0
INSERT
  5
609
330
585
100
AcDbEntity
  8
0
 62
     0
370
    -2
100
AcDbBlockReference
  2
_Open30
 10
2343.413378902913
 20
765.0528623360217
 30
0.0
 41
2.5
 42
2.5
 43
2.5
  0
MTEXT
  5
60A
330
585
100
AcDbEntity
  8
0
 62
     4
100
AcDbMText
 10
2328.863378902913
 20
768.8278623360217
 30
0.0
 40
6.299999999999999
 41
0.0
 71
     5
 72
     1
  1
0.25
  7
高6.3
 73
     1
 44
1.0
1001
ACAD
1000
MTEXTBEGIN
1070
    73
1070
     1
1070
    44
1040
1.0
1070
    74
1070
     0
1000
MTEXTEND
  0
POINT
  5
60B
330
585
100
AcDbEntity
  8
Defpoints
 62
     0
100
AcDbPoint
 10
2345.870565957033
 20
766.9624937580305
 30
0.0
  0
POINT
  5
60C
330
585
100
AcDbEntity
  8
Defpoints
 62
     0
100
AcDbPoint
 10
2343.413378902913
 20
766.9624937580305
 30
0.0
  0
POINT
  5
60D
330
585
100
AcDbEntity
  8
Defpoints
 62
     0
100
AcDbPoint
 10
2343.413378902913
 20
765.0528623360217
 30
0.0
  0
ENDBLK
  5
587
330
585
100
AcDbEntity
  8
0
100
AcDbBlockEnd
  0
BLOCK
  5
594
330
593
100
AcDbEntity
  8
0
100
AcDbBlockBegin
  2
*D34
 70
     1
 10
0.0
 20
0.0
 30
0.0
  3
*D34
  1

  0
LINE
  5
60E
330
593
100
AcDbEntity
  8
0
 62
     0
370
    -2
100
AcDbLine
 10
2347.508690863107
 20
761.2564041852681
 30
0.0
 11
2347.508690863107
 21
758.7105121158048
 31
0.0
  0
LINE
  5
60F
330
593
100
AcDbEntity
  8
0
 62
     0
370
    -2
100
AcDbLine
 10
2344.414455064963
 20
761.2564041852681
 30
0.0
 11
2344.414455064963
 21
758.7105121158048
 31
0.0
  0
LINE
  5
610
330
593
100
AcDbEntity
  8
0
 62
     0
370
    -2
100
AcDbLine
 10
2350.008690863107
 20
759.9605121158048
 30
0.0
 11
2352.508690863106
 21
759.9605121158048
 31
0.0
  0
LINE
  5
611
330
593
100
AcDbEntity
  8
0
 62
     0
370
    -2
100
AcDbLine
 10
2341.914455064963
 20
759.9605121158048
 30
0.0
 11
2329.914455064963
 21
759.9605121158048
 31
0.0
  0
LINE
  5
612
330
593
100
AcDbEntity
  8
0
 62
     0
370
    -2
100
AcDbLine
 10
2347.508690863107
 20
759.9605121158048
 30
0.0
 11
2344.414455064963
 21
759.9605121158048
 31
0.0
  0
INSERT
  5
613
330
593
100
AcDbEntity
  8
0
 62
     0
370
    -2
100
AcDbBlockReference
  2
_Open30
 10
2347.508690863107
 20
759.9605121158048
 30
0.0
 41
2.5
 42
2.5
 43
2.5
 50
180.0
  0
INSERT
  5
614
330
593
100
AcDbEntity
  8
0
 62
     0
370
    -2
100
AcDbBlockReference
  2
_Open30
 10
2344.414455064963
 20
759.9605121158048
 30
0.0
 41
2.5
 42
2.5
 43
2.5
  0
MTEXT
  5
615
330
593
100
AcDbEntity
  8
0
 62
     4
100
AcDbMText
 10
2334.539455064964
 20
762.0855121158048
 30
0.0
 40
3.0
 41
0.0
 71
     5
 72
     1
  1
1.55
 73
     1
 44
1.0
1001
ACAD
1000
MTEXTBEGIN
1070
    73
1070
     1
1070
    44
1040
1.0
1070
    74
1070
     0
1000
MTEXTEND
  0
POINT
  5
616
330
593
100
AcDbEntity
  8
Defpoints
 62
     0
100
AcDbPoint
 10
2347.508690863107
 20
761.5064041852681
 30
0.0
  0
POINT
  5
617
330
593
100
AcDbEntity
  8
Defpoints
 62
     0
100
AcDbPoint
 10
2344.414455064963
 20
761.5064041852681
 30
0.0
  0
POINT
  5
618
330
593
100
AcDbEntity
  8
Defpoints
 62
     0
100
AcDbPoint
 10
2344.414455064963
 20
759.9605121158048
 30
0.0
  0
ENDBLK
  5
595
330
593
100
AcDbEntity
  8
0
100
AcDbBlockEnd
  0
BLOCK
  5
5A2
330
5A1
100
AcDbEntity
  8
0
100
AcDbBlockBegin
  2
*D35
 70
     1
 10
0.0
 20
0.0
 30
0.0
  3
*D35
  1

  0
LINE
  5
619
330
5A1
100
AcDbEntity
  8
0
 62
     0
370
    -2
100
AcDbLine
 10
2349.237822471192
 20
755.8003144694216
 30
0.0
 11
2349.237822471192
 21
753.5272268070543
 31
0.0
  0
LINE
  5
61A
330
5A1
100
AcDbEntity
  8
0
 62
     0
370
    -2
100
AcDbLine
 10
2345.233517518
 20
755.8003144694216
 30
0.0
 11
2345.233517518
 21
753.5272268070543
 31
0.0
  0
LINE
  5
61B
330
5A1
100
AcDbEntity
  8
0
 62
     0
370
    -2
100
AcDbLine
 10
2351.737822471192
 20
754.7772268070543
 30
0.0
 11
2354.237822471192
 21
754.7772268070543
 31
0.0
  0
LINE
  5
61C
330
5A1
100
AcDbEntity
  8
0
 62
     0
370
    -2
100
AcDbLine
 10
2342.733517518
 20
754.7772268070543
 30
0.0
 11
2334.400184184667
 21
754.7772268070543
 31
0.0
  0
LINE
  5
61D
330
5A1
100
AcDbEntity
  8
0
 62
     0
370
    -2
100
AcDbLine
 10
2349.237822471192
 20
754.7772268070543
 30
0.0
 11
2345.233517518
 21
754.7772268070543
 31
0.0
  0
INSERT
  5
61E
330
5A1
100
AcDbEntity
  8
0
 62
     0
370
    -2
100
AcDbBlockReference
  2
_Open30
 10
2349.237822471192
 20
754.7772268070543
 30
0.0
 41
2.5
 42
2.5
 43
2.5
 50
180.0
  0
INSERT
  5
61F
330
5A1
100
AcDbEntity
  8
0
 62
     0
370
    -2
100
AcDbBlockReference
  2
_Open30
 10
2345.233517518
 20
754.7772268070543
 30
0.0
 41
2.5
 42
2.5
 43
2.5
  0
MTEXT
  5
620
330
5A1
100
AcDbEntity
  8
0
 62
     4
100
AcDbMText
 10
2336.858517518
 20
756.4022268070544
 30
0.0
 40
2.0
 41
0.0
 71
     5
 72
     1
  1
0.8
  7
高2
 73
     1
 44
1.0
1001
ACAD
1000
MTEXTBEGIN
1070
    73
1070
     1
1070
    44
1040
1.0
1070
    74
1070
     0
1000
MTEXTEND
  0
POINT
  5
621
330
5A1
100
AcDbEntity
  8
Defpoints
 62
     0
100
AcDbPoint
 10
2349.237822471192
 20
756.0503144694216
 30
0.0
  0
POINT
  5
622
330
5A1
100
AcDbEntity
  8
Defpoints
 62
     0
100
AcDbPoint
 10
2345.233517518
 20
756.0503144694216
 30
0.0
  0
POINT
  5
623
330
5A1
100
AcDbEntity
  8
Defpoints
 62
     0
100
AcDbPoint
 10
2345.233517518
 20
754.7772268070543
 30
0.0
  0
ENDBLK
  5
5A3
330
5A1
100
AcDbEntity
  8
0
100
AcDbBlockEnd
  0
BLOCK
  5
5B0
330
5AF
100
AcDbEntity
  8
0
100
AcDbBlockBegin
  2
*D36
 70
     1
 10
0.0
 20
0.0
 30
0.0
  3
*D36
  1

  0
LINE
  5
624
330
5AF
100
AcDbEntity
  8
0
 62
     0
370
    -2
100
AcDbLine
 10
2349.14681576918
 20
750.52609450139
 30
0.0
 11
2349.14681576918
 21
748.7076809939336
 31
0.0
  0
LINE
  5
625
330
5AF
100
AcDbEntity
  8
0
 62
     0
370
    -2
100
AcDbLine
 10
2344.414455064963
 20
750.52609450139
 30
0.0
 11
2344.414455064963
 21
748.7076809939336
 31
0.0
  0
LINE
  5
626
330
5AF
100
AcDbEntity
  8
0
 62
     0
370
    -2
100
AcDbLine
 10
2351.64681576918
 20
749.9576809939336
 30
0.0
 11
2354.14681576918
 21
749.9576809939336
 31
0.0
  0
LINE
  5
627
330
5AF
100
AcDbEntity
  8
0
 62
     0
370
    -2
100
AcDbLine
 10
2341.914455064963
 20
749.9576809939336
 30
0.0
 11
2327.164455064964
 21
749.9576809939336
 31
0.0
  0
LINE
  5
628
330
5AF
100
AcDbEntity
  8
0
 62
     0
370
    -2
100
AcDbLine
 10
2349.14681576918
 20
749.9576809939336
 30
0.0
 11
2344.414455064963
 21
749.9576809939336
 31
0.0
  0
INSERT
  5
629
330
5AF
100
AcDbEntity
  8
0
 62
     0
370
    -2
100
AcDbBlockReference
  2
_Open30
 10
2349.14681576918
 20
749.9576809939336
 30
0.0
 41
2.5
 42
2.5
 43
2.5
 50
180.0
  0
INSERT
  5
62A
330
5AF
100
AcDbEntity
  8
0
 62
     0
370
    -2
100
AcDbBlockReference
  2
_Open30
 10
2344.414455064963
 20
749.9576809939336
 30
0.0
 41
2.5
 42
2.5
 43
2.5
  0
MTEXT
  5
62B
330
5AF
100
AcDbEntity
  8
0
 62
     4
100
AcDbMText
 10
2333.289455064964
 20
752.0826809939336
 30
0.0
 40
3.0
 41
0.0
 71
     5
 72
     1
  1
18.93
 73
     1
 44
1.0
1001
ACAD
1000
MTEXTBEGIN
1070
    73
1070
     1
1070
    44
1040
1.0
1070
    74
1070
     0
1000
MTEXTEND
  0
POINT
  5
62C
330
5AF
100
AcDbEntity
  8
Defpoints
 62
     0
100
AcDbPoint
 10
2349.14681576918
 20
750.77609450139
 30
0.0
  0
POINT
  5
62D
330
5AF
100
AcDbEntity
  8
Defpoints
 62
     0
100
AcDbPoint
 10
2344.414455064963
 20
750.77609450139
 30
0.0
  0
POINT
  5
62E
330
5AF
100
AcDbEntity
  8
Defpoints
 62
     0
100
AcDbPoint
 10
2344.414455064963
 20
749.9576809939336
 30
0.0
  0
ENDBLK
  5
5B1
330
5AF
100
AcDbEntity
  8
0
100
AcDbBlockEnd
  0
BLOCK
  5
5BE
330
5BD
100
AcDbEntity
  8
0
100
AcDbBlockBegin
  2
*D37
 70
     1
 10
0.0
 20
0.0
 30
0.0
  3
*D37
  1

  0
LINE
  5
62F
330
5BD
100
AcDbEntity
  8
0
 62
     0
370
    -2
100
AcDbLine
 10
2346.342388918041
 20
745.4702542948003
 30
0.0
 11
2346.342388918041
 21
743.1603332179247
 31
0.0
  0
LINE
  5
630
330
5BD
100
AcDbEntity
  8
0
 62
     0
370
    -2
100
AcDbLine
 10
2341.753713715894
 20
745.4702542948003
 30
0.0
 11
2341.753713715894
 21
743.1603332179247
 31
0.0
  0
LINE
  5
631
330
5BD
100
AcDbEntity
  8
0
 62
     0
370
    -2
100
AcDbLine
 10
2348.842388918042
 20
744.4103332179247
 30
0.0
 11
2351.342388918041
 21
744.4103332179247
 31
0.0
  0
LINE
  5
632
330
5BD
100
AcDbEntity
  8
0
 62
     0
370
    -2
100
AcDbLine
 10
2339.253713715894
 20
744.4103332179247
 30
0.0
 11
2324.503713715893
 21
744.4103332179247
 31
0.0
  0
LINE
  5
633
330
5BD
100
AcDbEntity
  8
0
 62
     0
370
    -2
100
AcDbLine
 10
2346.342388918041
 20
744.4103332179247
 30
0.0
 11
2341.753713715894
 21
744.4103332179247
 31
0.0
  0
INSERT
  5
634
330
5BD
100
AcDbEntity
  8
0
 62
     0
370
    -2
100
AcDbBlockReference
  2
_Open30
 10
2346.342388918041
 20
744.4103332179247
 30
0.0
 41
2.5
 42
2.5
 43
2.5
 50
180.0
  0
INSERT
  5
635
330
5BD
100
AcDbEntity
  8
0
 62
     0
370
    -2
100
AcDbBlockReference
  2
_Open30
 10
2341.753713715894
 20
744.4103332179247
 30
0.0
 41
2.5
 42
2.5
 43
2.5
  0
MTEXT
  5
636
330
5BD
100
AcDbEntity
  8
0
 62
     4
100
AcDbMText
 10
2330.628713715893
 20
746.5353332179248
 30
0.0
 40
3.0
 41
0.0
 71
     5
 72
     1
  1
13.77
 73
     1
 44
1.0
1001
ACAD
1000
MTEXTBEGIN
1070
    73
1070
     1
1070
    44
1040
1.0
1070
    74
1070
     0
1000
MTEXTEND
  0
POINT
  5
637
330
5BD
100
AcDbEntity
  8
Defpoints
 62
     0
100
AcDbPoint
 10
2346.342388918041
 20
745.7202542948002
 30
0.0
  0
POINT
  5
638
330
5BD
100
AcDbEntity
  8
Defpoints
 62
     0
100
AcDbPoint
 10
2341.753713715894
 20
745.7202542948002
 30
0.0
  0
POINT
  5
639
330
5BD
100
AcDbEntity
  8
Defpoints
 62
     0
100
AcDbPoint
 10
2341.753713715894
 20
744.4103332179247
 30
0.0
  0
ENDBLK
  5
5BF
330
5BD
100
AcDbEntity
  8
0
100
AcDbBlockEnd
  0
BLOCK
  5
5CC
330
5CB
100
AcDbEntity
  8
0
100
AcDbBlockBegin
  2
*D38
 70
     1
 10
0.0
 20
0.0
 30
0.0
  3
*D38
  1

  0
LINE
  5
63A
330
5CB
100
AcDbEntity
  8
0
 62
     0
370
    -2
100
AcDbLine
 10
2339.246106084891
 20
776.3997456130746
 30
0.0
 11
2339.246106084891
 21
783.7962790910124
 31
0.0
  0
LINE
  5
63B
330
5CB
100
AcDbEntity
  8
0
 62
     0
370
    -2
100
AcDbLine
 10
2329.307631715401
 20
776.3997456130746
 30
0.0
 11
2329.307631715401
 21
783.7962790910124
 31
0.0
  0
LINE
  5
63C
330
5CB
100
AcDbEntity
  8
0
 62
     0
370
    -2
100
AcDbLine
 10
2336.746106084891
 20
782.5462790910123
 30
0.0
 11
2331.807631715401
 21
782.5462790910123
 31
0.0
  0
INSERT
  5
63D
330
5CB
100
AcDbEntity
  8
0
 62
     0
370
    -2
100
AcDbBlockReference
  2
_Open30
 10
2339.246106084891
 20
782.5462790910123
 30
0.0
 41
2.5
 42
2.5
 43
2.5
  0
INSERT
  5
63E
330
5CB
100
AcDbEntity
  8
0
 62
     0
370
    -2
100
AcDbBlockReference
  2
_Open30
 10
2329.307631715401
 20
782.5462790910123
 30
0.0
 41
2.5
 42
2.5
 43
2.5
 50
180.0
  0
MTEXT
  5
63F
330
5CB
100
AcDbEntity
  8
0
 62
     4
100
AcDbMText
 10
2334.276868900146
 20
785.6212790910124
 30
0.0
 40
3.0
 41
0.0
 71
     5
 72
     1
  1
9.94\H0.7X;\S+0^ -0.02;
 73
     1
 44
1.0
1001
ACAD
1000
MTEXTBEGIN
1070
    73
1070
     1
1070
    44
1040
1.0
1070
    74
1070
     0
1000
MTEXTEND
  0
POINT
  5
640
330
5CB
100
AcDbEntity
  8
Defpoints
 62
     0
100
AcDbPoint
 10
2339.246106084891
 20
776.1497456130746
 30
0.0
  0
POINT
  5
641
330
5CB
100
AcDbEntity
  8
Defpoints
 62
     0
100
AcDbPoint
 10
2329.307631715401
 20
776.1497456130746
 30
0.0
  0
POINT
  5
642
330
5CB
100
AcDbEntity
  8
Defpoints
 62
     0
100
AcDbPoint
 10
2329.307631715401
 20
782.5462790910123
 30
0.0
  0
ENDBLK
  5
5CD
330
5CB
100
AcDbEntity
  8
0
100
AcDbBlockEnd
  0
BLOCK
  5
651
330
650
100
AcDbEntity
  8
0
100
AcDbBlockBegin
  2
*D39
 70
     1
 10
0.0
 20
0.0
 30
0.0
  3
*D39
  1

  0
LINE
  5
685
330
650
100
AcDbEntity
  8
0
 62
     0
370
    -2
100
AcDbLine
 10
1741.880151
 20
645.423211
 30
0.0
 11
1741.880151
 21
618.169563
 31
0.0
  0
LINE
  5
686
330
650
100
AcDbEntity
  8
0
 62
     0
370
    -2
100
AcDbLine
 10
1854.380151
 20
645.423211
 30
0.0
 11
1854.380151
 21
618.169563
 31
0.0
  0
LINE
  5
687
330
650
100
AcDbEntity
  8
0
 62
     0
370
    -2
100
AcDbLine
 10
1744.380151
 20
619.419563
 30
0.0
 11
1851.880151
 21
619.419563
 31
0.0
  0
INSERT
  5
688
330
650
100
AcDbEntity
  8
0
 62
     0
370
    -2
100
AcDbBlockReference
  2
_Open30
 10
1741.880151
 20
619.419563
 30
0.0
 41
2.5
 42
2.5
 43
2.5
 50
180.0
  0
INSERT
  5
689
330
650
100
AcDbEntity
  8
0
 62
     0
370
    -2
100
AcDbBlockReference
  2
_Open30
 10
1854.380151
 20
619.419563
 30
0.0
 41
2.5
 42
2.5
 43
2.5
  0
MTEXT
  5
68A
330
650
100
AcDbEntity
  8
0
 62
     4
100
AcDbMText
 10
1798.130151
 20
621.544563
 30
0.0
 40
3.0
 41
0.0
 71
     5
 72
     1
  1
225
 73
     1
 44
1.0
1001
ACAD
1000
MTEXTBEGIN
1070
    73
1070
     1
1070
    44
1040
1.0
1070
    74
1070
     0
1000
MTEXTEND
  0
POINT
  5
68B
330
650
100
AcDbEntity
  8
Defpoints
 62
     0
100
AcDbPoint
 10
1741.880151
 20
645.673211
 30
0.0
  0
POINT
  5
68C
330
650
100
AcDbEntity
  8
Defpoints
 62
     0
100
AcDbPoint
 10
1854.380151
 20
645.673211
 30
0.0
  0
POINT
  5
68D
330
650
100
AcDbEntity
  8
Defpoints
 62
     0
100
AcDbPoint
 10
1854.380151
 20
619.419563
 30
0.0
  0
ENDBLK
  5
652
330
650
100
AcDbEntity
  8
0
100
AcDbBlockEnd
  0
BLOCK
  5
666
330
665
100
AcDbEntity
  8
0
100
AcDbBlockBegin
  2
*D40
 70
     1
 10
0.0
 20
0.0
 30
0.0
  3
*D40
  1

  0
LINE
  5
68E
330
665
100
AcDbEntity
  8
0
 62
     0
370
    -2
100
AcDbLine
 10
1744.130151
 20
640.673211
 30
0.0
 11
1727.792838
 21
640.673211
 31
0.0
  0
LINE
  5
68F
330
665
100
AcDbEntity
  8
0
 62
     0
370
    -2
100
AcDbLine
 10
1741.630151
 20
703.173211
 30
0.0
 11
1727.792838
 21
703.173211
 31
0.0
  0
LINE
  5
690
330
665
100
AcDbEntity
  8
0
 62
     0
370
    -2
100
AcDbLine
 10
1729.042837999999
 20
643.173211
 30
0.0
 11
1729.042837999999
 21
700.673211
 31
0.0
  0
INSERT
  5
691
330
665
100
AcDbEntity
  8
0
 62
     0
370
    -2
100
AcDbBlockReference
  2
_Open30
 10
1729.042837999999
 20
640.673211
 30
0.0
 41
2.5
 42
2.5
 43
2.5
 50
270.0
  0
INSERT
  5
692
330
665
100
AcDbEntity
  8
0
 62
     0
370
    -2
100
AcDbBlockReference
  2
_Open30
 10
1729.042837999999
 20
703.173211
 30
0.0
 41
2.5
 42
2.5
 43
2.5
 50
90.0
  0
MTEXT
  5
693
330
665
100
AcDbEntity
  8
0
 62
     4
100
AcDbMText
 10
1726.917837999999
 20
671.9232110000002
 30
0.0
 40
3.0
 41
0.0
 71
     5
 72
     1
  1
125
 11
0.0000000000000001
 21
1.0
 31
0.0
 73
     1
 44
1.0
1001
ACAD
1000
MTEXTBEGIN
1070
    73
1070
     1
1070
    44
1040
1.0
1070
    74
1070
     0
1000
MTEXTEND
  0
POINT
  5
694
330
665
100
AcDbEntity
  8
Defpoints
 62
     0
100
AcDbPoint
 10
1744.380151
 20
640.673211
 30
0.0
  0
POINT
  5
695
330
665
100
AcDbEntity
  8
Defpoints
 62
     0
100
AcDbPoint
 10
1741.880151
 20
703.173211
 30
0.0
  0
POINT
  5
696
330
665
100
AcDbEntity
  8
Defpoints
 62
     0
100
AcDbPoint
 10
1729.042837999999
 20
703.173211
 30
0.0
  0
ENDBLK
  5
667
330
665
100
AcDbEntity
  8
0
100
AcDbBlockEnd
  0
BLOCK
  5
672
330
671
100
AcDbEntity
  8
0
100
AcDbBlockBegin
  2
*D41
 70
     1
 10
0.0
 20
0.0
 30
0.0
  3
*D41
  1

  0
LINE
  5
697
330
671
100
AcDbEntity
  8
0
 62
     0
370
    -2
100
AcDbLine
 10
1617.268542
 20
645.423211
 30
0.0
 11
1617.268542
 21
618.169563
 31
0.0
  0
LINE
  5
698
330
671
100
AcDbEntity
  8
0
 62
     0
370
    -2
100
AcDbLine
 10
1714.768542
 20
645.423211
 30
0.0
 11
1714.768542
 21
618.169563
 31
0.0
  0
LINE
  5
699
330
671
100
AcDbEntity
  8
0
 62
     0
370
    -2
100
AcDbLine
 10
1619.768542
 20
619.419563
 30
0.0
 11
1712.268542
 21
619.419563
 31
0.0
  0
INSERT
  5
69A
330
671
100
AcDbEntity
  8
0
 62
     0
370
    -2
100
AcDbBlockReference
  2
_Open30
 10
1617.268542
 20
619.419563
 30
0.0
 41
2.5
 42
2.5
 43
2.5
 50
180.0
  0
INSERT
  5
69B
330
671
100
AcDbEntity
  8
0
 62
     0
370
    -2
100
AcDbBlockReference
  2
_Open30
 10
1714.768542
 20
619.419563
 30
0.0
 41
2.5
 42
2.5
 43
2.5
  0
MTEXT
  5
69C
330
671
100
AcDbEntity
  8
0
 62
     4
100
AcDbMText
 10
1666.018542
 20
621.544563
 30
0.0
 40
3.0
 41
0.0
 71
     5
 72
     1
  1
195
 73
     1
 44
1.0
1001
ACAD
1000
MTEXTBEGIN
1070
    73
1070
     1
1070
    44
1040
1.0
1070
    74
1070
     0
1000
MTEXTEND
  0
POINT
  5
69D
330
671
100
AcDbEntity
  8
Defpoints
 62
     0
100
AcDbPoint
 10
1617.268542
 20
645.673211
 30
0.0
  0
POINT
  5
69E
330
671
100
AcDbEntity
  8
Defpoints
 62
     0
100
AcDbPoint
 10
1714.768542
 20
645.673211
 30
0.0
  0
POINT
  5
69F
330
671
100
AcDbEntity
  8
Defpoints
 62
     0
100
AcDbPoint
 10
1714.768542
 20
619.419563
 30
0.0
  0
ENDBLK
  5
673
330
671
100
AcDbEntity
  8
0
100
AcDbBlockEnd
  0
ENDSEC
  0
SECTION
  2
ENTITIES
  0
LINE
  5
FC
330
6B
100
AcDbEntity
  8
0
 62
     3
100
AcDbLine
 10
1714.768542
 20
645.673211
 30
0.0
 11
1714.768542
 21
700.673211
 31
0.0
  0
LINE
  5
FD
330
6B
100
AcDbEntity
  8
0
 62
     3
100
AcDbLine
 10
1617.268542
 20
700.673211
 30
0.0
 11
1617.268542
 21
645.673211
 31
0.0
  0
LINE
  5
FE
330
6B
100
AcDbEntity
  8
0
 62
     3
100
AcDbLine
 10
1619.768542
 20
703.173211
 30
0.0
 11
1712.268542
 21
703.173211
 31
0.0
  0
LINE
  5
FF
330
6B
100
AcDbEntity
  8
0
 62
     3
100
AcDbLine
 10
1617.268542
 20
645.673211
 30
0.0
 11
1714.768542
 21
645.673211
 31
0.0
  0
LINE
  5
100
330
6B
100
AcDbEntity
  8
0
 62
     3
100
AcDbLine
 10
1651.018542
 20
698.173211
 30
0.0
 11
1624.518542
 21
698.173211
 31
0.0
  0
LINE
  5
101
330
6B
100
AcDbEntity
  8
0
 62
     3
100
AcDbLine
 10
1651.018542
 20
683.173211
 30
0.0
 11
1624.518542
 21
683.173211
 31
0.0
  0
LINE
  5
102
330
6B
100
AcDbEntity
  8
0
 62
     3
100
AcDbLine
 10
1655.518542
 20
683.173211
 30
0.0
 11
1682.018542
 21
683.173211
 31
0.0
  0
LINE
  5
103
330
6B
100
AcDbEntity
  8
0
 62
     3
100
AcDbLine
 10
1655.518542
 20
698.173211
 30
0.0
 11
1682.018542
 21
698.173211
 31
0.0
  0
LINE
  5
104
330
6B
100
AcDbEntity
  8
0
 62
     3
100
AcDbLine
 10
1682.018542
 20
698.173211
 30
0.0
 11
1682.018542
 21
683.173211
 31
0.0
  0
LINE
  5
105
330
6B
100
AcDbEntity
  8
0
 62
     3
100
AcDbLine
 10
1655.518542
 20
683.173211
 30
0.0
 11
1655.518542
 21
698.173211
 31
0.0
  0
LINE
  5
106
330
6B
100
AcDbEntity
  8
0
 62
     3
100
AcDbLine
 10
1624.518542
 20
698.173211
 30
0.0
 11
1624.518542
 21
683.173211
 31
0.0
  0
LINE
  5
107
330
6B
100
AcDbEntity
  8
0
 62
     3
100
AcDbLine
 10
1651.018542
 20
683.173211
 30
0.0
 11
1651.018542
 21
698.173211
 31
0.0
  0
CIRCLE
  5
108
330
6B
100
AcDbEntity
  8
0
 62
     3
100
AcDbCircle
 10
1630.018542
 20
659.673211
 30
0.0
 40
8.0
  0
CIRCLE
  5
109
330
6B
100
AcDbEntity
  8
0
 62
     3
100
AcDbCircle
 10
1649.518542
 20
658.173211
 30
0.0
 40
4.0
  0
CIRCLE
  5
10A
330
6B
100
AcDbEntity
  8
0
 62
     3
100
AcDbCircle
 10
1666.018542
 20
658.173211
 30
0.0
 40
4.0
  0
LINE
  5
10B
330
6B
100
AcDbEntity
  8
0
 62
     3
100
AcDbLine
 10
1707.268542
 20
654.923211
 30
0.0
 11
1707.268542
 21
661.923211
 31
0.0
  0
LINE
  5
10C
330
6B
100
AcDbEntity
  8
0
 62
     3
100
AcDbLine
 10
1680.768542
 20
661.923211
 30
0.0
 11
1680.768542
 21
654.923211
 31
0.0
  0
LINE
  5
10D
330
6B
100
AcDbEntity
  8
0
 62
     3
100
AcDbLine
 10
1707.268542
 20
661.923211
 30
0.0
 11
1680.768542
 21
661.923211
 31
0.0
  0
LINE
  5
10E
330
6B
100
AcDbEntity
  8
0
 62
     3
100
AcDbLine
 10
1707.268542
 20
654.923211
 30
0.0
 11
1706.643542
 21
654.923211
 31
0.0
  0
LINE
  5
10F
330
6B
100
AcDbEntity
  8
0
 62
     3
100
AcDbLine
 10
1681.393542
 20
654.923211
 30
0.0
 11
1680.768542
 21
654.923211
 31
0.0
  0
LINE
  5
110
330
6B
100
AcDbEntity
  8
0
 62
     3
100
AcDbLine
 10
1688.393542
 20
654.923211
 30
0.0
 11
1685.643542
 21
654.923211
 31
0.0
  0
LINE
  5
111
330
6B
100
AcDbEntity
  8
0
 62
     3
100
AcDbLine
 10
1695.393542
 20
654.923211
 30
0.0
 11
1692.643542
 21
654.923211
 31
0.0
  0
LINE
  5
112
330
6B
100
AcDbEntity
  8
0
 62
     3
100
AcDbLine
 10
1702.393542
 20
654.923211
 30
0.0
 11
1699.643542
 21
654.923211
 31
0.0
  0
LINE
  5
113
330
6B
100
AcDbEntity
  8
0
 62
     3
100
AcDbLine
 10
1695.768542
 20
695.673211
 30
0.0
 11
1703.268542
 21
695.673211
 31
0.0
  0
LINE
  5
114
330
6B
100
AcDbEntity
  8
0
 62
     3
100
AcDbLine
 10
1703.268542
 20
684.673211
 30
0.0
 11
1695.768542
 21
684.673211
 31
0.0
  0
LINE
  5
115
330
6B
100
AcDbEntity
  8
0
 62
     3
100
AcDbLine
 10
1703.268542
 20
695.673211
 30
0.0
 11
1703.268542
 21
684.673211
 31
0.0
  0
LINE
  5
116
330
6B
100
AcDbEntity
  8
0
 62
     3
100
AcDbLine
 10
1695.768542
 20
695.673211
 30
0.0
 11
1695.768542
 21
684.673211
 31
0.0
  0
CIRCLE
  5
117
330
6B
100
AcDbEntity
  8
0
 62
     3
100
AcDbCircle
 10
1699.518542
 20
674.173211
 30
0.0
 40
3.75
  0
ARC
  5
118
330
6B
100
AcDbEntity
  8
0
 62
     3
100
AcDbCircle
 10
1712.268542
 20
700.673211
 30
0.0
 40
2.5
100
AcDbArc
 50
0.0
 51
90.0
  0
ARC
  5
119
330
6B
100
AcDbEntity
  8
0
 62
     3
100
AcDbCircle
 10
1619.768542
 20
700.673211
 30
0.0
 40
2.5
100
AcDbArc
 50
90.0
 51
180.0
  0
TEXT
  5
11A
330
6B
100
AcDbEntity
  8
0
 62
     3
100
AcDbText
 10
1630.335883
 20
699.345362
 30
0.0
 40
2.0
  1
DPS-1012M
100
AcDbText
  0
LINE
  5
11B
330
6B
100
AcDbEntity
  8
0
 62
     3
100
AcDbLine
 10
1741.880151
 20
703.173211
 30
0.0
 11
1854.380151
 21
703.173211
 31
0.0
  0
LINE
  5
11C
330
6B
100
AcDbEntity
  8
0
 62
     3
100
AcDbLine
 10
1741.880151
 20
645.673211
 30
0.0
 11
1854.380151
 21
645.673211
 31
0.0
  0
LINE
  5
11D
330
6B
100
AcDbEntity
  8
0
 62
     3
100
AcDbLine
 10
1741.880151
 20
703.173211
 30
0.0
 11
1741.880151
 21
645.673211
 31
0.0
  0
LINE
  5
11E
330
6B
100
AcDbEntity
  8
0
 62
     3
100
AcDbLine
 10
1854.380151
 20
645.673211
 30
0.0
 11
1854.380151
 21
703.173211
 31
0.0
  0
LINE
  5
11F
330
6B
100
AcDbEntity
  8
0
 62
     3
100
AcDbLine
 10
1751.880151
 20
674.987574
 30
0.0
 11
1793.130151
 21
674.987574
 31
0.0
  0
LINE
  5
120
330
6B
100
AcDbEntity
  8
0
 62
     3
100
AcDbLine
 10
1751.880151
 20
669.987574
 30
0.0
 11
1793.130151
 21
669.987574
 31
0.0
  0
LINE
  5
121
330
6B
100
AcDbEntity
  8
0
 62
     3
100
AcDbLine
 10
1751.880151
 20
664.9875739999999
 30
0.0
 11
1793.130151
 21
664.9875739999999
 31
0.0
  0
LINE
  5
122
330
6B
100
AcDbEntity
  8
0
 62
     3
100
AcDbLine
 10
1751.880151
 20
659.9875739999999
 30
0.0
 11
1793.130151
 21
659.9875739999999
 31
0.0
  0
LINE
  5
123
330
6B
100
AcDbEntity
  8
0
 62
     3
100
AcDbLine
 10
1751.880151
 20
654.987574
 30
0.0
 11
1793.130151
 21
654.987574
 31
0.0
  0
LINE
  5
124
330
6B
100
AcDbEntity
  8
0
 62
     3
100
AcDbLine
 10
1844.380151
 20
674.987574
 30
0.0
 11
1803.130151
 21
674.987574
 31
0.0
  0
LINE
  5
125
330
6B
100
AcDbEntity
  8
0
 62
     3
100
AcDbLine
 10
1844.380151
 20
669.987574
 30
0.0
 11
1803.130151
 21
669.987574
 31
0.0
  0
LINE
  5
126
330
6B
100
AcDbEntity
  8
0
 62
     3
100
AcDbLine
 10
1844.380151
 20
664.9875739999999
 30
0.0
 11
1803.130151
 21
664.9875739999999
 31
0.0
  0
LINE
  5
127
330
6B
100
AcDbEntity
  8
0
 62
     3
100
AcDbLine
 10
1844.380151
 20
659.9875739999999
 30
0.0
 11
1803.130151
 21
659.9875739999999
 31
0.0
  0
LINE
  5
128
330
6B
100
AcDbEntity
  8
0
 62
     3
100
AcDbLine
 10
1844.380151
 20
654.987574
 30
0.0
 11
1803.130151
 21
654.987574
 31
0.0
  0
LINE
  5
129
330
6B
100
AcDbEntity
  8
0
 62
     3
100
AcDbLine
 10
1870.650119
 20
700.673211
 30
0.0
 11
1870.650119
 21
645.673211
 31
0.0
  0
LINE
  5
12A
330
6B
100
AcDbEntity
  8
0
 62
     3
100
AcDbLine
 10
1968.150119
 20
645.673211
 30
0.0
 11
1968.150119
 21
700.673211
 31
0.0
  0
ARC
  5
12B
330
6B
100
AcDbEntity
  8
0
 62
     3
100
AcDbCircle
 10
1965.650119
 20
700.673211
 30
0.0
 40
2.5
100
AcDbArc
 50
0.0
 51
90.0
  0
LINE
  5
12C
330
6B
100
AcDbEntity
  8
0
 62
     3
100
AcDbLine
 10
1873.150119
 20
703.173211
 30
0.0
 11
1965.650119
 21
703.173211
 31
0.0
  0
ARC
  5
12D
330
6B
100
AcDbEntity
  8
0
 62
     3
100
AcDbCircle
 10
1873.150119
 20
700.673211
 30
0.0
 40
2.5
100
AcDbArc
 50
90.0
 51
180.0
  0
LINE
  5
12E
330
6B
100
AcDbEntity
  8
0
 62
     3
100
AcDbLine
 10
1870.650119
 20
645.673211
 30
0.0
 11
1895.400119
 21
645.673211
 31
0.0
  0
CIRCLE
  5
12F
330
6B
100
AcDbEntity
  8
0
 62
     3
100
AcDbCircle
 10
1881.900119
 20
657.673211
 30
0.0
 40
3.75
  0
LINE
  5
130
330
6B
100
AcDbEntity
  8
0
 62
     3
100
AcDbLine
 10
1898.400119
 20
645.673211
 30
0.0
 11
1968.150119
 21
645.673211
 31
0.0
  0
LINE
  5
131
330
6B
100
AcDbEntity
  8
0
 62
     7
100
AcDbLine
 10
1684.518542
 20
698.673211
 30
0.0
 11
1622.018542
 21
698.673211
 31
0.0
  0
LINE
  5
132
330
6B
100
AcDbEntity
  8
0
 62
     7
100
AcDbLine
 10
1684.518542
 20
678.423211
 30
0.0
 11
1622.018542
 21
678.423211
 31
0.0
  0
CIRCLE
  5
133
330
6B
100
AcDbEntity
  8
0
 62
     7
100
AcDbCircle
 10
1684.018542
 20
690.673211
 30
0.0
 40
1.625
  0
CIRCLE
  5
134
330
6B
100
AcDbEntity
  8
0
 62
     7
100
AcDbCircle
 10
1653.268542
 20
690.673211
 30
0.0
 40
1.625
  0
CIRCLE
  5
135
330
6B
100
AcDbEntity
  8
0
 62
     7
100
AcDbCircle
 10
1622.518542
 20
690.673211
 30
0.0
 40
1.625
  0
LINE
  5
136
330
6B
100
AcDbEntity
  8
0
 62
     7
100
AcDbLine
 10
1620.518542
 20
679.923211
 30
0.0
 11
1620.518542
 21
697.173211
 31
0.0
  0
LINE
  5
137
330
6B
100
AcDbEntity
  8
0
 62
     7
100
AcDbLine
 10
1686.018542
 20
697.173211
 30
0.0
 11
1686.018542
 21
679.923211
 31
0.0
  0
LINE
  5
138
330
6B
100
AcDbEntity
  8
0
 62
     7
100
AcDbLine
 10
1673.518542
 20
678.923211
 30
0.0
 11
1665.018542
 21
678.923211
 31
0.0
  0
LINE
  5
139
330
6B
100
AcDbEntity
  8
0
 62
     7
100
AcDbLine
 10
1673.518542
 20
681.923211
 30
0.0
 11
1665.018542
 21
681.923211
 31
0.0
  0
ARC
  5
13A
330
6B
100
AcDbEntity
  8
0
 62
     7
100
AcDbCircle
 10
1673.518542
 20
680.423211
 30
0.0
 40
1.5
100
AcDbArc
 50
270.0
 51
90.0
  0
ARC
  5
13B
330
6B
100
AcDbEntity
  8
0
 62
     7
100
AcDbCircle
 10
1665.018542
 20
680.423211
 30
0.0
 40
1.5
100
AcDbArc
 50
90.0
 51
270.0
  0
ARC
  5
13C
330
6B
100
AcDbEntity
  8
0
 62
     7
100
AcDbCircle
 10
1642.018542
 20
680.423211
 30
0.0
 40
1.5
100
AcDbArc
 50
270.0
 51
90.0
  0
ARC
  5
13D
330
6B
100
AcDbEntity
  8
0
 62
     7
100
AcDbCircle
 10
1633.518542
 20
680.423211
 30
0.0
 40
1.5
100
AcDbArc
 50
90.0
 51
270.0
  0
LINE
  5
13E
330
6B
100
AcDbEntity
  8
0
 62
     7
100
AcDbLine
 10
1642.018542
 20
681.923211
 30
0.0
 11
1633.518542
 21
681.923211
 31
0.0
  0
LINE
  5
13F
330
6B
100
AcDbEntity
  8
0
 62
     7
100
AcDbLine
 10
1642.018542
 20
678.923211
 30
0.0
 11
1633.518542
 21
678.923211
 31
0.0
  0
LINE
  5
140
330
6B
100
AcDbEntity
  8
0
 62
     7
100
AcDbLine
 10
1639.518542
 20
673.173211
 30
0.0
 11
1639.518542
 21
649.173211
 31
0.0
  0
LINE
  5
141
330
6B
100
AcDbEntity
  8
0
 62
     7
100
AcDbLine
 10
1620.518542
 20
673.173211
 30
0.0
 11
1620.518542
 21
649.173211
 31
0.0
  0
LINE
  5
142
330
6B
100
AcDbEntity
  8
0
 62
     7
100
AcDbLine
 10
1622.018542
 20
647.673211
 30
0.0
 11
1638.018542
 21
647.673211
 31
0.0
  0
LINE
  5
143
330
6B
100
AcDbEntity
  8
0
 62
     7
100
AcDbLine
 10
1622.018542
 20
674.673211
 30
0.0
 11
1638.018542
 21
674.673211
 31
0.0
  0
LINE
  5
144
330
6B
100
AcDbEntity
  8
0
 62
     7
100
AcDbLine
 10
1624.018542
 20
674.173211
 30
0.0
 11
1636.018542
 21
674.173211
 31
0.0
  0
LINE
  5
145
330
6B
100
AcDbEntity
  8
0
 62
     7
100
AcDbLine
 10
1624.018542
 20
670.673211
 30
0.0
 11
1628.768176
 21
670.673211
 31
0.0
  0
ARC
  5
146
330
6B
100
AcDbEntity
  8
0
 62
     7
100
AcDbCircle
 10
1636.018542
 20
672.423211
 30
0.0
 40
1.75
100
AcDbArc
 50
270.0
 51
90.0
  0
ARC
  5
147
330
6B
100
AcDbEntity
  8
0
 62
     7
100
AcDbCircle
 10
1624.018542
 20
672.423211
 30
0.0
 40
1.75
100
AcDbArc
 50
90.0
 51
270.0
  0
LINE
  5
148
330
6B
100
AcDbEntity
  8
0
 62
     7
100
AcDbLine
 10
1631.518542
 20
651.815094
 30
0.0
 11
1631.518542
 21
650.923211
 31
0.0
  0
LINE
  5
149
330
6B
100
AcDbEntity
  8
0
 62
     7
100
AcDbLine
 10
1628.518542
 20
651.815094
 30
0.0
 11
1628.518542
 21
650.923211
 31
0.0
  0
LINE
  5
14A
330
6B
100
AcDbEntity
  8
0
 62
     7
100
AcDbLine
 10
1628.518542
 20
650.923211
 30
0.0
 11
1631.518542
 21
650.923211
 31
0.0
  0
LINE
  5
14B
330
6B
100
AcDbEntity
  8
0
 62
     7
100
AcDbLine
 10
1629.201189
 20
670.923211
 30
0.0
 11
1630.835894
 21
670.923211
 31
0.0
  0
LINE
  5
14C
330
6B
100
AcDbEntity
  8
0
 62
     7
100
AcDbLine
 10
1631.768542
 20
667.479458
 30
0.0
 11
1631.330706
 21
670.4950529999999
 31
0.0
  0
LINE
  5
14D
330
6B
100
AcDbEntity
  8
0
 62
     7
100
AcDbLine
 10
1628.706377
 20
670.4950529999999
 30
0.0
 11
1628.268542
 21
667.479458
 31
0.0
  0
ARC
  5
14E
330
6B
100
AcDbEntity
  8
0
 62
     7
100
AcDbCircle
 10
1630.835894
 20
670.423211
 30
0.0
 40
0.5
100
AcDbArc
 50
8.261074999999999
 51
90.0
  0
ARC
  5
14F
330
6B
100
AcDbEntity
  8
0
 62
     7
100
AcDbCircle
 10
1629.201189
 20
670.423211
 30
0.0
 40
0.5
100
AcDbArc
 50
90.0
 51
171.738925
  0
ARC
  5
150
330
6B
100
AcDbEntity
  8
0
 62
     7
100
AcDbCircle
 10
1638.018542
 20
673.173211
 30
0.0
 40
1.5
100
AcDbArc
 50
0.0
 51
90.0
  0
ARC
  5
151
330
6B
100
AcDbEntity
  8
0
 62
     7
100
AcDbCircle
 10
1622.018542
 20
673.173211
 30
0.0
 40
1.5
100
AcDbArc
 50
90.0
 51
180.0
  0
ARC
  5
152
330
6B
100
AcDbEntity
  8
0
 62
     7
100
AcDbCircle
 10
1638.018542
 20
649.173211
 30
0.0
 40
1.5
100
AcDbArc
 50
270.0
 51
0.0
  0
ARC
  5
153
330
6B
100
AcDbEntity
  8
0
 62
     7
100
AcDbCircle
 10
1622.018542
 20
649.173211
 30
0.0
 40
1.5
100
AcDbArc
 50
180.0
 51
270.0
  0
ARC
  5
154
330
6B
100
AcDbEntity
  8
0
 62
     7
100
AcDbCircle
 10
1684.518542
 20
679.923211
 30
0.0
 40
1.5
100
AcDbArc
 50
270.0
 51
0.0
  0
ARC
  5
155
330
6B
100
AcDbEntity
  8
0
 62
     7
100
AcDbCircle
 10
1684.518542
 20
697.173211
 30
0.0
 40
1.5
100
AcDbArc
 50
0.0
 51
90.0
  0
ARC
  5
156
330
6B
100
AcDbEntity
  8
0
 62
     7
100
AcDbCircle
 10
1622.018542
 20
697.173211
 30
0.0
 40
1.5
100
AcDbArc
 50
90.0
 51
180.0
  0
ARC
  5
157
330
6B
100
AcDbEntity
  8
0
 62
     7
100
AcDbCircle
 10
1622.018542
 20
679.923211
 30
0.0
 40
1.5
100
AcDbArc
 50
180.0
 51
270.0
  0
LINE
  5
158
330
6B
100
AcDbEntity
  8
0
 62
     7
100
AcDbLine
 10
1624.768542
 20
649.423211
 30
0.0
 11
1630.643542
 21
649.423211
 31
0.0
  0
CIRCLE
  5
159
330
6B
100
AcDbEntity
  8
0
 62
     7
100
AcDbCircle
 10
1630.018542
 20
649.423211
 30
0.0
 40
0.625
  0
ARC
  5
15A
330
6B
100
AcDbEntity
  8
0
 62
     7
100
AcDbCircle
 10
1630.018542
 20
649.423211
 30
0.0
 40
1.125
100
AcDbArc
 50
206.3878
 51
153.6122
  0
LINE
  5
15B
330
6B
100
AcDbEntity
  8
0
 62
     7
100
AcDbLine
 10
1631.143542
 20
649.423211
 30
0.0
 11
1635.268542
 21
649.423211
 31
0.0
  0
LINE
  5
15C
330
6B
100
AcDbEntity
  8
0
 62
     7
100
AcDbLine
 10
1631.268907
 20
670.673211
 30
0.0
 11
1636.018542
 21
670.673211
 31
0.0
  0
LINE
  5
15D
330
6B
100
AcDbEntity
  8
0
 62
     7
100
AcDbLine
 10
1629.128594
 20
669.923211
 30
0.0
 11
1630.90849
 21
669.923211
 31
0.0
  0
LINE
  5
15E
330
6B
100
AcDbEntity
  8
0
 62
     7
100
AcDbLine
 10
1629.055999
 20
669.423211
 30
0.0
 11
1630.981085
 21
669.423211
 31
0.0
  0
LINE
  5
15F
330
6B
100
AcDbEntity
  8
0
 62
     7
100
AcDbLine
 10
1628.983403
 20
668.923211
 30
0.0
 11
1631.05368
 21
668.923211
 31
0.0
  0
LINE
  5
160
330
6B
100
AcDbEntity
  8
0
 62
     7
100
AcDbLine
 10
1628.910808
 20
668.423211
 30
0.0
 11
1631.126275
 21
668.423211
 31
0.0
  0
CIRCLE
  5
161
330
6B
100
AcDbEntity
  8
0
 62
     7
100
AcDbCircle
 10
1649.518542
 20
658.173211
 30
0.0
 40
2.0
  0
CIRCLE
  5
162
330
6B
100
AcDbEntity
  8
0
 62
     7
100
AcDbCircle
 10
1666.018542
 20
658.173211
 30
0.0
 40
2.0
  0
LINE
  5
163
330
6B
100
AcDbEntity
  8
0
 62
     7
100
AcDbLine
 10
1671.268542
 20
665.673211
 30
0.0
 11
1671.268542
 21
649.173211
 31
0.0
  0
LINE
  5
164
330
6B
100
AcDbEntity
  8
0
 62
     7
100
AcDbLine
 10
1644.268542
 20
665.673211
 30
0.0
 11
1644.268542
 21
649.173211
 31
0.0
  0
LINE
  5
165
330
6B
100
AcDbEntity
  8
0
 62
     7
100
AcDbLine
 10
1645.768542
 20
667.173211
 30
0.0
 11
1669.768542
 21
667.173211
 31
0.0
  0
LINE
  5
166
330
6B
100
AcDbEntity
  8
0
 62
     7
100
AcDbLine
 10
1645.768542
 20
647.673211
 30
0.0
 11
1669.768542
 21
647.673211
 31
0.0
  0
ARC
  5
167
330
6B
100
AcDbEntity
  8
0
 62
     7
100
AcDbCircle
 10
1669.768542
 20
665.673211
 30
0.0
 40
1.5
100
AcDbArc
 50
0.0
 51
90.0
  0
ARC
  5
168
330
6B
100
AcDbEntity
  8
0
 62
     7
100
AcDbCircle
 10
1645.768542
 20
665.673211
 30
0.0
 40
1.5
100
AcDbArc
 50
90.0
 51
180.0
  0
ARC
  5
169
330
6B
100
AcDbEntity
  8
0
 62
     7
100
AcDbCircle
 10
1645.768542
 20
649.173211
 30
0.0
 40
1.5
100
AcDbArc
 50
180.0
 51
270.0
  0
ARC
  5
16A
330
6B
100
AcDbEntity
  8
0
 62
     7
100
AcDbCircle
 10
1669.768542
 20
649.173211
 30
0.0
 40
1.5
100
AcDbArc
 50
270.0
 51
0.0
  0
LINE
  5
16B
330
6B
100
AcDbEntity
  8
0
 62
     7
100
AcDbLine
 10
1647.893542
 20
666.673211
 30
0.0
 11
1667.643542
 21
666.673211
 31
0.0
  0
LINE
  5
16C
330
6B
100
AcDbEntity
  8
0
 62
     7
100
AcDbLine
 10
1647.893542
 20
662.923211
 30
0.0
 11
1667.643542
 21
662.923211
 31
0.0
  0
ARC
  5
16D
330
6B
100
AcDbEntity
  8
0
 62
     7
100
AcDbCircle
 10
1667.643542
 20
664.798211
 30
0.0
 40
1.875
100
AcDbArc
 50
270.0
 51
90.0
  0
ARC
  5
16E
330
6B
100
AcDbEntity
  8
0
 62
     7
100
AcDbCircle
 10
1647.893542
 20
664.798211
 30
0.0
 40
1.875
100
AcDbArc
 50
90.0
 51
270.0
  0
LINE
  5
16F
330
6B
100
AcDbEntity
  8
0
 62
     7
100
AcDbLine
 10
1711.018542
 20
667.173211
 30
0.0
 11
1677.018542
 21
667.173211
 31
0.0
  0
LINE
  5
170
330
6B
100
AcDbEntity
  8
0
 62
     7
100
AcDbLine
 10
1677.018542
 20
647.673211
 30
0.0
 11
1711.018542
 21
647.673211
 31
0.0
  0
LINE
  5
171
330
6B
100
AcDbEntity
  8
0
 62
     7
100
AcDbLine
 10
1675.518542
 20
665.673211
 30
0.0
 11
1675.518542
 21
649.173211
 31
0.0
  0
LINE
  5
172
330
6B
100
AcDbEntity
  8
0
 62
     7
100
AcDbLine
 10
1712.518542
 20
665.673211
 30
0.0
 11
1712.518542
 21
649.173211
 31
0.0
  0
ARC
  5
173
330
6B
100
AcDbEntity
  8
0
 62
     7
100
AcDbCircle
 10
1711.018542
 20
665.673211
 30
0.0
 40
1.5
100
AcDbArc
 50
0.0
 51
90.0
  0
ARC
  5
174
330
6B
100
AcDbEntity
  8
0
 62
     7
100
AcDbCircle
 10
1677.018542
 20
665.673211
 30
0.0
 40
1.5
100
AcDbArc
 50
90.0
 51
180.0
  0
ARC
  5
175
330
6B
100
AcDbEntity
  8
0
 62
     7
100
AcDbCircle
 10
1677.018542
 20
649.173211
 30
0.0
 40
1.5
100
AcDbArc
 50
180.0
 51
270.0
  0
ARC
  5
176
330
6B
100
AcDbEntity
  8
0
 62
     7
100
AcDbCircle
 10
1711.018542
 20
649.173211
 30
0.0
 40
1.5
100
AcDbArc
 50
270.0
 51
0.0
  0
LINE
  5
177
330
6B
100
AcDbEntity
  8
0
 62
     7
100
AcDbLine
 10
1706.643542
 20
666.673211
 30
0.0
 11
1681.393542
 21
666.673211
 31
0.0
  0
LINE
  5
178
330
6B
100
AcDbEntity
  8
0
 62
     7
100
AcDbLine
 10
1706.643542
 20
662.923211
 30
0.0
 11
1681.393542
 21
662.923211
 31
0.0
  0
ARC
  5
179
330
6B
100
AcDbEntity
  8
0
 62
     7
100
AcDbCircle
 10
1706.643542
 20
664.798211
 30
0.0
 40
1.875
100
AcDbArc
 50
270.0
 51
90.0
  0
ARC
  5
17A
330
6B
100
AcDbEntity
  8
0
 62
     7
100
AcDbCircle
 10
1681.393542
 20
664.798211
 30
0.0
 40
1.875
100
AcDbArc
 50
90.0
 51
270.0
  0
LINE
  5
17B
330
6B
100
AcDbEntity
  8
0
 62
     7
100
AcDbLine
 10
1697.843542
 20
659.823211
 30
0.0
 11
1697.193542
 21
659.823211
 31
0.0
  0
LINE
  5
17C
330
6B
100
AcDbEntity
  8
0
 62
     7
100
AcDbLine
 10
1697.843542
 20
658.2232109999999
 30
0.0
 11
1697.193542
 21
658.2232109999999
 31
0.0
  0
ARC
  5
17D
330
6B
100
AcDbEntity
  8
0
 62
     7
100
AcDbCircle
 10
1697.843542
 20
659.023211
 30
0.0
 40
0.8
100
AcDbArc
 50
270.0
 51
90.0
  0
ARC
  5
17E
330
6B
100
AcDbEntity
  8
0
 62
     7
100
AcDbCircle
 10
1697.193542
 20
659.023211
 30
0.0
 40
0.8
100
AcDbArc
 50
90.0
 51
270.0
  0
LINE
  5
17F
330
6B
100
AcDbEntity
  8
0
 62
     7
100
AcDbLine
 10
1704.843542
 20
658.2232109999999
 30
0.0
 11
1704.193542
 21
658.2232109999999
 31
0.0
  0
LINE
  5
180
330
6B
100
AcDbEntity
  8
0
 62
     7
100
AcDbLine
 10
1704.843542
 20
659.823211
 30
0.0
 11
1704.193542
 21
659.823211
 31
0.0
  0
ARC
  5
181
330
6B
100
AcDbEntity
  8
0
 62
     7
100
AcDbCircle
 10
1704.843542
 20
659.023211
 30
0.0
 40
0.8
100
AcDbArc
 50
270.0
 51
90.0
  0
ARC
  5
182
330
6B
100
AcDbEntity
  8
0
 62
     7
100
AcDbCircle
 10
1704.193542
 20
659.023211
 30
0.0
 40
0.8
100
AcDbArc
 50
90.0
 51
270.0
  0
LINE
  5
183
330
6B
100
AcDbEntity
  8
0
 62
     7
100
AcDbLine
 10
1690.843542
 20
658.2232109999999
 30
0.0
 11
1690.193542
 21
658.2232109999999
 31
0.0
  0
LINE
  5
184
330
6B
100
AcDbEntity
  8
0
 62
     7
100
AcDbLine
 10
1690.843542
 20
659.823211
 30
0.0
 11
1690.193542
 21
659.823211
 31
0.0
  0
ARC
  5
185
330
6B
100
AcDbEntity
  8
0
 62
     7
100
AcDbCircle
 10
1690.843542
 20
659.023211
 30
0.0
 40
0.8
100
AcDbArc
 50
270.0
 51
90.0
  0
ARC
  5
186
330
6B
100
AcDbEntity
  8
0
 62
     7
100
AcDbCircle
 10
1690.193542
 20
659.023211
 30
0.0
 40
0.8
100
AcDbArc
 50
90.0
 51
270.0
  0
LINE
  5
187
330
6B
100
AcDbEntity
  8
0
 62
     7
100
AcDbLine
 10
1683.843542
 20
658.2232109999999
 30
0.0
 11
1683.193542
 21
658.2232109999999
 31
0.0
  0
LINE
  5
188
330
6B
100
AcDbEntity
  8
0
 62
     7
100
AcDbLine
 10
1683.843542
 20
659.823211
 30
0.0
 11
1683.193542
 21
659.823211
 31
0.0
  0
ARC
  5
189
330
6B
100
AcDbEntity
  8
0
 62
     7
100
AcDbCircle
 10
1683.843542
 20
659.023211
 30
0.0
 40
0.8
100
AcDbArc
 50
270.0
 51
90.0
  0
ARC
  5
18A
330
6B
100
AcDbEntity
  8
0
 62
     7
100
AcDbCircle
 10
1683.193542
 20
659.023211
 30
0.0
 40
0.8
100
AcDbArc
 50
90.0
 51
270.0
  0
LINE
  5
18B
330
6B
100
AcDbEntity
  8
0
 62
     7
100
AcDbLine
 10
1685.768542
 20
660.423211
 30
0.0
 11
1681.268542
 21
660.423211
 31
0.0
  0
LINE
  5
18C
330
6B
100
AcDbEntity
  8
0
 62
     7
100
AcDbLine
 10
1706.768542
 20
660.423211
 30
0.0
 11
1706.768542
 21
657.6232110000001
 31
0.0
  0
LINE
  5
18D
330
6B
100
AcDbEntity
  8
0
 62
     7
100
AcDbLine
 10
1702.268542
 20
657.6232110000001
 30
0.0
 11
1702.268542
 21
660.423211
 31
0.0
  0
LINE
  5
18E
330
6B
100
AcDbEntity
  8
0
 62
     7
100
AcDbLine
 10
1699.768542
 20
660.423211
 30
0.0
 11
1699.768542
 21
657.6232110000001
 31
0.0
  0
LINE
  5
18F
330
6B
100
AcDbEntity
  8
0
 62
     7
100
AcDbLine
 10
1695.268542
 20
657.6232110000001
 30
0.0
 11
1695.268542
 21
660.423211
 31
0.0
  0
LINE
  5
190
330
6B
100
AcDbEntity
  8
0
 62
     7
100
AcDbLine
 10
1692.768542
 20
660.423211
 30
0.0
 11
1692.768542
 21
657.6232110000001
 31
0.0
  0
LINE
  5
191
330
6B
100
AcDbEntity
  8
0
 62
     7
100
AcDbLine
 10
1688.268542
 20
660.423211
 30
0.0
 11
1688.268542
 21
657.6232110000001
 31
0.0
  0
LINE
  5
192
330
6B
100
AcDbEntity
  8
0
 62
     7
100
AcDbLine
 10
1685.768542
 20
660.423211
 30
0.0
 11
1685.768542
 21
657.6232110000001
 31
0.0
  0
LINE
  5
193
330
6B
100
AcDbEntity
  8
0
 62
     7
100
AcDbLine
 10
1681.268542
 20
657.6232110000001
 30
0.0
 11
1681.268542
 21
660.423211
 31
0.0
  0
LINE
  5
194
330
6B
100
AcDbEntity
  8
0
 62
     7
100
AcDbLine
 10
1685.768542
 20
657.6232110000001
 30
0.0
 11
1681.268542
 21
657.6232110000001
 31
0.0
  0
LINE
  5
195
330
6B
100
AcDbEntity
  8
0
 62
     7
100
AcDbLine
 10
1706.768542
 20
660.423211
 30
0.0
 11
1705.41625
 21
659.5817849999999
 31
0.0
  0
LINE
  5
196
330
6B
100
AcDbEntity
  8
0
 62
     7
100
AcDbLine
 10
1702.268542
 20
660.423211
 30
0.0
 11
1703.620833
 21
659.5817849999999
 31
0.0
  0
LINE
  5
197
330
6B
100
AcDbEntity
  8
0
 62
     7
100
AcDbLine
 10
1705.41625
 20
658.464636
 30
0.0
 11
1706.768542
 21
657.6232110000001
 31
0.0
  0
LINE
  5
198
330
6B
100
AcDbEntity
  8
0
 62
     7
100
AcDbLine
 10
1703.620833
 20
658.464636
 30
0.0
 11
1702.268542
 21
657.6232110000001
 31
0.0
  0
LINE
  5
199
330
6B
100
AcDbEntity
  8
0
 62
     7
100
AcDbLine
 10
1699.768542
 20
660.423211
 30
0.0
 11
1698.41625
 21
659.5817849999999
 31
0.0
  0
LINE
  5
19A
330
6B
100
AcDbEntity
  8
0
 62
     7
100
AcDbLine
 10
1696.620833
 20
658.464636
 30
0.0
 11
1695.268542
 21
657.6232110000001
 31
0.0
  0
LINE
  5
19B
330
6B
100
AcDbEntity
  8
0
 62
     7
100
AcDbLine
 10
1695.268542
 20
660.423211
 30
0.0
 11
1696.620833
 21
659.5817849999999
 31
0.0
  0
LINE
  5
19C
330
6B
100
AcDbEntity
  8
0
 62
     7
100
AcDbLine
 10
1698.41625
 20
658.464636
 30
0.0
 11
1699.768542
 21
657.6232110000001
 31
0.0
  0
LINE
  5
19D
330
6B
100
AcDbEntity
  8
0
 62
     7
100
AcDbLine
 10
1692.768542
 20
660.423211
 30
0.0
 11
1691.41625
 21
659.5817849999999
 31
0.0
  0
LINE
  5
19E
330
6B
100
AcDbEntity
  8
0
 62
     7
100
AcDbLine
 10
1689.620833
 20
658.464636
 30
0.0
 11
1688.268542
 21
657.6232110000001
 31
0.0
  0
LINE
  5
19F
330
6B
100
AcDbEntity
  8
0
 62
     7
100
AcDbLine
 10
1688.268542
 20
660.423211
 30
0.0
 11
1689.620833
 21
659.5817849999999
 31
0.0
  0
LINE
  5
1A0
330
6B
100
AcDbEntity
  8
0
 62
     7
100
AcDbLine
 10
1691.41625
 20
658.464636
 30
0.0
 11
1692.768542
 21
657.6232110000001
 31
0.0
  0
LINE
  5
1A1
330
6B
100
AcDbEntity
  8
0
 62
     7
100
AcDbLine
 10
1685.768542
 20
660.423211
 30
0.0
 11
1684.41625
 21
659.5817849999999
 31
0.0
  0
LINE
  5
1A2
330
6B
100
AcDbEntity
  8
0
 62
     7
100
AcDbLine
 10
1682.620832999999
 20
658.464636
 30
0.0
 11
1681.268542
 21
657.6232110000001
 31
0.0
  0
LINE
  5
1A3
330
6B
100
AcDbEntity
  8
0
 62
     7
100
AcDbLine
 10
1681.268542
 20
660.423211
 30
0.0
 11
1682.620832999999
 21
659.5817849999999
 31
0.0
  0
LINE
  5
1A4
330
6B
100
AcDbEntity
  8
0
 62
     7
100
AcDbLine
 10
1684.41625
 20
658.464636
 30
0.0
 11
1685.768542
 21
657.6232110000001
 31
0.0
  0
LINE
  5
1A5
330
6B
100
AcDbEntity
  8
0
 62
     7
100
AcDbLine
 10
1688.268542
 20
660.423211
 30
0.0
 11
1692.768542
 21
660.423211
 31
0.0
  0
LINE
  5
1A6
330
6B
100
AcDbEntity
  8
0
 62
     7
100
AcDbLine
 10
1688.268542
 20
657.6232110000001
 30
0.0
 11
1692.768542
 21
657.6232110000001
 31
0.0
  0
LINE
  5
1A7
330
6B
100
AcDbEntity
  8
0
 62
     7
100
AcDbLine
 10
1695.268542
 20
657.6232110000001
 30
0.0
 11
1699.768542
 21
657.6232110000001
 31
0.0
  0
LINE
  5
1A8
330
6B
100
AcDbEntity
  8
0
 62
     7
100
AcDbLine
 10
1695.268542
 20
660.423211
 30
0.0
 11
1699.768542
 21
660.423211
 31
0.0
  0
LINE
  5
1A9
330
6B
100
AcDbEntity
  8
0
 62
     7
100
AcDbLine
 10
1702.268542
 20
660.423211
 30
0.0
 11
1706.768542
 21
660.423211
 31
0.0
  0
LINE
  5
1AA
330
6B
100
AcDbEntity
  8
0
 62
     7
100
AcDbLine
 10
1702.268542
 20
657.6232110000001
 30
0.0
 11
1706.768542
 21
657.6232110000001
 31
0.0
  0
LINE
  5
1AB
330
6B
100
AcDbEntity
  8
0
 62
     7
100
AcDbLine
 10
1707.268542
 20
660.923211
 30
0.0
 11
1680.768542
 21
660.923211
 31
0.0
  0
LINE
  5
1AC
330
6B
100
AcDbEntity
  8
0
 62
     7
100
AcDbLine
 10
1680.768542
 20
657.1232110000001
 30
0.0
 11
1707.268542
 21
657.1232110000001
 31
0.0
  0
LINE
  5
1AD
330
6B
100
AcDbEntity
  8
0
 62
     7
100
AcDbLine
 10
1681.393542
 20
654.373211
 30
0.0
 11
1685.643542
 21
654.373211
 31
0.0
  0
LINE
  5
1AE
330
6B
100
AcDbEntity
  8
0
 62
     7
100
AcDbLine
 10
1699.643542
 20
657.1232110000001
 30
0.0
 11
1699.643542
 21
654.373211
 31
0.0
  0
LINE
  5
1AF
330
6B
100
AcDbEntity
  8
0
 62
     7
100
AcDbLine
 10
1695.393542
 20
657.1232110000001
 30
0.0
 11
1695.393542
 21
654.373211
 31
0.0
  0
LINE
  5
1B0
330
6B
100
AcDbEntity
  8
0
 62
     7
100
AcDbLine
 10
1706.643542
 20
657.1232110000001
 30
0.0
 11
1706.643542
 21
654.373211
 31
0.0
  0
LINE
  5
1B1
330
6B
100
AcDbEntity
  8
0
 62
     7
100
AcDbLine
 10
1702.393542
 20
657.1232110000001
 30
0.0
 11
1702.393542
 21
654.373211
 31
0.0
  0
LINE
  5
1B2
330
6B
100
AcDbEntity
  8
0
 62
     7
100
AcDbLine
 10
1685.643542
 20
657.1232110000001
 30
0.0
 11
1685.643542
 21
654.373211
 31
0.0
  0
LINE
  5
1B3
330
6B
100
AcDbEntity
  8
0
 62
     7
100
AcDbLine
 10
1681.393542
 20
657.1232110000001
 30
0.0
 11
1681.393542
 21
654.373211
 31
0.0
  0
LINE
  5
1B4
330
6B
100
AcDbEntity
  8
0
 62
     7
100
AcDbLine
 10
1692.643542
 20
657.1232110000001
 30
0.0
 11
1692.643542
 21
654.373211
 31
0.0
  0
LINE
  5
1B5
330
6B
100
AcDbEntity
  8
0
 62
     7
100
AcDbLine
 10
1688.393542
 20
657.1232110000001
 30
0.0
 11
1688.393542
 21
654.373211
 31
0.0
  0
LINE
  5
1B6
330
6B
100
AcDbEntity
  8
0
 62
     7
100
AcDbLine
 10
1702.393542
 20
654.373211
 30
0.0
 11
1706.643542
 21
654.373211
 31
0.0
  0
LINE
  5
1B7
330
6B
100
AcDbEntity
  8
0
 62
     7
100
AcDbLine
 10
1695.393542
 20
654.373211
 30
0.0
 11
1699.643542
 21
654.373211
 31
0.0
  0
LINE
  5
1B8
330
6B
100
AcDbEntity
  8
0
 62
     7
100
AcDbLine
 10
1688.393542
 20
654.373211
 30
0.0
 11
1692.643542
 21
654.373211
 31
0.0
  0
LINE
  5
1B9
330
6B
100
AcDbEntity
  8
0
 62
     7
100
AcDbLine
 10
1702.893542
 20
654.8732110000001
 30
0.0
 11
1706.143542
 21
654.8732110000001
 31
0.0
  0
LINE
  5
1BA
330
6B
100
AcDbEntity
  8
0
 62
     7
100
AcDbLine
 10
1702.893542
 20
655.3732110000001
 30
0.0
 11
1706.143542
 21
655.3732110000001
 31
0.0
  0
LINE
  5
1BB
330
6B
100
AcDbEntity
  8
0
 62
     7
100
AcDbLine
 10
1702.893542
 20
655.8732110000001
 30
0.0
 11
1706.143542
 21
655.8732110000001
 31
0.0
  0
LINE
  5
1BC
330
6B
100
AcDbEntity
  8
0
 62
     7
100
AcDbLine
 10
1702.893542
 20
656.3732110000001
 30
0.0
 11
1706.143542
 21
656.3732110000001
 31
0.0
  0
LINE
  5
1BD
330
6B
100
AcDbEntity
  8
0
 62
     7
100
AcDbLine
 10
1695.893542
 20
654.8732110000001
 30
0.0
 11
1699.143542
 21
654.8732110000001
 31
0.0
  0
LINE
  5
1BE
330
6B
100
AcDbEntity
  8
0
 62
     7
100
AcDbLine
 10
1695.893542
 20
655.3732110000001
 30
0.0
 11
1699.143542
 21
655.3732110000001
 31
0.0
  0
LINE
  5
1BF
330
6B
100
AcDbEntity
  8
0
 62
     7
100
AcDbLine
 10
1695.893542
 20
655.8732110000001
 30
0.0
 11
1699.143542
 21
655.8732110000001
 31
0.0
  0
LINE
  5
1C0
330
6B
100
AcDbEntity
  8
0
 62
     7
100
AcDbLine
 10
1695.893542
 20
656.3732110000001
 30
0.0
 11
1699.143542
 21
656.3732110000001
 31
0.0
  0
LINE
  5
1C1
330
6B
100
AcDbEntity
  8
0
 62
     7
100
AcDbLine
 10
1688.893542
 20
654.8732110000001
 30
0.0
 11
1692.143542
 21
654.8732110000001
 31
0.0
  0
LINE
  5
1C2
330
6B
100
AcDbEntity
  8
0
 62
     7
100
AcDbLine
 10
1688.893542
 20
655.3732110000001
 30
0.0
 11
1692.143542
 21
655.3732110000001
 31
0.0
  0
LINE
  5
1C3
330
6B
100
AcDbEntity
  8
0
 62
     7
100
AcDbLine
 10
1688.893542
 20
655.8732110000001
 30
0.0
 11
1692.143542
 21
655.8732110000001
 31
0.0
  0
LINE
  5
1C4
330
6B
100
AcDbEntity
  8
0
 62
     7
100
AcDbLine
 10
1688.893542
 20
656.3732110000001
 30
0.0
 11
1692.143542
 21
656.3732110000001
 31
0.0
  0
LINE
  5
1C5
330
6B
100
AcDbEntity
  8
0
 62
     7
100
AcDbLine
 10
1681.893542
 20
654.8732110000001
 30
0.0
 11
1685.143542
 21
654.8732110000001
 31
0.0
  0
LINE
  5
1C6
330
6B
100
AcDbEntity
  8
0
 62
     7
100
AcDbLine
 10
1681.893542
 20
655.3732110000001
 30
0.0
 11
1685.143542
 21
655.3732110000001
 31
0.0
  0
LINE
  5
1C7
330
6B
100
AcDbEntity
  8
0
 62
     7
100
AcDbLine
 10
1681.893542
 20
655.8732110000001
 30
0.0
 11
1685.143542
 21
655.8732110000001
 31
0.0
  0
LINE
  5
1C8
330
6B
100
AcDbEntity
  8
0
 62
     7
100
AcDbLine
 10
1681.893542
 20
656.3732110000001
 30
0.0
 11
1685.143542
 21
656.3732110000001
 31
0.0
  0
CIRCLE
  5
1C9
330
6B
100
AcDbEntity
  8
0
 62
     7
100
AcDbCircle
 10
1678.268542
 20
658.173211
 30
0.0
 40
1.625
  0
CIRCLE
  5
1CA
330
6B
100
AcDbEntity
  8
0
 62
     7
100
AcDbCircle
 10
1709.768542
 20
658.173211
 30
0.0
 40
1.625
  0
LINE
  5
1CB
330
6B
100
AcDbEntity
  8
0
 62
     7
100
AcDbLine
 10
1699.518542
 20
679.4058559999999
 30
0.0
 11
1699.518542
 21
677.923211
 31
0.0
  0
LINE
  5
1CC
330
6B
100
AcDbEntity
  8
0
 62
     7
100
AcDbLine
 10
1707.518542
 20
701.173211
 30
0.0
 11
1691.518542
 21
701.173211
 31
0.0
  0
LINE
  5
1CD
330
6B
100
AcDbEntity
  8
0
 62
     7
100
AcDbLine
 10
1691.518542
 20
668.173211
 30
0.0
 11
1707.518542
 21
668.173211
 31
0.0
  0
LINE
  5
1CE
330
6B
100
AcDbEntity
  8
0
 62
     7
100
AcDbLine
 10
1695.268542
 20
700.173211
 30
0.0
 11
1703.768542
 21
700.173211
 31
0.0
  0
LINE
  5
1CF
330
6B
100
AcDbEntity
  8
0
 62
     7
100
AcDbLine
 10
1695.268542
 20
697.173211
 30
0.0
 11
1703.768542
 21
697.173211
 31
0.0
  0
LINE
  5
1D0
330
6B
100
AcDbEntity
  8
0
 62
     7
100
AcDbLine
 10
1702.268542
 20
685.923211
 30
0.0
 11
1702.268542
 21
694.423211
 31
0.0
  0
LINE
  5
1D1
330
6B
100
AcDbEntity
  8
0
 62
     7
100
AcDbLine
 10
1696.768542
 20
685.923211
 30
0.0
 11
1696.768542
 21
694.423211
 31
0.0
  0
LINE
  5
1D2
330
6B
100
AcDbEntity
  8
0
 62
     7
100
AcDbLine
 10
1702.268542
 20
694.423211
 30
0.0
 11
1696.768542
 21
694.423211
 31
0.0
  0
LINE
  5
1D3
330
6B
100
AcDbEntity
  8
0
 62
     7
100
AcDbLine
 10
1696.768542
 20
685.923211
 30
0.0
 11
1702.268542
 21
685.923211
 31
0.0
  0
LINE
  5
1D4
330
6B
100
AcDbEntity
  8
0
 62
     7
100
AcDbLine
 10
1702.268542
 20
687.7116759999999
 30
0.0
 11
1696.768542
 21
687.7116759999999
 31
0.0
  0
ARC
  5
1D5
330
6B
100
AcDbEntity
  8
0
 62
     7
100
AcDbCircle
 10
1703.768542
 20
698.673211
 30
0.0
 40
1.5
100
AcDbArc
 50
270.0
 51
90.0
  0
ARC
  5
1D6
330
6B
100
AcDbEntity
  8
0
 62
     7
100
AcDbCircle
 10
1695.268542
 20
698.673211
 30
0.0
 40
1.5
100
AcDbArc
 50
90.0
 51
270.0
  0
LINE
  5
1D7
330
6B
100
AcDbEntity
  8
0
 62
     7
100
AcDbLine
 10
1703.768542
 20
684.173211
 30
0.0
 11
1695.268542
 21
684.173211
 31
0.0
  0
LINE
  5
1D8
330
6B
100
AcDbEntity
  8
0
 62
     7
100
AcDbLine
 10
1703.768542
 20
681.173211
 30
0.0
 11
1695.268542
 21
681.173211
 31
0.0
  0
ARC
  5
1D9
330
6B
100
AcDbEntity
  8
0
 62
     7
100
AcDbCircle
 10
1703.768542
 20
682.673211
 30
0.0
 40
1.5
100
AcDbArc
 50
270.0
 51
90.0
  0
ARC
  5
1DA
330
6B
100
AcDbEntity
  8
0
 62
     7
100
AcDbCircle
 10
1695.268542
 20
682.673211
 30
0.0
 40
1.5
100
AcDbArc
 50
90.0
 51
270.0
  0
LINE
  5
1DB
330
6B
100
AcDbEntity
  8
0
 62
     7
100
AcDbLine
 10
1704.050146
 20
676.7895329999999
 30
0.0
 11
1702.766137
 21
676.048211
 31
0.0
  0
LINE
  5
1DC
330
6B
100
AcDbEntity
  8
0
 62
     7
100
AcDbLine
 10
1702.134864999999
 20
669.6416059999998
 30
0.0
 11
1701.393542
 21
670.9256149999999
 31
0.0
  0
LINE
  5
1DD
330
6B
100
AcDbEntity
  8
0
 62
     7
100
AcDbLine
 10
1702.134864999999
 20
678.704815
 30
0.0
 11
1701.393542
 21
677.4208059999999
 31
0.0
  0
LINE
  5
1DE
330
6B
100
AcDbEntity
  8
0
 62
     7
100
AcDbLine
 10
1704.050146
 20
671.5568879999999
 30
0.0
 11
1702.766137
 21
672.298211
 31
0.0
  0
LINE
  5
1DF
330
6B
100
AcDbEntity
  8
0
 62
     7
100
AcDbLine
 10
1704.751187
 20
674.173211
 30
0.0
 11
1703.268542
 21
674.173211
 31
0.0
  0
LINE
  5
1E0
330
6B
100
AcDbEntity
  8
0
 62
     7
100
AcDbLine
 10
1697.643542
 20
677.4208059999999
 30
0.0
 11
1696.902219
 21
678.704815
 31
0.0
  0
LINE
  5
1E1
330
6B
100
AcDbEntity
  8
0
 62
     7
100
AcDbLine
 10
1696.270946
 20
676.048211
 30
0.0
 11
1694.986938
 21
676.7895329999999
 31
0.0
  0
LINE
  5
1E2
330
6B
100
AcDbEntity
  8
0
 62
     7
100
AcDbLine
 10
1695.768542
 20
674.173211
 30
0.0
 11
1694.285896
 21
674.173211
 31
0.0
  0
LINE
  5
1E3
330
6B
100
AcDbEntity
  8
0
 62
     7
100
AcDbLine
 10
1696.270946
 20
672.298211
 30
0.0
 11
1694.986938
 21
671.5568879999999
 31
0.0
  0
LINE
  5
1E4
330
6B
100
AcDbEntity
  8
0
 62
     7
100
AcDbLine
 10
1697.643542
 20
670.9256149999999
 30
0.0
 11
1696.902219
 21
669.6416059999998
 31
0.0
  0
LINE
  5
1E5
330
6B
100
AcDbEntity
  8
0
 62
     7
100
AcDbLine
 10
1709.018542
 20
699.673211
 30
0.0
 11
1709.018542
 21
669.673211
 31
0.0
  0
LINE
  5
1E6
330
6B
100
AcDbEntity
  8
0
 62
     7
100
AcDbLine
 10
1690.018542
 20
699.673211
 30
0.0
 11
1690.018542
 21
669.673211
 31
0.0
  0
ARC
  5
1E7
330
6B
100
AcDbEntity
  8
0
 62
     7
100
AcDbCircle
 10
1707.518542
 20
699.673211
 30
0.0
 40
1.5
100
AcDbArc
 50
0.0
 51
90.0
  0
ARC
  5
1E8
330
6B
100
AcDbEntity
  8
0
 62
     7
100
AcDbCircle
 10
1691.518542
 20
699.673211
 30
0.0
 40
1.5
100
AcDbArc
 50
90.0
 51
180.0
  0
ARC
  5
1E9
330
6B
100
AcDbEntity
  8
0
 62
     7
100
AcDbCircle
 10
1691.518542
 20
669.673211
 30
0.0
 40
1.5
100
AcDbArc
 50
180.0
 51
270.0
  0
ARC
  5
1EA
330
6B
100
AcDbEntity
  8
0
 62
     7
100
AcDbCircle
 10
1707.518542
 20
669.673211
 30
0.0
 40
1.5
100
AcDbArc
 50
270.0
 51
0.0
  0
LINE
  5
1EB
330
6B
100
AcDbEntity
  8
0
 62
     7
100
AcDbLine
 10
1706.268542
 20
645.673211
 30
0.0
 11
1705.768542
 21
640.673211
 31
0.0
  0
LINE
  5
1EC
330
6B
100
AcDbEntity
  8
0
 62
     7
100
AcDbLine
 10
1705.768542
 20
640.673211
 30
0.0
 11
1698.268542
 21
640.673211
 31
0.0
  0
LINE
  5
1ED
330
6B
100
AcDbEntity
  8
0
 62
     7
100
AcDbLine
 10
1698.268542
 20
640.673211
 30
0.0
 11
1697.768542
 21
645.673211
 31
0.0
  0
LINE
  5
1EE
330
6B
100
AcDbEntity
  8
0
 62
     7
100
AcDbLine
 10
1634.268542
 20
645.673211
 30
0.0
 11
1633.768542
 21
640.673211
 31
0.0
  0
LINE
  5
1EF
330
6B
100
AcDbEntity
  8
0
 62
     7
100
AcDbLine
 10
1633.768542
 20
640.673211
 30
0.0
 11
1626.268542
 21
640.673211
 31
0.0
  0
LINE
  5
1F0
330
6B
100
AcDbEntity
  8
0
 62
     7
100
AcDbLine
 10
1626.268542
 20
640.673211
 30
0.0
 11
1625.768542
 21
645.673211
 31
0.0
  0
LINE
  5
1F1
330
6B
100
AcDbEntity
  8
0
 62
     7
100
AcDbLine
 10
1714.268542
 20
645.673211
 30
0.0
 11
1714.268542
 21
700.673211
 31
0.0
  0
ARC
  5
1F2
330
6B
100
AcDbEntity
  8
0
 62
     7
100
AcDbCircle
 10
1712.268542
 20
700.673211
 30
0.0
 40
2.0
100
AcDbArc
 50
0.0
 51
90.0
  0
LINE
  5
1F3
330
6B
100
AcDbEntity
  8
0
 62
     7
100
AcDbLine
 10
1619.768542
 20
702.673211
 30
0.0
 11
1712.268542
 21
702.673211
 31
0.0
  0
ARC
  5
1F4
330
6B
100
AcDbEntity
  8
0
 62
     7
100
AcDbCircle
 10
1619.768542
 20
700.673211
 30
0.0
 40
2.0
100
AcDbArc
 50
90.0
 51
180.0
  0
LINE
  5
1F5
330
6B
100
AcDbEntity
  8
0
 62
     7
100
AcDbLine
 10
1617.768542
 20
700.673211
 30
0.0
 11
1617.768542
 21
645.673211
 31
0.0
  0
TEXT
  5
241
330
6B
100
AcDbEntity
  8
0
 62
     7
100
AcDbText
 10
1653.170984
 20
699.459638
 30
0.0
 40
1.324999999999999
  1
REGULATED DC POWER SUPPLY
100
AcDbText
  0
TEXT
  5
242
330
6B
100
AcDbEntity
  8
0
 62
     7
100
AcDbText
 10
1654.777928
 20
674.674103
 30
0.0
 40
1.75
  1
IMPOTANT
100
AcDbText
  0
TEXT
  5
243
330
6B
100
AcDbEntity
  8
0
 62
     7
100
AcDbText
 10
1643.466565
 20
671.597722
 30
0.0
 40
1.25
  1
SEE RATING LABEL ON REAR PANEL
100
AcDbText
  0
TEXT
  5
244
330
6B
100
AcDbEntity
  8
0
 62
     7
100
AcDbText
 10
1622.108418
 20
647.9415269999999
 30
0.0
 40
3.0
  1
+
100
AcDbText
  0
TEXT
  5
245
330
6B
100
AcDbEntity
  8
0
 62
     7
100
AcDbText
 10
1636.590065
 20
648.2511950000001
 30
0.0
 40
2.5
  1
-
100
AcDbText
  0
TEXT
  5
246
330
6B
100
AcDbEntity
  8
0
 62
     7
100
AcDbText
 10
1693.512048
 20
668.527665
 30
0.0
 40
1.25
  1
MIN.
100
AcDbText
  0
TEXT
  5
247
330
6B
100
AcDbEntity
  8
0
 62
     7
100
AcDbText
 10
1702.461281
 20
668.527665
 30
0.0
 40
1.25
  1
MAX.
100
AcDbText
  0
TEXT
  5
248
330
6B
100
AcDbEntity
  8
0
 62
     7
100
AcDbText
 10
1697.491884
 20
679.6283299999999
 30
0.0
 40
1.25
  1
13.8V
100
AcDbText
  0
TEXT
  5
249
330
6B
100
AcDbEntity
  8
0
 62
     7
100
AcDbText
 10
1692.050717
 20
687.5383389999999
 30
0.0
 40
1.25
  1
OFF
100
AcDbText
  0
TEXT
  5
24A
330
6B
100
AcDbEntity
  8
0
 62
     7
100
AcDbText
 10
1692.101668
 20
692.7548099999999
 30
0.0
 40
1.25
  1
ON
100
AcDbText
  0
TEXT
  5
24B
330
6B
100
AcDbEntity
  8
0
 62
     7
100
AcDbText
 10
1667.640132
 20
688.4167449999999
 30
0.0
 40
2.0
  1
V
100
AcDbText
  0
TEXT
  5
24C
330
6B
100
AcDbEntity
  8
0
 62
     7
100
AcDbText
 10
1637.01575
 20
687.9246639999999
 30
0.0
 40
2.0
  1
A
100
AcDbText
  0
ARC
  5
24D
330
6B
100
AcDbEntity
  8
0
 62
     7
100
AcDbCircle
 10
1637.768542
 20
670.0908400000001
 30
0.0
 40
23.403194
100
AcDbArc
 50
63.342468
 51
116.657532
  0
LINE
  5
24E
330
6B
100
AcDbEntity
  8
0
 62
     7
100
AcDbLine
 10
1628.005958
 20
693.237211
 30
0.0
 11
1635.197887
 21
683.454422
 31
0.0
  0
ARC
  5
24F
330
6B
100
AcDbEntity
  8
0
 62
     7
100
AcDbCircle
 10
1637.768542
 20
680.7555179999999
 30
0.0
 40
3.727244
100
AcDbArc
 50
40.44020999999999
 51
139.55979
  0
ARC
  5
250
330
6B
100
AcDbEntity
  8
0
 62
     7
100
AcDbCircle
 10
1668.768542
 20
670.0908400000001
 30
0.0
 40
23.403194
100
AcDbArc
 50
63.342468
 51
116.657532
  0
LINE
  5
251
330
6B
100
AcDbEntity
  8
0
 62
     7
100
AcDbLine
 10
1659.005958
 20
693.237211
 30
0.0
 11
1666.197887
 21
683.454422
 31
0.0
  0
ARC
  5
252
330
6B
100
AcDbEntity
  8
0
 62
     7
100
AcDbCircle
 10
1668.768542
 20
680.7555179999999
 30
0.0
 40
3.727244
100
AcDbArc
 50
40.44020999999999
 51
139.55979
  0
LINE
  5
253
330
6B
100
AcDbEntity
  8
0
 62
     7
100
AcDbLine
 10
1636.718542
 20
687.4443559999999
 30
0.0
 11
1638.818542
 21
687.4443559999999
 31
0.0
  0
LINE
  5
254
330
6B
100
AcDbEntity
  8
0
 62
     7
100
AcDbLine
 10
1667.718542
 20
687.4443559999999
 30
0.0
 11
1669.818542
 21
687.4443559999999
 31
0.0
  0
TEXT
  5
255
330
6B
100
AcDbEntity
  8
0
 62
     7
100
AcDbText
 10
1648.697703
 20
648.071809
 30
0.0
 40
3.0
  1
+
100
AcDbText
  0
TEXT
  5
256
330
6B
100
AcDbEntity
  8
0
 62
     7
100
AcDbText
 10
1682.45567
 20
648.3323699999999
 30
0.0
 40
3.0
  1
+
100
AcDbText
  0
TEXT
  5
257
330
6B
100
AcDbEntity
  8
0
 62
     7
100
AcDbText
 10
1703.96171
 20
648.202089
 30
0.0
 40
3.0
  1
+
100
AcDbText
  0
TEXT
  5
258
330
6B
100
AcDbEntity
  8
0
 62
     7
100
AcDbText
 10
1664.613086
 20
648.381475
 30
0.0
 40
2.5
  1
-
100
AcDbText
  0
TEXT
  5
259
330
6B
100
AcDbEntity
  8
0
 62
     7
100
AcDbText
 10
1689.898975
 20
648.381475
 30
0.0
 40
2.5
  1
-
100
AcDbText
  0
TEXT
  5
25A
330
6B
100
AcDbEntity
  8
0
 62
     7
100
AcDbText
 10
1697.197996
 20
648.381475
 30
0.0
 40
2.5
  1
-
100
AcDbText
  0
LINE
  5
25B
330
6B
100
AcDbEntity
  8
0
 62
     7
100
AcDbLine
 10
1651.368542
 20
675.758941
 30
0.0
 11
1653.368542
 21
675.758941
 31
0.0
  0
LINE
  5
25C
330
6B
100
AcDbEntity
  8
0
 62
     7
100
AcDbLine
 10
1649.812254
 20
675.270539
 30
0.0
 11
1653.368542
 21
675.270539
 31
0.0
  0
LINE
  5
25D
330
6B
100
AcDbEntity
  8
0
 62
     7
100
AcDbLine
 10
1648.368542
 20
674.817466
 30
0.0
 11
1653.368542
 21
674.817466
 31
0.0
  0
LINE
  5
25E
330
6B
100
AcDbEntity
  8
0
 62
     7
100
AcDbLine
 10
1668.768542
 20
674.817466
 30
0.0
 11
1673.768542
 21
674.817466
 31
0.0
  0
LINE
  5
25F
330
6B
100
AcDbEntity
  8
0
 62
     7
100
AcDbLine
 10
1668.768542
 20
675.270539
 30
0.0
 11
1672.324829
 21
675.270539
 31
0.0
  0
LINE
  5
260
330
6B
100
AcDbEntity
  8
0
 62
     7
100
AcDbLine
 10
1668.768542
 20
675.758941
 30
0.0
 11
1670.768542
 21
675.758941
 31
0.0
  0
CIRCLE
  5
261
330
6B
100
AcDbEntity
  8
0
 62
     7
100
AcDbCircle
 10
1685.018542
 20
673.173211
 30
0.0
 40
1.5
  0
CIRCLE
  5
262
330
6B
100
AcDbEntity
  8
0
 62
     7
100
AcDbCircle
 10
1685.018542
 20
673.173211
 30
0.0
 40
2.25
  0
LINE
  5
263
330
6B
100
AcDbEntity
  8
0
 62
     7
100
AcDbLine
 10
1752.380151
 20
645.673211
 30
0.0
 11
1751.880151
 21
640.673211
 31
0.0
  0
LINE
  5
264
330
6B
100
AcDbEntity
  8
0
 62
     7
100
AcDbLine
 10
1751.880151
 20
640.673211
 30
0.0
 11
1744.380151
 21
640.673211
 31
0.0
  0
LINE
  5
265
330
6B
100
AcDbEntity
  8
0
 62
     7
100
AcDbLine
 10
1744.380151
 20
640.673211
 30
0.0
 11
1743.880151
 21
645.673211
 31
0.0
  0
LINE
  5
266
330
6B
100
AcDbEntity
  8
0
 62
     7
100
AcDbLine
 10
1852.380151
 20
645.673211
 30
0.0
 11
1851.880151
 21
640.673211
 31
0.0
  0
LINE
  5
267
330
6B
100
AcDbEntity
  8
0
 62
     7
100
AcDbLine
 10
1851.880151
 20
640.673211
 30
0.0
 11
1844.380151
 21
640.673211
 31
0.0
  0
LINE
  5
268
330
6B
100
AcDbEntity
  8
0
 62
     7
100
AcDbLine
 10
1844.380151
 20
640.673211
 30
0.0
 11
1843.880151
 21
645.673211
 31
0.0
  0
LINE
  5
269
330
6B
100
AcDbEntity
  8
0
 62
     7
100
AcDbLine
 10
1793.130151
 20
704.673211
 30
0.0
 11
1793.130151
 21
703.173211
 31
0.0
  0
LINE
  5
26A
330
6B
100
AcDbEntity
  8
0
 62
     7
100
AcDbLine
 10
1790.630151
 20
704.673211
 30
0.0
 11
1793.130151
 21
704.673211
 31
0.0
  0
ARC
  5
26B
330
6B
100
AcDbEntity
  8
0
 62
     7
100
AcDbCircle
 10
1790.630151
 20
703.173211
 30
0.0
 40
1.5
100
AcDbArc
 50
90.0
 51
180.0
  0
LINE
  5
26C
330
6B
100
AcDbEntity
  8
0
 62
     7
100
AcDbLine
 10
1784.130151
 20
704.673211
 30
0.0
 11
1786.630151
 21
704.673211
 31
0.0
  0
LINE
  5
26D
330
6B
100
AcDbEntity
  8
0
 62
     7
100
AcDbLine
 10
1786.630151
 20
704.673211
 30
0.0
 11
1786.630151
 21
703.173211
 31
0.0
  0
ARC
  5
26E
330
6B
100
AcDbEntity
  8
0
 62
     7
100
AcDbCircle
 10
1784.130151
 20
703.173211
 30
0.0
 40
1.5
100
AcDbArc
 50
90.0
 51
180.0
  0
LINE
  5
26F
330
6B
100
AcDbEntity
  8
0
 62
     7
100
AcDbLine
 10
1777.630151
 20
704.673211
 30
0.0
 11
1780.130151
 21
704.673211
 31
0.0
  0
LINE
  5
270
330
6B
100
AcDbEntity
  8
0
 62
     7
100
AcDbLine
 10
1780.130151
 20
704.673211
 30
0.0
 11
1780.130151
 21
703.173211
 31
0.0
  0
ARC
  5
271
330
6B
100
AcDbEntity
  8
0
 62
     7
100
AcDbCircle
 10
1777.630151
 20
703.173211
 30
0.0
 40
1.5
100
AcDbArc
 50
90.0
 51
180.0
  0
LINE
  5
272
330
6B
100
AcDbEntity
  8
0
 62
     7
100
AcDbLine
 10
1771.130151
 20
704.673211
 30
0.0
 11
1773.630151
 21
704.673211
 31
0.0
  0
LINE
  5
273
330
6B
100
AcDbEntity
  8
0
 62
     7
100
AcDbLine
 10
1773.630151
 20
704.673211
 30
0.0
 11
1773.630151
 21
703.173211
 31
0.0
  0
ARC
  5
274
330
6B
100
AcDbEntity
  8
0
 62
     7
100
AcDbCircle
 10
1771.130151
 20
703.173211
 30
0.0
 40
1.5
100
AcDbArc
 50
90.0
 51
180.0
  0
LINE
  5
275
330
6B
100
AcDbEntity
  8
0
 62
     7
100
AcDbLine
 10
1764.630151
 20
704.673211
 30
0.0
 11
1767.130151
 21
704.673211
 31
0.0
  0
LINE
  5
276
330
6B
100
AcDbEntity
  8
0
 62
     7
100
AcDbLine
 10
1767.130151
 20
704.673211
 30
0.0
 11
1767.130151
 21
703.173211
 31
0.0
  0
ARC
  5
277
330
6B
100
AcDbEntity
  8
0
 62
     7
100
AcDbCircle
 10
1764.630151
 20
703.173211
 30
0.0
 40
1.5
100
AcDbArc
 50
90.0
 51
180.0
  0
LINE
  5
278
330
6B
100
AcDbEntity
  8
0
 62
     7
100
AcDbLine
 10
1830.630151
 20
704.673211
 30
0.0
 11
1833.130151
 21
704.673211
 31
0.0
  0
LINE
  5
279
330
6B
100
AcDbEntity
  8
0
 62
     7
100
AcDbLine
 10
1833.130151
 20
704.673211
 30
0.0
 11
1833.130151
 21
703.173211
 31
0.0
  0
ARC
  5
27A
330
6B
100
AcDbEntity
  8
0
 62
     7
100
AcDbCircle
 10
1830.630151
 20
703.173211
 30
0.0
 40
1.5
100
AcDbArc
 50
90.0
 51
180.0
  0
LINE
  5
27B
330
6B
100
AcDbEntity
  8
0
 62
     7
100
AcDbLine
 10
1824.130151
 20
704.673211
 30
0.0
 11
1826.630151
 21
704.673211
 31
0.0
  0
LINE
  5
27C
330
6B
100
AcDbEntity
  8
0
 62
     7
100
AcDbLine
 10
1826.630151
 20
704.673211
 30
0.0
 11
1826.630151
 21
703.173211
 31
0.0
  0
ARC
  5
27D
330
6B
100
AcDbEntity
  8
0
 62
     7
100
AcDbCircle
 10
1824.130151
 20
703.173211
 30
0.0
 40
1.5
100
AcDbArc
 50
90.0
 51
180.0
  0
LINE
  5
27E
330
6B
100
AcDbEntity
  8
0
 62
     7
100
AcDbLine
 10
1817.630151
 20
704.673211
 30
0.0
 11
1820.130151
 21
704.673211
 31
0.0
  0
LINE
  5
27F
330
6B
100
AcDbEntity
  8
0
 62
     7
100
AcDbLine
 10
1820.130151
 20
704.673211
 30
0.0
 11
1820.130151
 21
703.173211
 31
0.0
  0
ARC
  5
280
330
6B
100
AcDbEntity
  8
0
 62
     7
100
AcDbCircle
 10
1817.630151
 20
703.173211
 30
0.0
 40
1.5
100
AcDbArc
 50
90.0
 51
180.0
  0
LINE
  5
281
330
6B
100
AcDbEntity
  8
0
 62
     7
100
AcDbLine
 10
1811.130151
 20
704.673211
 30
0.0
 11
1813.630151
 21
704.673211
 31
0.0
  0
LINE
  5
282
330
6B
100
AcDbEntity
  8
0
 62
     7
100
AcDbLine
 10
1813.630151
 20
704.673211
 30
0.0
 11
1813.630151
 21
703.173211
 31
0.0
  0
ARC
  5
283
330
6B
100
AcDbEntity
  8
0
 62
     7
100
AcDbCircle
 10
1811.130151
 20
703.173211
 30
0.0
 40
1.5
100
AcDbArc
 50
90.0
 51
180.0
  0
LINE
  5
284
330
6B
100
AcDbEntity
  8
0
 62
     7
100
AcDbLine
 10
1804.630151
 20
704.673211
 30
0.0
 11
1807.130151
 21
704.673211
 31
0.0
  0
LINE
  5
285
330
6B
100
AcDbEntity
  8
0
 62
     7
100
AcDbLine
 10
1807.130151
 20
704.673211
 30
0.0
 11
1807.130151
 21
703.173211
 31
0.0
  0
ARC
  5
286
330
6B
100
AcDbEntity
  8
0
 62
     7
100
AcDbCircle
 10
1804.630151
 20
703.173211
 30
0.0
 40
1.5
100
AcDbArc
 50
90.0
 51
180.0
  0
LINE
  5
287
330
6B
100
AcDbEntity
  8
0
 62
     7
100
AcDbLine
 10
1753.380151
 20
678.487574
 30
0.0
 11
1791.630151
 21
678.487574
 31
0.0
  0
LINE
  5
288
330
6B
100
AcDbEntity
  8
0
 62
     7
100
AcDbLine
 10
1793.130151
 20
676.9875739999999
 30
0.0
 11
1793.130151
 21
674.987574
 31
0.0
  0
LINE
  5
289
330
6B
100
AcDbEntity
  8
0
 62
     7
100
AcDbLine
 10
1751.880151
 20
674.987574
 30
0.0
 11
1751.880151
 21
676.9875739999999
 31
0.0
  0
ARC
  5
28A
330
6B
100
AcDbEntity
  8
0
 62
     7
100
AcDbCircle
 10
1753.380151
 20
676.9875739999999
 30
0.0
 40
1.5
100
AcDbArc
 50
90.0
 51
180.0
  0
ARC
  5
28B
330
6B
100
AcDbEntity
  8
0
 62
     7
100
AcDbCircle
 10
1791.630151
 20
676.9875739999999
 30
0.0
 40
1.5
100
AcDbArc
 50
0.0
 51
90.0
  0
LINE
  5
28C
330
6B
100
AcDbEntity
  8
0
 62
     7
100
AcDbLine
 10
1751.880151
 20
669.987574
 30
0.0
 11
1751.880151
 21
671.9875739999999
 31
0.0
  0
LINE
  5
28D
330
6B
100
AcDbEntity
  8
0
 62
     7
100
AcDbLine
 10
1793.130151
 20
671.9875739999999
 30
0.0
 11
1793.130151
 21
669.987574
 31
0.0
  0
LINE
  5
28E
330
6B
100
AcDbEntity
  8
0
 62
     7
100
AcDbLine
 10
1753.380151
 20
673.4875739999999
 30
0.0
 11
1791.630151
 21
673.4875739999999
 31
0.0
  0
ARC
  5
28F
330
6B
100
AcDbEntity
  8
0
 62
     7
100
AcDbCircle
 10
1753.380151
 20
671.9875739999999
 30
0.0
 40
1.5
100
AcDbArc
 50
90.0
 51
180.0
  0
ARC
  5
290
330
6B
100
AcDbEntity
  8
0
 62
     7
100
AcDbCircle
 10
1791.630151
 20
671.9875739999999
 30
0.0
 40
1.5
100
AcDbArc
 50
0.0
 51
90.0
  0
LINE
  5
291
330
6B
100
AcDbEntity
  8
0
 62
     7
100
AcDbLine
 10
1751.880151
 20
664.9875739999999
 30
0.0
 11
1751.880151
 21
666.987574
 31
0.0
  0
LINE
  5
292
330
6B
100
AcDbEntity
  8
0
 62
     7
100
AcDbLine
 10
1793.130151
 20
666.987574
 30
0.0
 11
1793.130151
 21
664.9875739999999
 31
0.0
  0
LINE
  5
293
330
6B
100
AcDbEntity
  8
0
 62
     7
100
AcDbLine
 10
1753.380151
 20
668.4875739999999
 30
0.0
 11
1791.630151
 21
668.4875739999999
 31
0.0
  0
ARC
  5
294
330
6B
100
AcDbEntity
  8
0
 62
     7
100
AcDbCircle
 10
1753.380151
 20
666.987574
 30
0.0
 40
1.5
100
AcDbArc
 50
90.0
 51
180.0
  0
ARC
  5
295
330
6B
100
AcDbEntity
  8
0
 62
     7
100
AcDbCircle
 10
1791.630151
 20
666.987574
 30
0.0
 40
1.5
100
AcDbArc
 50
0.0
 51
90.0
  0
LINE
  5
296
330
6B
100
AcDbEntity
  8
0
 62
     7
100
AcDbLine
 10
1751.880151
 20
659.9875739999999
 30
0.0
 11
1751.880151
 21
661.987574
 31
0.0
  0
LINE
  5
297
330
6B
100
AcDbEntity
  8
0
 62
     7
100
AcDbLine
 10
1793.130151
 20
661.987574
 30
0.0
 11
1793.130151
 21
659.9875739999999
 31
0.0
  0
LINE
  5
298
330
6B
100
AcDbEntity
  8
0
 62
     7
100
AcDbLine
 10
1753.380151
 20
663.487574
 30
0.0
 11
1791.630151
 21
663.487574
 31
0.0
  0
ARC
  5
299
330
6B
100
AcDbEntity
  8
0
 62
     7
100
AcDbCircle
 10
1753.380151
 20
661.987574
 30
0.0
 40
1.5
100
AcDbArc
 50
90.0
 51
180.0
  0
ARC
  5
29A
330
6B
100
AcDbEntity
  8
0
 62
     7
100
AcDbCircle
 10
1791.630151
 20
661.987574
 30
0.0
 40
1.5
100
AcDbArc
 50
0.0
 51
90.0
  0
LINE
  5
29B
330
6B
100
AcDbEntity
  8
0
 62
     7
100
AcDbLine
 10
1751.880151
 20
654.987574
 30
0.0
 11
1751.880151
 21
656.987574
 31
0.0
  0
LINE
  5
29C
330
6B
100
AcDbEntity
  8
0
 62
     7
100
AcDbLine
 10
1793.130151
 20
656.987574
 30
0.0
 11
1793.130151
 21
654.987574
 31
0.0
  0
LINE
  5
29D
330
6B
100
AcDbEntity
  8
0
 62
     7
100
AcDbLine
 10
1753.380151
 20
658.487574
 30
0.0
 11
1791.630151
 21
658.487574
 31
0.0
  0
ARC
  5
29E
330
6B
100
AcDbEntity
  8
0
 62
     7
100
AcDbCircle
 10
1753.380151
 20
656.987574
 30
0.0
 40
1.5
100
AcDbArc
 50
90.0
 51
180.0
  0
ARC
  5
29F
330
6B
100
AcDbEntity
  8
0
 62
     7
100
AcDbCircle
 10
1791.630151
 20
656.987574
 30
0.0
 40
1.5
100
AcDbArc
 50
0.0
 51
90.0
  0
LINE
  5
2A0
330
6B
100
AcDbEntity
  8
0
 62
     7
100
AcDbLine
 10
1844.380151
 20
674.987574
 30
0.0
 11
1844.380151
 21
676.9875739999999
 31
0.0
  0
LINE
  5
2A1
330
6B
100
AcDbEntity
  8
0
 62
     7
100
AcDbLine
 10
1803.130151
 20
676.9875739999999
 30
0.0
 11
1803.130151
 21
674.987574
 31
0.0
  0
LINE
  5
2A2
330
6B
100
AcDbEntity
  8
0
 62
     7
100
AcDbLine
 10
1842.880151
 20
678.487574
 30
0.0
 11
1804.630151
 21
678.487574
 31
0.0
  0
ARC
  5
2A3
330
6B
100
AcDbEntity
  8
0
 62
     7
100
AcDbCircle
 10
1842.880151
 20
676.9875739999999
 30
0.0
 40
1.5
100
AcDbArc
 50
0.0
 51
90.0
  0
ARC
  5
2A4
330
6B
100
AcDbEntity
  8
0
 62
     7
100
AcDbCircle
 10
1804.630151
 20
676.9875739999999
 30
0.0
 40
1.5
100
AcDbArc
 50
90.0
 51
180.0
  0
LINE
  5
2A5
330
6B
100
AcDbEntity
  8
0
 62
     7
100
AcDbLine
 10
1844.380151
 20
669.987574
 30
0.0
 11
1844.380151
 21
671.9875739999999
 31
0.0
  0
LINE
  5
2A6
330
6B
100
AcDbEntity
  8
0
 62
     7
100
AcDbLine
 10
1803.130151
 20
671.9875739999999
 30
0.0
 11
1803.130151
 21
669.987574
 31
0.0
  0
LINE
  5
2A7
330
6B
100
AcDbEntity
  8
0
 62
     7
100
AcDbLine
 10
1842.880151
 20
673.4875739999999
 30
0.0
 11
1804.630151
 21
673.4875739999999
 31
0.0
  0
ARC
  5
2A8
330
6B
100
AcDbEntity
  8
0
 62
     7
100
AcDbCircle
 10
1842.880151
 20
671.9875739999999
 30
0.0
 40
1.5
100
AcDbArc
 50
0.0
 51
90.0
  0
ARC
  5
2A9
330
6B
100
AcDbEntity
  8
0
 62
     7
100
AcDbCircle
 10
1804.630151
 20
671.9875739999999
 30
0.0
 40
1.5
100
AcDbArc
 50
90.0
 51
180.0
  0
LINE
  5
2AA
330
6B
100
AcDbEntity
  8
0
 62
     7
100
AcDbLine
 10
1844.380151
 20
664.9875739999999
 30
0.0
 11
1844.380151
 21
666.987574
 31
0.0
  0
LINE
  5
2AB
330
6B
100
AcDbEntity
  8
0
 62
     7
100
AcDbLine
 10
1803.130151
 20
666.987574
 30
0.0
 11
1803.130151
 21
664.9875739999999
 31
0.0
  0
LINE
  5
2AC
330
6B
100
AcDbEntity
  8
0
 62
     7
100
AcDbLine
 10
1842.880151
 20
668.4875739999999
 30
0.0
 11
1804.630151
 21
668.4875739999999
 31
0.0
  0
ARC
  5
2AD
330
6B
100
AcDbEntity
  8
0
 62
     7
100
AcDbCircle
 10
1842.880151
 20
666.987574
 30
0.0
 40
1.5
100
AcDbArc
 50
0.0
 51
90.0
  0
ARC
  5
2AE
330
6B
100
AcDbEntity
  8
0
 62
     7
100
AcDbCircle
 10
1804.630151
 20
666.987574
 30
0.0
 40
1.5
100
AcDbArc
 50
90.0
 51
180.0
  0
LINE
  5
2AF
330
6B
100
AcDbEntity
  8
0
 62
     7
100
AcDbLine
 10
1844.380151
 20
659.9875739999999
 30
0.0
 11
1844.380151
 21
661.987574
 31
0.0
  0
LINE
  5
2B0
330
6B
100
AcDbEntity
  8
0
 62
     7
100
AcDbLine
 10
1803.130151
 20
661.987574
 30
0.0
 11
1803.130151
 21
659.9875739999999
 31
0.0
  0
LINE
  5
2B1
330
6B
100
AcDbEntity
  8
0
 62
     7
100
AcDbLine
 10
1842.880151
 20
663.487574
 30
0.0
 11
1804.630151
 21
663.487574
 31
0.0
  0
ARC
  5
2B2
330
6B
100
AcDbEntity
  8
0
 62
     7
100
AcDbCircle
 10
1842.880151
 20
661.987574
 30
0.0
 40
1.5
100
AcDbArc
 50
0.0
 51
90.0
  0
ARC
  5
2B3
330
6B
100
AcDbEntity
  8
0
 62
     7
100
AcDbCircle
 10
1804.630151
 20
661.987574
 30
0.0
 40
1.5
100
AcDbArc
 50
90.0
 51
180.0
  0
LINE
  5
2B4
330
6B
100
AcDbEntity
  8
0
 62
     7
100
AcDbLine
 10
1844.380151
 20
654.987574
 30
0.0
 11
1844.380151
 21
656.987574
 31
0.0
  0
LINE
  5
2B5
330
6B
100
AcDbEntity
  8
0
 62
     7
100
AcDbLine
 10
1803.130151
 20
656.987574
 30
0.0
 11
1803.130151
 21
654.987574
 31
0.0
  0
LINE
  5
2B6
330
6B
100
AcDbEntity
  8
0
 62
     7
100
AcDbLine
 10
1842.880151
 20
658.487574
 30
0.0
 11
1804.630151
 21
658.487574
 31
0.0
  0
ARC
  5
2B7
330
6B
100
AcDbEntity
  8
0
 62
     7
100
AcDbCircle
 10
1842.880151
 20
656.987574
 30
0.0
 40
1.5
100
AcDbArc
 50
0.0
 51
90.0
  0
ARC
  5
2B8
330
6B
100
AcDbEntity
  8
0
 62
     7
100
AcDbCircle
 10
1804.630151
 20
656.987574
 30
0.0
 40
1.5
100
AcDbArc
 50
90.0
 51
180.0
  0
CIRCLE
  5
2B9
330
6B
100
AcDbEntity
  8
0
 62
     7
100
AcDbCircle
 10
1755.630151
 20
649.423211
 30
0.0
 40
1.625
  0
CIRCLE
  5
2BA
330
6B
100
AcDbEntity
  8
0
 62
     7
100
AcDbCircle
 10
1840.630151
 20
649.423211
 30
0.0
 40
1.625
  0
CIRCLE
  5
2BB
330
6B
100
AcDbEntity
  8
0
 62
     7
100
AcDbCircle
 10
1850.630151
 20
680.423211
 30
0.0
 40
1.625
  0
CIRCLE
  5
2BC
330
6B
100
AcDbEntity
  8
0
 62
     7
100
AcDbCircle
 10
1745.630151
 20
680.423211
 30
0.0
 40
1.625
  0
LINE
  5
2BD
330
6B
100
AcDbEntity
  8
0
 62
     7
100
AcDbLine
 10
1871.150119
 20
700.673211
 30
0.0
 11
1871.150119
 21
645.673211
 31
0.0
  0
LINE
  5
2BE
330
6B
100
AcDbEntity
  8
0
 62
     7
100
AcDbLine
 10
1967.650119
 20
645.673211
 30
0.0
 11
1967.650119
 21
700.673211
 31
0.0
  0
ARC
  5
2BF
330
6B
100
AcDbEntity
  8
0
 62
     7
100
AcDbCircle
 10
1965.650119
 20
700.673211
 30
0.0
 40
2.0
100
AcDbArc
 50
0.0
 51
90.0
  0
LINE
  5
2C0
330
6B
100
AcDbEntity
  8
0
 62
     7
100
AcDbLine
 10
1873.150119
 20
702.673211
 30
0.0
 11
1965.650119
 21
702.673211
 31
0.0
  0
ARC
  5
2C1
330
6B
100
AcDbEntity
  8
0
 62
     7
100
AcDbCircle
 10
1873.150119
 20
700.673211
 30
0.0
 40
2.0
100
AcDbArc
 50
90.0
 51
180.0
  0
LINE
  5
2C2
330
6B
100
AcDbEntity
  8
0
 62
     7
100
AcDbLine
 10
1959.650119
 20
645.673211
 30
0.0
 11
1959.150119
 21
640.673211
 31
0.0
  0
LINE
  5
2C3
330
6B
100
AcDbEntity
  8
0
 62
     7
100
AcDbLine
 10
1959.150119
 20
640.673211
 30
0.0
 11
1951.650119
 21
640.673211
 31
0.0
  0
LINE
  5
2C4
330
6B
100
AcDbEntity
  8
0
 62
     7
100
AcDbLine
 10
1951.650119
 20
640.673211
 30
0.0
 11
1951.150119
 21
645.673211
 31
0.0
  0
LINE
  5
2C5
330
6B
100
AcDbEntity
  8
0
 62
     7
100
AcDbLine
 10
1887.650119
 20
645.673211
 30
0.0
 11
1887.150119
 21
640.673211
 31
0.0
  0
LINE
  5
2C6
330
6B
100
AcDbEntity
  8
0
 62
     7
100
AcDbLine
 10
1887.150119
 20
640.673211
 30
0.0
 11
1879.650119
 21
640.673211
 31
0.0
  0
LINE
  5
2C7
330
6B
100
AcDbEntity
  8
0
 62
     7
100
AcDbLine
 10
1879.650119
 20
640.673211
 30
0.0
 11
1879.150119
 21
645.673211
 31
0.0
  0
LINE
  5
2C8
330
6B
100
AcDbEntity
  8
0
 62
     7
100
AcDbLine
 10
1919.400119
 20
650.673211
 30
0.0
 11
1939.525119
 21
650.673211
 31
0.0
  0
LINE
  5
2C9
330
6B
100
AcDbEntity
  8
0
 62
     7
100
AcDbLine
 10
1919.400119
 20
654.673211
 30
0.0
 11
1939.525119
 21
654.673211
 31
0.0
  0
LINE
  5
2CA
330
6B
100
AcDbEntity
  8
0
 62
     7
100
AcDbLine
 10
1919.400119
 20
655.673211
 30
0.0
 11
1939.525119
 21
655.673211
 31
0.0
  0
LINE
  5
2CB
330
6B
100
AcDbEntity
  8
0
 62
     7
100
AcDbLine
 10
1919.400119
 20
660.673211
 30
0.0
 11
1939.525119
 21
660.673211
 31
0.0
  0
LINE
  5
2CC
330
6B
100
AcDbEntity
  8
0
 62
     7
100
AcDbLine
 10
1919.400119
 20
665.673211
 30
0.0
 11
1939.525119
 21
665.673211
 31
0.0
  0
LINE
  5
2CD
330
6B
100
AcDbEntity
  8
0
 62
     7
100
AcDbLine
 10
1919.400119
 20
670.673211
 30
0.0
 11
1939.525119
 21
670.673211
 31
0.0
  0
LINE
  5
2CE
330
6B
100
AcDbEntity
  8
0
 62
     7
100
AcDbLine
 10
1919.400119
 20
675.673211
 30
0.0
 11
1939.525119
 21
675.673211
 31
0.0
  0
LINE
  5
2CF
330
6B
100
AcDbEntity
  8
0
 62
     7
100
AcDbLine
 10
1919.400119
 20
680.673211
 30
0.0
 11
1939.525119
 21
680.673211
 31
0.0
  0
LINE
  5
2D0
330
6B
100
AcDbEntity
  8
0
 62
     7
100
AcDbLine
 10
1919.400119
 20
685.673211
 30
0.0
 11
1939.525119
 21
685.673211
 31
0.0
  0
LINE
  5
2D1
330
6B
100
AcDbEntity
  8
0
 62
     7
100
AcDbLine
 10
1919.400119
 20
650.673211
 30
0.0
 11
1919.400119
 21
654.673211
 31
0.0
  0
LINE
  5
2D2
330
6B
100
AcDbEntity
  8
0
 62
     7
100
AcDbLine
 10
1960.650119
 20
650.673211
 30
0.0
 11
1960.650119
 21
654.673211
 31
0.0
  0
LINE
  5
2D3
330
6B
100
AcDbEntity
  8
0
 62
     7
100
AcDbLine
 10
1940.525119
 20
650.673211
 30
0.0
 11
1940.525119
 21
654.673211
 31
0.0
  0
LINE
  5
2D4
330
6B
100
AcDbEntity
  8
0
 62
     7
100
AcDbLine
 10
1939.525119
 20
650.673211
 30
0.0
 11
1939.525119
 21
654.673211
 31
0.0
  0
LINE
  5
2D5
330
6B
100
AcDbEntity
  8
0
 62
     7
100
AcDbLine
 10
1919.400119
 20
659.673211
 30
0.0
 11
1939.525119
 21
659.673211
 31
0.0
  0
LINE
  5
2D6
330
6B
100
AcDbEntity
  8
0
 62
     7
100
AcDbLine
 10
1919.400119
 20
664.673211
 30
0.0
 11
1939.525119
 21
664.673211
 31
0.0
  0
LINE
  5
2D7
330
6B
100
AcDbEntity
  8
0
 62
     7
100
AcDbLine
 10
1919.400119
 20
669.673211
 30
0.0
 11
1939.525119
 21
669.673211
 31
0.0
  0
LINE
  5
2D8
330
6B
100
AcDbEntity
  8
0
 62
     7
100
AcDbLine
 10
1919.400119
 20
674.673211
 30
0.0
 11
1939.525119
 21
674.673211
 31
0.0
  0
LINE
  5
2D9
330
6B
100
AcDbEntity
  8
0
 62
     7
100
AcDbLine
 10
1919.400119
 20
679.673211
 30
0.0
 11
1939.525119
 21
679.673211
 31
0.0
  0
LINE
  5
2DA
330
6B
100
AcDbEntity
  8
0
 62
     7
100
AcDbLine
 10
1919.400119
 20
684.673211
 30
0.0
 11
1939.525119
 21
684.673211
 31
0.0
  0
LINE
  5
2DB
330
6B
100
AcDbEntity
  8
0
 62
     7
100
AcDbLine
 10
1919.400119
 20
689.673211
 30
0.0
 11
1939.525119
 21
689.673211
 31
0.0
  0
LINE
  5
2DC
330
6B
100
AcDbEntity
  8
0
 62
     7
100
AcDbLine
 10
1940.525119
 20
685.673211
 30
0.0
 11
1940.525119
 21
689.673211
 31
0.0
  0
LINE
  5
2DD
330
6B
100
AcDbEntity
  8
0
 62
     7
100
AcDbLine
 10
1939.525119
 20
685.673211
 30
0.0
 11
1939.525119
 21
689.673211
 31
0.0
  0
LINE
  5
2DE
330
6B
100
AcDbEntity
  8
0
 62
     7
100
AcDbLine
 10
1919.400119
 20
685.673211
 30
0.0
 11
1919.400119
 21
689.673211
 31
0.0
  0
LINE
  5
2DF
330
6B
100
AcDbEntity
  8
0
 62
     7
100
AcDbLine
 10
1960.650119
 20
685.673211
 30
0.0
 11
1960.650119
 21
689.673211
 31
0.0
  0
LINE
  5
2E0
330
6B
100
AcDbEntity
  8
0
 62
     7
100
AcDbLine
 10
1940.525119
 20
680.673211
 30
0.0
 11
1940.525119
 21
684.673211
 31
0.0
  0
LINE
  5
2E1
330
6B
100
AcDbEntity
  8
0
 62
     7
100
AcDbLine
 10
1939.525119
 20
680.673211
 30
0.0
 11
1939.525119
 21
684.673211
 31
0.0
  0
LINE
  5
2E2
330
6B
100
AcDbEntity
  8
0
 62
     7
100
AcDbLine
 10
1919.400119
 20
680.673211
 30
0.0
 11
1919.400119
 21
684.673211
 31
0.0
  0
LINE
  5
2E3
330
6B
100
AcDbEntity
  8
0
 62
     7
100
AcDbLine
 10
1960.650119
 20
680.673211
 30
0.0
 11
1960.650119
 21
684.673211
 31
0.0
  0
LINE
  5
2E4
330
6B
100
AcDbEntity
  8
0
 62
     7
100
AcDbLine
 10
1940.525119
 20
675.673211
 30
0.0
 11
1940.525119
 21
679.673211
 31
0.0
  0
LINE
  5
2E5
330
6B
100
AcDbEntity
  8
0
 62
     7
100
AcDbLine
 10
1939.525119
 20
675.673211
 30
0.0
 11
1939.525119
 21
679.673211
 31
0.0
  0
LINE
  5
2E6
330
6B
100
AcDbEntity
  8
0
 62
     7
100
AcDbLine
 10
1919.400119
 20
675.673211
 30
0.0
 11
1919.400119
 21
679.673211
 31
0.0
  0
LINE
  5
2E7
330
6B
100
AcDbEntity
  8
0
 62
     7
100
AcDbLine
 10
1960.650119
 20
675.673211
 30
0.0
 11
1960.650119
 21
679.673211
 31
0.0
  0
LINE
  5
2E8
330
6B
100
AcDbEntity
  8
0
 62
     7
100
AcDbLine
 10
1940.525119
 20
670.673211
 30
0.0
 11
1940.525119
 21
674.673211
 31
0.0
  0
LINE
  5
2E9
330
6B
100
AcDbEntity
  8
0
 62
     7
100
AcDbLine
 10
1939.525119
 20
670.673211
 30
0.0
 11
1939.525119
 21
674.673211
 31
0.0
  0
LINE
  5
2EA
330
6B
100
AcDbEntity
  8
0
 62
     7
100
AcDbLine
 10
1919.400119
 20
670.673211
 30
0.0
 11
1919.400119
 21
674.673211
 31
0.0
  0
LINE
  5
2EB
330
6B
100
AcDbEntity
  8
0
 62
     7
100
AcDbLine
 10
1960.650119
 20
670.673211
 30
0.0
 11
1960.650119
 21
674.673211
 31
0.0
  0
LINE
  5
2EC
330
6B
100
AcDbEntity
  8
0
 62
     7
100
AcDbLine
 10
1940.525119
 20
665.673211
 30
0.0
 11
1940.525119
 21
669.673211
 31
0.0
  0
LINE
  5
2ED
330
6B
100
AcDbEntity
  8
0
 62
     7
100
AcDbLine
 10
1939.525119
 20
665.673211
 30
0.0
 11
1939.525119
 21
669.673211
 31
0.0
  0
LINE
  5
2EE
330
6B
100
AcDbEntity
  8
0
 62
     7
100
AcDbLine
 10
1919.400119
 20
665.673211
 30
0.0
 11
1919.400119
 21
669.673211
 31
0.0
  0
LINE
  5
2EF
330
6B
100
AcDbEntity
  8
0
 62
     7
100
AcDbLine
 10
1960.650119
 20
665.673211
 30
0.0
 11
1960.650119
 21
669.673211
 31
0.0
  0
LINE
  5
2F0
330
6B
100
AcDbEntity
  8
0
 62
     7
100
AcDbLine
 10
1940.525119
 20
660.673211
 30
0.0
 11
1940.525119
 21
664.673211
 31
0.0
  0
LINE
  5
2F1
330
6B
100
AcDbEntity
  8
0
 62
     7
100
AcDbLine
 10
1939.525119
 20
660.673211
 30
0.0
 11
1939.525119
 21
664.673211
 31
0.0
  0
LINE
  5
2F2
330
6B
100
AcDbEntity
  8
0
 62
     7
100
AcDbLine
 10
1919.400119
 20
660.673211
 30
0.0
 11
1919.400119
 21
664.673211
 31
0.0
  0
LINE
  5
2F3
330
6B
100
AcDbEntity
  8
0
 62
     7
100
AcDbLine
 10
1960.650119
 20
660.673211
 30
0.0
 11
1960.650119
 21
664.673211
 31
0.0
  0
LINE
  5
2F4
330
6B
100
AcDbEntity
  8
0
 62
     7
100
AcDbLine
 10
1940.525119
 20
655.673211
 30
0.0
 11
1940.525119
 21
659.673211
 31
0.0
  0
LINE
  5
2F5
330
6B
100
AcDbEntity
  8
0
 62
     7
100
AcDbLine
 10
1939.525119
 20
655.673211
 30
0.0
 11
1939.525119
 21
659.673211
 31
0.0
  0
LINE
  5
2F6
330
6B
100
AcDbEntity
  8
0
 62
     7
100
AcDbLine
 10
1919.400119
 20
655.673211
 30
0.0
 11
1919.400119
 21
659.673211
 31
0.0
  0
LINE
  5
2F7
330
6B
100
AcDbEntity
  8
0
 62
     7
100
AcDbLine
 10
1960.650119
 20
655.673211
 30
0.0
 11
1960.650119
 21
659.673211
 31
0.0
  0
LINE
  5
2F8
330
6B
100
AcDbEntity
  8
0
 62
     7
100
AcDbLine
 10
1940.525119
 20
654.673211
 30
0.0
 11
1960.650119
 21
654.673211
 31
0.0
  0
LINE
  5
2F9
330
6B
100
AcDbEntity
  8
0
 62
     7
100
AcDbLine
 10
1940.525119
 20
650.673211
 30
0.0
 11
1960.650119
 21
650.673211
 31
0.0
  0
LINE
  5
2FA
330
6B
100
AcDbEntity
  8
0
 62
     7
100
AcDbLine
 10
1940.525119
 20
689.673211
 30
0.0
 11
1960.650119
 21
689.673211
 31
0.0
  0
LINE
  5
2FB
330
6B
100
AcDbEntity
  8
0
 62
     7
100
AcDbLine
 10
1940.525119
 20
684.673211
 30
0.0
 11
1960.650119
 21
684.673211
 31
0.0
  0
LINE
  5
2FC
330
6B
100
AcDbEntity
  8
0
 62
     7
100
AcDbLine
 10
1940.525119
 20
685.673211
 30
0.0
 11
1960.650119
 21
685.673211
 31
0.0
  0
LINE
  5
2FD
330
6B
100
AcDbEntity
  8
0
 62
     7
100
AcDbLine
 10
1940.525119
 20
679.673211
 30
0.0
 11
1960.650119
 21
679.673211
 31
0.0
  0
LINE
  5
2FE
330
6B
100
AcDbEntity
  8
0
 62
     7
100
AcDbLine
 10
1940.525119
 20
680.673211
 30
0.0
 11
1960.650119
 21
680.673211
 31
0.0
  0
LINE
  5
2FF
330
6B
100
AcDbEntity
  8
0
 62
     7
100
AcDbLine
 10
1940.525119
 20
674.673211
 30
0.0
 11
1960.650119
 21
674.673211
 31
0.0
  0
LINE
  5
300
330
6B
100
AcDbEntity
  8
0
 62
     7
100
AcDbLine
 10
1940.525119
 20
675.673211
 30
0.0
 11
1960.650119
 21
675.673211
 31
0.0
  0
LINE
  5
301
330
6B
100
AcDbEntity
  8
0
 62
     7
100
AcDbLine
 10
1940.525119
 20
669.673211
 30
0.0
 11
1960.650119
 21
669.673211
 31
0.0
  0
LINE
  5
302
330
6B
100
AcDbEntity
  8
0
 62
     7
100
AcDbLine
 10
1940.525119
 20
670.673211
 30
0.0
 11
1960.650119
 21
670.673211
 31
0.0
  0
LINE
  5
303
330
6B
100
AcDbEntity
  8
0
 62
     7
100
AcDbLine
 10
1940.525119
 20
664.673211
 30
0.0
 11
1960.650119
 21
664.673211
 31
0.0
  0
LINE
  5
304
330
6B
100
AcDbEntity
  8
0
 62
     7
100
AcDbLine
 10
1940.525119
 20
665.673211
 30
0.0
 11
1960.650119
 21
665.673211
 31
0.0
  0
LINE
  5
305
330
6B
100
AcDbEntity
  8
0
 62
     7
100
AcDbLine
 10
1940.525119
 20
659.673211
 30
0.0
 11
1960.650119
 21
659.673211
 31
0.0
  0
LINE
  5
306
330
6B
100
AcDbEntity
  8
0
 62
     7
100
AcDbLine
 10
1940.525119
 20
660.673211
 30
0.0
 11
1960.650119
 21
660.673211
 31
0.0
  0
LINE
  5
307
330
6B
100
AcDbEntity
  8
0
 62
     7
100
AcDbLine
 10
1940.525119
 20
655.673211
 30
0.0
 11
1960.650119
 21
655.673211
 31
0.0
  0
LINE
  5
308
330
6B
100
AcDbEntity
  8
0
 62
     7
100
AcDbLine
 10
1896.900119
 20
637.341215
 30
0.0
 11
1896.900119
 21
656.923211
 31
0.0
  0
ARC
  5
309
330
6B
100
AcDbEntity
  8
0
 62
     7
100
AcDbCircle
 10
1896.900119
 20
657.673211
 30
0.0
 40
3.0
100
AcDbArc
 50
41.40962199999999
 51
138.590378
  0
ARC
  5
30A
330
6B
100
AcDbEntity
  8
0
 62
     7
100
AcDbCircle
 10
1897.650119
 20
656.923211
 30
0.0
 40
0.75
100
AcDbArc
 50
0.0
 51
180.0
  0
ARC
  5
30B
330
6B
100
AcDbEntity
  8
0
 62
     7
100
AcDbCircle
 10
1896.150119
 20
656.923211
 30
0.0
 40
0.75
100
AcDbArc
 50
0.0
 51
180.0
  0
ARC
  5
30C
330
6B
100
AcDbEntity
  8
0
 62
     7
100
AcDbCircle
 10
1896.900119
 20
657.673211
 30
0.0
 40
3.0
100
AcDbArc
 50
221.409622
 51
240.0
  0
LINE
  5
30D
330
6B
100
AcDbEntity
  8
0
 62
     7
100
AcDbLine
 10
1899.150119
 20
655.688897
 30
0.0
 11
1899.150119
 21
659.6575239999999
 31
0.0
  0
LINE
  5
30E
330
6B
100
AcDbEntity
  8
0
 62
     7
100
AcDbLine
 10
1894.650119
 20
655.688897
 30
0.0
 11
1894.650119
 21
659.6575239999999
 31
0.0
  0
LINE
  5
30F
330
6B
100
AcDbEntity
  8
0
 62
     7
100
AcDbLine
 10
1898.400119
 20
637.788639
 30
0.0
 11
1898.400119
 21
656.923211
 31
0.0
  0
LINE
  5
310
330
6B
100
AcDbEntity
  8
0
 62
     7
100
AcDbLine
 10
1895.400119
 20
637.006676
 30
0.0
 11
1895.400119
 21
656.923211
 31
0.0
  0
ARC
  5
311
330
6B
100
AcDbEntity
  8
0
 62
     7
100
AcDbCircle
 10
1896.900119
 20
657.673211
 30
0.0
 40
3.0
100
AcDbArc
 50
300.0
 51
318.590378
  0
CIRCLE
  5
312
330
6B
100
AcDbEntity
  8
0
 62
     7
100
AcDbCircle
 10
1881.900119
 20
657.673211
 30
0.0
 40
3.25
  0
LINE
  5
31E
330
6B
100
AcDbEntity
  8
0
 62
     3
100
AcDbLine
 10
1959.433563
 20
505.3297709999999
 30
0.0
 11
1959.433563
 21
528.329771
 31
0.0
  0
LINE
  5
320
330
6B
100
AcDbEntity
  8
0
 62
     3
100
AcDbLine
 10
1906.379954
 20
498.329771
 30
0.0
 11
1906.379954
 21
512.3297710000001
 31
0.0
  0
TEXT
  5
322
330
6B
100
AcDbEntity
  8
0
 62
     3
100
AcDbText
 10
1935.443881
 20
524.5348869999999
 30
0.0
 40
2.0
  1
A
 41
0.7
100
AcDbText
  0
TEXT
  5
323
330
6B
100
AcDbEntity
  8
0
 62
     3
100
AcDbText
 10
1937.979167
 20
524.5348869999999
 30
0.0
 40
2.0
  1
P
 41
0.7
100
AcDbText
  0
TEXT
  5
324
330
6B
100
AcDbEntity
  8
0
 62
     3
100
AcDbText
 10
1940.514454
 20
524.5348869999999
 30
0.0
 40
2.0
  1
P
 41
0.7
100
AcDbText
  0
TEXT
  5
325
330
6B
100
AcDbEntity
  8
0
 62
     3
100
AcDbText
 10
1943.04974
 20
524.5348869999999
 30
0.0
 40
2.0
  1
D
 41
0.7
100
AcDbText
  0
TEXT
  5
326
330
6B
100
AcDbEntity
  8
0
 62
     3
100
AcDbText
 10
1948.418423
 20
524.5348869999999
 30
0.0
 40
2.0
  1
C
 41
0.7
100
AcDbText
  0
TEXT
  5
327
330
6B
100
AcDbEntity
  8
0
 62
     3
100
AcDbText
 10
1950.953709
 20
524.5348869999999
 30
0.0
 40
2.0
  1
H
 41
0.7
100
AcDbText
  0
TEXT
  5
328
330
6B
100
AcDbEntity
  8
0
 62
     3
100
AcDbText
 10
1953.488995
 20
524.5348869999999
 30
0.0
 40
2.0
  1
C
 41
0.7
100
AcDbText
  0
TEXT
  5
329
330
6B
100
AcDbEntity
  8
0
 62
     3
100
AcDbText
 10
1956.024282
 20
524.5348869999999
 30
0.0
 40
2.0
  1
K
 41
0.7
100
AcDbText
  0
TEXT
  5
32A
330
6B
100
AcDbEntity
  8
0
 62
     3
100
AcDbText
 10
1961.698248
 20
524.5348869999999
 30
0.0
 40
2.0
  1
DESN
 41
1.216762999999999
100
AcDbText
  0
TEXT
  5
32B
330
6B
100
AcDbEntity
  8
0
 62
     3
100
AcDbText
 10
1876.691889
 20
495.1883889999999
 30
0.0
 40
2.0
  1
NICHIDO IND.CO.LTD
 41
1.274876
100
AcDbText
  0
LINE
  5
32C
330
6B
100
AcDbEntity
  8
0
 62
     3
100
AcDbLine
 10
1887.074918999999
 20
528.3297710000002
 30
0.0
 11
1887.074919
 21
505.3297709999999
 31
0.0
  0
LINE
  5
32D
330
6B
100
AcDbEntity
  8
0
 62
     3
100
AcDbLine
 10
1933.433562999999
 20
528.329771
 30
0.0
 11
1933.433563
 21
488.664048
 31
0.0
  0
LINE
  5
332
330
6B
100
AcDbEntity
  8
0
 62
     3
100
AcDbLine
 10
1946.433563
 20
528.329771
 30
0.0
 11
1946.433563
 21
498.329771
 31
0.0
  0
TEXT
  5
333
330
6B
100
AcDbEntity
  8
0
 62
     3
100
AcDbText
 10
1934.546008
 20
499.194457
 30
0.0
 40
3.2
  1
作成日
 41
1.017225999999999
100
AcDbText
  0
LINE
  5
334
330
6B
100
AcDbEntity
  8
0
 62
     3
100
AcDbLine
 10
1985.132927
 20
528.329771
 30
0.0
 11
1873.829484
 21
528.329771
 31
0.0
  0
LINE
  5
335
330
6B
100
AcDbEntity
  8
0
 62
     3
100
AcDbLine
 10
1972.433563
 20
505.3297709999999
 30
0.0
 11
1972.433563
 21
528.329771
 31
0.0
  0
TEXT
  5
336
330
6B
100
AcDbEntity
  8
0
 62
     3
100
AcDbText
 10
1975.757366
 20
524.6207049999999
 30
0.0
 40
1.8
  1
D
 41
0.666667
100
AcDbText
  0
TEXT
  5
337
330
6B
100
AcDbEntity
  8
0
 62
     3
100
AcDbText
 10
1978.573995
 20
524.6207049999999
 30
0.0
 40
1.8
  1
E
 41
0.666667
100
AcDbText
  0
TEXT
  5
338
330
6B
100
AcDbEntity
  8
0
 62
     3
100
AcDbText
 10
1981.390623
 20
524.6207049999999
 30
0.0
 40
1.8
  1
F
 41
0.666667
100
AcDbText
  0
TEXT
  5
339
330
6B
100
AcDbEntity
  8
0
 62
     3
100
AcDbText
 10
1975.757366
 20
520.628152
 30
0.0
 40
3.2
  1
製図
 41
1.076369
100
AcDbText
  0
LINE
  5
33A
330
6B
100
AcDbEntity
  8
0
 62
     3
100
AcDbLine
 10
1873.829484
 20
528.329771
 30
0.0
 11
1873.829484
 21
488.664048
 31
0.0
  0
TEXT
  5
33B
330
6B
100
AcDbEntity
  8
0
 62
     3
100
AcDbText
 10
1875.206137
 20
488.996514
 30
0.0
 40
5.0
  1
日動工業株式会社
 41
0.833333
100
AcDbText
  0
LINE
  5
33C
330
6B
100
AcDbEntity
  8
0
 62
     3
100
AcDbLine
 10
1916.711888
 20
512.3297709999999
 30
0.0
 11
1916.711888
 21
488.664048
 31
0.0
  0
LINE
  5
33D
330
6B
100
AcDbEntity
  8
0
 62
     3
100
AcDbLine
 10
1916.711888
 20
493.496909
 30
0.0
 11
1933.433563
 21
493.496909
 31
0.0
  0
TEXT
  5
33E
330
6B
100
AcDbEntity
  8
0
 62
     3
100
AcDbText
 10
1917.29849
 20
494.31334
 30
0.0
 40
3.2
  1
出図コード
 41
0.8356860000000001
100
AcDbText
  0
LINE
  5
350
330
6B
100
AcDbEntity
  8
0
 62
     3
100
AcDbLine
 10
1873.829484
 20
498.3297709999999
 30
0.0
 11
1985.132927
 21
498.329771
 31
0.0
  0
LINE
  5
352
330
6B
100
AcDbEntity
  8
0
 62
     3
100
AcDbLine
 10
1873.829484
 20
519.329771
 30
0.0
 11
1985.132927
 21
519.329771
 31
0.0
  0
LINE
  5
358
330
6B
100
AcDbEntity
  8
0
 62
     3
100
AcDbLine
 10
1873.829484
 20
512.3297710000001
 30
0.0
 11
1933.433563
 21
512.3297710000001
 31
0.0
  0
LINE
  5
35E
330
6B
100
AcDbEntity
  8
0
 62
     3
100
AcDbLine
 10
1873.829484
 20
505.3297709999999
 30
0.0
 11
1985.132927
 21
505.3297709999999
 31
0.0
  0
LINE
  5
362
330
6B
100
AcDbEntity
  8
0
 62
     3
100
AcDbLine
 10
1985.132927
 20
762.719409
 30
0.0
 11
1985.132927
 21
488.664048
 31
0.0
  0
LINE
  5
363
330
6B
100
AcDbEntity
  8
0
 62
     3
100
AcDbLine
 10
1595.132927
 20
762.719409
 30
0.0
 11
1595.132927
 21
488.664048
 31
0.0
  0
LINE
  5
364
330
6B
100
AcDbEntity
  8
0
 62
     3
100
AcDbLine
 10
1985.132927
 20
488.664048
 30
0.0
 11
1595.132927
 21
488.664048
 31
0.0
  0
TEXT
  5
367
330
6B
100
AcDbEntity
  8
0
 62
     3
100
AcDbText
 10
1917.165942
 20
489.1916688666606
 30
0.0
 40
3.2
  1
ZK-A3X
 41
0.8112849999999999
100
AcDbText
  0
TEXT
  5
368
330
6B
100
AcDbEntity
  8
0
 62
     3
100
AcDbText
 10
1875.646880999999
 20
524.4992959999999
 30
0.0
 40
2.0
  1
CONPONENTS
 41
0.5331600000000001
100
AcDbText
  0
TEXT
  5
369
330
6B
100
AcDbEntity
  8
0
 62
     3
100
AcDbText
 10
1875.297154
 20
505.56712
 30
0.0
 40
3.0
  1
材
 41
0.833333
100
AcDbText
  0
TEXT
  5
36A
330
6B
100
AcDbEntity
  8
0
 62
     3
100
AcDbText
 10
1882.832797
 20
505.56712
 30
0.0
 40
3.0
  1
質
 41
0.833333
100
AcDbText
  0
TEXT
  5
36B
330
6B
100
AcDbEntity
  8
0
 62
     3
100
AcDbText
 10
1875.385225
 20
516.1916439999999
 30
0.0
 40
2.0
  1
MODEL
 41
1.031072999999999
100
AcDbText
  0
TEXT
  5
36C
330
6B
100
AcDbEntity
  8
0
 62
     3
100
AcDbText
 10
1875.297154
 20
509.249428
 30
0.0
 40
2.0
  1
MATERIAL
 41
0.659278
100
AcDbText
  0
TEXT
  5
36D
330
6B
100
AcDbEntity
  8
0
 62
     3
100
AcDbText
 10
1906.604435
 20
505.56712
 30
0.0
 40
3.0
  1
備
 41
0.833333
100
AcDbText
  0
TEXT
  5
36E
330
6B
100
AcDbEntity
  8
0
 62
     3
100
AcDbText
 10
1913.337436
 20
505.56712
 30
0.0
 40
3.0
  1
考
 41
0.833333
100
AcDbText
  0
TEXT
  5
36F
330
6B
100
AcDbEntity
  8
0
 62
     3
100
AcDbText
 10
1907.123483384301
 20
509.249428
 30
0.0
 40
2.0
  1
REMARKS
 41
0.675794
100
AcDbText
  0
TEXT
  5
370
330
6B
100
AcDbEntity
  8
0
 62
     3
100
AcDbText
 10
1876.886883
 20
502.329307
 30
0.0
 40
2.0
  1
3AD
 41
1.42614
100
AcDbText
  0
TEXT
  5
371
330
6B
100
AcDbEntity
  8
0
 62
     3
100
AcDbText
 10
1886.197863
 20
502.495041
 30
0.0
 40
2.0
  1
ANGLE
 41
1.669883999999999
100
AcDbText
  0
TEXT
  5
372
330
6B
100
AcDbEntity
  8
0
 62
     3
100
AcDbText
 10
1907.13175
 20
502.1182
 30
0.0
 40
2.0
  1
SCALE
 41
0.7719630000000001
100
AcDbText
  0
TEXT
  5
373
330
6B
100
AcDbEntity
  8
0
 62
     3
100
AcDbText
 10
1876.573013
 20
498.329771
 30
0.0
 40
3.0
  1
第
 41
0.833333
100
AcDbText
  0
TEXT
  5
374
330
6B
100
AcDbEntity
  8
0
 62
     3
100
AcDbText
 10
1884.359863
 20
498.329771
 30
0.0
 40
3.0
  1
三
 41
0.833333
100
AcDbText
  0
TEXT
  5
375
330
6B
100
AcDbEntity
  8
0
 62
     3
100
AcDbText
 10
1892.146713
 20
498.329771
 30
0.0
 40
3.0
  1
角
 41
0.833333
100
AcDbText
  0
TEXT
  5
376
330
6B
100
AcDbEntity
  8
0
 62
     3
100
AcDbText
 10
1899.933563
 20
498.329771
 30
0.0
 40
3.0
  1
法
 41
0.833333
100
AcDbText
  0
TEXT
  5
377
330
6B
100
AcDbEntity
  8
0
 62
     3
100
AcDbText
 10
1906.994955
 20
498.6182
 30
0.0
 40
3.0
  1
尺
 41
0.833333
100
AcDbText
  0
TEXT
  5
378
330
6B
100
AcDbEntity
  8
0
 62
     3
100
AcDbText
 10
1913.727957
 20
498.6182
 30
0.0
 40
3.0
  1
度
 41
0.833333
100
AcDbText
  0
TEXT
  5
379
330
6B
100
AcDbEntity
  8
0
 62
     3
100
AcDbText
 10
1936.311227
 20
520.7875
 30
0.0
 40
3.0
  1
承認
 41
1.089472999999999
100
AcDbText
  0
TEXT
  5
37A
330
6B
100
AcDbEntity
  8
0
 62
     3
100
AcDbText
 10
1949.554108
 20
520.729771
 30
0.0
 40
3.0
  1
検図
 41
0.931761
100
AcDbText
  0
TEXT
  5
37B
330
6B
100
AcDbEntity
  8
0
 62
     3
100
AcDbText
 10
1962.554504
 20
520.729771
 30
0.0
 40
3.0
  1
設
 41
0.833333
100
AcDbText
  0
TEXT
  5
37C
330
6B
100
AcDbEntity
  8
0
 62
     3
100
AcDbText
 10
1967.044372
 20
520.729771
 30
0.0
 40
3.0
  1
計
 41
0.833333
100
AcDbText
  0
TEXT
  5
37D
330
6B
100
AcDbEntity
  8
0
 62
     3
100
AcDbText
 10
1875.716988
 20
520.902323
 30
0.0
 40
3.0
  1
品
 41
0.833333
100
AcDbText
  0
TEXT
  5
37E
330
6B
100
AcDbEntity
  8
0
 62
     3
100
AcDbText
 10
1883.25263
 20
520.902323
 30
0.0
 40
3.0
  1
名
 41
0.833333
100
AcDbText
  0
TEXT
  5
37F
330
6B
100
AcDbEntity
  8
0
 62
     3
100
AcDbText
 10
1875.385225
 20
512.6297204241531
 30
0.0
 40
3.0
  1
型
 41
0.833333
100
AcDbText
  0
TEXT
  5
380
330
6B
100
AcDbEntity
  8
0
 62
     3
100
AcDbText
 10
1882.933315
 20
512.6297204241531
 30
0.0
 40
3.0
  1
式
 41
0.833333
100
AcDbText
  0
LINE
  5
388
330
6B
100
AcDbEntity
  8
0
 62
     3
100
AcDbLine
 10
1985.132927
 20
762.719409
 30
0.0
 11
1595.132927
 21
762.719409
 31
0.0
  0
LINE
  5
389
330
6B
100
AcDbEntity
  8
0
 62
     3
100
AcDbLine
 10
1959.433563
 20
528.329771
 30
0.0
 11
1959.433563
 21
534.329771
 31
0.0
  0
LINE
  5
38A
330
6B
100
AcDbEntity
  8
0
 62
     3
100
AcDbLine
 10
1933.433563
 20
528.329771
 30
0.0
 11
1933.433563
 21
534.329771
 31
0.0
  0
LINE
  5
38B
330
6B
100
AcDbEntity
  8
0
 62
     3
100
AcDbLine
 10
1985.132927
 20
534.329771
 30
0.0
 11
1933.433563
 21
534.329771
 31
0.0
  0
TEXT
  5
38C
330
6B
100
AcDbEntity
  8
0
 62
     3
100
AcDbText
 10
1938.752674933833
 20
529.12612
 30
0.0
 40
4.5
  1
コード
  7
高4.5
100
AcDbText
  0
TEXT
  5
38D
330
6B
100
AcDbEntity
  8
0
 62
     3
100
AcDbText
 10
1643.25375278125
 20
489.164048
 30
0.0
 40
3.2
  1
個数
 41
0.8
  7
高3.2
100
AcDbText
  0
TEXT
  5
38E
330
6B
100
AcDbEntity
  8
0
 62
     3
100
AcDbText
 10
1604.19125278125
 20
489.164048
 30
0.0
 40
3.2
  1
部　　品　　名
 41
0.8
  7
高3.2
100
AcDbText
  0
TEXT
  5
38F
330
6B
100
AcDbEntity
  8
0
 62
     3
100
AcDbText
 10
1596.632927
 20
489.164048
 30
0.0
 40
3.2
  1
No
 41
0.8
  7
高3.2
100
AcDbText
  0
LINE
  5
390
330
6B
100
AcDbEntity
  8
0
 62
     7
100
AcDbLine
 10
1783.301349521336
 20
594.926919886197
 30
0.0
 11
1820.11632357798
 21
594.926919886197
 31
0.0
  0
TEXT
  5
391
330
6B
100
AcDbEntity
  8
0
 62
     3
100
AcDbText
 10
1783.158088459147
 20
595.73096
 30
0.0
 40
4.5
  1
主　　仕　　様
  7
高4.5
100
AcDbText
  0
TEXT
  5
392
330
6B
100
AcDbEntity
  8
0
 62
     3
100
AcDbText
 10
1596.632927
 20
504.164048
 30
0.0
 40
3.2
  1
3
 41
0.8
  7
高3.2
100
AcDbText
  0
TEXT
  5
393
330
6B
100
AcDbEntity
  8
0
 62
     3
100
AcDbText
 10
1596.632927
 20
509.164048
 30
0.0
 40
3.2
  1
4
 41
0.8
  7
高3.2
100
AcDbText
  0
TEXT
  5
394
330
6B
100
AcDbEntity
  8
0
 62
     3
100
AcDbText
 10
1596.632927
 20
514.1640480000001
 30
0.0
 40
3.2
  1
5
 41
0.8
  7
高3.2
100
AcDbText
  0
TEXT
  5
395
330
6B
100
AcDbEntity
  8
0
 62
     3
100
AcDbText
 10
1596.632927
 20
519.164048
 30
0.0
 40
3.2
  1
6
 41
0.8
  7
高3.2
100
AcDbText
  0
TEXT
  5
396
330
6B
100
AcDbEntity
  8
0
 62
     3
100
AcDbText
 10
1643.25375278125
 20
504.164048
 30
0.0
 40
3.2
  1
1
 41
0.8
  7
高3.2
100
AcDbText
  0
TEXT
  5
397
330
6B
100
AcDbEntity
  8
0
 62
     3
100
AcDbText
 10
1596.632927
 20
494.164048
 30
0.0
 40
3.2
  1
1
 41
0.8
  7
高3.2
100
AcDbText
  0
TEXT
  5
398
330
6B
100
AcDbEntity
  8
0
 62
     3
100
AcDbText
 10
1596.632927
 20
499.164048
 30
0.0
 40
3.2
  1
2
 41
0.8
  7
高3.2
100
AcDbText
  0
TEXT
  5
399
330
6B
100
AcDbEntity
  8
0
 62
     3
100
AcDbText
 10
1604.19125278125
 20
494.164048
 30
0.0
 40
3.2
  1
ケース本体
 41
0.8
  7
高3.2
100
AcDbText
  0
TEXT
  5
39A
330
6B
100
AcDbEntity
  8
0
 62
     3
100
AcDbText
 10
1643.25375278125
 20
509.164048
 30
0.0
 40
3.2
  1
1
 41
0.8
  7
高3.2
100
AcDbText
  0
TEXT
  5
39B
330
6B
100
AcDbEntity
  8
0
 62
     3
100
AcDbText
 10
1643.25375278125
 20
494.164048
 30
0.0
 40
3.2
  1
1式
 41
0.8
  7
高3.2
100
AcDbText
  0
TEXT
  5
39C
330
6B
100
AcDbEntity
  8
0
 62
     3
100
AcDbText
 10
1767.429321
 20
589.017377
 30
0.0
 40
3.2
  1
型　式
 41
0.8
  7
高3.2
100
AcDbText
  0
TEXT
  5
39D
330
6B
100
AcDbEntity
  8
0
 62
     3
100
AcDbText
 10
1653.41000278125
 20
494.164048
 30
0.0
 40
3.2
  1
-
 41
0.8
  7
高3.2
100
AcDbText
  0
TEXT
  5
39E
330
6B
100
AcDbEntity
  8
0
 62
     3
100
AcDbText
 10
1653.41000278125
 20
499.164048
 30
0.0
 40
3.2
  1
-
 41
0.8
  7
高3.2
100
AcDbText
  0
TEXT
  5
39F
330
6B
100
AcDbEntity
  8
0
 62
     3
100
AcDbText
 10
1643.25375278125
 20
499.164048
 30
0.0
 40
3.2
  1
1
 41
0.8
  7
高3.2
100
AcDbText
  0
TEXT
  5
3A0
330
6B
100
AcDbEntity
  8
0
 62
     3
100
AcDbText
 10
1596.632927
 20
524.164048
 30
0.0
 40
3.2
  1
7
 41
0.8
  7
高3.2
100
AcDbText
  0
TEXT
  5
3A1
330
6B
100
AcDbEntity
  8
0
 62
     3
100
AcDbText
 10
1596.632927
 20
539.1640480000001
 30
0.0
 40
3.2
  1
10
 41
0.8
  7
高3.2
100
AcDbText
  0
TEXT
  5
3A2
330
6B
100
AcDbEntity
  8
0
 62
     3
100
AcDbText
 10
1596.632927
 20
534.1640480000001
 30
0.0
 40
3.2
  1
9
 41
0.8
  7
高3.2
100
AcDbText
  0
TEXT
  5
3A3
330
6B
100
AcDbEntity
  8
0
 62
     3
100
AcDbText
 10
1596.632927
 20
529.1640479999998
 30
0.0
 40
3.2
  1
8
 41
0.8
  7
高3.2
100
AcDbText
  0
TEXT
  5
3A4
330
6B
100
AcDbEntity
  8
0
 62
     3
100
AcDbText
 10
1643.25375278125
 20
524.164048
 30
0.0
 40
3.2
  1
1
 41
0.8
  7
高3.2
100
AcDbText
  0
TEXT
  5
3A5
330
6B
100
AcDbEntity
  8
0
 62
     3
100
AcDbText
 10
1643.25375278125
 20
529.1640479999998
 30
0.0
 40
3.2
  1
1
 41
0.8
  7
高3.2
100
AcDbText
  0
TEXT
  5
3A6
330
6B
100
AcDbEntity
  8
0
 62
     3
100
AcDbText
 10
1643.25375278125
 20
534.1640480000001
 30
0.0
 40
3.2
  1
1
 41
0.8
  7
高3.2
100
AcDbText
  0
TEXT
  5
3A7
330
6B
100
AcDbEntity
  8
0
 62
     3
100
AcDbText
 10
1643.25375278125
 20
539.1640480000001
 30
0.0
 40
3.2
  1
1
 41
0.8
  7
高3.2
100
AcDbText
  0
TEXT
  5
3A8
330
6B
100
AcDbEntity
  8
0
 62
     3
100
AcDbText
 10
1767.429321
 20
583.4733769999998
 30
0.0
 40
3.2
  1
入力電圧
 41
0.8
  7
高3.2
100
AcDbText
  0
TEXT
  5
3A9
330
6B
100
AcDbEntity
  8
0
 62
     3
100
AcDbText
 10
1767.429321
 20
577.9293769999999
 30
0.0
 40
3.2
  1
出力電圧
 41
0.8
  7
高3.2
100
AcDbText
  0
TEXT
  5
3AA
330
6B
100
AcDbEntity
  8
0
 62
     3
100
AcDbText
 10
1767.429321
 20
572.3853769999999
 30
0.0
 40
3.2
  1
容　量
 41
0.8
  7
高3.2
100
AcDbText
  0
TEXT
  5
3AB
330
6B
100
AcDbEntity
  8
0
 62
     3
100
AcDbText
 10
1643.25375278125
 20
544.164048
 30
0.0
 40
3.2
  1
1
 41
0.8
  7
高3.2
100
AcDbText
  0
TEXT
  5
3AC
330
6B
100
AcDbEntity
  8
0
 62
     3
100
AcDbText
 10
1596.632927
 20
544.164048
 30
0.0
 40
3.2
  1
11
 41
0.8
  7
高3.2
100
AcDbText
  0
TEXT
  5
3AD
330
6B
100
AcDbEntity
  8
0
 62
     3
100
AcDbText
 10
1604.19125278125
 20
499.164048
 30
0.0
 40
3.2
  1
電源スイッチ
 41
0.8
  7
高3.2
100
AcDbText
  0
TEXT
  5
3AE
330
6B
100
AcDbEntity
  8
0
 62
     3
100
AcDbText
 10
1643.25375278125
 20
519.164048
 30
0.0
 40
3.2
  1
1
 41
0.8
  7
高3.2
100
AcDbText
  0
TEXT
  5
3AF
330
6B
100
AcDbEntity
  8
0
 62
     3
100
AcDbText
 10
1643.25375278125
 20
514.1640480000001
 30
0.0
 40
3.2
  1
1
 41
0.8
  7
高3.2
100
AcDbText
  0
TEXT
  5
3B0
330
6B
100
AcDbEntity
  8
0
 62
     3
100
AcDbText
 10
1653.41000278125
 20
539.1640480000001
 30
0.0
 40
3.2
  1
-
 41
0.8
  7
高3.2
100
AcDbText
  0
TEXT
  5
3B1
330
6B
100
AcDbEntity
  8
0
 62
     3
100
AcDbText
 10
1653.41000278125
 20
489.164048
 30
0.0
 40
3.2
  1
材　質／備　考
 41
0.8
  7
高3.2
100
AcDbText
  0
LINE
  5
3B2
330
6B
100
AcDbEntity
  8
0
 62
     7
100
AcDbLine
 10
1595.132927
 20
498.664048
 30
0.0
 11
1691.75375278125
 21
498.664048
 31
0.0
  0
LINE
  5
3B3
330
6B
100
AcDbEntity
  8
0
 62
     7
100
AcDbLine
 10
1595.132927
 20
503.664048
 30
0.0
 11
1691.75375278125
 21
503.664048
 31
0.0
  0
LINE
  5
3B4
330
6B
100
AcDbEntity
  8
0
 62
     7
100
AcDbLine
 10
1595.132927
 20
508.664048
 30
0.0
 11
1691.75375278125
 21
508.664048
 31
0.0
  0
LINE
  5
3B5
330
6B
100
AcDbEntity
  8
0
 62
     7
100
AcDbLine
 10
1595.132927
 20
513.6640480000001
 30
0.0
 11
1691.75375278125
 21
513.6640480000001
 31
0.0
  0
LINE
  5
3B6
330
6B
100
AcDbEntity
  8
0
 62
     7
100
AcDbLine
 10
1595.132927
 20
518.664048
 30
0.0
 11
1691.75375278125
 21
518.664048
 31
0.0
  0
LINE
  5
3B7
330
6B
100
AcDbEntity
  8
0
 62
     3
100
AcDbLine
 10
1595.132927
 20
493.664048
 30
0.0
 11
1691.75375278125
 21
493.664048
 31
0.0
  0
LINE
  5
3B8
330
6B
100
AcDbEntity
  8
0
 62
     7
100
AcDbLine
 10
1595.132927
 20
523.6640480000001
 30
0.0
 11
1691.75375278125
 21
523.6640480000001
 31
0.0
  0
LINE
  5
3B9
330
6B
100
AcDbEntity
  8
0
 62
     7
100
AcDbLine
 10
1595.132927
 20
538.6640480000001
 30
0.0
 11
1691.75375278125
 21
538.6640480000001
 31
0.0
  0
LINE
  5
3BA
330
6B
100
AcDbEntity
  8
0
 62
     7
100
AcDbLine
 10
1595.132927
 20
533.664048
 30
0.0
 11
1691.75375278125
 21
533.664048
 31
0.0
  0
LINE
  5
3BB
330
6B
100
AcDbEntity
  8
0
 62
     7
100
AcDbLine
 10
1595.132927
 20
528.6640479999999
 30
0.0
 11
1691.75375278125
 21
528.6640479999999
 31
0.0
  0
LINE
  5
3BC
330
6B
100
AcDbEntity
  8
0
 62
     7
100
AcDbLine
 10
1595.132927
 20
543.664048
 30
0.0
 11
1691.75375278125
 21
543.664048
 31
0.0
  0
TEXT
  5
3BD
330
6B
100
AcDbEntity
  8
0
 62
     3
100
AcDbText
 10
1767.429321
 20
539.1213769999999
 30
0.0
 40
3.2
  1
ヒューズ
 41
0.8
  7
高3.2
100
AcDbText
  0
LINE
  5
3BE
330
6B
100
AcDbEntity
  8
0
 62
     7
100
AcDbLine
 10
1782.616854
 20
560.5053769999999
 30
0.0
 11
1836.257831
 21
560.5053769999999
 31
0.0
  0
LINE
  5
3BF
330
6B
100
AcDbEntity
  8
0
 62
     7
100
AcDbLine
 10
1782.616854
 20
554.9613769999999
 30
0.0
 11
1836.257831
 21
554.9613769999999
 31
0.0
  0
LINE
  5
3C0
330
6B
100
AcDbEntity
  8
0
 62
     7
100
AcDbLine
 10
1782.616854
 20
571.5933769999999
 30
0.0
 11
1836.257831
 21
571.5933769999999
 31
0.0
  0
LINE
  5
3C1
330
6B
100
AcDbEntity
  8
0
 62
     3
100
AcDbLine
 10
1836.257831
 20
593.769377
 30
0.0
 11
1836.257831
 21
527.2413769999999
 31
0.0
  0
LINE
  5
3C2
330
6B
100
AcDbEntity
  8
0
 62
     3
100
AcDbLine
 10
1765.845321
 20
593.769377
 30
0.0
 11
1765.845321
 21
527.2413769999999
 31
0.0
  0
LINE
  5
3C3
330
6B
100
AcDbEntity
  8
0
 62
     3
100
AcDbLine
 10
1782.616854
 20
593.769377
 30
0.0
 11
1782.616854
 21
527.2413769999999
 31
0.0
  0
TEXT
  5
3C4
330
6B
100
AcDbEntity
  8
0
 62
     3
100
AcDbText
 10
1891.623086
 20
521.174031
 30
0.0
 40
4.5
  1
直流安定化電源
  7
高4.5
100
AcDbText
  0
TEXT
  5
3C5
330
6B
100
AcDbEntity
  8
0
 62
     3
100
AcDbText
 10
1604.19125278125
 20
539.1640480000001
 30
0.0
 40
3.2
  1
冷却ファン
 41
0.8
  7
高3.2
100
AcDbText
  0
TEXT
  5
3C6
330
6B
100
AcDbEntity
  8
0
 62
     3
100
AcDbText
 10
1919.050273
 20
498.850241
 30
0.0
 40
3.2
  1
FREE
  7
高3.2
100
AcDbText
  0
LINE
  5
3CD
330
6B
100
AcDbEntity
  8
0
 62
     3
100
AcDbLine
 10
1582.731003
 20
629.164048
 30
0.0
 11
1580.132927
 21
627.6640480000001
 31
0.0
  0
LINE
  5
3CE
330
6B
100
AcDbEntity
  8
0
 62
     3
100
AcDbLine
 10
1582.731003
 20
629.164048
 30
0.0
 11
1580.132927
 21
630.6640480000001
 31
0.0
  0
LINE
  5
3CF
330
6B
100
AcDbEntity
  8
0
 62
     3
100
AcDbLine
 10
1580.132927
 20
627.6640480000001
 30
0.0
 11
1580.132927
 21
630.6640480000001
 31
0.0
  0
TEXT
  5
3D0
330
6B
100
AcDbEntity
  8
0
 62
     3
100
AcDbText
 10
1604.19125278125
 20
504.164048
 30
0.0
 40
3.2
  1
電流計
 41
0.8
  7
高3.2
100
AcDbText
  0
TEXT
  5
3D1
330
6B
100
AcDbEntity
  8
0
 62
     3
100
AcDbText
 10
1604.19125278125
 20
509.164048
 30
0.0
 40
3.2
  1
電圧計
 41
0.8
  7
高3.2
100
AcDbText
  0
TEXT
  5
3D2
330
6B
100
AcDbEntity
  8
0
 62
     3
100
AcDbText
 10
1604.19125278125
 20
514.1640480000001
 30
0.0
 40
3.2
  1
可変ボリューム
 41
0.8
  7
高3.2
100
AcDbText
  0
TEXT
  5
3D3
330
6B
100
AcDbEntity
  8
0
 62
     3
100
AcDbText
 10
1653.41000278125
 20
514.1640480000001
 30
0.0
 40
3.2
  1
ＤＣ０～１０Ｖ可変
 41
0.8
  7
高3.2
100
AcDbText
  0
TEXT
  5
3D4
330
6B
100
AcDbEntity
  8
0
 62
     3
100
AcDbText
 10
1653.41000278125
 20
519.164048
 30
0.0
 40
3.2
  1
シガーソケット
 41
0.8
  7
高3.2
100
AcDbText
  0
TEXT
  5
3D5
330
6B
100
AcDbEntity
  8
0
 62
     3
100
AcDbText
 10
1604.19125278125
 20
534.1640480000001
 30
0.0
 40
3.2
  1
ヒューズ
 41
0.8
  7
高3.2
100
AcDbText
  0
TEXT
  5
3D6
330
6B
100
AcDbEntity
  8
0
 62
     3
100
AcDbText
 10
1653.41000278125
 20
534.1640480000001
 30
0.0
 40
3.2
  1
3A
 41
0.8
  7
高3.2
100
AcDbText
  0
TEXT
  5
3D7
330
6B
100
AcDbEntity
  8
0
 62
     3
100
AcDbText
 10
1604.19125278125
 20
544.164048
 30
0.0
 40
3.2
  1
電源コード
 41
0.8
  7
高3.2
100
AcDbText
  0
TEXT
  5
3D8
330
6B
100
AcDbEntity
  8
0
 62
     3
100
AcDbText
 10
1653.41000278125
 20
544.164048
 30
0.0
 40
3.2
  1
AC100V
 41
0.8
  7
高3.2
100
AcDbText
  0
LINE
  5
3DE
330
6B
100
AcDbEntity
  8
0
 62
     7
100
AcDbLine
 10
1933.924778999999
 20
687.3062719999999
 30
0.0
 11
1940.156725
 21
718.4058509999999
 31
0.0
  0
CIRCLE
  5
3DF
330
6B
100
AcDbEntity
  8
0
 62
     7
100
AcDbCircle
 10
1941.13913
 20
723.3083889999999
 30
0.0
 40
5.0
  0
TEXT
  5
3E0
330
6B
100
AcDbEntity
  8
0
 62
     4
100
AcDbText
 10
1938.445700948697
 20
721.2436797183836
 30
0.0
 40
4.5
  1
10
  7
高4.5
100
AcDbText
  0
LINE
  5
3E6
330
6B
100
AcDbEntity
  8
0
 62
     7
100
AcDbLine
 10
1702.766137
 20
676.048211
 30
0.0
 11
1732.290896
 21
718.916937
 31
0.0
  0
CIRCLE
  5
3E7
330
6B
100
AcDbEntity
  8
0
 62
     7
100
AcDbCircle
 10
1735.126964
 20
723.03479
 30
0.0
 40
5.0
  0
TEXT
  5
3E8
330
6B
100
AcDbEntity
  8
0
 62
     4
100
AcDbText
 10
1732.864316298046
 20
719.7544024132688
 30
0.0
 40
6.299999999999999
  1
5
  7
高6.3
100
AcDbText
  0
LINE
  5
3EE
330
6B
100
AcDbEntity
  8
0
 62
     7
100
AcDbLine
 10
1699.518542
 20
695.673211
 30
0.0
 11
1711.645676
 21
718.6144009999999
 31
0.0
  0
CIRCLE
  5
3EF
330
6B
100
AcDbEntity
  8
0
 62
     7
100
AcDbCircle
 10
1713.982375
 20
723.03479
 30
0.0
 40
5.0
  0
TEXT
  5
3F0
330
6B
100
AcDbEntity
  8
0
 62
     4
100
AcDbText
 10
1711.719727298046
 20
719.7544024132688
 30
0.0
 40
6.299999999999999
  1
2
  7
高6.3
100
AcDbText
  0
LINE
  5
3F6
330
6B
100
AcDbEntity
  8
0
 62
     7
100
AcDbLine
 10
1898.400119
 20
647.355925
 30
0.0
 11
1913.317217
 21
635.0586019999999
 31
0.0
  0
CIRCLE
  5
3F7
330
6B
100
AcDbEntity
  8
0
 62
     7
100
AcDbCircle
 10
1917.175262
 20
631.878116
 30
0.0
 40
5.0
  0
TEXT
  5
3F8
330
6B
100
AcDbEntity
  8
0
 62
     4
100
AcDbText
 10
1914.85869336888
 20
629.8594869490498
 30
0.0
 40
4.5
  1
11
  7
高4.5
100
AcDbText
  0
LINE
  5
3FE
330
6B
100
AcDbEntity
  8
0
 62
     7
100
AcDbLine
 10
1880.543861
 20
654.177061
 30
0.0
 11
1886.448983
 21
636.6173159999999
 31
0.0
  0
CIRCLE
  5
3FF
330
6B
100
AcDbEntity
  8
0
 62
     7
100
AcDbCircle
 10
1888.042716
 20
631.878116
 30
0.0
 40
5.0
  0
TEXT
  5
400
330
6B
100
AcDbEntity
  8
0
 62
     4
100
AcDbText
 10
1885.780068298046
 20
628.5977284132688
 30
0.0
 40
6.299999999999999
  1
9
  7
高6.3
100
AcDbText
  0
LINE
  5
406
330
6B
100
AcDbEntity
  8
0
 62
     7
100
AcDbLine
 10
1687.094867
 20
654.923211
 30
0.0
 11
1692.384999
 21
636.680284
 31
0.0
  0
CIRCLE
  5
407
330
6B
100
AcDbEntity
  8
0
 62
     7
100
AcDbCircle
 10
1693.777545
 20
631.878116
 30
0.0
 40
5.0
  0
TEXT
  5
408
330
6B
100
AcDbEntity
  8
0
 62
     4
100
AcDbText
 10
1691.514897298046
 20
628.5977284132688
 30
0.0
 40
6.299999999999999
  1
8
  7
高6.3
100
AcDbText
  0
LINE
  5
40E
330
6B
100
AcDbEntity
  8
0
 62
     7
100
AcDbLine
 10
1651.942759
 20
654.9915179999999
 30
0.0
 11
1659.859954
 21
636.4754809999999
 31
0.0
  0
CIRCLE
  5
40F
330
6B
100
AcDbEntity
  8
0
 62
     7
100
AcDbCircle
 10
1661.825721
 20
631.878116
 30
0.0
 40
5.0
  0
TEXT
  5
410
330
6B
100
AcDbEntity
  8
0
 62
     4
100
AcDbText
 10
1659.563073298046
 20
628.5977284132688
 30
0.0
 40
6.299999999999999
  1
7
  7
高6.3
100
AcDbText
  0
LINE
  5
416
330
6B
100
AcDbEntity
  8
0
 62
     7
100
AcDbLine
 10
1627.301628999999
 20
655.736538
 30
0.0
 11
1629.711356
 21
636.8379589999999
 31
0.0
  0
CIRCLE
  5
417
330
6B
100
AcDbEntity
  8
0
 62
     7
100
AcDbCircle
 10
1630.343777
 20
631.878116
 30
0.0
 40
5.0
  0
TEXT
  5
418
330
6B
100
AcDbEntity
  8
0
 62
     4
100
AcDbText
 10
1628.081129298046
 20
628.5977284132688
 30
0.0
 40
6.299999999999999
  1
6
  7
高6.3
100
AcDbText
  0
LINE
  5
419
330
6B
100
AcDbEntity
  8
0
 62
     7
100
AcDbLine
 10
1602.69125278125
 20
488.664048
 30
0.0
 11
1602.69125278125
 21
548.6640480000001
 31
0.0
  0
LINE
  5
41A
330
6B
100
AcDbEntity
  8
0
 62
     3
100
AcDbLine
 10
1691.75375278125
 20
488.664048
 30
0.0
 11
1691.75375278125
 21
548.6640480000001
 31
0.0
  0
LINE
  5
41B
330
6B
100
AcDbEntity
  8
0
 62
     7
100
AcDbLine
 10
1651.91000278125
 20
488.664048
 30
0.0
 11
1651.91000278125
 21
548.6640480000001
 31
0.0
  0
LINE
  5
41C
330
6B
100
AcDbEntity
  8
0
 62
     7
100
AcDbLine
 10
1641.75375278125
 20
488.664048
 30
0.0
 11
1641.75375278125
 21
548.6640480000001
 31
0.0
  0
LINE
  5
41D
330
6B
100
AcDbEntity
  8
0
 62
     3
100
AcDbLine
 10
1595.132927
 20
548.6640480000001
 30
0.0
 11
1691.75375278125
 21
548.6640480000001
 31
0.0
  0
TEXT
  5
41E
330
6B
100
AcDbEntity
  8
0
 62
     3
100
AcDbText
 10
1653.41000278125
 20
509.164048
 30
0.0
 40
3.2
  1
-
 41
0.8
  7
高3.2
100
AcDbText
  0
TEXT
  5
41F
330
6B
100
AcDbEntity
  8
0
 62
     3
100
AcDbText
 10
1653.41000278125
 20
504.164048
 30
0.0
 40
3.2
  1
-
 41
0.8
  7
高3.2
100
AcDbText
  0
TEXT
  5
420
330
6B
100
AcDbEntity
  8
0
 62
     3
100
AcDbText
 10
1783.424195
 20
583.495623
 30
0.0
 40
3.2
  1
AC100V
 41
0.8
  7
高3.2
100
AcDbText
  0
TEXT
  5
421
330
6B
100
AcDbEntity
  8
0
 62
     3
100
AcDbText
 10
1783.424195
 20
589.039623
 30
0.0
 40
3.2
  1
DPS-1012M
 41
0.8
  7
高3.2
100
AcDbText
  0
TEXT
  5
422
330
6B
100
AcDbEntity
  8
0
 62
     3
100
AcDbText
 10
1783.424195
 20
577.951623
 30
0.0
 40
3.2
  1
DC0～15V可変
 41
0.8
  7
高3.2
100
AcDbText
  0
TEXT
  5
423
330
6B
100
AcDbEntity
  8
0
 62
     3
100
AcDbText
 10
1783.424195
 20
572.407623
 30
0.0
 40
3.2
  1
最大12A(連続10A)
 41
0.8
  7
高3.2
100
AcDbText
  0
TEXT
  5
424
330
6B
100
AcDbEntity
  8
0
 62
     3
100
AcDbText
 10
1783.424195
 20
566.863623
 30
0.0
 40
3.2
  1
定電流保護回路内蔵
 41
0.8
  7
高3.2
100
AcDbText
  0
TEXT
  5
425
330
6B
100
AcDbEntity
  8
0
 62
     3
100
AcDbText
 10
1767.429321
 20
561.2973769999999
 30
0.0
 40
3.2
  1
出力端子
 41
0.8
  7
高3.2
100
AcDbText
  0
TEXT
  5
426
330
6B
100
AcDbEntity
  8
0
 62
     3
100
AcDbText
 10
1783.424195
 20
561.319623
 30
0.0
 40
3.2
  1
シガーソケット　MAX10A
 41
0.8
  7
高3.2
100
AcDbText
  0
TEXT
  5
427
330
6B
100
AcDbEntity
  8
0
 62
     3
100
AcDbText
 10
1783.424195
 20
555.7756229999999
 30
0.0
 40
3.2
  1
ネジターミナル　MAX12A
 41
0.8
  7
高3.2
100
AcDbText
  0
TEXT
  5
428
330
6B
100
AcDbEntity
  8
0
 62
     3
100
AcDbText
 10
1783.424195
 20
550.2316229999999
 30
0.0
 40
3.2
  1
プッシュターミナル　MAX6A
 41
0.8
  7
高3.2
100
AcDbText
  0
TEXT
  5
429
330
6B
100
AcDbEntity
  8
0
 62
     3
100
AcDbText
 10
1653.41000278125
 20
529.1640479999998
 30
0.0
 40
3.2
  1
プッシュターミナル
 41
0.8
  7
高3.2
100
AcDbText
  0
TEXT
  5
42A
330
6B
100
AcDbEntity
  8
0
 62
     3
100
AcDbText
 10
1653.41000278125
 20
524.164048
 30
0.0
 40
3.2
  1
ネジターミナル
 41
0.8
  7
高3.2
100
AcDbText
  0
TEXT
  5
42B
330
6B
100
AcDbEntity
  8
0
 62
     3
100
AcDbText
 10
1604.19125278125
 20
529.1640479999998
 30
0.0
 40
3.2
  1
出力端子
 41
0.8
  7
高3.2
100
AcDbText
  0
TEXT
  5
42C
330
6B
100
AcDbEntity
  8
0
 62
     3
100
AcDbText
 10
1604.19125278125
 20
524.164048
 30
0.0
 40
3.2
  1
出力端子
 41
0.8
  7
高3.2
100
AcDbText
  0
TEXT
  5
42D
330
6B
100
AcDbEntity
  8
0
 62
     3
100
AcDbText
 10
1604.19125278125
 20
519.164048
 30
0.0
 40
3.2
  1
出力端子
 41
0.8
  7
高3.2
100
AcDbText
  0
TEXT
  5
42E
330
6B
100
AcDbEntity
  8
0
 62
     3
100
AcDbText
 10
1767.429321
 20
544.6653769999999
 30
0.0
 40
3.2
  1
出力表示
 41
0.8
  7
高3.2
100
AcDbText
  0
TEXT
  5
42F
330
6B
100
AcDbEntity
  8
0
 62
     3
100
AcDbText
 10
1783.424195
 20
544.6876229999999
 30
0.0
 40
3.2
  1
電流計・電圧計
 41
0.8
  7
高3.2
100
AcDbText
  0
TEXT
  5
430
330
6B
100
AcDbEntity
  8
0
 62
     3
100
AcDbText
 10
1783.424195
 20
539.143623
 30
0.0
 40
3.2
  1
3A
 41
0.8
  7
高3.2
100
AcDbText
  0
TEXT
  5
431
330
6B
100
AcDbEntity
  8
0
 62
     3
100
AcDbText
 10
1767.429321
 20
528.0333769999999
 30
0.0
 40
3.2
  1
質　量
 41
0.8
  7
高3.2
100
AcDbText
  0
TEXT
  5
432
330
6B
100
AcDbEntity
  8
0
 62
     3
100
AcDbText
 10
1783.424195
 20
528.0556230000001
 30
0.0
 40
3.2
  1
約5.5kg
 41
0.8
  7
高3.2
100
AcDbText
  0
TEXT
  5
433
330
6B
100
AcDbEntity
  8
0
 62
     3
100
AcDbText
 10
1767.429321
 20
533.5773769999999
 30
0.0
 40
3.2
  1
冷却方式
 41
0.8
  7
高3.2
100
AcDbText
  0
TEXT
  5
434
330
6B
100
AcDbEntity
  8
0
 62
     3
100
AcDbText
 10
1783.424195
 20
533.5996230000001
 30
0.0
 40
3.2
  1
FAN
 41
0.8
  7
高3.2
100
AcDbText
  0
LINE
  5
435
330
6B
100
AcDbEntity
  8
0
 62
     3
100
AcDbLine
 10
1765.845321
 20
593.769377
 30
0.0
 11
1836.257831
 21
593.769377
 31
0.0
  0
LINE
  5
436
330
6B
100
AcDbEntity
  8
0
 62
     7
100
AcDbLine
 10
1765.845321
 20
549.4173769999999
 30
0.0
 11
1836.257831
 21
549.4173769999999
 31
0.0
  0
LINE
  5
437
330
6B
100
AcDbEntity
  8
0
 62
     7
100
AcDbLine
 10
1765.845321
 20
582.681377
 30
0.0
 11
1836.257831
 21
582.681377
 31
0.0
  0
LINE
  5
438
330
6B
100
AcDbEntity
  8
0
 62
     7
100
AcDbLine
 10
1765.845321
 20
543.8733769999999
 30
0.0
 11
1836.257831
 21
543.8733769999999
 31
0.0
  0
LINE
  5
439
330
6B
100
AcDbEntity
  8
0
 62
     7
100
AcDbLine
 10
1765.845321
 20
538.3293769999998
 30
0.0
 11
1836.257831
 21
538.3293769999998
 31
0.0
  0
LINE
  5
43A
330
6B
100
AcDbEntity
  8
0
 62
     7
100
AcDbLine
 10
1765.845321
 20
532.7853769999999
 30
0.0
 11
1836.257831
 21
532.7853769999999
 31
0.0
  0
LINE
  5
43B
330
6B
100
AcDbEntity
  8
0
 62
     7
100
AcDbLine
 10
1765.845321
 20
588.225377
 30
0.0
 11
1836.257831
 21
588.225377
 31
0.0
  0
LINE
  5
43C
330
6B
100
AcDbEntity
  8
0
 62
     7
100
AcDbLine
 10
1765.845321
 20
577.1373769999999
 30
0.0
 11
1836.257831
 21
577.1373769999999
 31
0.0
  0
LINE
  5
43D
330
6B
100
AcDbEntity
  8
0
 62
     7
100
AcDbLine
 10
1765.845321
 20
566.0493769999999
 30
0.0
 11
1836.257831
 21
566.0493769999999
 31
0.0
  0
LINE
  5
43E
330
6B
100
AcDbEntity
  8
0
 62
     3
100
AcDbLine
 10
1765.845321
 20
527.2413769999999
 30
0.0
 11
1836.257831
 21
527.2413769999999
 31
0.0
  0
LINE
  5
444
330
6B
100
AcDbEntity
  8
0
 62
     7
100
AcDbLine
 10
1619.768542
 20
703.173211
 30
0.0
 11
1615.871788
 21
718.400163
 31
0.0
  0
CIRCLE
  5
445
330
6B
100
AcDbEntity
  8
0
 62
     7
100
AcDbCircle
 10
1614.632178
 20
723.244063
 30
0.0
 40
5.0
  0
TEXT
  5
446
330
6B
100
AcDbEntity
  8
0
 62
     4
100
AcDbText
 10
1613.431633754154
 20
720.1876987223886
 30
0.0
 40
6.299999999999999
  1
1
  7
高6.3
100
AcDbText
  0
LINE
  5
44C
330
6B
100
AcDbEntity
  8
0
 62
     7
100
AcDbLine
 10
1637.768542
 20
698.173211
 30
0.0
 11
1634.331699
 21
718.7617389999999
 31
0.0
  0
CIRCLE
  5
44D
330
6B
100
AcDbEntity
  8
0
 62
     7
100
AcDbCircle
 10
1633.508441
 20
723.693498
 30
0.0
 40
5.0
  0
TEXT
  5
44E
330
6B
100
AcDbEntity
  8
0
 62
     4
100
AcDbText
 10
1631.245793298046
 20
720.4131104132689
 30
0.0
 40
6.299999999999999
  1
3
  7
高6.3
100
AcDbText
  0
LINE
  5
454
330
6B
100
AcDbEntity
  8
0
 62
     7
100
AcDbLine
 10
1668.768542
 20
698.173211
 30
0.0
 11
1675.950931
 21
719.4065629999999
 31
0.0
  0
CIRCLE
  5
455
330
6B
100
AcDbEntity
  8
0
 62
     7
100
AcDbCircle
 10
1677.553054
 20
724.1429329999999
 30
0.0
 40
5.0
  0
TEXT
  5
456
330
6B
100
AcDbEntity
  8
0
 62
     4
100
AcDbText
 10
1675.290406298046
 20
720.8625454132689
 30
0.0
 40
6.299999999999999
  1
4
  7
高6.3
100
AcDbText
  0
TEXT
  5
457
330
6B
100
AcDbEntity
  8
0
 62
     3
100
AcDbText
 10
1891.794876213829
 20
513.140748
 30
0.0
 40
4.5
  1
DPS-1012M
  7
高4.5
100
AcDbText
  0
TEXT
  5
458
330
6B
100
AcDbEntity
  8
0
 62
     3
100
AcDbText
 10
1936.889467870727
 20
489.43845
 30
0.0
 40
6.299999999999999
  1
DPS-1012M
 41
0.8
  7
高6.3
100
AcDbText
  0
TEXT
  5
459
330
6B
100
AcDbEntity
  8
0
 62
     3
100
AcDbText
 10
1951.288516
 20
499.629475
 30
0.0
 40
3.2
  1
2008.10.06
  7
高3.2
100
AcDbText
  0
TEXT
  5
45A
330
6B
100
AcDbEntity
  8
0
 62
     3
100
AcDbText
 10
1964.159305287264
 20
528.973908
 30
0.0
 40
4.5
  1
6416
  7
高4.5
100
AcDbText
  0
TEXT
  5
538
330
6B
100
AcDbEntity
  8
0
 62
     3
100
AcDbText
 10
1972.632927
 20
753.219409
 30
0.0
 40
3.2
  1
担　当
  7
高3.2
100
AcDbText
  0
TEXT
  5
539
330
6B
100
AcDbEntity
  8
0
 62
     3
100
AcDbText
 10
1928.632927
 20
753.219409
 30
0.0
 40
3.2
  1
変更・追記内容
  7
高3.2
100
AcDbText
  0
TEXT
  5
53A
330
6B
100
AcDbEntity
  8
0
 62
     3
100
AcDbText
 10
1903.746442000339
 20
748.5488704900917
 30
0.0
 40
2.0
  1
1
  7
高2
100
AcDbText
  0
TEXT
  5
53B
330
6B
100
AcDbEntity
  8
0
 62
     3
100
AcDbText
 10
1903.437930523582
 20
743.3790537778188
 30
0.0
 40
2.0
  1
2
  7
高2
100
AcDbText
  0
TEXT
  5
53C
330
6B
100
AcDbEntity
  8
0
 62
     3
100
AcDbText
 10
1910.632927
 20
753.219409
 30
0.0
 40
3.2
  1
日　付
  7
高3.2
100
AcDbText
  0
TEXT
  5
53D
330
6B
100
AcDbEntity
  8
0
 62
     3
100
AcDbText
 10
1910.632927
 20
758.219409
 30
0.0
 40
3.2
  1
図　　　　面　　　　略　　　　歴
  7
高3.2
100
AcDbText
  0
TEXT
  5
53E
330
6B
100
AcDbEntity
  8
0
 62
     3
100
AcDbText
 10
1900.632927
 20
753.219409
 30
0.0
 40
3.2
  1
記号
  7
高3.2
100
AcDbText
  0
LINE
  5
53F
330
6B
100
AcDbEntity
  8
0
 62
     7
100
AcDbLine
 10
1904.132927
 20
746.5103050000001
 30
0.0
 11
1902.232927
 21
743.219409
 31
0.0
  0
LINE
  5
540
330
6B
100
AcDbEntity
  8
0
 62
     7
100
AcDbLine
 10
1904.132927
 20
746.5103050000001
 30
0.0
 11
1906.032927
 21
743.219409
 31
0.0
  0
LINE
  5
541
330
6B
100
AcDbEntity
  8
0
 62
     7
100
AcDbLine
 10
1902.232927
 20
743.219409
 30
0.0
 11
1906.032927
 21
743.219409
 31
0.0
  0
LINE
  5
542
330
6B
100
AcDbEntity
  8
0
 62
     7
100
AcDbLine
 10
1904.132927
 20
751.5103060000001
 30
0.0
 11
1902.232927
 21
748.219409
 31
0.0
  0
LINE
  5
543
330
6B
100
AcDbEntity
  8
0
 62
     7
100
AcDbLine
 10
1904.132927
 20
751.5103060000001
 30
0.0
 11
1906.032927
 21
748.219409
 31
0.0
  0
LINE
  5
544
330
6B
100
AcDbEntity
  8
0
 62
     7
100
AcDbLine
 10
1902.232927
 20
748.219409
 30
0.0
 11
1906.032927
 21
748.219409
 31
0.0
  0
LINE
  5
545
330
6B
100
AcDbEntity
  8
0
 62
     3
100
AcDbLine
 10
1899.132927
 20
757.719409
 30
0.0
 11
1985.132927
 21
757.719409
 31
0.0
  0
LINE
  5
546
330
6B
100
AcDbEntity
  8
0
 62
     3
100
AcDbLine
 10
1899.132927
 20
752.719409
 30
0.0
 11
1985.132927
 21
752.719409
 31
0.0
  0
LINE
  5
547
330
6B
100
AcDbEntity
  8
0
 62
     7
100
AcDbLine
 10
1899.132927
 20
747.719409
 30
0.0
 11
1985.132927
 21
747.719409
 31
0.0
  0
LINE
  5
548
330
6B
100
AcDbEntity
  8
0
 62
     3
100
AcDbLine
 10
1899.132927
 20
742.719409
 30
0.0
 11
1985.132927
 21
742.719409
 31
0.0
  0
LINE
  5
549
330
6B
100
AcDbEntity
  8
0
 62
     7
100
AcDbLine
 10
1971.132927
 20
742.719409
 30
0.0
 11
1971.132927
 21
757.719409
 31
0.0
  0
LINE
  5
54A
330
6B
100
AcDbEntity
  8
0
 62
     7
100
AcDbLine
 10
1927.132927
 20
742.719409
 30
0.0
 11
1927.132927
 21
757.719409
 31
0.0
  0
LINE
  5
54B
330
6B
100
AcDbEntity
  8
0
 62
     7
100
AcDbLine
 10
1909.132927
 20
742.719409
 30
0.0
 11
1909.132927
 21
757.719409
 31
0.0
  0
LINE
  5
54C
330
6B
100
AcDbEntity
  8
0
 62
     3
100
AcDbLine
 10
1899.132927
 20
742.719409
 30
0.0
 11
1899.132927
 21
762.719409
 31
0.0
  0
TEXT
  5
6A0
330
6B
100
AcDbEntity
  8
0
 62
     7
100
AcDbText
 10
1878.1043525
 20
663.2952934999999
 30
0.0
 40
1.25
  1
AC 100V
100
AcDbText
  0
TEXT
  5
6A3
330
6B
100
AcDbEntity
  8
0
 62
     7
100
AcDbText
 10
1878.1582105
 20
664.9314144999999
 30
0.0
 40
1.25
  1
FUSE 3A
100
AcDbText
  0
TEXT
  5
6A4
330
6B
100
AcDbEntity
  8
0
 62
     7
100
AcDbText
 10
1697.132974
 20
698.0828299999999
 30
0.0
 40
1.25
  1
POWER
 41
0.7
100
AcDbText
  0
TEXT
  5
6A5
330
6B
100
AcDbEntity
  8
0
 62
     7
100
AcDbText
 10
1654.300253
 20
663.2952934999999
 30
0.0
 40
1.25
  1
MAX.12A
 41
0.9
100
AcDbText
  0
TEXT
  5
6A6
330
6B
100
AcDbEntity
  8
0
 62
     7
100
AcDbText
 10
1653.6132285
 20
664.9314144999999
 30
0.0
 40
1.25
  1
DC OUTPUT
 41
0.7
100
AcDbText
  0
TEXT
  5
6A7
330
6B
100
AcDbEntity
  8
0
 62
     7
100
AcDbText
 10
1682.8269045
 20
669.3507734999999
 30
0.0
 40
1.25
  1
FAULT
 41
0.7
100
AcDbText
  0
TEXT
  5
6A8
330
6B
100
AcDbEntity
  8
0
 62
     7
100
AcDbText
 10
1697.573206
 20
682.1505724999999
 30
0.0
 40
1.25
  1
V.ADJ.
 41
0.7
100
AcDbText
  0
TEXT
  5
6A9
330
6B
100
AcDbEntity
  8
0
 62
     7
100
AcDbText
 10
1690.550253
 20
663.2952934999999
 30
0.0
 40
1.25
  1
MAX.6A
 41
0.9
100
AcDbText
  0
TEXT
  5
6AA
330
6B
100
AcDbEntity
  8
0
 62
     7
100
AcDbText
 10
1689.8632285
 20
664.9314144999999
 30
0.0
 40
1.25
  1
DC OUTPUT
 41
0.7
100
AcDbText
  0
TEXT
  5
6AB
330
6B
100
AcDbEntity
  8
0
 62
     7
100
AcDbText
 10
1626.843011
 20
670.9408644999999
 30
0.0
 40
1.25
  1
MAX.10A
 41
0.9
100
AcDbText
  0
TEXT
  5
6AC
330
6B
100
AcDbEntity
  8
0
 62
     7
100
AcDbText
 10
1626.007976
 20
672.5405504999998
 30
0.0
 40
1.25
  1
DC OUTPUT
 41
0.7
100
AcDbText
  0
TEXT
  5
6AD
330
6B
100
AcDbEntity
  8
0
 62
     7
100
AcDbText
 10
1666.3728705
 20
679.7351615
 30
0.0
 40
1.25
  1
VOLTAGE
 41
0.7
100
AcDbText
  0
TEXT
  5
6AE
330
6B
100
AcDbEntity
  8
0
 62
     7
100
AcDbText
 10
1634.8728705
 20
679.7351615
 30
0.0
 40
1.25
  1
CURRENT
 41
0.7
100
AcDbText
  0
LINE
  5
6FE
330
6B
100
AcDbEntity
  8
0
 62
     7
100
AcDbLine
 10
1668.901748
 20
700.2394739999999
 30
0.0
 11
1668.768542
 21
698.173211
 31
0.0
  0
LINE
  5
6FF
330
6B
100
AcDbEntity
  8
0
 62
     7
100
AcDbLine
 10
1668.768542
 20
698.173211
 30
0.0
 11
1669.917034
 21
699.8960429999999
 31
0.0
  0
LINE
  5
700
330
6B
100
AcDbEntity
  8
0
 62
     7
100
AcDbLine
 10
1636.910654
 20
700.057678
 30
0.0
 11
1637.768542
 21
698.173211
 31
0.0
  0
LINE
  5
701
330
6B
100
AcDbEntity
  8
0
 62
     7
100
AcDbLine
 10
1637.768542
 20
698.173211
 30
0.0
 11
1637.967823
 21
700.2341509999999
 31
0.0
  0
LINE
  5
702
330
6B
100
AcDbEntity
  8
0
 62
     7
100
AcDbLine
 10
1618.75353
 20
704.9779099999999
 30
0.0
 11
1619.768542
 21
703.173211
 31
0.0
  0
LINE
  5
703
330
6B
100
AcDbEntity
  8
0
 62
     7
100
AcDbLine
 10
1619.768542
 20
703.173211
 30
0.0
 11
1619.791865
 21
705.243632
 31
0.0
  0
LINE
  5
704
330
6B
100
AcDbEntity
  8
0
 62
     7
100
AcDbLine
 10
1628.086192
 20
653.820384
 30
0.0
 11
1627.301628999999
 21
655.736538
 31
0.0
  0
LINE
  5
705
330
6B
100
AcDbEntity
  8
0
 62
     7
100
AcDbLine
 10
1627.301628999999
 20
655.736538
 30
0.0
 11
1627.023003
 21
653.6848179999999
 31
0.0
  0
LINE
  5
706
330
6B
100
AcDbEntity
  8
0
 62
     7
100
AcDbLine
 10
1653.22181
 20
653.3632619999999
 30
0.0
 11
1651.942759
 21
654.9915179999999
 31
0.0
  0
LINE
  5
707
330
6B
100
AcDbEntity
  8
0
 62
     7
100
AcDbLine
 10
1651.942759
 20
654.9915179999999
 30
0.0
 11
1652.236322
 21
652.941882
 31
0.0
  0
LINE
  5
708
330
6B
100
AcDbEntity
  8
0
 62
     7
100
AcDbLine
 10
1688.16658
 20
653.151596
 30
0.0
 11
1687.094867
 21
654.923211
 31
0.0
  0
LINE
  5
709
330
6B
100
AcDbEntity
  8
0
 62
     7
100
AcDbLine
 10
1687.094867
 20
654.923211
 30
0.0
 11
1687.137191
 21
652.853091
 31
0.0
  0
LINE
  5
70A
330
6B
100
AcDbEntity
  8
0
 62
     7
100
AcDbLine
 10
1881.6893
 20
652.4521969999999
 30
0.0
 11
1880.543861
 21
654.177061
 31
0.0
  0
LINE
  5
70B
330
6B
100
AcDbEntity
  8
0
 62
     7
100
AcDbLine
 10
1880.543861
 20
654.177061
 30
0.0
 11
1880.673408
 21
652.110565
 31
0.0
  0
LINE
  5
70C
330
6B
100
AcDbEntity
  8
0
 62
     7
100
AcDbLine
 10
1900.28422
 20
646.4972339999999
 30
0.0
 11
1898.400119
 21
647.355925
 31
0.0
  0
LINE
  5
70D
330
6B
100
AcDbEntity
  8
0
 62
     7
100
AcDbLine
 10
1898.400119
 20
647.355925
 30
0.0
 11
1899.602453
 21
645.670226
 31
0.0
  0
LINE
  5
70E
330
6B
100
AcDbEntity
  8
0
 62
     7
100
AcDbLine
 10
1699.979445
 20
697.691813
 30
0.0
 11
1699.518542
 21
695.673211
 31
0.0
  0
LINE
  5
70F
330
6B
100
AcDbEntity
  8
0
 62
     7
100
AcDbLine
 10
1699.518542
 20
695.673211
 30
0.0
 11
1700.926997
 21
697.1909199999999
 31
0.0
  0
LINE
  5
710
330
6B
100
AcDbEntity
  8
0
 62
     7
100
AcDbLine
 10
1703.459214
 20
677.999321
 30
0.0
 11
1702.766137
 21
676.048211
 31
0.0
  0
LINE
  5
711
330
6B
100
AcDbEntity
  8
0
 62
     7
100
AcDbLine
 10
1702.766137
 20
676.048211
 30
0.0
 11
1704.341914
 21
677.391383
 31
0.0
  0
LINE
  5
712
330
6B
100
AcDbEntity
  8
0
 62
     7
100
AcDbLine
 10
1933.792288
 20
689.3725809999999
 30
0.0
 11
1933.924778999999
 21
687.3062719999999
 31
0.0
  0
LINE
  5
713
330
6B
100
AcDbEntity
  8
0
 62
     7
100
AcDbLine
 10
1933.924778999999
 20
687.3062719999999
 30
0.0
 11
1934.843193
 21
689.1619929999999
 31
0.0
  0
LINE
  5
714
330
6B
100
AcDbEntity
  8
0
 62
     7
100
AcDbLine
 10
1894.510228
 20
637.614708
 30
0.0
 11
1895.336598
 21
637.0394079999999
 31
0.0
  0
LINE
  5
715
330
6B
100
AcDbEntity
  8
0
 62
     7
100
AcDbLine
 10
1895.336598
 20
637.0394079999999
 30
0.0
 11
1896.138668
 21
636.8771519999999
 31
0.0
  0
LINE
  5
716
330
6B
100
AcDbEntity
  8
0
 62
     7
100
AcDbLine
 10
1896.138668
 20
636.8771519999999
 30
0.0
 11
1896.958004
 21
637.389132
 31
0.0
  0
LINE
  5
717
330
6B
100
AcDbEntity
  8
0
 62
     7
100
AcDbLine
 10
1896.958004
 20
637.389132
 30
0.0
 11
1897.767107
 21
637.8944709999999
 31
0.0
  0
LINE
  5
718
330
6B
100
AcDbEntity
  8
0
 62
     7
100
AcDbLine
 10
1897.767107
 20
637.8944709999999
 30
0.0
 11
1898.59794
 21
637.676391
 31
0.0
  0
LINE
  5
719
330
6B
100
AcDbEntity
  8
0
 62
     7
100
AcDbLine
 10
1898.59794
 20
637.676391
 30
0.0
 11
1899.446436
 21
636.978884
 31
0.0
  0
LINE
  5
71A
330
6B
100
AcDbEntity
  8
0
 62
     7
100
AcDbLine
 10
1622.305719
 20
700.371659
 30
0.0
 11
1622.317367
 21
700.271966
 31
0.0
  0
LINE
  5
71B
330
6B
100
AcDbEntity
  8
0
 62
     7
100
AcDbLine
 10
1622.317367
 20
700.271966
 30
0.0
 11
1622.352224
 21
700.173033
 31
0.0
  0
LINE
  5
71C
330
6B
100
AcDbEntity
  8
0
 62
     7
100
AcDbLine
 10
1622.352224
 20
700.173033
 30
0.0
 11
1622.410025
 21
700.075611
 31
0.0
  0
LINE
  5
71D
330
6B
100
AcDbEntity
  8
0
 62
     7
100
AcDbLine
 10
1622.410025
 20
700.075611
 30
0.0
 11
1622.490329
 21
699.980442
 31
0.0
  0
LINE
  5
71E
330
6B
100
AcDbEntity
  8
0
 62
     7
100
AcDbLine
 10
1622.490329
 20
699.980442
 30
0.0
 11
1622.592525
 21
699.8882499999999
 31
0.0
  0
LINE
  5
71F
330
6B
100
AcDbEntity
  8
0
 62
     7
100
AcDbLine
 10
1622.592525
 20
699.8882499999999
 30
0.0
 11
1622.715835
 21
699.799737
 31
0.0
  0
LINE
  5
720
330
6B
100
AcDbEntity
  8
0
 62
     7
100
AcDbLine
 10
1622.715835
 20
699.799737
 30
0.0
 11
1622.859322
 21
699.715578
 31
0.0
  0
LINE
  5
721
330
6B
100
AcDbEntity
  8
0
 62
     7
100
AcDbLine
 10
1622.859322
 20
699.715578
 30
0.0
 11
1623.021892
 21
699.636411
 31
0.0
  0
LINE
  5
722
330
6B
100
AcDbEntity
  8
0
 62
     7
100
AcDbLine
 10
1623.021892
 20
699.636411
 30
0.0
 11
1623.202309
 21
699.5628400000001
 31
0.0
  0
LINE
  5
723
330
6B
100
AcDbEntity
  8
0
 62
     7
100
AcDbLine
 10
1623.202309
 20
699.5628400000001
 30
0.0
 11
1623.3992
 21
699.4954240000001
 31
0.0
  0
LINE
  5
724
330
6B
100
AcDbEntity
  8
0
 62
     7
100
AcDbLine
 10
1623.3992
 20
699.4954240000001
 30
0.0
 11
1623.611066
 21
699.434678
 31
0.0
  0
LINE
  5
725
330
6B
100
AcDbEntity
  8
0
 62
     7
100
AcDbLine
 10
1623.611066
 20
699.434678
 30
0.0
 11
1623.836294
 21
699.381062
 31
0.0
  0
LINE
  5
726
330
6B
100
AcDbEntity
  8
0
 62
     7
100
AcDbLine
 10
1623.836294
 20
699.381062
 30
0.0
 11
1624.073171
 21
699.3349849999999
 31
0.0
  0
LINE
  5
727
330
6B
100
AcDbEntity
  8
0
 62
     7
100
AcDbLine
 10
1624.073171
 20
699.3349849999999
 30
0.0
 11
1624.319894
 21
699.2967980000001
 31
0.0
  0
LINE
  5
728
330
6B
100
AcDbEntity
  8
0
 62
     7
100
AcDbLine
 10
1624.319894
 20
699.2967980000001
 30
0.0
 11
1624.574585
 21
699.266791
 31
0.0
  0
LINE
  5
729
330
6B
100
AcDbEntity
  8
0
 62
     7
100
AcDbLine
 10
1624.574585
 20
699.266791
 30
0.0
 11
1624.835306
 21
699.2451929999999
 31
0.0
  0
LINE
  5
72A
330
6B
100
AcDbEntity
  8
0
 62
     7
100
AcDbLine
 10
1624.835306
 20
699.2451929999999
 30
0.0
 11
1625.100073
 21
699.2321689999999
 31
0.0
  0
LINE
  5
72B
330
6B
100
AcDbEntity
  8
0
 62
     7
100
AcDbLine
 10
1625.100073
 20
699.2321689999999
 30
0.0
 11
1625.366869
 21
699.2278159999999
 31
0.0
  0
LINE
  5
72C
330
6B
100
AcDbEntity
  8
0
 62
     7
100
AcDbLine
 10
1625.366869
 20
699.2278159999999
 30
0.0
 11
1625.633666
 21
699.2321689999999
 31
0.0
  0
LINE
  5
72D
330
6B
100
AcDbEntity
  8
0
 62
     7
100
AcDbLine
 10
1625.633666
 20
699.2321689999999
 30
0.0
 11
1625.898433
 21
699.2451929999999
 31
0.0
  0
LINE
  5
72E
330
6B
100
AcDbEntity
  8
0
 62
     7
100
AcDbLine
 10
1625.898433
 20
699.2451929999999
 30
0.0
 11
1626.159154
 21
699.266791
 31
0.0
  0
LINE
  5
72F
330
6B
100
AcDbEntity
  8
0
 62
     7
100
AcDbLine
 10
1626.159154
 20
699.266791
 30
0.0
 11
1626.413845
 21
699.2967980000001
 31
0.0
  0
LINE
  5
730
330
6B
100
AcDbEntity
  8
0
 62
     7
100
AcDbLine
 10
1626.413845
 20
699.2967980000001
 30
0.0
 11
1626.660568
 21
699.3349849999999
 31
0.0
  0
LINE
  5
731
330
6B
100
AcDbEntity
  8
0
 62
     7
100
AcDbLine
 10
1626.660568
 20
699.3349849999999
 30
0.0
 11
1626.897445
 21
699.381062
 31
0.0
  0
LINE
  5
732
330
6B
100
AcDbEntity
  8
0
 62
     7
100
AcDbLine
 10
1626.897445
 20
699.381062
 30
0.0
 11
1627.122673
 21
699.434678
 31
0.0
  0
LINE
  5
733
330
6B
100
AcDbEntity
  8
0
 62
     7
100
AcDbLine
 10
1627.122673
 20
699.434678
 30
0.0
 11
1627.334539
 21
699.4954240000001
 31
0.0
  0
LINE
  5
734
330
6B
100
AcDbEntity
  8
0
 62
     7
100
AcDbLine
 10
1627.334539
 20
699.4954240000001
 30
0.0
 11
1627.53143
 21
699.5628400000001
 31
0.0
  0
LINE
  5
735
330
6B
100
AcDbEntity
  8
0
 62
     7
100
AcDbLine
 10
1627.53143
 20
699.5628400000001
 30
0.0
 11
1627.711847
 21
699.636411
 31
0.0
  0
LINE
  5
736
330
6B
100
AcDbEntity
  8
0
 62
     7
100
AcDbLine
 10
1627.711847
 20
699.636411
 30
0.0
 11
1627.874417
 21
699.715578
 31
0.0
  0
LINE
  5
737
330
6B
100
AcDbEntity
  8
0
 62
     7
100
AcDbLine
 10
1627.874417
 20
699.715578
 30
0.0
 11
1628.017904
 21
699.799737
 31
0.0
  0
LINE
  5
738
330
6B
100
AcDbEntity
  8
0
 62
     7
100
AcDbLine
 10
1628.017904
 20
699.799737
 30
0.0
 11
1628.141214
 21
699.8882499999999
 31
0.0
  0
LINE
  5
739
330
6B
100
AcDbEntity
  8
0
 62
     7
100
AcDbLine
 10
1628.141214
 20
699.8882499999999
 30
0.0
 11
1628.24341
 21
699.980442
 31
0.0
  0
LINE
  5
73A
330
6B
100
AcDbEntity
  8
0
 62
     7
100
AcDbLine
 10
1628.24341
 20
699.980442
 30
0.0
 11
1628.323714
 21
700.075611
 31
0.0
  0
LINE
  5
73B
330
6B
100
AcDbEntity
  8
0
 62
     7
100
AcDbLine
 10
1628.323714
 20
700.075611
 30
0.0
 11
1628.381514
 21
700.173033
 31
0.0
  0
LINE
  5
73C
330
6B
100
AcDbEntity
  8
0
 62
     7
100
AcDbLine
 10
1628.381514
 20
700.173033
 30
0.0
 11
1628.416372
 21
700.271966
 31
0.0
  0
LINE
  5
73D
330
6B
100
AcDbEntity
  8
0
 62
     7
100
AcDbLine
 10
1628.416372
 20
700.271966
 30
0.0
 11
1628.42802
 21
700.371659
 31
0.0
  0
LINE
  5
73E
330
6B
100
AcDbEntity
  8
0
 62
     7
100
AcDbLine
 10
1628.42802
 20
700.371659
 30
0.0
 11
1628.416372
 21
700.471351
 31
0.0
  0
LINE
  5
73F
330
6B
100
AcDbEntity
  8
0
 62
     7
100
AcDbLine
 10
1628.416372
 20
700.471351
 30
0.0
 11
1628.381514
 21
700.570285
 31
0.0
  0
LINE
  5
740
330
6B
100
AcDbEntity
  8
0
 62
     7
100
AcDbLine
 10
1628.381514
 20
700.570285
 30
0.0
 11
1628.323714
 21
700.6677070000001
 31
0.0
  0
LINE
  5
741
330
6B
100
AcDbEntity
  8
0
 62
     7
100
AcDbLine
 10
1628.323714
 20
700.6677070000001
 30
0.0
 11
1628.24341
 21
700.762876
 31
0.0
  0
LINE
  5
742
330
6B
100
AcDbEntity
  8
0
 62
     7
100
AcDbLine
 10
1628.24341
 20
700.762876
 30
0.0
 11
1628.141214
 21
700.8550679999999
 31
0.0
  0
LINE
  5
743
330
6B
100
AcDbEntity
  8
0
 62
     7
100
AcDbLine
 10
1628.141214
 20
700.8550679999999
 30
0.0
 11
1628.017904
 21
700.94358
 31
0.0
  0
LINE
  5
744
330
6B
100
AcDbEntity
  8
0
 62
     7
100
AcDbLine
 10
1628.017904
 20
700.94358
 30
0.0
 11
1627.874417
 21
701.0277399999999
 31
0.0
  0
LINE
  5
745
330
6B
100
AcDbEntity
  8
0
 62
     7
100
AcDbLine
 10
1627.874417
 20
701.0277399999999
 30
0.0
 11
1627.711847
 21
701.1069069999999
 31
0.0
  0
LINE
  5
746
330
6B
100
AcDbEntity
  8
0
 62
     7
100
AcDbLine
 10
1627.711847
 20
701.1069069999999
 30
0.0
 11
1627.53143
 21
701.180478
 31
0.0
  0
LINE
  5
747
330
6B
100
AcDbEntity
  8
0
 62
     7
100
AcDbLine
 10
1627.53143
 20
701.180478
 30
0.0
 11
1627.334539
 21
701.247893
 31
0.0
  0
LINE
  5
748
330
6B
100
AcDbEntity
  8
0
 62
     7
100
AcDbLine
 10
1627.334539
 20
701.247893
 30
0.0
 11
1627.122673
 21
701.30864
 31
0.0
  0
LINE
  5
749
330
6B
100
AcDbEntity
  8
0
 62
     7
100
AcDbLine
 10
1627.122673
 20
701.30864
 30
0.0
 11
1626.897445
 21
701.3622559999999
 31
0.0
  0
LINE
  5
74A
330
6B
100
AcDbEntity
  8
0
 62
     7
100
AcDbLine
 10
1626.897445
 20
701.3622559999999
 30
0.0
 11
1626.660568
 21
701.408333
 31
0.0
  0
LINE
  5
74B
330
6B
100
AcDbEntity
  8
0
 62
     7
100
AcDbLine
 10
1626.660568
 20
701.408333
 30
0.0
 11
1626.413845
 21
701.44652
 31
0.0
  0
LINE
  5
74C
330
6B
100
AcDbEntity
  8
0
 62
     7
100
AcDbLine
 10
1626.413845
 20
701.44652
 30
0.0
 11
1626.159154
 21
701.4765259999999
 31
0.0
  0
LINE
  5
74D
330
6B
100
AcDbEntity
  8
0
 62
     7
100
AcDbLine
 10
1626.159154
 20
701.4765259999999
 30
0.0
 11
1625.898433
 21
701.498124
 31
0.0
  0
LINE
  5
74E
330
6B
100
AcDbEntity
  8
0
 62
     7
100
AcDbLine
 10
1625.898433
 20
701.498124
 30
0.0
 11
1625.633666
 21
701.511149
 31
0.0
  0
LINE
  5
74F
330
6B
100
AcDbEntity
  8
0
 62
     7
100
AcDbLine
 10
1625.633666
 20
701.511149
 30
0.0
 11
1625.366869
 21
701.5155019999999
 31
0.0
  0
LINE
  5
750
330
6B
100
AcDbEntity
  8
0
 62
     7
100
AcDbLine
 10
1625.366869
 20
701.5155019999999
 30
0.0
 11
1625.100073
 21
701.511149
 31
0.0
  0
LINE
  5
751
330
6B
100
AcDbEntity
  8
0
 62
     7
100
AcDbLine
 10
1625.100073
 20
701.511149
 30
0.0
 11
1624.835306
 21
701.498124
 31
0.0
  0
LINE
  5
752
330
6B
100
AcDbEntity
  8
0
 62
     7
100
AcDbLine
 10
1624.835306
 20
701.498124
 30
0.0
 11
1624.574585
 21
701.4765259999999
 31
0.0
  0
LINE
  5
753
330
6B
100
AcDbEntity
  8
0
 62
     7
100
AcDbLine
 10
1624.574585
 20
701.4765259999999
 30
0.0
 11
1624.319894
 21
701.44652
 31
0.0
  0
LINE
  5
754
330
6B
100
AcDbEntity
  8
0
 62
     7
100
AcDbLine
 10
1624.319894
 20
701.44652
 30
0.0
 11
1624.073171
 21
701.408333
 31
0.0
  0
LINE
  5
755
330
6B
100
AcDbEntity
  8
0
 62
     7
100
AcDbLine
 10
1624.073171
 20
701.408333
 30
0.0
 11
1623.836294
 21
701.3622559999999
 31
0.0
  0
LINE
  5
756
330
6B
100
AcDbEntity
  8
0
 62
     7
100
AcDbLine
 10
1623.836294
 20
701.3622559999999
 30
0.0
 11
1623.611066
 21
701.30864
 31
0.0
  0
LINE
  5
757
330
6B
100
AcDbEntity
  8
0
 62
     7
100
AcDbLine
 10
1623.611066
 20
701.30864
 30
0.0
 11
1623.3992
 21
701.247893
 31
0.0
  0
LINE
  5
758
330
6B
100
AcDbEntity
  8
0
 62
     7
100
AcDbLine
 10
1623.3992
 20
701.247893
 30
0.0
 11
1623.202309
 21
701.180478
 31
0.0
  0
LINE
  5
759
330
6B
100
AcDbEntity
  8
0
 62
     7
100
AcDbLine
 10
1623.202309
 20
701.180478
 30
0.0
 11
1623.021892
 21
701.1069069999999
 31
0.0
  0
LINE
  5
75A
330
6B
100
AcDbEntity
  8
0
 62
     7
100
AcDbLine
 10
1623.021892
 20
701.1069069999999
 30
0.0
 11
1622.859322
 21
701.0277399999999
 31
0.0
  0
LINE
  5
75B
330
6B
100
AcDbEntity
  8
0
 62
     7
100
AcDbLine
 10
1622.859322
 20
701.0277399999999
 30
0.0
 11
1622.715835
 21
700.94358
 31
0.0
  0
LINE
  5
75C
330
6B
100
AcDbEntity
  8
0
 62
     7
100
AcDbLine
 10
1622.715835
 20
700.94358
 30
0.0
 11
1622.592525
 21
700.8550679999999
 31
0.0
  0
LINE
  5
75D
330
6B
100
AcDbEntity
  8
0
 62
     7
100
AcDbLine
 10
1622.592525
 20
700.8550679999999
 30
0.0
 11
1622.490329
 21
700.762876
 31
0.0
  0
LINE
  5
75E
330
6B
100
AcDbEntity
  8
0
 62
     7
100
AcDbLine
 10
1622.490329
 20
700.762876
 30
0.0
 11
1622.410025
 21
700.6677070000001
 31
0.0
  0
LINE
  5
75F
330
6B
100
AcDbEntity
  8
0
 62
     7
100
AcDbLine
 10
1622.410025
 20
700.6677070000001
 30
0.0
 11
1622.352224
 21
700.570285
 31
0.0
  0
LINE
  5
760
330
6B
100
AcDbEntity
  8
0
 62
     7
100
AcDbLine
 10
1622.352224
 20
700.570285
 30
0.0
 11
1622.317367
 21
700.471351
 31
0.0
  0
LINE
  5
761
330
6B
100
AcDbEntity
  8
0
 62
     7
100
AcDbLine
 10
1622.317367
 20
700.471351
 30
0.0
 11
1622.305719
 21
700.371659
 31
0.0
  0
LINE
  5
762
330
6B
100
AcDbEntity
  8
0
100
AcDbLine
 10
1741.880151
 20
645.423211
 30
0.0
 11
1741.880151
 21
618.169563
 31
0.0
  0
LINE
  5
763
330
6B
100
AcDbEntity
  8
0
100
AcDbLine
 10
1854.380151
 20
645.423211
 30
0.0
 11
1854.380151
 21
618.169563
 31
0.0
  0
LINE
  5
764
330
6B
100
AcDbEntity
  8
0
100
AcDbLine
 10
1744.380151
 20
619.419563
 30
0.0
 11
1851.880151
 21
619.419563
 31
0.0
  0
LINE
  5
768
330
6B
100
AcDbEntity
  8
0
100
AcDbLine
 10
1744.130151
 20
640.673211
 30
0.0
 11
1727.792838
 21
640.673211
 31
0.0
  0
LINE
  5
769
330
6B
100
AcDbEntity
  8
0
100
AcDbLine
 10
1741.630151
 20
703.173211
 30
0.0
 11
1727.792838
 21
703.173211
 31
0.0
  0
LINE
  5
76A
330
6B
100
AcDbEntity
  8
0
100
AcDbLine
 10
1729.042837999999
 20
643.173211
 30
0.0
 11
1729.042837999999
 21
700.673211
 31
0.0
  0
LINE
  5
76E
330
6B
100
AcDbEntity
  8
0
100
AcDbLine
 10
1617.268542
 20
645.423211
 30
0.0
 11
1617.268542
 21
618.169563
 31
0.0
  0
LINE
  5
76F
330
6B
100
AcDbEntity
  8
0
100
AcDbLine
 10
1714.768542
 20
645.423211
 30
0.0
 11
1714.768542
 21
618.169563
 31
0.0
  0
LINE
  5
770
330
6B
100
AcDbEntity
  8
0
100
AcDbLine
 10
1619.768542
 20
619.419563
 30
0.0
 11
1712.268542
 21
619.419563
 31
0.0
  0
TEXT
  5
774
330
6B
100
AcDbEntity
  8
0
  6
Continuous
 62
     4
100
AcDbText
 10
1794.130151
 20
620.044563
 30
0.0
 40
3.0
  1
225
100
AcDbText
  0
LINE
  5
775
330
6B
100
AcDbEntity
  8
0
  6
ByBlock
 62
     0
370
    -2
100
AcDbLine
 10
1851.880151
 20
620.0894355
 30
0.0
 11
1854.380151
 21
619.419563
 31
0.0
  0
LINE
  5
776
330
6B
100
AcDbEntity
  8
0
  6
ByBlock
 62
     0
370
    -2
100
AcDbLine
 10
1854.380151
 20
619.419563
 30
0.0
 11
1851.880151
 21
618.7496905
 31
0.0
  0
LINE
  5
777
330
6B
100
AcDbEntity
  8
0
  6
ByBlock
 62
     0
370
    -2
100
AcDbLine
 10
1854.380151
 20
619.419563
 30
0.0
 11
1851.880151
 21
619.419563
 31
0.0
  0
LINE
  5
778
330
6B
100
AcDbEntity
  8
0
  6
ByBlock
 62
     0
370
    -2
100
AcDbLine
 10
1744.380151
 20
618.7496905
 30
0.0
 11
1741.880151
 21
619.419563
 31
0.0
  0
LINE
  5
779
330
6B
100
AcDbEntity
  8
0
  6
ByBlock
 62
     0
370
    -2
100
AcDbLine
 10
1741.880151
 20
619.419563
 30
0.0
 11
1744.380151
 21
620.0894355
 31
0.0
  0
LINE
  5
77A
330
6B
100
AcDbEntity
  8
0
  6
ByBlock
 62
     0
370
    -2
100
AcDbLine
 10
1741.880151
 20
619.419563
 30
0.0
 11
1744.380151
 21
619.419563
 31
0.0
  0
TEXT
  5
77B
330
6B
100
AcDbEntity
  8
0
  6
Continuous
 62
     4
100
AcDbText
 10
1728.417837999999
 20
668.4232110000002
 30
0.0
 40
3.0
  1
125
 50
90.0
100
AcDbText
  0
LINE
  5
77C
330
6B
100
AcDbEntity
  8
0
  6
ByBlock
 62
     0
370
    -2
100
AcDbLine
 10
1728.3729655
 20
700.673211
 30
0.0
 11
1729.042837999999
 21
703.173211
 31
0.0
  0
LINE
  5
77D
330
6B
100
AcDbEntity
  8
0
  6
ByBlock
 62
     0
370
    -2
100
AcDbLine
 10
1729.042837999999
 20
703.173211
 30
0.0
 11
1729.7127105
 21
700.673211
 31
0.0
  0
LINE
  5
77E
330
6B
100
AcDbEntity
  8
0
  6
ByBlock
 62
     0
370
    -2
100
AcDbLine
 10
1729.042837999999
 20
703.173211
 30
0.0
 11
1729.042837999999
 21
700.673211
 31
0.0
  0
LINE
  5
77F
330
6B
100
AcDbEntity
  8
0
  6
ByBlock
 62
     0
370
    -2
100
AcDbLine
 10
1729.7127105
 20
643.173211
 30
0.0
 11
1729.042837999999
 21
640.673211
 31
0.0
  0
LINE
  5
780
330
6B
100
AcDbEntity
  8
0
  6
ByBlock
 62
     0
370
    -2
100
AcDbLine
 10
1729.042837999999
 20
640.673211
 30
0.0
 11
1728.3729655
 21
643.173211
 31
0.0
  0
LINE
  5
781
330
6B
100
AcDbEntity
  8
0
  6
ByBlock
 62
     0
370
    -2
100
AcDbLine
 10
1729.042837999999
 20
640.673211
 30
0.0
 11
1729.042837999999
 21
643.173211
 31
0.0
  0
TEXT
  5
782
330
6B
100
AcDbEntity
  8
0
  6
Continuous
 62
     4
100
AcDbText
 10
1662.518542
 20
620.044563
 30
0.0
 40
3.0
  1
195
100
AcDbText
  0
LINE
  5
783
330
6B
100
AcDbEntity
  8
0
  6
ByBlock
 62
     0
370
    -2
100
AcDbLine
 10
1712.268542
 20
620.0894355
 30
0.0
 11
1714.768542
 21
619.419563
 31
0.0
  0
LINE
  5
784
330
6B
100
AcDbEntity
  8
0
  6
ByBlock
 62
     0
370
    -2
100
AcDbLine
 10
1714.768542
 20
619.419563
 30
0.0
 11
1712.268542
 21
618.7496905
 31
0.0
  0
LINE
  5
785
330
6B
100
AcDbEntity
  8
0
  6
ByBlock
 62
     0
370
    -2
100
AcDbLine
 10
1714.768542
 20
619.419563
 30
0.0
 11
1712.268542
 21
619.419563
 31
0.0
  0
LINE
  5
786
330
6B
100
AcDbEntity
  8
0
  6
ByBlock
 62
     0
370
    -2
100
AcDbLine
 10
1619.768542
 20
618.7496905
 30
0.0
 11
1617.268542
 21
619.419563
 31
0.0
  0
LINE
  5
787
330
6B
100
AcDbEntity
  8
0
  6
ByBlock
 62
     0
370
    -2
100
AcDbLine
 10
1617.268542
 20
619.419563
 30
0.0
 11
1619.768542
 21
620.0894355
 31
0.0
  0
LINE
  5
788
330
6B
100
AcDbEntity
  8
0
  6
ByBlock
 62
     0
370
    -2
100
AcDbLine
 10
1617.268542
 20
619.419563
 30
0.0
 11
1619.768542
 21
619.419563
 31
0.0
  0
ENDSEC
  0
SECTION
  2
OBJECTS
  0
DICTIONARY
  5
C
330
0
100
AcDbDictionary
281
     1
  3
ACAD_2007HEADERVARS_RT
350
78D
  3
ACAD_COLOR
350
62
  3
ACAD_GROUP
350
D
  3
ACAD_LAYOUT
350
61
  3
ACAD_MATERIAL
350
10
  3
ACAD_MLEADERSTYLE
350
65
  3
ACAD_MLINESTYLE
350
5E
  3
ACAD_PLOTSETTINGS
350
60
  3
ACAD_PLOTSTYLENAME
350
E
  3
ACAD_SCALELIST
350
42
  3
ACAD_TABLESTYLE
350
63
  3
ACAD_VISUALSTYLE
350
29
  3
ACDB_RECOMPOSE_DATA
350
78B
  3
AcDbVariableDictionary
350
6B1
  3
DWGPROPS
350
78C
  0
DICTIONARY
  5
503
330
2
100
AcDbDictionary
280
     1
281
     1
  3
ACAD_LAYERSTATES
360
504
  0
DICTIONARY
  5
6AF
330
54
100
AcDbDictionary
280
     1
281
     1
  3
ADSK_XREC_LAYER_RECONCILED
360
6B0
  0
DICTIONARY
  5
6A1
330
6B
100
AcDbDictionary
280
     1
281
     1
  3
ACAD_SORTENTS
360
6A2
  0
DICTIONARY
  5
78D
102
{ACAD_REACTORS
330
C
102
}
330
C
100
AcDbDictionary
281
     1
  3
DIMARCSYM
350
78F
  3
DIMFXL
350
78E
  3
DIMJOGANG
350
790
  0
DICTIONARY
  5
62
102
{ACAD_REACTORS
330
C
102
}
330
C
100
AcDbDictionary
281
     1
  0
DICTIONARY
  5
D
102
{ACAD_REACTORS
330
C
102
}
330
C
100
AcDbDictionary
281
     1
  0
DICTIONARY
  5
61
102
{ACAD_REACTORS
330
C
102
}
330
C
100
AcDbDictionary
281
     1
  3
Model
350
6E
  3
レイアウト1
350
6A
  0
DICTIONARY
  5
10
102
{ACAD_REACTORS
330
C
102
}
330
C
100
AcDbDictionary
281
     1
  3
ByBlock
350
19
  3
ByLayer
350
11
  3
Global
350
21
  0
DICTIONARY
  5
65
102
{ACAD_REACTORS
330
C
102
}
330
C
100
AcDbDictionary
281
     1
  3
Standard
350
66
  0
DICTIONARY
  5
5E
102
{ACAD_REACTORS
330
C
102
}
330
C
100
AcDbDictionary
281
     1
  3
Standard
350
5F
  0
DICTIONARY
  5
60
102
{ACAD_REACTORS
330
C
102
}
330
C
100
AcDbDictionary
281
     1
  0
ACDBDICTIONARYWDFLT
  5
E
102
{ACAD_REACTORS
330
C
102
}
330
C
100
AcDbDictionary
281
     1
  3
Normal
350
F
100
AcDbDictionaryWithDefault
340
F
  0
DICTIONARY
  5
42
102
{ACAD_REACTORS
330
C
102
}
330
C
100
AcDbDictionary
281
     1
  3
A0
350
43
  3
A1
350
44
  3
A2
350
45
  3
A3
350
46
  3
A4
350
47
  3
A5
350
48
  3
A6
350
49
  3
A7
350
4A
  3
A8
350
4B
  3
A9
350
4C
  3
B0
350
4D
  3
B1
350
4E
  3
B2
350
4F
  3
B3
350
50
  3
B4
350
51
  3
B5
350
52
  3
B6
350
53
  0
DICTIONARY
  5
63
102
{ACAD_REACTORS
330
C
102
}
330
C
100
AcDbDictionary
281
     1
  3
Standard
350
64
  0
DICTIONARY
  5
29
102
{ACAD_REACTORS
330
C
102
}
330
C
100
AcDbDictionary
281
     1
  3
2dWireframe
350
2F
  3
3dWireframe
350
500
  3
Basic
350
2E
  3
Brighten
350
35
  3
ColorChange
350
39
  3
Conceptual
350
32
  3
Dim
350
34
  3
EdgeColorOff
350
41
  3
Facepattern
350
38
  3
Flat
350
2A
  3
FlatWithEdges
350
2B
  3
Gouraud
350
2C
  3
GouraudWithEdges
350
2D
  3
Hidden
350
31
  3
JitterOff
350
3F
  3
Linepattern
350
37
  3
OverhangOff
350
40
  3
Realistic
350
33
  3
Shaded
350
3E
  3
Shaded with edges
350
3D
  3
Shades of Gray
350
3A
  3
Sketchy
350
3B
  3
Thicken
350
36
  3
Wireframe
350
30
  3
X-Ray
350
3C
  0
XRECORD
  5
78B
102
{ACAD_REACTORS
330
C
102
}
330
C
100
AcDbXrecord
280
     1
 90
        1
330
64
  0
DICTIONARY
  5
6B1
102
{ACAD_REACTORS
330
C
102
}
330
C
100
AcDbDictionary
281
     1
  3
CANNOSCALE
350
6B4
  3
CMLEADERSTYLE
350
6B3
  3
CTABLESTYLE
350
6B2
  3
DIMASSOC
350
6B7
  3
INDEXCTL
350
6B6
  3
SORTENTS
350
6B5
  3
XCLIPFRAME
350
6B8
  0
XRECORD
  5
78C
102
{ACAD_REACTORS
330
C
102
}
330
C
100
AcDbXrecord
280
     1
  1
DWGPROPS COOKIE
  2

  3

  4

  6

  7

  8
imamura
  9

300
=
301
=
302
=
303
=
304
=
305
=
306
=
307
=
308
=
309
=
 40
0.0132052083333333
 41
2456850.546111216
 42
2456850.559316227
  1

 90
        0
  0
DICTIONARY
  5
504
102
{ACAD_REACTORS
330
503
102
}
330
503
100
AcDbDictionary
281
     1
  0
XRECORD
  5
6B0
102
{ACAD_REACTORS
330
6AF
102
}
330
6AF
100
AcDbXrecord
280
     1
290
     1
  0
SORTENTSTABLE
  5
6A2
102
{ACAD_REACTORS
330
6A1
102
}
330
6A1
100
AcDbSortentsTable
330
6B
331
3F0
  5
721
331
310
  5
3C5
331
1A8
  5
1DC
331
1B9
  5
1ED
331
130
  5
164
331
332
  5
3EE
331
141
  5
175
331
1CA
  5
248
331
423
  5
745
331
152
  5
186
331
1DB
  5
25A
331
434
  5
756
331
25C
  5
2D8
331
163
  5
197
331
53D
  5
779
331
26D
  5
2E9
331
70D
  5
723
331
43E
  5
760
331
35E
  5
417
331
27E
  5
2FA
331
1E5
  5
264
331
36F
  5
426
331
28F
  5
30B
331
71E
  5
279
331
380
  5
437
331
2A0
  5
328
331
72F
  5
28A
331
391
  5
445
331
2B1
  5
33E
331
740
  5
29B
331
751
  5
2AC
331
3A2
  5
532
331
2C2
  5
370
331
3B3
  5
6A4
331
762
  5
126
331
2DD
  5
392
331
24B
  5
2C7
331
175
  5
1A9
331
3CE
  5
708
331
2EE
  5
3A3
331
186
  5
1BA
331
6FF
  5
76C
331
10E
  5
142
331
3DF
  5
716
331
2FF
  5
3B4
331
197
  5
1CB
331
11F
  5
153
331
FD
  5
131
331
6AA
  5
FD
331
700
  5
766
331
3E0
  5
717
331
300
  5
3B5
331
198
  5
1CC
331
311
  5
3C6
331
120
  5
154
331
1A9
  5
1DD
331
322
  5
3D6
331
131
  5
165
331
1BA
  5
1EE
331
333
  5
3EF
331
142
  5
176
331
1CB
  5
249
331
424
  5
746
331
153
  5
187
331
1DC
  5
25B
331
435
  5
757
331
25D
  5
2D9
331
164
  5
198
331
53E
  5
77A
331
26E
  5
2EA
331
70E
  5
71D
331
27F
  5
2FB
331
1E6
  5
265
331
370
  5
427
331
290
  5
30C
331
71F
  5
27A
331
2A1
  5
329
331
730
  5
28B
331
392
  5
446
331
2B2
  5
350
331
741
  5
29C
331
752
  5
2AD
331
3A3
  5
533
331
2C3
  5
371
331
3B4
  5
6A5
331
763
  5
127
331
2DE
  5
393
331
24C
  5
2C8
331
774
  5
12F
331
176
  5
1AA
331
3CF
  5
709
331
2EF
  5
3A4
331
FE
  5
132
331
187
  5
1BB
331
10F
  5
143
331
6AB
  5
FC
331
3D0
  5
70A
331
2F0
  5
3A5
331
188
  5
1BC
331
701
  5
767
331
110
  5
144
331
301
  5
3B6
331
199
  5
1CD
331
312
  5
3CD
331
121
  5
155
331
1AA
  5
1DE
331
323
  5
3D7
331
132
  5
166
331
1BB
  5
1EF
331
334
  5
3F0
331
143
  5
177
331
1CC
  5
24A
331
425
  5
747
331
154
  5
188
331
1DD
  5
25C
331
436
  5
758
331
25E
  5
2DA
331
165
  5
199
331
53F
  5
77B
331
70F
  5
71E
331
26F
  5
2EB
331
280
  5
2FC
331
1E7
  5
266
331
371
  5
428
331
291
  5
30D
331
720
  5
27B
331
2A2
  5
32A
331
731
  5
28C
331
393
  5
447
331
2B3
  5
352
331
742
  5
29D
331
753
  5
2AE
331
3A4
  5
534
331
2C4
  5
372
331
3B5
  5
6A6
331
764
  5
128
331
2DF
  5
394
331
24D
  5
2C9
331
775
  5
12C
331
177
  5
1AB
331
FF
  5
133
331
6AC
  5
FB
331
3C0
  5
700
331
2E0
  5
395
331
178
  5
1AC
331
780
  5
120
331
3D1
  5
70B
331
2F1
  5
3A6
331
100
  5
134
331
189
  5
1BD
331
702
  5
761
331
111
  5
145
331
302
  5
3B7
331
19A
  5
1CE
331
1AB
  5
1DF
331
122
  5
156
331
324
  5
3D8
331
133
  5
167
331
1BC
  5
1F0
331
335
  5
3F1
331
144
  5
178
331
1CD
  5
24B
331
426
  5
748
331
155
  5
189
331
1DE
  5
25D
331
437
  5
759
331
25F
  5
2DB
331
166
  5
19A
331
540
  5
77C
331
350
  5
40F
331
270
  5
2EC
331
281
  5
2FD
331
1E8
  5
267
331
710
  5
718
331
372
  5
429
331
292
  5
30E
331
721
  5
27C
331
2A3
  5
32B
331
732
  5
28D
331
394
  5
44C
331
2B4
  5
358
331
743
  5
29E
331
754
  5
2AF
331
3B6
  5
6A7
331
3A5
  5
535
331
2C5
  5
373
331
24E
  5
2CA
331
776
  5
12D
331
6AD
  5
FA
331
2D0
  5
37E
331
3C1
  5
701
331
2E1
  5
396
331
168
  5
19C
331
179
  5
1AD
331
781
  5
121
331
3D2
  5
70C
331
2F2
  5
3A7
331
101
  5
135
331
18A
  5
1BE
331
703
  5
762
331
112
  5
146
331
303
  5
3B8
331
19B
  5
1CF
331
1AC
  5
1E0
331
123
  5
157
331
325
  5
3D9
331
134
  5
168
331
1BD
  5
1F1
331
416
  5
738
331
336
  5
3F7
331
145
  5
179
331
1CE
  5
24C
331
427
  5
749
331
156
  5
18A
331
1DF
  5
25E
331
541
  5
77D
331
271
  5
2ED
331
260
  5
2DC
331
167
  5
19B
331
711
  5
719
331
362
  5
418
331
282
  5
2FE
331
373
  5
42A
331
293
  5
30F
331
722
  5
27D
331
2A4
  5
32D
331
733
  5
28E
331
395
  5
44D
331
2B5
  5
35E
331
744
  5
29F
331
755
  5
2B0
331
3B7
  5
6A8
331
3A6
  5
538
331
2C6
  5
374
331
24F
  5
2CB
331
777
  5
12E
331
6AE
  5
F4
331
1E9
  5
268
331
3B8
  5
6A9
331
2D1
  5
37F
331
250
  5
2CC
331
778
  5
129
331
3C2
  5
702
331
2E2
  5
397
331
169
  5
19D
331
17A
  5
1AE
331
782
  5
11B
331
3D3
  5
70D
331
2F3
  5
3A8
331
102
  5
136
331
18B
  5
1BF
331
704
  5
736
331
113
  5
147
331
304
  5
3B9
331
19C
  5
1D0
331
1AD
  5
1E1
331
124
  5
158
331
406
  5
72E
331
326
  5
3DE
331
135
  5
169
331
1BE
  5
1F2
331
417
  5
739
331
337
  5
3F8
331
146
  5
17A
331
1CF
  5
24E
331
428
  5
74A
331
157
  5
18B
331
542
  5
77E
331
352
  5
410
331
272
  5
2EE
331
261
  5
2DD
331
712
  5
713
331
363
  5
419
331
283
  5
2FF
331
1EA
  5
269
331
454
  5
76D
331
374
  5
42B
331
294
  5
310
331
2A5
  5
332
331
734
  5
28F
331
723
  5
27E
331
396
  5
44E
331
2B6
  5
362
331
3A7
  5
539
331
2C7
  5
375
331
756
  5
2B1
331
745
  5
2A0
331
3A8
  5
53A
331
2C8
  5
376
331
3B9
  5
6AA
331
768
  5
11C
331
2D2
  5
380
331
251
  5
2CD
331
779
  5
12A
331
3C3
  5
703
331
2E3
  5
398
331
16A
  5
19E
331
17B
  5
1AF
331
3D4
  5
70E
331
2F4
  5
3A9
331
103
  5
137
331
18C
  5
1C0
331
705
  5
737
331
114
  5
148
331
305
  5
3BA
331
19D
  5
1D1
331
3F6
  5
724
331
125
  5
159
331
783
  5
115
331
407
  5
72F
331
327
  5
3DF
331
136
  5
16A
331
1AE
  5
1E2
331
1BF
  5
1F3
331
418
  5
73A
331
338
  5
3F9
331
147
  5
17B
331
1D0
  5
24F
331
429
  5
74B
331
158
  5
18C
331
543
  5
77F
331
273
  5
2EF
331
262
  5
2DE
331
713
  5
714
331
444
  5
763
331
364
  5
41B
331
284
  5
300
331
455
  5
76E
331
375
  5
42C
331
295
  5
311
331
724
  5
27F
331
1EB
  5
26A
331
2A6
  5
333
331
735
  5
290
331
397
  5
44F
331
2B7
  5
363
331
757
  5
2B2
331
746
  5
2A1
331
398
  5
454
331
2B8
  5
364
331
3A9
  5
545
331
2C9
  5
377
331
758
  5
2B3
331
3BA
  5
6AB
331
241
  5
2BD
331
769
  5
11D
331
2D3
  5
388
331
252
  5
2CE
331
77A
  5
12B
331
3C4
  5
704
331
2E4
  5
399
331
16B
  5
19F
331
17C
  5
1B0
331
3D5
  5
70F
331
2F5
  5
3AA
331
104
  5
138
331
18D
  5
1C1
331
706
  5
731
331
115
  5
149
331
3E6
  5
71A
331
306
  5
3BB
331
19E
  5
1D2
331
3F7
  5
725
331
126
  5
15A
331
784
  5
116
331
1AF
  5
1E3
331
408
  5
730
331
328
  5
3E0
331
137
  5
16B
331
6A0
  5
105
331
1C0
  5
1F4
331
419
  5
73B
331
339
  5
3FF
331
148
  5
17C
331
1D1
  5
250
331
42A
  5
74C
331
159
  5
18D
331
544
  5
780
331
274
  5
2F0
331
263
  5
2DF
331
714
  5
3CE
331
445
  5
764
331
285
  5
301
331
456
  5
76F
331
376
  5
42D
331
296
  5
312
331
725
  5
280
331
1EC
  5
26B
331
2A7
  5
334
331
736
  5
291
331
747
  5
2A2
331
388
  5
438
331
2A8
  5
335
331
399
  5
455
331
2B9
  5
367
331
748
  5
2A3
331
3AA
  5
546
331
2CA
  5
378
331
759
  5
2B4
331
3BB
  5
6AC
331
242
  5
2BE
331
76A
  5
11E
331
2D4
  5
389
331
253
  5
2CF
331
77B
  5
125
331
3C5
  5
705
331
2E5
  5
39A
331
16C
  5
1A0
331
17D
  5
1B1
331
3D6
  5
710
331
2F6
  5
3AB
331
105
  5
139
331
18E
  5
1C2
331
707
  5
732
331
116
  5
14A
331
3E7
  5
71B
331
307
  5
3BC
331
19F
  5
1D3
331
3F8
  5
726
331
127
  5
15B
331
785
  5
117
331
1B0
  5
1E4
331
329
  5
3E1
331
138
  5
16C
331
1C1
  5
1F5
331
41A
  5
73C
331
33A
  5
400
331
149
  5
17D
331
1D2
  5
251
331
42B
  5
74D
331
15A
  5
18E
331
545
  5
781
331
275
  5
2F1
331
264
  5
2E0
331
715
  5
3CF
331
446
  5
765
331
286
  5
302
331
457
  5
770
331
377
  5
42E
331
297
  5
313
331
726
  5
281
331
1ED
  5
26C
331
737
  5
292
331
458
  5
771
331
378
  5
42F
331
298
  5
31E
331
389
  5
439
331
2A9
  5
336
331
738
  5
293
331
39A
  5
456
331
2BA
  5
368
331
749
  5
2A4
331
3AB
  5
547
331
2CB
  5
379
331
75A
  5
2B5
331
3BC
  5
6AD
331
243
  5
2BF
331
2D5
  5
38A
331
254
  5
2D0
331
77C
  5
122
331
3C6
  5
706
331
2E6
  5
39B
331
16D
  5
1A1
331
17E
  5
1B2
331
3D7
  5
711
331
2F7
  5
3AC
331
106
  5
13A
331
18F
  5
1C3
331
3E8
  5
71C
331
308
  5
3BD
331
117
  5
14B
331
1A0
  5
1D4
331
1B1
  5
1E5
331
128
  5
15C
331
32A
  5
3E6
331
139
  5
16D
331
786
  5
10F
331
1C2
  5
1F6
331
41B
  5
73D
331
33B
  5
401
331
14A
  5
17E
331
1D3
  5
252
331
42C
  5
74E
331
15B
  5
18F
331
546
  5
782
331
276
  5
2F2
331
265
  5
2E1
331
716
  5
3D0
331
367
  5
41C
331
287
  5
303
331
1EE
  5
26D
331
727
  5
282
331
368
  5
41D
331
288
  5
304
331
459
  5
772
331
379
  5
430
331
299
  5
320
331
728
  5
283
331
38A
  5
43A
331
2AA
  5
337
331
739
  5
294
331
74A
  5
2A5
331
39B
  5
457
331
2BB
  5
369
331
3AC
  5
548
331
2CC
  5
37A
331
75B
  5
2B6
331
3BD
  5
6AE
331
244
  5
2C0
331
2D6
  5
38B
331
255
  5
2D1
331
77D
  5
123
331
2E7
  5
39C
331
16E
  5
1A2
331
17F
  5
1B3
331
787
  5
110
331
3D8
  5
712
331
2F8
  5
3AD
331
190
  5
1C4
331
309
  5
3BE
331
118
  5
14C
331
1A1
  5
1D5
331
1B2
  5
1E6
331
129
  5
15D
331
32B
  5
3E7
331
13A
  5
16E
331
107
  5
13B
331
1C3
  5
241
331
41C
  5
73E
331
33C
  5
407
331
14B
  5
17F
331
6A3
  5
104
331
1D4
  5
253
331
42D
  5
74F
331
15C
  5
190
331
547
  5
783
331
277
  5
2F3
331
717
  5
3D1
331
1EF
  5
26E
331
266
  5
2E2
331
548
  5
784
331
438
  5
75A
331
358
  5
411
331
278
  5
2F4
331
718
  5
3D2
331
369
  5
41F
331
289
  5
305
331
1F0
  5
26F
331
45A
  5
773
331
37A
  5
431
331
29A
  5
322
331
729
  5
284
331
38B
  5
43B
331
2AB
  5
338
331
73A
  5
295
331
74B
  5
2A6
331
39C
  5
459
331
2BC
  5
36A
331
3AD
  5
549
331
2CD
  5
37B
331
75C
  5
2B7
331
3BE
  5
6FE
331
245
  5
2C1
331
2D7
  5
38C
331
256
  5
2D2
331
77E
  5
124
331
2E8
  5
39D
331
16F
  5
1A3
331
180
  5
1B4
331
788
  5
111
331
2F9
  5
3AE
331
108
  5
13C
331
30A
  5
3BF
331
119
  5
14D
331
1A2
  5
1D6
331
1B3
  5
1E7
331
12A
  5
15E
331
32C
  5
3E8
331
13B
  5
16F
331
191
  5
1C5
331
1C4
  5
242
331
41D
  5
73F
331
33D
  5
408
331
14C
  5
180
331
6A4
  5
100
331
1D5
  5
254
331
42E
  5
750
331
15D
  5
191
331
267
  5
2E3
331
538
  5
774
331
268
  5
2E4
331
708
  5
72C
331
549
  5
785
331
439
  5
75B
331
279
  5
2F5
331
1E0
  5
25F
331
719
  5
3D3
331
36A
  5
420
331
28A
  5
306
331
1F1
  5
270
331
37B
  5
432
331
29B
  5
323
331
72A
  5
285
331
38C
  5
43C
331
2AC
  5
339
331
73B
  5
296
331
74C
  5
2A7
331
39D
  5
45A
331
2BD
  5
36B
331
3AE
  5
54A
331
2CE
  5
37C
331
75D
  5
2B8
331
3BF
  5
6FF
331
246
  5
2C2
331
2D8
  5
38D
331
257
  5
2D3
331
77F
  5
11F
331
2E9
  5
39E
331
170
  5
1A4
331
181
  5
1B5
331
2FA
  5
3AF
331
109
  5
13D
331
192
  5
1C6
331
30B
  5
3C0
331
11A
  5
14E
331
1A3
  5
1D7
331
1B4
  5
1E8
331
12B
  5
15F
331
32D
  5
3E9
331
13C
  5
170
331
76E
  5
109
331
1C5
  5
243
331
41E
  5
740
331
33E
  5
409
331
14D
  5
181
331
6A5
  5
103
331
1D6
  5
255
331
42F
  5
751
331
15E
  5
192
331
430
  5
752
331
258
  5
2D4
331
539
  5
775
331
269
  5
2E5
331
709
  5
72D
331
54A
  5
786
331
43A
  5
75C
331
27A
  5
2F6
331
1E1
  5
260
331
71A
  5
275
331
36B
  5
421
331
28B
  5
307
331
1F2
  5
271
331
37C
  5
433
331
29C
  5
324
331
72B
  5
286
331
38D
  5
43D
331
2AD
  5
33A
331
73C
  5
297
331
74D
  5
2A8
331
39E
  5
52C
331
2BE
  5
36C
331
3AF
  5
54B
331
2CF
  5
37D
331
75E
  5
2B9
331
2D9
  5
38E
331
247
  5
2C3
331
2EA
  5
39F
331
171
  5
1A5
331
182
  5
1B6
331
2FB
  5
3B0
331
10A
  5
13E
331
193
  5
1C7
331
30C
  5
3C1
331
11B
  5
14F
331
1A4
  5
1D8
331
1B5
  5
1E9
331
12C
  5
160
331
40E
  5
733
331
13D
  5
171
331
1C6
  5
244
331
76F
  5
10A
331
6A6
  5
102
331
41F
  5
741
331
1D7
  5
256
331
15F
  5
193
331
14E
  5
182
331
420
  5
742
331
1D8
  5
257
331
431
  5
753
331
259
  5
2D5
331
160
  5
194
331
53A
  5
776
331
26A
  5
2E6
331
70A
  5
727
331
54B
  5
787
331
43B
  5
75D
331
27B
  5
2F7
331
1E2
  5
261
331
71B
  5
276
331
44C
  5
768
331
36C
  5
423
331
28C
  5
308
331
1F3
  5
272
331
37D
  5
434
331
29D
  5
325
331
72C
  5
287
331
38E
  5
43E
331
2AE
  5
33B
331
73D
  5
298
331
74E
  5
2A9
331
39F
  5
52E
331
2BF
  5
36D
331
3B0
  5
54C
331
75F
  5
2BA
331
2DA
  5
38F
331
248
  5
2C4
331
2EB
  5
3A0
331
172
  5
1A6
331
183
  5
1B7
331
2FC
  5
3B1
331
10B
  5
13F
331
194
  5
1C8
331
30D
  5
3C2
331
11C
  5
150
331
1A5
  5
1D9
331
3FE
  5
729
331
31E
  5
3D4
331
12D
  5
161
331
1B6
  5
1EA
331
40F
  5
734
331
13E
  5
172
331
770
  5
10B
331
1C7
  5
245
331
6A7
  5
101
331
14F
  5
183
331
410
  5
735
331
1C8
  5
246
331
421
  5
743
331
150
  5
184
331
1D9
  5
258
331
432
  5
754
331
25A
  5
2D6
331
161
  5
195
331
53B
  5
777
331
26B
  5
2E7
331
70B
  5
728
331
54C
  5
788
331
43C
  5
75E
331
27C
  5
2F8
331
1E3
  5
262
331
71C
  5
277
331
44D
  5
769
331
36D
  5
424
331
28D
  5
309
331
1F4
  5
273
331
37E
  5
435
331
29E
  5
326
331
72D
  5
288
331
38F
  5
43F
331
2AF
  5
33C
331
73E
  5
299
331
74F
  5
2AA
331
3A0
  5
52F
331
2C0
  5
36E
331
3B1
  5
6A0
331
760
  5
2BB
331
2DB
  5
390
331
249
  5
2C5
331
2EC
  5
3A1
331
173
  5
1A7
331
184
  5
1B8
331
2FD
  5
3B2
331
10C
  5
140
331
195
  5
1C9
331
3EE
  5
71F
331
30E
  5
3C3
331
11D
  5
151
331
1A6
  5
1DA
331
3FF
  5
72A
331
12E
  5
162
331
1B7
  5
1EB
331
13F
  5
173
331
6A8
  5
FF
331
400
  5
72B
331
320
  5
3D5
331
1B8
  5
1EC
331
1C9
  5
247
331
140
  5
174
331
422
  5
744
331
151
  5
185
331
1DA
  5
259
331
433
  5
755
331
25B
  5
2D7
331
162
  5
196
331
53C
  5
778
331
26C
  5
2E8
331
70C
  5
722
331
43D
  5
75F
331
27D
  5
2F9
331
1E4
  5
263
331
71D
  5
278
331
44E
  5
76A
331
36E
  5
425
331
28E
  5
30A
331
1F5
  5
274
331
37F
  5
436
331
29F
  5
327
331
72E
  5
289
331
390
  5
444
331
2B0
  5
33D
331
73F
  5
29A
331
750
  5
2AB
331
3A1
  5
530
331
2C1
  5
36F
331
3B2
  5
6A3
331
761
  5
2BC
331
2DC
  5
391
331
24A
  5
2C6
331
3CD
  5
707
331
2ED
  5
3A2
331
FC
  5
130
331
185
  5
1B9
331
6FE
  5
76B
331
10D
  5
141
331
3DE
  5
715
331
2FE
  5
3B3
331
196
  5
1CA
331
3EF
  5
720
331
30F
  5
3C4
331
11E
  5
152
331
1A7
  5
1DB
331
12F
  5
163
331
174
  5
1A8
331
6A9
  5
FE
  0
XRECORD
  5
78F
102
{ACAD_REACTORS
330
78D
102
}
330
78D
100
AcDbXrecord
280
     1
 70
     2
  0
XRECORD
  5
78E
102
{ACAD_REACTORS
330
78D
102
}
330
78D
100
AcDbXrecord
280
     1
 40
1.25
  0
XRECORD
  5
790
102
{ACAD_REACTORS
330
78D
102
}
330
78D
100
AcDbXrecord
280
     1
 40
1.570796326794896
  0
LAYOUT
  5
6E
102
{ACAD_XDICTIONARY
360
7C8
102
}
102
{ACAD_REACTORS
330
61
102
}
330
61
100
AcDbPlotSettings
  1

  2
FX DP 205
  4

  6

 40
0.0
 41
0.0
 42
0.0
 43
0.0
 44
0.0
 45
0.0
 46
0.0
 47
0.0
 48
0.0
 49
0.0
140
0.0
141
0.0
142
1.0
143
1.0
 70
  1712
 72
     0
 73
     0
 74
     0
  7

 75
     0
147
1.0
148
0.0
149
0.0
100
AcDbLayout
  1
Model
 70
     1
 71
     0
 10
0.0
 20
0.0
 11
12.0
 21
9.0
 12
0.0
 22
0.0
 32
0.0
 14
0.0
 24
0.0
 34
0.0
 15
0.0
 25
0.0
 35
0.0
146
0.0
 13
0.0
 23
0.0
 33
0.0
 16
1.0
 26
0.0
 36
0.0
 17
0.0
 27
1.0
 37
0.0
 76
     0
330
6B
331
8B
  0
LAYOUT
  5
6A
102
{ACAD_XDICTIONARY
360
7C6
102
}
102
{ACAD_REACTORS
330
61
102
}
330
61
100
AcDbPlotSettings
  1

  2
FX DP 205
  4

  6

 40
0.0
 41
0.0
 42
0.0
 43
0.0
 44
0.0
 45
0.0
 46
0.0
 47
0.0
 48
0.0
 49
0.0
140
0.0
141
0.0
142
1.0
143
1.0
 70
   688
 72
     0
 73
     0
 74
     5
  7

 75
    16
147
1.0
148
0.0
149
0.0
100
AcDbLayout
  1
レイアウト1
 70
     1
 71
     1
 10
0.0
 20
0.0
 11
12.0
 21
9.0
 12
0.0
 22
0.0
 32
0.0
 14
1.000000000000000E+20
 24
1.000000000000000E+20
 34
1.000000000000000E+20
 15
-1.000000000000000E+20
 25
-1.000000000000000E+20
 35
-1.000000000000000E+20
146
0.0
 13
0.0
 23
0.0
 33
0.0
 16
1.0
 26
0.0
 36
0.0
 17
0.0
 27
1.0
 37
0.0
 76
     0
330
67
  0
MATERIAL
  5
19
102
{ACAD_XDICTIONARY
360
1A
102
}
102
{ACAD_REACTORS
330
10
102
}
330
10
100
AcDbMaterial
  1
ByBlock
 72
     0
 43
0.0208333333333333
 43
0.0
 43
0.0
 43
0.0
 43
0.0
 43
0.0208333333333333
 43
0.0
 43
0.0
 43
0.0
 43
0.0
 43
1.0
 43
0.0
 43
0.0
 43
0.0
 43
0.0
 43
1.0
 77
     0
 47
0.0208333333333333
 47
0.0
 47
0.0
 47
0.0
 47
0.0
 47
0.0208333333333333
 47
0.0
 47
0.0
 47
0.0
 47
0.0
 47
1.0
 47
0.0
 47
0.0
 47
0.0
 47
0.0
 47
1.0
171
     0
 49
0.0208333333333333
 49
0.0
 49
0.0
 49
0.0
 49
0.0
 49
0.0208333333333333
 49
0.0
 49
0.0
 49
0.0
 49
0.0
 49
1.0
 49
0.0
 49
0.0
 49
0.0
 49
0.0
 49
1.0
175
     0
142
0.0208333333333333
142
0.0
142
0.0
142
0.0
142
0.0
142
0.0208333333333333
142
0.0
142
0.0
142
0.0
142
0.0
142
1.0
142
0.0
142
0.0
142
0.0
142
0.0
142
1.0
179
     0
144
0.0208333333333333
144
0.0
144
0.0
144
0.0
144
0.0
144
0.0208333333333333
144
0.0
144
0.0
144
0.0
144
0.0
144
1.0
144
0.0
144
0.0
144
0.0
144
0.0
144
1.0
147
0.0208333333333333
147
0.0
147
0.0
147
0.0
147
0.0
147
0.0208333333333333
147
0.0
147
0.0
147
0.0
147
0.0
147
1.0
147
0.0
147
0.0
147
0.0
147
0.0
147
1.0
  0
MATERIAL
  5
11
102
{ACAD_XDICTIONARY
360
12
102
}
102
{ACAD_REACTORS
330
10
102
}
330
10
100
AcDbMaterial
  1
ByLayer
 72
     0
 43
0.0208333333333333
 43
0.0
 43
0.0
 43
0.0
 43
0.0
 43
0.0208333333333333
 43
0.0
 43
0.0
 43
0.0
 43
0.0
 43
1.0
 43
0.0
 43
0.0
 43
0.0
 43
0.0
 43
1.0
 77
     0
 47
0.0208333333333333
 47
0.0
 47
0.0
 47
0.0
 47
0.0
 47
0.0208333333333333
 47
0.0
 47
0.0
 47
0.0
 47
0.0
 47
1.0
 47
0.0
 47
0.0
 47
0.0
 47
0.0
 47
1.0
171
     0
 49
0.0208333333333333
 49
0.0
 49
0.0
 49
0.0
 49
0.0
 49
0.0208333333333333
 49
0.0
 49
0.0
 49
0.0
 49
0.0
 49
1.0
 49
0.0
 49
0.0
 49
0.0
 49
0.0
 49
1.0
175
     0
142
0.0208333333333333
142
0.0
142
0.0
142
0.0
142
0.0
142
0.0208333333333333
142
0.0
142
0.0
142
0.0
142
0.0
142
1.0
142
0.0
142
0.0
142
0.0
142
0.0
142
1.0
179
     0
144
0.0208333333333333
144
0.0
144
0.0
144
0.0
144
0.0
144
0.0208333333333333
144
0.0
144
0.0
144
0.0
144
0.0
144
1.0
144
0.0
144
0.0
144
0.0
144
0.0
144
1.0
147
0.0208333333333333
147
0.0
147
0.0
147
0.0
147
0.0
147
0.0208333333333333
147
0.0
147
0.0
147
0.0
147
0.0
147
1.0
147
0.0
147
0.0
147
0.0
147
0.0
147
1.0
  0
MATERIAL
  5
21
102
{ACAD_XDICTIONARY
360
22
102
}
102
{ACAD_REACTORS
330
10
102
}
330
10
100
AcDbMaterial
  1
Global
 72
     0
 43
0.0208333333333333
 43
0.0
 43
0.0
 43
0.0
 43
0.0
 43
0.0208333333333333
 43
0.0
 43
0.0
 43
0.0
 43
0.0
 43
1.0
 43
0.0
 43
0.0
 43
0.0
 43
0.0
 43
1.0
 77
     0
 47
0.0208333333333333
 47
0.0
 47
0.0
 47
0.0
 47
0.0
 47
0.0208333333333333
 47
0.0
 47
0.0
 47
0.0
 47
0.0
 47
1.0
 47
0.0
 47
0.0
 47
0.0
 47
0.0
 47
1.0
171
     0
 49
0.0208333333333333
 49
0.0
 49
0.0
 49
0.0
 49
0.0
 49
0.0208333333333333
 49
0.0
 49
0.0
 49
0.0
 49
0.0
 49
1.0
 49
0.0
 49
0.0
 49
0.0
 49
0.0
 49
1.0
175
     0
142
0.0208333333333333
142
0.0
142
0.0
142
0.0
142
0.0
142
0.0208333333333333
142
0.0
142
0.0
142
0.0
142
0.0
142
1.0
142
0.0
142
0.0
142
0.0
142
0.0
142
1.0
179
     0
144
0.0208333333333333
144
0.0
144
0.0
144
0.0
144
0.0
144
0.0208333333333333
144
0.0
144
0.0
144
0.0
144
0.0
144
1.0
144
0.0
144
0.0
144
0.0
144
0.0
144
1.0
147
0.0208333333333333
147
0.0
147
0.0
147
0.0
147
0.0
147
0.0208333333333333
147
0.0
147
0.0
147
0.0
147
0.0
147
1.0
147
0.0
147
0.0
147
0.0
147
0.0
147
1.0
  0
MLEADERSTYLE
  5
66
102
{ACAD_REACTORS
330
65
102
}
330
65
100
AcDbMLeaderStyle
170
     2
171
     1
172
     0
 90
        2
 40
0.0
 41
0.0
173
     1
 91
-1056964608
340
5A
 92
       -2
290
     1
 42
0.09
291
     1
 43
0.36
  3
Standard
 44
0.18
300

342
55
174
     1
178
     6
175
     1
176
     0
 93
-1056964608
 45
0.18
292
     0
297
     0
 46
0.18
 94
-1056964608
 47
1.0
 49
1.0
140
1.0
293
     1
141
0.0
294
     1
177
     0
142
1.0
295
     0
296
     0
143
0.125
1001
ACAD_MLEADERVER
1070
     2
  0
MLINESTYLE
  5
5F
102
{ACAD_REACTORS
330
5E
102
}
330
5E
100
AcDbMlineStyle
  2
STANDARD
 70
     0
  3

 62
   256
 51
90.0
 52
90.0
 71
     2
 49
0.5
 62
   256
  6
BYLAYER
 49
-0.5
 62
   256
  6
BYLAYER
  0
ACDBPLACEHOLDER
  5
F
102
{ACAD_REACTORS
330
E
102
}
330
E
  0
SCALE
  5
43
102
{ACAD_REACTORS
330
42
102
}
330
42
100
AcDbScale
 70
     0
300
1:1
140
1.0
141
1.0
290
     1
  0
SCALE
  5
44
102
{ACAD_REACTORS
330
42
102
}
330
42
100
AcDbScale
 70
     0
300
1/128" = 1'-0"
140
0.0078125
141
12.0
290
     0
  0
SCALE
  5
45
102
{ACAD_REACTORS
330
42
102
}
330
42
100
AcDbScale
 70
     0
300
1/64" = 1'-0"
140
0.015625
141
12.0
290
     0
  0
SCALE
  5
46
102
{ACAD_REACTORS
330
42
102
}
330
42
100
AcDbScale
 70
     0
300
1/32" = 1'-0"
140
0.03125
141
12.0
290
     0
  0
SCALE
  5
47
102
{ACAD_REACTORS
330
42
102
}
330
42
100
AcDbScale
 70
     0
300
1/16" = 1'-0"
140
0.0625
141
12.0
290
     0
  0
SCALE
  5
48
102
{ACAD_REACTORS
330
42
102
}
330
42
100
AcDbScale
 70
     0
300
3/32" = 1'-0"
140
0.09375
141
12.0
290
     0
  0
SCALE
  5
49
102
{ACAD_REACTORS
330
42
102
}
330
42
100
AcDbScale
 70
     0
300
1/8" = 1'-0"
140
0.125
141
12.0
290
     0
  0
SCALE
  5
4A
102
{ACAD_REACTORS
330
42
102
}
330
42
100
AcDbScale
 70
     0
300
3/16" = 1'-0"
140
0.1875
141
12.0
290
     0
  0
SCALE
  5
4B
102
{ACAD_REACTORS
330
42
102
}
330
42
100
AcDbScale
 70
     0
300
1/4" = 1'-0"
140
0.25
141
12.0
290
     0
  0
SCALE
  5
4C
102
{ACAD_REACTORS
330
42
102
}
330
42
100
AcDbScale
 70
     0
300
3/8" = 1'-0"
140
0.375
141
12.0
290
     0
  0
SCALE
  5
4D
102
{ACAD_REACTORS
330
42
102
}
330
42
100
AcDbScale
 70
     0
300
1/2" = 1'-0"
140
0.5
141
12.0
290
     0
  0
SCALE
  5
4E
102
{ACAD_REACTORS
330
42
102
}
330
42
100
AcDbScale
 70
     0
300
3/4" = 1'-0"
140
0.75
141
12.0
290
     0
  0
SCALE
  5
4F
102
{ACAD_REACTORS
330
42
102
}
330
42
100
AcDbScale
 70
     0
300
1" = 1'-0"
140
1.0
141
12.0
290
     0
  0
SCALE
  5
50
102
{ACAD_REACTORS
330
42
102
}
330
42
100
AcDbScale
 70
     0
300
1-1/2" = 1'-0"
140
1.5
141
12.0
290
     0
  0
SCALE
  5
51
102
{ACAD_REACTORS
330
42
102
}
330
42
100
AcDbScale
 70
     0
300
3" = 1'-0"
140
3.0
141
12.0
290
     0
  0
SCALE
  5
52
102
{ACAD_REACTORS
330
42
102
}
330
42
100
AcDbScale
 70
     0
300
6" = 1'-0"
140
6.0
141
12.0
290
     0
  0
SCALE
  5
53
102
{ACAD_REACTORS
330
42
102
}
330
42
100
AcDbScale
 70
     0
300
1'-0" = 1'-0"
140
12.0
141
12.0
290
     0
  0
TABLESTYLE
  5
64
102
{ACAD_XDICTIONARY
360
789
102
}
102
{ACAD_REACTORS
330
63
102
}
330
63
100
AcDbTableStyle
  3
Standard
 70
     0
 71
     0
 40
0.06
 41
0.06
280
     0
281
     0
  7
STANDARD
140
0.18
170
     2
 62
     0
 63
     7
283
     0
274
    -2
284
     1
 64
     0
275
    -2
285
     1
 65
     0
276
    -2
286
     1
 66
     0
277
    -2
287
     1
 67
     0
278
    -2
288
     1
 68
     0
279
    -2
289
     1
 69
     0
  7
STANDARD
140
0.25
170
     5
 62
     0
 63
     7
283
     0
274
    -2
284
     1
 64
     0
275
    -2
285
     1
 65
     0
276
    -2
286
     1
 66
     0
277
    -2
287
     1
 67
     0
278
    -2
288
     1
 68
     0
279
    -2
289
     1
 69
     0
  7
STANDARD
140
0.18
170
     5
 62
     0
 63
     7
283
     0
274
    -2
284
     1
 64
     0
275
    -2
285
     1
 65
     0
276
    -2
286
     1
 66
     0
277
    -2
287
     1
 67
     0
278
    -2
288
     1
 68
     0
279
    -2
289
     1
 69
     0
  0
VISUALSTYLE
  5
2F
102
{ACAD_XDICTIONARY
360
79E
102
}
102
{ACAD_REACTORS
330
29
102
}
330
29
100
AcDbVisualStyle
  2
2dWireframe
 70
     4
 71
     0
 72
     2
 73
     0
 90
        0
 40
-0.6
 41
-30.0
 62
     5
 63
     7
 74
     1
 91
        4
 64
     7
 65
   257
 75
     1
175
     1
 42
1.0
 92
        0
 66
   257
 43
1.0
 76
     1
 77
     6
 78
     2
 67
     7
 79
     5
170
     0
171
     0
290
     0
174
     0
 93
        1
 44
0.0
173
     0
291
     0
 45
0.0
1001
ACAD
1000
AcDbSavedByObjectVersion
1070
     0
  0
VISUALSTYLE
  5
500
102
{ACAD_XDICTIONARY
360
7CC
102
}
102
{ACAD_REACTORS
330
29
102
}
330
29
100
AcDbVisualStyle
  2
3dWireframe
 70
     5
 71
     0
 72
     2
 73
     1
 90
        0
 40
-0.6
 41
-30.0
 62
     5
 63
     7
 74
     1
 91
        4
 64
     7
 65
   257
 75
     1
175
     1
 42
1.0
 92
        0
 66
   257
 43
1.0
 76
     1
 77
     6
 78
     2
 67
     7
 79
     5
170
     0
171
     0
290
     0
174
     0
 93
        1
 44
0.0
173
     0
291
     0
 45
0.0
1001
ACAD
1000
AcDbSavedByObjectVersion
1070
     0
  0
VISUALSTYLE
  5
2E
102
{ACAD_XDICTIONARY
360
79C
102
}
102
{ACAD_REACTORS
330
29
102
}
330
29
100
AcDbVisualStyle
  2
Basic
 70
     7
 71
     1
 72
     0
 73
     1
 90
        0
 40
-0.6
 41
-30.0
 62
     5
 63
     7
 74
     0
 91
        4
 64
     7
 65
   257
 75
     1
175
     1
 42
1.0
 92
        8
 66
     7
 43
1.0
 76
     1
 77
     6
 78
     2
 67
     7
 79
     5
170
     0
171
     0
290
     0
174
     0
 93
        1
 44
0.0
173
     0
291
     1
 45
0.0
1001
ACAD
1000
AcDbSavedByObjectVersion
1070
     0
  0
VISUALSTYLE
  5
35
102
{ACAD_XDICTIONARY
360
7AA
102
}
102
{ACAD_REACTORS
330
29
102
}
330
29
100
AcDbVisualStyle
  2
Brighten
 70
    12
 71
     2
 72
     2
 73
     0
 90
        0
 40
-0.6
 41
-30.0
 62
     5
 63
     7
 74
     1
 91
        4
 64
     7
 65
   257
 75
     1
175
     1
 42
1.0
 92
        8
 66
     7
 43
1.0
 76
     1
 77
     6
 78
     2
 67
     7
 79
     5
170
     0
171
     0
290
     0
174
     0
 93
        1
 44
50.0
173
     0
291
     1
 45
0.0
1001
ACAD
1000
AcDbSavedByObjectVersion
1070
     0
  0
VISUALSTYLE
  5
39
102
{ACAD_XDICTIONARY
360
7B2
102
}
102
{ACAD_REACTORS
330
29
102
}
330
29
100
AcDbVisualStyle
  2
ColorChange
 70
    16
 71
     2
 72
     2
 73
     3
 90
        0
 40
-0.6
 41
-30.0
 62
     5
 63
     8
 74
     1
 91
        4
 64
     7
 65
   257
 75
     1
175
     1
 42
1.0
 92
        8
 66
     8
 43
1.0
 76
     1
 77
     6
 78
     2
 67
     7
 79
     5
170
     0
171
     0
290
     0
174
     0
 93
        1
 44
0.0
173
     0
291
     1
 45
0.0
1001
ACAD
1000
AcDbSavedByObjectVersion
1070
     0
  0
VISUALSTYLE
  5
32
102
{ACAD_XDICTIONARY
360
7A4
102
}
102
{ACAD_REACTORS
330
29
102
}
330
29
100
AcDbVisualStyle
  2
Conceptual
 70
     9
 71
     3
 72
     2
 73
     0
 90
        0
 40
-0.6
 41
-30.0
 62
     5
 63
     7
 74
     2
 91
        2
 64
     7
 65
   257
 75
     1
175
     1
 42
179.0
 92
        8
 66
     7
 43
1.0
 76
     1
 77
     6
 78
     2
 67
     7
 79
     3
170
     0
171
     0
290
     0
174
     0
 93
        1
 44
0.0
173
     0
291
     0
 45
0.0
1001
ACAD
1000
AcDbSavedByObjectVersion
1070
     0
  0
VISUALSTYLE
  5
34
102
{ACAD_XDICTIONARY
360
7A8
102
}
102
{ACAD_REACTORS
330
29
102
}
330
29
100
AcDbVisualStyle
  2
Dim
 70
    11
 71
     2
 72
     2
 73
     0
 90
        0
 40
-0.6
 41
-30.0
 62
     5
 63
     7
 74
     1
 91
        4
 64
     7
 65
   257
 75
     1
175
     1
 42
1.0
 92
        8
 66
     7
 43
1.0
 76
     1
 77
     6
 78
     2
 67
     7
 79
     5
170
     0
171
     0
290
     0
174
     0
 93
        1
 44
-50.0
173
     0
291
     1
 45
0.0
1001
ACAD
1000
AcDbSavedByObjectVersion
1070
     0
  0
VISUALSTYLE
  5
41
102
{ACAD_XDICTIONARY
360
7C2
102
}
102
{ACAD_REACTORS
330
29
102
}
330
29
100
AcDbVisualStyle
  2
EdgeColorOff
 70
    22
 71
     2
 72
     2
 73
     0
 90
        0
 40
-0.6
 41
-30.0
 62
     5
 63
     7
 74
     1
 91
        4
 64
     7
 65
   257
 75
     1
175
     1
 42
1.0
 92
        8
 66
     7
 43
1.0
 76
     1
 77
     6
 78
     2
 67
     7
 79
     5
170
     0
171
     0
290
     0
174
     0
 93
        1
 44
0.0
173
     0
291
     1
 45
0.0
1001
ACAD
1000
AcDbSavedByObjectVersion
1070
     0
  0
VISUALSTYLE
  5
38
102
{ACAD_XDICTIONARY
360
7B0
102
}
102
{ACAD_REACTORS
330
29
102
}
330
29
100
AcDbVisualStyle
  2
Facepattern
 70
    15
 71
     2
 72
     2
 73
     0
 90
        0
 40
-0.6
 41
-30.0
 62
     5
 63
     7
 74
     1
 91
        4
 64
     7
 65
   257
 75
     1
175
     1
 42
1.0
 92
        8
 66
     7
 43
1.0
 76
     1
 77
     6
 78
     2
 67
     7
 79
     5
170
     0
171
     0
290
     0
174
     0
 93
        1
 44
0.0
173
     0
291
     1
 45
0.0
1001
ACAD
1000
AcDbSavedByObjectVersion
1070
     0
  0
VISUALSTYLE
  5
2A
102
{ACAD_XDICTIONARY
360
794
102
}
102
{ACAD_REACTORS
330
29
102
}
330
29
100
AcDbVisualStyle
  2
Flat
 70
     0
 71
     2
 72
     1
 73
     1
 90
        2
 40
-0.6
 41
30.0
 62
     5
 63
     7
 74
     0
 91
        0
 64
     7
 65
   257
 75
     1
175
     1
 42
1.0
 92
        8
 66
     7
 43
1.0
 76
     1
 77
     6
 78
     2
 67
     7
 79
     5
170
     0
171
     0
290
     0
174
     0
 93
       13
 44
0.0
173
     0
291
     1
 45
0.0
1001
ACAD
1000
AcDbSavedByObjectVersion
1070
     0
  0
VISUALSTYLE
  5
2B
102
{ACAD_XDICTIONARY
360
796
102
}
102
{ACAD_REACTORS
330
29
102
}
330
29
100
AcDbVisualStyle
  2
FlatWithEdges
 70
     1
 71
     2
 72
     1
 73
     1
 90
        2
 40
-0.6
 41
30.0
 62
     5
 63
     7
 74
     1
 91
        0
 64
     7
 65
   257
 75
     1
175
     1
 42
1.0
 92
        0
 66
   257
 43
1.0
 76
     1
 77
     6
 78
     2
 67
     7
 79
     5
170
     0
171
     0
290
     0
174
     0
 93
       13
 44
0.0
173
     0
291
     1
 45
0.0
1001
ACAD
1000
AcDbSavedByObjectVersion
1070
     0
  0
VISUALSTYLE
  5
2C
102
{ACAD_XDICTIONARY
360
798
102
}
102
{ACAD_REACTORS
330
29
102
}
330
29
100
AcDbVisualStyle
  2
Gouraud
 70
     2
 71
     2
 72
     2
 73
     1
 90
        2
 40
-0.6
 41
30.0
 62
     5
 63
     7
 74
     0
 91
        0
 64
     7
 65
   257
 75
     1
175
     1
 42
1.0
 92
        0
 66
     7
 43
1.0
 76
     1
 77
     6
 78
     2
 67
     7
 79
     5
170
     0
171
     0
290
     0
174
     0
 93
       13
 44
0.0
173
     0
291
     1
 45
0.0
1001
ACAD
1000
AcDbSavedByObjectVersion
1070
     0
  0
VISUALSTYLE
  5
2D
102
{ACAD_XDICTIONARY
360
79A
102
}
102
{ACAD_REACTORS
330
29
102
}
330
29
100
AcDbVisualStyle
  2
GouraudWithEdges
 70
     3
 71
     2
 72
     2
 73
     1
 90
        2
 40
-0.6
 41
30.0
 62
     5
 63
     7
 74
     1
 91
        0
 64
     7
 65
   257
 75
     1
175
     1
 42
1.0
 92
        0
 66
   257
 43
1.0
 76
     1
 77
     6
 78
     2
 67
     7
 79
     5
170
     0
171
     0
290
     0
174
     0
 93
       13
 44
0.0
173
     0
291
     1
 45
0.0
1001
ACAD
1000
AcDbSavedByObjectVersion
1070
     0
  0
VISUALSTYLE
  5
31
102
{ACAD_XDICTIONARY
360
7A2
102
}
102
{ACAD_REACTORS
330
29
102
}
330
29
100
AcDbVisualStyle
  2
Hidden
 70
     6
 71
     1
 72
     2
 73
     2
 90
        0
 40
-0.6
 41
-30.0
 62
     5
 63
     7
 74
     2
 91
        2
 64
     7
 65
   257
 75
     2
175
     1
 42
40.0
 92
        0
 66
   257
 43
1.0
 76
     1
 77
     6
 78
     2
 67
     7
 79
     3
170
     0
171
     0
290
     0
174
     0
 93
        1
 44
0.0
173
     0
291
     0
 45
0.0
1001
ACAD
1000
AcDbSavedByObjectVersion
1070
     0
  0
VISUALSTYLE
  5
3F
102
{ACAD_XDICTIONARY
360
7BE
102
}
102
{ACAD_REACTORS
330
29
102
}
330
29
100
AcDbVisualStyle
  2
JitterOff
 70
    20
 71
     2
 72
     2
 73
     0
 90
        0
 40
-0.6
 41
-30.0
 62
     5
 63
     7
 74
     1
 91
        4
 64
     7
 65
   257
 75
     1
175
     1
 42
1.0
 92
       10
 66
     7
 43
1.0
 76
     1
 77
     6
 78
     2
 67
     7
 79
     5
170
     0
171
     0
290
     0
174
     0
 93
        1
 44
0.0
173
     0
291
     1
 45
0.0
1001
ACAD
1000
AcDbSavedByObjectVersion
1070
     0
  0
VISUALSTYLE
  5
37
102
{ACAD_XDICTIONARY
360
7AE
102
}
102
{ACAD_REACTORS
330
29
102
}
330
29
100
AcDbVisualStyle
  2
Linepattern
 70
    14
 71
     2
 72
     2
 73
     0
 90
        0
 40
-0.6
 41
-30.0
 62
     5
 63
     7
 74
     1
 91
        4
 64
     7
 65
   257
 75
     7
175
     7
 42
1.0
 92
        8
 66
     7
 43
1.0
 76
     1
 77
     6
 78
     2
 67
     7
 79
     5
170
     0
171
     0
290
     0
174
     0
 93
        1
 44
0.0
173
     0
291
     1
 45
0.0
1001
ACAD
1000
AcDbSavedByObjectVersion
1070
     0
  0
VISUALSTYLE
  5
40
102
{ACAD_XDICTIONARY
360
7C0
102
}
102
{ACAD_REACTORS
330
29
102
}
330
29
100
AcDbVisualStyle
  2
OverhangOff
 70
    21
 71
     2
 72
     2
 73
     0
 90
        0
 40
-0.6
 41
-30.0
 62
     5
 63
     7
 74
     1
 91
        4
 64
     7
 65
   257
 75
     1
175
     1
 42
1.0
 92
        9
 66
     7
 43
1.0
 76
     1
 77
     6
 78
     2
 67
     7
 79
     5
170
     0
171
     0
290
     0
174
     0
 93
        1
 44
0.0
173
     0
291
     1
 45
0.0
1001
ACAD
1000
AcDbSavedByObjectVersion
1070
     0
  0
VISUALSTYLE
  5
33
102
{ACAD_XDICTIONARY
360
7A6
102
}
102
{ACAD_REACTORS
330
29
102
}
330
29
100
AcDbVisualStyle
  2
Realistic
 70
     8
 71
     2
 72
     3
 73
     0
 90
        2
 40
-0.6
 41
30.0
 62
     5
 63
     7
 74
     0
 91
        0
 64
     7
 65
   257
 75
     1
175
     1
 42
1.0
 92
        8
 66
   257
 43
1.0
 76
     1
 77
     6
 78
     2
 67
     7
 79
     3
170
     0
171
     0
290
     0
174
     0
 93
       13
 44
0.0
173
     0
291
     0
 45
0.0
1001
ACAD
1000
AcDbSavedByObjectVersion
1070
     0
  0
VISUALSTYLE
  5
3E
102
{ACAD_XDICTIONARY
360
7BC
102
}
102
{ACAD_REACTORS
330
29
102
}
330
29
100
AcDbVisualStyle
  2
Shaded
 70
    27
 71
     2
 72
     2
 73
     1
 90
        2
 40
-0.6
 41
30.0
 62
     5
 63
     7
 74
     0
 91
        4
 64
     7
 65
   257
 75
     1
175
     1
 42
1.0
 92
        8
 66
   257
 43
1.0
 76
     1
 77
     6
 78
     2
 67
     8
 79
     3
170
     0
171
     0
290
     0
174
     0
 93
        5
 44
0.0
173
     0
291
     0
 45
0.0
1001
ACAD
1000
AcDbSavedByObjectVersion
1070
     0
  0
VISUALSTYLE
  5
3D
102
{ACAD_XDICTIONARY
360
7BA
102
}
102
{ACAD_REACTORS
330
29
102
}
330
29
100
AcDbVisualStyle
  2
Shaded with edges
 70
    26
 71
     2
 72
     2
 73
     1
 90
        2
 40
-0.6
 41
30.0
 62
     5
 63
     7
 74
     1
 91
       10
 64
     7
 65
   257
 75
     2
175
     1
 42
1.0
 92
        8
 66
   257
 43
1.0
 76
     1
 77
     6
 78
     2
 67
     7
 79
     3
170
     0
171
     0
290
     0
174
     0
 93
        5
 44
0.0
173
     0
291
     0
 45
0.0
1001
ACAD
1000
AcDbSavedByObjectVersion
1070
     0
  0
VISUALSTYLE
  5
3A
102
{ACAD_XDICTIONARY
360
7B4
102
}
102
{ACAD_REACTORS
330
29
102
}
330
29
100
AcDbVisualStyle
  2
Shades of Gray
 70
    23
 71
     2
 72
     2
 73
     3
 90
        0
 40
-0.6
 41
-30.0
 62
     5
 63
     7
 74
     2
 91
        2
 64
     7
 65
     7
 75
     1
175
     1
 42
40.0
 92
        8
 66
     7
 43
1.0
 76
     1
 77
     6
 78
     2
 67
     7
 79
     3
170
     0
171
     0
290
     0
174
     0
 93
        1
 44
0.0
173
     0
291
     0
 45
0.0
1001
ACAD
1000
AcDbSavedByObjectVersion
1070
     0
  0
VISUALSTYLE
  5
3B
102
{ACAD_XDICTIONARY
360
7B6
102
}
102
{ACAD_REACTORS
330
29
102
}
330
29
100
AcDbVisualStyle
  2
Sketchy
 70
    24
 71
     1
 72
     2
 73
     2
 90
        0
 40
-0.6
 41
-30.0
 62
     5
 63
     7
 74
     2
 91
        2
 64
     7
 65
     7
 75
     1
175
     1
 42
40.0
 92
       11
 66
     7
 43
1.0
 76
     1
 77
     6
 78
     2
 67
     7
 79
     6
170
     0
171
     0
290
     0
174
     0
 93
        1
 44
0.0
173
     0
291
     0
 45
0.0
1001
ACAD
1000
AcDbSavedByObjectVersion
1070
     0
  0
VISUALSTYLE
  5
36
102
{ACAD_XDICTIONARY
360
7AC
102
}
102
{ACAD_REACTORS
330
29
102
}
330
29
100
AcDbVisualStyle
  2
Thicken
 70
    13
 71
     2
 72
     2
 73
     0
 90
        0
 40
-0.6
 41
-30.0
 62
     5
 63
     7
 74
     1
 91
        4
 64
     7
 65
   257
 75
     1
175
     1
 42
1.0
 92
       12
 66
     7
 43
1.0
 76
     1
 77
     6
 78
     2
 67
     7
 79
     5
170
     0
171
     0
290
     0
174
     0
 93
        1
 44
0.0
173
     0
291
     1
 45
0.0
1001
ACAD
1000
AcDbSavedByObjectVersion
1070
     0
  0
VISUALSTYLE
  5
30
102
{ACAD_XDICTIONARY
360
7A0
102
}
102
{ACAD_REACTORS
330
29
102
}
330
29
100
AcDbVisualStyle
  2
Wireframe
 70
     5
 71
     0
 72
     2
 73
     0
 90
        0
 40
-0.6
 41
-30.0
 62
     5
 63
     7
 74
     1
 91
        4
 64
     7
 65
   257
 75
     1
175
     1
 42
1.0
 92
        0
 66
   257
 43
1.0
 76
     1
 77
     6
 78
     2
 67
     7
 79
     3
170
     0
171
     0
290
     0
174
     0
 93
        1
 44
0.0
173
     0
291
     0
 45
0.0
1001
ACAD
1000
AcDbSavedByObjectVersion
1070
     0
  0
VISUALSTYLE
  5
3C
102
{ACAD_XDICTIONARY
360
7B8
102
}
102
{ACAD_REACTORS
330
29
102
}
330
29
100
AcDbVisualStyle
  2
X-Ray
 70
    25
 71
     2
 72
     2
 73
     1
 90
        1
 40
0.5
 41
-30.0
 62
     5
 63
     7
 74
     1
 91
        0
 64
     7
 65
   257
 75
     1
175
     1
 42
1.0
 92
        8
 66
     7
 43
1.0
 76
     1
 77
     6
 78
     2
 67
     7
 79
     3
170
     0
171
     0
290
     0
174
     0
 93
       13
 44
0.0
173
     0
291
     0
 45
0.0
1001
ACAD
1000
AcDbSavedByObjectVersion
1070
     0
  0
DICTIONARYVAR
  5
6B4
102
{ACAD_REACTORS
330
6B1
102
}
330
6B1
100
DictionaryVariables
280
     0
  1
1:1
  0
DICTIONARYVAR
  5
6B3
102
{ACAD_REACTORS
330
6B1
102
}
330
6B1
100
DictionaryVariables
280
     0
  1
STANDARD
  0
DICTIONARYVAR
  5
6B2
102
{ACAD_REACTORS
330
6B1
102
}
330
6B1
100
DictionaryVariables
280
     0
  1
STANDARD
  0
DICTIONARYVAR
  5
6B7
102
{ACAD_REACTORS
330
6B1
102
}
330
6B1
100
DictionaryVariables
280
     0
  1
1
  0
DICTIONARYVAR
  5
6B6
102
{ACAD_REACTORS
330
6B1
102
}
330
6B1
100
DictionaryVariables
280
     0
  1
0
  0
DICTIONARYVAR
  5
6B5
102
{ACAD_REACTORS
330
6B1
102
}
330
6B1
100
DictionaryVariables
280
     0
  1
127
  0
DICTIONARYVAR
  5
6B8
102
{ACAD_REACTORS
330
6B1
102
}
330
6B1
100
DictionaryVariables
280
     0
  1
2
  0
DICTIONARY
  5
7C8
330
6E
100
AcDbDictionary
280
     1
281
     1
  3
ACAD_XREC_ROUNDTRIP
360
7C9
  0
DICTIONARY
  5
7C6
330
6A
100
AcDbDictionary
280
     1
281
     1
  3
ACAD_XREC_ROUNDTRIP
360
7C7
  0
DICTIONARY
  5
1A
330
19
100
AcDbDictionary
280
     1
281
     1
  3
ACAD_XREC_ROUNDTRIP
360
792
  3
BUMPTILE
360
1C
  3
DIFFUSETILE
360
1B
  3
OPACITYTILE
360
1F
  3
REFLECTIONTILE
360
1E
  3
REFRACTIONTILE
360
20
  3
SPECULARTILE
360
1D
  0
DICTIONARY
  5
12
330
11
100
AcDbDictionary
280
     1
281
     1
  3
ACAD_XREC_ROUNDTRIP
360
791
  3
BUMPTILE
360
14
  3
DIFFUSETILE
360
13
  3
OPACITYTILE
360
17
  3
REFLECTIONTILE
360
16
  3
REFRACTIONTILE
360
18
  3
SPECULARTILE
360
15
  0
DICTIONARY
  5
22
330
21
100
AcDbDictionary
280
     1
281
     1
  3
ACAD_XREC_ROUNDTRIP
360
793
  3
BUMPTILE
360
24
  3
DIFFUSETILE
360
23
  3
OPACITYTILE
360
27
  3
REFLECTIONTILE
360
26
  3
REFRACTIONTILE
360
28
  3
SPECULARTILE
360
25
  0
DICTIONARY
  5
789
330
64
100
AcDbDictionary
280
     1
281
     1
  3
ACAD_ROUNDTRIP_2008_TABLESTYLE_CELLSTYLEMAP
360
78A
  3
ACAD_XREC_ROUNDTRIP
360
7C4
  0
DICTIONARY
  5
79E
330
2F
100
AcDbDictionary
280
     1
281
     1
  3
ACAD_XREC_ROUNDTRIP
360
79F
  0
DICTIONARY
  5
7CC
330
500
100
AcDbDictionary
280
     1
281
     1
  3
ACAD_XREC_ROUNDTRIP
360
7CD
  0
DICTIONARY
  5
79C
330
2E
100
AcDbDictionary
280
     1
281
     1
  3
ACAD_XREC_ROUNDTRIP
360
79D
  0
DICTIONARY
  5
7AA
330
35
100
AcDbDictionary
280
     1
281
     1
  3
ACAD_XREC_ROUNDTRIP
360
7AB
  0
DICTIONARY
  5
7B2
330
39
100
AcDbDictionary
280
     1
281
     1
  3
ACAD_XREC_ROUNDTRIP
360
7B3
  0
DICTIONARY
  5
7A4
330
32
100
AcDbDictionary
280
     1
281
     1
  3
ACAD_XREC_ROUNDTRIP
360
7A5
  0
DICTIONARY
  5
7A8
330
34
100
AcDbDictionary
280
     1
281
     1
  3
ACAD_XREC_ROUNDTRIP
360
7A9
  0
DICTIONARY
  5
7C2
330
41
100
AcDbDictionary
280
     1
281
     1
  3
ACAD_XREC_ROUNDTRIP
360
7C3
  0
DICTIONARY
  5
7B0
330
38
100
AcDbDictionary
280
     1
281
     1
  3
ACAD_XREC_ROUNDTRIP
360
7B1
  0
DICTIONARY
  5
794
330
2A
100
AcDbDictionary
280
     1
281
     1
  3
ACAD_XREC_ROUNDTRIP
360
795
  0
DICTIONARY
  5
796
330
2B
100
AcDbDictionary
280
     1
281
     1
  3
ACAD_XREC_ROUNDTRIP
360
797
  0
DICTIONARY
  5
798
330
2C
100
AcDbDictionary
280
     1
281
     1
  3
ACAD_XREC_ROUNDTRIP
360
799
  0
DICTIONARY
  5
79A
330
2D
100
AcDbDictionary
280
     1
281
     1
  3
ACAD_XREC_ROUNDTRIP
360
79B
  0
DICTIONARY
  5
7A2
330
31
100
AcDbDictionary
280
     1
281
     1
  3
ACAD_XREC_ROUNDTRIP
360
7A3
  0
DICTIONARY
  5
7BE
330
3F
100
AcDbDictionary
280
     1
281
     1
  3
ACAD_XREC_ROUNDTRIP
360
7BF
  0
DICTIONARY
  5
7AE
330
37
100
AcDbDictionary
280
     1
281
     1
  3
ACAD_XREC_ROUNDTRIP
360
7AF
  0
DICTIONARY
  5
7C0
330
40
100
AcDbDictionary
280
     1
281
     1
  3
ACAD_XREC_ROUNDTRIP
360
7C1
  0
DICTIONARY
  5
7A6
330
33
100
AcDbDictionary
280
     1
281
     1
  3
ACAD_XREC_ROUNDTRIP
360
7A7
  0
DICTIONARY
  5
7BC
330
3E
100
AcDbDictionary
280
     1
281
     1
  3
ACAD_XREC_ROUNDTRIP
360
7BD
  0
DICTIONARY
  5
7BA
330
3D
100
AcDbDictionary
280
     1
281
     1
  3
ACAD_XREC_ROUNDTRIP
360
7BB
  0
DICTIONARY
  5
7B4
330
3A
100
AcDbDictionary
280
     1
281
     1
  3
ACAD_XREC_ROUNDTRIP
360
7B5
  0
DICTIONARY
  5
7B6
330
3B
100
AcDbDictionary
280
     1
281
     1
  3
ACAD_XREC_ROUNDTRIP
360
7B7
  0
DICTIONARY
  5
7AC
330
36
100
AcDbDictionary
280
     1
281
     1
  3
ACAD_XREC_ROUNDTRIP
360
7AD
  0
DICTIONARY
  5
7A0
330
30
100
AcDbDictionary
280
     1
281
     1
  3
ACAD_XREC_ROUNDTRIP
360
7A1
  0
DICTIONARY
  5
7B8
330
3C
100
AcDbDictionary
280
     1
281
     1
  3
ACAD_XREC_ROUNDTRIP
360
7B9
  0
XRECORD
  5
7C9
102
{ACAD_REACTORS
330
7C8
102
}
330
7C8
100
AcDbXrecord
280
     1
102
SHADEPLOT
 70
     0
102
SHADEPLOTRESLEVEL
 70
     2
102
SHADEPLOTCUSTOMDPI
 70
   300
  0
XRECORD
  5
7C7
102
{ACAD_REACTORS
330
7C6
102
}
330
7C6
100
AcDbXrecord
280
     1
102
SHADEPLOT
 70
     0
102
SHADEPLOTRESLEVEL
 70
     2
102
SHADEPLOTCUSTOMDPI
 70
   300
  0
XRECORD
  5
792
102
{ACAD_REACTORS
330
1A
102
}
330
1A
100
AcDbXrecord
280
     1
102
MATERIAL
148
0.0
149
0.0
149
0.0
 93
        0
 94
      127
282
     0
 72
     0
 77
     0
171
     0
175
     0
179
     0
273
     0
  0
XRECORD
  5
1C
102
{ACAD_REACTORS
330
1A
102
}
330
1A
100
AcDbXrecord
280
     1
270
     1
271
     1
  0
XRECORD
  5
1B
102
{ACAD_REACTORS
330
1A
102
}
330
1A
100
AcDbXrecord
280
     1
270
     1
271
     1
  0
XRECORD
  5
1F
102
{ACAD_REACTORS
330
1A
102
}
330
1A
100
AcDbXrecord
280
     1
270
     1
271
     1
  0
XRECORD
  5
1E
102
{ACAD_REACTORS
330
1A
102
}
330
1A
100
AcDbXrecord
280
     1
270
     1
271
     1
  0
XRECORD
  5
20
102
{ACAD_REACTORS
330
1A
102
}
330
1A
100
AcDbXrecord
280
     1
270
     1
271
     1
  0
XRECORD
  5
1D
102
{ACAD_REACTORS
330
1A
102
}
330
1A
100
AcDbXrecord
280
     1
270
     1
271
     1
  0
XRECORD
  5
791
102
{ACAD_REACTORS
330
12
102
}
330
12
100
AcDbXrecord
280
     1
102
MATERIAL
148
0.0
149
0.0
149
0.0
 93
        0
 94
      127
282
     0
 72
     0
 77
     0
171
     0
175
     0
179
     0
273
     0
  0
XRECORD
  5
14
102
{ACAD_REACTORS
330
12
102
}
330
12
100
AcDbXrecord
280
     1
270
     1
271
     1
  0
XRECORD
  5
13
102
{ACAD_REACTORS
330
12
102
}
330
12
100
AcDbXrecord
280
     1
270
     1
271
     1
  0
XRECORD
  5
17
102
{ACAD_REACTORS
330
12
102
}
330
12
100
AcDbXrecord
280
     1
270
     1
271
     1
  0
XRECORD
  5
16
102
{ACAD_REACTORS
330
12
102
}
330
12
100
AcDbXrecord
280
     1
270
     1
271
     1
  0
XRECORD
  5
18
102
{ACAD_REACTORS
330
12
102
}
330
12
100
AcDbXrecord
280
     1
270
     1
271
     1
  0
XRECORD
  5
15
102
{ACAD_REACTORS
330
12
102
}
330
12
100
AcDbXrecord
280
     1
270
     1
271
     1
  0
XRECORD
  5
793
102
{ACAD_REACTORS
330
22
102
}
330
22
100
AcDbXrecord
280
     1
102
MATERIAL
148
0.0
149
0.0
149
0.0
 93
        0
 94
      127
282
     0
 72
     0
 77
     0
171
     0
175
     0
179
     0
273
     0
  0
XRECORD
  5
24
102
{ACAD_REACTORS
330
22
102
}
330
22
100
AcDbXrecord
280
     1
270
     1
271
     1
  0
XRECORD
  5
23
102
{ACAD_REACTORS
330
22
102
}
330
22
100
AcDbXrecord
280
     1
270
     1
271
     1
  0
XRECORD
  5
27
102
{ACAD_REACTORS
330
22
102
}
330
22
100
AcDbXrecord
280
     1
270
     1
271
     1
  0
XRECORD
  5
26
102
{ACAD_REACTORS
330
22
102
}
330
22
100
AcDbXrecord
280
     1
270
     1
271
     1
  0
XRECORD
  5
28
102
{ACAD_REACTORS
330
22
102
}
330
22
100
AcDbXrecord
280
     1
270
     1
271
     1
  0
XRECORD
  5
25
102
{ACAD_REACTORS
330
22
102
}
330
22
100
AcDbXrecord
280
     1
270
     1
271
     1
  0
CELLSTYLEMAP
  5
78A
102
{ACAD_REACTORS
330
789
102
}
330
789
100
AcDbCellStyleMap
 90
        3
300
CELLSTYLE
  1
TABLEFORMAT_BEGIN
 90
        5
170
     1
 91
        0
 92
    32768
 62
   257
 93
        1
300
CONTENTFORMAT
  1
CONTENTFORMAT_BEGIN
 90
        0
 91
        0
 92
      512
 93
        0
300

 40
0.0
140
1.0
 94
        5
 62
     0
340
55
144
0.25
309
CONTENTFORMAT_END
171
     0
 94
        0
309
TABLEFORMAT_END
  1
CELLSTYLE_BEGIN
 90
        1
 91
        1
300
_TITLE
309
CELLSTYLE_END
300
CELLSTYLE
  1
TABLEFORMAT_BEGIN
 90
        5
170
     1
 91
        0
 92
        0
 62
   257
 93
        1
300
CONTENTFORMAT
  1
CONTENTFORMAT_BEGIN
 90
        0
 91
        0
 92
      512
 93
        0
300

 40
0.0
140
1.0
 94
        5
 62
     0
340
55
144
0.18
309
CONTENTFORMAT_END
171
     0
 94
        0
309
TABLEFORMAT_END
  1
CELLSTYLE_BEGIN
 90
        2
 91
        1
300
_HEADER
309
CELLSTYLE_END
300
CELLSTYLE
  1
TABLEFORMAT_BEGIN
 90
        5
170
     1
 91
        0
 92
        0
 62
   257
 93
        1
300
CONTENTFORMAT
  1
CONTENTFORMAT_BEGIN
 90
        0
 91
        0
 92
      512
 93
        0
300

 40
0.0
140
1.0
 94
        2
 62
     0
340
55
144
0.18
309
CONTENTFORMAT_END
171
     0
 94
        0
309
TABLEFORMAT_END
  1
CELLSTYLE_BEGIN
 90
        3
 91
        2
300
_DATA
309
CELLSTYLE_END
  0
XRECORD
  5
7C4
102
{ACAD_REACTORS
330
789
102
}
330
789
100
AcDbXrecord
280
     1
102
ACAD_ROUNDTRIP_PRE2007_TABLESTYLE
 90
      512
 91
        0
  1

 92
      512
 93
        0
  2

 94
      512
 95
        0
  3

  0
XRECORD
  5
79F
102
{ACAD_REACTORS
330
79E
102
}
330
79E
100
AcDbXrecord
280
     1
102
RTVSPropertyOp0
 70
     1
102
RTVSPropertyOp1
 70
     1
102
RTVSPropertyOp2
 70
     1
102
RTVSPropertyOp3
 70
     1
102
RTVSPropertyOp4
 70
     1
102
RTVSPropertyOp5
 70
     1
102
RTVSPropertyOp6
 70
     1
102
RTVSPropertyOp7
 70
     1
102
RTVSPropertyOp8
 70
     1
102
RTVSPropertyOp9
 70
     1
102
RTVSPropertyOp10
 70
     1
102
RTVSPropertyOp11
 70
     1
102
RTVSPropertyOp12
 70
     1
102
RTVSPropertyOp13
 70
     1
102
RTVSPropertyOp14
 70
     1
102
RTVSPropertyOp15
 70
     1
102
RTVSPropertyOp16
 70
     1
102
RTVSPropertyOp17
 70
     1
102
RTVSPropertyOp18
 70
     1
102
RTVSPropertyOp19
 70
     1
102
RTVSPropertyOp20
 70
     1
102
RTVSPropertyOp21
 70
     1
102
RTVSPropertyOp22
 70
     1
102
RTVSPropertyOp23
 70
     1
102
RTVSPropertyOp24
 70
     1
102
RTVSPropertyOp25
 70
     1
102
RTVSPropertyOp26
 70
     1
102
RTVSPropertyOp27
 70
     1
102
RTVSPropertyOp28
 70
     1
102
RTVSPropertyOp29
 70
     1
102
RTVSPropertyOp30
 70
     1
102
RTVSPropertyOp31
 70
     1
102
RTVSPropertyOp32
 70
     1
  0
XRECORD
  5
7CD
102
{ACAD_REACTORS
330
7CC
102
}
330
7CC
100
AcDbXrecord
280
     1
102
RTVSPropertyOp0
 70
     1
102
RTVSPropertyOp1
 70
     1
102
RTVSPropertyOp2
 70
     1
102
RTVSPropertyOp3
 70
     1
102
RTVSPropertyOp4
 70
     1
102
RTVSPropertyOp5
 70
     1
102
RTVSPropertyOp6
 70
     1
102
RTVSPropertyOp7
 70
     1
102
RTVSPropertyOp8
 70
     1
102
RTVSPropertyOp9
 70
     1
102
RTVSPropertyOp10
 70
     1
102
RTVSPropertyOp11
 70
     1
102
RTVSPropertyOp12
 70
     1
102
RTVSPropertyOp13
 70
     1
102
RTVSPropertyOp14
 70
     1
102
RTVSPropertyOp15
 70
     1
102
RTVSPropertyOp16
 70
     1
102
RTVSPropertyOp17
 70
     1
102
RTVSPropertyOp18
 70
     1
102
RTVSPropertyOp19
 70
     1
102
RTVSPropertyOp20
 70
     1
102
RTVSPropertyOp21
 70
     1
102
RTVSPropertyOp22
 70
     1
102
RTVSPropertyOp23
 70
     1
102
RTVSPropertyOp24
 70
     1
102
RTVSPropertyOp25
 70
     1
102
RTVSPropertyOp26
 70
     1
102
RTVSPropertyOp27
 70
     1
102
RTVSPropertyOp28
 70
     1
102
RTVSPropertyOp29
 70
     1
102
RTVSPropertyOp30
 70
     1
102
RTVSPropertyOp31
 70
     1
102
RTVSPropertyOp32
 70
     1
  0
XRECORD
  5
79D
102
{ACAD_REACTORS
330
79C
102
}
330
79C
100
AcDbXrecord
280
     1
102
RTVSPropertyOp0
 70
     1
102
RTVSPropertyOp1
 70
     1
102
RTVSPropertyOp2
 70
     1
102
RTVSPropertyOp3
 70
     1
102
RTVSPropertyOp4
 70
     1
102
RTVSPropertyOp5
 70
     1
102
RTVSPropertyOp6
 70
     1
102
RTVSPropertyOp7
 70
     1
102
RTVSPropertyOp8
 70
     1
102
RTVSPropertyOp9
 70
     1
102
RTVSPropertyOp10
 70
     1
102
RTVSPropertyOp11
 70
     1
102
RTVSPropertyOp12
 70
     1
102
RTVSPropertyOp13
 70
     1
102
RTVSPropertyOp14
 70
     1
102
RTVSPropertyOp15
 70
     1
102
RTVSPropertyOp16
 70
     1
102
RTVSPropertyOp17
 70
     1
102
RTVSPropertyOp18
 70
     1
102
RTVSPropertyOp19
 70
     1
102
RTVSPropertyOp20
 70
     1
102
RTVSPropertyOp21
 70
     1
102
RTVSPropertyOp22
 70
     1
102
RTVSPropertyOp23
 70
     1
102
RTVSPropertyOp24
 70
     1
102
RTVSPropertyOp25
 70
     1
102
RTVSPropertyOp26
 70
     1
102
RTVSPropertyOp27
 70
     1
102
RTVSPropertyOp28
 70
     1
102
RTVSPropertyOp29
 70
     1
102
RTVSPropertyOp30
 70
     1
102
RTVSPropertyOp31
 70
     1
102
RTVSPropertyOp32
 70
     1
  0
XRECORD
  5
7AB
102
{ACAD_REACTORS
330
7AA
102
}
330
7AA
100
AcDbXrecord
280
     1
102
RTVSPropertyOp0
 70
     1
102
RTVSPropertyOp1
 70
     1
102
RTVSPropertyOp2
 70
     1
102
RTVSPropertyOp3
 70
     1
102
RTVSPropertyOp4
 70
     1
102
RTVSPropertyOp5
 70
     1
102
RTVSPropertyOp6
 70
     1
102
RTVSPropertyOp7
 70
     1
102
RTVSPropertyOp8
 70
     1
102
RTVSPropertyOp9
 70
     1
102
RTVSPropertyOp10
 70
     1
102
RTVSPropertyOp11
 70
     1
102
RTVSPropertyOp12
 70
     1
102
RTVSPropertyOp13
 70
     1
102
RTVSPropertyOp14
 70
     1
102
RTVSPropertyOp15
 70
     1
102
RTVSPropertyOp16
 70
     1
102
RTVSPropertyOp17
 70
     1
102
RTVSPropertyOp18
 70
     1
102
RTVSPropertyOp19
 70
     1
102
RTVSPropertyOp20
 70
     1
102
RTVSPropertyOp21
 70
     1
102
RTVSPropertyOp22
 70
     1
102
RTVSPropertyOp23
 70
     1
102
RTVSPropertyOp24
 70
     1
102
RTVSPropertyOp25
 70
     1
102
RTVSPropertyOp26
 70
     1
102
RTVSPropertyOp27
 70
     1
102
RTVSPropertyOp28
 70
     1
102
RTVSPropertyOp29
 70
     1
102
RTVSPropertyOp30
 70
     1
102
RTVSPropertyOp31
 70
     1
102
RTVSPropertyOp32
 70
     1
  0
XRECORD
  5
7B3
102
{ACAD_REACTORS
330
7B2
102
}
330
7B2
100
AcDbXrecord
280
     1
102
RTVSPropertyOp0
 70
     1
102
RTVSPropertyOp1
 70
     1
102
RTVSPropertyOp2
 70
     1
102
RTVSPropertyOp3
 70
     1
102
RTVSPropertyOp4
 70
     1
102
RTVSPropertyOp5
 70
     1
102
RTVSPropertyOp6
 70
     1
102
RTVSPropertyOp7
 70
     1
102
RTVSPropertyOp8
 70
     1
102
RTVSPropertyOp9
 70
     1
102
RTVSPropertyOp10
 70
     1
102
RTVSPropertyOp11
 70
     1
102
RTVSPropertyOp12
 70
     1
102
RTVSPropertyOp13
 70
     1
102
RTVSPropertyOp14
 70
     1
102
RTVSPropertyOp15
 70
     1
102
RTVSPropertyOp16
 70
     1
102
RTVSPropertyOp17
 70
     1
102
RTVSPropertyOp18
 70
     1
102
RTVSPropertyOp19
 70
     1
102
RTVSPropertyOp20
 70
     1
102
RTVSPropertyOp21
 70
     1
102
RTVSPropertyOp22
 70
     1
102
RTVSPropertyOp23
 70
     1
102
RTVSPropertyOp24
 70
     1
102
RTVSPropertyOp25
 70
     1
102
RTVSPropertyOp26
 70
     1
102
RTVSPropertyOp27
 70
     1
102
RTVSPropertyOp28
 70
     1
102
RTVSPropertyOp29
 70
     1
102
RTVSPropertyOp30
 70
     1
102
RTVSPropertyOp31
 70
     1
102
RTVSPropertyOp32
 70
     1
  0
XRECORD
  5
7A5
102
{ACAD_REACTORS
330
7A4
102
}
330
7A4
100
AcDbXrecord
280
     1
102
RTVSPropertyOp0
 70
     1
102
RTVSPropertyOp1
 70
     1
102
RTVSPropertyOp2
 70
     1
102
RTVSPropertyOp3
 70
     1
102
RTVSPropertyOp4
 70
     1
102
RTVSPropertyOp5
 70
     1
102
RTVSPropertyOp6
 70
     1
102
RTVSPropertyOp7
 70
     1
102
RTVSPropertyOp8
 70
     1
102
RTVSPropertyOp9
 70
     1
102
RTVSPropertyOp10
 70
     1
102
RTVSPropertyOp11
 70
     1
102
RTVSPropertyOp12
 70
     1
102
RTVSPropertyOp13
 70
     1
102
RTVSPropertyOp14
 70
     1
102
RTVSPropertyOp15
 70
     1
102
RTVSPropertyOp16
 70
     1
102
RTVSPropertyOp17
 70
     1
102
RTVSPropertyOp18
 70
     1
102
RTVSPropertyOp19
 70
     1
102
RTVSPropertyOp20
 70
     1
102
RTVSPropertyOp21
 70
     1
102
RTVSPropertyOp22
 70
     1
102
RTVSPropertyOp23
 70
     1
102
RTVSPropertyOp24
 70
     1
102
RTVSPropertyOp25
 70
     1
102
RTVSPropertyOp26
 70
     1
102
RTVSPropertyOp27
 70
     1
102
RTVSPropertyOp28
 70
     1
102
RTVSPropertyOp29
 70
     1
102
RTVSPropertyOp30
 70
     1
102
RTVSPropertyOp31
 70
     1
102
RTVSPropertyOp32
 70
     1
  0
XRECORD
  5
7A9
102
{ACAD_REACTORS
330
7A8
102
}
330
7A8
100
AcDbXrecord
280
     1
102
RTVSPropertyOp0
 70
     1
102
RTVSPropertyOp1
 70
     1
102
RTVSPropertyOp2
 70
     1
102
RTVSPropertyOp3
 70
     1
102
RTVSPropertyOp4
 70
     1
102
RTVSPropertyOp5
 70
     1
102
RTVSPropertyOp6
 70
     1
102
RTVSPropertyOp7
 70
     1
102
RTVSPropertyOp8
 70
     1
102
RTVSPropertyOp9
 70
     1
102
RTVSPropertyOp10
 70
     1
102
RTVSPropertyOp11
 70
     1
102
RTVSPropertyOp12
 70
     1
102
RTVSPropertyOp13
 70
     1
102
RTVSPropertyOp14
 70
     1
102
RTVSPropertyOp15
 70
     1
102
RTVSPropertyOp16
 70
     1
102
RTVSPropertyOp17
 70
     1
102
RTVSPropertyOp18
 70
     1
102
RTVSPropertyOp19
 70
     1
102
RTVSPropertyOp20
 70
     1
102
RTVSPropertyOp21
 70
     1
102
RTVSPropertyOp22
 70
     1
102
RTVSPropertyOp23
 70
     1
102
RTVSPropertyOp24
 70
     1
102
RTVSPropertyOp25
 70
     1
102
RTVSPropertyOp26
 70
     1
102
RTVSPropertyOp27
 70
     1
102
RTVSPropertyOp28
 70
     1
102
RTVSPropertyOp29
 70
     1
102
RTVSPropertyOp30
 70
     1
102
RTVSPropertyOp31
 70
     1
102
RTVSPropertyOp32
 70
     1
  0
XRECORD
  5
7C3
102
{ACAD_REACTORS
330
7C2
102
}
330
7C2
100
AcDbXrecord
280
     1
102
RTVSPropertyOp0
 70
     0
102
RTVSPropertyOp1
 70
     0
102
RTVSPropertyOp2
 70
     0
102
RTVSPropertyOp3
 70
     0
102
RTVSPropertyOp4
 70
     0
102
RTVSPropertyOp5
 70
     0
102
RTVSPropertyOp6
 70
     0
102
RTVSPropertyOp7
 70
     0
102
RTVSPropertyOp8
 70
     0
102
RTVSPropertyOp9
 70
     0
102
RTVSPropertyOp10
 70
     0
102
RTVSPropertyOp11
 70
     0
102
RTVSPropertyOp12
 70
     0
102
RTVSPropertyOp13
 70
     0
102
RTVSPropertyOp14
 70
     2
102
RTVSPropertyOp15
 70
     0
102
RTVSPropertyOp16
 70
     0
102
RTVSPropertyOp17
 70
     0
102
RTVSPropertyOp18
 70
     0
102
RTVSPropertyOp19
 70
     0
102
RTVSPropertyOp20
 70
     0
102
RTVSPropertyOp21
 70
     0
102
RTVSPropertyOp22
 70
     0
102
RTVSPropertyOp23
 70
     0
102
RTVSPropertyOp24
 70
     0
102
RTVSPropertyOp25
 70
     0
102
RTVSPropertyOp26
 70
     0
102
RTVSPropertyOp27
 70
     0
102
RTVSPropertyOp28
 70
     0
102
RTVSPropertyOp29
 70
     0
102
RTVSPropertyOp30
 70
     0
102
RTVSPropertyOp31
 70
     0
102
RTVSPropertyOp32
 70
     0
  0
XRECORD
  5
7B1
102
{ACAD_REACTORS
330
7B0
102
}
330
7B0
100
AcDbXrecord
280
     1
102
RTVSPropertyOp0
 70
     1
102
RTVSPropertyOp1
 70
     1
102
RTVSPropertyOp2
 70
     1
102
RTVSPropertyOp3
 70
     1
102
RTVSPropertyOp4
 70
     1
102
RTVSPropertyOp5
 70
     1
102
RTVSPropertyOp6
 70
     1
102
RTVSPropertyOp7
 70
     1
102
RTVSPropertyOp8
 70
     1
102
RTVSPropertyOp9
 70
     1
102
RTVSPropertyOp10
 70
     1
102
RTVSPropertyOp11
 70
     1
102
RTVSPropertyOp12
 70
     1
102
RTVSPropertyOp13
 70
     1
102
RTVSPropertyOp14
 70
     1
102
RTVSPropertyOp15
 70
     1
102
RTVSPropertyOp16
 70
     1
102
RTVSPropertyOp17
 70
     1
102
RTVSPropertyOp18
 70
     1
102
RTVSPropertyOp19
 70
     1
102
RTVSPropertyOp20
 70
     1
102
RTVSPropertyOp21
 70
     1
102
RTVSPropertyOp22
 70
     1
102
RTVSPropertyOp23
 70
     1
102
RTVSPropertyOp24
 70
     1
102
RTVSPropertyOp25
 70
     1
102
RTVSPropertyOp26
 70
     1
102
RTVSPropertyOp27
 70
     1
102
RTVSPropertyOp28
 70
     1
102
RTVSPropertyOp29
 70
     1
102
RTVSPropertyOp30
 70
     1
102
RTVSPropertyOp31
 70
     1
102
RTVSPropertyOp32
 70
     1
  0
XRECORD
  5
795
102
{ACAD_REACTORS
330
794
102
}
330
794
100
AcDbXrecord
280
     1
102
RTVSPropertyOp0
 70
     1
102
RTVSPropertyOp1
 70
     1
102
RTVSPropertyOp2
 70
     1
102
RTVSPropertyOp3
 70
     1
102
RTVSPropertyOp4
 70
     1
102
RTVSPropertyOp5
 70
     1
102
RTVSPropertyOp6
 70
     1
102
RTVSPropertyOp7
 70
     1
102
RTVSPropertyOp8
 70
     1
102
RTVSPropertyOp9
 70
     1
102
RTVSPropertyOp10
 70
     1
102
RTVSPropertyOp11
 70
     1
102
RTVSPropertyOp12
 70
     1
102
RTVSPropertyOp13
 70
     1
102
RTVSPropertyOp14
 70
     1
102
RTVSPropertyOp15
 70
     1
102
RTVSPropertyOp16
 70
     1
102
RTVSPropertyOp17
 70
     1
102
RTVSPropertyOp18
 70
     1
102
RTVSPropertyOp19
 70
     1
102
RTVSPropertyOp20
 70
     1
102
RTVSPropertyOp21
 70
     1
102
RTVSPropertyOp22
 70
     1
102
RTVSPropertyOp23
 70
     1
102
RTVSPropertyOp24
 70
     1
102
RTVSPropertyOp25
 70
     1
102
RTVSPropertyOp26
 70
     1
102
RTVSPropertyOp27
 70
     1
102
RTVSPropertyOp28
 70
     1
102
RTVSPropertyOp29
 70
     1
102
RTVSPropertyOp30
 70
     1
102
RTVSPropertyOp31
 70
     1
102
RTVSPropertyOp32
 70
     1
  0
XRECORD
  5
797
102
{ACAD_REACTORS
330
796
102
}
330
796
100
AcDbXrecord
280
     1
102
RTVSPropertyOp0
 70
     1
102
RTVSPropertyOp1
 70
     1
102
RTVSPropertyOp2
 70
     1
102
RTVSPropertyOp3
 70
     1
102
RTVSPropertyOp4
 70
     1
102
RTVSPropertyOp5
 70
     1
102
RTVSPropertyOp6
 70
     1
102
RTVSPropertyOp7
 70
     1
102
RTVSPropertyOp8
 70
     1
102
RTVSPropertyOp9
 70
     1
102
RTVSPropertyOp10
 70
     1
102
RTVSPropertyOp11
 70
     1
102
RTVSPropertyOp12
 70
     1
102
RTVSPropertyOp13
 70
     1
102
RTVSPropertyOp14
 70
     1
102
RTVSPropertyOp15
 70
     1
102
RTVSPropertyOp16
 70
     1
102
RTVSPropertyOp17
 70
     1
102
RTVSPropertyOp18
 70
     1
102
RTVSPropertyOp19
 70
     1
102
RTVSPropertyOp20
 70
     1
102
RTVSPropertyOp21
 70
     1
102
RTVSPropertyOp22
 70
     1
102
RTVSPropertyOp23
 70
     1
102
RTVSPropertyOp24
 70
     1
102
RTVSPropertyOp25
 70
     1
102
RTVSPropertyOp26
 70
     1
102
RTVSPropertyOp27
 70
     1
102
RTVSPropertyOp28
 70
     1
102
RTVSPropertyOp29
 70
     1
102
RTVSPropertyOp30
 70
     1
102
RTVSPropertyOp31
 70
     1
102
RTVSPropertyOp32
 70
     1
  0
XRECORD
  5
799
102
{ACAD_REACTORS
330
798
102
}
330
798
100
AcDbXrecord
280
     1
102
RTVSPropertyOp0
 70
     1
102
RTVSPropertyOp1
 70
     1
102
RTVSPropertyOp2
 70
     1
102
RTVSPropertyOp3
 70
     1
102
RTVSPropertyOp4
 70
     1
102
RTVSPropertyOp5
 70
     1
102
RTVSPropertyOp6
 70
     1
102
RTVSPropertyOp7
 70
     1
102
RTVSPropertyOp8
 70
     1
102
RTVSPropertyOp9
 70
     1
102
RTVSPropertyOp10
 70
     1
102
RTVSPropertyOp11
 70
     1
102
RTVSPropertyOp12
 70
     1
102
RTVSPropertyOp13
 70
     1
102
RTVSPropertyOp14
 70
     1
102
RTVSPropertyOp15
 70
     1
102
RTVSPropertyOp16
 70
     1
102
RTVSPropertyOp17
 70
     1
102
RTVSPropertyOp18
 70
     1
102
RTVSPropertyOp19
 70
     1
102
RTVSPropertyOp20
 70
     1
102
RTVSPropertyOp21
 70
     1
102
RTVSPropertyOp22
 70
     1
102
RTVSPropertyOp23
 70
     1
102
RTVSPropertyOp24
 70
     1
102
RTVSPropertyOp25
 70
     1
102
RTVSPropertyOp26
 70
     1
102
RTVSPropertyOp27
 70
     1
102
RTVSPropertyOp28
 70
     1
102
RTVSPropertyOp29
 70
     1
102
RTVSPropertyOp30
 70
     1
102
RTVSPropertyOp31
 70
     1
102
RTVSPropertyOp32
 70
     1
  0
XRECORD
  5
79B
102
{ACAD_REACTORS
330
79A
102
}
330
79A
100
AcDbXrecord
280
     1
102
RTVSPropertyOp0
 70
     1
102
RTVSPropertyOp1
 70
     1
102
RTVSPropertyOp2
 70
     1
102
RTVSPropertyOp3
 70
     1
102
RTVSPropertyOp4
 70
     1
102
RTVSPropertyOp5
 70
     1
102
RTVSPropertyOp6
 70
     1
102
RTVSPropertyOp7
 70
     1
102
RTVSPropertyOp8
 70
     1
102
RTVSPropertyOp9
 70
     1
102
RTVSPropertyOp10
 70
     1
102
RTVSPropertyOp11
 70
     1
102
RTVSPropertyOp12
 70
     1
102
RTVSPropertyOp13
 70
     1
102
RTVSPropertyOp14
 70
     1
102
RTVSPropertyOp15
 70
     1
102
RTVSPropertyOp16
 70
     1
102
RTVSPropertyOp17
 70
     1
102
RTVSPropertyOp18
 70
     1
102
RTVSPropertyOp19
 70
     1
102
RTVSPropertyOp20
 70
     1
102
RTVSPropertyOp21
 70
     1
102
RTVSPropertyOp22
 70
     1
102
RTVSPropertyOp23
 70
     1
102
RTVSPropertyOp24
 70
     1
102
RTVSPropertyOp25
 70
     1
102
RTVSPropertyOp26
 70
     1
102
RTVSPropertyOp27
 70
     1
102
RTVSPropertyOp28
 70
     1
102
RTVSPropertyOp29
 70
     1
102
RTVSPropertyOp30
 70
     1
102
RTVSPropertyOp31
 70
     1
102
RTVSPropertyOp32
 70
     1
  0
XRECORD
  5
7A3
102
{ACAD_REACTORS
330
7A2
102
}
330
7A2
100
AcDbXrecord
280
     1
102
RTVSPropertyOp0
 70
     1
102
RTVSPropertyOp1
 70
     1
102
RTVSPropertyOp2
 70
     1
102
RTVSPropertyOp3
 70
     1
102
RTVSPropertyOp4
 70
     1
102
RTVSPropertyOp5
 70
     1
102
RTVSPropertyOp6
 70
     1
102
RTVSPropertyOp7
 70
     1
102
RTVSPropertyOp8
 70
     1
102
RTVSPropertyOp9
 70
     1
102
RTVSPropertyOp10
 70
     1
102
RTVSPropertyOp11
 70
     1
102
RTVSPropertyOp12
 70
     1
102
RTVSPropertyOp13
 70
     1
102
RTVSPropertyOp14
 70
     1
102
RTVSPropertyOp15
 70
     1
102
RTVSPropertyOp16
 70
     1
102
RTVSPropertyOp17
 70
     1
102
RTVSPropertyOp18
 70
     1
102
RTVSPropertyOp19
 70
     1
102
RTVSPropertyOp20
 70
     1
102
RTVSPropertyOp21
 70
     1
102
RTVSPropertyOp22
 70
     1
102
RTVSPropertyOp23
 70
     1
102
RTVSPropertyOp24
 70
     1
102
RTVSPropertyOp25
 70
     1
102
RTVSPropertyOp26
 70
     1
102
RTVSPropertyOp27
 70
     1
102
RTVSPropertyOp28
 70
     1
102
RTVSPropertyOp29
 70
     1
102
RTVSPropertyOp30
 70
     1
102
RTVSPropertyOp31
 70
     1
102
RTVSPropertyOp32
 70
     1
  0
XRECORD
  5
7BF
102
{ACAD_REACTORS
330
7BE
102
}
330
7BE
100
AcDbXrecord
280
     1
102
RTVSPropertyOp0
 70
     0
102
RTVSPropertyOp1
 70
     0
102
RTVSPropertyOp2
 70
     0
102
RTVSPropertyOp3
 70
     0
102
RTVSPropertyOp4
 70
     0
102
RTVSPropertyOp5
 70
     0
102
RTVSPropertyOp6
 70
     0
102
RTVSPropertyOp7
 70
     0
102
RTVSPropertyOp8
 70
     0
102
RTVSPropertyOp9
 70
     0
102
RTVSPropertyOp10
 70
     0
102
RTVSPropertyOp11
 70
     0
102
RTVSPropertyOp12
 70
     0
102
RTVSPropertyOp13
 70
     0
102
RTVSPropertyOp14
 70
     2
102
RTVSPropertyOp15
 70
     0
102
RTVSPropertyOp16
 70
     0
102
RTVSPropertyOp17
 70
     0
102
RTVSPropertyOp18
 70
     0
102
RTVSPropertyOp19
 70
     0
102
RTVSPropertyOp20
 70
     0
102
RTVSPropertyOp21
 70
     0
102
RTVSPropertyOp22
 70
     0
102
RTVSPropertyOp23
 70
     0
102
RTVSPropertyOp24
 70
     0
102
RTVSPropertyOp25
 70
     0
102
RTVSPropertyOp26
 70
     0
102
RTVSPropertyOp27
 70
     0
102
RTVSPropertyOp28
 70
     0
102
RTVSPropertyOp29
 70
     0
102
RTVSPropertyOp30
 70
     0
102
RTVSPropertyOp31
 70
     0
102
RTVSPropertyOp32
 70
     0
  0
XRECORD
  5
7AF
102
{ACAD_REACTORS
330
7AE
102
}
330
7AE
100
AcDbXrecord
280
     1
102
RTVSPropertyOp0
 70
     1
102
RTVSPropertyOp1
 70
     1
102
RTVSPropertyOp2
 70
     1
102
RTVSPropertyOp3
 70
     1
102
RTVSPropertyOp4
 70
     1
102
RTVSPropertyOp5
 70
     1
102
RTVSPropertyOp6
 70
     1
102
RTVSPropertyOp7
 70
     1
102
RTVSPropertyOp8
 70
     1
102
RTVSPropertyOp9
 70
     1
102
RTVSPropertyOp10
 70
     1
102
RTVSPropertyOp11
 70
     1
102
RTVSPropertyOp12
 70
     1
102
RTVSPropertyOp13
 70
     1
102
RTVSPropertyOp14
 70
     1
102
RTVSPropertyOp15
 70
     1
102
RTVSPropertyOp16
 70
     1
102
RTVSPropertyOp17
 70
     1
102
RTVSPropertyOp18
 70
     1
102
RTVSPropertyOp19
 70
     1
102
RTVSPropertyOp20
 70
     1
102
RTVSPropertyOp21
 70
     1
102
RTVSPropertyOp22
 70
     1
102
RTVSPropertyOp23
 70
     1
102
RTVSPropertyOp24
 70
     1
102
RTVSPropertyOp25
 70
     1
102
RTVSPropertyOp26
 70
     1
102
RTVSPropertyOp27
 70
     1
102
RTVSPropertyOp28
 70
     1
102
RTVSPropertyOp29
 70
     1
102
RTVSPropertyOp30
 70
     1
102
RTVSPropertyOp31
 70
     1
102
RTVSPropertyOp32
 70
     1
  0
XRECORD
  5
7C1
102
{ACAD_REACTORS
330
7C0
102
}
330
7C0
100
AcDbXrecord
280
     1
102
RTVSPropertyOp0
 70
     0
102
RTVSPropertyOp1
 70
     0
102
RTVSPropertyOp2
 70
     0
102
RTVSPropertyOp3
 70
     0
102
RTVSPropertyOp4
 70
     0
102
RTVSPropertyOp5
 70
     0
102
RTVSPropertyOp6
 70
     0
102
RTVSPropertyOp7
 70
     0
102
RTVSPropertyOp8
 70
     0
102
RTVSPropertyOp9
 70
     0
102
RTVSPropertyOp10
 70
     0
102
RTVSPropertyOp11
 70
     0
102
RTVSPropertyOp12
 70
     0
102
RTVSPropertyOp13
 70
     0
102
RTVSPropertyOp14
 70
     2
102
RTVSPropertyOp15
 70
     0
102
RTVSPropertyOp16
 70
     0
102
RTVSPropertyOp17
 70
     0
102
RTVSPropertyOp18
 70
     0
102
RTVSPropertyOp19
 70
     0
102
RTVSPropertyOp20
 70
     0
102
RTVSPropertyOp21
 70
     0
102
RTVSPropertyOp22
 70
     0
102
RTVSPropertyOp23
 70
     0
102
RTVSPropertyOp24
 70
     0
102
RTVSPropertyOp25
 70
     0
102
RTVSPropertyOp26
 70
     0
102
RTVSPropertyOp27
 70
     0
102
RTVSPropertyOp28
 70
     0
102
RTVSPropertyOp29
 70
     0
102
RTVSPropertyOp30
 70
     0
102
RTVSPropertyOp31
 70
     0
102
RTVSPropertyOp32
 70
     0
  0
XRECORD
  5
7A7
102
{ACAD_REACTORS
330
7A6
102
}
330
7A6
100
AcDbXrecord
280
     1
102
RTVSPropertyOp0
 70
     1
102
RTVSPropertyOp1
 70
     1
102
RTVSPropertyOp2
 70
     1
102
RTVSPropertyOp3
 70
     1
102
RTVSPropertyOp4
 70
     1
102
RTVSPropertyOp5
 70
     1
102
RTVSPropertyOp6
 70
     1
102
RTVSPropertyOp7
 70
     1
102
RTVSPropertyOp8
 70
     1
102
RTVSPropertyOp9
 70
     1
102
RTVSPropertyOp10
 70
     1
102
RTVSPropertyOp11
 70
     1
102
RTVSPropertyOp12
 70
     1
102
RTVSPropertyOp13
 70
     1
102
RTVSPropertyOp14
 70
     1
102
RTVSPropertyOp15
 70
     1
102
RTVSPropertyOp16
 70
     1
102
RTVSPropertyOp17
 70
     1
102
RTVSPropertyOp18
 70
     1
102
RTVSPropertyOp19
 70
     1
102
RTVSPropertyOp20
 70
     1
102
RTVSPropertyOp21
 70
     1
102
RTVSPropertyOp22
 70
     1
102
RTVSPropertyOp23
 70
     1
102
RTVSPropertyOp24
 70
     1
102
RTVSPropertyOp25
 70
     1
102
RTVSPropertyOp26
 70
     1
102
RTVSPropertyOp27
 70
     1
102
RTVSPropertyOp28
 70
     1
102
RTVSPropertyOp29
 70
     1
102
RTVSPropertyOp30
 70
     1
102
RTVSPropertyOp31
 70
     1
102
RTVSPropertyOp32
 70
     1
  0
XRECORD
  5
7BD
102
{ACAD_REACTORS
330
7BC
102
}
330
7BC
100
AcDbXrecord
280
     1
102
RTVSPropertyOp0
 70
     1
102
RTVSPropertyOp1
 70
     1
102
RTVSPropertyOp2
 70
     1
102
RTVSPropertyOp3
 70
     1
102
RTVSPropertyOp4
 70
     1
102
RTVSPropertyOp5
 70
     1
102
RTVSPropertyOp6
 70
     1
102
RTVSPropertyOp7
 70
     1
102
RTVSPropertyOp8
 70
     1
102
RTVSPropertyOp9
 70
     1
102
RTVSPropertyOp10
 70
     1
102
RTVSPropertyOp11
 70
     1
102
RTVSPropertyOp12
 70
     1
102
RTVSPropertyOp13
 70
     1
102
RTVSPropertyOp14
 70
     1
102
RTVSPropertyOp15
 70
     1
102
RTVSPropertyOp16
 70
     1
102
RTVSPropertyOp17
 70
     1
102
RTVSPropertyOp18
 70
     1
102
RTVSPropertyOp19
 70
     1
102
RTVSPropertyOp20
 70
     1
102
RTVSPropertyOp21
 70
     1
102
RTVSPropertyOp22
 70
     1
102
RTVSPropertyOp23
 70
     1
102
RTVSPropertyOp24
 70
     1
102
RTVSPropertyOp25
 70
     1
102
RTVSPropertyOp26
 70
     1
102
RTVSPropertyOp27
 70
     1
102
RTVSPropertyOp28
 70
     1
102
RTVSPropertyOp29
 70
     1
102
RTVSPropertyOp30
 70
     1
102
RTVSPropertyOp31
 70
     1
102
RTVSPropertyOp32
 70
     1
  0
XRECORD
  5
7BB
102
{ACAD_REACTORS
330
7BA
102
}
330
7BA
100
AcDbXrecord
280
     1
102
RTVSPropertyOp0
 70
     1
102
RTVSPropertyOp1
 70
     1
102
RTVSPropertyOp2
 70
     1
102
RTVSPropertyOp3
 70
     1
102
RTVSPropertyOp4
 70
     1
102
RTVSPropertyOp5
 70
     1
102
RTVSPropertyOp6
 70
     1
102
RTVSPropertyOp7
 70
     1
102
RTVSPropertyOp8
 70
     1
102
RTVSPropertyOp9
 70
     1
102
RTVSPropertyOp10
 70
     1
102
RTVSPropertyOp11
 70
     1
102
RTVSPropertyOp12
 70
     1
102
RTVSPropertyOp13
 70
     1
102
RTVSPropertyOp14
 70
     1
102
RTVSPropertyOp15
 70
     1
102
RTVSPropertyOp16
 70
     1
102
RTVSPropertyOp17
 70
     1
102
RTVSPropertyOp18
 70
     1
102
RTVSPropertyOp19
 70
     1
102
RTVSPropertyOp20
 70
     1
102
RTVSPropertyOp21
 70
     1
102
RTVSPropertyOp22
 70
     1
102
RTVSPropertyOp23
 70
     1
102
RTVSPropertyOp24
 70
     1
102
RTVSPropertyOp25
 70
     1
102
RTVSPropertyOp26
 70
     1
102
RTVSPropertyOp27
 70
     1
102
RTVSPropertyOp28
 70
     1
102
RTVSPropertyOp29
 70
     1
102
RTVSPropertyOp30
 70
     1
102
RTVSPropertyOp31
 70
     1
102
RTVSPropertyOp32
 70
     1
  0
XRECORD
  5
7B5
102
{ACAD_REACTORS
330
7B4
102
}
330
7B4
100
AcDbXrecord
280
     1
102
RTVSPropertyOp0
 70
     1
102
RTVSPropertyOp1
 70
     1
102
RTVSPropertyOp2
 70
     1
102
RTVSPropertyOp3
 70
     1
102
RTVSPropertyOp4
 70
     1
102
RTVSPropertyOp5
 70
     1
102
RTVSPropertyOp6
 70
     1
102
RTVSPropertyOp7
 70
     1
102
RTVSPropertyOp8
 70
     1
102
RTVSPropertyOp9
 70
     1
102
RTVSPropertyOp10
 70
     1
102
RTVSPropertyOp11
 70
     1
102
RTVSPropertyOp12
 70
     1
102
RTVSPropertyOp13
 70
     1
102
RTVSPropertyOp14
 70
     1
102
RTVSPropertyOp15
 70
     1
102
RTVSPropertyOp16
 70
     1
102
RTVSPropertyOp17
 70
     1
102
RTVSPropertyOp18
 70
     1
102
RTVSPropertyOp19
 70
     1
102
RTVSPropertyOp20
 70
     1
102
RTVSPropertyOp21
 70
     1
102
RTVSPropertyOp22
 70
     1
102
RTVSPropertyOp23
 70
     1
102
RTVSPropertyOp24
 70
     1
102
RTVSPropertyOp25
 70
     1
102
RTVSPropertyOp26
 70
     1
102
RTVSPropertyOp27
 70
     1
102
RTVSPropertyOp28
 70
     1
102
RTVSPropertyOp29
 70
     1
102
RTVSPropertyOp30
 70
     1
102
RTVSPropertyOp31
 70
     1
102
RTVSPropertyOp32
 70
     1
  0
XRECORD
  5
7B7
102
{ACAD_REACTORS
330
7B6
102
}
330
7B6
100
AcDbXrecord
280
     1
102
RTVSPropertyOp0
 70
     1
102
RTVSPropertyOp1
 70
     1
102
RTVSPropertyOp2
 70
     1
102
RTVSPropertyOp3
 70
     1
102
RTVSPropertyOp4
 70
     1
102
RTVSPropertyOp5
 70
     1
102
RTVSPropertyOp6
 70
     1
102
RTVSPropertyOp7
 70
     1
102
RTVSPropertyOp8
 70
     1
102
RTVSPropertyOp9
 70
     1
102
RTVSPropertyOp10
 70
     1
102
RTVSPropertyOp11
 70
     1
102
RTVSPropertyOp12
 70
     1
102
RTVSPropertyOp13
 70
     1
102
RTVSPropertyOp14
 70
     1
102
RTVSPropertyOp15
 70
     1
102
RTVSPropertyOp16
 70
     1
102
RTVSPropertyOp17
 70
     1
102
RTVSPropertyOp18
 70
     1
102
RTVSPropertyOp19
 70
     1
102
RTVSPropertyOp20
 70
     1
102
RTVSPropertyOp21
 70
     1
102
RTVSPropertyOp22
 70
     1
102
RTVSPropertyOp23
 70
     1
102
RTVSPropertyOp24
 70
     1
102
RTVSPropertyOp25
 70
     1
102
RTVSPropertyOp26
 70
     1
102
RTVSPropertyOp27
 70
     1
102
RTVSPropertyOp28
 70
     1
102
RTVSPropertyOp29
 70
     1
102
RTVSPropertyOp30
 70
     1
102
RTVSPropertyOp31
 70
     1
102
RTVSPropertyOp32
 70
     1
  0
XRECORD
  5
7AD
102
{ACAD_REACTORS
330
7AC
102
}
330
7AC
100
AcDbXrecord
280
     1
102
RTVSPropertyOp0
 70
     1
102
RTVSPropertyOp1
 70
     1
102
RTVSPropertyOp2
 70
     1
102
RTVSPropertyOp3
 70
     1
102
RTVSPropertyOp4
 70
     1
102
RTVSPropertyOp5
 70
     1
102
RTVSPropertyOp6
 70
     1
102
RTVSPropertyOp7
 70
     1
102
RTVSPropertyOp8
 70
     1
102
RTVSPropertyOp9
 70
     1
102
RTVSPropertyOp10
 70
     1
102
RTVSPropertyOp11
 70
     1
102
RTVSPropertyOp12
 70
     1
102
RTVSPropertyOp13
 70
     1
102
RTVSPropertyOp14
 70
     1
102
RTVSPropertyOp15
 70
     1
102
RTVSPropertyOp16
 70
     1
102
RTVSPropertyOp17
 70
     1
102
RTVSPropertyOp18
 70
     1
102
RTVSPropertyOp19
 70
     1
102
RTVSPropertyOp20
 70
     1
102
RTVSPropertyOp21
 70
     1
102
RTVSPropertyOp22
 70
     1
102
RTVSPropertyOp23
 70
     1
102
RTVSPropertyOp24
 70
     1
102
RTVSPropertyOp25
 70
     1
102
RTVSPropertyOp26
 70
     1
102
RTVSPropertyOp27
 70
     1
102
RTVSPropertyOp28
 70
     1
102
RTVSPropertyOp29
 70
     1
102
RTVSPropertyOp30
 70
     1
102
RTVSPropertyOp31
 70
     1
102
RTVSPropertyOp32
 70
     1
  0
XRECORD
  5
7A1
102
{ACAD_REACTORS
330
7A0
102
}
330
7A0
100
AcDbXrecord
280
     1
102
RTVSPropertyOp0
 70
     1
102
RTVSPropertyOp1
 70
     1
102
RTVSPropertyOp2
 70
     1
102
RTVSPropertyOp3
 70
     1
102
RTVSPropertyOp4
 70
     1
102
RTVSPropertyOp5
 70
     1
102
RTVSPropertyOp6
 70
     1
102
RTVSPropertyOp7
 70
     1
102
RTVSPropertyOp8
 70
     1
102
RTVSPropertyOp9
 70
     1
102
RTVSPropertyOp10
 70
     1
102
RTVSPropertyOp11
 70
     1
102
RTVSPropertyOp12
 70
     1
102
RTVSPropertyOp13
 70
     1
102
RTVSPropertyOp14
 70
     1
102
RTVSPropertyOp15
 70
     1
102
RTVSPropertyOp16
 70
     1
102
RTVSPropertyOp17
 70
     1
102
RTVSPropertyOp18
 70
     1
102
RTVSPropertyOp19
 70
     1
102
RTVSPropertyOp20
 70
     1
102
RTVSPropertyOp21
 70
     1
102
RTVSPropertyOp22
 70
     1
102
RTVSPropertyOp23
 70
     1
102
RTVSPropertyOp24
 70
     1
102
RTVSPropertyOp25
 70
     1
102
RTVSPropertyOp26
 70
     1
102
RTVSPropertyOp27
 70
     1
102
RTVSPropertyOp28
 70
     1
102
RTVSPropertyOp29
 70
     1
102
RTVSPropertyOp30
 70
     1
102
RTVSPropertyOp31
 70
     1
102
RTVSPropertyOp32
 70
     1
  0
XRECORD
  5
7B9
102
{ACAD_REACTORS
330
7B8
102
}
330
7B8
100
AcDbXrecord
280
     1
102
RTVSPropertyOp0
 70
     1
102
RTVSPropertyOp1
 70
     1
102
RTVSPropertyOp2
 70
     1
102
RTVSPropertyOp3
 70
     1
102
RTVSPropertyOp4
 70
     1
102
RTVSPropertyOp5
 70
     1
102
RTVSPropertyOp6
 70
     1
102
RTVSPropertyOp7
 70
     1
102
RTVSPropertyOp8
 70
     1
102
RTVSPropertyOp9
 70
     1
102
RTVSPropertyOp10
 70
     1
102
RTVSPropertyOp11
 70
     1
102
RTVSPropertyOp12
 70
     1
102
RTVSPropertyOp13
 70
     1
102
RTVSPropertyOp14
 70
     1
102
RTVSPropertyOp15
 70
     1
102
RTVSPropertyOp16
 70
     1
102
RTVSPropertyOp17
 70
     1
102
RTVSPropertyOp18
 70
     1
102
RTVSPropertyOp19
 70
     1
102
RTVSPropertyOp20
 70
     1
102
RTVSPropertyOp21
 70
     1
102
RTVSPropertyOp22
 70
     1
102
RTVSPropertyOp23
 70
     1
102
RTVSPropertyOp24
 70
     1
102
RTVSPropertyOp25
 70
     1
102
RTVSPropertyOp26
 70
     1
102
RTVSPropertyOp27
 70
     1
102
RTVSPropertyOp28
 70
     1
102
RTVSPropertyOp29
 70
     1
102
RTVSPropertyOp30
 70
     1
102
RTVSPropertyOp31
 70
     1
102
RTVSPropertyOp32
 70
     1
  0
ENDSEC
  0
EOF
