  0
SECTION
  2
HEADER
  9
$ACADVER
  1
AC1015
  9
$ACADMAINTVER
 70
    20
  9
$DWGCODEPAGE
  3
ANSI_932
  9
$INSBASE
 10
0.0
 20
0.0
 30
0.0
  9
$EXTMIN
 10
59.918711
 20
25.571442
 30
0.0
  9
$EXTMAX
 10
475.5020443333337
 20
299.571442
 30
0.0
  9
$LIMMIN
 10
59.91771299999999
 20
25.570442
  9
$LIMMAX
 10
464.94558
 20
299.627801
  9
$ORTHOMODE
 70
     1
  9
$REGENMODE
 70
     1
  9
$FILLMODE
 70
     1
  9
$QTEXTMODE
 70
     0
  9
$MIRRTEXT
 70
     0
  9
$LTSCALE
 40
6.750430999999997
  9
$ATTMODE
 70
     1
  9
$TEXTSIZE
 40
3.2
  9
$TRACEWID
 40
0.05
  9
$TEXTSTYLE
  7
高3.2
  9
$CLAYER
  8
0
  9
$CELTYPE
  6
ByLayer
  9
$CECOLOR
 62
   256
  9
$CELTSCALE
 40
1.0
  9
$DISPSILH
 70
     0
  9
$DIMSCALE
 40
1.0
  9
$DIMASZ
 40
2.5
  9
$DIMEXO
 40
0.25
  9
$DIMDLI
 40
0.2
  9
$DIMRND
 40
0.0
  9
$DIMDLE
 40
0.0
  9
$DIMEXE
 40
1.25
  9
$DIMTP
 40
0.0
  9
$DIMTM
 40
0.0
  9
$DIMTXT
 40
3.0
  9
$DIMCEN
 40
0.0
  9
$DIMTSZ
 40
0.0
  9
$DIMTOL
 70
     0
  9
$DIMLIM
 70
     0
  9
$DIMTIH
 70
     0
  9
$DIMTOH
 70
     0
  9
$DIMSE1
 70
     0
  9
$DIMSE2
 70
     0
  9
$DIMTAD
 70
     3
  9
$DIMZIN
 70
     8
  9
$DIMBLK
  1
Open30
  9
$DIMASO
 70
     1
  9
$DIMSHO
 70
     1
  9
$DIMPOST
  1

  9
$DIMAPOST
  1

  9
$DIMALT
 70
     0
  9
$DIMALTD
 70
     3
  9
$DIMALTF
 40
0.03937007874016
  9
$DIMLFAC
 40
1.0
  9
$DIMTOFL
 70
     1
  9
$DIMTVP
 40
0.0
  9
$DIMTIX
 70
     0
  9
$DIMSOXD
 70
     0
  9
$DIMSAH
 70
     0
  9
$DIMBLK1
  1

  9
$DIMBLK2
  1

  9
$DIMSTYLE
  2
FREE
  9
$DIMCLRD
 70
     0
  9
$DIMCLRE
 70
     0
  9
$DIMCLRT
 70
     4
  9
$DIMTFAC
 40
1.0
  9
$DIMGAP
 40
0.625
  9
$DIMJUST
 70
     0
  9
$DIMSD1
 70
     0
  9
$DIMSD2
 70
     0
  9
$DIMTOLJ
 70
     0
  9
$DIMTZIN
 70
     8
  9
$DIMALTZ
 70
     0
  9
$DIMALTTZ
 70
     0
  9
$DIMUPT
 70
     1
  9
$DIMDEC
 70
     2
  9
$DIMTDEC
 70
     2
  9
$DIMALTU
 70
     2
  9
$DIMALTTD
 70
     3
  9
$DIMTXSTY
  7
STANDARD
  9
$DIMAUNIT
 70
     0
  9
$DIMADEC
 70
     1
  9
$DIMALTRND
 40
0.0
  9
$DIMAZIN
 70
     2
  9
$DIMDSEP
 70
    46
  9
$DIMATFIT
 70
     0
  9
$DIMFRAC
 70
     0
  9
$DIMLDRBLK
  1
Open30
  9
$DIMLUNIT
 70
     2
  9
$DIMLWD
 70
    -2
  9
$DIMLWE
 70
    -2
  9
$DIMTMOVE
 70
     0
  9
$LUNITS
 70
     2
  9
$LUPREC
 70
     4
  9
$SKETCHINC
 40
0.1
  9
$FILLETRAD
 40
0.0
  9
$AUNITS
 70
     0
  9
$AUPREC
 70
     0
  9
$MENU
  1
.
  9
$ELEVATION
 40
0.0
  9
$PELEVATION
 40
0.0
  9
$THICKNESS
 40
0.0
  9
$LIMCHECK
 70
     0
  9
$CHAMFERA
 40
0.0
  9
$CHAMFERB
 40
0.0
  9
$CHAMFERC
 40
0.0
  9
$CHAMFERD
 40
0.0
  9
$SKPOLY
 70
     0
  9
$TDCREATE
 40
2455849.686924190
  9
$TDUCREATE
 40
2455849.311924190
  9
$TDUPDATE
 40
2459720.627224456
  9
$TDUUPDATE
 40
2459720.252224456
  9
$TDINDWG
 40
0.0614993750
  9
$TDUSRTIMER
 40
0.0614977315
  9
$USRTIMER
 70
     1
  9
$ANGBASE
 50
0.0
  9
$ANGDIR
 70
     0
  9
$PDMODE
 70
     0
  9
$PDSIZE
 40
0.0
  9
$PLINEWID
 40
0.0
  9
$SPLFRAME
 70
     0
  9
$SPLINETYPE
 70
     6
  9
$SPLINESEGS
 70
     8
  9
$HANDSEED
  5
1078
  9
$SURFTAB1
 70
     6
  9
$SURFTAB2
 70
     6
  9
$SURFTYPE
 70
     6
  9
$SURFU
 70
     6
  9
$SURFV
 70
     6
  9
$UCSBASE
  2

  9
$UCSNAME
  2

  9
$UCSORG
 10
0.0
 20
0.0
 30
0.0
  9
$UCSXDIR
 10
1.0
 20
0.0
 30
0.0
  9
$UCSYDIR
 10
0.0
 20
1.0
 30
0.0
  9
$UCSORTHOREF
  2

  9
$UCSORTHOVIEW
 70
     0
  9
$UCSORGTOP
 10
0.0
 20
0.0
 30
0.0
  9
$UCSORGBOTTOM
 10
0.0
 20
0.0
 30
0.0
  9
$UCSORGLEFT
 10
0.0
 20
0.0
 30
0.0
  9
$UCSORGRIGHT
 10
0.0
 20
0.0
 30
0.0
  9
$UCSORGFRONT
 10
0.0
 20
0.0
 30
0.0
  9
$UCSORGBACK
 10
0.0
 20
0.0
 30
0.0
  9
$PUCSBASE
  2

  9
$PUCSNAME
  2

  9
$PUCSORG
 10
0.0
 20
0.0
 30
0.0
  9
$PUCSXDIR
 10
1.0
 20
0.0
 30
0.0
  9
$PUCSYDIR
 10
0.0
 20
1.0
 30
0.0
  9
$PUCSORTHOREF
  2

  9
$PUCSORTHOVIEW
 70
     0
  9
$PUCSORGTOP
 10
0.0
 20
0.0
 30
0.0
  9
$PUCSORGBOTTOM
 10
0.0
 20
0.0
 30
0.0
  9
$PUCSORGLEFT
 10
0.0
 20
0.0
 30
0.0
  9
$PUCSORGRIGHT
 10
0.0
 20
0.0
 30
0.0
  9
$PUCSORGFRONT
 10
0.0
 20
0.0
 30
0.0
  9
$PUCSORGBACK
 10
0.0
 20
0.0
 30
0.0
  9
$USERI1
 70
     0
  9
$USERI2
 70
     0
  9
$USERI3
 70
     0
  9
$USERI4
 70
     0
  9
$USERI5
 70
     0
  9
$USERR1
 40
0.0
  9
$USERR2
 40
0.0
  9
$USERR3
 40
0.0
  9
$USERR4
 40
0.0
  9
$USERR5
 40
0.0
  9
$WORLDVIEW
 70
     1
  9
$SHADEDGE
 70
     3
  9
$SHADEDIF
 70
    70
  9
$TILEMODE
 70
     1
  9
$MAXACTVP
 70
    64
  9
$PINSBASE
 10
0.0
 20
0.0
 30
0.0
  9
$PLIMCHECK
 70
     0
  9
$PEXTMIN
 10
1.000000000000000E+20
 20
1.000000000000000E+20
 30
1.000000000000000E+20
  9
$PEXTMAX
 10
-1.000000000000000E+20
 20
-1.000000000000000E+20
 30
-1.000000000000000E+20
  9
$PLIMMIN
 10
0.0
 20
0.0
  9
$PLIMMAX
 10
12.0
 20
9.0
  9
$UNITMODE
 70
     0
  9
$VISRETAIN
 70
     1
  9
$PLINEGEN
 70
     0
  9
$PSLTSCALE
 70
     1
  9
$TREEDEPTH
 70
  3020
  9
$CMLSTYLE
  2
Standard
  9
$CMLJUST
 70
     0
  9
$CMLSCALE
 40
1.0
  9
$PROXYGRAPHICS
 70
     1
  9
$MEASUREMENT
 70
     0
  9
$CELWEIGHT
370
    -1
  9
$ENDCAPS
280
     0
  9
$JOINSTYLE
280
     0
  9
$LWDISPLAY
290
     0
  9
$INSUNITS
 70
     0
  9
$HYPERLINKBASE
  1

  9
$STYLESHEET
  1
N-PLOT.CTB
  9
$XEDIT
290
     1
  9
$CEPSNTYPE
380
     0
  9
$PSTYLEMODE
290
     1
  9
$FINGERPRINTGUID
  2
{30B2356C-13B5-4EC3-B468-B453E10785F8}
  9
$VERSIONGUID
  2
{F9D10D15-0599-4C55-9788-BECB6A7E159F}
  9
$EXTNAMES
290
     1
  9
$PSVPSCALE
 40
0.0
  9
$OLESTARTUP
290
     0
  0
ENDSEC
  0
SECTION
  2
CLASSES
  0
CLASS
  1
ACDBDICTIONARYWDFLT
  2
AcDbDictionaryWithDefault
  3
ObjectDBX Classes
 90
        0
280
     0
281
     0
  0
CLASS
  1
MATERIAL
  2
AcDbMaterial
  3
ObjectDBX Classes
 90
     1153
280
     0
281
     0
  0
CLASS
  1
VISUALSTYLE
  2
AcDbVisualStyle
  3
ObjectDBX Classes
 90
     4095
280
     0
281
     0
  0
CLASS
  1
TABLESTYLE
  2
AcDbTableStyle
  3
ObjectDBX Classes
 90
     4095
280
     0
281
     0
  0
CLASS
  1
DICTIONARYVAR
  2
AcDbDictionaryVar
  3
ObjectDBX Classes
 90
        0
280
     0
281
     0
  0
CLASS
  1
ACDBPLACEHOLDER
  2
AcDbPlaceHolder
  3
ObjectDBX Classes
 90
        0
280
     0
281
     0
  0
CLASS
  1
LAYOUT
  2
AcDbLayout
  3
ObjectDBX Classes
 90
        0
280
     0
281
     0
  0
CLASS
  1
SCALE
  2
AcDbScale
  3
ObjectDBX Classes
 90
     1153
280
     0
281
     0
  0
CLASS
  1
MLEADERSTYLE
  2
AcDbMLeaderStyle
  3
ACDB_MLEADERSTYLE_CLASS
 90
     4095
280
     0
281
     0
  0
CLASS
  1
SORTENTSTABLE
  2
AcDbSortentsTable
  3
ObjectDBX Classes
 90
        0
280
     0
281
     0
  0
CLASS
  1
CELLSTYLEMAP
  2
AcDbCellStyleMap
  3
ObjectDBX Classes
 90
     1152
280
     0
281
     0
  0
CLASS
  1
AEC_REFEDIT_STATUS_TRACKER
  2
AecDbRefEditStatusTracker
  3
AecArchBase60|Product Desc: Autodesk Architectural Desktop 2007 |Company: Autodesk,Inc. |WEB Address: www.autodesk.com
 90
      129
280
     0
281
     0
  0
CLASS
  1
NPOCOLLECTION
  2
AcDbImpNonPersistentObjectsCollection
  3
ObjectDBX Classes
 90
     1153
280
     0
281
     0
  0
ENDSEC
  0
SECTION
  2
TABLES
  0
TABLE
  2
VPORT
  5
8
330
0
100
AcDbSymbolTable
 70
     1
  0
VPORT
  5
56
330
8
100
AcDbSymbolTableRecord
100
AcDbViewportTableRecord
  2
*Active
 70
     0
 10
0.0
 20
0.0
 11
1.0
 21
1.0
 12
286.0930577519168
 22
162.0100010773321
 13
0.0
 23
0.0
 14
1.0
 24
1.0
 15
0.0
 25
0.0
 16
0.0
 26
0.0
 36
1.0
 17
0.0
 27
0.0
 37
0.0
 40
751.0638432582545
 41
1.012747875354107
 42
50.0
 43
0.0
 44
0.0
 50
0.0
 51
0.0
 71
     0
 72
   100
 73
     1
 74
     1
 75
     0
 76
     0
 77
     0
 78
     0
281
     0
 65
     1
110
0.0
120
0.0
130
0.0
111
1.0
121
0.0
131
0.0
112
0.0
122
1.0
132
0.0
 79
     0
146
0.0
  0
ENDTAB
  0
TABLE
  2
LTYPE
  5
5
330
0
100
AcDbSymbolTable
 70
     4
  0
LTYPE
  5
28
330
5
100
AcDbSymbolTableRecord
100
AcDbLinetypeTableRecord
  2
ByBlock
 70
     0
  3

 72
    65
 73
     0
 40
0.0
  0
LTYPE
  5
29
330
5
100
AcDbSymbolTableRecord
100
AcDbLinetypeTableRecord
  2
ByLayer
 70
     0
  3

 72
    65
 73
     0
 40
0.0
  0
LTYPE
  5
2A
330
5
100
AcDbSymbolTableRecord
100
AcDbLinetypeTableRecord
  2
CONTINUOUS
 70
     0
  3
Solid-line
 72
    65
 73
     0
 40
0.0
  0
LTYPE
  5
43
330
5
100
AcDbSymbolTableRecord
100
AcDbLinetypeTableRecord
  2
DASHED
 70
     0
  3
DASHED
 72
    65
 73
     2
 40
0.75
 49
0.5
 74
     0
 49
-0.25
 74
     0
  0
LTYPE
  5
4C
330
5
100
AcDbSymbolTableRecord
100
AcDbLinetypeTableRecord
  2
HIDDEN
 70
     0
  3
HIDDEN
 72
    65
 73
     2
 40
0.375
 49
0.25
 74
     0
 49
-0.125
 74
     0
  0
ENDTAB
  0
TABLE
  2
LAYER
  5
2
102
{ACAD_XDICTIONARY
360
596
102
}
330
0
100
AcDbSymbolTable
 70
     2
  0
LAYER
  5
25
102
{ACAD_XDICTIONARY
360
764
102
}
330
2
100
AcDbSymbolTableRecord
100
AcDbLayerTableRecord
  2
0
 70
     0
 62
     7
  6
CONTINUOUS
370
    -3
390
F
  0
LAYER
  5
580
330
2
100
AcDbSymbolTableRecord
100
AcDbLayerTableRecord
  2
Defpoints
 70
     0
 62
     7
  6
CONTINUOUS
290
     0
370
    -3
390
F
  0
ENDTAB
  0
TABLE
  2
STYLE
  5
3
330
0
100
AcDbSymbolTable
 70
     6
  0
STYLE
  5
26
330
3
100
AcDbSymbolTableRecord
100
AcDbTextStyleTableRecord
  2
STANDARD
 70
     0
 40
0.0
 41
1.0
 50
0.0
 71
     0
 42
0.2
  3
TXT
  4
BIGFONT
  0
STYLE
  5
581
330
3
100
AcDbSymbolTableRecord
100
AcDbTextStyleTableRecord
  2
高3.2
 70
     0
 40
3.2
 41
1.0
 50
0.0
 71
     0
 42
3.2
  3
txt.shx
  4
bigfont.shx
  0
STYLE
  5
582
330
3
100
AcDbSymbolTableRecord
100
AcDbTextStyleTableRecord
  2
高6.3
 70
     0
 40
6.299999999999998
 41
1.0
 50
0.0
 71
     0
 42
6.299999999999998
  3
txt.shx
  4
bigfont.shx
  0
STYLE
  5
584
330
3
100
AcDbSymbolTableRecord
100
AcDbTextStyleTableRecord
  2
高4.5
 70
     0
 40
4.5
 41
1.0
 50
0.0
 71
     0
 42
6.299999999999998
  3
txt.shx
  4
bigfont.shx
  0
STYLE
  5
585
330
3
100
AcDbSymbolTableRecord
100
AcDbTextStyleTableRecord
  2
高2
 70
     0
 40
2.0
 41
1.0
 50
0.0
 71
     0
 42
2.0
  3
txt.shx
  4
bigfont.shx
  0
STYLE
  5
9AD
330
3
100
AcDbSymbolTableRecord
100
AcDbTextStyleTableRecord
  2
高2.5
 70
     0
 40
2.5
 41
1.0
 50
0.0
 71
     0
 42
0.2
  3
txt.shx
  4
bigfont.shx
  0
ENDTAB
  0
TABLE
  2
VIEW
  5
6
330
0
100
AcDbSymbolTable
 70
     0
  0
ENDTAB
  0
TABLE
  2
UCS
  5
7
330
0
100
AcDbSymbolTable
 70
     0
  0
ENDTAB
  0
TABLE
  2
APPID
  5
9
330
0
100
AcDbSymbolTable
 70
    10
  0
APPID
  5
27
330
9
100
AcDbSymbolTableRecord
100
AcDbRegAppTableRecord
  2
ACAD
 70
     0
  0
APPID
  5
590
330
9
100
AcDbSymbolTableRecord
100
AcDbRegAppTableRecord
  2
ACAD_DSTYLE_DIMJOGGED_JOGANGLE_SYMBOL
 70
     0
  0
APPID
  5
591
330
9
100
AcDbSymbolTableRecord
100
AcDbRegAppTableRecord
  2
ACAD_DSTYLE_DIMJAG
 70
     0
  0
APPID
  5
592
330
9
100
AcDbSymbolTableRecord
100
AcDbRegAppTableRecord
  2
ACAD_DSTYLE_DIMBREAK
 70
     0
  0
APPID
  5
593
330
9
100
AcDbSymbolTableRecord
100
AcDbRegAppTableRecord
  2
ACAD_DSTYLE_DIMTALN
 70
     0
  0
APPID
  5
6FD
330
9
100
AcDbSymbolTableRecord
100
AcDbRegAppTableRecord
  2
ACAD_EXEMPT_FROM_CAD_STANDARDS
 70
     0
  0
APPID
  5
7AA
330
9
100
AcDbSymbolTableRecord
100
AcDbRegAppTableRecord
  2
ACAD_MLEADERVER
 70
     0
  0
APPID
  5
7AB
330
9
100
AcDbSymbolTableRecord
100
AcDbRegAppTableRecord
  2
ACAD_DSTYLE_DIMARC_LENGTH_SYMBOL
 70
     0
  0
APPID
  5
7AC
330
9
100
AcDbSymbolTableRecord
100
AcDbRegAppTableRecord
  2
ACAD_DSTYLE_DIMEXT_LENGTH
 70
     0
  0
APPID
  5
8B7
330
9
100
AcDbSymbolTableRecord
100
AcDbRegAppTableRecord
  2
ACAD_PSEXT
 70
     0
  0
ENDTAB
  0
TABLE
  2
DIMSTYLE
  5
A
330
0
100
AcDbSymbolTable
 70
    11
100
AcDbDimStyleTable
 71
     1
340
58F
  0
DIMSTYLE
105
4B9
330
A
100
AcDbSymbolTableRecord
100
AcDbDimStyleTableRecord
  2
Standard
 70
     0
340
26
  0
DIMSTYLE
105
58F
330
A
100
AcDbSymbolTableRecord
100
AcDbDimStyleTableRecord
  2
FREE
 70
     0
 41
2.5
 42
0.25
 43
0.2
 44
1.25
 73
     0
 74
     0
 77
     3
 78
     8
 79
     2
140
3.0
141
0.0
143
0.03937007874016
147
0.625
171
     3
172
     1
178
     4
179
     1
271
     2
272
     2
274
     3
283
     0
284
     8
288
     1
289
     0
340
26
341
4F0
342
4F0
1001
ACAD_DSTYLE_DIMBREAK
1070
   391
1040
3.75
1001
ACAD_DSTYLE_DIMJAG
1070
   388
1040
1.5
1001
ACAD_DSTYLE_DIMTALN
1070
   392
1070
     0
1001
ACAD_DSTYLE_DIMARC_LENGTH_SYMBOL
1070
   379
1070
     2
1001
ACAD_DSTYLE_DIMEXT_LENGTH
1070
   378
1040
1.25
1001
ACAD_DSTYLE_DIMJOGGED_JOGANGLE_SYMBOL
1070
   384
1040
1.570796326794896
  0
DIMSTYLE
105
9AE
330
A
100
AcDbSymbolTableRecord
100
AcDbDimStyleTableRecord
  2
1：1
 70
     0
 41
2.5
 42
0.25
 43
0.2
 44
1.25
 73
     0
 74
     0
 77
     3
 78
     8
 79
     2
140
3.0
141
0.0
143
0.03937007874016
147
0.625
171
     3
172
     1
178
     4
179
     1
271
     2
272
     2
274
     3
283
     0
284
     8
288
     1
289
     0
340
26
341
4F0
342
4F0
1001
ACAD_DSTYLE_DIMARC_LENGTH_SYMBOL
1070
   379
1070
     2
1001
ACAD_DSTYLE_DIMEXT_LENGTH
1070
   378
1040
1.25
1001
ACAD_DSTYLE_DIMJOGGED_JOGANGLE_SYMBOL
1070
   384
1040
1.570796326794896
  0
DIMSTYLE
105
9AF
330
A
100
AcDbSymbolTableRecord
100
AcDbDimStyleTableRecord
  2
2：1
 70
     0
 41
2.5
 42
0.25
 43
0.2
 44
1.25
 73
     0
 74
     0
 77
     3
 78
     8
 79
     2
140
3.0
141
0.0
143
0.03937007874016
144
0.5
147
0.625
171
     3
172
     1
178
     4
179
     1
271
     2
272
     2
274
     3
283
     0
284
     8
288
     1
289
     0
340
26
341
4F0
342
4F0
1001
ACAD_DSTYLE_DIMARC_LENGTH_SYMBOL
1070
   379
1070
     2
1001
ACAD_DSTYLE_DIMEXT_LENGTH
1070
   378
1040
1.25
1001
ACAD_DSTYLE_DIMJOGGED_JOGANGLE_SYMBOL
1070
   384
1040
1.570796326794896
  0
DIMSTYLE
105
9B0
330
A
100
AcDbSymbolTableRecord
100
AcDbDimStyleTableRecord
  2
5：1
 70
     0
 41
2.5
 42
0.25
 43
0.2
 44
1.25
 73
     0
 74
     0
 77
     3
 78
     8
 79
     2
140
3.0
141
0.0
143
0.03937007874016
144
0.2
147
0.625
171
     3
172
     1
178
     4
179
     1
271
     2
272
     2
274
     3
283
     0
284
     8
288
     1
289
     0
340
26
341
4F0
342
4F0
1001
ACAD_DSTYLE_DIMARC_LENGTH_SYMBOL
1070
   379
1070
     2
1001
ACAD_DSTYLE_DIMEXT_LENGTH
1070
   378
1040
1.25
1001
ACAD_DSTYLE_DIMJOGGED_JOGANGLE_SYMBOL
1070
   384
1040
1.570796326794896
  0
DIMSTYLE
105
9B1
330
A
100
AcDbSymbolTableRecord
100
AcDbDimStyleTableRecord
  2
10：1
 70
     0
 41
2.5
 42
0.25
 43
0.2
 44
1.25
 73
     0
 74
     0
 77
     3
 78
     8
 79
     2
140
3.0
141
0.0
143
0.03937007874016
144
0.1
147
0.625
171
     3
172
     1
178
     4
179
     1
271
     2
272
     2
274
     3
283
     0
284
     8
288
     1
289
     0
340
26
341
4F0
342
4F0
1001
ACAD_DSTYLE_DIMARC_LENGTH_SYMBOL
1070
   379
1070
     2
1001
ACAD_DSTYLE_DIMEXT_LENGTH
1070
   378
1040
1.25
1001
ACAD_DSTYLE_DIMJOGGED_JOGANGLE_SYMBOL
1070
   384
1040
1.570796326794896
  0
DIMSTYLE
105
9B2
330
A
100
AcDbSymbolTableRecord
100
AcDbDimStyleTableRecord
  2
1／2
 70
     0
 41
2.5
 42
0.25
 43
0.2
 44
1.25
 73
     0
 74
     0
 77
     3
 78
     8
 79
     2
140
3.0
141
0.0
143
0.03937007874016
144
2.0
147
0.625
171
     3
172
     1
178
     4
179
     1
271
     2
272
     2
274
     3
283
     0
284
     8
288
     1
289
     0
340
26
341
4F0
342
4F0
1001
ACAD_DSTYLE_DIMARC_LENGTH_SYMBOL
1070
   379
1070
     2
1001
ACAD_DSTYLE_DIMEXT_LENGTH
1070
   378
1040
1.25
1001
ACAD_DSTYLE_DIMJOGGED_JOGANGLE_SYMBOL
1070
   384
1040
1.570796326794896
  0
DIMSTYLE
105
9B3
330
A
100
AcDbSymbolTableRecord
100
AcDbDimStyleTableRecord
  2
1／5
 70
     0
 41
2.5
 42
0.25
 43
0.2
 44
1.25
 73
     0
 74
     0
 77
     3
 78
     8
 79
     2
140
3.0
141
0.0
143
0.03937007874016
144
5.0
147
0.625
171
     3
172
     1
178
     4
179
     1
271
     2
272
     2
274
     3
283
     0
284
     8
288
     1
289
     0
340
26
341
4F0
342
4F0
1001
ACAD_DSTYLE_DIMARC_LENGTH_SYMBOL
1070
   379
1070
     2
1001
ACAD_DSTYLE_DIMEXT_LENGTH
1070
   378
1040
1.25
1001
ACAD_DSTYLE_DIMJOGGED_JOGANGLE_SYMBOL
1070
   384
1040
1.570796326794896
  0
DIMSTYLE
105
9B4
330
A
100
AcDbSymbolTableRecord
100
AcDbDimStyleTableRecord
  2
1／10
 70
     0
 41
2.5
 42
0.25
 43
0.2
 44
1.25
 73
     0
 74
     0
 77
     3
 78
     8
 79
     2
140
3.0
141
0.0
143
0.03937007874016
144
10.0
147
0.625
171
     3
172
     1
178
     4
179
     1
271
     2
272
     2
274
     3
283
     0
284
     8
288
     1
289
     0
340
26
341
4F0
342
4F0
1001
ACAD_DSTYLE_DIMARC_LENGTH_SYMBOL
1070
   379
1070
     2
1001
ACAD_DSTYLE_DIMEXT_LENGTH
1070
   378
1040
1.25
1001
ACAD_DSTYLE_DIMJOGGED_JOGANGLE_SYMBOL
1070
   384
1040
1.570796326794896
  0
DIMSTYLE
105
9B5
330
A
100
AcDbSymbolTableRecord
100
AcDbDimStyleTableRecord
  2
1／4
 70
     0
 41
2.5
 42
0.25
 43
0.2
 44
1.25
 73
     0
 74
     0
 77
     3
 78
     8
 79
     2
140
3.0
141
0.0
143
0.03937007874016
144
4.0
147
0.625
171
     3
172
     1
178
     4
179
     1
271
     2
272
     2
274
     3
283
     0
284
     8
288
     1
289
     0
340
26
341
4F0
342
4F0
1001
ACAD_DSTYLE_DIMARC_LENGTH_SYMBOL
1070
   379
1070
     2
1001
ACAD_DSTYLE_DIMEXT_LENGTH
1070
   378
1040
1.25
1001
ACAD_DSTYLE_DIMJOGGED_JOGANGLE_SYMBOL
1070
   384
1040
1.570796326794896
  0
DIMSTYLE
105
9B6
330
A
100
AcDbSymbolTableRecord
100
AcDbDimStyleTableRecord
  2
1／3
 70
     0
 41
2.5
 42
0.25
 43
0.2
 44
1.25
 73
     0
 74
     0
 77
     3
 78
     8
 79
     2
140
3.0
141
0.0
143
0.03937007874016
144
3.0
147
0.625
171
     3
172
     1
178
     4
179
     1
271
     2
272
     2
274
     3
283
     0
284
     8
288
     1
289
     0
340
26
341
4F0
342
4F0
1001
ACAD_DSTYLE_DIMARC_LENGTH_SYMBOL
1070
   379
1070
     2
1001
ACAD_DSTYLE_DIMEXT_LENGTH
1070
   378
1040
1.25
1001
ACAD_DSTYLE_DIMJOGGED_JOGANGLE_SYMBOL
1070
   384
1040
1.570796326794896
  0
ENDTAB
  0
TABLE
  2
BLOCK_RECORD
  5
1
330
0
100
AcDbSymbolTable
 70
    24
  0
BLOCK_RECORD
  5
36
102
{ACAD_XDICTIONARY
360
738
102
}
330
1
100
AcDbSymbolTableRecord
100
AcDbBlockTableRecord
  2
*Model_Space
340
39
  0
BLOCK_RECORD
  5
32
330
1
100
AcDbSymbolTableRecord
100
AcDbBlockTableRecord
  2
*Paper_Space
340
35
  0
BLOCK_RECORD
  5
4F0
330
1
100
AcDbSymbolTableRecord
100
AcDbBlockTableRecord
  2
_Open30
340
0
102
{BLKREFS
331
939
331
946
331
947
331
954
331
955
331
962
331
963
331
970
331
971
331
97E
331
97F
331
98C
331
98D
331
99A
331
99B
331
9A6
331
9A7
331
92A
331
92B
331
938
331
A62
331
A63
331
A6D
331
A6E
331
A78
331
A79
331
A83
331
A84
331
A8E
331
A8F
331
A99
331
A9A
331
AA4
331
AA5
331
AAF
331
AB0
331
ABA
331
ABB
331
AC3
331
AC4
331
F3E
331
F3F
331
F47
331
F48
331
F50
331
F51
102
}
  0
BLOCK_RECORD
  5
6D6
330
1
100
AcDbSymbolTableRecord
100
AcDbBlockTableRecord
  2
*D1
340
0
  0
BLOCK_RECORD
  5
712
330
1
100
AcDbSymbolTableRecord
100
AcDbBlockTableRecord
  2
*D2
340
0
  0
BLOCK_RECORD
  5
71E
330
1
100
AcDbSymbolTableRecord
100
AcDbBlockTableRecord
  2
*D3
340
0
  0
BLOCK_RECORD
  5
923
330
1
100
AcDbSymbolTableRecord
100
AcDbBlockTableRecord
  2
*D4
340
0
  0
BLOCK_RECORD
  5
931
330
1
100
AcDbSymbolTableRecord
100
AcDbBlockTableRecord
  2
*D5
340
0
  0
BLOCK_RECORD
  5
93F
330
1
100
AcDbSymbolTableRecord
100
AcDbBlockTableRecord
  2
*D6
340
0
  0
BLOCK_RECORD
  5
94D
330
1
100
AcDbSymbolTableRecord
100
AcDbBlockTableRecord
  2
*D7
340
0
  0
BLOCK_RECORD
  5
95B
330
1
100
AcDbSymbolTableRecord
100
AcDbBlockTableRecord
  2
*D8
340
0
  0
BLOCK_RECORD
  5
969
330
1
100
AcDbSymbolTableRecord
100
AcDbBlockTableRecord
  2
*D9
340
0
  0
BLOCK_RECORD
  5
977
330
1
100
AcDbSymbolTableRecord
100
AcDbBlockTableRecord
  2
*D10
340
0
  0
BLOCK_RECORD
  5
985
330
1
100
AcDbSymbolTableRecord
100
AcDbBlockTableRecord
  2
*D11
340
0
  0
BLOCK_RECORD
  5
993
330
1
100
AcDbSymbolTableRecord
100
AcDbBlockTableRecord
  2
*D12
340
0
  0
BLOCK_RECORD
  5
9A1
330
1
100
AcDbSymbolTableRecord
100
AcDbBlockTableRecord
  2
*D13
340
0
  0
BLOCK_RECORD
  5
9D3
330
1
100
AcDbSymbolTableRecord
100
AcDbBlockTableRecord
  2
*D14
340
0
  0
BLOCK_RECORD
  5
9E1
330
1
100
AcDbSymbolTableRecord
100
AcDbBlockTableRecord
  2
*D15
340
0
  0
BLOCK_RECORD
  5
9EF
330
1
100
AcDbSymbolTableRecord
100
AcDbBlockTableRecord
  2
*D16
340
0
  0
BLOCK_RECORD
  5
9FD
330
1
100
AcDbSymbolTableRecord
100
AcDbBlockTableRecord
  2
*D17
340
0
  0
BLOCK_RECORD
  5
A0B
330
1
100
AcDbSymbolTableRecord
100
AcDbBlockTableRecord
  2
*D18
340
0
  0
BLOCK_RECORD
  5
A19
330
1
100
AcDbSymbolTableRecord
100
AcDbBlockTableRecord
  2
*D19
340
0
  0
BLOCK_RECORD
  5
A27
330
1
100
AcDbSymbolTableRecord
100
AcDbBlockTableRecord
  2
*D20
340
0
  0
BLOCK_RECORD
  5
A35
330
1
100
AcDbSymbolTableRecord
100
AcDbBlockTableRecord
  2
*D21
340
0
  0
BLOCK_RECORD
  5
A43
330
1
100
AcDbSymbolTableRecord
100
AcDbBlockTableRecord
  2
*D22
340
0
  0
BLOCK_RECORD
  5
A51
330
1
100
AcDbSymbolTableRecord
100
AcDbBlockTableRecord
  2
*D23
340
0
  0
ENDTAB
  0
ENDSEC
  0
SECTION
  2
BLOCKS
  0
BLOCK
  5
37
330
36
100
AcDbEntity
  8
0
100
AcDbBlockBegin
  2
*Model_Space
 70
     0
 10
0.0
 20
0.0
 30
0.0
  3
*Model_Space
  1

  0
ENDBLK
  5
38
330
36
100
AcDbEntity
  8
0
100
AcDbBlockEnd
  0
BLOCK
  5
33
330
32
100
AcDbEntity
 67
     1
  8
0
100
AcDbBlockBegin
  2
*Paper_Space
 70
     0
 10
0.0
 20
0.0
 30
0.0
  3
*Paper_Space
  1

  0
ENDBLK
  5
34
330
32
100
AcDbEntity
 67
     1
  8
0
100
AcDbBlockEnd
  0
BLOCK
  5
4F1
330
4F0
100
AcDbEntity
  8
0
100
AcDbBlockBegin
  2
_Open30
 70
     0
 10
0.0
 20
0.0
 30
0.0
  3
_Open30
  1

  0
LINE
  5
4F2
330
4F0
100
AcDbEntity
  8
0
  6
ByBlock
 62
     0
370
    -2
100
AcDbLine
 10
-1.0
 20
0.267949
 30
0.0
 11
0.0
 21
0.0
 31
0.0
  0
LINE
  5
4F3
330
4F0
100
AcDbEntity
  8
0
  6
ByBlock
 62
     0
370
    -2
100
AcDbLine
 10
0.0
 20
0.0
 30
0.0
 11
-1.0
 21
-0.267949
 31
0.0
  0
LINE
  5
4F4
330
4F0
100
AcDbEntity
  8
0
  6
ByBlock
 62
     0
370
    -2
100
AcDbLine
 10
0.0
 20
0.0
 30
0.0
 11
-1.0
 21
0.0
 31
0.0
  0
ENDBLK
  5
4F5
330
4F0
100
AcDbEntity
  8
0
100
AcDbBlockEnd
  0
BLOCK
  5
6D7
330
6D6
100
AcDbEntity
  8
0
100
AcDbBlockBegin
  2
*D1
 70
     1
 10
0.0
 20
0.0
 30
0.0
  3
*D1
  1

  0
LINE
  5
F44
330
6D6
100
AcDbEntity
  8
0
 62
     0
370
    -2
100
AcDbLine
 10
303.890402
 20
194.4456657090583
 30
0.0
 11
303.890402
 21
167.1763527090583
 31
0.0
  0
LINE
  5
F45
330
6D6
100
AcDbEntity
  8
0
 62
     0
370
    -2
100
AcDbLine
 10
450.5570689999998
 20
178.3787887090583
 30
0.0
 11
450.5570689999998
 21
167.1763527090583
 31
0.0
  0
LINE
  5
F46
330
6D6
100
AcDbEntity
  8
0
 62
     0
370
    -2
100
AcDbLine
 10
306.390402
 20
168.4263527090583
 30
0.0
 11
448.0570689999998
 21
168.4263527090583
 31
0.0
  0
INSERT
  5
F47
330
6D6
100
AcDbEntity
  8
0
 62
     0
370
    -2
100
AcDbBlockReference
  2
_Open30
 10
303.890402
 20
168.4263527090583
 30
0.0
 41
2.5
 42
2.5
 43
2.5
 50
180.0
  0
INSERT
  5
F48
330
6D6
100
AcDbEntity
  8
0
 62
     0
370
    -2
100
AcDbBlockReference
  2
_Open30
 10
450.5570689999998
 20
168.4263527090583
 30
0.0
 41
2.5
 42
2.5
 43
2.5
  0
MTEXT
  5
F49
330
6D6
100
AcDbEntity
  8
0
 62
     4
100
AcDbMText
 10
377.2237354999999
 20
170.5513527090583
 30
0.0
 40
3.0
 41
0.0
 71
     5
 72
     1
  1
480
 73
     1
 44
1.0
1001
ACAD
1000
MTEXTBEGIN
1070
    73
1070
     1
1070
    44
1040
1.0
1070
    74
1070
     0
1000
MTEXTEND
  0
POINT
  5
F4A
330
6D6
100
AcDbEntity
  8
Defpoints
 62
     0
100
AcDbPoint
 10
303.890402
 20
194.6956657090583
 30
0.0
  0
POINT
  5
F4B
330
6D6
100
AcDbEntity
  8
Defpoints
 62
     0
100
AcDbPoint
 10
450.5570689999998
 20
178.6287887090583
 30
0.0
  0
POINT
  5
F4C
330
6D6
100
AcDbEntity
  8
Defpoints
 62
     0
100
AcDbPoint
 10
450.5570689999998
 20
168.4263527090583
 30
0.0
  0
ENDBLK
  5
6D8
330
6D6
100
AcDbEntity
  8
0
100
AcDbBlockEnd
  0
BLOCK
  5
713
330
712
100
AcDbEntity
  8
0
100
AcDbBlockBegin
  2
*D2
 70
     1
 10
0.0
 20
0.0
 30
0.0
  3
*D2
  1

  0
LINE
  5
F4D
330
712
100
AcDbEntity
  8
0
 62
     0
370
    -2
100
AcDbLine
 10
275.802587
 20
171.9621217090583
 30
0.0
 11
295.024008
 21
171.9621217090583
 31
0.0
  0
LINE
  5
F4E
330
712
100
AcDbEntity
  8
0
 62
     0
370
    -2
100
AcDbLine
 10
279.653717
 20
263.6287887090584
 30
0.0
 11
295.024008
 21
263.6287887090584
 31
0.0
  0
LINE
  5
F4F
330
712
100
AcDbEntity
  8
0
 62
     0
370
    -2
100
AcDbLine
 10
293.774008
 20
174.4621217090583
 30
0.0
 11
293.774008
 21
261.1287887090584
 31
0.0
  0
INSERT
  5
F50
330
712
100
AcDbEntity
  8
0
 62
     0
370
    -2
100
AcDbBlockReference
  2
_Open30
 10
293.774008
 20
171.9621217090583
 30
0.0
 41
2.5
 42
2.5
 43
2.5
 50
270.0
  0
INSERT
  5
F51
330
712
100
AcDbEntity
  8
0
 62
     0
370
    -2
100
AcDbBlockReference
  2
_Open30
 10
293.774008
 20
263.6287887090584
 30
0.0
 41
2.5
 42
2.5
 43
2.5
 50
90.0
  0
MTEXT
  5
F52
330
712
100
AcDbEntity
  8
0
 62
     4
100
AcDbMText
 10
291.6490079999999
 20
217.7954552090584
 30
0.0
 40
3.0
 41
0.0
 71
     5
 72
     1
  1
290
 11
0.0000000000000001
 21
1.0
 31
0.0
 73
     1
 44
1.0
1001
ACAD
1000
MTEXTBEGIN
1070
    73
1070
     1
1070
    44
1040
1.0
1070
    74
1070
     0
1000
MTEXTEND
  0
POINT
  5
F53
330
712
100
AcDbEntity
  8
Defpoints
 62
     0
100
AcDbPoint
 10
275.552587
 20
171.9621217090583
 30
0.0
  0
POINT
  5
F54
330
712
100
AcDbEntity
  8
Defpoints
 62
     0
100
AcDbPoint
 10
279.403717
 20
263.6287887090584
 30
0.0
  0
POINT
  5
F55
330
712
100
AcDbEntity
  8
Defpoints
 62
     0
100
AcDbPoint
 10
293.774008
 20
263.6287887090584
 30
0.0
  0
ENDBLK
  5
714
330
712
100
AcDbEntity
  8
0
100
AcDbBlockEnd
  0
BLOCK
  5
71F
330
71E
100
AcDbEntity
  8
0
100
AcDbBlockBegin
  2
*D3
 70
     1
 10
0.0
 20
0.0
 30
0.0
  3
*D3
  1

  0
LINE
  5
F3B
330
71E
100
AcDbEntity
  8
0
 62
     0
370
    -2
100
AcDbLine
 10
213.403717
 20
178.3787887090583
 30
0.0
 11
213.403717
 21
165.8290437090583
 31
0.0
  0
LINE
  5
F3C
330
71E
100
AcDbEntity
  8
0
 62
     0
370
    -2
100
AcDbLine
 10
284.403717
 20
178.3787887090583
 30
0.0
 11
284.403717
 21
165.8290437090583
 31
0.0
  0
LINE
  5
F3D
330
71E
100
AcDbEntity
  8
0
 62
     0
370
    -2
100
AcDbLine
 10
215.903717
 20
167.0790437090583
 30
0.0
 11
281.903717
 21
167.0790437090583
 31
0.0
  0
INSERT
  5
F3E
330
71E
100
AcDbEntity
  8
0
 62
     0
370
    -2
100
AcDbBlockReference
  2
_Open30
 10
213.403717
 20
167.0790437090583
 30
0.0
 41
2.5
 42
2.5
 43
2.5
 50
180.0
  0
INSERT
  5
F3F
330
71E
100
AcDbEntity
  8
0
 62
     0
370
    -2
100
AcDbBlockReference
  2
_Open30
 10
284.403717
 20
167.0790437090583
 30
0.0
 41
2.5
 42
2.5
 43
2.5
  0
MTEXT
  5
F40
330
71E
100
AcDbEntity
  8
0
 62
     4
100
AcDbMText
 10
248.903717
 20
169.2040437090583
 30
0.0
 40
3.0
 41
0.0
 71
     5
 72
     1
  1
224
 73
     1
 44
1.0
1001
ACAD
1000
MTEXTBEGIN
1070
    73
1070
     1
1070
    44
1040
1.0
1070
    74
1070
     0
1000
MTEXTEND
  0
POINT
  5
F41
330
71E
100
AcDbEntity
  8
Defpoints
 62
     0
100
AcDbPoint
 10
213.403717
 20
178.6287887090583
 30
0.0
  0
POINT
  5
F42
330
71E
100
AcDbEntity
  8
Defpoints
 62
     0
100
AcDbPoint
 10
284.403717
 20
178.6287887090583
 30
0.0
  0
POINT
  5
F43
330
71E
100
AcDbEntity
  8
Defpoints
 62
     0
100
AcDbPoint
 10
284.403717
 20
167.0790437090583
 30
0.0
  0
ENDBLK
  5
720
330
71E
100
AcDbEntity
  8
0
100
AcDbBlockEnd
  0
BLOCK
  5
924
330
923
100
AcDbEntity
  8
0
100
AcDbBlockBegin
  2
*D4
 70
     1
 10
0.0
 20
0.0
 30
0.0
  3
*D4
  1

  0
LINE
  5
925
330
923
100
AcDbEntity
  8
0
 62
     0
370
    -2
100
AcDbLine
 10
-178.2339678749101
 20
-812.0370112307897
 30
0.0
 11
-178.2339678749101
 21
-814.9466426527986
 31
0.0
  0
LINE
  5
926
330
923
100
AcDbEntity
  8
0
 62
     0
370
    -2
100
AcDbLine
 10
-180.6911549290304
 20
-812.0370112307897
 30
0.0
 11
-180.6911549290304
 21
-814.9466426527986
 31
0.0
  0
LINE
  5
927
330
923
100
AcDbEntity
  8
0
 62
     0
370
    -2
100
AcDbLine
 10
-175.7339678749101
 20
-813.6966426527985
 30
0.0
 11
-173.2339678749101
 21
-813.6966426527985
 31
0.0
  0
LINE
  5
928
330
923
100
AcDbEntity
  8
0
 62
     0
370
    -2
100
AcDbLine
 10
-183.1911549290304
 20
-813.6966426527985
 30
0.0
 11
-195.9411549290304
 21
-813.6966426527985
 31
0.0
  0
LINE
  5
929
330
923
100
AcDbEntity
  8
0
 62
     0
370
    -2
100
AcDbLine
 10
-178.2339678749101
 20
-813.6966426527985
 30
0.0
 11
-180.6911549290304
 21
-813.6966426527985
 31
0.0
  0
INSERT
  5
92A
330
923
100
AcDbEntity
  8
0
 62
     0
370
    -2
100
AcDbBlockReference
  2
_Open30
 10
-178.2339678749101
 20
-813.6966426527985
 30
0.0
 41
2.5
 42
2.5
 43
2.5
 50
180.0
  0
INSERT
  5
92B
330
923
100
AcDbEntity
  8
0
 62
     0
370
    -2
100
AcDbBlockReference
  2
_Open30
 10
-180.6911549290304
 20
-813.6966426527985
 30
0.0
 41
2.5
 42
2.5
 43
2.5
  0
MTEXT
  5
92C
330
923
100
AcDbEntity
  8
0
 62
     4
100
AcDbMText
 10
-190.8161549290304
 20
-811.5716426527985
 30
0.0
 40
3.0
 41
0.0
 71
     5
 72
     1
  1
2.46
 73
     1
 44
1.0
1001
ACAD
1000
MTEXTBEGIN
1070
    73
1070
     1
1070
    44
1040
1.0
1070
    74
1070
     0
1000
MTEXTEND
  0
POINT
  5
92D
330
923
100
AcDbEntity
  8
Defpoints
 62
     0
100
AcDbPoint
 10
-178.2339678749101
 20
-811.7870112307898
 30
0.0
  0
POINT
  5
92E
330
923
100
AcDbEntity
  8
Defpoints
 62
     0
100
AcDbPoint
 10
-180.6911549290304
 20
-811.7870112307898
 30
0.0
  0
POINT
  5
92F
330
923
100
AcDbEntity
  8
Defpoints
 62
     0
100
AcDbPoint
 10
-180.6911549290304
 20
-813.6966426527985
 30
0.0
  0
ENDBLK
  5
930
330
923
100
AcDbEntity
  8
0
100
AcDbBlockEnd
  0
BLOCK
  5
932
330
931
100
AcDbEntity
  8
0
100
AcDbBlockBegin
  2
*D5
 70
     1
 10
0.0
 20
0.0
 30
0.0
  3
*D5
  1

  0
LINE
  5
933
330
931
100
AcDbEntity
  8
0
 62
     0
370
    -2
100
AcDbLine
 10
-176.5958429688369
 20
-817.4931008035521
 30
0.0
 11
-176.5958429688369
 21
-820.0389928730155
 31
0.0
  0
LINE
  5
934
330
931
100
AcDbEntity
  8
0
 62
     0
370
    -2
100
AcDbLine
 10
-179.6900787669798
 20
-817.4931008035521
 30
0.0
 11
-179.6900787669798
 21
-820.0389928730155
 31
0.0
  0
LINE
  5
935
330
931
100
AcDbEntity
  8
0
 62
     0
370
    -2
100
AcDbLine
 10
-174.0958429688369
 20
-818.7889928730154
 30
0.0
 11
-171.5958429688369
 21
-818.7889928730154
 31
0.0
  0
LINE
  5
936
330
931
100
AcDbEntity
  8
0
 62
     0
370
    -2
100
AcDbLine
 10
-182.1900787669798
 20
-818.7889928730154
 30
0.0
 11
-196.0234121003131
 21
-818.7889928730154
 31
0.0
  0
LINE
  5
937
330
931
100
AcDbEntity
  8
0
 62
     0
370
    -2
100
AcDbLine
 10
-176.5958429688369
 20
-818.7889928730154
 30
0.0
 11
-179.6900787669798
 21
-818.7889928730154
 31
0.0
  0
INSERT
  5
938
330
931
100
AcDbEntity
  8
0
 62
     0
370
    -2
100
AcDbBlockReference
  2
_Open30
 10
-176.5958429688369
 20
-818.7889928730154
 30
0.0
 41
2.5
 42
2.5
 43
2.5
 50
180.0
  0
INSERT
  5
939
330
931
100
AcDbEntity
  8
0
 62
     0
370
    -2
100
AcDbBlockReference
  2
_Open30
 10
-179.6900787669798
 20
-818.7889928730154
 30
0.0
 41
2.5
 42
2.5
 43
2.5
  0
MTEXT
  5
93A
330
931
100
AcDbEntity
  8
0
 62
     4
100
AcDbMText
 10
-190.8150787669798
 20
-816.9139928730155
 30
0.0
 40
2.5
 41
0.0
 71
     5
 72
     1
  1
15.47
  7
高2.5
 73
     1
 44
1.0
1001
ACAD
1000
MTEXTBEGIN
1070
    73
1070
     1
1070
    44
1040
1.0
1070
    74
1070
     0
1000
MTEXTEND
  0
POINT
  5
93B
330
931
100
AcDbEntity
  8
Defpoints
 62
     0
100
AcDbPoint
 10
-176.5958429688369
 20
-817.2431008035522
 30
0.0
  0
POINT
  5
93C
330
931
100
AcDbEntity
  8
Defpoints
 62
     0
100
AcDbPoint
 10
-179.6900787669798
 20
-817.2431008035522
 30
0.0
  0
POINT
  5
93D
330
931
100
AcDbEntity
  8
Defpoints
 62
     0
100
AcDbPoint
 10
-179.6900787669798
 20
-818.7889928730154
 30
0.0
  0
ENDBLK
  5
93E
330
931
100
AcDbEntity
  8
0
100
AcDbBlockEnd
  0
BLOCK
  5
940
330
93F
100
AcDbEntity
  8
0
100
AcDbBlockBegin
  2
*D6
 70
     1
 10
0.0
 20
0.0
 30
0.0
  3
*D6
  1

  0
LINE
  5
941
330
93F
100
AcDbEntity
  8
0
 62
     0
370
    -2
100
AcDbLine
 10
-174.8667113607514
 20
-822.9491905193986
 30
0.0
 11
-174.8667113607514
 21
-825.2222781817659
 31
0.0
  0
LINE
  5
942
330
93F
100
AcDbEntity
  8
0
 62
     0
370
    -2
100
AcDbLine
 10
-178.8710163139432
 20
-822.9491905193986
 30
0.0
 11
-178.8710163139432
 21
-825.2222781817659
 31
0.0
  0
LINE
  5
943
330
93F
100
AcDbEntity
  8
0
 62
     0
370
    -2
100
AcDbLine
 10
-172.3667113607514
 20
-823.9722781817658
 30
0.0
 11
-169.8667113607514
 21
-823.9722781817658
 31
0.0
  0
LINE
  5
944
330
93F
100
AcDbEntity
  8
0
 62
     0
370
    -2
100
AcDbLine
 10
-181.3710163139432
 20
-823.9722781817658
 30
0.0
 11
-193.1210163139432
 21
-823.9722781817658
 31
0.0
  0
LINE
  5
945
330
93F
100
AcDbEntity
  8
0
 62
     0
370
    -2
100
AcDbLine
 10
-174.8667113607514
 20
-823.9722781817658
 30
0.0
 11
-178.8710163139432
 21
-823.9722781817658
 31
0.0
  0
INSERT
  5
946
330
93F
100
AcDbEntity
  8
0
 62
     0
370
    -2
100
AcDbBlockReference
  2
_Open30
 10
-174.8667113607514
 20
-823.9722781817658
 30
0.0
 41
2.5
 42
2.5
 43
2.5
 50
180.0
  0
INSERT
  5
947
330
93F
100
AcDbEntity
  8
0
 62
     0
370
    -2
100
AcDbBlockReference
  2
_Open30
 10
-178.8710163139432
 20
-823.9722781817658
 30
0.0
 41
2.5
 42
2.5
 43
2.5
  0
MTEXT
  5
948
330
93F
100
AcDbEntity
  8
0
 62
     4
100
AcDbMText
 10
-188.4960163139432
 20
-821.7472781817658
 30
0.0
 40
3.2
 41
0.0
 71
     5
 72
     1
  1
8.01
  7
高3.2
 73
     1
 44
1.0
1001
ACAD
1000
MTEXTBEGIN
1070
    73
1070
     1
1070
    44
1040
1.0
1070
    74
1070
     0
1000
MTEXTEND
  0
POINT
  5
949
330
93F
100
AcDbEntity
  8
Defpoints
 62
     0
100
AcDbPoint
 10
-174.8667113607514
 20
-822.6991905193985
 30
0.0
  0
POINT
  5
94A
330
93F
100
AcDbEntity
  8
Defpoints
 62
     0
100
AcDbPoint
 10
-178.8710163139432
 20
-822.6991905193985
 30
0.0
  0
POINT
  5
94B
330
93F
100
AcDbEntity
  8
Defpoints
 62
     0
100
AcDbPoint
 10
-178.8710163139432
 20
-823.9722781817658
 30
0.0
  0
ENDBLK
  5
94C
330
93F
100
AcDbEntity
  8
0
100
AcDbBlockEnd
  0
BLOCK
  5
94E
330
94D
100
AcDbEntity
  8
0
100
AcDbBlockBegin
  2
*D7
 70
     1
 10
0.0
 20
0.0
 30
0.0
  3
*D7
  1

  0
LINE
  5
94F
330
94D
100
AcDbEntity
  8
0
 62
     0
370
    -2
100
AcDbLine
 10
-174.9577180627636
 20
-828.2234104874302
 30
0.0
 11
-174.9577180627636
 21
-830.0418239948866
 31
0.0
  0
LINE
  5
950
330
94D
100
AcDbEntity
  8
0
 62
     0
370
    -2
100
AcDbLine
 10
-179.6900787669798
 20
-828.2234104874302
 30
0.0
 11
-179.6900787669798
 21
-830.0418239948866
 31
0.0
  0
LINE
  5
951
330
94D
100
AcDbEntity
  8
0
 62
     0
370
    -2
100
AcDbLine
 10
-172.4577180627636
 20
-828.7918239948865
 30
0.0
 11
-169.9577180627637
 21
-828.7918239948865
 31
0.0
  0
LINE
  5
952
330
94D
100
AcDbEntity
  8
0
 62
     0
370
    -2
100
AcDbLine
 10
-182.1900787669798
 20
-828.7918239948865
 30
0.0
 11
-203.9400787669798
 21
-828.7918239948865
 31
0.0
  0
LINE
  5
953
330
94D
100
AcDbEntity
  8
0
 62
     0
370
    -2
100
AcDbLine
 10
-174.9577180627636
 20
-828.7918239948865
 30
0.0
 11
-179.6900787669798
 21
-828.7918239948865
 31
0.0
  0
INSERT
  5
954
330
94D
100
AcDbEntity
  8
0
 62
     0
370
    -2
100
AcDbBlockReference
  2
_Open30
 10
-174.9577180627636
 20
-828.7918239948865
 30
0.0
 41
2.5
 42
2.5
 43
2.5
 50
180.0
  0
INSERT
  5
955
330
94D
100
AcDbEntity
  8
0
 62
     0
370
    -2
100
AcDbBlockReference
  2
_Open30
 10
-179.6900787669798
 20
-828.7918239948865
 30
0.0
 41
2.5
 42
2.5
 43
2.5
  0
MTEXT
  5
956
330
94D
100
AcDbEntity
  8
0
 62
     4
100
AcDbMText
 10
-194.3150787669798
 20
-825.9168239948866
 30
0.0
 40
4.5
 41
0.0
 71
     5
 72
     1
  1
47.32
  7
高4.5
 73
     1
 44
1.0
1001
ACAD
1000
MTEXTBEGIN
1070
    73
1070
     1
1070
    44
1040
1.0
1070
    74
1070
     0
1000
MTEXTEND
  0
POINT
  5
957
330
94D
100
AcDbEntity
  8
Defpoints
 62
     0
100
AcDbPoint
 10
-174.9577180627636
 20
-827.9734104874302
 30
0.0
  0
POINT
  5
958
330
94D
100
AcDbEntity
  8
Defpoints
 62
     0
100
AcDbPoint
 10
-179.6900787669798
 20
-827.9734104874302
 30
0.0
  0
POINT
  5
959
330
94D
100
AcDbEntity
  8
Defpoints
 62
     0
100
AcDbPoint
 10
-179.6900787669798
 20
-828.7918239948865
 30
0.0
  0
ENDBLK
  5
95A
330
94D
100
AcDbEntity
  8
0
100
AcDbBlockEnd
  0
BLOCK
  5
95C
330
95B
100
AcDbEntity
  8
0
100
AcDbBlockBegin
  2
*D8
 70
     1
 10
0.0
 20
0.0
 30
0.0
  3
*D8
  1

  0
LINE
  5
95D
330
95B
100
AcDbEntity
  8
0
 62
     0
370
    -2
100
AcDbLine
 10
-153.4800817947562
 20
-812.0370112307897
 30
0.0
 11
-153.4800817947562
 21
-814.9466426527986
 31
0.0
  0
LINE
  5
95E
330
95B
100
AcDbEntity
  8
0
 62
     0
370
    -2
100
AcDbLine
 10
-155.9372688488765
 20
-812.0370112307897
 30
0.0
 11
-155.9372688488765
 21
-814.9466426527986
 31
0.0
  0
LINE
  5
95F
330
95B
100
AcDbEntity
  8
0
 62
     0
370
    -2
100
AcDbLine
 10
-150.9800817947562
 20
-813.6966426527985
 30
0.0
 11
-148.4800817947562
 21
-813.6966426527985
 31
0.0
  0
LINE
  5
960
330
95B
100
AcDbEntity
  8
0
 62
     0
370
    -2
100
AcDbLine
 10
-158.4372688488765
 20
-813.6966426527985
 30
0.0
 11
-180.0372688488765
 21
-813.6966426527985
 31
0.0
  0
LINE
  5
961
330
95B
100
AcDbEntity
  8
0
 62
     0
370
    -2
100
AcDbLine
 10
-153.4800817947562
 20
-813.6966426527985
 30
0.0
 11
-155.9372688488765
 21
-813.6966426527985
 31
0.0
  0
INSERT
  5
962
330
95B
100
AcDbEntity
  8
0
 62
     0
370
    -2
100
AcDbBlockReference
  2
_Open30
 10
-153.4800817947562
 20
-813.6966426527985
 30
0.0
 41
2.5
 42
2.5
 43
2.5
 50
180.0
  0
INSERT
  5
963
330
95B
100
AcDbEntity
  8
0
 62
     0
370
    -2
100
AcDbBlockReference
  2
_Open30
 10
-155.9372688488765
 20
-813.6966426527985
 30
0.0
 41
2.5
 42
2.5
 43
2.5
  0
MTEXT
  5
964
330
95B
100
AcDbEntity
  8
0
 62
     4
100
AcDbMText
 10
-170.4872688488765
 20
-809.9216426527986
 30
0.0
 40
6.299999999999998
 41
0.0
 71
     5
 72
     1
  1
0.25
  7
高6.3
 73
     1
 44
1.0
1001
ACAD
1000
MTEXTBEGIN
1070
    73
1070
     1
1070
    44
1040
1.0
1070
    74
1070
     0
1000
MTEXTEND
  0
POINT
  5
965
330
95B
100
AcDbEntity
  8
Defpoints
 62
     0
100
AcDbPoint
 10
-153.4800817947562
 20
-811.7870112307898
 30
0.0
  0
POINT
  5
966
330
95B
100
AcDbEntity
  8
Defpoints
 62
     0
100
AcDbPoint
 10
-155.9372688488765
 20
-811.7870112307898
 30
0.0
  0
POINT
  5
967
330
95B
100
AcDbEntity
  8
Defpoints
 62
     0
100
AcDbPoint
 10
-155.9372688488765
 20
-813.6966426527985
 30
0.0
  0
ENDBLK
  5
968
330
95B
100
AcDbEntity
  8
0
100
AcDbBlockEnd
  0
BLOCK
  5
96A
330
969
100
AcDbEntity
  8
0
100
AcDbBlockBegin
  2
*D9
 70
     1
 10
0.0
 20
0.0
 30
0.0
  3
*D9
  1

  0
LINE
  5
96B
330
969
100
AcDbEntity
  8
0
 62
     0
370
    -2
100
AcDbLine
 10
-151.841956888683
 20
-817.4931008035521
 30
0.0
 11
-151.841956888683
 21
-820.0389928730155
 31
0.0
  0
LINE
  5
96C
330
969
100
AcDbEntity
  8
0
 62
     0
370
    -2
100
AcDbLine
 10
-154.9361926868259
 20
-817.4931008035521
 30
0.0
 11
-154.9361926868259
 21
-820.0389928730155
 31
0.0
  0
LINE
  5
96D
330
969
100
AcDbEntity
  8
0
 62
     0
370
    -2
100
AcDbLine
 10
-149.341956888683
 20
-818.7889928730154
 30
0.0
 11
-146.841956888683
 21
-818.7889928730154
 31
0.0
  0
LINE
  5
96E
330
969
100
AcDbEntity
  8
0
 62
     0
370
    -2
100
AcDbLine
 10
-157.4361926868259
 20
-818.7889928730154
 30
0.0
 11
-169.4361926868259
 21
-818.7889928730154
 31
0.0
  0
LINE
  5
96F
330
969
100
AcDbEntity
  8
0
 62
     0
370
    -2
100
AcDbLine
 10
-151.841956888683
 20
-818.7889928730154
 30
0.0
 11
-154.9361926868259
 21
-818.7889928730154
 31
0.0
  0
INSERT
  5
970
330
969
100
AcDbEntity
  8
0
 62
     0
370
    -2
100
AcDbBlockReference
  2
_Open30
 10
-151.841956888683
 20
-818.7889928730154
 30
0.0
 41
2.5
 42
2.5
 43
2.5
 50
180.0
  0
INSERT
  5
971
330
969
100
AcDbEntity
  8
0
 62
     0
370
    -2
100
AcDbBlockReference
  2
_Open30
 10
-154.9361926868259
 20
-818.7889928730154
 30
0.0
 41
2.5
 42
2.5
 43
2.5
  0
MTEXT
  5
972
330
969
100
AcDbEntity
  8
0
 62
     4
100
AcDbMText
 10
-164.8111926868259
 20
-816.6639928730154
 30
0.0
 40
3.0
 41
0.0
 71
     5
 72
     1
  1
1.55
 73
     1
 44
1.0
1001
ACAD
1000
MTEXTBEGIN
1070
    73
1070
     1
1070
    44
1040
1.0
1070
    74
1070
     0
1000
MTEXTEND
  0
POINT
  5
973
330
969
100
AcDbEntity
  8
Defpoints
 62
     0
100
AcDbPoint
 10
-151.841956888683
 20
-817.2431008035522
 30
0.0
  0
POINT
  5
974
330
969
100
AcDbEntity
  8
Defpoints
 62
     0
100
AcDbPoint
 10
-154.9361926868259
 20
-817.2431008035522
 30
0.0
  0
POINT
  5
975
330
969
100
AcDbEntity
  8
Defpoints
 62
     0
100
AcDbPoint
 10
-154.9361926868259
 20
-818.7889928730154
 30
0.0
  0
ENDBLK
  5
976
330
969
100
AcDbEntity
  8
0
100
AcDbBlockEnd
  0
BLOCK
  5
978
330
977
100
AcDbEntity
  8
0
100
AcDbBlockBegin
  2
*D10
 70
     1
 10
0.0
 20
0.0
 30
0.0
  3
*D10
  1

  0
LINE
  5
979
330
977
100
AcDbEntity
  8
0
 62
     0
370
    -2
100
AcDbLine
 10
-150.1128252805975
 20
-822.9491905193986
 30
0.0
 11
-150.1128252805975
 21
-825.2222781817659
 31
0.0
  0
LINE
  5
97A
330
977
100
AcDbEntity
  8
0
 62
     0
370
    -2
100
AcDbLine
 10
-154.1171302337894
 20
-822.9491905193986
 30
0.0
 11
-154.1171302337894
 21
-825.2222781817659
 31
0.0
  0
LINE
  5
97B
330
977
100
AcDbEntity
  8
0
 62
     0
370
    -2
100
AcDbLine
 10
-147.6128252805976
 20
-823.9722781817658
 30
0.0
 11
-145.1128252805975
 21
-823.9722781817658
 31
0.0
  0
LINE
  5
97C
330
977
100
AcDbEntity
  8
0
 62
     0
370
    -2
100
AcDbLine
 10
-156.6171302337894
 20
-823.9722781817658
 30
0.0
 11
-164.9504635671227
 21
-823.9722781817658
 31
0.0
  0
LINE
  5
97D
330
977
100
AcDbEntity
  8
0
 62
     0
370
    -2
100
AcDbLine
 10
-150.1128252805975
 20
-823.9722781817658
 30
0.0
 11
-154.1171302337894
 21
-823.9722781817658
 31
0.0
  0
INSERT
  5
97E
330
977
100
AcDbEntity
  8
0
 62
     0
370
    -2
100
AcDbBlockReference
  2
_Open30
 10
-150.1128252805975
 20
-823.9722781817658
 30
0.0
 41
2.5
 42
2.5
 43
2.5
 50
180.0
  0
INSERT
  5
97F
330
977
100
AcDbEntity
  8
0
 62
     0
370
    -2
100
AcDbBlockReference
  2
_Open30
 10
-154.1171302337894
 20
-823.9722781817658
 30
0.0
 41
2.5
 42
2.5
 43
2.5
  0
MTEXT
  5
980
330
977
100
AcDbEntity
  8
0
 62
     4
100
AcDbMText
 10
-162.4921302337894
 20
-822.3472781817658
 30
0.0
 40
2.0
 41
0.0
 71
     5
 72
     1
  1
0.8
  7
高2
 73
     1
 44
1.0
1001
ACAD
1000
MTEXTBEGIN
1070
    73
1070
     1
1070
    44
1040
1.0
1070
    74
1070
     0
1000
MTEXTEND
  0
POINT
  5
981
330
977
100
AcDbEntity
  8
Defpoints
 62
     0
100
AcDbPoint
 10
-150.1128252805975
 20
-822.6991905193985
 30
0.0
  0
POINT
  5
982
330
977
100
AcDbEntity
  8
Defpoints
 62
     0
100
AcDbPoint
 10
-154.1171302337894
 20
-822.6991905193985
 30
0.0
  0
POINT
  5
983
330
977
100
AcDbEntity
  8
Defpoints
 62
     0
100
AcDbPoint
 10
-154.1171302337894
 20
-823.9722781817658
 30
0.0
  0
ENDBLK
  5
984
330
977
100
AcDbEntity
  8
0
100
AcDbBlockEnd
  0
BLOCK
  5
986
330
985
100
AcDbEntity
  8
0
100
AcDbBlockBegin
  2
*D11
 70
     1
 10
0.0
 20
0.0
 30
0.0
  3
*D11
  1

  0
LINE
  5
987
330
985
100
AcDbEntity
  8
0
 62
     0
370
    -2
100
AcDbLine
 10
-150.2038319826098
 20
-828.2234104874302
 30
0.0
 11
-150.2038319826098
 21
-830.0418239948866
 31
0.0
  0
LINE
  5
988
330
985
100
AcDbEntity
  8
0
 62
     0
370
    -2
100
AcDbLine
 10
-154.9361926868259
 20
-828.2234104874302
 30
0.0
 11
-154.9361926868259
 21
-830.0418239948866
 31
0.0
  0
LINE
  5
989
330
985
100
AcDbEntity
  8
0
 62
     0
370
    -2
100
AcDbLine
 10
-147.7038319826099
 20
-828.7918239948865
 30
0.0
 11
-145.2038319826098
 21
-828.7918239948865
 31
0.0
  0
LINE
  5
98A
330
985
100
AcDbEntity
  8
0
 62
     0
370
    -2
100
AcDbLine
 10
-157.4361926868259
 20
-828.7918239948865
 30
0.0
 11
-172.1861926868259
 21
-828.7918239948865
 31
0.0
  0
LINE
  5
98B
330
985
100
AcDbEntity
  8
0
 62
     0
370
    -2
100
AcDbLine
 10
-150.2038319826098
 20
-828.7918239948865
 30
0.0
 11
-154.9361926868259
 21
-828.7918239948865
 31
0.0
  0
INSERT
  5
98C
330
985
100
AcDbEntity
  8
0
 62
     0
370
    -2
100
AcDbBlockReference
  2
_Open30
 10
-150.2038319826098
 20
-828.7918239948865
 30
0.0
 41
2.5
 42
2.5
 43
2.5
 50
180.0
  0
INSERT
  5
98D
330
985
100
AcDbEntity
  8
0
 62
     0
370
    -2
100
AcDbBlockReference
  2
_Open30
 10
-154.9361926868259
 20
-828.7918239948865
 30
0.0
 41
2.5
 42
2.5
 43
2.5
  0
MTEXT
  5
98E
330
985
100
AcDbEntity
  8
0
 62
     4
100
AcDbMText
 10
-166.0611926868259
 20
-826.6668239948867
 30
0.0
 40
3.0
 41
0.0
 71
     5
 72
     1
  1
18.93
 73
     1
 44
1.0
1001
ACAD
1000
MTEXTBEGIN
1070
    73
1070
     1
1070
    44
1040
1.0
1070
    74
1070
     0
1000
MTEXTEND
  0
POINT
  5
98F
330
985
100
AcDbEntity
  8
Defpoints
 62
     0
100
AcDbPoint
 10
-150.2038319826098
 20
-827.9734104874302
 30
0.0
  0
POINT
  5
990
330
985
100
AcDbEntity
  8
Defpoints
 62
     0
100
AcDbPoint
 10
-154.9361926868259
 20
-827.9734104874302
 30
0.0
  0
POINT
  5
991
330
985
100
AcDbEntity
  8
Defpoints
 62
     0
100
AcDbPoint
 10
-154.9361926868259
 20
-828.7918239948865
 30
0.0
  0
ENDBLK
  5
992
330
985
100
AcDbEntity
  8
0
100
AcDbBlockEnd
  0
BLOCK
  5
994
330
993
100
AcDbEntity
  8
0
100
AcDbBlockBegin
  2
*D12
 70
     1
 10
0.0
 20
0.0
 30
0.0
  3
*D12
  1

  0
LINE
  5
995
330
993
100
AcDbEntity
  8
0
 62
     0
370
    -2
100
AcDbLine
 10
-153.0082588337482
 20
-833.2792506940199
 30
0.0
 11
-153.0082588337482
 21
-835.5891717708955
 31
0.0
  0
LINE
  5
996
330
993
100
AcDbEntity
  8
0
 62
     0
370
    -2
100
AcDbLine
 10
-157.5969340358961
 20
-833.2792506940199
 30
0.0
 11
-157.5969340358961
 21
-835.5891717708955
 31
0.0
  0
LINE
  5
997
330
993
100
AcDbEntity
  8
0
 62
     0
370
    -2
100
AcDbLine
 10
-150.5082588337482
 20
-834.3391717708955
 30
0.0
 11
-148.0082588337482
 21
-834.3391717708955
 31
0.0
  0
LINE
  5
998
330
993
100
AcDbEntity
  8
0
 62
     0
370
    -2
100
AcDbLine
 10
-160.0969340358961
 20
-834.3391717708955
 30
0.0
 11
-174.8469340358961
 21
-834.3391717708955
 31
0.0
  0
LINE
  5
999
330
993
100
AcDbEntity
  8
0
 62
     0
370
    -2
100
AcDbLine
 10
-153.0082588337482
 20
-834.3391717708955
 30
0.0
 11
-157.5969340358961
 21
-834.3391717708955
 31
0.0
  0
INSERT
  5
99A
330
993
100
AcDbEntity
  8
0
 62
     0
370
    -2
100
AcDbBlockReference
  2
_Open30
 10
-153.0082588337482
 20
-834.3391717708955
 30
0.0
 41
2.5
 42
2.5
 43
2.5
 50
180.0
  0
INSERT
  5
99B
330
993
100
AcDbEntity
  8
0
 62
     0
370
    -2
100
AcDbBlockReference
  2
_Open30
 10
-157.5969340358961
 20
-834.3391717708955
 30
0.0
 41
2.5
 42
2.5
 43
2.5
  0
MTEXT
  5
99C
330
993
100
AcDbEntity
  8
0
 62
     4
100
AcDbMText
 10
-168.7219340358961
 20
-832.2141717708955
 30
0.0
 40
3.0
 41
0.0
 71
     5
 72
     1
  1
13.77
 73
     1
 44
1.0
1001
ACAD
1000
MTEXTBEGIN
1070
    73
1070
     1
1070
    44
1040
1.0
1070
    74
1070
     0
1000
MTEXTEND
  0
POINT
  5
99D
330
993
100
AcDbEntity
  8
Defpoints
 62
     0
100
AcDbPoint
 10
-153.0082588337482
 20
-833.0292506940201
 30
0.0
  0
POINT
  5
99E
330
993
100
AcDbEntity
  8
Defpoints
 62
     0
100
AcDbPoint
 10
-157.5969340358961
 20
-833.0292506940201
 30
0.0
  0
POINT
  5
99F
330
993
100
AcDbEntity
  8
Defpoints
 62
     0
100
AcDbPoint
 10
-157.5969340358961
 20
-834.3391717708955
 30
0.0
  0
ENDBLK
  5
9A0
330
993
100
AcDbEntity
  8
0
100
AcDbBlockEnd
  0
BLOCK
  5
9A2
330
9A1
100
AcDbEntity
  8
0
100
AcDbBlockBegin
  2
*D13
 70
     1
 10
0.0
 20
0.0
 30
0.0
  3
*D13
  1

  0
LINE
  5
9A3
330
9A1
100
AcDbEntity
  8
0
 62
     0
370
    -2
100
AcDbLine
 10
-160.1045416668985
 20
-802.3497593757458
 30
0.0
 11
-160.1045416668985
 21
-794.9532258978079
 31
0.0
  0
LINE
  5
9A4
330
9A1
100
AcDbEntity
  8
0
 62
     0
370
    -2
100
AcDbLine
 10
-170.0430160363884
 20
-802.3497593757458
 30
0.0
 11
-170.0430160363884
 21
-794.9532258978079
 31
0.0
  0
LINE
  5
9A5
330
9A1
100
AcDbEntity
  8
0
 62
     0
370
    -2
100
AcDbLine
 10
-162.6045416668985
 20
-796.2032258978077
 30
0.0
 11
-167.5430160363885
 21
-796.2032258978077
 31
0.0
  0
INSERT
  5
9A6
330
9A1
100
AcDbEntity
  8
0
 62
     0
370
    -2
100
AcDbBlockReference
  2
_Open30
 10
-160.1045416668985
 20
-796.2032258978077
 30
0.0
 41
2.5
 42
2.5
 43
2.5
  0
INSERT
  5
9A7
330
9A1
100
AcDbEntity
  8
0
 62
     0
370
    -2
100
AcDbBlockReference
  2
_Open30
 10
-170.0430160363884
 20
-796.2032258978077
 30
0.0
 41
2.5
 42
2.5
 43
2.5
 50
180.0
  0
MTEXT
  5
9A8
330
9A1
100
AcDbEntity
  8
0
 62
     4
100
AcDbMText
 10
-165.0737788516435
 20
-793.1282258978077
 30
0.0
 40
3.0
 41
0.0
 71
     5
 72
     1
  1
9.94\H0.7X;\S+0^ -0.02;
 73
     1
 44
1.0
1001
ACAD
1000
MTEXTBEGIN
1070
    73
1070
     1
1070
    44
1040
1.0
1070
    74
1070
     0
1000
MTEXTEND
  0
POINT
  5
9A9
330
9A1
100
AcDbEntity
  8
Defpoints
 62
     0
100
AcDbPoint
 10
-160.1045416668985
 20
-802.5997593757455
 30
0.0
  0
POINT
  5
9AA
330
9A1
100
AcDbEntity
  8
Defpoints
 62
     0
100
AcDbPoint
 10
-170.0430160363884
 20
-802.5997593757455
 30
0.0
  0
POINT
  5
9AB
330
9A1
100
AcDbEntity
  8
Defpoints
 62
     0
100
AcDbPoint
 10
-170.0430160363884
 20
-796.2032258978077
 30
0.0
  0
ENDBLK
  5
9AC
330
9A1
100
AcDbEntity
  8
0
100
AcDbBlockEnd
  0
BLOCK
  5
9D4
330
9D3
100
AcDbEntity
  8
0
100
AcDbBlockBegin
  2
*D14
 70
     1
 10
0.0
 20
0.0
 30
0.0
  3
*D14
  1

  0
LINE
  5
A5D
330
9D3
100
AcDbEntity
  8
0
 62
     0
370
    -2
100
AcDbLine
 10
428.6099455524808
 20
336.2352382589138
 30
0.0
 11
428.6099455524808
 21
333.3256068369049
 31
0.0
  0
LINE
  5
A5E
330
9D3
100
AcDbEntity
  8
0
 62
     0
370
    -2
100
AcDbLine
 10
426.1527584983605
 20
336.2352382589138
 30
0.0
 11
426.1527584983605
 21
333.3256068369049
 31
0.0
  0
LINE
  5
A5F
330
9D3
100
AcDbEntity
  8
0
 62
     0
370
    -2
100
AcDbLine
 10
431.1099455524808
 20
334.575606836905
 30
0.0
 11
433.6099455524808
 21
334.575606836905
 31
0.0
  0
LINE
  5
A60
330
9D3
100
AcDbEntity
  8
0
 62
     0
370
    -2
100
AcDbLine
 10
423.6527584983606
 20
334.575606836905
 30
0.0
 11
410.9027584983605
 21
334.575606836905
 31
0.0
  0
LINE
  5
A61
330
9D3
100
AcDbEntity
  8
0
 62
     0
370
    -2
100
AcDbLine
 10
428.6099455524808
 20
334.575606836905
 30
0.0
 11
426.1527584983605
 21
334.575606836905
 31
0.0
  0
INSERT
  5
A62
330
9D3
100
AcDbEntity
  8
0
 62
     0
370
    -2
100
AcDbBlockReference
  2
_Open30
 10
428.6099455524808
 20
334.575606836905
 30
0.0
 41
2.5
 42
2.5
 43
2.5
 50
180.0
  0
INSERT
  5
A63
330
9D3
100
AcDbEntity
  8
0
 62
     0
370
    -2
100
AcDbBlockReference
  2
_Open30
 10
426.1527584983605
 20
334.575606836905
 30
0.0
 41
2.5
 42
2.5
 43
2.5
  0
MTEXT
  5
A64
330
9D3
100
AcDbEntity
  8
0
 62
     4
100
AcDbMText
 10
416.0277584983606
 20
336.700606836905
 30
0.0
 40
3.0
 41
0.0
 71
     5
 72
     1
  1
2.46
 73
     1
 44
1.0
1001
ACAD
1000
MTEXTBEGIN
1070
    73
1070
     1
1070
    44
1040
1.0
1070
    74
1070
     0
1000
MTEXTEND
  0
POINT
  5
A65
330
9D3
100
AcDbEntity
  8
Defpoints
 62
     0
100
AcDbPoint
 10
428.6099455524808
 20
336.4852382589138
 30
0.0
  0
POINT
  5
A66
330
9D3
100
AcDbEntity
  8
Defpoints
 62
     0
100
AcDbPoint
 10
426.1527584983605
 20
336.4852382589138
 30
0.0
  0
POINT
  5
A67
330
9D3
100
AcDbEntity
  8
Defpoints
 62
     0
100
AcDbPoint
 10
426.1527584983605
 20
334.575606836905
 30
0.0
  0
ENDBLK
  5
9D5
330
9D3
100
AcDbEntity
  8
0
100
AcDbBlockEnd
  0
BLOCK
  5
9E2
330
9E1
100
AcDbEntity
  8
0
100
AcDbBlockBegin
  2
*D15
 70
     1
 10
0.0
 20
0.0
 30
0.0
  3
*D15
  1

  0
LINE
  5
A68
330
9E1
100
AcDbEntity
  8
0
 62
     0
370
    -2
100
AcDbLine
 10
430.2480704585541
 20
330.7791486861514
 30
0.0
 11
430.2480704585541
 21
328.2332566166881
 31
0.0
  0
LINE
  5
A69
330
9E1
100
AcDbEntity
  8
0
 62
     0
370
    -2
100
AcDbLine
 10
427.1538346604112
 20
330.7791486861514
 30
0.0
 11
427.1538346604112
 21
328.2332566166881
 31
0.0
  0
LINE
  5
A6A
330
9E1
100
AcDbEntity
  8
0
 62
     0
370
    -2
100
AcDbLine
 10
432.7480704585541
 20
329.4832566166881
 30
0.0
 11
435.2480704585541
 21
329.4832566166881
 31
0.0
  0
LINE
  5
A6B
330
9E1
100
AcDbEntity
  8
0
 62
     0
370
    -2
100
AcDbLine
 10
424.6538346604112
 20
329.4832566166881
 30
0.0
 11
410.8205013270779
 21
329.4832566166881
 31
0.0
  0
LINE
  5
A6C
330
9E1
100
AcDbEntity
  8
0
 62
     0
370
    -2
100
AcDbLine
 10
430.2480704585541
 20
329.4832566166881
 30
0.0
 11
427.1538346604112
 21
329.4832566166881
 31
0.0
  0
INSERT
  5
A6D
330
9E1
100
AcDbEntity
  8
0
 62
     0
370
    -2
100
AcDbBlockReference
  2
_Open30
 10
430.2480704585541
 20
329.4832566166881
 30
0.0
 41
2.5
 42
2.5
 43
2.5
 50
180.0
  0
INSERT
  5
A6E
330
9E1
100
AcDbEntity
  8
0
 62
     0
370
    -2
100
AcDbBlockReference
  2
_Open30
 10
427.1538346604112
 20
329.4832566166881
 30
0.0
 41
2.5
 42
2.5
 43
2.5
  0
MTEXT
  5
A6F
330
9E1
100
AcDbEntity
  8
0
 62
     4
100
AcDbMText
 10
416.0288346604112
 20
331.3582566166881
 30
0.0
 40
2.5
 41
0.0
 71
     5
 72
     1
  1
15.47
  7
高2.5
 73
     1
 44
1.0
1001
ACAD
1000
MTEXTBEGIN
1070
    73
1070
     1
1070
    44
1040
1.0
1070
    74
1070
     0
1000
MTEXTEND
  0
POINT
  5
A70
330
9E1
100
AcDbEntity
  8
Defpoints
 62
     0
100
AcDbPoint
 10
430.2480704585541
 20
331.0291486861514
 30
0.0
  0
POINT
  5
A71
330
9E1
100
AcDbEntity
  8
Defpoints
 62
     0
100
AcDbPoint
 10
427.1538346604112
 20
331.0291486861514
 30
0.0
  0
POINT
  5
A72
330
9E1
100
AcDbEntity
  8
Defpoints
 62
     0
100
AcDbPoint
 10
427.1538346604112
 20
329.4832566166881
 30
0.0
  0
ENDBLK
  5
9E3
330
9E1
100
AcDbEntity
  8
0
100
AcDbBlockEnd
  0
BLOCK
  5
9F0
330
9EF
100
AcDbEntity
  8
0
100
AcDbBlockBegin
  2
*D16
 70
     1
 10
0.0
 20
0.0
 30
0.0
  3
*D16
  1

  0
LINE
  5
A73
330
9EF
100
AcDbEntity
  8
0
 62
     0
370
    -2
100
AcDbLine
 10
431.9772020666396
 20
325.3230589703049
 30
0.0
 11
431.9772020666396
 21
323.0499713079376
 31
0.0
  0
LINE
  5
A74
330
9EF
100
AcDbEntity
  8
0
 62
     0
370
    -2
100
AcDbLine
 10
427.9728971134478
 20
325.3230589703049
 30
0.0
 11
427.9728971134478
 21
323.0499713079376
 31
0.0
  0
LINE
  5
A75
330
9EF
100
AcDbEntity
  8
0
 62
     0
370
    -2
100
AcDbLine
 10
434.4772020666396
 20
324.2999713079377
 30
0.0
 11
436.9772020666395
 21
324.2999713079377
 31
0.0
  0
LINE
  5
A76
330
9EF
100
AcDbEntity
  8
0
 62
     0
370
    -2
100
AcDbLine
 10
425.4728971134477
 20
324.2999713079377
 30
0.0
 11
413.7228971134478
 21
324.2999713079377
 31
0.0
  0
LINE
  5
A77
330
9EF
100
AcDbEntity
  8
0
 62
     0
370
    -2
100
AcDbLine
 10
431.9772020666396
 20
324.2999713079377
 30
0.0
 11
427.9728971134478
 21
324.2999713079377
 31
0.0
  0
INSERT
  5
A78
330
9EF
100
AcDbEntity
  8
0
 62
     0
370
    -2
100
AcDbBlockReference
  2
_Open30
 10
431.9772020666396
 20
324.2999713079377
 30
0.0
 41
2.5
 42
2.5
 43
2.5
 50
180.0
  0
INSERT
  5
A79
330
9EF
100
AcDbEntity
  8
0
 62
     0
370
    -2
100
AcDbBlockReference
  2
_Open30
 10
427.9728971134478
 20
324.2999713079377
 30
0.0
 41
2.5
 42
2.5
 43
2.5
  0
MTEXT
  5
A7A
330
9EF
100
AcDbEntity
  8
0
 62
     4
100
AcDbMText
 10
418.3478971134477
 20
326.5249713079377
 30
0.0
 40
3.2
 41
0.0
 71
     5
 72
     1
  1
8.01
  7
高3.2
 73
     1
 44
1.0
1001
ACAD
1000
MTEXTBEGIN
1070
    73
1070
     1
1070
    44
1040
1.0
1070
    74
1070
     0
1000
MTEXTEND
  0
POINT
  5
A7B
330
9EF
100
AcDbEntity
  8
Defpoints
 62
     0
100
AcDbPoint
 10
431.9772020666396
 20
325.5730589703049
 30
0.0
  0
POINT
  5
A7C
330
9EF
100
AcDbEntity
  8
Defpoints
 62
     0
100
AcDbPoint
 10
427.9728971134478
 20
325.5730589703049
 30
0.0
  0
POINT
  5
A7D
330
9EF
100
AcDbEntity
  8
Defpoints
 62
     0
100
AcDbPoint
 10
427.9728971134478
 20
324.2999713079377
 30
0.0
  0
ENDBLK
  5
9F1
330
9EF
100
AcDbEntity
  8
0
100
AcDbBlockEnd
  0
BLOCK
  5
9FE
330
9FD
100
AcDbEntity
  8
0
100
AcDbBlockBegin
  2
*D17
 70
     1
 10
0.0
 20
0.0
 30
0.0
  3
*D17
  1

  0
LINE
  5
A7E
330
9FD
100
AcDbEntity
  8
0
 62
     0
370
    -2
100
AcDbLine
 10
431.8861953646273
 20
320.0488390022733
 30
0.0
 11
431.8861953646273
 21
318.2304254948169
 31
0.0
  0
LINE
  5
A7F
330
9FD
100
AcDbEntity
  8
0
 62
     0
370
    -2
100
AcDbLine
 10
427.1538346604112
 20
320.0488390022733
 30
0.0
 11
427.1538346604112
 21
318.2304254948169
 31
0.0
  0
LINE
  5
A80
330
9FD
100
AcDbEntity
  8
0
 62
     0
370
    -2
100
AcDbLine
 10
434.3861953646273
 20
319.4804254948169
 30
0.0
 11
436.8861953646272
 21
319.4804254948169
 31
0.0
  0
LINE
  5
A81
330
9FD
100
AcDbEntity
  8
0
 62
     0
370
    -2
100
AcDbLine
 10
424.6538346604112
 20
319.4804254948169
 30
0.0
 11
402.9038346604112
 21
319.4804254948169
 31
0.0
  0
LINE
  5
A82
330
9FD
100
AcDbEntity
  8
0
 62
     0
370
    -2
100
AcDbLine
 10
431.8861953646273
 20
319.4804254948169
 30
0.0
 11
427.1538346604112
 21
319.4804254948169
 31
0.0
  0
INSERT
  5
A83
330
9FD
100
AcDbEntity
  8
0
 62
     0
370
    -2
100
AcDbBlockReference
  2
_Open30
 10
431.8861953646273
 20
319.4804254948169
 30
0.0
 41
2.5
 42
2.5
 43
2.5
 50
180.0
  0
INSERT
  5
A84
330
9FD
100
AcDbEntity
  8
0
 62
     0
370
    -2
100
AcDbBlockReference
  2
_Open30
 10
427.1538346604112
 20
319.4804254948169
 30
0.0
 41
2.5
 42
2.5
 43
2.5
  0
MTEXT
  5
A85
330
9FD
100
AcDbEntity
  8
0
 62
     4
100
AcDbMText
 10
412.5288346604112
 20
322.3554254948169
 30
0.0
 40
4.5
 41
0.0
 71
     5
 72
     1
  1
47.32
  7
高4.5
 73
     1
 44
1.0
1001
ACAD
1000
MTEXTBEGIN
1070
    73
1070
     1
1070
    44
1040
1.0
1070
    74
1070
     0
1000
MTEXTEND
  0
POINT
  5
A86
330
9FD
100
AcDbEntity
  8
Defpoints
 62
     0
100
AcDbPoint
 10
431.8861953646273
 20
320.2988390022733
 30
0.0
  0
POINT
  5
A87
330
9FD
100
AcDbEntity
  8
Defpoints
 62
     0
100
AcDbPoint
 10
427.1538346604112
 20
320.2988390022733
 30
0.0
  0
POINT
  5
A88
330
9FD
100
AcDbEntity
  8
Defpoints
 62
     0
100
AcDbPoint
 10
427.1538346604112
 20
319.4804254948169
 30
0.0
  0
ENDBLK
  5
9FF
330
9FD
100
AcDbEntity
  8
0
100
AcDbBlockEnd
  0
BLOCK
  5
A0C
330
A0B
100
AcDbEntity
  8
0
100
AcDbBlockBegin
  2
*D18
 70
     1
 10
0.0
 20
0.0
 30
0.0
  3
*D18
  1

  0
LINE
  5
A89
330
A0B
100
AcDbEntity
  8
0
 62
     0
370
    -2
100
AcDbLine
 10
453.3638316326348
 20
336.2352382589138
 30
0.0
 11
453.3638316326348
 21
333.3256068369049
 31
0.0
  0
LINE
  5
A8A
330
A0B
100
AcDbEntity
  8
0
 62
     0
370
    -2
100
AcDbLine
 10
450.9066445785144
 20
336.2352382589138
 30
0.0
 11
450.9066445785144
 21
333.3256068369049
 31
0.0
  0
LINE
  5
A8B
330
A0B
100
AcDbEntity
  8
0
 62
     0
370
    -2
100
AcDbLine
 10
455.8638316326348
 20
334.575606836905
 30
0.0
 11
458.3638316326346
 21
334.575606836905
 31
0.0
  0
LINE
  5
A8C
330
A0B
100
AcDbEntity
  8
0
 62
     0
370
    -2
100
AcDbLine
 10
448.4066445785145
 20
334.575606836905
 30
0.0
 11
426.8066445785144
 21
334.575606836905
 31
0.0
  0
LINE
  5
A8D
330
A0B
100
AcDbEntity
  8
0
 62
     0
370
    -2
100
AcDbLine
 10
453.3638316326348
 20
334.575606836905
 30
0.0
 11
450.9066445785144
 21
334.575606836905
 31
0.0
  0
INSERT
  5
A8E
330
A0B
100
AcDbEntity
  8
0
 62
     0
370
    -2
100
AcDbBlockReference
  2
_Open30
 10
453.3638316326348
 20
334.575606836905
 30
0.0
 41
2.5
 42
2.5
 43
2.5
 50
180.0
  0
INSERT
  5
A8F
330
A0B
100
AcDbEntity
  8
0
 62
     0
370
    -2
100
AcDbBlockReference
  2
_Open30
 10
450.9066445785144
 20
334.575606836905
 30
0.0
 41
2.5
 42
2.5
 43
2.5
  0
MTEXT
  5
A90
330
A0B
100
AcDbEntity
  8
0
 62
     4
100
AcDbMText
 10
436.3566445785145
 20
338.350606836905
 30
0.0
 40
6.299999999999998
 41
0.0
 71
     5
 72
     1
  1
0.25
  7
高6.3
 73
     1
 44
1.0
1001
ACAD
1000
MTEXTBEGIN
1070
    73
1070
     1
1070
    44
1040
1.0
1070
    74
1070
     0
1000
MTEXTEND
  0
POINT
  5
A91
330
A0B
100
AcDbEntity
  8
Defpoints
 62
     0
100
AcDbPoint
 10
453.3638316326348
 20
336.4852382589138
 30
0.0
  0
POINT
  5
A92
330
A0B
100
AcDbEntity
  8
Defpoints
 62
     0
100
AcDbPoint
 10
450.9066445785144
 20
336.4852382589138
 30
0.0
  0
POINT
  5
A93
330
A0B
100
AcDbEntity
  8
Defpoints
 62
     0
100
AcDbPoint
 10
450.9066445785144
 20
334.575606836905
 30
0.0
  0
ENDBLK
  5
A0D
330
A0B
100
AcDbEntity
  8
0
100
AcDbBlockEnd
  0
BLOCK
  5
A1A
330
A19
100
AcDbEntity
  8
0
100
AcDbBlockBegin
  2
*D19
 70
     1
 10
0.0
 20
0.0
 30
0.0
  3
*D19
  1

  0
LINE
  5
A94
330
A19
100
AcDbEntity
  8
0
 62
     0
370
    -2
100
AcDbLine
 10
455.001956538708
 20
330.7791486861514
 30
0.0
 11
455.001956538708
 21
328.2332566166881
 31
0.0
  0
LINE
  5
A95
330
A19
100
AcDbEntity
  8
0
 62
     0
370
    -2
100
AcDbLine
 10
451.9077207405651
 20
330.7791486861514
 30
0.0
 11
451.9077207405651
 21
328.2332566166881
 31
0.0
  0
LINE
  5
A96
330
A19
100
AcDbEntity
  8
0
 62
     0
370
    -2
100
AcDbLine
 10
457.5019565387078
 20
329.4832566166881
 30
0.0
 11
460.0019565387079
 21
329.4832566166881
 31
0.0
  0
LINE
  5
A97
330
A19
100
AcDbEntity
  8
0
 62
     0
370
    -2
100
AcDbLine
 10
449.407720740565
 20
329.4832566166881
 30
0.0
 11
437.407720740565
 21
329.4832566166881
 31
0.0
  0
LINE
  5
A98
330
A19
100
AcDbEntity
  8
0
 62
     0
370
    -2
100
AcDbLine
 10
455.001956538708
 20
329.4832566166881
 30
0.0
 11
451.9077207405651
 21
329.4832566166881
 31
0.0
  0
INSERT
  5
A99
330
A19
100
AcDbEntity
  8
0
 62
     0
370
    -2
100
AcDbBlockReference
  2
_Open30
 10
455.001956538708
 20
329.4832566166881
 30
0.0
 41
2.5
 42
2.5
 43
2.5
 50
180.0
  0
INSERT
  5
A9A
330
A19
100
AcDbEntity
  8
0
 62
     0
370
    -2
100
AcDbBlockReference
  2
_Open30
 10
451.9077207405651
 20
329.4832566166881
 30
0.0
 41
2.5
 42
2.5
 43
2.5
  0
MTEXT
  5
A9B
330
A19
100
AcDbEntity
  8
0
 62
     4
100
AcDbMText
 10
442.0327207405651
 20
331.6082566166881
 30
0.0
 40
3.0
 41
0.0
 71
     5
 72
     1
  1
1.55
 73
     1
 44
1.0
1001
ACAD
1000
MTEXTBEGIN
1070
    73
1070
     1
1070
    44
1040
1.0
1070
    74
1070
     0
1000
MTEXTEND
  0
POINT
  5
A9C
330
A19
100
AcDbEntity
  8
Defpoints
 62
     0
100
AcDbPoint
 10
455.001956538708
 20
331.0291486861514
 30
0.0
  0
POINT
  5
A9D
330
A19
100
AcDbEntity
  8
Defpoints
 62
     0
100
AcDbPoint
 10
451.9077207405651
 20
331.0291486861514
 30
0.0
  0
POINT
  5
A9E
330
A19
100
AcDbEntity
  8
Defpoints
 62
     0
100
AcDbPoint
 10
451.9077207405651
 20
329.4832566166881
 30
0.0
  0
ENDBLK
  5
A1B
330
A19
100
AcDbEntity
  8
0
100
AcDbBlockEnd
  0
BLOCK
  5
A28
330
A27
100
AcDbEntity
  8
0
100
AcDbBlockBegin
  2
*D20
 70
     1
 10
0.0
 20
0.0
 30
0.0
  3
*D20
  1

  0
LINE
  5
A9F
330
A27
100
AcDbEntity
  8
0
 62
     0
370
    -2
100
AcDbLine
 10
456.7310881467935
 20
325.3230589703049
 30
0.0
 11
456.7310881467935
 21
323.0499713079376
 31
0.0
  0
LINE
  5
AA0
330
A27
100
AcDbEntity
  8
0
 62
     0
370
    -2
100
AcDbLine
 10
452.7267831936016
 20
325.3230589703049
 30
0.0
 11
452.7267831936016
 21
323.0499713079376
 31
0.0
  0
LINE
  5
AA1
330
A27
100
AcDbEntity
  8
0
 62
     0
370
    -2
100
AcDbLine
 10
459.2310881467932
 20
324.2999713079377
 30
0.0
 11
461.7310881467934
 21
324.2999713079377
 31
0.0
  0
LINE
  5
AA2
330
A27
100
AcDbEntity
  8
0
 62
     0
370
    -2
100
AcDbLine
 10
450.2267831936015
 20
324.2999713079377
 30
0.0
 11
441.8934498602681
 21
324.2999713079377
 31
0.0
  0
LINE
  5
AA3
330
A27
100
AcDbEntity
  8
0
 62
     0
370
    -2
100
AcDbLine
 10
456.7310881467935
 20
324.2999713079377
 30
0.0
 11
452.7267831936016
 21
324.2999713079377
 31
0.0
  0
INSERT
  5
AA4
330
A27
100
AcDbEntity
  8
0
 62
     0
370
    -2
100
AcDbBlockReference
  2
_Open30
 10
456.7310881467935
 20
324.2999713079377
 30
0.0
 41
2.5
 42
2.5
 43
2.5
 50
180.0
  0
INSERT
  5
AA5
330
A27
100
AcDbEntity
  8
0
 62
     0
370
    -2
100
AcDbBlockReference
  2
_Open30
 10
452.7267831936016
 20
324.2999713079377
 30
0.0
 41
2.5
 42
2.5
 43
2.5
  0
MTEXT
  5
AA6
330
A27
100
AcDbEntity
  8
0
 62
     4
100
AcDbMText
 10
444.3517831936016
 20
325.9249713079376
 30
0.0
 40
2.0
 41
0.0
 71
     5
 72
     1
  1
0.8
  7
高2
 73
     1
 44
1.0
1001
ACAD
1000
MTEXTBEGIN
1070
    73
1070
     1
1070
    44
1040
1.0
1070
    74
1070
     0
1000
MTEXTEND
  0
POINT
  5
AA7
330
A27
100
AcDbEntity
  8
Defpoints
 62
     0
100
AcDbPoint
 10
456.7310881467935
 20
325.5730589703049
 30
0.0
  0
POINT
  5
AA8
330
A27
100
AcDbEntity
  8
Defpoints
 62
     0
100
AcDbPoint
 10
452.7267831936016
 20
325.5730589703049
 30
0.0
  0
POINT
  5
AA9
330
A27
100
AcDbEntity
  8
Defpoints
 62
     0
100
AcDbPoint
 10
452.7267831936016
 20
324.2999713079377
 30
0.0
  0
ENDBLK
  5
A29
330
A27
100
AcDbEntity
  8
0
100
AcDbBlockEnd
  0
BLOCK
  5
A36
330
A35
100
AcDbEntity
  8
0
100
AcDbBlockBegin
  2
*D21
 70
     1
 10
0.0
 20
0.0
 30
0.0
  3
*D21
  1

  0
LINE
  5
AAA
330
A35
100
AcDbEntity
  8
0
 62
     0
370
    -2
100
AcDbLine
 10
456.6400814447812
 20
320.0488390022733
 30
0.0
 11
456.6400814447812
 21
318.2304254948169
 31
0.0
  0
LINE
  5
AAB
330
A35
100
AcDbEntity
  8
0
 62
     0
370
    -2
100
AcDbLine
 10
451.9077207405651
 20
320.0488390022733
 30
0.0
 11
451.9077207405651
 21
318.2304254948169
 31
0.0
  0
LINE
  5
AAC
330
A35
100
AcDbEntity
  8
0
 62
     0
370
    -2
100
AcDbLine
 10
459.1400814447811
 20
319.4804254948169
 30
0.0
 11
461.6400814447811
 21
319.4804254948169
 31
0.0
  0
LINE
  5
AAD
330
A35
100
AcDbEntity
  8
0
 62
     0
370
    -2
100
AcDbLine
 10
449.407720740565
 20
319.4804254948169
 30
0.0
 11
434.657720740565
 21
319.4804254948169
 31
0.0
  0
LINE
  5
AAE
330
A35
100
AcDbEntity
  8
0
 62
     0
370
    -2
100
AcDbLine
 10
456.6400814447812
 20
319.4804254948169
 30
0.0
 11
451.9077207405651
 21
319.4804254948169
 31
0.0
  0
INSERT
  5
AAF
330
A35
100
AcDbEntity
  8
0
 62
     0
370
    -2
100
AcDbBlockReference
  2
_Open30
 10
456.6400814447812
 20
319.4804254948169
 30
0.0
 41
2.5
 42
2.5
 43
2.5
 50
180.0
  0
INSERT
  5
AB0
330
A35
100
AcDbEntity
  8
0
 62
     0
370
    -2
100
AcDbBlockReference
  2
_Open30
 10
451.9077207405651
 20
319.4804254948169
 30
0.0
 41
2.5
 42
2.5
 43
2.5
  0
MTEXT
  5
AB1
330
A35
100
AcDbEntity
  8
0
 62
     4
100
AcDbMText
 10
440.7827207405651
 20
321.6054254948169
 30
0.0
 40
3.0
 41
0.0
 71
     5
 72
     1
  1
18.93
 73
     1
 44
1.0
1001
ACAD
1000
MTEXTBEGIN
1070
    73
1070
     1
1070
    44
1040
1.0
1070
    74
1070
     0
1000
MTEXTEND
  0
POINT
  5
AB2
330
A35
100
AcDbEntity
  8
Defpoints
 62
     0
100
AcDbPoint
 10
456.6400814447812
 20
320.2988390022733
 30
0.0
  0
POINT
  5
AB3
330
A35
100
AcDbEntity
  8
Defpoints
 62
     0
100
AcDbPoint
 10
451.9077207405651
 20
320.2988390022733
 30
0.0
  0
POINT
  5
AB4
330
A35
100
AcDbEntity
  8
Defpoints
 62
     0
100
AcDbPoint
 10
451.9077207405651
 20
319.4804254948169
 30
0.0
  0
ENDBLK
  5
A37
330
A35
100
AcDbEntity
  8
0
100
AcDbBlockEnd
  0
BLOCK
  5
A44
330
A43
100
AcDbEntity
  8
0
100
AcDbBlockBegin
  2
*D22
 70
     1
 10
0.0
 20
0.0
 30
0.0
  3
*D22
  1

  0
LINE
  5
AB5
330
A43
100
AcDbEntity
  8
0
 62
     0
370
    -2
100
AcDbLine
 10
453.8356545936426
 20
314.9929987956836
 30
0.0
 11
453.8356545936426
 21
312.683077718808
 31
0.0
  0
LINE
  5
AB6
330
A43
100
AcDbEntity
  8
0
 62
     0
370
    -2
100
AcDbLine
 10
449.2469793914948
 20
314.9929987956836
 30
0.0
 11
449.2469793914948
 21
312.683077718808
 31
0.0
  0
LINE
  5
AB7
330
A43
100
AcDbEntity
  8
0
 62
     0
370
    -2
100
AcDbLine
 10
456.3356545936428
 20
313.933077718808
 30
0.0
 11
458.8356545936426
 21
313.933077718808
 31
0.0
  0
LINE
  5
AB8
330
A43
100
AcDbEntity
  8
0
 62
     0
370
    -2
100
AcDbLine
 10
446.746979391495
 20
313.933077718808
 30
0.0
 11
431.9969793914949
 21
313.933077718808
 31
0.0
  0
LINE
  5
AB9
330
A43
100
AcDbEntity
  8
0
 62
     0
370
    -2
100
AcDbLine
 10
453.8356545936426
 20
313.933077718808
 30
0.0
 11
449.2469793914948
 21
313.933077718808
 31
0.0
  0
INSERT
  5
ABA
330
A43
100
AcDbEntity
  8
0
 62
     0
370
    -2
100
AcDbBlockReference
  2
_Open30
 10
453.8356545936426
 20
313.933077718808
 30
0.0
 41
2.5
 42
2.5
 43
2.5
 50
180.0
  0
INSERT
  5
ABB
330
A43
100
AcDbEntity
  8
0
 62
     0
370
    -2
100
AcDbBlockReference
  2
_Open30
 10
449.2469793914948
 20
313.933077718808
 30
0.0
 41
2.5
 42
2.5
 43
2.5
  0
MTEXT
  5
ABC
330
A43
100
AcDbEntity
  8
0
 62
     4
100
AcDbMText
 10
438.1219793914949
 20
316.058077718808
 30
0.0
 40
3.0
 41
0.0
 71
     5
 72
     1
  1
13.77
 73
     1
 44
1.0
1001
ACAD
1000
MTEXTBEGIN
1070
    73
1070
     1
1070
    44
1040
1.0
1070
    74
1070
     0
1000
MTEXTEND
  0
POINT
  5
ABD
330
A43
100
AcDbEntity
  8
Defpoints
 62
     0
100
AcDbPoint
 10
453.8356545936426
 20
315.2429987956836
 30
0.0
  0
POINT
  5
ABE
330
A43
100
AcDbEntity
  8
Defpoints
 62
     0
100
AcDbPoint
 10
449.2469793914948
 20
315.2429987956836
 30
0.0
  0
POINT
  5
ABF
330
A43
100
AcDbEntity
  8
Defpoints
 62
     0
100
AcDbPoint
 10
449.2469793914948
 20
313.933077718808
 30
0.0
  0
ENDBLK
  5
A45
330
A43
100
AcDbEntity
  8
0
100
AcDbBlockEnd
  0
BLOCK
  5
A52
330
A51
100
AcDbEntity
  8
0
100
AcDbBlockBegin
  2
*D23
 70
     1
 10
0.0
 20
0.0
 30
0.0
  3
*D23
  1

  0
LINE
  5
AC0
330
A51
100
AcDbEntity
  8
0
 62
     0
370
    -2
100
AcDbLine
 10
446.7393717604925
 20
345.9224901139579
 30
0.0
 11
446.7393717604925
 21
353.3190235918957
 31
0.0
  0
LINE
  5
AC1
330
A51
100
AcDbEntity
  8
0
 62
     0
370
    -2
100
AcDbLine
 10
436.8008973910025
 20
345.9224901139579
 30
0.0
 11
436.8008973910025
 21
353.3190235918957
 31
0.0
  0
LINE
  5
AC2
330
A51
100
AcDbEntity
  8
0
 62
     0
370
    -2
100
AcDbLine
 10
444.2393717604923
 20
352.0690235918956
 30
0.0
 11
439.3008973910023
 21
352.0690235918956
 31
0.0
  0
INSERT
  5
AC3
330
A51
100
AcDbEntity
  8
0
 62
     0
370
    -2
100
AcDbBlockReference
  2
_Open30
 10
446.7393717604925
 20
352.0690235918956
 30
0.0
 41
2.5
 42
2.5
 43
2.5
  0
INSERT
  5
AC4
330
A51
100
AcDbEntity
  8
0
 62
     0
370
    -2
100
AcDbBlockReference
  2
_Open30
 10
436.8008973910025
 20
352.0690235918956
 30
0.0
 41
2.5
 42
2.5
 43
2.5
 50
180.0
  0
MTEXT
  5
AC5
330
A51
100
AcDbEntity
  8
0
 62
     4
100
AcDbMText
 10
441.7701345757475
 20
355.1440235918956
 30
0.0
 40
3.0
 41
0.0
 71
     5
 72
     1
  1
9.94\H0.7X;\S+0^ -0.02;
 73
     1
 44
1.0
1001
ACAD
1000
MTEXTBEGIN
1070
    73
1070
     1
1070
    44
1040
1.0
1070
    74
1070
     0
1000
MTEXTEND
  0
POINT
  5
AC6
330
A51
100
AcDbEntity
  8
Defpoints
 62
     0
100
AcDbPoint
 10
446.7393717604925
 20
345.6724901139579
 30
0.0
  0
POINT
  5
AC7
330
A51
100
AcDbEntity
  8
Defpoints
 62
     0
100
AcDbPoint
 10
436.8008973910025
 20
345.6724901139579
 30
0.0
  0
POINT
  5
AC8
330
A51
100
AcDbEntity
  8
Defpoints
 62
     0
100
AcDbPoint
 10
436.8008973910025
 20
352.0690235918956
 30
0.0
  0
ENDBLK
  5
A53
330
A51
100
AcDbEntity
  8
0
100
AcDbBlockEnd
  0
ENDSEC
  0
SECTION
  2
ENTITIES
  0
LINE
  5
86
330
36
100
AcDbEntity
  8
0
 62
     3
100
AcDbLine
 10
229.320384
 20
195.9621217090583
 30
0.0
 11
229.320384
 21
185.9621217090583
 31
0.0
  0
LINE
  5
87
330
36
100
AcDbEntity
  8
0
 62
     3
100
AcDbLine
 10
230.820384
 20
195.9621217090583
 30
0.0
 11
230.820384
 21
185.9621217090583
 31
0.0
  0
LINE
  5
88
330
36
100
AcDbEntity
  8
0
 62
     3
100
AcDbLine
 10
266.9870509999999
 20
185.9621217090583
 30
0.0
 11
266.9870509999999
 21
195.9621217090583
 31
0.0
  0
LINE
  5
89
330
36
100
AcDbEntity
  8
0
 62
     3
100
AcDbLine
 10
268.487051
 20
185.9621217090583
 30
0.0
 11
268.487051
 21
195.9621217090583
 31
0.0
  0
CIRCLE
  5
8A
330
36
100
AcDbEntity
  8
0
100
AcDbCircle
 10
276.570384
 20
190.9621217090581
 30
0.0
 40
1.666666999999999
  0
CIRCLE
  5
8B
330
36
100
AcDbEntity
  8
0
100
AcDbCircle
 10
258.903717
 20
190.9621217090581
 30
0.0
 40
1.666666999999999
  0
CIRCLE
  5
8C
330
36
100
AcDbEntity
  8
0
100
AcDbCircle
 10
238.903717
 20
190.9621217090581
 30
0.0
 40
1.666666999999999
  0
CIRCLE
  5
8D
330
36
100
AcDbEntity
  8
0
100
AcDbCircle
 10
221.237051
 20
190.9621217090581
 30
0.0
 40
1.666666999999999
  0
LINE
  5
AC
330
36
100
AcDbEntity
  8
0
 62
     3
100
AcDbLine
 10
62.516787
 20
161.071442
 30
0.0
 11
59.918711
 21
159.571442
 31
0.0
  0
LINE
  5
AD
330
36
100
AcDbEntity
  8
0
 62
     3
100
AcDbLine
 10
62.516787
 20
161.071442
 30
0.0
 11
59.918711
 21
162.571442
 31
0.0
  0
LINE
  5
AE
330
36
100
AcDbEntity
  8
0
 62
     3
100
AcDbLine
 10
59.918711
 20
159.571442
 30
0.0
 11
59.918711
 21
162.571442
 31
0.0
  0
LINE
  5
B1
330
36
100
AcDbEntity
  8
0
 62
     3
100
AcDbLine
 10
439.219348
 20
42.237165
 30
0.0
 11
439.219348
 21
65.23716500000002
 31
0.0
  0
LINE
  5
B3
330
36
100
AcDbEntity
  8
0
 62
     3
100
AcDbLine
 10
386.165738
 20
42.011653
 30
0.0
 11
386.165738
 21
49.23716500000001
 31
0.0
  0
LINE
  5
B5
330
36
100
AcDbEntity
  8
0
 62
     3
100
AcDbLine
 10
386.165738
 20
42.237165
 30
0.0
 11
386.165738
 21
35.23716500000001
 31
0.0
  0
TEXT
  5
B6
330
36
100
AcDbEntity
  8
0
 62
     3
100
AcDbText
 10
415.229666
 20
61.44228100000001
 30
0.0
 40
2.0
  1
A
 41
0.7
100
AcDbText
  0
TEXT
  5
B7
330
36
100
AcDbEntity
  8
0
 62
     3
100
AcDbText
 10
417.764952
 20
61.44228100000001
 30
0.0
 40
2.0
  1
P
 41
0.7
100
AcDbText
  0
TEXT
  5
B8
330
36
100
AcDbEntity
  8
0
 62
     3
100
AcDbText
 10
420.300238
 20
61.44228100000001
 30
0.0
 40
2.0
  1
P
 41
0.7
100
AcDbText
  0
TEXT
  5
B9
330
36
100
AcDbEntity
  8
0
 62
     3
100
AcDbText
 10
422.8355239999998
 20
61.44228100000001
 30
0.0
 40
2.0
  1
D
 41
0.7
100
AcDbText
  0
TEXT
  5
BA
330
36
100
AcDbEntity
  8
0
 62
     3
100
AcDbText
 10
428.2042070000001
 20
61.44228100000001
 30
0.0
 40
2.0
  1
C
 41
0.7
100
AcDbText
  0
TEXT
  5
BB
330
36
100
AcDbEntity
  8
0
 62
     3
100
AcDbText
 10
430.739494
 20
61.44228100000001
 30
0.0
 40
2.0
  1
H
 41
0.7
100
AcDbText
  0
TEXT
  5
BC
330
36
100
AcDbEntity
  8
0
 62
     3
100
AcDbText
 10
433.2747799999999
 20
61.44228100000001
 30
0.0
 40
2.0
  1
C
 41
0.7
100
AcDbText
  0
TEXT
  5
BD
330
36
100
AcDbEntity
  8
0
 62
     3
100
AcDbText
 10
435.8100659999998
 20
61.44228100000001
 30
0.0
 40
2.0
  1
K
 41
0.7
100
AcDbText
  0
TEXT
  5
BE
330
36
100
AcDbEntity
  8
0
 62
     3
100
AcDbText
 10
441.484033
 20
61.44228100000001
 30
0.0
 40
2.0
  1
DESN
 41
1.216762999999998
100
AcDbText
  0
TEXT
  5
BF
330
36
100
AcDbEntity
  8
0
 62
     3
100
AcDbText
 10
356.477674
 20
32.095783
 30
0.0
 40
2.0
  1
NICHIDO IND.CO.LTD
 41
1.274876
100
AcDbText
  0
LINE
  5
C3
330
36
100
AcDbEntity
  8
0
 62
     3
100
AcDbLine
 10
366.860703
 20
65.237165
 30
0.0
 11
366.860703
 21
42.237165
 31
0.0
  0
LINE
  5
C4
330
36
100
AcDbEntity
  8
0
 62
     3
100
AcDbLine
 10
413.2193479999998
 20
65.23716500000002
 30
0.0
 11
413.219348
 21
25.571442
 31
0.0
  0
LINE
  5
C9
330
36
100
AcDbEntity
  8
0
 62
     3
100
AcDbLine
 10
426.219348
 20
65.237165
 30
0.0
 11
426.219348
 21
35.23716500000001
 31
0.0
  0
TEXT
  5
CA
330
36
100
AcDbEntity
  8
0
 62
     3
100
AcDbText
 10
414.4978309999998
 20
36.942421
 30
0.0
 40
3.2
  1
作成日
 41
1.017225999999997
100
AcDbText
  0
LINE
  5
CB
330
36
100
AcDbEntity
  8
0
 62
     3
100
AcDbLine
 10
464.918711
 20
65.237165
 30
0.0
 11
353.615269
 21
65.237165
 31
0.0
  0
LINE
  5
CC
330
36
100
AcDbEntity
  8
0
 62
     3
100
AcDbLine
 10
464.918711
 20
56.237165
 30
0.0
 11
353.615269
 21
56.237165
 31
0.0
  0
LINE
  5
CD
330
36
100
AcDbEntity
  8
0
 62
     3
100
AcDbLine
 10
464.918711
 20
42.237165
 30
0.0
 11
353.615269
 21
42.237165
 31
0.0
  0
LINE
  5
CE
330
36
100
AcDbEntity
  8
0
 62
     3
100
AcDbLine
 10
464.918711
 20
35.23716500000001
 30
0.0
 11
353.615269
 21
35.23716500000001
 31
0.0
  0
LINE
  5
CF
330
36
100
AcDbEntity
  8
0
 62
     3
100
AcDbLine
 10
452.219348
 20
42.237165
 30
0.0
 11
452.219348
 21
65.237165
 31
0.0
  0
TEXT
  5
D0
330
36
100
AcDbEntity
  8
0
 62
     3
100
AcDbText
 10
455.543151
 20
61.528099
 30
0.0
 40
1.8
  1
D
 41
0.666667
100
AcDbText
  0
TEXT
  5
D1
330
36
100
AcDbEntity
  8
0
 62
     3
100
AcDbText
 10
458.3597789999998
 20
61.528099
 30
0.0
 40
1.8
  1
E
 41
0.666667
100
AcDbText
  0
TEXT
  5
D2
330
36
100
AcDbEntity
  8
0
 62
     3
100
AcDbText
 10
461.176407
 20
61.528099
 30
0.0
 40
1.8
  1
F
 41
0.666667
100
AcDbText
  0
TEXT
  5
D3
330
36
100
AcDbEntity
  8
0
 62
     3
100
AcDbText
 10
455.543151
 20
57.535546
 30
0.0
 40
3.2
  1
製図
 41
1.076369
100
AcDbText
  0
LINE
  5
D4
330
36
100
AcDbEntity
  8
0
 62
     3
100
AcDbLine
 10
353.615269
 20
65.237165
 30
0.0
 11
353.615269
 21
25.571442
 31
0.0
  0
TEXT
  5
D5
330
36
100
AcDbEntity
  8
0
 62
     3
100
AcDbText
 10
354.991921
 20
25.903907
 30
0.0
 40
5.0
  1
日動工業株式会社
 41
0.833333
100
AcDbText
  0
LINE
  5
D6
330
36
100
AcDbEntity
  8
0
 62
     3
100
AcDbLine
 10
396.497672
 20
49.23716500000002
 30
0.0
 11
396.497672
 21
25.571442
 31
0.0
  0
LINE
  5
D7
330
36
100
AcDbEntity
  8
0
 62
     3
100
AcDbLine
 10
396.497672
 20
30.40430300000001
 30
0.0
 11
413.219348
 21
30.40430300000001
 31
0.0
  0
TEXT
  5
D8
330
36
100
AcDbEntity
  8
0
 62
     3
100
AcDbText
 10
397.0842740000002
 20
31.220734
 30
0.0
 40
3.2
  1
出図コード
 41
0.8356860000000001
100
AcDbText
  0
TEXT
  5
D9
330
36
100
AcDbEntity
  8
0
 62
     3
100
AcDbText
 10
397.0842740000002
 20
26.387873
 30
0.0
 40
3.2
  1
HM-A3
 41
0.999426
100
AcDbText
  0
TEXT
  5
F6
330
36
100
AcDbEntity
  8
0
 62
     3
100
AcDbText
 10
369.3920032517767
 20
57.43906211480123
 30
0.0
 40
4.5
  1
デジタルインバーター直流溶接機
 41
0.5
  7
高4.5
100
AcDbText
  0
TEXT
  5
103
330
36
100
AcDbEntity
  8
0
 62
     3
100
AcDbText
 10
140.0259523051407
 20
156.3850657090583
 30
0.0
 40
4.5
  1
背　面　図
  7
高4.5
100
AcDbText
  0
LINE
  5
104
330
36
100
AcDbEntity
  8
0
100
AcDbLine
 10
139.8950208804208
 20
155.5010835542421
 30
0.0
 11
166.1168637299318
 21
155.5010835542421
 31
0.0
  0
LINE
  5
10B
330
36
100
AcDbEntity
  8
0
 62
     3
100
AcDbLine
 10
353.615269
 20
49.23716500000002
 30
0.0
 11
413.219348
 21
49.23716500000001
 31
0.0
  0
TEXT
  5
10C
330
36
100
AcDbEntity
  8
0
 62
     3
100
AcDbText
 10
360.871576701305
 20
67.43859499999999
 30
0.0
 40
4.5
  1
デジタル表示タイプ
  7
高4.5
100
AcDbText
  0
LINE
  5
10D
330
36
100
AcDbEntity
  8
0
100
AcDbLine
 10
360.4540925833742
 20
66.92689450788794
 30
0.0
 11
407.9724029999998
 21
66.92689450788794
 31
0.0
  0
TEXT
  5
114
330
36
100
AcDbEntity
  8
0
 62
     7
100
AcDbText
 10
310.8946007634425
 20
78.25405291853781
 30
0.0
 40
2.5
  1
＊出力側ケーブル（オプション）
  7
高2.5
100
AcDbText
  0
LINE
  5
115
330
36
100
AcDbEntity
  8
0
 62
     3
100
AcDbLine
 10
273.9836518193511
 20
25.571442
 30
0.0
 11
273.9836518193508
 21
105.571442
 31
0.0
  0
TEXT
  5
116
330
36
100
AcDbEntity
  8
0
 62
     3
100
AcDbText
 10
165.1420192186615
 20
26.071442
 30
0.0
 40
3.2
  1
個数
 41
0.8
  7
高3.2
100
AcDbText
  0
TEXT
  5
117
330
36
100
AcDbEntity
  8
0
 62
     3
100
AcDbText
 10
136.8823125848736
 20
26.071442
 30
0.0
 40
3.2
  1
備　　　　　考
 41
0.8
  7
高3.2
100
AcDbText
  0
TEXT
  5
118
330
36
100
AcDbEntity
  8
0
 62
     3
100
AcDbText
 10
118.789010946496
 20
26.071442
 30
0.0
 40
3.2
  1
材　　　質
 41
0.8
  7
高3.2
100
AcDbText
  0
TEXT
  5
119
330
36
100
AcDbEntity
  8
0
 62
     3
100
AcDbText
 10
85.1170567643134
 20
26.071442
 30
0.0
 40
3.2
  1
部　　品　　名
 41
0.8
  7
高3.2
100
AcDbText
  0
TEXT
  5
11A
330
36
100
AcDbEntity
  8
0
 62
     3
100
AcDbText
 10
76.418711
 20
26.071442
 30
0.0
 40
3.2
  1
No
 41
0.8
  7
高3.2
100
AcDbText
  0
TEXT
  5
11B
330
36
100
AcDbEntity
  8
0
 62
     3
100
AcDbText
 10
165.1420192186615
 20
86.07144200000002
 30
0.0
 40
3.2
  1
1
 41
0.8
  7
高3.2
100
AcDbText
  0
TEXT
  5
11C
330
36
100
AcDbEntity
  8
0
 62
     3
100
AcDbText
 10
165.1420192186615
 20
96.07144200000002
 30
0.0
 40
3.2
  1
1
 41
0.8
  7
高3.2
100
AcDbText
  0
TEXT
  5
11D
330
36
100
AcDbEntity
  8
0
 62
     3
100
AcDbText
 10
165.1420192186615
 20
36.071442
 30
0.0
 40
3.2
  1
1
 41
0.8
  7
高3.2
100
AcDbText
  0
TEXT
  5
11E
330
36
100
AcDbEntity
  8
0
 62
     3
100
AcDbText
 10
165.1420192186615
 20
51.071442
 30
0.0
 40
3.2
  1
1
 41
0.8
  7
高3.2
100
AcDbText
  0
TEXT
  5
11F
330
36
100
AcDbEntity
  8
0
 62
     3
100
AcDbText
 10
165.1420192186615
 20
31.071442
 30
0.0
 40
3.2
  1
1
 41
0.8
  7
高3.2
100
AcDbText
  0
TEXT
  5
120
330
36
100
AcDbEntity
  8
0
 62
     3
100
AcDbText
 10
165.1420192186615
 20
46.07144199999999
 30
0.0
 40
3.2
  1
3
 41
0.8
  7
高3.2
100
AcDbText
  0
TEXT
  5
121
330
36
100
AcDbEntity
  8
0
 62
     3
100
AcDbText
 10
165.1420192186615
 20
61.07144200000002
 30
0.0
 40
3.2
  1
1
 41
0.8
  7
高3.2
100
AcDbText
  0
TEXT
  5
122
330
36
100
AcDbEntity
  8
0
 62
     3
100
AcDbText
 10
165.1420192186615
 20
41.07144199999999
 30
0.0
 40
3.2
  1
1
 41
0.8
  7
高3.2
100
AcDbText
  0
TEXT
  5
123
330
36
100
AcDbEntity
  8
0
 62
     3
100
AcDbText
 10
165.1420192186615
 20
66.07144200000002
 30
0.0
 40
3.2
  1
1
 41
0.8
  7
高3.2
100
AcDbText
  0
LINE
  5
124
330
36
100
AcDbEntity
  8
0
100
AcDbLine
 10
163.6420192186615
 20
25.571442
 30
0.0
 11
163.6420192186615
 21
105.571442
 31
0.0
  0
TEXT
  5
125
330
36
100
AcDbEntity
  8
0
 62
     3
100
AcDbText
 10
165.1420192186615
 20
81.07144200000002
 30
0.0
 40
3.2
  1
4
 41
0.8
  7
高3.2
100
AcDbText
  0
TEXT
  5
126
330
36
100
AcDbEntity
  8
0
 62
     3
100
AcDbText
 10
165.1420192186615
 20
91.07144200000002
 30
0.0
 40
3.2
  1
1
 41
0.8
  7
高3.2
100
AcDbText
  0
TEXT
  5
127
330
36
100
AcDbEntity
  8
0
 62
     3
100
AcDbText
 10
165.1420192186615
 20
71.07144200000002
 30
0.0
 40
3.2
  1
2
 41
0.8
  7
高3.2
100
AcDbText
  0
TEXT
  5
128
330
36
100
AcDbEntity
  8
0
 62
     3
100
AcDbText
 10
165.1420192186615
 20
76.07144200000002
 30
0.0
 40
3.2
  1
2
 41
0.8
  7
高3.2
100
AcDbText
  0
TEXT
  5
129
330
36
100
AcDbEntity
  8
0
 62
     3
100
AcDbText
 10
76.418711
 20
36.071442
 30
0.0
 40
3.2
  1
2
 41
0.8
  7
高3.2
100
AcDbText
  0
TEXT
  5
12A
330
36
100
AcDbEntity
  8
0
 62
     3
100
AcDbText
 10
76.418711
 20
41.07144199999999
 30
0.0
 40
3.2
  1
3
 41
0.8
  7
高3.2
100
AcDbText
  0
TEXT
  5
12B
330
36
100
AcDbEntity
  8
0
 62
     3
100
AcDbText
 10
76.418711
 20
46.07144199999999
 30
0.0
 40
3.2
  1
4
 41
0.8
  7
高3.2
100
AcDbText
  0
TEXT
  5
12C
330
36
100
AcDbEntity
  8
0
 62
     3
100
AcDbText
 10
76.418711
 20
51.071442
 30
0.0
 40
3.2
  1
5
 41
0.8
  7
高3.2
100
AcDbText
  0
TEXT
  5
12D
330
36
100
AcDbEntity
  8
0
 62
     3
100
AcDbText
 10
76.418711
 20
61.07144200000002
 30
0.0
 40
3.2
  1
6
 41
0.8
  7
高3.2
100
AcDbText
  0
TEXT
  5
12E
330
36
100
AcDbEntity
  8
0
 62
     3
100
AcDbText
 10
76.418711
 20
66.071442
 30
0.0
 40
3.2
  1
7
 41
0.8
  7
高3.2
100
AcDbText
  0
TEXT
  5
12F
330
36
100
AcDbEntity
  8
0
 62
     3
100
AcDbText
 10
76.418711
 20
71.07144200000002
 30
0.0
 40
3.2
  1
8
 41
0.8
  7
高3.2
100
AcDbText
  0
TEXT
  5
130
330
36
100
AcDbEntity
  8
0
 62
     3
100
AcDbText
 10
76.418711
 20
31.07144199999999
 30
0.0
 40
3.2
  1
1
 41
0.8
  7
高3.2
100
AcDbText
  0
TEXT
  5
131
330
36
100
AcDbEntity
  8
0
 62
     3
100
AcDbText
 10
76.418711
 20
76.07144199999997
 30
0.0
 40
3.2
  1
9
 41
0.8
  7
高3.2
100
AcDbText
  0
TEXT
  5
132
330
36
100
AcDbEntity
  8
0
 62
     3
100
AcDbText
 10
76.418711
 20
81.07144200000002
 30
0.0
 40
3.2
  1
10
 41
0.8
  7
高3.2
100
AcDbText
  0
TEXT
  5
133
330
36
100
AcDbEntity
  8
0
 62
     3
100
AcDbText
 10
76.418711
 20
86.07144200000002
 30
0.0
 40
3.2
  1
11
 41
0.8
  7
高3.2
100
AcDbText
  0
TEXT
  5
134
330
36
100
AcDbEntity
  8
0
 62
     3
100
AcDbText
 10
76.418711
 20
91.07144200000002
 30
0.0
 40
3.2
  1
12
 41
0.8
  7
高3.2
100
AcDbText
  0
TEXT
  5
135
330
36
100
AcDbEntity
  8
0
 62
     3
100
AcDbText
 10
85.1170567643134
 20
86.07144200000002
 30
0.0
 40
3.2
  1
冷却ファン
 41
0.8
  7
高3.2
100
AcDbText
  0
TEXT
  5
136
330
36
100
AcDbEntity
  8
0
 62
     3
100
AcDbText
 10
118.789010946496
 20
71.07144200000002
 30
0.0
 40
3.2
  1
C2680H
 41
0.8
  7
高3.2
100
AcDbText
  0
TEXT
  5
137
330
36
100
AcDbEntity
  8
0
 62
     3
100
AcDbText
 10
118.789010946496
 20
46.07144199999999
 30
0.0
 40
3.2
  1
LED
 41
0.8
  7
高3.2
100
AcDbText
  0
TEXT
  5
138
330
36
100
AcDbEntity
  8
0
 62
     3
100
AcDbText
 10
85.1170567643134
 20
96.07144200000002
 30
0.0
 40
3.2
  1
入力電線
 41
0.8
  7
高3.2
100
AcDbText
  0
TEXT
  5
13A
330
36
100
AcDbEntity
  8
0
 62
     3
100
AcDbText
 10
136.8823125848736
 20
46.07144199999999
 30
0.0
 40
3.2
  1
電源　溶接　過熱
 41
0.8
  7
高3.2
100
AcDbText
  0
TEXT
  5
13C
330
36
100
AcDbEntity
  8
0
 62
     3
100
AcDbText
 10
85.1170567643134
 20
36.071442
 30
0.0
 40
3.2
  1
パネル
 41
0.8
  7
高3.2
100
AcDbText
  0
TEXT
  5
13D
330
36
100
AcDbEntity
  8
0
 62
     3
100
AcDbText
 10
85.1170567643134
 20
46.07144199999999
 30
0.0
 40
3.2
  1
表示ランプ
 41
0.8
  7
高3.2
100
AcDbText
  0
TEXT
  5
13E
330
36
100
AcDbEntity
  8
0
 62
     3
100
AcDbText
 10
85.1170567643134
 20
31.071442
 30
0.0
 40
3.2
  1
本体ケース
 41
0.8
  7
高3.2
100
AcDbText
  0
TEXT
  5
13F
330
36
100
AcDbEntity
  8
0
 62
     3
100
AcDbText
 10
85.1170567643134
 20
51.071442
 30
0.0
 40
3.2
  1
出力電流表示
 41
0.8
  7
高3.2
100
AcDbText
  0
TEXT
  5
140
330
36
100
AcDbEntity
  8
0
 62
     3
100
AcDbText
 10
85.1170567643134
 20
66.07144200000002
 30
0.0
 40
3.2
  1
出力電流調節ダイヤル
 41
0.8
  7
高3.2
100
AcDbText
  0
TEXT
  5
141
330
36
100
AcDbEntity
  8
0
 62
     3
100
AcDbText
 10
136.8823125848736
 20
51.071442
 30
0.0
 40
3.2
  1
デジタルパネル
 41
0.8
  7
高3.2
100
AcDbText
  0
TEXT
  5
142
330
36
100
AcDbEntity
  8
0
 62
     3
100
AcDbText
 10
85.1170567643134
 20
41.07144199999999
 30
0.0
 40
3.2
  1
電源スイッチ
 41
0.8
  7
高3.2
100
AcDbText
  0
TEXT
  5
143
330
36
100
AcDbEntity
  8
0
 62
     3
100
AcDbText
 10
85.1170567643134
 20
61.07144200000002
 30
0.0
 40
3.2
  1
電撃防止スイッチ
 41
0.8
  7
高3.2
100
AcDbText
  0
TEXT
  5
144
330
36
100
AcDbEntity
  8
0
 62
     3
100
AcDbText
 10
85.1170567643134
 20
71.07144200000002
 30
0.0
 40
3.2
  1
出力端子
 41
0.8
  7
高3.2
100
AcDbText
  0
TEXT
  5
145
330
36
100
AcDbEntity
  8
0
 62
     3
100
AcDbText
 10
136.8823125848736
 20
61.07144200000002
 30
0.0
 40
3.2
  1
スライド型
 41
0.8
  7
高3.2
100
AcDbText
  0
TEXT
  5
147
330
36
100
AcDbEntity
  8
0
 62
     3
100
AcDbText
 10
118.789010946496
 20
31.071442
 30
0.0
 40
3.2
  1
SPCC
 41
0.8
  7
高3.2
100
AcDbText
  0
TEXT
  5
148
330
36
100
AcDbEntity
  8
0
 62
     3
100
AcDbText
 10
118.789010946496
 20
36.071442
 30
0.0
 40
3.2
  1
SPCC
 41
0.8
  7
高3.2
100
AcDbText
  0
LINE
  5
149
330
36
100
AcDbEntity
  8
0
100
AcDbLine
 10
135.3823125848736
 20
25.571442
 30
0.0
 11
135.3823125848736
 21
105.571442
 31
0.0
  0
LINE
  5
14A
330
36
100
AcDbEntity
  8
0
100
AcDbLine
 10
117.289010946496
 20
25.571442
 30
0.0
 11
117.289010946496
 21
105.571442
 31
0.0
  0
LINE
  5
14B
330
36
100
AcDbEntity
  8
0
100
AcDbLine
 10
83.61705676431339
 20
25.571442
 30
0.0
 11
83.61705676431339
 21
105.571442
 31
0.0
  0
TEXT
  5
14C
330
36
100
AcDbEntity
  8
0
 62
     3
100
AcDbText
 10
118.789010946496
 20
81.07144200000002
 30
0.0
 40
3.2
  1
合成ゴム
 41
0.8
  7
高3.2
100
AcDbText
  0
TEXT
  5
14D
330
36
100
AcDbEntity
  8
0
 62
     3
100
AcDbText
 10
85.1170567643134
 20
81.07144200000002
 30
0.0
 40
3.2
  1
ゴム足
 41
0.8
  7
高3.2
100
AcDbText
  0
TEXT
  5
14E
330
36
100
AcDbEntity
  8
0
 62
     3
100
AcDbText
 10
85.1170567643134
 20
91.07144200000002
 30
0.0
 40
3.2
  1
取っ手
 41
0.8
  7
高3.2
100
AcDbText
  0
TEXT
  5
14F
330
36
100
AcDbEntity
  8
0
 62
     3
100
AcDbText
 10
76.418711
 20
96.07144200000002
 30
0.0
 40
3.2
  1
13
 41
0.8
  7
高3.2
100
AcDbText
  0
TEXT
  5
150
330
36
100
AcDbEntity
  8
0
 62
     3
100
AcDbText
 10
85.1170567643134
 20
76.07144200000002
 30
0.0
 40
3.2
  1
端子保護カバー
 41
0.8
  7
高3.2
100
AcDbText
  0
TEXT
  5
151
330
36
100
AcDbEntity
  8
0
 62
     3
100
AcDbText
 10
118.789010946496
 20
76.07144200000002
 30
0.0
 40
3.2
  1
PP樹脂
 41
0.8
  7
高3.2
100
AcDbText
  0
TEXT
  5
152
330
36
100
AcDbEntity
  8
0
 62
     3
100
AcDbText
 10
136.8823125848736
 20
36.071442
 30
0.0
 40
3.2
  1
シルク印刷
 41
0.8
  7
高3.2
100
AcDbText
  0
TEXT
  5
153
330
36
100
AcDbEntity
  8
0
 62
     3
100
AcDbText
 10
136.8823125848736
 20
76.07144200000002
 30
0.0
 40
3.2
  1
（付属品）
 41
0.8
  7
高3.2
100
AcDbText
  0
LINE
  5
159
330
36
100
AcDbEntity
  8
0
 62
     3
100
AcDbLine
 10
439.219348
 20
65.237165
 30
0.0
 11
439.219348
 21
71.237165
 31
0.0
  0
LINE
  5
15A
330
36
100
AcDbEntity
  8
0
 62
     3
100
AcDbLine
 10
413.219348
 20
65.237165
 30
0.0
 11
413.219348
 21
71.237165
 31
0.0
  0
LINE
  5
15B
330
36
100
AcDbEntity
  8
0
 62
     3
100
AcDbLine
 10
464.918711
 20
71.237165
 30
0.0
 11
413.219348
 21
71.237165
 31
0.0
  0
LINE
  5
15C
330
36
100
AcDbEntity
  8
0
 62
     3
100
AcDbLine
 10
74.918711
 20
30.571442
 30
0.0
 11
273.9836518193511
 21
30.571442
 31
0.0
  0
LINE
  5
15D
330
36
100
AcDbEntity
  8
0
100
AcDbLine
 10
74.918711
 20
35.57144200000001
 30
0.0
 11
273.9836518193511
 21
35.57144200000001
 31
0.0
  0
LINE
  5
15E
330
36
100
AcDbEntity
  8
0
100
AcDbLine
 10
74.918711
 20
40.57144199999997
 30
0.0
 11
273.9836518193511
 21
40.57144199999997
 31
0.0
  0
LINE
  5
15F
330
36
100
AcDbEntity
  8
0
100
AcDbLine
 10
74.918711
 20
45.57144199999998
 30
0.0
 11
273.9836518193511
 21
45.57144199999998
 31
0.0
  0
LINE
  5
160
330
36
100
AcDbEntity
  8
0
100
AcDbLine
 10
74.918711
 20
50.57144199999999
 30
0.0
 11
273.9836518193511
 21
50.57144199999999
 31
0.0
  0
LINE
  5
161
330
36
100
AcDbEntity
  8
0
100
AcDbLine
 10
135.3823125848736
 20
55.571442
 30
0.0
 11
273.9836518193511
 21
55.571442
 31
0.0
  0
LINE
  5
162
330
36
100
AcDbEntity
  8
0
100
AcDbLine
 10
74.918711
 20
60.571442
 30
0.0
 11
273.9836518193511
 21
60.571442
 31
0.0
  0
LINE
  5
163
330
36
100
AcDbEntity
  8
0
100
AcDbLine
 10
74.918711
 20
65.571442
 30
0.0
 11
273.9836518193511
 21
65.571442
 31
0.0
  0
LINE
  5
164
330
36
100
AcDbEntity
  8
0
100
AcDbLine
 10
74.918711
 20
75.571442
 30
0.0
 11
273.9836518193511
 21
75.571442
 31
0.0
  0
LINE
  5
165
330
36
100
AcDbEntity
  8
0
100
AcDbLine
 10
74.918711
 20
80.57144200000001
 30
0.0
 11
273.9836518193511
 21
80.57144200000001
 31
0.0
  0
LINE
  5
166
330
36
100
AcDbEntity
  8
0
100
AcDbLine
 10
74.918711
 20
85.57144200000001
 30
0.0
 11
273.9836518193511
 21
85.57144200000001
 31
0.0
  0
LINE
  5
167
330
36
100
AcDbEntity
  8
0
100
AcDbLine
 10
74.918711
 20
70.571442
 30
0.0
 11
273.9836518193511
 21
70.571442
 31
0.0
  0
LINE
  5
168
330
36
100
AcDbEntity
  8
0
100
AcDbLine
 10
74.918711
 20
90.57144200000001
 30
0.0
 11
273.9836518193511
 21
90.57144200000001
 31
0.0
  0
LINE
  5
169
330
36
100
AcDbEntity
  8
0
 62
     3
100
AcDbLine
 10
74.918711
 20
299.571442
 30
0.0
 11
74.918711
 21
25.571442
 31
0.0
  0
LINE
  5
16A
330
36
100
AcDbEntity
  8
0
 62
     3
100
AcDbLine
 10
464.918711
 20
25.571442
 30
0.0
 11
464.918711
 21
299.571442
 31
0.0
  0
LINE
  5
16B
330
36
100
AcDbEntity
  8
0
 62
     3
100
AcDbLine
 10
74.918711
 20
299.571442
 30
0.0
 11
464.918711
 21
299.571442
 31
0.0
  0
LINE
  5
16C
330
36
100
AcDbEntity
  8
0
 62
     3
100
AcDbLine
 10
74.918711
 20
25.571442
 30
0.0
 11
464.918711
 21
25.571442
 31
0.0
  0
TEXT
  5
16D
330
36
100
AcDbEntity
  8
0
 62
     3
100
AcDbText
 10
355.432665
 20
61.40669
 30
0.0
 40
2.0
  1
CONPONENTS
 41
0.5331600000000001
100
AcDbText
  0
TEXT
  5
16E
330
36
100
AcDbEntity
  8
0
 62
     3
100
AcDbText
 10
355.082939
 20
42.474514
 30
0.0
 40
3.0
  1
材
 41
0.833333
100
AcDbText
  0
TEXT
  5
16F
330
36
100
AcDbEntity
  8
0
 62
     3
100
AcDbText
 10
362.618581
 20
42.474514
 30
0.0
 40
3.0
  1
質
 41
0.833333
100
AcDbText
  0
TEXT
  5
170
330
36
100
AcDbEntity
  8
0
 62
     3
100
AcDbText
 10
355.171009
 20
53.099038
 30
0.0
 40
2.0
  1
MODEL
 41
1.031072999999999
100
AcDbText
  0
TEXT
  5
171
330
36
100
AcDbEntity
  8
0
 62
     3
100
AcDbText
 10
355.082939
 20
46.156822
 30
0.0
 40
2.0
  1
MATERIAL
 41
0.659278
100
AcDbText
  0
TEXT
  5
172
330
36
100
AcDbEntity
  8
0
 62
     3
100
AcDbText
 10
386.390219
 20
42.474514
 30
0.0
 40
3.0
  1
備
 41
0.833333
100
AcDbText
  0
TEXT
  5
173
330
36
100
AcDbEntity
  8
0
 62
     3
100
AcDbText
 10
393.123221
 20
42.474514
 30
0.0
 40
3.0
  1
考
 41
0.833333
100
AcDbText
  0
TEXT
  5
174
330
36
100
AcDbEntity
  8
0
 62
     3
100
AcDbText
 10
386.6865336318167
 20
46.156822
 30
0.0
 40
2.0
  1
REMARKS
 41
0.675794
100
AcDbText
  0
TEXT
  5
175
330
36
100
AcDbEntity
  8
0
 62
     3
100
AcDbText
 10
356.672668
 20
39.23670100000001
 30
0.0
 40
2.0
  1
3AD
 41
1.42614
100
AcDbText
  0
TEXT
  5
176
330
36
100
AcDbEntity
  8
0
 62
     3
100
AcDbText
 10
365.983648
 20
39.402435
 30
0.0
 40
2.0
  1
ANGLE
 41
1.669883999999995
100
AcDbText
  0
TEXT
  5
177
330
36
100
AcDbEntity
  8
0
 62
     3
100
AcDbText
 10
386.917535
 20
39.025594
 30
0.0
 40
2.0
  1
SCALE
 41
0.7719630000000001
100
AcDbText
  0
TEXT
  5
178
330
36
100
AcDbEntity
  8
0
 62
     3
100
AcDbText
 10
356.358798
 20
35.23716500000001
 30
0.0
 40
3.0
  1
第
 41
0.833333
100
AcDbText
  0
TEXT
  5
179
330
36
100
AcDbEntity
  8
0
 62
     3
100
AcDbText
 10
364.145648
 20
35.23716500000001
 30
0.0
 40
3.0
  1
三
 41
0.833333
100
AcDbText
  0
TEXT
  5
17A
330
36
100
AcDbEntity
  8
0
 62
     3
100
AcDbText
 10
371.932498
 20
35.23716500000001
 30
0.0
 40
3.0
  1
角
 41
0.833333
100
AcDbText
  0
TEXT
  5
17B
330
36
100
AcDbEntity
  8
0
 62
     3
100
AcDbText
 10
379.719348
 20
35.23716500000001
 30
0.0
 40
3.0
  1
法
 41
0.833333
100
AcDbText
  0
TEXT
  5
17C
330
36
100
AcDbEntity
  8
0
 62
     3
100
AcDbText
 10
386.78074
 20
35.525594
 30
0.0
 40
3.0
  1
尺
 41
0.833333
100
AcDbText
  0
TEXT
  5
17D
330
36
100
AcDbEntity
  8
0
 62
     3
100
AcDbText
 10
393.513741
 20
35.525594
 30
0.0
 40
3.0
  1
度
 41
0.833333
100
AcDbText
  0
TEXT
  5
17F
330
36
100
AcDbEntity
  8
0
 62
     3
100
AcDbText
 10
416.0970119999998
 20
57.694893
 30
0.0
 40
3.0
  1
承認
 41
1.089472999999999
100
AcDbText
  0
TEXT
  5
180
330
36
100
AcDbEntity
  8
0
 62
     3
100
AcDbText
 10
429.339892
 20
57.63716500000001
 30
0.0
 40
3.0
  1
検図
 41
0.931761
100
AcDbText
  0
TEXT
  5
181
330
36
100
AcDbEntity
  8
0
 62
     3
100
AcDbText
 10
442.340289
 20
57.63716500000001
 30
0.0
 40
3.0
  1
設
 41
0.833333
100
AcDbText
  0
TEXT
  5
182
330
36
100
AcDbEntity
  8
0
 62
     3
100
AcDbText
 10
446.830157
 20
57.63716500000001
 30
0.0
 40
3.0
  1
計
 41
0.833333
100
AcDbText
  0
TEXT
  5
183
330
36
100
AcDbEntity
  8
0
 62
     3
100
AcDbText
 10
355.502772
 20
57.80971700000001
 30
0.0
 40
3.0
  1
品
 41
0.833333
100
AcDbText
  0
TEXT
  5
184
330
36
100
AcDbEntity
  8
0
 62
     3
100
AcDbText
 10
363.038414
 20
57.80971700000001
 30
0.0
 40
3.0
  1
名
 41
0.833333
100
AcDbText
  0
TEXT
  5
185
330
36
100
AcDbEntity
  8
0
 62
     3
100
AcDbText
 10
355.171009
 20
49.54199151504862
 30
0.0
 40
3.0
  1
型
 41
0.833333
100
AcDbText
  0
TEXT
  5
186
330
36
100
AcDbEntity
  8
0
 62
     3
100
AcDbText
 10
362.7191
 20
49.54199151504862
 30
0.0
 40
3.0
  1
式
 41
0.833333
100
AcDbText
  0
LINE
  5
187
330
36
100
AcDbEntity
  8
0
 62
     3
100
AcDbLine
 10
303.890402
 20
263.6287887090584
 30
0.0
 11
450.5570689999998
 21
263.6287887090584
 31
0.0
  0
LINE
  5
188
330
36
100
AcDbEntity
  8
0
 62
     3
100
AcDbLine
 10
310.557069
 20
178.6287887090583
 30
0.0
 11
450.5570689999998
 21
178.6287887090583
 31
0.0
  0
ARC
  5
189
330
36
100
AcDbEntity
  8
0
 62
     3
100
AcDbCircle
 10
279.403717
 20
258.6287887090584
 30
0.0
 40
5.0
100
AcDbArc
 50
0.0
 51
90.0
  0
ARC
  5
18A
330
36
100
AcDbEntity
  8
0
 62
     3
100
AcDbCircle
 10
218.403717
 20
258.6287887090584
 30
0.0
 40
5.0
100
AcDbArc
 50
90.0
 51
180.0
  0
CIRCLE
  5
18B
330
36
100
AcDbEntity
  8
0
 62
     3
100
AcDbCircle
 10
169.102275
 20
227.6287887090583
 30
0.0
 40
1.333333
  0
CIRCLE
  5
18C
330
36
100
AcDbEntity
  8
0
 62
     3
100
AcDbCircle
 10
134.435608
 20
227.6287887090583
 30
0.0
 40
1.333333
  0
CIRCLE
  5
18D
330
36
100
AcDbEntity
  8
0
 62
     3
100
AcDbCircle
 10
134.435608
 20
192.9621217090583
 30
0.0
 40
1.333333
  0
CIRCLE
  5
18E
330
36
100
AcDbEntity
  8
0
 62
     3
100
AcDbCircle
 10
169.102275
 20
192.9621217090583
 30
0.0
 40
1.333333
  0
CIRCLE
  5
18F
330
36
100
AcDbEntity
  8
0
 62
     3
100
AcDbCircle
 10
151.768942
 20
210.2954547090583
 30
0.0
 40
6.523705
  0
LINE
  5
190
330
36
100
AcDbEntity
  8
0
 62
     3
100
AcDbLine
 10
433.057069
 20
265.3946257090585
 30
0.0
 11
433.057069
 21
263.6287887090584
 31
0.0
  0
LINE
  5
191
330
36
100
AcDbEntity
  8
0
 62
     3
100
AcDbLine
 10
416.390402
 20
267.6287887090584
 30
0.0
 11
416.390402
 21
263.6287887090584
 31
0.0
  0
LINE
  5
192
330
36
100
AcDbEntity
  8
0
 62
     3
100
AcDbLine
 10
431.302214
 20
267.6287887090584
 30
0.0
 11
416.390402
 21
267.6287887090584
 31
0.0
  0
LINE
  5
193
330
36
100
AcDbEntity
  8
0
 62
     3
100
AcDbLine
 10
432.588746
 20
265.8910897090583
 30
0.0
 11
431.897511
 21
267.2622297090584
 31
0.0
  0
ARC
  5
194
330
36
100
AcDbEntity
  8
0
 62
     3
100
AcDbCircle
 10
431.302214
 20
266.9621217090585
 30
0.0
 40
0.666667
100
AcDbArc
 50
26.754114
 51
90.0
  0
ARC
  5
195
330
36
100
AcDbEntity
  8
0
 62
     3
100
AcDbCircle
 10
432.7237349999998
 20
265.3946257090585
 30
0.0
 40
0.333333
100
AcDbArc
 50
0.0
 51
75.87786099999998
  0
ARC
  5
196
330
36
100
AcDbEntity
  8
0
 62
     3
100
AcDbCircle
 10
432.8863949999997
 20
266.0411447090585
 30
0.0
 40
0.333333
100
AcDbArc
 50
206.754114
 51
255.877861
  0
ARC
  5
197
330
36
100
AcDbEntity
  8
0
  6
DASHED
 62
    15
100
AcDbCircle
 10
432.7237349999998
 20
265.3946257090585
 30
0.0
 40
0.333333
100
AcDbArc
 50
75.87786099999998
 51
90.0
  0
LINE
  5
198
330
36
100
AcDbEntity
  8
0
 62
     3
100
AcDbLine
 10
321.390402
 20
265.3946257090585
 30
0.0
 11
321.390402
 21
263.6287887090584
 31
0.0
  0
LINE
  5
199
330
36
100
AcDbEntity
  8
0
 62
     3
100
AcDbLine
 10
338.057069
 20
267.6287887090584
 30
0.0
 11
338.057069
 21
263.6287887090584
 31
0.0
  0
LINE
  5
19A
330
36
100
AcDbEntity
  8
0
 62
     3
100
AcDbLine
 10
323.145257
 20
267.6287887090584
 30
0.0
 11
338.057069
 21
267.6287887090584
 31
0.0
  0
LINE
  5
19B
330
36
100
AcDbEntity
  8
0
 62
     3
100
AcDbLine
 10
321.858725
 20
265.8910897090583
 30
0.0
 11
322.54996
 21
267.2622297090584
 31
0.0
  0
ARC
  5
19C
330
36
100
AcDbEntity
  8
0
 62
     3
100
AcDbCircle
 10
323.145257
 20
266.9621217090585
 30
0.0
 40
0.666667
100
AcDbArc
 50
90.0
 51
153.245886
  0
ARC
  5
19D
330
36
100
AcDbEntity
  8
0
 62
     3
100
AcDbCircle
 10
321.723735
 20
265.3946257090585
 30
0.0
 40
0.333333
100
AcDbArc
 50
104.122139
 51
180.0
  0
ARC
  5
19E
330
36
100
AcDbEntity
  8
0
 62
     3
100
AcDbCircle
 10
321.561075
 20
266.0411447090585
 30
0.0
 40
0.333333
100
AcDbArc
 50
284.122139
 51
333.245886
  0
ARC
  5
19F
330
36
100
AcDbEntity
  8
0
  6
DASHED
 62
    15
100
AcDbCircle
 10
321.723735
 20
265.3946257090585
 30
0.0
 40
0.333333
100
AcDbArc
 50
90.0
 51
104.122139
  0
LINE
  5
1A0
330
36
100
AcDbEntity
  8
0
 62
     3
100
AcDbLine
 10
255.570384
 20
265.4173597090584
 30
0.0
 11
255.570384
 21
263.6287887090584
 31
0.0
  0
ARC
  5
1A1
330
36
100
AcDbEntity
  8
0
 62
     3
100
AcDbCircle
 10
254.3832
 20
266.9621217090585
 30
0.0
 40
0.666667
100
AcDbArc
 50
14.03624299999999
 51
90.0
  0
LINE
  5
1A2
330
36
100
AcDbEntity
  8
0
 62
     3
100
AcDbLine
 10
255.029962
 20
267.1238127090585
 30
0.0
 11
255.260992
 21
265.7506927090585
 31
0.0
  0
ARC
  5
1A3
330
36
100
AcDbEntity
  8
0
 62
     3
100
AcDbCircle
 10
255.237051
 20
265.4173597090584
 30
0.0
 40
0.333333
100
AcDbArc
 50
0.0
 51
90.0
  0
LINE
  5
1A4
330
36
100
AcDbEntity
  8
0
 62
     3
100
AcDbLine
 10
243.424235
 20
267.6287887090584
 30
0.0
 11
254.3832
 21
267.6287887090584
 31
0.0
  0
ARC
  5
1A5
330
36
100
AcDbEntity
  8
0
 62
     3
100
AcDbCircle
 10
243.424235
 20
266.9621217090585
 30
0.0
 40
0.666667
100
AcDbArc
 50
90.0
 51
165.963757
  0
LINE
  5
1A6
330
36
100
AcDbEntity
  8
0
 62
     3
100
AcDbLine
 10
242.777473
 20
267.1238127090585
 30
0.0
 11
242.546443
 21
265.7506927090585
 31
0.0
  0
ARC
  5
1A7
330
36
100
AcDbEntity
  8
0
 62
     3
100
AcDbCircle
 10
242.570384
 20
265.4173597090584
 30
0.0
 40
0.333333
100
AcDbArc
 50
90.0
 51
180.0
  0
LINE
  5
1A8
330
36
100
AcDbEntity
  8
0
 62
     3
100
AcDbLine
 10
242.237051
 20
265.4173597090584
 30
0.0
 11
242.237051
 21
263.6287887090584
 31
0.0
  0
ARC
  5
1A9
330
36
100
AcDbEntity
  8
0
 62
     3
100
AcDbCircle
 10
146.289459
 20
266.9621217090585
 30
0.0
 40
0.666667
100
AcDbArc
 50
90.0
 51
165.963757
  0
LINE
  5
1AA
330
36
100
AcDbEntity
  8
0
 62
     3
100
AcDbLine
 10
145.642698
 20
267.1238127090585
 30
0.0
 11
145.411668
 21
265.7506927090585
 31
0.0
  0
ARC
  5
1AB
330
36
100
AcDbEntity
  8
0
 62
     3
100
AcDbCircle
 10
145.435608
 20
265.4173597090584
 30
0.0
 40
0.333333
100
AcDbArc
 50
90.0
 51
180.0
  0
LINE
  5
1AC
330
36
100
AcDbEntity
  8
0
 62
     3
100
AcDbLine
 10
157.248424
 20
267.6287887090584
 30
0.0
 11
146.289459
 21
267.6287887090584
 31
0.0
  0
ARC
  5
1AD
330
36
100
AcDbEntity
  8
0
 62
     3
100
AcDbCircle
 10
157.248424
 20
266.9621217090585
 30
0.0
 40
0.666667
100
AcDbArc
 50
14.03624299999999
 51
90.0
  0
LINE
  5
1AE
330
36
100
AcDbEntity
  8
0
 62
     3
100
AcDbLine
 10
157.895186
 20
267.1238127090585
 30
0.0
 11
158.126216
 21
265.7506927090585
 31
0.0
  0
ARC
  5
1AF
330
36
100
AcDbEntity
  8
0
 62
     3
100
AcDbCircle
 10
158.102275
 20
265.4173597090584
 30
0.0
 40
0.333333
100
AcDbArc
 50
0.0
 51
90.0
  0
LINE
  5
1B0
330
36
100
AcDbEntity
  8
0
 62
     3
100
AcDbLine
 10
145.102275
 20
265.4173597090584
 30
0.0
 11
145.102275
 21
263.6287887090584
 31
0.0
  0
LINE
  5
1B1
330
36
100
AcDbEntity
  8
0
 62
     3
100
AcDbLine
 10
158.435608
 20
265.4173597090584
 30
0.0
 11
158.435608
 21
263.6287887090584
 31
0.0
  0
CIRCLE
  5
1B2
330
36
100
AcDbEntity
  8
0
 62
     3
100
AcDbCircle
 10
441.557069
 20
180.9621217090583
 30
0.0
 40
1.333333
  0
CIRCLE
  5
1B3
330
36
100
AcDbEntity
  8
0
 62
     3
100
AcDbCircle
 10
377.2237350000001
 20
180.9621217090583
 30
0.0
 40
1.333333
  0
CIRCLE
  5
1B4
330
36
100
AcDbEntity
  8
0
 62
     3
100
AcDbCircle
 10
319.890402
 20
180.9621217090583
 30
0.0
 40
1.333333
  0
LINE
  5
1B5
330
36
100
AcDbEntity
  8
0
 62
     3
100
AcDbLine
 10
323.890402
 20
188.2954547090583
 30
0.0
 11
323.890402
 21
186.9621217090583
 31
0.0
  0
LINE
  5
1B6
330
36
100
AcDbEntity
  8
0
 62
     3
100
AcDbLine
 10
357.223735
 20
188.2954547090583
 30
0.0
 11
357.223735
 21
186.9621217090583
 31
0.0
  0
LINE
  5
1B7
330
36
100
AcDbEntity
  8
0
 62
     3
100
AcDbLine
 10
323.890402
 20
186.9621217090583
 30
0.0
 11
352.057069
 21
186.9621217090583
 31
0.0
  0
LINE
  5
1B8
330
36
100
AcDbEntity
  8
0
 62
     3
100
AcDbLine
 10
326.023735
 20
190.4287887090583
 30
0.0
 11
349.923735
 21
190.4287887090583
 31
0.0
  0
ARC
  5
1B9
330
36
100
AcDbEntity
  8
0
 62
     3
100
AcDbCircle
 10
355.090402
 20
188.2954547090583
 30
0.0
 40
2.133333
100
AcDbArc
 50
0.0
 51
90.0
  0
ARC
  5
1BA
330
36
100
AcDbEntity
  8
0
 62
     3
100
AcDbCircle
 10
326.023735
 20
188.2954547090583
 30
0.0
 40
2.133333
100
AcDbArc
 50
90.0
 51
180.0
  0
LINE
  5
1BB
330
36
100
AcDbEntity
  8
0
 62
     3
100
AcDbLine
 10
323.890402
 20
193.2954547090583
 30
0.0
 11
323.890402
 21
191.9621217090583
 31
0.0
  0
LINE
  5
1BC
330
36
100
AcDbEntity
  8
0
 62
     3
100
AcDbLine
 10
357.223735
 20
193.2954547090583
 30
0.0
 11
357.223735
 21
191.9621217090583
 31
0.0
  0
LINE
  5
1BD
330
36
100
AcDbEntity
  8
0
 62
     3
100
AcDbLine
 10
329.057069
 20
191.9621217090583
 30
0.0
 11
357.223735
 21
191.9621217090583
 31
0.0
  0
LINE
  5
1BE
330
36
100
AcDbEntity
  8
0
 62
     3
100
AcDbLine
 10
326.023735
 20
195.4287887090583
 30
0.0
 11
349.923735
 21
195.4287887090583
 31
0.0
  0
ARC
  5
1BF
330
36
100
AcDbEntity
  8
0
 62
     3
100
AcDbCircle
 10
355.090402
 20
193.2954547090583
 30
0.0
 40
2.133333
100
AcDbArc
 50
0.0
 51
90.0
  0
ARC
  5
1C0
330
36
100
AcDbEntity
  8
0
 62
     3
100
AcDbCircle
 10
326.023735
 20
193.2954547090583
 30
0.0
 40
2.133333
100
AcDbArc
 50
90.0
 51
180.0
  0
LINE
  5
1C1
330
36
100
AcDbEntity
  8
0
 62
     3
100
AcDbLine
 10
323.890402
 20
198.2954547090583
 30
0.0
 11
323.890402
 21
196.9621217090584
 31
0.0
  0
LINE
  5
1C2
330
36
100
AcDbEntity
  8
0
 62
     3
100
AcDbLine
 10
357.223735
 20
198.2954547090583
 30
0.0
 11
357.223735
 21
196.9621217090584
 31
0.0
  0
LINE
  5
1C3
330
36
100
AcDbEntity
  8
0
 62
     3
100
AcDbLine
 10
329.057069
 20
196.9621217090584
 30
0.0
 11
357.223735
 21
196.9621217090584
 31
0.0
  0
LINE
  5
1C4
330
36
100
AcDbEntity
  8
0
 62
     3
100
AcDbLine
 10
326.023735
 20
200.4287887090584
 30
0.0
 11
349.923735
 21
200.4287887090584
 31
0.0
  0
ARC
  5
1C5
330
36
100
AcDbEntity
  8
0
 62
     3
100
AcDbCircle
 10
355.090402
 20
198.2954547090583
 30
0.0
 40
2.133333
100
AcDbArc
 50
0.0
 51
90.0
  0
ARC
  5
1C6
330
36
100
AcDbEntity
  8
0
 62
     3
100
AcDbCircle
 10
326.023735
 20
198.2954547090583
 30
0.0
 40
2.133333
100
AcDbArc
 50
90.0
 51
180.0
  0
LINE
  5
1C7
330
36
100
AcDbEntity
  8
0
 62
     3
100
AcDbLine
 10
323.890402
 20
203.2954547090583
 30
0.0
 11
323.890402
 21
201.9621217090583
 31
0.0
  0
LINE
  5
1C8
330
36
100
AcDbEntity
  8
0
 62
     3
100
AcDbLine
 10
357.223735
 20
203.2954547090583
 30
0.0
 11
357.223735
 21
201.9621217090583
 31
0.0
  0
LINE
  5
1C9
330
36
100
AcDbEntity
  8
0
 62
     3
100
AcDbLine
 10
329.057069
 20
201.9621217090583
 30
0.0
 11
357.223735
 21
201.9621217090583
 31
0.0
  0
LINE
  5
1CA
330
36
100
AcDbEntity
  8
0
 62
     3
100
AcDbLine
 10
326.023735
 20
205.4287887090583
 30
0.0
 11
349.923735
 21
205.4287887090583
 31
0.0
  0
ARC
  5
1CB
330
36
100
AcDbEntity
  8
0
 62
     3
100
AcDbCircle
 10
355.090402
 20
203.2954547090583
 30
0.0
 40
2.133333
100
AcDbArc
 50
0.0
 51
90.0
  0
ARC
  5
1CC
330
36
100
AcDbEntity
  8
0
 62
     3
100
AcDbCircle
 10
326.023735
 20
203.2954547090583
 30
0.0
 40
2.133333
100
AcDbArc
 50
90.0
 51
180.0
  0
LINE
  5
1CD
330
36
100
AcDbEntity
  8
0
 62
     3
100
AcDbLine
 10
323.890402
 20
208.2954547090585
 30
0.0
 11
323.890402
 21
206.9621217090584
 31
0.0
  0
LINE
  5
1CE
330
36
100
AcDbEntity
  8
0
 62
     3
100
AcDbLine
 10
357.223735
 20
208.2954547090585
 30
0.0
 11
357.223735
 21
206.9621217090584
 31
0.0
  0
LINE
  5
1CF
330
36
100
AcDbEntity
  8
0
 62
     3
100
AcDbLine
 10
329.057069
 20
206.9621217090584
 30
0.0
 11
357.223735
 21
206.9621217090584
 31
0.0
  0
LINE
  5
1D0
330
36
100
AcDbEntity
  8
0
 62
     3
100
AcDbLine
 10
326.023735
 20
210.4287887090584
 30
0.0
 11
349.923735
 21
210.4287887090584
 31
0.0
  0
ARC
  5
1D1
330
36
100
AcDbEntity
  8
0
 62
     3
100
AcDbCircle
 10
355.090402
 20
208.2954547090585
 30
0.0
 40
2.133333
100
AcDbArc
 50
0.0
 51
90.0
  0
ARC
  5
1D2
330
36
100
AcDbEntity
  8
0
 62
     3
100
AcDbCircle
 10
326.023735
 20
208.2954547090585
 30
0.0
 40
2.133333
100
AcDbArc
 50
90.0
 51
180.0
  0
LINE
  5
1D3
330
36
100
AcDbEntity
  8
0
 62
     3
100
AcDbLine
 10
323.890402
 20
213.2954547090584
 30
0.0
 11
323.890402
 21
211.9621217090583
 31
0.0
  0
LINE
  5
1D4
330
36
100
AcDbEntity
  8
0
 62
     3
100
AcDbLine
 10
357.223735
 20
213.2954547090584
 30
0.0
 11
357.223735
 21
211.9621217090583
 31
0.0
  0
LINE
  5
1D5
330
36
100
AcDbEntity
  8
0
 62
     3
100
AcDbLine
 10
329.057069
 20
211.9621217090583
 30
0.0
 11
357.223735
 21
211.9621217090583
 31
0.0
  0
LINE
  5
1D6
330
36
100
AcDbEntity
  8
0
 62
     3
100
AcDbLine
 10
326.023735
 20
215.4287887090583
 30
0.0
 11
349.923735
 21
215.4287887090583
 31
0.0
  0
ARC
  5
1D7
330
36
100
AcDbEntity
  8
0
 62
     3
100
AcDbCircle
 10
355.090402
 20
213.2954547090584
 30
0.0
 40
2.133333
100
AcDbArc
 50
0.0
 51
90.0
  0
ARC
  5
1D8
330
36
100
AcDbEntity
  8
0
 62
     3
100
AcDbCircle
 10
326.023735
 20
213.2954547090584
 30
0.0
 40
2.133333
100
AcDbArc
 50
90.0
 51
180.0
  0
LINE
  5
1D9
330
36
100
AcDbEntity
  8
0
 62
     3
100
AcDbLine
 10
323.890402
 20
218.2954547090583
 30
0.0
 11
323.890402
 21
216.9621217090583
 31
0.0
  0
LINE
  5
1DA
330
36
100
AcDbEntity
  8
0
 62
     3
100
AcDbLine
 10
357.223735
 20
218.2954547090583
 30
0.0
 11
357.223735
 21
216.9621217090583
 31
0.0
  0
LINE
  5
1DB
330
36
100
AcDbEntity
  8
0
 62
     3
100
AcDbLine
 10
329.057069
 20
216.9621217090583
 30
0.0
 11
357.223735
 21
216.9621217090583
 31
0.0
  0
LINE
  5
1DC
330
36
100
AcDbEntity
  8
0
 62
     3
100
AcDbLine
 10
326.023735
 20
220.4287887090583
 30
0.0
 11
349.923735
 21
220.4287887090583
 31
0.0
  0
ARC
  5
1DD
330
36
100
AcDbEntity
  8
0
 62
     3
100
AcDbCircle
 10
355.090402
 20
218.2954547090583
 30
0.0
 40
2.133333
100
AcDbArc
 50
0.0
 51
90.0
  0
ARC
  5
1DE
330
36
100
AcDbEntity
  8
0
 62
     3
100
AcDbCircle
 10
326.023735
 20
218.2954547090583
 30
0.0
 40
2.133333
100
AcDbArc
 50
90.0
 51
180.0
  0
LINE
  5
1DF
330
36
100
AcDbEntity
  8
0
 62
     3
100
AcDbLine
 10
355.090402
 20
220.4287887090583
 30
0.0
 11
349.923735
 21
220.4287887090583
 31
0.0
  0
LINE
  5
1E0
330
36
100
AcDbEntity
  8
0
 62
     3
100
AcDbLine
 10
355.090402
 20
215.4287887090583
 30
0.0
 11
349.923735
 21
215.4287887090583
 31
0.0
  0
LINE
  5
1E1
330
36
100
AcDbEntity
  8
0
 62
     3
100
AcDbLine
 10
355.090402
 20
210.4287887090584
 30
0.0
 11
349.923735
 21
210.4287887090584
 31
0.0
  0
LINE
  5
1E2
330
36
100
AcDbEntity
  8
0
 62
     3
100
AcDbLine
 10
355.090402
 20
205.4287887090583
 30
0.0
 11
349.923735
 21
205.4287887090583
 31
0.0
  0
LINE
  5
1E3
330
36
100
AcDbEntity
  8
0
 62
     3
100
AcDbLine
 10
355.090402
 20
200.4287887090584
 30
0.0
 11
349.923735
 21
200.4287887090584
 31
0.0
  0
LINE
  5
1E4
330
36
100
AcDbEntity
  8
0
 62
     3
100
AcDbLine
 10
355.090402
 20
195.4287887090583
 30
0.0
 11
349.923735
 21
195.4287887090583
 31
0.0
  0
LINE
  5
1E5
330
36
100
AcDbEntity
  8
0
 62
     3
100
AcDbLine
 10
355.090402
 20
190.4287887090583
 30
0.0
 11
349.923735
 21
190.4287887090583
 31
0.0
  0
LINE
  5
1E6
330
36
100
AcDbEntity
  8
0
 62
     3
100
AcDbLine
 10
352.057069
 20
186.9621217090583
 30
0.0
 11
357.229568
 21
186.9621217090583
 31
0.0
  0
LINE
  5
1E7
330
36
100
AcDbEntity
  8
0
 62
     3
100
AcDbLine
 10
329.057069
 20
191.9621217090583
 30
0.0
 11
323.890402
 21
191.9621217090583
 31
0.0
  0
LINE
  5
1E8
330
36
100
AcDbEntity
  8
0
 62
     3
100
AcDbLine
 10
329.057069
 20
216.9621217090583
 30
0.0
 11
323.890402
 21
216.9621217090583
 31
0.0
  0
LINE
  5
1E9
330
36
100
AcDbEntity
  8
0
 62
     3
100
AcDbLine
 10
329.057069
 20
211.9621217090583
 30
0.0
 11
323.890402
 21
211.9621217090583
 31
0.0
  0
LINE
  5
1EA
330
36
100
AcDbEntity
  8
0
 62
     3
100
AcDbLine
 10
329.057069
 20
206.9621217090584
 30
0.0
 11
323.890402
 21
206.9621217090584
 31
0.0
  0
LINE
  5
1EB
330
36
100
AcDbEntity
  8
0
 62
     3
100
AcDbLine
 10
329.057069
 20
201.9621217090583
 30
0.0
 11
323.890402
 21
201.9621217090583
 31
0.0
  0
LINE
  5
1EC
330
36
100
AcDbEntity
  8
0
 62
     3
100
AcDbLine
 10
329.057069
 20
196.9621217090584
 30
0.0
 11
323.890402
 21
196.9621217090584
 31
0.0
  0
CIRCLE
  5
1ED
330
36
100
AcDbEntity
  8
0
 62
     3
100
AcDbCircle
 10
448.223735
 20
221.9621217090584
 30
0.0
 40
1.333333
  0
CIRCLE
  5
1EE
330
36
100
AcDbEntity
  8
0
 62
     3
100
AcDbCircle
 10
312.890402
 20
221.9621217090584
 30
0.0
 40
1.333333
  0
ARC
  5
1EF
330
36
100
AcDbEntity
  8
0
 62
     3
100
AcDbCircle
 10
151.768942
 20
267.0947837090585
 30
0.0
 40
1.103487
100
AcDbArc
 50
28.942075
 51
151.057925
  0
ARC
  5
1F0
330
36
100
AcDbEntity
  8
0
 62
     3
100
AcDbCircle
 10
248.903717
 20
267.0947837090585
 30
0.0
 40
1.103487
100
AcDbArc
 50
28.942075
 51
151.057925
  0
ARC
  5
1F1
330
36
100
AcDbEntity
  8
0
 62
     3
100
AcDbCircle
 10
328.457451
 20
267.0947837090585
 30
0.0
 40
1.103487
100
AcDbArc
 50
28.942075
 51
151.057925
  0
ARC
  5
1F2
330
36
100
AcDbEntity
  8
0
 62
     3
100
AcDbCircle
 10
335.307633
 20
267.0947837090585
 30
0.0
 40
1.103487
100
AcDbArc
 50
28.942075
 51
151.057925
  0
ARC
  5
1F3
330
36
100
AcDbEntity
  8
0
 62
     3
100
AcDbCircle
 10
419.1398379999998
 20
267.0947837090585
 30
0.0
 40
1.103487
100
AcDbArc
 50
28.942075
 51
151.057925
  0
ARC
  5
1F4
330
36
100
AcDbEntity
  8
0
 62
     3
100
AcDbCircle
 10
425.990019
 20
267.0947837090585
 30
0.0
 40
1.103487
100
AcDbArc
 50
28.942075
 51
151.057925
  0
LINE
  5
1F5
330
36
100
AcDbEntity
  8
0
 62
     3
100
AcDbLine
 10
273.36858
 20
171.9621217090583
 30
0.0
 11
277.736593
 21
171.9621217090583
 31
0.0
  0
LINE
  5
1F6
330
36
100
AcDbEntity
  8
0
 62
     3
100
AcDbLine
 10
278.26728
 20
172.4423867090583
 30
0.0
 11
278.88592
 21
178.6287887090583
 31
0.0
  0
LINE
  5
1F7
330
36
100
AcDbEntity
  8
0
 62
     3
100
AcDbLine
 10
272.837893
 20
172.4423867090583
 30
0.0
 11
272.219253
 21
178.6287887090583
 31
0.0
  0
ARC
  5
1F8
330
36
100
AcDbEntity
  8
0
 62
     3
100
AcDbCircle
 10
277.736593
 20
172.4954547090583
 30
0.0
 40
0.533333
100
AcDbArc
 50
270.0
 51
354.2894069999998
  0
ARC
  5
1F9
330
36
100
AcDbEntity
  8
0
 62
     3
100
AcDbCircle
 10
273.36858
 20
172.4954547090583
 30
0.0
 40
0.533333
100
AcDbArc
 50
185.7105929999999
 51
270.0
  0
LINE
  5
1FA
330
36
100
AcDbEntity
  8
0
 62
     3
100
AcDbLine
 10
324.132492
 20
171.9621217090583
 30
0.0
 11
319.76448
 21
171.9621217090583
 31
0.0
  0
LINE
  5
1FB
330
36
100
AcDbEntity
  8
0
 62
     3
100
AcDbLine
 10
319.233793
 20
172.4423867090583
 30
0.0
 11
318.615153
 21
178.6287887090583
 31
0.0
  0
LINE
  5
1FC
330
36
100
AcDbEntity
  8
0
 62
     3
100
AcDbLine
 10
324.663179
 20
172.4423867090583
 30
0.0
 11
325.28182
 21
178.6287887090583
 31
0.0
  0
ARC
  5
1FD
330
36
100
AcDbEntity
  8
0
 62
     3
100
AcDbCircle
 10
319.76448
 20
172.4954547090583
 30
0.0
 40
0.533333
100
AcDbArc
 50
185.7105929999999
 51
270.0
  0
ARC
  5
1FE
330
36
100
AcDbEntity
  8
0
 62
     3
100
AcDbCircle
 10
324.132492
 20
172.4954547090583
 30
0.0
 40
0.533333
100
AcDbArc
 50
270.0
 51
354.2894069999998
  0
LINE
  5
1FF
330
36
100
AcDbEntity
  8
0
 62
     3
100
AcDbLine
 10
437.264636
 20
171.9621217090583
 30
0.0
 11
441.632649
 21
171.9621217090583
 31
0.0
  0
LINE
  5
200
330
36
100
AcDbEntity
  8
0
 62
     3
100
AcDbLine
 10
442.163336
 20
172.4423867090583
 30
0.0
 11
442.781976
 21
178.6287887090583
 31
0.0
  0
LINE
  5
201
330
36
100
AcDbEntity
  8
0
 62
     3
100
AcDbLine
 10
436.7339499999998
 20
172.4423867090583
 30
0.0
 11
436.115309
 21
178.6287887090583
 31
0.0
  0
ARC
  5
202
330
36
100
AcDbEntity
  8
0
 62
     3
100
AcDbCircle
 10
441.632649
 20
172.4954547090583
 30
0.0
 40
0.533333
100
AcDbArc
 50
270.0
 51
354.2894069999998
  0
ARC
  5
203
330
36
100
AcDbEntity
  8
0
 62
     3
100
AcDbCircle
 10
437.264636
 20
172.4954547090583
 30
0.0
 40
0.533333
100
AcDbArc
 50
185.7105929999999
 51
270.0
  0
LINE
  5
204
330
36
100
AcDbEntity
  8
0
 62
     3
100
AcDbLine
 10
442.042632
 20
228.8638467090583
 30
0.0
 11
395.375965
 21
228.8638467090583
 31
0.0
  0
LINE
  5
205
330
36
100
AcDbEntity
  8
0
 62
     3
100
AcDbLine
 10
395.375965
 20
195.5305137090582
 30
0.0
 11
442.042632
 21
195.5305137090582
 31
0.0
  0
LINE
  5
206
330
36
100
AcDbEntity
  8
0
 62
     3
100
AcDbLine
 10
442.042632
 20
228.8638467090583
 30
0.0
 11
442.042632
 21
195.5305137090582
 31
0.0
  0
LINE
  5
207
330
36
100
AcDbEntity
  8
0
 62
     3
100
AcDbLine
 10
395.375965
 20
228.8638467090583
 30
0.0
 11
395.375965
 21
195.5305137090582
 31
0.0
  0
LINE
  5
208
330
36
100
AcDbEntity
  8
0
 62
     3
100
AcDbLine
 10
418.823298
 20
228.1078637090584
 30
0.0
 11
418.823298
 21
195.5305137090582
 31
0.0
  0
LINE
  5
209
330
36
100
AcDbEntity
  8
0
100
AcDbLine
 10
420.865745
 20
223.6339307090583
 30
0.0
 11
439.539549
 21
223.6339307090583
 31
0.0
  0
LINE
  5
20A
330
36
100
AcDbEntity
  8
0
100
AcDbLine
 10
397.420641
 20
223.5819637090583
 30
0.0
 11
417.456078
 21
223.5819637090583
 31
0.0
  0
CIRCLE
  5
20B
330
36
100
AcDbEntity
  8
0
 62
     3
100
AcDbCircle
 10
151.768942
 20
210.2954547090583
 30
0.0
 40
19.642557
  0
ARC
  5
20C
330
36
100
AcDbEntity
  8
0
 62
     3
100
AcDbCircle
 10
377.2237350000001
 20
-844.8626072909414
 30
0.0
 40
1113.180638
100
AcDbArc
 50
87.983662
 51
92.01633799999999
  0
LINE
  5
20D
330
36
100
AcDbEntity
  8
0
100
AcDbLine
 10
432.7237349999998
 20
265.7279597090583
 30
0.0
 11
416.390402
 21
265.7279597090583
 31
0.0
  0
ARC
  5
20E
330
36
100
AcDbEntity
  8
0
100
AcDbCircle
 10
377.2237350000001
 20
-846.5292742909417
 30
0.0
 40
1113.180638
100
AcDbArc
 50
87.983662
 51
92.01633799999999
  0
LINE
  5
20F
330
36
100
AcDbEntity
  8
0
100
AcDbLine
 10
321.723735
 20
265.7279597090583
 30
0.0
 11
338.057069
 21
265.7279597090583
 31
0.0
  0
ARC
  5
210
330
36
100
AcDbEntity
  8
0
100
AcDbCircle
 10
279.403717
 20
258.6287887090584
 30
0.0
 40
4.599999999999996
100
AcDbArc
 50
0.0
 51
90.0
  0
LINE
  5
211
330
36
100
AcDbEntity
  8
0
100
AcDbLine
 10
255.237051
 20
265.7506927090585
 30
0.0
 11
242.546443
 21
265.7506927090585
 31
0.0
  0
ARC
  5
212
330
36
100
AcDbEntity
  8
0
100
AcDbCircle
 10
218.403717
 20
258.6287887090584
 30
0.0
 40
4.599999999999996
100
AcDbArc
 50
90.0
 51
180.0
  0
LINE
  5
213
330
36
100
AcDbEntity
  8
0
100
AcDbLine
 10
145.435608
 20
265.7506927090585
 30
0.0
 11
158.126216
 21
265.7506927090585
 31
0.0
  0
CIRCLE
  5
214
330
36
100
AcDbEntity
  8
0
100
AcDbCircle
 10
151.768942
 20
210.2954547090583
 30
0.0
 40
17.251307
  0
CIRCLE
  5
215
330
36
100
AcDbEntity
  8
0
100
AcDbCircle
 10
151.768942
 20
210.2954547090583
 30
0.0
 40
15.24911
  0
CIRCLE
  5
216
330
36
100
AcDbEntity
  8
0
100
AcDbCircle
 10
151.768942
 20
210.2954547090583
 30
0.0
 40
13.112421
  0
CIRCLE
  5
217
330
36
100
AcDbEntity
  8
0
100
AcDbCircle
 10
151.768942
 20
210.2954547090583
 30
0.0
 40
10.855125
  0
CIRCLE
  5
218
330
36
100
AcDbEntity
  8
0
100
AcDbCircle
 10
151.768942
 20
210.2954547090583
 30
0.0
 40
8.605306999999998
  0
CIRCLE
  5
21B
330
36
100
AcDbEntity
  8
0
100
AcDbCircle
 10
254.854991
 20
255.4774027090583
 30
0.0
 40
0.666667
  0
CIRCLE
  5
21C
330
36
100
AcDbEntity
  8
0
100
AcDbCircle
 10
248.813704
 20
255.4578777090585
 30
0.0
 40
0.666667
  0
CIRCLE
  5
21D
330
36
100
AcDbEntity
  8
0
100
AcDbCircle
 10
242.620862
 20
255.4545997090584
 30
0.0
 40
0.666667
  0
LINE
  5
21E
330
36
100
AcDbEntity
  8
0
 62
     3
100
AcDbLine
 10
223.747202
 20
254.8117997090583
 30
0.0
 11
223.747202
 21
252.6121077090584
 31
0.0
  0
LINE
  5
21F
330
36
100
AcDbEntity
  8
0
100
AcDbLine
 10
228.876336
 20
252.6121077090584
 30
0.0
 11
228.876336
 21
254.8117997090583
 31
0.0
  0
LINE
  5
220
330
36
100
AcDbEntity
  8
0
100
AcDbLine
 10
225.046294
 20
252.6121077090584
 30
0.0
 11
225.046294
 21
254.8117997090583
 31
0.0
  0
LINE
  5
221
330
36
100
AcDbEntity
  8
0
 62
     3
100
AcDbLine
 10
223.747202
 20
254.8117997090583
 30
0.0
 11
228.876336
 21
254.8117997090583
 31
0.0
  0
LINE
  5
222
330
36
100
AcDbEntity
  8
0
 62
     3
100
AcDbLine
 10
223.747202
 20
252.6121077090584
 30
0.0
 11
228.876336
 21
252.6121077090584
 31
0.0
  0
TEXT
  5
223
330
36
100
AcDbEntity
  8
0
 62
     3
100
AcDbText
 10
237.346448
 20
179.1100977090583
 30
0.0
 40
3.5
  1
日動工業株式会社
 41
0.833333
100
AcDbText
  0
TEXT
  5
224
330
36
100
AcDbEntity
  8
0
 62
     3
100
AcDbText
 10
219.897881
 20
218.5667737090583
 30
0.0
 40
6.047999999999999
  1
デジタル
 41
0.73539
100
AcDbText
  0
LINE
  5
225
330
36
100
AcDbEntity
  8
0
 62
     3
100
AcDbLine
 10
239.380329
 20
252.9055777090584
 30
0.0
 11
258.003547
 21
252.9055777090584
 31
0.0
  0
LINE
  5
226
330
36
100
AcDbEntity
  8
0
 62
     3
100
AcDbLine
 10
239.380329
 20
242.1923157090583
 30
0.0
 11
258.003547
 21
242.1923157090583
 31
0.0
  0
LINE
  5
227
330
36
100
AcDbEntity
  8
0
100
AcDbLine
 10
234.86094
 20
182.2563237090583
 30
0.0
 11
234.86094
 21
179.3749247090583
 31
0.0
  0
LINE
  5
228
330
36
100
AcDbEntity
  8
0
100
AcDbLine
 10
234.86094
 20
179.3749247090583
 30
0.0
 11
236.290355
 21
182.0828907090583
 31
0.0
  0
CIRCLE
  5
229
330
36
100
AcDbEntity
  8
0
100
AcDbCircle
 10
234.86094
 20
180.8156247090583
 30
0.0
 40
1.440698999999999
  0
LINE
  5
22A
330
36
100
AcDbEntity
  8
0
100
AcDbLine
 10
234.86094
 20
182.2563237090583
 30
0.0
 11
233.431525
 21
179.5483577090583
 31
0.0
  0
LINE
  5
22B
330
36
100
AcDbEntity
  8
0
 62
     2
100
AcDbLine
 10
267.833257
 20
198.3555937090584
 30
0.0
 11
267.833257
 21
201.5269707090585
 31
0.0
  0
LINE
  5
22C
330
36
100
AcDbEntity
  8
0
 62
     2
100
AcDbLine
 10
266.247568
 20
199.9412817090583
 30
0.0
 11
269.418946
 21
199.9412817090583
 31
0.0
  0
LINE
  5
22D
330
36
100
AcDbEntity
  8
0
 62
     2
100
AcDbLine
 10
231.628006
 20
200.0217537090583
 30
0.0
 11
228.400305
 21
200.0217537090583
 31
0.0
  0
CIRCLE
  5
22E
330
36
100
AcDbEntity
  8
0
100
AcDbCircle
 10
267.833257
 20
199.9412817090583
 30
0.0
 40
2.339154
  0
CIRCLE
  5
22F
330
36
100
AcDbEntity
  8
0
100
AcDbCircle
 10
230.014155
 20
200.0217537090583
 30
0.0
 40
2.339154
  0
LINE
  5
230
330
36
100
AcDbEntity
  8
0
100
AcDbLine
 10
253.742388
 20
255.5536107090585
 30
0.0
 11
253.742388
 21
255.2731857090585
 31
0.0
  0
LINE
  5
231
330
36
100
AcDbEntity
  8
0
100
AcDbLine
 10
249.906629
 20
255.5536107090585
 30
0.0
 11
249.906629
 21
255.2731857090585
 31
0.0
  0
LINE
  5
232
330
36
100
AcDbEntity
  8
0
100
AcDbLine
 10
247.785474
 20
255.5536107090585
 30
0.0
 11
247.785474
 21
255.2731857090585
 31
0.0
  0
LINE
  5
233
330
36
100
AcDbEntity
  8
0
100
AcDbLine
 10
243.7376
 20
255.5536107090585
 30
0.0
 11
243.7376
 21
255.2731857090585
 31
0.0
  0
TEXT
  5
234
330
36
100
AcDbEntity
  8
0
 62
     3
100
AcDbText
 10
224.338624
 20
235.3620647090585
 30
0.0
 40
2.56
  1
0
 50
0.6
 41
1.199999999999999
100
AcDbText
  0
LINE
  5
235
330
36
100
AcDbEntity
  8
0
 62
     3
100
AcDbLine
 10
268.487051
 20
185.9621217090583
 30
0.0
 11
266.9870509999999
 21
185.9621217090583
 31
0.0
  0
LINE
  5
236
330
36
100
AcDbEntity
  8
0
 62
     3
100
AcDbLine
 10
230.820384
 20
185.9621217090583
 30
0.0
 11
229.320384
 21
185.9621217090583
 31
0.0
  0
LINE
  5
237
330
36
100
AcDbEntity
  8
0
 62
     3
100
AcDbLine
 10
268.487051
 20
195.9621217090583
 30
0.0
 11
266.9870509999999
 21
195.9621217090583
 31
0.0
  0
LINE
  5
238
330
36
100
AcDbEntity
  8
0
 62
     3
100
AcDbLine
 10
230.820384
 20
195.9621217090583
 30
0.0
 11
229.320384
 21
195.9621217090583
 31
0.0
  0
LINE
  5
239
330
36
100
AcDbEntity
  8
0
 62
     3
100
AcDbLine
 10
284.403717
 20
258.6287887090584
 30
0.0
 11
284.403717
 21
178.6287887090583
 31
0.0
  0
LINE
  5
23A
330
36
100
AcDbEntity
  8
0
 62
     3
100
AcDbLine
 10
213.403717
 20
258.6287887090584
 30
0.0
 11
213.403717
 21
178.6287887090583
 31
0.0
  0
LINE
  5
23B
330
36
100
AcDbEntity
  8
0
 62
     3
100
AcDbLine
 10
303.890402
 20
263.6287887090584
 30
0.0
 11
303.890402
 21
194.6956657090583
 31
0.0
  0
LINE
  5
23C
330
36
100
AcDbEntity
  8
0
 62
     3
100
AcDbLine
 10
450.5570689999998
 20
263.6287887090584
 30
0.0
 11
450.5570689999998
 21
178.6287887090583
 31
0.0
  0
LINE
  5
23D
330
36
100
AcDbEntity
  8
0
 62
     3
100
AcDbLine
 10
323.890142
 20
223.2954547090583
 30
0.0
 11
323.890142
 21
221.9621217090584
 31
0.0
  0
LINE
  5
23E
330
36
100
AcDbEntity
  8
0
 62
     3
100
AcDbLine
 10
357.223475
 20
223.2954547090583
 30
0.0
 11
357.223475
 21
221.9621217090584
 31
0.0
  0
LINE
  5
23F
330
36
100
AcDbEntity
  8
0
 62
     3
100
AcDbLine
 10
329.056808
 20
221.9621217090584
 30
0.0
 11
357.223475
 21
221.9621217090584
 31
0.0
  0
LINE
  5
240
330
36
100
AcDbEntity
  8
0
 62
     3
100
AcDbLine
 10
326.023475
 20
225.4287887090584
 30
0.0
 11
349.923475
 21
225.4287887090584
 31
0.0
  0
ARC
  5
241
330
36
100
AcDbEntity
  8
0
 62
     3
100
AcDbCircle
 10
355.090142
 20
223.2954547090583
 30
0.0
 40
2.133333
100
AcDbArc
 50
0.0
 51
90.0
  0
ARC
  5
242
330
36
100
AcDbEntity
  8
0
 62
     3
100
AcDbCircle
 10
326.023475
 20
223.2954547090583
 30
0.0
 40
2.133333
100
AcDbArc
 50
90.0
 51
180.0
  0
LINE
  5
243
330
36
100
AcDbEntity
  8
0
 62
     3
100
AcDbLine
 10
355.090142
 20
225.4287887090584
 30
0.0
 11
349.923475
 21
225.4287887090584
 31
0.0
  0
LINE
  5
244
330
36
100
AcDbEntity
  8
0
 62
     3
100
AcDbLine
 10
329.056808
 20
221.9621217090584
 30
0.0
 11
323.890142
 21
221.9621217090584
 31
0.0
  0
LINE
  5
245
330
36
100
AcDbEntity
  8
0
 62
     3
100
AcDbLine
 10
323.890402
 20
228.2954547090583
 30
0.0
 11
323.890402
 21
226.9621217090583
 31
0.0
  0
LINE
  5
246
330
36
100
AcDbEntity
  8
0
 62
     3
100
AcDbLine
 10
357.223735
 20
228.2954547090583
 30
0.0
 11
357.223735
 21
226.9621217090583
 31
0.0
  0
LINE
  5
247
330
36
100
AcDbEntity
  8
0
 62
     3
100
AcDbLine
 10
329.057069
 20
226.9621217090583
 30
0.0
 11
357.223735
 21
226.9621217090583
 31
0.0
  0
LINE
  5
248
330
36
100
AcDbEntity
  8
0
 62
     3
100
AcDbLine
 10
326.023735
 20
230.4287887090583
 30
0.0
 11
349.923735
 21
230.4287887090583
 31
0.0
  0
ARC
  5
249
330
36
100
AcDbEntity
  8
0
 62
     3
100
AcDbCircle
 10
355.090402
 20
228.2954547090583
 30
0.0
 40
2.133333
100
AcDbArc
 50
0.0
 51
90.0
  0
ARC
  5
24A
330
36
100
AcDbEntity
  8
0
 62
     3
100
AcDbCircle
 10
326.023735
 20
228.2954547090583
 30
0.0
 40
2.133333
100
AcDbArc
 50
90.0
 51
180.0
  0
LINE
  5
24B
330
36
100
AcDbEntity
  8
0
 62
     3
100
AcDbLine
 10
355.090402
 20
230.4287887090583
 30
0.0
 11
349.923735
 21
230.4287887090583
 31
0.0
  0
LINE
  5
24C
330
36
100
AcDbEntity
  8
0
 62
     3
100
AcDbLine
 10
329.057069
 20
226.9621217090583
 30
0.0
 11
323.890402
 21
226.9621217090583
 31
0.0
  0
LINE
  5
24D
330
36
100
AcDbEntity
  8
0
100
AcDbLine
 10
214.203717
 20
258.6287887090584
 30
0.0
 11
214.203717
 21
178.6287887090583
 31
0.0
  0
LINE
  5
24E
330
36
100
AcDbEntity
  8
0
100
AcDbLine
 10
283.603717
 20
258.6287887090584
 30
0.0
 11
283.603717
 21
178.6287887090583
 31
0.0
  0
LINE
  5
24F
330
36
100
AcDbEntity
  8
0
100
AcDbLine
 10
214.203717
 20
258.6287887090584
 30
0.0
 11
213.803717
 21
258.6287887090584
 31
0.0
  0
LINE
  5
250
330
36
100
AcDbEntity
  8
0
100
AcDbLine
 10
284.003717
 20
258.6287887090584
 30
0.0
 11
283.603717
 21
258.6287887090584
 31
0.0
  0
LINE
  5
251
330
36
100
AcDbEntity
  8
0
100
AcDbLine
 10
258.003547
 20
252.9055777090584
 30
0.0
 11
256.513082
 21
251.8779487090585
 31
0.0
  0
TEXT
  5
252
330
36
100
AcDbEntity
  8
0
 62
     3
100
AcDbText
 10
397.636078
 20
35.93266
 30
0.0
 40
3.2
  1
FREE
  7
高3.2
100
AcDbText
  0
TEXT
  5
253
330
36
100
AcDbEntity
  8
0
 62
     3
100
AcDbText
 10
165.1420192186615
 20
101.071442
 30
0.0
 40
3.2
  1
1
 41
0.8
  7
高3.2
100
AcDbText
  0
LINE
  5
254
330
36
100
AcDbEntity
  8
0
 62
     7
100
AcDbLine
 10
74.918711
 20
100.571442
 30
0.0
 11
273.9836518193511
 21
100.571442
 31
0.0
  0
LINE
  5
256
330
36
100
AcDbEntity
  8
0
100
AcDbLine
 10
74.918711
 20
95.57144200000001
 30
0.0
 11
273.9836518193511
 21
95.57144200000001
 31
0.0
  0
TEXT
  5
25B
330
36
100
AcDbEntity
  8
0
 62
     3
100
AcDbText
 10
76.418711
 20
101.071442
 30
0.0
 40
3.2
  1
付属
 41
0.8
  7
高3.2
100
AcDbText
  0
TEXT
  5
25C
330
36
100
AcDbEntity
  8
0
 62
     3
100
AcDbText
 10
85.1170567643134
 20
101.071442
 30
0.0
 40
3.2
  1
ショルダーベルト
 41
0.8
  7
高3.2
100
AcDbText
  0
TEXT
  5
25D
330
36
100
AcDbEntity
  8
0
 62
     3
100
AcDbText
 10
118.789010946496
 20
101.071442
 30
0.0
 40
3.2
  1
ナイロン
 41
0.8
  7
高3.2
100
AcDbText
  0
TEXT
  5
25E
330
36
100
AcDbEntity
  8
0
 62
     3
100
AcDbText
 10
136.8823125848736
 20
101.071442
 30
0.0
 40
3.2
  1
（付属品）
 41
0.8
  7
高3.2
100
AcDbText
  0
TEXT
  5
25F
330
36
100
AcDbEntity
  8
0
 62
     3
100
AcDbText
 10
136.8823125848736
 20
91.07144200000002
 30
0.0
 40
3.2
  1
伸縮型
 41
0.8
  7
高3.2
100
AcDbText
  0
TEXT
  5
260
330
36
100
AcDbEntity
  8
0
 62
     3
100
AcDbText
 10
136.8823125848736
 20
86.07144200000002
 30
0.0
 40
3.2
  1
（内蔵）
 41
0.8
  7
高3.2
100
AcDbText
  0
CIRCLE
  5
261
330
36
100
AcDbEntity
  8
0
100
AcDbCircle
 10
267.7370509999999
 20
190.9621217090581
 30
0.0
 40
5.833333
  0
CIRCLE
  5
262
330
36
100
AcDbEntity
  8
0
100
AcDbCircle
 10
230.070384
 20
190.9621217090581
 30
0.0
 40
5.833333
  0
LINE
  5
263
330
36
100
AcDbEntity
  8
0
 62
     3
100
AcDbLine
 10
274.713538
 20
251.9118277090585
 30
0.0
 11
267.50698
 21
251.9118277090585
 31
0.0
  0
TEXT
  5
264
330
36
100
AcDbEntity
  8
0
 62
     3
100
AcDbText
 10
370.768521
 20
49.94215081627647
 30
0.0
 40
4.5
  1
DIGITAL-300A
 41
0.8
  7
高4.5
100
AcDbText
  0
TEXT
  5
265
330
36
100
AcDbEntity
  8
0
 62
     3
100
AcDbText
 10
415.0090549999998
 20
26.65334356550034
 30
0.0
 40
6.299999999999998
  1
DIG-300A
  7
高6.3
100
AcDbText
  0
TEXT
  5
266
330
36
100
AcDbEntity
  8
0
 62
     3
100
AcDbText
 10
429.898919
 20
35.718047
 30
0.0
 40
3.2
  1
2009.10.6
  7
高3.2
100
AcDbText
  0
ARC
  5
267
330
36
100
AcDbEntity
  8
0
 62
     3
100
AcDbCircle
 10
135.57905
 20
244.9264257090584
 30
0.0
 40
2.399999999999999
100
AcDbArc
 50
270.0
 51
90.0
  0
LINE
  5
268
330
36
100
AcDbEntity
  8
0
 62
     3
100
AcDbLine
 10
137.697959
 20
240.7563677090583
 30
0.0
 11
133.460141
 21
240.7563677090583
 31
0.0
  0
LINE
  5
269
330
36
100
AcDbEntity
  8
0
 62
     3
100
AcDbLine
 10
140.24988
 20
244.6764257090584
 30
0.0
 11
138.130972
 21
241.0063677090583
 31
0.0
  0
LINE
  5
26A
330
36
100
AcDbEntity
  8
0
 62
     3
100
AcDbLine
 10
140.24988
 20
245.1764257090584
 30
0.0
 11
138.130972
 21
248.8464837090583
 31
0.0
  0
LINE
  5
26B
330
36
100
AcDbEntity
  8
0
 62
     3
100
AcDbLine
 10
133.460141
 20
249.0964837090585
 30
0.0
 11
137.697959
 21
249.0964837090585
 31
0.0
  0
LINE
  5
26C
330
36
100
AcDbEntity
  8
0
 62
     3
100
AcDbLine
 10
133.027129
 20
248.8464837090583
 30
0.0
 11
132.149523
 21
247.3264257090584
 31
0.0
  0
LINE
  5
26D
330
36
100
AcDbEntity
  8
0
 62
     3
100
AcDbLine
 10
133.027129
 20
241.0063677090583
 30
0.0
 11
132.149523
 21
242.5264257090584
 31
0.0
  0
ARC
  5
26E
330
36
100
AcDbEntity
  8
0
 62
     3
100
AcDbCircle
 10
137.697959
 20
248.5964837090583
 30
0.0
 40
0.5
100
AcDbArc
 50
30.0
 51
90.0
  0
LINE
  5
26F
330
36
100
AcDbEntity
  8
0
  6
HIDDEN
 62
    15
100
AcDbLine
 10
137.697959
 20
249.0964837090585
 30
0.0
 11
137.813805
 21
249.0964837090585
 31
0.0
  0
LINE
  5
270
330
36
100
AcDbEntity
  8
0
  6
HIDDEN
 62
    15
100
AcDbLine
 10
138.130972
 20
248.8464837090583
 30
0.0
 11
138.073049
 21
248.9468097090583
 31
0.0
  0
ARC
  5
271
330
36
100
AcDbEntity
  8
0
 62
     3
100
AcDbCircle
 10
133.460141
 20
248.5964837090583
 30
0.0
 40
0.5
100
AcDbArc
 50
90.0
 51
150.0
  0
LINE
  5
272
330
36
100
AcDbEntity
  8
0
  6
HIDDEN
 62
    15
100
AcDbLine
 10
133.460141
 20
249.0964837090585
 30
0.0
 11
133.344295
 21
249.0964837090585
 31
0.0
  0
LINE
  5
273
330
36
100
AcDbEntity
  8
0
  6
HIDDEN
 62
    15
100
AcDbLine
 10
133.027129
 20
248.8464837090583
 30
0.0
 11
133.085052
 21
248.9468097090583
 31
0.0
  0
ARC
  5
274
330
36
100
AcDbEntity
  8
0
 62
     3
100
AcDbCircle
 10
133.460141
 20
241.2563677090583
 30
0.0
 40
0.5
100
AcDbArc
 50
210.0
 51
270.0
  0
LINE
  5
275
330
36
100
AcDbEntity
  8
0
  6
HIDDEN
 62
    15
100
AcDbLine
 10
133.027129
 20
241.0063677090583
 30
0.0
 11
133.085052
 21
240.9060427090585
 31
0.0
  0
LINE
  5
276
330
36
100
AcDbEntity
  8
0
  6
HIDDEN
 62
    15
100
AcDbLine
 10
133.460141
 20
240.7563677090583
 30
0.0
 11
133.344295
 21
240.7563677090583
 31
0.0
  0
ARC
  5
277
330
36
100
AcDbEntity
  8
0
 62
     3
100
AcDbCircle
 10
137.697959
 20
241.2563677090583
 30
0.0
 40
0.5
100
AcDbArc
 50
270.0
 51
330.0
  0
LINE
  5
278
330
36
100
AcDbEntity
  8
0
  6
HIDDEN
 62
    15
100
AcDbLine
 10
137.697959
 20
240.7563677090583
 30
0.0
 11
137.813805
 21
240.7563677090583
 31
0.0
  0
LINE
  5
279
330
36
100
AcDbEntity
  8
0
  6
HIDDEN
 62
    15
100
AcDbLine
 10
138.130972
 20
241.0063677090583
 30
0.0
 11
138.073049
 21
240.9060427090585
 31
0.0
  0
ARC
  5
27A
330
36
100
AcDbEntity
  8
0
 62
     3
100
AcDbCircle
 10
139.816868
 20
244.9264257090584
 30
0.0
 40
0.5
100
AcDbArc
 50
330.0
 51
30.0
  0
LINE
  5
27B
330
36
100
AcDbEntity
  8
0
  6
HIDDEN
 62
    15
100
AcDbLine
 10
140.24988
 20
244.6764257090584
 30
0.0
 11
140.307804
 21
244.7767517090583
 31
0.0
  0
LINE
  5
27C
330
36
100
AcDbEntity
  8
0
  6
HIDDEN
 62
    15
100
AcDbLine
 10
140.24988
 20
245.1764257090584
 30
0.0
 11
140.307804
 21
245.0761007090583
 31
0.0
  0
ARC
  5
27D
330
36
100
AcDbEntity
  8
0
 62
     3
100
AcDbCircle
 10
116.149334
 20
232.5264257090583
 30
0.0
 40
10.0
100
AcDbArc
 50
90.0
 51
180.0
  0
ARC
  5
27E
330
36
100
AcDbEntity
  8
0
 62
     3
100
AcDbCircle
 10
116.149334
 20
232.5264257090583
 30
0.0
 40
14.8
100
AcDbArc
 50
90.0
 51
180.0
  0
LINE
  5
291
330
36
100
AcDbEntity
  8
0
 62
     3
100
AcDbLine
 10
106.149334
 20
228.7272787090583
 30
0.0
 11
106.149334
 21
232.5264257090583
 31
0.0
  0
LINE
  5
292
330
36
100
AcDbEntity
  8
0
 62
     3
100
AcDbLine
 10
106.149334
 20
226.4113637090584
 30
0.0
 11
106.149334
 21
201.3453197090583
 31
0.0
  0
LINE
  5
293
330
36
100
AcDbEntity
  8
0
 62
     3
100
AcDbLine
 10
101.349334
 20
229.3932957090585
 30
0.0
 11
101.349334
 21
232.5264257090583
 31
0.0
  0
LINE
  5
294
330
36
100
AcDbEntity
  8
0
 62
     3
100
AcDbLine
 10
101.349334
 20
227.1071257090583
 30
0.0
 11
101.349334
 21
201.3453197090583
 31
0.0
  0
LINE
  5
295
330
36
100
AcDbEntity
  8
0
 62
     3
100
AcDbLine
 10
101.349334
 20
201.3453197090583
 30
0.0
 11
106.149334
 21
201.3453197090583
 31
0.0
  0
LINE
  5
296
330
36
100
AcDbEntity
  8
0
100
AcDbLine
 10
101.892749
 20
200.8519217090585
 30
0.0
 11
101.892749
 21
201.3453197090583
 31
0.0
  0
TEXT
  5
297
330
36
100
AcDbEntity
  8
0
 62
     3
100
AcDbText
 10
84.09646290897283
 20
178.4305744447985
 30
0.0
 40
3.2
  1
(緑)　(黒)(赤)(白)
 41
0.8
  7
高3.2
100
AcDbText
  0
LINE
  5
299
330
36
100
AcDbEntity
  8
0
 62
     3
100
AcDbLine
 10
310.557069
 20
178.6287887090583
 30
0.0
 11
303.890402
 21
194.6956657090583
 31
0.0
  0
CIRCLE
  5
29A
330
36
100
AcDbEntity
  8
0
 62
     3
100
AcDbCircle
 10
374.74378
 20
236.3049697090583
 30
0.0
 40
1.333333
  0
LINE
  5
29B
330
36
100
AcDbEntity
  8
0
 62
     3
100
AcDbLine
 10
279.403717
 20
263.6287887090584
 30
0.0
 11
218.403717
 21
263.6287887090584
 31
0.0
  0
LINE
  5
29C
330
36
100
AcDbEntity
  8
0
 62
     3
100
AcDbLine
 10
284.403717
 20
178.6287887090583
 30
0.0
 11
213.403717
 21
178.6287887090583
 31
0.0
  0
LINE
  5
29D
330
36
100
AcDbEntity
  8
0
 62
     3
100
AcDbLine
 10
224.438855
 20
171.9621217090583
 30
0.0
 11
220.070842
 21
171.9621217090583
 31
0.0
  0
LINE
  5
29E
330
36
100
AcDbEntity
  8
0
 62
     3
100
AcDbLine
 10
219.540155
 20
172.4423867090583
 30
0.0
 11
218.921515
 21
178.6287887090583
 31
0.0
  0
LINE
  5
29F
330
36
100
AcDbEntity
  8
0
 62
     3
100
AcDbLine
 10
224.969542
 20
172.4423867090583
 30
0.0
 11
225.588182
 21
178.6287887090583
 31
0.0
  0
ARC
  5
2A0
330
36
100
AcDbEntity
  8
0
 62
     3
100
AcDbCircle
 10
220.070842
 20
172.4954547090583
 30
0.0
 40
0.533333
100
AcDbArc
 50
185.7105929999999
 51
270.0
  0
ARC
  5
2A1
330
36
100
AcDbEntity
  8
0
 62
     3
100
AcDbCircle
 10
224.438855
 20
172.4954547090583
 30
0.0
 40
0.533333
100
AcDbArc
 50
270.0
 51
354.2894069999998
  0
ARC
  5
2A2
330
36
100
AcDbEntity
  8
0
 62
     3
100
AcDbCircle
 10
121.268942
 20
258.6287887090584
 30
0.0
 40
5.0
100
AcDbArc
 50
90.0
 51
180.0
  0
ARC
  5
2A3
330
36
100
AcDbEntity
  8
0
100
AcDbCircle
 10
121.268942
 20
258.6287887090584
 30
0.0
 40
4.599999999999996
100
AcDbArc
 50
90.0
 51
180.0
  0
LINE
  5
2A4
330
36
100
AcDbEntity
  8
0
 62
     3
100
AcDbLine
 10
121.268942
 20
263.6287887090584
 30
0.0
 11
182.268942
 21
263.6287887090584
 31
0.0
  0
ARC
  5
2A5
330
36
100
AcDbEntity
  8
0
100
AcDbCircle
 10
182.268942
 20
258.6287887090584
 30
0.0
 40
4.599999999999996
100
AcDbArc
 50
0.0
 51
90.0
  0
ARC
  5
2A6
330
36
100
AcDbEntity
  8
0
 62
     3
100
AcDbCircle
 10
182.268942
 20
258.6287887090584
 30
0.0
 40
5.0
100
AcDbArc
 50
0.0
 51
90.0
  0
LINE
  5
2A7
330
36
100
AcDbEntity
  8
0
 62
     3
100
AcDbLine
 10
187.268942
 20
258.6287887090584
 30
0.0
 11
187.268942
 21
178.6287887090583
 31
0.0
  0
LINE
  5
2A8
330
36
100
AcDbEntity
  8
0
 62
     3
100
AcDbLine
 10
116.268942
 20
178.6287887090583
 30
0.0
 11
187.268942
 21
178.6287887090583
 31
0.0
  0
LINE
  5
2A9
330
36
100
AcDbEntity
  8
0
 62
     3
100
AcDbLine
 10
175.703118
 20
172.4423867090583
 30
0.0
 11
175.084478
 21
178.6287887090583
 31
0.0
  0
LINE
  5
2AA
330
36
100
AcDbEntity
  8
0
 62
     3
100
AcDbLine
 10
176.233804
 20
171.9621217090583
 30
0.0
 11
180.601818
 21
171.9621217090583
 31
0.0
  0
LINE
  5
2AB
330
36
100
AcDbEntity
  8
0
 62
     3
100
AcDbLine
 10
181.132504
 20
172.4423867090583
 30
0.0
 11
181.751144
 21
178.6287887090583
 31
0.0
  0
ARC
  5
2AC
330
36
100
AcDbEntity
  8
0
 62
     3
100
AcDbCircle
 10
180.601818
 20
172.4954547090583
 30
0.0
 40
0.533333
100
AcDbArc
 50
270.0
 51
354.2894069999998
  0
ARC
  5
2AD
330
36
100
AcDbEntity
  8
0
 62
     3
100
AcDbCircle
 10
176.233804
 20
172.4954547090583
 30
0.0
 40
0.533333
100
AcDbArc
 50
185.7105929999999
 51
270.0
  0
LINE
  5
2AE
330
36
100
AcDbEntity
  8
0
 62
     3
100
AcDbLine
 10
127.304079
 20
171.9621217090583
 30
0.0
 11
122.936066
 21
171.9621217090583
 31
0.0
  0
LINE
  5
2AF
330
36
100
AcDbEntity
  8
0
 62
     3
100
AcDbLine
 10
122.405379
 20
172.4423867090583
 30
0.0
 11
121.786739
 21
178.6287887090583
 31
0.0
  0
LINE
  5
2B0
330
36
100
AcDbEntity
  8
0
 62
     3
100
AcDbLine
 10
127.834766
 20
172.4423867090583
 30
0.0
 11
128.453406
 21
178.6287887090583
 31
0.0
  0
ARC
  5
2B1
330
36
100
AcDbEntity
  8
0
 62
     3
100
AcDbCircle
 10
122.936066
 20
172.4954547090583
 30
0.0
 40
0.533333
100
AcDbArc
 50
185.7105929999999
 51
270.0
  0
ARC
  5
2B2
330
36
100
AcDbEntity
  8
0
 62
     3
100
AcDbCircle
 10
127.304079
 20
172.4954547090583
 30
0.0
 40
0.533333
100
AcDbArc
 50
270.0
 51
354.2894069999998
  0
LINE
  5
2B3
330
36
100
AcDbEntity
  8
0
 62
     3
100
AcDbLine
 10
135.57905
 20
247.3264257090584
 30
0.0
 11
116.268942
 21
247.3264257090584
 31
0.0
  0
LINE
  5
2B4
330
36
100
AcDbEntity
  8
0
 62
     3
100
AcDbLine
 10
135.57905
 20
242.5264257090584
 30
0.0
 11
116.268942
 21
242.5264257090584
 31
0.0
  0
LINE
  5
2B5
330
36
100
AcDbEntity
  8
0
 62
     3
100
AcDbLine
 10
116.268942
 20
258.6287887090584
 30
0.0
 11
116.268942
 21
247.3264257090584
 31
0.0
  0
LINE
  5
2B6
330
36
100
AcDbEntity
  8
0
 62
     3
100
AcDbLine
 10
116.268942
 20
242.5264257090584
 30
0.0
 11
116.268942
 21
178.6287887090583
 31
0.0
  0
ARC
  5
2B7
330
36
100
AcDbEntity
  8
0
100
AcDbCircle
 10
135.57905
 20
244.9264257090584
 30
0.0
 40
3.579118
100
AcDbArc
 50
222.110016
 51
137.889984
  0
LINE
  5
2B8
330
36
100
AcDbEntity
  8
0
100
AcDbLine
 10
182.268942
 20
263.2287887090585
 30
0.0
 11
121.268942
 21
263.2287887090585
 31
0.0
  0
LINE
  5
2B9
330
36
100
AcDbEntity
  8
0
100
AcDbLine
 10
186.868942
 20
258.6287887090584
 30
0.0
 11
186.868942
 21
178.6287887090583
 31
0.0
  0
LINE
  5
2BA
330
36
100
AcDbEntity
  8
0
100
AcDbLine
 10
116.668942
 20
242.5264257090584
 30
0.0
 11
116.668942
 21
178.6287887090583
 31
0.0
  0
LINE
  5
2BB
330
36
100
AcDbEntity
  8
0
100
AcDbLine
 10
116.668942
 20
258.6287887090584
 30
0.0
 11
116.668942
 21
247.3264257090584
 31
0.0
  0
LINE
  5
2BC
330
36
100
AcDbEntity
  8
0
 62
     3
100
AcDbLine
 10
258.003547
 20
252.9055777090584
 30
0.0
 11
258.003547
 21
241.9146057090584
 31
0.0
  0
LINE
  5
2BD
330
36
100
AcDbEntity
  8
0
 62
     3
100
AcDbLine
 10
239.380329
 20
252.9055777090584
 30
0.0
 11
239.380329
 21
242.1923157090583
 31
0.0
  0
LINE
  5
2BE
330
36
100
AcDbEntity
  8
0
 62
     3
100
AcDbLine
 10
229.521927
 20
240.3035627090585
 30
0.0
 11
229.145953
 21
240.6795367090583
 31
0.0
  0
ARC
  5
2BF
330
36
100
AcDbEntity
  8
0
 62
     3
100
AcDbCircle
 10
226.205924
 20
243.3347977090585
 30
0.0
 40
3.961587999999998
100
AcDbArc
 50
317.9135039999999
 51
266.526794
  0
LINE
  5
2C0
330
36
100
AcDbEntity
  8
0
 62
     3
100
AcDbLine
 10
225.965924
 20
239.3804867090583
 30
0.0
 11
225.965924
 21
238.9841067090585
 31
0.0
  0
ARC
  5
2C1
330
36
100
AcDbEntity
  8
0
100
AcDbCircle
 10
226.205924
 20
243.3347977090585
 30
0.0
 40
3.721587999999998
100
AcDbArc
 50
314.405121
 51
270.0
  0
LINE
  5
2C2
330
36
100
AcDbEntity
  8
0
100
AcDbLine
 10
229.352221
 20
240.1338567090584
 30
0.0
 11
228.794278
 21
240.6917997090584
 31
0.0
  0
LINE
  5
2C3
330
36
100
AcDbEntity
  8
0
100
AcDbLine
 10
226.205924
 20
239.6132097090583
 30
0.0
 11
226.205924
 21
238.9841067090585
 31
0.0
  0
LINE
  5
2C4
330
36
100
AcDbEntity
  8
0
 62
     3
100
AcDbLine
 10
229.521927
 20
240.3035627090585
 30
0.0
 11
229.352221
 21
240.1338567090584
 31
0.0
  0
LINE
  5
2C5
330
36
100
AcDbEntity
  8
0
 62
     3
100
AcDbLine
 10
226.205924
 20
238.9841067090585
 30
0.0
 11
225.965924
 21
238.9841067090585
 31
0.0
  0
LINE
  5
2C6
330
36
100
AcDbEntity
  8
0
100
AcDbLine
 10
226.325924
 20
240.9146187090583
 30
0.0
 11
226.325924
 21
242.1717707090585
 31
0.0
  0
LINE
  5
2C7
330
36
100
AcDbEntity
  8
0
100
AcDbLine
 10
226.085924
 20
240.9146187090583
 30
0.0
 11
226.085924
 21
242.1717707090585
 31
0.0
  0
LINE
  5
2C8
330
36
100
AcDbEntity
  8
0
 62
     3
100
AcDbLine
 10
226.085924
 20
242.1717707090585
 30
0.0
 11
226.325924
 21
242.1717707090585
 31
0.0
  0
LINE
  5
2C9
330
36
100
AcDbEntity
  8
0
 62
     3
100
AcDbLine
 10
242.044891
 20
198.2121657090584
 30
0.0
 11
255.532081
 21
198.2121657090584
 31
0.0
  0
LINE
  5
2CA
330
36
100
AcDbEntity
  8
0
 62
     3
100
AcDbLine
 10
242.044891
 20
192.2487137090583
 30
0.0
 11
255.532081
 21
192.2487137090583
 31
0.0
  0
LINE
  5
2CB
330
36
100
AcDbEntity
  8
0
 62
     3
100
AcDbLine
 10
255.532081
 20
189.7054767090583
 30
0.0
 11
242.044891
 21
189.7054767090583
 31
0.0
  0
LINE
  5
2CC
330
36
100
AcDbEntity
  8
0
 62
     3
100
AcDbLine
 10
255.532081
 20
184.7067007090583
 30
0.0
 11
242.044891
 21
184.7067007090583
 31
0.0
  0
LINE
  5
2CD
330
36
100
AcDbEntity
  8
0
 62
     3
100
AcDbLine
 10
257.032081
 20
193.7487137090582
 30
0.0
 11
257.032081
 21
196.7121657090584
 31
0.0
  0
LINE
  5
2CE
330
36
100
AcDbEntity
  8
0
 62
     3
100
AcDbLine
 10
240.544891
 20
196.7121657090584
 30
0.0
 11
240.544891
 21
193.7487137090582
 31
0.0
  0
ARC
  5
2CF
330
36
100
AcDbEntity
  8
0
 62
     3
100
AcDbCircle
 10
255.532081
 20
196.7121657090584
 30
0.0
 40
1.5
100
AcDbArc
 50
0.0
 51
90.0
  0
ARC
  5
2D0
330
36
100
AcDbEntity
  8
0
 62
     3
100
AcDbCircle
 10
255.532081
 20
193.7487137090582
 30
0.0
 40
1.5
100
AcDbArc
 50
270.0
 51
0.0
  0
LINE
  5
2D1
330
36
100
AcDbEntity
  8
0
 62
     3
100
AcDbLine
 10
257.032081
 20
186.2067007090583
 30
0.0
 11
257.032081
 21
188.2054767090583
 31
0.0
  0
ARC
  5
2D2
330
36
100
AcDbEntity
  8
0
 62
     3
100
AcDbCircle
 10
242.044891
 20
193.7487137090582
 30
0.0
 40
1.5
100
AcDbArc
 50
180.0
 51
270.0
  0
LINE
  5
2D3
330
36
100
AcDbEntity
  8
0
 62
     3
100
AcDbLine
 10
240.544891
 20
186.2067007090583
 30
0.0
 11
240.544891
 21
188.2054767090583
 31
0.0
  0
ARC
  5
2D4
330
36
100
AcDbEntity
  8
0
 62
     3
100
AcDbCircle
 10
242.044891
 20
196.7121657090584
 30
0.0
 40
1.5
100
AcDbArc
 50
90.0
 51
180.0
  0
ARC
  5
2D5
330
36
100
AcDbEntity
  8
0
 62
     3
100
AcDbCircle
 10
242.044891
 20
188.2054767090583
 30
0.0
 40
1.5
100
AcDbArc
 50
90.0
 51
180.0
  0
ARC
  5
2D6
330
36
100
AcDbEntity
  8
0
 62
     3
100
AcDbCircle
 10
242.044891
 20
186.2067007090583
 30
0.0
 40
1.5
100
AcDbArc
 50
180.0
 51
270.0
  0
ARC
  5
2D7
330
36
100
AcDbEntity
  8
0
 62
     3
100
AcDbCircle
 10
255.532081
 20
188.2054767090583
 30
0.0
 40
1.5
100
AcDbArc
 50
0.0
 51
90.0
  0
ARC
  5
2D8
330
36
100
AcDbEntity
  8
0
 62
     3
100
AcDbCircle
 10
255.532081
 20
186.2067007090583
 30
0.0
 40
1.5
100
AcDbArc
 50
270.0
 51
0.0
  0
LINE
  5
2D9
330
36
100
AcDbEntity
  8
0
 62
     3
100
AcDbLine
 10
283.603717
 20
208.6287887090583
 30
0.0
 11
214.203717
 21
208.6287887090583
 31
0.0
  0
TEXT
  5
2DA
330
36
100
AcDbEntity
  8
0
 62
     3
100
AcDbText
 10
250.575114
 20
220.4421967090583
 30
0.0
 40
3.033333999999998
  1
DIGITAL-300A
 41
0.7613640000000002
100
AcDbText
  0
LINE
  5
2DB
330
36
100
AcDbEntity
  8
0
 62
     3
100
AcDbLine
 10
277.992971
 20
226.4202807090584
 30
0.0
 11
277.992971
 21
228.4946977090585
 31
0.0
  0
ARC
  5
2DC
330
36
100
AcDbEntity
  8
0
 62
     3
100
AcDbCircle
 10
276.942971
 20
228.4946977090585
 30
0.0
 40
1.05
100
AcDbArc
 50
0.0
 51
90.0
  0
LINE
  5
2DD
330
36
100
AcDbEntity
  8
0
 62
     3
100
AcDbLine
 10
267.501937
 20
229.5446977090585
 30
0.0
 11
276.942971
 21
229.5446977090585
 31
0.0
  0
ARC
  5
2DE
330
36
100
AcDbEntity
  8
0
 62
     3
100
AcDbCircle
 10
267.501937
 20
228.4946977090585
 30
0.0
 40
1.05
100
AcDbArc
 50
90.0
 51
180.0
  0
LINE
  5
2DF
330
36
100
AcDbEntity
  8
0
 62
     3
100
AcDbLine
 10
266.451937
 20
228.4946977090585
 30
0.0
 11
266.451937
 21
226.4202807090584
 31
0.0
  0
ARC
  5
2E0
330
36
100
AcDbEntity
  8
0
 62
     3
100
AcDbCircle
 10
267.501937
 20
226.4202807090584
 30
0.0
 40
1.05
100
AcDbArc
 50
180.0
 51
270.0
  0
LINE
  5
2E1
330
36
100
AcDbEntity
  8
0
 62
     3
100
AcDbLine
 10
267.501937
 20
225.3702807090584
 30
0.0
 11
276.942971
 21
225.3702807090584
 31
0.0
  0
ARC
  5
2E2
330
36
100
AcDbEntity
  8
0
 62
     3
100
AcDbCircle
 10
276.942971
 20
226.4202807090584
 30
0.0
 40
1.05
100
AcDbArc
 50
270.0
 51
0.0
  0
TEXT
  5
2E3
330
36
100
AcDbEntity
  8
0
 62
     3
100
AcDbText
 10
218.736459
 20
208.9280587090583
 30
0.0
 40
3.686399999999999
  1
DIGITAL ARC WELDER
100
AcDbText
  0
LINE
  5
2E4
330
36
100
AcDbEntity
  8
0
100
AcDbLine
 10
279.403717
 20
263.2287887090585
 30
0.0
 11
279.403717
 21
262.8335857090585
 31
0.0
  0
LINE
  5
2E5
330
36
100
AcDbEntity
  8
0
100
AcDbLine
 10
279.403717
 20
262.8335857090585
 30
0.0
 11
218.403717
 21
262.8335857090585
 31
0.0
  0
LINE
  5
2E6
330
36
100
AcDbEntity
  8
0
100
AcDbLine
 10
218.403717
 20
263.2287887090585
 30
0.0
 11
218.403717
 21
262.8335857090585
 31
0.0
  0
LINE
  5
2E7
330
36
100
AcDbEntity
  8
0
 62
     3
100
AcDbLine
 10
267.959222
 20
253.9664507090585
 30
0.0
 11
274.581265
 21
253.9664507090585
 31
0.0
  0
LINE
  5
2E8
330
36
100
AcDbEntity
  8
0
 62
     3
100
AcDbLine
 10
267.959222
 20
243.2729247090583
 30
0.0
 11
274.581265
 21
243.2729247090583
 31
0.0
  0
LINE
  5
2E9
330
36
100
AcDbEntity
  8
0
 62
     3
100
AcDbLine
 10
273.531265
 20
250.2166747090583
 30
0.0
 11
273.531265
 21
245.6419057090583
 31
0.0
  0
LINE
  5
2EA
330
36
100
AcDbEntity
  8
0
 62
     3
100
AcDbLine
 10
277.851134
 20
253.9664507090585
 30
0.0
 11
264.689353
 21
253.9664507090585
 31
0.0
  0
LINE
  5
2EB
330
36
100
AcDbEntity
  8
0
 62
     3
100
AcDbLine
 10
264.689353
 20
243.2729247090583
 30
0.0
 11
277.851134
 21
243.2729247090583
 31
0.0
  0
LINE
  5
2EC
330
36
100
AcDbEntity
  8
0
 62
     3
100
AcDbLine
 10
264.689353
 20
253.9664507090585
 30
0.0
 11
264.689353
 21
243.2729247090583
 31
0.0
  0
LINE
  5
2ED
330
36
100
AcDbEntity
  8
0
 62
     3
100
AcDbLine
 10
277.851134
 20
253.9664507090585
 30
0.0
 11
277.851134
 21
243.2729247090583
 31
0.0
  0
LINE
  5
2EE
330
36
100
AcDbEntity
  8
0
 62
     3
100
AcDbLine
 10
275.594178
 20
251.8869357090583
 30
0.0
 11
266.946309
 21
251.8869357090583
 31
0.0
  0
LINE
  5
2EF
330
36
100
AcDbEntity
  8
0
 62
     3
100
AcDbLine
 10
275.594178
 20
250.2166747090583
 30
0.0
 11
266.946309
 21
250.2166747090583
 31
0.0
  0
LINE
  5
2F0
330
36
100
AcDbEntity
  8
0
 62
     3
100
AcDbLine
 10
275.594178
 20
251.8869357090583
 30
0.0
 11
275.594178
 21
245.6419057090583
 31
0.0
  0
LINE
  5
2F1
330
36
100
AcDbEntity
  8
0
 62
     3
100
AcDbLine
 10
273.531265
 20
245.6419057090583
 30
0.0
 11
275.594178
 21
245.6419057090583
 31
0.0
  0
LINE
  5
2F2
330
36
100
AcDbEntity
  8
0
 62
     3
100
AcDbLine
 10
271.270243
 20
253.9664507090585
 30
0.0
 11
271.270243
 21
251.8869357090583
 31
0.0
  0
LINE
  5
2F3
330
36
100
AcDbEntity
  8
0
 62
     3
100
AcDbLine
 10
271.270243
 20
250.2166747090583
 30
0.0
 11
271.270243
 21
243.2729247090583
 31
0.0
  0
LINE
  5
2F4
330
36
100
AcDbEntity
  8
0
 62
     3
100
AcDbLine
 10
269.009222
 20
250.2166747090583
 30
0.0
 11
269.009222
 21
245.6419057090583
 31
0.0
  0
LINE
  5
2F5
330
36
100
AcDbEntity
  8
0
 62
     3
100
AcDbLine
 10
266.946309
 20
251.8869357090583
 30
0.0
 11
266.946309
 21
245.6419057090583
 31
0.0
  0
LINE
  5
2F6
330
36
100
AcDbEntity
  8
0
 62
     3
100
AcDbLine
 10
269.009222
 20
245.6419057090583
 30
0.0
 11
266.946309
 21
245.6419057090583
 31
0.0
  0
TEXT
  5
2F7
330
36
100
AcDbEntity
  8
0
 62
     2
100
AcDbText
 10
242.654815
 20
245.4225547090585
 30
0.0
 40
4.32
  1
300
 41
1.054826
100
AcDbText
  0
LINE
  5
2FD
330
36
100
AcDbEntity
  8
0
100
AcDbLine
 10
310.006009
 20
263.4569717090584
 30
0.0
 11
314.455983
 21
275.2097067090585
 31
0.0
  0
CIRCLE
  5
2FE
330
36
100
AcDbEntity
  8
0
100
AcDbCircle
 10
316.226484
 20
279.8857437090585
 30
0.0
 40
5.0
  0
TEXT
  5
2FF
330
36
100
AcDbEntity
  8
0
 62
     4
100
AcDbText
 10
315.2316711988499
 20
276.5786081549157
 30
0.0
 40
6.299999999999998
  1
1
  7
高6.3
100
AcDbText
  0
LINE
  5
305
330
36
100
AcDbEntity
  8
0
100
AcDbLine
 10
278.619809
 20
263.9178537090584
 30
0.0
 11
285.77466
 21
275.6199177090584
 31
0.0
  0
CIRCLE
  5
306
330
36
100
AcDbEntity
  8
0
100
AcDbCircle
 10
288.382863
 20
279.8857437090585
 30
0.0
 40
5.0
  0
TEXT
  5
307
330
36
100
AcDbEntity
  8
0
 62
     4
100
AcDbText
 10
286.1456770591748
 20
276.5218800672083
 30
0.0
 40
6.299999999999998
  1
2
  7
高6.3
100
AcDbText
  0
LINE
  5
30D
330
36
100
AcDbEntity
  8
0
100
AcDbLine
 10
268.627029
 20
254.0654927090583
 30
0.0
 11
276.574777
 21
275.2055717090583
 31
0.0
  0
CIRCLE
  5
30E
330
36
100
AcDbEntity
  8
0
100
AcDbCircle
 10
278.334318
 20
279.8857437090585
 30
0.0
 40
5.0
  0
TEXT
  5
30F
330
36
100
AcDbEntity
  8
0
 62
     4
100
AcDbText
 10
276.0971320591748
 20
276.5218800672083
 30
0.0
 40
6.299999999999998
  1
3
  7
高6.3
100
AcDbText
  0
LINE
  5
315
330
36
100
AcDbEntity
  8
0
100
AcDbLine
 10
249.861685
 20
251.8258817090584
 30
0.0
 11
259.967852
 21
275.2934717090583
 31
0.0
  0
CIRCLE
  5
316
330
36
100
AcDbEntity
  8
0
100
AcDbCircle
 10
261.945485
 20
279.8857437090585
 30
0.0
 40
5.0
  0
TEXT
  5
317
330
36
100
AcDbEntity
  8
0
 62
     4
100
AcDbText
 10
259.7082990591748
 20
276.5218800672083
 30
0.0
 40
6.299999999999998
  1
4
  7
高6.3
100
AcDbText
  0
LINE
  5
31D
330
36
100
AcDbEntity
  8
0
100
AcDbLine
 10
245.605112
 20
255.9086907090583
 30
0.0
 11
238.883559
 21
275.1650647090585
 31
0.0
  0
CIRCLE
  5
31E
330
36
100
AcDbEntity
  8
0
100
AcDbCircle
 10
237.235778
 20
279.8857437090585
 30
0.0
 40
5.0
  0
TEXT
  5
31F
330
36
100
AcDbEntity
  8
0
 62
     4
100
AcDbText
 10
234.9985920591748
 20
276.5218800672083
 30
0.0
 40
6.299999999999998
  1
5
  7
高6.3
100
AcDbText
  0
LINE
  5
325
330
36
100
AcDbEntity
  8
0
100
AcDbLine
 10
226.373275
 20
255.5387497090585
 30
0.0
 11
222.469921
 21
274.9835397090583
 31
0.0
  0
CIRCLE
  5
326
330
36
100
AcDbEntity
  8
0
100
AcDbCircle
 10
221.485851
 20
279.8857437090585
 30
0.0
 40
5.0
  0
TEXT
  5
327
330
36
100
AcDbEntity
  8
0
 62
     4
100
AcDbText
 10
219.2486650591748
 20
276.5218800672083
 30
0.0
 40
6.299999999999998
  1
6
  7
高6.3
100
AcDbText
  0
LINE
  5
32D
330
36
100
AcDbEntity
  8
0
100
AcDbLine
 10
224.200867
 20
244.0541197090585
 30
0.0
 11
209.768637
 21
275.3454007090584
 31
0.0
  0
CIRCLE
  5
32E
330
36
100
AcDbEntity
  8
0
100
AcDbCircle
 10
207.674531
 20
279.8857437090585
 30
0.0
 40
5.0
  0
TEXT
  5
32F
330
36
100
AcDbEntity
  8
0
 62
     4
100
AcDbText
 10
205.4373450591748
 20
276.5218800672083
 30
0.0
 40
6.299999999999998
  1
7
  7
高6.3
100
AcDbText
  0
LINE
  5
335
330
36
100
AcDbEntity
  8
0
100
AcDbLine
 10
156.0133
 20
228.8221527090583
 30
0.0
 11
177.419445
 21
275.3435257090583
 31
0.0
  0
CIRCLE
  5
336
330
36
100
AcDbEntity
  8
0
100
AcDbCircle
 10
179.509482
 20
279.8857437090585
 30
0.0
 40
5.0
  0
TEXT
  5
337
330
36
100
AcDbEntity
  8
0
 62
     4
100
AcDbText
 10
177.0162888906075
 20
277.6517462741263
 30
0.0
 40
4.5
  1
11
  7
高4.5
100
AcDbText
  0
LINE
  5
33D
330
36
100
AcDbEntity
  8
0
100
AcDbLine
 10
152.734614
 20
267.6287887090584
 30
0.0
 11
156.730263
 21
275.4349227090585
 31
0.0
  0
CIRCLE
  5
33E
330
36
100
AcDbEntity
  8
0
100
AcDbCircle
 10
159.008461
 20
279.8857437090585
 30
0.0
 40
5.0
  0
TEXT
  5
33F
330
36
100
AcDbEntity
  8
0
 62
     4
100
AcDbText
 10
156.008461
 20
277.6374250990643
 30
0.0
 40
4.5
  1
12
  7
高4.5
100
AcDbText
  0
LINE
  5
345
330
36
100
AcDbEntity
  8
0
100
AcDbLine
 10
110.416001
 20
246.2344287090583
 30
0.0
 11
105.779456
 21
274.9496747090584
 31
0.0
  0
CIRCLE
  5
346
330
36
100
AcDbEntity
  8
0
100
AcDbCircle
 10
104.982447
 20
279.8857437090585
 30
0.0
 40
5.0
  0
TEXT
  5
347
330
36
100
AcDbEntity
  8
0
 62
     4
100
AcDbText
 10
101.982447
 20
277.6374250990643
 30
0.0
 40
4.5
  1
13
  7
高4.5
100
AcDbText
  0
LINE
  5
34D
330
36
100
AcDbEntity
  8
0
100
AcDbLine
 10
228.590463
 20
193.1719747090583
 30
0.0
 11
208.546238
 21
199.6317527090583
 31
0.0
  0
CIRCLE
  5
34E
330
36
100
AcDbEntity
  8
0
100
AcDbCircle
 10
203.787272
 20
201.1654547090583
 30
0.0
 40
5.0
  0
TEXT
  5
34F
330
36
100
AcDbEntity
  8
0
 62
     4
100
AcDbText
 10
201.5500860591748
 20
197.8015910672081
 30
0.0
 40
6.299999999999998
  1
8
  7
高6.3
100
AcDbText
  0
LINE
  5
355
330
36
100
AcDbEntity
  8
0
100
AcDbLine
 10
222.629939
 20
187.5442167090583
 30
0.0
 11
208.78453
 21
188.0029587090583
 31
0.0
  0
CIRCLE
  5
356
330
36
100
AcDbEntity
  8
0
100
AcDbCircle
 10
203.787272
 20
188.1685337090583
 30
0.0
 40
5.0
  0
TEXT
  5
357
330
36
100
AcDbEntity
  8
0
 62
     4
100
AcDbText
 10
201.5500860591748
 20
184.8046700672083
 30
0.0
 40
6.299999999999998
  1
9
  7
高6.3
100
AcDbText
  0
LINE
  5
35D
330
36
100
AcDbEntity
  8
0
100
AcDbLine
 10
219.264349
 20
175.5355877090583
 30
0.0
 11
208.769656
 21
176.4188827090583
 31
0.0
  0
CIRCLE
  5
35E
330
36
100
AcDbEntity
  8
0
100
AcDbCircle
 10
203.787272
 20
176.8382287090583
 30
0.0
 40
5.0
  0
TEXT
  5
35F
330
36
100
AcDbEntity
  8
0
 62
     4
100
AcDbText
 10
200.787272
 20
174.5899100990641
 30
0.0
 40
4.5
  1
10
  7
高4.5
100
AcDbText
  0
TEXT
  5
360
330
36
100
AcDbEntity
  8
0
 62
     3
100
AcDbText
 10
136.8823125848736
 20
41.07144199999999
 30
0.0
 40
3.2
  1
トグル型
 41
0.8
  7
高3.2
100
AcDbText
  0
TEXT
  5
361
330
36
100
AcDbEntity
  8
0
 62
     3
100
AcDbText
 10
136.8823125848736
 20
66.07144200000002
 30
0.0
 40
3.2
  1
MAX300A
 41
0.8
  7
高3.2
100
AcDbText
  0
TEXT
  5
362
330
36
100
AcDbEntity
  8
0
 62
     3
100
AcDbText
 10
88.8887652129236
 20
160.9194148883015
 30
0.0
 40
3.2
  1
丸端子M6用
  7
高3.2
100
AcDbText
  0
LINE
  5
363
330
36
100
AcDbEntity
  8
0
 62
     7
100
AcDbLine
 10
88.8887652129236
 20
159.8461704861916
 30
0.0
 11
111.0056673994506
 21
159.8461704861916
 31
0.0
  0
TEXT
  5
365
330
36
100
AcDbEntity
  8
0
 62
     3
100
AcDbText
 10
370.104859403765
 20
43.01939370030059
 30
0.0
 40
3.2
  1
別　掲
  7
高3.2
100
AcDbText
  0
TEXT
  5
36F
330
36
100
AcDbEntity
  8
0
 62
     3
100
AcDbText
 10
136.8823125848736
 20
96.07144200000002
 30
0.0
 40
3.2
  1
6sqx4芯x5m
 41
0.8
  7
高3.2
100
AcDbText
  0
TEXT
  5
370
330
36
100
AcDbEntity
  8
0
 62
     3
100
AcDbText
 10
136.8823125848736
 20
31.071442
 30
0.0
 40
3.2
  1
塗装色　赤
 41
0.8
  7
高3.2
100
AcDbText
  0
TEXT
  5
371
330
36
100
AcDbEntity
  8
0
 62
     3
100
AcDbText
 10
219.161964
 20
213.1869327090585
 30
0.0
 40
6.047999999999999
  1
インバーター直流溶接機
 41
0.73539
100
AcDbText
  0
LINE
  5
372
330
36
100
AcDbEntity
  8
0
100
AcDbLine
 10
219.178698
 20
229.5802737090584
 30
0.0
 11
219.415938
 21
229.4564297090585
 31
0.0
  0
LINE
  5
373
330
36
100
AcDbEntity
  8
0
100
AcDbLine
 10
219.178698
 20
227.5491527090584
 30
0.0
 11
219.415938
 21
227.6729967090583
 31
0.0
  0
LINE
  5
374
330
36
100
AcDbEntity
  8
0
100
AcDbLine
 10
219.415938
 20
229.4564297090585
 30
0.0
 11
219.415938
 21
227.6729967090583
 31
0.0
  0
LINE
  5
375
330
36
100
AcDbEntity
  8
0
100
AcDbLine
 10
220.016742
 20
227.5491527090584
 30
0.0
 11
219.779502
 21
227.6729967090583
 31
0.0
  0
LINE
  5
376
330
36
100
AcDbEntity
  8
0
100
AcDbLine
 10
219.779502
 20
228.7601747090583
 30
0.0
 11
219.779502
 21
227.6729967090583
 31
0.0
  0
LINE
  5
377
330
36
100
AcDbEntity
  8
0
100
AcDbLine
 10
221.400646
 20
229.5802737090584
 30
0.0
 11
221.163405
 21
229.4564297090585
 31
0.0
  0
LINE
  5
378
330
36
100
AcDbEntity
  8
0
100
AcDbLine
 10
220.562601
 20
229.5802737090584
 30
0.0
 11
220.799842
 21
229.4564297090585
 31
0.0
  0
LINE
  5
379
330
36
100
AcDbEntity
  8
0
100
AcDbLine
 10
220.799842
 20
229.4564297090585
 30
0.0
 11
220.799842
 21
228.6711587090583
 31
0.0
  0
LINE
  5
37A
330
36
100
AcDbEntity
  8
0
100
AcDbLine
 10
221.163405
 20
229.4564297090585
 30
0.0
 11
221.163405
 21
227.4339707090584
 31
0.0
  0
LINE
  5
37B
330
36
100
AcDbEntity
  8
0
100
AcDbLine
 10
221.517863
 20
229.5802727090585
 30
0.0
 11
221.755103
 21
229.4564277090583
 31
0.0
  0
LINE
  5
37C
330
36
100
AcDbEntity
  8
0
100
AcDbLine
 10
221.51782
 20
227.5491797090585
 30
0.0
 11
221.755065
 21
227.6730157090584
 31
0.0
  0
LINE
  5
37D
330
36
100
AcDbEntity
  8
0
100
AcDbLine
 10
221.755103
 20
229.4564277090583
 30
0.0
 11
221.755103
 21
227.6730157090584
 31
0.0
  0
LINE
  5
37E
330
36
100
AcDbEntity
  8
0
100
AcDbLine
 10
222.568388
 20
229.5802597090584
 30
0.0
 11
222.331147
 21
229.4564197090583
 31
0.0
  0
LINE
  5
37F
330
36
100
AcDbEntity
  8
0
100
AcDbLine
 10
222.331147
 20
229.4564197090583
 30
0.0
 11
222.331147
 21
227.6730077090584
 31
0.0
  0
LINE
  5
380
330
36
100
AcDbEntity
  8
0
100
AcDbLine
 10
222.568388
 20
227.5491667090584
 30
0.0
 11
222.331147
 21
227.6730077090584
 31
0.0
  0
LINE
  5
381
330
36
100
AcDbEntity
  8
0
100
AcDbLine
 10
224.577526
 20
229.5802377090584
 30
0.0
 11
224.814766
 21
229.4563927090583
 31
0.0
  0
LINE
  5
382
330
36
100
AcDbEntity
  8
0
100
AcDbLine
 10
224.814766
 20
229.4563927090583
 30
0.0
 11
224.814735
 21
227.6729817090585
 31
0.0
  0
LINE
  5
383
330
36
100
AcDbEntity
  8
0
100
AcDbLine
 10
224.577491
 20
227.5491447090584
 30
0.0
 11
224.814735
 21
227.6729817090585
 31
0.0
  0
LINE
  5
384
330
36
100
AcDbEntity
  8
0
100
AcDbLine
 10
225.640423
 20
229.5802377090584
 30
0.0
 11
225.403184
 21
229.4563927090583
 31
0.0
  0
LINE
  5
385
330
36
100
AcDbEntity
  8
0
100
AcDbLine
 10
225.64046
 20
227.5491447090584
 30
0.0
 11
225.403214
 21
227.6729817090585
 31
0.0
  0
LINE
  5
386
330
36
100
AcDbEntity
  8
0
100
AcDbLine
 10
225.751342
 20
229.5802377090584
 30
0.0
 11
225.988582
 21
229.4563927090583
 31
0.0
  0
LINE
  5
387
330
36
100
AcDbEntity
  8
0
100
AcDbLine
 10
225.751307
 20
227.5491447090584
 30
0.0
 11
225.988551
 21
227.6729817090585
 31
0.0
  0
LINE
  5
388
330
36
100
AcDbEntity
  8
0
100
AcDbLine
 10
226.814241
 20
229.5802377090584
 30
0.0
 11
226.577
 21
229.4563927090583
 31
0.0
  0
LINE
  5
389
330
36
100
AcDbEntity
  8
0
100
AcDbLine
 10
226.577
 20
229.4563927090583
 30
0.0
 11
226.577032
 21
227.6729817090585
 31
0.0
  0
LINE
  5
38A
330
36
100
AcDbEntity
  8
0
100
AcDbLine
 10
226.814276
 20
227.5491447090584
 30
0.0
 11
226.577032
 21
227.6729817090585
 31
0.0
  0
LINE
  5
38B
330
36
100
AcDbEntity
  8
0
100
AcDbLine
 10
225.98857
 20
228.6793987090584
 30
0.0
 11
225.403197
 21
228.6793987090584
 31
0.0
  0
LINE
  5
38C
330
36
100
AcDbEntity
  8
0
100
AcDbLine
 10
225.988565
 20
228.4500287090583
 30
0.0
 11
225.403202
 21
228.4500287090583
 31
0.0
  0
LINE
  5
38D
330
36
100
AcDbEntity
  8
0
100
AcDbLine
 10
225.988582
 20
229.4563927090583
 30
0.0
 11
225.98857
 21
228.6793987090584
 31
0.0
  0
LINE
  5
38E
330
36
100
AcDbEntity
  8
0
100
AcDbLine
 10
225.988565
 20
228.4500287090583
 30
0.0
 11
225.988551
 21
227.6729817090585
 31
0.0
  0
LINE
  5
38F
330
36
100
AcDbEntity
  8
0
100
AcDbLine
 10
225.403184
 20
229.4563927090583
 30
0.0
 11
225.403197
 21
228.6793987090584
 31
0.0
  0
LINE
  5
390
330
36
100
AcDbEntity
  8
0
100
AcDbLine
 10
225.403202
 20
228.4500287090583
 30
0.0
 11
225.403214
 21
227.6729817090585
 31
0.0
  0
LINE
  5
391
330
36
100
AcDbEntity
  8
0
100
AcDbLine
 10
226.926918
 20
229.5802377090584
 30
0.0
 11
227.164158
 21
229.4563927090583
 31
0.0
  0
LINE
  5
392
330
36
100
AcDbEntity
  8
0
100
AcDbLine
 10
227.164158
 20
229.4563927090583
 30
0.0
 11
227.164126
 21
227.6729817090585
 31
0.0
  0
LINE
  5
393
330
36
100
AcDbEntity
  8
0
100
AcDbLine
 10
226.926882
 20
227.5491447090584
 30
0.0
 11
227.164126
 21
227.6729817090585
 31
0.0
  0
LINE
  5
394
330
36
100
AcDbEntity
  8
0
100
AcDbLine
 10
227.977429
 20
229.5802377090584
 30
0.0
 11
227.740189
 21
229.4563927090583
 31
0.0
  0
LINE
  5
395
330
36
100
AcDbEntity
  8
0
100
AcDbLine
 10
227.740189
 20
229.4563927090583
 30
0.0
 11
227.74022
 21
227.6729817090585
 31
0.0
  0
LINE
  5
396
330
36
100
AcDbEntity
  8
0
100
AcDbLine
 10
227.977464
 20
227.5491447090584
 30
0.0
 11
227.74022
 21
227.6729817090585
 31
0.0
  0
LINE
  5
397
330
36
100
AcDbEntity
  8
0
100
AcDbLine
 10
228.094136
 20
229.5802377090584
 30
0.0
 11
228.331376
 21
229.4563927090583
 31
0.0
  0
LINE
  5
398
330
36
100
AcDbEntity
  8
0
100
AcDbLine
 10
228.331376
 20
229.4563927090583
 30
0.0
 11
228.331345
 21
227.6729817090585
 31
0.0
  0
LINE
  5
399
330
36
100
AcDbEntity
  8
0
100
AcDbLine
 10
228.094101
 20
227.5491447090584
 30
0.0
 11
228.331345
 21
227.6729817090585
 31
0.0
  0
ARC
  5
39A
330
36
100
AcDbEntity
  8
0
100
AcDbCircle
 10
223.819708
 20
228.5698257090585
 30
0.0
 40
1.135866999999997
100
AcDbArc
 50
97.701524
 51
270.0
  0
ARC
  5
39B
330
36
100
AcDbEntity
  8
0
100
AcDbCircle
 10
230.83248
 20
228.5584167090585
 30
0.0
 40
1.148203
100
AcDbArc
 50
0.3142500000000204
 51
69.00558199999996
  0
ARC
  5
39C
330
36
100
AcDbEntity
  8
0
100
AcDbCircle
 10
231.083292
 20
228.5584167090585
 30
0.0
 40
1.148203
100
AcDbArc
 50
110.994418
 51
148.116611
  0
ARC
  5
39D
330
36
100
AcDbEntity
  8
0
100
AcDbCircle
 10
230.83248
 20
228.5710107090585
 30
0.0
 40
1.148203
100
AcDbArc
 50
290.994418
 51
359.6857499999998
  0
ARC
  5
39E
330
36
100
AcDbEntity
  8
0
100
AcDbCircle
 10
231.083292
 20
228.5710107090585
 30
0.0
 40
1.148203
100
AcDbArc
 50
211.883389
 51
249.005582
  0
ARC
  5
39F
330
36
100
AcDbEntity
  8
0
100
AcDbCircle
 10
230.957886
 20
229.0344627090585
 30
0.0
 40
0.660994
100
AcDbArc
 50
64.36517199999999
 51
115.634828
  0
ARC
  5
3A0
330
36
100
AcDbEntity
  8
0
100
AcDbCircle
 10
230.957886
 20
228.0949637090583
 30
0.0
 40
0.660994
100
AcDbArc
 50
244.365172
 51
295.634828
  0
ARC
  5
3A1
330
36
100
AcDbEntity
  8
0
100
AcDbCircle
 10
230.957886
 20
229.0470187090585
 30
0.0
 40
0.3244099999999999
100
AcDbArc
 50
19.48660599999997
 51
160.5133939999999
  0
ARC
  5
3A2
330
36
100
AcDbEntity
  8
0
100
AcDbCircle
 10
230.957886
 20
228.0949637090583
 30
0.0
 40
0.660994
100
AcDbArc
 50
244.365172
 51
295.634828
  0
ARC
  5
3A3
330
36
100
AcDbEntity
  8
0
100
AcDbCircle
 10
230.957886
 20
228.0824087090583
 30
0.0
 40
0.3244099999999999
100
AcDbArc
 50
199.4866059999999
 51
340.513394
  0
ARC
  5
3A4
330
36
100
AcDbEntity
  8
0
100
AcDbCircle
 10
225.351014
 20
196.5513797090584
 30
0.0
 40
34.3
100
AcDbArc
 50
81.70524099999999
 51
90.0
  0
ARC
  5
3A5
330
36
100
AcDbEntity
  8
0
100
AcDbCircle
 10
225.351014
 20
260.5780467090584
 30
0.0
 40
34.3
100
AcDbArc
 50
270.0
 51
278.294759
  0
ARC
  5
3A6
330
36
100
AcDbEntity
  8
0
100
AcDbCircle
 10
225.351014
 20
260.5780467090584
 30
0.0
 40
34.3
100
AcDbArc
 50
261.202589
 51
270.0
  0
ARC
  5
3A7
330
36
100
AcDbEntity
  8
0
100
AcDbCircle
 10
225.351014
 20
196.5513797090584
 30
0.0
 40
34.3
100
AcDbArc
 50
90.0
 51
98.797411
  0
ARC
  5
3A8
330
36
100
AcDbEntity
  8
0
100
AcDbCircle
 10
225.351014
 20
196.5513797090584
 30
0.0
 40
34.002733
100
AcDbArc
 50
81.20258900000001
 51
90.0
  0
ARC
  5
3A9
330
36
100
AcDbEntity
  8
0
100
AcDbCircle
 10
225.351014
 20
196.5513797090584
 30
0.0
 40
34.002733
100
AcDbArc
 50
90.0
 51
98.797411
  0
ARC
  5
3AA
330
36
100
AcDbEntity
  8
0
100
AcDbCircle
 10
225.351014
 20
260.5780467090584
 30
0.0
 40
34.002733
100
AcDbArc
 50
261.202589
 51
270.0
  0
ARC
  5
3AB
330
36
100
AcDbEntity
  8
0
100
AcDbCircle
 10
225.351014
 20
260.5780467090584
 30
0.0
 40
34.002733
100
AcDbArc
 50
270.0
 51
278.797411
  0
ARC
  5
3AC
330
36
100
AcDbEntity
  8
0
100
AcDbCircle
 10
228.814834
 20
220.3102117090584
 30
0.0
 40
10.29
100
AcDbArc
 50
63.039421
 51
81.70524099999999
  0
ARC
  5
3AD
330
36
100
AcDbEntity
  8
0
100
AcDbCircle
 10
225.351014
 20
196.5513797090584
 30
0.0
 40
34.3
100
AcDbArc
 50
81.20258900000001
 51
81.70524099999999
  0
ARC
  5
3AE
330
36
100
AcDbEntity
  8
0
100
AcDbCircle
 10
233.013562
 20
228.5647127090584
 30
0.0
 40
1.028999999999999
100
AcDbArc
 50
296.9605789999998
 51
63.039421
  0
ARC
  5
3AF
330
36
100
AcDbEntity
  8
0
100
AcDbCircle
 10
228.814834
 20
236.8192157090583
 30
0.0
 40
10.29
100
AcDbArc
 50
278.294759
 51
296.9605789999998
  0
ARC
  5
3B0
330
36
100
AcDbEntity
  8
0
100
AcDbCircle
 10
225.351014
 20
260.5780467090584
 30
0.0
 40
34.3
100
AcDbArc
 50
278.294759
 51
278.797411
  0
ARC
  5
3B1
330
36
100
AcDbEntity
  8
0
100
AcDbCircle
 10
233.013562
 20
228.5647127090584
 30
0.0
 40
0.7317330000000001
100
AcDbArc
 50
296.9605789999998
 51
63.039421
  0
ARC
  5
3B2
330
36
100
AcDbEntity
  8
0
100
AcDbCircle
 10
228.814834
 20
236.8192157090583
 30
0.0
 40
9.992732999999999
100
AcDbArc
 50
278.294759
 51
296.9605789999998
  0
ARC
  5
3B3
330
36
100
AcDbEntity
  8
0
100
AcDbCircle
 10
228.814834
 20
220.3102117090584
 30
0.0
 40
9.992732999999999
100
AcDbArc
 50
63.039421
 51
81.70524099999999
  0
ARC
  5
3B4
330
36
100
AcDbEntity
  8
0
100
AcDbCircle
 10
217.692895
 20
228.5647127090584
 30
0.0
 40
1.028999999999999
100
AcDbArc
 50
116.960579
 51
243.039421
  0
ARC
  5
3B5
330
36
100
AcDbEntity
  8
0
100
AcDbCircle
 10
217.692895
 20
228.5647127090584
 30
0.0
 40
0.7317330000000001
100
AcDbArc
 50
116.960579
 51
243.039421
  0
ARC
  5
3B6
330
36
100
AcDbEntity
  8
0
100
AcDbCircle
 10
217.692895
 20
228.5647127090584
 30
0.0
 40
1.028999999999999
100
AcDbArc
 50
116.960579
 51
243.039421
  0
ARC
  5
3B7
330
36
100
AcDbEntity
  8
0
100
AcDbCircle
 10
217.692895
 20
228.5647127090584
 30
0.0
 40
0.7317330000000001
100
AcDbArc
 50
116.960579
 51
243.039421
  0
ARC
  5
3B8
330
36
100
AcDbEntity
  8
0
100
AcDbCircle
 10
221.891622
 20
220.3102117090584
 30
0.0
 40
10.29
100
AcDbArc
 50
98.294759
 51
116.960579
  0
ARC
  5
3B9
330
36
100
AcDbEntity
  8
0
100
AcDbCircle
 10
221.891622
 20
220.3102117090584
 30
0.0
 40
9.992732999999999
100
AcDbArc
 50
98.294759
 51
116.960579
  0
ARC
  5
3BA
330
36
100
AcDbEntity
  8
0
100
AcDbCircle
 10
221.891622
 20
236.8192157090583
 30
0.0
 40
9.992732999999999
100
AcDbArc
 50
243.039421
 51
261.705241
  0
ARC
  5
3BB
330
36
100
AcDbEntity
  8
0
100
AcDbCircle
 10
221.891622
 20
236.8192157090583
 30
0.0
 40
10.29
100
AcDbArc
 50
243.039421
 51
261.705241
  0
LINE
  5
3BC
330
36
100
AcDbEntity
  8
0
100
AcDbLine
 10
227.977429
 20
227.4339707090584
 30
0.0
 11
226.926917
 21
227.4339707090584
 31
0.0
  0
LINE
  5
3BD
330
36
100
AcDbEntity
  8
0
100
AcDbLine
 10
227.977429
 20
227.5491527090584
 30
0.0
 11
227.977429
 21
227.4339707090584
 31
0.0
  0
LINE
  5
3BE
330
36
100
AcDbEntity
  8
0
100
AcDbLine
 10
226.814241
 20
229.6954027090584
 30
0.0
 11
225.751342
 21
229.6954027090584
 31
0.0
  0
LINE
  5
3BF
330
36
100
AcDbEntity
  8
0
100
AcDbLine
 10
226.814241
 20
229.6954027090584
 30
0.0
 11
226.814241
 21
229.5802737090584
 31
0.0
  0
LINE
  5
3C0
330
36
100
AcDbEntity
  8
0
100
AcDbLine
 10
226.814241
 20
227.5491527090584
 30
0.0
 11
226.814241
 21
227.4339157090585
 31
0.0
  0
LINE
  5
3C1
330
36
100
AcDbEntity
  8
0
100
AcDbLine
 10
226.814241
 20
227.4339157090585
 30
0.0
 11
225.751342
 21
227.4339157090585
 31
0.0
  0
LINE
  5
3C2
330
36
100
AcDbEntity
  8
0
100
AcDbLine
 10
227.977429
 20
229.6954567090584
 30
0.0
 11
227.977429
 21
229.5802737090584
 31
0.0
  0
LINE
  5
3C3
330
36
100
AcDbEntity
  8
0
100
AcDbLine
 10
227.977429
 20
229.6954567090584
 30
0.0
 11
226.926917
 21
229.6954567090584
 31
0.0
  0
LINE
  5
3C4
330
36
100
AcDbEntity
  8
0
100
AcDbLine
 10
226.926917
 20
229.6954567090584
 30
0.0
 11
226.926917
 21
229.5802737090584
 31
0.0
  0
LINE
  5
3C5
330
36
100
AcDbEntity
  8
0
100
AcDbLine
 10
228.094136
 20
227.5491527090584
 30
0.0
 11
228.094136
 21
227.4339707090584
 31
0.0
  0
LINE
  5
3C6
330
36
100
AcDbEntity
  8
0
100
AcDbLine
 10
229.174477
 20
227.4339707090584
 30
0.0
 11
228.094136
 21
227.4339707090584
 31
0.0
  0
LINE
  5
3C7
330
36
100
AcDbEntity
  8
0
100
AcDbLine
 10
228.907407
 20
229.3318947090585
 30
0.0
 11
228.907407
 21
227.7975327090583
 31
0.0
  0
LINE
  5
3C8
330
36
100
AcDbEntity
  8
0
100
AcDbLine
 10
228.907407
 20
227.7975327090583
 30
0.0
 11
229.010878
 21
227.7975327090583
 31
0.0
  0
ARC
  5
3C9
330
36
100
AcDbEntity
  8
0
100
AcDbCircle
 10
228.481795
 20
228.5647127090584
 30
0.0
 40
0.9319309999999999
100
AcDbArc
 50
304.591955
 51
55.40804500000001
  0
LINE
  5
3CA
330
36
100
AcDbEntity
  8
0
100
AcDbLine
 10
229.174477
 20
229.6954567090584
 30
0.0
 11
228.094136
 21
229.6954567090584
 31
0.0
  0
LINE
  5
3CB
330
36
100
AcDbEntity
  8
0
100
AcDbLine
 10
228.094136
 20
229.6954567090584
 30
0.0
 11
228.094136
 21
229.5802737090584
 31
0.0
  0
LINE
  5
3CC
330
36
100
AcDbEntity
  8
0
100
AcDbLine
 10
226.926917
 20
227.5491527090584
 30
0.0
 11
226.926917
 21
227.4339707090584
 31
0.0
  0
LINE
  5
3CD
330
36
100
AcDbEntity
  8
0
100
AcDbLine
 10
228.907407
 20
229.3318947090585
 30
0.0
 11
229.010878
 21
229.3318947090585
 31
0.0
  0
LINE
  5
3CE
330
36
100
AcDbEntity
  8
0
100
AcDbLine
 10
222.568353
 20
227.5491527090584
 30
0.0
 11
222.568351
 21
227.4339587090585
 31
0.0
  0
LINE
  5
3CF
330
36
100
AcDbEntity
  8
0
100
AcDbLine
 10
221.517839
 20
227.4339807090583
 30
0.0
 11
222.568351
 21
227.4339617090583
 31
0.0
  0
LINE
  5
3D0
330
36
100
AcDbEntity
  8
0
100
AcDbLine
 10
219.178698
 20
227.4339707090584
 30
0.0
 11
220.016742
 21
227.4339707090584
 31
0.0
  0
ARC
  5
3D1
330
36
100
AcDbEntity
  8
0
100
AcDbCircle
 10
216.466307
 20
228.5913407090584
 30
0.0
 40
8.010718999999998
100
AcDbArc
 50
353.866006
 51
357.694034
  0
LINE
  5
3D2
330
36
100
AcDbEntity
  8
0
100
AcDbLine
 10
224.012449
 20
228.2707177090584
 30
0.0
 11
224.470539
 21
228.2690227090584
 31
0.0
  0
LINE
  5
3D3
330
36
100
AcDbEntity
  8
0
100
AcDbLine
 10
224.012449
 20
228.8561207090585
 30
0.0
 11
224.472706
 21
228.8544177090585
 31
0.0
  0
ARC
  5
3D4
330
36
100
AcDbEntity
  8
0
100
AcDbCircle
 10
216.466307
 20
228.5913407090584
 30
0.0
 40
8.010718999999998
100
AcDbArc
 50
1.88196599999998
 51
5.709993999999978
  0
LINE
  5
3D5
330
36
100
AcDbEntity
  8
0
100
AcDbLine
 10
222.568391
 20
229.6954467090584
 30
0.0
 11
222.568388
 21
229.5802737090584
 31
0.0
  0
LINE
  5
3D6
330
36
100
AcDbEntity
  8
0
100
AcDbLine
 10
221.517878
 20
229.6954687090585
 30
0.0
 11
222.568391
 21
229.6954497090584
 31
0.0
  0
LINE
  5
3D7
330
36
100
AcDbEntity
  8
0
100
AcDbLine
 10
221.517841
 20
227.5491527090584
 30
0.0
 11
221.517839
 21
227.4339807090583
 31
0.0
  0
LINE
  5
3D8
330
36
100
AcDbEntity
  8
0
100
AcDbLine
 10
221.517878
 20
229.6954687090585
 30
0.0
 11
221.517877
 21
229.5802737090584
 31
0.0
  0
LINE
  5
3D9
330
36
100
AcDbEntity
  8
0
100
AcDbLine
 10
220.016742
 20
227.5491527090584
 30
0.0
 11
220.016742
 21
227.4339707090584
 31
0.0
  0
LINE
  5
3DA
330
36
100
AcDbEntity
  8
0
100
AcDbLine
 10
219.779502
 20
228.7601747090583
 30
0.0
 11
220.60838
 21
227.4339707090584
 31
0.0
  0
LINE
  5
3DB
330
36
100
AcDbEntity
  8
0
100
AcDbLine
 10
220.60838
 20
227.4339707090584
 30
0.0
 11
221.163405
 21
227.4339707090584
 31
0.0
  0
LINE
  5
3DC
330
36
100
AcDbEntity
  8
0
100
AcDbLine
 10
221.400646
 20
229.6954567090584
 30
0.0
 11
221.400646
 21
229.5802737090584
 31
0.0
  0
LINE
  5
3DD
330
36
100
AcDbEntity
  8
0
100
AcDbLine
 10
220.562601
 20
229.6954567090584
 30
0.0
 11
221.400646
 21
229.6954567090584
 31
0.0
  0
LINE
  5
3DE
330
36
100
AcDbEntity
  8
0
100
AcDbLine
 10
220.562601
 20
229.6954567090584
 30
0.0
 11
220.562601
 21
229.5802737090584
 31
0.0
  0
LINE
  5
3DF
330
36
100
AcDbEntity
  8
0
100
AcDbLine
 10
220.799842
 20
228.6711587090583
 30
0.0
 11
220.127645
 21
229.6954567090584
 31
0.0
  0
LINE
  5
3E0
330
36
100
AcDbEntity
  8
0
100
AcDbLine
 10
219.178698
 20
229.6954567090584
 30
0.0
 11
220.127645
 21
229.6954567090584
 31
0.0
  0
LINE
  5
3E1
330
36
100
AcDbEntity
  8
0
100
AcDbLine
 10
224.577526
 20
229.6954027090584
 30
0.0
 11
225.640425
 21
229.6954027090584
 31
0.0
  0
LINE
  5
3E2
330
36
100
AcDbEntity
  8
0
100
AcDbLine
 10
224.577526
 20
229.5802737090584
 30
0.0
 11
224.577526
 21
229.6954027090584
 31
0.0
  0
LINE
  5
3E3
330
36
100
AcDbEntity
  8
0
100
AcDbLine
 10
224.577526
 20
227.4339157090585
 30
0.0
 11
224.577526
 21
227.5491527090584
 31
0.0
  0
LINE
  5
3E4
330
36
100
AcDbEntity
  8
0
100
AcDbLine
 10
224.577526
 20
227.4339157090585
 30
0.0
 11
225.640425
 21
227.4339157090585
 31
0.0
  0
LINE
  5
3E5
330
36
100
AcDbEntity
  8
0
100
AcDbLine
 10
225.751342
 20
227.5491527090584
 30
0.0
 11
225.751342
 21
227.4339157090585
 31
0.0
  0
LINE
  5
3E6
330
36
100
AcDbEntity
  8
0
100
AcDbLine
 10
225.640425
 20
227.5491527090584
 30
0.0
 11
225.640425
 21
227.4339157090585
 31
0.0
  0
LINE
  5
3E7
330
36
100
AcDbEntity
  8
0
100
AcDbLine
 10
225.640425
 20
229.5802737090584
 30
0.0
 11
225.640425
 21
229.6954027090584
 31
0.0
  0
LINE
  5
3E8
330
36
100
AcDbEntity
  8
0
100
AcDbLine
 10
225.751342
 20
229.5802737090584
 30
0.0
 11
225.751342
 21
229.6954027090584
 31
0.0
  0
LINE
  5
3E9
330
36
100
AcDbEntity
  8
0
100
AcDbLine
 10
219.178698
 20
227.5491527090584
 30
0.0
 11
219.178698
 21
227.4339707090584
 31
0.0
  0
LINE
  5
3EA
330
36
100
AcDbEntity
  8
0
100
AcDbLine
 10
219.178698
 20
229.6954567090584
 30
0.0
 11
219.178698
 21
229.5802737090584
 31
0.0
  0
ARC
  5
3EB
330
36
100
AcDbEntity
  8
0
100
AcDbCircle
 10
229.288811
 20
228.8019547090584
 30
0.0
 40
0.8935030000000001
100
AcDbArc
 50
17.30874899999999
 51
23.765071
  0
ARC
  5
3EC
330
36
100
AcDbEntity
  8
0
100
AcDbCircle
 10
228.527528
 20
228.5647127090584
 30
0.0
 40
1.690895
100
AcDbArc
 50
342.691251
 51
17.308566
  0
ARC
  5
3ED
330
36
100
AcDbEntity
  8
0
100
AcDbCircle
 10
229.288811
 20
228.3274727090584
 30
0.0
 40
0.8935030000000001
100
AcDbArc
 50
336.234929
 51
342.691251
  0
ARC
  5
3EE
330
36
100
AcDbEntity
  8
0
100
AcDbCircle
 10
229.174477
 20
228.8019547090584
 30
0.0
 40
0.8935030000000001
100
AcDbArc
 50
17.30874899999999
 51
90.0
  0
ARC
  5
3EF
330
36
100
AcDbEntity
  8
0
100
AcDbCircle
 10
228.413195
 20
228.5647127090584
 30
0.0
 40
1.690895
100
AcDbArc
 50
342.691251
 51
17.308566
  0
ARC
  5
3F0
330
36
100
AcDbEntity
  8
0
100
AcDbCircle
 10
229.174477
 20
228.3274727090584
 30
0.0
 40
0.8935030000000001
100
AcDbArc
 50
270.0
 51
342.691251
  0
ARC
  5
3F1
330
36
100
AcDbEntity
  8
0
100
AcDbCircle
 10
223.662554
 20
228.5647127090584
 30
0.0
 40
1.130743999999997
100
AcDbArc
 50
46.75287999999999
 51
89.749998
  0
ARC
  5
3F2
330
36
100
AcDbEntity
  8
0
100
AcDbCircle
 10
223.662554
 20
228.5647127090584
 30
0.0
 40
1.130743999999997
100
AcDbArc
 50
273.976333
 51
312.82312
  0
ARC
  5
3F3
330
36
100
AcDbEntity
  8
0
100
AcDbCircle
 10
229.891983
 20
228.5472577090583
 30
0.0
 40
1.500429
100
AcDbArc
 50
0.6665839999999952
 51
23.90392800000002
  0
ARC
  5
3F4
330
36
100
AcDbEntity
  8
0
100
AcDbCircle
 10
232.023789
 20
228.5472577090583
 30
0.0
 40
1.500429
100
AcDbArc
 50
156.0960719999999
 51
179.333416
  0
ARC
  5
3F5
330
36
100
AcDbEntity
  8
0
100
AcDbCircle
 10
229.891983
 20
228.5821697090584
 30
0.0
 40
1.500429
100
AcDbArc
 50
336.096072
 51
359.333416
  0
ARC
  5
3F6
330
36
100
AcDbEntity
  8
0
100
AcDbCircle
 10
232.023789
 20
228.5821697090584
 30
0.0
 40
1.500429
100
AcDbArc
 50
180.666584
 51
203.903928
  0
ARC
  5
3F7
330
36
100
AcDbEntity
  8
0
100
AcDbCircle
 10
224.772524
 20
228.5472577090583
 30
0.0
 40
1.500429
100
AcDbArc
 50
156.0960719999999
 51
179.333416
  0
ARC
  5
3F8
330
36
100
AcDbEntity
  8
0
100
AcDbCircle
 10
223.706621
 20
229.0470187090585
 30
0.0
 40
0.3244099999999999
100
AcDbArc
 50
19.48660599999997
 51
160.5133939999999
  0
ARC
  5
3F9
330
36
100
AcDbEntity
  8
0
100
AcDbCircle
 10
224.772524
 20
228.5821697090584
 30
0.0
 40
1.500429
100
AcDbArc
 50
180.666584
 51
203.903928
  0
ARC
  5
3FA
330
36
100
AcDbEntity
  8
0
100
AcDbCircle
 10
223.706621
 20
228.0824087090583
 30
0.0
 40
0.3244099999999999
100
AcDbArc
 50
199.4866059999999
 51
340.513394
  0
LINE
  5
3FB
330
36
100
AcDbEntity
  8
0
100
AcDbLine
 10
224.012449
 20
229.1552377090585
 30
0.0
 11
224.012449
 21
228.8561207090585
 31
0.0
  0
LINE
  5
3FC
330
36
100
AcDbEntity
  8
0
100
AcDbLine
 10
224.012449
 20
227.9741897090585
 30
0.0
 11
224.012449
 21
228.2707177090584
 31
0.0
  0
CIRCLE
  5
3FD
330
36
100
AcDbEntity
  8
0
100
AcDbCircle
 10
226.205924
 20
243.3347977090585
 30
0.0
 40
2.420179999999997
  0
CIRCLE
  5
3FE
330
36
100
AcDbEntity
  8
0
100
AcDbCircle
 10
226.205924
 20
243.3347977090585
 30
0.0
 40
2.879999999999999
  0
LINE
  5
3FF
330
36
100
AcDbEntity
  8
0
100
AcDbLine
 10
247.785474
 20
255.2731857090585
 30
0.0
 11
243.7376
 21
255.2731857090585
 31
0.0
  0
LINE
  5
400
330
36
100
AcDbEntity
  8
0
100
AcDbLine
 10
247.785474
 20
255.5536107090585
 30
0.0
 11
243.7376
 21
255.5536107090585
 31
0.0
  0
LINE
  5
401
330
36
100
AcDbEntity
  8
0
100
AcDbLine
 10
253.742388
 20
255.2731857090585
 30
0.0
 11
249.906629
 21
255.2731857090585
 31
0.0
  0
LINE
  5
402
330
36
100
AcDbEntity
  8
0
100
AcDbLine
 10
253.742388
 20
255.5536107090585
 30
0.0
 11
249.906629
 21
255.5536107090585
 31
0.0
  0
LINE
  5
403
330
36
100
AcDbEntity
  8
0
100
AcDbLine
 10
283.603717
 20
219.2954547090583
 30
0.0
 11
214.203717
 21
219.2954547090583
 31
0.0
  0
LINE
  5
404
330
36
100
AcDbEntity
  8
0
100
AcDbLine
 10
272.237051
 20
220.3630637090584
 30
0.0
 11
272.237051
 21
218.8151817090585
 31
0.0
  0
LINE
  5
405
330
36
100
AcDbEntity
  8
0
100
AcDbLine
 10
266.403717
 20
220.3630637090584
 30
0.0
 11
266.403717
 21
218.8151817090585
 31
0.0
  0
LINE
  5
406
330
36
100
AcDbEntity
  8
0
100
AcDbLine
 10
260.570384
 20
220.3630637090584
 30
0.0
 11
260.570384
 21
218.8151817090585
 31
0.0
  0
LINE
  5
407
330
36
100
AcDbEntity
  8
0
100
AcDbLine
 10
254.737051
 20
220.3630637090584
 30
0.0
 11
254.737051
 21
218.8151817090585
 31
0.0
  0
LINE
  5
408
330
36
100
AcDbEntity
  8
0
100
AcDbLine
 10
243.070384
 20
213.5254577090585
 30
0.0
 11
243.070384
 21
208.6287887090583
 31
0.0
  0
LINE
  5
409
330
36
100
AcDbEntity
  8
0
100
AcDbLine
 10
237.237051
 20
219.7496697090583
 30
0.0
 11
237.237051
 21
218.8151817090585
 31
0.0
  0
LINE
  5
40A
330
36
100
AcDbEntity
  8
0
100
AcDbLine
 10
231.403717
 20
219.7496697090583
 30
0.0
 11
231.403717
 21
218.8151817090585
 31
0.0
  0
LINE
  5
40B
330
36
100
AcDbEntity
  8
0
100
AcDbLine
 10
225.570384
 20
219.7496697090583
 30
0.0
 11
225.570384
 21
218.8151817090585
 31
0.0
  0
LINE
  5
40C
330
36
100
AcDbEntity
  8
0
100
AcDbLine
 10
219.737051
 20
209.2319157090583
 30
0.0
 11
219.737051
 21
208.6287887090583
 31
0.0
  0
LINE
  5
40D
330
36
100
AcDbEntity
  8
0
100
AcDbLine
 10
225.570384
 20
213.5254577090585
 30
0.0
 11
225.570384
 21
212.4713947090584
 31
0.0
  0
LINE
  5
40E
330
36
100
AcDbEntity
  8
0
100
AcDbLine
 10
225.570384
 20
209.2319157090583
 30
0.0
 11
225.570384
 21
208.6287887090583
 31
0.0
  0
LINE
  5
40F
330
36
100
AcDbEntity
  8
0
100
AcDbLine
 10
231.403717
 20
213.5254577090585
 30
0.0
 11
231.403717
 21
212.4713947090584
 31
0.0
  0
LINE
  5
410
330
36
100
AcDbEntity
  8
0
100
AcDbLine
 10
231.403717
 20
209.2319157090583
 30
0.0
 11
231.403717
 21
208.6287887090583
 31
0.0
  0
LINE
  5
411
330
36
100
AcDbEntity
  8
0
100
AcDbLine
 10
237.237051
 20
213.5254577090585
 30
0.0
 11
237.237051
 21
212.4713947090584
 31
0.0
  0
LINE
  5
412
330
36
100
AcDbEntity
  8
0
100
AcDbLine
 10
237.237051
 20
209.2319157090583
 30
0.0
 11
237.237051
 21
208.6287887090583
 31
0.0
  0
LINE
  5
413
330
36
100
AcDbEntity
  8
0
100
AcDbLine
 10
248.903717
 20
213.5254577090585
 30
0.0
 11
248.903717
 21
212.4713947090584
 31
0.0
  0
LINE
  5
414
330
36
100
AcDbEntity
  8
0
100
AcDbLine
 10
248.903717
 20
209.2319157090583
 30
0.0
 11
248.903717
 21
208.6287887090583
 31
0.0
  0
LINE
  5
415
330
36
100
AcDbEntity
  8
0
100
AcDbLine
 10
254.737051
 20
213.5254577090585
 30
0.0
 11
254.737051
 21
212.4713947090584
 31
0.0
  0
LINE
  5
416
330
36
100
AcDbEntity
  8
0
100
AcDbLine
 10
254.737051
 20
209.2319157090583
 30
0.0
 11
254.737051
 21
208.6287887090583
 31
0.0
  0
LINE
  5
417
330
36
100
AcDbEntity
  8
0
100
AcDbLine
 10
260.570384
 20
213.5254577090585
 30
0.0
 11
260.570384
 21
212.4713947090584
 31
0.0
  0
LINE
  5
418
330
36
100
AcDbEntity
  8
0
100
AcDbLine
 10
260.570384
 20
209.2319157090583
 30
0.0
 11
260.570384
 21
208.6287887090583
 31
0.0
  0
LINE
  5
419
330
36
100
AcDbEntity
  8
0
100
AcDbLine
 10
266.403717
 20
213.5254577090585
 30
0.0
 11
266.403717
 21
212.4713947090584
 31
0.0
  0
LINE
  5
41A
330
36
100
AcDbEntity
  8
0
100
AcDbLine
 10
266.403717
 20
209.2319157090583
 30
0.0
 11
266.403717
 21
208.6287887090583
 31
0.0
  0
LINE
  5
41B
330
36
100
AcDbEntity
  8
0
100
AcDbLine
 10
272.237051
 20
213.5254577090585
 30
0.0
 11
272.237051
 21
212.4713947090584
 31
0.0
  0
LINE
  5
41C
330
36
100
AcDbEntity
  8
0
100
AcDbLine
 10
272.237051
 20
209.2319157090583
 30
0.0
 11
272.237051
 21
208.6287887090583
 31
0.0
  0
LINE
  5
41D
330
36
100
AcDbEntity
  8
0
100
AcDbLine
 10
278.070384
 20
209.2319157090583
 30
0.0
 11
278.070384
 21
208.6287887090583
 31
0.0
  0
LINE
  5
41E
330
36
100
AcDbEntity
  8
0
100
AcDbLine
 10
214.203717
 20
213.0262977090583
 30
0.0
 11
283.603717
 21
213.0262977090583
 31
0.0
  0
LINE
  5
41F
330
36
100
AcDbEntity
  8
0
100
AcDbLine
 10
237.237051
 20
218.8151817090585
 30
0.0
 11
237.237051
 21
217.1384517090584
 31
0.0
  0
LINE
  5
420
330
36
100
AcDbEntity
  8
0
100
AcDbLine
 10
237.237051
 20
213.0262977090583
 30
0.0
 11
237.237051
 21
215.4379277090585
 31
0.0
  0
LINE
  5
421
330
36
100
AcDbEntity
  8
0
100
AcDbLine
 10
248.903717
 20
213.5254577090585
 30
0.0
 11
248.903717
 21
215.5189047090585
 31
0.0
  0
LINE
  5
422
330
36
100
AcDbEntity
  8
0
100
AcDbLine
 10
248.903717
 20
219.2954547090583
 30
0.0
 11
248.903717
 21
217.1384517090584
 31
0.0
  0
LINE
  5
423
330
36
100
AcDbEntity
  8
0
100
AcDbLine
 10
225.570384
 20
218.8151817090585
 30
0.0
 11
225.570384
 21
218.1101807090583
 31
0.0
  0
LINE
  5
424
330
36
100
AcDbEntity
  8
0
100
AcDbLine
 10
225.570384
 20
213.5254577090585
 30
0.0
 11
225.570384
 21
214.1422897090584
 31
0.0
  0
LINE
  5
425
330
36
100
AcDbEntity
  8
0
100
AcDbLine
 10
225.570384
 20
224.0493387090585
 30
0.0
 11
225.570384
 21
219.7496697090583
 31
0.0
  0
LINE
  5
426
330
36
100
AcDbEntity
  8
0
100
AcDbLine
 10
231.403717
 20
213.5254577090585
 30
0.0
 11
231.403717
 21
214.7631117090585
 31
0.0
  0
LINE
  5
427
330
36
100
AcDbEntity
  8
0
100
AcDbLine
 10
243.070384
 20
213.5254577090585
 30
0.0
 11
243.070384
 21
214.6594907090585
 31
0.0
  0
LINE
  5
428
330
36
100
AcDbEntity
  8
0
100
AcDbLine
 10
243.070384
 20
224.6287887090584
 30
0.0
 11
243.070384
 21
218.8151817090585
 31
0.0
  0
LINE
  5
429
330
36
100
AcDbEntity
  8
0
100
AcDbLine
 10
248.903717
 20
224.6287887090584
 30
0.0
 11
248.903717
 21
218.8151817090585
 31
0.0
  0
LINE
  5
42A
330
36
100
AcDbEntity
  8
0
100
AcDbLine
 10
278.070384
 20
224.6287887090584
 30
0.0
 11
278.070384
 21
212.4713947090584
 31
0.0
  0
LINE
  5
42B
330
36
100
AcDbEntity
  8
0
100
AcDbLine
 10
219.737051
 20
224.6287887090584
 30
0.0
 11
219.737051
 21
212.4713947090584
 31
0.0
  0
LINE
  5
42C
330
36
100
AcDbEntity
  8
0
100
AcDbLine
 10
283.603717
 20
224.6287887090584
 30
0.0
 11
214.203717
 21
224.6287887090584
 31
0.0
  0
LINE
  5
42D
330
36
100
AcDbEntity
  8
0
100
AcDbLine
 10
272.237051
 20
224.6287887090584
 30
0.0
 11
272.237051
 21
223.4972157090583
 31
0.0
  0
LINE
  5
42E
330
36
100
AcDbEntity
  8
0
100
AcDbLine
 10
266.403717
 20
224.6287887090584
 30
0.0
 11
266.403717
 21
223.4972157090583
 31
0.0
  0
LINE
  5
42F
330
36
100
AcDbEntity
  8
0
100
AcDbLine
 10
260.570384
 20
224.6287887090584
 30
0.0
 11
260.570384
 21
223.4972157090583
 31
0.0
  0
LINE
  5
430
330
36
100
AcDbEntity
  8
0
100
AcDbLine
 10
254.737051
 20
224.6287887090584
 30
0.0
 11
254.737051
 21
223.4972157090583
 31
0.0
  0
LINE
  5
431
330
36
100
AcDbEntity
  8
0
100
AcDbLine
 10
237.237051
 20
224.6287887090584
 30
0.0
 11
237.237051
 21
224.0493387090585
 31
0.0
  0
LINE
  5
432
330
36
100
AcDbEntity
  8
0
100
AcDbLine
 10
231.403717
 20
224.6287887090584
 30
0.0
 11
231.403717
 21
224.0493387090585
 31
0.0
  0
LINE
  5
433
330
36
100
AcDbEntity
  8
0
100
AcDbLine
 10
225.570384
 20
224.6287887090584
 30
0.0
 11
225.570384
 21
224.0493387090585
 31
0.0
  0
LINE
  5
434
330
36
100
AcDbEntity
  8
0
100
AcDbLine
 10
237.237051
 20
224.3390637090583
 30
0.0
 11
237.237051
 21
223.1201397090585
 31
0.0
  0
LINE
  5
435
330
36
100
AcDbEntity
  8
0
100
AcDbLine
 10
231.403717
 20
224.0493387090585
 30
0.0
 11
231.403717
 21
223.1201397090585
 31
0.0
  0
TEXT
  5
436
330
36
100
AcDbEntity
  8
0
 62
     3
100
AcDbText
 10
242.19655
 20
193.7235677090583
 30
0.0
 40
3.0
  1
三　相　　２００Ｖ
 41
0.3956949999999999
100
AcDbText
  0
TEXT
  5
437
330
36
100
AcDbEntity
  8
0
 62
     3
100
AcDbText
 10
242.013858
 20
185.6320717090583
 30
0.0
 40
3.0
  1
溶接電流　３００Ａ
 41
0.431003
100
AcDbText
  0
TEXT
  5
438
330
36
100
AcDbEntity
  8
0
 62
     3
100
AcDbText
 10
242.651214
 20
238.0557807090583
 30
0.0
 40
1.919999999999999
  1
電流表示パネル
 41
0.833333
100
AcDbText
  0
TEXT
  5
439
330
36
100
AcDbEntity
  8
0
 62
     3
100
AcDbText
 10
227.728612
 20
237.3797637090583
 30
0.0
 40
1.919999999999999
  1
300
 41
0.885416
100
AcDbText
  0
TEXT
  5
43A
330
36
100
AcDbEntity
  8
0
 62
     3
100
AcDbText
 10
227.582249
 20
235.0283897090585
 30
0.0
 40
1.919999999999999
  1
電流（Ａ）
 41
0.5
100
AcDbText
  0
TEXT
  5
43B
330
36
100
AcDbEntity
  8
0
 62
     3
100
AcDbText
 10
228.093881
 20
250.7341927090583
 30
0.0
 40
1.333333
  1
ON
 41
1.149999999999999
100
AcDbText
  0
TEXT
  5
43C
330
36
100
AcDbEntity
  8
0
 62
     3
100
AcDbText
 10
220.178975
 20
250.5529897090583
 30
0.0
 40
1.333333
  1
OFF
 41
1.149999999999999
100
AcDbText
  0
TEXT
  5
43D
330
36
100
AcDbEntity
  8
0
 62
     3
100
AcDbText
 10
220.110415
 20
255.8485797090585
 30
0.0
 40
1.706666999999999
  1
電撃防止スイッチ
 41
0.833333
100
AcDbText
  0
TEXT
  5
43E
330
36
100
AcDbEntity
  8
0
 62
     3
100
AcDbText
 10
241.257568
 20
256.5648187090584
 30
0.0
 40
1.663999999999995
  1
電源
 41
0.833333
100
AcDbText
  0
TEXT
  5
43F
330
36
100
AcDbEntity
  8
0
 62
     3
100
AcDbText
 10
247.539039
 20
256.6940717090583
 30
0.0
 40
1.663999999999995
  1
溶接
 41
0.833333
100
AcDbText
  0
TEXT
  5
440
330
36
100
AcDbEntity
  8
0
 62
     3
100
AcDbText
 10
253.942792
 20
256.5421647090585
 30
0.0
 40
1.663999999999995
  1
過熱
 41
0.833333
100
AcDbText
  0
TEXT
  5
441
330
36
100
AcDbEntity
  8
0
 62
     3
100
AcDbText
 10
266.780354
 20
255.9551007090585
 30
0.0
 40
1.663999999999995
  1
POWER
 41
0.9375
100
AcDbText
  0
TEXT
  5
442
330
36
100
AcDbEntity
  8
0
 62
     3
100
AcDbText
 10
267.959344
 20
225.9124667090585
 30
0.0
 40
3.0
  1
三相２００Ｖ
 41
0.3956949999999999
100
AcDbText
  0
CIRCLE
  5
443
330
36
100
AcDbEntity
  8
0
100
AcDbCircle
 10
87.461234
 20
184.5632138356543
 30
0.0
 40
0.686653
  0
ARC
  5
444
330
36
100
AcDbEntity
  8
0
100
AcDbCircle
 10
108.525073
 20
194.4733387090582
 30
0.0
 40
1.666666999999999
100
AcDbArc
 50
0.0
 51
44.25345599999999
  0
ARC
  5
445
330
36
100
AcDbEntity
  8
0
100
AcDbCircle
 10
106.498163
 20
200.4557027090583
 30
0.0
 40
1.666666999999999
100
AcDbArc
 50
180.0
 51
224.253456
  0
ARC
  5
446
330
36
100
AcDbEntity
  8
0
100
AcDbCircle
 10
108.524463
 20
194.4739647090583
 30
0.0
 40
2.25
100
AcDbArc
 50
0.0
 51
44.25345599999999
  0
ARC
  5
447
330
36
100
AcDbEntity
  8
0
100
AcDbCircle
 10
106.498773
 20
200.4550767090585
 30
0.0
 40
2.25
100
AcDbArc
 50
180.0
 51
224.253456
  0
ARC
  5
448
330
36
100
AcDbEntity
  8
0
100
AcDbCircle
 10
101.000505
 20
200.4557027090583
 30
0.0
 40
1.666666999999999
100
AcDbArc
 50
315.7465439999999
 51
0.0
  0
ARC
  5
449
330
36
100
AcDbEntity
  8
0
100
AcDbCircle
 10
100.999895
 20
200.4550767090585
 30
0.0
 40
2.25
100
AcDbArc
 50
315.7465439999999
 51
0.0
  0
LINE
  5
44A
330
36
100
AcDbEntity
  8
0
100
AcDbLine
 10
103.249895
 20
200.4550767090585
 30
0.0
 11
103.249895
 21
201.3453197090583
 31
0.0
  0
LINE
  5
44B
330
36
100
AcDbEntity
  8
0
100
AcDbLine
 10
104.831496
 20
200.4557027090583
 30
0.0
 11
104.831496
 21
201.3453197090583
 31
0.0
  0
LINE
  5
44C
330
36
100
AcDbEntity
  8
0
100
AcDbLine
 10
104.248773
 20
200.4550767090585
 30
0.0
 11
104.248773
 21
201.3453197090583
 31
0.0
  0
LINE
  5
44D
330
36
100
AcDbEntity
  8
0
100
AcDbLine
 10
103.468774
 20
186.5187297090583
 30
0.0
 11
104.051498
 21
186.5187297090583
 31
0.0
  0
LINE
  5
44E
330
36
100
AcDbEntity
  8
0
100
AcDbLine
 10
103.31477
 20
186.6095947090581
 30
0.0
 11
102.667388
 21
184.8212587090583
 31
0.0
  0
LINE
  5
44F
330
36
100
AcDbEntity
  8
0
100
AcDbLine
 10
104.188855
 20
186.6095947090581
 30
0.0
 11
104.861937
 21
184.8386917090583
 31
0.0
  0
ARC
  5
450
330
36
100
AcDbEntity
  8
0
100
AcDbCircle
 10
103.767896
 20
184.4228707090583
 30
0.0
 40
1.170398
100
AcDbArc
 50
160.099595
 51
20.81069300000001
  0
LINE
  5
451
330
36
100
AcDbEntity
  8
0
100
AcDbLine
 10
104.188855
 20
186.6095947090581
 30
0.0
 11
104.188855
 21
187.6031887090582
 31
0.0
  0
LINE
  5
452
330
36
100
AcDbEntity
  8
0
100
AcDbLine
 10
103.31477
 20
186.6095947090581
 30
0.0
 11
103.31477
 21
187.6031887090582
 31
0.0
  0
LINE
  5
453
330
36
100
AcDbEntity
  8
0
100
AcDbLine
 10
104.188855
 20
187.6031887090582
 30
0.0
 11
103.31477
 21
187.6031887090582
 31
0.0
  0
LINE
  5
454
330
36
100
AcDbEntity
  8
0
100
AcDbLine
 10
110.19174
 20
187.6196977090583
 30
0.0
 11
110.774463
 21
187.6196977090583
 31
0.0
  0
LINE
  5
455
330
36
100
AcDbEntity
  8
0
100
AcDbLine
 10
110.037736
 20
187.7105637090583
 30
0.0
 11
109.390353
 21
185.9222267090583
 31
0.0
  0
LINE
  5
456
330
36
100
AcDbEntity
  8
0
100
AcDbLine
 10
110.911821
 20
187.7105637090583
 30
0.0
 11
111.584902
 21
185.9396597090582
 31
0.0
  0
ARC
  5
457
330
36
100
AcDbEntity
  8
0
100
AcDbCircle
 10
110.490861
 20
185.5238397090583
 30
0.0
 40
1.170398
100
AcDbArc
 50
160.099595
 51
20.81069300000001
  0
LINE
  5
458
330
36
100
AcDbEntity
  8
0
100
AcDbLine
 10
110.911821
 20
187.7105637090583
 30
0.0
 11
110.911821
 21
188.7041567090583
 31
0.0
  0
LINE
  5
459
330
36
100
AcDbEntity
  8
0
100
AcDbLine
 10
110.037736
 20
187.7105637090583
 30
0.0
 11
110.037736
 21
188.7041567090583
 31
0.0
  0
LINE
  5
45A
330
36
100
AcDbEntity
  8
0
100
AcDbLine
 10
110.911821
 20
188.7041567090583
 30
0.0
 11
110.037736
 21
188.7041567090583
 31
0.0
  0
LINE
  5
45B
330
36
100
AcDbEntity
  8
0
100
AcDbLine
 10
103.468774
 20
186.5187297090583
 30
0.0
 11
103.468774
 21
201.3453197090583
 31
0.0
  0
LINE
  5
45C
330
36
100
AcDbEntity
  8
0
100
AcDbLine
 10
110.774463
 20
194.4739647090583
 30
0.0
 11
110.774463
 21
187.6196977090583
 31
0.0
  0
LINE
  5
45D
330
36
100
AcDbEntity
  8
0
100
AcDbLine
 10
110.19174
 20
194.4733387090582
 30
0.0
 11
110.19174
 21
187.6196977090583
 31
0.0
  0
LINE
  5
45E
330
36
100
AcDbEntity
  8
0
100
AcDbLine
 10
104.051498
 20
186.5187297090583
 30
0.0
 11
104.051498
 21
201.3453197090583
 31
0.0
  0
LINE
  5
45F
330
36
100
AcDbEntity
  8
0
100
AcDbLine
 10
105.304396
 20
199.2926467090584
 30
0.0
 11
110.136048
 21
196.0440907090583
 31
0.0
  0
LINE
  5
460
330
36
100
AcDbEntity
  8
0
100
AcDbLine
 10
104.887188
 20
198.8849507090584
 30
0.0
 11
109.718839
 21
195.6363947090584
 31
0.0
  0
ARC
  5
461
330
36
100
AcDbEntity
  8
0
100
AcDbCircle
 10
98.99519900000001
 20
194.4733387090582
 30
0.0
 40
1.666666999999999
100
AcDbArc
 50
135.746544
 51
180.0
  0
ARC
  5
462
330
36
100
AcDbEntity
  8
0
100
AcDbCircle
 10
98.995809
 20
194.4739647090583
 30
0.0
 40
2.25
100
AcDbArc
 50
135.746544
 51
180.0
  0
LINE
  5
463
330
36
100
AcDbEntity
  8
0
100
AcDbLine
 10
97.328533
 20
187.6196977090583
 30
0.0
 11
96.745809
 21
187.6196977090583
 31
0.0
  0
LINE
  5
464
330
36
100
AcDbEntity
  8
0
100
AcDbLine
 10
97.48253699999999
 20
187.7105637090583
 30
0.0
 11
98.12992000000001
 21
185.9222267090583
 31
0.0
  0
LINE
  5
465
330
36
100
AcDbEntity
  8
0
100
AcDbLine
 10
96.608452
 20
187.7105637090583
 30
0.0
 11
95.93537000000001
 21
185.9396597090582
 31
0.0
  0
ARC
  5
466
330
36
100
AcDbEntity
  8
0
100
AcDbCircle
 10
97.029411
 20
185.5238397090583
 30
0.0
 40
1.170398
100
AcDbArc
 50
159.189307
 51
19.900405
  0
LINE
  5
467
330
36
100
AcDbEntity
  8
0
100
AcDbLine
 10
96.608452
 20
187.7105637090583
 30
0.0
 11
96.608452
 21
188.7041567090583
 31
0.0
  0
LINE
  5
468
330
36
100
AcDbEntity
  8
0
100
AcDbLine
 10
97.48253699999999
 20
187.7105637090583
 30
0.0
 11
97.48253699999999
 21
188.7041567090583
 31
0.0
  0
LINE
  5
469
330
36
100
AcDbEntity
  8
0
100
AcDbLine
 10
96.608452
 20
188.7041567090583
 30
0.0
 11
97.48253699999999
 21
188.7041567090583
 31
0.0
  0
LINE
  5
46A
330
36
100
AcDbEntity
  8
0
100
AcDbLine
 10
96.745809
 20
194.4739647090583
 30
0.0
 11
96.745809
 21
187.6196977090583
 31
0.0
  0
LINE
  5
46B
330
36
100
AcDbEntity
  8
0
100
AcDbLine
 10
97.328533
 20
194.4733387090582
 30
0.0
 11
97.328533
 21
187.6196977090583
 31
0.0
  0
LINE
  5
46C
330
36
100
AcDbEntity
  8
0
100
AcDbLine
 10
102.215877
 20
199.2926467090584
 30
0.0
 11
97.38422400000001
 21
196.0440907090583
 31
0.0
  0
LINE
  5
46D
330
36
100
AcDbEntity
  8
0
100
AcDbLine
 10
102.633084
 20
198.8849507090584
 30
0.0
 11
97.80143299999998
 21
195.6363947090584
 31
0.0
  0
ARC
  5
46E
330
36
100
AcDbEntity
  8
0
100
AcDbCircle
 10
89.42702299999998
 20
189.8303477090583
 30
0.0
 40
1.666666999999999
100
AcDbArc
 50
135.746544
 51
180.0
  0
ARC
  5
46F
330
36
100
AcDbEntity
  8
0
100
AcDbCircle
 10
89.42763300000001
 20
189.8309747090583
 30
0.0
 40
2.25
100
AcDbArc
 50
135.746544
 51
180.0
  0
LINE
  5
470
330
36
100
AcDbEntity
  8
0
100
AcDbLine
 10
87.760356
 20
186.6590718356543
 30
0.0
 11
87.17763299999999
 21
186.6590718356543
 31
0.0
  0
LINE
  5
471
330
36
100
AcDbEntity
  8
0
100
AcDbLine
 10
87.91436
 20
186.7499378356542
 30
0.0
 11
88.56174399999998
 21
184.9616008356543
 31
0.0
  0
LINE
  5
472
330
36
100
AcDbEntity
  8
0
100
AcDbLine
 10
87.040275
 20
186.7499378356542
 30
0.0
 11
86.367194
 21
184.9790348356543
 31
0.0
  0
LINE
  5
473
330
36
100
AcDbEntity
  8
0
100
AcDbLine
 10
87.040275
 20
186.7499378356542
 30
0.0
 11
87.040275
 21
187.7435308356543
 31
0.0
  0
LINE
  5
474
330
36
100
AcDbEntity
  8
0
100
AcDbLine
 10
87.91436
 20
186.7499378356542
 30
0.0
 11
87.91436
 21
187.7435308356543
 31
0.0
  0
LINE
  5
475
330
36
100
AcDbEntity
  8
0
100
AcDbLine
 10
87.040275
 20
187.7435308356543
 30
0.0
 11
87.91436
 21
187.7435308356543
 31
0.0
  0
LINE
  5
476
330
36
100
AcDbEntity
  8
0
100
AcDbLine
 10
87.17763299999999
 20
189.8309747090583
 30
0.0
 11
87.17763299999999
 21
186.6590718356543
 31
0.0
  0
LINE
  5
477
330
36
100
AcDbEntity
  8
0
100
AcDbLine
 10
87.760356
 20
189.8303477090583
 30
0.0
 11
87.760356
 21
186.6590718356543
 31
0.0
  0
LINE
  5
478
330
36
100
AcDbEntity
  8
0
100
AcDbLine
 10
102.688776
 20
200.4550767090585
 30
0.0
 11
102.688776
 21
201.3453197090583
 31
0.0
  0
LINE
  5
479
330
36
100
AcDbEntity
  8
0
100
AcDbLine
 10
101.628154
 20
199.7745637090584
 30
0.0
 11
88.23325799999997
 21
190.9934057090583
 31
0.0
  0
LINE
  5
47A
330
36
100
AcDbEntity
  8
0
100
AcDbLine
 10
101.632423
 20
200.4134777090584
 30
0.0
 11
87.81604899999996
 21
191.4011007090583
 31
0.0
  0
LINE
  5
47B
330
36
100
AcDbEntity
  8
0
100
AcDbLine
 10
101.632423
 20
200.4134777090584
 30
0.0
 11
101.892749
 21
200.8519217090585
 31
0.0
  0
ARC
  5
47C
330
36
100
AcDbEntity
  8
0
100
AcDbCircle
 10
100.367172
 20
201.6980827090584
 30
0.0
 40
2.299999999999998
100
AcDbArc
 50
303.247247
 51
333.027536
  0
LINE
  5
47D
330
36
100
AcDbEntity
  8
0
100
AcDbLine
 10
102.416988
 20
200.6548897090583
 30
0.0
 11
102.457342
 21
201.3453197090583
 31
0.0
  0
CIRCLE
  5
47E
330
36
100
AcDbEntity
  8
0
100
AcDbCircle
 10
110.490861
 20
185.5238397090583
 30
0.0
 40
0.686653
  0
CIRCLE
  5
47F
330
36
100
AcDbEntity
  8
0
100
AcDbCircle
 10
103.767896
 20
184.4228707090583
 30
0.0
 40
0.686653
  0
CIRCLE
  5
480
330
36
100
AcDbEntity
  8
0
100
AcDbCircle
 10
97.029411
 20
185.5238397090583
 30
0.0
 40
0.686653
  0
ARC
  5
481
330
36
100
AcDbEntity
  8
0
100
AcDbCircle
 10
87.461234
 20
184.5632138356543
 30
0.0
 40
1.170398
100
AcDbArc
 50
159.189307
 51
19.900405
  0
LINE
  5
482
330
36
100
AcDbEntity
  8
0
100
AcDbLine
 10
168.277317
 20
226.5681287090583
 30
0.0
 11
156.498243
 21
214.7890547090584
 31
0.0
  0
LINE
  5
483
330
36
100
AcDbEntity
  8
0
100
AcDbLine
 10
168.041615
 20
226.8038307090584
 30
0.0
 11
156.262541
 21
215.0247567090585
 31
0.0
  0
LINE
  5
484
330
36
100
AcDbEntity
  8
0
100
AcDbLine
 10
135.496268
 20
226.8038307090584
 30
0.0
 11
147.275343
 21
215.0247567090585
 31
0.0
  0
LINE
  5
485
330
36
100
AcDbEntity
  8
0
100
AcDbLine
 10
135.260566
 20
226.5681287090583
 30
0.0
 11
147.03964
 21
214.7890547090584
 31
0.0
  0
LINE
  5
486
330
36
100
AcDbEntity
  8
0
100
AcDbLine
 10
147.03964
 20
205.8018557090585
 30
0.0
 11
135.260566
 21
194.0227817090583
 31
0.0
  0
LINE
  5
487
330
36
100
AcDbEntity
  8
0
100
AcDbLine
 10
147.275343
 20
205.5661537090584
 30
0.0
 11
135.496268
 21
193.7870797090583
 31
0.0
  0
LINE
  5
488
330
36
100
AcDbEntity
  8
0
100
AcDbLine
 10
156.498243
 20
205.8018557090585
 30
0.0
 11
168.277317
 21
194.0227817090583
 31
0.0
  0
LINE
  5
489
330
36
100
AcDbEntity
  8
0
100
AcDbLine
 10
156.262541
 20
205.5661537090584
 30
0.0
 11
168.041615
 21
193.7870797090583
 31
0.0
  0
ARC
  5
48A
330
36
100
AcDbEntity
  8
0
100
AcDbCircle
 10
355.090402
 20
216.9621217090583
 30
0.0
 40
2.133333
100
AcDbArc
 50
0.0
 51
90.0
  0
LINE
  5
48B
330
36
100
AcDbEntity
  8
0
100
AcDbLine
 10
355.090402
 20
219.0954547090585
 30
0.0
 11
349.923735
 21
219.0954547090585
 31
0.0
  0
ARC
  5
48C
330
36
100
AcDbEntity
  8
0
100
AcDbCircle
 10
326.023735
 20
216.9621217090583
 30
0.0
 40
2.133333
100
AcDbArc
 50
90.0
 51
180.0
  0
ARC
  5
48D
330
36
100
AcDbEntity
  8
0
100
AcDbCircle
 10
355.090402
 20
211.9621217090583
 30
0.0
 40
2.133333
100
AcDbArc
 50
0.0
 51
90.0
  0
LINE
  5
48E
330
36
100
AcDbEntity
  8
0
100
AcDbLine
 10
355.090402
 20
214.0954547090584
 30
0.0
 11
349.923735
 21
214.0954547090584
 31
0.0
  0
LINE
  5
48F
330
36
100
AcDbEntity
  8
0
100
AcDbLine
 10
326.023735
 20
214.0954547090584
 30
0.0
 11
349.923735
 21
214.0954547090584
 31
0.0
  0
ARC
  5
490
330
36
100
AcDbEntity
  8
0
100
AcDbCircle
 10
326.023735
 20
211.9621217090583
 30
0.0
 40
2.133333
100
AcDbArc
 50
90.0
 51
180.0
  0
LINE
  5
491
330
36
100
AcDbEntity
  8
0
100
AcDbLine
 10
326.023735
 20
219.0954547090585
 30
0.0
 11
349.923735
 21
219.0954547090585
 31
0.0
  0
ARC
  5
492
330
36
100
AcDbEntity
  8
0
100
AcDbCircle
 10
355.090402
 20
206.9621217090584
 30
0.0
 40
2.133333
100
AcDbArc
 50
0.0
 51
90.0
  0
LINE
  5
493
330
36
100
AcDbEntity
  8
0
100
AcDbLine
 10
355.090402
 20
209.0954547090585
 30
0.0
 11
349.923735
 21
209.0954547090585
 31
0.0
  0
LINE
  5
494
330
36
100
AcDbEntity
  8
0
100
AcDbLine
 10
326.023735
 20
209.0954547090585
 30
0.0
 11
349.923735
 21
209.0954547090585
 31
0.0
  0
ARC
  5
495
330
36
100
AcDbEntity
  8
0
100
AcDbCircle
 10
326.023735
 20
206.9621217090584
 30
0.0
 40
2.133333
100
AcDbArc
 50
90.0
 51
180.0
  0
ARC
  5
496
330
36
100
AcDbEntity
  8
0
100
AcDbCircle
 10
355.090402
 20
201.9621217090583
 30
0.0
 40
2.133333
100
AcDbArc
 50
0.0
 51
90.0
  0
LINE
  5
497
330
36
100
AcDbEntity
  8
0
100
AcDbLine
 10
355.090402
 20
204.0954547090583
 30
0.0
 11
349.923735
 21
204.0954547090583
 31
0.0
  0
LINE
  5
498
330
36
100
AcDbEntity
  8
0
100
AcDbLine
 10
326.023735
 20
204.0954547090583
 30
0.0
 11
349.923735
 21
204.0954547090583
 31
0.0
  0
ARC
  5
499
330
36
100
AcDbEntity
  8
0
100
AcDbCircle
 10
326.023735
 20
201.9621217090583
 30
0.0
 40
2.133333
100
AcDbArc
 50
90.0
 51
180.0
  0
ARC
  5
49A
330
36
100
AcDbEntity
  8
0
100
AcDbCircle
 10
355.090402
 20
196.9621217090584
 30
0.0
 40
2.133333
100
AcDbArc
 50
0.0
 51
90.0
  0
LINE
  5
49B
330
36
100
AcDbEntity
  8
0
100
AcDbLine
 10
355.090402
 20
199.0954547090584
 30
0.0
 11
349.923735
 21
199.0954547090584
 31
0.0
  0
LINE
  5
49C
330
36
100
AcDbEntity
  8
0
100
AcDbLine
 10
326.023735
 20
199.0954547090584
 30
0.0
 11
349.923735
 21
199.0954547090584
 31
0.0
  0
ARC
  5
49D
330
36
100
AcDbEntity
  8
0
100
AcDbCircle
 10
326.023735
 20
196.9621217090584
 30
0.0
 40
2.133333
100
AcDbArc
 50
90.0
 51
180.0
  0
ARC
  5
49E
330
36
100
AcDbEntity
  8
0
100
AcDbCircle
 10
355.090402
 20
191.9621217090583
 30
0.0
 40
2.133333
100
AcDbArc
 50
0.0
 51
90.0
  0
LINE
  5
49F
330
36
100
AcDbEntity
  8
0
100
AcDbLine
 10
355.090402
 20
194.0954547090583
 30
0.0
 11
349.923735
 21
194.0954547090583
 31
0.0
  0
LINE
  5
4A0
330
36
100
AcDbEntity
  8
0
100
AcDbLine
 10
326.023735
 20
194.0954547090583
 30
0.0
 11
349.923735
 21
194.0954547090583
 31
0.0
  0
ARC
  5
4A1
330
36
100
AcDbEntity
  8
0
100
AcDbCircle
 10
326.023735
 20
191.9621217090583
 30
0.0
 40
2.133333
100
AcDbArc
 50
90.0
 51
180.0
  0
ARC
  5
4A2
330
36
100
AcDbEntity
  8
0
100
AcDbCircle
 10
355.090402
 20
186.9621217090583
 30
0.0
 40
2.133333
100
AcDbArc
 50
0.0
 51
90.0
  0
LINE
  5
4A3
330
36
100
AcDbEntity
  8
0
100
AcDbLine
 10
355.090402
 20
189.0954547090583
 30
0.0
 11
349.923735
 21
189.0954547090583
 31
0.0
  0
LINE
  5
4A4
330
36
100
AcDbEntity
  8
0
100
AcDbLine
 10
326.023735
 20
189.0954547090583
 30
0.0
 11
349.923735
 21
189.0954547090583
 31
0.0
  0
ARC
  5
4A5
330
36
100
AcDbEntity
  8
0
100
AcDbCircle
 10
326.023735
 20
186.9621217090583
 30
0.0
 40
2.133333
100
AcDbArc
 50
90.0
 51
180.0
  0
ARC
  5
4A6
330
36
100
AcDbEntity
  8
0
100
AcDbCircle
 10
355.090142
 20
221.9621217090584
 30
0.0
 40
2.133333
100
AcDbArc
 50
0.0
 51
90.0
  0
LINE
  5
4A7
330
36
100
AcDbEntity
  8
0
100
AcDbLine
 10
355.090142
 20
224.0954547090584
 30
0.0
 11
349.923475
 21
224.0954547090584
 31
0.0
  0
ARC
  5
4A8
330
36
100
AcDbEntity
  8
0
100
AcDbCircle
 10
326.023475
 20
221.9621217090584
 30
0.0
 40
2.133333
100
AcDbArc
 50
90.0
 51
180.0
  0
LINE
  5
4A9
330
36
100
AcDbEntity
  8
0
100
AcDbLine
 10
326.023475
 20
224.0954547090584
 30
0.0
 11
349.923475
 21
224.0954547090584
 31
0.0
  0
ARC
  5
4AA
330
36
100
AcDbEntity
  8
0
100
AcDbCircle
 10
355.090402
 20
226.9621217090583
 30
0.0
 40
2.133333
100
AcDbArc
 50
0.0
 51
90.0
  0
LINE
  5
4AB
330
36
100
AcDbEntity
  8
0
100
AcDbLine
 10
355.090402
 20
229.0954547090583
 30
0.0
 11
349.923735
 21
229.0954547090583
 31
0.0
  0
ARC
  5
4AC
330
36
100
AcDbEntity
  8
0
100
AcDbCircle
 10
326.023735
 20
226.9621217090583
 30
0.0
 40
2.133333
100
AcDbArc
 50
90.0
 51
180.0
  0
LINE
  5
4AD
330
36
100
AcDbEntity
  8
0
100
AcDbLine
 10
326.023735
 20
229.0954547090583
 30
0.0
 11
349.923735
 21
229.0954547090583
 31
0.0
  0
TEXT
  5
4AE
330
36
100
AcDbEntity
  8
0
100
AcDbText
 10
423.637549
 20
223.7611717090585
 30
0.0
 40
2.133333
  1
使用上の注意
 41
0.833333
100
AcDbText
  0
TEXT
  5
4AF
330
36
100
AcDbEntity
  8
0
100
AcDbText
 10
402.774599
 20
223.9082097090584
 30
0.0
 40
2.133333
  1
結線方法
 41
0.833333
100
AcDbText
  0
LINE
  5
4B0
330
36
100
AcDbEntity
  8
0
100
AcDbLine
 10
256.513082
 20
251.8779487090585
 30
0.0
 11
240.870794
 21
251.8779487090585
 31
0.0
  0
LINE
  5
4B1
330
36
100
AcDbEntity
  8
0
100
AcDbLine
 10
256.513082
 20
251.8779487090585
 30
0.0
 11
256.513082
 21
243.2199437090585
 31
0.0
  0
LINE
  5
4B2
330
36
100
AcDbEntity
  8
0
100
AcDbLine
 10
256.513082
 20
243.2199437090585
 30
0.0
 11
240.870794
 21
243.2199437090585
 31
0.0
  0
LINE
  5
4B3
330
36
100
AcDbEntity
  8
0
100
AcDbLine
 10
256.513082
 20
243.2199437090585
 30
0.0
 11
258.003547
 21
242.1923157090583
 31
0.0
  0
LINE
  5
4B4
330
36
100
AcDbEntity
  8
0
100
AcDbLine
 10
240.870794
 20
251.8779487090585
 30
0.0
 11
240.870794
 21
243.2199437090585
 31
0.0
  0
LINE
  5
4B5
330
36
100
AcDbEntity
  8
0
100
AcDbLine
 10
240.870794
 20
251.8779487090585
 30
0.0
 11
239.380329
 21
252.9055777090584
 31
0.0
  0
LINE
  5
4B6
330
36
100
AcDbEntity
  8
0
100
AcDbLine
 10
240.870794
 20
243.2199437090585
 30
0.0
 11
239.380329
 21
242.1923157090583
 31
0.0
  0
TEXT
  5
4B7
330
36
100
AcDbEntity
  8
0
 62
     3
100
AcDbText
 10
418.2893838203613
 20
65.77819599999999
 30
0.0
 40
4.5
  1
コード
  7
高4.5
100
AcDbText
  0
TEXT
  5
4B8
330
36
100
AcDbEntity
  8
0
 62
     3
100
AcDbText
 10
443.9325125551596
 20
65.68545300000001
 30
0.0
 40
4.5
  1
6557
  7
高4.5
100
AcDbText
  0
TEXT
  5
5CB
330
36
100
AcDbEntity
  8
0
 62
     3
100
AcDbText
 10
452.418711
 20
290.071442
 30
0.0
 40
3.2
  1
担　当
  7
高3.2
100
AcDbText
  0
TEXT
  5
5CC
330
36
100
AcDbEntity
  8
0
 62
     3
100
AcDbText
 10
408.4187110000001
 20
290.071442
 30
0.0
 40
3.2
  1
変更・追記内容
  7
高3.2
100
AcDbText
  0
TEXT
  5
5CD
330
36
100
AcDbEntity
  8
0
 62
     3
100
AcDbText
 10
383.5322260003394
 20
285.4009034900917
 30
0.0
 40
2.0
  1
1
  7
高2
100
AcDbText
  0
TEXT
  5
5CE
330
36
100
AcDbEntity
  8
0
 62
     3
100
AcDbText
 10
383.223714523582
 20
280.2310867778188
 30
0.0
 40
2.0
  1
2
  7
高2
100
AcDbText
  0
TEXT
  5
5CF
330
36
100
AcDbEntity
  8
0
 62
     3
100
AcDbText
 10
390.4187110000001
 20
290.071442
 30
0.0
 40
3.2
  1
日　付
  7
高3.2
100
AcDbText
  0
TEXT
  5
5D0
330
36
100
AcDbEntity
  8
0
 62
     3
100
AcDbText
 10
390.4187110000001
 20
295.071442
 30
0.0
 40
3.2
  1
図　　　　面　　　　略　　　　歴
  7
高3.2
100
AcDbText
  0
TEXT
  5
5D1
330
36
100
AcDbEntity
  8
0
 62
     3
100
AcDbText
 10
380.4187110000001
 20
290.071442
 30
0.0
 40
3.2
  1
記号
  7
高3.2
100
AcDbText
  0
LINE
  5
5D2
330
36
100
AcDbEntity
  8
0
100
AcDbLine
 10
383.9187110000001
 20
283.3623380000002
 30
0.0
 11
382.0187110000002
 21
280.071442
 31
0.0
  0
LINE
  5
5D3
330
36
100
AcDbEntity
  8
0
100
AcDbLine
 10
383.9187110000001
 20
283.3623380000002
 30
0.0
 11
385.8187110000002
 21
280.071442
 31
0.0
  0
LINE
  5
5D4
330
36
100
AcDbEntity
  8
0
100
AcDbLine
 10
382.0187110000002
 20
280.071442
 30
0.0
 11
385.8187110000002
 21
280.071442
 31
0.0
  0
LINE
  5
5D5
330
36
100
AcDbEntity
  8
0
100
AcDbLine
 10
383.9187110000001
 20
288.3623390000001
 30
0.0
 11
382.0187110000002
 21
285.071442
 31
0.0
  0
LINE
  5
5D6
330
36
100
AcDbEntity
  8
0
100
AcDbLine
 10
383.9187110000001
 20
288.3623390000001
 30
0.0
 11
385.8187110000002
 21
285.071442
 31
0.0
  0
LINE
  5
5D7
330
36
100
AcDbEntity
  8
0
100
AcDbLine
 10
382.0187110000002
 20
285.071442
 30
0.0
 11
385.8187110000002
 21
285.071442
 31
0.0
  0
LINE
  5
5D8
330
36
100
AcDbEntity
  8
0
 62
     3
100
AcDbLine
 10
378.9187110000002
 20
294.571442
 30
0.0
 11
464.918711
 21
294.571442
 31
0.0
  0
LINE
  5
5D9
330
36
100
AcDbEntity
  8
0
 62
     3
100
AcDbLine
 10
378.9187110000002
 20
289.571442
 30
0.0
 11
464.918711
 21
289.571442
 31
0.0
  0
LINE
  5
5DA
330
36
100
AcDbEntity
  8
0
 62
     7
100
AcDbLine
 10
378.9187110000002
 20
284.571442
 30
0.0
 11
464.918711
 21
284.571442
 31
0.0
  0
LINE
  5
5DB
330
36
100
AcDbEntity
  8
0
 62
     7
100
AcDbLine
 10
378.9187110000002
 20
279.571442
 30
0.0
 11
464.918711
 21
279.571442
 31
0.0
  0
LINE
  5
5DC
330
36
100
AcDbEntity
  8
0
 62
     7
100
AcDbLine
 10
450.918711
 20
274.571442
 30
0.0
 11
450.918711
 21
294.571442
 31
0.0
  0
LINE
  5
5DD
330
36
100
AcDbEntity
  8
0
 62
     7
100
AcDbLine
 10
406.9187109999998
 20
274.571442
 30
0.0
 11
406.9187109999998
 21
294.571442
 31
0.0
  0
LINE
  5
5DE
330
36
100
AcDbEntity
  8
0
 62
     7
100
AcDbLine
 10
388.9187110000002
 20
274.571442
 30
0.0
 11
388.9187110000002
 21
294.571442
 31
0.0
  0
LINE
  5
5DF
330
36
100
AcDbEntity
  8
0
 62
     3
100
AcDbLine
 10
378.9187110000002
 20
274.571442
 30
0.0
 11
378.9187110000002
 21
299.571442
 31
0.0
  0
TEXT
  5
84B
330
36
100
AcDbEntity
  8
0
 62
     3
100
AcDbText
 10
173.5248446686409
 20
26.071442
 30
0.0
 40
3.2
  1
コード
 41
0.8
  7
高3.2
100
AcDbText
  0
TEXT
  5
84C
330
36
100
AcDbEntity
  8
0
 62
     3
100
AcDbText
 10
173.5248446686409
 20
86.07144200000002
 30
0.0
 40
3.2
  1
-
 41
0.8
  7
高3.2
100
AcDbText
  0
TEXT
  5
84D
330
36
100
AcDbEntity
  8
0
 62
     3
100
AcDbText
 10
173.5248446686409
 20
96.07144200000002
 30
0.0
 40
3.2
  1
-
 41
0.8
  7
高3.2
100
AcDbText
  0
TEXT
  5
84E
330
36
100
AcDbEntity
  8
0
 62
     3
100
AcDbText
 10
173.5248446686409
 20
36.071442
 30
0.0
 40
3.2
  1
-
 41
0.8
  7
高3.2
100
AcDbText
  0
TEXT
  5
84F
330
36
100
AcDbEntity
  8
0
 62
     3
100
AcDbText
 10
173.5248446686409
 20
51.071442
 30
0.0
 40
3.2
  1
54698
 41
0.8
  7
高3.2
100
AcDbText
  0
TEXT
  5
850
330
36
100
AcDbEntity
  8
0
 62
     3
100
AcDbText
 10
173.5248446686409
 20
31.071442
 30
0.0
 40
3.2
  1
55634
 41
0.8
  7
高3.2
100
AcDbText
  0
TEXT
  5
851
330
36
100
AcDbEntity
  8
0
 62
     3
100
AcDbText
 10
173.5248446686409
 20
46.07144199999999
 30
0.0
 40
3.2
  1
-
 41
0.8
  7
高3.2
100
AcDbText
  0
TEXT
  5
852
330
36
100
AcDbEntity
  8
0
 62
     3
100
AcDbText
 10
173.5248446686409
 20
61.07144200000002
 30
0.0
 40
3.2
  1
54697
 41
0.8
  7
高3.2
100
AcDbText
  0
TEXT
  5
853
330
36
100
AcDbEntity
  8
0
 62
     3
100
AcDbText
 10
173.5248446686409
 20
41.07144199999999
 30
0.0
 40
3.2
  1
55711●
 41
0.8
  7
高3.2
100
AcDbText
  0
TEXT
  5
854
330
36
100
AcDbEntity
  8
0
 62
     3
100
AcDbText
 10
173.5248446686409
 20
66.07144200000002
 30
0.0
 40
3.2
  1
54696
 41
0.8
  7
高3.2
100
AcDbText
  0
LINE
  5
855
330
36
100
AcDbEntity
  8
0
100
AcDbLine
 10
172.024844668641
 20
25.571442
 30
0.0
 11
172.024844668641
 21
105.571442
 31
0.0
  0
TEXT
  5
856
330
36
100
AcDbEntity
  8
0
 62
     3
100
AcDbText
 10
173.5248446686409
 20
81.07144200000002
 30
0.0
 40
3.2
  1
54694
 41
0.8
  7
高3.2
100
AcDbText
  0
TEXT
  5
857
330
36
100
AcDbEntity
  8
0
 62
     3
100
AcDbText
 10
173.5248446686409
 20
91.07144200000002
 30
0.0
 40
3.2
  1
54692
 41
0.8
  7
高3.2
100
AcDbText
  0
TEXT
  5
858
330
36
100
AcDbEntity
  8
0
 62
     3
100
AcDbText
 10
173.5248446686409
 20
71.07144200000002
 30
0.0
 40
3.2
  1
54695
 41
0.8
  7
高3.2
100
AcDbText
  0
TEXT
  5
859
330
36
100
AcDbEntity
  8
0
 62
     3
100
AcDbText
 10
173.5248446686409
 20
76.07144200000002
 30
0.0
 40
3.2
  1
53178
 41
0.8
  7
高3.2
100
AcDbText
  0
TEXT
  5
85A
330
36
100
AcDbEntity
  8
0
 62
     3
100
AcDbText
 10
173.5248446686409
 20
101.071442
 30
0.0
 40
3.2
  1
53585
 41
0.8
  7
高3.2
100
AcDbText
  0
LINE
  5
85B
330
36
100
AcDbEntity
  8
0
 62
     3
100
AcDbLine
 10
74.918711
 20
105.571442
 30
0.0
 11
273.9836518193511
 21
105.571442
 31
0.0
  0
TEXT
  5
85C
330
36
100
AcDbEntity
  8
0
 62
     3
100
AcDbText
 10
165.1420192186615
 20
56.07144200000001
 30
0.0
 40
3.2
  1
1
 41
0.8
  7
高3.2
100
AcDbText
  0
TEXT
  5
85D
330
36
100
AcDbEntity
  8
0
 62
     3
100
AcDbText
 10
136.8823125848736
 20
56.07144200000001
 30
0.0
 40
3.2
  1
基板
 41
0.8
  7
高3.2
100
AcDbText
  0
TEXT
  5
85E
330
36
100
AcDbEntity
  8
0
 62
     3
100
AcDbText
 10
173.5248446686409
 20
56.07144200000001
 30
0.0
 40
3.2
  1
54922
 41
0.8
  7
高3.2
100
AcDbText
  0
TEXT
  5
865
330
36
100
AcDbEntity
  8
0
 62
     3
100
AcDbText
 10
190.9726979952893
 20
26.071442
 30
0.0
 40
3.2
  1
コード番号名称
 41
0.6
  7
高3.2
100
AcDbText
  0
TEXT
  5
866
330
36
100
AcDbEntity
  8
0
 62
     3
100
AcDbText
 10
190.9726979952893
 20
86.07144200000002
 30
0.0
 40
3.2
  1
-
 41
0.6
  7
高3.2
100
AcDbText
  0
TEXT
  5
867
330
36
100
AcDbEntity
  8
0
 62
     3
100
AcDbText
 10
190.9726979952893
 20
96.07144200000002
 30
0.0
 40
3.2
  1
-
 41
0.6
  7
高3.2
100
AcDbText
  0
TEXT
  5
868
330
36
100
AcDbEntity
  8
0
 62
     3
100
AcDbText
 10
190.9726979952893
 20
36.071442
 30
0.0
 40
3.2
  1
-
 41
0.6
  7
高3.2
100
AcDbText
  0
TEXT
  5
869
330
36
100
AcDbEntity
  8
0
 62
     3
100
AcDbText
 10
190.9726979952893
 20
51.071442
 30
0.0
 40
3.2
  1
DIGITAL-180/200/230/270/300兼用 デジタルパネル表示部一式
 41
0.6
  7
高3.2
100
AcDbText
  0
TEXT
  5
86A
330
36
100
AcDbEntity
  8
0
 62
     3
100
AcDbText
 10
190.9726979952893
 20
31.071442
 30
0.0
 40
3.2
  1
DIGITAL-300A用本体カバー(赤)
 41
0.6
  7
高3.2
100
AcDbText
  0
TEXT
  5
86B
330
36
100
AcDbEntity
  8
0
 62
     3
100
AcDbText
 10
190.9726979952893
 20
46.07144199999999
 30
0.0
 40
3.2
  1
-
 41
0.6
  7
高3.2
100
AcDbText
  0
TEXT
  5
86C
330
36
100
AcDbEntity
  8
0
 62
     3
100
AcDbText
 10
190.9726979952893
 20
61.07144200000002
 30
0.0
 40
3.2
  1
デジタル溶接機共通 電撃防止スイッチ
 41
0.6
  7
高3.2
100
AcDbText
  0
TEXT
  5
86D
330
36
100
AcDbEntity
  8
0
 62
     3
100
AcDbText
 10
190.9726979952893
 20
41.07144199999999
 30
0.0
 40
3.2
  1
DIGITAL-270/300A兼用　電源スイッチ(ブレーカー)
 41
0.6
  7
高3.2
100
AcDbText
  0
TEXT
  5
86E
330
36
100
AcDbEntity
  8
0
 62
     3
100
AcDbText
 10
190.9726979952893
 20
66.07144200000002
 30
0.0
 40
3.2
  1
デジタル溶接機共通 出力電流調節ダイヤル
 41
0.6
  7
高3.2
100
AcDbText
  0
LINE
  5
86F
330
36
100
AcDbEntity
  8
0
100
AcDbLine
 10
189.4726979952893
 20
25.571442
 30
0.0
 11
189.4726979952893
 21
105.571442
 31
0.0
  0
TEXT
  5
870
330
36
100
AcDbEntity
  8
0
 62
     3
100
AcDbText
 10
190.9726979952893
 20
81.07144200000002
 30
0.0
 40
3.2
  1
DIGITAL-180/200/230/270/300兼用脚ゴム(1/4個)
 41
0.6
  7
高3.2
100
AcDbText
  0
TEXT
  5
871
330
36
100
AcDbEntity
  8
0
 62
     3
100
AcDbText
 10
190.9726979952893
 20
91.07144200000002
 30
0.0
 40
3.2
  1
デジタル溶接機共通 取っ手
 41
0.6
  7
高3.2
100
AcDbText
  0
TEXT
  5
872
330
36
100
AcDbEntity
  8
0
 62
     3
100
AcDbText
 10
190.9726979952893
 20
71.07144200000002
 30
0.0
 40
3.2
  1
DIGITAL-200/230/270/300/,NA-440(-N)兼用出力端子
 41
0.6
  7
高3.2
100
AcDbText
  0
TEXT
  5
873
330
36
100
AcDbEntity
  8
0
 62
     3
100
AcDbText
 10
190.9726979952893
 20
76.07144200000002
 30
0.0
 40
3.2
  1
端子カバー ニチフTIC-325(黄)NA-230DS/270DS用
 41
0.6
  7
高3.2
100
AcDbText
  0
TEXT
  5
874
330
36
100
AcDbEntity
  8
0
 62
     3
100
AcDbText
 10
190.9726979952893
 20
101.071442
 30
0.0
 40
3.2
  1
NA-SB 溶接機用ショルダーベルト
 41
0.6
  7
高3.2
100
AcDbText
  0
TEXT
  5
875
330
36
100
AcDbEntity
  8
0
 62
     3
100
AcDbText
 10
190.9726979952893
 20
56.07144200000001
 30
0.0
 40
3.2
  1
DIGITAL-180/200/230/270/300兼用 デジタルパネル基板
 41
0.6
  7
高3.2
100
AcDbText
  0
TEXT
  5
922
330
36
100
AcDbEntity
  8
0
100
AcDbText
 10
390.4187110000001
 20
285.071442
 30
0.0
 40
2.5
  1
'13.10.29
  7
高2.5
100
AcDbText
  0
TEXT
  5
AC9
330
36
100
AcDbEntity
  8
0
100
AcDbText
 10
452.418711
 20
285.071442
 30
0.0
 40
2.5
  1
今村
  7
高2.5
100
AcDbText
  0
TEXT
  5
ACA
330
36
100
AcDbEntity
  8
0
100
AcDbText
 10
408.4187109999998
 20
285.071442
 30
0.0
 40
2.5
  1
電線10sqから6sqへ変更
  7
高2.5
100
AcDbText
  0
LINE
  5
CFB
330
36
100
AcDbEntity
  8
0
 62
     3
100
AcDbLine
 10
310.7705020634205
 20
159.32031323932
 30
0.0
 11
310.7705020634205
 21
81.32031323931999
 31
0.0
  0
TEXT
  5
CFC
330
36
100
AcDbEntity
  8
0
 62
     3
100
AcDbText
 10
312.1767520634205
 20
153.7890632393199
 30
0.0
 40
3.2
  1
型　　　式
 41
0.8
  7
高3.2
100
AcDbText
  0
TEXT
  5
CFD
330
36
100
AcDbEntity
  8
0
 62
     3
100
AcDbText
 10
312.1767520634205
 20
147.78906323932
 30
0.0
 40
3.2
  1
定格入力電圧
 41
0.8
  7
高3.2
100
AcDbText
  0
TEXT
  5
CFE
330
36
100
AcDbEntity
  8
0
 62
     3
100
AcDbText
 10
312.1767520634205
 20
135.78906323932
 30
0.0
 40
3.2
  1
定格　容量
 41
0.8
  7
高3.2
100
AcDbText
  0
TEXT
  5
CFF
330
36
100
AcDbEntity
  8
0
 62
     3
100
AcDbText
 10
312.1767520634205
 20
117.78906323932
 30
0.0
 40
3.2
  1
無負荷電圧
 41
0.8
  7
高3.2
100
AcDbText
  0
TEXT
  5
D00
330
36
100
AcDbEntity
  8
0
 62
     3
100
AcDbText
 10
312.1767520634205
 20
105.7890632393199
 30
0.0
 40
3.2
  1
入力　電線
 41
0.8
  7
高3.2
100
AcDbText
  0
TEXT
  5
D01
330
36
100
AcDbEntity
  8
0
 62
     3
100
AcDbText
 10
312.1767520634205
 20
81.78906323931999
 30
0.0
 40
3.2
  1
本体　質量
 41
0.8
  7
高3.2
100
AcDbText
  0
LINE
  5
D02
330
36
100
AcDbEntity
  8
0
 62
     3
100
AcDbLine
 10
383.9954027202244
 20
159.32031323932
 30
0.0
 11
383.9954027202244
 21
81.32031323931999
 31
0.0
  0
LINE
  5
D03
330
36
100
AcDbEntity
  8
0
 62
     3
100
AcDbLine
 10
310.7705020634205
 20
159.32031323932
 30
0.0
 11
383.9954027202244
 21
159.32031323932
 31
0.0
  0
LINE
  5
D04
330
36
100
AcDbEntity
  8
0
 62
     7
100
AcDbLine
 10
310.7705020634205
 20
153.3203132393199
 30
0.0
 11
383.9954027202244
 21
153.3203132393199
 31
0.0
  0
LINE
  5
D05
330
36
100
AcDbEntity
  8
0
 62
     7
100
AcDbLine
 10
310.7705020634205
 20
147.32031323932
 30
0.0
 11
383.9954027202244
 21
147.32031323932
 31
0.0
  0
LINE
  5
D06
330
36
100
AcDbEntity
  8
0
 62
     7
100
AcDbLine
 10
310.7705020634205
 20
135.3203132393199
 30
0.0
 11
383.9954027202244
 21
135.3203132393199
 31
0.0
  0
LINE
  5
D07
330
36
100
AcDbEntity
  8
0
 62
     7
100
AcDbLine
 10
310.7705020634205
 20
129.32031323932
 30
0.0
 11
383.9954027202244
 21
129.32031323932
 31
0.0
  0
LINE
  5
D08
330
36
100
AcDbEntity
  8
0
 62
     7
100
AcDbLine
 10
310.7705020634205
 20
123.32031323932
 30
0.0
 11
383.9954027202244
 21
123.32031323932
 31
0.0
  0
LINE
  5
D09
330
36
100
AcDbEntity
  8
0
 62
     7
100
AcDbLine
 10
310.7705020634205
 20
117.32031323932
 30
0.0
 11
383.9954027202244
 21
117.32031323932
 31
0.0
  0
LINE
  5
D0A
330
36
100
AcDbEntity
  8
0
 62
     7
100
AcDbLine
 10
310.7705020634205
 20
105.32031323932
 30
0.0
 11
383.9954027202244
 21
105.32031323932
 31
0.0
  0
LINE
  5
D0B
330
36
100
AcDbEntity
  8
0
 62
     7
100
AcDbLine
 10
310.7705020634205
 20
99.32031323931999
 30
0.0
 11
383.9954027202244
 21
99.32031323931999
 31
0.0
  0
LINE
  5
D0C
330
36
100
AcDbEntity
  8
0
 62
     7
100
AcDbLine
 10
310.7705020634205
 20
87.32031323932
 30
0.0
 11
383.9954027202244
 21
87.32031323932
 31
0.0
  0
TEXT
  5
D0D
330
36
100
AcDbEntity
  8
0
 62
     3
100
AcDbText
 10
327.8336626026391
 20
161.3560632393199
 30
0.0
 40
4.5
  1
主　　　仕　　　様
  7
高4.5
100
AcDbText
  0
TEXT
  5
D0E
330
36
100
AcDbEntity
  8
0
 62
     3
100
AcDbText
 10
336.2407335476227
 20
147.78906323932
 30
0.0
 40
3.2
  1
三相200V 50/60Hz
 41
0.8
  7
高3.2
100
AcDbText
  0
TEXT
  5
D0F
330
36
100
AcDbEntity
  8
0
 62
     3
100
AcDbText
 10
312.1767520634205
 20
87.78906323932
 30
0.0
 40
3.2
  1
使用溶接棒
 41
0.8
  7
高3.2
100
AcDbText
  0
TEXT
  5
D10
330
36
100
AcDbEntity
  8
0
 62
     3
100
AcDbText
 10
312.1767520634205
 20
99.78906323931999
 30
0.0
 40
3.2
  1
電撃防止装置
 41
0.8
  7
高3.2
100
AcDbText
  0
LINE
  5
D11
330
36
100
AcDbEntity
  8
0
 62
     3
100
AcDbLine
 10
310.7705020634205
 20
81.32031323931999
 30
0.0
 11
383.9954027202244
 21
81.32031323931999
 31
0.0
  0
LINE
  5
D12
330
36
100
AcDbEntity
  8
0
 62
     7
100
AcDbLine
 10
334.8344835476227
 20
159.32031323932
 30
0.0
 11
334.8344835476227
 21
81.32031323931999
 31
0.0
  0
TEXT
  5
D13
330
36
100
AcDbEntity
  8
0
 62
     3
100
AcDbText
 10
336.2407335476227
 20
135.78906323932
 30
0.0
 40
3.2
  1
8KVA  5.6KW
 41
0.8
  7
高3.2
100
AcDbText
  0
TEXT
  5
D14
330
36
100
AcDbEntity
  8
0
 62
     3
100
AcDbText
 10
336.2407335476227
 20
117.78906323932
 30
0.0
 40
3.2
  1
電防入22/電防切83V
 41
0.8
  7
高3.2
100
AcDbText
  0
TEXT
  5
D15
330
36
100
AcDbEntity
  8
0
 62
     3
100
AcDbText
 10
336.2407335476227
 20
99.78906323931999
 30
0.0
 40
3.2
  1
切替スイッチ式
 41
0.8
  7
高3.2
100
AcDbText
  0
TEXT
  5
D16
330
36
100
AcDbEntity
  8
0
 62
     3
100
AcDbText
 10
336.2407335476227
 20
87.78906323932
 30
0.0
 40
3.2
  1
%%C6.0まで
 41
0.8
  7
高3.2
100
AcDbText
  0
TEXT
  5
D17
330
36
100
AcDbEntity
  8
0
 62
     3
100
AcDbText
 10
312.1767520634205
 20
123.78906323932
 30
0.0
 40
3.2
  1
定格負荷電圧
 41
0.8
  7
高3.2
100
AcDbText
  0
TEXT
  5
D18
330
36
100
AcDbEntity
  8
0
 62
     3
100
AcDbText
 10
336.2407335476227
 20
153.7890632393199
 30
0.0
 40
3.2
  1
DIGITAL-300A
 41
0.8
  7
高3.2
100
AcDbText
  0
LINE
  5
D19
330
36
100
AcDbEntity
  8
0
 62
     7
100
AcDbLine
 10
310.7705020634205
 20
141.3203132393199
 30
0.0
 11
383.9954027202244
 21
141.3203132393199
 31
0.0
  0
TEXT
  5
D1A
330
36
100
AcDbEntity
  8
0
 62
     3
100
AcDbText
 10
312.1767520634205
 20
141.78906323932
 30
0.0
 40
3.2
  1
入力電圧範囲
 41
0.8
  7
高3.2
100
AcDbText
  0
TEXT
  5
D1B
330
36
100
AcDbEntity
  8
0
 62
     3
100
AcDbText
 10
336.2407335476227
 20
141.78906323932
 30
0.0
 40
3.2
  1
AC180V～220V
 41
0.8
  7
高3.2
100
AcDbText
  0
TEXT
  5
D1C
330
36
100
AcDbEntity
  8
0
 62
     3
100
AcDbText
 10
336.2407335476227
 20
81.78906323931999
 30
0.0
 40
3.2
  1
22.6kg
 41
0.8
  7
高3.2
100
AcDbText
  0
LINE
  5
D1D
330
36
100
AcDbEntity
  8
0
 62
     7
100
AcDbLine
 10
327.8336626026391
 20
160.7155803098548
 30
0.0
 11
375.630196501448
 21
160.7155803098548
 31
0.0
  0
TEXT
  5
D1E
330
36
100
AcDbEntity
  8
0
 62
     3
100
AcDbText
 10
336.2407335476227
 20
123.78906323932
 30
0.0
 40
3.2
  1
29～42V
 41
0.8
  7
高3.2
100
AcDbText
  0
TEXT
  5
D1F
330
36
100
AcDbEntity
  8
0
 62
     3
100
AcDbText
 10
336.2407335476227
 20
105.7890632393199
 30
0.0
 40
3.2
  1
6sqx4芯x5m
 41
0.8
  7
高3.2
100
AcDbText
  0
TEXT
  5
D20
330
36
100
AcDbEntity
  8
0
 62
     3
100
AcDbText
 10
312.1767520634205
 20
129.78906323932
 30
0.0
 40
3.2
  1
定格入力電流
 41
0.8
  7
高3.2
100
AcDbText
  0
TEXT
  5
D21
330
36
100
AcDbEntity
  8
0
 62
     3
100
AcDbText
 10
336.2407335476227
 20
129.78906323932
 30
0.0
 40
3.2
  1
40A
 41
0.8
  7
高3.2
100
AcDbText
  0
TEXT
  5
D22
330
36
100
AcDbEntity
  8
0
 62
     3
100
AcDbText
 10
312.1767520634205
 20
111.78906323932
 30
0.0
 40
3.2
  1
使　用　率
 41
0.8
  7
高3.2
100
AcDbText
  0
LINE
  5
D23
330
36
100
AcDbEntity
  8
0
 62
     7
100
AcDbLine
 10
310.7705020634205
 20
111.32031323932
 30
0.0
 11
383.9954027202244
 21
111.32031323932
 31
0.0
  0
TEXT
  5
D24
330
36
100
AcDbEntity
  8
0
 62
     3
100
AcDbText
 10
336.2407335476227
 20
111.78906323932
 30
0.0
 40
3.2
  1
最大50%%%
 41
0.8
  7
高3.2
100
AcDbText
  0
LINE
  5
D25
330
36
100
AcDbEntity
  8
0
 62
     7
100
AcDbLine
 10
310.7705020634205
 20
93.32031323932
 30
0.0
 11
383.9954027202244
 21
93.32031323932
 31
0.0
  0
TEXT
  5
D26
330
36
100
AcDbEntity
  8
0
 62
     3
100
AcDbText
 10
312.1767520634205
 20
93.78906323932
 30
0.0
 40
3.2
  1
使用環境温度
 41
0.8
  7
高3.2
100
AcDbText
  0
TEXT
  5
D27
330
36
100
AcDbEntity
  8
0
 62
     3
100
AcDbText
 10
336.2407335476227
 20
93.78906323932
 30
0.0
 40
3.2
  1
-10～40℃
 41
0.8
  7
高3.2
100
AcDbText
  0
TEXT
  5
E8F
330
36
100
AcDbEntity
  8
0
100
AcDbText
 10
390.4187110000001
 20
280.071442
 30
0.0
 40
2.5
  1
'18.04.12
  7
高2.5
100
AcDbText
  0
TEXT
  5
E90
330
36
100
AcDbEntity
  8
0
100
AcDbText
 10
452.418711
 20
280.071442
 30
0.0
 40
2.5
  1
今村
  7
高2.5
100
AcDbText
  0
TEXT
  5
E91
330
36
100
AcDbEntity
  8
0
100
AcDbText
 10
408.4187109999998
 20
280.071442
 30
0.0
 40
2.5
  1
内部基板変更　lot18004
  7
高2.5
100
AcDbText
  0
TEXT
  5
F39
330
36
100
AcDbEntity
  8
0
 62
     3
100
AcDbText
 10
84.09646290897283
 20
173.8614661237522
 30
0.0
 40
3.2
  1
(緑)　(黒)(青)(茶)
 41
0.8
  7
高3.2
100
AcDbText
  0
TEXT
  5
F3A
330
36
100
AcDbEntity
  8
0
 62
     3
100
AcDbText
 10
84.09646290897283
 20
169.5240998172404
 30
0.0
 40
3.2
  1
(緑)　(黒)(灰)(茶)
 41
0.8
  7
高3.2
100
AcDbText
  0
TEXT
  5
F5A
330
36
100
AcDbEntity
  8
0
 62
     3
100
AcDbText
 10
383.223714523582
 20
275.2310867778188
 30
0.0
 40
2.0
  1
3
  7
高2
100
AcDbText
  0
LINE
  5
F5B
330
36
100
AcDbEntity
  8
0
100
AcDbLine
 10
383.9187110000001
 20
278.3623380000002
 30
0.0
 11
382.0187110000002
 21
275.071442
 31
0.0
  0
LINE
  5
F5C
330
36
100
AcDbEntity
  8
0
100
AcDbLine
 10
383.9187110000001
 20
278.3623380000002
 30
0.0
 11
385.8187110000002
 21
275.071442
 31
0.0
  0
LINE
  5
F5D
330
36
100
AcDbEntity
  8
0
100
AcDbLine
 10
382.0187110000002
 20
275.071442
 30
0.0
 11
385.8187110000002
 21
275.071442
 31
0.0
  0
LINE
  5
F5E
330
36
100
AcDbEntity
  8
0
 62
     3
100
AcDbLine
 10
378.9187110000002
 20
274.571442
 30
0.0
 11
464.918711
 21
274.571442
 31
0.0
  0
TEXT
  5
F5F
330
36
100
AcDbEntity
  8
0
100
AcDbText
 10
390.4187110000001
 20
275.071442
 30
0.0
 40
2.5
  1
'22.05.16
  7
高2.5
100
AcDbText
  0
TEXT
  5
F60
330
36
100
AcDbEntity
  8
0
100
AcDbText
 10
452.418711
 20
275.071442
 30
0.0
 40
2.5
  1
今村
  7
高2.5
100
AcDbText
  0
TEXT
  5
F61
330
36
100
AcDbEntity
  8
0
100
AcDbText
 10
408.4187109999998
 20
275.071442
 30
0.0
 40
2.5
  1
電線色変更、ブレーカー80Aへ変更　lot2204
 41
0.6
  7
高2.5
100
AcDbText
  0
LINE
  5
FE9
330
36
100
AcDbEntity
  8
0
100
AcDbLine
 10
217.22645
 20
175.1693157090583
 30
0.0
 11
219.264349
 21
175.5355877090583
 31
0.0
  0
LINE
  5
FEA
330
36
100
AcDbEntity
  8
0
100
AcDbLine
 10
219.264349
 20
175.5355877090583
 30
0.0
 11
217.316341
 21
176.2373367090583
 31
0.0
  0
LINE
  5
FEB
330
36
100
AcDbEntity
  8
0
100
AcDbLine
 10
220.61329
 20
187.0748427090583
 30
0.0
 11
222.629939
 21
187.5442167090583
 31
0.0
  0
LINE
  5
FEC
330
36
100
AcDbEntity
  8
0
100
AcDbLine
 10
222.629939
 20
187.5442167090583
 30
0.0
 11
220.648783
 21
188.1460517090583
 31
0.0
  0
LINE
  5
FED
330
36
100
AcDbEntity
  8
0
100
AcDbLine
 10
226.522495
 20
193.2753907090583
 30
0.0
 11
228.590463
 21
193.1719747090583
 31
0.0
  0
LINE
  5
FEE
330
36
100
AcDbEntity
  8
0
100
AcDbLine
 10
228.590463
 20
193.1719747090583
 30
0.0
 11
226.851258
 21
194.2955197090583
 31
0.0
  0
LINE
  5
FEF
330
36
100
AcDbEntity
  8
0
100
AcDbLine
 10
109.568151
 20
248.1234327090583
 30
0.0
 11
110.416001
 21
246.2344287090583
 31
0.0
  0
LINE
  5
FF0
330
36
100
AcDbEntity
  8
0
100
AcDbLine
 10
110.416001
 20
246.2344287090583
 30
0.0
 11
110.626244
 21
248.2942787090584
 31
0.0
  0
LINE
  5
FF1
330
36
100
AcDbEntity
  8
0
100
AcDbLine
 10
153.168856
 20
269.6532937090583
 30
0.0
 11
152.734614
 21
267.6287887090584
 31
0.0
  0
LINE
  5
FF2
330
36
100
AcDbEntity
  8
0
100
AcDbLine
 10
152.734614
 20
267.6287887090584
 30
0.0
 11
154.122931
 21
269.1649407090585
 31
0.0
  0
LINE
  5
FF3
330
36
100
AcDbEntity
  8
0
100
AcDbLine
 10
156.362481
 20
230.8630497090584
 30
0.0
 11
156.0133
 21
228.8221527090583
 31
0.0
  0
LINE
  5
FF4
330
36
100
AcDbEntity
  8
0
100
AcDbLine
 10
156.0133
 20
228.8221527090583
 30
0.0
 11
157.336148
 21
230.4150307090584
 31
0.0
  0
LINE
  5
FF5
330
36
100
AcDbEntity
  8
0
100
AcDbLine
 10
222.876592
 20
245.6458117090585
 30
0.0
 11
224.200867
 21
244.0541197090585
 31
0.0
  0
LINE
  5
FF6
330
36
100
AcDbEntity
  8
0
100
AcDbLine
 10
224.200867
 20
244.0541197090585
 30
0.0
 11
223.849857
 21
246.0947027090585
 31
0.0
  0
LINE
  5
FF7
330
36
100
AcDbEntity
  8
0
100
AcDbLine
 10
225.454231
 20
257.3941587090585
 30
0.0
 11
226.373275
 21
255.5387497090585
 31
0.0
  0
LINE
  5
FF8
330
36
100
AcDbEntity
  8
0
100
AcDbLine
 10
226.373275
 20
255.5387497090585
 30
0.0
 11
226.505064
 21
257.6051037090584
 31
0.0
  0
LINE
  5
FF9
330
36
100
AcDbEntity
  8
0
100
AcDbLine
 10
244.440038
 20
257.6203537090583
 30
0.0
 11
245.605112
 21
255.9086907090583
 31
0.0
  0
LINE
  5
FFA
330
36
100
AcDbEntity
  8
0
100
AcDbLine
 10
245.605112
 20
255.9086907090583
 30
0.0
 11
245.45196
 21
257.9735717090582
 31
0.0
  0
LINE
  5
FFB
330
36
100
AcDbEntity
  8
0
100
AcDbLine
 10
250.16054
 20
253.8747527090585
 30
0.0
 11
249.861685
 21
251.8258817090584
 31
0.0
  0
LINE
  5
FFC
330
36
100
AcDbEntity
  8
0
100
AcDbLine
 10
249.861685
 20
251.8258817090584
 30
0.0
 11
251.144936
 21
253.4508287090583
 31
0.0
  0
LINE
  5
FFD
330
36
100
AcDbEntity
  8
0
100
AcDbLine
 10
268.829226
 20
256.1261487090585
 30
0.0
 11
268.627029
 21
254.0654927090583
 31
0.0
  0
LINE
  5
FFE
330
36
100
AcDbEntity
  8
0
100
AcDbLine
 10
268.627029
 20
254.0654927090583
 30
0.0
 11
269.832465
 21
255.7489747090584
 31
0.0
  0
LINE
  5
FFF
330
36
100
AcDbEntity
  8
0
100
AcDbLine
 10
279.20588
 20
265.9037307090583
 30
0.0
 11
278.619809
 21
263.9178537090584
 31
0.0
  0
LINE
  5
1000
330
36
100
AcDbEntity
  8
0
100
AcDbLine
 10
278.619809
 20
263.9178537090584
 30
0.0
 11
280.1203
 21
265.3446377090585
 31
0.0
  0
LINE
  5
1001
330
36
100
AcDbEntity
  8
0
100
AcDbLine
 10
310.213034
 20
265.5171477090585
 30
0.0
 11
310.006009
 21
263.4569717090584
 31
0.0
  0
LINE
  5
1002
330
36
100
AcDbEntity
  8
0
100
AcDbLine
 10
310.006009
 20
263.4569717090584
 30
0.0
 11
311.215386
 21
265.1376247090582
 31
0.0
  0
LINE
  5
1003
330
36
100
AcDbEntity
  8
0
100
AcDbLine
 10
98.933268
 20
226.2803987090584
 30
0.0
 11
100.996637
 21
227.0210607090583
 31
0.0
  0
LINE
  5
1004
330
36
100
AcDbEntity
  8
0
100
AcDbLine
 10
100.996637
 20
227.0210607090583
 30
0.0
 11
103.0407
 21
227.1977347090584
 31
0.0
  0
LINE
  5
1005
330
36
100
AcDbEntity
  8
0
100
AcDbLine
 10
103.0407
 20
227.1977347090584
 30
0.0
 11
104.347972
 21
226.8468087090583
 31
0.0
  0
LINE
  5
1006
330
36
100
AcDbEntity
  8
0
100
AcDbLine
 10
104.347972
 20
226.8468087090583
 30
0.0
 11
105.66334
 21
226.4715097090584
 31
0.0
  0
LINE
  5
1007
330
36
100
AcDbEntity
  8
0
100
AcDbLine
 10
105.66334
 20
226.4715097090584
 30
0.0
 11
107.386247
 21
226.4552797090585
 31
0.0
  0
LINE
  5
1008
330
36
100
AcDbEntity
  8
0
100
AcDbLine
 10
107.386247
 20
226.4552797090585
 30
0.0
 11
109.135693
 21
226.7861097090583
 31
0.0
  0
LINE
  5
1009
330
36
100
AcDbEntity
  8
0
100
AcDbLine
 10
99.03029400000001
 20
228.5884397090584
 30
0.0
 11
101.093663
 21
229.3291017090583
 31
0.0
  0
LINE
  5
100A
330
36
100
AcDbEntity
  8
0
100
AcDbLine
 10
101.093663
 20
229.3291017090583
 30
0.0
 11
103.137726
 21
229.5057757090584
 31
0.0
  0
LINE
  5
100B
330
36
100
AcDbEntity
  8
0
100
AcDbLine
 10
103.137726
 20
229.5057757090584
 30
0.0
 11
104.444998
 21
229.1548507090585
 31
0.0
  0
LINE
  5
100C
330
36
100
AcDbEntity
  8
0
100
AcDbLine
 10
104.444998
 20
229.1548507090585
 30
0.0
 11
105.760366
 21
228.7795517090583
 31
0.0
  0
LINE
  5
100D
330
36
100
AcDbEntity
  8
0
100
AcDbLine
 10
105.760366
 20
228.7795517090583
 30
0.0
 11
107.483273
 21
228.7633207090584
 31
0.0
  0
LINE
  5
100E
330
36
100
AcDbEntity
  8
0
100
AcDbLine
 10
107.483273
 20
228.7633207090584
 30
0.0
 11
109.232719
 21
229.0941507090585
 31
0.0
  0
LINE
  5
100F
330
36
100
AcDbEntity
  8
0
100
AcDbLine
 10
275.802587
 20
171.9621217090583
 30
0.0
 11
295.024008
 21
171.9621217090583
 31
0.0
  0
LINE
  5
1010
330
36
100
AcDbEntity
  8
0
100
AcDbLine
 10
279.653717
 20
263.6287887090584
 30
0.0
 11
295.024008
 21
263.6287887090584
 31
0.0
  0
LINE
  5
1011
330
36
100
AcDbEntity
  8
0
100
AcDbLine
 10
293.774008
 20
174.4621217090583
 30
0.0
 11
293.774008
 21
261.1287887090584
 31
0.0
  0
LINE
  5
1015
330
36
100
AcDbEntity
  8
0
100
AcDbLine
 10
303.890402
 20
194.4456657090583
 30
0.0
 11
303.890402
 21
167.1763527090583
 31
0.0
  0
LINE
  5
1016
330
36
100
AcDbEntity
  8
0
100
AcDbLine
 10
450.5570689999998
 20
178.3787887090583
 30
0.0
 11
450.5570689999998
 21
167.1763527090583
 31
0.0
  0
LINE
  5
1017
330
36
100
AcDbEntity
  8
0
100
AcDbLine
 10
306.390402
 20
168.4263527090583
 30
0.0
 11
448.0570689999998
 21
168.4263527090583
 31
0.0
  0
LINE
  5
101B
330
36
100
AcDbEntity
  8
0
100
AcDbLine
 10
213.403717
 20
178.3787887090583
 30
0.0
 11
213.403717
 21
165.8290437090583
 31
0.0
  0
LINE
  5
101C
330
36
100
AcDbEntity
  8
0
100
AcDbLine
 10
284.403717
 20
178.3787887090583
 30
0.0
 11
284.403717
 21
165.8290437090583
 31
0.0
  0
LINE
  5
101D
330
36
100
AcDbEntity
  8
0
100
AcDbLine
 10
215.903717
 20
167.0790437090583
 30
0.0
 11
281.903717
 21
167.0790437090583
 31
0.0
  0
TEXT
  5
1021
330
36
100
AcDbEntity
  8
0
 62
     4
100
AcDbText
 10
293.1490079999999
 20
214.0454552090584
 30
0.0
 40
3.0
  1
290
 50
90.0
100
AcDbText
  0
LINE
  5
1022
330
36
100
AcDbEntity
  8
0
  6
ByBlock
 62
     0
370
    -2
100
AcDbLine
 10
293.1041355
 20
261.1287887090584
 30
0.0
 11
293.774008
 21
263.6287887090584
 31
0.0
  0
LINE
  5
1023
330
36
100
AcDbEntity
  8
0
  6
ByBlock
 62
     0
370
    -2
100
AcDbLine
 10
293.774008
 20
263.6287887090584
 30
0.0
 11
294.4438805
 21
261.1287887090584
 31
0.0
  0
LINE
  5
1024
330
36
100
AcDbEntity
  8
0
  6
ByBlock
 62
     0
370
    -2
100
AcDbLine
 10
293.774008
 20
263.6287887090584
 30
0.0
 11
293.774008
 21
261.1287887090584
 31
0.0
  0
LINE
  5
1025
330
36
100
AcDbEntity
  8
0
  6
ByBlock
 62
     0
370
    -2
100
AcDbLine
 10
294.4438805
 20
174.4621217090583
 30
0.0
 11
293.774008
 21
171.9621217090583
 31
0.0
  0
LINE
  5
1026
330
36
100
AcDbEntity
  8
0
  6
ByBlock
 62
     0
370
    -2
100
AcDbLine
 10
293.774008
 20
171.9621217090583
 30
0.0
 11
293.1041355
 21
174.4621217090583
 31
0.0
  0
LINE
  5
1027
330
36
100
AcDbEntity
  8
0
  6
ByBlock
 62
     0
370
    -2
100
AcDbLine
 10
293.774008
 20
171.9621217090583
 30
0.0
 11
293.774008
 21
174.4621217090583
 31
0.0
  0
TEXT
  5
1028
330
36
100
AcDbEntity
  8
0
 62
     4
100
AcDbText
 10
373.4737354999999
 20
169.0513527090583
 30
0.0
 40
3.0
  1
480
100
AcDbText
  0
LINE
  5
1029
330
36
100
AcDbEntity
  8
0
  6
ByBlock
 62
     0
370
    -2
100
AcDbLine
 10
448.0570689999998
 20
169.0962252090583
 30
0.0
 11
450.5570689999998
 21
168.4263527090583
 31
0.0
  0
LINE
  5
102A
330
36
100
AcDbEntity
  8
0
  6
ByBlock
 62
     0
370
    -2
100
AcDbLine
 10
450.5570689999998
 20
168.4263527090583
 30
0.0
 11
448.0570689999998
 21
167.7564802090583
 31
0.0
  0
LINE
  5
102B
330
36
100
AcDbEntity
  8
0
  6
ByBlock
 62
     0
370
    -2
100
AcDbLine
 10
450.5570689999998
 20
168.4263527090583
 30
0.0
 11
448.0570689999998
 21
168.4263527090583
 31
0.0
  0
LINE
  5
102C
330
36
100
AcDbEntity
  8
0
  6
ByBlock
 62
     0
370
    -2
100
AcDbLine
 10
306.390402
 20
167.7564802090583
 30
0.0
 11
303.890402
 21
168.4263527090583
 31
0.0
  0
LINE
  5
102D
330
36
100
AcDbEntity
  8
0
  6
ByBlock
 62
     0
370
    -2
100
AcDbLine
 10
303.890402
 20
168.4263527090583
 30
0.0
 11
306.390402
 21
169.0962252090583
 31
0.0
  0
LINE
  5
102E
330
36
100
AcDbEntity
  8
0
  6
ByBlock
 62
     0
370
    -2
100
AcDbLine
 10
303.890402
 20
168.4263527090583
 30
0.0
 11
306.390402
 21
168.4263527090583
 31
0.0
  0
TEXT
  5
102F
330
36
100
AcDbEntity
  8
0
 62
     4
100
AcDbText
 10
244.903717
 20
167.7040437090583
 30
0.0
 40
3.0
  1
224
100
AcDbText
  0
LINE
  5
1030
330
36
100
AcDbEntity
  8
0
  6
ByBlock
 62
     0
370
    -2
100
AcDbLine
 10
281.903717
 20
167.7489162090583
 30
0.0
 11
284.403717
 21
167.0790437090583
 31
0.0
  0
LINE
  5
1031
330
36
100
AcDbEntity
  8
0
  6
ByBlock
 62
     0
370
    -2
100
AcDbLine
 10
284.403717
 20
167.0790437090583
 30
0.0
 11
281.903717
 21
166.4091712090583
 31
0.0
  0
LINE
  5
1032
330
36
100
AcDbEntity
  8
0
  6
ByBlock
 62
     0
370
    -2
100
AcDbLine
 10
284.403717
 20
167.0790437090583
 30
0.0
 11
281.903717
 21
167.0790437090583
 31
0.0
  0
LINE
  5
1033
330
36
100
AcDbEntity
  8
0
  6
ByBlock
 62
     0
370
    -2
100
AcDbLine
 10
215.903717
 20
166.4091712090583
 30
0.0
 11
213.403717
 21
167.0790437090583
 31
0.0
  0
LINE
  5
1034
330
36
100
AcDbEntity
  8
0
  6
ByBlock
 62
     0
370
    -2
100
AcDbLine
 10
213.403717
 20
167.0790437090583
 30
0.0
 11
215.903717
 21
167.7489162090583
 31
0.0
  0
LINE
  5
1035
330
36
100
AcDbEntity
  8
0
  6
ByBlock
 62
     0
370
    -2
100
AcDbLine
 10
213.403717
 20
167.0790437090583
 30
0.0
 11
215.903717
 21
167.0790437090583
 31
0.0
  0
ENDSEC
  0
SECTION
  2
OBJECTS
  0
DICTIONARY
  5
C
330
0
100
AcDbDictionary
281
     1
  3
ACAD_2007HEADERVARS_RT
350
103A
  3
ACAD_COLOR
350
2F
  3
ACAD_GROUP
350
D
  3
ACAD_LAYOUT
350
2E
  3
ACAD_MATERIAL
350
10
  3
ACAD_MLEADERSTYLE
350
4ED
  3
ACAD_MLINESTYLE
350
2B
  3
ACAD_PLOTSETTINGS
350
2D
  3
ACAD_PLOTSTYLENAME
350
E
  3
ACAD_SCALELIST
350
4DB
  3
ACAD_TABLESTYLE
350
30
  3
ACAD_VISUALSTYLE
350
14
  3
ACDB_RECOMPOSE_DATA
350
1038
  3
AcDbVariableDictionary
350
4BB
  3
AEC_PROPERTY_SET_DEFS
350
CF7
  3
DWGPROPS
350
1039
  0
DICTIONARY
  5
596
330
2
100
AcDbDictionary
280
     1
281
     1
  3
ACAD_LAYERSTATES
360
597
  0
DICTIONARY
  5
764
330
25
100
AcDbDictionary
280
     1
281
     1
  3
ADSK_XREC_LAYER_RECONCILED
360
765
  0
DICTIONARY
  5
738
330
36
100
AcDbDictionary
280
     1
281
     1
  3
ACAD_SORTENTS
360
739
  0
DICTIONARY
  5
103A
102
{ACAD_REACTORS
330
C
102
}
330
C
100
AcDbDictionary
281
     1
  3
DIMARCSYM
350
103C
  3
DIMFXL
350
103B
  3
DIMJOGANG
350
103D
  0
DICTIONARY
  5
2F
102
{ACAD_REACTORS
330
C
102
}
330
C
100
AcDbDictionary
281
     1
  0
DICTIONARY
  5
D
102
{ACAD_REACTORS
330
C
102
}
330
C
100
AcDbDictionary
281
     1
  0
DICTIONARY
  5
2E
102
{ACAD_REACTORS
330
C
102
}
330
C
100
AcDbDictionary
281
     1
  3
Model
350
39
  3
レイアウト1
350
35
  0
DICTIONARY
  5
10
102
{ACAD_REACTORS
330
C
102
}
330
C
100
AcDbDictionary
281
     1
  3
ByBlock
350
12
  3
ByLayer
350
11
  3
Global
350
13
  0
DICTIONARY
  5
4ED
102
{ACAD_REACTORS
330
C
102
}
330
C
100
AcDbDictionary
281
     1
  3
Standard
350
4EE
  0
DICTIONARY
  5
2B
102
{ACAD_REACTORS
330
C
102
}
330
C
100
AcDbDictionary
281
     1
  3
Standard
350
2C
  0
DICTIONARY
  5
2D
102
{ACAD_REACTORS
330
C
102
}
330
C
100
AcDbDictionary
281
     1
  0
ACDBDICTIONARYWDFLT
  5
E
102
{ACAD_REACTORS
330
C
102
}
330
C
100
AcDbDictionary
281
     1
  3
Normal
350
F
100
AcDbDictionaryWithDefault
340
F
  0
DICTIONARY
  5
4DB
102
{ACAD_REACTORS
330
C
102
}
330
C
100
AcDbDictionary
281
     1
  3
A0
350
4DC
  3
A1
350
4DD
  3
A2
350
4DE
  3
A3
350
4DF
  3
A4
350
4E0
  3
A5
350
4E1
  3
A6
350
4E2
  3
A7
350
4E3
  3
A8
350
4E4
  3
A9
350
4E5
  3
B0
350
4E6
  3
B1
350
4E7
  3
B2
350
4E8
  3
B3
350
4E9
  3
B4
350
4EA
  3
B5
350
4EB
  3
B6
350
4EC
  0
DICTIONARY
  5
30
102
{ACAD_REACTORS
330
C
102
}
330
C
100
AcDbDictionary
281
     1
  3
Standard
350
31
  3
部品表
350
9B7
  0
DICTIONARY
  5
14
102
{ACAD_REACTORS
330
C
102
}
330
C
100
AcDbDictionary
281
     1
  3
2dWireframe
350
1A
  3
3D Hidden
350
1C
  3
3dWireframe
350
1B
  3
Basic
350
19
  3
Brighten
350
20
  3
ColorChange
350
24
  3
Conceptual
350
1D
  3
Dim
350
1F
  3
EdgeColorOff
350
4DA
  3
Facepattern
350
23
  3
Flat
350
15
  3
FlatWithEdges
350
16
  3
Gouraud
350
17
  3
GouraudWithEdges
350
18
  3
Hidden
350
4D2
  3
JitterOff
350
4D8
  3
Linepattern
350
22
  3
OverhangOff
350
4D9
  3
Realistic
350
1E
  3
Shaded
350
4D7
  3
Shaded with edges
350
4D6
  3
Shades of Gray
350
4D3
  3
Sketchy
350
4D4
  3
Thicken
350
21
  3
Wireframe
350
4D1
  3
X-Ray
350
4D5
  0
XRECORD
  5
1038
102
{ACAD_REACTORS
330
C
102
}
330
C
100
AcDbXrecord
280
     1
 90
        1
330
31
330
9B7
  0
DICTIONARY
  5
4BB
102
{ACAD_REACTORS
330
C
102
}
330
C
100
AcDbDictionary
281
     1
  3
CANNOSCALE
350
767
  3
CMLEADERSTYLE
350
766
  3
CTABLESTYLE
350
4BC
  3
DIMASSOC
350
4BF
  3
INDEXCTL
350
4BE
  3
SORTENTS
350
4BD
  3
XCLIPFRAME
350
F64
  0
DICTIONARY
  5
CF7
102
{ACAD_REACTORS
330
C
102
}
330
C
100
AcDbDictionary
281
     1
  0
XRECORD
  5
1039
102
{ACAD_REACTORS
330
C
102
}
330
C
100
AcDbXrecord
280
     1
  1
DWGPROPS COOKIE
  2

  3

  4

  6

  7

  8
imamura
  9

300
=
301
=
302
=
303
=
304
=
305
=
306
=
307
=
308
=
309
=
 40
0.061499212962963
 41
2455849.68692419
 42
2459720.627224456
  1

 90
        0
  0
DICTIONARY
  5
597
102
{ACAD_REACTORS
330
596
102
}
330
596
100
AcDbDictionary
281
     1
  0
XRECORD
  5
765
102
{ACAD_REACTORS
330
764
102
}
330
764
100
AcDbXrecord
280
     1
290
     1
  0
SORTENTSTABLE
  5
739
102
{ACAD_REACTORS
330
738
102
}
330
738
100
AcDbSortentsTable
330
36
331
25E
  5
297
331
16D
  5
195
331
D26
  5
1027
331
1E4
  5
20B
331
169
  5
191
331
D22
  5
1023
331
29D
  5
2D0
331
1A4
  5
1CB
331
256
  5
293
331
165
  5
18D
331
21F
  5
246
331
12E
  5
15D
331
5CC
  5
D0C
331
1E0
  5
207
331
D7
  5
132
331
299
  5
2CC
331
1A0
  5
1C7
331
252
  5
27E
331
161
  5
189
331
21B
  5
242
331
12A
  5
159
331
86F
  5
FF2
331
1DC
  5
203
331
D3
  5
12E
331
86B
  5
FEE
331
1D8
  5
1FF
331
4B4
  5
D06
331
355
  5
3AF
331
2DF
  5
33F
331
4B0
  5
D02
331
2DB
  5
336
331
38C
  5
3D9
331
34D
  5
3AA
331
316
  5
388
331
2D7
  5
32D
331
388
  5
3D5
331
2D3
  5
31F
331
E90
  5
102A
331
446
  5
493
331
442
  5
48F
331
3CC
  5
419
331
47D
  5
5DC
331
43E
  5
48B
331
407
  5
454
331
3C8
  5
415
331
479
  5
5D8
331
43A
  5
487
331
403
  5
450
331
3C4
  5
411
331
101D
  5
88
331
3C0
  5
40D
331
F61
  5
1035
331
D1E
  5
101F
331
D1A
  5
101B
331
295
  5
2C9
331
19C
  5
1C3
331
24E
  5
27A
331
15D
  5
185
331
217
  5
240
331
126
  5
150
331
CF
  5
12A
331
D16
  5
1017
331
291
  5
2C5
331
198
  5
1BF
331
24A
  5
276
331
159
  5
181
331
213
  5
23C
331
122
  5
14C
331
867
  5
FEA
331
1D4
  5
1FB
331
CB
  5
126
331
D12
  5
1013
331
246
  5
272
331
194
  5
1BB
331
20F
  5
238
331
11E
  5
148
331
4AC
  5
CFE
331
1D0
  5
1F7
331
190
  5
1B7
331
242
  5
26E
331
151
  5
17D
331
20B
  5
234
331
11A
  5
143
331
4A8
  5
ACA
331
1CC
  5
1F3
331
C3
  5
122
331
85B
  5
F5D
331
1C8
  5
1EF
331
4A4
  5
874
331
384
  5
3D1
331
345
  5
3A5
331
30E
  5
383
331
2CF
  5
316
331
4A0
  5
870
331
380
  5
3CD
331
2CB
  5
30D
331
37C
  5
3C9
331
33D
  5
3A0
331
306
  5
37E
331
2C7
  5
2FF
331
378
  5
3C5
331
2C3
  5
2F6
331
475
  5
5D4
331
436
  5
483
331
3FF
  5
44C
331
471
  5
5D0
331
432
  5
47F
331
3FB
  5
448
331
3BC
  5
409
331
1015
  5
BB
331
46D
  5
5CC
331
42E
  5
47B
331
3F7
  5
444
331
3B8
  5
405
331
F5D
  5
1031
331
1011
  5
CE
331
469
  5
4B6
331
42A
  5
477
331
3F3
  5
440
331
3B4
  5
401
331
100D
  5
2BD
331
3B0
  5
3FD
331
1009
  5
2B9
331
D0E
  5
100F
331
D0A
  5
100B
331
27D
  5
2B7
331
18C
  5
1B3
331
23E
  5
26A
331
14D
  5
179
331
207
  5
230
331
116
  5
13F
331
BF
  5
121
331
D06
  5
1007
331
279
  5
2B3
331
188
  5
1AF
331
23A
  5
266
331
149
  5
175
331
203
  5
22C
331
857
  5
F3A
331
1C4
  5
1EB
331
BB
  5
11D
331
D02
  5
1003
331
275
  5
2AF
331
184
  5
1AB
331
236
  5
262
331
145
  5
172
331
1FF
  5
228
331
853
  5
E8F
331
1C0
  5
1E7
331
B7
  5
119
331
49C
  5
86C
331
271
  5
2AB
331
180
  5
1A7
331
232
  5
25E
331
141
  5
16E
331
1FB
  5
224
331
84F
  5
D24
331
1BC
  5
1E3
331
B3
  5
116
331
498
  5
868
331
84B
  5
D20
331
1B8
  5
1DF
331
494
  5
85E
331
374
  5
3C1
331
335
  5
39B
331
2FE
  5
379
331
2BF
  5
2F2
331
490
  5
85A
331
370
  5
3BD
331
2BB
  5
2EE
331
32D
  5
396
331
2F6
  5
374
331
2B7
  5
2EA
331
2F2
  5
370
331
2B3
  5
2E6
331
465
  5
4B2
331
426
  5
473
331
3EF
  5
43C
331
461
  5
4AE
331
422
  5
46F
331
3EB
  5
438
331
3AC
  5
3F9
331
1005
  5
2C1
331
45D
  5
4AA
331
41E
  5
46B
331
3E7
  5
434
331
3A8
  5
3F5
331
1001
  5
376
331
459
  5
4A6
331
41A
  5
467
331
3E3
  5
430
331
3A4
  5
3F1
331
1034
  5
8D
331
FFD
  5
380
331
3A0
  5
3ED
331
1030
  5
B3
331
FF9
  5
38A
331
CFE
  5
FFF
331
26D
  5
2A7
331
17C
  5
1A4
331
22E
  5
256
331
13D
  5
16A
331
1F7
  5
220
331
269
  5
2A3
331
178
  5
1A0
331
22A
  5
251
331
1F3
  5
21C
331
5DF
  5
D1F
331
1B4
  5
1DB
331
872
  5
FF5
331
265
  5
29F
331
174
  5
19C
331
226
  5
24D
331
135
  5
164
331
1EF
  5
216
331
F6
  5
135
331
5DB
  5
D1B
331
1B0
  5
1D7
331
48C
  5
856
331
86
  5
D6
331
261
  5
29B
331
170
  5
198
331
222
  5
249
331
131
  5
160
331
1EB
  5
212
331
5D7
  5
D17
331
1AC
  5
1D3
331
8B
  5
103
331
488
  5
852
331
5D3
  5
D13
331
1A8
  5
1CF
331
484
  5
84E
331
325
  5
391
331
2EE
  5
362
331
2AF
  5
2E2
331
480
  5
5DF
331
360
  5
3B7
331
2EA
  5
35E
331
2AB
  5
2DE
331
31D
  5
38C
331
2E6
  5
355
331
2A7
  5
2DA
331
2E2
  5
347
331
2A3
  5
2D6
331
455
  5
4A2
331
416
  5
463
331
3DF
  5
42C
331
451
  5
49E
331
412
  5
45F
331
3DB
  5
428
331
39C
  5
3E9
331
102C
  5
BE
331
FF5
  5
394
331
44D
  5
49A
331
40E
  5
45B
331
3D7
  5
424
331
398
  5
3E5
331
1028
  5
CB
331
FF1
  5
39E
331
449
  5
496
331
40A
  5
457
331
3D3
  5
420
331
394
  5
3E1
331
1024
  5
D4
331
F39
  5
102C
331
FED
  5
3A8
331
390
  5
3DD
331
FE9
  5
3B2
331
ACA
  5
FFB
331
25D
  5
296
331
16C
  5
194
331
1E7
  5
20E
331
D25
  5
1026
331
1A7
  5
1CE
331
5CF
  5
D0F
331
1E3
  5
20A
331
168
  5
190
331
D21
  5
1022
331
29C
  5
2CF
331
1A3
  5
1CA
331
164
  5
18C
331
21E
  5
245
331
12D
  5
15C
331
5CB
  5
D0B
331
1DF
  5
206
331
D6
  5
131
331
251
  5
27D
331
160
  5
188
331
129
  5
153
331
86E
  5
FF1
331
1DB
  5
202
331
D2
  5
12D
331
4B7
  5
D09
331
86A
  5
FED
331
4B3
  5
D05
331
2DE
  5
33E
331
38F
  5
3DC
331
2DA
  5
335
331
38B
  5
3D8
331
315
  5
387
331
2D6
  5
327
331
2D2
  5
31E
331
445
  5
492
331
3CF
  5
41C
331
441
  5
48E
331
3CB
  5
418
331
47C
  5
5DB
331
43D
  5
48A
331
406
  5
453
331
3C7
  5
414
331
478
  5
5D7
331
439
  5
486
331
402
  5
44F
331
3C3
  5
410
331
101C
  5
87
331
F60
  5
1034
331
D1D
  5
101E
331
19F
  5
1C6
331
D19
  5
101A
331
294
  5
2C8
331
19B
  5
1C2
331
24D
  5
279
331
15C
  5
184
331
216
  5
23F
331
125
  5
14F
331
1D7
  5
1FE
331
CE
  5
129
331
D15
  5
1016
331
249
  5
275
331
197
  5
1BE
331
212
  5
23B
331
121
  5
14B
331
866
  5
FE9
331
1D3
  5
1FA
331
CA
  5
125
331
4AF
  5
D01
331
D11
  5
1012
331
245
  5
271
331
193
  5
1BA
331
20E
  5
237
331
11D
  5
147
331
4AB
  5
CFD
331
1CF
  5
1F6
331
241
  5
26D
331
150
  5
17C
331
20A
  5
233
331
119
  5
142
331
85E
  5
F60
331
1CB
  5
1F2
331
4A7
  5
AC9
331
387
  5
3D4
331
85A
  5
F5C
331
4A3
  5
873
331
383
  5
3D0
331
30D
  5
382
331
2CE
  5
315
331
37F
  5
3CC
331
2CA
  5
307
331
37B
  5
3C8
331
305
  5
37D
331
2C6
  5
2FE
331
2C2
  5
2F5
331
474
  5
5D3
331
435
  5
482
331
3FE
  5
44B
331
3BF
  5
40C
331
470
  5
5CF
331
431
  5
47E
331
3FA
  5
447
331
3BB
  5
408
331
46C
  5
5CB
331
42D
  5
47A
331
3F6
  5
443
331
3B7
  5
404
331
F5C
  5
1030
331
1010
  5
CD
331
468
  5
4B5
331
429
  5
476
331
3F2
  5
43F
331
3B3
  5
400
331
100C
  5
2BC
331
1008
  5
2C4
331
D0D
  5
100E
331
18F
  5
1B6
331
D09
  5
100A
331
27C
  5
2B6
331
18B
  5
1B2
331
23D
  5
269
331
14C
  5
178
331
206
  5
22F
331
115
  5
13E
331
1C7
  5
1EE
331
BE
  5
120
331
D05
  5
1006
331
278
  5
2B2
331
187
  5
1AE
331
239
  5
265
331
148
  5
174
331
202
  5
22B
331
856
  5
F39
331
1C3
  5
1EA
331
BA
  5
11C
331
49F
  5
86F
331
D01
  5
1002
331
274
  5
2AE
331
183
  5
1AA
331
235
  5
261
331
144
  5
171
331
1FE
  5
227
331
10D
  5
13C
331
852
  5
D27
331
1BF
  5
1E6
331
B6
  5
118
331
49B
  5
86B
331
270
  5
2AA
331
231
  5
25D
331
140
  5
16D
331
1FA
  5
223
331
84E
  5
D23
331
1BB
  5
1E2
331
497
  5
867
331
377
  5
3C4
331
493
  5
85D
331
373
  5
3C0
331
2FD
  5
378
331
2BE
  5
2F1
331
36F
  5
3BC
331
2BA
  5
2ED
331
2F5
  5
373
331
2B6
  5
2E9
331
2F1
  5
36F
331
2B2
  5
2E5
331
464
  5
4B1
331
425
  5
472
331
3EE
  5
43B
331
3AF
  5
3FC
331
460
  5
4AD
331
421
  5
46E
331
3EA
  5
437
331
3AB
  5
3F8
331
1004
  5
2C0
331
45C
  5
4A9
331
41D
  5
46A
331
3E6
  5
433
331
3A7
  5
3F4
331
1000
  5
37C
331
458
  5
4A5
331
419
  5
466
331
3E2
  5
42F
331
3A3
  5
3F0
331
1033
  5
8C
331
FFC
  5
386
331
FF8
  5
390
331
CFD
  5
FFE
331
17F
  5
1A6
331
26C
  5
2A6
331
17B
  5
1A3
331
22D
  5
254
331
13C
  5
169
331
1F6
  5
21F
331
1B7
  5
1DE
331
AE
  5
114
331
875
  5
FF8
331
268
  5
2A2
331
177
  5
19F
331
229
  5
250
331
138
  5
167
331
1F2
  5
21B
331
5DE
  5
D1E
331
1B3
  5
1DA
331
48F
  5
859
331
871
  5
FF4
331
264
  5
29E
331
173
  5
19B
331
225
  5
24C
331
134
  5
163
331
1EE
  5
215
331
5DA
  5
D1A
331
1AF
  5
1D6
331
48B
  5
855
331
260
  5
29A
331
221
  5
248
331
130
  5
15F
331
1EA
  5
211
331
5D6
  5
D16
331
1AB
  5
1D2
331
8A
  5
F6
331
487
  5
851
331
5D2
  5
D12
331
483
  5
84D
331
363
  5
3BA
331
2ED
  5
361
331
2AE
  5
2E1
331
35F
  5
3B6
331
2E9
  5
35D
331
2AA
  5
2DD
331
2E5
  5
34F
331
2A6
  5
2D9
331
2E1
  5
346
331
2A2
  5
2D5
331
E8F
  5
1029
331
454
  5
4A1
331
415
  5
462
331
3DE
  5
42B
331
39F
  5
3EC
331
102F
  5
BA
331
450
  5
49D
331
411
  5
45E
331
3DA
  5
427
331
39B
  5
3E8
331
102B
  5
CA
331
FF4
  5
39A
331
44C
  5
499
331
40D
  5
45A
331
3D6
  5
423
331
397
  5
3E4
331
1027
  5
D1
331
FF0
  5
3A4
331
448
  5
495
331
409
  5
456
331
3D2
  5
41F
331
393
  5
3E0
331
1023
  5
D3
331
FEC
  5
3AE
331
16F
  5
197
331
AC9
  5
FFA
331
25C
  5
295
331
16B
  5
193
331
1E6
  5
20D
331
D24
  5
1025
331
29F
  5
2D2
331
1A6
  5
1CD
331
167
  5
18F
331
5CE
  5
D0E
331
1E2
  5
209
331
D9
  5
134
331
D20
  5
1021
331
29B
  5
2CE
331
1A2
  5
1C9
331
254
  5
292
331
163
  5
18B
331
21D
  5
244
331
12C
  5
15B
331
1DE
  5
205
331
D5
  5
130
331
250
  5
27C
331
128
  5
152
331
86D
  5
FF0
331
1DA
  5
201
331
D1
  5
12C
331
4B6
  5
D08
331
357
  5
3B1
331
869
  5
FEC
331
4B2
  5
D04
331
2DD
  5
33D
331
38E
  5
3DB
331
34F
  5
3AC
331
2D9
  5
32F
331
38A
  5
3D7
331
2D5
  5
326
331
2D1
  5
31D
331
444
  5
491
331
3CE
  5
41B
331
47F
  5
5DE
331
440
  5
48D
331
3CA
  5
417
331
47B
  5
5DA
331
43C
  5
489
331
405
  5
452
331
3C6
  5
413
331
438
  5
485
331
401
  5
44E
331
3C2
  5
40F
331
101B
  5
86
331
D1C
  5
101D
331
297
  5
2CB
331
19E
  5
1C5
331
15F
  5
187
331
D18
  5
1019
331
293
  5
2C7
331
19A
  5
1C1
331
24C
  5
278
331
15B
  5
183
331
215
  5
23E
331
124
  5
14E
331
1D6
  5
1FD
331
CD
  5
128
331
D14
  5
1015
331
248
  5
274
331
196
  5
1BD
331
211
  5
23A
331
120
  5
14A
331
865
  5
F61
331
1D2
  5
1F9
331
C9
  5
124
331
4AE
  5
D00
331
D10
  5
1011
331
192
  5
1B9
331
244
  5
270
331
153
  5
180
331
20D
  5
236
331
11C
  5
145
331
4AA
  5
CFC
331
1CE
  5
1F5
331
240
  5
26C
331
209
  5
232
331
118
  5
141
331
85D
  5
F5F
331
1CA
  5
1F1
331
4A6
  5
922
331
386
  5
3D3
331
347
  5
3A7
331
859
  5
F5B
331
4A2
  5
872
331
382
  5
3CF
331
2CD
  5
30F
331
37E
  5
3CB
331
33F
  5
3A2
331
2C9
  5
306
331
37A
  5
3C7
331
2C5
  5
2FD
331
2C1
  5
2F4
331
477
  5
5D6
331
473
  5
5D2
331
434
  5
481
331
3FD
  5
44A
331
3BE
  5
40B
331
1017
  5
BD
331
46F
  5
5CE
331
430
  5
47D
331
3F9
  5
446
331
F5F
  5
1033
331
3BA
  5
407
331
46B
  5
4B8
331
42C
  5
479
331
3F5
  5
442
331
3B6
  5
403
331
F5B
  5
102F
331
100F
  5
CC
331
428
  5
475
331
3F1
  5
43E
331
3B2
  5
3FF
331
100B
  5
2BB
331
D0C
  5
100D
331
18E
  5
1B5
331
14F
  5
17B
331
D08
  5
1009
331
27B
  5
2B5
331
18A
  5
1B1
331
23C
  5
268
331
14B
  5
177
331
205
  5
22E
331
114
  5
13D
331
1C6
  5
1ED
331
BD
  5
11F
331
D04
  5
1005
331
277
  5
2B1
331
186
  5
1AD
331
238
  5
264
331
147
  5
173
331
201
  5
22A
331
855
  5
E91
331
1C2
  5
1E9
331
B9
  5
11B
331
49E
  5
86E
331
D00
  5
1001
331
273
  5
2AD
331
182
  5
1A9
331
234
  5
260
331
143
  5
170
331
1FD
  5
226
331
10C
  5
13A
331
851
  5
D26
331
1BE
  5
1E5
331
B5
  5
117
331
49A
  5
86A
331
230
  5
25C
331
1F9
  5
222
331
84D
  5
D22
331
1BA
  5
1E1
331
B1
  5
115
331
496
  5
866
331
376
  5
3C3
331
337
  5
39D
331
492
  5
85C
331
372
  5
3BF
331
2BD
  5
2F0
331
32F
  5
398
331
2B9
  5
2EC
331
2F4
  5
372
331
2B5
  5
2E8
331
2F0
  5
365
331
2B1
  5
2E4
331
467
  5
4B4
331
463
  5
4B0
331
424
  5
471
331
3ED
  5
43A
331
3AE
  5
3FB
331
1007
  5
2C3
331
45F
  5
4AC
331
420
  5
46D
331
3E9
  5
436
331
3AA
  5
3F7
331
1003
  5
2BF
331
45B
  5
4A8
331
41C
  5
469
331
3E5
  5
432
331
3A6
  5
3F3
331
FFF
  5
37B
331
418
  5
465
331
3E1
  5
42E
331
3A2
  5
3EF
331
1032
  5
B6
331
FFB
  5
385
331
CFC
  5
FFD
331
26F
  5
2A9
331
13F
  5
16C
331
26B
  5
2A5
331
17A
  5
1A2
331
22C
  5
253
331
1F5
  5
21E
331
104
  5
137
331
1B6
  5
1DD
331
AD
  5
10D
331
874
  5
FF7
331
267
  5
2A1
331
176
  5
19E
331
228
  5
24F
331
137
  5
166
331
1F1
  5
218
331
5DD
  5
D1D
331
1B2
  5
1D9
331
48E
  5
858
331
870
  5
FF3
331
263
  5
29D
331
172
  5
19A
331
224
  5
24B
331
133
  5
162
331
1ED
  5
214
331
5D9
  5
D19
331
1AE
  5
1D5
331
8D
  5
10B
331
48A
  5
854
331
220
  5
247
331
1E9
  5
210
331
5D5
  5
D15
331
1AA
  5
1D1
331
89
  5
D9
331
486
  5
850
331
327
  5
393
331
5D1
  5
D11
331
482
  5
84C
331
362
  5
3B9
331
2EC
  5
360
331
2AD
  5
2E0
331
35E
  5
3B5
331
31F
  5
38E
331
2E8
  5
357
331
2A9
  5
2DC
331
2E4
  5
34E
331
2A5
  5
2D8
331
2E0
  5
345
331
2A1
  5
2D4
331
457
  5
4A4
331
453
  5
4A0
331
414
  5
461
331
3DD
  5
42A
331
39E
  5
3EB
331
102E
  5
C3
331
FF7
  5
38F
331
44F
  5
49C
331
410
  5
45D
331
3D9
  5
426
331
39A
  5
3E7
331
102A
  5
C9
331
FF3
  5
399
331
44B
  5
498
331
40C
  5
459
331
3D5
  5
422
331
396
  5
3E3
331
1026
  5
D0
331
FEF
  5
3A3
331
408
  5
455
331
3D1
  5
41E
331
392
  5
3DF
331
1022
  5
D2
331
FEB
  5
3AD
331
25F
  5
299
331
16E
  5
196
331
D27
  5
1028
331
25B
  5
294
331
16A
  5
192
331
1E5
  5
20C
331
D23
  5
1024
331
29E
  5
2D1
331
1A5
  5
1CC
331
166
  5
18E
331
12F
  5
15E
331
5CD
  5
D0D
331
1E1
  5
208
331
D8
  5
133
331
29A
  5
2CD
331
1A1
  5
1C8
331
253
  5
291
331
162
  5
18A
331
21C
  5
243
331
12B
  5
15A
331
1DD
  5
204
331
D4
  5
12F
331
218
  5
241
331
86C
  5
FEF
331
1D9
  5
200
331
D0
  5
12B
331
4B5
  5
D07
331
356
  5
3B0
331
868
  5
FEB
331
4B8
  5
D0A
331
4B1
  5
D03
331
2DC
  5
337
331
38D
  5
3DA
331
34E
  5
3AB
331
317
  5
389
331
2D8
  5
32E
331
389
  5
3D6
331
2D4
  5
325
331
2D0
  5
317
331
E91
  5
102B
331
447
  5
494
331
443
  5
490
331
3CD
  5
41A
331
47E
  5
5DD
331
43F
  5
48C
331
3C9
  5
416
331
47A
  5
5D9
331
43B
  5
488
331
404
  5
451
331
3C5
  5
412
331
400
  5
44D
331
3C1
  5
40E
331
D1F
  5
1020
331
D1B
  5
101C
331
296
  5
2CA
331
19D
  5
1C4
331
24F
  5
27B
331
15E
  5
186
331
127
  5
151
331
D17
  5
1018
331
292
  5
2C6
331
199
  5
1C0
331
24B
  5
277
331
15A
  5
182
331
214
  5
23D
331
123
  5
14D
331
1D5
  5
1FC
331
CC
  5
127
331
D13
  5
1014
331
247
  5
273
331
195
  5
1BC
331
210
  5
239
331
11F
  5
149
331
4AD
  5
CFF
331
1D1
  5
1F8
331
191
  5
1B8
331
243
  5
26F
331
152
  5
17F
331
20C
  5
235
331
11B
  5
144
331
4A9
  5
CFB
331
1CD
  5
1F4
331
C4
  5
123
331
208
  5
231
331
85C
  5
F5E
331
1C9
  5
1F0
331
4A5
  5
875
331
385
  5
3D2
331
346
  5
3A6
331
30F
  5
384
331
858
  5
F5A
331
4A1
  5
871
331
381
  5
3CE
331
2CC
  5
30E
331
37D
  5
3CA
331
33E
  5
3A1
331
307
  5
37F
331
2C8
  5
305
331
379
  5
3C6
331
2C4
  5
2F7
331
2C0
  5
2F3
331
476
  5
5D5
331
437
  5
484
331
472
  5
5D1
331
433
  5
480
331
3FC
  5
449
331
3BD
  5
40A
331
1016
  5
BC
331
46E
  5
5CD
331
42F
  5
47C
331
3F8
  5
445
331
F5E
  5
1032
331
3B9
  5
406
331
46A
  5
4B7
331
42B
  5
478
331
3F4
  5
441
331
3B5
  5
402
331
F5A
  5
102E
331
100E
  5
2BE
331
3F0
  5
43D
331
3B1
  5
3FE
331
100A
  5
2BA
331
D0F
  5
1010
331
D0B
  5
100C
331
27E
  5
2B8
331
18D
  5
1B4
331
23F
  5
26B
331
14E
  5
17A
331
117
  5
140
331
D07
  5
1008
331
922
  5
FF9
331
27A
  5
2B4
331
189
  5
1B0
331
23B
  5
267
331
14A
  5
176
331
204
  5
22D
331
1C5
  5
1EC
331
BC
  5
11E
331
D03
  5
1004
331
276
  5
2B0
331
185
  5
1AC
331
237
  5
263
331
200
  5
229
331
854
  5
E90
331
1C1
  5
1E8
331
B8
  5
11A
331
49D
  5
86D
331
272
  5
2AC
331
181
  5
1A8
331
233
  5
25F
331
142
  5
16F
331
1FC
  5
225
331
10B
  5
138
331
850
  5
D25
331
1BD
  5
1E4
331
499
  5
869
331
1F8
  5
221
331
84C
  5
D21
331
1B9
  5
1E0
331
495
  5
865
331
375
  5
3C2
331
336
  5
39C
331
2FF
  5
37A
331
491
  5
85B
331
371
  5
3BE
331
2BC
  5
2EF
331
32E
  5
397
331
2F7
  5
375
331
2B8
  5
2EB
331
2F3
  5
371
331
2B4
  5
2E7
331
2B0
  5
2E3
331
466
  5
4B3
331
427
  5
474
331
462
  5
4AF
331
423
  5
470
331
3EC
  5
439
331
3AD
  5
3FA
331
1006
  5
2C2
331
45E
  5
4AB
331
41F
  5
46C
331
3E8
  5
435
331
3A9
  5
3F6
331
1002
  5
377
331
45A
  5
4A7
331
41B
  5
468
331
3E4
  5
431
331
3A5
  5
3F2
331
1035
  5
AC
331
FFE
  5
381
331
3E0
  5
42D
331
3A1
  5
3EE
331
1031
  5
B5
331
FFA
  5
38B
331
CFF
  5
1000
331
CFB
  5
FFC
331
26E
  5
2A8
331
17D
  5
1A5
331
22F
  5
25B
331
13E
  5
16B
331
26A
  5
2A4
331
179
  5
1A1
331
22B
  5
252
331
13A
  5
168
331
1F4
  5
21D
331
103
  5
136
331
1B5
  5
1DC
331
AC
  5
10C
331
873
  5
FF6
331
266
  5
2A0
331
175
  5
19D
331
227
  5
24E
331
136
  5
165
331
1F0
  5
217
331
5DC
  5
D1C
331
1B1
  5
1D8
331
48D
  5
857
331
87
  5
D7
331
262
  5
29C
331
171
  5
199
331
223
  5
24A
331
132
  5
161
331
1EC
  5
213
331
5D8
  5
D18
331
1AD
  5
1D4
331
8C
  5
104
331
489
  5
853
331
1E8
  5
20F
331
5D4
  5
D14
331
1A9
  5
1D0
331
88
  5
D8
331
485
  5
84F
331
365
  5
3BB
331
326
  5
392
331
2EF
  5
363
331
5D0
  5
D10
331
481
  5
84B
331
361
  5
3B8
331
2EB
  5
35F
331
2AC
  5
2DF
331
35D
  5
3B4
331
31E
  5
38D
331
2E7
  5
356
331
2A8
  5
2DB
331
2E3
  5
34D
331
2A4
  5
2D7
331
2A0
  5
2D3
331
456
  5
4A3
331
417
  5
464
331
452
  5
49F
331
413
  5
460
331
3DC
  5
429
331
39D
  5
3EA
331
102D
  5
BF
331
FF6
  5
395
331
44E
  5
49B
331
40F
  5
45C
331
3D8
  5
425
331
399
  5
3E6
331
1029
  5
C4
331
FF2
  5
39F
331
44A
  5
497
331
40B
  5
458
331
3D4
  5
421
331
395
  5
3E2
331
1025
  5
CF
331
F3A
  5
102D
331
FEE
  5
3A9
331
3D0
  5
41D
331
391
  5
3DE
331
1021
  5
D5
331
FEA
  5
3B3
  0
XRECORD
  5
103C
102
{ACAD_REACTORS
330
103A
102
}
330
103A
100
AcDbXrecord
280
     1
 70
     2
  0
XRECORD
  5
103B
102
{ACAD_REACTORS
330
103A
102
}
330
103A
100
AcDbXrecord
280
     1
 40
1.25
  0
XRECORD
  5
103D
102
{ACAD_REACTORS
330
103A
102
}
330
103A
100
AcDbXrecord
280
     1
 40
1.570796326794896
  0
LAYOUT
  5
39
102
{ACAD_XDICTIONARY
360
1061
102
}
102
{ACAD_REACTORS
330
2E
102
}
330
2E
100
AcDbPlotSettings
  1

  2
none_device
  4
Letter_(8.50_x_11.00_Inches)
  6

 40
6.349999904632567
 41
6.349999904632567
 42
6.350006103515625
 43
6.350006103515625
 44
215.8999938964844
 45
279.3999938964844
 46
0.0
 47
0.0
 48
0.0
 49
0.0
140
0.0
141
0.0
142
1.0
143
39.11092185808684
 70
 11952
 72
     0
 73
     1
 74
     0
  7

 75
     0
147
0.0255683055395237
148
-309.178502993766
149
1663.081219622511
100
AcDbLayout
  1
Model
 70
     1
 71
     0
 10
0.0
 20
0.0
 11
12.0
 21
9.0
 12
0.0
 22
0.0
 32
0.0
 14
0.0
 24
0.0
 34
0.0
 15
0.0
 25
0.0
 35
0.0
146
0.0
 13
0.0
 23
0.0
 33
0.0
 16
1.0
 26
0.0
 36
0.0
 17
0.0
 27
1.0
 37
0.0
 76
     0
330
36
331
56
1001
ACAD_PSEXT
1000
なし
1000
なし
1000
適切ではありません
1000
新しいプロッタ環境設定名を選択しない限り、レイアウトは印刷されません。
1070
     0
  0
LAYOUT
  5
35
102
{ACAD_XDICTIONARY
360
105F
102
}
102
{ACAD_REACTORS
330
2E
102
}
330
2E
100
AcDbPlotSettings
  1

  2
PDF Complete
  4

  6

 40
0.0
 41
0.0
 42
0.0
 43
0.0
 44
0.0
 45
0.0
 46
0.0
 47
0.0
 48
0.0
 49
0.0
140
0.0
141
0.0
142
1.0
143
1.0
 70
   688
 72
     0
 73
     0
 74
     5
  7

 75
    16
147
1.0
148
0.0
149
0.0
100
AcDbLayout
  1
レイアウト1
 70
     1
 71
     1
 10
0.0
 20
0.0
 11
12.0
 21
9.0
 12
0.0
 22
0.0
 32
0.0
 14
1.000000000000000E+20
 24
1.000000000000000E+20
 34
1.000000000000000E+20
 15
-1.000000000000000E+20
 25
-1.000000000000000E+20
 35
-1.000000000000000E+20
146
0.0
 13
0.0
 23
0.0
 33
0.0
 16
1.0
 26
0.0
 36
0.0
 17
0.0
 27
1.0
 37
0.0
 76
     0
330
32
  0
MATERIAL
  5
12
102
{ACAD_XDICTIONARY
360
4C3
102
}
102
{ACAD_REACTORS
330
10
102
}
330
10
100
AcDbMaterial
  1
ByBlock
  0
MATERIAL
  5
11
102
{ACAD_XDICTIONARY
360
4C1
102
}
102
{ACAD_REACTORS
330
10
102
}
330
10
100
AcDbMaterial
  1
ByLayer
  0
MATERIAL
  5
13
102
{ACAD_XDICTIONARY
360
4C5
102
}
102
{ACAD_REACTORS
330
10
102
}
330
10
100
AcDbMaterial
  1
Global
  0
MLEADERSTYLE
  5
4EE
102
{ACAD_REACTORS
330
4ED
102
}
330
4ED
100
AcDbMLeaderStyle
170
     2
171
     1
172
     0
 90
        2
 40
0.0
 41
0.0
173
     1
 91
-1056964608
340
28
 92
       -2
290
     1
 42
0.09
291
     1
 43
0.36
  3
Standard
 44
0.18
300

342
26
174
     1
178
     6
175
     1
176
     0
 93
-1056964608
 45
0.18
292
     0
297
     0
 46
0.18
 94
-1056964608
 47
1.0
 49
1.0
140
1.0
293
     1
141
0.0
294
     1
177
     0
142
1.0
295
     0
296
     0
143
0.125
1001
ACAD_MLEADERVER
1070
     2
  0
MLINESTYLE
  5
2C
102
{ACAD_REACTORS
330
2B
102
}
330
2B
100
AcDbMlineStyle
  2
STANDARD
 70
     0
  3

 62
   256
 51
90.0
 52
90.0
 71
     2
 49
0.5
 62
   256
  6
BYLAYER
 49
-0.5
 62
   256
  6
BYLAYER
  0
ACDBPLACEHOLDER
  5
F
102
{ACAD_REACTORS
330
E
102
}
330
E
  0
SCALE
  5
4DC
102
{ACAD_REACTORS
330
4DB
102
}
330
4DB
100
AcDbScale
 70
     0
300
1:1
140
1.0
141
1.0
290
     1
  0
SCALE
  5
4DD
102
{ACAD_REACTORS
330
4DB
102
}
330
4DB
100
AcDbScale
 70
     0
300
1/128" = 1'-0"
140
0.0078125
141
12.0
290
     0
  0
SCALE
  5
4DE
102
{ACAD_REACTORS
330
4DB
102
}
330
4DB
100
AcDbScale
 70
     0
300
1/64" = 1'-0"
140
0.015625
141
12.0
290
     0
  0
SCALE
  5
4DF
102
{ACAD_REACTORS
330
4DB
102
}
330
4DB
100
AcDbScale
 70
     0
300
1/32" = 1'-0"
140
0.03125
141
12.0
290
     0
  0
SCALE
  5
4E0
102
{ACAD_REACTORS
330
4DB
102
}
330
4DB
100
AcDbScale
 70
     0
300
1/16" = 1'-0"
140
0.0625
141
12.0
290
     0
  0
SCALE
  5
4E1
102
{ACAD_REACTORS
330
4DB
102
}
330
4DB
100
AcDbScale
 70
     0
300
3/32" = 1'-0"
140
0.09375
141
12.0
290
     0
  0
SCALE
  5
4E2
102
{ACAD_REACTORS
330
4DB
102
}
330
4DB
100
AcDbScale
 70
     0
300
1/8" = 1'-0"
140
0.125
141
12.0
290
     0
  0
SCALE
  5
4E3
102
{ACAD_REACTORS
330
4DB
102
}
330
4DB
100
AcDbScale
 70
     0
300
3/16" = 1'-0"
140
0.1875
141
12.0
290
     0
  0
SCALE
  5
4E4
102
{ACAD_REACTORS
330
4DB
102
}
330
4DB
100
AcDbScale
 70
     0
300
1/4" = 1'-0"
140
0.25
141
12.0
290
     0
  0
SCALE
  5
4E5
102
{ACAD_REACTORS
330
4DB
102
}
330
4DB
100
AcDbScale
 70
     0
300
3/8" = 1'-0"
140
0.375
141
12.0
290
     0
  0
SCALE
  5
4E6
102
{ACAD_REACTORS
330
4DB
102
}
330
4DB
100
AcDbScale
 70
     0
300
1/2" = 1'-0"
140
0.5
141
12.0
290
     0
  0
SCALE
  5
4E7
102
{ACAD_REACTORS
330
4DB
102
}
330
4DB
100
AcDbScale
 70
     0
300
3/4" = 1'-0"
140
0.75
141
12.0
290
     0
  0
SCALE
  5
4E8
102
{ACAD_REACTORS
330
4DB
102
}
330
4DB
100
AcDbScale
 70
     0
300
1" = 1'-0"
140
1.0
141
12.0
290
     0
  0
SCALE
  5
4E9
102
{ACAD_REACTORS
330
4DB
102
}
330
4DB
100
AcDbScale
 70
     0
300
1-1/2" = 1'-0"
140
1.5
141
12.0
290
     0
  0
SCALE
  5
4EA
102
{ACAD_REACTORS
330
4DB
102
}
330
4DB
100
AcDbScale
 70
     0
300
3" = 1'-0"
140
3.0
141
12.0
290
     0
  0
SCALE
  5
4EB
102
{ACAD_REACTORS
330
4DB
102
}
330
4DB
100
AcDbScale
 70
     0
300
6" = 1'-0"
140
6.0
141
12.0
290
     0
  0
SCALE
  5
4EC
102
{ACAD_REACTORS
330
4DB
102
}
330
4DB
100
AcDbScale
 70
     0
300
1'-0" = 1'-0"
140
12.0
141
12.0
290
     0
  0
TABLESTYLE
  5
31
102
{ACAD_XDICTIONARY
360
769
102
}
102
{ACAD_REACTORS
330
30
102
}
330
30
100
AcDbTableStyle
  3
Standard
 70
     0
 71
     0
 40
0.06
 41
0.06
280
     0
281
     0
  7
STANDARD
140
0.18
170
     2
 62
     0
 63
     7
283
     0
274
    -2
284
     1
 64
     0
275
    -2
285
     1
 65
     0
276
    -2
286
     1
 66
     0
277
    -2
287
     1
 67
     0
278
    -2
288
     1
 68
     0
279
    -2
289
     1
 69
     0
  7
STANDARD
140
0.25
170
     5
 62
     0
 63
     7
283
     0
274
    -2
284
     1
 64
     0
275
    -2
285
     1
 65
     0
276
    -2
286
     1
 66
     0
277
    -2
287
     1
 67
     0
278
    -2
288
     1
 68
     0
279
    -2
289
     1
 69
     0
  7
STANDARD
140
0.18
170
     5
 62
     0
 63
     7
283
     0
274
    -2
284
     1
 64
     0
275
    -2
285
     1
 65
     0
276
    -2
286
     1
 66
     0
277
    -2
287
     1
 67
     0
278
    -2
288
     1
 68
     0
279
    -2
289
     1
 69
     0
  0
TABLESTYLE
  5
9B7
102
{ACAD_XDICTIONARY
360
9B8
102
}
102
{ACAD_REACTORS
330
30
102
}
330
30
100
AcDbTableStyle
  3
Standard
 70
     1
 71
     0
 40
1.5
 41
0.5
280
     0
281
     0
  7
高3.2
140
0.18
170
     7
 62
     3
 63
     7
283
     0
274
    -2
284
     1
 64
     3
275
    -2
285
     1
 65
     7
276
    -2
286
     1
 66
     3
277
    -2
287
     1
 67
     3
278
    -2
288
     1
 68
     7
279
    -2
289
     1
 69
     3
  7
高3.2
140
0.25
170
     8
 62
     3
 63
     7
283
     0
274
    -2
284
     1
 64
     0
275
    -2
285
     1
 65
     0
276
    -2
286
     1
 66
     0
277
    -2
287
     1
 67
     0
278
    -2
288
     1
 68
     0
279
    -2
289
     1
 69
     0
  7
高3.2
140
0.18
170
     7
 62
     3
 63
     7
283
     0
274
    -2
284
     1
 64
     3
275
    -2
285
     1
 65
     7
276
    -2
286
     1
 66
     3
277
    -2
287
     1
 67
     3
278
    -2
288
     1
 68
     7
279
    -2
289
     1
 69
     3
  0
VISUALSTYLE
  5
1A
102
{ACAD_XDICTIONARY
360
1048
102
}
102
{ACAD_REACTORS
330
14
102
}
330
14
100
AcDbVisualStyle
  2

 70
     4
 71
     0
 72
     2
 73
     0
 90
        0
 40
-0.6
 41
-30.0
 62
     5
 63
     7
 74
     1
 91
        4
 64
     7
 65
   257
 75
     1
175
     1
 42
1.0
 92
        0
 66
   257
 43
1.0
 76
     1
 77
     6
 78
     2
 67
     7
 79
     5
170
     0
171
     0
290
     0
174
     0
 93
        1
 44
0.0
173
     0
291
     0
 45
0.0
1001
ACAD
1000
AcDbSavedByObjectVersion
1070
     0
  0
VISUALSTYLE
  5
1C
102
{ACAD_XDICTIONARY
360
104C
102
}
102
{ACAD_REACTORS
330
14
102
}
330
14
100
AcDbVisualStyle
  2

 70
     6
 71
     1
 72
     2
 73
     2
 90
        0
 40
-0.6
 41
-30.0
 62
     5
 63
     7
 74
     2
 91
        2
 64
     7
 65
   257
 75
     2
175
     1
 42
40.0
 92
        0
 66
   257
 43
1.0
 76
     1
 77
     6
 78
     2
 67
     7
 79
     3
170
     0
171
     0
290
     0
174
     0
 93
        1
 44
0.0
173
     0
291
     0
 45
0.0
1001
ACAD
1000
AcDbSavedByObjectVersion
1070
     0
  0
VISUALSTYLE
  5
1B
102
{ACAD_XDICTIONARY
360
104A
102
}
102
{ACAD_REACTORS
330
14
102
}
330
14
100
AcDbVisualStyle
  2

 70
     5
 71
     0
 72
     2
 73
     0
 90
        0
 40
-0.6
 41
-30.0
 62
     5
 63
     7
 74
     1
 91
        4
 64
     7
 65
   257
 75
     1
175
     1
 42
1.0
 92
        0
 66
   257
 43
1.0
 76
     1
 77
     6
 78
     2
 67
     7
 79
     5
170
     0
171
     0
290
     0
174
     0
 93
        1
 44
0.0
173
     0
291
     0
 45
0.0
1001
ACAD
1000
AcDbSavedByObjectVersion
1070
     0
  0
VISUALSTYLE
  5
19
102
{ACAD_XDICTIONARY
360
1046
102
}
102
{ACAD_REACTORS
330
14
102
}
330
14
100
AcDbVisualStyle
  2

 70
     7
 71
     1
 72
     0
 73
     1
 90
        0
 40
-0.6
 41
-30.0
 62
     5
 63
     7
 74
     0
 91
        4
 64
     7
 65
   257
 75
     1
175
     1
 42
1.0
 92
        8
 66
     7
 43
1.0
 76
     1
 77
     6
 78
     2
 67
     7
 79
     5
170
     0
171
     0
290
     0
174
     0
 93
        1
 44
0.0
173
     0
291
     1
 45
0.0
1001
ACAD
1000
AcDbSavedByObjectVersion
1070
     0
  0
VISUALSTYLE
  5
20
102
{ACAD_XDICTIONARY
360
1054
102
}
102
{ACAD_REACTORS
330
14
102
}
330
14
100
AcDbVisualStyle
  2

 70
    12
 71
     2
 72
     2
 73
     0
 90
        0
 40
-0.6
 41
-30.0
 62
     5
 63
     7
 74
     1
 91
        4
 64
     7
 65
   257
 75
     1
175
     1
 42
1.0
 92
        8
 66
     7
 43
1.0
 76
     1
 77
     6
 78
     2
 67
     7
 79
     5
170
     0
171
     0
290
     0
174
     0
 93
        1
 44
50.0
173
     0
291
     1
 45
0.0
1001
ACAD
1000
AcDbSavedByObjectVersion
1070
     0
  0
VISUALSTYLE
  5
24
102
{ACAD_XDICTIONARY
360
105C
102
}
102
{ACAD_REACTORS
330
14
102
}
330
14
100
AcDbVisualStyle
  2

 70
    16
 71
     2
 72
     2
 73
     3
 90
        0
 40
-0.6
 41
-30.0
 62
     5
 63
     8
 74
     1
 91
        4
 64
     7
 65
   257
 75
     1
175
     1
 42
1.0
 92
        8
 66
     8
 43
1.0
 76
     1
 77
     6
 78
     2
 67
     7
 79
     5
170
     0
171
     0
290
     0
174
     0
 93
        1
 44
0.0
173
     0
291
     1
 45
0.0
1001
ACAD
1000
AcDbSavedByObjectVersion
1070
     0
  0
VISUALSTYLE
  5
1D
102
{ACAD_XDICTIONARY
360
104E
102
}
102
{ACAD_REACTORS
330
14
102
}
330
14
100
AcDbVisualStyle
  2

 70
     9
 71
     3
 72
     2
 73
     0
 90
        0
 40
-0.6
 41
-30.0
 62
     5
 63
     7
 74
     2
 91
        2
 64
     7
 65
   257
 75
     1
175
     1
 42
40.0
 92
        8
 66
     7
 43
1.0
 76
     1
 77
     6
 78
     2
 67
     7
 79
     3
170
     0
171
     0
290
     0
174
     0
 93
        1
 44
0.0
173
     0
291
     0
 45
0.0
1001
ACAD
1000
AcDbSavedByObjectVersion
1070
     0
  0
VISUALSTYLE
  5
1F
102
{ACAD_XDICTIONARY
360
1052
102
}
102
{ACAD_REACTORS
330
14
102
}
330
14
100
AcDbVisualStyle
  2

 70
    11
 71
     2
 72
     2
 73
     0
 90
        0
 40
-0.6
 41
-30.0
 62
     5
 63
     7
 74
     1
 91
        4
 64
     7
 65
   257
 75
     1
175
     1
 42
1.0
 92
        8
 66
     7
 43
1.0
 76
     1
 77
     6
 78
     2
 67
     7
 79
     5
170
     0
171
     0
290
     0
174
     0
 93
        1
 44
-50.0
173
     0
291
     1
 45
0.0
1001
ACAD
1000
AcDbSavedByObjectVersion
1070
     0
  0
VISUALSTYLE
  5
4DA
102
{ACAD_XDICTIONARY
360
1075
102
}
102
{ACAD_REACTORS
330
14
102
}
330
14
100
AcDbVisualStyle
  2

 70
    22
 71
     2
 72
     2
 73
     0
 90
        0
 40
-0.6
 41
-30.0
 62
     5
 63
     7
 74
     1
 91
        4
 64
     7
 65
   257
 75
     1
175
     1
 42
1.0
 92
        8
 66
     7
 43
1.0
 76
     1
 77
     6
 78
     2
 67
     7
 79
     5
170
     0
171
     0
290
     0
174
     0
 93
        1
 44
0.0
173
     0
291
     1
 45
0.0
1001
ACAD
1000
AcDbSavedByObjectVersion
1070
     0
  0
VISUALSTYLE
  5
23
102
{ACAD_XDICTIONARY
360
105A
102
}
102
{ACAD_REACTORS
330
14
102
}
330
14
100
AcDbVisualStyle
  2

 70
    15
 71
     2
 72
     2
 73
     0
 90
        0
 40
-0.6
 41
-30.0
 62
     5
 63
     7
 74
     1
 91
        4
 64
     7
 65
   257
 75
     1
175
     1
 42
1.0
 92
        8
 66
     7
 43
1.0
 76
     1
 77
     6
 78
     2
 67
     7
 79
     5
170
     0
171
     0
290
     0
174
     0
 93
        1
 44
0.0
173
     0
291
     1
 45
0.0
1001
ACAD
1000
AcDbSavedByObjectVersion
1070
     0
  0
VISUALSTYLE
  5
15
102
{ACAD_XDICTIONARY
360
103E
102
}
102
{ACAD_REACTORS
330
14
102
}
330
14
100
AcDbVisualStyle
  2

 70
     0
 71
     2
 72
     1
 73
     1
 90
        2
 40
-0.6
 41
30.0
 62
     5
 63
     7
 74
     0
 91
        4
 64
     7
 65
   257
 75
     1
175
     1
 42
1.0
 92
        8
 66
     7
 43
1.0
 76
     1
 77
     6
 78
     2
 67
     7
 79
     5
170
     0
171
     0
290
     0
174
     0
 93
       13
 44
0.0
173
     0
291
     1
 45
0.0
1001
ACAD
1000
AcDbSavedByObjectVersion
1070
     0
  0
VISUALSTYLE
  5
16
102
{ACAD_XDICTIONARY
360
1040
102
}
102
{ACAD_REACTORS
330
14
102
}
330
14
100
AcDbVisualStyle
  2

 70
     1
 71
     2
 72
     1
 73
     1
 90
        2
 40
-0.6
 41
30.0
 62
     5
 63
     7
 74
     1
 91
        4
 64
     7
 65
   257
 75
     1
175
     1
 42
1.0
 92
        0
 66
   257
 43
1.0
 76
     1
 77
     6
 78
     2
 67
     7
 79
     5
170
     0
171
     0
290
     0
174
     0
 93
       13
 44
0.0
173
     0
291
     1
 45
0.0
1001
ACAD
1000
AcDbSavedByObjectVersion
1070
     0
  0
VISUALSTYLE
  5
17
102
{ACAD_XDICTIONARY
360
1042
102
}
102
{ACAD_REACTORS
330
14
102
}
330
14
100
AcDbVisualStyle
  2

 70
     2
 71
     2
 72
     2
 73
     1
 90
        2
 40
-0.6
 41
30.0
 62
     5
 63
     7
 74
     0
 91
        4
 64
     7
 65
   257
 75
     1
175
     1
 42
1.0
 92
        0
 66
     7
 43
1.0
 76
     1
 77
     6
 78
     2
 67
     7
 79
     5
170
     0
171
     0
290
     0
174
     0
 93
       13
 44
0.0
173
     0
291
     1
 45
0.0
1001
ACAD
1000
AcDbSavedByObjectVersion
1070
     0
  0
VISUALSTYLE
  5
18
102
{ACAD_XDICTIONARY
360
1044
102
}
102
{ACAD_REACTORS
330
14
102
}
330
14
100
AcDbVisualStyle
  2

 70
     3
 71
     2
 72
     2
 73
     1
 90
        2
 40
-0.6
 41
30.0
 62
     5
 63
     7
 74
     1
 91
        4
 64
     7
 65
   257
 75
     1
175
     1
 42
1.0
 92
        0
 66
   257
 43
1.0
 76
     1
 77
     6
 78
     2
 67
     7
 79
     5
170
     0
171
     0
290
     0
174
     0
 93
       13
 44
0.0
173
     0
291
     1
 45
0.0
1001
ACAD
1000
AcDbSavedByObjectVersion
1070
     0
  0
VISUALSTYLE
  5
4D2
102
{ACAD_XDICTIONARY
360
1065
102
}
102
{ACAD_REACTORS
330
14
102
}
330
14
100
AcDbVisualStyle
  2

 70
     6
 71
     1
 72
     2
 73
     2
 90
        0
 40
-0.6
 41
-30.0
 62
     5
 63
     7
 74
     2
 91
        2
 64
     7
 65
   257
 75
     2
175
     1
 42
40.0
 92
        0
 66
   257
 43
1.0
 76
     1
 77
     6
 78
     2
 67
     7
 79
     3
170
     0
171
     0
290
     0
174
     0
 93
        1
 44
0.0
173
     0
291
     0
 45
0.0
1001
ACAD
1000
AcDbSavedByObjectVersion
1070
     0
  0
VISUALSTYLE
  5
4D8
102
{ACAD_XDICTIONARY
360
1071
102
}
102
{ACAD_REACTORS
330
14
102
}
330
14
100
AcDbVisualStyle
  2

 70
    20
 71
     2
 72
     2
 73
     0
 90
        0
 40
-0.6
 41
-30.0
 62
     5
 63
     7
 74
     1
 91
        4
 64
     7
 65
   257
 75
     1
175
     1
 42
1.0
 92
       10
 66
     7
 43
1.0
 76
     1
 77
     6
 78
     2
 67
     7
 79
     5
170
     0
171
     0
290
     0
174
     0
 93
        1
 44
0.0
173
     0
291
     1
 45
0.0
1001
ACAD
1000
AcDbSavedByObjectVersion
1070
     0
  0
VISUALSTYLE
  5
22
102
{ACAD_XDICTIONARY
360
1058
102
}
102
{ACAD_REACTORS
330
14
102
}
330
14
100
AcDbVisualStyle
  2

 70
    14
 71
     2
 72
     2
 73
     0
 90
        0
 40
-0.6
 41
-30.0
 62
     5
 63
     7
 74
     1
 91
        4
 64
     7
 65
   257
 75
     7
175
     7
 42
1.0
 92
        8
 66
     7
 43
1.0
 76
     1
 77
     6
 78
     2
 67
     7
 79
     5
170
     0
171
     0
290
     0
174
     0
 93
        1
 44
0.0
173
     0
291
     1
 45
0.0
1001
ACAD
1000
AcDbSavedByObjectVersion
1070
     0
  0
VISUALSTYLE
  5
4D9
102
{ACAD_XDICTIONARY
360
1073
102
}
102
{ACAD_REACTORS
330
14
102
}
330
14
100
AcDbVisualStyle
  2

 70
    21
 71
     2
 72
     2
 73
     0
 90
        0
 40
-0.6
 41
-30.0
 62
     5
 63
     7
 74
     1
 91
        4
 64
     7
 65
   257
 75
     1
175
     1
 42
1.0
 92
        9
 66
     7
 43
1.0
 76
     1
 77
     6
 78
     2
 67
     7
 79
     5
170
     0
171
     0
290
     0
174
     0
 93
        1
 44
0.0
173
     0
291
     1
 45
0.0
1001
ACAD
1000
AcDbSavedByObjectVersion
1070
     0
  0
VISUALSTYLE
  5
1E
102
{ACAD_XDICTIONARY
360
1050
102
}
102
{ACAD_REACTORS
330
14
102
}
330
14
100
AcDbVisualStyle
  2

 70
     8
 71
     2
 72
     2
 73
     0
 90
        0
 40
-0.6
 41
-30.0
 62
     5
 63
     7
 74
     1
 91
        0
 64
     7
 65
   257
 75
     1
175
     1
 42
1.0
 92
        8
 66
     8
 43
1.0
 76
     1
 77
     6
 78
     2
 67
     7
 79
     5
170
     0
171
     0
290
     0
174
     0
 93
       13
 44
0.0
173
     0
291
     0
 45
0.0
1001
ACAD
1000
AcDbSavedByObjectVersion
1070
     0
  0
VISUALSTYLE
  5
4D7
102
{ACAD_XDICTIONARY
360
106F
102
}
102
{ACAD_REACTORS
330
14
102
}
330
14
100
AcDbVisualStyle
  2

 70
    27
 71
     2
 72
     2
 73
     1
 90
        2
 40
-0.6
 41
30.0
 62
     5
 63
     7
 74
     0
 91
        4
 64
     7
 65
   257
 75
     1
175
     1
 42
1.0
 92
        8
 66
   257
 43
1.0
 76
     1
 77
     6
 78
     2
 67
     8
 79
     3
170
     0
171
     0
290
     0
174
     0
 93
        5
 44
0.0
173
     0
291
     0
 45
0.0
1001
ACAD
1000
AcDbSavedByObjectVersion
1070
     0
  0
VISUALSTYLE
  5
4D6
102
{ACAD_XDICTIONARY
360
106D
102
}
102
{ACAD_REACTORS
330
14
102
}
330
14
100
AcDbVisualStyle
  2

 70
    26
 71
     2
 72
     2
 73
     1
 90
        2
 40
-0.6
 41
30.0
 62
     5
 63
     7
 74
     1
 91
       10
 64
     7
 65
   257
 75
     2
175
     1
 42
1.0
 92
        8
 66
   257
 43
1.0
 76
     1
 77
     6
 78
     2
 67
     7
 79
     3
170
     0
171
     0
290
     0
174
     0
 93
        5
 44
0.0
173
     0
291
     0
 45
0.0
1001
ACAD
1000
AcDbSavedByObjectVersion
1070
     0
  0
VISUALSTYLE
  5
4D3
102
{ACAD_XDICTIONARY
360
1067
102
}
102
{ACAD_REACTORS
330
14
102
}
330
14
100
AcDbVisualStyle
  2

 70
    23
 71
     2
 72
     2
 73
     3
 90
        0
 40
-0.6
 41
-30.0
 62
     5
 63
     7
 74
     2
 91
        2
 64
     7
 65
     7
 75
     1
175
     1
 42
40.0
 92
        8
 66
     7
 43
1.0
 76
     1
 77
     6
 78
     2
 67
     7
 79
     3
170
     0
171
     0
290
     0
174
     0
 93
        1
 44
0.0
173
     0
291
     0
 45
0.0
1001
ACAD
1000
AcDbSavedByObjectVersion
1070
     0
  0
VISUALSTYLE
  5
4D4
102
{ACAD_XDICTIONARY
360
1069
102
}
102
{ACAD_REACTORS
330
14
102
}
330
14
100
AcDbVisualStyle
  2

 70
    24
 71
     1
 72
     2
 73
     2
 90
        0
 40
-0.6
 41
-30.0
 62
     5
 63
     7
 74
     2
 91
        2
 64
     7
 65
     7
 75
     1
175
     1
 42
40.0
 92
       11
 66
     7
 43
1.0
 76
     1
 77
     6
 78
     2
 67
     7
 79
     6
170
     0
171
     0
290
     0
174
     0
 93
        1
 44
0.0
173
     0
291
     0
 45
0.0
1001
ACAD
1000
AcDbSavedByObjectVersion
1070
     0
  0
VISUALSTYLE
  5
21
102
{ACAD_XDICTIONARY
360
1056
102
}
102
{ACAD_REACTORS
330
14
102
}
330
14
100
AcDbVisualStyle
  2

 70
    13
 71
     2
 72
     2
 73
     0
 90
        0
 40
-0.6
 41
-30.0
 62
     5
 63
     7
 74
     1
 91
        4
 64
     7
 65
   257
 75
     1
175
     1
 42
1.0
 92
       12
 66
     7
 43
1.0
 76
     1
 77
     6
 78
     2
 67
     7
 79
     5
170
     0
171
     0
290
     0
174
     0
 93
        1
 44
0.0
173
     0
291
     1
 45
0.0
1001
ACAD
1000
AcDbSavedByObjectVersion
1070
     0
  0
VISUALSTYLE
  5
4D1
102
{ACAD_XDICTIONARY
360
1063
102
}
102
{ACAD_REACTORS
330
14
102
}
330
14
100
AcDbVisualStyle
  2

 70
     5
 71
     0
 72
     2
 73
     0
 90
        0
 40
-0.6
 41
-30.0
 62
     5
 63
     7
 74
     1
 91
        4
 64
     7
 65
   257
 75
     1
175
     1
 42
1.0
 92
        0
 66
   257
 43
1.0
 76
     1
 77
     6
 78
     2
 67
     7
 79
     3
170
     0
171
     0
290
     0
174
     0
 93
        1
 44
0.0
173
     0
291
     0
 45
0.0
1001
ACAD
1000
AcDbSavedByObjectVersion
1070
     0
  0
VISUALSTYLE
  5
4D5
102
{ACAD_XDICTIONARY
360
106B
102
}
102
{ACAD_REACTORS
330
14
102
}
330
14
100
AcDbVisualStyle
  2

 70
    25
 71
     2
 72
     2
 73
     1
 90
        1
 40
0.5
 41
-30.0
 62
     5
 63
     7
 74
     1
 91
        0
 64
     7
 65
   257
 75
     1
175
     1
 42
1.0
 92
        8
 66
     7
 43
1.0
 76
     1
 77
     6
 78
     2
 67
     7
 79
     3
170
     0
171
     0
290
     0
174
     0
 93
       13
 44
0.0
173
     0
291
     0
 45
0.0
1001
ACAD
1000
AcDbSavedByObjectVersion
1070
     0
  0
DICTIONARYVAR
  5
767
102
{ACAD_REACTORS
330
4BB
102
}
330
4BB
100
DictionaryVariables
280
     0
  1
1:1
  0
DICTIONARYVAR
  5
766
102
{ACAD_REACTORS
330
4BB
102
}
330
4BB
100
DictionaryVariables
280
     0
  1
STANDARD
  0
DICTIONARYVAR
  5
4BC
102
{ACAD_REACTORS
330
4BB
102
}
330
4BB
100
DictionaryVariables
280
     0
  1
STANDARD
  0
DICTIONARYVAR
  5
4BF
102
{ACAD_REACTORS
330
4BB
102
}
330
4BB
100
DictionaryVariables
280
     0
  1
1
  0
DICTIONARYVAR
  5
4BE
102
{ACAD_REACTORS
330
4BB
102
}
330
4BB
100
DictionaryVariables
280
     0
  1
0
  0
DICTIONARYVAR
  5
4BD
102
{ACAD_REACTORS
330
4BB
102
}
330
4BB
100
DictionaryVariables
280
     0
  1
127
  0
DICTIONARYVAR
  5
F64
102
{ACAD_REACTORS
330
4BB
102
}
330
4BB
100
DictionaryVariables
280
     0
  1
2
  0
DICTIONARY
  5
1061
330
39
100
AcDbDictionary
280
     1
281
     1
  3
ACAD_XREC_ROUNDTRIP
360
1062
  0
DICTIONARY
  5
105F
330
35
100
AcDbDictionary
280
     1
281
     1
  3
ACAD_XREC_ROUNDTRIP
360
1060
  0
DICTIONARY
  5
4C3
330
12
100
AcDbDictionary
280
     1
281
     1
  3
ACAD_XREC_ROUNDTRIP
360
4C4
  0
DICTIONARY
  5
4C1
330
11
100
AcDbDictionary
280
     1
281
     1
  3
ACAD_XREC_ROUNDTRIP
360
4C2
  0
DICTIONARY
  5
4C5
330
13
100
AcDbDictionary
280
     1
281
     1
  3
ACAD_XREC_ROUNDTRIP
360
4C6
  0
DICTIONARY
  5
769
330
31
100
AcDbDictionary
280
     1
281
     1
  3
ACAD_ROUNDTRIP_2008_TABLESTYLE_CELLSTYLEMAP
360
1036
  3
ACAD_XREC_ROUNDTRIP
360
105E
  0
DICTIONARY
  5
9B8
330
9B7
100
AcDbDictionary
280
     1
281
     1
  3
ACAD_ROUNDTRIP_2008_TABLESTYLE_CELLSTYLEMAP
360
1037
  3
ACAD_XREC_ROUNDTRIP
360
1077
  0
DICTIONARY
  5
1048
330
1A
100
AcDbDictionary
280
     1
281
     1
  3
ACAD_XREC_ROUNDTRIP
360
1049
  0
DICTIONARY
  5
104C
330
1C
100
AcDbDictionary
280
     1
281
     1
  3
ACAD_XREC_ROUNDTRIP
360
104D
  0
DICTIONARY
  5
104A
330
1B
100
AcDbDictionary
280
     1
281
     1
  3
ACAD_XREC_ROUNDTRIP
360
104B
  0
DICTIONARY
  5
1046
330
19
100
AcDbDictionary
280
     1
281
     1
  3
ACAD_XREC_ROUNDTRIP
360
1047
  0
DICTIONARY
  5
1054
330
20
100
AcDbDictionary
280
     1
281
     1
  3
ACAD_XREC_ROUNDTRIP
360
1055
  0
DICTIONARY
  5
105C
330
24
100
AcDbDictionary
280
     1
281
     1
  3
ACAD_XREC_ROUNDTRIP
360
105D
  0
DICTIONARY
  5
104E
330
1D
100
AcDbDictionary
280
     1
281
     1
  3
ACAD_XREC_ROUNDTRIP
360
104F
  0
DICTIONARY
  5
1052
330
1F
100
AcDbDictionary
280
     1
281
     1
  3
ACAD_XREC_ROUNDTRIP
360
1053
  0
DICTIONARY
  5
1075
330
4DA
100
AcDbDictionary
280
     1
281
     1
  3
ACAD_XREC_ROUNDTRIP
360
1076
  0
DICTIONARY
  5
105A
330
23
100
AcDbDictionary
280
     1
281
     1
  3
ACAD_XREC_ROUNDTRIP
360
105B
  0
DICTIONARY
  5
103E
330
15
100
AcDbDictionary
280
     1
281
     1
  3
ACAD_XREC_ROUNDTRIP
360
103F
  0
DICTIONARY
  5
1040
330
16
100
AcDbDictionary
280
     1
281
     1
  3
ACAD_XREC_ROUNDTRIP
360
1041
  0
DICTIONARY
  5
1042
330
17
100
AcDbDictionary
280
     1
281
     1
  3
ACAD_XREC_ROUNDTRIP
360
1043
  0
DICTIONARY
  5
1044
330
18
100
AcDbDictionary
280
     1
281
     1
  3
ACAD_XREC_ROUNDTRIP
360
1045
  0
DICTIONARY
  5
1065
330
4D2
100
AcDbDictionary
280
     1
281
     1
  3
ACAD_XREC_ROUNDTRIP
360
1066
  0
DICTIONARY
  5
1071
330
4D8
100
AcDbDictionary
280
     1
281
     1
  3
ACAD_XREC_ROUNDTRIP
360
1072
  0
DICTIONARY
  5
1058
330
22
100
AcDbDictionary
280
     1
281
     1
  3
ACAD_XREC_ROUNDTRIP
360
1059
  0
DICTIONARY
  5
1073
330
4D9
100
AcDbDictionary
280
     1
281
     1
  3
ACAD_XREC_ROUNDTRIP
360
1074
  0
DICTIONARY
  5
1050
330
1E
100
AcDbDictionary
280
     1
281
     1
  3
ACAD_XREC_ROUNDTRIP
360
1051
  0
DICTIONARY
  5
106F
330
4D7
100
AcDbDictionary
280
     1
281
     1
  3
ACAD_XREC_ROUNDTRIP
360
1070
  0
DICTIONARY
  5
106D
330
4D6
100
AcDbDictionary
280
     1
281
     1
  3
ACAD_XREC_ROUNDTRIP
360
106E
  0
DICTIONARY
  5
1067
330
4D3
100
AcDbDictionary
280
     1
281
     1
  3
ACAD_XREC_ROUNDTRIP
360
1068
  0
DICTIONARY
  5
1069
330
4D4
100
AcDbDictionary
280
     1
281
     1
  3
ACAD_XREC_ROUNDTRIP
360
106A
  0
DICTIONARY
  5
1056
330
21
100
AcDbDictionary
280
     1
281
     1
  3
ACAD_XREC_ROUNDTRIP
360
1057
  0
DICTIONARY
  5
1063
330
4D1
100
AcDbDictionary
280
     1
281
     1
  3
ACAD_XREC_ROUNDTRIP
360
1064
  0
DICTIONARY
  5
106B
330
4D5
100
AcDbDictionary
280
     1
281
     1
  3
ACAD_XREC_ROUNDTRIP
360
106C
  0
XRECORD
  5
1062
102
{ACAD_REACTORS
330
1061
102
}
330
1061
100
AcDbXrecord
280
     1
102
SHADEPLOT
 70
     0
102
SHADEPLOTRESLEVEL
 70
     2
102
SHADEPLOTCUSTOMDPI
 70
   300
  0
XRECORD
  5
1060
102
{ACAD_REACTORS
330
105F
102
}
330
105F
100
AcDbXrecord
280
     1
102
SHADEPLOT
 70
     0
102
SHADEPLOTRESLEVEL
 70
     2
102
SHADEPLOTCUSTOMDPI
 70
   300
  0
XRECORD
  5
4C4
102
{ACAD_REACTORS
330
4C3
102
}
330
4C3
100
AcDbXrecord
280
     1
102
MATERIAL
148
0.0
149
0.0
149
0.0
 93
        0
 94
      127
282
     0
 72
     1
 77
     1
171
     1
175
     1
179
     1
273
     0
  0
XRECORD
  5
4C2
102
{ACAD_REACTORS
330
4C1
102
}
330
4C1
100
AcDbXrecord
280
     1
102
MATERIAL
148
0.0
149
0.0
149
0.0
 93
        0
 94
      127
282
     0
 72
     1
 77
     1
171
     1
175
     1
179
     1
273
     0
  0
XRECORD
  5
4C6
102
{ACAD_REACTORS
330
4C5
102
}
330
4C5
100
AcDbXrecord
280
     1
102
MATERIAL
148
0.0
149
0.0
149
0.0
 93
        0
 94
      127
282
     0
 72
     1
 77
     1
171
     1
175
     1
179
     1
273
     0
  0
CELLSTYLEMAP
  5
1036
102
{ACAD_REACTORS
330
769
102
}
330
769
100
AcDbCellStyleMap
 90
        3
300
CELLSTYLE
  1
TABLEFORMAT_BEGIN
 90
        5
170
     1
 91
        0
 92
    32768
 62
   257
 93
        1
300
CONTENTFORMAT
  1
CONTENTFORMAT_BEGIN
 90
        0
 91
        0
 92
      512
 93
        0
300

 40
0.0
140
1.0
 94
        5
 62
     0
340
26
144
0.25
309
CONTENTFORMAT_END
171
     1
301
MARGIN
  1
CELLMARGIN_BEGIN
 40
0.06
 40
0.06
 40
0.06
 40
0.06
 40
0.18
 40
0.18
309
CELLMARGIN_END
 94
        6
 95
        1
302
GRIDFORMAT
  1
GRIDFORMAT_BEGIN
 90
        0
 91
        1
 62
     0
 92
       -2
340
0
 93
        0
 40
0.045
309
GRIDFORMAT_END
 95
        2
302
GRIDFORMAT
  1
GRIDFORMAT_BEGIN
 90
        0
 91
        1
 62
     0
 92
       -2
340
0
 93
        0
 40
0.045
309
GRIDFORMAT_END
 95
        4
302
GRIDFORMAT
  1
GRIDFORMAT_BEGIN
 90
        0
 91
        1
 62
     0
 92
       -2
340
0
 93
        0
 40
0.045
309
GRIDFORMAT_END
 95
        8
302
GRIDFORMAT
  1
GRIDFORMAT_BEGIN
 90
        0
 91
        1
 62
     0
 92
       -2
340
0
 93
        0
 40
0.045
309
GRIDFORMAT_END
 95
       16
302
GRIDFORMAT
  1
GRIDFORMAT_BEGIN
 90
        0
 91
        1
 62
     0
 92
       -2
340
0
 93
        0
 40
0.045
309
GRIDFORMAT_END
 95
       32
302
GRIDFORMAT
  1
GRIDFORMAT_BEGIN
 90
        0
 91
        1
 62
     0
 92
       -2
340
0
 93
        0
 40
0.045
309
GRIDFORMAT_END
309
TABLEFORMAT_END
  1
CELLSTYLE_BEGIN
 90
        1
 91
        1
300
_TITLE
309
CELLSTYLE_END
300
CELLSTYLE
  1
TABLEFORMAT_BEGIN
 90
        5
170
     1
 91
        0
 92
        0
 62
   257
 93
        1
300
CONTENTFORMAT
  1
CONTENTFORMAT_BEGIN
 90
        0
 91
        0
 92
      512
 93
        0
300

 40
0.0
140
1.0
 94
        5
 62
     0
340
26
144
0.18
309
CONTENTFORMAT_END
171
     1
301
MARGIN
  1
CELLMARGIN_BEGIN
 40
0.06
 40
0.06
 40
0.06
 40
0.06
 40
0.18
 40
0.18
309
CELLMARGIN_END
 94
        6
 95
        1
302
GRIDFORMAT
  1
GRIDFORMAT_BEGIN
 90
        0
 91
        1
 62
     0
 92
       -2
340
0
 93
        0
 40
0.045
309
GRIDFORMAT_END
 95
        2
302
GRIDFORMAT
  1
GRIDFORMAT_BEGIN
 90
        0
 91
        1
 62
     0
 92
       -2
340
0
 93
        0
 40
0.045
309
GRIDFORMAT_END
 95
        4
302
GRIDFORMAT
  1
GRIDFORMAT_BEGIN
 90
        0
 91
        1
 62
     0
 92
       -2
340
0
 93
        0
 40
0.045
309
GRIDFORMAT_END
 95
        8
302
GRIDFORMAT
  1
GRIDFORMAT_BEGIN
 90
        0
 91
        1
 62
     0
 92
       -2
340
0
 93
        0
 40
0.045
309
GRIDFORMAT_END
 95
       16
302
GRIDFORMAT
  1
GRIDFORMAT_BEGIN
 90
        0
 91
        1
 62
     0
 92
       -2
340
0
 93
        0
 40
0.045
309
GRIDFORMAT_END
 95
       32
302
GRIDFORMAT
  1
GRIDFORMAT_BEGIN
 90
        0
 91
        1
 62
     0
 92
       -2
340
0
 93
        0
 40
0.045
309
GRIDFORMAT_END
309
TABLEFORMAT_END
  1
CELLSTYLE_BEGIN
 90
        2
 91
        1
300
_HEADER
309
CELLSTYLE_END
300
CELLSTYLE
  1
TABLEFORMAT_BEGIN
 90
        5
170
     1
 91
        0
 92
        0
 62
   257
 93
        1
300
CONTENTFORMAT
  1
CONTENTFORMAT_BEGIN
 90
        0
 91
        0
 92
      512
 93
        0
300

 40
0.0
140
1.0
 94
        2
 62
     0
340
26
144
0.18
309
CONTENTFORMAT_END
171
     1
301
MARGIN
  1
CELLMARGIN_BEGIN
 40
0.06
 40
0.06
 40
0.06
 40
0.06
 40
0.18
 40
0.18
309
CELLMARGIN_END
 94
        6
 95
        1
302
GRIDFORMAT
  1
GRIDFORMAT_BEGIN
 90
        0
 91
        1
 62
     0
 92
       -2
340
0
 93
        0
 40
0.045
309
GRIDFORMAT_END
 95
        2
302
GRIDFORMAT
  1
GRIDFORMAT_BEGIN
 90
        0
 91
        1
 62
     0
 92
       -2
340
0
 93
        0
 40
0.045
309
GRIDFORMAT_END
 95
        4
302
GRIDFORMAT
  1
GRIDFORMAT_BEGIN
 90
        0
 91
        1
 62
     0
 92
       -2
340
0
 93
        0
 40
0.045
309
GRIDFORMAT_END
 95
        8
302
GRIDFORMAT
  1
GRIDFORMAT_BEGIN
 90
        0
 91
        1
 62
     0
 92
       -2
340
0
 93
        0
 40
0.045
309
GRIDFORMAT_END
 95
       16
302
GRIDFORMAT
  1
GRIDFORMAT_BEGIN
 90
        0
 91
        1
 62
     0
 92
       -2
340
0
 93
        0
 40
0.045
309
GRIDFORMAT_END
 95
       32
302
GRIDFORMAT
  1
GRIDFORMAT_BEGIN
 90
        0
 91
        1
 62
     0
 92
       -2
340
0
 93
        0
 40
0.045
309
GRIDFORMAT_END
309
TABLEFORMAT_END
  1
CELLSTYLE_BEGIN
 90
        3
 91
        2
300
_DATA
309
CELLSTYLE_END
  0
XRECORD
  5
105E
102
{ACAD_REACTORS
330
769
102
}
330
769
100
AcDbXrecord
280
     1
102
ACAD_ROUNDTRIP_PRE2007_TABLESTYLE
 90
      512
 91
        0
  1

 92
      512
 93
        0
  2

 94
      512
 95
        0
  3

  0
CELLSTYLEMAP
  5
1037
102
{ACAD_REACTORS
330
9B8
102
}
330
9B8
100
AcDbCellStyleMap
 90
        3
300
CELLSTYLE
  1
TABLEFORMAT_BEGIN
 90
        5
170
     1
 91
        0
 92
    32768
 62
   257
 93
        1
300
CONTENTFORMAT
  1
CONTENTFORMAT_BEGIN
 90
        0
 91
        0
 92
      512
 93
        0
300

 40
0.0
140
1.0
 94
        8
 62
     3
340
581
144
0.25
309
CONTENTFORMAT_END
171
     1
301
MARGIN
  1
CELLMARGIN_BEGIN
 40
0.5
 40
10.0
 40
0.06
 40
0.06
 40
0.18
 40
0.18
309
CELLMARGIN_END
 94
        6
 95
        1
302
GRIDFORMAT
  1
GRIDFORMAT_BEGIN
 90
        0
 91
        1
 62
     0
 92
       -2
340
0
 93
        0
 40
0.045
309
GRIDFORMAT_END
 95
        2
302
GRIDFORMAT
  1
GRIDFORMAT_BEGIN
 90
        0
 91
        1
 62
     0
 92
       -2
340
0
 93
        0
 40
0.045
309
GRIDFORMAT_END
 95
        4
302
GRIDFORMAT
  1
GRIDFORMAT_BEGIN
 90
        0
 91
        1
 62
     0
 92
       -2
340
0
 93
        0
 40
0.045
309
GRIDFORMAT_END
 95
        8
302
GRIDFORMAT
  1
GRIDFORMAT_BEGIN
 90
        0
 91
        1
 62
     0
 92
       -2
340
0
 93
        0
 40
0.045
309
GRIDFORMAT_END
 95
       16
302
GRIDFORMAT
  1
GRIDFORMAT_BEGIN
 90
        0
 91
        1
 62
     0
 92
       -2
340
0
 93
        0
 40
0.045
309
GRIDFORMAT_END
 95
       32
302
GRIDFORMAT
  1
GRIDFORMAT_BEGIN
 90
        0
 91
        1
 62
     0
 92
       -2
340
0
 93
        0
 40
0.045
309
GRIDFORMAT_END
309
TABLEFORMAT_END
  1
CELLSTYLE_BEGIN
 90
        1
 91
        1
300
_TITLE
309
CELLSTYLE_END
300
CELLSTYLE
  1
TABLEFORMAT_BEGIN
 90
        5
170
     1
 91
        0
 92
        0
 62
   257
 93
        1
300
CONTENTFORMAT
  1
CONTENTFORMAT_BEGIN
 90
        0
 91
        0
 92
      512
 93
        0
300

 40
0.0
140
1.0
 94
        7
 62
     3
340
581
144
0.18
309
CONTENTFORMAT_END
171
     1
301
MARGIN
  1
CELLMARGIN_BEGIN
 40
0.5
 40
1.5
 40
0.06
 40
0.06
 40
0.18
 40
0.18
309
CELLMARGIN_END
 94
        6
 95
        1
302
GRIDFORMAT
  1
GRIDFORMAT_BEGIN
 90
        0
 91
        1
 62
     3
 92
       -2
340
28
 93
        0
 40
0.045
309
GRIDFORMAT_END
 95
        2
302
GRIDFORMAT
  1
GRIDFORMAT_BEGIN
 90
        0
 91
        1
 62
     7
 92
       -2
340
28
 93
        0
 40
0.045
309
GRIDFORMAT_END
 95
        4
302
GRIDFORMAT
  1
GRIDFORMAT_BEGIN
 90
        0
 91
        1
 62
     3
 92
       -2
340
28
 93
        0
 40
0.045
309
GRIDFORMAT_END
 95
        8
302
GRIDFORMAT
  1
GRIDFORMAT_BEGIN
 90
        0
 91
        1
 62
     3
 92
       -2
340
28
 93
        0
 40
0.045
309
GRIDFORMAT_END
 95
       16
302
GRIDFORMAT
  1
GRIDFORMAT_BEGIN
 90
        0
 91
        1
 62
     7
 92
       -2
340
28
 93
        0
 40
0.045
309
GRIDFORMAT_END
 95
       32
302
GRIDFORMAT
  1
GRIDFORMAT_BEGIN
 90
        0
 91
        1
 62
     3
 92
       -2
340
28
 93
        0
 40
0.045
309
GRIDFORMAT_END
309
TABLEFORMAT_END
  1
CELLSTYLE_BEGIN
 90
        2
 91
        1
300
_HEADER
309
CELLSTYLE_END
300
CELLSTYLE
  1
TABLEFORMAT_BEGIN
 90
        5
170
     1
 91
        0
 92
        0
 62
   257
 93
        1
300
CONTENTFORMAT
  1
CONTENTFORMAT_BEGIN
 90
        0
 91
        0
 92
      512
 93
        0
300

 40
0.0
140
1.0
 94
        7
 62
     3
340
581
144
0.18
309
CONTENTFORMAT_END
171
     1
301
MARGIN
  1
CELLMARGIN_BEGIN
 40
0.5
 40
1.5
 40
0.06
 40
0.06
 40
0.18
 40
0.18
309
CELLMARGIN_END
 94
        6
 95
        1
302
GRIDFORMAT
  1
GRIDFORMAT_BEGIN
 90
        0
 91
        1
 62
     3
 92
       -2
340
28
 93
        0
 40
0.045
309
GRIDFORMAT_END
 95
        2
302
GRIDFORMAT
  1
GRIDFORMAT_BEGIN
 90
        0
 91
        1
 62
     7
 92
       -2
340
28
 93
        0
 40
0.045
309
GRIDFORMAT_END
 95
        4
302
GRIDFORMAT
  1
GRIDFORMAT_BEGIN
 90
        0
 91
        1
 62
     3
 92
       -2
340
28
 93
        0
 40
0.045
309
GRIDFORMAT_END
 95
        8
302
GRIDFORMAT
  1
GRIDFORMAT_BEGIN
 90
        0
 91
        1
 62
     3
 92
       -2
340
28
 93
        0
 40
0.045
309
GRIDFORMAT_END
 95
       16
302
GRIDFORMAT
  1
GRIDFORMAT_BEGIN
 90
        0
 91
        1
 62
     7
 92
       -2
340
28
 93
        0
 40
0.045
309
GRIDFORMAT_END
 95
       32
302
GRIDFORMAT
  1
GRIDFORMAT_BEGIN
 90
        0
 91
        1
 62
     3
 92
       -2
340
28
 93
        0
 40
0.045
309
GRIDFORMAT_END
309
TABLEFORMAT_END
  1
CELLSTYLE_BEGIN
 90
        3
 91
        2
300
_DATA
309
CELLSTYLE_END
  0
XRECORD
  5
1077
102
{ACAD_REACTORS
330
9B8
102
}
330
9B8
100
AcDbXrecord
280
     1
102
ACAD_ROUNDTRIP_PRE2007_TABLESTYLE
 90
      512
 91
        0
  1

 92
      512
 93
        0
  2

 94
      512
 95
        0
  3

  0
XRECORD
  5
1049
102
{ACAD_REACTORS
330
1048
102
}
330
1048
100
AcDbXrecord
280
     1
102
RTVSPropertyOp0
 70
     1
102
RTVSPropertyOp1
 70
     1
102
RTVSPropertyOp2
 70
     1
102
RTVSPropertyOp3
 70
     1
102
RTVSPropertyOp4
 70
     1
102
RTVSPropertyOp5
 70
     1
102
RTVSPropertyOp6
 70
     1
102
RTVSPropertyOp7
 70
     1
102
RTVSPropertyOp8
 70
     1
102
RTVSPropertyOp9
 70
     1
102
RTVSPropertyOp10
 70
     1
102
RTVSPropertyOp11
 70
     1
102
RTVSPropertyOp12
 70
     1
102
RTVSPropertyOp13
 70
     1
102
RTVSPropertyOp14
 70
     1
102
RTVSPropertyOp15
 70
     1
102
RTVSPropertyOp16
 70
     1
102
RTVSPropertyOp17
 70
     1
102
RTVSPropertyOp18
 70
     1
102
RTVSPropertyOp19
 70
     1
102
RTVSPropertyOp20
 70
     1
102
RTVSPropertyOp21
 70
     1
102
RTVSPropertyOp22
 70
     1
102
RTVSPropertyOp23
 70
     1
102
RTVSPropertyOp24
 70
     1
102
RTVSPropertyOp25
 70
     1
102
RTVSPropertyOp26
 70
     1
102
RTVSPropertyOp27
 70
     1
102
RTVSPropertyOp28
 70
     1
102
RTVSPropertyOp29
 70
     1
102
RTVSPropertyOp30
 70
     1
102
RTVSPropertyOp31
 70
     1
102
RTVSPropertyOp32
 70
     1
  0
XRECORD
  5
104D
102
{ACAD_REACTORS
330
104C
102
}
330
104C
100
AcDbXrecord
280
     1
102
RTVSPropertyOp0
 70
     1
102
RTVSPropertyOp1
 70
     1
102
RTVSPropertyOp2
 70
     1
102
RTVSPropertyOp3
 70
     1
102
RTVSPropertyOp4
 70
     1
102
RTVSPropertyOp5
 70
     1
102
RTVSPropertyOp6
 70
     1
102
RTVSPropertyOp7
 70
     1
102
RTVSPropertyOp8
 70
     1
102
RTVSPropertyOp9
 70
     1
102
RTVSPropertyOp10
 70
     1
102
RTVSPropertyOp11
 70
     1
102
RTVSPropertyOp12
 70
     1
102
RTVSPropertyOp13
 70
     1
102
RTVSPropertyOp14
 70
     1
102
RTVSPropertyOp15
 70
     1
102
RTVSPropertyOp16
 70
     1
102
RTVSPropertyOp17
 70
     1
102
RTVSPropertyOp18
 70
     1
102
RTVSPropertyOp19
 70
     1
102
RTVSPropertyOp20
 70
     1
102
RTVSPropertyOp21
 70
     1
102
RTVSPropertyOp22
 70
     1
102
RTVSPropertyOp23
 70
     1
102
RTVSPropertyOp24
 70
     1
102
RTVSPropertyOp25
 70
     1
102
RTVSPropertyOp26
 70
     1
102
RTVSPropertyOp27
 70
     1
102
RTVSPropertyOp28
 70
     1
102
RTVSPropertyOp29
 70
     1
102
RTVSPropertyOp30
 70
     1
102
RTVSPropertyOp31
 70
     1
102
RTVSPropertyOp32
 70
     1
  0
XRECORD
  5
104B
102
{ACAD_REACTORS
330
104A
102
}
330
104A
100
AcDbXrecord
280
     1
102
RTVSPropertyOp0
 70
     1
102
RTVSPropertyOp1
 70
     1
102
RTVSPropertyOp2
 70
     1
102
RTVSPropertyOp3
 70
     1
102
RTVSPropertyOp4
 70
     1
102
RTVSPropertyOp5
 70
     1
102
RTVSPropertyOp6
 70
     1
102
RTVSPropertyOp7
 70
     1
102
RTVSPropertyOp8
 70
     1
102
RTVSPropertyOp9
 70
     1
102
RTVSPropertyOp10
 70
     1
102
RTVSPropertyOp11
 70
     1
102
RTVSPropertyOp12
 70
     1
102
RTVSPropertyOp13
 70
     1
102
RTVSPropertyOp14
 70
     1
102
RTVSPropertyOp15
 70
     1
102
RTVSPropertyOp16
 70
     1
102
RTVSPropertyOp17
 70
     1
102
RTVSPropertyOp18
 70
     1
102
RTVSPropertyOp19
 70
     1
102
RTVSPropertyOp20
 70
     1
102
RTVSPropertyOp21
 70
     1
102
RTVSPropertyOp22
 70
     1
102
RTVSPropertyOp23
 70
     1
102
RTVSPropertyOp24
 70
     1
102
RTVSPropertyOp25
 70
     1
102
RTVSPropertyOp26
 70
     1
102
RTVSPropertyOp27
 70
     1
102
RTVSPropertyOp28
 70
     1
102
RTVSPropertyOp29
 70
     1
102
RTVSPropertyOp30
 70
     1
102
RTVSPropertyOp31
 70
     1
102
RTVSPropertyOp32
 70
     1
  0
XRECORD
  5
1047
102
{ACAD_REACTORS
330
1046
102
}
330
1046
100
AcDbXrecord
280
     1
102
RTVSPropertyOp0
 70
     1
102
RTVSPropertyOp1
 70
     1
102
RTVSPropertyOp2
 70
     1
102
RTVSPropertyOp3
 70
     1
102
RTVSPropertyOp4
 70
     1
102
RTVSPropertyOp5
 70
     1
102
RTVSPropertyOp6
 70
     1
102
RTVSPropertyOp7
 70
     1
102
RTVSPropertyOp8
 70
     1
102
RTVSPropertyOp9
 70
     1
102
RTVSPropertyOp10
 70
     1
102
RTVSPropertyOp11
 70
     1
102
RTVSPropertyOp12
 70
     1
102
RTVSPropertyOp13
 70
     1
102
RTVSPropertyOp14
 70
     1
102
RTVSPropertyOp15
 70
     1
102
RTVSPropertyOp16
 70
     1
102
RTVSPropertyOp17
 70
     1
102
RTVSPropertyOp18
 70
     1
102
RTVSPropertyOp19
 70
     1
102
RTVSPropertyOp20
 70
     1
102
RTVSPropertyOp21
 70
     1
102
RTVSPropertyOp22
 70
     1
102
RTVSPropertyOp23
 70
     1
102
RTVSPropertyOp24
 70
     1
102
RTVSPropertyOp25
 70
     1
102
RTVSPropertyOp26
 70
     1
102
RTVSPropertyOp27
 70
     1
102
RTVSPropertyOp28
 70
     1
102
RTVSPropertyOp29
 70
     1
102
RTVSPropertyOp30
 70
     1
102
RTVSPropertyOp31
 70
     1
102
RTVSPropertyOp32
 70
     1
  0
XRECORD
  5
1055
102
{ACAD_REACTORS
330
1054
102
}
330
1054
100
AcDbXrecord
280
     1
102
RTVSPropertyOp0
 70
     1
102
RTVSPropertyOp1
 70
     1
102
RTVSPropertyOp2
 70
     1
102
RTVSPropertyOp3
 70
     1
102
RTVSPropertyOp4
 70
     1
102
RTVSPropertyOp5
 70
     1
102
RTVSPropertyOp6
 70
     1
102
RTVSPropertyOp7
 70
     1
102
RTVSPropertyOp8
 70
     1
102
RTVSPropertyOp9
 70
     1
102
RTVSPropertyOp10
 70
     1
102
RTVSPropertyOp11
 70
     1
102
RTVSPropertyOp12
 70
     1
102
RTVSPropertyOp13
 70
     1
102
RTVSPropertyOp14
 70
     1
102
RTVSPropertyOp15
 70
     1
102
RTVSPropertyOp16
 70
     1
102
RTVSPropertyOp17
 70
     1
102
RTVSPropertyOp18
 70
     1
102
RTVSPropertyOp19
 70
     1
102
RTVSPropertyOp20
 70
     1
102
RTVSPropertyOp21
 70
     1
102
RTVSPropertyOp22
 70
     1
102
RTVSPropertyOp23
 70
     1
102
RTVSPropertyOp24
 70
     1
102
RTVSPropertyOp25
 70
     1
102
RTVSPropertyOp26
 70
     1
102
RTVSPropertyOp27
 70
     1
102
RTVSPropertyOp28
 70
     1
102
RTVSPropertyOp29
 70
     1
102
RTVSPropertyOp30
 70
     1
102
RTVSPropertyOp31
 70
     1
102
RTVSPropertyOp32
 70
     1
  0
XRECORD
  5
105D
102
{ACAD_REACTORS
330
105C
102
}
330
105C
100
AcDbXrecord
280
     1
102
RTVSPropertyOp0
 70
     1
102
RTVSPropertyOp1
 70
     1
102
RTVSPropertyOp2
 70
     1
102
RTVSPropertyOp3
 70
     1
102
RTVSPropertyOp4
 70
     1
102
RTVSPropertyOp5
 70
     1
102
RTVSPropertyOp6
 70
     1
102
RTVSPropertyOp7
 70
     1
102
RTVSPropertyOp8
 70
     1
102
RTVSPropertyOp9
 70
     1
102
RTVSPropertyOp10
 70
     1
102
RTVSPropertyOp11
 70
     1
102
RTVSPropertyOp12
 70
     1
102
RTVSPropertyOp13
 70
     1
102
RTVSPropertyOp14
 70
     1
102
RTVSPropertyOp15
 70
     1
102
RTVSPropertyOp16
 70
     1
102
RTVSPropertyOp17
 70
     1
102
RTVSPropertyOp18
 70
     1
102
RTVSPropertyOp19
 70
     1
102
RTVSPropertyOp20
 70
     1
102
RTVSPropertyOp21
 70
     1
102
RTVSPropertyOp22
 70
     1
102
RTVSPropertyOp23
 70
     1
102
RTVSPropertyOp24
 70
     1
102
RTVSPropertyOp25
 70
     1
102
RTVSPropertyOp26
 70
     1
102
RTVSPropertyOp27
 70
     1
102
RTVSPropertyOp28
 70
     1
102
RTVSPropertyOp29
 70
     1
102
RTVSPropertyOp30
 70
     1
102
RTVSPropertyOp31
 70
     1
102
RTVSPropertyOp32
 70
     1
  0
XRECORD
  5
104F
102
{ACAD_REACTORS
330
104E
102
}
330
104E
100
AcDbXrecord
280
     1
102
RTVSPropertyOp0
 70
     1
102
RTVSPropertyOp1
 70
     1
102
RTVSPropertyOp2
 70
     1
102
RTVSPropertyOp3
 70
     1
102
RTVSPropertyOp4
 70
     1
102
RTVSPropertyOp5
 70
     1
102
RTVSPropertyOp6
 70
     1
102
RTVSPropertyOp7
 70
     1
102
RTVSPropertyOp8
 70
     1
102
RTVSPropertyOp9
 70
     1
102
RTVSPropertyOp10
 70
     1
102
RTVSPropertyOp11
 70
     1
102
RTVSPropertyOp12
 70
     1
102
RTVSPropertyOp13
 70
     1
102
RTVSPropertyOp14
 70
     1
102
RTVSPropertyOp15
 70
     1
102
RTVSPropertyOp16
 70
     1
102
RTVSPropertyOp17
 70
     1
102
RTVSPropertyOp18
 70
     1
102
RTVSPropertyOp19
 70
     1
102
RTVSPropertyOp20
 70
     1
102
RTVSPropertyOp21
 70
     1
102
RTVSPropertyOp22
 70
     1
102
RTVSPropertyOp23
 70
     1
102
RTVSPropertyOp24
 70
     1
102
RTVSPropertyOp25
 70
     1
102
RTVSPropertyOp26
 70
     1
102
RTVSPropertyOp27
 70
     1
102
RTVSPropertyOp28
 70
     1
102
RTVSPropertyOp29
 70
     1
102
RTVSPropertyOp30
 70
     1
102
RTVSPropertyOp31
 70
     1
102
RTVSPropertyOp32
 70
     1
  0
XRECORD
  5
1053
102
{ACAD_REACTORS
330
1052
102
}
330
1052
100
AcDbXrecord
280
     1
102
RTVSPropertyOp0
 70
     1
102
RTVSPropertyOp1
 70
     1
102
RTVSPropertyOp2
 70
     1
102
RTVSPropertyOp3
 70
     1
102
RTVSPropertyOp4
 70
     1
102
RTVSPropertyOp5
 70
     1
102
RTVSPropertyOp6
 70
     1
102
RTVSPropertyOp7
 70
     1
102
RTVSPropertyOp8
 70
     1
102
RTVSPropertyOp9
 70
     1
102
RTVSPropertyOp10
 70
     1
102
RTVSPropertyOp11
 70
     1
102
RTVSPropertyOp12
 70
     1
102
RTVSPropertyOp13
 70
     1
102
RTVSPropertyOp14
 70
     1
102
RTVSPropertyOp15
 70
     1
102
RTVSPropertyOp16
 70
     1
102
RTVSPropertyOp17
 70
     1
102
RTVSPropertyOp18
 70
     1
102
RTVSPropertyOp19
 70
     1
102
RTVSPropertyOp20
 70
     1
102
RTVSPropertyOp21
 70
     1
102
RTVSPropertyOp22
 70
     1
102
RTVSPropertyOp23
 70
     1
102
RTVSPropertyOp24
 70
     1
102
RTVSPropertyOp25
 70
     1
102
RTVSPropertyOp26
 70
     1
102
RTVSPropertyOp27
 70
     1
102
RTVSPropertyOp28
 70
     1
102
RTVSPropertyOp29
 70
     1
102
RTVSPropertyOp30
 70
     1
102
RTVSPropertyOp31
 70
     1
102
RTVSPropertyOp32
 70
     1
  0
XRECORD
  5
1076
102
{ACAD_REACTORS
330
1075
102
}
330
1075
100
AcDbXrecord
280
     1
102
RTVSPropertyOp0
 70
     0
102
RTVSPropertyOp1
 70
     0
102
RTVSPropertyOp2
 70
     0
102
RTVSPropertyOp3
 70
     0
102
RTVSPropertyOp4
 70
     0
102
RTVSPropertyOp5
 70
     0
102
RTVSPropertyOp6
 70
     0
102
RTVSPropertyOp7
 70
     0
102
RTVSPropertyOp8
 70
     0
102
RTVSPropertyOp9
 70
     0
102
RTVSPropertyOp10
 70
     0
102
RTVSPropertyOp11
 70
     0
102
RTVSPropertyOp12
 70
     0
102
RTVSPropertyOp13
 70
     0
102
RTVSPropertyOp14
 70
     2
102
RTVSPropertyOp15
 70
     0
102
RTVSPropertyOp16
 70
     0
102
RTVSPropertyOp17
 70
     0
102
RTVSPropertyOp18
 70
     0
102
RTVSPropertyOp19
 70
     0
102
RTVSPropertyOp20
 70
     0
102
RTVSPropertyOp21
 70
     0
102
RTVSPropertyOp22
 70
     0
102
RTVSPropertyOp23
 70
     0
102
RTVSPropertyOp24
 70
     0
102
RTVSPropertyOp25
 70
     0
102
RTVSPropertyOp26
 70
     0
102
RTVSPropertyOp27
 70
     0
102
RTVSPropertyOp28
 70
     0
102
RTVSPropertyOp29
 70
     0
102
RTVSPropertyOp30
 70
     0
102
RTVSPropertyOp31
 70
     0
102
RTVSPropertyOp32
 70
     0
  0
XRECORD
  5
105B
102
{ACAD_REACTORS
330
105A
102
}
330
105A
100
AcDbXrecord
280
     1
102
RTVSPropertyOp0
 70
     1
102
RTVSPropertyOp1
 70
     1
102
RTVSPropertyOp2
 70
     1
102
RTVSPropertyOp3
 70
     1
102
RTVSPropertyOp4
 70
     1
102
RTVSPropertyOp5
 70
     1
102
RTVSPropertyOp6
 70
     1
102
RTVSPropertyOp7
 70
     1
102
RTVSPropertyOp8
 70
     1
102
RTVSPropertyOp9
 70
     1
102
RTVSPropertyOp10
 70
     1
102
RTVSPropertyOp11
 70
     1
102
RTVSPropertyOp12
 70
     1
102
RTVSPropertyOp13
 70
     1
102
RTVSPropertyOp14
 70
     1
102
RTVSPropertyOp15
 70
     1
102
RTVSPropertyOp16
 70
     1
102
RTVSPropertyOp17
 70
     1
102
RTVSPropertyOp18
 70
     1
102
RTVSPropertyOp19
 70
     1
102
RTVSPropertyOp20
 70
     1
102
RTVSPropertyOp21
 70
     1
102
RTVSPropertyOp22
 70
     1
102
RTVSPropertyOp23
 70
     1
102
RTVSPropertyOp24
 70
     1
102
RTVSPropertyOp25
 70
     1
102
RTVSPropertyOp26
 70
     1
102
RTVSPropertyOp27
 70
     1
102
RTVSPropertyOp28
 70
     1
102
RTVSPropertyOp29
 70
     1
102
RTVSPropertyOp30
 70
     1
102
RTVSPropertyOp31
 70
     1
102
RTVSPropertyOp32
 70
     1
  0
XRECORD
  5
103F
102
{ACAD_REACTORS
330
103E
102
}
330
103E
100
AcDbXrecord
280
     1
102
RTVSPropertyOp0
 70
     1
102
RTVSPropertyOp1
 70
     1
102
RTVSPropertyOp2
 70
     1
102
RTVSPropertyOp3
 70
     1
102
RTVSPropertyOp4
 70
     1
102
RTVSPropertyOp5
 70
     1
102
RTVSPropertyOp6
 70
     1
102
RTVSPropertyOp7
 70
     1
102
RTVSPropertyOp8
 70
     1
102
RTVSPropertyOp9
 70
     1
102
RTVSPropertyOp10
 70
     1
102
RTVSPropertyOp11
 70
     1
102
RTVSPropertyOp12
 70
     1
102
RTVSPropertyOp13
 70
     1
102
RTVSPropertyOp14
 70
     1
102
RTVSPropertyOp15
 70
     1
102
RTVSPropertyOp16
 70
     1
102
RTVSPropertyOp17
 70
     1
102
RTVSPropertyOp18
 70
     1
102
RTVSPropertyOp19
 70
     1
102
RTVSPropertyOp20
 70
     1
102
RTVSPropertyOp21
 70
     1
102
RTVSPropertyOp22
 70
     1
102
RTVSPropertyOp23
 70
     1
102
RTVSPropertyOp24
 70
     1
102
RTVSPropertyOp25
 70
     1
102
RTVSPropertyOp26
 70
     1
102
RTVSPropertyOp27
 70
     1
102
RTVSPropertyOp28
 70
     1
102
RTVSPropertyOp29
 70
     1
102
RTVSPropertyOp30
 70
     1
102
RTVSPropertyOp31
 70
     1
102
RTVSPropertyOp32
 70
     1
  0
XRECORD
  5
1041
102
{ACAD_REACTORS
330
1040
102
}
330
1040
100
AcDbXrecord
280
     1
102
RTVSPropertyOp0
 70
     1
102
RTVSPropertyOp1
 70
     1
102
RTVSPropertyOp2
 70
     1
102
RTVSPropertyOp3
 70
     1
102
RTVSPropertyOp4
 70
     1
102
RTVSPropertyOp5
 70
     1
102
RTVSPropertyOp6
 70
     1
102
RTVSPropertyOp7
 70
     1
102
RTVSPropertyOp8
 70
     1
102
RTVSPropertyOp9
 70
     1
102
RTVSPropertyOp10
 70
     1
102
RTVSPropertyOp11
 70
     1
102
RTVSPropertyOp12
 70
     1
102
RTVSPropertyOp13
 70
     1
102
RTVSPropertyOp14
 70
     1
102
RTVSPropertyOp15
 70
     1
102
RTVSPropertyOp16
 70
     1
102
RTVSPropertyOp17
 70
     1
102
RTVSPropertyOp18
 70
     1
102
RTVSPropertyOp19
 70
     1
102
RTVSPropertyOp20
 70
     1
102
RTVSPropertyOp21
 70
     1
102
RTVSPropertyOp22
 70
     1
102
RTVSPropertyOp23
 70
     1
102
RTVSPropertyOp24
 70
     1
102
RTVSPropertyOp25
 70
     1
102
RTVSPropertyOp26
 70
     1
102
RTVSPropertyOp27
 70
     1
102
RTVSPropertyOp28
 70
     1
102
RTVSPropertyOp29
 70
     1
102
RTVSPropertyOp30
 70
     1
102
RTVSPropertyOp31
 70
     1
102
RTVSPropertyOp32
 70
     1
  0
XRECORD
  5
1043
102
{ACAD_REACTORS
330
1042
102
}
330
1042
100
AcDbXrecord
280
     1
102
RTVSPropertyOp0
 70
     1
102
RTVSPropertyOp1
 70
     1
102
RTVSPropertyOp2
 70
     1
102
RTVSPropertyOp3
 70
     1
102
RTVSPropertyOp4
 70
     1
102
RTVSPropertyOp5
 70
     1
102
RTVSPropertyOp6
 70
     1
102
RTVSPropertyOp7
 70
     1
102
RTVSPropertyOp8
 70
     1
102
RTVSPropertyOp9
 70
     1
102
RTVSPropertyOp10
 70
     1
102
RTVSPropertyOp11
 70
     1
102
RTVSPropertyOp12
 70
     1
102
RTVSPropertyOp13
 70
     1
102
RTVSPropertyOp14
 70
     1
102
RTVSPropertyOp15
 70
     1
102
RTVSPropertyOp16
 70
     1
102
RTVSPropertyOp17
 70
     1
102
RTVSPropertyOp18
 70
     1
102
RTVSPropertyOp19
 70
     1
102
RTVSPropertyOp20
 70
     1
102
RTVSPropertyOp21
 70
     1
102
RTVSPropertyOp22
 70
     1
102
RTVSPropertyOp23
 70
     1
102
RTVSPropertyOp24
 70
     1
102
RTVSPropertyOp25
 70
     1
102
RTVSPropertyOp26
 70
     1
102
RTVSPropertyOp27
 70
     1
102
RTVSPropertyOp28
 70
     1
102
RTVSPropertyOp29
 70
     1
102
RTVSPropertyOp30
 70
     1
102
RTVSPropertyOp31
 70
     1
102
RTVSPropertyOp32
 70
     1
  0
XRECORD
  5
1045
102
{ACAD_REACTORS
330
1044
102
}
330
1044
100
AcDbXrecord
280
     1
102
RTVSPropertyOp0
 70
     1
102
RTVSPropertyOp1
 70
     1
102
RTVSPropertyOp2
 70
     1
102
RTVSPropertyOp3
 70
     1
102
RTVSPropertyOp4
 70
     1
102
RTVSPropertyOp5
 70
     1
102
RTVSPropertyOp6
 70
     1
102
RTVSPropertyOp7
 70
     1
102
RTVSPropertyOp8
 70
     1
102
RTVSPropertyOp9
 70
     1
102
RTVSPropertyOp10
 70
     1
102
RTVSPropertyOp11
 70
     1
102
RTVSPropertyOp12
 70
     1
102
RTVSPropertyOp13
 70
     1
102
RTVSPropertyOp14
 70
     1
102
RTVSPropertyOp15
 70
     1
102
RTVSPropertyOp16
 70
     1
102
RTVSPropertyOp17
 70
     1
102
RTVSPropertyOp18
 70
     1
102
RTVSPropertyOp19
 70
     1
102
RTVSPropertyOp20
 70
     1
102
RTVSPropertyOp21
 70
     1
102
RTVSPropertyOp22
 70
     1
102
RTVSPropertyOp23
 70
     1
102
RTVSPropertyOp24
 70
     1
102
RTVSPropertyOp25
 70
     1
102
RTVSPropertyOp26
 70
     1
102
RTVSPropertyOp27
 70
     1
102
RTVSPropertyOp28
 70
     1
102
RTVSPropertyOp29
 70
     1
102
RTVSPropertyOp30
 70
     1
102
RTVSPropertyOp31
 70
     1
102
RTVSPropertyOp32
 70
     1
  0
XRECORD
  5
1066
102
{ACAD_REACTORS
330
1065
102
}
330
1065
100
AcDbXrecord
280
     1
102
RTVSPropertyOp0
 70
     1
102
RTVSPropertyOp1
 70
     1
102
RTVSPropertyOp2
 70
     1
102
RTVSPropertyOp3
 70
     1
102
RTVSPropertyOp4
 70
     1
102
RTVSPropertyOp5
 70
     1
102
RTVSPropertyOp6
 70
     1
102
RTVSPropertyOp7
 70
     1
102
RTVSPropertyOp8
 70
     1
102
RTVSPropertyOp9
 70
     1
102
RTVSPropertyOp10
 70
     1
102
RTVSPropertyOp11
 70
     1
102
RTVSPropertyOp12
 70
     1
102
RTVSPropertyOp13
 70
     1
102
RTVSPropertyOp14
 70
     1
102
RTVSPropertyOp15
 70
     1
102
RTVSPropertyOp16
 70
     1
102
RTVSPropertyOp17
 70
     1
102
RTVSPropertyOp18
 70
     1
102
RTVSPropertyOp19
 70
     1
102
RTVSPropertyOp20
 70
     1
102
RTVSPropertyOp21
 70
     1
102
RTVSPropertyOp22
 70
     1
102
RTVSPropertyOp23
 70
     1
102
RTVSPropertyOp24
 70
     1
102
RTVSPropertyOp25
 70
     1
102
RTVSPropertyOp26
 70
     1
102
RTVSPropertyOp27
 70
     1
102
RTVSPropertyOp28
 70
     1
102
RTVSPropertyOp29
 70
     1
102
RTVSPropertyOp30
 70
     1
102
RTVSPropertyOp31
 70
     1
102
RTVSPropertyOp32
 70
     1
  0
XRECORD
  5
1072
102
{ACAD_REACTORS
330
1071
102
}
330
1071
100
AcDbXrecord
280
     1
102
RTVSPropertyOp0
 70
     0
102
RTVSPropertyOp1
 70
     0
102
RTVSPropertyOp2
 70
     0
102
RTVSPropertyOp3
 70
     0
102
RTVSPropertyOp4
 70
     0
102
RTVSPropertyOp5
 70
     0
102
RTVSPropertyOp6
 70
     0
102
RTVSPropertyOp7
 70
     0
102
RTVSPropertyOp8
 70
     0
102
RTVSPropertyOp9
 70
     0
102
RTVSPropertyOp10
 70
     0
102
RTVSPropertyOp11
 70
     0
102
RTVSPropertyOp12
 70
     0
102
RTVSPropertyOp13
 70
     0
102
RTVSPropertyOp14
 70
     2
102
RTVSPropertyOp15
 70
     0
102
RTVSPropertyOp16
 70
     0
102
RTVSPropertyOp17
 70
     0
102
RTVSPropertyOp18
 70
     0
102
RTVSPropertyOp19
 70
     0
102
RTVSPropertyOp20
 70
     0
102
RTVSPropertyOp21
 70
     0
102
RTVSPropertyOp22
 70
     0
102
RTVSPropertyOp23
 70
     0
102
RTVSPropertyOp24
 70
     0
102
RTVSPropertyOp25
 70
     0
102
RTVSPropertyOp26
 70
     0
102
RTVSPropertyOp27
 70
     0
102
RTVSPropertyOp28
 70
     0
102
RTVSPropertyOp29
 70
     0
102
RTVSPropertyOp30
 70
     0
102
RTVSPropertyOp31
 70
     0
102
RTVSPropertyOp32
 70
     0
  0
XRECORD
  5
1059
102
{ACAD_REACTORS
330
1058
102
}
330
1058
100
AcDbXrecord
280
     1
102
RTVSPropertyOp0
 70
     1
102
RTVSPropertyOp1
 70
     1
102
RTVSPropertyOp2
 70
     1
102
RTVSPropertyOp3
 70
     1
102
RTVSPropertyOp4
 70
     1
102
RTVSPropertyOp5
 70
     1
102
RTVSPropertyOp6
 70
     1
102
RTVSPropertyOp7
 70
     1
102
RTVSPropertyOp8
 70
     1
102
RTVSPropertyOp9
 70
     1
102
RTVSPropertyOp10
 70
     1
102
RTVSPropertyOp11
 70
     1
102
RTVSPropertyOp12
 70
     1
102
RTVSPropertyOp13
 70
     1
102
RTVSPropertyOp14
 70
     1
102
RTVSPropertyOp15
 70
     1
102
RTVSPropertyOp16
 70
     1
102
RTVSPropertyOp17
 70
     1
102
RTVSPropertyOp18
 70
     1
102
RTVSPropertyOp19
 70
     1
102
RTVSPropertyOp20
 70
     1
102
RTVSPropertyOp21
 70
     1
102
RTVSPropertyOp22
 70
     1
102
RTVSPropertyOp23
 70
     1
102
RTVSPropertyOp24
 70
     1
102
RTVSPropertyOp25
 70
     1
102
RTVSPropertyOp26
 70
     1
102
RTVSPropertyOp27
 70
     1
102
RTVSPropertyOp28
 70
     1
102
RTVSPropertyOp29
 70
     1
102
RTVSPropertyOp30
 70
     1
102
RTVSPropertyOp31
 70
     1
102
RTVSPropertyOp32
 70
     1
  0
XRECORD
  5
1074
102
{ACAD_REACTORS
330
1073
102
}
330
1073
100
AcDbXrecord
280
     1
102
RTVSPropertyOp0
 70
     0
102
RTVSPropertyOp1
 70
     0
102
RTVSPropertyOp2
 70
     0
102
RTVSPropertyOp3
 70
     0
102
RTVSPropertyOp4
 70
     0
102
RTVSPropertyOp5
 70
     0
102
RTVSPropertyOp6
 70
     0
102
RTVSPropertyOp7
 70
     0
102
RTVSPropertyOp8
 70
     0
102
RTVSPropertyOp9
 70
     0
102
RTVSPropertyOp10
 70
     0
102
RTVSPropertyOp11
 70
     0
102
RTVSPropertyOp12
 70
     0
102
RTVSPropertyOp13
 70
     0
102
RTVSPropertyOp14
 70
     2
102
RTVSPropertyOp15
 70
     0
102
RTVSPropertyOp16
 70
     0
102
RTVSPropertyOp17
 70
     0
102
RTVSPropertyOp18
 70
     0
102
RTVSPropertyOp19
 70
     0
102
RTVSPropertyOp20
 70
     0
102
RTVSPropertyOp21
 70
     0
102
RTVSPropertyOp22
 70
     0
102
RTVSPropertyOp23
 70
     0
102
RTVSPropertyOp24
 70
     0
102
RTVSPropertyOp25
 70
     0
102
RTVSPropertyOp26
 70
     0
102
RTVSPropertyOp27
 70
     0
102
RTVSPropertyOp28
 70
     0
102
RTVSPropertyOp29
 70
     0
102
RTVSPropertyOp30
 70
     0
102
RTVSPropertyOp31
 70
     0
102
RTVSPropertyOp32
 70
     0
  0
XRECORD
  5
1051
102
{ACAD_REACTORS
330
1050
102
}
330
1050
100
AcDbXrecord
280
     1
102
RTVSPropertyOp0
 70
     1
102
RTVSPropertyOp1
 70
     1
102
RTVSPropertyOp2
 70
     1
102
RTVSPropertyOp3
 70
     1
102
RTVSPropertyOp4
 70
     1
102
RTVSPropertyOp5
 70
     1
102
RTVSPropertyOp6
 70
     1
102
RTVSPropertyOp7
 70
     1
102
RTVSPropertyOp8
 70
     1
102
RTVSPropertyOp9
 70
     1
102
RTVSPropertyOp10
 70
     1
102
RTVSPropertyOp11
 70
     1
102
RTVSPropertyOp12
 70
     1
102
RTVSPropertyOp13
 70
     1
102
RTVSPropertyOp14
 70
     1
102
RTVSPropertyOp15
 70
     1
102
RTVSPropertyOp16
 70
     1
102
RTVSPropertyOp17
 70
     1
102
RTVSPropertyOp18
 70
     1
102
RTVSPropertyOp19
 70
     1
102
RTVSPropertyOp20
 70
     1
102
RTVSPropertyOp21
 70
     1
102
RTVSPropertyOp22
 70
     1
102
RTVSPropertyOp23
 70
     1
102
RTVSPropertyOp24
 70
     1
102
RTVSPropertyOp25
 70
     1
102
RTVSPropertyOp26
 70
     1
102
RTVSPropertyOp27
 70
     1
102
RTVSPropertyOp28
 70
     1
102
RTVSPropertyOp29
 70
     1
102
RTVSPropertyOp30
 70
     1
102
RTVSPropertyOp31
 70
     1
102
RTVSPropertyOp32
 70
     1
  0
XRECORD
  5
1070
102
{ACAD_REACTORS
330
106F
102
}
330
106F
100
AcDbXrecord
280
     1
102
RTVSPropertyOp0
 70
     1
102
RTVSPropertyOp1
 70
     1
102
RTVSPropertyOp2
 70
     1
102
RTVSPropertyOp3
 70
     1
102
RTVSPropertyOp4
 70
     1
102
RTVSPropertyOp5
 70
     1
102
RTVSPropertyOp6
 70
     1
102
RTVSPropertyOp7
 70
     1
102
RTVSPropertyOp8
 70
     1
102
RTVSPropertyOp9
 70
     1
102
RTVSPropertyOp10
 70
     1
102
RTVSPropertyOp11
 70
     1
102
RTVSPropertyOp12
 70
     1
102
RTVSPropertyOp13
 70
     1
102
RTVSPropertyOp14
 70
     1
102
RTVSPropertyOp15
 70
     1
102
RTVSPropertyOp16
 70
     1
102
RTVSPropertyOp17
 70
     1
102
RTVSPropertyOp18
 70
     1
102
RTVSPropertyOp19
 70
     1
102
RTVSPropertyOp20
 70
     1
102
RTVSPropertyOp21
 70
     1
102
RTVSPropertyOp22
 70
     1
102
RTVSPropertyOp23
 70
     1
102
RTVSPropertyOp24
 70
     1
102
RTVSPropertyOp25
 70
     1
102
RTVSPropertyOp26
 70
     1
102
RTVSPropertyOp27
 70
     1
102
RTVSPropertyOp28
 70
     1
102
RTVSPropertyOp29
 70
     1
102
RTVSPropertyOp30
 70
     1
102
RTVSPropertyOp31
 70
     1
102
RTVSPropertyOp32
 70
     1
  0
XRECORD
  5
106E
102
{ACAD_REACTORS
330
106D
102
}
330
106D
100
AcDbXrecord
280
     1
102
RTVSPropertyOp0
 70
     1
102
RTVSPropertyOp1
 70
     1
102
RTVSPropertyOp2
 70
     1
102
RTVSPropertyOp3
 70
     1
102
RTVSPropertyOp4
 70
     1
102
RTVSPropertyOp5
 70
     1
102
RTVSPropertyOp6
 70
     1
102
RTVSPropertyOp7
 70
     1
102
RTVSPropertyOp8
 70
     1
102
RTVSPropertyOp9
 70
     1
102
RTVSPropertyOp10
 70
     1
102
RTVSPropertyOp11
 70
     1
102
RTVSPropertyOp12
 70
     1
102
RTVSPropertyOp13
 70
     1
102
RTVSPropertyOp14
 70
     1
102
RTVSPropertyOp15
 70
     1
102
RTVSPropertyOp16
 70
     1
102
RTVSPropertyOp17
 70
     1
102
RTVSPropertyOp18
 70
     1
102
RTVSPropertyOp19
 70
     1
102
RTVSPropertyOp20
 70
     1
102
RTVSPropertyOp21
 70
     1
102
RTVSPropertyOp22
 70
     1
102
RTVSPropertyOp23
 70
     1
102
RTVSPropertyOp24
 70
     1
102
RTVSPropertyOp25
 70
     1
102
RTVSPropertyOp26
 70
     1
102
RTVSPropertyOp27
 70
     1
102
RTVSPropertyOp28
 70
     1
102
RTVSPropertyOp29
 70
     1
102
RTVSPropertyOp30
 70
     1
102
RTVSPropertyOp31
 70
     1
102
RTVSPropertyOp32
 70
     1
  0
XRECORD
  5
1068
102
{ACAD_REACTORS
330
1067
102
}
330
1067
100
AcDbXrecord
280
     1
102
RTVSPropertyOp0
 70
     1
102
RTVSPropertyOp1
 70
     1
102
RTVSPropertyOp2
 70
     1
102
RTVSPropertyOp3
 70
     1
102
RTVSPropertyOp4
 70
     1
102
RTVSPropertyOp5
 70
     1
102
RTVSPropertyOp6
 70
     1
102
RTVSPropertyOp7
 70
     1
102
RTVSPropertyOp8
 70
     1
102
RTVSPropertyOp9
 70
     1
102
RTVSPropertyOp10
 70
     1
102
RTVSPropertyOp11
 70
     1
102
RTVSPropertyOp12
 70
     1
102
RTVSPropertyOp13
 70
     1
102
RTVSPropertyOp14
 70
     1
102
RTVSPropertyOp15
 70
     1
102
RTVSPropertyOp16
 70
     1
102
RTVSPropertyOp17
 70
     1
102
RTVSPropertyOp18
 70
     1
102
RTVSPropertyOp19
 70
     1
102
RTVSPropertyOp20
 70
     1
102
RTVSPropertyOp21
 70
     1
102
RTVSPropertyOp22
 70
     1
102
RTVSPropertyOp23
 70
     1
102
RTVSPropertyOp24
 70
     1
102
RTVSPropertyOp25
 70
     1
102
RTVSPropertyOp26
 70
     1
102
RTVSPropertyOp27
 70
     1
102
RTVSPropertyOp28
 70
     1
102
RTVSPropertyOp29
 70
     1
102
RTVSPropertyOp30
 70
     1
102
RTVSPropertyOp31
 70
     1
102
RTVSPropertyOp32
 70
     1
  0
XRECORD
  5
106A
102
{ACAD_REACTORS
330
1069
102
}
330
1069
100
AcDbXrecord
280
     1
102
RTVSPropertyOp0
 70
     1
102
RTVSPropertyOp1
 70
     1
102
RTVSPropertyOp2
 70
     1
102
RTVSPropertyOp3
 70
     1
102
RTVSPropertyOp4
 70
     1
102
RTVSPropertyOp5
 70
     1
102
RTVSPropertyOp6
 70
     1
102
RTVSPropertyOp7
 70
     1
102
RTVSPropertyOp8
 70
     1
102
RTVSPropertyOp9
 70
     1
102
RTVSPropertyOp10
 70
     1
102
RTVSPropertyOp11
 70
     1
102
RTVSPropertyOp12
 70
     1
102
RTVSPropertyOp13
 70
     1
102
RTVSPropertyOp14
 70
     1
102
RTVSPropertyOp15
 70
     1
102
RTVSPropertyOp16
 70
     1
102
RTVSPropertyOp17
 70
     1
102
RTVSPropertyOp18
 70
     1
102
RTVSPropertyOp19
 70
     1
102
RTVSPropertyOp20
 70
     1
102
RTVSPropertyOp21
 70
     1
102
RTVSPropertyOp22
 70
     1
102
RTVSPropertyOp23
 70
     1
102
RTVSPropertyOp24
 70
     1
102
RTVSPropertyOp25
 70
     1
102
RTVSPropertyOp26
 70
     1
102
RTVSPropertyOp27
 70
     1
102
RTVSPropertyOp28
 70
     1
102
RTVSPropertyOp29
 70
     1
102
RTVSPropertyOp30
 70
     1
102
RTVSPropertyOp31
 70
     1
102
RTVSPropertyOp32
 70
     1
  0
XRECORD
  5
1057
102
{ACAD_REACTORS
330
1056
102
}
330
1056
100
AcDbXrecord
280
     1
102
RTVSPropertyOp0
 70
     1
102
RTVSPropertyOp1
 70
     1
102
RTVSPropertyOp2
 70
     1
102
RTVSPropertyOp3
 70
     1
102
RTVSPropertyOp4
 70
     1
102
RTVSPropertyOp5
 70
     1
102
RTVSPropertyOp6
 70
     1
102
RTVSPropertyOp7
 70
     1
102
RTVSPropertyOp8
 70
     1
102
RTVSPropertyOp9
 70
     1
102
RTVSPropertyOp10
 70
     1
102
RTVSPropertyOp11
 70
     1
102
RTVSPropertyOp12
 70
     1
102
RTVSPropertyOp13
 70
     1
102
RTVSPropertyOp14
 70
     1
102
RTVSPropertyOp15
 70
     1
102
RTVSPropertyOp16
 70
     1
102
RTVSPropertyOp17
 70
     1
102
RTVSPropertyOp18
 70
     1
102
RTVSPropertyOp19
 70
     1
102
RTVSPropertyOp20
 70
     1
102
RTVSPropertyOp21
 70
     1
102
RTVSPropertyOp22
 70
     1
102
RTVSPropertyOp23
 70
     1
102
RTVSPropertyOp24
 70
     1
102
RTVSPropertyOp25
 70
     1
102
RTVSPropertyOp26
 70
     1
102
RTVSPropertyOp27
 70
     1
102
RTVSPropertyOp28
 70
     1
102
RTVSPropertyOp29
 70
     1
102
RTVSPropertyOp30
 70
     1
102
RTVSPropertyOp31
 70
     1
102
RTVSPropertyOp32
 70
     1
  0
XRECORD
  5
1064
102
{ACAD_REACTORS
330
1063
102
}
330
1063
100
AcDbXrecord
280
     1
102
RTVSPropertyOp0
 70
     1
102
RTVSPropertyOp1
 70
     1
102
RTVSPropertyOp2
 70
     1
102
RTVSPropertyOp3
 70
     1
102
RTVSPropertyOp4
 70
     1
102
RTVSPropertyOp5
 70
     1
102
RTVSPropertyOp6
 70
     1
102
RTVSPropertyOp7
 70
     1
102
RTVSPropertyOp8
 70
     1
102
RTVSPropertyOp9
 70
     1
102
RTVSPropertyOp10
 70
     1
102
RTVSPropertyOp11
 70
     1
102
RTVSPropertyOp12
 70
     1
102
RTVSPropertyOp13
 70
     1
102
RTVSPropertyOp14
 70
     1
102
RTVSPropertyOp15
 70
     1
102
RTVSPropertyOp16
 70
     1
102
RTVSPropertyOp17
 70
     1
102
RTVSPropertyOp18
 70
     1
102
RTVSPropertyOp19
 70
     1
102
RTVSPropertyOp20
 70
     1
102
RTVSPropertyOp21
 70
     1
102
RTVSPropertyOp22
 70
     1
102
RTVSPropertyOp23
 70
     1
102
RTVSPropertyOp24
 70
     1
102
RTVSPropertyOp25
 70
     1
102
RTVSPropertyOp26
 70
     1
102
RTVSPropertyOp27
 70
     1
102
RTVSPropertyOp28
 70
     1
102
RTVSPropertyOp29
 70
     1
102
RTVSPropertyOp30
 70
     1
102
RTVSPropertyOp31
 70
     1
102
RTVSPropertyOp32
 70
     1
  0
XRECORD
  5
106C
102
{ACAD_REACTORS
330
106B
102
}
330
106B
100
AcDbXrecord
280
     1
102
RTVSPropertyOp0
 70
     1
102
RTVSPropertyOp1
 70
     1
102
RTVSPropertyOp2
 70
     1
102
RTVSPropertyOp3
 70
     1
102
RTVSPropertyOp4
 70
     1
102
RTVSPropertyOp5
 70
     1
102
RTVSPropertyOp6
 70
     1
102
RTVSPropertyOp7
 70
     1
102
RTVSPropertyOp8
 70
     1
102
RTVSPropertyOp9
 70
     1
102
RTVSPropertyOp10
 70
     1
102
RTVSPropertyOp11
 70
     1
102
RTVSPropertyOp12
 70
     1
102
RTVSPropertyOp13
 70
     1
102
RTVSPropertyOp14
 70
     1
102
RTVSPropertyOp15
 70
     1
102
RTVSPropertyOp16
 70
     1
102
RTVSPropertyOp17
 70
     1
102
RTVSPropertyOp18
 70
     1
102
RTVSPropertyOp19
 70
     1
102
RTVSPropertyOp20
 70
     1
102
RTVSPropertyOp21
 70
     1
102
RTVSPropertyOp22
 70
     1
102
RTVSPropertyOp23
 70
     1
102
RTVSPropertyOp24
 70
     1
102
RTVSPropertyOp25
 70
     1
102
RTVSPropertyOp26
 70
     1
102
RTVSPropertyOp27
 70
     1
102
RTVSPropertyOp28
 70
     1
102
RTVSPropertyOp29
 70
     1
102
RTVSPropertyOp30
 70
     1
102
RTVSPropertyOp31
 70
     1
102
RTVSPropertyOp32
 70
     1
  0
ENDSEC
  0
EOF
