  0
SECTION
  2
HEADER
  9
$ACADVER
  1
AC1015
  9
$ACADMAINTVER
 70
    20
  9
$DWGCODEPAGE
  3
ANSI_932
  9
$INSBASE
 10
0.0
 20
0.0
 30
0.0
  9
$EXTMIN
 10
-676.3939352058962
 20
-653.7746093244038
 30
0.0
  9
$EXTMAX
 10
-270.0189352058964
 20
-373.9993434244038
 30
0.0
  9
$LIMMIN
 10
-203.996346
 20
-647.555932
  9
$LIMMAX
 10
201.028649
 20
-370.532295
  9
$ORTHOMODE
 70
     1
  9
$REGENMODE
 70
     1
  9
$FILLMODE
 70
     1
  9
$QTEXTMODE
 70
     0
  9
$MIRRTEXT
 70
     0
  9
$LTSCALE
 40
6.750383
  9
$ATTMODE
 70
     1
  9
$TEXTSIZE
 40
3.2
  9
$TRACEWID
 40
0.05
  9
$TEXTSTYLE
  7
高3.2
  9
$CLAYER
  8
0
  9
$CELTYPE
  6
ByLayer
  9
$CECOLOR
 62
   256
  9
$CELTSCALE
 40
1.0
  9
$DISPSILH
 70
     0
  9
$DIMSCALE
 40
1.0
  9
$DIMASZ
 40
2.5
  9
$DIMEXO
 40
0.25
  9
$DIMDLI
 40
0.2
  9
$DIMRND
 40
0.0
  9
$DIMDLE
 40
0.0
  9
$DIMEXE
 40
1.25
  9
$DIMTP
 40
0.0
  9
$DIMTM
 40
0.0
  9
$DIMTXT
 40
3.0
  9
$DIMCEN
 40
0.0
  9
$DIMTSZ
 40
0.0
  9
$DIMTOL
 70
     0
  9
$DIMLIM
 70
     0
  9
$DIMTIH
 70
     0
  9
$DIMTOH
 70
     0
  9
$DIMSE1
 70
     0
  9
$DIMSE2
 70
     0
  9
$DIMTAD
 70
     3
  9
$DIMZIN
 70
     8
  9
$DIMBLK
  1
Open30
  9
$DIMASO
 70
     1
  9
$DIMSHO
 70
     1
  9
$DIMPOST
  1

  9
$DIMAPOST
  1

  9
$DIMALT
 70
     0
  9
$DIMALTD
 70
     3
  9
$DIMALTF
 40
0.03937007874016
  9
$DIMLFAC
 40
1.0
  9
$DIMTOFL
 70
     1
  9
$DIMTVP
 40
0.0
  9
$DIMTIX
 70
     0
  9
$DIMSOXD
 70
     0
  9
$DIMSAH
 70
     0
  9
$DIMBLK1
  1

  9
$DIMBLK2
  1

  9
$DIMSTYLE
  2
1：1
  9
$DIMCLRD
 70
     0
  9
$DIMCLRE
 70
     0
  9
$DIMCLRT
 70
     4
  9
$DIMTFAC
 40
1.0
  9
$DIMGAP
 40
0.625
  9
$DIMJUST
 70
     0
  9
$DIMSD1
 70
     0
  9
$DIMSD2
 70
     0
  9
$DIMTOLJ
 70
     0
  9
$DIMTZIN
 70
     8
  9
$DIMALTZ
 70
     0
  9
$DIMALTTZ
 70
     0
  9
$DIMUPT
 70
     1
  9
$DIMDEC
 70
     2
  9
$DIMTDEC
 70
     2
  9
$DIMALTU
 70
     2
  9
$DIMALTTD
 70
     3
  9
$DIMTXSTY
  7
STANDARD
  9
$DIMAUNIT
 70
     0
  9
$DIMADEC
 70
     1
  9
$DIMALTRND
 40
0.0
  9
$DIMAZIN
 70
     2
  9
$DIMDSEP
 70
    46
  9
$DIMATFIT
 70
     0
  9
$DIMFRAC
 70
     0
  9
$DIMLDRBLK
  1
Open30
  9
$DIMLUNIT
 70
     2
  9
$DIMLWD
 70
    -2
  9
$DIMLWE
 70
    -2
  9
$DIMTMOVE
 70
     0
  9
$LUNITS
 70
     2
  9
$LUPREC
 70
     4
  9
$SKETCHINC
 40
0.1
  9
$FILLETRAD
 40
0.0
  9
$AUNITS
 70
     0
  9
$AUPREC
 70
     0
  9
$MENU
  1
.
  9
$ELEVATION
 40
0.0
  9
$PELEVATION
 40
0.0
  9
$THICKNESS
 40
0.0
  9
$LIMCHECK
 70
     0
  9
$CHAMFERA
 40
0.0
  9
$CHAMFERB
 40
0.0
  9
$CHAMFERC
 40
0.0
  9
$CHAMFERD
 40
0.0
  9
$SKPOLY
 70
     0
  9
$TDCREATE
 40
2456321.660869282
  9
$TDUCREATE
 40
2456321.285869282
  9
$TDUPDATE
 40
2459793.733887662
  9
$TDUUPDATE
 40
2459793.358887662
  9
$TDINDWG
 40
0.2930373495
  9
$TDUSRTIMER
 40
0.2930371644
  9
$USRTIMER
 70
     1
  9
$ANGBASE
 50
0.0
  9
$ANGDIR
 70
     0
  9
$PDMODE
 70
     0
  9
$PDSIZE
 40
0.0
  9
$PLINEWID
 40
0.0
  9
$SPLFRAME
 70
     0
  9
$SPLINETYPE
 70
     6
  9
$SPLINESEGS
 70
     8
  9
$HANDSEED
  5
D94
  9
$SURFTAB1
 70
     6
  9
$SURFTAB2
 70
     6
  9
$SURFTYPE
 70
     6
  9
$SURFU
 70
     6
  9
$SURFV
 70
     6
  9
$UCSBASE
  2

  9
$UCSNAME
  2

  9
$UCSORG
 10
0.0
 20
0.0
 30
0.0
  9
$UCSXDIR
 10
1.0
 20
0.0
 30
0.0
  9
$UCSYDIR
 10
0.0
 20
1.0
 30
0.0
  9
$UCSORTHOREF
  2

  9
$UCSORTHOVIEW
 70
     0
  9
$UCSORGTOP
 10
0.0
 20
0.0
 30
0.0
  9
$UCSORGBOTTOM
 10
0.0
 20
0.0
 30
0.0
  9
$UCSORGLEFT
 10
0.0
 20
0.0
 30
0.0
  9
$UCSORGRIGHT
 10
0.0
 20
0.0
 30
0.0
  9
$UCSORGFRONT
 10
0.0
 20
0.0
 30
0.0
  9
$UCSORGBACK
 10
0.0
 20
0.0
 30
0.0
  9
$PUCSBASE
  2

  9
$PUCSNAME
  2

  9
$PUCSORG
 10
0.0
 20
0.0
 30
0.0
  9
$PUCSXDIR
 10
1.0
 20
0.0
 30
0.0
  9
$PUCSYDIR
 10
0.0
 20
1.0
 30
0.0
  9
$PUCSORTHOREF
  2

  9
$PUCSORTHOVIEW
 70
     0
  9
$PUCSORGTOP
 10
0.0
 20
0.0
 30
0.0
  9
$PUCSORGBOTTOM
 10
0.0
 20
0.0
 30
0.0
  9
$PUCSORGLEFT
 10
0.0
 20
0.0
 30
0.0
  9
$PUCSORGRIGHT
 10
0.0
 20
0.0
 30
0.0
  9
$PUCSORGFRONT
 10
0.0
 20
0.0
 30
0.0
  9
$PUCSORGBACK
 10
0.0
 20
0.0
 30
0.0
  9
$USERI1
 70
     0
  9
$USERI2
 70
     0
  9
$USERI3
 70
     0
  9
$USERI4
 70
     0
  9
$USERI5
 70
     0
  9
$USERR1
 40
0.0
  9
$USERR2
 40
0.0
  9
$USERR3
 40
0.0
  9
$USERR4
 40
0.0
  9
$USERR5
 40
0.0
  9
$WORLDVIEW
 70
     1
  9
$SHADEDGE
 70
     3
  9
$SHADEDIF
 70
    70
  9
$TILEMODE
 70
     1
  9
$MAXACTVP
 70
    64
  9
$PINSBASE
 10
0.0
 20
0.0
 30
0.0
  9
$PLIMCHECK
 70
     0
  9
$PEXTMIN
 10
1.000000000000000E+20
 20
1.000000000000000E+20
 30
1.000000000000000E+20
  9
$PEXTMAX
 10
-1.000000000000000E+20
 20
-1.000000000000000E+20
 30
-1.000000000000000E+20
  9
$PLIMMIN
 10
0.0
 20
0.0
  9
$PLIMMAX
 10
12.0
 20
9.0
  9
$UNITMODE
 70
     0
  9
$VISRETAIN
 70
     1
  9
$PLINEGEN
 70
     0
  9
$PSLTSCALE
 70
     1
  9
$TREEDEPTH
 70
  3020
  9
$CMLSTYLE
  2
Standard
  9
$CMLJUST
 70
     0
  9
$CMLSCALE
 40
1.0
  9
$PROXYGRAPHICS
 70
     1
  9
$MEASUREMENT
 70
     0
  9
$CELWEIGHT
370
    -1
  9
$ENDCAPS
280
     0
  9
$JOINSTYLE
280
     0
  9
$LWDISPLAY
290
     0
  9
$INSUNITS
 70
     0
  9
$HYPERLINKBASE
  1

  9
$STYLESHEET
  1

  9
$XEDIT
290
     1
  9
$CEPSNTYPE
380
     0
  9
$PSTYLEMODE
290
     1
  9
$FINGERPRINTGUID
  2
{66BE2741-1909-4543-908A-A31A8E7CBACC}
  9
$VERSIONGUID
  2
{1EA4EB2D-B618-4B78-ACE1-66D5B525B4DA}
  9
$EXTNAMES
290
     1
  9
$PSVPSCALE
 40
0.0
  9
$OLESTARTUP
290
     0
  0
ENDSEC
  0
SECTION
  2
CLASSES
  0
CLASS
  1
ACDBDICTIONARYWDFLT
  2
AcDbDictionaryWithDefault
  3
ObjectDBX Classes
 90
        0
280
     0
281
     0
  0
CLASS
  1
MATERIAL
  2
AcDbMaterial
  3
ObjectDBX Classes
 90
     1153
280
     0
281
     0
  0
CLASS
  1
VISUALSTYLE
  2
AcDbVisualStyle
  3
ObjectDBX Classes
 90
     4095
280
     0
281
     0
  0
CLASS
  1
SCALE
  2
AcDbScale
  3
ObjectDBX Classes
 90
     1153
280
     0
281
     0
  0
CLASS
  1
TABLESTYLE
  2
AcDbTableStyle
  3
ObjectDBX Classes
 90
     4095
280
     0
281
     0
  0
CLASS
  1
MLEADERSTYLE
  2
AcDbMLeaderStyle
  3
ACDB_MLEADERSTYLE_CLASS
 90
     4095
280
     0
281
     0
  0
CLASS
  1
SORTENTSTABLE
  2
AcDbSortentsTable
  3
ObjectDBX Classes
 90
        0
280
     0
281
     0
  0
CLASS
  1
DICTIONARYVAR
  2
AcDbDictionaryVar
  3
ObjectDBX Classes
 90
        0
280
     0
281
     0
  0
CLASS
  1
CELLSTYLEMAP
  2
AcDbCellStyleMap
  3
ObjectDBX Classes
 90
     1152
280
     0
281
     0
  0
CLASS
  1
ACDBPLACEHOLDER
  2
AcDbPlaceHolder
  3
ObjectDBX Classes
 90
        0
280
     0
281
     0
  0
CLASS
  1
LAYOUT
  2
AcDbLayout
  3
ObjectDBX Classes
 90
        0
280
     0
281
     0
  0
CLASS
  1
AEC_REFEDIT_STATUS_TRACKER
  2
AecDbRefEditStatusTracker
  3
AecArchBase60|Product Desc: Autodesk Architectural Desktop 2007 |Company: Autodesk,Inc. |WEB Address: www.autodesk.com
 90
      129
280
     0
281
     0
  0
CLASS
  1
NPOCOLLECTION
  2
AcDbImpNonPersistentObjectsCollection
  3
ObjectDBX Classes
 90
     1153
280
     0
281
     0
  0
ENDSEC
  0
SECTION
  2
TABLES
  0
TABLE
  2
VPORT
  5
8
330
0
100
AcDbSymbolTable
 70
     1
  0
VPORT
  5
8C
330
8
100
AcDbSymbolTableRecord
100
AcDbViewportTableRecord
  2
*Active
 70
     0
 10
0.0
 20
0.0
 11
1.0
 21
1.0
 12
-376.1588889336626
 22
-581.4137341119251
 13
0.0
 23
0.0
 14
1.0
 24
1.0
 15
0.0
 25
0.0
 16
0.0
 26
0.0
 36
1.0
 17
0.0
 27
0.0
 37
0.0
 40
943.1486595612565
 41
1.184678522571819
 42
50.0
 43
0.0
 44
0.0
 50
0.0
 51
0.0
 71
     0
 72
   100
 73
     1
 74
     1
 75
     0
 76
     0
 77
     0
 78
     0
281
     0
 65
     1
110
0.0
120
0.0
130
0.0
111
1.0
121
0.0
131
0.0
112
0.0
122
1.0
132
0.0
 79
     0
146
0.0
  0
ENDTAB
  0
TABLE
  2
LTYPE
  5
5
330
0
100
AcDbSymbolTable
 70
     6
  0
LTYPE
  5
5A
330
5
100
AcDbSymbolTableRecord
100
AcDbLinetypeTableRecord
  2
ByBlock
 70
     0
  3

 72
    65
 73
     0
 40
0.0
  0
LTYPE
  5
5B
330
5
100
AcDbSymbolTableRecord
100
AcDbLinetypeTableRecord
  2
ByLayer
 70
     0
  3

 72
    65
 73
     0
 40
0.0
  0
LTYPE
  5
5C
330
5
100
AcDbSymbolTableRecord
100
AcDbLinetypeTableRecord
  2
CONTINUOUS
 70
     0
  3
Solid-line
 72
    65
 73
     0
 40
0.0
  0
LTYPE
  5
78
330
5
100
AcDbSymbolTableRecord
100
AcDbLinetypeTableRecord
  2
DASHED
 70
     0
  3
DASHED
 72
    65
 73
     2
 40
0.75
 49
0.5
 74
     0
 49
-0.25
 74
     0
  0
LTYPE
  5
81
330
5
100
AcDbSymbolTableRecord
100
AcDbLinetypeTableRecord
  2
HIDDEN
 70
     0
  3
HIDDEN
 72
    65
 73
     2
 40
0.375
 49
0.25
 74
     0
 49
-0.125
 74
     0
  0
LTYPE
  5
84
330
5
100
AcDbSymbolTableRecord
100
AcDbLinetypeTableRecord
  2
PHANTOM
 70
     0
  3
PHANTOM
 72
    65
 73
     6
 40
2.5
 49
1.25
 74
     0
 49
-0.25
 74
     0
 49
0.25
 74
     0
 49
-0.25
 74
     0
 49
0.25
 74
     0
 49
-0.25
 74
     0
  0
ENDTAB
  0
TABLE
  2
LAYER
  5
2
102
{ACAD_XDICTIONARY
360
4B2
102
}
330
0
100
AcDbSymbolTable
 70
     2
  0
LAYER
  5
54
102
{ACAD_XDICTIONARY
360
96C
102
}
330
2
100
AcDbSymbolTableRecord
100
AcDbLayerTableRecord
  2
0
 70
     0
 62
     7
  6
CONTINUOUS
370
    -3
390
F
  0
LAYER
  5
699
330
2
100
AcDbSymbolTableRecord
100
AcDbLayerTableRecord
  2
Defpoints
 70
     0
 62
     7
  6
CONTINUOUS
290
     0
370
    -3
390
F
  0
ENDTAB
  0
TABLE
  2
STYLE
  5
3
330
0
100
AcDbSymbolTable
 70
     6
  0
STYLE
  5
55
330
3
100
AcDbSymbolTableRecord
100
AcDbTextStyleTableRecord
  2
STANDARD
 70
     0
 40
0.0
 41
1.0
 50
0.0
 71
     0
 42
0.2
  3
TXT
  4
BIGFONT
  0
STYLE
  5
4A7
330
3
100
AcDbSymbolTableRecord
100
AcDbTextStyleTableRecord
  2
高3.2
 70
     0
 40
3.2
 41
1.0
 50
0.0
 71
     0
 42
3.2
  3
txt.shx
  4
bigfont.shx
  0
STYLE
  5
4A8
330
3
100
AcDbSymbolTableRecord
100
AcDbTextStyleTableRecord
  2
高6.3
 70
     0
 40
6.299999999999998
 41
1.0
 50
0.0
 71
     0
 42
6.299999999999998
  3
txt.shx
  4
bigfont.shx
  0
STYLE
  5
4A9
330
3
100
AcDbSymbolTableRecord
100
AcDbTextStyleTableRecord
  2
高2.5
 70
     0
 40
2.5
 41
1.0
 50
0.0
 71
     0
 42
0.2
  3
txt.shx
  4
bigfont.shx
  0
STYLE
  5
4AA
330
3
100
AcDbSymbolTableRecord
100
AcDbTextStyleTableRecord
  2
高4.5
 70
     0
 40
4.5
 41
1.0
 50
0.0
 71
     0
 42
6.299999999999998
  3
txt.shx
  4
bigfont.shx
  0
STYLE
  5
4AB
330
3
100
AcDbSymbolTableRecord
100
AcDbTextStyleTableRecord
  2
高2
 70
     0
 40
2.0
 41
1.0
 50
0.0
 71
     0
 42
6.299999999999998
  3
txt.shx
  4
bigfont.shx
  0
ENDTAB
  0
TABLE
  2
VIEW
  5
6
330
0
100
AcDbSymbolTable
 70
     0
  0
ENDTAB
  0
TABLE
  2
UCS
  5
7
330
0
100
AcDbSymbolTable
 70
     0
  0
ENDTAB
  0
TABLE
  2
APPID
  5
9
330
0
100
AcDbSymbolTable
 70
     7
  0
APPID
  5
56
330
9
100
AcDbSymbolTableRecord
100
AcDbRegAppTableRecord
  2
ACAD
 70
     0
  0
APPID
  5
5D
330
9
100
AcDbSymbolTableRecord
100
AcDbRegAppTableRecord
  2
AcadAnnotative
 70
     0
  0
APPID
  5
4B1
330
9
100
AcDbSymbolTableRecord
100
AcDbRegAppTableRecord
  2
ACAD_DSTYLE_DIMJOGGED_JOGANGLE_SYMBOL
 70
     0
  0
APPID
  5
7B0
330
9
100
AcDbSymbolTableRecord
100
AcDbRegAppTableRecord
  2
ACAD_EXEMPT_FROM_CAD_STANDARDS
 70
     0
  0
APPID
  5
9F7
330
9
100
AcDbSymbolTableRecord
100
AcDbRegAppTableRecord
  2
ACAD_MLEADERVER
 70
     0
  0
APPID
  5
9FC
330
9
100
AcDbSymbolTableRecord
100
AcDbRegAppTableRecord
  2
ACAD_DSTYLE_DIMARC_LENGTH_SYMBOL
 70
     0
  0
APPID
  5
9FD
330
9
100
AcDbSymbolTableRecord
100
AcDbRegAppTableRecord
  2
ACAD_DSTYLE_DIMEXT_LENGTH
 70
     0
  0
ENDTAB
  0
TABLE
  2
DIMSTYLE
  5
A
330
0
100
AcDbSymbolTable
 70
     3
100
AcDbDimStyleTable
 71
     1
340
4AC
  0
DIMSTYLE
105
57
330
A
100
AcDbSymbolTableRecord
100
AcDbDimStyleTableRecord
  2
Standard
 70
     0
340
55
  0
DIMSTYLE
105
4AC
330
A
100
AcDbSymbolTableRecord
100
AcDbDimStyleTableRecord
  2
1：1
 70
     0
 41
2.5
 42
0.25
 43
0.2
 44
1.25
 73
     0
 74
     0
 77
     3
 78
     8
 79
     2
140
3.0
141
0.0
143
0.03937007874016
147
0.625
171
     3
172
     1
178
     4
179
     1
271
     2
272
     2
274
     3
283
     0
284
     8
288
     1
289
     0
340
55
341
3CC
342
3CC
1001
ACAD_DSTYLE_DIMARC_LENGTH_SYMBOL
1070
   379
1070
     2
1001
ACAD_DSTYLE_DIMEXT_LENGTH
1070
   378
1040
1.25
1001
ACAD_DSTYLE_DIMJOGGED_JOGANGLE_SYMBOL
1070
   384
1040
1.570796326794896
  0
ENDTAB
  0
TABLE
  2
BLOCK_RECORD
  5
1
330
0
100
AcDbSymbolTable
 70
    10
  0
BLOCK_RECORD
  5
6B
102
{ACAD_XDICTIONARY
360
8BE
102
}
330
1
100
AcDbSymbolTableRecord
100
AcDbBlockTableRecord
  2
*Model_Space
340
6E
  0
BLOCK_RECORD
  5
67
330
1
100
AcDbSymbolTableRecord
100
AcDbBlockTableRecord
  2
*Paper_Space
340
6A
  0
BLOCK_RECORD
  5
3CC
330
1
100
AcDbSymbolTableRecord
100
AcDbBlockTableRecord
  2
_Open30
340
0
102
{BLKREFS
331
A50
331
A51
331
A59
331
A5A
331
A62
331
A63
331
A6D
331
A6E
331
A78
331
A79
331
A7F
331
A80
331
A87
331
A88
331
A90
331
A91
102
}
  0
BLOCK_RECORD
  5
69A
330
1
100
AcDbSymbolTableRecord
100
AcDbBlockTableRecord
  2
*D1
340
0
  0
BLOCK_RECORD
  5
6A7
330
1
100
AcDbSymbolTableRecord
100
AcDbBlockTableRecord
  2
*D2
340
0
  0
BLOCK_RECORD
  5
6B4
330
1
100
AcDbSymbolTableRecord
100
AcDbBlockTableRecord
  2
*D3
340
0
  0
BLOCK_RECORD
  5
6C1
330
1
100
AcDbSymbolTableRecord
100
AcDbBlockTableRecord
  2
*D4
340
0
  0
BLOCK_RECORD
  5
6CE
330
1
100
AcDbSymbolTableRecord
100
AcDbBlockTableRecord
  2
*D5
340
0
  0
BLOCK_RECORD
  5
6DB
330
1
100
AcDbSymbolTableRecord
100
AcDbBlockTableRecord
  2
*D6
340
0
  0
BLOCK_RECORD
  5
6E6
330
1
100
AcDbSymbolTableRecord
100
AcDbBlockTableRecord
  2
*D7
340
0
  0
BLOCK_RECORD
  5
6F3
330
1
100
AcDbSymbolTableRecord
100
AcDbBlockTableRecord
  2
*D8
340
0
  0
ENDTAB
  0
ENDSEC
  0
SECTION
  2
BLOCKS
  0
BLOCK
  5
6C
330
6B
100
AcDbEntity
  8
0
100
AcDbBlockBegin
  2
*Model_Space
 70
     0
 10
0.0
 20
0.0
 30
0.0
  3
*Model_Space
  1

  0
ENDBLK
  5
6D
330
6B
100
AcDbEntity
  8
0
100
AcDbBlockEnd
  0
BLOCK
  5
68
330
67
100
AcDbEntity
 67
     1
  8
0
100
AcDbBlockBegin
  2
*Paper_Space
 70
     0
 10
0.0
 20
0.0
 30
0.0
  3
*Paper_Space
  1

  0
ENDBLK
  5
69
330
67
100
AcDbEntity
 67
     1
  8
0
100
AcDbBlockEnd
  0
BLOCK
  5
3CD
330
3CC
100
AcDbEntity
  8
0
100
AcDbBlockBegin
  2
_Open30
 70
     0
 10
0.0
 20
0.0
 30
0.0
  3
_Open30
  1

  0
LINE
  5
3CE
330
3CC
100
AcDbEntity
  8
0
  6
ByBlock
 62
     0
370
    -2
100
AcDbLine
 10
-1.0
 20
0.267949
 30
0.0
 11
0.0
 21
0.0
 31
0.0
  0
LINE
  5
3CF
330
3CC
100
AcDbEntity
  8
0
  6
ByBlock
 62
     0
370
    -2
100
AcDbLine
 10
0.0
 20
0.0
 30
0.0
 11
-1.0
 21
-0.267949
 31
0.0
  0
LINE
  5
3D0
330
3CC
100
AcDbEntity
  8
0
  6
ByBlock
 62
     0
370
    -2
100
AcDbLine
 10
0.0
 20
0.0
 30
0.0
 11
-1.0
 21
0.0
 31
0.0
  0
ENDBLK
  5
3D1
330
3CC
100
AcDbEntity
  8
0
100
AcDbBlockEnd
  0
BLOCK
  5
69B
330
69A
100
AcDbEntity
  8
0
100
AcDbBlockBegin
  2
*D1
 70
     1
 10
0.0
 20
0.0
 30
0.0
  3
*D1
  1

  0
LINE
  5
A4D
330
69A
100
AcDbEntity
  8
0
 62
     0
370
    -2
100
AcDbLine
 10
-300.5342172058963
 20
-445.1574683244037
 30
0.0
 11
-289.2576792058963
 21
-445.1574683244037
 31
0.0
  0
LINE
  5
A4E
330
69A
100
AcDbEntity
  8
0
 62
     0
370
    -2
100
AcDbLine
 10
-301.5317172058963
 20
-435.1574683244036
 30
0.0
 11
-289.2576792058963
 21
-435.1574683244036
 31
0.0
  0
LINE
  5
A4F
330
69A
100
AcDbEntity
  8
0
 62
     0
370
    -2
100
AcDbLine
 10
-290.5076792058963
 20
-442.6574683244036
 30
0.0
 11
-290.5076792058963
 21
-437.6574683244036
 31
0.0
  0
INSERT
  5
A50
330
69A
100
AcDbEntity
  8
0
 62
     0
370
    -2
100
AcDbBlockReference
  2
_Open30
 10
-290.5076792058963
 20
-445.1574683244037
 30
0.0
 41
2.5
 42
2.5
 43
2.5
 50
270.0
  0
INSERT
  5
A51
330
69A
100
AcDbEntity
  8
0
 62
     0
370
    -2
100
AcDbBlockReference
  2
_Open30
 10
-290.5076792058963
 20
-435.1574683244036
 30
0.0
 41
2.5
 42
2.5
 43
2.5
 50
90.0
  0
MTEXT
  5
A52
330
69A
100
AcDbEntity
  8
0
 62
     4
100
AcDbMText
 10
-292.6326792058962
 20
-440.1574683244036
 30
0.0
 40
3.0
 41
0.0
 71
     5
 72
     1
  1
10
 11
0.0000000000000001
 21
1.0
 31
0.0
 73
     1
 44
1.0
1001
ACAD
1000
MTEXTBEGIN
1070
    73
1070
     1
1070
    44
1040
1.0
1070
    74
1070
     0
1000
MTEXTEND
  0
POINT
  5
A53
330
69A
100
AcDbEntity
  8
Defpoints
 62
     0
100
AcDbPoint
 10
-300.7842172058963
 20
-445.1574683244037
 30
0.0
  0
POINT
  5
A54
330
69A
100
AcDbEntity
  8
Defpoints
 62
     0
100
AcDbPoint
 10
-301.7817172058963
 20
-435.1574683244036
 30
0.0
  0
POINT
  5
A55
330
69A
100
AcDbEntity
  8
Defpoints
 62
     0
100
AcDbPoint
 10
-290.5076792058963
 20
-435.1574683244036
 30
0.0
  0
ENDBLK
  5
69C
330
69A
100
AcDbEntity
  8
0
100
AcDbBlockEnd
  0
BLOCK
  5
6A8
330
6A7
100
AcDbEntity
  8
0
100
AcDbBlockBegin
  2
*D2
 70
     1
 10
0.0
 20
0.0
 30
0.0
  3
*D2
  1

  0
LINE
  5
A56
330
6A7
100
AcDbEntity
  8
0
 62
     0
370
    -2
100
AcDbLine
 10
-302.1866732058962
 20
-544.6215573244036
 30
0.0
 11
-291.2121762058963
 21
-544.6215573244036
 31
0.0
  0
LINE
  5
A57
330
6A7
100
AcDbEntity
  8
0
 62
     0
370
    -2
100
AcDbLine
 10
-302.1866732058962
 20
-520.6215573244036
 30
0.0
 11
-291.2121762058963
 21
-520.6215573244036
 31
0.0
  0
LINE
  5
A58
330
6A7
100
AcDbEntity
  8
0
 62
     0
370
    -2
100
AcDbLine
 10
-292.4621762058963
 20
-542.1215573244036
 30
0.0
 11
-292.4621762058963
 21
-523.1215573244035
 31
0.0
  0
INSERT
  5
A59
330
6A7
100
AcDbEntity
  8
0
 62
     0
370
    -2
100
AcDbBlockReference
  2
_Open30
 10
-292.4621762058963
 20
-544.6215573244036
 30
0.0
 41
2.5
 42
2.5
 43
2.5
 50
270.0
  0
INSERT
  5
A5A
330
6A7
100
AcDbEntity
  8
0
 62
     0
370
    -2
100
AcDbBlockReference
  2
_Open30
 10
-292.4621762058963
 20
-520.6215573244036
 30
0.0
 41
2.5
 42
2.5
 43
2.5
 50
90.0
  0
MTEXT
  5
A5B
330
6A7
100
AcDbEntity
  8
0
 62
     4
100
AcDbMText
 10
-294.5871762058962
 20
-532.6215573244037
 30
0.0
 40
3.0
 41
0.0
 71
     5
 72
     1
  1
24
 11
0.0000000000000001
 21
1.0
 31
0.0
 73
     1
 44
1.0
1001
ACAD
1000
MTEXTBEGIN
1070
    73
1070
     1
1070
    44
1040
1.0
1070
    74
1070
     0
1000
MTEXTEND
  0
POINT
  5
A5C
330
6A7
100
AcDbEntity
  8
Defpoints
 62
     0
100
AcDbPoint
 10
-302.4366732058962
 20
-544.6215573244036
 30
0.0
  0
POINT
  5
A5D
330
6A7
100
AcDbEntity
  8
Defpoints
 62
     0
100
AcDbPoint
 10
-302.4366732058962
 20
-520.6215573244036
 30
0.0
  0
POINT
  5
A5E
330
6A7
100
AcDbEntity
  8
Defpoints
 62
     0
100
AcDbPoint
 10
-292.4621762058963
 20
-520.6215573244036
 30
0.0
  0
ENDBLK
  5
6A9
330
6A7
100
AcDbEntity
  8
0
100
AcDbBlockEnd
  0
BLOCK
  5
6B5
330
6B4
100
AcDbEntity
  8
0
100
AcDbBlockBegin
  2
*D3
 70
     1
 10
0.0
 20
0.0
 30
0.0
  3
*D3
  1

  0
LINE
  5
A5F
330
6B4
100
AcDbEntity
  8
0
 62
     0
370
    -2
100
AcDbLine
 10
-546.7847952058962
 20
-527.9940983244036
 30
0.0
 11
-546.7847952058962
 21
-507.5203463244037
 31
0.0
  0
LINE
  5
A60
330
6B4
100
AcDbEntity
  8
0
 62
     0
370
    -2
100
AcDbLine
 10
-300.9366732058962
 20
-521.8715573244036
 30
0.0
 11
-300.9366732058962
 21
-507.5203463244037
 31
0.0
  0
LINE
  5
A61
330
6B4
100
AcDbEntity
  8
0
 62
     0
370
    -2
100
AcDbLine
 10
-544.2847952058961
 20
-508.7703463244037
 30
0.0
 11
-303.4366732058962
 21
-508.7703463244037
 31
0.0
  0
INSERT
  5
A62
330
6B4
100
AcDbEntity
  8
0
 62
     0
370
    -2
100
AcDbBlockReference
  2
_Open30
 10
-546.7847952058962
 20
-508.7703463244037
 30
0.0
 41
2.5
 42
2.5
 43
2.5
 50
180.0
  0
INSERT
  5
A63
330
6B4
100
AcDbEntity
  8
0
 62
     0
370
    -2
100
AcDbBlockReference
  2
_Open30
 10
-300.9366732058962
 20
-508.7703463244037
 30
0.0
 41
2.5
 42
2.5
 43
2.5
  0
MTEXT
  5
A64
330
6B4
100
AcDbEntity
  8
0
 62
     4
100
AcDbMText
 10
-423.8607342058961
 20
-506.6453463244037
 30
0.0
 40
3.0
 41
0.0
 71
     5
 72
     1
  1
L寸法
 73
     1
 44
1.0
1001
ACAD
1000
MTEXTBEGIN
1070
    73
1070
     1
1070
    44
1040
1.0
1070
    74
1070
     0
1000
MTEXTEND
  0
POINT
  5
A65
330
6B4
100
AcDbEntity
  8
Defpoints
 62
     0
100
AcDbPoint
 10
-546.7847952058962
 20
-528.2440983244035
 30
0.0
  0
POINT
  5
A66
330
6B4
100
AcDbEntity
  8
Defpoints
 62
     0
100
AcDbPoint
 10
-300.9366732058962
 20
-522.1215573244036
 30
0.0
  0
POINT
  5
A67
330
6B4
100
AcDbEntity
  8
Defpoints
 62
     0
100
AcDbPoint
 10
-300.9366732058962
 20
-508.7703463244037
 30
0.0
  0
ENDBLK
  5
6B6
330
6B4
100
AcDbEntity
  8
0
100
AcDbBlockEnd
  0
BLOCK
  5
6C2
330
6C1
100
AcDbEntity
  8
0
100
AcDbBlockBegin
  2
*D4
 70
     1
 10
0.0
 20
0.0
 30
0.0
  3
*D4
  1

  0
LINE
  5
A68
330
6C1
100
AcDbEntity
  8
0
 62
     0
370
    -2
100
AcDbLine
 10
-380.8087412058963
 20
-540.1687383244036
 30
0.0
 11
-371.5558820189909
 21
-540.1687383244036
 31
0.0
  0
LINE
  5
A69
330
6C1
100
AcDbEntity
  8
0
 62
     0
370
    -2
100
AcDbLine
 10
-380.5764112058962
 20
-525.0792053244037
 30
0.0
 11
-371.5558820189909
 21
-525.0792053244037
 31
0.0
  0
LINE
  5
A6A
330
6C1
100
AcDbEntity
  8
0
 62
     0
370
    -2
100
AcDbLine
 10
-372.8058820189909
 20
-522.5792053244036
 30
0.0
 11
-372.8058820189909
 21
-520.0792053244036
 31
0.0
  0
LINE
  5
A6B
330
6C1
100
AcDbEntity
  8
0
 62
     0
370
    -2
100
AcDbLine
 10
-372.8058820189909
 20
-542.6687383244036
 30
0.0
 11
-372.8058820189909
 21
-550.7937383244035
 31
0.0
  0
LINE
  5
A6C
330
6C1
100
AcDbEntity
  8
0
 62
     0
370
    -2
100
AcDbLine
 10
-372.8058820189909
 20
-525.0792053244037
 30
0.0
 11
-372.8058820189909
 21
-540.1687383244036
 31
0.0
  0
INSERT
  5
A6D
330
6C1
100
AcDbEntity
  8
0
 62
     0
370
    -2
100
AcDbBlockReference
  2
_Open30
 10
-372.8058820189909
 20
-525.0792053244037
 30
0.0
 41
2.5
 42
2.5
 43
2.5
 50
270.0
  0
INSERT
  5
A6E
330
6C1
100
AcDbEntity
  8
0
 62
     0
370
    -2
100
AcDbBlockReference
  2
_Open30
 10
-372.8058820189909
 20
-540.1687383244036
 30
0.0
 41
2.5
 42
2.5
 43
2.5
 50
90.0
  0
MTEXT
  5
A6F
330
6C1
100
AcDbEntity
  8
0
 62
     4
100
AcDbMText
 10
-374.9308820189909
 20
-548.1687383244036
 30
0.0
 40
3.0
 41
0.0
 71
     5
 72
     1
  1
15
 11
0.0000000000000001
 21
1.0
 31
0.0
 73
     1
 44
1.0
1001
ACAD
1000
MTEXTBEGIN
1070
    73
1070
     1
1070
    44
1040
1.0
1070
    74
1070
     0
1000
MTEXTEND
  0
POINT
  5
A70
330
6C1
100
AcDbEntity
  8
Defpoints
 62
     0
100
AcDbPoint
 10
-381.0587412058962
 20
-540.1687383244036
 30
0.0
  0
POINT
  5
A71
330
6C1
100
AcDbEntity
  8
Defpoints
 62
     0
100
AcDbPoint
 10
-380.8264112058962
 20
-525.0792053244037
 30
0.0
  0
POINT
  5
A72
330
6C1
100
AcDbEntity
  8
Defpoints
 62
     0
100
AcDbPoint
 10
-372.8058820189909
 20
-525.0792053244037
 30
0.0
  0
ENDBLK
  5
6C3
330
6C1
100
AcDbEntity
  8
0
100
AcDbBlockEnd
  0
BLOCK
  5
6CF
330
6CE
100
AcDbEntity
  8
0
100
AcDbBlockBegin
  2
*D5
 70
     1
 10
0.0
 20
0.0
 30
0.0
  3
*D5
  1

  0
LINE
  5
A73
330
6CE
100
AcDbEntity
  8
0
 62
     0
370
    -2
100
AcDbLine
 10
-424.5739772058962
 20
-445.9052373244036
 30
0.0
 11
-417.1674972058962
 21
-445.9052373244036
 31
0.0
  0
LINE
  5
A74
330
6CE
100
AcDbEntity
  8
0
 62
     0
370
    -2
100
AcDbLine
 10
-424.8508452058961
 20
-442.9052373244036
 30
0.0
 11
-417.1674972058962
 21
-442.9052373244036
 31
0.0
  0
LINE
  5
A75
330
6CE
100
AcDbEntity
  8
0
 62
     0
370
    -2
100
AcDbLine
 10
-418.4174972058961
 20
-448.4052373244036
 30
0.0
 11
-418.4174972058961
 21
-450.9052373244036
 31
0.0
  0
LINE
  5
A76
330
6CE
100
AcDbEntity
  8
0
 62
     0
370
    -2
100
AcDbLine
 10
-418.4174972058961
 20
-440.4052373244036
 30
0.0
 11
-418.4174972058961
 21
-431.6552373244036
 31
0.0
  0
LINE
  5
A77
330
6CE
100
AcDbEntity
  8
0
 62
     0
370
    -2
100
AcDbLine
 10
-418.4174972058961
 20
-445.9052373244036
 30
0.0
 11
-418.4174972058961
 21
-442.9052373244036
 31
0.0
  0
INSERT
  5
A78
330
6CE
100
AcDbEntity
  8
0
 62
     0
370
    -2
100
AcDbBlockReference
  2
_Open30
 10
-418.4174972058961
 20
-445.9052373244036
 30
0.0
 41
2.5
 42
2.5
 43
2.5
 50
90.0
  0
INSERT
  5
A79
330
6CE
100
AcDbEntity
  8
0
 62
     0
370
    -2
100
AcDbBlockReference
  2
_Open30
 10
-418.4174972058961
 20
-442.9052373244036
 30
0.0
 41
2.5
 42
2.5
 43
2.5
 50
270.0
  0
MTEXT
  5
A7A
330
6CE
100
AcDbEntity
  8
0
 62
     4
100
AcDbMText
 10
-420.5424972058961
 20
-434.7802373244037
 30
0.0
 40
3.0
 41
0.0
 71
     5
 72
     1
  1
2t
 11
0.0000000000000001
 21
1.0
 31
0.0
 73
     1
 44
1.0
1001
ACAD
1000
MTEXTBEGIN
1070
    73
1070
     1
1070
    44
1040
1.0
1070
    74
1070
     0
1000
MTEXTEND
  0
POINT
  5
A7B
330
6CE
100
AcDbEntity
  8
Defpoints
 62
     0
100
AcDbPoint
 10
-424.8239772058962
 20
-445.9052373244036
 30
0.0
  0
POINT
  5
A7C
330
6CE
100
AcDbEntity
  8
Defpoints
 62
     0
100
AcDbPoint
 10
-425.1008452058962
 20
-442.9052373244036
 30
0.0
  0
POINT
  5
A7D
330
6CE
100
AcDbEntity
  8
Defpoints
 62
     0
100
AcDbPoint
 10
-418.4174972058961
 20
-442.9052373244036
 30
0.0
  0
ENDBLK
  5
6D0
330
6CE
100
AcDbEntity
  8
0
100
AcDbBlockEnd
  0
BLOCK
  5
6DC
330
6DB
100
AcDbEntity
  8
0
100
AcDbBlockBegin
  2
*D6
 70
     1
 10
0.0
 20
0.0
 30
0.0
  3
*D6
  1

  0
LINE
  5
A7E
330
6DB
100
AcDbEntity
  8
0
 62
     0
370
    -2
100
AcDbLine
 10
-587.014937140235
 20
-463.8782579032763
 30
0.0
 11
-608.4712062715582
 21
-424.3228717455313
 31
0.0
  0
INSERT
  5
A7F
330
6DB
100
AcDbEntity
  8
0
 62
     0
370
    -2
100
AcDbBlockReference
  2
_Open30
 10
-585.8229222058964
 20
-466.0757793244037
 30
0.0
 41
2.5
 42
2.5
 43
2.5
 50
298.4770020669829
  0
INSERT
  5
A80
330
6DB
100
AcDbEntity
  8
0
 62
     0
370
    -2
100
AcDbBlockReference
  2
_Open30
 10
-609.6632212058968
 20
-422.1253503244038
 30
0.0
 41
2.5
 42
2.5
 43
2.5
 50
118.4770020669829
  0
MTEXT
  5
A81
102
{ACAD_XDICTIONARY
360
D92
102
}
330
6DB
100
AcDbEntity
  8
0
 62
     4
100
AcDbMText
 10
-595.8751784979381
 20
-443.0873521302161
 30
0.0
 40
3.0
 41
0.0
 71
     5
 72
     1
  1
\U+220550
 11
0.4768059737353985
 21
-0.8790085684509785
 31
0.0
 73
     1
 44
1.0
1001
ACAD
1000
MTEXTBEGIN
1070
    73
1070
     1
1070
    44
1040
1.0
1070
    74
1070
     0
1000
MTEXTEND
  0
POINT
  5
A82
330
6DB
100
AcDbEntity
  8
Defpoints
 62
     0
100
AcDbPoint
 10
-609.6632212058968
 20
-422.1253503244038
 30
0.0
  0
POINT
  5
A83
330
6DB
100
AcDbEntity
  8
Defpoints
 62
     0
100
AcDbPoint
 10
-585.8229222058964
 20
-466.0757793244037
 30
0.0
  0
ENDBLK
  5
6DD
330
6DB
100
AcDbEntity
  8
0
100
AcDbBlockEnd
  0
BLOCK
  5
6E7
330
6E6
100
AcDbEntity
  8
0
100
AcDbBlockBegin
  2
*D7
 70
     1
 10
0.0
 20
0.0
 30
0.0
  3
*D7
  1

  0
LINE
  5
A84
330
6E6
100
AcDbEntity
  8
0
 62
     0
370
    -2
100
AcDbLine
 10
-597.9930722058961
 20
-481.1005653244037
 30
0.0
 11
-645.5808642058961
 21
-481.1005653244036
 31
0.0
  0
LINE
  5
A85
330
6E6
100
AcDbEntity
  8
0
 62
     0
370
    -2
100
AcDbLine
 10
-588.3801212058962
 20
-399.3636923244037
 30
0.0
 11
-645.5808642058961
 21
-399.3636923244037
 31
0.0
  0
LINE
  5
A86
330
6E6
100
AcDbEntity
  8
0
 62
     0
370
    -2
100
AcDbLine
 10
-644.3308642058962
 20
-478.6005653244036
 30
0.0
 11
-644.3308642058962
 21
-401.8636923244036
 31
0.0
  0
INSERT
  5
A87
330
6E6
100
AcDbEntity
  8
0
 62
     0
370
    -2
100
AcDbBlockReference
  2
_Open30
 10
-644.3308642058962
 20
-481.1005653244036
 30
0.0
 41
2.5
 42
2.5
 43
2.5
 50
270.0
  0
INSERT
  5
A88
330
6E6
100
AcDbEntity
  8
0
 62
     0
370
    -2
100
AcDbBlockReference
  2
_Open30
 10
-644.3308642058962
 20
-399.3636923244037
 30
0.0
 41
2.5
 42
2.5
 43
2.5
 50
90.0
  0
MTEXT
  5
A89
330
6E6
100
AcDbEntity
  8
0
 62
     4
100
AcDbMText
 10
-646.455864205896
 20
-440.2321288244038
 30
0.0
 40
3.0
 41
0.0
 71
     5
 72
     1
  1
82
 11
0.0000000000000001
 21
1.0
 31
0.0
 73
     1
 44
1.0
1001
ACAD
1000
MTEXTBEGIN
1070
    73
1070
     1
1070
    44
1040
1.0
1070
    74
1070
     0
1000
MTEXTEND
  0
POINT
  5
A8A
330
6E6
100
AcDbEntity
  8
Defpoints
 62
     0
100
AcDbPoint
 10
-597.7430722058961
 20
-481.1005653244037
 30
0.0
  0
POINT
  5
A8B
330
6E6
100
AcDbEntity
  8
Defpoints
 62
     0
100
AcDbPoint
 10
-588.1301212058962
 20
-399.3636923244037
 30
0.0
  0
POINT
  5
A8C
330
6E6
100
AcDbEntity
  8
Defpoints
 62
     0
100
AcDbPoint
 10
-644.3308642058962
 20
-399.3636923244037
 30
0.0
  0
ENDBLK
  5
6E8
330
6E6
100
AcDbEntity
  8
0
100
AcDbBlockEnd
  0
BLOCK
  5
6F4
330
6F3
100
AcDbEntity
  8
0
100
AcDbBlockBegin
  2
*D8
 70
     1
 10
0.0
 20
0.0
 30
0.0
  3
*D8
  1

  0
LINE
  5
A8D
330
6F3
100
AcDbEntity
  8
0
 62
     0
370
    -2
100
AcDbLine
 10
-634.7481222058962
 20
-532.5090143244036
 30
0.0
 11
-634.7481222058962
 21
-507.5203463244037
 31
0.0
  0
LINE
  5
A8E
330
6F3
100
AcDbEntity
  8
0
 62
     0
370
    -2
100
AcDbLine
 10
-546.7847952058962
 20
-527.9940983244036
 30
0.0
 11
-546.7847952058962
 21
-507.5203463244037
 31
0.0
  0
LINE
  5
A8F
330
6F3
100
AcDbEntity
  8
0
 62
     0
370
    -2
100
AcDbLine
 10
-632.2481222058963
 20
-508.7703463244037
 30
0.0
 11
-549.2847952058962
 21
-508.7703463244037
 31
0.0
  0
INSERT
  5
A90
330
6F3
100
AcDbEntity
  8
0
 62
     0
370
    -2
100
AcDbBlockReference
  2
_Open30
 10
-634.7481222058962
 20
-508.7703463244037
 30
0.0
 41
2.5
 42
2.5
 43
2.5
 50
180.0
  0
INSERT
  5
A91
330
6F3
100
AcDbEntity
  8
0
 62
     0
370
    -2
100
AcDbBlockReference
  2
_Open30
 10
-546.7847952058962
 20
-508.7703463244037
 30
0.0
 41
2.5
 42
2.5
 43
2.5
  0
MTEXT
  5
A92
330
6F3
100
AcDbEntity
  8
0
 62
     4
100
AcDbMText
 10
-590.7664587058961
 20
-506.6453463244037
 30
0.0
 40
3.0
 41
0.0
 71
     5
 72
     1
  1
88
 73
     1
 44
1.0
1001
ACAD
1000
MTEXTBEGIN
1070
    73
1070
     1
1070
    44
1040
1.0
1070
    74
1070
     0
1000
MTEXTEND
  0
POINT
  5
A93
330
6F3
100
AcDbEntity
  8
Defpoints
 62
     0
100
AcDbPoint
 10
-634.7481222058962
 20
-532.7590143244036
 30
0.0
  0
POINT
  5
A94
330
6F3
100
AcDbEntity
  8
Defpoints
 62
     0
100
AcDbPoint
 10
-546.7847952058962
 20
-528.2440983244035
 30
0.0
  0
POINT
  5
A95
330
6F3
100
AcDbEntity
  8
Defpoints
 62
     0
100
AcDbPoint
 10
-546.7847952058962
 20
-508.7703463244037
 30
0.0
  0
ENDBLK
  5
6F5
330
6F3
100
AcDbEntity
  8
0
100
AcDbBlockEnd
  0
ENDSEC
  0
SECTION
  2
ENTITIES
  0
TEXT
  5
2EE
330
6B
100
AcDbEntity
  8
0
 62
     3
100
AcDbText
 10
-650.8939352058962
 20
-653.2746093244037
 30
0.0
 40
3.2
  1
部品名
  7
高3.2
100
AcDbText
  0
TEXT
  5
2EF
330
6B
100
AcDbEntity
  8
0
 62
     3
100
AcDbText
 10
-659.8939352058962
 20
-653.2746093244037
 30
0.0
 40
3.2
  1
No.
  7
高3.2
100
AcDbText
  0
TEXT
  5
2F0
330
6B
100
AcDbEntity
  8
0
 62
     3
100
AcDbText
 10
-625.8939352058962
 20
-653.2746093244037
 30
0.0
 40
3.2
  1
個数
  7
高3.2
100
AcDbText
  0
TEXT
  5
2F4
330
6B
100
AcDbEntity
  8
0
 62
     3
100
AcDbText
 10
-625.8939352058962
 20
-648.2746093244037
 30
0.0
 40
3.2
  1
1
  7
高3.2
100
AcDbText
  0
TEXT
  5
2F5
330
6B
100
AcDbEntity
  8
0
 62
     3
100
AcDbText
 10
-625.8939352058962
 20
-643.2746093244037
 30
0.0
 40
3.2
  1
1
  7
高3.2
100
AcDbText
  0
TEXT
  5
2F6
330
6B
100
AcDbEntity
  8
0
 62
     3
100
AcDbText
 10
-650.8939352058962
 20
-643.2746093244037
 30
0.0
 40
3.2
  1
単管フック
  7
高3.2
100
AcDbText
  0
TEXT
  5
2F7
330
6B
100
AcDbEntity
  8
0
 62
     3
100
AcDbText
 10
-650.8939352058962
 20
-648.2746093244037
 30
0.0
 40
3.2
  1
連結ベルト
  7
高3.2
100
AcDbText
  0
TEXT
  5
2F8
330
6B
100
AcDbEntity
  8
0
 62
     3
100
AcDbText
 10
-659.8939352058962
 20
-648.2746093244037
 30
0.0
 40
3.2
  1
1
  7
高3.2
100
AcDbText
  0
TEXT
  5
2F9
330
6B
100
AcDbEntity
  8
0
 62
     3
100
AcDbText
 10
-659.8939352058962
 20
-643.2746093244037
 30
0.0
 40
3.2
  1
2
  7
高3.2
100
AcDbText
  0
LINE
  5
4C4
330
6B
100
AcDbEntity
  8
0
 62
     3
100
AcDbLine
 10
-452.2782662058962
 20
-444.4052373244036
 30
0.0
 11
-452.2782662058962
 21
-445.9052373244036
 31
0.0
  0
LINE
  5
4C5
330
6B
100
AcDbEntity
  8
0
 62
     3
100
AcDbLine
 10
-452.2782662058962
 20
-444.4052373244036
 30
0.0
 11
-447.7782662058962
 21
-444.4052373244036
 31
0.0
  0
LINE
  5
4C6
330
6B
100
AcDbEntity
  8
0
 62
     3
100
AcDbLine
 10
-447.7782662058962
 20
-444.4052373244036
 30
0.0
 11
-443.2782662058961
 21
-445.9052373244036
 31
0.0
  0
LINE
  5
4C7
330
6B
100
AcDbEntity
  8
0
 62
     3
100
AcDbLine
 10
-440.2782662058962
 20
-445.9052373244036
 30
0.0
 11
-443.2782662058961
 21
-445.9052373244036
 31
0.0
  0
LINE
  5
4C8
330
6B
100
AcDbEntity
  8
0
 62
     3
100
AcDbLine
 10
-452.2782662058962
 20
-445.9052373244036
 30
0.0
 11
-455.3900342058962
 21
-445.9052373244036
 31
0.0
  0
LINE
  5
4C9
330
6B
100
AcDbEntity
  8
0
 62
     3
100
AcDbLine
 10
-440.2782662058962
 20
-444.4052373244036
 30
0.0
 11
-435.7782662058962
 21
-444.4052373244036
 31
0.0
  0
LINE
  5
4CA
330
6B
100
AcDbEntity
  8
0
 62
     3
100
AcDbLine
 10
-440.2782662058962
 20
-444.4052373244036
 30
0.0
 11
-440.2782662058962
 21
-445.9052373244036
 31
0.0
  0
LINE
  5
4CB
330
6B
100
AcDbEntity
  8
0
 62
     3
100
AcDbLine
 10
-426.0095052058962
 20
-442.9052373244036
 30
0.0
 11
-458.2679282058962
 21
-442.9052373244036
 31
0.0
  0
LINE
  5
4CC
330
6B
100
AcDbEntity
  8
0
 62
     3
100
AcDbLine
 10
-458.3472902058962
 20
-444.8822293244036
 30
0.0
 11
-455.2782662058961
 21
-445.9052373244036
 31
0.0
  0
LINE
  5
4CD
330
6B
100
AcDbEntity
  8
0
 62
     3
100
AcDbLine
 10
-435.7782662058962
 20
-444.4052373244036
 30
0.0
 11
-431.2782662058962
 21
-445.9052373244036
 31
0.0
  0
LINE
  5
4CE
330
6B
100
AcDbEntity
  8
0
 62
     3
100
AcDbLine
 10
-431.2782662058962
 20
-445.9052373244036
 30
0.0
 11
-427.0651902058962
 21
-445.9052373244036
 31
0.0
  0
LINE
  5
4CF
330
6B
100
AcDbEntity
  8
0
 62
     3
100
AcDbLine
 10
-325.7603952058963
 20
-443.6330783244035
 30
0.0
 11
-343.6950562058962
 21
-443.6330783244035
 31
0.0
  0
ARC
  5
4D0
330
6B
100
AcDbEntity
  8
0
 62
     3
100
AcDbCircle
 10
-301.7817172058963
 20
-435.9074683244037
 30
0.0
 40
0.75
100
AcDbArc
 50
0.0
 51
90.0
  0
LINE
  5
4D1
330
6B
100
AcDbEntity
  8
0
 62
     3
100
AcDbLine
 10
-310.0665262058963
 20
-435.1574683244036
 30
0.0
 11
-301.7817172058963
 21
-435.1574683244036
 31
0.0
  0
ARC
  5
4D2
330
6B
100
AcDbEntity
  8
0
 62
     3
100
AcDbCircle
 10
-310.0665262058963
 20
-435.9074683244037
 30
0.0
 40
0.75
100
AcDbArc
 50
90.0
 51
178.363303
  0
LINE
  5
4D3
330
6B
100
AcDbEntity
  8
0
  6
HIDDEN
 62
    15
100
AcDbLine
 10
-310.8162202058962
 20
-436.8860473244037
 30
0.0
 11
-310.8161012058963
 21
-436.8818773244036
 31
0.0
  0
LINE
  5
4D4
330
6B
100
AcDbEntity
  8
0
 62
     3
100
AcDbLine
 10
-325.4247452058962
 20
-443.2824683244036
 30
0.0
 11
-325.4247452058962
 21
-443.2164163244037
 31
0.0
  0
ARC
  5
4D5
330
6B
100
AcDbEntity
  8
0
 62
     3
100
AcDbCircle
 10
-324.6747452058962
 20
-443.2164163244037
 30
0.0
 40
0.75
100
AcDbArc
 50
95.27473400000014
 51
180.0
  0
ARC
  5
4D6
330
6B
100
AcDbEntity
  8
0
 62
     3
100
AcDbCircle
 10
-325.7997452058962
 20
-443.2824683244036
 30
0.0
 40
0.375
100
AcDbArc
 50
270.0
 51
0.0
  0
LINE
  5
4D7
330
6B
100
AcDbEntity
  8
0
 62
     3
100
AcDbLine
 10
-526.7586112058962
 20
-443.6316253244037
 30
0.0
 11
-526.7586112058962
 21
-445.1316253244036
 31
0.0
  0
LINE
  5
4D8
330
6B
100
AcDbEntity
  8
0
 62
     3
100
AcDbLine
 10
-523.2734112058961
 20
-441.9731033244036
 30
0.0
 11
-537.2770892058962
 21
-441.9731033244036
 31
0.0
  0
ARC
  5
4D9
330
6B
100
AcDbEntity
  8
0
 62
     3
100
AcDbCircle
 10
-523.2734112058961
 20
-444.4731033244035
 30
0.0
 40
2.5
100
AcDbArc
 50
17.45760299999987
 51
90.0
  0
CIRCLE
  5
4DA
330
6B
100
AcDbEntity
  8
0
100
AcDbCircle
 10
-441.7816092058962
 20
-445.9574683244037
 30
0.0
 40
16.957712
  0
LINE
  5
4DB
330
6B
100
AcDbEntity
  8
0
 62
     3
100
AcDbLine
 10
-520.8885632058962
 20
-445.2231033244037
 30
0.0
 11
-537.2770892058962
 21
-446.9208703244036
 31
0.0
  0
LINE
  5
4DC
330
6B
100
AcDbEntity
  8
0
 62
     3
100
AcDbLine
 10
-300.7842172058963
 20
-445.1574683244037
 30
0.0
 11
-301.0317172058963
 21
-435.9074683244037
 31
0.0
  0
LINE
  5
4DD
330
6B
100
AcDbEntity
  8
0
 62
     3
100
AcDbLine
 10
-316.5288842058962
 20
-439.3655793244037
 30
0.0
 11
-310.8262252058963
 21
-436.3840223244037
 31
0.0
  0
LINE
  5
4DE
330
6B
100
AcDbEntity
  8
0
 62
     3
100
AcDbLine
 10
-537.7812932058962
 20
-441.4242803244037
 30
0.0
 11
-537.2616352058962
 21
-441.9899233244036
 31
0.0
  0
LINE
  5
4DF
330
6B
100
AcDbEntity
  8
0
 62
     3
100
AcDbLine
 10
-537.7812932058962
 20
-447.4242803244036
 30
0.0
 11
-537.2616352058962
 21
-446.9172383244036
 31
0.0
  0
LINE
  5
4E0
330
6B
100
AcDbEntity
  8
0
 62
     3
100
AcDbLine
 10
-316.5288842058962
 20
-438.3852383244037
 30
0.0
 11
-320.5119112058962
 21
-438.3852383244037
 31
0.0
  0
LINE
  5
4E1
330
6B
100
AcDbEntity
  8
0
 62
     3
100
AcDbLine
 10
-320.5119112058962
 20
-441.1550713244037
 30
0.0
 11
-320.5119112058962
 21
-438.3852383244037
 31
0.0
  0
LINE
  5
4E2
330
6B
100
AcDbEntity
  8
0
 62
     3
100
AcDbLine
 10
-316.5288842058962
 20
-438.3852383244037
 30
0.0
 11
-316.5288842058962
 21
-439.9178213244036
 31
0.0
  0
LINE
  5
4E3
330
6B
100
AcDbEntity
  8
0
 62
     3
100
AcDbLine
 10
-325.6667122058963
 20
-443.6330783244035
 30
0.0
 11
-325.6667122058963
 21
-445.1574683244037
 31
0.0
  0
LINE
  5
4E4
330
6B
100
AcDbEntity
  8
0
 62
     3
100
AcDbLine
 10
-310.8618552058962
 20
-438.1574683244036
 30
0.0
 11
-324.7436942058962
 21
-442.4695923244036
 31
0.0
  0
LINE
  5
4E5
330
6B
100
AcDbEntity
  8
0
 62
     3
100
AcDbLine
 10
-310.8162202058962
 20
-435.8860473244035
 30
0.0
 11
-310.8378372058961
 21
-438.1500073244035
 31
0.0
  0
LINE
  5
4E6
330
6B
100
AcDbEntity
  8
0
  6
DASHED
100
AcDbLine
 10
-482.1965952058962
 20
-537.8739723244036
 30
0.0
 11
-482.1965952058962
 21
-527.3739723244037
 31
0.0
  0
LINE
  5
4E7
330
6B
100
AcDbEntity
  8
0
  6
DASHED
100
AcDbLine
 10
-434.9465952058962
 20
-527.3739723244037
 30
0.0
 11
-434.9465952058962
 21
-537.8739723244036
 31
0.0
  0
LINE
  5
4E8
330
6B
100
AcDbEntity
  8
0
  6
DASHED
100
AcDbLine
 10
-430.4465952058962
 20
-527.3739723244037
 30
0.0
 11
-430.4465952058962
 21
-537.8739723244036
 31
0.0
  0
LINE
  5
4E9
330
6B
100
AcDbEntity
  8
0
  6
DASHED
100
AcDbLine
 10
-432.6965952058962
 20
-527.3739723244037
 30
0.0
 11
-432.6965952058962
 21
-537.8739723244036
 31
0.0
  0
LINE
  5
4EA
330
6B
100
AcDbEntity
  8
0
 62
     3
100
AcDbLine
 10
-325.9474572058962
 20
-540.1687383244036
 30
0.0
 11
-325.2467212058963
 21
-540.1687383244036
 31
0.0
  0
LINE
  5
4EB
330
6B
100
AcDbEntity
  8
0
 62
     3
100
AcDbLine
 10
-325.9474572058962
 20
-525.0792053244037
 30
0.0
 11
-325.2467212058963
 21
-525.0792053244037
 31
0.0
  0
LINE
  5
4EC
330
6B
100
AcDbEntity
  8
0
  6
DASHED
100
AcDbLine
 10
-436.4465952058962
 20
-532.5831263244037
 30
0.0
 11
-436.4465952058962
 21
-537.8739723244036
 31
0.0
  0
LINE
  5
4ED
330
6B
100
AcDbEntity
  8
0
  6
DASHED
100
AcDbLine
 10
-434.9465952058962
 20
-537.8739723244036
 30
0.0
 11
-430.4465952058962
 21
-537.8739723244036
 31
0.0
  0
LINE
  5
4EE
330
6B
100
AcDbEntity
  8
0
  6
DASHED
100
AcDbLine
 10
-434.9465952058962
 20
-527.3739723244037
 30
0.0
 11
-430.4465952058962
 21
-527.3739723244037
 31
0.0
  0
LINE
  5
4EF
330
6B
100
AcDbEntity
  8
0
  6
DASHED
100
AcDbLine
 10
-440.1965952058962
 20
-527.3739723244037
 30
0.0
 11
-440.1965952058962
 21
-537.8739723244036
 31
0.0
  0
LINE
  5
4F0
330
6B
100
AcDbEntity
  8
0
  6
DASHED
100
AcDbLine
 10
-437.9465952058962
 20
-527.3739723244037
 30
0.0
 11
-437.9465952058962
 21
-531.9385323244037
 31
0.0
  0
LINE
  5
4F1
330
6B
100
AcDbEntity
  8
0
 62
     3
100
AcDbLine
 10
-305.4366732058962
 20
-537.1215573244036
 30
0.0
 11
-305.4366732058962
 21
-528.1215573244036
 31
0.0
  0
ARC
  5
4F2
330
6B
100
AcDbEntity
  8
0
 62
     3
100
AcDbCircle
 10
-302.4366732058962
 20
-522.1215573244036
 30
0.0
 40
1.5
100
AcDbArc
 50
0.0
 51
90.0
  0
ARC
  5
4F3
330
6B
100
AcDbEntity
  8
0
 62
     3
100
AcDbCircle
 10
-302.4366732058962
 20
-543.1215573244036
 30
0.0
 40
1.5
100
AcDbArc
 50
270.0
 51
0.0
  0
LINE
  5
4F4
330
6B
100
AcDbEntity
  8
0
 62
     3
100
AcDbLine
 10
-304.6866732058962
 20
-540.1215573244036
 30
0.0
 11
-304.6866732058962
 21
-539.7465573244036
 31
0.0
  0
LINE
  5
4F5
330
6B
100
AcDbEntity
  8
0
 62
     3
100
AcDbLine
 10
-304.6866732058962
 20
-525.1215573244036
 30
0.0
 11
-304.6866732058962
 21
-525.4965573244036
 31
0.0
  0
ARC
  5
4F6
330
6B
100
AcDbEntity
  8
0
 62
     3
100
AcDbCircle
 10
-305.0616732058962
 20
-525.1215573244036
 30
0.0
 40
0.375
100
AcDbArc
 50
0.0
 51
90.0
  0
ARC
  5
4F7
330
6B
100
AcDbEntity
  8
0
 62
     3
100
AcDbCircle
 10
-305.0616732058962
 20
-540.1215573244036
 30
0.0
 40
0.375
100
AcDbArc
 50
270.0
 51
0.0
  0
LINE
  5
4F8
330
6B
100
AcDbEntity
  8
0
 62
     3
100
AcDbLine
 10
-306.5616732058962
 20
-524.7465573244036
 30
0.0
 11
-305.0616732058962
 21
-524.7465573244036
 31
0.0
  0
LINE
  5
4F9
330
6B
100
AcDbEntity
  8
0
 62
     3
100
AcDbLine
 10
-306.5616732058962
 20
-540.4965573244036
 30
0.0
 11
-305.0616732058962
 21
-540.4965573244036
 31
0.0
  0
LINE
  5
4FA
330
6B
100
AcDbEntity
  8
0
 62
     3
100
AcDbLine
 10
-306.9366732058962
 20
-540.1215573244036
 30
0.0
 11
-306.9366732058962
 21
-538.6215573244036
 31
0.0
  0
LINE
  5
4FB
330
6B
100
AcDbEntity
  8
0
 62
     3
100
AcDbLine
 10
-306.9366732058962
 20
-525.1215573244036
 30
0.0
 11
-306.9366732058962
 21
-526.6215573244036
 31
0.0
  0
ARC
  5
4FC
330
6B
100
AcDbEntity
  8
0
 62
     3
100
AcDbCircle
 10
-306.5616732058962
 20
-525.1215573244036
 30
0.0
 40
0.375
100
AcDbArc
 50
90.0
 51
180.0
  0
ARC
  5
4FD
330
6B
100
AcDbEntity
  8
0
 62
     3
100
AcDbCircle
 10
-306.5616732058962
 20
-540.1215573244036
 30
0.0
 40
0.375
100
AcDbArc
 50
180.0
 51
270.0
  0
LINE
  5
4FE
330
6B
100
AcDbEntity
  8
0
 62
     3
100
AcDbLine
 10
-301.6866732058962
 20
-534.8715573244036
 30
0.0
 11
-304.6866732058962
 21
-534.8715573244036
 31
0.0
  0
LINE
  5
4FF
330
6B
100
AcDbEntity
  8
0
 62
     3
100
AcDbLine
 10
-301.6866732058962
 20
-530.3715573244036
 30
0.0
 11
-304.6866732058962
 21
-530.3715573244036
 31
0.0
  0
LINE
  5
500
330
6B
100
AcDbEntity
  8
0
 62
     3
100
AcDbLine
 10
-304.6866732058962
 20
-525.4965573244036
 30
0.0
 11
-304.6866732058962
 21
-530.3715573244036
 31
0.0
  0
LINE
  5
501
330
6B
100
AcDbEntity
  8
0
 62
     3
100
AcDbLine
 10
-304.6866732058962
 20
-534.8715573244036
 30
0.0
 11
-304.6866732058962
 21
-539.7465573244036
 31
0.0
  0
LINE
  5
502
330
6B
100
AcDbEntity
  8
0
 62
     3
100
AcDbLine
 10
-319.1208312058963
 20
-537.1215573244036
 30
0.0
 11
-319.6891222058963
 21
-537.1215573244036
 31
0.0
  0
LINE
  5
503
330
6B
100
AcDbEntity
  8
0
 62
     3
100
AcDbLine
 10
-319.1208312058963
 20
-528.1215573244036
 30
0.0
 11
-319.6891222058963
 21
-528.1215573244036
 31
0.0
  0
LINE
  5
504
330
6B
100
AcDbEntity
  8
0
 62
     3
100
AcDbLine
 10
-307.6891222058963
 20
-536.7465573244036
 30
0.0
 11
-307.6891222058963
 21
-534.1215573244036
 31
0.0
  0
LINE
  5
505
330
6B
100
AcDbEntity
  8
0
 62
     3
100
AcDbLine
 10
-320.4391222058963
 20
-536.3715573244036
 30
0.0
 11
-320.4391222058963
 21
-528.8715573244036
 31
0.0
  0
LINE
  5
506
330
6B
100
AcDbEntity
  8
0
 62
     3
100
AcDbLine
 10
-313.3578152058963
 20
-533.7465573244036
 30
0.0
 11
-315.9781142058962
 21
-533.7465573244036
 31
0.0
  0
LINE
  5
507
330
6B
100
AcDbEntity
  8
0
 62
     3
100
AcDbLine
 10
-310.3360792058962
 20
-531.4965573244036
 30
0.0
 11
-308.0641222058963
 21
-531.4965573244036
 31
0.0
  0
LINE
  5
508
330
6B
100
AcDbEntity
  8
0
 62
     3
100
AcDbLine
 10
-308.9316002058962
 20
-528.4965573244035
 30
0.0
 11
-308.9316002058962
 21
-531.4965573244036
 31
0.0
  0
LINE
  5
509
330
6B
100
AcDbEntity
  8
0
 62
     3
100
AcDbLine
 10
-308.9316002058962
 20
-536.7465573244036
 30
0.0
 11
-308.9316002058962
 21
-533.7465573244036
 31
0.0
  0
LINE
  5
50A
330
6B
100
AcDbEntity
  8
0
 62
     3
100
AcDbLine
 10
-321.5641222058963
 20
-527.3715573244036
 30
0.0
 11
-321.5641222058963
 21
-537.8715573244035
 31
0.0
  0
ARC
  5
50B
330
6B
100
AcDbEntity
  8
0
 62
     3
100
AcDbCircle
 10
-320.8141222058963
 20
-537.8715573244035
 30
0.0
 40
0.75
100
AcDbArc
 50
180.0
 51
270.0
  0
ARC
  5
50C
330
6B
100
AcDbEntity
  8
0
 62
     3
100
AcDbCircle
 10
-320.8141222058963
 20
-527.3715573244036
 30
0.0
 40
0.75
100
AcDbArc
 50
90.0
 51
180.0
  0
ARC
  5
50D
330
6B
100
AcDbEntity
  8
0
 62
     3
100
AcDbCircle
 10
-319.6891222058963
 20
-528.8715573244036
 30
0.0
 40
0.75
100
AcDbArc
 50
90.0
 51
180.0
  0
ARC
  5
50E
330
6B
100
AcDbEntity
  8
0
 62
     3
100
AcDbCircle
 10
-319.6891222058963
 20
-536.3715573244036
 30
0.0
 40
0.75
100
AcDbArc
 50
180.0
 51
270.0
  0
ARC
  5
50F
330
6B
100
AcDbEntity
  8
0
 62
     3
100
AcDbCircle
 10
-301.6866732058962
 20
-535.6215573244035
 30
0.0
 40
0.75
100
AcDbArc
 50
0.0
 51
90.0
  0
ARC
  5
510
330
6B
100
AcDbEntity
  8
0
 62
     3
100
AcDbCircle
 10
-301.6866732058962
 20
-529.6215573244036
 30
0.0
 40
0.75
100
AcDbArc
 50
270.0
 51
0.0
  0
LINE
  5
511
330
6B
100
AcDbEntity
  8
0
 62
     3
100
AcDbLine
 10
-309.2860792058963
 20
-544.6215573244036
 30
0.0
 11
-302.4366732058962
 21
-544.6215573244036
 31
0.0
  0
LINE
  5
512
330
6B
100
AcDbEntity
  8
0
 62
     3
100
AcDbLine
 10
-309.2110792058962
 20
-520.6215573244036
 30
0.0
 11
-302.4366732058962
 21
-520.6215573244036
 31
0.0
  0
LINE
  5
513
330
6B
100
AcDbEntity
  8
0
 62
     3
100
AcDbLine
 10
-310.7110792058962
 20
-542.3413233244035
 30
0.0
 11
-310.7110792058962
 21
-542.3715573244036
 31
0.0
  0
ARC
  5
514
330
6B
100
AcDbEntity
  8
0
 62
     3
100
AcDbCircle
 10
-309.2110792058962
 20
-543.1215573244036
 30
0.0
 40
1.5
100
AcDbArc
 50
180.0
 51
270.0
  0
LINE
  5
515
330
6B
100
AcDbEntity
  8
0
  6
HIDDEN
 62
    15
100
AcDbLine
 10
-310.7110792058962
 20
-542.3715573244036
 30
0.0
 11
-310.7110792058962
 21
-542.4163233244037
 31
0.0
  0
LINE
  5
516
330
6B
100
AcDbEntity
  8
0
 62
     3
100
AcDbLine
 10
-312.9828152058963
 20
-528.1215573244036
 30
0.0
 11
-312.9828152058963
 21
-526.6215573244036
 31
0.0
  0
LINE
  5
517
330
6B
100
AcDbEntity
  8
0
 62
     3
100
AcDbLine
 10
-312.9828152058963
 20
-537.1215573244036
 30
0.0
 11
-312.9828152058963
 21
-538.6215573244036
 31
0.0
  0
LINE
  5
518
330
6B
100
AcDbEntity
  8
0
 62
     3
100
AcDbLine
 10
-319.1208312058963
 20
-537.1215573244036
 30
0.0
 11
-312.9828152058963
 21
-537.1215573244036
 31
0.0
  0
LINE
  5
519
330
6B
100
AcDbEntity
  8
0
 62
     3
100
AcDbLine
 10
-307.3141222058963
 20
-537.1215573244036
 30
0.0
 11
-305.4366732058962
 21
-537.1215573244036
 31
0.0
  0
LINE
  5
51A
330
6B
100
AcDbEntity
  8
0
 62
     3
100
AcDbLine
 10
-319.1208312058963
 20
-528.1215573244036
 30
0.0
 11
-312.9828152058963
 21
-528.1215573244036
 31
0.0
  0
LINE
  5
51B
330
6B
100
AcDbEntity
  8
0
 62
     3
100
AcDbLine
 10
-307.3141222058963
 20
-528.1215573244036
 30
0.0
 11
-305.4366732058962
 21
-528.1215573244036
 31
0.0
  0
ARC
  5
51C
330
6B
100
AcDbEntity
  8
0
 62
     3
100
AcDbCircle
 10
-308.0641222058963
 20
-534.1215573244036
 30
0.0
 40
0.375
100
AcDbArc
 50
0.0
 51
90.0
  0
LINE
  5
51D
330
6B
100
AcDbEntity
  8
0
 62
     3
100
AcDbLine
 10
-307.6891222058963
 20
-528.4965573244035
 30
0.0
 11
-307.6891222058963
 21
-531.1215573244036
 31
0.0
  0
ARC
  5
51E
330
6B
100
AcDbEntity
  8
0
 62
     3
100
AcDbCircle
 10
-308.0641222058963
 20
-531.1215573244036
 30
0.0
 40
0.375
100
AcDbArc
 50
270.0
 51
0.0
  0
LINE
  5
51F
330
6B
100
AcDbEntity
  8
0
 62
     3
100
AcDbLine
 10
-310.3360792058962
 20
-533.7465573244036
 30
0.0
 11
-308.0641222058963
 21
-533.7465573244036
 31
0.0
  0
LINE
  5
520
330
6B
100
AcDbEntity
  8
0
 62
     3
100
AcDbLine
 10
-313.3578152058963
 20
-531.4965573244036
 30
0.0
 11
-315.9781142058962
 21
-531.4965573244036
 31
0.0
  0
LINE
  5
521
330
6B
100
AcDbEntity
  8
0
 62
     3
100
AcDbLine
 10
-307.6891222058963
 20
-534.1215573244036
 30
0.0
 11
-307.6891222058963
 21
-531.1215573244036
 31
0.0
  0
LINE
  5
522
330
6B
100
AcDbEntity
  8
0
 62
     3
100
AcDbLine
 10
-310.3360792058962
 20
-533.7465573244036
 30
0.0
 11
-313.3578152058963
 21
-533.7465573244036
 31
0.0
  0
LINE
  5
523
330
6B
100
AcDbEntity
  8
0
 62
     3
100
AcDbLine
 10
-310.3360792058962
 20
-531.4965573244036
 30
0.0
 11
-313.3578152058963
 21
-531.4965573244036
 31
0.0
  0
ARC
  5
524
330
6B
100
AcDbEntity
  8
0
 62
     3
100
AcDbCircle
 10
-309.2110792058962
 20
-522.1215573244036
 30
0.0
 40
1.5
100
AcDbArc
 50
90.0
 51
180.0
  0
LINE
  5
525
330
6B
100
AcDbEntity
  8
0
  6
HIDDEN
 62
    15
100
AcDbLine
 10
-310.7110792058962
 20
-522.8715573244036
 30
0.0
 11
-310.7110792058962
 21
-522.8267913244036
 31
0.0
  0
LINE
  5
526
330
6B
100
AcDbEntity
  8
0
  6
HIDDEN
 62
    15
100
AcDbLine
 10
-309.2110792058962
 20
-521.3715573244036
 30
0.0
 11
-309.2860792058963
 21
-521.3715573244036
 31
0.0
  0
ARC
  5
527
330
6B
100
AcDbEntity
  8
0
 62
     3
100
AcDbCircle
 10
-324.5641222058963
 20
-540.8369393244035
 30
0.0
 40
0.75
100
AcDbArc
 50
180.0
 51
263.820121000001
  0
LINE
  5
528
330
6B
100
AcDbEntity
  8
0
  6
HIDDEN
 62
    15
100
AcDbLine
 10
-325.3141222058963
 20
-540.0869393244037
 30
0.0
 11
-325.3141222058963
 21
-540.0913233244035
 31
0.0
  0
ARC
  5
529
330
6B
100
AcDbEntity
  8
0
 62
     3
100
AcDbCircle
 10
-324.5641222058963
 20
-524.3309183244035
 30
0.0
 40
0.75
100
AcDbArc
 50
95.99681099999862
 51
180.0
  0
LINE
  5
52A
330
6B
100
AcDbEntity
  8
0
  6
HIDDEN
 62
    15
100
AcDbLine
 10
-325.3141222058963
 20
-525.0809183244037
 30
0.0
 11
-325.3141222058963
 21
-525.0767913244036
 31
0.0
  0
ARC
  5
52B
330
6B
100
AcDbEntity
  8
0
 62
     3
100
AcDbCircle
 10
-307.3141222058963
 20
-536.7465573244036
 30
0.0
 40
0.375
100
AcDbArc
 50
180.0
 51
270.0
  0
LINE
  5
52C
330
6B
100
AcDbEntity
  8
0
 62
     3
100
AcDbLine
 10
-308.5566002058962
 20
-537.1215573244036
 30
0.0
 11
-307.3141222058963
 21
-537.1215573244036
 31
0.0
  0
ARC
  5
52D
330
6B
100
AcDbEntity
  8
0
 62
     3
100
AcDbCircle
 10
-308.5566002058962
 20
-536.7465573244036
 30
0.0
 40
0.375
100
AcDbArc
 50
180.0
 51
270.0
  0
ARC
  5
52E
330
6B
100
AcDbEntity
  8
0
 62
     3
100
AcDbCircle
 10
-307.3141222058963
 20
-528.4965573244035
 30
0.0
 40
0.375
100
AcDbArc
 50
90.0
 51
180.0
  0
LINE
  5
52F
330
6B
100
AcDbEntity
  8
0
 62
     3
100
AcDbLine
 10
-308.5566002058962
 20
-528.1215573244036
 30
0.0
 11
-307.3141222058963
 21
-528.1215573244036
 31
0.0
  0
ARC
  5
530
330
6B
100
AcDbEntity
  8
0
 62
     3
100
AcDbCircle
 10
-308.5566002058962
 20
-528.4965573244035
 30
0.0
 40
0.375
100
AcDbArc
 50
90.0
 51
180.0
  0
LINE
  5
531
330
6B
100
AcDbEntity
  8
0
 62
     3
100
AcDbLine
 10
-308.5566002058962
 20
-537.1215573244036
 30
0.0
 11
-310.7110792058962
 21
-537.1215573244036
 31
0.0
  0
LINE
  5
532
330
6B
100
AcDbEntity
  8
0
 62
     3
100
AcDbLine
 10
-308.5566002058962
 20
-528.1215573244036
 30
0.0
 11
-310.7110792058962
 21
-528.1215573244036
 31
0.0
  0
LINE
  5
533
330
6B
100
AcDbEntity
  8
0
  6
HIDDEN
 62
    15
100
AcDbLine
 10
-326.8141222058963
 20
-538.6687383244036
 30
0.0
 11
-326.7784812058962
 21
-538.6687383244036
 31
0.0
  0
LINE
  5
534
330
6B
100
AcDbEntity
  8
0
  6
HIDDEN
 62
    15
100
AcDbLine
 10
-326.8141222058963
 20
-526.5792053244036
 30
0.0
 11
-326.7784812058962
 21
-526.5792053244036
 31
0.0
  0
LINE
  5
535
330
6B
100
AcDbEntity
  8
0
 62
     3
100
AcDbLine
 10
-312.3777112058963
 20
-543.9980343244037
 30
0.0
 11
-309.2110792058962
 21
-544.6215573244036
 31
0.0
  0
LINE
  5
536
330
6B
100
AcDbEntity
  8
0
 62
     3
100
AcDbLine
 10
-312.3755462058963
 20
-521.2070683244037
 30
0.0
 11
-309.4965412058963
 21
-520.6489703244036
 31
0.0
  0
LINE
  5
537
330
6B
100
AcDbEntity
  8
0
 62
     3
100
AcDbLine
 10
-312.3777112058963
 20
-543.9980343244037
 30
0.0
 11
-324.6448602058962
 21
-541.5825813244037
 31
0.0
  0
LINE
  5
538
330
6B
100
AcDbEntity
  8
0
 62
     3
100
AcDbLine
 10
-312.3755462058963
 20
-521.2070683244037
 30
0.0
 11
-324.6424772058963
 21
-523.5850223244036
 31
0.0
  0
LINE
  5
539
330
6B
100
AcDbEntity
  8
0
 62
     3
100
AcDbLine
 10
-312.9828152058963
 20
-537.1215573244036
 30
0.0
 11
-312.9828152058963
 21
-533.7465573244036
 31
0.0
  0
LINE
  5
53A
330
6B
100
AcDbEntity
  8
0
 62
     3
100
AcDbLine
 10
-312.9828152058963
 20
-528.1215573244036
 30
0.0
 11
-312.9828152058963
 21
-531.4965573244036
 31
0.0
  0
LINE
  5
53B
330
6B
100
AcDbEntity
  8
0
 62
     3
100
AcDbLine
 10
-519.5985352058962
 20
-539.5421073244035
 30
0.0
 11
-526.3759682058962
 21
-535.1090553244037
 31
0.0
  0
LINE
  5
53C
330
6B
100
AcDbEntity
  8
0
 62
     3
100
AcDbLine
 10
-519.5985352058962
 20
-525.6760043244037
 30
0.0
 11
-526.3759682058962
 21
-530.1090553244035
 31
0.0
  0
ARC
  5
53D
330
6B
100
AcDbEntity
  8
0
 62
     3
100
AcDbCircle
 10
-517.5458142058962
 20
-536.4038213244035
 30
0.0
 40
3.75
100
AcDbArc
 50
236.811702000001
 51
270.0
  0
ARC
  5
53E
330
6B
100
AcDbEntity
  8
0
 62
     3
100
AcDbCircle
 10
-517.5458142058962
 20
-528.8142893244037
 30
0.0
 40
3.75
100
AcDbArc
 50
90.0
 51
123.1882979999989
  0
LINE
  5
53F
330
6B
100
AcDbEntity
  8
0
 62
     3
100
AcDbLine
 10
-523.1307542058962
 20
-535.1090553244037
 30
0.0
 11
-537.1187932058963
 21
-535.1090553244037
 31
0.0
  0
LINE
  5
540
330
6B
100
AcDbEntity
  8
0
 62
     3
100
AcDbLine
 10
-523.1307542058962
 20
-530.1090553244035
 30
0.0
 11
-537.1187932058963
 21
-530.1090553244035
 31
0.0
  0
ARC
  5
541
330
6B
100
AcDbEntity
  8
0
 62
     3
100
AcDbCircle
 10
-521.130754205896
 20
-532.6090553244037
 30
0.0
 40
2.5
100
AcDbArc
 50
270.0
 51
90.0
  0
LINE
  5
542
330
6B
100
AcDbEntity
  8
0
 62
     3
100
AcDbLine
 10
-521.130754205896
 20
-535.1090553244037
 30
0.0
 11
-523.6357032058962
 21
-535.1090553244037
 31
0.0
  0
LINE
  5
543
330
6B
100
AcDbEntity
  8
0
 62
     3
100
AcDbLine
 10
-521.130754205896
 20
-530.1090553244035
 30
0.0
 11
-523.6357032058962
 21
-530.1090553244035
 31
0.0
  0
ARC
  5
544
330
6B
100
AcDbEntity
  8
0
 62
     2
100
AcDbCircle
 10
-487.2796142058962
 20
-532.6547723244036
 30
0.0
 40
1.954384
100
AcDbArc
 50
296.4480559999986
 51
63.55194400000133
  0
ARC
  5
545
330
6B
100
AcDbEntity
  8
0
 62
     2
100
AcDbCircle
 10
-491.7692362058962
 20
-541.6800433244036
 30
0.0
 40
11.635073
100
AcDbArc
 50
63.55194400000133
 51
81.8382250000006
  0
ARC
  5
546
330
6B
100
AcDbEntity
  8
0
 62
     2
100
AcDbCircle
 10
-499.9980342058962
 20
-599.0550623244037
 30
0.0
 40
69.99678
100
AcDbArc
 50
81.8382250000006
 51
99.17448699999857
  0
ARC
  5
547
330
6B
100
AcDbEntity
  8
0
 62
     2
100
AcDbCircle
 10
-491.7692362058962
 20
-541.6800433244036
 30
0.0
 40
12.034673
100
AcDbArc
 50
63.55194400000133
 51
81.8382250000006
  0
ARC
  5
548
330
6B
100
AcDbEntity
  8
0
 62
     2
100
AcDbCircle
 10
-500.0167692058962
 20
-599.2548243244035
 30
0.0
 40
69.796915
100
AcDbArc
 50
81.73606200000069
 51
99.05376299999891
  0
ARC
  5
549
330
6B
100
AcDbEntity
  8
0
 62
     2
100
AcDbCircle
 10
-487.2796142058962
 20
-532.6547723244036
 30
0.0
 40
1.554783999999999
100
AcDbArc
 50
296.4480559999986
 51
63.55194400000133
  0
ARC
  5
54A
330
6B
100
AcDbEntity
  8
0
 62
     2
100
AcDbCircle
 10
-491.7692362058962
 20
-523.6295003244037
 30
0.0
 40
12.034673
100
AcDbArc
 50
278.1617749999994
 51
296.4480559999986
  0
ARC
  5
54B
330
6B
100
AcDbEntity
  8
0
 62
     2
100
AcDbCircle
 10
-500.0167692058962
 20
-466.0547193244036
 30
0.0
 40
69.796915
100
AcDbArc
 50
260.9462370000011
 51
278.2639379999993
  0
ARC
  5
54C
330
6B
100
AcDbEntity
  8
0
 62
     2
100
AcDbCircle
 10
-491.7692362058962
 20
-523.6295003244037
 30
0.0
 40
11.635073
100
AcDbArc
 50
278.1617749999994
 51
296.4480559999986
  0
ARC
  5
54D
330
6B
100
AcDbEntity
  8
0
 62
     2
100
AcDbCircle
 10
-499.9980342058962
 20
-466.2544813244037
 30
0.0
 40
69.99678
100
AcDbArc
 50
260.8255130000014
 51
278.1617749999994
  0
ARC
  5
54E
330
6B
100
AcDbEntity
  8
0
 62
     2
100
AcDbCircle
 10
-508.4516242058962
 20
-523.6295003244037
 30
0.0
 40
12.034673
100
AcDbArc
 50
243.5519440000013
 51
257.0019650000014
  0
ARC
  5
54F
330
6B
100
AcDbEntity
  8
0
 62
     2
100
AcDbCircle
 10
-508.4516242058962
 20
-523.6295003244037
 30
0.0
 40
11.635073
100
AcDbArc
 50
243.5519440000013
 51
257.3477330000014
  0
ARC
  5
550
330
6B
100
AcDbEntity
  8
0
 62
     2
100
AcDbCircle
 10
-512.9412472058962
 20
-532.6547723244036
 30
0.0
 40
1.554783999999999
100
AcDbArc
 50
116.4480559999986
 51
243.5519440000013
  0
ARC
  5
551
330
6B
100
AcDbEntity
  8
0
 62
     2
100
AcDbCircle
 10
-512.9412472058962
 20
-532.6547723244036
 30
0.0
 40
1.954384
100
AcDbArc
 50
116.4480559999986
 51
243.5519440000013
  0
ARC
  5
552
330
6B
100
AcDbEntity
  8
0
 62
     2
100
AcDbCircle
 10
-508.4516242058962
 20
-541.6800433244036
 30
0.0
 40
11.635073
100
AcDbArc
 50
102.6522669999985
 51
116.4480559999986
  0
ARC
  5
553
330
6B
100
AcDbEntity
  8
0
 62
     2
100
AcDbCircle
 10
-508.4516242058962
 20
-541.6800433244036
 30
0.0
 40
12.034673
100
AcDbArc
 50
102.9980349999986
 51
116.4480559999986
  0
LINE
  5
554
330
6B
100
AcDbEntity
  8
0
 62
     3
100
AcDbLine
 10
-537.6386362058962
 20
-535.6239723244036
 30
0.0
 11
-537.1948292058962
 21
-535.1843703244036
 31
0.0
  0
LINE
  5
555
330
6B
100
AcDbEntity
  8
0
 62
     3
100
AcDbLine
 10
-537.6386362058962
 20
-529.6239723244037
 30
0.0
 11
-537.1596342058961
 21
-530.1514713244037
 31
0.0
  0
LINE
  5
556
330
6B
100
AcDbEntity
  8
0
 62
     3
100
AcDbLine
 10
-344.4220962058963
 20
-540.1687383244036
 30
0.0
 11
-367.0943102058962
 21
-540.1687383244036
 31
0.0
  0
LINE
  5
557
330
6B
100
AcDbEntity
  8
0
 62
     3
100
AcDbLine
 10
-343.9343692058963
 20
-525.0792053244037
 30
0.0
 11
-366.6065832058962
 21
-525.0792053244037
 31
0.0
  0
LINE
  5
558
330
6B
100
AcDbEntity
  8
0
  6
DASHED
100
AcDbLine
 10
-479.8965952058962
 20
-537.8739723244036
 30
0.0
 11
-479.8965952058962
 21
-527.3739723244037
 31
0.0
  0
LINE
  5
559
330
6B
100
AcDbEntity
  8
0
  6
DASHED
100
AcDbLine
 10
-477.5965952058962
 20
-537.8739723244036
 30
0.0
 11
-477.5965952058962
 21
-527.3739723244037
 31
0.0
  0
LINE
  5
55A
330
6B
100
AcDbEntity
  8
0
  6
DASHED
100
AcDbLine
 10
-475.2965952058961
 20
-537.8739723244036
 30
0.0
 11
-475.2965952058961
 21
-527.3739723244037
 31
0.0
  0
LINE
  5
55B
330
6B
100
AcDbEntity
  8
0
  6
DASHED
100
AcDbLine
 10
-472.9965952058962
 20
-537.8739723244036
 30
0.0
 11
-472.9965952058962
 21
-527.3739723244037
 31
0.0
  0
LINE
  5
55C
330
6B
100
AcDbEntity
  8
0
  6
DASHED
100
AcDbLine
 10
-470.6965952058962
 20
-537.8739723244036
 30
0.0
 11
-470.6965952058962
 21
-527.3739723244037
 31
0.0
  0
LINE
  5
55D
330
6B
100
AcDbEntity
  8
0
  6
DASHED
100
AcDbLine
 10
-482.1965952058962
 20
-537.8739723244036
 30
0.0
 11
-477.5965952058962
 21
-537.8739723244036
 31
0.0
  0
LINE
  5
55E
330
6B
100
AcDbEntity
  8
0
  6
DASHED
100
AcDbLine
 10
-475.2965952058961
 20
-537.8739723244036
 30
0.0
 11
-470.6965952058962
 21
-537.8739723244036
 31
0.0
  0
LINE
  5
55F
330
6B
100
AcDbEntity
  8
0
  6
DASHED
100
AcDbLine
 10
-475.2965952058961
 20
-527.3739723244037
 30
0.0
 11
-470.6965952058962
 21
-527.3739723244037
 31
0.0
  0
LINE
  5
560
330
6B
100
AcDbEntity
  8
0
  6
DASHED
100
AcDbLine
 10
-482.1965952058962
 20
-527.3739723244037
 30
0.0
 11
-477.5965952058962
 21
-527.3739723244037
 31
0.0
  0
ARC
  5
563
330
6B
100
AcDbEntity
  8
0
 62
     3
100
AcDbCircle
 10
-320.4614812058963
 20
-532.6215573244036
 30
0.0
 40
4.622358999999998
100
AcDbArc
 50
283.2125340000015
 51
76.78746599999853
  0
LINE
  5
564
330
6B
100
AcDbEntity
  8
0
 62
     3
100
AcDbLine
 10
-325.3141222058963
 20
-540.8369393244035
 30
0.0
 11
-325.3141222058963
 21
-524.3309183244035
 31
0.0
  0
LINE
  5
565
330
6B
100
AcDbEntity
  8
0
 62
     3
100
AcDbLine
 10
-300.9366732058962
 20
-543.1215573244036
 30
0.0
 11
-300.9366732058962
 21
-535.6215573244035
 31
0.0
  0
LINE
  5
566
330
6B
100
AcDbEntity
  8
0
 62
     3
100
AcDbLine
 10
-300.9366732058962
 20
-529.6215573244036
 30
0.0
 11
-300.9366732058962
 21
-522.1215573244036
 31
0.0
  0
LINE
  5
567
330
6B
100
AcDbEntity
  8
0
 62
     3
100
AcDbLine
 10
-310.7110792058962
 20
-543.1215573244036
 30
0.0
 11
-310.7110792058962
 21
-533.7465573244036
 31
0.0
  0
LINE
  5
568
330
6B
100
AcDbEntity
  8
0
 62
     3
100
AcDbLine
 10
-310.7110792058962
 20
-522.1215573244036
 30
0.0
 11
-310.7110792058962
 21
-531.4965573244036
 31
0.0
  0
LINE
  5
569
330
6B
100
AcDbEntity
  8
0
 62
     3
100
AcDbLine
 10
-306.9366732058962
 20
-538.6215573244036
 30
0.0
 11
-325.3141222058963
 21
-538.6215573244036
 31
0.0
  0
LINE
  5
56A
330
6B
100
AcDbEntity
  8
0
 62
     3
100
AcDbLine
 10
-306.9366732058962
 20
-526.6215573244036
 30
0.0
 11
-325.3141222058963
 21
-526.6215573244036
 31
0.0
  0
LINE
  5
56B
330
6B
100
AcDbEntity
  8
0
 62
     3
100
AcDbLine
 10
-325.3141222058963
 20
-540.1687383244036
 30
0.0
 11
-436.8033602058962
 21
-540.1687383244036
 31
0.0
  0
LINE
  5
56C
330
6B
100
AcDbEntity
  8
0
 62
     3
100
AcDbLine
 10
-325.3141222058963
 20
-525.0792053244037
 30
0.0
 11
-436.3386992058962
 21
-525.0792053244037
 31
0.0
  0
CIRCLE
  5
56D
330
6B
100
AcDbEntity
  8
0
 62
     3
100
AcDbCircle
 10
-350.3141222058963
 20
-532.6215573244036
 30
0.0
 40
2.0
  0
CIRCLE
  5
56E
330
6B
100
AcDbEntity
  8
0
 62
     3
100
AcDbCircle
 10
-360.3141222058962
 20
-532.6215573244036
 30
0.0
 40
2.0
  0
CIRCLE
  5
56F
330
6B
100
AcDbEntity
  8
0
 62
     3
100
AcDbCircle
 10
-370.3141222058962
 20
-532.6215573244036
 30
0.0
 40
2.0
  0
LINE
  5
570
330
6B
100
AcDbEntity
  8
0
  6
PHANTOM
100
AcDbLine
 10
-436.4465952058962
 20
-537.8739723244036
 30
0.0
 11
-437.9167622058962
 21
-537.8739723244036
 31
0.0
  0
TEXT
  5
571
330
6B
100
AcDbEntity
  8
0
100
AcDbText
 10
-421.7380132058962
 20
-537.4334503244035
 30
0.0
 40
2.027519999999999
  1
JAPAN
 50
90.00000300000001
 41
0.800781
100
AcDbText
  0
TEXT
  5
572
330
6B
100
AcDbEntity
  8
0
100
AcDbText
 10
-418.2651182058962
 20
-537.4886793244037
 30
0.0
 40
2.433024
  1
MULTI
 50
90.00000300000001
 41
0.8579799999999998
100
AcDbText
  0
TEXT
  5
573
330
6B
100
AcDbEntity
  8
0
100
AcDbText
 10
-412.4034152058962
 20
-538.1061353244035
 30
0.0
 40
2.2176
  1
PAT.TED
 50
90.00000300000001
 41
0.7317610000000001
100
AcDbText
  0
TEXT
  5
574
330
6B
100
AcDbEntity
  8
0
100
AcDbText
 10
-415.6460462058961
 20
-536.8246823244036
 30
0.0
 40
2.433024
  1
HOOK
 50
90.00000300000001
 41
0.8262459999999999
100
AcDbText
  0
TEXT
  5
575
330
6B
100
AcDbEntity
  8
0
100
AcDbText
 10
-394.3201342058963
 20
-535.0973823244037
 30
0.0
 40
2.5344
  1
EP
 50
90.00000300000001
100
AcDbText
  0
LINE
  5
576
330
6B
100
AcDbEntity
  8
0
100
AcDbLine
 10
-421.2058712058962
 20
-526.6481973244037
 30
0.0
 11
-421.2058712058962
 21
-538.6168343244037
 31
0.0
  0
LINE
  5
577
330
6B
100
AcDbEntity
  8
0
100
AcDbLine
 10
-415.2383682058962
 20
-526.6481973244037
 30
0.0
 11
-415.2383682058962
 21
-538.6168343244037
 31
0.0
  0
LINE
  5
578
330
6B
100
AcDbEntity
  8
0
 62
     3
100
AcDbLine
 10
-424.5914362058962
 20
-527.6381973244037
 30
0.0
 11
-424.5914362058962
 21
-537.6268343244037
 31
0.0
  0
ARC
  5
579
330
6B
100
AcDbEntity
  8
0
 62
     3
100
AcDbCircle
 10
-423.6014362058962
 20
-527.6381973244037
 30
0.0
 40
0.99
100
AcDbArc
 50
90.0
 51
180.0
  0
LINE
  5
57A
330
6B
100
AcDbEntity
  8
0
 62
     3
100
AcDbLine
 10
-378.0208842058963
 20
-526.3981973244035
 30
0.0
 11
-423.6014362058962
 21
-526.3981973244035
 31
0.0
  0
ARC
  5
57B
330
6B
100
AcDbEntity
  8
0
 62
     3
100
AcDbCircle
 10
-423.6014362058962
 20
-537.6268343244037
 30
0.0
 40
0.99
100
AcDbArc
 50
180.0
 51
270.0
  0
LINE
  5
57C
330
6B
100
AcDbEntity
  8
0
 62
     3
100
AcDbLine
 10
-378.0208842058963
 20
-538.6168343244037
 30
0.0
 11
-423.6014362058962
 21
-538.6168343244037
 31
0.0
  0
LINE
  5
57D
330
6B
100
AcDbEntity
  8
0
100
AcDbLine
 10
-380.5799612058962
 20
-526.6481973244037
 30
0.0
 11
-380.5799612058962
 21
-538.6168343244037
 31
0.0
  0
ARC
  5
57E
330
6B
100
AcDbEntity
  8
0
 62
     3
100
AcDbCircle
 10
-378.0208842058963
 20
-537.6268343244037
 30
0.0
 40
0.99
100
AcDbArc
 50
270.0
 51
0.0
  0
LINE
  5
57F
330
6B
100
AcDbEntity
  8
0
 62
     3
100
AcDbLine
 10
-377.0308842058962
 20
-537.6268343244037
 30
0.0
 11
-377.0308842058962
 21
-527.6381973244037
 31
0.0
  0
ARC
  5
580
330
6B
100
AcDbEntity
  8
0
 62
     3
100
AcDbCircle
 10
-378.0208842058963
 20
-527.6381973244037
 30
0.0
 40
0.99
100
AcDbArc
 50
0.0
 51
90.0
  0
TEXT
  5
581
330
6B
100
AcDbEntity
  8
0
100
AcDbText
 10
-406.3585342058962
 20
-535.0973823244037
 30
0.0
 40
2.5344
  1
TW
 50
90.00000300000001
 41
0.8571429999999999
100
AcDbText
  0
TEXT
  5
582
330
6B
100
AcDbEntity
  8
0
100
AcDbText
 10
-409.2853062058962
 20
-535.3182573244037
 30
0.0
 40
2.5344
  1
JP
 50
90.00000300000001
100
AcDbText
  0
TEXT
  5
583
330
6B
100
AcDbEntity
  8
0
100
AcDbText
 10
-403.3489342058961
 20
-535.0973823244037
 30
0.0
 40
2.5344
  1
KR
 50
90.00000300000001
100
AcDbText
  0
TEXT
  5
584
330
6B
100
AcDbEntity
  8
0
100
AcDbText
 10
-400.3393342058962
 20
-535.0973823244037
 30
0.0
 40
2.5344
  1
CN
 50
90.00000300000001
100
AcDbText
  0
TEXT
  5
585
330
6B
100
AcDbEntity
  8
0
100
AcDbText
 10
-397.3297342058963
 20
-535.0973823244037
 30
0.0
 40
2.5344
  1
HK
 50
90.00000300000001
100
AcDbText
  0
TEXT
  5
586
330
6B
100
AcDbEntity
  8
0
100
AcDbText
 10
-391.3105342058963
 20
-535.0973823244037
 30
0.0
 40
2.5344
  1
US
 50
90.00000300000001
100
AcDbText
  0
TEXT
  5
587
330
6B
100
AcDbEntity
  8
0
100
AcDbText
 10
-388.3009342058963
 20
-535.0973823244037
 30
0.0
 40
2.5344
  1
CA
 50
90.00000300000001
100
AcDbText
  0
TEXT
  5
588
330
6B
100
AcDbEntity
  8
0
100
AcDbText
 10
-385.3438962058963
 20
-535.0973823244037
 30
0.0
 40
2.5344
  1
AU
 50
90.00000300000001
100
AcDbText
  0
LINE
  5
589
330
6B
100
AcDbEntity
  8
0
  6
DASHED
100
AcDbLine
 10
-468.3965952058962
 20
-537.8739723244036
 30
0.0
 11
-468.3965952058962
 21
-527.3739723244037
 31
0.0
  0
LINE
  5
58A
330
6B
100
AcDbEntity
  8
0
  6
DASHED
100
AcDbLine
 10
-466.0965952058963
 20
-537.8739723244036
 30
0.0
 11
-466.0965952058963
 21
-527.3739723244037
 31
0.0
  0
LINE
  5
58B
330
6B
100
AcDbEntity
  8
0
  6
DASHED
100
AcDbLine
 10
-463.7965952058961
 20
-537.8739723244036
 30
0.0
 11
-463.7965952058961
 21
-527.3739723244037
 31
0.0
  0
LINE
  5
58C
330
6B
100
AcDbEntity
  8
0
  6
DASHED
100
AcDbLine
 10
-468.3965952058962
 20
-537.8739723244036
 30
0.0
 11
-463.7965952058961
 21
-537.8739723244036
 31
0.0
  0
LINE
  5
58D
330
6B
100
AcDbEntity
  8
0
  6
DASHED
100
AcDbLine
 10
-468.3965952058962
 20
-527.3739723244037
 30
0.0
 11
-463.7965952058961
 21
-527.3739723244037
 31
0.0
  0
LINE
  5
58E
330
6B
100
AcDbEntity
  8
0
  6
DASHED
100
AcDbLine
 10
-461.4965952058962
 20
-537.8739723244036
 30
0.0
 11
-461.4965952058962
 21
-527.3739723244037
 31
0.0
  0
LINE
  5
58F
330
6B
100
AcDbEntity
  8
0
  6
DASHED
100
AcDbLine
 10
-459.1965952058962
 20
-537.8739723244036
 30
0.0
 11
-459.1965952058962
 21
-527.3739723244037
 31
0.0
  0
LINE
  5
590
330
6B
100
AcDbEntity
  8
0
  6
DASHED
100
AcDbLine
 10
-456.8965952058962
 20
-537.8739723244036
 30
0.0
 11
-456.8965952058962
 21
-527.3739723244037
 31
0.0
  0
LINE
  5
591
330
6B
100
AcDbEntity
  8
0
  6
DASHED
100
AcDbLine
 10
-461.4965952058962
 20
-537.8739723244036
 30
0.0
 11
-456.8965952058962
 21
-537.8739723244036
 31
0.0
  0
LINE
  5
592
330
6B
100
AcDbEntity
  8
0
  6
DASHED
100
AcDbLine
 10
-461.4965952058962
 20
-527.3739723244037
 30
0.0
 11
-456.8965952058962
 21
-527.3739723244037
 31
0.0
  0
LINE
  5
593
330
6B
100
AcDbEntity
  8
0
  6
DASHED
100
AcDbLine
 10
-454.5965952058963
 20
-537.8739723244036
 30
0.0
 11
-454.5965952058963
 21
-527.3739723244037
 31
0.0
  0
LINE
  5
594
330
6B
100
AcDbEntity
  8
0
  6
DASHED
100
AcDbLine
 10
-452.2965952058962
 20
-537.8739723244036
 30
0.0
 11
-452.2965952058962
 21
-527.3739723244037
 31
0.0
  0
LINE
  5
595
330
6B
100
AcDbEntity
  8
0
  6
DASHED
100
AcDbLine
 10
-449.9965952058961
 20
-537.8739723244036
 30
0.0
 11
-449.9965952058961
 21
-527.3739723244037
 31
0.0
  0
LINE
  5
596
330
6B
100
AcDbEntity
  8
0
  6
DASHED
100
AcDbLine
 10
-454.5965952058963
 20
-537.8739723244036
 30
0.0
 11
-449.9965952058961
 21
-537.8739723244036
 31
0.0
  0
LINE
  5
597
330
6B
100
AcDbEntity
  8
0
  6
DASHED
100
AcDbLine
 10
-454.5965952058963
 20
-527.3739723244037
 30
0.0
 11
-449.9965952058961
 21
-527.3739723244037
 31
0.0
  0
LINE
  5
598
330
6B
100
AcDbEntity
  8
0
  6
DASHED
100
AcDbLine
 10
-447.6965952058962
 20
-537.8739723244036
 30
0.0
 11
-447.6965952058962
 21
-527.3739723244037
 31
0.0
  0
LINE
  5
599
330
6B
100
AcDbEntity
  8
0
  6
DASHED
100
AcDbLine
 10
-445.3965952058962
 20
-537.8739723244036
 30
0.0
 11
-445.3965952058962
 21
-527.3739723244037
 31
0.0
  0
LINE
  5
59A
330
6B
100
AcDbEntity
  8
0
  6
DASHED
100
AcDbLine
 10
-443.0965952058961
 20
-537.8739723244036
 30
0.0
 11
-443.0965952058961
 21
-527.3739723244037
 31
0.0
  0
LINE
  5
59B
330
6B
100
AcDbEntity
  8
0
  6
DASHED
100
AcDbLine
 10
-447.6965952058962
 20
-537.8739723244036
 30
0.0
 11
-443.0965952058961
 21
-537.8739723244036
 31
0.0
  0
LINE
  5
59C
330
6B
100
AcDbEntity
  8
0
  6
DASHED
100
AcDbLine
 10
-447.6965952058962
 20
-527.3739723244037
 30
0.0
 11
-443.0965952058961
 21
-527.3739723244037
 31
0.0
  0
LINE
  5
59D
330
6B
100
AcDbEntity
  8
0
100
AcDbLine
 10
-440.1965952058962
 20
-527.3739723244037
 30
0.0
 11
-437.3869512058962
 21
-527.3739723244037
 31
0.0
  0
LINE
  5
59E
330
6B
100
AcDbEntity
  8
0
 62
     3
100
AcDbLine
 10
-537.7184392058961
 20
-529.6541193244037
 30
0.0
 11
-537.2746322058961
 21
-530.0937213244036
 31
0.0
  0
LINE
  5
59F
330
6B
100
AcDbEntity
  8
0
 62
     3
100
AcDbLine
 10
-537.7184392058961
 20
-535.6541193244037
 30
0.0
 11
-537.2394372058962
 21
-535.1266203244035
 31
0.0
  0
LINE
  5
5A0
330
6B
100
AcDbEntity
  8
0
 62
     3
100
AcDbLine
 10
-526.7586112058962
 20
-443.6316253244037
 30
0.0
 11
-458.1436602058961
 21
-443.6316253244037
 31
0.0
  0
LINE
  5
5A1
330
6B
100
AcDbEntity
  8
0
 62
     3
100
AcDbLine
 10
-526.7586112058962
 20
-445.1316253244036
 30
0.0
 11
-458.6000172058962
 21
-445.1316253244036
 31
0.0
  0
LINE
  5
5A2
330
6B
100
AcDbEntity
  8
0
 62
     3
100
AcDbLine
 10
-325.9327782058963
 20
-443.6330783244035
 30
0.0
 11
-423.3626012058961
 21
-443.6330783244035
 31
0.0
  0
LINE
  5
5A3
330
6B
100
AcDbEntity
  8
0
 62
     3
100
AcDbLine
 10
-300.7842172058963
 20
-445.1574683244037
 30
0.0
 11
-423.3626012058961
 21
-445.1574683244037
 31
0.0
  0
TEXT
  5
5A4
330
6B
100
AcDbEntity
  8
0
100
AcDbText
 10
-377.9905392058962
 20
-536.0230083244037
 30
0.0
 40
2.027519999999999
  1
PA6
 50
90.00000300000001
 41
1.067708
100
AcDbText
  0
LINE
  5
5A5
330
6B
100
AcDbEntity
  8
0
 62
     3
100
AcDbLine
 10
-537.7095442058962
 20
-527.1541193244037
 30
0.0
 11
-537.7095442058962
 21
-538.1541193244037
 31
0.0
  0
LINE
  5
5A7
330
6B
100
AcDbEntity
  8
0
100
AcDbLine
 10
-359.5727622058963
 20
-535.0182803244035
 30
0.0
 11
-349.8862272058963
 21
-551.7676463244035
 31
0.0
  0
LINE
  5
5A8
330
6B
100
AcDbEntity
  8
0
100
AcDbLine
 10
-349.8862272058963
 20
-551.7676463244035
 30
0.0
 11
-325.8237272058963
 21
-551.7676463244035
 31
0.0
  0
TEXT
  5
5A9
330
6B
100
AcDbEntity
  8
0
 62
     4
100
AcDbText
 10
-346.4487272058963
 20
-550.5176453244037
 30
0.0
 40
4.0
  1
3-%%C4穴
 41
0.716146
100
AcDbText
  0
LINE
  5
5AA
330
6B
100
AcDbEntity
  8
0
 62
     3
100
AcDbLine
 10
-546.2847952058962
 20
-537.7440983244037
 30
0.0
 11
-542.7847952058962
 21
-537.7440983244037
 31
0.0
  0
LINE
  5
5AB
330
6B
100
AcDbEntity
  8
0
 62
     3
100
AcDbLine
 10
-546.2847952058962
 20
-527.7440983244035
 30
0.0
 11
-542.7847952058962
 21
-527.7440983244035
 31
0.0
  0
LINE
  5
5AC
330
6B
100
AcDbEntity
  8
0
 62
     3
100
AcDbLine
 10
-546.7847952058962
 20
-528.2440983244035
 30
0.0
 11
-546.7847952058962
 21
-537.2440983244037
 31
0.0
  0
LINE
  5
5AD
330
6B
100
AcDbEntity
  8
0
 62
     3
100
AcDbLine
 10
-542.7847952058962
 20
-537.7440983244037
 30
0.0
 11
-542.7847952058962
 21
-527.7440983244035
 31
0.0
  0
ARC
  5
5AE
330
6B
100
AcDbEntity
  8
0
 62
     3
100
AcDbCircle
 10
-546.2847952058962
 20
-537.2440983244037
 30
0.0
 40
0.5
100
AcDbArc
 50
180.0
 51
270.0
  0
ARC
  5
5AF
330
6B
100
AcDbEntity
  8
0
 62
     3
100
AcDbCircle
 10
-546.2847952058962
 20
-528.2440983244035
 30
0.0
 40
0.5
100
AcDbArc
 50
90.0
 51
180.0
  0
LINE
  5
5B0
330
6B
100
AcDbEntity
  8
0
 62
     3
100
AcDbLine
 10
-537.7847952058962
 20
-529.7440983244037
 30
0.0
 11
-537.3409882058962
 21
-530.1836993244036
 31
0.0
  0
LINE
  5
5B1
330
6B
100
AcDbEntity
  8
0
 62
     3
100
AcDbLine
 10
-537.7847952058962
 20
-535.7440983244035
 30
0.0
 11
-537.3057932058961
 21
-535.2165993244036
 31
0.0
  0
LINE
  5
5B2
330
6B
100
AcDbEntity
  8
0
 62
     3
100
AcDbLine
 10
-537.8154892058963
 20
-441.2575093244035
 30
0.0
 11
-537.2958312058962
 21
-441.8231523244037
 31
0.0
  0
LINE
  5
5B3
330
6B
100
AcDbEntity
  8
0
 62
     3
100
AcDbLine
 10
-537.8154892058963
 20
-447.2575093244037
 30
0.0
 11
-537.2958312058962
 21
-446.7504663244035
 31
0.0
  0
LINE
  5
5B4
330
6B
100
AcDbEntity
  8
0
 62
     3
100
AcDbLine
 10
-537.3112842058962
 20
-441.8063313244037
 30
0.0
 11
-537.3112842058962
 21
-446.7527393244036
 31
0.0
  0
LINE
  5
5B5
330
6B
100
AcDbEntity
  8
0
 62
     3
100
AcDbLine
 10
-537.2649532058963
 20
-530.2590143244036
 30
0.0
 11
-537.2649532058963
 21
-535.2590143244036
 31
0.0
  0
LINE
  5
5B6
330
6B
100
AcDbEntity
  8
0
 62
     3
100
AcDbLine
 10
-537.7847952058962
 20
-529.7440983244037
 30
0.0
 11
-542.7847952058962
 21
-529.7440983244037
 31
0.0
  0
LINE
  5
5B7
330
6B
100
AcDbEntity
  8
0
 62
     3
100
AcDbLine
 10
-537.7847952058962
 20
-535.7440983244035
 30
0.0
 11
-542.7847952058962
 21
-535.7440983244035
 31
0.0
  0
LINE
  5
5B8
330
6B
100
AcDbEntity
  8
0
 62
     3
100
AcDbLine
 10
-537.7708502058963
 20
-441.1575093244037
 30
0.0
 11
-542.7708502058963
 21
-441.1575093244037
 31
0.0
  0
LINE
  5
5B9
330
6B
100
AcDbEntity
  8
0
 62
     3
100
AcDbLine
 10
-542.7708502058963
 20
-449.3005653244036
 30
0.0
 11
-542.7708502058963
 21
-439.0575093244036
 31
0.0
  0
LINE
  5
5BA
330
6B
100
AcDbEntity
  8
0
 62
     3
100
AcDbLine
 10
-551.7288232058962
 20
-438.6621173244035
 30
0.0
 11
-550.7047852058962
 21
-438.2987483244035
 31
0.0
  0
LINE
  5
5BB
330
6B
100
AcDbEntity
  8
0
 62
     3
100
AcDbLine
 10
-546.9430722058961
 20
-449.3005653244036
 30
0.0
 11
-546.9430722058961
 21
-438.9005653244035
 31
0.0
  0
LINE
  5
5BC
330
6B
100
AcDbEntity
  8
0
 62
     3
100
AcDbLine
 10
-542.7430722058963
 20
-449.3005653244036
 30
0.0
 11
-546.9430722058961
 21
-449.3005653244036
 31
0.0
  0
LINE
  5
5BD
330
6B
100
AcDbEntity
  8
0
 62
     3
100
AcDbLine
 10
-542.7708502058963
 20
-438.9005653244035
 30
0.0
 11
-546.9430722058961
 21
-438.9005653244035
 31
0.0
  0
LINE
  5
5BE
330
6B
100
AcDbEntity
  8
0
 62
     3
100
AcDbLine
 10
-537.7430722058963
 20
-447.2005653244035
 30
0.0
 11
-542.7430722058963
 21
-447.2005653244035
 31
0.0
  0
LINE
  5
5BF
330
6B
100
AcDbEntity
  8
0
 62
     3
100
AcDbLine
 10
-551.7288232058962
 20
-449.5390123244035
 30
0.0
 11
-550.7047852058962
 21
-449.9023813244035
 31
0.0
  0
LINE
  5
5C0
330
6B
100
AcDbEntity
  8
0
 62
     3
100
AcDbLine
 10
-590.4795442058961
 20
-418.3159273244037
 30
0.0
 11
-582.8216762058961
 21
-410.8707753244035
 31
0.0
  0
LINE
  5
5C1
330
6B
100
AcDbEntity
  8
0
 62
     3
100
AcDbLine
 10
-564.4444952058962
 20
-438.7263603244035
 30
0.0
 11
-576.7760272058962
 21
-457.7161093244035
 31
0.0
  0
LINE
  5
5C2
330
6B
100
AcDbEntity
  8
0
 62
     3
100
AcDbLine
 10
-557.4862682058961
 20
-450.8253313244036
 30
0.0
 11
-567.2329572058962
 21
-465.0321893244035
 31
0.0
  0
LINE
  5
5C3
330
6B
100
AcDbEntity
  8
0
 62
     3
100
AcDbLine
 10
-562.6728882058962
 20
-442.0012923244036
 30
0.0
 11
-574.4571592058962
 21
-459.6494003244036
 31
0.0
  0
LINE
  5
5C4
330
6B
100
AcDbEntity
  8
0
 62
     3
100
AcDbLine
 10
-559.7932112058962
 20
-448.4933603244036
 30
0.0
 11
-569.4673212058963
 21
-462.9812933244036
 31
0.0
  0
ARC
  5
5C5
330
6B
100
AcDbEntity
  8
0
 62
     3
100
AcDbCircle
 10
-597.7430722058961
 20
-444.1005653244037
 30
0.0
 40
37.0
100
AcDbArc
 50
81.74438899999953
 51
325.5477250000008
  0
ARC
  5
5C6
330
6B
100
AcDbEntity
  8
0
 62
     3
100
AcDbCircle
 10
-597.7430722058961
 20
-444.1005653244037
 30
0.0
 40
34.0
100
AcDbArc
 50
84.44655600000073
 51
326.2675489999996
  0
ARC
  5
5C7
330
6B
100
AcDbEntity
  8
0
 62
     3
100
AcDbCircle
 10
-597.7430722058961
 20
-444.1005653244037
 30
0.0
 40
28.0
100
AcDbArc
 50
84.44655600000073
 51
326.2675489999996
  0
ARC
  5
5C8
330
6B
100
AcDbEntity
  8
0
 62
     3
100
AcDbCircle
 10
-597.7430722058961
 20
-444.1005653244037
 30
0.0
 40
25.0
100
AcDbArc
 50
180.0
 51
327.0011790000006
  0
ARC
  5
5C9
330
6B
100
AcDbEntity
  8
0
 62
     3
100
AcDbCircle
 10
-560.6432132058962
 20
-444.2604033244037
 30
0.0
 40
1.5
100
AcDbArc
 50
326.193077
 51
146.1930789999993
  0
LINE
  5
5CA
330
6B
100
AcDbEntity
  8
0
 62
     3
100
AcDbLine
 10
-563.5587772058962
 20
-445.9185613244037
 30
0.0
 11
-561.8895892058962
 21
-443.4258093244037
 31
0.0
  0
ARC
  5
5CB
330
6B
100
AcDbEntity
  8
0
 62
     3
100
AcDbCircle
 10
-562.3124012058962
 20
-446.7531553244036
 30
0.0
 40
1.5
100
AcDbArc
 50
146.1930829999997
 51
326.1930789999993
  0
LINE
  5
5CC
330
6B
100
AcDbEntity
  8
0
 62
     3
100
AcDbLine
 10
-561.0660252058962
 20
-447.5877493244036
 30
0.0
 11
-559.3968372058961
 21
-445.0949973244036
 31
0.0
  0
ARC
  5
5CD
330
6B
100
AcDbEntity
  8
0
 62
     3
100
AcDbCircle
 10
-594.7430722058961
 20
-413.2460673244036
 30
0.0
 40
3.0
100
AcDbArc
 50
275.5534489999988
 51
95.55344399999922
  0
LINE
  5
5CE
330
6B
100
AcDbEntity
  8
0
 62
     3
100
AcDbLine
 10
-552.7038682058962
 20
-438.7536793244036
 30
0.0
 11
-561.4691132058963
 21
-437.3955993244036
 31
0.0
  0
ARC
  5
5CF
330
6B
100
AcDbEntity
  8
0
 62
     3
100
AcDbCircle
 10
-561.9284502058961
 20
-440.3602253244037
 30
0.0
 40
3.0
100
AcDbArc
 50
81.19266600000113
 51
147.0011790000006
  0
LINE
  5
5D0
330
6B
100
AcDbEntity
  8
0
 62
     3
100
AcDbLine
 10
-552.7038682058962
 20
-449.4474503244036
 30
0.0
 11
-556.1432972058963
 21
-449.9803533244036
 31
0.0
  0
ARC
  5
5D1
330
6B
100
AcDbEntity
  8
0
 62
     3
100
AcDbCircle
 10
-555.8370722058961
 20
-451.9567703244036
 30
0.0
 40
2.0
100
AcDbArc
 50
98.80733399999892
 51
145.5477250000008
  0
ARC
  5
5D2
330
6B
100
AcDbEntity
  8
0
 62
     3
100
AcDbCircle
 10
-560.1779682058962
 20
-443.6672393244037
 30
0.0
 40
3.0
100
AcDbArc
 50
81.19266600000113
 51
146.2675489999996
  0
LINE
  5
5D3
330
6B
100
AcDbEntity
  8
0
 62
     3
100
AcDbLine
 10
-559.7186312058962
 20
-440.7026123244036
 30
0.0
 11
-550.7430722058963
 21
-442.0932793244037
 31
0.0
  0
LINE
  5
5D4
330
6B
100
AcDbEntity
  8
0
 62
     3
100
AcDbLine
 10
-557.7576282058962
 20
-447.1946803244036
 30
0.0
 11
-550.7430722058963
 21
-446.1078503244037
 31
0.0
  0
ARC
  5
5D5
330
6B
100
AcDbEntity
  8
0
 62
     3
100
AcDbCircle
 10
-557.2982912058962
 20
-450.1593073244037
 30
0.0
 40
3.0
100
AcDbArc
 50
98.80733399999892
 51
146.2675489999996
  0
LINE
  5
5D6
330
6B
100
AcDbEntity
  8
0
 62
     3
100
AcDbLine
 10
-550.7430722058963
 20
-437.6005653244035
 30
0.0
 11
-550.7430722058963
 21
-450.6005653244037
 31
0.0
  0
ARC
  5
5D7
330
6B
100
AcDbEntity
  8
0
 62
     3
100
AcDbCircle
 10
-552.3976432058962
 20
-451.4238683244037
 30
0.0
 40
2.0
100
AcDbArc
 50
70.46334499999969
 51
98.80733399999892
  0
ARC
  5
5D8
330
6B
100
AcDbEntity
  8
0
 62
     3
100
AcDbCircle
 10
-552.3976432058962
 20
-436.7772613244037
 30
0.0
 40
2.0
100
AcDbArc
 50
261.1926660000011
 51
289.5366550000003
  0
LINE
  5
5D9
330
6B
100
AcDbEntity
  8
0
 62
     3
100
AcDbLine
 10
-589.9511482058962
 20
-409.0609003244036
 30
0.0
 11
-587.8862032058962
 21
-407.0533143244037
 31
0.0
  0
LINE
  5
5DA
330
6B
100
AcDbEntity
  8
0
 62
     3
100
AcDbLine
 10
-587.9435622058962
 20
-411.1258453244037
 30
0.0
 11
-585.8786172058962
 21
-409.1182593244035
 31
0.0
  0
ARC
  5
5DB
330
6B
100
AcDbEntity
  8
0
 62
     3
100
AcDbCircle
 10
-588.9473552058961
 20
-410.0933723244036
 30
0.0
 40
1.439999999999999
100
AcDbArc
 50
134.1930829999994
 51
314.1930789999991
  0
ARC
  5
5DC
330
6B
100
AcDbEntity
  8
0
 62
     3
100
AcDbCircle
 10
-586.8824102058962
 20
-408.0857863244037
 30
0.0
 40
1.439999999999999
100
AcDbArc
 50
314.193077
 51
134.193078999999
  0
ARC
  5
5DD
330
6B
100
AcDbEntity
  8
0
 62
     3
100
AcDbCircle
 10
-585.9585292058961
 20
-407.6442983244036
 30
0.0
 40
4.5
100
AcDbArc
 50
314.1930789999991
 51
33.3977090000004
  0
LINE
  5
5DE
330
6B
100
AcDbEntity
  8
0
  6
HIDDEN
 62
    15
100
AcDbLine
 10
-588.8216762058962
 20
-410.4707753244037
 30
0.0
 11
-588.681185205896
 21
-410.3341873244036
 31
0.0
  0
LINE
  5
5DF
330
6B
100
AcDbEntity
  8
0
 62
     3
100
AcDbLine
 10
-592.0775502058963
 20
-407.3579693244036
 30
0.0
 11
-588.2316222058961
 21
-403.1495553244035
 31
0.0
  0
ARC
  5
5E0
330
6B
100
AcDbEntity
  8
0
 62
     3
100
AcDbCircle
 10
-597.7430722058961
 20
-444.1005653244037
 30
0.0
 40
25.0
100
AcDbArc
 50
81.12277100000081
 51
180.0
  0
ARC
  5
5E1
330
6B
100
AcDbEntity
  8
0
 62
     3
100
AcDbCircle
 10
-593.2678582058962
 20
-415.4479483244037
 30
0.0
 40
4.0
100
AcDbArc
 50
261.1227710000008
 51
314.1930789999991
  0
ARC
  5
5E2
330
6B
100
AcDbEntity
  8
0
 62
     3
100
AcDbCircle
 10
-592.3728232058961
 20
-407.0881283244037
 30
0.0
 40
0.4
100
AcDbArc
 50
261.7443889999995
 51
317.5768629999997
  0
LINE
  5
5E3
330
6B
100
AcDbEntity
  8
0
 62
     3
100
AcDbLine
 10
-595.0333942058962
 20
-416.2319863244037
 30
0.0
 11
-595.0650302058963
 21
-419.2444173244036
 31
0.0
  0
LINE
  5
5E4
330
6B
100
AcDbEntity
  8
0
 62
     3
100
AcDbLine
 10
-597.7430722058961
 20
-416.1005653244036
 30
0.0
 11
-597.7430722058961
 21
-419.1005653244037
 31
0.0
  0
LINE
  5
5E5
330
6B
100
AcDbEntity
  8
0
 62
     3
100
AcDbLine
 10
-570.6102612058962
 20
-448.2212343244036
 30
0.0
 11
-568.0708422058962
 21
-450.0852603244037
 31
0.0
  0
LINE
  5
5E6
330
6B
100
AcDbEntity
  8
0
 62
     3
100
AcDbLine
 10
-576.7760272058962
 20
-457.7161093244035
 30
0.0
 11
-574.4571592058962
 21
-459.6494003244036
 31
0.0
  0
LINE
  5
5E7
330
6B
100
AcDbEntity
  8
0
 62
     3
100
AcDbLine
 10
-582.2016142058962
 20
-405.1672853244037
 30
0.0
 11
-586.9869872058962
 21
-399.8714393244037
 31
0.0
  0
LINE
  5
5E8
330
6B
100
AcDbEntity
  8
0
 62
     3
100
AcDbLine
 10
-589.5034512058962
 20
-401.6027353244036
 30
0.0
 11
-588.2316222058961
 21
-403.1495553244035
 31
0.0
  0
ARC
  5
5E9
330
6B
100
AcDbEntity
  8
0
 62
     3
100
AcDbCircle
 10
-588.1301212058962
 20
-400.9043843244036
 30
0.0
 40
1.540691999999999
100
AcDbArc
 50
42.10123900000016
 51
231.9018560000003
  0
LINE
  5
5EA
330
6B
100
AcDbEntity
  8
0
 62
     3
100
AcDbLine
 10
-539.7430722058961
 20
-452.6005653244037
 30
0.0
 11
-548.7430722058961
 21
-452.6005653244037
 31
0.0
  0
LINE
  5
5EB
330
6B
100
AcDbEntity
  8
0
 62
     3
100
AcDbLine
 10
-539.7430722058961
 20
-435.6005653244037
 30
0.0
 11
-548.7430722058961
 21
-435.6005653244037
 31
0.0
  0
ARC
  5
5EC
330
6B
100
AcDbEntity
  8
0
 62
     3
100
AcDbCircle
 10
-548.7430722058961
 20
-450.6005653244037
 30
0.0
 40
2.0
100
AcDbArc
 50
180.0
 51
270.0
  0
ARC
  5
5ED
330
6B
100
AcDbEntity
  8
0
 62
     3
100
AcDbCircle
 10
-539.7430722058961
 20
-450.6005653244037
 30
0.0
 40
2.0
100
AcDbArc
 50
270.0
 51
0.0
  0
ARC
  5
5EE
330
6B
100
AcDbEntity
  8
0
 62
     3
100
AcDbCircle
 10
-548.7430722058961
 20
-437.6005653244035
 30
0.0
 40
2.0
100
AcDbArc
 50
90.0
 51
180.0
  0
ARC
  5
5EF
330
6B
100
AcDbEntity
  8
0
 62
     3
100
AcDbCircle
 10
-539.7430722058961
 20
-437.6005653244035
 30
0.0
 40
2.0
100
AcDbArc
 50
0.0
 51
90.0
  0
LINE
  5
5F0
330
6B
100
AcDbEntity
  8
0
 62
     3
100
AcDbLine
 10
-537.7430722058963
 20
-437.6005653244035
 30
0.0
 11
-537.7430722058963
 21
-441.1575093244037
 31
0.0
  0
LINE
  5
5F1
330
6B
100
AcDbEntity
  8
0
 62
     3
100
AcDbLine
 10
-537.7430722058963
 20
-447.2005653244035
 30
0.0
 11
-537.7430722058963
 21
-450.6005653244037
 31
0.0
  0
LINE
  5
5F2
330
6B
100
AcDbEntity
  8
0
 62
     3
100
AcDbLine
 10
-634.7481222058962
 20
-537.7590143244036
 30
0.0
 11
-634.7481222058962
 21
-527.7590143244037
 31
0.0
  0
LINE
  5
5F3
330
6B
100
AcDbEntity
  8
0
 62
     3
100
AcDbLine
 10
-633.7481222058962
 20
-538.7590143244036
 30
0.0
 11
-550.7481222058962
 21
-538.7590143244036
 31
0.0
  0
LINE
  5
5F4
330
6B
100
AcDbEntity
  8
0
 62
     3
100
AcDbLine
 10
-633.7481222058962
 20
-526.7590143244036
 30
0.0
 11
-550.7481222058962
 21
-526.7590143244036
 31
0.0
  0
ARC
  5
5F5
330
6B
100
AcDbEntity
  8
0
 62
     3
100
AcDbCircle
 10
-633.7481222058962
 20
-527.7590143244037
 30
0.0
 40
1.0
100
AcDbArc
 50
90.0
 51
180.0
  0
ARC
  5
5F6
330
6B
100
AcDbEntity
  8
0
 62
     3
100
AcDbCircle
 10
-633.7481222058962
 20
-537.7590143244036
 30
0.0
 40
1.0
100
AcDbArc
 50
180.0
 51
270.0
  0
LINE
  5
5F7
330
6B
100
AcDbEntity
  8
0
 62
     3
100
AcDbLine
 10
-537.7481222058962
 20
-539.3374873244035
 30
0.0
 11
-537.7481222058962
 21
-535.7805423244037
 31
0.0
  0
ARC
  5
5F8
330
6B
100
AcDbEntity
  8
0
 62
     3
100
AcDbCircle
 10
-539.7481222058963
 20
-539.3374873244035
 30
0.0
 40
2.0
100
AcDbArc
 50
270.0
 51
0.0
  0
LINE
  5
5F9
330
6B
100
AcDbEntity
  8
0
 62
     3
100
AcDbLine
 10
-539.7481222058963
 20
-541.3374873244037
 30
0.0
 11
-548.7481222058963
 21
-541.3374873244037
 31
0.0
  0
ARC
  5
5FA
330
6B
100
AcDbEntity
  8
0
 62
     3
100
AcDbCircle
 10
-548.7481222058963
 20
-539.3374873244035
 30
0.0
 40
2.0
100
AcDbArc
 50
180.0
 51
270.0
  0
LINE
  5
5FB
330
6B
100
AcDbEntity
  8
0
 62
     3
100
AcDbLine
 10
-550.7481222058962
 20
-539.3374873244035
 30
0.0
 11
-550.7481222058962
 21
-526.3374873244035
 31
0.0
  0
ARC
  5
5FC
330
6B
100
AcDbEntity
  8
0
 62
     3
100
AcDbCircle
 10
-548.7481222058963
 20
-526.3374873244035
 30
0.0
 40
2.0
100
AcDbArc
 50
90.0
 51
180.0
  0
LINE
  5
5FD
330
6B
100
AcDbEntity
  8
0
 62
     3
100
AcDbLine
 10
-539.7481222058963
 20
-524.3374873244037
 30
0.0
 11
-548.7481222058963
 21
-524.3374873244037
 31
0.0
  0
ARC
  5
5FE
330
6B
100
AcDbEntity
  8
0
 62
     3
100
AcDbCircle
 10
-539.7481222058963
 20
-526.3374873244035
 30
0.0
 40
2.0
100
AcDbArc
 50
0.0
 51
90.0
  0
LINE
  5
5FF
330
6B
100
AcDbEntity
  8
0
 62
     3
100
AcDbLine
 10
-537.7481222058962
 20
-529.7374873244035
 30
0.0
 11
-537.7481222058962
 21
-526.3374873244035
 31
0.0
  0
LINE
  5
600
330
6B
100
AcDbEntity
  8
0
 62
     3
100
AcDbLine
 10
-517.5458142058962
 20
-525.0642893244036
 30
0.0
 11
-438.3738032058962
 21
-525.0642893244036
 31
0.0
  0
LINE
  5
601
330
6B
100
AcDbEntity
  8
0
 62
     3
100
AcDbLine
 10
-517.5458142058962
 20
-540.1538213244037
 30
0.0
 11
-438.8480012058962
 21
-540.1538213244037
 31
0.0
  0
TEXT
  5
602
330
6B
100
AcDbEntity
  8
0
 62
     3
100
AcDbText
 10
-508.1452002058962
 20
-599.8457903244037
 30
0.0
 40
4.5
  1
-20℃～80℃
  7
高4.5
100
AcDbText
  0
TEXT
  5
603
330
6B
100
AcDbEntity
  8
0
 62
     3
100
AcDbText
 10
-543.1452002058962
 20
-599.8457903244037
 30
0.0
 40
4.5
  1
使用環境温度
  7
高4.5
100
AcDbText
  0
TEXT
  5
604
330
6B
100
AcDbEntity
  8
0
 62
     3
100
AcDbText
 10
-543.1452002058962
 20
-571.8457903244036
 30
0.0
 40
4.5
  1
型　　　式
  7
高4.5
100
AcDbText
  0
TEXT
  5
606
330
6B
100
AcDbEntity
  8
0
 62
     3
100
AcDbText
 10
-543.1452002058962
 20
-592.8457903244036
 30
0.0
 40
4.5
  1
耐　荷　重
  7
高4.5
100
AcDbText
  0
TEXT
  5
608
330
6B
100
AcDbEntity
  8
0
 62
     3
100
AcDbText
 10
-508.1452002058962
 20
-592.8457903244036
 30
0.0
 40
4.5
  1
10.0kg　(at25℃)
  7
高4.5
100
AcDbText
  0
TEXT
  5
609
330
6B
100
AcDbEntity
  8
0
 62
     3
100
AcDbText
 10
-508.1452002058962
 20
-571.8457903244036
 30
0.0
 40
4.5
  1
BH-300LH
  7
高4.5
100
AcDbText
  0
TEXT
  5
60A
330
6B
100
AcDbEntity
  8
0
 62
     3
100
AcDbText
 10
-508.1452002058962
 20
-585.8457903244036
 30
0.0
 40
4.5
  1
%%C30～70
  7
高4.5
100
AcDbText
  0
TEXT
  5
60B
330
6B
100
AcDbEntity
  8
0
 62
     3
100
AcDbText
 10
-543.1452002058962
 20
-585.8457903244036
 30
0.0
 40
4.5
  1
結　束　径
  7
高4.5
100
AcDbText
  0
TEXT
  5
60C
330
6B
100
AcDbEntity
  8
0
 62
     3
100
AcDbText
 10
-543.1452002058962
 20
-578.8457903244036
 30
0.0
 40
4.5
  1
L　寸　法
  7
高4.5
100
AcDbText
  0
TEXT
  5
60D
330
6B
100
AcDbEntity
  8
0
 62
     3
100
AcDbText
 10
-508.1452002058962
 20
-578.8457903244036
 30
0.0
 40
4.5
  1
290
  7
高4.5
100
AcDbText
  0
LINE
  5
60E
330
6B
100
AcDbEntity
  8
0
 62
     3
100
AcDbLine
 10
-450.1452002058962
 20
-565.8457903244036
 30
0.0
 11
-545.1452002058962
 21
-565.8457903244036
 31
0.0
  0
LINE
  5
610
330
6B
100
AcDbEntity
  8
0
 62
     3
100
AcDbLine
 10
-545.1452002058962
 20
-565.8457903244036
 30
0.0
 11
-545.1452002058962
 21
-600.8457903244036
 31
0.0
  0
LINE
  5
611
330
6B
100
AcDbEntity
  8
0
100
AcDbLine
 10
-545.1452002058962
 20
-579.8457903244036
 30
0.0
 11
-450.1452002058962
 21
-579.8457903244036
 31
0.0
  0
LINE
  5
612
330
6B
100
AcDbEntity
  8
0
100
AcDbLine
 10
-450.1452002058962
 20
-586.8457903244035
 30
0.0
 11
-545.1452002058962
 21
-586.8457903244036
 31
0.0
  0
LINE
  5
613
330
6B
100
AcDbEntity
  8
0
100
AcDbLine
 10
-450.1452002058962
 20
-572.8457903244036
 30
0.0
 11
-545.1452002058962
 21
-572.8457903244036
 31
0.0
  0
LINE
  5
614
330
6B
100
AcDbEntity
  8
0
100
AcDbLine
 10
-545.1452002058962
 20
-593.8457903244036
 30
0.0
 11
-450.1452002058962
 21
-593.8457903244035
 31
0.0
  0
LINE
  5
615
330
6B
100
AcDbEntity
  8
0
 62
     3
100
AcDbLine
 10
-450.1452002058962
 20
-600.8457903244035
 30
0.0
 11
-545.1452002058962
 21
-600.8457903244036
 31
0.0
  0
TEXT
  5
618
330
6B
100
AcDbEntity
  8
0
 62
     3
100
AcDbText
 10
-345.9968452058963
 20
-534.9423893244037
 30
0.0
 40
4.5
  1
BH-300
 41
0.7306600000000003
100
AcDbText
  0
LINE
  5
61A
330
6B
100
AcDbEntity
  8
0
100
AcDbLine
 10
-492.4511352058963
 20
-443.6316253244037
 30
0.0
 11
-492.0473752058962
 21
-423.2888443244037
 31
0.0
  0
CIRCLE
  5
61B
330
6B
100
AcDbEntity
  8
0
100
AcDbCircle
 10
-491.9481552058962
 20
-418.2898283244036
 30
0.0
 40
5.0
  0
TEXT
  5
61C
330
6B
100
AcDbEntity
  8
0
 62
     4
100
AcDbText
 10
-492.9757816846054
 20
-421.2714947419518
 30
0.0
 40
6.299999999999998
  1
1
  7
高6.3
100
AcDbText
  0
LINE
  5
61E
330
6B
100
AcDbEntity
  8
0
100
AcDbLine
 10
-557.0864902058962
 20
-438.0746393244036
 30
0.0
 11
-553.0564902058962
 21
-422.7278353244035
 31
0.0
  0
CIRCLE
  5
61F
330
6B
100
AcDbEntity
  8
0
100
AcDbCircle
 10
-551.7865682058961
 20
-417.8917943244035
 30
0.0
 40
5.0
  0
TEXT
  5
620
330
6B
100
AcDbEntity
  8
0
 62
     4
100
AcDbText
 10
-554.022028683833
 20
-421.0058684788216
 30
0.0
 40
6.299999999999998
  1
2
  7
高6.3
100
AcDbText
  0
LINE
  5
621
330
6B
100
AcDbEntity
  8
0
 62
     2
100
AcDbLine
 10
-497.0270492058962
 20
-531.2260453244037
 30
0.0
 11
-497.2065042058962
 21
-531.2260453244037
 31
0.0
  0
ARC
  5
622
330
6B
100
AcDbEntity
  8
0
 62
     2
100
AcDbCircle
 10
-497.0270492058962
 20
-531.4611323244037
 30
0.0
 40
0.235086
100
AcDbArc
 50
0.0
 51
90.0
  0
LINE
  5
623
330
6B
100
AcDbEntity
  8
0
 62
     2
100
AcDbLine
 10
-496.7919632058962
 20
-531.4611323244037
 30
0.0
 11
-496.7919632058962
 21
-533.9483813244036
 31
0.0
  0
LINE
  5
624
330
6B
100
AcDbEntity
  8
0
 62
     2
100
AcDbLine
 10
-495.0512472058962
 20
-534.6805583244035
 30
0.0
 11
-497.2065042058962
 21
-534.6805583244035
 31
0.0
  0
LINE
  5
625
330
6B
100
AcDbEntity
  8
0
 62
     2
100
AcDbLine
 10
-495.0512472058962
 20
-534.1834673244036
 30
0.0
 11
-495.0512472058962
 21
-534.6805583244035
 31
0.0
  0
LINE
  5
626
330
6B
100
AcDbEntity
  8
0
 62
     2
100
AcDbLine
 10
-495.2307022058962
 20
-534.1834673244036
 30
0.0
 11
-495.0512472058962
 21
-534.1834673244036
 31
0.0
  0
ARC
  5
627
330
6B
100
AcDbEntity
  8
0
 62
     2
100
AcDbCircle
 10
-495.2307022058962
 20
-533.9483813244036
 30
0.0
 40
0.235086
100
AcDbArc
 50
180.0
 51
270.0
  0
LINE
  5
628
330
6B
100
AcDbEntity
  8
0
 62
     2
100
AcDbLine
 10
-497.6430862058962
 20
-530.7290483244037
 30
0.0
 11
-499.6601632058961
 21
-530.7290483244037
 31
0.0
  0
LINE
  5
629
330
6B
100
AcDbEntity
  8
0
 62
     2
100
AcDbLine
 10
-497.6430862058962
 20
-530.7290483244037
 30
0.0
 11
-497.6430862058962
 21
-531.2294273244035
 31
0.0
  0
LINE
  5
62A
330
6B
100
AcDbEntity
  8
0
 62
     2
100
AcDbLine
 10
-497.7926322058961
 20
-531.2294273244035
 30
0.0
 11
-497.6430862058962
 21
-531.2294273244035
 31
0.0
  0
ARC
  5
62B
330
6B
100
AcDbEntity
  8
0
 62
     2
100
AcDbCircle
 10
-497.7534512058962
 20
-531.4612263244035
 30
0.0
 40
0.235086
100
AcDbArc
 50
99.59406799999896
 51
180.0
  0
LINE
  5
62C
330
6B
100
AcDbEntity
  8
0
 62
     2
100
AcDbLine
 10
-497.9885372058962
 20
-531.4612263244035
 30
0.0
 11
-497.9885372058962
 21
-533.9484753244037
 31
0.0
  0
ARC
  5
62D
330
6B
100
AcDbEntity
  8
0
 62
     2
100
AcDbCircle
 10
-497.7534512058962
 20
-533.9484753244037
 30
0.0
 40
0.235086
100
AcDbArc
 50
180.0
 51
260.405932000001
  0
LINE
  5
62E
330
6B
100
AcDbEntity
  8
0
 62
     2
100
AcDbLine
 10
-497.7926322058961
 20
-534.1802733244037
 30
0.0
 11
-497.6430862058962
 21
-534.1802733244037
 31
0.0
  0
LINE
  5
62F
330
6B
100
AcDbEntity
  8
0
 62
     2
100
AcDbLine
 10
-497.6430862058962
 20
-534.1802733244037
 30
0.0
 11
-497.6430862058962
 21
-534.6806523244037
 31
0.0
  0
LINE
  5
630
330
6B
100
AcDbEntity
  8
0
 62
     2
100
AcDbLine
 10
-497.6430862058962
 20
-534.6806523244037
 30
0.0
 11
-499.6601632058961
 21
-534.6806523244037
 31
0.0
  0
ARC
  5
631
330
6B
100
AcDbEntity
  8
0
 62
     2
100
AcDbCircle
 10
-495.2307022058962
 20
-531.4611323244037
 30
0.0
 40
0.235086
100
AcDbArc
 50
90.0
 51
180.0
  0
LINE
  5
632
330
6B
100
AcDbEntity
  8
0
 62
     2
100
AcDbLine
 10
-495.4657892058961
 20
-531.4611323244037
 30
0.0
 11
-495.4657892058961
 21
-533.9483813244036
 31
0.0
  0
LINE
  5
633
330
6B
100
AcDbEntity
  8
0
 62
     2
100
AcDbLine
 10
-495.0512472058962
 20
-530.7289543244037
 30
0.0
 11
-495.0512472058962
 21
-531.2260453244037
 31
0.0
  0
LINE
  5
634
330
6B
100
AcDbEntity
  8
0
 62
     2
100
AcDbLine
 10
-495.2307022058962
 20
-531.2260453244037
 30
0.0
 11
-495.0512472058962
 21
-531.2260453244037
 31
0.0
  0
LINE
  5
635
330
6B
100
AcDbEntity
  8
0
 62
     2
100
AcDbLine
 10
-495.0512472058962
 20
-530.7289543244037
 30
0.0
 11
-497.2065042058962
 21
-530.7289543244037
 31
0.0
  0
LINE
  5
636
330
6B
100
AcDbEntity
  8
0
 62
     2
100
AcDbLine
 10
-497.2065042058962
 20
-530.7289543244037
 30
0.0
 11
-497.2065042058962
 21
-531.2260453244037
 31
0.0
  0
LINE
  5
637
330
6B
100
AcDbEntity
  8
0
 62
     2
100
AcDbLine
 10
-494.6475812058962
 20
-534.1834673244036
 30
0.0
 11
-494.6475812058962
 21
-534.6805583244035
 31
0.0
  0
ARC
  5
638
330
6B
100
AcDbEntity
  8
0
 62
     2
100
AcDbCircle
 10
-494.4681262058962
 20
-533.9483813244036
 30
0.0
 40
0.235086
100
AcDbArc
 50
270.0
 51
0.0
  0
LINE
  5
639
330
6B
100
AcDbEntity
  8
0
 62
     2
100
AcDbLine
 10
-494.4681262058962
 20
-534.1834673244036
 30
0.0
 11
-494.6475812058962
 21
-534.1834673244036
 31
0.0
  0
LINE
  5
63A
330
6B
100
AcDbEntity
  8
0
 62
     2
100
AcDbLine
 10
-492.3203342058962
 20
-534.6805583244035
 30
0.0
 11
-494.6475812058962
 21
-534.6805583244035
 31
0.0
  0
LINE
  5
63B
330
6B
100
AcDbEntity
  8
0
 62
     2
100
AcDbLine
 10
-494.2330402058963
 20
-531.4611323244037
 30
0.0
 11
-494.2330402058963
 21
-533.9483813244036
 31
0.0
  0
LINE
  5
63C
330
6B
100
AcDbEntity
  8
0
 62
     2
100
AcDbLine
 10
-492.9068662058962
 20
-531.3642263244036
 30
0.0
 11
-492.9068662058962
 21
-534.0452873244036
 31
0.0
  0
LINE
  5
63D
330
6B
100
AcDbEntity
  8
0
 62
     2
100
AcDbLine
 10
-492.9068662058962
 20
-534.0452873244036
 30
0.0
 11
-492.7260662058962
 21
-534.0452873244036
 31
0.0
  0
ARC
  5
63E
330
6B
100
AcDbEntity
  8
0
 62
     2
100
AcDbCircle
 10
-493.6505582058962
 20
-532.7047563244036
 30
0.0
 40
1.628406999999999
100
AcDbArc
 50
304.5919550000006
 51
55.40804499999939
  0
ARC
  5
63F
330
6B
100
AcDbEntity
  8
0
 62
     2
100
AcDbCircle
 10
-492.3203342058962
 20
-533.1192983244036
 30
0.0
 40
1.56126
100
AcDbArc
 50
270.0
 51
342.6912509999999
  0
ARC
  5
640
330
6B
100
AcDbEntity
  8
0
 62
     2
100
AcDbCircle
 10
-492.3203342058962
 20
-532.2902153244037
 30
0.0
 40
1.56126
100
AcDbArc
 50
17.30874900000007
 51
90.0
  0
LINE
  5
641
330
6B
100
AcDbEntity
  8
0
 62
     2
100
AcDbLine
 10
-492.3203342058962
 20
-530.7289543244037
 30
0.0
 11
-494.6475812058962
 21
-530.7289543244037
 31
0.0
  0
LINE
  5
642
330
6B
100
AcDbEntity
  8
0
 62
     2
100
AcDbLine
 10
-494.6475812058962
 20
-530.7289543244037
 30
0.0
 11
-494.6475812058962
 21
-531.2260453244037
 31
0.0
  0
LINE
  5
643
330
6B
100
AcDbEntity
  8
0
 62
     2
100
AcDbLine
 10
-494.4681262058962
 20
-531.2260453244037
 30
0.0
 11
-494.6475812058962
 21
-531.2260453244037
 31
0.0
  0
ARC
  5
644
330
6B
100
AcDbEntity
  8
0
 62
     2
100
AcDbCircle
 10
-494.4681262058962
 20
-531.4611323244037
 30
0.0
 40
0.235086
100
AcDbArc
 50
0.0
 51
90.0
  0
ARC
  5
645
330
6B
100
AcDbEntity
  8
0
 62
     2
100
AcDbCircle
 10
-497.0270492058962
 20
-533.9483813244036
 30
0.0
 40
0.235086
100
AcDbArc
 50
270.0
 51
0.0
  0
LINE
  5
646
330
6B
100
AcDbEntity
  8
0
 62
     2
100
AcDbLine
 10
-497.0270492058962
 20
-534.1834673244036
 30
0.0
 11
-497.2065042058962
 21
-534.1834673244036
 31
0.0
  0
LINE
  5
647
330
6B
100
AcDbEntity
  8
0
 62
     2
100
AcDbLine
 10
-497.2065042058962
 20
-534.1834673244036
 30
0.0
 11
-497.2065042058962
 21
-534.6805583244035
 31
0.0
  0
LINE
  5
648
330
6B
100
AcDbEntity
  8
0
 62
     2
100
AcDbLine
 10
-492.9068662058962
 20
-531.3642263244036
 30
0.0
 11
-492.7260662058962
 21
-531.3642263244036
 31
0.0
  0
ARC
  5
649
330
6B
100
AcDbEntity
  8
0
 62
     2
100
AcDbCircle
 10
-493.6505582058962
 20
-532.7047563244036
 30
0.0
 40
2.954581
100
AcDbArc
 50
342.6912509999999
 51
17.30856599999997
  0
ARC
  5
64A
330
6B
100
AcDbEntity
  8
0
 62
     2
100
AcDbCircle
 10
-493.2061552058963
 20
-532.4533453244035
 30
0.0
 40
2.802941
100
AcDbArc
 50
333.6752840000004
 51
19.69063499999966
  0
ARC
  5
64B
330
6B
100
AcDbEntity
  8
0
 62
     2
100
AcDbCircle
 10
-486.8114712058962
 20
-532.7352553244037
 30
0.0
 40
2.621769
100
AcDbArc
 50
149.3344129999993
 51
209.361467
  0
ARC
  5
64C
330
6B
100
AcDbEntity
  8
0
 62
     2
100
AcDbCircle
 10
-488.9890012058963
 20
-532.6977633244037
 30
0.0
 40
1.975802
100
AcDbArc
 50
210.35784
 51
143.0080790000007
  0
ARC
  5
64D
330
6B
100
AcDbEntity
  8
0
 62
     2
100
AcDbCircle
 10
-491.1665322058961
 20
-532.7352573244036
 30
0.0
 40
2.621769
100
AcDbArc
 50
330.3722729999993
 51
30.84052499999997
  0
ARC
  5
64E
330
6B
100
AcDbEntity
  8
0
 62
     2
100
AcDbCircle
 10
-488.9877262058962
 20
-531.4676543244037
 30
0.0
 40
0.105179
100
AcDbArc
 50
46.62177100000085
 51
138.5892689999997
  0
ARC
  5
64F
330
6B
100
AcDbEntity
  8
0
 62
     2
100
AcDbCircle
 10
-488.9877262058962
 20
-533.9418583244036
 30
0.0
 40
0.13434
100
AcDbArc
 50
215.9651230000005
 51
318.2218159999998
  0
LINE
  5
650
330
6B
100
AcDbEntity
  8
0
 62
     2
100
AcDbLine
 10
-505.9560062058962
 20
-531.4611433244037
 30
0.0
 11
-505.9560492058962
 21
-533.9483923244037
 31
0.0
  0
LINE
  5
651
330
6B
100
AcDbEntity
  8
0
 62
     2
100
AcDbLine
 10
-505.7209672058962
 20
-534.1834833244035
 30
0.0
 11
-505.5415122058962
 21
-534.1834863244037
 31
0.0
  0
ARC
  5
652
330
6B
100
AcDbEntity
  8
0
 62
     2
100
AcDbCircle
 10
-505.7209632058962
 20
-533.9483973244036
 30
0.0
 40
0.235086
100
AcDbArc
 50
179.999
 51
269.9990000000003
  0
LINE
  5
653
330
6B
100
AcDbEntity
  8
0
 62
     2
100
AcDbLine
 10
-505.5415122058962
 20
-534.1834863244037
 30
0.0
 11
-505.5415202058962
 21
-534.6805773244036
 31
0.0
  0
LINE
  5
654
330
6B
100
AcDbEntity
  8
0
 62
     2
100
AcDbLine
 10
-507.6967782058962
 20
-534.6805393244038
 30
0.0
 11
-505.5415202058962
 21
-534.6805773244036
 31
0.0
  0
LINE
  5
655
330
6B
100
AcDbEntity
  8
0
 62
     2
100
AcDbLine
 10
-510.8540842058962
 20
-532.3632163244036
 30
0.0
 11
-510.8540842058962
 21
-533.9483813244036
 31
0.0
  0
ARC
  5
656
330
6B
100
AcDbEntity
  8
0
 62
     2
100
AcDbCircle
 10
-510.6189982058962
 20
-533.9483813244036
 30
0.0
 40
0.235086
100
AcDbArc
 50
180.0
 51
270.0
  0
LINE
  5
657
330
6B
100
AcDbEntity
  8
0
 62
     2
100
AcDbLine
 10
-511.9038972058961
 20
-534.6805583244035
 30
0.0
 11
-510.4395432058963
 21
-534.6805583244035
 31
0.0
  0
ARC
  5
658
330
6B
100
AcDbEntity
  8
0
 62
     2
100
AcDbCircle
 10
-503.5896532058962
 20
-532.7047563244036
 30
0.0
 40
1.975802
100
AcDbArc
 50
46.75287999999889
 51
312.8231200000005
  0
ARC
  5
659
330
6B
100
AcDbEntity
  8
0
 62
     2
100
AcDbCircle
 10
-516.1639942058963
 20
-532.6582303244037
 30
0.0
 40
13.997507
100
AcDbArc
 50
353.866006
 51
357.694034
  0
LINE
  5
65A
330
6B
100
AcDbEntity
  8
0
 62
     2
100
AcDbLine
 10
-503.1149532058962
 20
-533.2179643244037
 30
0.0
 11
-502.1778222058962
 21
-533.2214313244037
 31
0.0
  0
LINE
  5
65C
330
6B
100
AcDbEntity
  8
0
 62
     2
100
AcDbLine
 10
-503.1111682058962
 20
-532.1950763244037
 30
0.0
 11
-502.1740372058962
 21
-532.1985433244036
 31
0.0
  0
ARC
  5
65D
330
6B
100
AcDbEntity
  8
0
 62
     2
100
AcDbCircle
 10
-516.1639942058963
 20
-532.6582303244037
 30
0.0
 40
13.997507
100
AcDbArc
 50
1.881966000000026
 51
5.709993999999952
  0
ARC
  5
65E
330
6B
100
AcDbEntity
  8
0
 62
     2
100
AcDbCircle
 10
-505.7209202058962
 20
-531.4611473244037
 30
0.0
 40
0.235086
100
AcDbArc
 50
89.99902800000048
 51
179.999
  0
LINE
  5
65F
330
6B
100
AcDbEntity
  8
0
 62
     2
100
AcDbLine
 10
-505.5414522058962
 20
-530.7289733244036
 30
0.0
 11
-505.5414602058962
 21
-531.2260643244036
 31
0.0
  0
LINE
  5
660
330
6B
100
AcDbEntity
  8
0
 62
     2
100
AcDbLine
 10
-507.6967092058962
 20
-530.7289363244036
 30
0.0
 11
-505.5414522058962
 21
-530.7289733244036
 31
0.0
  0
LINE
  5
661
330
6B
100
AcDbEntity
  8
0
 62
     2
100
AcDbLine
 10
-505.7209152058962
 20
-531.2260613244036
 30
0.0
 11
-505.5414602058962
 21
-531.2260643244036
 31
0.0
  0
ARC
  5
662
330
6B
100
AcDbEntity
  8
0
 62
     2
100
AcDbCircle
 10
-507.5172842058962
 20
-531.4611293244037
 30
0.0
 40
0.235086
100
AcDbArc
 50
359.999803
 51
89.99977399999876
  0
LINE
  5
663
330
6B
100
AcDbEntity
  8
0
 62
     2
100
AcDbLine
 10
-507.2821972058962
 20
-531.4611293244037
 30
0.0
 11
-507.2822062058961
 21
-533.9483793244037
 31
0.0
  0
ARC
  5
664
330
6B
100
AcDbEntity
  8
0
 62
     2
100
AcDbCircle
 10
-507.5173102058962
 20
-533.9483653244037
 30
0.0
 40
0.235086
100
AcDbArc
 50
269.9990000000003
 51
359.999
  0
LINE
  5
665
330
6B
100
AcDbEntity
  8
0
 62
     2
100
AcDbLine
 10
-507.6967692058961
 20
-534.1834483244037
 30
0.0
 11
-507.6967782058962
 21
-534.6805393244038
 31
0.0
  0
LINE
  5
666
330
6B
100
AcDbEntity
  8
0
 62
     2
100
AcDbLine
 10
-507.5173142058962
 20
-534.1834523244036
 30
0.0
 11
-507.6967692058961
 21
-534.1834483244037
 31
0.0
  0
LINE
  5
667
330
6B
100
AcDbEntity
  8
0
 62
     2
100
AcDbLine
 10
-507.6967092058962
 20
-530.7289363244036
 30
0.0
 11
-507.6967172058962
 21
-531.2260263244037
 31
0.0
  0
LINE
  5
668
330
6B
100
AcDbEntity
  8
0
 62
     2
100
AcDbLine
 10
-507.5172622058961
 20
-531.2260303244037
 30
0.0
 11
-507.6967172058962
 21
-531.2260263244037
 31
0.0
  0
LINE
  5
669
330
6B
100
AcDbEntity
  8
0
 62
     2
100
AcDbLine
 10
-510.4395432058963
 20
-534.1834673244036
 30
0.0
 11
-510.4395432058963
 21
-534.6805583244035
 31
0.0
  0
LINE
  5
66A
330
6B
100
AcDbEntity
  8
0
 62
     2
100
AcDbLine
 10
-510.6189982058962
 20
-534.1834673244036
 30
0.0
 11
-510.4395432058963
 21
-534.1834673244036
 31
0.0
  0
LINE
  5
66B
330
6B
100
AcDbEntity
  8
0
 62
     2
100
AcDbLine
 10
-510.8540842058962
 20
-532.3632163244036
 30
0.0
 11
-509.4057462058962
 21
-534.6805583244035
 31
0.0
  0
LINE
  5
66C
330
6B
100
AcDbEntity
  8
0
 62
     2
100
AcDbLine
 10
-509.4057462058962
 20
-534.6805583244035
 30
0.0
 11
-508.4359252058962
 21
-534.6805583244035
 31
0.0
  0
LINE
  5
66D
330
6B
100
AcDbEntity
  8
0
 62
     2
100
AcDbLine
 10
-508.4359252058962
 20
-531.5993123244036
 30
0.0
 11
-508.4359252058962
 21
-534.6805583244035
 31
0.0
  0
ARC
  5
66E
330
6B
100
AcDbEntity
  8
0
 62
     2
100
AcDbCircle
 10
-508.0626582058962
 20
-531.5993123244036
 30
0.0
 40
0.373267
100
AcDbArc
 50
83.65142599999908
 51
180.0
  0
LINE
  5
66F
330
6B
100
AcDbEntity
  8
0
 62
     2
100
AcDbLine
 10
-508.0213842058961
 20
-530.7289543244037
 30
0.0
 11
-508.0213842058961
 21
-531.2283343244037
 31
0.0
  0
LINE
  5
670
330
6B
100
AcDbEntity
  8
0
 62
     2
100
AcDbLine
 10
-509.4857382058962
 20
-530.7289543244037
 30
0.0
 11
-508.0213842058961
 21
-530.7289543244037
 31
0.0
  0
LINE
  5
671
330
6B
100
AcDbEntity
  8
0
 62
     2
100
AcDbLine
 10
-509.4857382058962
 20
-530.7289543244037
 30
0.0
 11
-509.4857382058962
 21
-531.2260453244037
 31
0.0
  0
LINE
  5
672
330
6B
100
AcDbEntity
  8
0
 62
     2
100
AcDbLine
 10
-509.4857382058962
 20
-531.2260453244037
 30
0.0
 11
-509.3062832058962
 21
-531.2260453244037
 31
0.0
  0
ARC
  5
673
330
6B
100
AcDbEntity
  8
0
 62
     2
100
AcDbCircle
 10
-509.3062832058962
 20
-531.4611323244037
 30
0.0
 40
0.235086
100
AcDbArc
 50
0.0
 51
90.0
  0
LINE
  5
674
330
6B
100
AcDbEntity
  8
0
 62
     2
100
AcDbLine
 10
-509.0711972058961
 20
-532.5187613244037
 30
0.0
 11
-509.0711972058961
 21
-531.4611323244037
 31
0.0
  0
LINE
  5
675
330
6B
100
AcDbEntity
  8
0
 62
     2
100
AcDbLine
 10
-509.0711972058961
 20
-532.5187613244037
 30
0.0
 11
-510.2457572058963
 21
-530.7289543244037
 31
0.0
  0
LINE
  5
676
330
6B
100
AcDbEntity
  8
0
 62
     2
100
AcDbLine
 10
-511.9038972058961
 20
-530.7289543244037
 30
0.0
 11
-510.2457572058963
 21
-530.7289543244037
 31
0.0
  0
LINE
  5
677
330
6B
100
AcDbEntity
  8
0
 62
     2
100
AcDbLine
 10
-501.5256002058962
 20
-533.9484753244037
 30
0.0
 11
-501.5256002058962
 21
-531.4612263244035
 31
0.0
  0
LINE
  5
678
330
6B
100
AcDbEntity
  8
0
 62
     2
100
AcDbLine
 10
-501.8710512058961
 20
-530.7290483244037
 30
0.0
 11
-499.8539742058962
 21
-530.7290483244037
 31
0.0
  0
ARC
  5
679
330
6B
100
AcDbEntity
  8
0
 62
     2
100
AcDbCircle
 10
-501.6915962058962
 20
-531.4612263244035
 30
0.0
 40
0.165996
100
AcDbArc
 50
0.0
 51
90.0
  0
LINE
  5
67A
330
6B
100
AcDbEntity
  8
0
 62
     2
100
AcDbLine
 10
-501.6915962058962
 20
-531.2952293244036
 30
0.0
 11
-501.8710512058961
 21
-531.2952293244036
 31
0.0
  0
LINE
  5
67B
330
6B
100
AcDbEntity
  8
0
 62
     2
100
AcDbLine
 10
-501.8710512058961
 20
-531.2952293244036
 30
0.0
 11
-501.8710512058961
 21
-530.7290483244037
 31
0.0
  0
ARC
  5
67C
330
6B
100
AcDbEntity
  8
0
 62
     2
100
AcDbCircle
 10
-501.6915962058962
 20
-533.9484753244037
 30
0.0
 40
0.165996
100
AcDbArc
 50
270.0
 51
0.0
  0
LINE
  5
67D
330
6B
100
AcDbEntity
  8
0
 62
     2
100
AcDbLine
 10
-501.6915962058962
 20
-534.1144713244037
 30
0.0
 11
-501.8710512058961
 21
-534.1144713244037
 31
0.0
  0
LINE
  5
67E
330
6B
100
AcDbEntity
  8
0
 62
     2
100
AcDbLine
 10
-501.8710512058961
 20
-534.6806523244037
 30
0.0
 11
-501.8710512058961
 21
-534.1144713244037
 31
0.0
  0
LINE
  5
67F
330
6B
100
AcDbEntity
  8
0
 62
     2
100
AcDbLine
 10
-501.8710512058961
 20
-534.6806523244037
 30
0.0
 11
-499.8539742058962
 21
-534.6806523244037
 31
0.0
  0
ARC
  5
680
330
6B
100
AcDbEntity
  8
0
 62
     2
100
AcDbCircle
 10
-499.5497982058962
 20
-531.4612263244035
 30
0.0
 40
0.235086
100
AcDbArc
 50
0.0
 51
80.40593200000104
  0
LINE
  5
681
330
6B
100
AcDbEntity
  8
0
 62
     2
100
AcDbLine
 10
-499.5106172058962
 20
-531.2294273244035
 30
0.0
 11
-499.6601632058961
 21
-531.2294273244035
 31
0.0
  0
LINE
  5
682
330
6B
100
AcDbEntity
  8
0
 62
     2
100
AcDbLine
 10
-499.3147112058962
 20
-532.3872143244036
 30
0.0
 11
-499.3147112058962
 21
-531.4612263244035
 31
0.0
  0
LINE
  5
683
330
6B
100
AcDbEntity
  8
0
 62
     2
100
AcDbLine
 10
-499.3147112058962
 20
-532.3872143244036
 30
0.0
 11
-500.1994262058961
 21
-532.3872143244036
 31
0.0
  0
LINE
  5
684
330
6B
100
AcDbEntity
  8
0
 62
     2
100
AcDbLine
 10
-499.3147112058962
 20
-533.0224863244036
 30
0.0
 11
-500.1994262058961
 21
-533.0224863244036
 31
0.0
  0
LINE
  5
685
330
6B
100
AcDbEntity
  8
0
 62
     2
100
AcDbLine
 10
-499.3147112058962
 20
-533.9484753244037
 30
0.0
 11
-499.3147112058962
 21
-533.0224863244036
 31
0.0
  0
ARC
  5
686
330
6B
100
AcDbEntity
  8
0
 62
     2
100
AcDbCircle
 10
-499.5497982058962
 20
-533.9484753244037
 30
0.0
 40
0.235086
100
AcDbArc
 50
279.594067999999
 51
0.0
  0
LINE
  5
687
330
6B
100
AcDbEntity
  8
0
 62
     2
100
AcDbLine
 10
-499.5106172058962
 20
-534.1802733244037
 30
0.0
 11
-499.6601632058961
 21
-534.1802733244037
 31
0.0
  0
LINE
  5
688
330
6B
100
AcDbEntity
  8
0
 62
     2
100
AcDbLine
 10
-499.6601632058961
 20
-534.1802733244037
 30
0.0
 11
-499.6601632058961
 21
-534.6806523244037
 31
0.0
  0
LINE
  5
689
330
6B
100
AcDbEntity
  8
0
 62
     2
100
AcDbLine
 10
-499.8539742058962
 20
-534.1802733244037
 30
0.0
 11
-499.8539742058962
 21
-534.6806523244037
 31
0.0
  0
LINE
  5
68A
330
6B
100
AcDbEntity
  8
0
 62
     2
100
AcDbLine
 10
-500.0035202058962
 20
-534.1802733244037
 30
0.0
 11
-499.8539742058962
 21
-534.1802733244037
 31
0.0
  0
ARC
  5
68B
330
6B
100
AcDbEntity
  8
0
 62
     2
100
AcDbCircle
 10
-499.9643392058962
 20
-533.9484753244037
 30
0.0
 40
0.235086
100
AcDbArc
 50
180.0
 51
260.405932000001
  0
LINE
  5
68C
330
6B
100
AcDbEntity
  8
0
 62
     2
100
AcDbLine
 10
-500.1994262058961
 20
-533.9484753244037
 30
0.0
 11
-500.1994262058961
 21
-533.0224863244036
 31
0.0
  0
LINE
  5
68D
330
6B
100
AcDbEntity
  8
0
 62
     2
100
AcDbLine
 10
-500.1994262058961
 20
-532.3872143244036
 30
0.0
 11
-500.1994262058961
 21
-531.4612263244035
 31
0.0
  0
ARC
  5
68E
330
6B
100
AcDbEntity
  8
0
 62
     2
100
AcDbCircle
 10
-499.9643392058962
 20
-531.4612263244035
 30
0.0
 40
0.235086
100
AcDbArc
 50
99.59406799999896
 51
180.0
  0
LINE
  5
68F
330
6B
100
AcDbEntity
  8
0
 62
     2
100
AcDbLine
 10
-500.0035202058962
 20
-531.2294273244035
 30
0.0
 11
-499.8539742058962
 21
-531.2294273244035
 31
0.0
  0
LINE
  5
690
330
6B
100
AcDbEntity
  8
0
 62
     2
100
AcDbLine
 10
-499.8539742058962
 20
-531.2294273244035
 30
0.0
 11
-499.8539742058962
 21
-530.7290483244037
 31
0.0
  0
LINE
  5
691
330
6B
100
AcDbEntity
  8
0
 62
     2
100
AcDbLine
 10
-499.6601632058961
 20
-531.2294273244035
 30
0.0
 11
-499.6601632058961
 21
-530.7290483244037
 31
0.0
  0
LINE
  5
692
330
6B
100
AcDbEntity
  8
0
 62
     2
100
AcDbLine
 10
-511.9038972058961
 20
-534.1834673244036
 30
0.0
 11
-511.9038972058961
 21
-534.6805583244035
 31
0.0
  0
LINE
  5
693
330
6B
100
AcDbEntity
  8
0
 62
     2
100
AcDbLine
 10
-511.4893562058962
 20
-531.4611323244037
 30
0.0
 11
-511.4893562058962
 21
-533.9483813244036
 31
0.0
  0
ARC
  5
694
330
6B
100
AcDbEntity
  8
0
 62
     2
100
AcDbCircle
 10
-511.7244422058962
 20
-533.9483813244036
 30
0.0
 40
0.235086
100
AcDbArc
 50
270.0
 51
0.0
  0
LINE
  5
695
330
6B
100
AcDbEntity
  8
0
 62
     2
100
AcDbLine
 10
-511.7244422058962
 20
-534.1834673244036
 30
0.0
 11
-511.9038972058961
 21
-534.1834673244036
 31
0.0
  0
ARC
  5
696
330
6B
100
AcDbEntity
  8
0
 62
     2
100
AcDbCircle
 10
-511.7244422058962
 20
-531.4611323244037
 30
0.0
 40
0.235086
100
AcDbArc
 50
0.0
 51
90.0
  0
LINE
  5
697
330
6B
100
AcDbEntity
  8
0
 62
     2
100
AcDbLine
 10
-511.9038972058961
 20
-530.7289543244037
 30
0.0
 11
-511.9038972058961
 21
-531.2260453244037
 31
0.0
  0
LINE
  5
698
330
6B
100
AcDbEntity
  8
0
 62
     2
100
AcDbLine
 10
-511.7244422058962
 20
-531.2260453244037
 30
0.0
 11
-511.9038972058961
 21
-531.2260453244037
 31
0.0
  0
LINE
  5
7F0
330
6B
100
AcDbEntity
  8
0
 62
     3
100
AcDbLine
 10
-661.3939352058962
 20
-379.7746093244037
 30
0.0
 11
-661.3939352058962
 21
-653.7746093244037
 31
0.0
  0
LINE
  5
7F1
330
6B
100
AcDbEntity
  8
0
 62
     3
100
AcDbLine
 10
-271.3939352058962
 20
-653.7746093244037
 30
0.0
 11
-271.3939352058962
 21
-379.7746093244037
 31
0.0
  0
LINE
  5
7F3
330
6B
100
AcDbEntity
  8
0
 62
     3
100
AcDbLine
 10
-661.3939352058962
 20
-653.7746093244037
 30
0.0
 11
-271.3939352058962
 21
-653.7746093244037
 31
0.0
  0
LINE
  5
7F4
330
6B
100
AcDbEntity
  8
0
 62
     3
100
AcDbLine
 10
-483.6190457358963
 20
-377.3346071844037
 30
0.0
 11
-482.9965487258962
 21
-377.6595616644038
 31
0.0
  0
LINE
  5
7F5
330
6B
100
AcDbEntity
  8
0
 62
     3
100
AcDbLine
 10
-483.6190457358963
 20
-382.6640792844039
 30
0.0
 11
-482.9965487258962
 21
-382.3391248044037
 31
0.0
  0
LINE
  5
7F6
330
6B
100
AcDbEntity
  8
0
 62
     3
100
AcDbLine
 10
-482.9965487258962
 20
-377.6595616644038
 30
0.0
 11
-482.9965487258962
 21
-382.3391248044037
 31
0.0
  0
LINE
  5
7F7
330
6B
100
AcDbEntity
  8
0
 62
     3
100
AcDbLine
 10
-481.4200952658962
 20
-382.6640792844039
 30
0.0
 11
-482.0425922758963
 21
-382.3391248044037
 31
0.0
  0
LINE
  5
7F8
330
6B
100
AcDbEntity
  8
0
 62
     3
100
AcDbLine
 10
-482.0425922758963
 20
-379.4864693544038
 30
0.0
 11
-482.0425922758963
 21
-382.3391248044037
 31
0.0
  0
LINE
  5
7F9
330
6B
100
AcDbEntity
  8
0
 62
     3
100
AcDbLine
 10
-477.7888627258962
 20
-377.3346071844037
 30
0.0
 11
-478.4113597258963
 21
-377.6595616644038
 31
0.0
  0
LINE
  5
7FA
330
6B
100
AcDbEntity
  8
0
 62
     3
100
AcDbLine
 10
-479.9878131958963
 20
-377.3346071844037
 30
0.0
 11
-479.3653161858962
 21
-377.6595616644038
 31
0.0
  0
LINE
  5
7FB
330
6B
100
AcDbEntity
  8
0
 62
     3
100
AcDbLine
 10
-479.3653161858962
 20
-377.6595616644038
 30
0.0
 11
-479.3653161858962
 21
-379.7200431844037
 31
0.0
  0
LINE
  5
7FC
330
6B
100
AcDbEntity
  8
0
 62
     3
100
AcDbLine
 10
-478.4113597258963
 20
-377.6595616644038
 30
0.0
 11
-478.4113597258963
 21
-382.9663094944038
 31
0.0
  0
LINE
  5
7FD
330
6B
100
AcDbEntity
  8
0
 62
     3
100
AcDbLine
 10
-477.4812952858963
 20
-377.3346109344037
 30
0.0
 11
-476.8588005258963
 21
-377.6595697044038
 31
0.0
  0
LINE
  5
7FE
330
6B
100
AcDbEntity
  8
0
 62
     3
100
AcDbLine
 10
-477.4814066758962
 20
-382.6640078944038
 30
0.0
 11
-476.8588983258963
 21
-382.3390751444037
 31
0.0
  0
LINE
  5
7FF
330
6B
100
AcDbEntity
  8
0
 62
     3
100
AcDbLine
 10
-476.8588005258963
 20
-377.6595697044038
 30
0.0
 11
-476.8588005258963
 21
-382.3390751444037
 31
0.0
  0
LINE
  5
800
330
6B
100
AcDbEntity
  8
0
 62
     3
100
AcDbLine
 10
-474.7248147258963
 20
-377.3346447544037
 30
0.0
 11
-475.3473162858963
 21
-377.6595905144037
 31
0.0
  0
LINE
  5
801
330
6B
100
AcDbEntity
  8
0
 62
     3
100
AcDbLine
 10
-475.3473162858963
 20
-377.6595905144037
 30
0.0
 11
-475.3473162858963
 21
-382.3390959544038
 31
0.0
  0
LINE
  5
802
330
6B
100
AcDbEntity
  8
0
 62
     3
100
AcDbLine
 10
-474.7248147258963
 20
-382.6640417144038
 30
0.0
 11
-475.3473162858963
 21
-382.3390959544038
 31
0.0
  0
LINE
  5
803
330
6B
100
AcDbEntity
  8
0
 62
     3
100
AcDbLine
 10
-469.4530240958963
 20
-377.3347033244038
 30
0.0
 11
-468.8305282158963
 21
-377.6596599444038
 31
0.0
  0
LINE
  5
804
330
6B
100
AcDbEntity
  8
0
 62
     3
100
AcDbLine
 10
-468.8305282158963
 20
-377.6596599444038
 30
0.0
 11
-468.8306098858963
 21
-382.3391653944037
 31
0.0
  0
LINE
  5
805
330
6B
100
AcDbEntity
  8
0
 62
     3
100
AcDbLine
 10
-469.4531171158963
 20
-382.6641002844037
 30
0.0
 11
-468.8306098858963
 21
-382.3391653944037
 31
0.0
  0
LINE
  5
806
330
6B
100
AcDbEntity
  8
0
 62
     3
100
AcDbLine
 10
-466.6640798558963
 20
-377.3347033244038
 30
0.0
 11
-467.2865757458962
 21
-377.6596599444038
 31
0.0
  0
LINE
  5
807
330
6B
100
AcDbEntity
  8
0
 62
     3
100
AcDbLine
 10
-466.6639868458964
 20
-382.6641002844037
 30
0.0
 11
-467.2864940758962
 21
-382.3391653944037
 31
0.0
  0
LINE
  5
808
330
6B
100
AcDbEntity
  8
0
 62
     3
100
AcDbLine
 10
-466.3730400558963
 20
-377.3347033244038
 30
0.0
 11
-465.7505441758964
 21
-377.6596599444038
 31
0.0
  0
LINE
  5
809
330
6B
100
AcDbEntity
  8
0
 62
     3
100
AcDbLine
 10
-466.3731330758962
 20
-382.6641002844037
 30
0.0
 11
-465.7506258458964
 21
-382.3391653944037
 31
0.0
  0
LINE
  5
80A
330
6B
100
AcDbEntity
  8
0
 62
     3
100
AcDbLine
 10
-463.5840958258963
 20
-377.3347033244038
 30
0.0
 11
-464.2065917058963
 21
-377.6596599444038
 31
0.0
  0
LINE
  5
80B
330
6B
100
AcDbEntity
  8
0
 62
     3
100
AcDbLine
 10
-464.2065917058963
 20
-377.6596599444038
 30
0.0
 11
-464.2065100358963
 21
-382.3391653944037
 31
0.0
  0
LINE
  5
80C
330
6B
100
AcDbEntity
  8
0
 62
     3
100
AcDbLine
 10
-463.5840028058964
 20
-382.6641002844037
 30
0.0
 11
-464.2065100358963
 21
-382.3391653944037
 31
0.0
  0
LINE
  5
80D
330
6B
100
AcDbEntity
  8
0
 62
     3
100
AcDbLine
 10
-465.7505797558963
 20
-379.6984215444037
 30
0.0
 11
-467.2865401658963
 21
-379.6984215444037
 31
0.0
  0
LINE
  5
80E
330
6B
100
AcDbEntity
  8
0
 62
     3
100
AcDbLine
 10
-465.7505902558963
 20
-380.3002649244039
 30
0.0
 11
-467.2865296658962
 21
-380.3002649244039
 31
0.0
  0
LINE
  5
80F
330
6B
100
AcDbEntity
  8
0
 62
     3
100
AcDbLine
 10
-465.7505441758964
 20
-377.6596599444038
 30
0.0
 11
-465.7505797558963
 21
-379.6984215444037
 31
0.0
  0
LINE
  5
810
330
6B
100
AcDbEntity
  8
0
 62
     3
100
AcDbLine
 10
-465.7505902558963
 20
-380.3002649244039
 30
0.0
 11
-465.7506258458964
 21
-382.3391653944037
 31
0.0
  0
LINE
  5
811
330
6B
100
AcDbEntity
  8
0
 62
     3
100
AcDbLine
 10
-467.2865757458962
 20
-377.6596599444038
 30
0.0
 11
-467.2865401658963
 21
-379.6984215444037
 31
0.0
  0
LINE
  5
812
330
6B
100
AcDbEntity
  8
0
 62
     3
100
AcDbLine
 10
-467.2865296658962
 20
-380.3002649244039
 30
0.0
 11
-467.2864940758962
 21
-382.3391653944037
 31
0.0
  0
LINE
  5
813
330
6B
100
AcDbEntity
  8
0
 62
     3
100
AcDbLine
 10
-463.2884399358963
 20
-377.3347033244038
 30
0.0
 11
-462.6659440458963
 21
-377.6596599444038
 31
0.0
  0
LINE
  5
814
330
6B
100
AcDbEntity
  8
0
 62
     3
100
AcDbLine
 10
-462.6659440458963
 20
-377.6596599444038
 30
0.0
 11
-462.6660257258962
 21
-382.3391653944037
 31
0.0
  0
LINE
  5
815
330
6B
100
AcDbEntity
  8
0
 62
     3
100
AcDbLine
 10
-463.2885329558964
 20
-382.6641002844037
 30
0.0
 11
-462.6660257258962
 21
-382.3391653944037
 31
0.0
  0
LINE
  5
816
330
6B
100
AcDbEntity
  8
0
 62
     3
100
AcDbLine
 10
-460.5319966958964
 20
-377.3347033244038
 30
0.0
 11
-461.1544925858964
 21
-377.6596599444038
 31
0.0
  0
LINE
  5
817
330
6B
100
AcDbEntity
  8
0
 62
     3
100
AcDbLine
 10
-461.1544925858964
 20
-377.6596599444038
 30
0.0
 11
-461.1544109058963
 21
-382.3391653944037
 31
0.0
  0
LINE
  5
818
330
6B
100
AcDbEntity
  8
0
 62
     3
100
AcDbLine
 10
-460.5319036758962
 20
-382.6641002844037
 30
0.0
 11
-461.1544109058963
 21
-382.3391653944037
 31
0.0
  0
LINE
  5
819
330
6B
100
AcDbEntity
  8
0
 62
     3
100
AcDbLine
 10
-460.2257687458964
 20
-377.3347033244038
 30
0.0
 11
-459.6032728558963
 21
-377.6596599444038
 31
0.0
  0
LINE
  5
81A
330
6B
100
AcDbEntity
  8
0
 62
     3
100
AcDbLine
 10
-459.6032728558963
 20
-377.6596599444038
 30
0.0
 11
-459.6033545258962
 21
-382.3391653944037
 31
0.0
  0
LINE
  5
81B
330
6B
100
AcDbEntity
  8
0
 62
     3
100
AcDbLine
 10
-460.2258617558963
 20
-382.6641002844037
 30
0.0
 11
-459.6033545258962
 21
-382.3391653944037
 31
0.0
  0
ARC
  5
81C
330
6B
100
AcDbEntity
  8
0
 62
     3
100
AcDbCircle
 10
-471.4414687658964
 20
-379.9859292944037
 30
0.0
 40
2.98040844
100
AcDbArc
 50
97.7015235100039
 51
270.0
  0
ARC
  5
81D
330
6B
100
AcDbEntity
  8
0
 62
     3
100
AcDbCircle
 10
-453.0406104258964
 20
-380.0158673344038
 30
0.0
 40
3.012776259999998
100
AcDbArc
 50
0.3142502700009232
 51
69.00558244999697
  0
ARC
  5
81E
330
6B
100
AcDbEntity
  8
0
 62
     3
100
AcDbCircle
 10
-452.3825028158963
 20
-380.0158673344038
 30
0.0
 40
3.012776259999998
100
AcDbArc
 50
110.994417550003
 51
148.1166110200028
  0
ARC
  5
81F
330
6B
100
AcDbEntity
  8
0
 62
     3
100
AcDbCircle
 10
-453.0406104258964
 20
-379.9828191344037
 30
0.0
 40
3.012776259999998
100
AcDbArc
 50
290.994417550003
 51
359.685749729999
  0
ARC
  5
820
330
6B
100
AcDbEntity
  8
0
 62
     3
100
AcDbCircle
 10
-452.3825028158963
 20
-379.9828191344037
 30
0.0
 40
3.012776259999998
100
AcDbArc
 50
211.8833889799972
 51
249.0055824499969
  0
ARC
  5
821
330
6B
100
AcDbEntity
  8
0
 62
     3
100
AcDbCircle
 10
-452.7115566158963
 20
-378.7667641044037
 30
0.0
 40
1.73438712
100
AcDbArc
 50
64.36517190000063
 51
115.6348280999993
  0
ARC
  5
822
330
6B
100
AcDbEntity
  8
0
 62
     3
100
AcDbCircle
 10
-452.7115566158963
 20
-381.2319223644038
 30
0.0
 40
1.73438712
100
AcDbArc
 50
244.3651719000007
 51
295.6348280999993
  0
ARC
  5
823
330
6B
100
AcDbEntity
  8
0
 62
     3
100
AcDbCircle
 10
-452.7115566158963
 20
-378.7338188444039
 30
0.0
 40
0.85122233
100
AcDbArc
 50
19.48660553999978
 51
160.5133944600002
  0
ARC
  5
824
330
6B
100
AcDbEntity
  8
0
 62
     3
100
AcDbCircle
 10
-452.7115566158963
 20
-381.2319223644038
 30
0.0
 40
1.73438712
100
AcDbArc
 50
244.3651719000007
 51
295.6348280999993
  0
ARC
  5
825
330
6B
100
AcDbEntity
  8
0
 62
     3
100
AcDbCircle
 10
-452.7115566158963
 20
-381.2648676244038
 30
0.0
 40
0.85122233
100
AcDbArc
 50
199.4866055399997
 51
340.5133944600002
  0
ARC
  5
826
330
6B
100
AcDbEntity
  8
0
 62
     3
100
AcDbCircle
 10
-459.4865173358963
 20
-411.7537144344036
 30
0.0
 40
37.20000000000001
100
AcDbArc
 50
69.50571480000039
 51
81.68998807000383
  0
ARC
  5
827
330
6B
100
AcDbEntity
  8
0
 62
     3
100
AcDbCircle
 10
-459.4865173358963
 20
-348.2449720344038
 30
0.0
 40
37.20000000000001
100
AcDbArc
 50
278.3100119299961
 51
290.4942851999996
  0
ARC
  5
828
330
6B
100
AcDbEntity
  8
0
 62
     3
100
AcDbCircle
 10
-447.6176542958963
 20
-379.9993432344038
 30
0.0
 40
3.299999999999998
100
AcDbArc
 50
290.4942851999996
 51
69.50571480000039
  0
ARC
  5
829
330
6B
100
AcDbEntity
  8
0
 62
     3
100
AcDbCircle
 10
-486.6176542958964
 20
-379.9993432344038
 30
0.0
 40
3.299999999999998
100
AcDbArc
 50
110.4942851999996
 51
249.5057148000004
  0
ARC
  5
82A
330
6B
100
AcDbEntity
  8
0
 62
     3
100
AcDbCircle
 10
-474.7487912658963
 20
-411.7537144344036
 30
0.0
 40
37.20000000000001
100
AcDbArc
 50
98.31001192999615
 51
110.4942851999996
  0
ARC
  5
82B
330
6B
100
AcDbEntity
  8
0
 62
     3
100
AcDbCircle
 10
-474.7487912658963
 20
-348.2449720344038
 30
0.0
 40
37.20000000000001
100
AcDbArc
 50
249.5057148000004
 51
261.6899880699974
  0
ARC
  5
82C
330
6B
100
AcDbEntity
  8
0
 62
     3
100
AcDbCircle
 10
-467.1176542958964
 20
-463.9993432344038
 30
0.0
 40
89.99999981
100
AcDbArc
 50
81.68998807000383
 51
98.31001192999615
  0
ARC
  5
82D
330
6B
100
AcDbEntity
  8
0
 62
     3
100
AcDbCircle
 10
-467.1176542958964
 20
-295.9993432344038
 30
0.0
 40
89.99999981
100
AcDbArc
 50
261.6899880699974
 51
278.3100119299961
  0
ARC
  5
82E
330
6B
100
AcDbEntity
  8
0
 62
     3
100
AcDbCircle
 10
-467.1176542958964
 20
-463.9993432344038
 30
0.0
 40
89.09999981
100
AcDbArc
 50
81.68998807000383
 51
98.31001192999615
  0
ARC
  5
82F
330
6B
100
AcDbEntity
  8
0
 62
     3
100
AcDbCircle
 10
-467.1176542958964
 20
-295.9993432344038
 30
0.0
 40
89.09999981
100
AcDbArc
 50
261.6899880699974
 51
278.3100119299961
  0
ARC
  5
830
330
6B
100
AcDbEntity
  8
0
 62
     3
100
AcDbCircle
 10
-459.4865173358963
 20
-348.2449720344038
 30
0.0
 40
36.3
100
AcDbArc
 50
278.3100119299961
 51
290.4942851999996
  0
ARC
  5
831
330
6B
100
AcDbEntity
  8
0
 62
     3
100
AcDbCircle
 10
-459.4865173358963
 20
-411.7537144344036
 30
0.0
 40
36.3
100
AcDbArc
 50
69.50571480000039
 51
81.68998807000383
  0
ARC
  5
832
330
6B
100
AcDbEntity
  8
0
 62
     3
100
AcDbCircle
 10
-447.6176542958963
 20
-379.9993432344038
 30
0.0
 40
2.399999999999999
100
AcDbArc
 50
290.4942851999996
 51
69.50571480000039
  0
ARC
  5
833
330
6B
100
AcDbEntity
  8
0
 62
     3
100
AcDbCircle
 10
-486.6176542958964
 20
-379.9993432344038
 30
0.0
 40
2.399999999999999
100
AcDbArc
 50
110.4942851999996
 51
249.5057148000004
  0
ARC
  5
834
330
6B
100
AcDbEntity
  8
0
 62
     3
100
AcDbCircle
 10
-474.7487912658963
 20
-411.7537144344036
 30
0.0
 40
36.3
100
AcDbArc
 50
98.31001192999615
 51
110.4942851999996
  0
ARC
  5
835
330
6B
100
AcDbEntity
  8
0
 62
     3
100
AcDbCircle
 10
-474.7487912658963
 20
-348.2449720344038
 30
0.0
 40
36.3
100
AcDbArc
 50
249.5057148000004
 51
261.6899880699974
  0
LINE
  5
836
330
6B
100
AcDbEntity
  8
0
 62
     3
100
AcDbLine
 10
-460.5319955758964
 20
-382.9663094944038
 30
0.0
 11
-463.2884410558963
 21
-382.9663094944038
 31
0.0
  0
LINE
  5
837
330
6B
100
AcDbEntity
  8
0
 62
     3
100
AcDbLine
 10
-460.5319955758964
 20
-382.6640792844039
 30
0.0
 11
-460.5319955758964
 21
-382.9663094944038
 31
0.0
  0
LINE
  5
838
330
6B
100
AcDbEntity
  8
0
 62
     3
100
AcDbLine
 10
-463.5840947058964
 20
-377.0325180044038
 30
0.0
 11
-466.3730411758963
 21
-377.0325180044038
 31
0.0
  0
LINE
  5
839
330
6B
100
AcDbEntity
  8
0
 62
     3
100
AcDbLine
 10
-463.5840947058964
 20
-377.0325180044038
 30
0.0
 11
-463.5840947058964
 21
-377.3346071844037
 31
0.0
  0
LINE
  5
83A
330
6B
100
AcDbEntity
  8
0
 62
     3
100
AcDbLine
 10
-463.5840947058964
 20
-382.6640792844039
 30
0.0
 11
-463.5840947058964
 21
-382.9664505144037
 31
0.0
  0
LINE
  5
83B
330
6B
100
AcDbEntity
  8
0
 62
     3
100
AcDbLine
 10
-463.5840947058964
 20
-382.9664505144037
 30
0.0
 11
-466.3730411758963
 21
-382.9664505144037
 31
0.0
  0
LINE
  5
83C
330
6B
100
AcDbEntity
  8
0
 62
     3
100
AcDbLine
 10
-460.5319955758964
 20
-377.0323769744039
 30
0.0
 11
-460.5319955758964
 21
-377.3346071844037
 31
0.0
  0
LINE
  5
83D
330
6B
100
AcDbEntity
  8
0
 62
     3
100
AcDbLine
 10
-460.5319955758964
 20
-377.0323769744039
 30
0.0
 11
-463.2884410558963
 21
-377.0323769744039
 31
0.0
  0
LINE
  5
83E
330
6B
100
AcDbEntity
  8
0
 62
     3
100
AcDbLine
 10
-463.2884410558963
 20
-377.0323769744039
 30
0.0
 11
-463.2884410558963
 21
-377.3346071844037
 31
0.0
  0
LINE
  5
83F
330
6B
100
AcDbEntity
  8
0
 62
     3
100
AcDbLine
 10
-460.2257698658964
 20
-382.6640792844039
 30
0.0
 11
-460.2257698658964
 21
-382.9663094944038
 31
0.0
  0
LINE
  5
840
330
6B
100
AcDbEntity
  8
0
 62
     3
100
AcDbLine
 10
-457.3910547758963
 20
-382.9663094944038
 30
0.0
 11
-460.2257698658964
 21
-382.9663094944038
 31
0.0
  0
LINE
  5
841
330
6B
100
AcDbEntity
  8
0
 62
     3
100
AcDbLine
 10
-458.0918213858963
 20
-377.9863334344037
 30
0.0
 11
-458.0918213858963
 21
-382.0123530344038
 31
0.0
  0
LINE
  5
842
330
6B
100
AcDbEntity
  8
0
 62
     3
100
AcDbLine
 10
-458.0918213858963
 20
-382.0123530344038
 30
0.0
 11
-457.8203228658963
 21
-382.0123530344038
 31
0.0
  0
ARC
  5
843
330
6B
100
AcDbEntity
  8
0
 62
     3
100
AcDbCircle
 10
-459.2085882058963
 20
-379.9993432344038
 30
0.0
 40
2.44529939
100
AcDbArc
 50
304.5919552699941
 51
55.40804473000584
  0
LINE
  5
844
330
6B
100
AcDbEntity
  8
0
 62
     3
100
AcDbLine
 10
-457.3910547758963
 20
-377.0323769744039
 30
0.0
 11
-460.2257698658964
 21
-377.0323769744039
 31
0.0
  0
LINE
  5
845
330
6B
100
AcDbEntity
  8
0
 62
     3
100
AcDbLine
 10
-460.2257698658964
 20
-377.0323769744039
 30
0.0
 11
-460.2257698658964
 21
-377.3346071844037
 31
0.0
  0
LINE
  5
846
330
6B
100
AcDbEntity
  8
0
 62
     3
100
AcDbLine
 10
-463.2884410558963
 20
-382.6640792844039
 30
0.0
 11
-463.2884410558963
 21
-382.9663094944038
 31
0.0
  0
LINE
  5
847
330
6B
100
AcDbEntity
  8
0
 62
     3
100
AcDbLine
 10
-458.0918213858963
 20
-377.9863334344037
 30
0.0
 11
-457.8203228658963
 21
-377.9863334344037
 31
0.0
  0
LINE
  5
848
330
6B
100
AcDbEntity
  8
0
 62
     3
100
AcDbLine
 10
-474.7249066258963
 20
-382.6640792844039
 30
0.0
 11
-474.7249118958963
 21
-382.9663377344037
 31
0.0
  0
LINE
  5
849
330
6B
100
AcDbEntity
  8
0
 62
     3
100
AcDbLine
 10
-477.4813573758962
 20
-382.9662812444037
 30
0.0
 11
-474.7249118958963
 21
-382.9663293544038
 31
0.0
  0
LINE
  5
84A
330
6B
100
AcDbEntity
  8
0
 62
     3
100
AcDbLine
 10
-483.6190457358963
 20
-382.9663094944038
 30
0.0
 11
-481.4200952658962
 21
-382.9663094944038
 31
0.0
  0
ARC
  5
84B
330
6B
100
AcDbEntity
  8
0
 62
     3
100
AcDbCircle
 10
-490.7361067058963
 20
-379.9294766244037
 30
0.0
 40
21.01937947
100
AcDbArc
 50
353.8660061900015
 51
357.6940342600001
  0
LINE
  5
84C
330
6B
100
AcDbEntity
  8
0
 62
     3
100
AcDbLine
 10
-471.1409926158963
 20
-380.7700018444037
 30
0.0
 11
-469.7337484958962
 21
-380.7752088144038
 31
0.0
  0
LINE
  5
84E
330
6B
100
AcDbEntity
  8
0
 62
     3
100
AcDbLine
 10
-471.1353091658962
 20
-379.2339807844038
 30
0.0
 11
-469.7280650458963
 21
-379.2391877544037
 31
0.0
  0
ARC
  5
84F
330
6B
100
AcDbEntity
  8
0
 62
     3
100
AcDbCircle
 10
-490.7361067058963
 20
-379.9294766244037
 30
0.0
 40
21.01937947
100
AcDbArc
 50
1.881965739997945
 51
5.709993810001195
  0
LINE
  5
850
330
6B
100
AcDbEntity
  8
0
 62
     3
100
AcDbLine
 10
-474.7248083358963
 20
-377.0324052244037
 30
0.0
 11
-474.7248136058963
 21
-377.3346071844037
 31
0.0
  0
LINE
  5
851
330
6B
100
AcDbEntity
  8
0
 62
     3
100
AcDbLine
 10
-477.4812538158963
 20
-377.0323487344037
 30
0.0
 11
-474.7248083358963
 21
-377.0323968444037
 31
0.0
  0
LINE
  5
852
330
6B
100
AcDbEntity
  8
0
 62
     3
100
AcDbLine
 10
-477.4813521058963
 20
-382.6640792844039
 30
0.0
 11
-477.4813573758962
 21
-382.9662812444037
 31
0.0
  0
LINE
  5
853
330
6B
100
AcDbEntity
  8
0
 62
     3
100
AcDbLine
 10
-477.4812538158963
 20
-377.0323487344037
 30
0.0
 11
-477.4812590858963
 21
-377.3346071844037
 31
0.0
  0
LINE
  5
854
330
6B
100
AcDbEntity
  8
0
 62
     3
100
AcDbLine
 10
-481.4200952658962
 20
-382.6640792844039
 30
0.0
 11
-481.4200952658962
 21
-382.9663094944038
 31
0.0
  0
LINE
  5
855
330
6B
100
AcDbEntity
  8
0
 62
     3
100
AcDbLine
 10
-482.0425922758963
 20
-379.4864693544038
 30
0.0
 11
-479.8676921958963
 21
-382.9663094944038
 31
0.0
  0
LINE
  5
856
330
6B
100
AcDbEntity
  8
0
 62
     3
100
AcDbLine
 10
-479.8676921958963
 20
-382.9663094944038
 30
0.0
 11
-478.4113597258963
 21
-382.9663094944038
 31
0.0
  0
LINE
  5
857
330
6B
100
AcDbEntity
  8
0
 62
     3
100
AcDbLine
 10
-477.7888627258962
 20
-377.0323769744039
 30
0.0
 11
-477.7888627258962
 21
-377.3346071844037
 31
0.0
  0
LINE
  5
858
330
6B
100
AcDbEntity
  8
0
 62
     3
100
AcDbLine
 10
-479.9878131958963
 20
-377.0323769744039
 30
0.0
 11
-477.7888627258962
 21
-377.0323769744039
 31
0.0
  0
LINE
  5
859
330
6B
100
AcDbEntity
  8
0
 62
     3
100
AcDbLine
 10
-479.9878131958963
 20
-377.0323769744039
 30
0.0
 11
-479.9878131958963
 21
-377.3346071844037
 31
0.0
  0
LINE
  5
85A
330
6B
100
AcDbEntity
  8
0
 62
     3
100
AcDbLine
 10
-479.3653161858962
 20
-379.7200431844037
 30
0.0
 11
-481.1290971258962
 21
-377.0323769744039
 31
0.0
  0
LINE
  5
85B
330
6B
100
AcDbEntity
  8
0
 62
     3
100
AcDbLine
 10
-483.6190457358963
 20
-377.0323769744039
 30
0.0
 11
-481.1290971258962
 21
-377.0323769744039
 31
0.0
  0
LINE
  5
85C
330
6B
100
AcDbEntity
  8
0
 62
     3
100
AcDbLine
 10
-469.4530252158962
 20
-377.0325180044038
 30
0.0
 11
-466.6640787358963
 21
-377.0325180044038
 31
0.0
  0
LINE
  5
85D
330
6B
100
AcDbEntity
  8
0
 62
     3
100
AcDbLine
 10
-469.4530252158962
 20
-377.3346071844037
 30
0.0
 11
-469.4530252158962
 21
-377.0325180044038
 31
0.0
  0
LINE
  5
85E
330
6B
100
AcDbEntity
  8
0
 62
     3
100
AcDbLine
 10
-469.4530252158962
 20
-382.9664505144037
 30
0.0
 11
-469.4530252158962
 21
-382.6640792844039
 31
0.0
  0
LINE
  5
85F
330
6B
100
AcDbEntity
  8
0
 62
     3
100
AcDbLine
 10
-469.4530252158962
 20
-382.9664505144037
 30
0.0
 11
-466.6640787358963
 21
-382.9664505144037
 31
0.0
  0
LINE
  5
860
330
6B
100
AcDbEntity
  8
0
 62
     3
100
AcDbLine
 10
-466.3730411758963
 20
-382.6640792844039
 30
0.0
 11
-466.3730411758963
 21
-382.9664505144037
 31
0.0
  0
LINE
  5
861
330
6B
100
AcDbEntity
  8
0
 62
     3
100
AcDbLine
 10
-466.6640787358963
 20
-382.6640792844039
 30
0.0
 11
-466.6640787358963
 21
-382.9664505144037
 31
0.0
  0
LINE
  5
862
330
6B
100
AcDbEntity
  8
0
 62
     3
100
AcDbLine
 10
-466.6640787358963
 20
-377.3346071844037
 30
0.0
 11
-466.6640787358963
 21
-377.0325180044038
 31
0.0
  0
LINE
  5
863
330
6B
100
AcDbEntity
  8
0
 62
     3
100
AcDbLine
 10
-466.3730411758963
 20
-377.3346071844037
 30
0.0
 11
-466.3730411758963
 21
-377.0325180044038
 31
0.0
  0
LINE
  5
864
330
6B
100
AcDbEntity
  8
0
 62
     3
100
AcDbLine
 10
-483.6190457358963
 20
-382.6640792844039
 30
0.0
 11
-483.6190457358963
 21
-382.9663094944038
 31
0.0
  0
LINE
  5
865
330
6B
100
AcDbEntity
  8
0
 62
     3
100
AcDbLine
 10
-483.6190457358963
 20
-377.0323769744039
 30
0.0
 11
-483.6190457358963
 21
-377.3346071844037
 31
0.0
  0
ARC
  5
866
330
6B
100
AcDbEntity
  8
0
 62
     3
100
AcDbCircle
 10
-457.0910547758963
 20
-379.3768462244037
 30
0.0
 40
2.344469249999999
100
AcDbArc
 50
17.30874897999799
 51
23.76507095999893
  0
ARC
  5
867
330
6B
100
AcDbEntity
  8
0
 62
     3
100
AcDbCircle
 10
-459.0885882058962
 20
-379.9993432344038
 30
0.0
 40
4.43675086
100
AcDbArc
 50
342.691251020002
 51
17.30856644000122
  0
ARC
  5
868
330
6B
100
AcDbEntity
  8
0
 62
     3
100
AcDbCircle
 10
-457.0910547758963
 20
-380.6218402444038
 30
0.0
 40
2.344469249999999
100
AcDbArc
 50
336.2349290399984
 51
342.691251020002
  0
ARC
  5
869
330
6B
100
AcDbEntity
  8
0
 62
     3
100
AcDbCircle
 10
-457.3910547758963
 20
-379.3768462244037
 30
0.0
 40
2.344469249999999
100
AcDbArc
 50
17.30874897999799
 51
90.0
  0
ARC
  5
86A
330
6B
100
AcDbEntity
  8
0
 62
     3
100
AcDbCircle
 10
-459.3885882058962
 20
-379.9993432344038
 30
0.0
 40
4.43675086
100
AcDbArc
 50
342.691251020002
 51
17.30856644000122
  0
ARC
  5
86B
330
6B
100
AcDbEntity
  8
0
 62
     3
100
AcDbCircle
 10
-457.3910547758963
 20
-380.6218402444038
 30
0.0
 40
2.344469249999999
100
AcDbArc
 50
270.0
 51
342.691251020002
  0
ARC
  5
86C
330
6B
100
AcDbEntity
  8
0
 62
     3
100
AcDbCircle
 10
-471.8538267458963
 20
-379.9993432344038
 30
0.0
 40
2.966966259999998
100
AcDbArc
 50
46.75287961000178
 51
89.74999828999569
  0
ARC
  5
86D
330
6B
100
AcDbEntity
  8
0
 62
     3
100
AcDbCircle
 10
-471.8538267458963
 20
-379.9993432344038
 30
0.0
 40
2.966966259999998
100
AcDbArc
 50
273.976333149997
 51
312.8231203899968
  0
ARC
  5
86E
330
6B
100
AcDbEntity
  8
0
 62
     3
100
AcDbCircle
 10
-455.5083868158963
 20
-380.0451454144037
 30
0.0
 40
3.936984289999998
100
AcDbArc
 50
0.6665840599981471
 51
23.90392827000101
  0
ARC
  5
86F
330
6B
100
AcDbEntity
  8
0
 62
     3
100
AcDbCircle
 10
-449.9147264258962
 20
-380.0451454144037
 30
0.0
 40
3.936984289999998
100
AcDbArc
 50
156.096071729999
 51
179.3334159400018
  0
ARC
  5
870
330
6B
100
AcDbEntity
  8
0
 62
     3
100
AcDbCircle
 10
-455.5083868158963
 20
-379.9535410544038
 30
0.0
 40
3.936984289999998
100
AcDbArc
 50
336.096071729999
 51
359.3334159400019
  0
ARC
  5
871
330
6B
100
AcDbEntity
  8
0
 62
     3
100
AcDbCircle
 10
-449.9147264258962
 20
-379.9535410544038
 30
0.0
 40
3.936984289999998
100
AcDbArc
 50
180.6665840599981
 51
203.903928270001
  0
LINE
  5
872
330
6B
100
AcDbEntity
  8
0
 62
     3
100
AcDbLine
 10
-442.7372100258962
 20
-379.7746093244037
 30
0.0
 11
-271.3939352058964
 21
-379.7746093244037
 31
0.0
  0
LINE
  5
873
330
6B
100
AcDbEntity
  8
0
 62
     3
100
AcDbLine
 10
-491.2912446958962
 20
-379.7746093244037
 30
0.0
 11
-661.3939352058962
 21
-379.7746093244037
 31
0.0
  0
LINE
  5
874
330
6B
100
AcDbEntity
  8
0
 62
     3
100
AcDbLine
 10
-673.7958589958964
 20
-513.3299703744037
 30
0.0
 11
-676.3939352058962
 21
-514.8299703744037
 31
0.0
  0
LINE
  5
875
330
6B
100
AcDbEntity
  8
0
 62
     3
100
AcDbLine
 10
-673.7958589958964
 20
-513.3299703744037
 30
0.0
 11
-676.3939352058962
 21
-511.8299703744036
 31
0.0
  0
LINE
  5
876
330
6B
100
AcDbEntity
  8
0
 62
     3
100
AcDbLine
 10
-676.3939352058962
 20
-514.8299703744037
 30
0.0
 11
-676.3939352058962
 21
-511.8299703744036
 31
0.0
  0
LINE
  5
879
330
6B
100
AcDbEntity
  8
0
 62
     3
100
AcDbLine
 10
-323.3939352058962
 20
-653.7746093244037
 30
0.0
 11
-323.3939352058962
 21
-613.7746093244037
 31
0.0
  0
LINE
  5
87A
330
6B
100
AcDbEntity
  8
0
 62
     3
100
AcDbLine
 10
-310.3939352058962
 20
-643.7746093244037
 30
0.0
 11
-310.3939352058962
 21
-615.7746093244037
 31
0.0
  0
LINE
  5
87B
330
6B
100
AcDbEntity
  8
0
 62
     3
100
AcDbLine
 10
-350.3939352058962
 20
-643.7746093244037
 30
0.0
 11
-350.3939352058962
 21
-629.7746093244037
 31
0.0
  0
LINE
  5
87C
330
6B
100
AcDbEntity
  8
0
 62
     3
100
AcDbLine
 10
-340.3939352058963
 20
-629.7746093244037
 30
0.0
 11
-340.3939352058963
 21
-653.7746093244037
 31
0.0
  0
LINE
  5
87D
330
6B
100
AcDbEntity
  8
0
 62
     3
100
AcDbLine
 10
-369.3939352058962
 20
-613.7746093244037
 30
0.0
 11
-369.3939352058962
 21
-636.7746093244037
 31
0.0
  0
LINE
  5
87E
330
6B
100
AcDbEntity
  8
0
 62
     3
100
AcDbLine
 10
-310.3939352058962
 20
-615.7746093244037
 30
0.0
 11
-310.3939352058962
 21
-613.7746093244037
 31
0.0
  0
LINE
  5
87F
330
6B
100
AcDbEntity
  8
0
 62
     3
100
AcDbLine
 10
-297.3939352058962
 20
-636.7746093244037
 30
0.0
 11
-297.3939352058962
 21
-613.7746093244037
 31
0.0
  0
LINE
  5
880
330
6B
100
AcDbEntity
  8
0
 62
     3
100
AcDbLine
 10
-271.3939352058962
 20
-613.7746093244037
 30
0.0
 11
-382.6393698458962
 21
-613.7746093244037
 31
0.0
  0
LINE
  5
881
330
6B
100
AcDbEntity
  8
0
 62
     3
100
AcDbLine
 10
-271.3939352058962
 20
-622.7746093244037
 30
0.0
 11
-382.6393698458962
 21
-622.7746093244037
 31
0.0
  0
LINE
  5
882
330
6B
100
AcDbEntity
  8
0
 62
     3
100
AcDbLine
 10
-271.3939352058962
 20
-636.7746093244037
 30
0.0
 11
-382.6393698458962
 21
-636.7746093244037
 31
0.0
  0
LINE
  5
883
330
6B
100
AcDbEntity
  8
0
 62
     3
100
AcDbLine
 10
-271.3939352058962
 20
-643.7746093244037
 30
0.0
 11
-382.6393698458962
 21
-643.7746093244037
 31
0.0
  0
LINE
  5
884
330
6B
100
AcDbEntity
  8
0
 62
     3
100
AcDbLine
 10
-284.3939352058963
 20
-636.7746093244037
 30
0.0
 11
-284.3939352058963
 21
-613.7746093244037
 31
0.0
  0
LINE
  5
885
330
6B
100
AcDbEntity
  8
0
 62
     3
100
AcDbLine
 10
-382.6393698458962
 20
-613.7746093244037
 30
0.0
 11
-382.6393698458962
 21
-653.7746093244037
 31
0.0
  0
LINE
  5
886
330
6B
100
AcDbEntity
  8
0
 62
     3
100
AcDbLine
 10
-323.3939352058962
 20
-629.7746093244037
 30
0.0
 11
-382.6393698458962
 21
-629.7746093244037
 31
0.0
  0
LINE
  5
887
330
6B
100
AcDbEntity
  8
0
 62
     3
100
AcDbLine
 10
-340.1156102758964
 20
-648.9417480644037
 30
0.0
 11
-323.3939352058962
 21
-648.9417480644037
 31
0.0
  0
LINE
  5
888
330
6B
100
AcDbEntity
  8
0
 62
     3
100
AcDbLine
 10
-336.3939352058963
 20
-622.7746093244037
 30
0.0
 11
-328.3939352058963
 21
-622.7746093244037
 31
0.0
  0
TEXT
  5
88A
330
6B
100
AcDbEntity
  8
0
 62
     3
100
AcDbText
 10
-368.1975665106441
 20
-634.4767949194198
 30
0.0
 40
2.5
  1
PA6
  7
高2.5
100
AcDbText
  0
TEXT
  5
88B
330
6B
100
AcDbEntity
  8
0
 62
     3
100
AcDbText
 10
-367.9326587559466
 20
-621.4623598006458
 30
0.0
 40
4.5
  1
万能フッカー
  7
高4.5
100
AcDbText
1001
ACAD
1000
ACAD_MTEXT_DEFINED_HEIGHT_BEGIN
1070
    46
1040
0.0
1000
ACAD_MTEXT_DEFINED_HEIGHT_END
  0
TEXT
  5
88C
330
6B
100
AcDbEntity
  8
0
 62
     3
100
AcDbText
 10
-281.3283461124222
 20
-617.2609172257002
 30
0.0
 40
2.0
  1
DEF
  7
高2
100
AcDbText
  0
TEXT
  5
88D
330
6B
100
AcDbEntity
  8
0
 62
     3
100
AcDbText
 10
-295.2674444661304
 20
-617.2609172257002
 30
0.0
 40
2.0
  1
DESN
  7
高2
100
AcDbText
  0
TEXT
  5
88E
330
6B
100
AcDbEntity
  8
0
 62
     3
100
AcDbText
 10
-321.5218114061307
 20
-617.2609172257002
 30
0.0
 40
2.0
  1
APPD
  7
高2
100
AcDbText
  0
TEXT
  5
88F
330
6B
100
AcDbEntity
  8
0
 62
     3
100
AcDbText
 10
-308.4090753058963
 20
-617.2609172257
 30
0.0
 40
2.0
  1
CHCK
  7
高2
100
AcDbText
  0
TEXT
  5
890
330
6B
100
AcDbEntity
  8
0
 62
     3
100
AcDbText
 10
-349.4667695667435
 20
-639.6062105011728
 30
0.0
 40
2.0
  1
SCALE
 41
0.8
  7
高2
100
AcDbText
  0
TEXT
  5
891
330
6B
100
AcDbEntity
  8
0
 62
     3
100
AcDbText
 10
-380.9547911428501
 20
-639.6062105011728
 30
0.0
 40
2.0
  1
3AD　ANGLE
 41
1.5
  7
高2
100
AcDbText
  0
TEXT
  5
892
330
6B
100
AcDbEntity
  8
0
 62
     3
100
AcDbText
 10
-350.1973638758948
 20
-632.8546724322157
 30
0.0
 40
2.0
  1
REMARKS
 41
0.7
  7
高2
100
AcDbText
  0
TEXT
  5
893
330
6B
100
AcDbEntity
  8
0
 62
     3
100
AcDbText
 10
-381.1716994958963
 20
-632.7746093244037
 30
0.0
 40
2.0
  1
MATERIAL
 41
0.7
  7
高2
100
AcDbText
  0
TEXT
  5
894
330
6B
100
AcDbEntity
  8
0
 62
     3
100
AcDbText
 10
-380.5952122931421
 20
-625.7746093244037
 30
0.0
 40
2.0
  1
MODEL
  7
高2
100
AcDbText
  0
TEXT
  5
895
330
6B
100
AcDbEntity
  8
0
 62
     3
100
AcDbText
 10
-380.9582914118109
 20
-617.0675879738047
 30
0.0
 40
2.0
  1
CONPONENTS
 41
0.5
  7
高2
100
AcDbText
  0
TEXT
  5
896
330
6B
100
AcDbEntity
  8
0
 62
     3
100
AcDbText
 10
-368.2511759406442
 20
-628.6871281965917
 30
0.0
 40
4.5
  1
BH-300LH(-□□)
 41
0.8
  7
高4.5
100
AcDbText
  0
TEXT
  5
897
330
6B
100
AcDbEntity
  8
0
 62
     3
100
AcDbText
 10
-320.3288894752777
 20
-651.736147929038
 30
0.0
 40
6.299999999999998
  1
BH-300LH
 41
0.9
  7
高6.3
100
AcDbText
1001
ACAD
1000
ACAD_MTEXT_DEFINED_HEIGHT_BEGIN
1070
    46
1040
0.0
1000
ACAD_MTEXT_DEFINED_HEIGHT_END
  0
TEXT
  5
898
330
6B
100
AcDbEntity
  8
0
 62
     3
100
AcDbText
 10
-306.8304254555667
 20
-642.6737201661707
 30
0.0
 40
3.2
  1
2005.8.30
  7
高3.2
100
AcDbText
1001
ACAD
1000
ACAD_MTEXT_DEFINED_HEIGHT_BEGIN
1070
    46
1040
0.0
1000
ACAD_MTEXT_DEFINED_HEIGHT_END
  0
TEXT
  5
899
330
6B
100
AcDbEntity
  8
0
 62
     3
100
AcDbText
 10
-336.60633731125
 20
-642.6736923218357
 30
0.0
 40
3.2
  1
1/1
  7
高3.2
100
AcDbText
  0
TEXT
  5
89A
330
6B
100
AcDbEntity
  8
0
 62
     3
100
AcDbText
 10
-339.5290083358964
 20
-652.9577311512678
 30
0.0
 40
3.2
  1
ZK-A3X
 41
0.8
  7
高3.2
100
AcDbText
  0
TEXT
  5
89B
330
6B
100
AcDbEntity
  8
0
 62
     3
100
AcDbText
 10
-381.8086688058963
 20
-647.2499889022159
 30
0.0
 40
2.0
  1
NICHIDO IND.CO.LTD
 41
1.3
  7
高2
100
AcDbText
  0
TEXT
  5
89C
330
6B
100
AcDbEntity
  8
0
 62
     3
100
AcDbText
 10
-380.6271455409392
 20
-621.6340811165188
 30
0.0
 40
3.2
  1
品 名
  7
高3.2
100
AcDbText
1001
ACAD
1000
ACAD_MTEXT_DEFINED_HEIGHT_BEGIN
1070
    46
1040
0.0
1000
ACAD_MTEXT_DEFINED_HEIGHT_END
  0
TEXT
  5
89D
330
6B
100
AcDbEntity
  8
0
 62
     3
100
AcDbText
 10
-380.6271455409392
 20
-629.2746093244037
 30
0.0
 40
3.2
  1
型 式
  7
高3.2
100
AcDbText
1001
ACAD
1000
ACAD_MTEXT_DEFINED_HEIGHT_BEGIN
1070
    46
1040
3.064735913775954
1000
ACAD_MTEXT_DEFINED_HEIGHT_END
  0
TEXT
  5
89E
330
6B
100
AcDbEntity
  8
0
 62
     3
100
AcDbText
 10
-380.6271455409392
 20
-636.2746093244037
 30
0.0
 40
3.2
  1
材 質
  7
高3.2
100
AcDbText
1001
ACAD
1000
ACAD_MTEXT_DEFINED_HEIGHT_BEGIN
1070
    46
1040
0.0
1000
ACAD_MTEXT_DEFINED_HEIGHT_END
  0
TEXT
  5
89F
330
6B
100
AcDbEntity
  8
0
 62
     3
100
AcDbText
 10
-380.9321804909391
 20
-643.3071693321575
 30
0.0
 40
3.2
  1
第 三 角 法
  7
高3.2
100
AcDbText
1001
ACAD
1000
ACAD_MTEXT_DEFINED_HEIGHT_BEGIN
1070
    46
1040
0.0
1000
ACAD_MTEXT_DEFINED_HEIGHT_END
  0
TEXT
  5
8A0
330
6B
100
AcDbEntity
  8
0
 62
     3
100
AcDbText
 10
-382.5256478834104
 20
-652.6340811165188
 30
0.0
 40
3.2
  1
日動工業株式会社
 41
1.199999999999999
  7
高3.2
100
AcDbText
1001
ACAD
1000
ACAD_MTEXT_DEFINED_HEIGHT_BEGIN
1070
    46
1040
0.0
1000
ACAD_MTEXT_DEFINED_HEIGHT_END
  0
TEXT
  5
8A1
330
6B
100
AcDbEntity
  8
0
 62
     3
100
AcDbText
 10
-348.8900236839318
 20
-636.3900307912363
 30
0.0
 40
3.2
  1
備考
  7
高3.2
100
AcDbText
1001
ACAD
1000
ACAD_MTEXT_DEFINED_HEIGHT_BEGIN
1070
    46
1040
0.0
1000
ACAD_MTEXT_DEFINED_HEIGHT_END
  0
TEXT
  5
8A2
330
6B
100
AcDbEntity
  8
0
 62
     3
100
AcDbText
 10
-339.2409662368964
 20
-647.6283792988335
 30
0.0
 40
2.5
  1
出図コード
  7
高2.5
100
AcDbText
1001
ACAD
1000
ACAD_MTEXT_DEFINED_HEIGHT_BEGIN
1070
    46
1040
0.0
1000
ACAD_MTEXT_DEFINED_HEIGHT_END
  0
TEXT
  5
8A3
330
6B
100
AcDbEntity
  8
0
 62
     3
100
AcDbText
 10
-349.0487898020192
 20
-643.3213744139908
 30
0.0
 40
3.2
  1
尺度
  7
高3.2
100
AcDbText
1001
ACAD
1000
ACAD_MTEXT_DEFINED_HEIGHT_BEGIN
1070
    46
1040
0.0
1000
ACAD_MTEXT_DEFINED_HEIGHT_END
  0
TEXT
  5
8A4
330
6B
100
AcDbEntity
  8
0
 62
     3
100
AcDbText
 10
-321.9025283202404
 20
-642.1898959658732
 30
0.0
 40
3.2
  1
作成日
  7
高3.2
100
AcDbText
1001
ACAD
1000
ACAD_MTEXT_DEFINED_HEIGHT_BEGIN
1070
    46
1040
0.0
1000
ACAD_MTEXT_DEFINED_HEIGHT_END
  0
TEXT
  5
8A5
330
6B
100
AcDbEntity
  8
0
 62
     3
100
AcDbText
 10
-322.0080543133765
 20
-621.6340811165188
 30
0.0
 40
3.2
  1
承 認
  7
高3.2
100
AcDbText
1001
ACAD
1000
ACAD_MTEXT_DEFINED_HEIGHT_BEGIN
1070
    46
1040
0.0
1000
ACAD_MTEXT_DEFINED_HEIGHT_END
  0
TEXT
  5
8A6
330
6B
100
AcDbEntity
  8
0
 62
     3
100
AcDbText
 10
-309.0080543133765
 20
-621.6340811165188
 30
0.0
 40
3.2
  1
検 図
  7
高3.2
100
AcDbText
1001
ACAD
1000
ACAD_MTEXT_DEFINED_HEIGHT_BEGIN
1070
    46
1040
0.0
1000
ACAD_MTEXT_DEFINED_HEIGHT_END
  0
TEXT
  5
8A7
330
6B
100
AcDbEntity
  8
0
 62
     3
100
AcDbText
 10
-296.0080543133766
 20
-621.6340811165188
 30
0.0
 40
3.2
  1
設 計
  7
高3.2
100
AcDbText
1001
ACAD
1000
ACAD_MTEXT_DEFINED_HEIGHT_BEGIN
1070
    46
1040
0.0
1000
ACAD_MTEXT_DEFINED_HEIGHT_END
  0
TEXT
  5
8A8
330
6B
100
AcDbEntity
  8
0
 62
     3
100
AcDbText
 10
-282.7074177933766
 20
-621.6340811165188
 30
0.0
 40
3.2
  1
製 図
  7
高3.2
100
AcDbText
1001
ACAD
1000
ACAD_MTEXT_DEFINED_HEIGHT_BEGIN
1070
    46
1040
0.0
1000
ACAD_MTEXT_DEFINED_HEIGHT_END
  0
TEXT
  5
8A9
330
6B
100
AcDbEntity
  8
0
 62
     3
100
AcDbText
 10
-283.8939352058964
 20
-389.2746093244038
 30
0.0
 40
3.2
  1
担　当
  7
高3.2
100
AcDbText
  0
TEXT
  5
8AA
330
6B
100
AcDbEntity
  8
0
 62
     3
100
AcDbText
 10
-327.8939352058964
 20
-389.2746093244038
 30
0.0
 40
3.2
  1
変更・追記内容
  7
高3.2
100
AcDbText
  0
TEXT
  5
8AB
330
6B
100
AcDbEntity
  8
0
 62
     3
100
AcDbText
 10
-352.7804202055571
 20
-393.945147834312
 30
0.0
 40
2.0
  1
1
  7
高2
100
AcDbText
  0
TEXT
  5
8AC
330
6B
100
AcDbEntity
  8
0
 62
     3
100
AcDbText
 10
-353.0889316823143
 20
-399.1149645465849
 30
0.0
 40
2.0
  1
2
  7
高2
100
AcDbText
  0
TEXT
  5
8AD
330
6B
100
AcDbEntity
  8
0
 62
     3
100
AcDbText
 10
-345.8939352058964
 20
-389.2746093244038
 30
0.0
 40
3.2
  1
日　付
  7
高3.2
100
AcDbText
  0
TEXT
  5
8AE
330
6B
100
AcDbEntity
  8
0
 62
     3
100
AcDbText
 10
-345.8939352058964
 20
-384.2746093244037
 30
0.0
 40
3.2
  1
図　　　　面　　　　略　　　　歴
  7
高3.2
100
AcDbText
  0
TEXT
  5
8AF
330
6B
100
AcDbEntity
  8
0
 62
     3
100
AcDbText
 10
-355.8939352058964
 20
-389.2746093244038
 30
0.0
 40
3.2
  1
記号
  7
高3.2
100
AcDbText
  0
LINE
  5
8B0
330
6B
100
AcDbEntity
  8
0
 62
     7
100
AcDbLine
 10
-352.3939352058964
 20
-395.9837133244036
 30
0.0
 11
-354.2939352058963
 21
-399.2746093244037
 31
0.0
  0
LINE
  5
8B1
330
6B
100
AcDbEntity
  8
0
 62
     7
100
AcDbLine
 10
-352.3939352058964
 20
-395.9837133244036
 30
0.0
 11
-350.4939352058964
 21
-399.2746093244037
 31
0.0
  0
LINE
  5
8B2
330
6B
100
AcDbEntity
  8
0
 62
     7
100
AcDbLine
 10
-354.2939352058963
 20
-399.2746093244037
 30
0.0
 11
-350.4939352058964
 21
-399.2746093244037
 31
0.0
  0
LINE
  5
8B3
330
6B
100
AcDbEntity
  8
0
 62
     7
100
AcDbLine
 10
-352.3939352058964
 20
-390.9837123244037
 30
0.0
 11
-354.2939352058963
 21
-394.2746093244037
 31
0.0
  0
LINE
  5
8B4
330
6B
100
AcDbEntity
  8
0
 62
     7
100
AcDbLine
 10
-352.3939352058964
 20
-390.9837123244037
 30
0.0
 11
-350.4939352058964
 21
-394.2746093244037
 31
0.0
  0
LINE
  5
8B5
330
6B
100
AcDbEntity
  8
0
 62
     7
100
AcDbLine
 10
-354.2939352058963
 20
-394.2746093244037
 30
0.0
 11
-350.4939352058964
 21
-394.2746093244037
 31
0.0
  0
LINE
  5
8B6
330
6B
100
AcDbEntity
  8
0
 62
     3
100
AcDbLine
 10
-357.3939352058963
 20
-384.7746093244039
 30
0.0
 11
-271.3939352058964
 21
-384.7746093244039
 31
0.0
  0
LINE
  5
8B7
330
6B
100
AcDbEntity
  8
0
 62
     3
100
AcDbLine
 10
-357.3939352058963
 20
-389.7746093244037
 30
0.0
 11
-271.3939352058964
 21
-389.7746093244037
 31
0.0
  0
LINE
  5
8B8
330
6B
100
AcDbEntity
  8
0
 62
     7
100
AcDbLine
 10
-357.3939352058963
 20
-394.7746093244037
 30
0.0
 11
-271.3939352058964
 21
-394.7746093244037
 31
0.0
  0
LINE
  5
8B9
330
6B
100
AcDbEntity
  8
0
 62
     3
100
AcDbLine
 10
-357.3939352058963
 20
-399.7746093244037
 30
0.0
 11
-271.3939352058964
 21
-399.7746093244037
 31
0.0
  0
LINE
  5
8BA
330
6B
100
AcDbEntity
  8
0
 62
     7
100
AcDbLine
 10
-285.3939352058965
 20
-399.7746093244037
 30
0.0
 11
-285.3939352058964
 21
-384.7746093244039
 31
0.0
  0
LINE
  5
8BB
330
6B
100
AcDbEntity
  8
0
 62
     7
100
AcDbLine
 10
-329.3939352058964
 20
-399.7746093244037
 30
0.0
 11
-329.3939352058964
 21
-384.7746093244039
 31
0.0
  0
LINE
  5
8BC
330
6B
100
AcDbEntity
  8
0
 62
     7
100
AcDbLine
 10
-347.3939352058963
 20
-399.7746093244037
 30
0.0
 11
-347.3939352058963
 21
-384.7746093244039
 31
0.0
  0
LINE
  5
8BD
330
6B
100
AcDbEntity
  8
0
 62
     3
100
AcDbLine
 10
-357.3939352058963
 20
-399.7746093244037
 30
0.0
 11
-357.3939352058963
 21
-379.7746093244037
 31
0.0
  0
LINE
  5
8C0
330
6B
100
AcDbEntity
  8
0
 62
     7
100
AcDbLine
 10
-271.4451602058963
 20
-607.7746093244037
 30
0.0
 11
-369.3939352058962
 21
-607.7746093244038
 31
0.0
  0
TEXT
  5
8C1
330
6B
100
AcDbEntity
  8
0
 62
     3
100
AcDbText
 10
-321.9950102058963
 20
-613.2185243244038
 30
0.0
 40
4.5
  1
サンド
  7
高4.5
100
AcDbText
  0
TEXT
  5
8C2
330
6B
100
AcDbEntity
  8
0
 62
     3
100
AcDbText
 10
-295.7517332058962
 20
-613.2762533244036
 30
0.0
 40
4.5
  1
29947
  7
高4.5
100
AcDbText
  0
LINE
  5
A9C
330
6B
100
AcDbEntity
  8
0
 62
     7
100
AcDbLine
 10
-271.4451602058963
 20
-601.7746093244037
 30
0.0
 11
-369.3939352058962
 21
-601.7746093244037
 31
0.0
  0
TEXT
  5
A9D
330
6B
100
AcDbEntity
  8
0
 62
     3
100
AcDbText
 10
-321.9950102058963
 20
-607.2185243244038
 30
0.0
 40
4.5
  1
オリーブグリーン
 41
0.5
  7
高4.5
100
AcDbText
  0
TEXT
  5
A9E
330
6B
100
AcDbEntity
  8
0
 62
     3
100
AcDbText
 10
-295.7517332058962
 20
-607.2762533244035
 30
0.0
 40
4.5
  1
29941
  7
高4.5
100
AcDbText
  0
LINE
  5
AA1
330
6B
100
AcDbEntity
  8
0
 62
     7
100
AcDbLine
 10
-271.4451602058963
 20
-595.7746093244037
 30
0.0
 11
-369.3939352058962
 21
-595.7746093244038
 31
0.0
  0
TEXT
  5
AA2
330
6B
100
AcDbEntity
  8
0
 62
     3
100
AcDbText
 10
-321.9950102058963
 20
-601.2185243244037
 30
0.0
 40
4.5
  1
グレー
  7
高4.5
100
AcDbText
  0
TEXT
  5
AA3
330
6B
100
AcDbEntity
  8
0
 62
     3
100
AcDbText
 10
-295.7517332058962
 20
-601.2762533244035
 30
0.0
 40
4.5
  1
29935
  7
高4.5
100
AcDbText
  0
LINE
  5
AA4
330
6B
100
AcDbEntity
  8
0
 62
     7
100
AcDbLine
 10
-271.4451602058963
 20
-589.7746093244037
 30
0.0
 11
-369.3939352058962
 21
-589.7746093244037
 31
0.0
  0
TEXT
  5
AA5
330
6B
100
AcDbEntity
  8
0
 62
     3
100
AcDbText
 10
-321.9950102058963
 20
-595.2185243244038
 30
0.0
 40
4.5
  1
ホワイト
  7
高4.5
100
AcDbText
  0
TEXT
  5
AA6
330
6B
100
AcDbEntity
  8
0
 62
     3
100
AcDbText
 10
-295.7517332058962
 20
-595.2762533244035
 30
0.0
 40
4.5
  1
29929
  7
高4.5
100
AcDbText
  0
LINE
  5
AA7
330
6B
100
AcDbEntity
  8
0
 62
     7
100
AcDbLine
 10
-271.4451602058963
 20
-583.7746093244037
 30
0.0
 11
-369.3939352058962
 21
-583.7746093244037
 31
0.0
  0
TEXT
  5
AA8
330
6B
100
AcDbEntity
  8
0
 62
     3
100
AcDbText
 10
-321.9950102058963
 20
-589.2185243244037
 30
0.0
 40
4.5
  1
ブラック
  7
高4.5
100
AcDbText
  0
TEXT
  5
AA9
330
6B
100
AcDbEntity
  8
0
 62
     3
100
AcDbText
 10
-295.7517332058962
 20
-589.2762533244035
 30
0.0
 40
4.5
  1
29923
  7
高4.5
100
AcDbText
  0
LINE
  5
AAA
330
6B
100
AcDbEntity
  8
0
 62
     7
100
AcDbLine
 10
-271.4451602058963
 20
-577.7746093244037
 30
0.0
 11
-369.3939352058962
 21
-577.7746093244037
 31
0.0
  0
TEXT
  5
AAB
330
6B
100
AcDbEntity
  8
0
 62
     3
100
AcDbText
 10
-321.9950102058963
 20
-583.2185243244038
 30
0.0
 40
4.5
  1
オレンジ
  7
高4.5
100
AcDbText
  0
TEXT
  5
AAC
330
6B
100
AcDbEntity
  8
0
 62
     3
100
AcDbText
 10
-295.7517332058962
 20
-583.2762533244035
 30
0.0
 40
4.5
  1
29631
  7
高4.5
100
AcDbText
  0
LINE
  5
AAD
330
6B
100
AcDbEntity
  8
0
 62
     3
100
AcDbLine
 10
-271.4451602058963
 20
-571.7746093244037
 30
0.0
 11
-369.3939352058962
 21
-571.7746093244037
 31
0.0
  0
TEXT
  5
AAE
330
6B
100
AcDbEntity
  8
0
 62
     3
100
AcDbText
 10
-321.9950102058963
 20
-577.2185243244037
 30
0.0
 40
4.5
  1
色
  7
高4.5
100
AcDbText
  0
TEXT
  5
AAF
330
6B
100
AcDbEntity
  8
0
 62
     3
100
AcDbText
 10
-295.7517332058962
 20
-577.2762533244035
 30
0.0
 40
4.5
  1
コード
  7
高4.5
100
AcDbText
  0
LINE
  5
AB7
330
6B
100
AcDbEntity
  8
0
100
AcDbLine
 10
-323.3939352058962
 20
-613.7746093244037
 30
0.0
 11
-323.3939352058962
 21
-571.7746093244037
 31
0.0
  0
LINE
  5
AB9
330
6B
100
AcDbEntity
  8
0
 62
     3
100
AcDbLine
 10
-369.3939352058962
 20
-613.7746093244037
 30
0.0
 11
-369.3939352058962
 21
-571.7746093244037
 31
0.0
  0
TEXT
  5
ABA
330
6B
100
AcDbEntity
  8
0
 62
     3
100
AcDbText
 10
-367.9950102058963
 20
-613.2185243244038
 30
0.0
 40
4.5
  1
BH-300LH-SN
 41
0.9
  7
高4.5
100
AcDbText
  0
TEXT
  5
ABB
330
6B
100
AcDbEntity
  8
0
 62
     3
100
AcDbText
 10
-367.9950102058963
 20
-607.2185243244038
 30
0.0
 40
4.5
  1
BH-300LH-OG
 41
0.9
  7
高4.5
100
AcDbText
  0
TEXT
  5
ABC
330
6B
100
AcDbEntity
  8
0
 62
     3
100
AcDbText
 10
-367.9950102058963
 20
-601.2185243244037
 30
0.0
 40
4.5
  1
BH-300LH-GY
 41
0.9
  7
高4.5
100
AcDbText
  0
TEXT
  5
ABD
330
6B
100
AcDbEntity
  8
0
 62
     3
100
AcDbText
 10
-367.9950102058963
 20
-595.2185243244038
 30
0.0
 40
4.5
  1
BH-300LH-WH
 41
0.9
  7
高4.5
100
AcDbText
  0
TEXT
  5
ABE
330
6B
100
AcDbEntity
  8
0
 62
     3
100
AcDbText
 10
-367.9950102058963
 20
-589.2185243244037
 30
0.0
 40
4.5
  1
BH-300LH-BK
 41
0.9
  7
高4.5
100
AcDbText
  0
TEXT
  5
ABF
330
6B
100
AcDbEntity
  8
0
 62
     3
100
AcDbText
 10
-367.9950102058963
 20
-583.2185243244038
 30
0.0
 40
4.5
  1
BH-300LH
 41
0.9
  7
高4.5
100
AcDbText
  0
TEXT
  5
AC0
330
6B
100
AcDbEntity
  8
0
 62
     3
100
AcDbText
 10
-367.9950102058963
 20
-577.2185243244037
 30
0.0
 40
4.5
  1
型番
  7
高4.5
100
AcDbText
  0
TEXT
  5
AC9
330
6B
100
AcDbEntity
  8
0
 62
     3
100
AcDbText
 10
-339.1975665106442
 20
-634.4767949194198
 30
0.0
 40
2.5
  1
-
  7
高2.5
100
AcDbText
  0
LINE
  5
ACE
330
6B
100
AcDbEntity
  8
0
 62
     3
100
AcDbLine
 10
-510.1452002058961
 20
-565.8457903244036
 30
0.0
 11
-510.1452002058961
 21
-600.8457903244036
 31
0.0
  0
LINE
  5
ACF
330
6B
100
AcDbEntity
  8
0
 62
     3
100
AcDbLine
 10
-450.1452002058962
 20
-565.8457903244036
 30
0.0
 11
-450.1452002058962
 21
-600.8457903244036
 31
0.0
  0
LINE
  5
AD0
330
6B
100
AcDbEntity
  8
0
100
AcDbLine
 10
-297.3939352058962
 20
-613.7746093244037
 30
0.0
 11
-297.3939352058962
 21
-571.7746093244037
 31
0.0
  0
LINE
  5
B51
330
6B
100
AcDbEntity
  8
0
 62
     7
100
AcDbLine
 10
-661.3939352058962
 20
-648.7746093244037
 30
0.0
 11
-618.3939352058962
 21
-648.7746093244037
 31
0.0
  0
LINE
  5
B52
330
6B
100
AcDbEntity
  8
0
 62
     7
100
AcDbLine
 10
-661.3939352058962
 20
-643.7746093244037
 30
0.0
 11
-618.3939352058962
 21
-643.7746093244037
 31
0.0
  0
LINE
  5
B53
330
6B
100
AcDbEntity
  8
0
 62
     3
100
AcDbLine
 10
-661.3939352058962
 20
-638.7746093244037
 30
0.0
 11
-618.3939352058962
 21
-638.7746093244037
 31
0.0
  0
LINE
  5
B58
330
6B
100
AcDbEntity
  8
0
 62
     7
100
AcDbLine
 10
-652.3939352058962
 20
-638.7746093244037
 30
0.0
 11
-652.3939352058962
 21
-653.7746093244037
 31
0.0
  0
LINE
  5
B59
330
6B
100
AcDbEntity
  8
0
 62
     7
100
AcDbLine
 10
-627.3939352058962
 20
-638.7746093244037
 30
0.0
 11
-627.3939352058962
 21
-653.7746093244037
 31
0.0
  0
LINE
  5
B5B
330
6B
100
AcDbEntity
  8
0
 62
     3
100
AcDbLine
 10
-618.3939352058962
 20
-638.7746093244037
 30
0.0
 11
-618.3939352058962
 21
-653.7746093244037
 31
0.0
  0
LINE
  5
C54
330
6B
100
AcDbEntity
  8
0
 62
     2
100
AcDbLine
 10
-503.1111682058962
 20
-532.1950763244037
 30
0.0
 11
-503.1288892058961
 21
-532.0816123244036
 31
0.0
  0
LINE
  5
C55
330
6B
100
AcDbEntity
  8
0
 62
     2
100
AcDbLine
 10
-503.1288892058961
 20
-532.0816123244036
 30
0.0
 11
-503.1501722058962
 21
-531.9729663244036
 31
0.0
  0
LINE
  5
C56
330
6B
100
AcDbEntity
  8
0
 62
     2
100
AcDbLine
 10
-503.1501722058962
 20
-531.9729663244036
 30
0.0
 11
-503.1748512058962
 21
-531.8699753244036
 31
0.0
  0
LINE
  5
C57
330
6B
100
AcDbEntity
  8
0
 62
     2
100
AcDbLine
 10
-503.1748512058962
 20
-531.8699753244036
 30
0.0
 11
-503.2027372058961
 21
-531.7734373244036
 31
0.0
  0
LINE
  5
C58
330
6B
100
AcDbEntity
  8
0
 62
     2
100
AcDbLine
 10
-503.2027372058961
 20
-531.7734373244036
 30
0.0
 11
-503.2336132058962
 21
-531.6840983244036
 31
0.0
  0
LINE
  5
C59
330
6B
100
AcDbEntity
  8
0
 62
     2
100
AcDbLine
 10
-503.2336132058962
 20
-531.6840983244036
 30
0.0
 11
-503.2672412058961
 21
-531.6026473244037
 31
0.0
  0
LINE
  5
C5A
330
6B
100
AcDbEntity
  8
0
 62
     2
100
AcDbLine
 10
-503.2672412058961
 20
-531.6026473244037
 30
0.0
 11
-503.3033622058962
 21
-531.5297163244037
 31
0.0
  0
LINE
  5
C5B
330
6B
100
AcDbEntity
  8
0
 62
     2
100
AcDbLine
 10
-503.3033622058962
 20
-531.5297163244037
 30
0.0
 11
-503.3416952058963
 21
-531.4658673244037
 31
0.0
  0
LINE
  5
C5C
330
6B
100
AcDbEntity
  8
0
 62
     2
100
AcDbLine
 10
-503.3416952058963
 20
-531.4658673244037
 30
0.0
 11
-503.3819452058962
 21
-531.4115943244037
 31
0.0
  0
LINE
  5
C5D
330
6B
100
AcDbEntity
  8
0
 62
     2
100
AcDbLine
 10
-503.3819452058962
 20
-531.4115943244037
 30
0.0
 11
-503.4238002058962
 21
-531.3673163244036
 31
0.0
  0
LINE
  5
C5E
330
6B
100
AcDbEntity
  8
0
 62
     2
100
AcDbLine
 10
-503.4238002058962
 20
-531.3673163244036
 30
0.0
 11
-503.4669372058963
 21
-531.3333763244037
 31
0.0
  0
LINE
  5
C5F
330
6B
100
AcDbEntity
  8
0
 62
     2
100
AcDbLine
 10
-503.4669372058963
 20
-531.3333763244037
 30
0.0
 11
-503.5110232058961
 21
-531.3100363244037
 31
0.0
  0
LINE
  5
C60
330
6B
100
AcDbEntity
  8
0
 62
     2
100
AcDbLine
 10
-503.5110232058961
 20
-531.3100363244037
 30
0.0
 11
-503.5557172058962
 21
-531.2974773244036
 31
0.0
  0
LINE
  5
C61
330
6B
100
AcDbEntity
  8
0
 62
     2
100
AcDbLine
 10
-503.5557172058962
 20
-531.2974773244036
 30
0.0
 11
-503.6006732058963
 21
-531.2957953244035
 31
0.0
  0
LINE
  5
C62
330
6B
100
AcDbEntity
  8
0
 62
     2
100
AcDbLine
 10
-503.6006732058963
 20
-531.2957953244035
 30
0.0
 11
-503.6455432058962
 21
-531.3050043244037
 31
0.0
  0
LINE
  5
C63
330
6B
100
AcDbEntity
  8
0
 62
     2
100
AcDbLine
 10
-503.6455432058962
 20
-531.3050043244037
 30
0.0
 11
-503.6899822058962
 21
-531.3250323244036
 31
0.0
  0
LINE
  5
C64
330
6B
100
AcDbEntity
  8
0
 62
     2
100
AcDbLine
 10
-503.6899822058962
 20
-531.3250323244036
 30
0.0
 11
-503.7336452058962
 21
-531.3557253244035
 31
0.0
  0
LINE
  5
C65
330
6B
100
AcDbEntity
  8
0
 62
     2
100
AcDbLine
 10
-503.7336452058962
 20
-531.3557253244035
 30
0.0
 11
-503.7761952058962
 21
-531.3968453244036
 31
0.0
  0
LINE
  5
C66
330
6B
100
AcDbEntity
  8
0
 62
     2
100
AcDbLine
 10
-503.7761952058962
 20
-531.3968453244036
 30
0.0
 11
-503.8173042058962
 21
-531.4480743244037
 31
0.0
  0
LINE
  5
C67
330
6B
100
AcDbEntity
  8
0
 62
     2
100
AcDbLine
 10
-503.8173042058962
 20
-531.4480743244037
 30
0.0
 11
-503.8566532058962
 21
-531.5090173244036
 31
0.0
  0
LINE
  5
C68
330
6B
100
AcDbEntity
  8
0
 62
     2
100
AcDbLine
 10
-503.8566532058962
 20
-531.5090173244036
 30
0.0
 11
-503.8939372058962
 21
-531.5792033244036
 31
0.0
  0
LINE
  5
C69
330
6B
100
AcDbEntity
  8
0
 62
     2
100
AcDbLine
 10
-503.8939372058962
 20
-531.5792033244036
 30
0.0
 11
-503.9288702058962
 21
-531.6580883244037
 31
0.0
  0
LINE
  5
C6A
330
6B
100
AcDbEntity
  8
0
 62
     2
100
AcDbLine
 10
-503.9288702058962
 20
-531.6580883244037
 30
0.0
 11
-503.9611822058962
 21
-531.7450643244036
 31
0.0
  0
LINE
  5
C6B
330
6B
100
AcDbEntity
  8
0
 62
     2
100
AcDbLine
 10
-503.9611822058962
 20
-531.7450643244036
 30
0.0
 11
-503.9906212058962
 21
-531.8394573244037
 31
0.0
  0
LINE
  5
C6C
330
6B
100
AcDbEntity
  8
0
 62
     2
100
AcDbLine
 10
-503.9906212058962
 20
-531.8394573244037
 30
0.0
 11
-504.0169612058962
 21
-531.9405393244036
 31
0.0
  0
LINE
  5
C6D
330
6B
100
AcDbEntity
  8
0
 62
     2
100
AcDbLine
 10
-504.0169612058962
 20
-531.9405393244036
 30
0.0
 11
-504.0399982058962
 21
-532.0475283244036
 31
0.0
  0
LINE
  5
C6E
330
6B
100
AcDbEntity
  8
0
 62
     2
100
AcDbLine
 10
-504.0399982058962
 20
-532.0475283244036
 30
0.0
 11
-504.0595542058962
 21
-532.1595963244036
 31
0.0
  0
LINE
  5
C6F
330
6B
100
AcDbEntity
  8
0
 62
     2
100
AcDbLine
 10
-504.0595542058962
 20
-532.1595963244036
 30
0.0
 11
-504.0754782058963
 21
-532.2758793244037
 31
0.0
  0
LINE
  5
C70
330
6B
100
AcDbEntity
  8
0
 62
     2
100
AcDbLine
 10
-504.0754782058963
 20
-532.2758793244037
 30
0.0
 11
-504.0876472058962
 21
-532.3954773244037
 31
0.0
  0
LINE
  5
C71
330
6B
100
AcDbEntity
  8
0
 62
     2
100
AcDbLine
 10
-504.0876472058962
 20
-532.3954773244037
 30
0.0
 11
-504.0959672058963
 21
-532.5174653244037
 31
0.0
  0
LINE
  5
C72
330
6B
100
AcDbEntity
  8
0
 62
     2
100
AcDbLine
 10
-504.0959672058963
 20
-532.5174653244037
 30
0.0
 11
-504.1003732058962
 21
-532.6409013244036
 31
0.0
  0
LINE
  5
C73
330
6B
100
AcDbEntity
  8
0
 62
     2
100
AcDbLine
 10
-504.1003732058962
 20
-532.6409013244036
 30
0.0
 11
-504.1008322058963
 21
-532.7648303244036
 31
0.0
  0
LINE
  5
C74
330
6B
100
AcDbEntity
  8
0
 62
     2
100
AcDbLine
 10
-504.1008322058963
 20
-532.7648303244036
 30
0.0
 11
-504.0973392058962
 21
-532.8882963244036
 31
0.0
  0
LINE
  5
C75
330
6B
100
AcDbEntity
  8
0
 62
     2
100
AcDbLine
 10
-504.0973392058962
 20
-532.8882963244036
 30
0.0
 11
-504.0899222058962
 21
-533.0103423244037
 31
0.0
  0
LINE
  5
C76
330
6B
100
AcDbEntity
  8
0
 62
     2
100
AcDbLine
 10
-504.0899222058962
 20
-533.0103423244037
 30
0.0
 11
-504.0786392058962
 21
-533.1300263244037
 31
0.0
  0
LINE
  5
C77
330
6B
100
AcDbEntity
  8
0
 62
     2
100
AcDbLine
 10
-504.0786392058962
 20
-533.1300263244037
 30
0.0
 11
-504.0635762058961
 21
-533.2464243244036
 31
0.0
  0
LINE
  5
C78
330
6B
100
AcDbEntity
  8
0
 62
     2
100
AcDbLine
 10
-504.0635762058961
 20
-533.2464243244036
 30
0.0
 11
-504.0448492058962
 21
-533.3586343244037
 31
0.0
  0
LINE
  5
C79
330
6B
100
AcDbEntity
  8
0
 62
     2
100
AcDbLine
 10
-504.0448492058962
 20
-533.3586343244037
 30
0.0
 11
-504.0226042058962
 21
-533.4657913244036
 31
0.0
  0
LINE
  5
C7A
330
6B
100
AcDbEntity
  8
0
 62
     2
100
AcDbLine
 10
-504.0226042058962
 20
-533.4657913244036
 30
0.0
 11
-503.9970132058962
 21
-533.5670653244036
 31
0.0
  0
LINE
  5
C7B
330
6B
100
AcDbEntity
  8
0
 62
     2
100
AcDbLine
 10
-503.9970132058962
 20
-533.5670653244036
 30
0.0
 11
-503.9682732058962
 21
-533.6616733244036
 31
0.0
  0
LINE
  5
C7C
330
6B
100
AcDbEntity
  8
0
 62
     2
100
AcDbLine
 10
-503.9682732058962
 20
-533.6616733244036
 30
0.0
 11
-503.9366072058962
 21
-533.7488863244036
 31
0.0
  0
LINE
  5
C7D
330
6B
100
AcDbEntity
  8
0
 62
     2
100
AcDbLine
 10
-503.9366072058962
 20
-533.7488863244036
 30
0.0
 11
-503.9022582058962
 21
-533.8280273244037
 31
0.0
  0
LINE
  5
C7E
330
6B
100
AcDbEntity
  8
0
 62
     2
100
AcDbLine
 10
-503.9022582058962
 20
-533.8280273244037
 30
0.0
 11
-503.8654942058961
 21
-533.8984873244036
 31
0.0
  0
LINE
  5
C7F
330
6B
100
AcDbEntity
  8
0
 62
     2
100
AcDbLine
 10
-503.8654942058961
 20
-533.8984873244036
 30
0.0
 11
-503.8265972058962
 21
-533.9597193244036
 31
0.0
  0
LINE
  5
C80
330
6B
100
AcDbEntity
  8
0
 62
     2
100
AcDbLine
 10
-503.8265972058962
 20
-533.9597193244036
 30
0.0
 11
-503.7858692058962
 21
-534.0112523244036
 31
0.0
  0
LINE
  5
C81
330
6B
100
AcDbEntity
  8
0
 62
     2
100
AcDbLine
 10
-503.7858692058962
 20
-534.0112523244036
 30
0.0
 11
-503.7436242058961
 21
-534.0526853244035
 31
0.0
  0
LINE
  5
C82
330
6B
100
AcDbEntity
  8
0
 62
     2
100
AcDbLine
 10
-503.7436242058961
 20
-534.0526853244035
 30
0.0
 11
-503.7001892058961
 21
-534.0837003244037
 31
0.0
  0
LINE
  5
C83
330
6B
100
AcDbEntity
  8
0
 62
     2
100
AcDbLine
 10
-503.7001892058961
 20
-534.0837003244037
 30
0.0
 11
-503.6559002058963
 21
-534.1040573244035
 31
0.0
  0
LINE
  5
C84
330
6B
100
AcDbEntity
  8
0
 62
     2
100
AcDbLine
 10
-503.6559002058963
 20
-534.1040573244035
 30
0.0
 11
-503.6110992058961
 21
-534.1135973244035
 31
0.0
  0
LINE
  5
C85
330
6B
100
AcDbEntity
  8
0
 62
     2
100
AcDbLine
 10
-503.6110992058961
 20
-534.1135973244035
 30
0.0
 11
-503.5661322058962
 21
-534.1122483244037
 31
0.0
  0
LINE
  5
C86
330
6B
100
AcDbEntity
  8
0
 62
     2
100
AcDbLine
 10
-503.5661322058962
 20
-534.1122483244037
 30
0.0
 11
-503.5213462058962
 21
-534.1000203244036
 31
0.0
  0
LINE
  5
C87
330
6B
100
AcDbEntity
  8
0
 62
     2
100
AcDbLine
 10
-503.5213462058962
 20
-534.1000203244036
 30
0.0
 11
-503.4770892058962
 21
-534.0770073244036
 31
0.0
  0
LINE
  5
C88
330
6B
100
AcDbEntity
  8
0
 62
     2
100
AcDbLine
 10
-503.4770892058962
 20
-534.0770073244036
 30
0.0
 11
-503.4337022058962
 21
-534.0433873244036
 31
0.0
  0
LINE
  5
C89
330
6B
100
AcDbEntity
  8
0
 62
     2
100
AcDbLine
 10
-503.4337022058962
 20
-534.0433873244036
 30
0.0
 11
-503.3915202058961
 21
-533.9994203244035
 31
0.0
  0
LINE
  5
C8A
330
6B
100
AcDbEntity
  8
0
 62
     2
100
AcDbLine
 10
-503.3915202058961
 20
-533.9994203244035
 30
0.0
 11
-503.3508702058962
 21
-533.9454473244036
 31
0.0
  0
LINE
  5
C8B
330
6B
100
AcDbEntity
  8
0
 62
     2
100
AcDbLine
 10
-503.3508702058962
 20
-533.9454473244036
 30
0.0
 11
-503.3120652058961
 21
-533.8818833244037
 31
0.0
  0
LINE
  5
C8C
330
6B
100
AcDbEntity
  8
0
 62
     2
100
AcDbLine
 10
-503.3120652058961
 20
-533.8818833244037
 30
0.0
 11
-503.2754062058963
 21
-533.8092213244038
 31
0.0
  0
LINE
  5
C8D
330
6B
100
AcDbEntity
  8
0
 62
     2
100
AcDbLine
 10
-503.2754062058963
 20
-533.8092213244038
 30
0.0
 11
-503.2411762058962
 21
-533.7280223244037
 31
0.0
  0
LINE
  5
C8E
330
6B
100
AcDbEntity
  8
0
 62
     2
100
AcDbLine
 10
-503.2411762058962
 20
-533.7280223244037
 30
0.0
 11
-503.2096392058962
 21
-533.6389133244035
 31
0.0
  0
LINE
  5
C8F
330
6B
100
AcDbEntity
  8
0
 62
     2
100
AcDbLine
 10
-503.2096392058962
 20
-533.6389133244035
 30
0.0
 11
-503.1810402058962
 21
-533.5425843244037
 31
0.0
  0
LINE
  5
C90
330
6B
100
AcDbEntity
  8
0
 62
     2
100
AcDbLine
 10
-503.1810402058962
 20
-533.5425843244037
 30
0.0
 11
-503.1555992058962
 21
-533.4397793244037
 31
0.0
  0
LINE
  5
C91
330
6B
100
AcDbEntity
  8
0
 62
     2
100
AcDbLine
 10
-503.1555992058962
 20
-533.4397793244037
 30
0.0
 11
-503.1335132058962
 21
-533.3312933244036
 31
0.0
  0
LINE
  5
C92
330
6B
100
AcDbEntity
  8
0
 62
     2
100
AcDbLine
 10
-503.1335132058962
 20
-533.3312933244036
 30
0.0
 11
-503.1149532058962
 21
-533.2179643244037
 31
0.0
  0
LINE
  5
C93
330
6B
100
AcDbEntity
  8
0
100
AcDbLine
 10
-557.0968472058962
 20
-436.0041123244037
 30
0.0
 11
-557.0864902058962
 21
-438.0746393244036
 31
0.0
  0
LINE
  5
C94
330
6B
100
AcDbEntity
  8
0
100
AcDbLine
 10
-557.0864902058962
 20
-438.0746393244036
 30
0.0
 11
-556.0601962058962
 21
-436.2763323244037
 31
0.0
  0
LINE
  5
C95
330
6B
100
AcDbEntity
  8
0
100
AcDbLine
 10
-492.9472402058961
 20
-441.6213853244037
 30
0.0
 11
-492.4511352058963
 21
-443.6316253244037
 31
0.0
  0
LINE
  5
C96
330
6B
100
AcDbEntity
  8
0
100
AcDbLine
 10
-492.4511352058963
 20
-443.6316253244037
 30
0.0
 11
-491.8756552058962
 21
-441.6426533244036
 31
0.0
  0
LINE
  5
C97
330
6B
100
AcDbEntity
  8
0
100
AcDbLine
 10
-357.7413022058963
 20
-536.8470733244037
 30
0.0
 11
-359.5727622058963
 21
-535.0182803244035
 31
0.0
  0
LINE
  5
C98
330
6B
100
AcDbEntity
  8
0
100
AcDbLine
 10
-359.5727622058963
 20
-535.0182803244035
 30
0.0
 11
-358.9010672058963
 21
-537.5177913244035
 31
0.0
  0
LINE
  5
C99
330
6B
100
AcDbEntity
  8
0
100
AcDbLine
 10
-438.1428302058962
 20
-522.0984323244037
 30
0.0
 11
-436.8294402058962
 21
-524.2024393244037
 31
0.0
  0
LINE
  5
C9A
330
6B
100
AcDbEntity
  8
0
100
AcDbLine
 10
-436.8294402058962
 20
-524.2024393244037
 30
0.0
 11
-435.7641702058962
 21
-526.2871103244036
 31
0.0
  0
LINE
  5
C9B
330
6B
100
AcDbEntity
  8
0
100
AcDbLine
 10
-435.7641702058962
 20
-526.2871103244036
 30
0.0
 11
-435.1951412058962
 21
-528.3331103244035
 31
0.0
  0
LINE
  5
C9C
330
6B
100
AcDbEntity
  8
0
100
AcDbLine
 10
-435.1951412058962
 20
-528.3331103244035
 30
0.0
 11
-435.3704732058962
 21
-530.3211033244036
 31
0.0
  0
LINE
  5
C9D
330
6B
100
AcDbEntity
  8
0
100
AcDbLine
 10
-435.3704732058962
 20
-530.3211033244036
 30
0.0
 11
-436.7363982058962
 21
-532.8108583244036
 31
0.0
  0
LINE
  5
C9E
330
6B
100
AcDbEntity
  8
0
100
AcDbLine
 10
-436.7363982058962
 20
-532.8108583244036
 30
0.0
 11
-438.0384942058961
 21
-535.2845163244036
 31
0.0
  0
LINE
  5
C9F
330
6B
100
AcDbEntity
  8
0
100
AcDbLine
 10
-438.0384942058961
 20
-535.2845163244036
 30
0.0
 11
-438.0980932058962
 21
-537.1590943244036
 31
0.0
  0
LINE
  5
CA0
330
6B
100
AcDbEntity
  8
0
100
AcDbLine
 10
-438.0980932058962
 20
-537.1590943244036
 30
0.0
 11
-437.4199062058962
 21
-539.0739093244036
 31
0.0
  0
LINE
  5
CA1
330
6B
100
AcDbEntity
  8
0
100
AcDbLine
 10
-437.4199062058962
 20
-539.0739093244036
 30
0.0
 11
-436.2498612058963
 21
-541.0155493244036
 31
0.0
  0
LINE
  5
CA2
330
6B
100
AcDbEntity
  8
0
100
AcDbLine
 10
-436.2498612058963
 20
-541.0155493244036
 30
0.0
 11
-434.8338882058962
 21
-542.9706033244037
 31
0.0
  0
LINE
  5
CA3
330
6B
100
AcDbEntity
  8
0
100
AcDbLine
 10
-440.1144142058962
 20
-522.2025113244036
 30
0.0
 11
-438.8010242058962
 21
-524.3065173244038
 31
0.0
  0
LINE
  5
CA4
330
6B
100
AcDbEntity
  8
0
100
AcDbLine
 10
-438.8010242058962
 20
-524.3065173244038
 30
0.0
 11
-437.7357542058962
 21
-526.3911883244037
 31
0.0
  0
LINE
  5
CA5
330
6B
100
AcDbEntity
  8
0
100
AcDbLine
 10
-437.7357542058962
 20
-526.3911883244037
 30
0.0
 11
-437.1667252058962
 21
-528.4371883244037
 31
0.0
  0
LINE
  5
CA6
330
6B
100
AcDbEntity
  8
0
100
AcDbLine
 10
-437.1667252058962
 20
-528.4371883244037
 30
0.0
 11
-437.3420572058962
 21
-530.4251823244036
 31
0.0
  0
LINE
  5
CA7
330
6B
100
AcDbEntity
  8
0
100
AcDbLine
 10
-437.3420572058962
 20
-530.4251823244036
 30
0.0
 11
-438.7079822058963
 21
-532.9149373244035
 31
0.0
  0
LINE
  5
CA8
330
6B
100
AcDbEntity
  8
0
100
AcDbLine
 10
-438.7079822058963
 20
-532.9149373244035
 30
0.0
 11
-440.0100782058962
 21
-535.3885953244037
 31
0.0
  0
LINE
  5
CA9
330
6B
100
AcDbEntity
  8
0
100
AcDbLine
 10
-440.0100782058962
 20
-535.3885953244037
 30
0.0
 11
-440.0696772058962
 21
-537.2631723244037
 31
0.0
  0
LINE
  5
CAA
330
6B
100
AcDbEntity
  8
0
100
AcDbLine
 10
-440.0696772058962
 20
-537.2631723244037
 30
0.0
 11
-439.3914902058963
 21
-539.1779873244034
 31
0.0
  0
LINE
  5
CAB
330
6B
100
AcDbEntity
  8
0
100
AcDbLine
 10
-439.3914902058963
 20
-539.1779873244034
 30
0.0
 11
-438.2214452058962
 21
-541.1196283244037
 31
0.0
  0
LINE
  5
CAC
330
6B
100
AcDbEntity
  8
0
100
AcDbLine
 10
-438.2214452058962
 20
-541.1196283244037
 30
0.0
 11
-436.8054722058962
 21
-543.0746813244037
 31
0.0
  0
LINE
  5
CAD
330
6B
100
AcDbEntity
  8
0
100
AcDbLine
 10
-634.7481222058962
 20
-532.5090143244036
 30
0.0
 11
-634.7481222058962
 21
-507.5203463244037
 31
0.0
  0
LINE
  5
CAE
330
6B
100
AcDbEntity
  8
0
100
AcDbLine
 10
-546.7847952058962
 20
-527.9940983244036
 30
0.0
 11
-546.7847952058962
 21
-507.5203463244037
 31
0.0
  0
LINE
  5
CAF
330
6B
100
AcDbEntity
  8
0
100
AcDbLine
 10
-632.2481222058963
 20
-508.7703463244037
 30
0.0
 11
-549.2847952058962
 21
-508.7703463244037
 31
0.0
  0
LINE
  5
CB3
330
6B
100
AcDbEntity
  8
0
100
AcDbLine
 10
-597.9930722058961
 20
-481.1005653244037
 30
0.0
 11
-645.5808642058961
 21
-481.1005653244036
 31
0.0
  0
LINE
  5
CB4
330
6B
100
AcDbEntity
  8
0
100
AcDbLine
 10
-588.3801212058962
 20
-399.3636923244037
 30
0.0
 11
-645.5808642058961
 21
-399.3636923244037
 31
0.0
  0
LINE
  5
CB5
330
6B
100
AcDbEntity
  8
0
100
AcDbLine
 10
-644.3308642058962
 20
-478.6005653244036
 30
0.0
 11
-644.3308642058962
 21
-401.8636923244036
 31
0.0
  0
LINE
  5
CB9
330
6B
100
AcDbEntity
  8
0
100
AcDbLine
 10
-587.014937140235
 20
-463.8782579032763
 30
0.0
 11
-608.4712062715582
 21
-424.3228717455313
 31
0.0
  0
LINE
  5
CBD
330
6B
100
AcDbEntity
  8
0
100
AcDbLine
 10
-424.5739772058962
 20
-445.9052373244036
 30
0.0
 11
-417.1674972058962
 21
-445.9052373244036
 31
0.0
  0
LINE
  5
CBE
330
6B
100
AcDbEntity
  8
0
100
AcDbLine
 10
-424.8508452058961
 20
-442.9052373244036
 30
0.0
 11
-417.1674972058962
 21
-442.9052373244036
 31
0.0
  0
LINE
  5
CBF
330
6B
100
AcDbEntity
  8
0
100
AcDbLine
 10
-418.4174972058961
 20
-448.4052373244036
 30
0.0
 11
-418.4174972058961
 21
-450.9052373244036
 31
0.0
  0
LINE
  5
CC0
330
6B
100
AcDbEntity
  8
0
100
AcDbLine
 10
-418.4174972058961
 20
-440.4052373244036
 30
0.0
 11
-418.4174972058961
 21
-431.6552373244036
 31
0.0
  0
LINE
  5
CC1
330
6B
100
AcDbEntity
  8
0
100
AcDbLine
 10
-418.4174972058961
 20
-445.9052373244036
 30
0.0
 11
-418.4174972058961
 21
-442.9052373244036
 31
0.0
  0
LINE
  5
CC5
330
6B
100
AcDbEntity
  8
0
100
AcDbLine
 10
-380.8087412058963
 20
-540.1687383244036
 30
0.0
 11
-371.5558820189909
 21
-540.1687383244036
 31
0.0
  0
LINE
  5
CC6
330
6B
100
AcDbEntity
  8
0
100
AcDbLine
 10
-380.5764112058962
 20
-525.0792053244037
 30
0.0
 11
-371.5558820189909
 21
-525.0792053244037
 31
0.0
  0
LINE
  5
CC7
330
6B
100
AcDbEntity
  8
0
100
AcDbLine
 10
-372.8058820189909
 20
-522.5792053244036
 30
0.0
 11
-372.8058820189909
 21
-520.0792053244036
 31
0.0
  0
LINE
  5
CC8
330
6B
100
AcDbEntity
  8
0
100
AcDbLine
 10
-372.8058820189909
 20
-542.6687383244036
 30
0.0
 11
-372.8058820189909
 21
-550.7937383244035
 31
0.0
  0
LINE
  5
CC9
330
6B
100
AcDbEntity
  8
0
100
AcDbLine
 10
-372.8058820189909
 20
-525.0792053244037
 30
0.0
 11
-372.8058820189909
 21
-540.1687383244036
 31
0.0
  0
LINE
  5
CCD
330
6B
100
AcDbEntity
  8
0
100
AcDbLine
 10
-546.7847952058962
 20
-527.9940983244036
 30
0.0
 11
-546.7847952058962
 21
-507.5203463244037
 31
0.0
  0
LINE
  5
CCE
330
6B
100
AcDbEntity
  8
0
100
AcDbLine
 10
-300.9366732058962
 20
-521.8715573244036
 30
0.0
 11
-300.9366732058962
 21
-507.5203463244037
 31
0.0
  0
LINE
  5
CCF
330
6B
100
AcDbEntity
  8
0
100
AcDbLine
 10
-544.2847952058961
 20
-508.7703463244037
 30
0.0
 11
-303.4366732058962
 21
-508.7703463244037
 31
0.0
  0
LINE
  5
CD3
330
6B
100
AcDbEntity
  8
0
100
AcDbLine
 10
-302.1866732058962
 20
-544.6215573244036
 30
0.0
 11
-291.2121762058963
 21
-544.6215573244036
 31
0.0
  0
LINE
  5
CD4
330
6B
100
AcDbEntity
  8
0
100
AcDbLine
 10
-302.1866732058962
 20
-520.6215573244036
 30
0.0
 11
-291.2121762058963
 21
-520.6215573244036
 31
0.0
  0
LINE
  5
CD5
330
6B
100
AcDbEntity
  8
0
100
AcDbLine
 10
-292.4621762058963
 20
-542.1215573244036
 30
0.0
 11
-292.4621762058963
 21
-523.1215573244035
 31
0.0
  0
LINE
  5
CD9
330
6B
100
AcDbEntity
  8
0
100
AcDbLine
 10
-300.5342172058963
 20
-445.1574683244037
 30
0.0
 11
-289.2576792058963
 21
-445.1574683244037
 31
0.0
  0
LINE
  5
CDA
330
6B
100
AcDbEntity
  8
0
100
AcDbLine
 10
-301.5317172058963
 20
-435.1574683244036
 30
0.0
 11
-289.2576792058963
 21
-435.1574683244036
 31
0.0
  0
LINE
  5
CDB
330
6B
100
AcDbEntity
  8
0
100
AcDbLine
 10
-290.5076792058963
 20
-442.6574683244036
 30
0.0
 11
-290.5076792058963
 21
-437.6574683244036
 31
0.0
  0
LINE
  5
CDF
330
6B
100
AcDbEntity
  8
0
 62
     3
100
AcDbLine
 10
-471.1353091658962
 20
-379.2339807844038
 30
0.0
 11
-471.1619199158962
 21
-379.0635982644037
 31
0.0
  0
LINE
  5
CE0
330
6B
100
AcDbEntity
  8
0
 62
     3
100
AcDbLine
 10
-471.1619199158962
 20
-379.0635982644037
 30
0.0
 11
-471.1938787458961
 21
-378.9004485744039
 31
0.0
  0
LINE
  5
CE1
330
6B
100
AcDbEntity
  8
0
 62
     3
100
AcDbLine
 10
-471.1938787458961
 20
-378.9004485744039
 30
0.0
 11
-471.2309386458962
 21
-378.7457927744037
 31
0.0
  0
LINE
  5
CE2
330
6B
100
AcDbEntity
  8
0
 62
     3
100
AcDbLine
 10
-471.2309386458962
 20
-378.7457927744037
 30
0.0
 11
-471.2728131458963
 21
-378.6008262744037
 31
0.0
  0
LINE
  5
CE3
330
6B
100
AcDbEntity
  8
0
 62
     3
100
AcDbLine
 10
-471.2728131458963
 20
-378.6008262744037
 30
0.0
 11
-471.3191785758962
 21
-378.4666695844037
 31
0.0
  0
LINE
  5
CE4
330
6B
100
AcDbEntity
  8
0
 62
     3
100
AcDbLine
 10
-471.3191785758962
 20
-378.4666695844037
 30
0.0
 11
-471.3696765658964
 21
-378.3443596844039
 31
0.0
  0
LINE
  5
CE5
330
6B
100
AcDbEntity
  8
0
 62
     3
100
AcDbLine
 10
-471.3696765658964
 20
-378.3443596844039
 30
0.0
 11
-471.4239167858964
 21
-378.2348419444038
 31
0.0
  0
LINE
  5
CE6
330
6B
100
AcDbEntity
  8
0
 62
     3
100
AcDbLine
 10
-471.4239167858964
 20
-378.2348419444038
 30
0.0
 11
-471.4814799858963
 21
-378.1389628944038
 31
0.0
  0
LINE
  5
CE7
330
6B
100
AcDbEntity
  8
0
 62
     3
100
AcDbLine
 10
-471.4814799858963
 20
-378.1389628944038
 30
0.0
 11
-471.5419212358963
 21
-378.0574636244038
 31
0.0
  0
LINE
  5
CE8
330
6B
100
AcDbEntity
  8
0
 62
     3
100
AcDbLine
 10
-471.5419212358963
 20
-378.0574636244038
 30
0.0
 11
-471.6047733558963
 21
-377.9909740844038
 31
0.0
  0
LINE
  5
CE9
330
6B
100
AcDbEntity
  8
0
 62
     3
100
AcDbLine
 10
-471.6047733558963
 20
-377.9909740844038
 30
0.0
 11
-471.6695505358964
 21
-377.9400082044038
 31
0.0
  0
LINE
  5
CEA
330
6B
100
AcDbEntity
  8
0
 62
     3
100
AcDbLine
 10
-471.6695505358964
 20
-377.9400082044038
 30
0.0
 11
-471.7357520658962
 21
-377.9049599244038
 31
0.0
  0
LINE
  5
CEB
330
6B
100
AcDbEntity
  8
0
 62
     3
100
AcDbLine
 10
-471.7357520658962
 20
-377.9049599244038
 30
0.0
 11
-471.8028662558962
 21
-377.8861001544037
 31
0.0
  0
LINE
  5
CEC
330
6B
100
AcDbEntity
  8
0
 62
     3
100
AcDbLine
 10
-471.8028662558962
 20
-377.8861001544037
 30
0.0
 11
-471.8703743458964
 21
-377.8835746544038
 31
0.0
  0
LINE
  5
CED
330
6B
100
AcDbEntity
  8
0
 62
     3
100
AcDbLine
 10
-471.8703743458964
 20
-377.8835746544038
 30
0.0
 11
-471.9377545358963
 21
-377.8974029644039
 31
0.0
  0
LINE
  5
CEE
330
6B
100
AcDbEntity
  8
0
 62
     3
100
AcDbLine
 10
-471.9377545358963
 20
-377.8974029644039
 30
0.0
 11
-472.0044860058963
 21
-377.9274781944037
 31
0.0
  0
LINE
  5
CEF
330
6B
100
AcDbEntity
  8
0
 62
     3
100
AcDbLine
 10
-472.0044860058963
 20
-377.9274781944037
 30
0.0
 11
-472.0700529458962
 21
-377.9735678644038
 31
0.0
  0
LINE
  5
CF0
330
6B
100
AcDbEntity
  8
0
 62
     3
100
AcDbLine
 10
-472.0700529458962
 20
-377.9735678644038
 30
0.0
 11
-472.1339485858964
 21
-378.0353157444038
 31
0.0
  0
LINE
  5
CF1
330
6B
100
AcDbEntity
  8
0
 62
     3
100
AcDbLine
 10
-472.1339485858964
 20
-378.0353157444038
 30
0.0
 11
-472.1956790158962
 21
-378.1122445344038
 31
0.0
  0
LINE
  5
CF2
330
6B
100
AcDbEntity
  8
0
 62
     3
100
AcDbLine
 10
-472.1956790158962
 20
-378.1122445344038
 30
0.0
 11
-472.2547671058962
 21
-378.2037596344037
 31
0.0
  0
LINE
  5
CF3
330
6B
100
AcDbEntity
  8
0
 62
     3
100
AcDbLine
 10
-472.2547671058962
 20
-378.2037596344037
 30
0.0
 11
-472.3107561358963
 21
-378.3091536644038
 31
0.0
  0
LINE
  5
CF4
330
6B
100
AcDbEntity
  8
0
 62
     3
100
AcDbLine
 10
-472.3107561358963
 20
-378.3091536644038
 30
0.0
 11
-472.3632133358964
 21
-378.4276119944037
 31
0.0
  0
LINE
  5
CF5
330
6B
100
AcDbEntity
  8
0
 62
     3
100
AcDbLine
 10
-472.3632133358964
 20
-378.4276119944037
 30
0.0
 11
-472.4117332358964
 21
-378.5582190044038
 31
0.0
  0
LINE
  5
CF6
330
6B
100
AcDbEntity
  8
0
 62
     3
100
AcDbLine
 10
-472.4117332358964
 20
-378.5582190044038
 30
0.0
 11
-472.4559408158963
 21
-378.6999651544038
 31
0.0
  0
LINE
  5
CF7
330
6B
100
AcDbEntity
  8
0
 62
     3
100
AcDbLine
 10
-472.4559408158963
 20
-378.6999651544038
 30
0.0
 11
-472.4954943558963
 21
-378.8517548244038
 31
0.0
  0
LINE
  5
CF8
330
6B
100
AcDbEntity
  8
0
 62
     3
100
AcDbLine
 10
-472.4954943558963
 20
-378.8517548244038
 30
0.0
 11
-472.5300881358962
 21
-379.0124147644037
 31
0.0
  0
LINE
  5
CF9
330
6B
100
AcDbEntity
  8
0
 62
     3
100
AcDbLine
 10
-472.5300881358962
 20
-379.0124147644037
 30
0.0
 11
-472.5594547658963
 21
-379.1807031544038
 31
0.0
  0
LINE
  5
CFA
330
6B
100
AcDbEntity
  8
0
 62
     3
100
AcDbLine
 10
-472.5594547658963
 20
-379.1807031544038
 30
0.0
 11
-472.5833672558962
 21
-379.3553192144037
 31
0.0
  0
LINE
  5
CFB
330
6B
100
AcDbEntity
  8
0
 62
     3
100
AcDbLine
 10
-472.5833672558962
 20
-379.3553192144037
 30
0.0
 11
-472.6016407658963
 21
-379.5349132444037
 31
0.0
  0
LINE
  5
CFC
330
6B
100
AcDbEntity
  8
0
 62
     3
100
AcDbLine
 10
-472.6016407658963
 20
-379.5349132444037
 30
0.0
 11
-472.6141340658962
 21
-379.7180970844038
 31
0.0
  0
LINE
  5
CFD
330
6B
100
AcDbEntity
  8
0
 62
     3
100
AcDbLine
 10
-472.6141340658962
 20
-379.7180970844038
 30
0.0
 11
-472.6207505758963
 21
-379.9034548044037
 31
0.0
  0
LINE
  5
CFE
330
6B
100
AcDbEntity
  8
0
 62
     3
100
AcDbLine
 10
-472.6207505758963
 20
-379.9034548044037
 30
0.0
 11
-472.6214391658962
 21
-380.0895537044038
 31
0.0
  0
LINE
  5
CFF
330
6B
100
AcDbEntity
  8
0
 62
     3
100
AcDbLine
 10
-472.6214391658962
 20
-380.0895537044038
 30
0.0
 11
-472.6161945058962
 21
-380.2749553144037
 31
0.0
  0
LINE
  5
D00
330
6B
100
AcDbEntity
  8
0
 62
     3
100
AcDbLine
 10
-472.6161945058962
 20
-380.2749553144037
 30
0.0
 11
-472.6050571358962
 21
-380.4582265844037
 31
0.0
  0
LINE
  5
D01
330
6B
100
AcDbEntity
  8
0
 62
     3
100
AcDbLine
 10
-472.6050571358962
 20
-380.4582265844037
 30
0.0
 11
-472.5881131358963
 21
-380.6379509244039
 31
0.0
  0
LINE
  5
D02
330
6B
100
AcDbEntity
  8
0
 62
     3
100
AcDbLine
 10
-472.5881131358963
 20
-380.6379509244039
 30
0.0
 11
-472.5654934858964
 21
-380.8127391544037
 31
0.0
  0
LINE
  5
D03
330
6B
100
AcDbEntity
  8
0
 62
     3
100
AcDbLine
 10
-472.5654934858964
 20
-380.8127391544037
 30
0.0
 11
-472.5373730158962
 21
-380.9812402544037
 31
0.0
  0
LINE
  5
D04
330
6B
100
AcDbEntity
  8
0
 62
     3
100
AcDbLine
 10
-472.5373730158962
 20
-380.9812402544037
 30
0.0
 11
-472.5039690858963
 21
-381.1421517944037
 31
0.0
  0
LINE
  5
D05
330
6B
100
AcDbEntity
  8
0
 62
     3
100
AcDbLine
 10
-472.5039690858963
 20
-381.1421517944037
 30
0.0
 11
-472.4655398858963
 21
-381.2942300144039
 31
0.0
  0
LINE
  5
D06
330
6B
100
AcDbEntity
  8
0
 62
     3
100
AcDbLine
 10
-472.4655398858963
 20
-381.2942300144039
 30
0.0
 11
-472.4223824658962
 21
-381.4362994244037
 31
0.0
  0
LINE
  5
D07
330
6B
100
AcDbEntity
  8
0
 62
     3
100
AcDbLine
 10
-472.4223824658962
 20
-381.4362994244037
 30
0.0
 11
-472.3748303958963
 21
-381.5672619044037
 31
0.0
  0
LINE
  5
D08
330
6B
100
AcDbEntity
  8
0
 62
     3
100
AcDbLine
 10
-472.3748303958963
 20
-381.5672619044037
 30
0.0
 11
-472.3232512458962
 21
-381.6861051844037
 31
0.0
  0
LINE
  5
D09
330
6B
100
AcDbEntity
  8
0
 62
     3
100
AcDbLine
 10
-472.3232512458962
 20
-381.6861051844037
 30
0.0
 11
-472.2680436758962
 21
-381.7919106544037
 31
0.0
  0
LINE
  5
D0A
330
6B
100
AcDbEntity
  8
0
 62
     3
100
AcDbLine
 10
-472.2680436758962
 20
-381.7919106544037
 30
0.0
 11
-472.2096344258964
 21
-381.8838605144037
 31
0.0
  0
LINE
  5
D0B
330
6B
100
AcDbEntity
  8
0
 62
     3
100
AcDbLine
 10
-472.2096344258964
 20
-381.8838605144037
 30
0.0
 11
-472.1484749658963
 21
-381.9612440144037
 31
0.0
  0
LINE
  5
D0C
330
6B
100
AcDbEntity
  8
0
 62
     3
100
AcDbLine
 10
-472.1484749658963
 20
-381.9612440144037
 30
0.0
 11
-472.0850380258963
 21
-382.0234630344038
 31
0.0
  0
LINE
  5
D0D
330
6B
100
AcDbEntity
  8
0
 62
     3
100
AcDbLine
 10
-472.0850380258963
 20
-382.0234630344038
 30
0.0
 11
-472.0198139458963
 21
-382.0700366444039
 31
0.0
  0
LINE
  5
D0E
330
6B
100
AcDbEntity
  8
0
 62
     3
100
AcDbLine
 10
-472.0198139458963
 20
-382.0700366444039
 30
0.0
 11
-471.9533068658964
 21
-382.1006048744038
 31
0.0
  0
LINE
  5
D0F
330
6B
100
AcDbEntity
  8
0
 62
     3
100
AcDbLine
 10
-471.9533068658964
 20
-382.1006048744038
 30
0.0
 11
-471.8860308558963
 21
-382.1149314244037
 31
0.0
  0
LINE
  5
D10
330
6B
100
AcDbEntity
  8
0
 62
     3
100
AcDbLine
 10
-471.8860308558963
 20
-382.1149314244037
 30
0.0
 11
-471.8185059258964
 21
-382.1129055644036
 31
0.0
  0
LINE
  5
D11
330
6B
100
AcDbEntity
  8
0
 62
     3
100
AcDbLine
 10
-471.8185059258964
 20
-382.1129055644036
 30
0.0
 11
-471.7512540058963
 21
-382.0945429644039
 31
0.0
  0
LINE
  5
D12
330
6B
100
AcDbEntity
  8
0
 62
     3
100
AcDbLine
 10
-471.7512540058963
 20
-382.0945429644039
 30
0.0
 11
-471.6847949258963
 21
-382.0599855444037
 31
0.0
  0
LINE
  5
D13
330
6B
100
AcDbEntity
  8
0
 62
     3
100
AcDbLine
 10
-471.6847949258963
 20
-382.0599855444037
 30
0.0
 11
-471.6196423658963
 21
-382.0095004144038
 31
0.0
  0
LINE
  5
D14
330
6B
100
AcDbEntity
  8
0
 62
     3
100
AcDbLine
 10
-471.6196423658963
 20
-382.0095004144038
 30
0.0
 11
-471.5562999358962
 21
-381.9434778144038
 31
0.0
  0
LINE
  5
D15
330
6B
100
AcDbEntity
  8
0
 62
     3
100
AcDbLine
 10
-471.5562999358962
 20
-381.9434778144038
 30
0.0
 11
-471.4952572358964
 21
-381.8624280544037
 31
0.0
  0
LINE
  5
D16
330
6B
100
AcDbEntity
  8
0
 62
     3
100
AcDbLine
 10
-471.4952572358964
 20
-381.8624280544037
 30
0.0
 11
-471.4369860958964
 21
-381.7669776044038
 31
0.0
  0
LINE
  5
D17
330
6B
100
AcDbEntity
  8
0
 62
     3
100
AcDbLine
 10
-471.4369860958964
 20
-381.7669776044038
 30
0.0
 11
-471.3819369158962
 21
-381.6578642444038
 31
0.0
  0
LINE
  5
D18
330
6B
100
AcDbEntity
  8
0
 62
     3
100
AcDbLine
 10
-471.3819369158962
 20
-381.6578642444038
 30
0.0
 11
-471.3305351958963
 21
-381.5359313844037
 31
0.0
  0
LINE
  5
D19
330
6B
100
AcDbEntity
  8
0
 62
     3
100
AcDbLine
 10
-471.3305351958963
 20
-381.5359313844037
 30
0.0
 11
-471.2831782558962
 21
-381.4021214744038
 31
0.0
  0
LINE
  5
D1A
330
6B
100
AcDbEntity
  8
0
 62
     3
100
AcDbLine
 10
-471.2831782558962
 20
-381.4021214744038
 30
0.0
 11
-471.2402321358963
 21
-381.2574688244037
 31
0.0
  0
LINE
  5
D1B
330
6B
100
AcDbEntity
  8
0
 62
     3
100
AcDbLine
 10
-471.2402321358963
 20
-381.2574688244037
 30
0.0
 11
-471.2020287858963
 21
-381.1030915044038
 31
0.0
  0
LINE
  5
D1C
330
6B
100
AcDbEntity
  8
0
 62
     3
100
AcDbLine
 10
-471.2020287858963
 20
-381.1030915044038
 30
0.0
 11
-471.1688634958964
 21
-380.9401827744039
 31
0.0
  0
LINE
  5
D1D
330
6B
100
AcDbEntity
  8
0
 62
     3
100
AcDbLine
 10
-471.1688634958964
 20
-380.9401827744039
 30
0.0
 11
-471.1409926158963
 21
-380.7700018444037
 31
0.0
  0
TEXT
  5
D1E
330
6B
100
AcDbEntity
  8
0
 62
     4
100
AcDbText
 10
-593.2664587058962
 20
-508.1453463244037
 30
0.0
 40
3.0
  1
88
100
AcDbText
  0
LINE
  5
D1F
330
6B
100
AcDbEntity
  8
0
  6
ByBlock
 62
     0
370
    -2
100
AcDbLine
 10
-549.2847952058962
 20
-508.1004738244037
 30
0.0
 11
-546.7847952058962
 21
-508.7703463244037
 31
0.0
  0
LINE
  5
D20
330
6B
100
AcDbEntity
  8
0
  6
ByBlock
 62
     0
370
    -2
100
AcDbLine
 10
-546.7847952058962
 20
-508.7703463244037
 30
0.0
 11
-549.2847952058962
 21
-509.4402188244036
 31
0.0
  0
LINE
  5
D21
330
6B
100
AcDbEntity
  8
0
  6
ByBlock
 62
     0
370
    -2
100
AcDbLine
 10
-546.7847952058962
 20
-508.7703463244037
 30
0.0
 11
-549.2847952058962
 21
-508.7703463244037
 31
0.0
  0
LINE
  5
D22
330
6B
100
AcDbEntity
  8
0
  6
ByBlock
 62
     0
370
    -2
100
AcDbLine
 10
-632.2481222058963
 20
-509.4402188244036
 30
0.0
 11
-634.7481222058962
 21
-508.7703463244037
 31
0.0
  0
LINE
  5
D23
330
6B
100
AcDbEntity
  8
0
  6
ByBlock
 62
     0
370
    -2
100
AcDbLine
 10
-634.7481222058962
 20
-508.7703463244037
 30
0.0
 11
-632.2481222058963
 21
-508.1004738244037
 31
0.0
  0
LINE
  5
D24
330
6B
100
AcDbEntity
  8
0
  6
ByBlock
 62
     0
370
    -2
100
AcDbLine
 10
-634.7481222058962
 20
-508.7703463244037
 30
0.0
 11
-632.2481222058963
 21
-508.7703463244037
 31
0.0
  0
TEXT
  5
D25
330
6B
100
AcDbEntity
  8
0
 62
     4
100
AcDbText
 10
-644.9558642058961
 20
-442.7321288244037
 30
0.0
 40
3.0
  1
82
 50
90.0
100
AcDbText
  0
LINE
  5
D26
330
6B
100
AcDbEntity
  8
0
  6
ByBlock
 62
     0
370
    -2
100
AcDbLine
 10
-645.0007367058962
 20
-401.8636923244036
 30
0.0
 11
-644.3308642058962
 21
-399.3636923244037
 31
0.0
  0
LINE
  5
D27
330
6B
100
AcDbEntity
  8
0
  6
ByBlock
 62
     0
370
    -2
100
AcDbLine
 10
-644.3308642058962
 20
-399.3636923244037
 30
0.0
 11
-643.6609917058961
 21
-401.8636923244036
 31
0.0
  0
LINE
  5
D28
330
6B
100
AcDbEntity
  8
0
  6
ByBlock
 62
     0
370
    -2
100
AcDbLine
 10
-644.3308642058962
 20
-399.3636923244037
 30
0.0
 11
-644.3308642058962
 21
-401.8636923244036
 31
0.0
  0
LINE
  5
D29
330
6B
100
AcDbEntity
  8
0
  6
ByBlock
 62
     0
370
    -2
100
AcDbLine
 10
-643.6609917058961
 20
-478.6005653244036
 30
0.0
 11
-644.3308642058962
 21
-481.1005653244036
 31
0.0
  0
LINE
  5
D2A
330
6B
100
AcDbEntity
  8
0
  6
ByBlock
 62
     0
370
    -2
100
AcDbLine
 10
-644.3308642058962
 20
-481.1005653244036
 30
0.0
 11
-645.0007367058962
 21
-478.6005653244036
 31
0.0
  0
LINE
  5
D2B
330
6B
100
AcDbEntity
  8
0
  6
ByBlock
 62
     0
370
    -2
100
AcDbLine
 10
-644.3308642058962
 20
-481.1005653244036
 30
0.0
 11
-644.3308642058962
 21
-478.6005653244036
 31
0.0
  0
TEXT
  5
D2C
330
6B
100
AcDbEntity
  8
0
 62
     4
100
AcDbText
 10
-598.9817137521223
 20
-440.5062789591281
 30
0.0
 40
3.0
  1
\U+220550
 50
298.4770020669829
100
AcDbText
  0
LINE
  5
D2D
330
6B
100
AcDbEntity
  8
0
  6
ByBlock
 62
     0
370
    -2
100
AcDbLine
 10
-609.0600299388279
 20
-424.6422709551723
 30
0.0
 11
-609.6632212058968
 21
-422.1253503244038
 31
0.0
  0
LINE
  5
D2E
330
6B
100
AcDbEntity
  8
0
  6
ByBlock
 62
     0
370
    -2
100
AcDbLine
 10
-609.6632212058968
 20
-422.1253503244038
 30
0.0
 11
-607.8823826042886
 21
-424.0034725358901
 31
0.0
  0
LINE
  5
D2F
330
6B
100
AcDbEntity
  8
0
  6
ByBlock
 62
     0
370
    -2
100
AcDbLine
 10
-609.6632212058968
 20
-422.1253503244038
 30
0.0
 11
-608.4712062715582
 21
-424.3228717455312
 31
0.0
  0
LINE
  5
D30
330
6B
100
AcDbEntity
  8
0
  6
ByBlock
 62
     0
370
    -2
100
AcDbLine
 10
-586.4261134729653
 20
-463.5588586936353
 30
0.0
 11
-585.8229222058964
 21
-466.0757793244037
 31
0.0
  0
LINE
  5
D31
330
6B
100
AcDbEntity
  8
0
  6
ByBlock
 62
     0
370
    -2
100
AcDbLine
 10
-585.8229222058964
 20
-466.0757793244037
 30
0.0
 11
-587.6037608075046
 21
-464.1976571129174
 31
0.0
  0
LINE
  5
D32
330
6B
100
AcDbEntity
  8
0
  6
ByBlock
 62
     0
370
    -2
100
AcDbLine
 10
-585.8229222058964
 20
-466.0757793244037
 30
0.0
 11
-587.014937140235
 21
-463.8782579032763
 31
0.0
  0
TEXT
  5
D33
330
6B
100
AcDbEntity
  8
0
 62
     4
100
AcDbText
 10
-419.0424972058961
 20
-437.2802373244037
 30
0.0
 40
3.0
  1
2t
 50
90.0
100
AcDbText
  0
LINE
  5
D34
330
6B
100
AcDbEntity
  8
0
  6
ByBlock
 62
     0
370
    -2
100
AcDbLine
 10
-417.7476247058962
 20
-440.4052373244036
 30
0.0
 11
-418.4174972058961
 21
-442.9052373244036
 31
0.0
  0
LINE
  5
D35
330
6B
100
AcDbEntity
  8
0
  6
ByBlock
 62
     0
370
    -2
100
AcDbLine
 10
-418.4174972058961
 20
-442.9052373244036
 30
0.0
 11
-419.0873697058962
 21
-440.4052373244036
 31
0.0
  0
LINE
  5
D36
330
6B
100
AcDbEntity
  8
0
  6
ByBlock
 62
     0
370
    -2
100
AcDbLine
 10
-418.4174972058961
 20
-442.9052373244036
 30
0.0
 11
-418.4174972058961
 21
-440.4052373244036
 31
0.0
  0
LINE
  5
D37
330
6B
100
AcDbEntity
  8
0
  6
ByBlock
 62
     0
370
    -2
100
AcDbLine
 10
-419.0873697058962
 20
-448.4052373244036
 30
0.0
 11
-418.4174972058961
 21
-445.9052373244036
 31
0.0
  0
LINE
  5
D38
330
6B
100
AcDbEntity
  8
0
  6
ByBlock
 62
     0
370
    -2
100
AcDbLine
 10
-418.4174972058961
 20
-445.9052373244036
 30
0.0
 11
-417.7476247058962
 21
-448.4052373244036
 31
0.0
  0
LINE
  5
D39
330
6B
100
AcDbEntity
  8
0
  6
ByBlock
 62
     0
370
    -2
100
AcDbLine
 10
-418.4174972058961
 20
-445.9052373244036
 30
0.0
 11
-418.4174972058961
 21
-448.4052373244036
 31
0.0
  0
TEXT
  5
D3A
330
6B
100
AcDbEntity
  8
0
 62
     4
100
AcDbText
 10
-373.4308820189909
 20
-550.1687383244036
 30
0.0
 40
3.0
  1
15
 50
90.0
100
AcDbText
  0
LINE
  5
D3B
330
6B
100
AcDbEntity
  8
0
  6
ByBlock
 62
     0
370
    -2
100
AcDbLine
 10
-373.4757545189909
 20
-542.6687383244036
 30
0.0
 11
-372.8058820189909
 21
-540.1687383244036
 31
0.0
  0
LINE
  5
D3C
330
6B
100
AcDbEntity
  8
0
  6
ByBlock
 62
     0
370
    -2
100
AcDbLine
 10
-372.8058820189909
 20
-540.1687383244036
 30
0.0
 11
-372.1360095189909
 21
-542.6687383244036
 31
0.0
  0
LINE
  5
D3D
330
6B
100
AcDbEntity
  8
0
  6
ByBlock
 62
     0
370
    -2
100
AcDbLine
 10
-372.8058820189909
 20
-540.1687383244036
 30
0.0
 11
-372.8058820189909
 21
-542.6687383244036
 31
0.0
  0
LINE
  5
D3E
330
6B
100
AcDbEntity
  8
0
  6
ByBlock
 62
     0
370
    -2
100
AcDbLine
 10
-372.1360095189909
 20
-522.5792053244036
 30
0.0
 11
-372.8058820189909
 21
-525.0792053244037
 31
0.0
  0
LINE
  5
D3F
330
6B
100
AcDbEntity
  8
0
  6
ByBlock
 62
     0
370
    -2
100
AcDbLine
 10
-372.8058820189909
 20
-525.0792053244037
 30
0.0
 11
-373.4757545189909
 21
-522.5792053244036
 31
0.0
  0
LINE
  5
D40
330
6B
100
AcDbEntity
  8
0
  6
ByBlock
 62
     0
370
    -2
100
AcDbLine
 10
-372.8058820189909
 20
-525.0792053244037
 30
0.0
 11
-372.8058820189909
 21
-522.5792053244036
 31
0.0
  0
TEXT
  5
D41
330
6B
100
AcDbEntity
  8
0
 62
     4
100
AcDbText
 10
-428.5607342058961
 20
-508.1453463244037
 30
0.0
 40
3.0
  1
L寸法
100
AcDbText
  0
LINE
  5
D42
330
6B
100
AcDbEntity
  8
0
  6
ByBlock
 62
     0
370
    -2
100
AcDbLine
 10
-303.4366732058962
 20
-508.1004738244037
 30
0.0
 11
-300.9366732058962
 21
-508.7703463244037
 31
0.0
  0
LINE
  5
D43
330
6B
100
AcDbEntity
  8
0
  6
ByBlock
 62
     0
370
    -2
100
AcDbLine
 10
-300.9366732058962
 20
-508.7703463244037
 30
0.0
 11
-303.4366732058962
 21
-509.4402188244036
 31
0.0
  0
LINE
  5
D44
330
6B
100
AcDbEntity
  8
0
  6
ByBlock
 62
     0
370
    -2
100
AcDbLine
 10
-300.9366732058962
 20
-508.7703463244037
 30
0.0
 11
-303.4366732058962
 21
-508.7703463244037
 31
0.0
  0
LINE
  5
D45
330
6B
100
AcDbEntity
  8
0
  6
ByBlock
 62
     0
370
    -2
100
AcDbLine
 10
-544.2847952058961
 20
-509.4402188244036
 30
0.0
 11
-546.7847952058962
 21
-508.7703463244037
 31
0.0
  0
LINE
  5
D46
330
6B
100
AcDbEntity
  8
0
  6
ByBlock
 62
     0
370
    -2
100
AcDbLine
 10
-546.7847952058962
 20
-508.7703463244037
 30
0.0
 11
-544.2847952058961
 21
-508.1004738244037
 31
0.0
  0
LINE
  5
D47
330
6B
100
AcDbEntity
  8
0
  6
ByBlock
 62
     0
370
    -2
100
AcDbLine
 10
-546.7847952058962
 20
-508.7703463244037
 30
0.0
 11
-544.2847952058961
 21
-508.7703463244037
 31
0.0
  0
TEXT
  5
D48
330
6B
100
AcDbEntity
  8
0
 62
     4
100
AcDbText
 10
-293.0871762058962
 20
-535.1215573244037
 30
0.0
 40
3.0
  1
24
 50
90.0
100
AcDbText
  0
LINE
  5
D49
330
6B
100
AcDbEntity
  8
0
  6
ByBlock
 62
     0
370
    -2
100
AcDbLine
 10
-293.1320487058963
 20
-523.1215573244035
 30
0.0
 11
-292.4621762058963
 21
-520.6215573244036
 31
0.0
  0
LINE
  5
D4A
330
6B
100
AcDbEntity
  8
0
  6
ByBlock
 62
     0
370
    -2
100
AcDbLine
 10
-292.4621762058963
 20
-520.6215573244036
 30
0.0
 11
-291.7923037058963
 21
-523.1215573244035
 31
0.0
  0
LINE
  5
D4B
330
6B
100
AcDbEntity
  8
0
  6
ByBlock
 62
     0
370
    -2
100
AcDbLine
 10
-292.4621762058963
 20
-520.6215573244036
 30
0.0
 11
-292.4621762058963
 21
-523.1215573244035
 31
0.0
  0
LINE
  5
D4C
330
6B
100
AcDbEntity
  8
0
  6
ByBlock
 62
     0
370
    -2
100
AcDbLine
 10
-291.7923037058963
 20
-542.1215573244036
 30
0.0
 11
-292.4621762058963
 21
-544.6215573244036
 31
0.0
  0
LINE
  5
D4D
330
6B
100
AcDbEntity
  8
0
  6
ByBlock
 62
     0
370
    -2
100
AcDbLine
 10
-292.4621762058963
 20
-544.6215573244036
 30
0.0
 11
-293.1320487058963
 21
-542.1215573244036
 31
0.0
  0
LINE
  5
D4E
330
6B
100
AcDbEntity
  8
0
  6
ByBlock
 62
     0
370
    -2
100
AcDbLine
 10
-292.4621762058963
 20
-544.6215573244036
 30
0.0
 11
-292.4621762058963
 21
-542.1215573244036
 31
0.0
  0
TEXT
  5
D4F
330
6B
100
AcDbEntity
  8
0
 62
     4
100
AcDbText
 10
-291.1326792058962
 20
-441.9074683244036
 30
0.0
 40
3.0
  1
10
 50
90.0
100
AcDbText
  0
LINE
  5
D50
330
6B
100
AcDbEntity
  8
0
  6
ByBlock
 62
     0
370
    -2
100
AcDbLine
 10
-291.1775517058963
 20
-437.6574683244036
 30
0.0
 11
-290.5076792058963
 21
-435.1574683244036
 31
0.0
  0
LINE
  5
D51
330
6B
100
AcDbEntity
  8
0
  6
ByBlock
 62
     0
370
    -2
100
AcDbLine
 10
-290.5076792058963
 20
-435.1574683244036
 30
0.0
 11
-289.8378067058963
 21
-437.6574683244036
 31
0.0
  0
LINE
  5
D52
330
6B
100
AcDbEntity
  8
0
  6
ByBlock
 62
     0
370
    -2
100
AcDbLine
 10
-290.5076792058963
 20
-435.1574683244036
 30
0.0
 11
-290.5076792058963
 21
-437.6574683244036
 31
0.0
  0
LINE
  5
D53
330
6B
100
AcDbEntity
  8
0
  6
ByBlock
 62
     0
370
    -2
100
AcDbLine
 10
-289.8378067058963
 20
-442.6574683244036
 30
0.0
 11
-290.5076792058963
 21
-445.1574683244037
 31
0.0
  0
LINE
  5
D54
330
6B
100
AcDbEntity
  8
0
  6
ByBlock
 62
     0
370
    -2
100
AcDbLine
 10
-290.5076792058963
 20
-445.1574683244037
 30
0.0
 11
-291.1775517058963
 21
-442.6574683244036
 31
0.0
  0
LINE
  5
D55
330
6B
100
AcDbEntity
  8
0
  6
ByBlock
 62
     0
370
    -2
100
AcDbLine
 10
-290.5076792058963
 20
-445.1574683244037
 30
0.0
 11
-290.5076792058963
 21
-442.6574683244036
 31
0.0
  0
ENDSEC
  0
SECTION
  2
OBJECTS
  0
DICTIONARY
  5
C
330
0
100
AcDbDictionary
281
     1
  3
ACAD_2007HEADERVARS_RT
350
D59
  3
ACAD_COLOR
350
62
  3
ACAD_GROUP
350
D
  3
ACAD_LAYOUT
350
61
  3
ACAD_MATERIAL
350
10
  3
ACAD_MLEADERSTYLE
350
65
  3
ACAD_MLINESTYLE
350
5E
  3
ACAD_PLOTSETTINGS
350
60
  3
ACAD_PLOTSTYLENAME
350
E
  3
ACAD_SCALELIST
350
42
  3
ACAD_TABLESTYLE
350
63
  3
ACAD_VISUALSTYLE
350
29
  3
ACDB_RECOMPOSE_DATA
350
D57
  3
AcDbVariableDictionary
350
96E
  3
DWGPROPS
350
D58
  0
DICTIONARY
  5
4B2
330
2
100
AcDbDictionary
280
     1
281
     1
  3
ACAD_LAYERSTATES
360
4B3
  0
DICTIONARY
  5
96C
330
54
100
AcDbDictionary
280
     1
281
     1
  3
ADSK_XREC_LAYER_RECONCILED
360
96D
  0
DICTIONARY
  5
8BE
330
6B
100
AcDbDictionary
280
     1
281
     1
  3
ACAD_SORTENTS
360
8BF
  0
DICTIONARY
  5
D92
330
A81
100
AcDbDictionary
280
     1
281
     1
  3
ACAD_MTEXT_RT
360
D93
  0
DICTIONARY
  5
D59
102
{ACAD_REACTORS
330
C
102
}
330
C
100
AcDbDictionary
281
     1
  3
DIMARCSYM
350
D5B
  3
DIMFXL
350
D5A
  3
DIMJOGANG
350
D5C
  0
DICTIONARY
  5
62
102
{ACAD_REACTORS
330
C
102
}
330
C
100
AcDbDictionary
281
     1
  0
DICTIONARY
  5
D
102
{ACAD_REACTORS
330
C
102
}
330
C
100
AcDbDictionary
281
     1
  0
DICTIONARY
  5
61
102
{ACAD_REACTORS
330
C
102
}
330
C
100
AcDbDictionary
281
     1
  3
Model
350
6E
  3
レイアウト1
350
6A
  0
DICTIONARY
  5
10
102
{ACAD_REACTORS
330
C
102
}
330
C
100
AcDbDictionary
281
     1
  3
ByBlock
350
19
  3
ByLayer
350
11
  3
Global
350
21
  0
DICTIONARY
  5
65
102
{ACAD_REACTORS
330
C
102
}
330
C
100
AcDbDictionary
281
     1
  3
Standard
350
66
  0
DICTIONARY
  5
5E
102
{ACAD_REACTORS
330
C
102
}
330
C
100
AcDbDictionary
281
     1
  3
Standard
350
5F
  0
DICTIONARY
  5
60
102
{ACAD_REACTORS
330
C
102
}
330
C
100
AcDbDictionary
281
     1
  0
ACDBDICTIONARYWDFLT
  5
E
102
{ACAD_REACTORS
330
C
102
}
330
C
100
AcDbDictionary
281
     1
  3
Normal
350
F
100
AcDbDictionaryWithDefault
340
F
  0
DICTIONARY
  5
42
102
{ACAD_REACTORS
330
C
102
}
330
C
100
AcDbDictionary
281
     1
  3
A0
350
43
  3
A1
350
44
  3
A2
350
45
  3
A3
350
46
  3
A4
350
47
  3
A5
350
48
  3
A6
350
49
  3
A7
350
4A
  3
A8
350
4B
  3
A9
350
4C
  3
B0
350
4D
  3
B1
350
4E
  3
B2
350
4F
  3
B3
350
50
  3
B4
350
51
  3
B5
350
52
  3
B6
350
53
  0
DICTIONARY
  5
63
102
{ACAD_REACTORS
330
C
102
}
330
C
100
AcDbDictionary
281
     1
  3
Standard
350
64
  0
DICTIONARY
  5
29
102
{ACAD_REACTORS
330
C
102
}
330
C
100
AcDbDictionary
281
     1
  3
2dWireframe
350
2F
  3
Basic
350
2E
  3
Brighten
350
35
  3
ColorChange
350
39
  3
Conceptual
350
32
  3
Dim
350
34
  3
EdgeColorOff
350
41
  3
Facepattern
350
38
  3
Flat
350
2A
  3
FlatWithEdges
350
2B
  3
Gouraud
350
2C
  3
GouraudWithEdges
350
2D
  3
Hidden
350
31
  3
JitterOff
350
3F
  3
Linepattern
350
37
  3
OverhangOff
350
40
  3
Realistic
350
33
  3
Shaded
350
3E
  3
Shaded with edges
350
3D
  3
Shades of Gray
350
3A
  3
Sketchy
350
3B
  3
Thicken
350
36
  3
Wireframe
350
30
  3
X-Ray
350
3C
  0
XRECORD
  5
D57
102
{ACAD_REACTORS
330
C
102
}
330
C
100
AcDbXrecord
280
     1
 90
        1
330
64
  0
DICTIONARY
  5
96E
102
{ACAD_REACTORS
330
C
102
}
330
C
100
AcDbDictionary
281
     1
  3
CANNOSCALE
350
971
  3
CMLEADERSTYLE
350
970
  3
CTABLESTYLE
350
96F
  3
DIMASSOC
350
974
  3
INDEXCTL
350
973
  3
SORTENTS
350
972
  3
XCLIPFRAME
350
AD1
  0
XRECORD
  5
D58
102
{ACAD_REACTORS
330
C
102
}
330
C
100
AcDbXrecord
280
     1
  1
DWGPROPS COOKIE
  2

  3

  4

  6

  7

  8
imamura
  9

300
=
301
=
302
=
303
=
304
=
305
=
306
=
307
=
308
=
309
=
 40
0.2930372222222222
 41
2456321.660869282
 42
2459793.733887662
  1

 90
        0
  0
DICTIONARY
  5
4B3
102
{ACAD_REACTORS
330
4B2
102
}
330
4B2
100
AcDbDictionary
281
     1
  0
XRECORD
  5
96D
102
{ACAD_REACTORS
330
96C
102
}
330
96C
100
AcDbXrecord
280
     1
290
     1
  0
SORTENTSTABLE
  5
8BF
102
{ACAD_REACTORS
330
8BE
102
}
330
8BE
100
AcDbSortentsTable
330
6B
331
54F
  5
827
331
54B
  5
823
331
D4E
  5
5F3
331
855
  5
56A
331
D0F
  5
553
331
547
  5
81F
331
D4A
  5
5F5
331
851
  5
566
331
C95
  5
C76
331
CD4
  5
5EC
331
D0B
  5
54F
331
543
  5
81B
331
D46
  5
605
331
C91
  5
CF7
331
D07
  5
54B
331
D42
  5
60A
331
C8D
  5
CF3
331
D03
  5
547
331
849
  5
51C
331
C89
  5
CEF
331
CC8
  5
611
331
5C7
  5
8BA
331
5C3
  5
8B6
331
584
  5
875
331
505
  5
686
331
5BF
  5
8B2
331
580
  5
871
331
C5C
  5
CC2
331
501
  5
682
331
677
  5
D14
331
80E
  5
4E1
331
5BB
  5
8AE
331
57C
  5
86D
331
C58
  5
CBE
331
4FD
  5
67E
331
673
  5
D10
331
63C
  5
C9B
331
5FD
  5
C5D
331
80A
  5
4DD
331
578
  5
869
331
C54
  5
CBA
331
4F9
  5
679
331
66F
  5
D0C
331
638
  5
C97
331
5F9
  5
C59
331
88D
  5
5A7
331
806
  5
4D9
331
66B
  5
D08
331
634
  5
C93
331
5F5
  5
C55
331
802
  5
4D5
331
630
  5
C8F
331
5F1
  5
B59
331
AAE
  5
D49
331
885
  5
5A0
331
AAA
  5
D45
331
881
  5
59C
331
8BA
  5
5D4
331
53F
  5
817
331
53B
  5
813
331
D3E
  5
613
331
CFF
  5
541
331
845
  5
518
331
537
  5
80F
331
D3A
  5
619
331
C85
  5
CEB
331
CFB
  5
53D
331
841
  5
514
331
533
  5
80B
331
D36
  5
624
331
C81
  5
CE7
331
CC0
  5
61D
331
CF7
  5
539
331
83D
  5
510
331
D32
  5
629
331
C7D
  5
CE3
331
CF3
  5
535
331
839
  5
50C
331
C79
  5
CDF
331
5B7
  5
8AA
331
5B3
  5
8A6
331
574
  5
865
331
4F5
  5
675
331
2F6
  5
2F6
331
5AF
  5
8A2
331
570
  5
861
331
4F1
  5
671
331
667
  5
D04
331
7FE
  5
4D1
331
5AB
  5
89E
331
56C
  5
85D
331
4ED
  5
66D
331
663
  5
D00
331
62C
  5
C8B
331
5ED
  5
B51
331
7FA
  5
4CD
331
2EE
  5
2EE
331
568
  5
859
331
4E9
  5
669
331
65F
  5
CFC
331
628
  5
C87
331
5E9
  5
AC9
331
7F6
  5
4C9
331
AA6
  5
D41
331
87D
  5
590
331
B5B
  5
4C0
331
624
  5
C83
331
8C0
  5
D36
331
5E5
  5
ABD
331
AA2
  5
D3D
331
879
  5
58C
331
620
  5
C7F
331
5E1
  5
AB8
331
8B4
  5
5CE
331
A9E
  5
D3B
331
875
  5
58A
331
B53
  5
4C6
331
8B0
  5
5CA
331
871
  5
586
331
52F
  5
807
331
52B
  5
803
331
D2E
  5
62B
331
835
  5
508
331
566
  5
857
331
527
  5
7FF
331
D2A
  5
632
331
CB4
  5
62F
331
831
  5
504
331
523
  5
7FB
331
86C
  5
581
331
D26
  5
634
331
CEF
  5
531
331
82D
  5
500
331
868
  5
57D
331
D22
  5
63D
331
CAC
  5
848
331
CEB
  5
52D
331
829
  5
4FC
331
CA8
  5
843
331
5A7
  5
89A
331
5A3
  5
895
331
4E5
  5
665
331
5DE
  5
AAE
331
59F
  5
891
331
696
  5
D33
331
4E1
  5
661
331
5DA
  5
AAA
331
59B
  5
88D
331
51C
  5
7F4
331
692
  5
D2F
331
C77
  5
CDD
331
4DD
  5
65D
331
61C
  5
C7A
331
518
  5
7F0
331
C73
  5
CD9
331
4D9
  5
659
331
68E
  5
D2B
331
657
  5
CB6
331
618
  5
C75
331
8AC
  5
5C6
331
825
  5
4F8
331
68A
  5
D27
331
653
  5
CB2
331
614
  5
C73
331
8A8
  5
5C2
331
821
  5
4F4
331
610
  5
C6D
331
8A4
  5
5BE
331
AC9
  5
D54
331
8A0
  5
5BA
331
4C6
  5
646
331
55E
  5
839
331
55A
  5
835
331
D1E
  5
643
331
864
  5
579
331
CE7
  5
529
331
556
  5
830
331
860
  5
575
331
CA4
  5
83F
331
CE3
  5
525
331
D1A
  5
55F
331
552
  5
82B
331
D55
  5
5E0
331
85C
  5
571
331
CA0
  5
851
331
CDF
  5
521
331
D16
  5
55B
331
D51
  5
5E5
331
858
  5
56D
331
C9C
  5
84D
331
CDB
  5
5DA
331
D12
  5
557
331
C98
  5
899
331
5D6
  5
AA6
331
597
  5
888
331
5D2
  5
AA2
331
593
  5
884
331
514
  5
695
331
C6F
  5
CD5
331
4D5
  5
655
331
5CE
  5
A9C
331
58F
  5
880
331
510
  5
691
331
C6B
  5
CD1
331
4D1
  5
651
331
686
  5
D23
331
64F
  5
CAE
331
81D
  5
4F0
331
5CA
  5
8BD
331
58B
  5
87C
331
50C
  5
68D
331
C67
  5
CCD
331
4CD
  5
64D
331
682
  5
D1F
331
64B
  5
CAA
331
60C
  5
C6A
331
819
  5
4EC
331
508
  5
689
331
C63
  5
CC9
331
4C9
  5
649
331
67E
  5
D1B
331
647
  5
CA6
331
608
  5
C66
331
89C
  5
5B6
331
815
  5
4E8
331
67A
  5
D17
331
643
  5
CA2
331
604
  5
C64
331
898
  5
5B2
331
811
  5
4E4
331
600
  5
C60
331
ABD
  5
D50
331
894
  5
5AE
331
AB9
  5
D4C
331
890
  5
5AA
331
54E
  5
826
331
54A
  5
822
331
D4D
  5
5F2
331
854
  5
569
331
D0E
  5
552
331
546
  5
81E
331
D49
  5
5F4
331
850
  5
565
331
C94
  5
C7C
331
CD3
  5
5EB
331
D0A
  5
54E
331
542
  5
81A
331
D45
  5
604
331
C90
  5
CF6
331
CCF
  5
600
331
D06
  5
54A
331
84C
  5
51F
331
D41
  5
60D
331
C8C
  5
CF2
331
D02
  5
546
331
848
  5
51B
331
C88
  5
CEE
331
5C6
  5
8B9
331
587
  5
878
331
5C2
  5
8B5
331
583
  5
874
331
C5F
  5
CC5
331
504
  5
685
331
5BE
  5
8B1
331
57F
  5
870
331
C5B
  5
CC1
331
500
  5
681
331
676
  5
D13
331
63F
  5
C9E
331
80D
  5
4E0
331
5BA
  5
8AD
331
57B
  5
86C
331
C57
  5
CBD
331
4FC
  5
67D
331
672
  5
D0F
331
63B
  5
C9A
331
5FC
  5
C5C
331
809
  5
4DC
331
4F8
  5
678
331
66E
  5
D0B
331
637
  5
C96
331
5F8
  5
C58
331
88C
  5
5A6
331
805
  5
4D8
331
2F9
  5
2F9
331
66A
  5
D07
331
633
  5
C92
331
5F4
  5
C54
331
888
  5
5A3
331
801
  5
4D4
331
5F0
  5
B58
331
AAD
  5
D48
331
884
  5
59F
331
AA9
  5
D44
331
880
  5
59B
331
8BD
  5
5D7
331
8B9
  5
5D3
331
53E
  5
816
331
53A
  5
812
331
D3D
  5
618
331
CC7
  5
610
331
CFE
  5
540
331
844
  5
517
331
536
  5
80E
331
D39
  5
621
331
C84
  5
CEA
331
CFA
  5
53C
331
840
  5
513
331
532
  5
80A
331
D35
  5
623
331
C80
  5
CE6
331
CBF
  5
61C
331
CF6
  5
538
331
83C
  5
50F
331
D31
  5
628
331
C7C
  5
CE2
331
CF2
  5
534
331
838
  5
50B
331
C78
  5
CDE
331
5B6
  5
8A9
331
577
  5
868
331
5B2
  5
8A5
331
573
  5
864
331
4F4
  5
674
331
2F5
  5
2F5
331
5AE
  5
8A1
331
56F
  5
860
331
4F0
  5
670
331
666
  5
D03
331
62F
  5
C8E
331
7FD
  5
4D0
331
5AA
  5
89D
331
56B
  5
85C
331
4EC
  5
66C
331
662
  5
CFF
331
62B
  5
C8A
331
5EC
  5
AD0
331
7F9
  5
4CC
331
4E8
  5
668
331
65E
  5
CFB
331
627
  5
C86
331
5E8
  5
AC0
331
AA5
  5
D40
331
87C
  5
58F
331
7F5
  5
4C8
331
65A
  5
CB9
331
623
  5
C82
331
5E4
  5
ABC
331
AA1
  5
D3C
331
8B7
  5
5D1
331
7F1
  5
4C1
331
5E0
  5
AB6
331
8B3
  5
5CD
331
A9D
  5
D3A
331
874
  5
589
331
B52
  5
4C5
331
870
  5
585
331
52E
  5
806
331
52A
  5
802
331
D2D
  5
62A
331
834
  5
507
331
565
  5
856
331
526
  5
7FE
331
86F
  5
584
331
D29
  5
631
331
CB3
  5
62E
331
830
  5
503
331
522
  5
7FA
331
86B
  5
580
331
D25
  5
639
331
CAF
  5
63C
331
CEE
  5
530
331
82C
  5
4FF
331
D21
  5
642
331
CAB
  5
846
331
CEA
  5
52C
331
828
  5
4FB
331
5A2
  5
894
331
4E4
  5
664
331
5DD
  5
AAD
331
59E
  5
890
331
51F
  5
7F7
331
695
  5
D32
331
4E0
  5
660
331
61F
  5
C7E
331
5D9
  5
AA9
331
59A
  5
88C
331
51B
  5
7F3
331
691
  5
D2E
331
C76
  5
CDC
331
4DC
  5
65C
331
61B
  5
C79
331
8AF
  5
5C9
331
C72
  5
CD8
331
4D8
  5
658
331
68D
  5
D2A
331
656
  5
CB5
331
8AB
  5
5C5
331
824
  5
4F7
331
689
  5
D26
331
652
  5
CB1
331
613
  5
C72
331
AD0
  5
D55
331
8A7
  5
5C1
331
820
  5
4F3
331
8A3
  5
5BD
331
4C5
  5
645
331
55D
  5
838
331
867
  5
57C
331
559
  5
833
331
863
  5
578
331
CA7
  5
842
331
CE6
  5
528
331
D1D
  5
562
331
555
  5
82F
331
85F
  5
574
331
CA3
  5
83D
331
CE2
  5
524
331
D19
  5
55E
331
551
  5
829
331
D54
  5
5DF
331
85B
  5
570
331
C9F
  5
850
331
D15
  5
55A
331
D50
  5
5E4
331
C9B
  5
84C
331
CDA
  5
5D9
331
D11
  5
556
331
5D5
  5
AA5
331
596
  5
887
331
517
  5
698
331
5D1
  5
AA1
331
592
  5
883
331
513
  5
694
331
C6E
  5
CD4
331
4D4
  5
654
331
5CD
  5
8C2
331
58E
  5
87F
331
50F
  5
690
331
C6A
  5
CD0
331
4D0
  5
650
331
685
  5
D22
331
64E
  5
CAD
331
81C
  5
4EF
331
5C9
  5
8BC
331
58A
  5
87B
331
50B
  5
68C
331
C66
  5
CCC
331
4CC
  5
64C
331
681
  5
D1E
331
64A
  5
CA9
331
60B
  5
C69
331
89F
  5
5B9
331
818
  5
4EB
331
C62
  5
CC8
331
4C8
  5
648
331
67D
  5
D1A
331
646
  5
CA5
331
89B
  5
5B5
331
814
  5
4E7
331
679
  5
D16
331
642
  5
CA1
331
603
  5
C63
331
AC0
  5
D53
331
897
  5
5B1
331
810
  5
4E3
331
ABC
  5
D4F
331
893
  5
5AD
331
54D
  5
825
331
857
  5
56C
331
549
  5
821
331
D4C
  5
5EE
331
853
  5
568
331
C97
  5
898
331
D0D
  5
551
331
545
  5
81D
331
D48
  5
5FA
331
84F
  5
564
331
C93
  5
C7B
331
D09
  5
54D
331
541
  5
819
331
D44
  5
60C
331
C8F
  5
CF5
331
CCE
  5
5FF
331
D05
  5
549
331
84B
  5
51E
331
D40
  5
615
331
C8B
  5
CF1
331
D01
  5
545
331
5C5
  5
8B8
331
586
  5
877
331
507
  5
688
331
5C1
  5
8B4
331
582
  5
873
331
C5E
  5
CC4
331
503
  5
684
331
5BD
  5
8B0
331
57E
  5
86F
331
C5A
  5
CC0
331
4FF
  5
680
331
675
  5
D12
331
63E
  5
C9D
331
5FF
  5
C5F
331
80C
  5
4DF
331
5B9
  5
8AC
331
57A
  5
86B
331
C56
  5
CBC
331
4FB
  5
67C
331
671
  5
D0E
331
63A
  5
C99
331
5FB
  5
C5B
331
88F
  5
5A9
331
808
  5
4DB
331
66D
  5
D0A
331
636
  5
C95
331
5F7
  5
C57
331
88B
  5
5A5
331
804
  5
4D7
331
2F8
  5
2F8
331
669
  5
D06
331
632
  5
C91
331
5F3
  5
B5B
331
887
  5
5A2
331
800
  5
4D3
331
AAC
  5
D47
331
883
  5
59E
331
AA8
  5
D43
331
8BC
  5
5D6
331
8B8
  5
5D2
331
53D
  5
815
331
847
  5
51A
331
539
  5
811
331
D3C
  5
617
331
C87
  5
CED
331
CC6
  5
60F
331
CFD
  5
53F
331
843
  5
516
331
535
  5
80D
331
D38
  5
620
331
C83
  5
CE9
331
CF9
  5
53B
331
83F
  5
512
331
531
  5
809
331
D34
  5
622
331
C7F
  5
CE5
331
CBE
  5
61B
331
CF5
  5
537
331
83B
  5
50E
331
D30
  5
627
331
C7B
  5
CE1
331
CF1
  5
533
331
5B5
  5
8A8
331
576
  5
867
331
4F7
  5
677
331
5B1
  5
8A4
331
572
  5
863
331
4F3
  5
673
331
2F4
  5
2F4
331
5AD
  5
8A0
331
56E
  5
85F
331
4EF
  5
66F
331
665
  5
D02
331
62E
  5
C8D
331
5EF
  5
B53
331
7FC
  5
4CF
331
2F0
  5
2F0
331
5A9
  5
89C
331
56A
  5
85B
331
4EB
  5
66B
331
661
  5
CFE
331
62A
  5
C89
331
5EB
  5
ACF
331
87F
  5
59A
331
7F8
  5
4CB
331
65D
  5
CFA
331
626
  5
C85
331
5E7
  5
ABF
331
7F4
  5
4C7
331
8C2
  5
D38
331
AA4
  5
D3F
331
87B
  5
58E
331
B59
  5
4BE
331
659
  5
CB8
331
622
  5
C81
331
5E3
  5
ABB
331
8B6
  5
5D0
331
7F0
  5
4BC
331
8B2
  5
5CC
331
A9C
  5
D39
331
873
  5
588
331
B51
  5
4C4
331
52D
  5
805
331
837
  5
50A
331
529
  5
801
331
D2C
  5
62D
331
833
  5
506
331
564
  5
855
331
525
  5
7FD
331
86E
  5
583
331
D28
  5
638
331
82F
  5
502
331
560
  5
83B
331
521
  5
7F9
331
86A
  5
57F
331
D24
  5
63F
331
CAE
  5
63B
331
CED
  5
52F
331
82B
  5
4FE
331
D20
  5
641
331
CAA
  5
845
331
CE9
  5
52B
331
5A5
  5
897
331
4E7
  5
667
331
5A1
  5
893
331
4E3
  5
663
331
5DC
  5
AAC
331
59D
  5
88F
331
51E
  5
7F6
331
694
  5
D31
331
4DF
  5
65F
331
61E
  5
C7D
331
5D8
  5
AA8
331
599
  5
88B
331
51A
  5
7F2
331
C75
  5
CDB
331
4DB
  5
65B
331
690
  5
D2D
331
61A
  5
C78
331
8AE
  5
5C8
331
827
  5
4FA
331
C71
  5
CD7
331
68C
  5
D29
331
655
  5
CB4
331
8AA
  5
5C4
331
823
  5
4F6
331
688
  5
D25
331
651
  5
CB0
331
612
  5
C71
331
ACF
  5
C6F
331
8A6
  5
5C0
331
8A2
  5
5BC
331
4C4
  5
644
331
55C
  5
837
331
866
  5
57B
331
558
  5
832
331
862
  5
577
331
CA6
  5
841
331
CE5
  5
527
331
D1C
  5
561
331
554
  5
82E
331
85E
  5
573
331
CA2
  5
853
331
CE1
  5
523
331
D18
  5
55D
331
550
  5
828
331
D53
  5
5DE
331
85A
  5
56F
331
C9E
  5
84F
331
D14
  5
559
331
C9A
  5
84A
331
CD9
  5
5D8
331
D10
  5
554
331
5D4
  5
AA4
331
595
  5
886
331
516
  5
697
331
4D7
  5
657
331
5D0
  5
A9E
331
591
  5
882
331
512
  5
693
331
C6D
  5
CD3
331
4D3
  5
653
331
81F
  5
4F2
331
5CC
  5
8C1
331
58D
  5
87E
331
50E
  5
68F
331
C69
  5
CCF
331
4CF
  5
64F
331
684
  5
D21
331
64D
  5
CAC
331
60E
  5
C6C
331
81B
  5
4EE
331
5C8
  5
8BB
331
589
  5
87A
331
50A
  5
68B
331
C65
  5
CCB
331
4CB
  5
64B
331
680
  5
D1D
331
649
  5
CA8
331
60A
  5
C68
331
89E
  5
5B8
331
817
  5
4EA
331
C61
  5
CC7
331
67C
  5
D19
331
645
  5
CA4
331
606
  5
C65
331
89A
  5
5B4
331
813
  5
4E6
331
678
  5
D15
331
641
  5
CA0
331
602
  5
C62
331
ABF
  5
D52
331
896
  5
5B0
331
ABB
  5
D4E
331
892
  5
5AC
331
54C
  5
824
331
D4F
  5
5EA
331
856
  5
56B
331
548
  5
820
331
D4B
  5
5F6
331
852
  5
567
331
C96
  5
C77
331
CD5
  5
5ED
331
D0C
  5
550
331
544
  5
81C
331
D47
  5
606
331
84E
  5
563
331
C92
  5
CF8
331
D08
  5
54C
331
540
  5
818
331
D43
  5
60B
331
C8E
  5
CF4
331
CCD
  5
5FE
331
D04
  5
548
331
84A
  5
51D
331
C8A
  5
CF0
331
CC9
  5
612
331
D00
  5
542
331
5C4
  5
8B7
331
585
  5
876
331
506
  5
687
331
5C0
  5
8B3
331
581
  5
872
331
C5D
  5
CC3
331
502
  5
683
331
80F
  5
4E2
331
5BC
  5
8AF
331
57D
  5
86E
331
C59
  5
CBF
331
4FE
  5
67F
331
674
  5
D11
331
63D
  5
C9C
331
5FE
  5
C5E
331
80B
  5
4DE
331
5B8
  5
8AB
331
579
  5
86A
331
C55
  5
CBB
331
4FA
  5
67A
331
670
  5
D0D
331
639
  5
C98
331
5FA
  5
C5A
331
AB7
  5
D4B
331
88E
  5
5A8
331
807
  5
4DA
331
66C
  5
D09
331
635
  5
C94
331
5F6
  5
C56
331
88A
  5
5A4
331
803
  5
4D6
331
668
  5
D05
331
631
  5
C90
331
5F2
  5
B5A
331
AAF
  5
D4A
331
886
  5
5A1
331
AAB
  5
D46
331
882
  5
59D
331
698
  5
D35
331
8BB
  5
5D5
331
53C
  5
814
331
D3F
  5
614
331
846
  5
519
331
538
  5
810
331
D3B
  5
616
331
C86
  5
CEC
331
CC5
  5
60E
331
CFC
  5
53E
331
842
  5
515
331
534
  5
80C
331
D37
  5
61F
331
C82
  5
CE8
331
CC1
  5
61E
331
CF8
  5
53A
331
83E
  5
511
331
530
  5
808
331
D33
  5
625
331
C7E
  5
CE4
331
CBD
  5
61A
331
CF4
  5
536
331
83A
  5
50D
331
C7A
  5
CE0
331
CB9
  5
626
331
CF0
  5
532
331
5B4
  5
8A7
331
575
  5
866
331
4F6
  5
676
331
2F7
  5
2F7
331
5B0
  5
8A3
331
571
  5
862
331
4F2
  5
672
331
7FF
  5
4D2
331
5AC
  5
89F
331
56D
  5
85E
331
4EE
  5
66E
331
664
  5
D01
331
62D
  5
C8C
331
5EE
  5
B52
331
7FB
  5
4CE
331
2EF
  5
2EF
331
5A8
  5
89B
331
569
  5
85A
331
4EA
  5
66A
331
660
  5
CFD
331
629
  5
C88
331
5EA
  5
ACE
331
AA7
  5
D42
331
87E
  5
599
331
7F7
  5
4CA
331
65C
  5
CF9
331
625
  5
C84
331
5E6
  5
ABE
331
7F3
  5
4C3
331
8C1
  5
D37
331
AA3
  5
D3E
331
87A
  5
58D
331
B58
  5
4BD
331
658
  5
CB7
331
621
  5
C80
331
5E2
  5
ABA
331
8B5
  5
5CF
331
876
  5
58B
331
8B1
  5
5CB
331
872
  5
587
331
52C
  5
804
331
D2F
  5
62C
331
836
  5
509
331
567
  5
858
331
528
  5
800
331
D2B
  5
633
331
CB5
  5
630
331
832
  5
505
331
563
  5
854
331
524
  5
7FC
331
86D
  5
582
331
D27
  5
635
331
82E
  5
501
331
520
  5
7F8
331
869
  5
57E
331
D23
  5
63E
331
CAD
  5
63A
331
CEC
  5
52E
331
82A
  5
4FD
331
CA9
  5
844
331
CE8
  5
52A
331
5A4
  5
896
331
4E6
  5
666
331
5DF
  5
AAF
331
5A0
  5
892
331
697
  5
D34
331
4E2
  5
662
331
5DB
  5
AAB
331
59C
  5
88E
331
51D
  5
7F5
331
693
  5
D30
331
4DE
  5
65E
331
598
  5
88A
331
519
  5
7F1
331
C74
  5
CDA
331
4DA
  5
65A
331
68F
  5
D2C
331
8AD
  5
5C7
331
826
  5
4F9
331
C70
  5
CD6
331
68B
  5
D28
331
654
  5
CB3
331
615
  5
C74
331
8A9
  5
5C3
331
822
  5
4F5
331
650
  5
CAF
331
611
  5
C70
331
ACE
  5
C6E
331
8A5
  5
5BF
331
8A1
  5
5BB
331
4C7
  5
647
331
55F
  5
83A
331
55B
  5
836
331
D1F
  5
640
331
865
  5
57A
331
557
  5
831
331
861
  5
576
331
CA5
  5
840
331
CE4
  5
526
331
D1B
  5
560
331
553
  5
82D
331
85D
  5
572
331
CA1
  5
852
331
CE0
  5
522
331
D17
  5
55C
331
D52
  5
5E6
331
859
  5
56E
331
C9D
  5
84E
331
D13
  5
558
331
C99
  5
849
331
5D7
  5
AA7
331
5D3
  5
AA3
331
594
  5
885
331
515
  5
696
331
4D6
  5
656
331
5CF
  5
A9D
331
590
  5
881
331
511
  5
692
331
C6C
  5
CD2
331
4D2
  5
652
331
687
  5
D24
331
81E
  5
4F1
331
5CB
  5
8C0
331
58C
  5
87D
331
50D
  5
68E
331
C68
  5
CCE
331
4CE
  5
64E
331
683
  5
D20
331
64C
  5
CAB
331
60D
  5
C6B
331
81A
  5
4ED
331
588
  5
879
331
509
  5
68A
331
C64
  5
CCA
331
4CA
  5
64A
331
67F
  5
D1C
331
648
  5
CA7
331
609
  5
C67
331
89D
  5
5B7
331
816
  5
4E9
331
C60
  5
CC6
331
67B
  5
D18
331
644
  5
CA3
331
899
  5
5B3
331
812
  5
4E5
331
640
  5
C9F
331
601
  5
C61
331
ABE
  5
D51
331
895
  5
5AF
331
ABA
  5
D4D
331
891
  5
5AB
  0
XRECORD
  5
D93
102
{ACAD_REACTORS
330
D92
102
}
330
D92
100
AcDbXrecord
280
     1
 40
2356.0
  1
\U+220550
  0
XRECORD
  5
D5B
102
{ACAD_REACTORS
330
D59
102
}
330
D59
100
AcDbXrecord
280
     1
 70
     2
  0
XRECORD
  5
D5A
102
{ACAD_REACTORS
330
D59
102
}
330
D59
100
AcDbXrecord
280
     1
 40
1.25
  0
XRECORD
  5
D5C
102
{ACAD_REACTORS
330
D59
102
}
330
D59
100
AcDbXrecord
280
     1
 40
1.570796326794896
  0
LAYOUT
  5
6E
102
{ACAD_XDICTIONARY
360
D90
102
}
102
{ACAD_REACTORS
330
61
102
}
330
61
100
AcDbPlotSettings
  1

  2
FX DP 205
  4

  6

 40
0.0
 41
0.0
 42
0.0
 43
0.0
 44
0.0
 45
0.0
 46
0.0
 47
0.0
 48
0.0
 49
0.0
140
0.0
141
0.0
142
1.0
143
1.0
 70
  1712
 72
     0
 73
     0
 74
     0
  7

 75
     0
147
1.0
148
0.0
149
0.0
100
AcDbLayout
  1
Model
 70
     1
 71
     0
 10
0.0
 20
0.0
 11
12.0
 21
9.0
 12
0.0
 22
0.0
 32
0.0
 14
0.0
 24
0.0
 34
0.0
 15
0.0
 25
0.0
 35
0.0
146
0.0
 13
0.0
 23
0.0
 33
0.0
 16
1.0
 26
0.0
 36
0.0
 17
0.0
 27
1.0
 37
0.0
 76
     0
330
6B
331
8C
  0
LAYOUT
  5
6A
102
{ACAD_XDICTIONARY
360
D8E
102
}
102
{ACAD_REACTORS
330
61
102
}
330
61
100
AcDbPlotSettings
  1

  2
FX DP 205
  4

  6

 40
0.0
 41
0.0
 42
0.0
 43
0.0
 44
0.0
 45
0.0
 46
0.0
 47
0.0
 48
0.0
 49
0.0
140
0.0
141
0.0
142
1.0
143
1.0
 70
   688
 72
     0
 73
     0
 74
     5
  7

 75
    16
147
1.0
148
0.0
149
0.0
100
AcDbLayout
  1
レイアウト1
 70
     1
 71
     1
 10
0.0
 20
0.0
 11
12.0
 21
9.0
 12
0.0
 22
0.0
 32
0.0
 14
1.000000000000000E+20
 24
1.000000000000000E+20
 34
1.000000000000000E+20
 15
-1.000000000000000E+20
 25
-1.000000000000000E+20
 35
-1.000000000000000E+20
146
0.0
 13
0.0
 23
0.0
 33
0.0
 16
1.0
 26
0.0
 36
0.0
 17
0.0
 27
1.0
 37
0.0
 76
     0
330
67
  0
MATERIAL
  5
19
102
{ACAD_XDICTIONARY
360
1A
102
}
102
{ACAD_REACTORS
330
10
102
}
330
10
100
AcDbMaterial
  1
ByBlock
 72
     0
 43
0.0208333333333333
 43
0.0
 43
0.0
 43
0.0
 43
0.0
 43
0.0208333333333333
 43
0.0
 43
0.0
 43
0.0
 43
0.0
 43
1.0
 43
0.0
 43
0.0
 43
0.0
 43
0.0
 43
1.0
 77
     0
 47
0.0208333333333333
 47
0.0
 47
0.0
 47
0.0
 47
0.0
 47
0.0208333333333333
 47
0.0
 47
0.0
 47
0.0
 47
0.0
 47
1.0
 47
0.0
 47
0.0
 47
0.0
 47
0.0
 47
1.0
171
     0
 49
0.0208333333333333
 49
0.0
 49
0.0
 49
0.0
 49
0.0
 49
0.0208333333333333
 49
0.0
 49
0.0
 49
0.0
 49
0.0
 49
1.0
 49
0.0
 49
0.0
 49
0.0
 49
0.0
 49
1.0
175
     0
142
0.0208333333333333
142
0.0
142
0.0
142
0.0
142
0.0
142
0.0208333333333333
142
0.0
142
0.0
142
0.0
142
0.0
142
1.0
142
0.0
142
0.0
142
0.0
142
0.0
142
1.0
179
     0
144
0.0208333333333333
144
0.0
144
0.0
144
0.0
144
0.0
144
0.0208333333333333
144
0.0
144
0.0
144
0.0
144
0.0
144
1.0
144
0.0
144
0.0
144
0.0
144
0.0
144
1.0
147
0.0208333333333333
147
0.0
147
0.0
147
0.0
147
0.0
147
0.0208333333333333
147
0.0
147
0.0
147
0.0
147
0.0
147
1.0
147
0.0
147
0.0
147
0.0
147
0.0
147
1.0
  0
MATERIAL
  5
11
102
{ACAD_XDICTIONARY
360
12
102
}
102
{ACAD_REACTORS
330
10
102
}
330
10
100
AcDbMaterial
  1
ByLayer
 72
     0
 43
0.0208333333333333
 43
0.0
 43
0.0
 43
0.0
 43
0.0
 43
0.0208333333333333
 43
0.0
 43
0.0
 43
0.0
 43
0.0
 43
1.0
 43
0.0
 43
0.0
 43
0.0
 43
0.0
 43
1.0
 77
     0
 47
0.0208333333333333
 47
0.0
 47
0.0
 47
0.0
 47
0.0
 47
0.0208333333333333
 47
0.0
 47
0.0
 47
0.0
 47
0.0
 47
1.0
 47
0.0
 47
0.0
 47
0.0
 47
0.0
 47
1.0
171
     0
 49
0.0208333333333333
 49
0.0
 49
0.0
 49
0.0
 49
0.0
 49
0.0208333333333333
 49
0.0
 49
0.0
 49
0.0
 49
0.0
 49
1.0
 49
0.0
 49
0.0
 49
0.0
 49
0.0
 49
1.0
175
     0
142
0.0208333333333333
142
0.0
142
0.0
142
0.0
142
0.0
142
0.0208333333333333
142
0.0
142
0.0
142
0.0
142
0.0
142
1.0
142
0.0
142
0.0
142
0.0
142
0.0
142
1.0
179
     0
144
0.0208333333333333
144
0.0
144
0.0
144
0.0
144
0.0
144
0.0208333333333333
144
0.0
144
0.0
144
0.0
144
0.0
144
1.0
144
0.0
144
0.0
144
0.0
144
0.0
144
1.0
147
0.0208333333333333
147
0.0
147
0.0
147
0.0
147
0.0
147
0.0208333333333333
147
0.0
147
0.0
147
0.0
147
0.0
147
1.0
147
0.0
147
0.0
147
0.0
147
0.0
147
1.0
  0
MATERIAL
  5
21
102
{ACAD_XDICTIONARY
360
22
102
}
102
{ACAD_REACTORS
330
10
102
}
330
10
100
AcDbMaterial
  1
Global
 72
     0
 43
0.0208333333333333
 43
0.0
 43
0.0
 43
0.0
 43
0.0
 43
0.0208333333333333
 43
0.0
 43
0.0
 43
0.0
 43
0.0
 43
1.0
 43
0.0
 43
0.0
 43
0.0
 43
0.0
 43
1.0
 77
     0
 47
0.0208333333333333
 47
0.0
 47
0.0
 47
0.0
 47
0.0
 47
0.0208333333333333
 47
0.0
 47
0.0
 47
0.0
 47
0.0
 47
1.0
 47
0.0
 47
0.0
 47
0.0
 47
0.0
 47
1.0
171
     0
 49
0.0208333333333333
 49
0.0
 49
0.0
 49
0.0
 49
0.0
 49
0.0208333333333333
 49
0.0
 49
0.0
 49
0.0
 49
0.0
 49
1.0
 49
0.0
 49
0.0
 49
0.0
 49
0.0
 49
1.0
175
     0
142
0.0208333333333333
142
0.0
142
0.0
142
0.0
142
0.0
142
0.0208333333333333
142
0.0
142
0.0
142
0.0
142
0.0
142
1.0
142
0.0
142
0.0
142
0.0
142
0.0
142
1.0
179
     0
144
0.0208333333333333
144
0.0
144
0.0
144
0.0
144
0.0
144
0.0208333333333333
144
0.0
144
0.0
144
0.0
144
0.0
144
1.0
144
0.0
144
0.0
144
0.0
144
0.0
144
1.0
147
0.0208333333333333
147
0.0
147
0.0
147
0.0
147
0.0
147
0.0208333333333333
147
0.0
147
0.0
147
0.0
147
0.0
147
1.0
147
0.0
147
0.0
147
0.0
147
0.0
147
1.0
  0
MLEADERSTYLE
  5
66
102
{ACAD_REACTORS
330
65
102
}
330
65
100
AcDbMLeaderStyle
170
     2
171
     1
172
     0
 90
        2
 40
0.0
 41
0.0
173
     1
 91
-1056964608
340
5A
 92
       -2
290
     1
 42
0.09
291
     1
 43
0.36
  3
Standard
 44
0.18
300

342
55
174
     1
178
     6
175
     1
176
     0
 93
-1056964608
 45
0.18
292
     0
297
     0
 46
0.18
 94
-1056964608
 47
1.0
 49
1.0
140
1.0
293
     1
141
0.0
294
     1
177
     0
142
1.0
295
     0
296
     0
143
0.125
1001
ACAD_MLEADERVER
1070
     2
  0
MLINESTYLE
  5
5F
102
{ACAD_REACTORS
330
5E
102
}
330
5E
100
AcDbMlineStyle
  2
STANDARD
 70
     0
  3

 62
   256
 51
90.0
 52
90.0
 71
     2
 49
0.5
 62
   256
  6
BYLAYER
 49
-0.5
 62
   256
  6
BYLAYER
  0
ACDBPLACEHOLDER
  5
F
102
{ACAD_REACTORS
330
E
102
}
330
E
  0
SCALE
  5
43
102
{ACAD_REACTORS
330
42
102
}
330
42
100
AcDbScale
 70
     0
300
1:1
140
1.0
141
1.0
290
     1
  0
SCALE
  5
44
102
{ACAD_REACTORS
330
42
102
}
330
42
100
AcDbScale
 70
     0
300
1/128" = 1'-0"
140
0.0078125
141
12.0
290
     0
  0
SCALE
  5
45
102
{ACAD_REACTORS
330
42
102
}
330
42
100
AcDbScale
 70
     0
300
1/64" = 1'-0"
140
0.015625
141
12.0
290
     0
  0
SCALE
  5
46
102
{ACAD_REACTORS
330
42
102
}
330
42
100
AcDbScale
 70
     0
300
1/32" = 1'-0"
140
0.03125
141
12.0
290
     0
  0
SCALE
  5
47
102
{ACAD_REACTORS
330
42
102
}
330
42
100
AcDbScale
 70
     0
300
1/16" = 1'-0"
140
0.0625
141
12.0
290
     0
  0
SCALE
  5
48
102
{ACAD_REACTORS
330
42
102
}
330
42
100
AcDbScale
 70
     0
300
3/32" = 1'-0"
140
0.09375
141
12.0
290
     0
  0
SCALE
  5
49
102
{ACAD_REACTORS
330
42
102
}
330
42
100
AcDbScale
 70
     0
300
1/8" = 1'-0"
140
0.125
141
12.0
290
     0
  0
SCALE
  5
4A
102
{ACAD_REACTORS
330
42
102
}
330
42
100
AcDbScale
 70
     0
300
3/16" = 1'-0"
140
0.1875
141
12.0
290
     0
  0
SCALE
  5
4B
102
{ACAD_REACTORS
330
42
102
}
330
42
100
AcDbScale
 70
     0
300
1/4" = 1'-0"
140
0.25
141
12.0
290
     0
  0
SCALE
  5
4C
102
{ACAD_REACTORS
330
42
102
}
330
42
100
AcDbScale
 70
     0
300
3/8" = 1'-0"
140
0.375
141
12.0
290
     0
  0
SCALE
  5
4D
102
{ACAD_REACTORS
330
42
102
}
330
42
100
AcDbScale
 70
     0
300
1/2" = 1'-0"
140
0.5
141
12.0
290
     0
  0
SCALE
  5
4E
102
{ACAD_REACTORS
330
42
102
}
330
42
100
AcDbScale
 70
     0
300
3/4" = 1'-0"
140
0.75
141
12.0
290
     0
  0
SCALE
  5
4F
102
{ACAD_REACTORS
330
42
102
}
330
42
100
AcDbScale
 70
     0
300
1" = 1'-0"
140
1.0
141
12.0
290
     0
  0
SCALE
  5
50
102
{ACAD_REACTORS
330
42
102
}
330
42
100
AcDbScale
 70
     0
300
1-1/2" = 1'-0"
140
1.5
141
12.0
290
     0
  0
SCALE
  5
51
102
{ACAD_REACTORS
330
42
102
}
330
42
100
AcDbScale
 70
     0
300
3" = 1'-0"
140
3.0
141
12.0
290
     0
  0
SCALE
  5
52
102
{ACAD_REACTORS
330
42
102
}
330
42
100
AcDbScale
 70
     0
300
6" = 1'-0"
140
6.0
141
12.0
290
     0
  0
SCALE
  5
53
102
{ACAD_REACTORS
330
42
102
}
330
42
100
AcDbScale
 70
     0
300
1'-0" = 1'-0"
140
12.0
141
12.0
290
     0
  0
TABLESTYLE
  5
64
102
{ACAD_XDICTIONARY
360
9BB
102
}
102
{ACAD_REACTORS
330
63
102
}
330
63
100
AcDbTableStyle
  3
Standard
 70
     0
 71
     0
 40
0.06
 41
0.06
280
     0
281
     0
  7
STANDARD
140
0.18
170
     2
 62
     0
 63
     7
283
     0
274
    -2
284
     1
 64
     0
275
    -2
285
     1
 65
     0
276
    -2
286
     1
 66
     0
277
    -2
287
     1
 67
     0
278
    -2
288
     1
 68
     0
279
    -2
289
     1
 69
     0
  7
STANDARD
140
0.25
170
     5
 62
     0
 63
     7
283
     0
274
    -2
284
     1
 64
     0
275
    -2
285
     1
 65
     0
276
    -2
286
     1
 66
     0
277
    -2
287
     1
 67
     0
278
    -2
288
     1
 68
     0
279
    -2
289
     1
 69
     0
  7
STANDARD
140
0.18
170
     5
 62
     0
 63
     7
283
     0
274
    -2
284
     1
 64
     0
275
    -2
285
     1
 65
     0
276
    -2
286
     1
 66
     0
277
    -2
287
     1
 67
     0
278
    -2
288
     1
 68
     0
279
    -2
289
     1
 69
     0
  0
VISUALSTYLE
  5
2F
102
{ACAD_XDICTIONARY
360
D67
102
}
102
{ACAD_REACTORS
330
29
102
}
330
29
100
AcDbVisualStyle
  2

 70
     4
 71
     0
 72
     2
 73
     0
 90
        0
 40
-0.6
 41
-30.0
 62
     5
 63
     7
 74
     1
 91
        4
 64
     7
 65
   257
 75
     1
175
     1
 42
1.0
 92
        0
 66
   257
 43
1.0
 76
     1
 77
     6
 78
     2
 67
     7
 79
     5
170
     0
171
     0
290
     0
174
     0
 93
        1
 44
0.0
173
     0
291
     0
 45
0.0
1001
ACAD
1000
AcDbSavedByObjectVersion
1070
     0
  0
VISUALSTYLE
  5
2E
102
{ACAD_XDICTIONARY
360
D65
102
}
102
{ACAD_REACTORS
330
29
102
}
330
29
100
AcDbVisualStyle
  2

 70
     7
 71
     1
 72
     0
 73
     1
 90
        0
 40
-0.6
 41
-30.0
 62
     5
 63
     7
 74
     0
 91
        4
 64
     7
 65
   257
 75
     1
175
     1
 42
1.0
 92
        8
 66
     7
 43
1.0
 76
     1
 77
     6
 78
     2
 67
     7
 79
     5
170
     0
171
     0
290
     0
174
     0
 93
        1
 44
0.0
173
     0
291
     1
 45
0.0
1001
ACAD
1000
AcDbSavedByObjectVersion
1070
     0
  0
VISUALSTYLE
  5
35
102
{ACAD_XDICTIONARY
360
D73
102
}
102
{ACAD_REACTORS
330
29
102
}
330
29
100
AcDbVisualStyle
  2

 70
    12
 71
     2
 72
     2
 73
     0
 90
        0
 40
-0.6
 41
-30.0
 62
     5
 63
     7
 74
     1
 91
        4
 64
     7
 65
   257
 75
     1
175
     1
 42
1.0
 92
        8
 66
     7
 43
1.0
 76
     1
 77
     6
 78
     2
 67
     7
 79
     5
170
     0
171
     0
290
     0
174
     0
 93
        1
 44
50.0
173
     0
291
     1
 45
0.0
1001
ACAD
1000
AcDbSavedByObjectVersion
1070
     0
  0
VISUALSTYLE
  5
39
102
{ACAD_XDICTIONARY
360
D7B
102
}
102
{ACAD_REACTORS
330
29
102
}
330
29
100
AcDbVisualStyle
  2

 70
    16
 71
     2
 72
     2
 73
     3
 90
        0
 40
-0.6
 41
-30.0
 62
     5
 63
     8
 74
     1
 91
        4
 64
     7
 65
   257
 75
     1
175
     1
 42
1.0
 92
        8
 66
     8
 43
1.0
 76
     1
 77
     6
 78
     2
 67
     7
 79
     5
170
     0
171
     0
290
     0
174
     0
 93
        1
 44
0.0
173
     0
291
     1
 45
0.0
1001
ACAD
1000
AcDbSavedByObjectVersion
1070
     0
  0
VISUALSTYLE
  5
32
102
{ACAD_XDICTIONARY
360
D6D
102
}
102
{ACAD_REACTORS
330
29
102
}
330
29
100
AcDbVisualStyle
  2

 70
     9
 71
     3
 72
     2
 73
     0
 90
        0
 40
-0.6
 41
-30.0
 62
     5
 63
     7
 74
     2
 91
        2
 64
     7
 65
   257
 75
     1
175
     1
 42
179.0
 92
        8
 66
     7
 43
1.0
 76
     1
 77
     6
 78
     2
 67
     7
 79
     3
170
     0
171
     0
290
     0
174
     0
 93
        1
 44
0.0
173
     0
291
     0
 45
0.0
1001
ACAD
1000
AcDbSavedByObjectVersion
1070
     0
  0
VISUALSTYLE
  5
34
102
{ACAD_XDICTIONARY
360
D71
102
}
102
{ACAD_REACTORS
330
29
102
}
330
29
100
AcDbVisualStyle
  2

 70
    11
 71
     2
 72
     2
 73
     0
 90
        0
 40
-0.6
 41
-30.0
 62
     5
 63
     7
 74
     1
 91
        4
 64
     7
 65
   257
 75
     1
175
     1
 42
1.0
 92
        8
 66
     7
 43
1.0
 76
     1
 77
     6
 78
     2
 67
     7
 79
     5
170
     0
171
     0
290
     0
174
     0
 93
        1
 44
-50.0
173
     0
291
     1
 45
0.0
1001
ACAD
1000
AcDbSavedByObjectVersion
1070
     0
  0
VISUALSTYLE
  5
41
102
{ACAD_XDICTIONARY
360
D8B
102
}
102
{ACAD_REACTORS
330
29
102
}
330
29
100
AcDbVisualStyle
  2

 70
    22
 71
     2
 72
     2
 73
     0
 90
        0
 40
-0.6
 41
-30.0
 62
     5
 63
     7
 74
     1
 91
        4
 64
     7
 65
   257
 75
     1
175
     1
 42
1.0
 92
        8
 66
     7
 43
1.0
 76
     1
 77
     6
 78
     2
 67
     7
 79
     5
170
     0
171
     0
290
     0
174
     0
 93
        1
 44
0.0
173
     0
291
     1
 45
0.0
1001
ACAD
1000
AcDbSavedByObjectVersion
1070
     0
  0
VISUALSTYLE
  5
38
102
{ACAD_XDICTIONARY
360
D79
102
}
102
{ACAD_REACTORS
330
29
102
}
330
29
100
AcDbVisualStyle
  2

 70
    15
 71
     2
 72
     2
 73
     0
 90
        0
 40
-0.6
 41
-30.0
 62
     5
 63
     7
 74
     1
 91
        4
 64
     7
 65
   257
 75
     1
175
     1
 42
1.0
 92
        8
 66
     7
 43
1.0
 76
     1
 77
     6
 78
     2
 67
     7
 79
     5
170
     0
171
     0
290
     0
174
     0
 93
        1
 44
0.0
173
     0
291
     1
 45
0.0
1001
ACAD
1000
AcDbSavedByObjectVersion
1070
     0
  0
VISUALSTYLE
  5
2A
102
{ACAD_XDICTIONARY
360
D5D
102
}
102
{ACAD_REACTORS
330
29
102
}
330
29
100
AcDbVisualStyle
  2

 70
     0
 71
     2
 72
     1
 73
     1
 90
        2
 40
-0.6
 41
30.0
 62
     5
 63
     7
 74
     0
 91
        0
 64
     7
 65
   257
 75
     1
175
     1
 42
1.0
 92
        8
 66
     7
 43
1.0
 76
     1
 77
     6
 78
     2
 67
     7
 79
     5
170
     0
171
     0
290
     0
174
     0
 93
       13
 44
0.0
173
     0
291
     1
 45
0.0
1001
ACAD
1000
AcDbSavedByObjectVersion
1070
     0
  0
VISUALSTYLE
  5
2B
102
{ACAD_XDICTIONARY
360
D5F
102
}
102
{ACAD_REACTORS
330
29
102
}
330
29
100
AcDbVisualStyle
  2

 70
     1
 71
     2
 72
     1
 73
     1
 90
        2
 40
-0.6
 41
30.0
 62
     5
 63
     7
 74
     1
 91
        0
 64
     7
 65
   257
 75
     1
175
     1
 42
1.0
 92
        0
 66
   257
 43
1.0
 76
     1
 77
     6
 78
     2
 67
     7
 79
     5
170
     0
171
     0
290
     0
174
     0
 93
       13
 44
0.0
173
     0
291
     1
 45
0.0
1001
ACAD
1000
AcDbSavedByObjectVersion
1070
     0
  0
VISUALSTYLE
  5
2C
102
{ACAD_XDICTIONARY
360
D61
102
}
102
{ACAD_REACTORS
330
29
102
}
330
29
100
AcDbVisualStyle
  2

 70
     2
 71
     2
 72
     2
 73
     1
 90
        2
 40
-0.6
 41
30.0
 62
     5
 63
     7
 74
     0
 91
        0
 64
     7
 65
   257
 75
     1
175
     1
 42
1.0
 92
        0
 66
     7
 43
1.0
 76
     1
 77
     6
 78
     2
 67
     7
 79
     5
170
     0
171
     0
290
     0
174
     0
 93
       13
 44
0.0
173
     0
291
     1
 45
0.0
1001
ACAD
1000
AcDbSavedByObjectVersion
1070
     0
  0
VISUALSTYLE
  5
2D
102
{ACAD_XDICTIONARY
360
D63
102
}
102
{ACAD_REACTORS
330
29
102
}
330
29
100
AcDbVisualStyle
  2

 70
     3
 71
     2
 72
     2
 73
     1
 90
        2
 40
-0.6
 41
30.0
 62
     5
 63
     7
 74
     1
 91
        0
 64
     7
 65
   257
 75
     1
175
     1
 42
1.0
 92
        0
 66
   257
 43
1.0
 76
     1
 77
     6
 78
     2
 67
     7
 79
     5
170
     0
171
     0
290
     0
174
     0
 93
       13
 44
0.0
173
     0
291
     1
 45
0.0
1001
ACAD
1000
AcDbSavedByObjectVersion
1070
     0
  0
VISUALSTYLE
  5
31
102
{ACAD_XDICTIONARY
360
D6B
102
}
102
{ACAD_REACTORS
330
29
102
}
330
29
100
AcDbVisualStyle
  2

 70
     6
 71
     1
 72
     2
 73
     2
 90
        0
 40
-0.6
 41
-30.0
 62
     5
 63
     7
 74
     2
 91
        2
 64
     7
 65
   257
 75
     2
175
     1
 42
40.0
 92
        0
 66
   257
 43
1.0
 76
     1
 77
     6
 78
     2
 67
     7
 79
     3
170
     0
171
     0
290
     0
174
     0
 93
        1
 44
0.0
173
     0
291
     0
 45
0.0
1001
ACAD
1000
AcDbSavedByObjectVersion
1070
     0
  0
VISUALSTYLE
  5
3F
102
{ACAD_XDICTIONARY
360
D87
102
}
102
{ACAD_REACTORS
330
29
102
}
330
29
100
AcDbVisualStyle
  2

 70
    20
 71
     2
 72
     2
 73
     0
 90
        0
 40
-0.6
 41
-30.0
 62
     5
 63
     7
 74
     1
 91
        4
 64
     7
 65
   257
 75
     1
175
     1
 42
1.0
 92
       10
 66
     7
 43
1.0
 76
     1
 77
     6
 78
     2
 67
     7
 79
     5
170
     0
171
     0
290
     0
174
     0
 93
        1
 44
0.0
173
     0
291
     1
 45
0.0
1001
ACAD
1000
AcDbSavedByObjectVersion
1070
     0
  0
VISUALSTYLE
  5
37
102
{ACAD_XDICTIONARY
360
D77
102
}
102
{ACAD_REACTORS
330
29
102
}
330
29
100
AcDbVisualStyle
  2

 70
    14
 71
     2
 72
     2
 73
     0
 90
        0
 40
-0.6
 41
-30.0
 62
     5
 63
     7
 74
     1
 91
        4
 64
     7
 65
   257
 75
     7
175
     7
 42
1.0
 92
        8
 66
     7
 43
1.0
 76
     1
 77
     6
 78
     2
 67
     7
 79
     5
170
     0
171
     0
290
     0
174
     0
 93
        1
 44
0.0
173
     0
291
     1
 45
0.0
1001
ACAD
1000
AcDbSavedByObjectVersion
1070
     0
  0
VISUALSTYLE
  5
40
102
{ACAD_XDICTIONARY
360
D89
102
}
102
{ACAD_REACTORS
330
29
102
}
330
29
100
AcDbVisualStyle
  2

 70
    21
 71
     2
 72
     2
 73
     0
 90
        0
 40
-0.6
 41
-30.0
 62
     5
 63
     7
 74
     1
 91
        4
 64
     7
 65
   257
 75
     1
175
     1
 42
1.0
 92
        9
 66
     7
 43
1.0
 76
     1
 77
     6
 78
     2
 67
     7
 79
     5
170
     0
171
     0
290
     0
174
     0
 93
        1
 44
0.0
173
     0
291
     1
 45
0.0
1001
ACAD
1000
AcDbSavedByObjectVersion
1070
     0
  0
VISUALSTYLE
  5
33
102
{ACAD_XDICTIONARY
360
D6F
102
}
102
{ACAD_REACTORS
330
29
102
}
330
29
100
AcDbVisualStyle
  2

 70
     8
 71
     2
 72
     3
 73
     0
 90
        2
 40
-0.6
 41
30.0
 62
     5
 63
     7
 74
     0
 91
        0
 64
     7
 65
   257
 75
     1
175
     1
 42
1.0
 92
        8
 66
   257
 43
1.0
 76
     1
 77
     6
 78
     2
 67
     7
 79
     3
170
     0
171
     0
290
     0
174
     0
 93
       13
 44
0.0
173
     0
291
     0
 45
0.0
1001
ACAD
1000
AcDbSavedByObjectVersion
1070
     0
  0
VISUALSTYLE
  5
3E
102
{ACAD_XDICTIONARY
360
D85
102
}
102
{ACAD_REACTORS
330
29
102
}
330
29
100
AcDbVisualStyle
  2

 70
    27
 71
     2
 72
     2
 73
     1
 90
        2
 40
-0.6
 41
30.0
 62
     5
 63
     7
 74
     0
 91
        4
 64
     7
 65
   257
 75
     1
175
     1
 42
1.0
 92
        8
 66
   257
 43
1.0
 76
     1
 77
     6
 78
     2
 67
     8
 79
     3
170
     0
171
     0
290
     0
174
     0
 93
        5
 44
0.0
173
     0
291
     0
 45
0.0
1001
ACAD
1000
AcDbSavedByObjectVersion
1070
     0
  0
VISUALSTYLE
  5
3D
102
{ACAD_XDICTIONARY
360
D83
102
}
102
{ACAD_REACTORS
330
29
102
}
330
29
100
AcDbVisualStyle
  2

 70
    26
 71
     2
 72
     2
 73
     1
 90
        2
 40
-0.6
 41
30.0
 62
     5
 63
     7
 74
     1
 91
       10
 64
     7
 65
   257
 75
     2
175
     1
 42
1.0
 92
        8
 66
   257
 43
1.0
 76
     1
 77
     6
 78
     2
 67
     7
 79
     3
170
     0
171
     0
290
     0
174
     0
 93
        5
 44
0.0
173
     0
291
     0
 45
0.0
1001
ACAD
1000
AcDbSavedByObjectVersion
1070
     0
  0
VISUALSTYLE
  5
3A
102
{ACAD_XDICTIONARY
360
D7D
102
}
102
{ACAD_REACTORS
330
29
102
}
330
29
100
AcDbVisualStyle
  2

 70
    23
 71
     2
 72
     2
 73
     3
 90
        0
 40
-0.6
 41
-30.0
 62
     5
 63
     7
 74
     2
 91
        2
 64
     7
 65
     7
 75
     1
175
     1
 42
40.0
 92
        8
 66
     7
 43
1.0
 76
     1
 77
     6
 78
     2
 67
     7
 79
     3
170
     0
171
     0
290
     0
174
     0
 93
        1
 44
0.0
173
     0
291
     0
 45
0.0
1001
ACAD
1000
AcDbSavedByObjectVersion
1070
     0
  0
VISUALSTYLE
  5
3B
102
{ACAD_XDICTIONARY
360
D7F
102
}
102
{ACAD_REACTORS
330
29
102
}
330
29
100
AcDbVisualStyle
  2

 70
    24
 71
     1
 72
     2
 73
     2
 90
        0
 40
-0.6
 41
-30.0
 62
     5
 63
     7
 74
     2
 91
        2
 64
     7
 65
     7
 75
     1
175
     1
 42
40.0
 92
       11
 66
     7
 43
1.0
 76
     1
 77
     6
 78
     2
 67
     7
 79
     6
170
     0
171
     0
290
     0
174
     0
 93
        1
 44
0.0
173
     0
291
     0
 45
0.0
1001
ACAD
1000
AcDbSavedByObjectVersion
1070
     0
  0
VISUALSTYLE
  5
36
102
{ACAD_XDICTIONARY
360
D75
102
}
102
{ACAD_REACTORS
330
29
102
}
330
29
100
AcDbVisualStyle
  2

 70
    13
 71
     2
 72
     2
 73
     0
 90
        0
 40
-0.6
 41
-30.0
 62
     5
 63
     7
 74
     1
 91
        4
 64
     7
 65
   257
 75
     1
175
     1
 42
1.0
 92
       12
 66
     7
 43
1.0
 76
     1
 77
     6
 78
     2
 67
     7
 79
     5
170
     0
171
     0
290
     0
174
     0
 93
        1
 44
0.0
173
     0
291
     1
 45
0.0
1001
ACAD
1000
AcDbSavedByObjectVersion
1070
     0
  0
VISUALSTYLE
  5
30
102
{ACAD_XDICTIONARY
360
D69
102
}
102
{ACAD_REACTORS
330
29
102
}
330
29
100
AcDbVisualStyle
  2

 70
     5
 71
     0
 72
     2
 73
     0
 90
        0
 40
-0.6
 41
-30.0
 62
     5
 63
     7
 74
     1
 91
        4
 64
     7
 65
   257
 75
     1
175
     1
 42
1.0
 92
        0
 66
   257
 43
1.0
 76
     1
 77
     6
 78
     2
 67
     7
 79
     3
170
     0
171
     0
290
     0
174
     0
 93
        1
 44
0.0
173
     0
291
     0
 45
0.0
1001
ACAD
1000
AcDbSavedByObjectVersion
1070
     0
  0
VISUALSTYLE
  5
3C
102
{ACAD_XDICTIONARY
360
D81
102
}
102
{ACAD_REACTORS
330
29
102
}
330
29
100
AcDbVisualStyle
  2

 70
    25
 71
     2
 72
     2
 73
     1
 90
        1
 40
0.5
 41
-30.0
 62
     5
 63
     7
 74
     1
 91
        0
 64
     7
 65
   257
 75
     1
175
     1
 42
1.0
 92
        8
 66
     7
 43
1.0
 76
     1
 77
     6
 78
     2
 67
     7
 79
     3
170
     0
171
     0
290
     0
174
     0
 93
       13
 44
0.0
173
     0
291
     0
 45
0.0
1001
ACAD
1000
AcDbSavedByObjectVersion
1070
     0
  0
DICTIONARYVAR
  5
971
102
{ACAD_REACTORS
330
96E
102
}
330
96E
100
DictionaryVariables
280
     0
  1
1:1
  0
DICTIONARYVAR
  5
970
102
{ACAD_REACTORS
330
96E
102
}
330
96E
100
DictionaryVariables
280
     0
  1
STANDARD
  0
DICTIONARYVAR
  5
96F
102
{ACAD_REACTORS
330
96E
102
}
330
96E
100
DictionaryVariables
280
     0
  1
STANDARD
  0
DICTIONARYVAR
  5
974
102
{ACAD_REACTORS
330
96E
102
}
330
96E
100
DictionaryVariables
280
     0
  1
1
  0
DICTIONARYVAR
  5
973
102
{ACAD_REACTORS
330
96E
102
}
330
96E
100
DictionaryVariables
280
     0
  1
0
  0
DICTIONARYVAR
  5
972
102
{ACAD_REACTORS
330
96E
102
}
330
96E
100
DictionaryVariables
280
     0
  1
127
  0
DICTIONARYVAR
  5
AD1
102
{ACAD_REACTORS
330
96E
102
}
330
96E
100
DictionaryVariables
280
     0
  1
2
  0
DICTIONARY
  5
D90
330
6E
100
AcDbDictionary
280
     1
281
     1
  3
ACAD_XREC_ROUNDTRIP
360
D91
  0
DICTIONARY
  5
D8E
330
6A
100
AcDbDictionary
280
     1
281
     1
  3
ACAD_XREC_ROUNDTRIP
360
D8F
  0
DICTIONARY
  5
1A
330
19
100
AcDbDictionary
280
     1
281
     1
  3
ACAD_XREC_ROUNDTRIP
360
9C4
  3
BUMPTILE
360
1C
  3
DIFFUSETILE
360
1B
  3
OPACITYTILE
360
1F
  3
REFLECTIONTILE
360
1E
  3
REFRACTIONTILE
360
20
  3
SPECULARTILE
360
1D
  0
DICTIONARY
  5
12
330
11
100
AcDbDictionary
280
     1
281
     1
  3
ACAD_XREC_ROUNDTRIP
360
9C3
  3
BUMPTILE
360
14
  3
DIFFUSETILE
360
13
  3
OPACITYTILE
360
17
  3
REFLECTIONTILE
360
16
  3
REFRACTIONTILE
360
18
  3
SPECULARTILE
360
15
  0
DICTIONARY
  5
22
330
21
100
AcDbDictionary
280
     1
281
     1
  3
ACAD_XREC_ROUNDTRIP
360
9C5
  3
BUMPTILE
360
24
  3
DIFFUSETILE
360
23
  3
OPACITYTILE
360
27
  3
REFLECTIONTILE
360
26
  3
REFRACTIONTILE
360
28
  3
SPECULARTILE
360
25
  0
DICTIONARY
  5
9BB
330
64
100
AcDbDictionary
280
     1
281
     1
  3
ACAD_ROUNDTRIP_2008_TABLESTYLE_CELLSTYLEMAP
360
D56
  3
ACAD_XREC_ROUNDTRIP
360
D8D
  0
DICTIONARY
  5
D67
330
2F
100
AcDbDictionary
280
     1
281
     1
  3
ACAD_XREC_ROUNDTRIP
360
D68
  0
DICTIONARY
  5
D65
330
2E
100
AcDbDictionary
280
     1
281
     1
  3
ACAD_XREC_ROUNDTRIP
360
D66
  0
DICTIONARY
  5
D73
330
35
100
AcDbDictionary
280
     1
281
     1
  3
ACAD_XREC_ROUNDTRIP
360
D74
  0
DICTIONARY
  5
D7B
330
39
100
AcDbDictionary
280
     1
281
     1
  3
ACAD_XREC_ROUNDTRIP
360
D7C
  0
DICTIONARY
  5
D6D
330
32
100
AcDbDictionary
280
     1
281
     1
  3
ACAD_XREC_ROUNDTRIP
360
D6E
  0
DICTIONARY
  5
D71
330
34
100
AcDbDictionary
280
     1
281
     1
  3
ACAD_XREC_ROUNDTRIP
360
D72
  0
DICTIONARY
  5
D8B
330
41
100
AcDbDictionary
280
     1
281
     1
  3
ACAD_XREC_ROUNDTRIP
360
D8C
  0
DICTIONARY
  5
D79
330
38
100
AcDbDictionary
280
     1
281
     1
  3
ACAD_XREC_ROUNDTRIP
360
D7A
  0
DICTIONARY
  5
D5D
330
2A
100
AcDbDictionary
280
     1
281
     1
  3
ACAD_XREC_ROUNDTRIP
360
D5E
  0
DICTIONARY
  5
D5F
330
2B
100
AcDbDictionary
280
     1
281
     1
  3
ACAD_XREC_ROUNDTRIP
360
D60
  0
DICTIONARY
  5
D61
330
2C
100
AcDbDictionary
280
     1
281
     1
  3
ACAD_XREC_ROUNDTRIP
360
D62
  0
DICTIONARY
  5
D63
330
2D
100
AcDbDictionary
280
     1
281
     1
  3
ACAD_XREC_ROUNDTRIP
360
D64
  0
DICTIONARY
  5
D6B
330
31
100
AcDbDictionary
280
     1
281
     1
  3
ACAD_XREC_ROUNDTRIP
360
D6C
  0
DICTIONARY
  5
D87
330
3F
100
AcDbDictionary
280
     1
281
     1
  3
ACAD_XREC_ROUNDTRIP
360
D88
  0
DICTIONARY
  5
D77
330
37
100
AcDbDictionary
280
     1
281
     1
  3
ACAD_XREC_ROUNDTRIP
360
D78
  0
DICTIONARY
  5
D89
330
40
100
AcDbDictionary
280
     1
281
     1
  3
ACAD_XREC_ROUNDTRIP
360
D8A
  0
DICTIONARY
  5
D6F
330
33
100
AcDbDictionary
280
     1
281
     1
  3
ACAD_XREC_ROUNDTRIP
360
D70
  0
DICTIONARY
  5
D85
330
3E
100
AcDbDictionary
280
     1
281
     1
  3
ACAD_XREC_ROUNDTRIP
360
D86
  0
DICTIONARY
  5
D83
330
3D
100
AcDbDictionary
280
     1
281
     1
  3
ACAD_XREC_ROUNDTRIP
360
D84
  0
DICTIONARY
  5
D7D
330
3A
100
AcDbDictionary
280
     1
281
     1
  3
ACAD_XREC_ROUNDTRIP
360
D7E
  0
DICTIONARY
  5
D7F
330
3B
100
AcDbDictionary
280
     1
281
     1
  3
ACAD_XREC_ROUNDTRIP
360
D80
  0
DICTIONARY
  5
D75
330
36
100
AcDbDictionary
280
     1
281
     1
  3
ACAD_XREC_ROUNDTRIP
360
D76
  0
DICTIONARY
  5
D69
330
30
100
AcDbDictionary
280
     1
281
     1
  3
ACAD_XREC_ROUNDTRIP
360
D6A
  0
DICTIONARY
  5
D81
330
3C
100
AcDbDictionary
280
     1
281
     1
  3
ACAD_XREC_ROUNDTRIP
360
D82
  0
XRECORD
  5
D91
102
{ACAD_REACTORS
330
D90
102
}
330
D90
100
AcDbXrecord
280
     1
102
SHADEPLOT
 70
     0
102
SHADEPLOTRESLEVEL
 70
     2
102
SHADEPLOTCUSTOMDPI
 70
   300
  0
XRECORD
  5
D8F
102
{ACAD_REACTORS
330
D8E
102
}
330
D8E
100
AcDbXrecord
280
     1
102
SHADEPLOT
 70
     0
102
SHADEPLOTRESLEVEL
 70
     2
102
SHADEPLOTCUSTOMDPI
 70
   300
  0
XRECORD
  5
9C4
102
{ACAD_REACTORS
330
1A
102
}
330
1A
100
AcDbXrecord
280
     1
102
MATERIAL
148
0.0
149
0.0
149
0.0
 93
        0
 94
      127
282
     0
 72
     0
 77
     0
171
     0
175
     0
179
     0
273
     0
  0
XRECORD
  5
1C
102
{ACAD_REACTORS
330
1A
102
}
330
1A
100
AcDbXrecord
280
     1
270
     1
271
     1
  0
XRECORD
  5
1B
102
{ACAD_REACTORS
330
1A
102
}
330
1A
100
AcDbXrecord
280
     1
270
     1
271
     1
  0
XRECORD
  5
1F
102
{ACAD_REACTORS
330
1A
102
}
330
1A
100
AcDbXrecord
280
     1
270
     1
271
     1
  0
XRECORD
  5
1E
102
{ACAD_REACTORS
330
1A
102
}
330
1A
100
AcDbXrecord
280
     1
270
     1
271
     1
  0
XRECORD
  5
20
102
{ACAD_REACTORS
330
1A
102
}
330
1A
100
AcDbXrecord
280
     1
270
     1
271
     1
  0
XRECORD
  5
1D
102
{ACAD_REACTORS
330
1A
102
}
330
1A
100
AcDbXrecord
280
     1
270
     1
271
     1
  0
XRECORD
  5
9C3
102
{ACAD_REACTORS
330
12
102
}
330
12
100
AcDbXrecord
280
     1
102
MATERIAL
148
0.0
149
0.0
149
0.0
 93
        0
 94
      127
282
     0
 72
     0
 77
     0
171
     0
175
     0
179
     0
273
     0
  0
XRECORD
  5
14
102
{ACAD_REACTORS
330
12
102
}
330
12
100
AcDbXrecord
280
     1
270
     1
271
     1
  0
XRECORD
  5
13
102
{ACAD_REACTORS
330
12
102
}
330
12
100
AcDbXrecord
280
     1
270
     1
271
     1
  0
XRECORD
  5
17
102
{ACAD_REACTORS
330
12
102
}
330
12
100
AcDbXrecord
280
     1
270
     1
271
     1
  0
XRECORD
  5
16
102
{ACAD_REACTORS
330
12
102
}
330
12
100
AcDbXrecord
280
     1
270
     1
271
     1
  0
XRECORD
  5
18
102
{ACAD_REACTORS
330
12
102
}
330
12
100
AcDbXrecord
280
     1
270
     1
271
     1
  0
XRECORD
  5
15
102
{ACAD_REACTORS
330
12
102
}
330
12
100
AcDbXrecord
280
     1
270
     1
271
     1
  0
XRECORD
  5
9C5
102
{ACAD_REACTORS
330
22
102
}
330
22
100
AcDbXrecord
280
     1
102
MATERIAL
148
0.0
149
0.0
149
0.0
 93
        0
 94
      127
282
     0
 72
     0
 77
     0
171
     0
175
     0
179
     0
273
     0
  0
XRECORD
  5
24
102
{ACAD_REACTORS
330
22
102
}
330
22
100
AcDbXrecord
280
     1
270
     1
271
     1
  0
XRECORD
  5
23
102
{ACAD_REACTORS
330
22
102
}
330
22
100
AcDbXrecord
280
     1
270
     1
271
     1
  0
XRECORD
  5
27
102
{ACAD_REACTORS
330
22
102
}
330
22
100
AcDbXrecord
280
     1
270
     1
271
     1
  0
XRECORD
  5
26
102
{ACAD_REACTORS
330
22
102
}
330
22
100
AcDbXrecord
280
     1
270
     1
271
     1
  0
XRECORD
  5
28
102
{ACAD_REACTORS
330
22
102
}
330
22
100
AcDbXrecord
280
     1
270
     1
271
     1
  0
XRECORD
  5
25
102
{ACAD_REACTORS
330
22
102
}
330
22
100
AcDbXrecord
280
     1
270
     1
271
     1
  0
CELLSTYLEMAP
  5
D56
102
{ACAD_REACTORS
330
9BB
102
}
330
9BB
100
AcDbCellStyleMap
 90
        3
300
CELLSTYLE
  1
TABLEFORMAT_BEGIN
 90
        5
170
     1
 91
        0
 92
    32768
 62
   257
 93
        1
300
CONTENTFORMAT
  1
CONTENTFORMAT_BEGIN
 90
        0
 91
        0
 92
      512
 93
        0
300

 40
0.0
140
1.0
 94
        5
 62
     0
340
55
144
0.25
309
CONTENTFORMAT_END
171
     1
301
MARGIN
  1
CELLMARGIN_BEGIN
 40
0.06
 40
0.06
 40
0.06
 40
0.06
 40
0.18
 40
0.18
309
CELLMARGIN_END
 94
        6
 95
        1
302
GRIDFORMAT
  1
GRIDFORMAT_BEGIN
 90
        0
 91
        1
 62
     0
 92
       -2
340
0
 93
        0
 40
0.045
309
GRIDFORMAT_END
 95
        2
302
GRIDFORMAT
  1
GRIDFORMAT_BEGIN
 90
        0
 91
        1
 62
     0
 92
       -2
340
0
 93
        0
 40
0.045
309
GRIDFORMAT_END
 95
        4
302
GRIDFORMAT
  1
GRIDFORMAT_BEGIN
 90
        0
 91
        1
 62
     0
 92
       -2
340
0
 93
        0
 40
0.045
309
GRIDFORMAT_END
 95
        8
302
GRIDFORMAT
  1
GRIDFORMAT_BEGIN
 90
        0
 91
        1
 62
     0
 92
       -2
340
0
 93
        0
 40
0.045
309
GRIDFORMAT_END
 95
       16
302
GRIDFORMAT
  1
GRIDFORMAT_BEGIN
 90
        0
 91
        1
 62
     0
 92
       -2
340
0
 93
        0
 40
0.045
309
GRIDFORMAT_END
 95
       32
302
GRIDFORMAT
  1
GRIDFORMAT_BEGIN
 90
        0
 91
        1
 62
     0
 92
       -2
340
0
 93
        0
 40
0.045
309
GRIDFORMAT_END
309
TABLEFORMAT_END
  1
CELLSTYLE_BEGIN
 90
        1
 91
        1
300
_TITLE
309
CELLSTYLE_END
300
CELLSTYLE
  1
TABLEFORMAT_BEGIN
 90
        5
170
     1
 91
        0
 92
        0
 62
   257
 93
        1
300
CONTENTFORMAT
  1
CONTENTFORMAT_BEGIN
 90
        0
 91
        0
 92
      512
 93
        0
300

 40
0.0
140
1.0
 94
        5
 62
     0
340
55
144
0.18
309
CONTENTFORMAT_END
171
     1
301
MARGIN
  1
CELLMARGIN_BEGIN
 40
0.06
 40
0.06
 40
0.06
 40
0.06
 40
0.18
 40
0.18
309
CELLMARGIN_END
 94
        6
 95
        1
302
GRIDFORMAT
  1
GRIDFORMAT_BEGIN
 90
        0
 91
        1
 62
     0
 92
       -2
340
0
 93
        0
 40
0.045
309
GRIDFORMAT_END
 95
        2
302
GRIDFORMAT
  1
GRIDFORMAT_BEGIN
 90
        0
 91
        1
 62
     0
 92
       -2
340
0
 93
        0
 40
0.045
309
GRIDFORMAT_END
 95
        4
302
GRIDFORMAT
  1
GRIDFORMAT_BEGIN
 90
        0
 91
        1
 62
     0
 92
       -2
340
0
 93
        0
 40
0.045
309
GRIDFORMAT_END
 95
        8
302
GRIDFORMAT
  1
GRIDFORMAT_BEGIN
 90
        0
 91
        1
 62
     0
 92
       -2
340
0
 93
        0
 40
0.045
309
GRIDFORMAT_END
 95
       16
302
GRIDFORMAT
  1
GRIDFORMAT_BEGIN
 90
        0
 91
        1
 62
     0
 92
       -2
340
0
 93
        0
 40
0.045
309
GRIDFORMAT_END
 95
       32
302
GRIDFORMAT
  1
GRIDFORMAT_BEGIN
 90
        0
 91
        1
 62
     0
 92
       -2
340
0
 93
        0
 40
0.045
309
GRIDFORMAT_END
309
TABLEFORMAT_END
  1
CELLSTYLE_BEGIN
 90
        2
 91
        1
300
_HEADER
309
CELLSTYLE_END
300
CELLSTYLE
  1
TABLEFORMAT_BEGIN
 90
        5
170
     1
 91
        0
 92
        0
 62
   257
 93
        1
300
CONTENTFORMAT
  1
CONTENTFORMAT_BEGIN
 90
        0
 91
        0
 92
      512
 93
        0
300

 40
0.0
140
1.0
 94
        2
 62
     0
340
55
144
0.18
309
CONTENTFORMAT_END
171
     1
301
MARGIN
  1
CELLMARGIN_BEGIN
 40
0.06
 40
0.06
 40
0.06
 40
0.06
 40
0.18
 40
0.18
309
CELLMARGIN_END
 94
        6
 95
        1
302
GRIDFORMAT
  1
GRIDFORMAT_BEGIN
 90
        0
 91
        1
 62
     0
 92
       -2
340
0
 93
        0
 40
0.045
309
GRIDFORMAT_END
 95
        2
302
GRIDFORMAT
  1
GRIDFORMAT_BEGIN
 90
        0
 91
        1
 62
     0
 92
       -2
340
0
 93
        0
 40
0.045
309
GRIDFORMAT_END
 95
        4
302
GRIDFORMAT
  1
GRIDFORMAT_BEGIN
 90
        0
 91
        1
 62
     0
 92
       -2
340
0
 93
        0
 40
0.045
309
GRIDFORMAT_END
 95
        8
302
GRIDFORMAT
  1
GRIDFORMAT_BEGIN
 90
        0
 91
        1
 62
     0
 92
       -2
340
0
 93
        0
 40
0.045
309
GRIDFORMAT_END
 95
       16
302
GRIDFORMAT
  1
GRIDFORMAT_BEGIN
 90
        0
 91
        1
 62
     0
 92
       -2
340
0
 93
        0
 40
0.045
309
GRIDFORMAT_END
 95
       32
302
GRIDFORMAT
  1
GRIDFORMAT_BEGIN
 90
        0
 91
        1
 62
     0
 92
       -2
340
0
 93
        0
 40
0.045
309
GRIDFORMAT_END
309
TABLEFORMAT_END
  1
CELLSTYLE_BEGIN
 90
        3
 91
        2
300
_DATA
309
CELLSTYLE_END
  0
XRECORD
  5
D8D
102
{ACAD_REACTORS
330
9BB
102
}
330
9BB
100
AcDbXrecord
280
     1
102
ACAD_ROUNDTRIP_PRE2007_TABLESTYLE
 90
      512
 91
        0
  1

 92
      512
 93
        0
  2

 94
      512
 95
        0
  3

  0
XRECORD
  5
D68
102
{ACAD_REACTORS
330
D67
102
}
330
D67
100
AcDbXrecord
280
     1
102
RTVSPropertyOp0
 70
     1
102
RTVSPropertyOp1
 70
     1
102
RTVSPropertyOp2
 70
     1
102
RTVSPropertyOp3
 70
     1
102
RTVSPropertyOp4
 70
     1
102
RTVSPropertyOp5
 70
     1
102
RTVSPropertyOp6
 70
     1
102
RTVSPropertyOp7
 70
     1
102
RTVSPropertyOp8
 70
     1
102
RTVSPropertyOp9
 70
     1
102
RTVSPropertyOp10
 70
     1
102
RTVSPropertyOp11
 70
     1
102
RTVSPropertyOp12
 70
     1
102
RTVSPropertyOp13
 70
     1
102
RTVSPropertyOp14
 70
     1
102
RTVSPropertyOp15
 70
     1
102
RTVSPropertyOp16
 70
     1
102
RTVSPropertyOp17
 70
     1
102
RTVSPropertyOp18
 70
     1
102
RTVSPropertyOp19
 70
     1
102
RTVSPropertyOp20
 70
     1
102
RTVSPropertyOp21
 70
     1
102
RTVSPropertyOp22
 70
     1
102
RTVSPropertyOp23
 70
     1
102
RTVSPropertyOp24
 70
     1
102
RTVSPropertyOp25
 70
     1
102
RTVSPropertyOp26
 70
     1
102
RTVSPropertyOp27
 70
     1
102
RTVSPropertyOp28
 70
     1
102
RTVSPropertyOp29
 70
     1
102
RTVSPropertyOp30
 70
     1
102
RTVSPropertyOp31
 70
     1
102
RTVSPropertyOp32
 70
     1
  0
XRECORD
  5
D66
102
{ACAD_REACTORS
330
D65
102
}
330
D65
100
AcDbXrecord
280
     1
102
RTVSPropertyOp0
 70
     1
102
RTVSPropertyOp1
 70
     1
102
RTVSPropertyOp2
 70
     1
102
RTVSPropertyOp3
 70
     1
102
RTVSPropertyOp4
 70
     1
102
RTVSPropertyOp5
 70
     1
102
RTVSPropertyOp6
 70
     1
102
RTVSPropertyOp7
 70
     1
102
RTVSPropertyOp8
 70
     1
102
RTVSPropertyOp9
 70
     1
102
RTVSPropertyOp10
 70
     1
102
RTVSPropertyOp11
 70
     1
102
RTVSPropertyOp12
 70
     1
102
RTVSPropertyOp13
 70
     1
102
RTVSPropertyOp14
 70
     1
102
RTVSPropertyOp15
 70
     1
102
RTVSPropertyOp16
 70
     1
102
RTVSPropertyOp17
 70
     1
102
RTVSPropertyOp18
 70
     1
102
RTVSPropertyOp19
 70
     1
102
RTVSPropertyOp20
 70
     1
102
RTVSPropertyOp21
 70
     1
102
RTVSPropertyOp22
 70
     1
102
RTVSPropertyOp23
 70
     1
102
RTVSPropertyOp24
 70
     1
102
RTVSPropertyOp25
 70
     1
102
RTVSPropertyOp26
 70
     1
102
RTVSPropertyOp27
 70
     1
102
RTVSPropertyOp28
 70
     1
102
RTVSPropertyOp29
 70
     1
102
RTVSPropertyOp30
 70
     1
102
RTVSPropertyOp31
 70
     1
102
RTVSPropertyOp32
 70
     1
  0
XRECORD
  5
D74
102
{ACAD_REACTORS
330
D73
102
}
330
D73
100
AcDbXrecord
280
     1
102
RTVSPropertyOp0
 70
     1
102
RTVSPropertyOp1
 70
     1
102
RTVSPropertyOp2
 70
     1
102
RTVSPropertyOp3
 70
     1
102
RTVSPropertyOp4
 70
     1
102
RTVSPropertyOp5
 70
     1
102
RTVSPropertyOp6
 70
     1
102
RTVSPropertyOp7
 70
     1
102
RTVSPropertyOp8
 70
     1
102
RTVSPropertyOp9
 70
     1
102
RTVSPropertyOp10
 70
     1
102
RTVSPropertyOp11
 70
     1
102
RTVSPropertyOp12
 70
     1
102
RTVSPropertyOp13
 70
     1
102
RTVSPropertyOp14
 70
     1
102
RTVSPropertyOp15
 70
     1
102
RTVSPropertyOp16
 70
     1
102
RTVSPropertyOp17
 70
     1
102
RTVSPropertyOp18
 70
     1
102
RTVSPropertyOp19
 70
     1
102
RTVSPropertyOp20
 70
     1
102
RTVSPropertyOp21
 70
     1
102
RTVSPropertyOp22
 70
     1
102
RTVSPropertyOp23
 70
     1
102
RTVSPropertyOp24
 70
     1
102
RTVSPropertyOp25
 70
     1
102
RTVSPropertyOp26
 70
     1
102
RTVSPropertyOp27
 70
     1
102
RTVSPropertyOp28
 70
     1
102
RTVSPropertyOp29
 70
     1
102
RTVSPropertyOp30
 70
     1
102
RTVSPropertyOp31
 70
     1
102
RTVSPropertyOp32
 70
     1
  0
XRECORD
  5
D7C
102
{ACAD_REACTORS
330
D7B
102
}
330
D7B
100
AcDbXrecord
280
     1
102
RTVSPropertyOp0
 70
     1
102
RTVSPropertyOp1
 70
     1
102
RTVSPropertyOp2
 70
     1
102
RTVSPropertyOp3
 70
     1
102
RTVSPropertyOp4
 70
     1
102
RTVSPropertyOp5
 70
     1
102
RTVSPropertyOp6
 70
     1
102
RTVSPropertyOp7
 70
     1
102
RTVSPropertyOp8
 70
     1
102
RTVSPropertyOp9
 70
     1
102
RTVSPropertyOp10
 70
     1
102
RTVSPropertyOp11
 70
     1
102
RTVSPropertyOp12
 70
     1
102
RTVSPropertyOp13
 70
     1
102
RTVSPropertyOp14
 70
     1
102
RTVSPropertyOp15
 70
     1
102
RTVSPropertyOp16
 70
     1
102
RTVSPropertyOp17
 70
     1
102
RTVSPropertyOp18
 70
     1
102
RTVSPropertyOp19
 70
     1
102
RTVSPropertyOp20
 70
     1
102
RTVSPropertyOp21
 70
     1
102
RTVSPropertyOp22
 70
     1
102
RTVSPropertyOp23
 70
     1
102
RTVSPropertyOp24
 70
     1
102
RTVSPropertyOp25
 70
     1
102
RTVSPropertyOp26
 70
     1
102
RTVSPropertyOp27
 70
     1
102
RTVSPropertyOp28
 70
     1
102
RTVSPropertyOp29
 70
     1
102
RTVSPropertyOp30
 70
     1
102
RTVSPropertyOp31
 70
     1
102
RTVSPropertyOp32
 70
     1
  0
XRECORD
  5
D6E
102
{ACAD_REACTORS
330
D6D
102
}
330
D6D
100
AcDbXrecord
280
     1
102
RTVSPropertyOp0
 70
     1
102
RTVSPropertyOp1
 70
     1
102
RTVSPropertyOp2
 70
     1
102
RTVSPropertyOp3
 70
     1
102
RTVSPropertyOp4
 70
     1
102
RTVSPropertyOp5
 70
     1
102
RTVSPropertyOp6
 70
     1
102
RTVSPropertyOp7
 70
     1
102
RTVSPropertyOp8
 70
     1
102
RTVSPropertyOp9
 70
     1
102
RTVSPropertyOp10
 70
     1
102
RTVSPropertyOp11
 70
     1
102
RTVSPropertyOp12
 70
     1
102
RTVSPropertyOp13
 70
     1
102
RTVSPropertyOp14
 70
     1
102
RTVSPropertyOp15
 70
     1
102
RTVSPropertyOp16
 70
     1
102
RTVSPropertyOp17
 70
     1
102
RTVSPropertyOp18
 70
     1
102
RTVSPropertyOp19
 70
     1
102
RTVSPropertyOp20
 70
     1
102
RTVSPropertyOp21
 70
     1
102
RTVSPropertyOp22
 70
     1
102
RTVSPropertyOp23
 70
     1
102
RTVSPropertyOp24
 70
     1
102
RTVSPropertyOp25
 70
     1
102
RTVSPropertyOp26
 70
     1
102
RTVSPropertyOp27
 70
     1
102
RTVSPropertyOp28
 70
     1
102
RTVSPropertyOp29
 70
     1
102
RTVSPropertyOp30
 70
     1
102
RTVSPropertyOp31
 70
     1
102
RTVSPropertyOp32
 70
     1
  0
XRECORD
  5
D72
102
{ACAD_REACTORS
330
D71
102
}
330
D71
100
AcDbXrecord
280
     1
102
RTVSPropertyOp0
 70
     1
102
RTVSPropertyOp1
 70
     1
102
RTVSPropertyOp2
 70
     1
102
RTVSPropertyOp3
 70
     1
102
RTVSPropertyOp4
 70
     1
102
RTVSPropertyOp5
 70
     1
102
RTVSPropertyOp6
 70
     1
102
RTVSPropertyOp7
 70
     1
102
RTVSPropertyOp8
 70
     1
102
RTVSPropertyOp9
 70
     1
102
RTVSPropertyOp10
 70
     1
102
RTVSPropertyOp11
 70
     1
102
RTVSPropertyOp12
 70
     1
102
RTVSPropertyOp13
 70
     1
102
RTVSPropertyOp14
 70
     1
102
RTVSPropertyOp15
 70
     1
102
RTVSPropertyOp16
 70
     1
102
RTVSPropertyOp17
 70
     1
102
RTVSPropertyOp18
 70
     1
102
RTVSPropertyOp19
 70
     1
102
RTVSPropertyOp20
 70
     1
102
RTVSPropertyOp21
 70
     1
102
RTVSPropertyOp22
 70
     1
102
RTVSPropertyOp23
 70
     1
102
RTVSPropertyOp24
 70
     1
102
RTVSPropertyOp25
 70
     1
102
RTVSPropertyOp26
 70
     1
102
RTVSPropertyOp27
 70
     1
102
RTVSPropertyOp28
 70
     1
102
RTVSPropertyOp29
 70
     1
102
RTVSPropertyOp30
 70
     1
102
RTVSPropertyOp31
 70
     1
102
RTVSPropertyOp32
 70
     1
  0
XRECORD
  5
D8C
102
{ACAD_REACTORS
330
D8B
102
}
330
D8B
100
AcDbXrecord
280
     1
102
RTVSPropertyOp0
 70
     0
102
RTVSPropertyOp1
 70
     0
102
RTVSPropertyOp2
 70
     0
102
RTVSPropertyOp3
 70
     0
102
RTVSPropertyOp4
 70
     0
102
RTVSPropertyOp5
 70
     0
102
RTVSPropertyOp6
 70
     0
102
RTVSPropertyOp7
 70
     0
102
RTVSPropertyOp8
 70
     0
102
RTVSPropertyOp9
 70
     0
102
RTVSPropertyOp10
 70
     0
102
RTVSPropertyOp11
 70
     0
102
RTVSPropertyOp12
 70
     0
102
RTVSPropertyOp13
 70
     0
102
RTVSPropertyOp14
 70
     2
102
RTVSPropertyOp15
 70
     0
102
RTVSPropertyOp16
 70
     0
102
RTVSPropertyOp17
 70
     0
102
RTVSPropertyOp18
 70
     0
102
RTVSPropertyOp19
 70
     0
102
RTVSPropertyOp20
 70
     0
102
RTVSPropertyOp21
 70
     0
102
RTVSPropertyOp22
 70
     0
102
RTVSPropertyOp23
 70
     0
102
RTVSPropertyOp24
 70
     0
102
RTVSPropertyOp25
 70
     0
102
RTVSPropertyOp26
 70
     0
102
RTVSPropertyOp27
 70
     0
102
RTVSPropertyOp28
 70
     0
102
RTVSPropertyOp29
 70
     0
102
RTVSPropertyOp30
 70
     0
102
RTVSPropertyOp31
 70
     0
102
RTVSPropertyOp32
 70
     0
  0
XRECORD
  5
D7A
102
{ACAD_REACTORS
330
D79
102
}
330
D79
100
AcDbXrecord
280
     1
102
RTVSPropertyOp0
 70
     1
102
RTVSPropertyOp1
 70
     1
102
RTVSPropertyOp2
 70
     1
102
RTVSPropertyOp3
 70
     1
102
RTVSPropertyOp4
 70
     1
102
RTVSPropertyOp5
 70
     1
102
RTVSPropertyOp6
 70
     1
102
RTVSPropertyOp7
 70
     1
102
RTVSPropertyOp8
 70
     1
102
RTVSPropertyOp9
 70
     1
102
RTVSPropertyOp10
 70
     1
102
RTVSPropertyOp11
 70
     1
102
RTVSPropertyOp12
 70
     1
102
RTVSPropertyOp13
 70
     1
102
RTVSPropertyOp14
 70
     1
102
RTVSPropertyOp15
 70
     1
102
RTVSPropertyOp16
 70
     1
102
RTVSPropertyOp17
 70
     1
102
RTVSPropertyOp18
 70
     1
102
RTVSPropertyOp19
 70
     1
102
RTVSPropertyOp20
 70
     1
102
RTVSPropertyOp21
 70
     1
102
RTVSPropertyOp22
 70
     1
102
RTVSPropertyOp23
 70
     1
102
RTVSPropertyOp24
 70
     1
102
RTVSPropertyOp25
 70
     1
102
RTVSPropertyOp26
 70
     1
102
RTVSPropertyOp27
 70
     1
102
RTVSPropertyOp28
 70
     1
102
RTVSPropertyOp29
 70
     1
102
RTVSPropertyOp30
 70
     1
102
RTVSPropertyOp31
 70
     1
102
RTVSPropertyOp32
 70
     1
  0
XRECORD
  5
D5E
102
{ACAD_REACTORS
330
D5D
102
}
330
D5D
100
AcDbXrecord
280
     1
102
RTVSPropertyOp0
 70
     1
102
RTVSPropertyOp1
 70
     1
102
RTVSPropertyOp2
 70
     1
102
RTVSPropertyOp3
 70
     1
102
RTVSPropertyOp4
 70
     1
102
RTVSPropertyOp5
 70
     1
102
RTVSPropertyOp6
 70
     1
102
RTVSPropertyOp7
 70
     1
102
RTVSPropertyOp8
 70
     1
102
RTVSPropertyOp9
 70
     1
102
RTVSPropertyOp10
 70
     1
102
RTVSPropertyOp11
 70
     1
102
RTVSPropertyOp12
 70
     1
102
RTVSPropertyOp13
 70
     1
102
RTVSPropertyOp14
 70
     1
102
RTVSPropertyOp15
 70
     1
102
RTVSPropertyOp16
 70
     1
102
RTVSPropertyOp17
 70
     1
102
RTVSPropertyOp18
 70
     1
102
RTVSPropertyOp19
 70
     1
102
RTVSPropertyOp20
 70
     1
102
RTVSPropertyOp21
 70
     1
102
RTVSPropertyOp22
 70
     1
102
RTVSPropertyOp23
 70
     1
102
RTVSPropertyOp24
 70
     1
102
RTVSPropertyOp25
 70
     1
102
RTVSPropertyOp26
 70
     1
102
RTVSPropertyOp27
 70
     1
102
RTVSPropertyOp28
 70
     1
102
RTVSPropertyOp29
 70
     1
102
RTVSPropertyOp30
 70
     1
102
RTVSPropertyOp31
 70
     1
102
RTVSPropertyOp32
 70
     1
  0
XRECORD
  5
D60
102
{ACAD_REACTORS
330
D5F
102
}
330
D5F
100
AcDbXrecord
280
     1
102
RTVSPropertyOp0
 70
     1
102
RTVSPropertyOp1
 70
     1
102
RTVSPropertyOp2
 70
     1
102
RTVSPropertyOp3
 70
     1
102
RTVSPropertyOp4
 70
     1
102
RTVSPropertyOp5
 70
     1
102
RTVSPropertyOp6
 70
     1
102
RTVSPropertyOp7
 70
     1
102
RTVSPropertyOp8
 70
     1
102
RTVSPropertyOp9
 70
     1
102
RTVSPropertyOp10
 70
     1
102
RTVSPropertyOp11
 70
     1
102
RTVSPropertyOp12
 70
     1
102
RTVSPropertyOp13
 70
     1
102
RTVSPropertyOp14
 70
     1
102
RTVSPropertyOp15
 70
     1
102
RTVSPropertyOp16
 70
     1
102
RTVSPropertyOp17
 70
     1
102
RTVSPropertyOp18
 70
     1
102
RTVSPropertyOp19
 70
     1
102
RTVSPropertyOp20
 70
     1
102
RTVSPropertyOp21
 70
     1
102
RTVSPropertyOp22
 70
     1
102
RTVSPropertyOp23
 70
     1
102
RTVSPropertyOp24
 70
     1
102
RTVSPropertyOp25
 70
     1
102
RTVSPropertyOp26
 70
     1
102
RTVSPropertyOp27
 70
     1
102
RTVSPropertyOp28
 70
     1
102
RTVSPropertyOp29
 70
     1
102
RTVSPropertyOp30
 70
     1
102
RTVSPropertyOp31
 70
     1
102
RTVSPropertyOp32
 70
     1
  0
XRECORD
  5
D62
102
{ACAD_REACTORS
330
D61
102
}
330
D61
100
AcDbXrecord
280
     1
102
RTVSPropertyOp0
 70
     1
102
RTVSPropertyOp1
 70
     1
102
RTVSPropertyOp2
 70
     1
102
RTVSPropertyOp3
 70
     1
102
RTVSPropertyOp4
 70
     1
102
RTVSPropertyOp5
 70
     1
102
RTVSPropertyOp6
 70
     1
102
RTVSPropertyOp7
 70
     1
102
RTVSPropertyOp8
 70
     1
102
RTVSPropertyOp9
 70
     1
102
RTVSPropertyOp10
 70
     1
102
RTVSPropertyOp11
 70
     1
102
RTVSPropertyOp12
 70
     1
102
RTVSPropertyOp13
 70
     1
102
RTVSPropertyOp14
 70
     1
102
RTVSPropertyOp15
 70
     1
102
RTVSPropertyOp16
 70
     1
102
RTVSPropertyOp17
 70
     1
102
RTVSPropertyOp18
 70
     1
102
RTVSPropertyOp19
 70
     1
102
RTVSPropertyOp20
 70
     1
102
RTVSPropertyOp21
 70
     1
102
RTVSPropertyOp22
 70
     1
102
RTVSPropertyOp23
 70
     1
102
RTVSPropertyOp24
 70
     1
102
RTVSPropertyOp25
 70
     1
102
RTVSPropertyOp26
 70
     1
102
RTVSPropertyOp27
 70
     1
102
RTVSPropertyOp28
 70
     1
102
RTVSPropertyOp29
 70
     1
102
RTVSPropertyOp30
 70
     1
102
RTVSPropertyOp31
 70
     1
102
RTVSPropertyOp32
 70
     1
  0
XRECORD
  5
D64
102
{ACAD_REACTORS
330
D63
102
}
330
D63
100
AcDbXrecord
280
     1
102
RTVSPropertyOp0
 70
     1
102
RTVSPropertyOp1
 70
     1
102
RTVSPropertyOp2
 70
     1
102
RTVSPropertyOp3
 70
     1
102
RTVSPropertyOp4
 70
     1
102
RTVSPropertyOp5
 70
     1
102
RTVSPropertyOp6
 70
     1
102
RTVSPropertyOp7
 70
     1
102
RTVSPropertyOp8
 70
     1
102
RTVSPropertyOp9
 70
     1
102
RTVSPropertyOp10
 70
     1
102
RTVSPropertyOp11
 70
     1
102
RTVSPropertyOp12
 70
     1
102
RTVSPropertyOp13
 70
     1
102
RTVSPropertyOp14
 70
     1
102
RTVSPropertyOp15
 70
     1
102
RTVSPropertyOp16
 70
     1
102
RTVSPropertyOp17
 70
     1
102
RTVSPropertyOp18
 70
     1
102
RTVSPropertyOp19
 70
     1
102
RTVSPropertyOp20
 70
     1
102
RTVSPropertyOp21
 70
     1
102
RTVSPropertyOp22
 70
     1
102
RTVSPropertyOp23
 70
     1
102
RTVSPropertyOp24
 70
     1
102
RTVSPropertyOp25
 70
     1
102
RTVSPropertyOp26
 70
     1
102
RTVSPropertyOp27
 70
     1
102
RTVSPropertyOp28
 70
     1
102
RTVSPropertyOp29
 70
     1
102
RTVSPropertyOp30
 70
     1
102
RTVSPropertyOp31
 70
     1
102
RTVSPropertyOp32
 70
     1
  0
XRECORD
  5
D6C
102
{ACAD_REACTORS
330
D6B
102
}
330
D6B
100
AcDbXrecord
280
     1
102
RTVSPropertyOp0
 70
     1
102
RTVSPropertyOp1
 70
     1
102
RTVSPropertyOp2
 70
     1
102
RTVSPropertyOp3
 70
     1
102
RTVSPropertyOp4
 70
     1
102
RTVSPropertyOp5
 70
     1
102
RTVSPropertyOp6
 70
     1
102
RTVSPropertyOp7
 70
     1
102
RTVSPropertyOp8
 70
     1
102
RTVSPropertyOp9
 70
     1
102
RTVSPropertyOp10
 70
     1
102
RTVSPropertyOp11
 70
     1
102
RTVSPropertyOp12
 70
     1
102
RTVSPropertyOp13
 70
     1
102
RTVSPropertyOp14
 70
     1
102
RTVSPropertyOp15
 70
     1
102
RTVSPropertyOp16
 70
     1
102
RTVSPropertyOp17
 70
     1
102
RTVSPropertyOp18
 70
     1
102
RTVSPropertyOp19
 70
     1
102
RTVSPropertyOp20
 70
     1
102
RTVSPropertyOp21
 70
     1
102
RTVSPropertyOp22
 70
     1
102
RTVSPropertyOp23
 70
     1
102
RTVSPropertyOp24
 70
     1
102
RTVSPropertyOp25
 70
     1
102
RTVSPropertyOp26
 70
     1
102
RTVSPropertyOp27
 70
     1
102
RTVSPropertyOp28
 70
     1
102
RTVSPropertyOp29
 70
     1
102
RTVSPropertyOp30
 70
     1
102
RTVSPropertyOp31
 70
     1
102
RTVSPropertyOp32
 70
     1
  0
XRECORD
  5
D88
102
{ACAD_REACTORS
330
D87
102
}
330
D87
100
AcDbXrecord
280
     1
102
RTVSPropertyOp0
 70
     0
102
RTVSPropertyOp1
 70
     0
102
RTVSPropertyOp2
 70
     0
102
RTVSPropertyOp3
 70
     0
102
RTVSPropertyOp4
 70
     0
102
RTVSPropertyOp5
 70
     0
102
RTVSPropertyOp6
 70
     0
102
RTVSPropertyOp7
 70
     0
102
RTVSPropertyOp8
 70
     0
102
RTVSPropertyOp9
 70
     0
102
RTVSPropertyOp10
 70
     0
102
RTVSPropertyOp11
 70
     0
102
RTVSPropertyOp12
 70
     0
102
RTVSPropertyOp13
 70
     0
102
RTVSPropertyOp14
 70
     2
102
RTVSPropertyOp15
 70
     0
102
RTVSPropertyOp16
 70
     0
102
RTVSPropertyOp17
 70
     0
102
RTVSPropertyOp18
 70
     0
102
RTVSPropertyOp19
 70
     0
102
RTVSPropertyOp20
 70
     0
102
RTVSPropertyOp21
 70
     0
102
RTVSPropertyOp22
 70
     0
102
RTVSPropertyOp23
 70
     0
102
RTVSPropertyOp24
 70
     0
102
RTVSPropertyOp25
 70
     0
102
RTVSPropertyOp26
 70
     0
102
RTVSPropertyOp27
 70
     0
102
RTVSPropertyOp28
 70
     0
102
RTVSPropertyOp29
 70
     0
102
RTVSPropertyOp30
 70
     0
102
RTVSPropertyOp31
 70
     0
102
RTVSPropertyOp32
 70
     0
  0
XRECORD
  5
D78
102
{ACAD_REACTORS
330
D77
102
}
330
D77
100
AcDbXrecord
280
     1
102
RTVSPropertyOp0
 70
     1
102
RTVSPropertyOp1
 70
     1
102
RTVSPropertyOp2
 70
     1
102
RTVSPropertyOp3
 70
     1
102
RTVSPropertyOp4
 70
     1
102
RTVSPropertyOp5
 70
     1
102
RTVSPropertyOp6
 70
     1
102
RTVSPropertyOp7
 70
     1
102
RTVSPropertyOp8
 70
     1
102
RTVSPropertyOp9
 70
     1
102
RTVSPropertyOp10
 70
     1
102
RTVSPropertyOp11
 70
     1
102
RTVSPropertyOp12
 70
     1
102
RTVSPropertyOp13
 70
     1
102
RTVSPropertyOp14
 70
     1
102
RTVSPropertyOp15
 70
     1
102
RTVSPropertyOp16
 70
     1
102
RTVSPropertyOp17
 70
     1
102
RTVSPropertyOp18
 70
     1
102
RTVSPropertyOp19
 70
     1
102
RTVSPropertyOp20
 70
     1
102
RTVSPropertyOp21
 70
     1
102
RTVSPropertyOp22
 70
     1
102
RTVSPropertyOp23
 70
     1
102
RTVSPropertyOp24
 70
     1
102
RTVSPropertyOp25
 70
     1
102
RTVSPropertyOp26
 70
     1
102
RTVSPropertyOp27
 70
     1
102
RTVSPropertyOp28
 70
     1
102
RTVSPropertyOp29
 70
     1
102
RTVSPropertyOp30
 70
     1
102
RTVSPropertyOp31
 70
     1
102
RTVSPropertyOp32
 70
     1
  0
XRECORD
  5
D8A
102
{ACAD_REACTORS
330
D89
102
}
330
D89
100
AcDbXrecord
280
     1
102
RTVSPropertyOp0
 70
     0
102
RTVSPropertyOp1
 70
     0
102
RTVSPropertyOp2
 70
     0
102
RTVSPropertyOp3
 70
     0
102
RTVSPropertyOp4
 70
     0
102
RTVSPropertyOp5
 70
     0
102
RTVSPropertyOp6
 70
     0
102
RTVSPropertyOp7
 70
     0
102
RTVSPropertyOp8
 70
     0
102
RTVSPropertyOp9
 70
     0
102
RTVSPropertyOp10
 70
     0
102
RTVSPropertyOp11
 70
     0
102
RTVSPropertyOp12
 70
     0
102
RTVSPropertyOp13
 70
     0
102
RTVSPropertyOp14
 70
     2
102
RTVSPropertyOp15
 70
     0
102
RTVSPropertyOp16
 70
     0
102
RTVSPropertyOp17
 70
     0
102
RTVSPropertyOp18
 70
     0
102
RTVSPropertyOp19
 70
     0
102
RTVSPropertyOp20
 70
     0
102
RTVSPropertyOp21
 70
     0
102
RTVSPropertyOp22
 70
     0
102
RTVSPropertyOp23
 70
     0
102
RTVSPropertyOp24
 70
     0
102
RTVSPropertyOp25
 70
     0
102
RTVSPropertyOp26
 70
     0
102
RTVSPropertyOp27
 70
     0
102
RTVSPropertyOp28
 70
     0
102
RTVSPropertyOp29
 70
     0
102
RTVSPropertyOp30
 70
     0
102
RTVSPropertyOp31
 70
     0
102
RTVSPropertyOp32
 70
     0
  0
XRECORD
  5
D70
102
{ACAD_REACTORS
330
D6F
102
}
330
D6F
100
AcDbXrecord
280
     1
102
RTVSPropertyOp0
 70
     1
102
RTVSPropertyOp1
 70
     1
102
RTVSPropertyOp2
 70
     1
102
RTVSPropertyOp3
 70
     1
102
RTVSPropertyOp4
 70
     1
102
RTVSPropertyOp5
 70
     1
102
RTVSPropertyOp6
 70
     1
102
RTVSPropertyOp7
 70
     1
102
RTVSPropertyOp8
 70
     1
102
RTVSPropertyOp9
 70
     1
102
RTVSPropertyOp10
 70
     1
102
RTVSPropertyOp11
 70
     1
102
RTVSPropertyOp12
 70
     1
102
RTVSPropertyOp13
 70
     1
102
RTVSPropertyOp14
 70
     1
102
RTVSPropertyOp15
 70
     1
102
RTVSPropertyOp16
 70
     1
102
RTVSPropertyOp17
 70
     1
102
RTVSPropertyOp18
 70
     1
102
RTVSPropertyOp19
 70
     1
102
RTVSPropertyOp20
 70
     1
102
RTVSPropertyOp21
 70
     1
102
RTVSPropertyOp22
 70
     1
102
RTVSPropertyOp23
 70
     1
102
RTVSPropertyOp24
 70
     1
102
RTVSPropertyOp25
 70
     1
102
RTVSPropertyOp26
 70
     1
102
RTVSPropertyOp27
 70
     1
102
RTVSPropertyOp28
 70
     1
102
RTVSPropertyOp29
 70
     1
102
RTVSPropertyOp30
 70
     1
102
RTVSPropertyOp31
 70
     1
102
RTVSPropertyOp32
 70
     1
  0
XRECORD
  5
D86
102
{ACAD_REACTORS
330
D85
102
}
330
D85
100
AcDbXrecord
280
     1
102
RTVSPropertyOp0
 70
     1
102
RTVSPropertyOp1
 70
     1
102
RTVSPropertyOp2
 70
     1
102
RTVSPropertyOp3
 70
     1
102
RTVSPropertyOp4
 70
     1
102
RTVSPropertyOp5
 70
     1
102
RTVSPropertyOp6
 70
     1
102
RTVSPropertyOp7
 70
     1
102
RTVSPropertyOp8
 70
     1
102
RTVSPropertyOp9
 70
     1
102
RTVSPropertyOp10
 70
     1
102
RTVSPropertyOp11
 70
     1
102
RTVSPropertyOp12
 70
     1
102
RTVSPropertyOp13
 70
     1
102
RTVSPropertyOp14
 70
     1
102
RTVSPropertyOp15
 70
     1
102
RTVSPropertyOp16
 70
     1
102
RTVSPropertyOp17
 70
     1
102
RTVSPropertyOp18
 70
     1
102
RTVSPropertyOp19
 70
     1
102
RTVSPropertyOp20
 70
     1
102
RTVSPropertyOp21
 70
     1
102
RTVSPropertyOp22
 70
     1
102
RTVSPropertyOp23
 70
     1
102
RTVSPropertyOp24
 70
     1
102
RTVSPropertyOp25
 70
     1
102
RTVSPropertyOp26
 70
     1
102
RTVSPropertyOp27
 70
     1
102
RTVSPropertyOp28
 70
     1
102
RTVSPropertyOp29
 70
     1
102
RTVSPropertyOp30
 70
     1
102
RTVSPropertyOp31
 70
     1
102
RTVSPropertyOp32
 70
     1
  0
XRECORD
  5
D84
102
{ACAD_REACTORS
330
D83
102
}
330
D83
100
AcDbXrecord
280
     1
102
RTVSPropertyOp0
 70
     1
102
RTVSPropertyOp1
 70
     1
102
RTVSPropertyOp2
 70
     1
102
RTVSPropertyOp3
 70
     1
102
RTVSPropertyOp4
 70
     1
102
RTVSPropertyOp5
 70
     1
102
RTVSPropertyOp6
 70
     1
102
RTVSPropertyOp7
 70
     1
102
RTVSPropertyOp8
 70
     1
102
RTVSPropertyOp9
 70
     1
102
RTVSPropertyOp10
 70
     1
102
RTVSPropertyOp11
 70
     1
102
RTVSPropertyOp12
 70
     1
102
RTVSPropertyOp13
 70
     1
102
RTVSPropertyOp14
 70
     1
102
RTVSPropertyOp15
 70
     1
102
RTVSPropertyOp16
 70
     1
102
RTVSPropertyOp17
 70
     1
102
RTVSPropertyOp18
 70
     1
102
RTVSPropertyOp19
 70
     1
102
RTVSPropertyOp20
 70
     1
102
RTVSPropertyOp21
 70
     1
102
RTVSPropertyOp22
 70
     1
102
RTVSPropertyOp23
 70
     1
102
RTVSPropertyOp24
 70
     1
102
RTVSPropertyOp25
 70
     1
102
RTVSPropertyOp26
 70
     1
102
RTVSPropertyOp27
 70
     1
102
RTVSPropertyOp28
 70
     1
102
RTVSPropertyOp29
 70
     1
102
RTVSPropertyOp30
 70
     1
102
RTVSPropertyOp31
 70
     1
102
RTVSPropertyOp32
 70
     1
  0
XRECORD
  5
D7E
102
{ACAD_REACTORS
330
D7D
102
}
330
D7D
100
AcDbXrecord
280
     1
102
RTVSPropertyOp0
 70
     1
102
RTVSPropertyOp1
 70
     1
102
RTVSPropertyOp2
 70
     1
102
RTVSPropertyOp3
 70
     1
102
RTVSPropertyOp4
 70
     1
102
RTVSPropertyOp5
 70
     1
102
RTVSPropertyOp6
 70
     1
102
RTVSPropertyOp7
 70
     1
102
RTVSPropertyOp8
 70
     1
102
RTVSPropertyOp9
 70
     1
102
RTVSPropertyOp10
 70
     1
102
RTVSPropertyOp11
 70
     1
102
RTVSPropertyOp12
 70
     1
102
RTVSPropertyOp13
 70
     1
102
RTVSPropertyOp14
 70
     1
102
RTVSPropertyOp15
 70
     1
102
RTVSPropertyOp16
 70
     1
102
RTVSPropertyOp17
 70
     1
102
RTVSPropertyOp18
 70
     1
102
RTVSPropertyOp19
 70
     1
102
RTVSPropertyOp20
 70
     1
102
RTVSPropertyOp21
 70
     1
102
RTVSPropertyOp22
 70
     1
102
RTVSPropertyOp23
 70
     1
102
RTVSPropertyOp24
 70
     1
102
RTVSPropertyOp25
 70
     1
102
RTVSPropertyOp26
 70
     1
102
RTVSPropertyOp27
 70
     1
102
RTVSPropertyOp28
 70
     1
102
RTVSPropertyOp29
 70
     1
102
RTVSPropertyOp30
 70
     1
102
RTVSPropertyOp31
 70
     1
102
RTVSPropertyOp32
 70
     1
  0
XRECORD
  5
D80
102
{ACAD_REACTORS
330
D7F
102
}
330
D7F
100
AcDbXrecord
280
     1
102
RTVSPropertyOp0
 70
     1
102
RTVSPropertyOp1
 70
     1
102
RTVSPropertyOp2
 70
     1
102
RTVSPropertyOp3
 70
     1
102
RTVSPropertyOp4
 70
     1
102
RTVSPropertyOp5
 70
     1
102
RTVSPropertyOp6
 70
     1
102
RTVSPropertyOp7
 70
     1
102
RTVSPropertyOp8
 70
     1
102
RTVSPropertyOp9
 70
     1
102
RTVSPropertyOp10
 70
     1
102
RTVSPropertyOp11
 70
     1
102
RTVSPropertyOp12
 70
     1
102
RTVSPropertyOp13
 70
     1
102
RTVSPropertyOp14
 70
     1
102
RTVSPropertyOp15
 70
     1
102
RTVSPropertyOp16
 70
     1
102
RTVSPropertyOp17
 70
     1
102
RTVSPropertyOp18
 70
     1
102
RTVSPropertyOp19
 70
     1
102
RTVSPropertyOp20
 70
     1
102
RTVSPropertyOp21
 70
     1
102
RTVSPropertyOp22
 70
     1
102
RTVSPropertyOp23
 70
     1
102
RTVSPropertyOp24
 70
     1
102
RTVSPropertyOp25
 70
     1
102
RTVSPropertyOp26
 70
     1
102
RTVSPropertyOp27
 70
     1
102
RTVSPropertyOp28
 70
     1
102
RTVSPropertyOp29
 70
     1
102
RTVSPropertyOp30
 70
     1
102
RTVSPropertyOp31
 70
     1
102
RTVSPropertyOp32
 70
     1
  0
XRECORD
  5
D76
102
{ACAD_REACTORS
330
D75
102
}
330
D75
100
AcDbXrecord
280
     1
102
RTVSPropertyOp0
 70
     1
102
RTVSPropertyOp1
 70
     1
102
RTVSPropertyOp2
 70
     1
102
RTVSPropertyOp3
 70
     1
102
RTVSPropertyOp4
 70
     1
102
RTVSPropertyOp5
 70
     1
102
RTVSPropertyOp6
 70
     1
102
RTVSPropertyOp7
 70
     1
102
RTVSPropertyOp8
 70
     1
102
RTVSPropertyOp9
 70
     1
102
RTVSPropertyOp10
 70
     1
102
RTVSPropertyOp11
 70
     1
102
RTVSPropertyOp12
 70
     1
102
RTVSPropertyOp13
 70
     1
102
RTVSPropertyOp14
 70
     1
102
RTVSPropertyOp15
 70
     1
102
RTVSPropertyOp16
 70
     1
102
RTVSPropertyOp17
 70
     1
102
RTVSPropertyOp18
 70
     1
102
RTVSPropertyOp19
 70
     1
102
RTVSPropertyOp20
 70
     1
102
RTVSPropertyOp21
 70
     1
102
RTVSPropertyOp22
 70
     1
102
RTVSPropertyOp23
 70
     1
102
RTVSPropertyOp24
 70
     1
102
RTVSPropertyOp25
 70
     1
102
RTVSPropertyOp26
 70
     1
102
RTVSPropertyOp27
 70
     1
102
RTVSPropertyOp28
 70
     1
102
RTVSPropertyOp29
 70
     1
102
RTVSPropertyOp30
 70
     1
102
RTVSPropertyOp31
 70
     1
102
RTVSPropertyOp32
 70
     1
  0
XRECORD
  5
D6A
102
{ACAD_REACTORS
330
D69
102
}
330
D69
100
AcDbXrecord
280
     1
102
RTVSPropertyOp0
 70
     1
102
RTVSPropertyOp1
 70
     1
102
RTVSPropertyOp2
 70
     1
102
RTVSPropertyOp3
 70
     1
102
RTVSPropertyOp4
 70
     1
102
RTVSPropertyOp5
 70
     1
102
RTVSPropertyOp6
 70
     1
102
RTVSPropertyOp7
 70
     1
102
RTVSPropertyOp8
 70
     1
102
RTVSPropertyOp9
 70
     1
102
RTVSPropertyOp10
 70
     1
102
RTVSPropertyOp11
 70
     1
102
RTVSPropertyOp12
 70
     1
102
RTVSPropertyOp13
 70
     1
102
RTVSPropertyOp14
 70
     1
102
RTVSPropertyOp15
 70
     1
102
RTVSPropertyOp16
 70
     1
102
RTVSPropertyOp17
 70
     1
102
RTVSPropertyOp18
 70
     1
102
RTVSPropertyOp19
 70
     1
102
RTVSPropertyOp20
 70
     1
102
RTVSPropertyOp21
 70
     1
102
RTVSPropertyOp22
 70
     1
102
RTVSPropertyOp23
 70
     1
102
RTVSPropertyOp24
 70
     1
102
RTVSPropertyOp25
 70
     1
102
RTVSPropertyOp26
 70
     1
102
RTVSPropertyOp27
 70
     1
102
RTVSPropertyOp28
 70
     1
102
RTVSPropertyOp29
 70
     1
102
RTVSPropertyOp30
 70
     1
102
RTVSPropertyOp31
 70
     1
102
RTVSPropertyOp32
 70
     1
  0
XRECORD
  5
D82
102
{ACAD_REACTORS
330
D81
102
}
330
D81
100
AcDbXrecord
280
     1
102
RTVSPropertyOp0
 70
     1
102
RTVSPropertyOp1
 70
     1
102
RTVSPropertyOp2
 70
     1
102
RTVSPropertyOp3
 70
     1
102
RTVSPropertyOp4
 70
     1
102
RTVSPropertyOp5
 70
     1
102
RTVSPropertyOp6
 70
     1
102
RTVSPropertyOp7
 70
     1
102
RTVSPropertyOp8
 70
     1
102
RTVSPropertyOp9
 70
     1
102
RTVSPropertyOp10
 70
     1
102
RTVSPropertyOp11
 70
     1
102
RTVSPropertyOp12
 70
     1
102
RTVSPropertyOp13
 70
     1
102
RTVSPropertyOp14
 70
     1
102
RTVSPropertyOp15
 70
     1
102
RTVSPropertyOp16
 70
     1
102
RTVSPropertyOp17
 70
     1
102
RTVSPropertyOp18
 70
     1
102
RTVSPropertyOp19
 70
     1
102
RTVSPropertyOp20
 70
     1
102
RTVSPropertyOp21
 70
     1
102
RTVSPropertyOp22
 70
     1
102
RTVSPropertyOp23
 70
     1
102
RTVSPropertyOp24
 70
     1
102
RTVSPropertyOp25
 70
     1
102
RTVSPropertyOp26
 70
     1
102
RTVSPropertyOp27
 70
     1
102
RTVSPropertyOp28
 70
     1
102
RTVSPropertyOp29
 70
     1
102
RTVSPropertyOp30
 70
     1
102
RTVSPropertyOp31
 70
     1
102
RTVSPropertyOp32
 70
     1
  0
ENDSEC
  0
EOF
