  0
SECTION
  2
HEADER
  9
$ACADVER
  1
AC1015
  9
$ACADMAINTVER
 70
    20
  9
$DWGCODEPAGE
  3
ANSI_932
  9
$INSBASE
 10
0.0
 20
0.0
 30
0.0
  9
$EXTMIN
 10
-32.78207800000001
 20
-14.4155
 30
0.0
  9
$EXTMAX
 10
377.147
 20
262.5845
 30
0.0
  9
$LIMMIN
 10
-32.783078
 20
-14.4165
  9
$LIMMAX
 10
377.148003
 20
262.585503
  9
$ORTHOMODE
 70
     1
  9
$REGENMODE
 70
     1
  9
$FILLMODE
 70
     1
  9
$QTEXTMODE
 70
     0
  9
$MIRRTEXT
 70
     0
  9
$LTSCALE
 40
6.832150999999997
  9
$ATTMODE
 70
     1
  9
$TEXTSIZE
 40
3.2
  9
$TRACEWID
 40
0.05
  9
$TEXTSTYLE
  7
高3.2
  9
$CLAYER
  8
0
  9
$CELTYPE
  6
CONTINUOUS
  9
$CECOLOR
 62
   256
  9
$CELTSCALE
 40
1.0
  9
$DISPSILH
 70
     0
  9
$DIMSCALE
 40
1.0
  9
$DIMASZ
 40
2.5
  9
$DIMEXO
 40
0.25
  9
$DIMDLI
 40
0.2
  9
$DIMRND
 40
0.0
  9
$DIMDLE
 40
0.0
  9
$DIMEXE
 40
1.25
  9
$DIMTP
 40
0.0
  9
$DIMTM
 40
0.0
  9
$DIMTXT
 40
3.0
  9
$DIMCEN
 40
0.0
  9
$DIMTSZ
 40
0.0
  9
$DIMTOL
 70
     0
  9
$DIMLIM
 70
     0
  9
$DIMTIH
 70
     0
  9
$DIMTOH
 70
     0
  9
$DIMSE1
 70
     0
  9
$DIMSE2
 70
     0
  9
$DIMTAD
 70
     3
  9
$DIMZIN
 70
     8
  9
$DIMBLK
  1
Open30
  9
$DIMASO
 70
     1
  9
$DIMSHO
 70
     1
  9
$DIMPOST
  1

  9
$DIMAPOST
  1

  9
$DIMALT
 70
     0
  9
$DIMALTD
 70
     3
  9
$DIMALTF
 40
0.03937007874016
  9
$DIMLFAC
 40
1.0
  9
$DIMTOFL
 70
     1
  9
$DIMTVP
 40
0.0
  9
$DIMTIX
 70
     0
  9
$DIMSOXD
 70
     0
  9
$DIMSAH
 70
     0
  9
$DIMBLK1
  1

  9
$DIMBLK2
  1

  9
$DIMSTYLE
  2
FREE
  9
$DIMCLRD
 70
     0
  9
$DIMCLRE
 70
     0
  9
$DIMCLRT
 70
     4
  9
$DIMTFAC
 40
1.0
  9
$DIMGAP
 40
0.625
  9
$DIMJUST
 70
     0
  9
$DIMSD1
 70
     0
  9
$DIMSD2
 70
     0
  9
$DIMTOLJ
 70
     0
  9
$DIMTZIN
 70
     8
  9
$DIMALTZ
 70
     0
  9
$DIMALTTZ
 70
     0
  9
$DIMUPT
 70
     1
  9
$DIMDEC
 70
     2
  9
$DIMTDEC
 70
     2
  9
$DIMALTU
 70
     2
  9
$DIMALTTD
 70
     3
  9
$DIMTXSTY
  7
STANDARD
  9
$DIMAUNIT
 70
     0
  9
$DIMADEC
 70
     1
  9
$DIMALTRND
 40
0.0
  9
$DIMAZIN
 70
     2
  9
$DIMDSEP
 70
    46
  9
$DIMATFIT
 70
     0
  9
$DIMFRAC
 70
     0
  9
$DIMLDRBLK
  1
Open30
  9
$DIMLUNIT
 70
     2
  9
$DIMLWD
 70
    -2
  9
$DIMLWE
 70
    -2
  9
$DIMTMOVE
 70
     0
  9
$LUNITS
 70
     2
  9
$LUPREC
 70
     4
  9
$SKETCHINC
 40
0.1
  9
$FILLETRAD
 40
0.0
  9
$AUNITS
 70
     0
  9
$AUPREC
 70
     0
  9
$MENU
  1
.
  9
$ELEVATION
 40
0.0
  9
$PELEVATION
 40
0.0
  9
$THICKNESS
 40
0.0
  9
$LIMCHECK
 70
     0
  9
$CHAMFERA
 40
0.0
  9
$CHAMFERB
 40
0.0
  9
$CHAMFERC
 40
0.0
  9
$CHAMFERD
 40
0.0
  9
$SKPOLY
 70
     0
  9
$TDCREATE
 40
2456311.423459062
  9
$TDUCREATE
 40
2456311.048459062
  9
$TDUPDATE
 40
2457471.437129190
  9
$TDUUPDATE
 40
2457471.062129190
  9
$TDINDWG
 40
0.0361715856
  9
$TDUSRTIMER
 40
0.0361629630
  9
$USRTIMER
 70
     1
  9
$ANGBASE
 50
0.0
  9
$ANGDIR
 70
     0
  9
$PDMODE
 70
     0
  9
$PDSIZE
 40
0.0
  9
$PLINEWID
 40
0.0
  9
$SPLFRAME
 70
     0
  9
$SPLINETYPE
 70
     6
  9
$SPLINESEGS
 70
     8
  9
$HANDSEED
  5
C30
  9
$SURFTAB1
 70
     6
  9
$SURFTAB2
 70
     6
  9
$SURFTYPE
 70
     6
  9
$SURFU
 70
     6
  9
$SURFV
 70
     6
  9
$UCSBASE
  2

  9
$UCSNAME
  2

  9
$UCSORG
 10
0.0
 20
0.0
 30
0.0
  9
$UCSXDIR
 10
1.0
 20
0.0
 30
0.0
  9
$UCSYDIR
 10
0.0
 20
1.0
 30
0.0
  9
$UCSORTHOREF
  2

  9
$UCSORTHOVIEW
 70
     0
  9
$UCSORGTOP
 10
0.0
 20
0.0
 30
0.0
  9
$UCSORGBOTTOM
 10
0.0
 20
0.0
 30
0.0
  9
$UCSORGLEFT
 10
0.0
 20
0.0
 30
0.0
  9
$UCSORGRIGHT
 10
0.0
 20
0.0
 30
0.0
  9
$UCSORGFRONT
 10
0.0
 20
0.0
 30
0.0
  9
$UCSORGBACK
 10
0.0
 20
0.0
 30
0.0
  9
$PUCSBASE
  2

  9
$PUCSNAME
  2

  9
$PUCSORG
 10
0.0
 20
0.0
 30
0.0
  9
$PUCSXDIR
 10
1.0
 20
0.0
 30
0.0
  9
$PUCSYDIR
 10
0.0
 20
1.0
 30
0.0
  9
$PUCSORTHOREF
  2

  9
$PUCSORTHOVIEW
 70
     0
  9
$PUCSORGTOP
 10
0.0
 20
0.0
 30
0.0
  9
$PUCSORGBOTTOM
 10
0.0
 20
0.0
 30
0.0
  9
$PUCSORGLEFT
 10
0.0
 20
0.0
 30
0.0
  9
$PUCSORGRIGHT
 10
0.0
 20
0.0
 30
0.0
  9
$PUCSORGFRONT
 10
0.0
 20
0.0
 30
0.0
  9
$PUCSORGBACK
 10
0.0
 20
0.0
 30
0.0
  9
$USERI1
 70
     0
  9
$USERI2
 70
     0
  9
$USERI3
 70
     0
  9
$USERI4
 70
     0
  9
$USERI5
 70
     0
  9
$USERR1
 40
0.0
  9
$USERR2
 40
0.0
  9
$USERR3
 40
0.0
  9
$USERR4
 40
0.0
  9
$USERR5
 40
0.0
  9
$WORLDVIEW
 70
     1
  9
$SHADEDGE
 70
     3
  9
$SHADEDIF
 70
    70
  9
$TILEMODE
 70
     1
  9
$MAXACTVP
 70
    64
  9
$PINSBASE
 10
0.0
 20
0.0
 30
0.0
  9
$PLIMCHECK
 70
     0
  9
$PEXTMIN
 10
1.000000000000000E+20
 20
1.000000000000000E+20
 30
1.000000000000000E+20
  9
$PEXTMAX
 10
-1.000000000000000E+20
 20
-1.000000000000000E+20
 30
-1.000000000000000E+20
  9
$PLIMMIN
 10
0.0
 20
0.0
  9
$PLIMMAX
 10
12.0
 20
9.0
  9
$UNITMODE
 70
     0
  9
$VISRETAIN
 70
     1
  9
$PLINEGEN
 70
     0
  9
$PSLTSCALE
 70
     1
  9
$TREEDEPTH
 70
  3020
  9
$CMLSTYLE
  2
Standard
  9
$CMLJUST
 70
     0
  9
$CMLSCALE
 40
1.0
  9
$PROXYGRAPHICS
 70
     1
  9
$MEASUREMENT
 70
     0
  9
$CELWEIGHT
370
    -1
  9
$ENDCAPS
280
     0
  9
$JOINSTYLE
280
     0
  9
$LWDISPLAY
290
     0
  9
$INSUNITS
 70
     0
  9
$HYPERLINKBASE
  1

  9
$STYLESHEET
  1

  9
$XEDIT
290
     1
  9
$CEPSNTYPE
380
     0
  9
$PSTYLEMODE
290
     1
  9
$FINGERPRINTGUID
  2
{4573C980-3CF6-42DE-95BD-D8FB6557C1C8}
  9
$VERSIONGUID
  2
{945694BD-3791-43A6-802D-047FAED1A165}
  9
$EXTNAMES
290
     1
  9
$PSVPSCALE
 40
0.0
  9
$OLESTARTUP
290
     0
  0
ENDSEC
  0
SECTION
  2
CLASSES
  0
CLASS
  1
ACDBDICTIONARYWDFLT
  2
AcDbDictionaryWithDefault
  3
ObjectDBX Classes
 90
        0
280
     0
281
     0
  0
CLASS
  1
MATERIAL
  2
AcDbMaterial
  3
ObjectDBX Classes
 90
     1153
280
     0
281
     0
  0
CLASS
  1
VISUALSTYLE
  2
AcDbVisualStyle
  3
ObjectDBX Classes
 90
     4095
280
     0
281
     0
  0
CLASS
  1
SCALE
  2
AcDbScale
  3
ObjectDBX Classes
 90
     1153
280
     0
281
     0
  0
CLASS
  1
TABLESTYLE
  2
AcDbTableStyle
  3
ObjectDBX Classes
 90
     4095
280
     0
281
     0
  0
CLASS
  1
MLEADERSTYLE
  2
AcDbMLeaderStyle
  3
ACDB_MLEADERSTYLE_CLASS
 90
     4095
280
     0
281
     0
  0
CLASS
  1
SORTENTSTABLE
  2
AcDbSortentsTable
  3
ObjectDBX Classes
 90
        0
280
     0
281
     0
  0
CLASS
  1
DICTIONARYVAR
  2
AcDbDictionaryVar
  3
ObjectDBX Classes
 90
        0
280
     0
281
     0
  0
CLASS
  1
CELLSTYLEMAP
  2
AcDbCellStyleMap
  3
ObjectDBX Classes
 90
     1152
280
     0
281
     0
  0
CLASS
  1
ACDBPLACEHOLDER
  2
AcDbPlaceHolder
  3
ObjectDBX Classes
 90
        0
280
     0
281
     0
  0
CLASS
  1
LAYOUT
  2
AcDbLayout
  3
ObjectDBX Classes
 90
        0
280
     0
281
     0
  0
CLASS
  1
AEC_REFEDIT_STATUS_TRACKER
  2
AecDbRefEditStatusTracker
  3
AecArchBase60|Product Desc: Autodesk Architectural Desktop 2007 |Company: Autodesk,Inc. |WEB Address: www.autodesk.com
 90
      129
280
     0
281
     0
  0
CLASS
  1
NPOCOLLECTION
  2
AcDbImpNonPersistentObjectsCollection
  3
ObjectDBX Classes
 90
     1153
280
     0
281
     0
  0
ENDSEC
  0
SECTION
  2
TABLES
  0
TABLE
  2
VPORT
  5
8
330
0
100
AcDbSymbolTable
 70
     1
  0
VPORT
  5
8B
330
8
100
AcDbSymbolTableRecord
100
AcDbViewportTableRecord
  2
*Active
 70
     0
 10
0.0
 20
0.0
 11
1.0
 21
1.0
 12
279.3051573245437
 22
84.73078439146087
 13
0.0
 23
0.0
 14
1.0
 24
1.0
 15
0.0
 25
0.0
 16
0.0
 26
0.0
 36
1.0
 17
0.0
 27
0.0
 37
0.0
 40
441.157915462162
 41
1.937943262411347
 42
50.0
 43
0.0
 44
0.0
 50
0.0
 51
0.0
 71
     0
 72
   100
 73
     1
 74
     1
 75
     0
 76
     0
 77
     0
 78
     0
281
     0
 65
     1
110
0.0
120
0.0
130
0.0
111
1.0
121
0.0
131
0.0
112
0.0
122
1.0
132
0.0
 79
     0
146
0.0
  0
ENDTAB
  0
TABLE
  2
LTYPE
  5
5
330
0
100
AcDbSymbolTable
 70
     2
  0
LTYPE
  5
5A
330
5
100
AcDbSymbolTableRecord
100
AcDbLinetypeTableRecord
  2
ByBlock
 70
     0
  3

 72
    65
 73
     0
 40
0.0
  0
LTYPE
  5
5B
330
5
100
AcDbSymbolTableRecord
100
AcDbLinetypeTableRecord
  2
ByLayer
 70
     0
  3

 72
    65
 73
     0
 40
0.0
  0
LTYPE
  5
5C
330
5
100
AcDbSymbolTableRecord
100
AcDbLinetypeTableRecord
  2
CONTINUOUS
 70
     0
  3
Solid-line
 72
    65
 73
     0
 40
0.0
  0
ENDTAB
  0
TABLE
  2
LAYER
  5
2
102
{ACAD_XDICTIONARY
360
5D4
102
}
330
0
100
AcDbSymbolTable
 70
     2
  0
LAYER
  5
54
102
{ACAD_XDICTIONARY
360
7A0
102
}
330
2
100
AcDbSymbolTableRecord
100
AcDbLayerTableRecord
  2
0
 70
     0
 62
     7
  6
CONTINUOUS
370
    -3
390
F
  0
LAYER
  5
5BF
330
2
100
AcDbSymbolTableRecord
100
AcDbLayerTableRecord
  2
Defpoints
 70
     0
 62
     7
  6
CONTINUOUS
290
     0
370
    -3
390
F
  0
ENDTAB
  0
TABLE
  2
STYLE
  5
3
330
0
100
AcDbSymbolTable
 70
     6
  0
STYLE
  5
55
330
3
100
AcDbSymbolTableRecord
100
AcDbTextStyleTableRecord
  2
STANDARD
 70
     0
 40
0.0
 41
1.0
 50
0.0
 71
     0
 42
0.2
  3
TXT
  4
BIGFONT
  0
STYLE
  5
5C0
330
3
100
AcDbSymbolTableRecord
100
AcDbTextStyleTableRecord
  2
高3.2
 70
     0
 40
3.2
 41
1.0
 50
0.0
 71
     0
 42
3.2
  3
txt.shx
  4
bigfont.shx
  0
STYLE
  5
5C1
330
3
100
AcDbSymbolTableRecord
100
AcDbTextStyleTableRecord
  2
高6.3
 70
     0
 40
6.299999999999998
 41
1.0
 50
0.0
 71
     0
 42
6.299999999999998
  3
txt.shx
  4
bigfont.shx
  0
STYLE
  5
5C2
330
3
100
AcDbSymbolTableRecord
100
AcDbTextStyleTableRecord
  2
高2.5
 70
     0
 40
2.5
 41
1.0
 50
0.0
 71
     0
 42
0.2
  3
txt.shx
  4
bigfont.shx
  0
STYLE
  5
5C3
330
3
100
AcDbSymbolTableRecord
100
AcDbTextStyleTableRecord
  2
高4.5
 70
     0
 40
4.5
 41
1.0
 50
0.0
 71
     0
 42
6.299999999999998
  3
txt.shx
  4
bigfont.shx
  0
STYLE
  5
5C4
330
3
100
AcDbSymbolTableRecord
100
AcDbTextStyleTableRecord
  2
高2
 70
     0
 40
2.0
 41
1.0
 50
0.0
 71
     0
 42
2.0
  3
txt.shx
  4
bigfont.shx
  0
ENDTAB
  0
TABLE
  2
VIEW
  5
6
330
0
100
AcDbSymbolTable
 70
     0
  0
ENDTAB
  0
TABLE
  2
UCS
  5
7
330
0
100
AcDbSymbolTable
 70
     0
  0
ENDTAB
  0
TABLE
  2
APPID
  5
9
330
0
100
AcDbSymbolTable
 70
    10
  0
APPID
  5
56
330
9
100
AcDbSymbolTableRecord
100
AcDbRegAppTableRecord
  2
ACAD
 70
     0
  0
APPID
  5
5D
330
9
100
AcDbSymbolTableRecord
100
AcDbRegAppTableRecord
  2
AcadAnnotative
 70
     0
  0
APPID
  5
5CF
330
9
100
AcDbSymbolTableRecord
100
AcDbRegAppTableRecord
  2
ACAD_DSTYLE_DIMJOGGED_JOGANGLE_SYMBOL
 70
     0
  0
APPID
  5
5D0
330
9
100
AcDbSymbolTableRecord
100
AcDbRegAppTableRecord
  2
ACAD_DSTYLE_DIMJAG
 70
     0
  0
APPID
  5
5D1
330
9
100
AcDbSymbolTableRecord
100
AcDbRegAppTableRecord
  2
ACAD_DSTYLE_DIMBREAK
 70
     0
  0
APPID
  5
5D2
330
9
100
AcDbSymbolTableRecord
100
AcDbRegAppTableRecord
  2
ACAD_DSTYLE_DIMTALN
 70
     0
  0
APPID
  5
733
330
9
100
AcDbSymbolTableRecord
100
AcDbRegAppTableRecord
  2
ACAD_EXEMPT_FROM_CAD_STANDARDS
 70
     0
  0
APPID
  5
7E6
330
9
100
AcDbSymbolTableRecord
100
AcDbRegAppTableRecord
  2
ACAD_MLEADERVER
 70
     0
  0
APPID
  5
7EB
330
9
100
AcDbSymbolTableRecord
100
AcDbRegAppTableRecord
  2
ACAD_DSTYLE_DIMARC_LENGTH_SYMBOL
 70
     0
  0
APPID
  5
7EC
330
9
100
AcDbSymbolTableRecord
100
AcDbRegAppTableRecord
  2
ACAD_DSTYLE_DIMEXT_LENGTH
 70
     0
  0
ENDTAB
  0
TABLE
  2
DIMSTYLE
  5
A
330
0
100
AcDbSymbolTable
 70
    11
100
AcDbDimStyleTable
 71
     3
340
5CE
340
5CD
340
5C9
  0
DIMSTYLE
105
57
330
A
100
AcDbSymbolTableRecord
100
AcDbDimStyleTableRecord
  2
Standard
 70
     0
340
55
  0
DIMSTYLE
105
5C5
330
A
100
AcDbSymbolTableRecord
100
AcDbDimStyleTableRecord
  2
1：1
 70
     0
 41
2.5
 42
0.25
 43
0.2
 44
1.25
 73
     0
 74
     0
 77
     3
 78
     8
 79
     2
140
3.0
141
0.0
143
0.03937007874016
147
0.625
171
     3
172
     1
178
     4
179
     1
271
     2
272
     2
274
     3
283
     0
284
     8
288
     1
289
     0
340
55
341
52F
342
52F
1001
ACAD_DSTYLE_DIMARC_LENGTH_SYMBOL
1070
   379
1070
     2
1001
ACAD_DSTYLE_DIMEXT_LENGTH
1070
   378
1040
1.25
1001
ACAD_DSTYLE_DIMJOGGED_JOGANGLE_SYMBOL
1070
   384
1040
1.570796326794896
  0
DIMSTYLE
105
5C6
330
A
100
AcDbSymbolTableRecord
100
AcDbDimStyleTableRecord
  2
2：1
 70
     0
 41
2.5
 42
0.25
 43
0.2
 44
1.25
 73
     0
 74
     0
 77
     3
 78
     8
 79
     2
140
3.0
141
0.0
143
0.03937007874016
144
0.5
147
0.625
171
     3
172
     1
178
     4
179
     1
271
     2
272
     2
274
     3
283
     0
284
     8
288
     1
289
     0
340
55
341
52F
342
52F
1001
ACAD_DSTYLE_DIMARC_LENGTH_SYMBOL
1070
   379
1070
     2
1001
ACAD_DSTYLE_DIMEXT_LENGTH
1070
   378
1040
1.25
1001
ACAD_DSTYLE_DIMJOGGED_JOGANGLE_SYMBOL
1070
   384
1040
1.570796326794896
  0
DIMSTYLE
105
5C7
330
A
100
AcDbSymbolTableRecord
100
AcDbDimStyleTableRecord
  2
5：1
 70
     0
 41
2.5
 42
0.25
 43
0.2
 44
1.25
 73
     0
 74
     0
 77
     3
 78
     8
 79
     2
140
3.0
141
0.0
143
0.03937007874016
144
0.2
147
0.625
171
     3
172
     1
178
     4
179
     1
271
     2
272
     2
274
     3
283
     0
284
     8
288
     1
289
     0
340
55
341
52F
342
52F
1001
ACAD_DSTYLE_DIMARC_LENGTH_SYMBOL
1070
   379
1070
     2
1001
ACAD_DSTYLE_DIMEXT_LENGTH
1070
   378
1040
1.25
1001
ACAD_DSTYLE_DIMJOGGED_JOGANGLE_SYMBOL
1070
   384
1040
1.570796326794896
  0
DIMSTYLE
105
5C8
330
A
100
AcDbSymbolTableRecord
100
AcDbDimStyleTableRecord
  2
10：1
 70
     0
 41
2.5
 42
0.25
 43
0.2
 44
1.25
 73
     0
 74
     0
 77
     3
 78
     8
 79
     2
140
3.0
141
0.0
143
0.03937007874016
144
0.1
147
0.625
171
     3
172
     1
178
     4
179
     1
271
     2
272
     2
274
     3
283
     0
284
     8
288
     1
289
     0
340
55
341
52F
342
52F
1001
ACAD_DSTYLE_DIMARC_LENGTH_SYMBOL
1070
   379
1070
     2
1001
ACAD_DSTYLE_DIMEXT_LENGTH
1070
   378
1040
1.25
1001
ACAD_DSTYLE_DIMJOGGED_JOGANGLE_SYMBOL
1070
   384
1040
1.570796326794896
  0
DIMSTYLE
105
5C9
330
A
100
AcDbSymbolTableRecord
100
AcDbDimStyleTableRecord
  2
1／2
 70
     0
 41
2.5
 42
0.25
 43
0.2
 44
1.25
 73
     0
 74
     0
 77
     3
 78
     8
 79
     2
140
3.0
141
0.0
143
0.03937007874016
144
2.0
147
0.625
171
     3
172
     1
178
     4
179
     1
271
     2
272
     2
274
     3
283
     0
284
     8
288
     1
289
     0
340
55
341
52F
342
52F
1001
ACAD_DSTYLE_DIMARC_LENGTH_SYMBOL
1070
   379
1070
     2
1001
ACAD_DSTYLE_DIMEXT_LENGTH
1070
   378
1040
1.25
1001
ACAD_DSTYLE_DIMJOGGED_JOGANGLE_SYMBOL
1070
   384
1040
1.570796326794896
  0
DIMSTYLE
105
5CA
330
A
100
AcDbSymbolTableRecord
100
AcDbDimStyleTableRecord
  2
1／5
 70
     0
 41
2.5
 42
0.25
 43
0.2
 44
1.25
 73
     0
 74
     0
 77
     3
 78
     8
 79
     2
140
3.0
141
0.0
143
0.03937007874016
144
5.0
147
0.625
171
     3
172
     1
178
     4
179
     1
271
     2
272
     2
274
     3
283
     0
284
     8
288
     1
289
     0
340
55
341
52F
342
52F
1001
ACAD_DSTYLE_DIMARC_LENGTH_SYMBOL
1070
   379
1070
     2
1001
ACAD_DSTYLE_DIMEXT_LENGTH
1070
   378
1040
1.25
1001
ACAD_DSTYLE_DIMJOGGED_JOGANGLE_SYMBOL
1070
   384
1040
1.570796326794896
  0
DIMSTYLE
105
5CB
330
A
100
AcDbSymbolTableRecord
100
AcDbDimStyleTableRecord
  2
1／10
 70
     0
 41
2.5
 42
0.25
 43
0.2
 44
1.25
 73
     0
 74
     0
 77
     3
 78
     8
 79
     2
140
3.0
141
0.0
143
0.03937007874016
144
10.0
147
0.625
171
     3
172
     1
178
     4
179
     1
271
     2
272
     2
274
     3
283
     0
284
     8
288
     1
289
     0
340
55
341
52F
342
52F
1001
ACAD_DSTYLE_DIMARC_LENGTH_SYMBOL
1070
   379
1070
     2
1001
ACAD_DSTYLE_DIMEXT_LENGTH
1070
   378
1040
1.25
1001
ACAD_DSTYLE_DIMJOGGED_JOGANGLE_SYMBOL
1070
   384
1040
1.570796326794896
  0
DIMSTYLE
105
5CC
330
A
100
AcDbSymbolTableRecord
100
AcDbDimStyleTableRecord
  2
1／4
 70
     0
 41
2.5
 42
0.25
 43
0.2
 44
1.25
 73
     0
 74
     0
 77
     3
 78
     8
 79
     2
140
3.0
141
0.0
143
0.03937007874016
144
4.0
147
0.625
171
     3
172
     1
178
     4
179
     1
271
     2
272
     2
274
     3
283
     0
284
     8
288
     1
289
     0
340
55
341
52F
342
52F
1001
ACAD_DSTYLE_DIMARC_LENGTH_SYMBOL
1070
   379
1070
     2
1001
ACAD_DSTYLE_DIMEXT_LENGTH
1070
   378
1040
1.25
1001
ACAD_DSTYLE_DIMJOGGED_JOGANGLE_SYMBOL
1070
   384
1040
1.570796326794896
  0
DIMSTYLE
105
5CD
330
A
100
AcDbSymbolTableRecord
100
AcDbDimStyleTableRecord
  2
1／3
 70
     0
 41
2.5
 42
0.25
 43
0.2
 44
1.25
 73
     0
 74
     0
 77
     3
 78
     8
 79
     2
140
3.0
141
0.0
143
0.03937007874016
144
3.0
147
0.625
171
     3
172
     1
178
     4
179
     1
271
     2
272
     2
274
     3
283
     0
284
     8
288
     1
289
     0
340
55
341
52F
342
52F
1001
ACAD_DSTYLE_DIMARC_LENGTH_SYMBOL
1070
   379
1070
     2
1001
ACAD_DSTYLE_DIMEXT_LENGTH
1070
   378
1040
1.25
1001
ACAD_DSTYLE_DIMJOGGED_JOGANGLE_SYMBOL
1070
   384
1040
1.570796326794896
  0
DIMSTYLE
105
5CE
330
A
100
AcDbSymbolTableRecord
100
AcDbDimStyleTableRecord
  2
FREE
 70
     0
 41
2.5
 42
0.25
 43
0.2
 44
1.25
 73
     0
 74
     0
 77
     3
 78
     8
 79
     2
140
3.0
141
0.0
143
0.03937007874016
147
0.625
171
     3
172
     1
178
     4
179
     1
271
     2
272
     2
274
     3
283
     0
284
     8
288
     1
289
     0
340
55
341
52F
342
52F
1001
ACAD_DSTYLE_DIMBREAK
1070
   391
1040
3.75
1001
ACAD_DSTYLE_DIMJAG
1070
   388
1040
1.5
1001
ACAD_DSTYLE_DIMTALN
1070
   392
1070
     0
1001
ACAD_DSTYLE_DIMARC_LENGTH_SYMBOL
1070
   379
1070
     2
1001
ACAD_DSTYLE_DIMEXT_LENGTH
1070
   378
1040
1.25
1001
ACAD_DSTYLE_DIMJOGGED_JOGANGLE_SYMBOL
1070
   384
1040
1.570796326794896
  0
ENDTAB
  0
TABLE
  2
BLOCK_RECORD
  5
1
330
0
100
AcDbSymbolTable
 70
    14
  0
BLOCK_RECORD
  5
6B
102
{ACAD_XDICTIONARY
360
B8A
102
}
330
1
100
AcDbSymbolTableRecord
100
AcDbBlockTableRecord
  2
*Model_Space
340
6E
  0
BLOCK_RECORD
  5
67
330
1
100
AcDbSymbolTableRecord
100
AcDbBlockTableRecord
  2
*Paper_Space
340
6A
  0
BLOCK_RECORD
  5
52F
330
1
100
AcDbSymbolTableRecord
100
AcDbBlockTableRecord
  2
_Open30
340
0
102
{BLKREFS
331
7F9
331
7FA
331
804
331
805
331
80F
331
810
331
81A
331
81B
331
825
331
826
331
830
331
831
331
83B
331
83C
331
846
331
847
331
851
331
852
331
85A
331
85B
331
AEB
331
AEC
331
AF4
331
AF5
331
AFD
331
AFE
102
}
  0
BLOCK_RECORD
  5
61E
330
1
100
AcDbSymbolTableRecord
100
AcDbBlockTableRecord
  2
*D1
340
0
  0
BLOCK_RECORD
  5
62C
330
1
100
AcDbSymbolTableRecord
100
AcDbBlockTableRecord
  2
*D2
340
0
  0
BLOCK_RECORD
  5
63A
330
1
100
AcDbSymbolTableRecord
100
AcDbBlockTableRecord
  2
*D3
340
0
  0
BLOCK_RECORD
  5
648
330
1
100
AcDbSymbolTableRecord
100
AcDbBlockTableRecord
  2
*D4
340
0
  0
BLOCK_RECORD
  5
656
330
1
100
AcDbSymbolTableRecord
100
AcDbBlockTableRecord
  2
*D5
340
0
  0
BLOCK_RECORD
  5
664
330
1
100
AcDbSymbolTableRecord
100
AcDbBlockTableRecord
  2
*D6
340
0
  0
BLOCK_RECORD
  5
672
330
1
100
AcDbSymbolTableRecord
100
AcDbBlockTableRecord
  2
*D7
340
0
  0
BLOCK_RECORD
  5
680
330
1
100
AcDbSymbolTableRecord
100
AcDbBlockTableRecord
  2
*D8
340
0
  0
BLOCK_RECORD
  5
68E
330
1
100
AcDbSymbolTableRecord
100
AcDbBlockTableRecord
  2
*D9
340
0
  0
BLOCK_RECORD
  5
69C
330
1
100
AcDbSymbolTableRecord
100
AcDbBlockTableRecord
  2
*D10
340
0
  0
BLOCK_RECORD
  5
735
330
1
100
AcDbSymbolTableRecord
100
AcDbBlockTableRecord
  2
*D11
340
0
  0
BLOCK_RECORD
  5
742
330
1
100
AcDbSymbolTableRecord
100
AcDbBlockTableRecord
  2
*D12
340
0
  0
BLOCK_RECORD
  5
74F
330
1
100
AcDbSymbolTableRecord
100
AcDbBlockTableRecord
  2
*D13
340
0
  0
ENDTAB
  0
ENDSEC
  0
SECTION
  2
BLOCKS
  0
BLOCK
  5
6C
330
6B
100
AcDbEntity
  8
0
100
AcDbBlockBegin
  2
*Model_Space
 70
     0
 10
0.0
 20
0.0
 30
0.0
  3
*Model_Space
  1

  0
ENDBLK
  5
6D
330
6B
100
AcDbEntity
  8
0
100
AcDbBlockEnd
  0
BLOCK
  5
68
330
67
100
AcDbEntity
 67
     1
  8
0
100
AcDbBlockBegin
  2
*Paper_Space
 70
     0
 10
0.0
 20
0.0
 30
0.0
  3
*Paper_Space
  1

  0
ENDBLK
  5
69
330
67
100
AcDbEntity
 67
     1
  8
0
100
AcDbBlockEnd
  0
BLOCK
  5
530
330
52F
100
AcDbEntity
  8
0
100
AcDbBlockBegin
  2
_Open30
 70
     0
 10
0.0
 20
0.0
 30
0.0
  3
_Open30
  1

  0
LINE
  5
531
330
52F
100
AcDbEntity
  8
0
  6
ByBlock
 62
     0
370
    -2
100
AcDbLine
 10
-1.0
 20
0.267949
 30
0.0
 11
0.0
 21
0.0
 31
0.0
  0
LINE
  5
532
330
52F
100
AcDbEntity
  8
0
  6
ByBlock
 62
     0
370
    -2
100
AcDbLine
 10
0.0
 20
0.0
 30
0.0
 11
-1.0
 21
-0.267949
 31
0.0
  0
LINE
  5
533
330
52F
100
AcDbEntity
  8
0
  6
ByBlock
 62
     0
370
    -2
100
AcDbLine
 10
0.0
 20
0.0
 30
0.0
 11
-1.0
 21
0.0
 31
0.0
  0
ENDBLK
  5
534
330
52F
100
AcDbEntity
  8
0
100
AcDbBlockEnd
  0
BLOCK
  5
61F
330
61E
100
AcDbEntity
  8
0
100
AcDbBlockBegin
  2
*D1
 70
     1
 10
0.0
 20
0.0
 30
0.0
  3
*D1
  1

  0
LINE
  5
7F4
330
61E
100
AcDbEntity
  8
0
 62
     0
370
    -2
100
AcDbLine
 10
685.3617779657644
 20
222.670444089935
 30
0.0
 11
685.3617779657644
 21
219.7608126679262
 31
0.0
  0
LINE
  5
7F5
330
61E
100
AcDbEntity
  8
0
 62
     0
370
    -2
100
AcDbLine
 10
682.9045909116441
 20
222.670444089935
 30
0.0
 11
682.9045909116441
 21
219.7608126679262
 31
0.0
  0
LINE
  5
7F6
330
61E
100
AcDbEntity
  8
0
 62
     0
370
    -2
100
AcDbLine
 10
687.8617779657643
 20
221.0108126679262
 30
0.0
 11
690.3617779657643
 21
221.0108126679262
 31
0.0
  0
LINE
  5
7F7
330
61E
100
AcDbEntity
  8
0
 62
     0
370
    -2
100
AcDbLine
 10
680.4045909116442
 20
221.0108126679262
 30
0.0
 11
667.6545909116441
 21
221.0108126679262
 31
0.0
  0
LINE
  5
7F8
330
61E
100
AcDbEntity
  8
0
 62
     0
370
    -2
100
AcDbLine
 10
685.3617779657644
 20
221.0108126679262
 30
0.0
 11
682.9045909116441
 21
221.0108126679262
 31
0.0
  0
INSERT
  5
7F9
330
61E
100
AcDbEntity
  8
0
 62
     0
370
    -2
100
AcDbBlockReference
  2
_Open30
 10
685.3617779657644
 20
221.0108126679262
 30
0.0
 41
2.5
 42
2.5
 43
2.5
 50
180.0
  0
INSERT
  5
7FA
330
61E
100
AcDbEntity
  8
0
 62
     0
370
    -2
100
AcDbBlockReference
  2
_Open30
 10
682.9045909116441
 20
221.0108126679262
 30
0.0
 41
2.5
 42
2.5
 43
2.5
  0
MTEXT
  5
7FB
330
61E
100
AcDbEntity
  8
0
 62
     4
100
AcDbMText
 10
672.7795909116442
 20
223.1358126679262
 30
0.0
 40
3.0
 41
0.0
 71
     5
 72
     1
  1
2.46
 73
     1
 44
1.0
1001
ACAD
1000
MTEXTBEGIN
1070
    73
1070
     1
1070
    44
1040
1.0
1070
    74
1070
     0
1000
MTEXTEND
  0
POINT
  5
7FC
330
61E
100
AcDbEntity
  8
Defpoints
 62
     0
100
AcDbPoint
 10
685.3617779657644
 20
222.920444089935
 30
0.0
  0
POINT
  5
7FD
330
61E
100
AcDbEntity
  8
Defpoints
 62
     0
100
AcDbPoint
 10
682.9045909116441
 20
222.920444089935
 30
0.0
  0
POINT
  5
7FE
330
61E
100
AcDbEntity
  8
Defpoints
 62
     0
100
AcDbPoint
 10
682.9045909116441
 20
221.0108126679262
 30
0.0
  0
ENDBLK
  5
620
330
61E
100
AcDbEntity
  8
0
100
AcDbBlockEnd
  0
BLOCK
  5
62D
330
62C
100
AcDbEntity
  8
0
100
AcDbBlockBegin
  2
*D2
 70
     1
 10
0.0
 20
0.0
 30
0.0
  3
*D2
  1

  0
LINE
  5
82B
330
62C
100
AcDbEntity
  8
0
 62
     0
370
    -2
100
AcDbLine
 10
686.9999028718376
 20
217.2143545171726
 30
0.0
 11
686.9999028718376
 21
214.6684624477093
 31
0.0
  0
LINE
  5
82C
330
62C
100
AcDbEntity
  8
0
 62
     0
370
    -2
100
AcDbLine
 10
683.9056670736948
 20
217.2143545171726
 30
0.0
 11
683.9056670736948
 21
214.6684624477093
 31
0.0
  0
LINE
  5
82D
330
62C
100
AcDbEntity
  8
0
 62
     0
370
    -2
100
AcDbLine
 10
689.4999028718376
 20
215.9184624477093
 30
0.0
 11
691.9999028718376
 21
215.9184624477093
 31
0.0
  0
LINE
  5
82E
330
62C
100
AcDbEntity
  8
0
 62
     0
370
    -2
100
AcDbLine
 10
681.4056670736947
 20
215.9184624477093
 30
0.0
 11
667.5723337403614
 21
215.9184624477093
 31
0.0
  0
LINE
  5
82F
330
62C
100
AcDbEntity
  8
0
 62
     0
370
    -2
100
AcDbLine
 10
686.9999028718376
 20
215.9184624477093
 30
0.0
 11
683.9056670736948
 21
215.9184624477093
 31
0.0
  0
INSERT
  5
830
330
62C
100
AcDbEntity
  8
0
 62
     0
370
    -2
100
AcDbBlockReference
  2
_Open30
 10
686.9999028718376
 20
215.9184624477093
 30
0.0
 41
2.5
 42
2.5
 43
2.5
 50
180.0
  0
INSERT
  5
831
330
62C
100
AcDbEntity
  8
0
 62
     0
370
    -2
100
AcDbBlockReference
  2
_Open30
 10
683.9056670736948
 20
215.9184624477093
 30
0.0
 41
2.5
 42
2.5
 43
2.5
  0
MTEXT
  5
832
330
62C
100
AcDbEntity
  8
0
 62
     4
100
AcDbMText
 10
672.7806670736947
 20
217.7934624477093
 30
0.0
 40
2.5
 41
0.0
 71
     5
 72
     1
  1
15.47
  7
高2.5
 73
     1
 44
1.0
1001
ACAD
1000
MTEXTBEGIN
1070
    73
1070
     1
1070
    44
1040
1.0
1070
    74
1070
     0
1000
MTEXTEND
  0
POINT
  5
833
330
62C
100
AcDbEntity
  8
Defpoints
 62
     0
100
AcDbPoint
 10
686.9999028718376
 20
217.4643545171726
 30
0.0
  0
POINT
  5
834
330
62C
100
AcDbEntity
  8
Defpoints
 62
     0
100
AcDbPoint
 10
683.9056670736948
 20
217.4643545171726
 30
0.0
  0
POINT
  5
835
330
62C
100
AcDbEntity
  8
Defpoints
 62
     0
100
AcDbPoint
 10
683.9056670736948
 20
215.9184624477093
 30
0.0
  0
ENDBLK
  5
62E
330
62C
100
AcDbEntity
  8
0
100
AcDbBlockEnd
  0
BLOCK
  5
63B
330
63A
100
AcDbEntity
  8
0
100
AcDbBlockBegin
  2
*D3
 70
     1
 10
0.0
 20
0.0
 30
0.0
  3
*D3
  1

  0
LINE
  5
820
330
63A
100
AcDbEntity
  8
0
 62
     0
370
    -2
100
AcDbLine
 10
688.7290344799231
 20
211.7582648013262
 30
0.0
 11
688.7290344799231
 21
209.4851771389589
 31
0.0
  0
LINE
  5
821
330
63A
100
AcDbEntity
  8
0
 62
     0
370
    -2
100
AcDbLine
 10
684.7247295267313
 20
211.7582648013262
 30
0.0
 11
684.7247295267313
 21
209.4851771389589
 31
0.0
  0
LINE
  5
822
330
63A
100
AcDbEntity
  8
0
 62
     0
370
    -2
100
AcDbLine
 10
691.2290344799231
 20
210.7351771389589
 30
0.0
 11
693.7290344799231
 21
210.7351771389589
 31
0.0
  0
LINE
  5
823
330
63A
100
AcDbEntity
  8
0
 62
     0
370
    -2
100
AcDbLine
 10
682.2247295267312
 20
210.7351771389589
 30
0.0
 11
670.4747295267313
 21
210.7351771389589
 31
0.0
  0
LINE
  5
824
330
63A
100
AcDbEntity
  8
0
 62
     0
370
    -2
100
AcDbLine
 10
688.7290344799231
 20
210.7351771389589
 30
0.0
 11
684.7247295267313
 21
210.7351771389589
 31
0.0
  0
INSERT
  5
825
330
63A
100
AcDbEntity
  8
0
 62
     0
370
    -2
100
AcDbBlockReference
  2
_Open30
 10
688.7290344799231
 20
210.7351771389589
 30
0.0
 41
2.5
 42
2.5
 43
2.5
 50
180.0
  0
INSERT
  5
826
330
63A
100
AcDbEntity
  8
0
 62
     0
370
    -2
100
AcDbBlockReference
  2
_Open30
 10
684.7247295267313
 20
210.7351771389589
 30
0.0
 41
2.5
 42
2.5
 43
2.5
  0
MTEXT
  5
827
330
63A
100
AcDbEntity
  8
0
 62
     4
100
AcDbMText
 10
675.0997295267312
 20
212.9601771389589
 30
0.0
 40
3.2
 41
0.0
 71
     5
 72
     1
  1
8.01
  7
高3.2
 73
     1
 44
1.0
1001
ACAD
1000
MTEXTBEGIN
1070
    73
1070
     1
1070
    44
1040
1.0
1070
    74
1070
     0
1000
MTEXTEND
  0
POINT
  5
828
330
63A
100
AcDbEntity
  8
Defpoints
 62
     0
100
AcDbPoint
 10
688.7290344799231
 20
212.0082648013262
 30
0.0
  0
POINT
  5
829
330
63A
100
AcDbEntity
  8
Defpoints
 62
     0
100
AcDbPoint
 10
684.7247295267313
 20
212.0082648013262
 30
0.0
  0
POINT
  5
82A
330
63A
100
AcDbEntity
  8
Defpoints
 62
     0
100
AcDbPoint
 10
684.7247295267313
 20
210.7351771389589
 30
0.0
  0
ENDBLK
  5
63C
330
63A
100
AcDbEntity
  8
0
100
AcDbBlockEnd
  0
BLOCK
  5
649
330
648
100
AcDbEntity
  8
0
100
AcDbBlockBegin
  2
*D4
 70
     1
 10
0.0
 20
0.0
 30
0.0
  3
*D4
  1

  0
LINE
  5
836
330
648
100
AcDbEntity
  8
0
 62
     0
370
    -2
100
AcDbLine
 10
688.6380277779108
 20
206.4840448332946
 30
0.0
 11
688.6380277779108
 21
204.6656313258382
 31
0.0
  0
LINE
  5
837
330
648
100
AcDbEntity
  8
0
 62
     0
370
    -2
100
AcDbLine
 10
683.9056670736948
 20
206.4840448332946
 30
0.0
 11
683.9056670736948
 21
204.6656313258382
 31
0.0
  0
LINE
  5
838
330
648
100
AcDbEntity
  8
0
 62
     0
370
    -2
100
AcDbLine
 10
691.1380277779108
 20
205.9156313258382
 30
0.0
 11
693.6380277779107
 21
205.9156313258382
 31
0.0
  0
LINE
  5
839
330
648
100
AcDbEntity
  8
0
 62
     0
370
    -2
100
AcDbLine
 10
681.4056670736947
 20
205.9156313258382
 30
0.0
 11
659.6556670736947
 21
205.9156313258382
 31
0.0
  0
LINE
  5
83A
330
648
100
AcDbEntity
  8
0
 62
     0
370
    -2
100
AcDbLine
 10
688.6380277779108
 20
205.9156313258382
 30
0.0
 11
683.9056670736948
 21
205.9156313258382
 31
0.0
  0
INSERT
  5
83B
330
648
100
AcDbEntity
  8
0
 62
     0
370
    -2
100
AcDbBlockReference
  2
_Open30
 10
688.6380277779108
 20
205.9156313258382
 30
0.0
 41
2.5
 42
2.5
 43
2.5
 50
180.0
  0
INSERT
  5
83C
330
648
100
AcDbEntity
  8
0
 62
     0
370
    -2
100
AcDbBlockReference
  2
_Open30
 10
683.9056670736948
 20
205.9156313258382
 30
0.0
 41
2.5
 42
2.5
 43
2.5
  0
MTEXT
  5
83D
330
648
100
AcDbEntity
  8
0
 62
     4
100
AcDbMText
 10
669.2806670736947
 20
208.7906313258382
 30
0.0
 40
4.5
 41
0.0
 71
     5
 72
     1
  1
47.32
  7
高4.5
 73
     1
 44
1.0
1001
ACAD
1000
MTEXTBEGIN
1070
    73
1070
     1
1070
    44
1040
1.0
1070
    74
1070
     0
1000
MTEXTEND
  0
POINT
  5
83E
330
648
100
AcDbEntity
  8
Defpoints
 62
     0
100
AcDbPoint
 10
688.6380277779108
 20
206.7340448332946
 30
0.0
  0
POINT
  5
83F
330
648
100
AcDbEntity
  8
Defpoints
 62
     0
100
AcDbPoint
 10
683.9056670736948
 20
206.7340448332946
 30
0.0
  0
POINT
  5
840
330
648
100
AcDbEntity
  8
Defpoints
 62
     0
100
AcDbPoint
 10
683.9056670736948
 20
205.9156313258382
 30
0.0
  0
ENDBLK
  5
64A
330
648
100
AcDbEntity
  8
0
100
AcDbBlockEnd
  0
BLOCK
  5
657
330
656
100
AcDbEntity
  8
0
100
AcDbBlockBegin
  2
*D5
 70
     1
 10
0.0
 20
0.0
 30
0.0
  3
*D5
  1

  0
LINE
  5
815
330
656
100
AcDbEntity
  8
0
 62
     0
370
    -2
100
AcDbLine
 10
710.1156640459183
 20
222.670444089935
 30
0.0
 11
710.1156640459183
 21
219.7608126679262
 31
0.0
  0
LINE
  5
816
330
656
100
AcDbEntity
  8
0
 62
     0
370
    -2
100
AcDbLine
 10
707.6584769917977
 20
222.670444089935
 30
0.0
 11
707.6584769917977
 21
219.7608126679262
 31
0.0
  0
LINE
  5
817
330
656
100
AcDbEntity
  8
0
 62
     0
370
    -2
100
AcDbLine
 10
712.6156640459182
 20
221.0108126679262
 30
0.0
 11
715.1156640459182
 21
221.0108126679262
 31
0.0
  0
LINE
  5
818
330
656
100
AcDbEntity
  8
0
 62
     0
370
    -2
100
AcDbLine
 10
705.1584769917979
 20
221.0108126679262
 30
0.0
 11
683.5584769917979
 21
221.0108126679262
 31
0.0
  0
LINE
  5
819
330
656
100
AcDbEntity
  8
0
 62
     0
370
    -2
100
AcDbLine
 10
710.1156640459183
 20
221.0108126679262
 30
0.0
 11
707.6584769917977
 21
221.0108126679262
 31
0.0
  0
INSERT
  5
81A
330
656
100
AcDbEntity
  8
0
 62
     0
370
    -2
100
AcDbBlockReference
  2
_Open30
 10
710.1156640459183
 20
221.0108126679262
 30
0.0
 41
2.5
 42
2.5
 43
2.5
 50
180.0
  0
INSERT
  5
81B
330
656
100
AcDbEntity
  8
0
 62
     0
370
    -2
100
AcDbBlockReference
  2
_Open30
 10
707.6584769917977
 20
221.0108126679262
 30
0.0
 41
2.5
 42
2.5
 43
2.5
  0
MTEXT
  5
81C
330
656
100
AcDbEntity
  8
0
 62
     4
100
AcDbMText
 10
693.1084769917979
 20
224.7858126679262
 30
0.0
 40
6.299999999999998
 41
0.0
 71
     5
 72
     1
  1
0.25
  7
高6.3
 73
     1
 44
1.0
1001
ACAD
1000
MTEXTBEGIN
1070
    73
1070
     1
1070
    44
1040
1.0
1070
    74
1070
     0
1000
MTEXTEND
  0
POINT
  5
81D
330
656
100
AcDbEntity
  8
Defpoints
 62
     0
100
AcDbPoint
 10
710.1156640459183
 20
222.920444089935
 30
0.0
  0
POINT
  5
81E
330
656
100
AcDbEntity
  8
Defpoints
 62
     0
100
AcDbPoint
 10
707.6584769917977
 20
222.920444089935
 30
0.0
  0
POINT
  5
81F
330
656
100
AcDbEntity
  8
Defpoints
 62
     0
100
AcDbPoint
 10
707.6584769917977
 20
221.0108126679262
 30
0.0
  0
ENDBLK
  5
658
330
656
100
AcDbEntity
  8
0
100
AcDbBlockEnd
  0
BLOCK
  5
665
330
664
100
AcDbEntity
  8
0
100
AcDbBlockBegin
  2
*D6
 70
     1
 10
0.0
 20
0.0
 30
0.0
  3
*D6
  1

  0
LINE
  5
7FF
330
664
100
AcDbEntity
  8
0
 62
     0
370
    -2
100
AcDbLine
 10
711.7537889519914
 20
217.2143545171726
 30
0.0
 11
711.7537889519914
 21
214.6684624477093
 31
0.0
  0
LINE
  5
800
330
664
100
AcDbEntity
  8
0
 62
     0
370
    -2
100
AcDbLine
 10
708.6595531538486
 20
217.2143545171726
 30
0.0
 11
708.6595531538486
 21
214.6684624477093
 31
0.0
  0
LINE
  5
801
330
664
100
AcDbEntity
  8
0
 62
     0
370
    -2
100
AcDbLine
 10
714.2537889519914
 20
215.9184624477093
 30
0.0
 11
716.7537889519913
 21
215.9184624477093
 31
0.0
  0
LINE
  5
802
330
664
100
AcDbEntity
  8
0
 62
     0
370
    -2
100
AcDbLine
 10
706.1595531538486
 20
215.9184624477093
 30
0.0
 11
694.1595531538486
 21
215.9184624477093
 31
0.0
  0
LINE
  5
803
330
664
100
AcDbEntity
  8
0
 62
     0
370
    -2
100
AcDbLine
 10
711.7537889519914
 20
215.9184624477093
 30
0.0
 11
708.6595531538486
 21
215.9184624477093
 31
0.0
  0
INSERT
  5
804
330
664
100
AcDbEntity
  8
0
 62
     0
370
    -2
100
AcDbBlockReference
  2
_Open30
 10
711.7537889519914
 20
215.9184624477093
 30
0.0
 41
2.5
 42
2.5
 43
2.5
 50
180.0
  0
INSERT
  5
805
330
664
100
AcDbEntity
  8
0
 62
     0
370
    -2
100
AcDbBlockReference
  2
_Open30
 10
708.6595531538486
 20
215.9184624477093
 30
0.0
 41
2.5
 42
2.5
 43
2.5
  0
MTEXT
  5
806
330
664
100
AcDbEntity
  8
0
 62
     4
100
AcDbMText
 10
698.7845531538486
 20
218.0434624477093
 30
0.0
 40
3.0
 41
0.0
 71
     5
 72
     1
  1
1.55
 73
     1
 44
1.0
1001
ACAD
1000
MTEXTBEGIN
1070
    73
1070
     1
1070
    44
1040
1.0
1070
    74
1070
     0
1000
MTEXTEND
  0
POINT
  5
807
330
664
100
AcDbEntity
  8
Defpoints
 62
     0
100
AcDbPoint
 10
711.7537889519914
 20
217.4643545171726
 30
0.0
  0
POINT
  5
808
330
664
100
AcDbEntity
  8
Defpoints
 62
     0
100
AcDbPoint
 10
708.6595531538486
 20
217.4643545171726
 30
0.0
  0
POINT
  5
809
330
664
100
AcDbEntity
  8
Defpoints
 62
     0
100
AcDbPoint
 10
708.6595531538486
 20
215.9184624477093
 30
0.0
  0
ENDBLK
  5
666
330
664
100
AcDbEntity
  8
0
100
AcDbBlockEnd
  0
BLOCK
  5
673
330
672
100
AcDbEntity
  8
0
100
AcDbBlockBegin
  2
*D7
 70
     1
 10
0.0
 20
0.0
 30
0.0
  3
*D7
  1

  0
LINE
  5
80A
330
672
100
AcDbEntity
  8
0
 62
     0
370
    -2
100
AcDbLine
 10
713.482920560077
 20
211.7582648013262
 30
0.0
 11
713.482920560077
 21
209.4851771389589
 31
0.0
  0
LINE
  5
80B
330
672
100
AcDbEntity
  8
0
 62
     0
370
    -2
100
AcDbLine
 10
709.4786156068852
 20
211.7582648013262
 30
0.0
 11
709.4786156068852
 21
209.4851771389589
 31
0.0
  0
LINE
  5
80C
330
672
100
AcDbEntity
  8
0
 62
     0
370
    -2
100
AcDbLine
 10
715.9829205600771
 20
210.7351771389589
 30
0.0
 11
718.482920560077
 21
210.7351771389589
 31
0.0
  0
LINE
  5
80D
330
672
100
AcDbEntity
  8
0
 62
     0
370
    -2
100
AcDbLine
 10
706.9786156068852
 20
210.7351771389589
 30
0.0
 11
698.6452822735519
 21
210.7351771389589
 31
0.0
  0
LINE
  5
80E
330
672
100
AcDbEntity
  8
0
 62
     0
370
    -2
100
AcDbLine
 10
713.482920560077
 20
210.7351771389589
 30
0.0
 11
709.4786156068852
 21
210.7351771389589
 31
0.0
  0
INSERT
  5
80F
330
672
100
AcDbEntity
  8
0
 62
     0
370
    -2
100
AcDbBlockReference
  2
_Open30
 10
713.482920560077
 20
210.7351771389589
 30
0.0
 41
2.5
 42
2.5
 43
2.5
 50
180.0
  0
INSERT
  5
810
330
672
100
AcDbEntity
  8
0
 62
     0
370
    -2
100
AcDbBlockReference
  2
_Open30
 10
709.4786156068852
 20
210.7351771389589
 30
0.0
 41
2.5
 42
2.5
 43
2.5
  0
MTEXT
  5
811
330
672
100
AcDbEntity
  8
0
 62
     4
100
AcDbMText
 10
701.1036156068852
 20
212.3601771389589
 30
0.0
 40
2.0
 41
0.0
 71
     5
 72
     1
  1
0.8
  7
高2
 73
     1
 44
1.0
1001
ACAD
1000
MTEXTBEGIN
1070
    73
1070
     1
1070
    44
1040
1.0
1070
    74
1070
     0
1000
MTEXTEND
  0
POINT
  5
812
330
672
100
AcDbEntity
  8
Defpoints
 62
     0
100
AcDbPoint
 10
713.482920560077
 20
212.0082648013262
 30
0.0
  0
POINT
  5
813
330
672
100
AcDbEntity
  8
Defpoints
 62
     0
100
AcDbPoint
 10
709.4786156068852
 20
212.0082648013262
 30
0.0
  0
POINT
  5
814
330
672
100
AcDbEntity
  8
Defpoints
 62
     0
100
AcDbPoint
 10
709.4786156068852
 20
210.7351771389589
 30
0.0
  0
ENDBLK
  5
674
330
672
100
AcDbEntity
  8
0
100
AcDbBlockEnd
  0
BLOCK
  5
681
330
680
100
AcDbEntity
  8
0
100
AcDbBlockBegin
  2
*D8
 70
     1
 10
0.0
 20
0.0
 30
0.0
  3
*D8
  1

  0
LINE
  5
841
330
680
100
AcDbEntity
  8
0
 62
     0
370
    -2
100
AcDbLine
 10
713.3919138580645
 20
206.4840448332946
 30
0.0
 11
713.3919138580645
 21
204.6656313258382
 31
0.0
  0
LINE
  5
842
330
680
100
AcDbEntity
  8
0
 62
     0
370
    -2
100
AcDbLine
 10
708.6595531538486
 20
206.4840448332946
 30
0.0
 11
708.6595531538486
 21
204.6656313258382
 31
0.0
  0
LINE
  5
843
330
680
100
AcDbEntity
  8
0
 62
     0
370
    -2
100
AcDbLine
 10
715.8919138580645
 20
205.9156313258382
 30
0.0
 11
718.3919138580645
 21
205.9156313258382
 31
0.0
  0
LINE
  5
844
330
680
100
AcDbEntity
  8
0
 62
     0
370
    -2
100
AcDbLine
 10
706.1595531538486
 20
205.9156313258382
 30
0.0
 11
691.4095531538485
 21
205.9156313258382
 31
0.0
  0
LINE
  5
845
330
680
100
AcDbEntity
  8
0
 62
     0
370
    -2
100
AcDbLine
 10
713.3919138580645
 20
205.9156313258382
 30
0.0
 11
708.6595531538486
 21
205.9156313258382
 31
0.0
  0
INSERT
  5
846
330
680
100
AcDbEntity
  8
0
 62
     0
370
    -2
100
AcDbBlockReference
  2
_Open30
 10
713.3919138580645
 20
205.9156313258382
 30
0.0
 41
2.5
 42
2.5
 43
2.5
 50
180.0
  0
INSERT
  5
847
330
680
100
AcDbEntity
  8
0
 62
     0
370
    -2
100
AcDbBlockReference
  2
_Open30
 10
708.6595531538486
 20
205.9156313258382
 30
0.0
 41
2.5
 42
2.5
 43
2.5
  0
MTEXT
  5
848
330
680
100
AcDbEntity
  8
0
 62
     4
100
AcDbMText
 10
697.5345531538486
 20
208.0406313258382
 30
0.0
 40
3.0
 41
0.0
 71
     5
 72
     1
  1
18.93
 73
     1
 44
1.0
1001
ACAD
1000
MTEXTBEGIN
1070
    73
1070
     1
1070
    44
1040
1.0
1070
    74
1070
     0
1000
MTEXTEND
  0
POINT
  5
849
330
680
100
AcDbEntity
  8
Defpoints
 62
     0
100
AcDbPoint
 10
713.3919138580645
 20
206.7340448332946
 30
0.0
  0
POINT
  5
84A
330
680
100
AcDbEntity
  8
Defpoints
 62
     0
100
AcDbPoint
 10
708.6595531538486
 20
206.7340448332946
 30
0.0
  0
POINT
  5
84B
330
680
100
AcDbEntity
  8
Defpoints
 62
     0
100
AcDbPoint
 10
708.6595531538486
 20
205.9156313258382
 30
0.0
  0
ENDBLK
  5
682
330
680
100
AcDbEntity
  8
0
100
AcDbBlockEnd
  0
BLOCK
  5
68F
330
68E
100
AcDbEntity
  8
0
100
AcDbBlockBegin
  2
*D9
 70
     1
 10
0.0
 20
0.0
 30
0.0
  3
*D9
  1

  0
LINE
  5
84C
330
68E
100
AcDbEntity
  8
0
 62
     0
370
    -2
100
AcDbLine
 10
710.5874870069262
 20
201.4282046267048
 30
0.0
 11
710.5874870069262
 21
199.1182835498292
 31
0.0
  0
LINE
  5
84D
330
68E
100
AcDbEntity
  8
0
 62
     0
370
    -2
100
AcDbLine
 10
705.9988118047784
 20
201.4282046267048
 30
0.0
 11
705.9988118047784
 21
199.1182835498292
 31
0.0
  0
LINE
  5
84E
330
68E
100
AcDbEntity
  8
0
 62
     0
370
    -2
100
AcDbLine
 10
713.0874870069263
 20
200.3682835498292
 30
0.0
 11
715.5874870069262
 21
200.3682835498292
 31
0.0
  0
LINE
  5
84F
330
68E
100
AcDbEntity
  8
0
 62
     0
370
    -2
100
AcDbLine
 10
703.4988118047785
 20
200.3682835498292
 30
0.0
 11
688.7488118047785
 21
200.3682835498292
 31
0.0
  0
LINE
  5
850
330
68E
100
AcDbEntity
  8
0
 62
     0
370
    -2
100
AcDbLine
 10
710.5874870069262
 20
200.3682835498292
 30
0.0
 11
705.9988118047784
 21
200.3682835498292
 31
0.0
  0
INSERT
  5
851
330
68E
100
AcDbEntity
  8
0
 62
     0
370
    -2
100
AcDbBlockReference
  2
_Open30
 10
710.5874870069262
 20
200.3682835498292
 30
0.0
 41
2.5
 42
2.5
 43
2.5
 50
180.0
  0
INSERT
  5
852
330
68E
100
AcDbEntity
  8
0
 62
     0
370
    -2
100
AcDbBlockReference
  2
_Open30
 10
705.9988118047784
 20
200.3682835498292
 30
0.0
 41
2.5
 42
2.5
 43
2.5
  0
MTEXT
  5
853
330
68E
100
AcDbEntity
  8
0
 62
     4
100
AcDbMText
 10
694.8738118047785
 20
202.4932835498292
 30
0.0
 40
3.0
 41
0.0
 71
     5
 72
     1
  1
13.77
 73
     1
 44
1.0
1001
ACAD
1000
MTEXTBEGIN
1070
    73
1070
     1
1070
    44
1040
1.0
1070
    74
1070
     0
1000
MTEXTEND
  0
POINT
  5
854
330
68E
100
AcDbEntity
  8
Defpoints
 62
     0
100
AcDbPoint
 10
710.5874870069262
 20
201.6782046267048
 30
0.0
  0
POINT
  5
855
330
68E
100
AcDbEntity
  8
Defpoints
 62
     0
100
AcDbPoint
 10
705.9988118047784
 20
201.6782046267048
 30
0.0
  0
POINT
  5
856
330
68E
100
AcDbEntity
  8
Defpoints
 62
     0
100
AcDbPoint
 10
705.9988118047784
 20
200.3682835498292
 30
0.0
  0
ENDBLK
  5
690
330
68E
100
AcDbEntity
  8
0
100
AcDbBlockEnd
  0
BLOCK
  5
69D
330
69C
100
AcDbEntity
  8
0
100
AcDbBlockBegin
  2
*D10
 70
     1
 10
0.0
 20
0.0
 30
0.0
  3
*D10
  1

  0
LINE
  5
857
330
69C
100
AcDbEntity
  8
0
 62
     0
370
    -2
100
AcDbLine
 10
703.4912041737761
 20
232.3576959449791
 30
0.0
 11
703.4912041737761
 21
239.7542294229169
 31
0.0
  0
LINE
  5
858
330
69C
100
AcDbEntity
  8
0
 62
     0
370
    -2
100
AcDbLine
 10
693.5527298042861
 20
232.3576959449791
 30
0.0
 11
693.5527298042861
 21
239.7542294229169
 31
0.0
  0
LINE
  5
859
330
69C
100
AcDbEntity
  8
0
 62
     0
370
    -2
100
AcDbLine
 10
700.9912041737759
 20
238.5042294229169
 30
0.0
 11
696.0527298042862
 21
238.5042294229169
 31
0.0
  0
INSERT
  5
85A
330
69C
100
AcDbEntity
  8
0
 62
     0
370
    -2
100
AcDbBlockReference
  2
_Open30
 10
703.4912041737761
 20
238.5042294229169
 30
0.0
 41
2.5
 42
2.5
 43
2.5
  0
INSERT
  5
85B
330
69C
100
AcDbEntity
  8
0
 62
     0
370
    -2
100
AcDbBlockReference
  2
_Open30
 10
693.5527298042861
 20
238.5042294229169
 30
0.0
 41
2.5
 42
2.5
 43
2.5
 50
180.0
  0
MTEXT
  5
85C
330
69C
100
AcDbEntity
  8
0
 62
     4
100
AcDbMText
 10
696.4163573353661
 20
240.6292294229169
 30
0.0
 40
3.0
 41
0.0
 71
     5
 72
     1
  1
9.94
 73
     1
 44
1.0
1001
ACAD
1000
MTEXTBEGIN
1070
    73
1070
     1
1070
    44
1040
1.0
1070
    74
1070
     0
1000
MTEXTEND
  0
POINT
  5
85D
330
69C
100
AcDbEntity
  8
Defpoints
 62
     0
100
AcDbPoint
 10
703.4912041737761
 20
232.1076959449791
 30
0.0
  0
POINT
  5
85E
330
69C
100
AcDbEntity
  8
Defpoints
 62
     0
100
AcDbPoint
 10
693.5527298042861
 20
232.1076959449791
 30
0.0
  0
POINT
  5
85F
330
69C
100
AcDbEntity
  8
Defpoints
 62
     0
100
AcDbPoint
 10
693.5527298042861
 20
238.5042294229169
 30
0.0
  0
ENDBLK
  5
69E
330
69C
100
AcDbEntity
  8
0
100
AcDbBlockEnd
  0
BLOCK
  5
736
330
735
100
AcDbEntity
  8
0
100
AcDbBlockBegin
  2
*D11
 70
     1
 10
0.0
 20
0.0
 30
0.0
  3
*D11
  1

  0
LINE
  5
AFA
330
735
100
AcDbEntity
  8
0
 62
     0
370
    -2
100
AcDbLine
 10
138.673
 20
141.88
 30
0.0
 11
138.673
 21
124.257538
 31
0.0
  0
LINE
  5
AFB
330
735
100
AcDbEntity
  8
0
 62
     0
370
    -2
100
AcDbLine
 10
219.454
 20
141.88
 30
0.0
 11
219.454
 21
124.257538
 31
0.0
  0
LINE
  5
AFC
330
735
100
AcDbEntity
  8
0
 62
     0
370
    -2
100
AcDbLine
 10
141.173
 20
125.507538
 30
0.0
 11
216.954
 21
125.507538
 31
0.0
  0
INSERT
  5
AFD
330
735
100
AcDbEntity
  8
0
 62
     0
370
    -2
100
AcDbBlockReference
  2
_Open30
 10
138.673
 20
125.507538
 30
0.0
 41
2.5
 42
2.5
 43
2.5
 50
180.0
  0
INSERT
  5
AFE
330
735
100
AcDbEntity
  8
0
 62
     0
370
    -2
100
AcDbBlockReference
  2
_Open30
 10
219.454
 20
125.507538
 30
0.0
 41
2.5
 42
2.5
 43
2.5
  0
MTEXT
  5
AFF
330
735
100
AcDbEntity
  8
0
 62
     4
100
AcDbMText
 10
179.0635
 20
127.632538
 30
0.0
 40
3.0
 41
0.0
 71
     5
 72
     1
  1
226
 73
     1
 44
1.0
1001
ACAD
1000
MTEXTBEGIN
1070
    73
1070
     1
1070
    44
1040
1.0
1070
    74
1070
     0
1000
MTEXTEND
  0
POINT
  5
B00
330
735
100
AcDbEntity
  8
Defpoints
 62
     0
100
AcDbPoint
 10
138.673
 20
142.13
 30
0.0
  0
POINT
  5
B01
330
735
100
AcDbEntity
  8
Defpoints
 62
     0
100
AcDbPoint
 10
219.454
 20
142.13
 30
0.0
  0
POINT
  5
B02
330
735
100
AcDbEntity
  8
Defpoints
 62
     0
100
AcDbPoint
 10
219.454
 20
125.507538
 30
0.0
  0
ENDBLK
  5
737
330
735
100
AcDbEntity
  8
0
100
AcDbBlockEnd
  0
BLOCK
  5
743
330
742
100
AcDbEntity
  8
0
100
AcDbBlockBegin
  2
*D12
 70
     1
 10
0.0
 20
0.0
 30
0.0
  3
*D12
  1

  0
LINE
  5
AF1
330
742
100
AcDbEntity
  8
0
 62
     0
370
    -2
100
AcDbLine
 10
27.041
 20
146.693
 30
0.0
 11
27.041
 21
124.257538
 31
0.0
  0
LINE
  5
AF2
330
742
100
AcDbEntity
  8
0
 62
     0
370
    -2
100
AcDbLine
 10
116.76
 20
146.693
 30
0.0
 11
116.76
 21
124.257538
 31
0.0
  0
LINE
  5
AF3
330
742
100
AcDbEntity
  8
0
 62
     0
370
    -2
100
AcDbLine
 10
29.541
 20
125.507538
 30
0.0
 11
114.26
 21
125.507538
 31
0.0
  0
INSERT
  5
AF4
330
742
100
AcDbEntity
  8
0
 62
     0
370
    -2
100
AcDbBlockReference
  2
_Open30
 10
27.041
 20
125.507538
 30
0.0
 41
2.5
 42
2.5
 43
2.5
 50
180.0
  0
INSERT
  5
AF5
330
742
100
AcDbEntity
  8
0
 62
     0
370
    -2
100
AcDbBlockReference
  2
_Open30
 10
116.76
 20
125.507538
 30
0.0
 41
2.5
 42
2.5
 43
2.5
  0
MTEXT
  5
AF6
330
742
100
AcDbEntity
  8
0
 62
     4
100
AcDbMText
 10
71.90050000000001
 20
127.632538
 30
0.0
 40
3.0
 41
0.0
 71
     5
 72
     1
  1
260
 73
     1
 44
1.0
1001
ACAD
1000
MTEXTBEGIN
1070
    73
1070
     1
1070
    44
1040
1.0
1070
    74
1070
     0
1000
MTEXTEND
  0
POINT
  5
AF7
330
742
100
AcDbEntity
  8
Defpoints
 62
     0
100
AcDbPoint
 10
27.041
 20
146.943
 30
0.0
  0
POINT
  5
AF8
330
742
100
AcDbEntity
  8
Defpoints
 62
     0
100
AcDbPoint
 10
116.76
 20
146.943
 30
0.0
  0
POINT
  5
AF9
330
742
100
AcDbEntity
  8
Defpoints
 62
     0
100
AcDbPoint
 10
116.76
 20
125.507538
 30
0.0
  0
ENDBLK
  5
744
330
742
100
AcDbEntity
  8
0
100
AcDbBlockEnd
  0
BLOCK
  5
750
330
74F
100
AcDbEntity
  8
0
100
AcDbBlockBegin
  2
*D13
 70
     1
 10
0.0
 20
0.0
 30
0.0
  3
*D13
  1

  0
LINE
  5
AE8
330
74F
100
AcDbEntity
  8
0
 62
     0
370
    -2
100
AcDbLine
 10
35.385
 20
136.286
 30
0.0
 11
12.88136899999998
 21
136.286
 31
0.0
  0
LINE
  5
AE9
330
74F
100
AcDbEntity
  8
0
 62
     0
370
    -2
100
AcDbLine
 10
67.526
 20
215.696
 30
0.0
 11
12.881369
 21
215.696
 31
0.0
  0
LINE
  5
AEA
330
74F
100
AcDbEntity
  8
0
 62
     0
370
    -2
100
AcDbLine
 10
14.13136899999998
 20
138.786
 30
0.0
 11
14.131369
 21
213.196
 31
0.0
  0
INSERT
  5
AEB
330
74F
100
AcDbEntity
  8
0
 62
     0
370
    -2
100
AcDbBlockReference
  2
_Open30
 10
14.13136899999998
 20
136.286
 30
0.0
 41
2.5
 42
2.5
 43
2.5
 50
270.0
  0
INSERT
  5
AEC
330
74F
100
AcDbEntity
  8
0
 62
     0
370
    -2
100
AcDbBlockReference
  2
_Open30
 10
14.131369
 20
215.696
 30
0.0
 41
2.5
 42
2.5
 43
2.5
 50
90.0
  0
MTEXT
  5
AED
330
74F
100
AcDbEntity
  8
0
 62
     4
100
AcDbMText
 10
12.00636899999996
 20
175.991
 30
0.0
 40
3.0
 41
0.0
 71
     5
 72
     1
  1
230
 11
0.0000000000000001
 21
1.0
 31
0.0
 73
     1
 44
1.0
1001
ACAD
1000
MTEXTBEGIN
1070
    73
1070
     1
1070
    44
1040
1.0
1070
    74
1070
     0
1000
MTEXTEND
  0
POINT
  5
AEE
330
74F
100
AcDbEntity
  8
Defpoints
 62
     0
100
AcDbPoint
 10
35.635
 20
136.286
 30
0.0
  0
POINT
  5
AEF
330
74F
100
AcDbEntity
  8
Defpoints
 62
     0
100
AcDbPoint
 10
67.77599999999999
 20
215.696
 30
0.0
  0
POINT
  5
AF0
330
74F
100
AcDbEntity
  8
Defpoints
 62
     0
100
AcDbPoint
 10
14.131369
 20
215.696
 30
0.0
  0
ENDBLK
  5
751
330
74F
100
AcDbEntity
  8
0
100
AcDbBlockEnd
  0
ENDSEC
  0
SECTION
  2
ENTITIES
  0
LINE
  5
E5
330
6B
100
AcDbEntity
  8
0
100
AcDbLine
 10
299.332
 20
127.995
 30
0.0
 11
301.325
 21
123.518
 31
0.0
  0
LINE
  5
E6
330
6B
100
AcDbEntity
  8
0
100
AcDbLine
 10
298.053
 20
127.425
 30
0.0
 11
300.046
 21
122.949
 31
0.0
  0
LINE
  5
E7
330
6B
100
AcDbEntity
  8
0
100
AcDbLine
 10
296.774
 20
126.856
 30
0.0
 11
298.767
 21
122.379
 31
0.0
  0
LINE
  5
E8
330
6B
100
AcDbEntity
  8
0
100
AcDbLine
 10
295.495
 20
126.286
 30
0.0
 11
297.488
 21
121.81
 31
0.0
  0
LINE
  5
E9
330
6B
100
AcDbEntity
  8
0
100
AcDbLine
 10
294.216
 20
125.717
 30
0.0
 11
296.209
 21
121.241
 31
0.0
  0
LINE
  5
EA
330
6B
100
AcDbEntity
  8
0
100
AcDbLine
 10
292.937
 20
125.147
 30
0.0
 11
294.93
 21
120.671
 31
0.0
  0
LINE
  5
EB
330
6B
100
AcDbEntity
  8
0
100
AcDbLine
 10
291.658
 20
124.578
 30
0.0
 11
293.651
 21
120.102
 31
0.0
  0
LINE
  5
EC
330
6B
100
AcDbEntity
  8
0
100
AcDbLine
 10
290.379
 20
124.009
 30
0.0
 11
292.372
 21
119.532
 31
0.0
  0
LINE
  5
ED
330
6B
100
AcDbEntity
  8
0
100
AcDbLine
 10
289.100817
 20
123.439412
 30
0.0
 11
291.093817
 21
118.962412
 31
0.0
  0
LINE
  5
EE
330
6B
100
AcDbEntity
  8
0
100
AcDbLine
 10
302.819
 20
111.59
 30
0.0
 11
302.819
 21
116.49
 31
0.0
  0
LINE
  5
EF
330
6B
100
AcDbEntity
  8
0
100
AcDbLine
 10
301.4190000000001
 20
111.59
 30
0.0
 11
301.4190000000001
 21
116.49
 31
0.0
  0
LINE
  5
F0
330
6B
100
AcDbEntity
  8
0
100
AcDbLine
 10
300.019
 20
111.59
 30
0.0
 11
300.019
 21
116.49
 31
0.0
  0
LINE
  5
F1
330
6B
100
AcDbEntity
  8
0
100
AcDbLine
 10
298.619
 20
111.59
 30
0.0
 11
298.619
 21
116.49
 31
0.0
  0
LINE
  5
F2
330
6B
100
AcDbEntity
  8
0
100
AcDbLine
 10
297.219
 20
111.59
 30
0.0
 11
297.219
 21
116.49
 31
0.0
  0
LINE
  5
F3
330
6B
100
AcDbEntity
  8
0
100
AcDbLine
 10
295.819
 20
111.59
 30
0.0
 11
295.819
 21
116.49
 31
0.0
  0
LINE
  5
F4
330
6B
100
AcDbEntity
  8
0
100
AcDbLine
 10
294.419
 20
111.59
 30
0.0
 11
294.419
 21
116.49
 31
0.0
  0
LINE
  5
F5
330
6B
100
AcDbEntity
  8
0
100
AcDbLine
 10
293.019
 20
111.59
 30
0.0
 11
293.019
 21
116.49
 31
0.0
  0
LINE
  5
F6
330
6B
100
AcDbEntity
  8
0
100
AcDbLine
 10
291.619
 20
111.59
 30
0.0
 11
291.619
 21
116.49
 31
0.0
  0
LINE
  5
F7
330
6B
100
AcDbEntity
  8
0
100
AcDbLine
 10
303.801
 20
108.488
 30
0.0
 11
305.794
 21
104.012
 31
0.0
  0
LINE
  5
F8
330
6B
100
AcDbEntity
  8
0
100
AcDbLine
 10
302.522
 20
107.919
 30
0.0
 11
304.515
 21
103.443
 31
0.0
  0
LINE
  5
F9
330
6B
100
AcDbEntity
  8
0
100
AcDbLine
 10
301.243
 20
107.349
 30
0.0
 11
303.236
 21
102.873
 31
0.0
  0
LINE
  5
FA
330
6B
100
AcDbEntity
  8
0
100
AcDbLine
 10
299.964
 20
106.78
 30
0.0
 11
301.957
 21
102.304
 31
0.0
  0
LINE
  5
FB
330
6B
100
AcDbEntity
  8
0
100
AcDbLine
 10
298.685
 20
106.211
 30
0.0
 11
300.678
 21
101.734
 31
0.0
  0
LINE
  5
FC
330
6B
100
AcDbEntity
  8
0
100
AcDbLine
 10
297.406
 20
105.641
 30
0.0
 11
299.399
 21
101.165
 31
0.0
  0
LINE
  5
FD
330
6B
100
AcDbEntity
  8
0
100
AcDbLine
 10
296.127
 20
105.072
 30
0.0
 11
298.12
 21
100.595
 31
0.0
  0
LINE
  5
FE
330
6B
100
AcDbEntity
  8
0
100
AcDbLine
 10
294.848
 20
104.502
 30
0.0
 11
296.841
 21
100.026
 31
0.0
  0
LINE
  5
FF
330
6B
100
AcDbEntity
  8
0
100
AcDbLine
 10
293.567982
 20
103.93304
 30
0.0
 11
295.560982
 21
99.45604000000001
 31
0.0
  0
LINE
  5
100
330
6B
100
AcDbEntity
  8
0
100
AcDbLine
 10
307.288
 20
92.08299999999999
 30
0.0
 11
307.288
 21
96.98300000000001
 31
0.0
  0
LINE
  5
101
330
6B
100
AcDbEntity
  8
0
100
AcDbLine
 10
305.888
 20
92.08299999999999
 30
0.0
 11
305.888
 21
96.98300000000001
 31
0.0
  0
LINE
  5
102
330
6B
100
AcDbEntity
  8
0
100
AcDbLine
 10
304.488
 20
92.08299999999999
 30
0.0
 11
304.488
 21
96.98300000000001
 31
0.0
  0
LINE
  5
103
330
6B
100
AcDbEntity
  8
0
100
AcDbLine
 10
303.088
 20
92.08299999999999
 30
0.0
 11
303.088
 21
96.98300000000001
 31
0.0
  0
LINE
  5
104
330
6B
100
AcDbEntity
  8
0
100
AcDbLine
 10
301.688
 20
92.08299999999999
 30
0.0
 11
301.688
 21
96.98300000000001
 31
0.0
  0
LINE
  5
105
330
6B
100
AcDbEntity
  8
0
100
AcDbLine
 10
300.288
 20
92.08299999999999
 30
0.0
 11
300.288
 21
96.98300000000001
 31
0.0
  0
LINE
  5
106
330
6B
100
AcDbEntity
  8
0
100
AcDbLine
 10
298.888
 20
92.08299999999999
 30
0.0
 11
298.888
 21
96.98300000000001
 31
0.0
  0
LINE
  5
107
330
6B
100
AcDbEntity
  8
0
100
AcDbLine
 10
297.488
 20
92.08299999999999
 30
0.0
 11
297.488
 21
96.98300000000001
 31
0.0
  0
LINE
  5
108
330
6B
100
AcDbEntity
  8
0
100
AcDbLine
 10
296.0879999999999
 20
92.08299999999999
 30
0.0
 11
296.0879999999999
 21
96.98300000000001
 31
0.0
  0
LINE
  5
109
330
6B
100
AcDbEntity
  8
0
100
AcDbLine
 10
259.969
 20
112.133
 30
0.0
 11
265.045
 21
112.133
 31
0.0
  0
CIRCLE
  5
10A
330
6B
100
AcDbEntity
  8
0
100
AcDbCircle
 10
216.866
 20
154.165
 30
0.0
 40
1.546999999999995
  0
LINE
  5
10B
330
6B
100
AcDbEntity
  8
0
100
AcDbLine
 10
215.982
 20
154.01
 30
0.0
 11
216.313
 21
154.01
 31
0.0
  0
LINE
  5
10C
330
6B
100
AcDbEntity
  8
0
100
AcDbLine
 10
216.711
 20
153.281
 30
0.0
 11
216.711
 21
153.612
 31
0.0
  0
ARC
  5
10D
330
6B
100
AcDbEntity
  8
0
100
AcDbCircle
 10
216.313
 20
153.612
 30
0.0
 40
0.398
100
AcDbArc
 50
0.0
 51
90.0
  0
LINE
  5
10E
330
6B
100
AcDbEntity
  8
0
100
AcDbLine
 10
217.02
 20
153.281
 30
0.0
 11
217.02
 21
153.612
 31
0.0
  0
LINE
  5
10F
330
6B
100
AcDbEntity
  8
0
100
AcDbLine
 10
217.75
 20
154.319
 30
0.0
 11
217.75
 21
154.01
 31
0.0
  0
LINE
  5
110
330
6B
100
AcDbEntity
  8
0
100
AcDbLine
 10
217.75
 20
154.01
 30
0.0
 11
217.418
 21
154.01
 31
0.0
  0
ARC
  5
111
330
6B
100
AcDbEntity
  8
0
100
AcDbCircle
 10
217.418
 20
153.612
 30
0.0
 40
0.398
100
AcDbArc
 50
90.0
 51
180.0
  0
LINE
  5
112
330
6B
100
AcDbEntity
  8
0
100
AcDbLine
 10
217.02
 20
153.281
 30
0.0
 11
216.711
 21
153.281
 31
0.0
  0
LINE
  5
113
330
6B
100
AcDbEntity
  8
0
100
AcDbLine
 10
217.02
 20
155.049
 30
0.0
 11
217.02
 21
154.717
 31
0.0
  0
ARC
  5
114
330
6B
100
AcDbEntity
  8
0
100
AcDbCircle
 10
217.418
 20
154.717
 30
0.0
 40
0.398
100
AcDbArc
 50
180.0
 51
270.0
  0
LINE
  5
115
330
6B
100
AcDbEntity
  8
0
100
AcDbLine
 10
216.711
 20
155.049
 30
0.0
 11
217.02
 21
155.049
 31
0.0
  0
LINE
  5
116
330
6B
100
AcDbEntity
  8
0
100
AcDbLine
 10
217.75
 20
154.319
 30
0.0
 11
217.418
 21
154.319
 31
0.0
  0
LINE
  5
117
330
6B
100
AcDbEntity
  8
0
100
AcDbLine
 10
215.982
 20
154.319
 30
0.0
 11
216.313
 21
154.319
 31
0.0
  0
ARC
  5
118
330
6B
100
AcDbEntity
  8
0
100
AcDbCircle
 10
216.313
 20
154.717
 30
0.0
 40
0.398
100
AcDbArc
 50
270.0
 51
0.0
  0
LINE
  5
119
330
6B
100
AcDbEntity
  8
0
100
AcDbLine
 10
216.711
 20
155.049
 30
0.0
 11
216.711
 21
154.717
 31
0.0
  0
LINE
  5
11A
330
6B
100
AcDbEntity
  8
0
100
AcDbLine
 10
215.982
 20
154.01
 30
0.0
 11
215.982
 21
154.319
 31
0.0
  0
CIRCLE
  5
11B
330
6B
100
AcDbEntity
  8
0
100
AcDbCircle
 10
216.866
 20
169.633
 30
0.0
 40
1.546999999999995
  0
LINE
  5
11C
330
6B
100
AcDbEntity
  8
0
100
AcDbLine
 10
215.982
 20
169.479
 30
0.0
 11
216.313
 21
169.479
 31
0.0
  0
LINE
  5
11D
330
6B
100
AcDbEntity
  8
0
100
AcDbLine
 10
216.711
 20
168.75
 30
0.0
 11
216.711
 21
169.081
 31
0.0
  0
ARC
  5
11E
330
6B
100
AcDbEntity
  8
0
100
AcDbCircle
 10
216.313
 20
169.081
 30
0.0
 40
0.398
100
AcDbArc
 50
0.0
 51
90.0
  0
LINE
  5
11F
330
6B
100
AcDbEntity
  8
0
100
AcDbLine
 10
217.02
 20
168.75
 30
0.0
 11
217.02
 21
169.081
 31
0.0
  0
LINE
  5
120
330
6B
100
AcDbEntity
  8
0
100
AcDbLine
 10
217.75
 20
169.788
 30
0.0
 11
217.75
 21
169.479
 31
0.0
  0
LINE
  5
121
330
6B
100
AcDbEntity
  8
0
100
AcDbLine
 10
217.75
 20
169.479
 30
0.0
 11
217.418
 21
169.479
 31
0.0
  0
ARC
  5
122
330
6B
100
AcDbEntity
  8
0
100
AcDbCircle
 10
217.418
 20
169.081
 30
0.0
 40
0.398
100
AcDbArc
 50
90.0
 51
180.0
  0
LINE
  5
123
330
6B
100
AcDbEntity
  8
0
100
AcDbLine
 10
217.02
 20
168.75
 30
0.0
 11
216.711
 21
168.75
 31
0.0
  0
LINE
  5
124
330
6B
100
AcDbEntity
  8
0
100
AcDbLine
 10
217.02
 20
170.517
 30
0.0
 11
217.02
 21
170.186
 31
0.0
  0
ARC
  5
125
330
6B
100
AcDbEntity
  8
0
100
AcDbCircle
 10
217.418
 20
170.186
 30
0.0
 40
0.398
100
AcDbArc
 50
180.0
 51
270.0
  0
LINE
  5
126
330
6B
100
AcDbEntity
  8
0
100
AcDbLine
 10
216.711
 20
170.517
 30
0.0
 11
217.02
 21
170.517
 31
0.0
  0
LINE
  5
127
330
6B
100
AcDbEntity
  8
0
100
AcDbLine
 10
217.75
 20
169.788
 30
0.0
 11
217.418
 21
169.788
 31
0.0
  0
LINE
  5
128
330
6B
100
AcDbEntity
  8
0
100
AcDbLine
 10
215.982
 20
169.788
 30
0.0
 11
216.313
 21
169.788
 31
0.0
  0
ARC
  5
129
330
6B
100
AcDbEntity
  8
0
100
AcDbCircle
 10
216.313
 20
170.186
 30
0.0
 40
0.398
100
AcDbArc
 50
270.0
 51
0.0
  0
LINE
  5
12A
330
6B
100
AcDbEntity
  8
0
100
AcDbLine
 10
216.711
 20
170.517
 30
0.0
 11
216.711
 21
170.186
 31
0.0
  0
LINE
  5
12B
330
6B
100
AcDbEntity
  8
0
100
AcDbLine
 10
215.982
 20
169.479
 30
0.0
 11
215.982
 21
169.788
 31
0.0
  0
CIRCLE
  5
12C
330
6B
100
AcDbEntity
  8
0
100
AcDbCircle
 10
216.866
 20
185.102
 30
0.0
 40
1.546999999999995
  0
LINE
  5
12D
330
6B
100
AcDbEntity
  8
0
100
AcDbLine
 10
215.982
 20
184.9479999999999
 30
0.0
 11
216.313
 21
184.9479999999999
 31
0.0
  0
LINE
  5
12E
330
6B
100
AcDbEntity
  8
0
100
AcDbLine
 10
216.711
 20
184.218
 30
0.0
 11
216.711
 21
184.55
 31
0.0
  0
ARC
  5
12F
330
6B
100
AcDbEntity
  8
0
100
AcDbCircle
 10
216.313
 20
184.55
 30
0.0
 40
0.398
100
AcDbArc
 50
0.0
 51
90.0
  0
LINE
  5
130
330
6B
100
AcDbEntity
  8
0
100
AcDbLine
 10
217.02
 20
184.218
 30
0.0
 11
217.02
 21
184.55
 31
0.0
  0
LINE
  5
131
330
6B
100
AcDbEntity
  8
0
100
AcDbLine
 10
217.75
 20
185.257
 30
0.0
 11
217.75
 21
184.9479999999999
 31
0.0
  0
LINE
  5
132
330
6B
100
AcDbEntity
  8
0
100
AcDbLine
 10
217.75
 20
184.9479999999999
 30
0.0
 11
217.418
 21
184.9479999999999
 31
0.0
  0
ARC
  5
133
330
6B
100
AcDbEntity
  8
0
100
AcDbCircle
 10
217.418
 20
184.55
 30
0.0
 40
0.398
100
AcDbArc
 50
90.0
 51
180.0
  0
LINE
  5
134
330
6B
100
AcDbEntity
  8
0
100
AcDbLine
 10
217.02
 20
184.218
 30
0.0
 11
216.711
 21
184.218
 31
0.0
  0
LINE
  5
135
330
6B
100
AcDbEntity
  8
0
100
AcDbLine
 10
217.02
 20
185.986
 30
0.0
 11
217.02
 21
185.655
 31
0.0
  0
ARC
  5
136
330
6B
100
AcDbEntity
  8
0
100
AcDbCircle
 10
217.418
 20
185.655
 30
0.0
 40
0.398
100
AcDbArc
 50
180.0
 51
270.0
  0
LINE
  5
137
330
6B
100
AcDbEntity
  8
0
100
AcDbLine
 10
216.711
 20
185.986
 30
0.0
 11
217.02
 21
185.986
 31
0.0
  0
LINE
  5
138
330
6B
100
AcDbEntity
  8
0
100
AcDbLine
 10
217.75
 20
185.257
 30
0.0
 11
217.418
 21
185.257
 31
0.0
  0
LINE
  5
139
330
6B
100
AcDbEntity
  8
0
100
AcDbLine
 10
215.982
 20
185.257
 30
0.0
 11
216.313
 21
185.257
 31
0.0
  0
ARC
  5
13A
330
6B
100
AcDbEntity
  8
0
100
AcDbCircle
 10
216.313
 20
185.655
 30
0.0
 40
0.398
100
AcDbArc
 50
270.0
 51
0.0
  0
LINE
  5
13B
330
6B
100
AcDbEntity
  8
0
100
AcDbLine
 10
216.711
 20
185.986
 30
0.0
 11
216.711
 21
185.655
 31
0.0
  0
LINE
  5
13C
330
6B
100
AcDbEntity
  8
0
100
AcDbLine
 10
215.982
 20
184.9479999999999
 30
0.0
 11
215.982
 21
185.257
 31
0.0
  0
CIRCLE
  5
13D
330
6B
100
AcDbEntity
  8
0
100
AcDbCircle
 10
153.272
 20
169.633
 30
0.0
 40
1.546999999999995
  0
LINE
  5
13E
330
6B
100
AcDbEntity
  8
0
100
AcDbLine
 10
152.388
 20
169.479
 30
0.0
 11
152.719
 21
169.479
 31
0.0
  0
LINE
  5
13F
330
6B
100
AcDbEntity
  8
0
100
AcDbLine
 10
153.117
 20
168.75
 30
0.0
 11
153.117
 21
169.081
 31
0.0
  0
ARC
  5
140
330
6B
100
AcDbEntity
  8
0
100
AcDbCircle
 10
152.719
 20
169.081
 30
0.0
 40
0.398
100
AcDbArc
 50
0.0
 51
90.0
  0
LINE
  5
141
330
6B
100
AcDbEntity
  8
0
100
AcDbLine
 10
153.427
 20
168.75
 30
0.0
 11
153.427
 21
169.081
 31
0.0
  0
LINE
  5
142
330
6B
100
AcDbEntity
  8
0
100
AcDbLine
 10
154.156
 20
169.788
 30
0.0
 11
154.156
 21
169.479
 31
0.0
  0
LINE
  5
143
330
6B
100
AcDbEntity
  8
0
100
AcDbLine
 10
154.156
 20
169.479
 30
0.0
 11
153.824
 21
169.479
 31
0.0
  0
ARC
  5
144
330
6B
100
AcDbEntity
  8
0
100
AcDbCircle
 10
153.824
 20
169.081
 30
0.0
 40
0.398
100
AcDbArc
 50
90.0
 51
180.0
  0
LINE
  5
145
330
6B
100
AcDbEntity
  8
0
100
AcDbLine
 10
153.427
 20
168.75
 30
0.0
 11
153.117
 21
168.75
 31
0.0
  0
LINE
  5
146
330
6B
100
AcDbEntity
  8
0
100
AcDbLine
 10
153.427
 20
170.517
 30
0.0
 11
153.427
 21
170.186
 31
0.0
  0
ARC
  5
147
330
6B
100
AcDbEntity
  8
0
100
AcDbCircle
 10
153.824
 20
170.186
 30
0.0
 40
0.398
100
AcDbArc
 50
180.0
 51
270.0
  0
LINE
  5
148
330
6B
100
AcDbEntity
  8
0
100
AcDbLine
 10
153.117
 20
170.517
 30
0.0
 11
153.427
 21
170.517
 31
0.0
  0
LINE
  5
149
330
6B
100
AcDbEntity
  8
0
100
AcDbLine
 10
154.156
 20
169.788
 30
0.0
 11
153.824
 21
169.788
 31
0.0
  0
LINE
  5
14A
330
6B
100
AcDbEntity
  8
0
100
AcDbLine
 10
152.388
 20
169.788
 30
0.0
 11
152.719
 21
169.788
 31
0.0
  0
ARC
  5
14B
330
6B
100
AcDbEntity
  8
0
100
AcDbCircle
 10
152.719
 20
170.186
 30
0.0
 40
0.398
100
AcDbArc
 50
270.0
 51
0.0
  0
LINE
  5
14C
330
6B
100
AcDbEntity
  8
0
100
AcDbLine
 10
153.117
 20
170.517
 30
0.0
 11
153.117
 21
170.186
 31
0.0
  0
LINE
  5
14D
330
6B
100
AcDbEntity
  8
0
100
AcDbLine
 10
152.388
 20
169.479
 30
0.0
 11
152.388
 21
169.788
 31
0.0
  0
CIRCLE
  5
14E
330
6B
100
AcDbEntity
  8
0
100
AcDbCircle
 10
153.272
 20
185.102
 30
0.0
 40
1.546999999999995
  0
LINE
  5
14F
330
6B
100
AcDbEntity
  8
0
100
AcDbLine
 10
152.388
 20
184.9479999999999
 30
0.0
 11
152.719
 21
184.9479999999999
 31
0.0
  0
LINE
  5
150
330
6B
100
AcDbEntity
  8
0
100
AcDbLine
 10
153.117
 20
184.218
 30
0.0
 11
153.117
 21
184.55
 31
0.0
  0
ARC
  5
151
330
6B
100
AcDbEntity
  8
0
100
AcDbCircle
 10
152.719
 20
184.55
 30
0.0
 40
0.398
100
AcDbArc
 50
0.0
 51
90.0
  0
LINE
  5
152
330
6B
100
AcDbEntity
  8
0
100
AcDbLine
 10
153.427
 20
184.218
 30
0.0
 11
153.427
 21
184.55
 31
0.0
  0
LINE
  5
153
330
6B
100
AcDbEntity
  8
0
100
AcDbLine
 10
154.156
 20
185.257
 30
0.0
 11
154.156
 21
184.9479999999999
 31
0.0
  0
LINE
  5
154
330
6B
100
AcDbEntity
  8
0
100
AcDbLine
 10
154.156
 20
184.9479999999999
 30
0.0
 11
153.824
 21
184.9479999999999
 31
0.0
  0
ARC
  5
155
330
6B
100
AcDbEntity
  8
0
100
AcDbCircle
 10
153.824
 20
184.55
 30
0.0
 40
0.398
100
AcDbArc
 50
90.0
 51
180.0
  0
LINE
  5
156
330
6B
100
AcDbEntity
  8
0
100
AcDbLine
 10
153.427
 20
184.218
 30
0.0
 11
153.117
 21
184.218
 31
0.0
  0
LINE
  5
157
330
6B
100
AcDbEntity
  8
0
100
AcDbLine
 10
153.427
 20
185.986
 30
0.0
 11
153.427
 21
185.655
 31
0.0
  0
ARC
  5
158
330
6B
100
AcDbEntity
  8
0
100
AcDbCircle
 10
153.824
 20
185.655
 30
0.0
 40
0.398
100
AcDbArc
 50
180.0
 51
270.0
  0
LINE
  5
159
330
6B
100
AcDbEntity
  8
0
100
AcDbLine
 10
153.117
 20
185.986
 30
0.0
 11
153.427
 21
185.986
 31
0.0
  0
LINE
  5
15A
330
6B
100
AcDbEntity
  8
0
100
AcDbLine
 10
154.156
 20
185.257
 30
0.0
 11
153.824
 21
185.257
 31
0.0
  0
LINE
  5
15B
330
6B
100
AcDbEntity
  8
0
100
AcDbLine
 10
152.388
 20
185.257
 30
0.0
 11
152.719
 21
185.257
 31
0.0
  0
ARC
  5
15C
330
6B
100
AcDbEntity
  8
0
100
AcDbCircle
 10
152.719
 20
185.655
 30
0.0
 40
0.398
100
AcDbArc
 50
270.0
 51
0.0
  0
LINE
  5
15D
330
6B
100
AcDbEntity
  8
0
100
AcDbLine
 10
153.117
 20
185.986
 30
0.0
 11
153.117
 21
185.655
 31
0.0
  0
LINE
  5
15E
330
6B
100
AcDbEntity
  8
0
100
AcDbLine
 10
152.388
 20
184.9479999999999
 30
0.0
 11
152.388
 21
185.257
 31
0.0
  0
CIRCLE
  5
15F
330
6B
100
AcDbEntity
  8
0
100
AcDbCircle
 10
153.272
 20
154.165
 30
0.0
 40
1.546999999999995
  0
LINE
  5
160
330
6B
100
AcDbEntity
  8
0
100
AcDbLine
 10
152.388
 20
154.01
 30
0.0
 11
152.719
 21
154.01
 31
0.0
  0
LINE
  5
161
330
6B
100
AcDbEntity
  8
0
100
AcDbLine
 10
153.117
 20
153.281
 30
0.0
 11
153.117
 21
153.612
 31
0.0
  0
ARC
  5
162
330
6B
100
AcDbEntity
  8
0
100
AcDbCircle
 10
152.719
 20
153.612
 30
0.0
 40
0.398
100
AcDbArc
 50
0.0
 51
90.0
  0
LINE
  5
163
330
6B
100
AcDbEntity
  8
0
100
AcDbLine
 10
153.427
 20
153.281
 30
0.0
 11
153.427
 21
153.612
 31
0.0
  0
LINE
  5
164
330
6B
100
AcDbEntity
  8
0
100
AcDbLine
 10
154.156
 20
154.319
 30
0.0
 11
154.156
 21
154.01
 31
0.0
  0
LINE
  5
165
330
6B
100
AcDbEntity
  8
0
100
AcDbLine
 10
154.156
 20
154.01
 30
0.0
 11
153.824
 21
154.01
 31
0.0
  0
ARC
  5
166
330
6B
100
AcDbEntity
  8
0
100
AcDbCircle
 10
153.824
 20
153.612
 30
0.0
 40
0.398
100
AcDbArc
 50
90.0
 51
180.0
  0
LINE
  5
167
330
6B
100
AcDbEntity
  8
0
100
AcDbLine
 10
153.427
 20
153.281
 30
0.0
 11
153.117
 21
153.281
 31
0.0
  0
LINE
  5
168
330
6B
100
AcDbEntity
  8
0
100
AcDbLine
 10
153.427
 20
155.049
 30
0.0
 11
153.427
 21
154.717
 31
0.0
  0
ARC
  5
169
330
6B
100
AcDbEntity
  8
0
100
AcDbCircle
 10
153.824
 20
154.717
 30
0.0
 40
0.398
100
AcDbArc
 50
180.0
 51
270.0
  0
LINE
  5
16A
330
6B
100
AcDbEntity
  8
0
100
AcDbLine
 10
153.117
 20
155.049
 30
0.0
 11
153.427
 21
155.049
 31
0.0
  0
LINE
  5
16B
330
6B
100
AcDbEntity
  8
0
100
AcDbLine
 10
154.156
 20
154.319
 30
0.0
 11
153.824
 21
154.319
 31
0.0
  0
LINE
  5
16C
330
6B
100
AcDbEntity
  8
0
100
AcDbLine
 10
152.388
 20
154.319
 30
0.0
 11
152.719
 21
154.319
 31
0.0
  0
ARC
  5
16D
330
6B
100
AcDbEntity
  8
0
100
AcDbCircle
 10
152.719
 20
154.717
 30
0.0
 40
0.398
100
AcDbArc
 50
270.0
 51
0.0
  0
LINE
  5
16E
330
6B
100
AcDbEntity
  8
0
100
AcDbLine
 10
153.117
 20
155.049
 30
0.0
 11
153.117
 21
154.717
 31
0.0
  0
LINE
  5
16F
330
6B
100
AcDbEntity
  8
0
100
AcDbLine
 10
152.388
 20
154.01
 30
0.0
 11
152.388
 21
154.319
 31
0.0
  0
TEXT
  5
170
330
6B
100
AcDbEntity
  8
0
100
AcDbText
 10
102.718434
 20
181.33023
 30
0.0
 40
2.56
  1
充電中
 50
0.7
 41
0.833333
100
AcDbText
  0
TEXT
  5
171
330
6B
100
AcDbEntity
  8
0
100
AcDbText
 10
88.813135
 20
181.31742
 30
0.0
 40
2.56
  1
充電完了
 50
0.7
 41
0.833333
100
AcDbText
  0
TEXT
  5
172
330
6B
100
AcDbEntity
  8
0
100
AcDbText
 10
83.613286
 20
165.870542
 30
0.0
 40
2.048
  1
入力ブレーカ
 50
1.399999999999999
 41
0.833333
100
AcDbText
  0
TEXT
  5
173
330
6B
100
AcDbEntity
  8
0
100
AcDbText
 10
98.297083
 20
165.9202159999999
 30
0.0
 40
2.048
  1
出力ブレーカ
 50
1.399999999999999
 41
0.833333
100
AcDbText
  0
LINE
  5
174
330
6B
100
AcDbEntity
  8
0
100
AcDbLine
 10
37.226891
 20
192.846215
 30
0.0
 11
37.47589
 21
192.716233
 31
0.0
  0
LINE
  5
175
330
6B
100
AcDbEntity
  8
0
100
AcDbLine
 10
37.226891
 20
190.714426
 30
0.0
 11
37.47589
 21
190.844408
 31
0.0
  0
LINE
  5
176
330
6B
100
AcDbEntity
  8
0
100
AcDbLine
 10
37.47589
 20
192.716233
 30
0.0
 11
37.47589
 21
190.844408
 31
0.0
  0
LINE
  5
177
330
6B
100
AcDbEntity
  8
0
100
AcDbLine
 10
38.106471
 20
190.714426
 30
0.0
 11
37.857473
 21
190.844408
 31
0.0
  0
LINE
  5
178
330
6B
100
AcDbEntity
  8
0
100
AcDbLine
 10
37.857473
 20
191.98547
 30
0.0
 11
37.857473
 21
190.844408
 31
0.0
  0
LINE
  5
179
330
6B
100
AcDbEntity
  8
0
100
AcDbLine
 10
39.558964
 20
192.846215
 30
0.0
 11
39.309966
 21
192.716233
 31
0.0
  0
LINE
  5
17A
330
6B
100
AcDbEntity
  8
0
100
AcDbLine
 10
38.67938400000003
 20
192.846215
 30
0.0
 11
38.92838300000001
 21
192.716233
 31
0.0
  0
LINE
  5
17B
330
6B
100
AcDbEntity
  8
0
100
AcDbLine
 10
38.92838300000001
 20
192.716233
 30
0.0
 11
38.92838300000001
 21
191.892041
 31
0.0
  0
LINE
  5
17C
330
6B
100
AcDbEntity
  8
0
100
AcDbLine
 10
39.309966
 20
192.716233
 30
0.0
 11
39.309966
 21
190.593534
 31
0.0
  0
LINE
  5
17D
330
6B
100
AcDbEntity
  8
0
100
AcDbLine
 10
39.681991
 20
192.846214
 30
0.0
 11
39.93098900000001
 21
192.71623
 31
0.0
  0
LINE
  5
17E
330
6B
100
AcDbEntity
  8
0
100
AcDbLine
 10
39.681947
 20
190.714455
 30
0.0
 11
39.93095
 21
190.844428
 31
0.0
  0
LINE
  5
17F
330
6B
100
AcDbEntity
  8
0
100
AcDbLine
 10
39.93098900000001
 20
192.71623
 30
0.0
 11
39.93098900000001
 21
190.844428
 31
0.0
  0
LINE
  5
180
330
6B
100
AcDbEntity
  8
0
100
AcDbLine
 10
40.784584
 20
192.8462
 30
0.0
 11
40.535583
 21
192.7162219999999
 31
0.0
  0
LINE
  5
181
330
6B
100
AcDbEntity
  8
0
100
AcDbLine
 10
40.535583
 20
192.7162219999999
 30
0.0
 11
40.535583
 21
190.84442
 31
0.0
  0
LINE
  5
182
330
6B
100
AcDbEntity
  8
0
100
AcDbLine
 10
40.784584
 20
190.714441
 30
0.0
 11
40.535583
 21
190.84442
 31
0.0
  0
LINE
  5
183
330
6B
100
AcDbEntity
  8
0
100
AcDbLine
 10
42.8933
 20
192.846177
 30
0.0
 11
43.14229799999998
 21
192.716194
 31
0.0
  0
LINE
  5
184
330
6B
100
AcDbEntity
  8
0
100
AcDbLine
 10
43.14229799999998
 20
192.716194
 30
0.0
 11
43.142265
 21
190.844392
 31
0.0
  0
LINE
  5
185
330
6B
100
AcDbEntity
  8
0
100
AcDbLine
 10
42.89326299999999
 20
190.714418
 30
0.0
 11
43.142265
 21
190.844392
 31
0.0
  0
LINE
  5
186
330
6B
100
AcDbEntity
  8
0
100
AcDbLine
 10
44.00887700000001
 20
192.846177
 30
0.0
 11
43.759879
 21
192.716194
 31
0.0
  0
LINE
  5
187
330
6B
100
AcDbEntity
  8
0
100
AcDbLine
 10
44.008915
 20
190.714418
 30
0.0
 11
43.759912
 21
190.844392
 31
0.0
  0
LINE
  5
188
330
6B
100
AcDbEntity
  8
0
100
AcDbLine
 10
44.125293
 20
192.846177
 30
0.0
 11
44.37429199999999
 21
192.716194
 31
0.0
  0
LINE
  5
189
330
6B
100
AcDbEntity
  8
0
100
AcDbLine
 10
44.125256
 20
190.714418
 30
0.0
 11
44.374259
 21
190.844392
 31
0.0
  0
LINE
  5
18A
330
6B
100
AcDbEntity
  8
0
100
AcDbLine
 10
45.240871
 20
192.846177
 30
0.0
 11
44.991873
 21
192.716194
 31
0.0
  0
LINE
  5
18B
330
6B
100
AcDbEntity
  8
0
100
AcDbLine
 10
44.991873
 20
192.716194
 30
0.0
 11
44.991905
 21
190.844392
 31
0.0
  0
LINE
  5
18C
330
6B
100
AcDbEntity
  8
0
100
AcDbLine
 10
45.240908
 20
190.714418
 30
0.0
 11
44.991905
 21
190.844392
 31
0.0
  0
LINE
  5
18D
330
6B
100
AcDbEntity
  8
0
100
AcDbLine
 10
44.374278
 20
191.900689
 30
0.0
 11
43.75989299999999
 21
191.900689
 31
0.0
  0
LINE
  5
18E
330
6B
100
AcDbEntity
  8
0
100
AcDbLine
 10
44.37427299999998
 20
191.659952
 30
0.0
 11
43.759898
 21
191.659952
 31
0.0
  0
LINE
  5
18F
330
6B
100
AcDbEntity
  8
0
100
AcDbLine
 10
44.37429199999999
 20
192.716194
 30
0.0
 11
44.374278
 21
191.900689
 31
0.0
  0
LINE
  5
190
330
6B
100
AcDbEntity
  8
0
100
AcDbLine
 10
44.37427299999998
 20
191.659952
 30
0.0
 11
44.374259
 21
190.844392
 31
0.0
  0
LINE
  5
191
330
6B
100
AcDbEntity
  8
0
100
AcDbLine
 10
43.759879
 20
192.716194
 30
0.0
 11
43.75989299999999
 21
191.900689
 31
0.0
  0
LINE
  5
192
330
6B
100
AcDbEntity
  8
0
100
AcDbLine
 10
43.759898
 20
191.659952
 30
0.0
 11
43.759912
 21
190.844392
 31
0.0
  0
LINE
  5
193
330
6B
100
AcDbEntity
  8
0
100
AcDbLine
 10
45.35913299999999
 20
192.846177
 30
0.0
 11
45.608132
 21
192.716194
 31
0.0
  0
LINE
  5
194
330
6B
100
AcDbEntity
  8
0
100
AcDbLine
 10
45.608132
 20
192.716194
 30
0.0
 11
45.60809899999997
 21
190.844392
 31
0.0
  0
LINE
  5
195
330
6B
100
AcDbEntity
  8
0
100
AcDbLine
 10
45.359096
 20
190.714418
 30
0.0
 11
45.60809899999997
 21
190.844392
 31
0.0
  0
LINE
  5
196
330
6B
100
AcDbEntity
  8
0
100
AcDbLine
 10
46.461711
 20
192.846177
 30
0.0
 11
46.21271199999998
 21
192.716194
 31
0.0
  0
LINE
  5
197
330
6B
100
AcDbEntity
  8
0
100
AcDbLine
 10
46.21271199999998
 20
192.716194
 30
0.0
 11
46.212745
 21
190.844392
 31
0.0
  0
LINE
  5
198
330
6B
100
AcDbEntity
  8
0
100
AcDbLine
 10
46.46174799999999
 20
190.714418
 30
0.0
 11
46.212745
 21
190.844392
 31
0.0
  0
LINE
  5
199
330
6B
100
AcDbEntity
  8
0
100
AcDbLine
 10
46.58420200000001
 20
192.846177
 30
0.0
 11
46.8332
 21
192.716194
 31
0.0
  0
LINE
  5
19A
330
6B
100
AcDbEntity
  8
0
100
AcDbLine
 10
46.8332
 20
192.716194
 30
0.0
 11
46.833168
 21
190.844392
 31
0.0
  0
LINE
  5
19B
330
6B
100
AcDbEntity
  8
0
100
AcDbLine
 10
46.584165
 20
190.714418
 30
0.0
 11
46.833168
 21
190.844392
 31
0.0
  0
ARC
  5
19C
330
6B
100
AcDbEntity
  8
0
100
AcDbCircle
 10
42.09792199999998
 20
191.785686
 30
0.0
 40
1.192162999999998
100
AcDbArc
 50
97.701524
 51
270.0
  0
ARC
  5
19D
330
6B
100
AcDbEntity
  8
0
100
AcDbCircle
 10
49.458265
 20
191.773711
 30
0.0
 40
1.205111
100
AcDbArc
 50
0.31425
 51
69.00558199999998
  0
ARC
  5
19E
330
6B
100
AcDbEntity
  8
0
100
AcDbCircle
 10
49.721508
 20
191.773711
 30
0.0
 40
1.205111
100
AcDbArc
 50
110.994418
 51
148.116611
  0
ARC
  5
19F
330
6B
100
AcDbEntity
  8
0
100
AcDbCircle
 10
49.458265
 20
191.78693
 30
0.0
 40
1.205111
100
AcDbArc
 50
290.994418
 51
359.68575
  0
ARC
  5
1A0
330
6B
100
AcDbEntity
  8
0
100
AcDbCircle
 10
49.721508
 20
191.78693
 30
0.0
 40
1.205111
100
AcDbArc
 50
211.883389
 51
249.005582
  0
ARC
  5
1A1
330
6B
100
AcDbEntity
  8
0
100
AcDbCircle
 10
49.58988699999999
 20
192.273352
 30
0.0
 40
0.693755
100
AcDbArc
 50
64.365172
 51
115.634828
  0
ARC
  5
1A2
330
6B
100
AcDbEntity
  8
0
100
AcDbCircle
 10
49.58988699999999
 20
191.287289
 30
0.0
 40
0.693755
100
AcDbArc
 50
244.365172
 51
295.634828
  0
ARC
  5
1A3
330
6B
100
AcDbEntity
  8
0
100
AcDbCircle
 10
49.58988699999999
 20
192.28653
 30
0.0
 40
0.340489
100
AcDbArc
 50
19.486606
 51
160.513394
  0
ARC
  5
1A4
330
6B
100
AcDbEntity
  8
0
100
AcDbCircle
 10
49.58988699999999
 20
191.287289
 30
0.0
 40
0.693755
100
AcDbArc
 50
244.365172
 51
295.634828
  0
ARC
  5
1A5
330
6B
100
AcDbEntity
  8
0
100
AcDbCircle
 10
49.58988699999999
 20
191.274111
 30
0.0
 40
0.340489
100
AcDbArc
 50
199.4866059999999
 51
340.513394
  0
ARC
  5
1A6
330
6B
100
AcDbEntity
  8
0
100
AcDbCircle
 10
46.879902
 20
179.078572
 30
0.0
 40
14.88
100
AcDbArc
 50
69.50571500000001
 51
81.689988
  0
ARC
  5
1A7
330
6B
100
AcDbEntity
  8
0
100
AcDbCircle
 10
46.879902
 20
204.482069
 30
0.0
 40
14.88
100
AcDbArc
 50
278.310012
 51
290.494285
  0
ARC
  5
1A8
330
6B
100
AcDbEntity
  8
0
100
AcDbCircle
 10
51.627448
 20
191.780321
 30
0.0
 40
1.32
100
AcDbArc
 50
290.494285
 51
69.50571500000001
  0
ARC
  5
1A9
330
6B
100
AcDbEntity
  8
0
100
AcDbCircle
 10
36.027448
 20
191.780321
 30
0.0
 40
1.32
100
AcDbArc
 50
110.494285
 51
249.505715
  0
ARC
  5
1AA
330
6B
100
AcDbEntity
  8
0
100
AcDbCircle
 10
40.774993
 20
179.078572
 30
0.0
 40
14.88
100
AcDbArc
 50
98.31001200000001
 51
110.494285
  0
ARC
  5
1AB
330
6B
100
AcDbEntity
  8
0
100
AcDbCircle
 10
40.774993
 20
204.482069
 30
0.0
 40
14.88
100
AcDbArc
 50
249.505715
 51
261.689988
  0
ARC
  5
1AC
330
6B
100
AcDbEntity
  8
0
100
AcDbCircle
 10
43.827448
 20
225.380321
 30
0.0
 40
36.0
100
AcDbArc
 50
261.689988
 51
278.310012
  0
ARC
  5
1AD
330
6B
100
AcDbEntity
  8
0
100
AcDbCircle
 10
43.827448
 20
158.180321
 30
0.0
 40
35.64
100
AcDbArc
 50
81.689988
 51
98.31001200000001
  0
ARC
  5
1AE
330
6B
100
AcDbEntity
  8
0
100
AcDbCircle
 10
43.827448
 20
225.380321
 30
0.0
 40
35.64
100
AcDbArc
 50
261.689988
 51
278.310012
  0
ARC
  5
1AF
330
6B
100
AcDbEntity
  8
0
100
AcDbCircle
 10
46.879902
 20
204.482069
 30
0.0
 40
14.52
100
AcDbArc
 50
278.310012
 51
290.494285
  0
ARC
  5
1B0
330
6B
100
AcDbEntity
  8
0
100
AcDbCircle
 10
46.879902
 20
179.078572
 30
0.0
 40
14.52
100
AcDbArc
 50
69.50571500000001
 51
81.689988
  0
ARC
  5
1B1
330
6B
100
AcDbEntity
  8
0
100
AcDbCircle
 10
51.627448
 20
191.780321
 30
0.0
 40
0.9599999999999999
100
AcDbArc
 50
290.494285
 51
69.50571500000001
  0
ARC
  5
1B2
330
6B
100
AcDbEntity
  8
0
100
AcDbCircle
 10
36.027448
 20
191.780321
 30
0.0
 40
0.9599999999999999
100
AcDbArc
 50
110.494285
 51
249.505715
  0
ARC
  5
1B3
330
6B
100
AcDbEntity
  8
0
100
AcDbCircle
 10
40.774993
 20
179.078572
 30
0.0
 40
14.52
100
AcDbArc
 50
98.31001200000001
 51
110.494285
  0
ARC
  5
1B4
330
6B
100
AcDbEntity
  8
0
100
AcDbCircle
 10
40.774993
 20
204.482069
 30
0.0
 40
14.52
100
AcDbArc
 50
249.505715
 51
261.689988
  0
ARC
  5
1B5
330
6B
100
AcDbEntity
  8
0
100
AcDbCircle
 10
43.827448
 20
158.180321
 30
0.0
 40
36.0
100
AcDbArc
 50
81.689988
 51
98.31001200000001
  0
LINE
  5
1B6
330
6B
100
AcDbEntity
  8
0
100
AcDbLine
 10
208.7129352469872
 20
52.001158
 30
0.0
 11
208.7129352469872
 21
-8.982841999999997
 31
0.0
  0
LINE
  5
1B7
330
6B
100
AcDbEntity
  8
0
100
AcDbLine
 10
257.007
 20
196.099
 30
0.0
 11
333.319
 21
196.099
 31
0.0
  0
ARC
  5
1B8
330
6B
100
AcDbEntity
  8
0
100
AcDbCircle
 10
333.319
 20
191.286
 30
0.0
 40
4.812999999999997
100
AcDbArc
 50
0.0
 51
90.0
  0
LINE
  5
1B9
330
6B
100
AcDbEntity
  8
0
100
AcDbLine
 10
338.132
 20
191.286
 30
0.0
 11
338.132
 21
146.943
 31
0.0
  0
ARC
  5
1BA
330
6B
100
AcDbEntity
  8
0
100
AcDbCircle
 10
333.319
 20
146.943
 30
0.0
 40
4.812999999999997
100
AcDbArc
 50
270.0
 51
0.0
  0
LINE
  5
1BB
330
6B
100
AcDbEntity
  8
0
100
AcDbLine
 10
324.157
 20
142.13
 30
0.0
 11
263.606
 21
142.13
 31
0.0
  0
ARC
  5
1BC
330
6B
100
AcDbEntity
  8
0
100
AcDbCircle
 10
257.007
 20
146.943
 30
0.0
 40
4.812999999999997
100
AcDbArc
 50
180.0
 51
270.0
  0
LINE
  5
1BD
330
6B
100
AcDbEntity
  8
0
100
AcDbLine
 10
261.458
 20
142.13
 30
0.0
 11
257.007
 21
142.13
 31
0.0
  0
LINE
  5
1BE
330
6B
100
AcDbEntity
  8
0
100
AcDbLine
 10
333.319
 20
142.13
 30
0.0
 11
328.024
 21
142.13
 31
0.0
  0
LINE
  5
1BF
330
6B
100
AcDbEntity
  8
0
100
AcDbLine
 10
252.194
 20
146.943
 30
0.0
 11
252.194
 21
191.286
 31
0.0
  0
ARC
  5
1C0
330
6B
100
AcDbEntity
  8
0
100
AcDbCircle
 10
257.007
 20
191.286
 30
0.0
 40
4.812999999999997
100
AcDbArc
 50
90.0
 51
180.0
  0
LINE
  5
1C1
330
6B
100
AcDbEntity
  8
0
100
AcDbLine
 10
299.288
 20
213.977
 30
0.0
 11
291.038
 21
213.977
 31
0.0
  0
ARC
  5
1C2
330
6B
100
AcDbEntity
  8
0
100
AcDbCircle
 10
316.994
 20
178.27
 30
0.0
 40
4.022999999999997
100
AcDbArc
 50
4.785
 51
69.685
  0
LINE
  5
1C3
330
6B
100
AcDbEntity
  8
0
100
AcDbLine
 10
318.391
 20
182.043
 30
0.0
 11
302.922
 21
182.043
 31
0.0
  0
ARC
  5
1C4
330
6B
100
AcDbEntity
  8
0
100
AcDbCircle
 10
304.319
 20
178.27
 30
0.0
 40
4.022999999999997
100
AcDbArc
 50
110.315
 51
175.215
  0
ARC
  5
1C5
330
6B
100
AcDbEntity
  8
0
100
AcDbCircle
 10
286.056
 20
178.27
 30
0.0
 40
4.022999999999997
100
AcDbArc
 50
4.785
 51
69.685
  0
LINE
  5
1C6
330
6B
100
AcDbEntity
  8
0
100
AcDbLine
 10
287.453
 20
182.043
 30
0.0
 11
271.984
 21
182.043
 31
0.0
  0
ARC
  5
1C7
330
6B
100
AcDbEntity
  8
0
100
AcDbCircle
 10
273.381
 20
178.27
 30
0.0
 40
4.022999999999997
100
AcDbArc
 50
110.315
 51
175.215
  0
ARC
  5
1C8
330
6B
100
AcDbEntity
  8
0
100
AcDbCircle
 10
273.381
 20
173.801
 30
0.0
 40
4.022999999999997
100
AcDbArc
 50
110.315
 51
175.215
  0
LINE
  5
1C9
330
6B
100
AcDbEntity
  8
0
100
AcDbLine
 10
287.453
 20
177.574
 30
0.0
 11
271.984
 21
177.574
 31
0.0
  0
ARC
  5
1CA
330
6B
100
AcDbEntity
  8
0
100
AcDbCircle
 10
286.056
 20
173.801
 30
0.0
 40
4.022999999999997
100
AcDbArc
 50
4.785
 51
69.685
  0
ARC
  5
1CB
330
6B
100
AcDbEntity
  8
0
100
AcDbCircle
 10
304.319
 20
173.801
 30
0.0
 40
4.022999999999997
100
AcDbArc
 50
110.315
 51
175.215
  0
LINE
  5
1CC
330
6B
100
AcDbEntity
  8
0
100
AcDbLine
 10
318.391
 20
177.574
 30
0.0
 11
302.922
 21
177.574
 31
0.0
  0
ARC
  5
1CD
330
6B
100
AcDbEntity
  8
0
100
AcDbCircle
 10
316.994
 20
173.801
 30
0.0
 40
4.022999999999997
100
AcDbArc
 50
4.785
 51
69.685
  0
LINE
  5
1CE
330
6B
100
AcDbEntity
  8
0
100
AcDbLine
 10
212.943
 20
197.818
 30
0.0
 11
202.631
 21
197.818
 31
0.0
  0
LINE
  5
1CF
330
6B
100
AcDbEntity
  8
0
100
AcDbLine
 10
209.564
 20
198.852
 30
0.0
 11
202.631
 21
198.852
 31
0.0
  0
ARC
  5
1D0
330
6B
100
AcDbEntity
  8
0
100
AcDbCircle
 10
216.866
 20
195.827
 30
0.0
 40
1.821999999999999
100
AcDbArc
 50
31.891
 51
148.109
  0
LINE
  5
1D1
330
6B
100
AcDbEntity
  8
0
100
AcDbLine
 10
157.599
 20
197.818
 30
0.0
 11
167.912
 21
197.818
 31
0.0
  0
LINE
  5
1D2
330
6B
100
AcDbEntity
  8
0
100
AcDbLine
 10
161.037
 20
198.852
 30
0.0
 11
167.912
 21
198.852
 31
0.0
  0
ARC
  5
1D3
330
6B
100
AcDbEntity
  8
0
100
AcDbCircle
 10
206.841
 20
182.738
 30
0.0
 40
4.022999999999997
100
AcDbArc
 50
4.785
 51
69.685
  0
LINE
  5
1D4
330
6B
100
AcDbEntity
  8
0
100
AcDbLine
 10
208.238
 20
186.512
 30
0.0
 11
192.769
 21
186.512
 31
0.0
  0
ARC
  5
1D5
330
6B
100
AcDbEntity
  8
0
100
AcDbCircle
 10
194.166
 20
182.738
 30
0.0
 40
4.022999999999997
100
AcDbArc
 50
110.315
 51
175.215
  0
ARC
  5
1D6
330
6B
100
AcDbEntity
  8
0
100
AcDbCircle
 10
175.903
 20
182.738
 30
0.0
 40
4.022999999999997
100
AcDbArc
 50
4.785
 51
69.685
  0
LINE
  5
1D7
330
6B
100
AcDbEntity
  8
0
100
AcDbLine
 10
177.3
 20
186.512
 30
0.0
 11
161.831
 21
186.512
 31
0.0
  0
ARC
  5
1D8
330
6B
100
AcDbEntity
  8
0
100
AcDbCircle
 10
163.2279999999999
 20
182.738
 30
0.0
 40
4.022999999999997
100
AcDbArc
 50
110.315
 51
175.215
  0
ARC
  5
1D9
330
6B
100
AcDbEntity
  8
0
100
AcDbCircle
 10
163.2279999999999
 20
178.27
 30
0.0
 40
4.022999999999997
100
AcDbArc
 50
110.315
 51
175.215
  0
LINE
  5
1DA
330
6B
100
AcDbEntity
  8
0
100
AcDbLine
 10
177.3
 20
182.043
 30
0.0
 11
161.831
 21
182.043
 31
0.0
  0
ARC
  5
1DB
330
6B
100
AcDbEntity
  8
0
100
AcDbCircle
 10
175.903
 20
178.27
 30
0.0
 40
4.022999999999997
100
AcDbArc
 50
4.785
 51
69.685
  0
ARC
  5
1DC
330
6B
100
AcDbEntity
  8
0
100
AcDbCircle
 10
175.903
 20
173.801
 30
0.0
 40
4.022999999999997
100
AcDbArc
 50
4.785
 51
69.685
  0
LINE
  5
1DD
330
6B
100
AcDbEntity
  8
0
100
AcDbLine
 10
177.3
 20
177.574
 30
0.0
 11
161.831
 21
177.574
 31
0.0
  0
ARC
  5
1DE
330
6B
100
AcDbEntity
  8
0
100
AcDbCircle
 10
163.2279999999999
 20
173.801
 30
0.0
 40
4.022999999999997
100
AcDbArc
 50
110.315
 51
175.215
  0
ARC
  5
1DF
330
6B
100
AcDbEntity
  8
0
100
AcDbCircle
 10
163.2279999999999
 20
169.332
 30
0.0
 40
4.022999999999997
100
AcDbArc
 50
110.315
 51
175.215
  0
LINE
  5
1E0
330
6B
100
AcDbEntity
  8
0
100
AcDbLine
 10
177.3
 20
173.105
 30
0.0
 11
161.831
 21
173.105
 31
0.0
  0
ARC
  5
1E1
330
6B
100
AcDbEntity
  8
0
100
AcDbCircle
 10
175.903
 20
169.332
 30
0.0
 40
4.022999999999997
100
AcDbArc
 50
4.785
 51
69.685
  0
ARC
  5
1E2
330
6B
100
AcDbEntity
  8
0
100
AcDbCircle
 10
194.166
 20
169.332
 30
0.0
 40
4.022999999999997
100
AcDbArc
 50
110.315
 51
175.215
  0
LINE
  5
1E3
330
6B
100
AcDbEntity
  8
0
100
AcDbLine
 10
208.238
 20
173.105
 30
0.0
 11
192.769
 21
173.105
 31
0.0
  0
ARC
  5
1E4
330
6B
100
AcDbEntity
  8
0
100
AcDbCircle
 10
206.841
 20
169.332
 30
0.0
 40
4.022999999999997
100
AcDbArc
 50
4.785
 51
69.685
  0
ARC
  5
1E5
330
6B
100
AcDbEntity
  8
0
100
AcDbCircle
 10
206.841
 20
173.801
 30
0.0
 40
4.022999999999997
100
AcDbArc
 50
4.785
 51
69.685
  0
LINE
  5
1E6
330
6B
100
AcDbEntity
  8
0
100
AcDbLine
 10
208.238
 20
177.574
 30
0.0
 11
192.769
 21
177.574
 31
0.0
  0
ARC
  5
1E7
330
6B
100
AcDbEntity
  8
0
100
AcDbCircle
 10
194.166
 20
173.801
 30
0.0
 40
4.022999999999997
100
AcDbArc
 50
110.315
 51
175.215
  0
ARC
  5
1E8
330
6B
100
AcDbEntity
  8
0
100
AcDbCircle
 10
194.166
 20
178.27
 30
0.0
 40
4.022999999999997
100
AcDbArc
 50
110.315
 51
175.215
  0
LINE
  5
1E9
330
6B
100
AcDbEntity
  8
0
100
AcDbLine
 10
208.238
 20
182.043
 30
0.0
 11
192.769
 21
182.043
 31
0.0
  0
ARC
  5
1EA
330
6B
100
AcDbEntity
  8
0
100
AcDbCircle
 10
206.841
 20
178.27
 30
0.0
 40
4.022999999999997
100
AcDbArc
 50
4.785
 51
69.685
  0
ARC
  5
1EB
330
6B
100
AcDbEntity
  8
0
100
AcDbCircle
 10
153.272
 20
195.827
 30
0.0
 40
1.821999999999999
100
AcDbArc
 50
31.891
 51
148.109
  0
LINE
  5
1EC
330
6B
100
AcDbEntity
  8
0
100
AcDbLine
 10
41.555863
 20
157.31664
 30
0.0
 11
41.555863
 21
160.846076
 31
0.0
  0
ARC
  5
1ED
330
6B
100
AcDbEntity
  8
0
100
AcDbCircle
 10
41.12525699999999
 20
160.846076
 30
0.0
 40
1.145013999999997
100
AcDbArc
 50
292.090477
 51
247.909523
  0
CIRCLE
  5
1EE
330
6B
100
AcDbEntity
  8
0
100
AcDbCircle
 10
41.12525699999999
 20
160.846076
 30
0.0
 40
0.4306060000000003
  0
LINE
  5
1EF
330
6B
100
AcDbEntity
  8
0
100
AcDbLine
 10
40.694651
 20
157.31664
 30
0.0
 11
40.694651
 21
160.846076
 31
0.0
  0
ARC
  5
1F0
330
6B
100
AcDbEntity
  8
0
100
AcDbCircle
 10
41.12525699999999
 20
157.31664
 30
0.0
 40
0.4306060000000003
100
AcDbArc
 50
180.0
 51
0.0
  0
TEXT
  5
1F1
330
6B
100
AcDbEntity
  8
0
100
AcDbText
 10
33.163025
 20
144.856207
 30
0.0
 40
2.56
  1
MODEL
 41
0.748015
100
AcDbText
  0
LINE
  5
1F2
330
6B
100
AcDbEntity
  8
0
100
AcDbLine
 10
70.272605
 20
160.721423
 30
0.0
 11
72.547605
 21
160.721423
 31
0.0
  0
LINE
  5
1F3
330
6B
100
AcDbEntity
  8
0
100
AcDbLine
 10
54.594132
 20
163.673361
 30
0.0
 11
56.993202
 21
160.803753
 31
0.0
  0
LINE
  5
1F4
330
6B
100
AcDbEntity
  8
0
100
AcDbLine
 10
54.594132
 20
163.673361
 30
0.0
 11
53.73305
 21
164.703331
 31
0.0
  0
LINE
  5
1F5
330
6B
100
AcDbEntity
  8
0
100
AcDbLine
 10
56.993202
 20
164.544099
 30
0.0
 11
56.993202
 21
165.886596
 31
0.0
  0
LINE
  5
1F6
330
6B
100
AcDbEntity
  8
0
100
AcDbLine
 10
59.392272
 20
163.673361
 30
0.0
 11
60.253354
 21
164.703331
 31
0.0
  0
LINE
  5
1F7
330
6B
100
AcDbEntity
  8
0
100
AcDbLine
 10
113.323
 20
149.591394
 30
0.0
 11
30.479
 21
149.591394
 31
0.0
  0
LINE
  5
1F8
330
6B
100
AcDbEntity
  8
0
100
AcDbLine
 10
113.323
 20
175.222668
 30
0.0
 11
30.479
 21
175.222668
 31
0.0
  0
LINE
  5
1F9
330
6B
100
AcDbEntity
  8
0
100
AcDbLine
 10
113.323
 20
178.929133
 30
0.0
 11
30.479
 21
178.929133
 31
0.0
  0
LINE
  5
1FA
330
6B
100
AcDbEntity
  8
0
100
AcDbLine
 10
113.323
 20
189.037674
 30
0.0
 11
30.479
 21
189.037674
 31
0.0
  0
LINE
  5
1FB
330
6B
100
AcDbEntity
  8
0
100
AcDbLine
 10
76.02599999999998
 20
213.977
 30
0.0
 11
67.77599999999999
 21
213.977
 31
0.0
  0
LINE
  5
201
330
6B
100
AcDbEntity
  8
0
100
AcDbLine
 10
259.969
 20
112.133
 30
0.0
 11
265.045
 21
112.133
 31
0.0
  0
LINE
  5
202
330
6B
100
AcDbEntity
  8
0
100
AcDbLine
 10
264.138
 20
112.496
 30
0.0
 11
260.875
 21
112.496
 31
0.0
  0
LINE
  5
203
330
6B
100
AcDbEntity
  8
0
100
AcDbLine
 10
260.875
 20
104.701
 30
0.0
 11
260.875
 21
99.98800000000001
 31
0.0
  0
LINE
  5
204
330
6B
100
AcDbEntity
  8
0
100
AcDbLine
 10
260.875
 20
99.98800000000001
 30
0.0
 11
260.15
 21
99.98800000000001
 31
0.0
  0
LINE
  5
205
330
6B
100
AcDbEntity
  8
0
100
AcDbLine
 10
260.15
 20
99.98800000000001
 30
0.0
 11
260.15
 21
104.701
 31
0.0
  0
LINE
  5
206
330
6B
100
AcDbEntity
  8
0
100
AcDbLine
 10
264.864
 20
104.701
 30
0.0
 11
264.864
 21
99.98800000000001
 31
0.0
  0
LINE
  5
207
330
6B
100
AcDbEntity
  8
0
100
AcDbLine
 10
264.864
 20
99.98800000000001
 30
0.0
 11
264.138
 21
99.98800000000001
 31
0.0
  0
LINE
  5
208
330
6B
100
AcDbEntity
  8
0
100
AcDbLine
 10
264.138
 20
99.98800000000001
 30
0.0
 11
264.138
 21
104.701
 31
0.0
  0
LINE
  5
209
330
6B
100
AcDbEntity
  8
0
100
AcDbLine
 10
198.936245176595
 20
53.01468251920482
 30
0.0
 11
246.4468172901407
 21
53.01468251920482
 31
0.0
  0
ARC
  5
20A
330
6B
100
AcDbEntity
  8
0
 62
     3
100
AcDbCircle
 10
33.744
 20
146.943
 30
0.0
 40
6.702999999999997
100
AcDbArc
 50
180.0
 51
270.0
  0
ARC
  5
20B
330
6B
100
AcDbEntity
  8
0
 62
     3
100
AcDbCircle
 10
33.744
 20
146.943
 30
0.0
 40
3.266
100
AcDbArc
 50
180.0
 51
270.0
  0
LINE
  5
20C
330
6B
100
AcDbEntity
  8
0
 62
     3
100
AcDbLine
 10
30.479
 20
191.286
 30
0.0
 11
30.479
 21
146.943
 31
0.0
  0
ARC
  5
20D
330
6B
100
AcDbEntity
  8
0
 62
     3
100
AcDbCircle
 10
33.744
 20
191.286
 30
0.0
 40
3.266
100
AcDbArc
 50
90.0
 51
180.0
  0
LINE
  5
20E
330
6B
100
AcDbEntity
  8
0
 62
     3
100
AcDbLine
 10
110.057
 20
194.552
 30
0.0
 11
33.744
 21
194.552
 31
0.0
  0
ARC
  5
20F
330
6B
100
AcDbEntity
  8
0
 62
     3
100
AcDbCircle
 10
110.057
 20
191.286
 30
0.0
 40
3.266
100
AcDbArc
 50
0.0
 51
90.0
  0
LINE
  5
210
330
6B
100
AcDbEntity
  8
0
 62
     3
100
AcDbLine
 10
33.744
 20
143.677
 30
0.0
 11
110.057
 21
143.677
 31
0.0
  0
LINE
  5
211
330
6B
100
AcDbEntity
  8
0
 62
     3
100
AcDbLine
 10
113.323
 20
146.943
 30
0.0
 11
113.323
 21
191.286
 31
0.0
  0
ARC
  5
212
330
6B
100
AcDbEntity
  8
0
 62
     3
100
AcDbCircle
 10
110.057
 20
146.943
 30
0.0
 40
3.266
100
AcDbArc
 50
270.0
 51
0.0
  0
LINE
  5
213
330
6B
100
AcDbEntity
  8
0
 62
     3
100
AcDbLine
 10
33.744
 20
140.239
 30
0.0
 11
110.057
 21
140.239
 31
0.0
  0
ARC
  5
214
330
6B
100
AcDbEntity
  8
0
 62
     3
100
AcDbCircle
 10
110.057
 20
146.943
 30
0.0
 40
6.702999999999997
100
AcDbArc
 50
270.0
 51
0.0
  0
LINE
  5
215
330
6B
100
AcDbEntity
  8
0
 62
     3
100
AcDbLine
 10
116.76
 20
146.943
 30
0.0
 11
116.76
 21
191.286
 31
0.0
  0
ARC
  5
216
330
6B
100
AcDbEntity
  8
0
 62
     3
100
AcDbCircle
 10
110.057
 20
191.286
 30
0.0
 40
6.702999999999997
100
AcDbArc
 50
0.0
 51
90.0
  0
LINE
  5
217
330
6B
100
AcDbEntity
  8
0
 62
     3
100
AcDbLine
 10
27.041
 20
191.286
 30
0.0
 11
27.041
 21
146.943
 31
0.0
  0
LINE
  5
218
330
6B
100
AcDbEntity
  8
0
 62
     3
100
AcDbLine
 10
110.057
 20
197.989
 30
0.0
 11
33.744
 21
197.989
 31
0.0
  0
ARC
  5
219
330
6B
100
AcDbEntity
  8
0
 62
     3
100
AcDbCircle
 10
33.744
 20
191.286
 30
0.0
 40
6.702999999999997
100
AcDbArc
 50
90.0
 51
180.0
  0
LINE
  5
21A
330
6B
100
AcDbEntity
  8
0
 62
     3
100
AcDbLine
 10
42.854
 20
136.286
 30
0.0
 11
35.635
 21
136.286
 31
0.0
  0
LINE
  5
21B
330
6B
100
AcDbEntity
  8
0
 62
     3
100
AcDbLine
 10
43.348
 20
140.239
 30
0.0
 11
42.854
 21
136.286
 31
0.0
  0
LINE
  5
21C
330
6B
100
AcDbEntity
  8
0
 62
     3
100
AcDbLine
 10
35.635
 20
136.286
 30
0.0
 11
35.141
 21
140.239
 31
0.0
  0
LINE
  5
21D
330
6B
100
AcDbEntity
  8
0
 62
     3
100
AcDbLine
 10
100.948
 20
136.286
 30
0.0
 11
108.166
 21
136.286
 31
0.0
  0
LINE
  5
21E
330
6B
100
AcDbEntity
  8
0
 62
     3
100
AcDbLine
 10
100.453
 20
140.239
 30
0.0
 11
100.948
 21
136.286
 31
0.0
  0
LINE
  5
21F
330
6B
100
AcDbEntity
  8
0
 62
     3
100
AcDbLine
 10
108.166
 20
136.286
 30
0.0
 11
108.66
 21
140.239
 31
0.0
  0
LINE
  5
220
330
6B
100
AcDbEntity
  8
0
 62
     3
100
AcDbLine
 10
219.454
 20
142.13
 30
0.0
 11
219.454
 21
196.7859999999999
 31
0.0
  0
LINE
  5
221
330
6B
100
AcDbEntity
  8
0
 62
     3
100
AcDbLine
 10
206.219
 20
136.286
 30
0.0
 11
213.438
 21
136.286
 31
0.0
  0
LINE
  5
222
330
6B
100
AcDbEntity
  8
0
 62
     3
100
AcDbLine
 10
205.489
 20
142.13
 30
0.0
 11
206.219
 21
136.286
 31
0.0
  0
LINE
  5
223
330
6B
100
AcDbEntity
  8
0
 62
     3
100
AcDbLine
 10
213.438
 20
136.286
 30
0.0
 11
214.169
 21
142.13
 31
0.0
  0
LINE
  5
224
330
6B
100
AcDbEntity
  8
0
 62
     3
100
AcDbLine
 10
158.094
 20
136.286
 30
0.0
 11
165.313
 21
136.286
 31
0.0
  0
LINE
  5
225
330
6B
100
AcDbEntity
  8
0
 62
     3
100
AcDbLine
 10
157.364
 20
142.13
 30
0.0
 11
158.094
 21
136.286
 31
0.0
  0
LINE
  5
226
330
6B
100
AcDbEntity
  8
0
 62
     3
100
AcDbLine
 10
165.313
 20
136.286
 30
0.0
 11
166.044
 21
142.13
 31
0.0
  0
LINE
  5
227
330
6B
100
AcDbEntity
  8
0
 62
     3
100
AcDbLine
 10
147.61
 20
142.13
 30
0.0
 11
219.454
 21
142.13
 31
0.0
  0
LINE
  5
228
330
6B
100
AcDbEntity
  8
0
 62
     3
100
AcDbLine
 10
147.61
 20
196.7859999999999
 30
0.0
 11
219.454
 21
196.7859999999999
 31
0.0
  0
ARC
  5
229
330
6B
100
AcDbEntity
  8
0
 62
     3
100
AcDbCircle
 10
140.391
 20
142.13
 30
0.0
 40
1.719
100
AcDbArc
 50
180.0
 51
270.0
  0
LINE
  5
22A
330
6B
100
AcDbEntity
  8
0
 62
     3
100
AcDbLine
 10
138.673
 20
142.13
 30
0.0
 11
138.673
 21
196.7859999999999
 31
0.0
  0
ARC
  5
22B
330
6B
100
AcDbEntity
  8
0
 62
     3
100
AcDbCircle
 10
140.391
 20
196.7859999999999
 30
0.0
 40
1.719
100
AcDbArc
 50
90.0
 51
180.0
  0
LINE
  5
22C
330
6B
100
AcDbEntity
  8
0
 62
     3
100
AcDbLine
 10
146.923
 20
198.505
 30
0.0
 11
140.391
 21
198.505
 31
0.0
  0
ARC
  5
22D
330
6B
100
AcDbEntity
  8
0
 62
     3
100
AcDbCircle
 10
146.923
 20
197.818
 30
0.0
 40
0.6879999999999999
100
AcDbArc
 50
0.0
 51
90.0
  0
LINE
  5
22E
330
6B
100
AcDbEntity
  8
0
 62
     3
100
AcDbLine
 10
140.391
 20
140.411
 30
0.0
 11
146.923
 21
140.411
 31
0.0
  0
LINE
  5
22F
330
6B
100
AcDbEntity
  8
0
 62
     3
100
AcDbLine
 10
147.61
 20
141.099
 30
0.0
 11
147.61
 21
197.818
 31
0.0
  0
ARC
  5
230
330
6B
100
AcDbEntity
  8
0
 62
     3
100
AcDbCircle
 10
146.923
 20
141.099
 30
0.0
 40
0.6879999999999999
100
AcDbArc
 50
270.0
 51
0.0
  0
LINE
  5
231
330
6B
100
AcDbEntity
  8
0
 62
     3
100
AcDbLine
 10
219.454
 20
159.318
 30
0.0
 11
147.61
 21
159.318
 31
0.0
  0
LINE
  5
232
330
6B
100
AcDbEntity
  8
0
 62
     3
100
AcDbLine
 10
190.1909999999999
 20
169.668
 30
0.0
 11
210.816
 21
169.668
 31
0.0
  0
LINE
  5
233
330
6B
100
AcDbEntity
  8
0
 62
     3
100
AcDbLine
 10
190.1909999999999
 20
174.137
 30
0.0
 11
210.816
 21
174.137
 31
0.0
  0
LINE
  5
234
330
6B
100
AcDbEntity
  8
0
 62
     3
100
AcDbLine
 10
190.1909999999999
 20
178.605
 30
0.0
 11
210.816
 21
178.605
 31
0.0
  0
LINE
  5
235
330
6B
100
AcDbEntity
  8
0
 62
     3
100
AcDbLine
 10
190.1909999999999
 20
183.074
 30
0.0
 11
210.816
 21
183.074
 31
0.0
  0
LINE
  5
236
330
6B
100
AcDbEntity
  8
0
 62
     3
100
AcDbLine
 10
159.253
 20
169.668
 30
0.0
 11
179.878
 21
169.668
 31
0.0
  0
LINE
  5
237
330
6B
100
AcDbEntity
  8
0
 62
     3
100
AcDbLine
 10
159.253
 20
174.137
 30
0.0
 11
179.878
 21
174.137
 31
0.0
  0
LINE
  5
238
330
6B
100
AcDbEntity
  8
0
 62
     3
100
AcDbLine
 10
159.253
 20
178.605
 30
0.0
 11
179.878
 21
178.605
 31
0.0
  0
LINE
  5
239
330
6B
100
AcDbEntity
  8
0
 62
     3
100
AcDbLine
 10
159.253
 20
183.074
 30
0.0
 11
179.878
 21
183.074
 31
0.0
  0
ARC
  5
23A
330
6B
100
AcDbEntity
  8
0
 62
     3
100
AcDbCircle
 10
333.319
 20
146.943
 30
0.0
 40
6.702999999999997
100
AcDbArc
 50
270.0
 51
0.0
  0
ARC
  5
23B
330
6B
100
AcDbEntity
  8
0
 62
     3
100
AcDbCircle
 10
257.007
 20
146.943
 30
0.0
 40
6.702999999999997
100
AcDbArc
 50
180.0
 51
270.0
  0
LINE
  5
23C
330
6B
100
AcDbEntity
  8
0
 62
     3
100
AcDbLine
 10
250.304
 20
146.943
 30
0.0
 11
250.304
 21
191.286
 31
0.0
  0
ARC
  5
23D
330
6B
100
AcDbEntity
  8
0
 62
     3
100
AcDbCircle
 10
257.007
 20
191.286
 30
0.0
 40
6.702999999999997
100
AcDbArc
 50
90.0
 51
180.0
  0
LINE
  5
23E
330
6B
100
AcDbEntity
  8
0
 62
     3
100
AcDbLine
 10
340.023
 20
191.286
 30
0.0
 11
340.023
 21
146.943
 31
0.0
  0
LINE
  5
23F
330
6B
100
AcDbEntity
  8
0
 62
     3
100
AcDbLine
 10
257.007
 20
197.989
 30
0.0
 11
333.319
 21
197.989
 31
0.0
  0
ARC
  5
240
330
6B
100
AcDbEntity
  8
0
 62
     3
100
AcDbCircle
 10
333.319
 20
191.286
 30
0.0
 40
6.702999999999997
100
AcDbArc
 50
0.0
 51
90.0
  0
LINE
  5
241
330
6B
100
AcDbEntity
  8
0
 62
     3
100
AcDbLine
 10
331.429
 20
136.286
 30
0.0
 11
331.923
 21
140.239
 31
0.0
  0
LINE
  5
242
330
6B
100
AcDbEntity
  8
0
 62
     3
100
AcDbLine
 10
266.61
 20
140.239
 30
0.0
 11
266.116
 21
136.286
 31
0.0
  0
LINE
  5
243
330
6B
100
AcDbEntity
  8
0
 62
     3
100
AcDbLine
 10
258.898
 20
136.286
 30
0.0
 11
258.403
 21
140.239
 31
0.0
  0
LINE
  5
244
330
6B
100
AcDbEntity
  8
0
 62
     3
100
AcDbLine
 10
300.344
 20
174.137
 30
0.0
 11
320.969
 21
174.137
 31
0.0
  0
LINE
  5
245
330
6B
100
AcDbEntity
  8
0
 62
     3
100
AcDbLine
 10
300.344
 20
178.605
 30
0.0
 11
320.969
 21
178.605
 31
0.0
  0
LINE
  5
246
330
6B
100
AcDbEntity
  8
0
 62
     3
100
AcDbLine
 10
269.406
 20
174.137
 30
0.0
 11
290.031
 21
174.137
 31
0.0
  0
LINE
  5
247
330
6B
100
AcDbEntity
  8
0
 62
     3
100
AcDbLine
 10
269.406
 20
178.605
 30
0.0
 11
290.031
 21
178.605
 31
0.0
  0
LINE
  5
248
330
6B
100
AcDbEntity
  8
0
 62
     3
100
AcDbLine
 10
219.454
 20
178.605
 30
0.0
 11
220.485
 21
178.605
 31
0.0
  0
ARC
  5
249
330
6B
100
AcDbEntity
  8
0
 62
     3
100
AcDbCircle
 10
212.896
 20
178.202
 30
0.0
 40
7.599999999999997
100
AcDbArc
 50
3.041999999999998
 51
30.357
  0
LINE
  5
24A
330
6B
100
AcDbEntity
  8
0
 62
     3
100
AcDbLine
 10
219.454
 20
183.074
 30
0.0
 11
220.485
 21
183.074
 31
0.0
  0
ARC
  5
24B
330
6B
100
AcDbEntity
  8
0
 62
     3
100
AcDbCircle
 10
212.896
 20
182.671
 30
0.0
 40
7.599999999999997
100
AcDbArc
 50
3.041999999999998
 51
30.357
  0
LINE
  5
24C
330
6B
100
AcDbEntity
  8
0
 62
     3
100
AcDbLine
 10
333.319
 20
140.239
 30
0.0
 11
328.024
 21
140.239
 31
0.0
  0
LINE
  5
24D
330
6B
100
AcDbEntity
  8
0
 62
     3
100
AcDbLine
 10
328.024
 20
136.286
 30
0.0
 11
331.429
 21
136.286
 31
0.0
  0
ARC
  5
24E
330
6B
100
AcDbEntity
  8
0
 62
     3
100
AcDbCircle
 10
259.539
 20
111.045
 30
0.0
 40
1.169999999999999
100
AcDbArc
 50
291.595
 51
68.405
  0
ARC
  5
24F
330
6B
100
AcDbEntity
  8
0
 62
     3
100
AcDbCircle
 10
266.723
 20
104.98
 30
0.0
 40
8.39
100
AcDbArc
 50
143.61
 51
181.907
  0
ARC
  5
250
330
6B
100
AcDbEntity
  8
0
 62
     3
100
AcDbCircle
 10
265.475
 20
111.045
 30
0.0
 40
1.169999999999999
100
AcDbArc
 50
111.595
 51
248.405
  0
ARC
  5
251
330
6B
100
AcDbEntity
  8
0
 62
     3
100
AcDbCircle
 10
258.291
 20
104.98
 30
0.0
 40
8.39
100
AcDbArc
 50
358.093
 51
36.39
  0
LINE
  5
252
330
6B
100
AcDbEntity
  8
0
 62
     3
100
AcDbLine
 10
261.238
 20
115.758
 30
0.0
 11
263.776
 21
115.758
 31
0.0
  0
LINE
  5
253
330
6B
100
AcDbEntity
  8
0
 62
     3
100
AcDbLine
 10
263.776
 20
115.758
 30
0.0
 11
264.138
 21
112.496
 31
0.0
  0
LINE
  5
254
330
6B
100
AcDbEntity
  8
0
 62
     3
100
AcDbLine
 10
260.875
 20
112.496
 30
0.0
 11
261.238
 21
115.758
 31
0.0
  0
LINE
  5
255
330
6B
100
AcDbEntity
  8
0
 62
     3
100
AcDbLine
 10
260.875
 20
112.496
 30
0.0
 11
259.969
 21
112.496
 31
0.0
  0
LINE
  5
256
330
6B
100
AcDbEntity
  8
0
 62
     3
100
AcDbLine
 10
259.969
 20
112.496
 30
0.0
 11
259.969
 21
112.133
 31
0.0
  0
LINE
  5
257
330
6B
100
AcDbEntity
  8
0
 62
     3
100
AcDbLine
 10
265.045
 20
112.133
 30
0.0
 11
265.045
 21
112.496
 31
0.0
  0
LINE
  5
258
330
6B
100
AcDbEntity
  8
0
 62
     3
100
AcDbLine
 10
265.045
 20
112.496
 30
0.0
 11
264.138
 21
112.496
 31
0.0
  0
LINE
  5
259
330
6B
100
AcDbEntity
  8
0
 62
     3
100
AcDbLine
 10
258.338
 20
104.701
 30
0.0
 11
266.676
 21
104.701
 31
0.0
  0
LINE
  5
25A
330
6B
100
AcDbEntity
  8
0
 62
     3
100
AcDbLine
 10
263.595
 20
120.468
 30
0.0
 11
263.595
 21
115.758
 31
0.0
  0
LINE
  5
25B
330
6B
100
AcDbEntity
  8
0
 62
     3
100
AcDbLine
 10
261.419
 20
119.48
 30
0.0
 11
261.419
 21
115.758
 31
0.0
  0
LINE
  5
25C
330
6B
100
AcDbEntity
  8
0
 62
     3
100
AcDbLine
 10
261.458
 20
122.301876
 30
0.0
 11
261.458
 21
152.446
 31
0.0
  0
LINE
  5
25D
330
6B
100
AcDbEntity
  8
0
 62
     3
100
AcDbLine
 10
263.606
 20
121.694
 30
0.0
 11
263.606
 21
152.446
 31
0.0
  0
LINE
  5
25E
330
6B
100
AcDbEntity
  8
0
 62
     3
100
AcDbLine
 10
261.458
 20
136.286
 30
0.0
 11
258.898
 21
136.286
 31
0.0
  0
LINE
  5
25F
330
6B
100
AcDbEntity
  8
0
 62
     3
100
AcDbLine
 10
261.458
 20
140.239
 30
0.0
 11
257.007
 21
140.239
 31
0.0
  0
LINE
  5
260
330
6B
100
AcDbEntity
  8
0
 62
     3
100
AcDbLine
 10
266.116
 20
136.286
 30
0.0
 11
263.606
 21
136.286
 31
0.0
  0
LINE
  5
261
330
6B
100
AcDbEntity
  8
0
 62
     3
100
AcDbLine
 10
324.157
 20
140.239
 30
0.0
 11
263.606
 21
140.239
 31
0.0
  0
LINE
  5
262
330
6B
100
AcDbEntity
  8
0
 62
     3
100
AcDbLine
 10
328.024
 20
129.100928
 30
0.0
 11
328.024
 21
163.79
 31
0.0
  0
LINE
  5
263
330
6B
100
AcDbEntity
  8
0
 62
     3
100
AcDbLine
 10
324.157
 20
129.717447
 30
0.0
 11
324.157
 21
163.79
 31
0.0
  0
ARC
  5
264
330
6B
100
AcDbEntity
  8
0
 62
     3
100
AcDbCircle
 10
326.091
 20
163.79
 30
0.0
 40
2.063
100
AcDbArc
 50
0.0
 51
180.0
  0
ARC
  5
265
330
6B
100
AcDbEntity
  8
0
 62
     3
100
AcDbCircle
 10
326.091
 20
163.79
 30
0.0
 40
3.266
100
AcDbArc
 50
309.1670000000001
 51
230.833
  0
ARC
  5
266
330
6B
100
AcDbEntity
  8
0
 62
     3
100
AcDbCircle
 10
326.091
 20
152.446
 30
0.0
 40
3.266
100
AcDbArc
 50
126.307
 51
230.833
  0
ARC
  5
267
330
6B
100
AcDbEntity
  8
0
 62
     3
100
AcDbCircle
 10
326.091
 20
152.446
 30
0.0
 40
3.266
100
AcDbArc
 50
309.1670000000001
 51
53.69299999999999
  0
ARC
  5
268
330
6B
100
AcDbEntity
  8
0
 62
     3
100
AcDbCircle
 10
326.091
 20
152.446
 30
0.0
 40
2.063
100
AcDbArc
 50
159.636
 51
180.0
  0
LINE
  5
269
330
6B
100
AcDbEntity
  8
0
 62
     3
100
AcDbLine
 10
322.438
 20
115.973
 30
0.0
 11
306.669
 21
115.973
 31
0.0
  0
ARC
  5
26A
330
6B
100
AcDbEntity
  8
0
 62
     3
100
AcDbCircle
 10
322.438
 20
117.692
 30
0.0
 40
1.719
100
AcDbArc
 50
270.0
 51
0.0
  0
LINE
  5
26B
330
6B
100
AcDbEntity
  8
0
 62
     3
100
AcDbLine
 10
322.868
 20
112.106
 30
0.0
 11
306.669
 21
112.106
 31
0.0
  0
ARC
  5
26C
330
6B
100
AcDbEntity
  8
0
 62
     3
100
AcDbCircle
 10
322.868
 20
117.262
 30
0.0
 40
5.155999999999997
100
AcDbArc
 50
270.0
 51
0.0
  0
LINE
  5
26D
330
6B
100
AcDbEntity
  8
0
 62
     3
100
AcDbLine
 10
324.157
 20
127.168847
 30
0.0
 11
324.157
 21
117.692
 31
0.0
  0
LINE
  5
26E
330
6B
100
AcDbEntity
  8
0
 62
     3
100
AcDbLine
 10
67.77599999999999
 20
213.977
 30
0.0
 11
67.77599999999999
 21
215.696
 31
0.0
  0
LINE
  5
26F
330
6B
100
AcDbEntity
  8
0
 62
     3
100
AcDbLine
 10
76.02599999999998
 20
215.696
 30
0.0
 11
67.77599999999999
 21
215.696
 31
0.0
  0
LINE
  5
270
330
6B
100
AcDbEntity
  8
0
 62
     3
100
AcDbLine
 10
76.02599999999998
 20
213.977
 30
0.0
 11
76.02599999999998
 21
215.696
 31
0.0
  0
LINE
  5
271
330
6B
100
AcDbEntity
  8
0
 62
     3
100
AcDbLine
 10
61.588
 20
197.989
 30
0.0
 11
61.588
 21
200.224
 31
0.0
  0
ARC
  5
272
330
6B
100
AcDbEntity
  8
0
 62
     3
100
AcDbCircle
 10
50.13
 20
213.647
 30
0.0
 40
17.649
100
AcDbArc
 50
310.484
 51
1.06
  0
ARC
  5
273
330
6B
100
AcDbEntity
  8
0
 62
     3
100
AcDbCircle
 10
93.67200000000002
 20
213.647
 30
0.0
 40
17.649
100
AcDbArc
 50
178.94
 51
229.516
  0
LINE
  5
274
330
6B
100
AcDbEntity
  8
0
 62
     3
100
AcDbLine
 10
82.21299999999997
 20
197.989
 30
0.0
 11
82.21299999999997
 21
200.224
 31
0.0
  0
ARC
  5
275
330
6B
100
AcDbEntity
  8
0
 62
     3
100
AcDbCircle
 10
172.018
 20
205.598
 30
0.0
 40
1.857
100
AcDbArc
 50
95.56099999999998
 51
165.239
  0
LINE
  5
276
330
6B
100
AcDbEntity
  8
0
 62
     3
100
AcDbLine
 10
167.912
 20
198.852
 30
0.0
 11
170.222
 21
206.071
 31
0.0
  0
LINE
  5
277
330
6B
100
AcDbEntity
  8
0
 62
     3
100
AcDbLine
 10
185.271
 20
215.696
 30
0.0
 11
177.021
 21
215.696
 31
0.0
  0
LINE
  5
278
330
6B
100
AcDbEntity
  8
0
 62
     3
100
AcDbLine
 10
202.631
 20
198.852
 30
0.0
 11
200.321
 21
206.071
 31
0.0
  0
LINE
  5
279
330
6B
100
AcDbEntity
  8
0
 62
     3
100
AcDbLine
 10
185.271
 20
215.696
 30
0.0
 11
193.521
 21
215.696
 31
0.0
  0
LINE
  5
27A
330
6B
100
AcDbEntity
  8
0
 62
     3
100
AcDbLine
 10
161.037
 20
198.852
 30
0.0
 11
161.037
 21
197.821
 31
0.0
  0
LINE
  5
27B
330
6B
100
AcDbEntity
  8
0
 62
     3
100
AcDbLine
 10
152.443
 20
215.693
 30
0.0
 11
152.443
 21
214.318
 31
0.0
  0
ARC
  5
27C
330
6B
100
AcDbEntity
  8
0
 62
     3
100
AcDbCircle
 10
183.438
 20
199.594
 30
0.0
 40
22.471
100
AcDbArc
 50
152.847
 51
184.5329999999999
  0
LINE
  5
27D
330
6B
100
AcDbEntity
  8
0
 62
     3
100
AcDbLine
 10
152.443
 20
214.318
 30
0.0
 11
157.943
 21
214.318
 31
0.0
  0
ARC
  5
27E
330
6B
100
AcDbEntity
  8
0
 62
     3
100
AcDbCircle
 10
155.835
 20
209.561
 30
0.0
 40
5.202999999999998
100
AcDbArc
 50
3.003999999999998
 51
66.09999999999999
  0
ARC
  5
27F
330
6B
100
AcDbEntity
  8
0
 62
     3
100
AcDbCircle
 10
232.241
 20
182.998
 30
0.0
 40
76.09799999999999
100
AcDbArc
 50
159.351
 51
168.77
  0
LINE
  5
280
330
6B
100
AcDbEntity
  8
0
 62
     3
100
AcDbLine
 10
157.599
 20
197.818
 30
0.0
 11
157.599
 21
196.79
 31
0.0
  0
LINE
  5
281
330
6B
100
AcDbEntity
  8
0
 62
     3
100
AcDbLine
 10
152.443
 20
215.693
 30
0.0
 11
158.287
 21
215.693
 31
0.0
  0
ARC
  5
282
330
6B
100
AcDbEntity
  8
0
 62
     3
100
AcDbCircle
 10
157.126
 20
209.472
 30
0.0
 40
6.327999999999997
100
AcDbArc
 50
3.418
 51
79.43000000000002
  0
LINE
  5
283
330
6B
100
AcDbEntity
  8
0
 62
     3
100
AcDbLine
 10
167.912
 20
198.852
 30
0.0
 11
167.912
 21
196.7859999999999
 31
0.0
  0
ARC
  5
284
330
6B
100
AcDbEntity
  8
0
 62
     3
100
AcDbCircle
 10
198.525
 20
205.598
 30
0.0
 40
1.857
100
AcDbArc
 50
14.761
 51
84.43899999999997
  0
LINE
  5
285
330
6B
100
AcDbEntity
  8
0
 62
     3
100
AcDbLine
 10
171.838
 20
207.446
 30
0.0
 11
198.705
 21
207.446
 31
0.0
  0
LINE
  5
286
330
6B
100
AcDbEntity
  8
0
 62
     3
100
AcDbLine
 10
218.099
 20
215.693
 30
0.0
 11
218.099
 21
214.318
 31
0.0
  0
LINE
  5
287
330
6B
100
AcDbEntity
  8
0
 62
     3
100
AcDbLine
 10
218.099
 20
214.318
 30
0.0
 11
212.599
 21
214.318
 31
0.0
  0
ARC
  5
288
330
6B
100
AcDbEntity
  8
0
 62
     3
100
AcDbCircle
 10
214.707
 20
209.561
 30
0.0
 40
5.202999999999998
100
AcDbArc
 50
113.9
 51
176.996
  0
LINE
  5
289
330
6B
100
AcDbEntity
  8
0
 62
     3
100
AcDbLine
 10
218.099
 20
215.693
 30
0.0
 11
212.256
 21
215.693
 31
0.0
  0
ARC
  5
28A
330
6B
100
AcDbEntity
  8
0
 62
     3
100
AcDbCircle
 10
213.417
 20
209.472
 30
0.0
 40
6.327999999999997
100
AcDbArc
 50
100.57
 51
176.582
  0
ARC
  5
28B
330
6B
100
AcDbEntity
  8
0
 62
     3
100
AcDbCircle
 10
187.105
 20
199.594
 30
0.0
 40
22.471
100
AcDbArc
 50
355.467
 51
27.153
  0
ARC
  5
28C
330
6B
100
AcDbEntity
  8
0
 62
     3
100
AcDbCircle
 10
138.302
 20
182.998
 30
0.0
 40
76.09799999999999
100
AcDbArc
 50
11.23
 51
20.649
  0
LINE
  5
28D
330
6B
100
AcDbEntity
  8
0
 62
     3
100
AcDbLine
 10
212.943
 20
197.818
 30
0.0
 11
212.943
 21
196.79
 31
0.0
  0
LINE
  5
28E
330
6B
100
AcDbEntity
  8
0
 62
     3
100
AcDbLine
 10
202.631
 20
198.852
 30
0.0
 11
202.631
 21
196.7859999999999
 31
0.0
  0
ARC
  5
28F
330
6B
100
AcDbEntity
  8
0
 62
     3
100
AcDbCircle
 10
177.73
 20
196.446
 30
0.0
 40
19.25
100
AcDbArc
 50
89.66700000000001
 51
140.354
  0
ARC
  5
290
330
6B
100
AcDbEntity
  8
0
 62
     3
100
AcDbCircle
 10
192.813
 20
196.446
 30
0.0
 40
19.25
100
AcDbArc
 50
39.646
 51
90.333
  0
LINE
  5
291
330
6B
100
AcDbEntity
  8
0
 62
     3
100
AcDbLine
 10
291.038
 20
213.977
 30
0.0
 11
291.038
 21
215.696
 31
0.0
  0
LINE
  5
292
330
6B
100
AcDbEntity
  8
0
 62
     3
100
AcDbLine
 10
299.288
 20
215.696
 30
0.0
 11
291.038
 21
215.696
 31
0.0
  0
LINE
  5
293
330
6B
100
AcDbEntity
  8
0
 62
     3
100
AcDbLine
 10
299.288
 20
213.977
 30
0.0
 11
299.288
 21
215.696
 31
0.0
  0
LINE
  5
294
330
6B
100
AcDbEntity
  8
0
 62
     3
100
AcDbLine
 10
284.851
 20
197.989
 30
0.0
 11
284.851
 21
200.224
 31
0.0
  0
ARC
  5
295
330
6B
100
AcDbEntity
  8
0
 62
     3
100
AcDbCircle
 10
273.392
 20
213.647
 30
0.0
 40
17.649
100
AcDbArc
 50
310.484
 51
1.06
  0
ARC
  5
296
330
6B
100
AcDbEntity
  8
0
 62
     3
100
AcDbCircle
 10
316.934
 20
213.647
 30
0.0
 40
17.649
100
AcDbArc
 50
178.94
 51
229.516
  0
LINE
  5
297
330
6B
100
AcDbEntity
  8
0
 62
     3
100
AcDbLine
 10
305.476
 20
197.989
 30
0.0
 11
305.476
 21
200.224
 31
0.0
  0
LINE
  5
298
330
6B
100
AcDbEntity
  8
0
 62
     3
100
AcDbLine
 10
322.868
 20
92.59999999999999
 30
0.0
 11
311.138
 21
92.59999999999999
 31
0.0
  0
ARC
  5
299
330
6B
100
AcDbEntity
  8
0
 62
     3
100
AcDbCircle
 10
322.868
 20
97.756
 30
0.0
 40
5.155999999999997
100
AcDbArc
 50
270.0
 51
0.0
  0
LINE
  5
29A
330
6B
100
AcDbEntity
  8
0
 62
     3
100
AcDbLine
 10
322.438
 20
96.46700000000002
 30
0.0
 11
311.138
 21
96.46700000000002
 31
0.0
  0
ARC
  5
29B
330
6B
100
AcDbEntity
  8
0
 62
     3
100
AcDbCircle
 10
322.438
 20
98.18600000000001
 30
0.0
 40
1.719
100
AcDbArc
 50
270.0
 51
0.0
  0
LINE
  5
29C
330
6B
100
AcDbEntity
  8
0
 62
     3
100
AcDbLine
 10
324.157
 20
112.533
 30
0.0
 11
324.157
 21
98.18600000000001
 31
0.0
  0
LINE
  5
29D
330
6B
100
AcDbEntity
  8
0
 62
     3
100
AcDbLine
 10
311.138
 20
92.08299999999999
 30
0.0
 11
311.138
 21
96.98300000000001
 31
0.0
  0
LINE
  5
29E
330
6B
100
AcDbEntity
  8
0
 62
     3
100
AcDbLine
 10
311.138
 20
96.98300000000001
 30
0.0
 11
293.638
 21
96.98300000000001
 31
0.0
  0
LINE
  5
29F
330
6B
100
AcDbEntity
  8
0
 62
     3
100
AcDbLine
 10
311.138
 20
92.08299999999999
 30
0.0
 11
293.638
 21
92.08299999999999
 31
0.0
  0
LINE
  5
2A0
330
6B
100
AcDbEntity
  8
0
 62
     3
100
AcDbLine
 10
293.638
 20
92.08299999999999
 30
0.0
 11
293.638
 21
96.98300000000001
 31
0.0
  0
LINE
  5
2A1
330
6B
100
AcDbEntity
  8
0
 62
     3
100
AcDbLine
 10
293.573
 20
93.23999999999999
 30
0.0
 11
287.688
 21
93.23999999999999
 31
0.0
  0
LINE
  5
2A2
330
6B
100
AcDbEntity
  8
0
 62
     3
100
AcDbLine
 10
287.688
 20
93.23999999999999
 30
0.0
 11
279.203
 21
91.631
 31
0.0
  0
LINE
  5
2A3
330
6B
100
AcDbEntity
  8
0
 62
     3
100
AcDbLine
 10
279.157
 20
91.676
 30
0.0
 11
276.655
 21
94.09200000000002
 31
0.0
  0
LINE
  5
2A4
330
6B
100
AcDbEntity
  8
0
 62
     3
100
AcDbLine
 10
277.936
 20
97.41800000000001
 30
0.0
 11
276.633
 21
94.19400000000001
 31
0.0
  0
LINE
  5
2A5
330
6B
100
AcDbEntity
  8
0
 62
     3
100
AcDbLine
 10
286.365
 20
99.45999999999999
 30
0.0
 11
277.96
 21
97.47799999999999
 31
0.0
  0
LINE
  5
2A6
330
6B
100
AcDbEntity
  8
0
 62
     3
100
AcDbLine
 10
291.742
 20
101.854
 30
0.0
 11
286.365
 21
99.45999999999999
 31
0.0
  0
LINE
  5
2A7
330
6B
100
AcDbEntity
  8
0
 62
     3
100
AcDbLine
 10
293.016
 20
99.15
 30
0.0
 11
289.922
 21
96.965
 31
0.0
  0
LINE
  5
2A8
330
6B
100
AcDbEntity
  8
0
 62
     3
100
AcDbLine
 10
291.331
 20
102.936
 30
0.0
 11
293.324
 21
98.46
 31
0.0
  0
LINE
  5
2A9
330
6B
100
AcDbEntity
  8
0
 62
     3
100
AcDbLine
 10
309.311
 20
105.578
 30
0.0
 11
293.324
 21
98.46
 31
0.0
  0
LINE
  5
2AA
330
6B
100
AcDbEntity
  8
0
 62
     3
100
AcDbLine
 10
307.318
 20
110.054
 30
0.0
 11
291.331
 21
102.936
 31
0.0
  0
LINE
  5
2AB
330
6B
100
AcDbEntity
  8
0
 62
     3
100
AcDbLine
 10
307.318
 20
110.054
 30
0.0
 11
309.311
 21
105.578
 31
0.0
  0
LINE
  5
2AC
330
6B
100
AcDbEntity
  8
0
 62
     3
100
AcDbLine
 10
293.638
 20
96.22799999999999
 30
0.0
 11
287.824
 21
97.38100000000001
 31
0.0
  0
LINE
  5
2AD
330
6B
100
AcDbEntity
  8
0
 62
     3
100
AcDbLine
 10
279.589
 20
93.73299999999998
 30
0.0
 11
287.824
 21
97.38100000000001
 31
0.0
  0
LINE
  5
2AE
330
6B
100
AcDbEntity
  8
0
 62
     3
100
AcDbLine
 10
279.589
 20
93.73299999999998
 30
0.0
 11
276.655
 21
94.09200000000002
 31
0.0
  0
LINE
  5
2AF
330
6B
100
AcDbEntity
  8
0
 62
     3
100
AcDbLine
 10
279.168
 20
95.715
 30
0.0
 11
276.633
 21
94.19400000000001
 31
0.0
  0
LINE
  5
2B0
330
6B
100
AcDbEntity
  8
0
 62
     3
100
AcDbLine
 10
279.168
 20
95.715
 30
0.0
 11
284.083
 21
95.724
 31
0.0
  0
LINE
  5
2B1
330
6B
100
AcDbEntity
  8
0
 62
     3
100
AcDbLine
 10
306.669
 20
111.59
 30
0.0
 11
306.669
 21
116.49
 31
0.0
  0
LINE
  5
2B2
330
6B
100
AcDbEntity
  8
0
 62
     3
100
AcDbLine
 10
306.669
 20
116.49
 30
0.0
 11
289.169
 21
116.49
 31
0.0
  0
LINE
  5
2B3
330
6B
100
AcDbEntity
  8
0
 62
     3
100
AcDbLine
 10
306.669
 20
111.59
 30
0.0
 11
289.169
 21
111.59
 31
0.0
  0
LINE
  5
2B4
330
6B
100
AcDbEntity
  8
0
 62
     3
100
AcDbLine
 10
289.169
 20
111.59
 30
0.0
 11
289.169
 21
116.49
 31
0.0
  0
LINE
  5
2B5
330
6B
100
AcDbEntity
  8
0
 62
     3
100
AcDbLine
 10
289.105
 20
112.746
 30
0.0
 11
283.219
 21
112.746
 31
0.0
  0
LINE
  5
2B6
330
6B
100
AcDbEntity
  8
0
 62
     3
100
AcDbLine
 10
283.219
 20
112.746
 30
0.0
 11
274.734
 21
111.138
 31
0.0
  0
LINE
  5
2B7
330
6B
100
AcDbEntity
  8
0
 62
     3
100
AcDbLine
 10
274.688
 20
111.183
 30
0.0
 11
272.186
 21
113.598
 31
0.0
  0
LINE
  5
2B8
330
6B
100
AcDbEntity
  8
0
 62
     3
100
AcDbLine
 10
273.467
 20
116.925
 30
0.0
 11
272.165
 21
113.701
 31
0.0
  0
LINE
  5
2B9
330
6B
100
AcDbEntity
  8
0
 62
     3
100
AcDbLine
 10
281.897
 20
118.966
 30
0.0
 11
273.492
 21
116.985
 31
0.0
  0
LINE
  5
2BA
330
6B
100
AcDbEntity
  8
0
 62
     3
100
AcDbLine
 10
287.274
 20
121.36
 30
0.0
 11
281.897
 21
118.966
 31
0.0
  0
LINE
  5
2BB
330
6B
100
AcDbEntity
  8
0
 62
     3
100
AcDbLine
 10
288.548
 20
118.656
 30
0.0
 11
285.453
 21
116.471
 31
0.0
  0
LINE
  5
2BC
330
6B
100
AcDbEntity
  8
0
 62
     3
100
AcDbLine
 10
286.862
 20
122.443
 30
0.0
 11
288.855
 21
117.966
 31
0.0
  0
LINE
  5
2BD
330
6B
100
AcDbEntity
  8
0
 62
     3
100
AcDbLine
 10
304.842
 20
125.084
 30
0.0
 11
288.855
 21
117.966
 31
0.0
  0
LINE
  5
2BE
330
6B
100
AcDbEntity
  8
0
 62
     3
100
AcDbLine
 10
302.849
 20
129.561
 30
0.0
 11
286.862
 21
122.443
 31
0.0
  0
LINE
  5
2BF
330
6B
100
AcDbEntity
  8
0
 62
     3
100
AcDbLine
 10
302.849
 20
129.561
 30
0.0
 11
304.842
 21
125.084
 31
0.0
  0
LINE
  5
2C0
330
6B
100
AcDbEntity
  8
0
 62
     3
100
AcDbLine
 10
289.169
 20
115.734
 30
0.0
 11
283.355
 21
116.888
 31
0.0
  0
LINE
  5
2C1
330
6B
100
AcDbEntity
  8
0
 62
     3
100
AcDbLine
 10
275.12
 20
113.239
 30
0.0
 11
283.355
 21
116.888
 31
0.0
  0
LINE
  5
2C2
330
6B
100
AcDbEntity
  8
0
 62
     3
100
AcDbLine
 10
275.12
 20
113.239
 30
0.0
 11
272.186
 21
113.598
 31
0.0
  0
LINE
  5
2C3
330
6B
100
AcDbEntity
  8
0
 62
     3
100
AcDbLine
 10
274.699
 20
115.221
 30
0.0
 11
272.165
 21
113.701
 31
0.0
  0
LINE
  5
2C4
330
6B
100
AcDbEntity
  8
0
 62
     3
100
AcDbLine
 10
274.699
 20
115.221
 30
0.0
 11
279.614
 21
115.23
 31
0.0
  0
LINE
  5
2C5
330
6B
100
AcDbEntity
  8
0
 62
     3
100
AcDbLine
 10
328.024
 20
126.553482
 30
0.0
 11
328.024
 21
97.756
 31
0.0
  0
LINE
  5
2D5
330
6B
100
AcDbEntity
  8
0
 62
     3
100
AcDbLine
 10
319.721025
 20
171.079443
 30
0.0
 11
267.711983
 21
171.079443
 31
0.0
  0
LINE
  5
2D6
330
6B
100
AcDbEntity
  8
0
 62
     3
100
AcDbLine
 10
319.721025
 20
146.612464
 30
0.0
 11
319.721025
 21
171.079443
 31
0.0
  0
LINE
  5
2D7
330
6B
100
AcDbEntity
  8
0
 62
     3
100
AcDbLine
 10
267.711983
 20
171.079443
 30
0.0
 11
267.711983
 21
146.612464
 31
0.0
  0
LINE
  5
2D8
330
6B
100
AcDbEntity
  8
0
 62
     3
100
AcDbLine
 10
319.721025
 20
146.612464
 30
0.0
 11
267.711983
 21
146.612464
 31
0.0
  0
LINE
  5
2D9
330
6B
100
AcDbEntity
  8
0
 62
     3
100
AcDbLine
 10
319.721025
 20
166.079443
 30
0.0
 11
267.711983
 21
166.079443
 31
0.0
  0
LINE
  5
2DE
330
6B
100
AcDbEntity
  8
0
100
AcDbLine
 10
318.710096
 20
93.04218400000001
 30
0.0
 11
330.13184
 21
79.16037199999998
 31
0.0
  0
LINE
  5
2DF
330
6B
100
AcDbEntity
  8
0
100
AcDbLine
 10
330.13184
 20
79.16037199999998
 30
0.0
 11
368.63184
 21
79.16037199999998
 31
0.0
  0
TEXT
  5
2E0
330
6B
100
AcDbEntity
  8
0
 62
     4
100
AcDbText
 10
332.88184
 20
80.16037199999997
 30
0.0
 40
3.2
  1
赤コード、クリップ（＋）
 41
0.716146
100
AcDbText
  0
LINE
  5
2E5
330
6B
100
AcDbEntity
  8
0
100
AcDbLine
 10
318.534377
 20
113.601323
 30
0.0
 11
328.726087
 21
103.409613
 31
0.0
  0
LINE
  5
2E6
330
6B
100
AcDbEntity
  8
0
100
AcDbLine
 10
328.726087
 20
103.409613
 30
0.0
 11
367.226087
 21
103.409613
 31
0.0
  0
TEXT
  5
2E7
330
6B
100
AcDbEntity
  8
0
 62
     4
100
AcDbText
 10
331.476087
 20
104.409613
 30
0.0
 40
3.2
  1
黒コード、クリップ（－）
 41
0.716146
100
AcDbText
  0
TEXT
  5
2E8
330
6B
100
AcDbEntity
  8
0
 62
     3
100
AcDbText
 10
342.446443
 20
-3.378208
 30
0.0
 40
3.2
  1
1999.11.4
  7
高3.2
100
AcDbText
  0
LINE
  5
2E9
330
6B
100
AcDbEntity
  8
0
 62
     3
100
AcDbLine
 10
69.31010500000001
 20
165.043923
 30
0.0
 11
73.51010500000002
 21
165.043923
 31
0.0
  0
CIRCLE
  5
2EA
330
6B
100
AcDbEntity
  8
0
 62
     3
100
AcDbCircle
 10
106.381507
 20
185.780478
 30
0.0
 40
1.0
  0
CIRCLE
  5
2EB
330
6B
100
AcDbEntity
  8
0
 62
     3
100
AcDbCircle
 10
93.57735500000002
 20
185.780478
 30
0.0
 40
1.0
  0
TEXT
  5
2EC
330
6B
100
AcDbEntity
  8
0
 62
     3
100
AcDbText
 10
57.76022600000001
 20
179.747444
 30
0.0
 40
6.299999999999998
  1
自動充電器
 41
0.757405
100
AcDbText
  0
CIRCLE
  5
2ED
330
6B
100
AcDbEntity
  8
0
 62
     3
100
AcDbCircle
 10
56.993202
 20
160.803753
 30
0.0
 40
3.740345999999998
  0
CIRCLE
  5
2EE
330
6B
100
AcDbEntity
  8
0
 62
     3
100
AcDbCircle
 10
89.702377
 20
162.337039
 30
0.0
 40
1.5
  0
CIRCLE
  5
2EF
330
6B
100
AcDbEntity
  8
0
 62
     3
100
AcDbCircle
 10
102.338429
 20
162.438998
 30
0.0
 40
1.5
  0
TEXT
  5
2F0
330
6B
100
AcDbEntity
  8
0
 62
     3
100
AcDbText
 10
82.725372
 20
149.984904
 30
0.0
 40
5.04
  1
12V/24V
 41
0.546623
100
AcDbText
  0
TEXT
  5
2F1
330
6B
100
AcDbEntity
  8
0
 62
     3
100
AcDbText
 10
104.932631
 20
149.591394
 30
0.0
 40
4.5
  1
兼用
 41
0.8130310000000001
100
AcDbText
  0
LINE
  5
2F2
330
6B
100
AcDbEntity
  8
0
 62
     3
100
AcDbLine
 10
82.539517
 20
168.932909
 30
0.0
 11
82.539517
 21
157.364245
 31
0.0
  0
LINE
  5
2F3
330
6B
100
AcDbEntity
  8
0
 62
     3
100
AcDbLine
 10
113.323
 20
168.932909
 30
0.0
 11
82.539517
 21
168.932909
 31
0.0
  0
LINE
  5
2F4
330
6B
100
AcDbEntity
  8
0
 62
     3
100
AcDbLine
 10
113.323
 20
157.364245
 30
0.0
 11
82.539517
 21
157.364245
 31
0.0
  0
ARC
  5
2F5
330
6B
100
AcDbEntity
  8
0
 62
     3
100
AcDbCircle
 10
41.12525699999999
 20
160.846076
 30
0.0
 40
2.561224999999998
100
AcDbArc
 50
279.678819
 51
260.321181
  0
TEXT
  5
2F6
330
6B
100
AcDbEntity
  8
0
 62
     3
100
AcDbText
 10
43.26512199999998
 20
144.473095
 30
0.0
 40
3.6
  1
ANB-1224
 41
0.7519540000000001
100
AcDbText
  0
TEXT
  5
2F7
330
6B
100
AcDbEntity
  8
0
 62
     3
100
AcDbText
 10
37.593158
 20
153.297145
 30
0.0
 40
2.56
  1
12V
 50
0.7
100
AcDbText
  0
TEXT
  5
2F8
330
6B
100
AcDbEntity
  8
0
 62
     3
100
AcDbText
 10
37.489276
 20
164.456833
 30
0.0
 40
2.56
  1
24V
 50
0.7
 41
0.9
100
AcDbText
  0
CIRCLE
  5
2F9
330
6B
100
AcDbEntity
  8
0
 62
     3
100
AcDbCircle
 10
78.83744
 20
146.719741
 30
0.0
 40
1.882877
  0
LINE
  5
2FA
330
6B
100
AcDbEntity
  8
0
 62
     3
100
AcDbLine
 10
78.83744
 20
148.602618
 30
0.0
 11
78.83744
 21
144.836864
 31
0.0
  0
LINE
  5
2FB
330
6B
100
AcDbEntity
  8
0
 62
     3
100
AcDbLine
 10
78.83744
 20
144.836864
 30
0.0
 11
80.833551
 21
148.451109
 31
0.0
  0
LINE
  5
2FC
330
6B
100
AcDbEntity
  8
0
 62
     3
100
AcDbLine
 10
78.83744
 20
148.602618
 30
0.0
 11
76.767028
 21
145.184279
 31
0.0
  0
TEXT
  5
2FD
330
6B
100
AcDbEntity
  8
0
 62
     3
100
AcDbText
 10
185.3555472469872
 20
35.869158
 30
0.0
 40
3.2
  1
適合バッテリー
 41
0.8
  7
高3.2
100
AcDbText
  0
TEXT
  5
2FE
330
6B
100
AcDbEntity
  8
0
 62
     3
100
AcDbText
 10
185.3555472469872
 20
30.325158
 30
0.0
 40
3.2
  1
出　力　電　流
 41
0.8
  7
高3.2
100
AcDbText
  0
TEXT
  5
302
330
6B
100
AcDbEntity
  8
0
 62
     3
100
AcDbText
 10
185.3555472469872
 20
24.781158
 30
0.0
 40
3.2
  1
入　力　保　護
 41
0.8
  7
高3.2
100
AcDbText
  0
TEXT
  5
306
330
6B
100
AcDbEntity
  8
0
 62
     3
100
AcDbText
 10
185.3555472469872
 20
19.237158
 30
0.0
 40
3.2
  1
出力過電流保護
 41
0.8
  7
高3.2
100
AcDbText
  0
TEXT
  5
307
330
6B
100
AcDbEntity
  8
0
 62
     3
100
AcDbText
 10
185.3555472469872
 20
13.693158
 30
0.0
 40
3.2
  1
検　出　回　路
 41
0.8
  7
高3.2
100
AcDbText
  0
TEXT
  5
30B
330
6B
100
AcDbEntity
  8
0
 62
     3
100
AcDbText
 10
185.3555472469872
 20
8.149157999999998
 30
0.0
 40
3.2
  1
充　電　時　間
 41
0.8
  7
高3.2
100
AcDbText
  0
TEXT
  5
30F
330
6B
100
AcDbEntity
  8
0
 62
     3
100
AcDbText
 10
185.3555472469872
 20
2.605158
 30
0.0
 40
3.2
  1
入力　コード
 41
0.8
  7
高3.2
100
AcDbText
  0
TEXT
  5
314
330
6B
100
AcDbEntity
  8
0
 62
     3
100
AcDbText
 10
185.3555472469872
 20
-2.938841999999998
 30
0.0
 40
3.2
  1
出力　コード
 41
0.8
  7
高3.2
100
AcDbText
  0
TEXT
  5
319
330
6B
100
AcDbEntity
  8
0
 62
     3
100
AcDbText
 10
185.3555472469872
 20
-8.482841999999997
 30
0.0
 40
3.2
  1
質　　　　　量
 41
0.8
  7
高3.2
100
AcDbText
  0
LINE
  5
31B
330
6B
100
AcDbEntity
  8
0
 62
     3
100
AcDbLine
 10
260.6133276769492
 20
52.001158
 30
0.0
 11
260.6133276769492
 21
-8.982841999999997
 31
0.0
  0
LINE
  5
31C
330
6B
100
AcDbEntity
  8
0
 62
     3
100
AcDbLine
 10
184.0956402469871
 20
52.001158
 30
0.0
 11
184.0956402469871
 21
-8.982841999999997
 31
0.0
  0
TEXT
  5
31D
330
6B
100
AcDbEntity
  8
0
 62
     3
100
AcDbText
 10
212.0357204247334
 20
13.693158
 30
0.0
 40
3.2
  1
ピーク電圧検出後タイマーOFF
 41
0.8
  7
高3.2
100
AcDbText
  0
TEXT
  5
31E
330
6B
100
AcDbEntity
  8
0
 62
     3
100
AcDbText
 10
226.0969676032769
 20
8.581847999999999
 30
0.0
 40
3.2
  1
6～20時間
 41
0.8
  7
高3.2
100
AcDbText
  0
TEXT
  5
31F
330
6B
100
AcDbEntity
  8
0
 62
     3
100
AcDbText
 10
212.8916218211994
 20
2.605158
 30
0.0
 40
3.2
  1
VCTFK 1.25sqx2cx2m
 41
0.8
  7
高3.2
100
AcDbText
  0
TEXT
  5
320
330
6B
100
AcDbEntity
  8
0
 62
     3
100
AcDbText
 10
210.3239163653249
 20
-2.938841999999998
 30
0.0
 40
3.2
  1
5.5sqx2m(赤、黒)クリップ付き
 41
0.8
  7
高3.2
100
AcDbText
  0
TEXT
  5
321
330
6B
100
AcDbEntity
  8
0
 62
     3
100
AcDbText
 10
228.420130345794
 20
-8.050152
 30
0.0
 40
3.2
  1
11.0kg
 41
0.8
  7
高3.2
100
AcDbText
  0
TEXT
  5
323
330
6B
100
AcDbEntity
  8
0
 62
     3
100
AcDbText
 10
212.647079107842
 20
35.945262
 30
0.0
 40
3.2
  1
DC12/24V(26～120Ah)
 41
0.8
  7
高3.2
100
AcDbText
  0
LINE
  5
324
330
6B
100
AcDbEntity
  8
0
 62
     3
100
AcDbLine
 10
130.2669772727273
 20
70.51463468013469
 30
0.0
 11
130.2669772727273
 21
-14.4155
 31
0.0
  0
LINE
  5
32A
330
6B
100
AcDbEntity
  8
0
100
AcDbLine
 10
217.640388
 20
195.319558
 30
0.0
 11
229.420386
 21
220.794485
 31
0.0
  0
CIRCLE
  5
32B
330
6B
100
AcDbEntity
  8
0
100
AcDbCircle
 10
231.518957
 20
225.332766
 30
0.0
 40
5.0
  0
TEXT
  5
32C
330
6B
100
AcDbEntity
  8
0
 62
     4
100
AcDbText
 10
230.4836147122939
 20
222.3159067635913
 30
0.0
 40
6.299999999999998
  1
1
  7
高6.3
100
AcDbText
  0
LINE
  5
332
330
6B
100
AcDbEntity
  8
0
100
AcDbLine
 10
262.654051
 20
195.455297
 30
0.0
 11
250.847011
 21
220.800434
 31
0.0
  0
CIRCLE
  5
333
330
6B
100
AcDbEntity
  8
0
100
AcDbCircle
 10
248.735623
 20
225.332766
 30
0.0
 40
5.0
  0
TEXT
  5
334
330
6B
100
AcDbEntity
  8
0
 62
     4
100
AcDbText
 10
246.6582069259923
 20
222.302845269953
 30
0.0
 40
6.299999999999998
  1
4
  7
高6.3
100
AcDbText
  0
LINE
  5
33A
330
6B
100
AcDbEntity
  8
0
100
AcDbLine
 10
170.11658
 20
214.126451
 30
0.0
 11
166.402739
 21
220.942243
 31
0.0
  0
CIRCLE
  5
33B
330
6B
100
AcDbEntity
  8
0
100
AcDbCircle
 10
164.010396
 20
225.332766
 30
0.0
 40
5.0
  0
TEXT
  5
33C
330
6B
100
AcDbEntity
  8
0
 62
     4
100
AcDbText
 10
161.010396
 20
223.1566681177129
 30
0.0
 40
4.5
  1
12
  7
高4.5
100
AcDbText
  0
LINE
  5
342
330
6B
100
AcDbEntity
  8
0
100
AcDbLine
 10
153.932351
 20
215.693
 30
0.0
 11
150.723218
 21
221.044646
 31
0.0
  0
CIRCLE
  5
343
330
6B
100
AcDbEntity
  8
0
100
AcDbCircle
 10
148.151831
 20
225.332766
 30
0.0
 40
5.0
  0
TEXT
  5
344
330
6B
100
AcDbEntity
  8
0
 62
     4
100
AcDbText
 10
145.151831
 20
223.1566681177129
 30
0.0
 40
4.5
  1
16
  7
高4.5
100
AcDbText
  0
LINE
  5
34A
330
6B
100
AcDbEntity
  8
0
100
AcDbLine
 10
143.755544
 20
198.505
 30
0.0
 11
136.714997
 21
220.56939
 31
0.0
  0
CIRCLE
  5
34B
330
6B
100
AcDbEntity
  8
0
100
AcDbCircle
 10
135.195046
 20
225.332766
 30
0.0
 40
5.0
  0
TEXT
  5
34C
330
6B
100
AcDbEntity
  8
0
 62
     4
100
AcDbText
 10
132.195046
 20
223.1566681177129
 30
0.0
 40
4.5
  1
15
  7
高4.5
100
AcDbText
  0
LINE
  5
352
330
6B
100
AcDbEntity
  8
0
100
AcDbLine
 10
104.743246
 20
192.664899
 30
0.0
 11
116.256522
 21
220.707425
 31
0.0
  0
CIRCLE
  5
353
330
6B
100
AcDbEntity
  8
0
100
AcDbCircle
 10
118.155525
 20
225.332766
 30
0.0
 40
5.0
  0
TEXT
  5
354
330
6B
100
AcDbEntity
  8
0
 62
     4
100
AcDbText
 10
116.0781089259923
 20
222.302845269953
 30
0.0
 40
6.299999999999998
  1
3
  7
高6.3
100
AcDbText
  0
LINE
  5
35A
330
6B
100
AcDbEntity
  8
0
100
AcDbLine
 10
43.710588
 20
186.717772
 30
0.0
 11
57.709753
 21
220.709499
 31
0.0
  0
CIRCLE
  5
35B
330
6B
100
AcDbEntity
  8
0
100
AcDbCircle
 10
59.613801
 20
225.332766
 30
0.0
 40
5.0
  0
TEXT
  5
35C
330
6B
100
AcDbEntity
  8
0
 62
     4
100
AcDbText
 10
57.53638492599229
 20
222.302845269953
 30
0.0
 40
6.299999999999998
  1
6
  7
高6.3
100
AcDbText
  0
LINE
  5
362
330
6B
100
AcDbEntity
  8
0
100
AcDbLine
 10
102.5246
 20
160.950596
 30
0.0
 11
106.508302
 21
119.536027
 31
0.0
  0
CIRCLE
  5
363
330
6B
100
AcDbEntity
  8
0
100
AcDbCircle
 10
106.987047
 20
114.558999
 30
0.0
 40
5.0
  0
TEXT
  5
364
330
6B
100
AcDbEntity
  8
0
 62
     4
100
AcDbText
 10
103.987047
 20
112.3829011177128
 30
0.0
 40
4.5
  1
11
  7
高4.5
100
AcDbText
  0
LINE
  5
36A
330
6B
100
AcDbEntity
  8
0
100
AcDbLine
 10
89.59455
 20
160.84092
 30
0.0
 11
93.470343
 21
119.53713
 31
0.0
  0
CIRCLE
  5
36B
330
6B
100
AcDbEntity
  8
0
100
AcDbCircle
 10
93.93747199999999
 20
114.558999
 30
0.0
 40
5.0
  0
TEXT
  5
36C
330
6B
100
AcDbEntity
  8
0
 62
     4
100
AcDbText
 10
90.93747200000001
 20
112.3829011177128
 30
0.0
 40
4.5
  1
10
  7
高4.5
100
AcDbText
  0
LINE
  5
372
330
6B
100
AcDbEntity
  8
0
100
AcDbLine
 10
71.687732
 20
156.293923
 30
0.0
 11
79.65417399999998
 21
119.446088
 31
0.0
  0
CIRCLE
  5
373
330
6B
100
AcDbEntity
  8
0
100
AcDbCircle
 10
80.71075400000003
 20
114.558999
 30
0.0
 40
5.0
  0
TEXT
  5
374
330
6B
100
AcDbEntity
  8
0
 62
     4
100
AcDbText
 10
78.63333792599229
 20
111.5290782699529
 30
0.0
 40
6.299999999999998
  1
8
  7
高6.3
100
AcDbText
  0
LINE
  5
37A
330
6B
100
AcDbEntity
  8
0
100
AcDbLine
 10
56.998812
 20
157.063412
 30
0.0
 11
62.335156
 21
119.509272
 31
0.0
  0
CIRCLE
  5
37B
330
6B
100
AcDbEntity
  8
0
100
AcDbCircle
 10
63.038577
 20
114.558999
 30
0.0
 40
5.0
  0
TEXT
  5
37C
330
6B
100
AcDbEntity
  8
0
 62
     4
100
AcDbText
 10
60.96116092599229
 20
111.5290782699529
 30
0.0
 40
6.299999999999998
  1
9
  7
高6.3
100
AcDbText
  0
LINE
  5
382
330
6B
100
AcDbEntity
  8
0
100
AcDbLine
 10
211.302845
 20
136.555933
 30
0.0
 11
218.823025
 21
119.148971
 31
0.0
  0
CIRCLE
  5
383
330
6B
100
AcDbEntity
  8
0
100
AcDbCircle
 10
220.805991
 20
114.558999
 30
0.0
 40
5.0
  0
TEXT
  5
384
330
6B
100
AcDbEntity
  8
0
 62
     4
100
AcDbText
 10
218.7285749259923
 20
111.5290782699529
 30
0.0
 40
6.299999999999998
  1
5
  7
高6.3
100
AcDbText
  0
LINE
  5
38A
330
6B
100
AcDbEntity
  8
0
100
AcDbLine
 10
194.453797
 20
142.855445
 30
0.0
 11
203.670869
 21
119.21739
 31
0.0
  0
CIRCLE
  5
38B
330
6B
100
AcDbEntity
  8
0
100
AcDbCircle
 10
205.487292
 20
114.558999
 30
0.0
 40
5.0
  0
TEXT
  5
38C
330
6B
100
AcDbEntity
  8
0
 62
     4
100
AcDbText
 10
203.4098759259923
 20
111.5290782699529
 30
0.0
 40
6.299999999999998
  1
2
  7
高6.3
100
AcDbText
  0
LINE
  5
392
330
6B
100
AcDbEntity
  8
0
100
AcDbLine
 10
43.080962
 20
158.60878
 30
0.0
 11
47.19622
 21
119.531502
 31
0.0
  0
CIRCLE
  5
393
330
6B
100
AcDbEntity
  8
0
100
AcDbCircle
 10
47.719878
 20
114.558999
 30
0.0
 40
5.0
  0
TEXT
  5
394
330
6B
100
AcDbEntity
  8
0
 62
     4
100
AcDbText
 10
45.64246192599227
 20
111.5290782699529
 30
0.0
 40
6.299999999999998
  1
7
  7
高6.3
100
AcDbText
  0
LINE
  5
39A
330
6B
100
AcDbEntity
  8
0
100
AcDbLine
 10
261.458
 20
126.621704
 30
0.0
 11
251.159694
 21
117.809733
 31
0.0
  0
CIRCLE
  5
39B
330
6B
100
AcDbEntity
  8
0
100
AcDbCircle
 10
247.360651
 20
114.558999
 30
0.0
 40
5.0
  0
TEXT
  5
39C
330
6B
100
AcDbEntity
  8
0
 62
     4
100
AcDbText
 10
244.360651
 20
112.3829011177128
 30
0.0
 40
4.5
  1
13
  7
高4.5
100
AcDbText
  0
LINE
  5
3A2
330
6B
100
AcDbEntity
  8
0
100
AcDbLine
 10
328.024
 20
119.839539
 30
0.0
 11
336.906898
 21
122.792204
 31
0.0
  0
CIRCLE
  5
3A3
330
6B
100
AcDbEntity
  8
0
100
AcDbCircle
 10
341.6516430000001
 20
124.369352
 30
0.0
 40
5.0
  0
TEXT
  5
3A4
330
6B
100
AcDbEntity
  8
0
 62
     4
100
AcDbText
 10
338.651643
 20
122.1932541177129
 30
0.0
 40
4.5
  1
14
  7
高4.5
100
AcDbText
  0
TEXT
  5
3A5
330
6B
100
AcDbEntity
  8
0
 62
     3
100
AcDbText
 10
327.1699453593428
 20
-13.61786154988101
 30
0.0
 40
6.299999999999998
  1
ANB-1224
  7
高6.3
100
AcDbText
  0
LINE
  5
3A9
330
6B
100
AcDbEntity
  8
0
 62
     3
100
AcDbLine
 10
351.447637
 20
2.250223
 30
0.0
 11
351.447637
 21
25.250223
 31
0.0
  0
LINE
  5
3AB
330
6B
100
AcDbEntity
  8
0
 62
     3
100
AcDbLine
 10
298.394027
 20
-4.749776999999999
 30
0.0
 11
298.394027
 21
9.250223
 31
0.0
  0
TEXT
  5
3AD
330
6B
100
AcDbEntity
  8
0
 62
     3
100
AcDbText
 10
327.457955
 20
21.455339
 30
0.0
 40
2.0
  1
A
 41
0.7
100
AcDbText
  0
TEXT
  5
3AE
330
6B
100
AcDbEntity
  8
0
 62
     3
100
AcDbText
 10
329.993241
 20
21.455339
 30
0.0
 40
2.0
  1
P
 41
0.7
100
AcDbText
  0
TEXT
  5
3AF
330
6B
100
AcDbEntity
  8
0
 62
     3
100
AcDbText
 10
332.528527
 20
21.455339
 30
0.0
 40
2.0
  1
P
 41
0.7
100
AcDbText
  0
TEXT
  5
3B0
330
6B
100
AcDbEntity
  8
0
 62
     3
100
AcDbText
 10
335.063813
 20
21.455339
 30
0.0
 40
2.0
  1
D
 41
0.7
100
AcDbText
  0
TEXT
  5
3B1
330
6B
100
AcDbEntity
  8
0
 62
     3
100
AcDbText
 10
340.432496
 20
21.455339
 30
0.0
 40
2.0
  1
C
 41
0.7
100
AcDbText
  0
TEXT
  5
3B2
330
6B
100
AcDbEntity
  8
0
 62
     3
100
AcDbText
 10
342.967783
 20
21.455339
 30
0.0
 40
2.0
  1
H
 41
0.7
100
AcDbText
  0
TEXT
  5
3B3
330
6B
100
AcDbEntity
  8
0
 62
     3
100
AcDbText
 10
345.503069
 20
21.455339
 30
0.0
 40
2.0
  1
C
 41
0.7
100
AcDbText
  0
TEXT
  5
3B4
330
6B
100
AcDbEntity
  8
0
 62
     3
100
AcDbText
 10
348.0383549999999
 20
21.455339
 30
0.0
 40
2.0
  1
K
 41
0.7
100
AcDbText
  0
TEXT
  5
3B5
330
6B
100
AcDbEntity
  8
0
 62
     3
100
AcDbText
 10
353.712322
 20
21.455339
 30
0.0
 40
2.0
  1
DESN
 41
1.216762999999998
100
AcDbText
  0
TEXT
  5
3B6
330
6B
100
AcDbEntity
  8
0
 62
     3
100
AcDbText
 10
268.705963
 20
-7.891159
 30
0.0
 40
2.0
  1
NICHIDO IND.CO.LTD
 41
1.274876
100
AcDbText
  0
LINE
  5
3B7
330
6B
100
AcDbEntity
  8
0
 62
     3
100
AcDbLine
 10
279.088992
 20
25.25022300000001
 30
0.0
 11
279.088992
 21
2.250223
 31
0.0
  0
LINE
  5
3B8
330
6B
100
AcDbEntity
  8
0
 62
     3
100
AcDbLine
 10
325.447637
 20
25.250223
 30
0.0
 11
325.447637
 21
-14.4155
 31
0.0
  0
LINE
  5
3BD
330
6B
100
AcDbEntity
  8
0
 62
     3
100
AcDbLine
 10
338.447637
 20
25.250223
 30
0.0
 11
338.447637
 21
-4.749776999999999
 31
0.0
  0
TEXT
  5
3BE
330
6B
100
AcDbEntity
  8
0
 62
     3
100
AcDbText
 10
326.560081
 20
-3.885091
 30
0.0
 40
3.2
  1
作成日
 41
1.017225999999997
100
AcDbText
  0
LINE
  5
3BF
330
6B
100
AcDbEntity
  8
0
 62
     3
100
AcDbLine
 10
377.147
 20
25.250223
 30
0.0
 11
265.843558
 21
25.250223
 31
0.0
  0
LINE
  5
3C0
330
6B
100
AcDbEntity
  8
0
 62
     3
100
AcDbLine
 10
364.447637
 20
2.250223
 30
0.0
 11
364.447637
 21
25.250223
 31
0.0
  0
TEXT
  5
3C1
330
6B
100
AcDbEntity
  8
0
 62
     3
100
AcDbText
 10
367.77144
 20
21.541157
 30
0.0
 40
1.8
  1
D
 41
0.666667
100
AcDbText
  0
TEXT
  5
3C2
330
6B
100
AcDbEntity
  8
0
 62
     3
100
AcDbText
 10
370.588068
 20
21.541157
 30
0.0
 40
1.8
  1
E
 41
0.666667
100
AcDbText
  0
TEXT
  5
3C3
330
6B
100
AcDbEntity
  8
0
 62
     3
100
AcDbText
 10
373.404696
 20
21.541157
 30
0.0
 40
1.8
  1
F
 41
0.666667
100
AcDbText
  0
TEXT
  5
3C4
330
6B
100
AcDbEntity
  8
0
 62
     3
100
AcDbText
 10
367.77144
 20
17.548604
 30
0.0
 40
3.2
  1
製図
 41
1.076369
100
AcDbText
  0
LINE
  5
3C5
330
6B
100
AcDbEntity
  8
0
 62
     3
100
AcDbLine
 10
265.843558
 20
25.250223
 30
0.0
 11
265.843558
 21
-14.4155
 31
0.0
  0
TEXT
  5
3C6
330
6B
100
AcDbEntity
  8
0
 62
     3
100
AcDbText
 10
267.22021
 20
-14.083035
 30
0.0
 40
5.0
  1
日動工業株式会社
 41
0.833333
100
AcDbText
  0
LINE
  5
3C7
330
6B
100
AcDbEntity
  8
0
 62
     3
100
AcDbLine
 10
308.725961
 20
9.250223
 30
0.0
 11
308.725961
 21
-14.4155
 31
0.0
  0
LINE
  5
3C8
330
6B
100
AcDbEntity
  8
0
 62
     3
100
AcDbLine
 10
308.725961
 20
-9.582639
 30
0.0
 11
325.447637
 21
-9.582639
 31
0.0
  0
TEXT
  5
3C9
330
6B
100
AcDbEntity
  8
0
 62
     3
100
AcDbText
 10
309.312563
 20
-8.766208
 30
0.0
 40
3.2
  1
出図コード
 41
0.8356860000000001
100
AcDbText
  0
LINE
  5
3CB
330
6B
100
AcDbEntity
  8
0
 62
     3
100
AcDbLine
 10
265.843558
 20
-4.749776999999999
 30
0.0
 11
377.147
 21
-4.749776999999999
 31
0.0
  0
LINE
  5
3CD
330
6B
100
AcDbEntity
  8
0
 62
     3
100
AcDbLine
 10
265.843558
 20
16.250223
 30
0.0
 11
377.147
 21
16.250223
 31
0.0
  0
LINE
  5
3D3
330
6B
100
AcDbEntity
  8
0
 62
     3
100
AcDbLine
 10
265.843558
 20
9.250223
 30
0.0
 11
325.447637
 21
9.250223
 31
0.0
  0
LINE
  5
3D9
330
6B
100
AcDbEntity
  8
0
 62
     3
100
AcDbLine
 10
265.843558
 20
2.250223
 30
0.0
 11
377.147
 21
2.250223
 31
0.0
  0
TEXT
  5
3DA
330
6B
100
AcDbEntity
  8
0
 62
     3
100
AcDbText
 10
309.180015
 20
-13.84953592668705
 30
0.0
 40
3.2
  1
ZK-A3X
 41
0.8112849999999999
100
AcDbText
  0
TEXT
  5
3DB
330
6B
100
AcDbEntity
  8
0
 62
     3
100
AcDbText
 10
267.660954
 20
21.419748
 30
0.0
 40
2.0
  1
CONPONENTS
 41
0.5331600000000001
100
AcDbText
  0
TEXT
  5
3DC
330
6B
100
AcDbEntity
  8
0
 62
     3
100
AcDbText
 10
267.311228
 20
2.487572
 30
0.0
 40
3.0
  1
材
 41
0.833333
100
AcDbText
  0
TEXT
  5
3DD
330
6B
100
AcDbEntity
  8
0
 62
     3
100
AcDbText
 10
274.84687
 20
2.487572
 30
0.0
 40
3.0
  1
質
 41
0.833333
100
AcDbText
  0
TEXT
  5
3DE
330
6B
100
AcDbEntity
  8
0
 62
     3
100
AcDbText
 10
267.399298
 20
13.112096
 30
0.0
 40
2.0
  1
MODEL
 41
1.031072999999999
100
AcDbText
  0
TEXT
  5
3DF
330
6B
100
AcDbEntity
  8
0
 62
     3
100
AcDbText
 10
267.311228
 20
6.16988
 30
0.0
 40
2.0
  1
MATERIAL
 41
0.659278
100
AcDbText
  0
TEXT
  5
3E0
330
6B
100
AcDbEntity
  8
0
 62
     3
100
AcDbText
 10
298.618508
 20
2.487572
 30
0.0
 40
3.0
  1
備
 41
0.833333
100
AcDbText
  0
TEXT
  5
3E1
330
6B
100
AcDbEntity
  8
0
 62
     3
100
AcDbText
 10
305.35151
 20
2.487572
 30
0.0
 40
3.0
  1
考
 41
0.833333
100
AcDbText
  0
TEXT
  5
3E2
330
6B
100
AcDbEntity
  8
0
 62
     3
100
AcDbText
 10
298.8726645572981
 20
6.16988
 30
0.0
 40
2.0
  1
REMARKS
 41
0.675794
100
AcDbText
  0
TEXT
  5
3E3
330
6B
100
AcDbEntity
  8
0
 62
     3
100
AcDbText
 10
268.900957
 20
-0.750241
 30
0.0
 40
2.0
  1
3AD
 41
1.42614
100
AcDbText
  0
TEXT
  5
3E4
330
6B
100
AcDbEntity
  8
0
 62
     3
100
AcDbText
 10
278.211937
 20
-0.584507
 30
0.0
 40
2.0
  1
ANGLE
 41
1.669883999999995
100
AcDbText
  0
TEXT
  5
3E5
330
6B
100
AcDbEntity
  8
0
 62
     3
100
AcDbText
 10
299.145824
 20
-0.9613479999999999
 30
0.0
 40
2.0
  1
SCALE
 41
0.7719630000000001
100
AcDbText
  0
TEXT
  5
3E6
330
6B
100
AcDbEntity
  8
0
 62
     3
100
AcDbText
 10
268.587087
 20
-4.749776999999999
 30
0.0
 40
3.0
  1
第
 41
0.833333
100
AcDbText
  0
TEXT
  5
3E7
330
6B
100
AcDbEntity
  8
0
 62
     3
100
AcDbText
 10
276.373937
 20
-4.749776999999999
 30
0.0
 40
3.0
  1
三
 41
0.833333
100
AcDbText
  0
TEXT
  5
3E8
330
6B
100
AcDbEntity
  8
0
 62
     3
100
AcDbText
 10
284.160787
 20
-4.749776999999999
 30
0.0
 40
3.0
  1
角
 41
0.833333
100
AcDbText
  0
TEXT
  5
3E9
330
6B
100
AcDbEntity
  8
0
 62
     3
100
AcDbText
 10
291.947637
 20
-4.749776999999999
 30
0.0
 40
3.0
  1
法
 41
0.833333
100
AcDbText
  0
TEXT
  5
3EA
330
6B
100
AcDbEntity
  8
0
 62
     3
100
AcDbText
 10
299.009029
 20
-4.461348
 30
0.0
 40
3.0
  1
尺
 41
0.833333
100
AcDbText
  0
TEXT
  5
3EB
330
6B
100
AcDbEntity
  8
0
 62
     3
100
AcDbText
 10
305.74203
 20
-4.461348
 30
0.0
 40
3.0
  1
度
 41
0.833333
100
AcDbText
  0
TEXT
  5
3EC
330
6B
100
AcDbEntity
  8
0
 62
     3
100
AcDbText
 10
328.325301
 20
17.707951
 30
0.0
 40
3.0
  1
承認
 41
1.089472999999999
100
AcDbText
  0
TEXT
  5
3ED
330
6B
100
AcDbEntity
  8
0
 62
     3
100
AcDbText
 10
341.568181
 20
17.650223
 30
0.0
 40
3.0
  1
検図
 41
0.931761
100
AcDbText
  0
TEXT
  5
3EE
330
6B
100
AcDbEntity
  8
0
 62
     3
100
AcDbText
 10
354.568578
 20
17.650223
 30
0.0
 40
3.0
  1
設
 41
0.833333
100
AcDbText
  0
TEXT
  5
3EF
330
6B
100
AcDbEntity
  8
0
 62
     3
100
AcDbText
 10
359.058446
 20
17.650223
 30
0.0
 40
3.0
  1
計
 41
0.833333
100
AcDbText
  0
TEXT
  5
3F0
330
6B
100
AcDbEntity
  8
0
 62
     3
100
AcDbText
 10
267.731061
 20
17.822775
 30
0.0
 40
3.0
  1
品
 41
0.833333
100
AcDbText
  0
TEXT
  5
3F1
330
6B
100
AcDbEntity
  8
0
 62
     3
100
AcDbText
 10
275.266703
 20
17.822775
 30
0.0
 40
3.0
  1
名
 41
0.833333
100
AcDbText
  0
TEXT
  5
3F2
330
6B
100
AcDbEntity
  8
0
 62
     3
100
AcDbText
 10
267.399298
 20
9.636361365023272
 30
0.0
 40
3.0
  1
型
 41
0.833333
100
AcDbText
  0
TEXT
  5
3F3
330
6B
100
AcDbEntity
  8
0
 62
     3
100
AcDbText
 10
274.947389
 20
9.636361365023272
 30
0.0
 40
3.0
  1
式
 41
0.833333
100
AcDbText
  0
LINE
  5
3F4
330
6B
100
AcDbEntity
  8
0
 62
     3
100
AcDbLine
 10
-30.184002
 20
135.942657
 30
0.0
 11
-32.78207800000001
 21
134.442657
 31
0.0
  0
LINE
  5
3F5
330
6B
100
AcDbEntity
  8
0
 62
     3
100
AcDbLine
 10
-30.184002
 20
135.942657
 30
0.0
 11
-32.78207800000001
 21
137.442657
 31
0.0
  0
LINE
  5
3F6
330
6B
100
AcDbEntity
  8
0
 62
     3
100
AcDbLine
 10
-32.78207800000001
 20
134.442657
 30
0.0
 11
-32.78207800000001
 21
137.442657
 31
0.0
  0
ARC
  5
3F7
330
6B
100
AcDbEntity
  8
0
 62
     3
100
AcDbCircle
 10
262.507
 20
152.446
 30
0.0
 40
2.577999999999998
100
AcDbArc
 50
295.233
 51
338.961
  0
LINE
  5
3F8
330
6B
100
AcDbEntity
  8
0
 62
     3
100
AcDbLine
 10
264.913
 20
153.372
 30
0.0
 11
264.913
 21
151.52
 31
0.0
  0
ARC
  5
3F9
330
6B
100
AcDbEntity
  8
0
 62
     3
100
AcDbCircle
 10
262.507
 20
152.446
 30
0.0
 40
2.577999999999998
100
AcDbArc
 50
21.039
 51
158.961
  0
ARC
  5
3FA
330
6B
100
AcDbEntity
  8
0
 62
     3
100
AcDbCircle
 10
262.532
 20
152.426373
 30
0.0
 40
1.074178999999997
100
AcDbArc
 50
358.95306
 51
181.04694
  0
LINE
  5
3FB
330
6B
100
AcDbEntity
  8
0
 62
     3
100
AcDbLine
 10
260.101
 20
153.372
 30
0.0
 11
260.101
 21
151.52
 31
0.0
  0
ARC
  5
3FC
330
6B
100
AcDbEntity
  8
0
 62
     3
100
AcDbCircle
 10
262.507
 20
152.446
 30
0.0
 40
2.577999999999998
100
AcDbArc
 50
201.039
 51
246.438
  0
LINE
  5
3FD
330
6B
100
AcDbEntity
  8
0
 62
     3
100
AcDbLine
 10
73.51010500000002
 20
156.293923
 30
0.0
 11
69.31010500000001
 21
156.293923
 31
0.0
  0
TEXT
  5
3FE
330
6B
100
AcDbEntity
  8
0
 62
     3
100
AcDbText
 10
310.876661
 20
-3.193033999999998
 30
0.0
 40
3.2
  1
FREE
  7
高3.2
100
AcDbText
  0
LINE
  5
3FF
330
6B
100
AcDbEntity
  8
0
 62
     3
100
AcDbLine
 10
-12.853
 20
262.5845
 30
0.0
 11
-12.853
 21
-14.4155
 31
0.0
  0
LINE
  5
400
330
6B
100
AcDbEntity
  8
0
 62
     3
100
AcDbLine
 10
377.147
 20
-14.4155
 30
0.0
 11
377.147
 21
262.5845
 31
0.0
  0
LINE
  5
401
330
6B
100
AcDbEntity
  8
0
 62
     3
100
AcDbLine
 10
-12.853
 20
262.5845
 30
0.0
 11
377.147
 21
262.5845
 31
0.0
  0
LINE
  5
402
330
6B
100
AcDbEntity
  8
0
 62
     3
100
AcDbLine
 10
-12.853
 20
-14.4155
 30
0.0
 11
377.147
 21
-14.4155
 31
0.0
  0
TEXT
  5
403
330
6B
100
AcDbEntity
  8
0
 62
     3
100
AcDbText
 10
291.391782
 20
18.173387
 30
0.0
 40
4.5
  1
急速充電器
  7
高4.5
100
AcDbText
  0
TEXT
  5
404
330
6B
100
AcDbEntity
  8
0
 62
     3
100
AcDbText
 10
283.519202
 20
10.307994
 30
0.0
 40
4.5
  1
ANB-1224
  7
高4.5
100
AcDbText
  0
LINE
  5
405
330
6B
100
AcDbEntity
  8
0
 62
     3
100
AcDbLine
 10
49.29228
 20
179.87036
 30
0.0
 11
49.29228
 21
187.87036
 31
0.0
  0
LINE
  5
406
330
6B
100
AcDbEntity
  8
0
 62
     3
100
AcDbLine
 10
38.19228
 20
179.87036
 30
0.0
 11
38.19228
 21
187.87036
 31
0.0
  0
LINE
  5
407
330
6B
100
AcDbEntity
  8
0
 62
     3
100
AcDbLine
 10
38.44228
 20
188.12036
 30
0.0
 11
49.04227999999999
 21
188.12036
 31
0.0
  0
LINE
  5
408
330
6B
100
AcDbEntity
  8
0
 62
     3
100
AcDbLine
 10
49.04227999999999
 20
179.62036
 30
0.0
 11
38.44228
 21
179.62036
 31
0.0
  0
ARC
  5
409
330
6B
100
AcDbEntity
  8
0
 62
     3
100
AcDbCircle
 10
49.04227999999999
 20
187.87036
 30
0.0
 40
0.25
100
AcDbArc
 50
0.0
 51
90.0
  0
ARC
  5
40A
330
6B
100
AcDbEntity
  8
0
 62
     3
100
AcDbCircle
 10
38.44228
 20
187.87036
 30
0.0
 40
0.25
100
AcDbArc
 50
90.0
 51
180.0
  0
ARC
  5
40B
330
6B
100
AcDbEntity
  8
0
 62
     3
100
AcDbCircle
 10
38.44228
 20
179.87036
 30
0.0
 40
0.25
100
AcDbArc
 50
180.0
 51
270.0
  0
ARC
  5
40C
330
6B
100
AcDbEntity
  8
0
 62
     3
100
AcDbCircle
 10
49.04227999999999
 20
179.87036
 30
0.0
 40
0.25
100
AcDbArc
 50
270.0
 51
0.0
  0
LINE
  5
40D
330
6B
100
AcDbEntity
  8
0
 62
     3
100
AcDbLine
 10
73.51010500000002
 20
165.043923
 30
0.0
 11
73.51010500000002
 21
156.293923
 31
0.0
  0
LINE
  5
40E
330
6B
100
AcDbEntity
  8
0
 62
     3
100
AcDbLine
 10
69.31010500000001
 20
156.293923
 30
0.0
 11
69.31010500000001
 21
165.043923
 31
0.0
  0
TEXT
  5
40F
330
6B
100
AcDbEntity
  8
0
 62
     3
100
AcDbText
 10
82.24451700000001
 20
144.886368
 30
0.0
 40
3.5
  1
日動工業株式会社
 41
0.874249
100
AcDbText
  0
TEXT
  5
410
330
6B
100
AcDbEntity
  8
0
 62
     3
100
AcDbText
 10
185.6796402469871
 20
47.249158
 30
0.0
 40
3.2
  1
型　　　　　式
 41
0.8
  7
高3.2
100
AcDbText
  0
TEXT
  5
411
330
6B
100
AcDbEntity
  8
0
 62
     3
100
AcDbText
 10
185.6796402469871
 20
41.705158
 30
0.0
 40
3.2
  1
入　力　電　圧
 41
0.8
  7
高3.2
100
AcDbText
  0
TEXT
  5
412
330
6B
100
AcDbEntity
  8
0
 62
     3
100
AcDbText
 10
198.936245176595
 20
53.7661
 30
0.0
 40
4.5
  1
主　　　仕　　　様
  7
高4.5
100
AcDbText
  0
TEXT
  5
413
330
6B
100
AcDbEntity
  8
0
 62
     3
100
AcDbText
 10
223.5292608809257
 20
47.164476
 30
0.0
 40
3.2
  1
ANB-1224
 41
0.8
  7
高3.2
100
AcDbText
  0
TEXT
  5
414
330
6B
100
AcDbEntity
  8
0
 62
     3
100
AcDbText
 10
220.3501967419425
 20
30.848838
 30
0.0
 40
3.2
  1
6A～12A(切替式)
 41
0.8
  7
高3.2
100
AcDbText
  0
TEXT
  5
415
330
6B
100
AcDbEntity
  8
0
 62
     3
100
AcDbText
 10
220.9615554250511
 20
25.14811
 30
0.0
 40
3.2
  1
ブレーカー　10A
 41
0.8
  7
高3.2
100
AcDbText
  0
TEXT
  5
416
330
6B
100
AcDbEntity
  8
0
 62
     3
100
AcDbText
 10
220.8392834351339
 20
19.60411
 30
0.0
 40
3.2
  1
ブレーカー　25A
 41
0.8
  7
高3.2
100
AcDbText
  0
TEXT
  5
417
330
6B
100
AcDbEntity
  8
0
 62
     3
100
AcDbText
 10
217.0488606130423
 20
41.773239
 30
0.0
 40
3.2
  1
AC100V 50/60HZ
 41
0.8
  7
高3.2
100
AcDbText
  0
LINE
  5
418
330
6B
100
AcDbEntity
  8
0
 62
     3
100
AcDbLine
 10
184.0956402469871
 20
-8.982841999999997
 30
0.0
 11
260.6133276769492
 21
-8.982841999999997
 31
0.0
  0
LINE
  5
419
330
6B
100
AcDbEntity
  8
0
 62
     3
100
AcDbLine
 10
184.0956402469871
 20
52.001158
 30
0.0
 11
260.6133276769492
 21
52.001158
 31
0.0
  0
LINE
  5
41A
330
6B
100
AcDbEntity
  8
0
100
AcDbLine
 10
72.547605
 20
163.958923
 30
0.0
 11
72.547605
 21
157.483923
 31
0.0
  0
LINE
  5
41B
330
6B
100
AcDbEntity
  8
0
100
AcDbLine
 10
70.272605
 20
163.958923
 30
0.0
 11
70.272605
 21
157.483923
 31
0.0
  0
LINE
  5
41C
330
6B
100
AcDbEntity
  8
0
100
AcDbLine
 10
72.547605
 20
157.483923
 30
0.0
 11
70.272605
 21
157.483923
 31
0.0
  0
LINE
  5
41D
330
6B
100
AcDbEntity
  8
0
100
AcDbLine
 10
46.461711
 20
190.593534
 30
0.0
 11
45.35913299999999
 21
190.593534
 31
0.0
  0
LINE
  5
41E
330
6B
100
AcDbEntity
  8
0
100
AcDbLine
 10
46.461711
 20
190.714426
 30
0.0
 11
46.461711
 21
190.593534
 31
0.0
  0
LINE
  5
41F
330
6B
100
AcDbEntity
  8
0
100
AcDbLine
 10
45.24087199999999
 20
192.967051
 30
0.0
 11
44.125293
 21
192.967051
 31
0.0
  0
LINE
  5
420
330
6B
100
AcDbEntity
  8
0
100
AcDbLine
 10
45.24087199999999
 20
192.967051
 30
0.0
 11
45.24087199999999
 21
192.846215
 31
0.0
  0
LINE
  5
421
330
6B
100
AcDbEntity
  8
0
100
AcDbLine
 10
45.24087199999999
 20
190.714426
 30
0.0
 11
45.24087199999999
 21
190.593478
 31
0.0
  0
LINE
  5
422
330
6B
100
AcDbEntity
  8
0
100
AcDbLine
 10
45.24087199999999
 20
190.593478
 30
0.0
 11
44.125293
 21
190.593478
 31
0.0
  0
LINE
  5
423
330
6B
100
AcDbEntity
  8
0
100
AcDbLine
 10
46.461711
 20
192.967107
 30
0.0
 11
46.461711
 21
192.846215
 31
0.0
  0
LINE
  5
424
330
6B
100
AcDbEntity
  8
0
100
AcDbLine
 10
46.461711
 20
192.967107
 30
0.0
 11
45.35913299999999
 21
192.967107
 31
0.0
  0
LINE
  5
425
330
6B
100
AcDbEntity
  8
0
100
AcDbLine
 10
45.35913299999999
 20
192.967107
 30
0.0
 11
45.35913299999999
 21
192.846215
 31
0.0
  0
LINE
  5
426
330
6B
100
AcDbEntity
  8
0
100
AcDbLine
 10
46.58420099999999
 20
190.714426
 30
0.0
 11
46.58420099999999
 21
190.593534
 31
0.0
  0
LINE
  5
427
330
6B
100
AcDbEntity
  8
0
100
AcDbLine
 10
47.718088
 20
190.593534
 30
0.0
 11
46.58420099999999
 21
190.593534
 31
0.0
  0
LINE
  5
428
330
6B
100
AcDbEntity
  8
0
100
AcDbLine
 10
47.437781
 20
192.585525
 30
0.0
 11
47.437781
 21
190.975117
 31
0.0
  0
LINE
  5
429
330
6B
100
AcDbEntity
  8
0
100
AcDbLine
 10
47.437781
 20
190.975117
 30
0.0
 11
47.54637999999999
 21
190.975117
 31
0.0
  0
ARC
  5
42A
330
6B
100
AcDbEntity
  8
0
100
AcDbCircle
 10
46.99107399999999
 20
191.780321
 30
0.0
 40
0.97812
100
AcDbArc
 50
304.591955
 51
55.408045
  0
LINE
  5
42B
330
6B
100
AcDbEntity
  8
0
100
AcDbLine
 10
47.718088
 20
192.967107
 30
0.0
 11
46.58420099999999
 21
192.967107
 31
0.0
  0
LINE
  5
42C
330
6B
100
AcDbEntity
  8
0
100
AcDbLine
 10
46.58420099999999
 20
192.967107
 30
0.0
 11
46.58420099999999
 21
192.846215
 31
0.0
  0
LINE
  5
42D
330
6B
100
AcDbEntity
  8
0
100
AcDbLine
 10
45.35913299999999
 20
190.714426
 30
0.0
 11
45.35913299999999
 21
190.593534
 31
0.0
  0
LINE
  5
42E
330
6B
100
AcDbEntity
  8
0
100
AcDbLine
 10
47.437781
 20
192.585525
 30
0.0
 11
47.54637999999999
 21
192.585525
 31
0.0
  0
LINE
  5
42F
330
6B
100
AcDbEntity
  8
0
100
AcDbLine
 10
40.78454699999999
 20
190.714426
 30
0.0
 11
40.784545
 21
190.593523
 31
0.0
  0
LINE
  5
430
330
6B
100
AcDbEntity
  8
0
100
AcDbLine
 10
39.681966
 20
190.593545
 30
0.0
 11
40.784545
 21
190.593526
 31
0.0
  0
LINE
  5
431
330
6B
100
AcDbEntity
  8
0
100
AcDbLine
 10
37.226891
 20
190.593534
 30
0.0
 11
38.106471
 21
190.593534
 31
0.0
  0
ARC
  5
432
330
6B
100
AcDbEntity
  8
0
100
AcDbCircle
 10
34.380067
 20
191.808267
 30
0.0
 40
8.407752
100
AcDbArc
 50
353.866006
 51
357.694034
  0
LINE
  5
433
330
6B
100
AcDbEntity
  8
0
100
AcDbLine
 10
42.218112
 20
191.472057
 30
0.0
 11
42.78100999999995
 21
191.469974
 31
0.0
  0
LINE
  5
476
330
6B
100
AcDbEntity
  8
0
100
AcDbLine
 10
42.220386
 20
192.086466
 30
0.0
 11
42.783283
 21
192.084383
 31
0.0
  0
ARC
  5
477
330
6B
100
AcDbEntity
  8
0
100
AcDbCircle
 10
34.380067
 20
191.808267
 30
0.0
 40
8.407752
100
AcDbArc
 50
1.881965999999999
 51
5.709994
  0
LINE
  5
478
330
6B
100
AcDbEntity
  8
0
100
AcDbLine
 10
40.784586
 20
192.967096
 30
0.0
 11
40.784584
 21
192.846215
 31
0.0
  0
LINE
  5
479
330
6B
100
AcDbEntity
  8
0
100
AcDbLine
 10
39.682008
 20
192.967118
 30
0.0
 11
40.784586
 21
192.967099
 31
0.0
  0
LINE
  5
47A
330
6B
100
AcDbEntity
  8
0
100
AcDbLine
 10
39.681969
 20
190.714426
 30
0.0
 11
39.681966
 21
190.593545
 31
0.0
  0
LINE
  5
47B
330
6B
100
AcDbEntity
  8
0
100
AcDbLine
 10
39.682008
 20
192.967118
 30
0.0
 11
39.682006
 21
192.846215
 31
0.0
  0
LINE
  5
47C
330
6B
100
AcDbEntity
  8
0
100
AcDbLine
 10
38.106471
 20
190.714426
 30
0.0
 11
38.106471
 21
190.593534
 31
0.0
  0
LINE
  5
47D
330
6B
100
AcDbEntity
  8
0
100
AcDbLine
 10
37.857473
 20
191.98547
 30
0.0
 11
38.72743300000001
 21
190.593534
 31
0.0
  0
LINE
  5
47E
330
6B
100
AcDbEntity
  8
0
100
AcDbLine
 10
38.72743300000001
 20
190.593534
 30
0.0
 11
39.309966
 21
190.593534
 31
0.0
  0
LINE
  5
47F
330
6B
100
AcDbEntity
  8
0
100
AcDbLine
 10
39.558964
 20
192.967107
 30
0.0
 11
39.558964
 21
192.846215
 31
0.0
  0
LINE
  5
480
330
6B
100
AcDbEntity
  8
0
100
AcDbLine
 10
38.67938400000003
 20
192.967107
 30
0.0
 11
39.558964
 21
192.967107
 31
0.0
  0
LINE
  5
481
330
6B
100
AcDbEntity
  8
0
100
AcDbLine
 10
38.67938400000003
 20
192.967107
 30
0.0
 11
38.67938400000003
 21
192.846215
 31
0.0
  0
LINE
  5
482
330
6B
100
AcDbEntity
  8
0
100
AcDbLine
 10
38.92838300000001
 20
191.892041
 30
0.0
 11
38.222871
 21
192.967107
 31
0.0
  0
LINE
  5
483
330
6B
100
AcDbEntity
  8
0
100
AcDbLine
 10
37.226891
 20
192.967107
 30
0.0
 11
38.222871
 21
192.967107
 31
0.0
  0
LINE
  5
484
330
6B
100
AcDbEntity
  8
0
100
AcDbLine
 10
42.893299
 20
192.967051
 30
0.0
 11
44.008878
 21
192.967051
 31
0.0
  0
LINE
  5
485
330
6B
100
AcDbEntity
  8
0
100
AcDbLine
 10
42.893299
 20
192.846215
 30
0.0
 11
42.893299
 21
192.967051
 31
0.0
  0
LINE
  5
486
330
6B
100
AcDbEntity
  8
0
100
AcDbLine
 10
42.893299
 20
190.593478
 30
0.0
 11
42.893299
 21
190.714426
 31
0.0
  0
LINE
  5
487
330
6B
100
AcDbEntity
  8
0
100
AcDbLine
 10
42.893299
 20
190.593478
 30
0.0
 11
44.008878
 21
190.593478
 31
0.0
  0
LINE
  5
488
330
6B
100
AcDbEntity
  8
0
100
AcDbLine
 10
44.125293
 20
190.714426
 30
0.0
 11
44.125293
 21
190.593478
 31
0.0
  0
LINE
  5
489
330
6B
100
AcDbEntity
  8
0
100
AcDbLine
 10
44.008878
 20
190.714426
 30
0.0
 11
44.008878
 21
190.593478
 31
0.0
  0
LINE
  5
48A
330
6B
100
AcDbEntity
  8
0
100
AcDbLine
 10
44.008878
 20
192.846215
 30
0.0
 11
44.008878
 21
192.967051
 31
0.0
  0
LINE
  5
48B
330
6B
100
AcDbEntity
  8
0
100
AcDbLine
 10
44.125293
 20
192.846215
 30
0.0
 11
44.125293
 21
192.967051
 31
0.0
  0
LINE
  5
48C
330
6B
100
AcDbEntity
  8
0
100
AcDbLine
 10
37.226891
 20
190.714426
 30
0.0
 11
37.226891
 21
190.593534
 31
0.0
  0
LINE
  5
48D
330
6B
100
AcDbEntity
  8
0
100
AcDbLine
 10
37.226891
 20
192.967107
 30
0.0
 11
37.226891
 21
192.846215
 31
0.0
  0
ARC
  5
48E
330
6B
100
AcDbEntity
  8
0
100
AcDbCircle
 10
47.838088
 20
192.029319
 30
0.0
 40
0.9377879999999999
100
AcDbArc
 50
17.308749
 51
23.765071
  0
ARC
  5
48F
330
6B
100
AcDbEntity
  8
0
100
AcDbCircle
 10
47.039074
 20
191.780321
 30
0.0
 40
1.774699999999999
100
AcDbArc
 50
342.691251
 51
17.308566
  0
ARC
  5
490
330
6B
100
AcDbEntity
  8
0
100
AcDbCircle
 10
47.838088
 20
191.5313219999999
 30
0.0
 40
0.9377879999999999
100
AcDbArc
 50
336.234929
 51
342.691251
  0
ARC
  5
491
330
6B
100
AcDbEntity
  8
0
100
AcDbCircle
 10
47.718088
 20
192.029319
 30
0.0
 40
0.9377879999999999
100
AcDbArc
 50
17.308749
 51
90.0
  0
ARC
  5
492
330
6B
100
AcDbEntity
  8
0
100
AcDbCircle
 10
46.919074
 20
191.780321
 30
0.0
 40
1.774699999999999
100
AcDbArc
 50
342.691251
 51
17.308566
  0
ARC
  5
493
330
6B
100
AcDbEntity
  8
0
100
AcDbCircle
 10
47.718088
 20
191.5313219999999
 30
0.0
 40
0.9377879999999999
100
AcDbArc
 50
270.0
 51
342.691251
  0
ARC
  5
494
330
6B
100
AcDbEntity
  8
0
100
AcDbCircle
 10
41.932979
 20
191.780321
 30
0.0
 40
1.186787
100
AcDbArc
 50
46.75287999999999
 51
89.749998
  0
ARC
  5
495
330
6B
100
AcDbEntity
  8
0
100
AcDbCircle
 10
41.932979
 20
191.780321
 30
0.0
 40
1.186787
100
AcDbArc
 50
273.976333
 51
312.82312
  0
ARC
  5
496
330
6B
100
AcDbEntity
  8
0
100
AcDbCircle
 10
48.471155
 20
191.762
 30
0.0
 40
1.574793999999999
100
AcDbArc
 50
0.6665840000000001
 51
23.903928
  0
ARC
  5
497
330
6B
100
AcDbEntity
  8
0
100
AcDbCircle
 10
50.708619
 20
191.762
 30
0.0
 40
1.574793999999999
100
AcDbArc
 50
156.096072
 51
179.333416
  0
ARC
  5
498
330
6B
100
AcDbEntity
  8
0
100
AcDbCircle
 10
48.471155
 20
191.798642
 30
0.0
 40
1.574793999999999
100
AcDbArc
 50
336.096072
 51
359.333416
  0
ARC
  5
499
330
6B
100
AcDbEntity
  8
0
100
AcDbCircle
 10
50.708619
 20
191.798642
 30
0.0
 40
1.574793999999999
100
AcDbArc
 50
180.666584
 51
203.903928
  0
TEXT
  5
49A
330
6B
100
AcDbEntity
  8
0
100
AcDbText
 10
66.76688699999999
 20
168.820748
 30
0.0
 40
2.08
  1
電源スイッチ
 41
0.833333
100
AcDbText
  0
TEXT
  5
49B
330
6B
100
AcDbEntity
  8
0
100
AcDbText
 10
34.190956
 20
168.297683
 30
0.0
 40
2.08
  1
バッテリー電圧
 41
0.833333
100
AcDbText
  0
TEXT
  5
49C
330
6B
100
AcDbEntity
  8
0
100
AcDbText
 10
51.392538
 20
168.514891
 30
0.0
 40
2.08
  1
充電電流切替
 41
0.833333
100
AcDbText
  0
TEXT
  5
49D
330
6B
100
AcDbEntity
  8
0
100
AcDbText
 10
38.627711
 20
175.90379
 30
0.0
 40
2.08
  1
充電電流計
 41
0.833333
100
AcDbText
  0
TEXT
  5
49E
330
6B
100
AcDbEntity
  8
0
100
AcDbText
 10
51.861069
 20
164.862515
 30
0.0
 40
2.08
  1
強
 41
0.833333
100
AcDbText
  0
TEXT
  5
49F
330
6B
100
AcDbEntity
  8
0
100
AcDbText
 10
56.035029
 20
166.092315
 30
0.0
 40
2.08
  1
中
 41
0.833333
100
AcDbText
  0
TEXT
  5
4A0
330
6B
100
AcDbEntity
  8
0
100
AcDbText
 10
60.00214599999999
 20
164.607807
 30
0.0
 40
2.08
  1
弱
 41
0.833333
100
AcDbText
  0
LINE
  5
4A1
330
6B
100
AcDbEntity
  8
0
100
AcDbLine
 10
48.79228
 20
187.62036
 30
0.0
 11
48.79228
 21
180.14536
 31
0.0
  0
LINE
  5
4A2
330
6B
100
AcDbEntity
  8
0
100
AcDbLine
 10
48.79228
 20
187.62036
 30
0.0
 11
38.69228
 21
187.62036
 31
0.0
  0
CIRCLE
  5
4A3
330
6B
100
AcDbEntity
  8
0
100
AcDbCircle
 10
43.74228
 20
180.770385
 30
0.0
 40
0.25
  0
LINE
  5
4A4
330
6B
100
AcDbEntity
  8
0
100
AcDbLine
 10
40.0126
 20
185.215245
 30
0.0
 11
40.335502
 21
184.830425
 31
0.0
  0
LINE
  5
4A5
330
6B
100
AcDbEntity
  8
0
100
AcDbLine
 10
47.988246
 20
185.016351
 30
0.0
 11
47.27708599999998
 21
184.3051909999999
 31
0.0
  0
LINE
  5
4A6
330
6B
100
AcDbEntity
  8
0
100
AcDbLine
 10
40.388746
 20
185.55973
 30
0.0
 11
40.676604
 21
185.148626
 31
0.0
  0
LINE
  5
4A7
330
6B
100
AcDbEntity
  8
0
100
AcDbLine
 10
40.799227
 20
185.867906
 30
0.0
 11
41.04993499999999
 21
185.433667
 31
0.0
  0
LINE
  5
4A8
330
6B
100
AcDbEntity
  8
0
100
AcDbLine
 10
41.24031699999997
 20
186.135868
 30
0.0
 11
41.45205299999999
 21
185.681798
 31
0.0
  0
LINE
  5
4A9
330
6B
100
AcDbEntity
  8
0
100
AcDbLine
 10
41.622174
 20
186.595338
 30
0.0
 11
41.879013
 21
185.88968
 31
0.0
  0
LINE
  5
4AA
330
6B
100
AcDbEntity
  8
0
100
AcDbLine
 10
42.196914
 20
186.537789
 30
0.0
 11
42.326421
 21
186.054461
 31
0.0
  0
LINE
  5
4AB
330
6B
100
AcDbEntity
  8
0
100
AcDbLine
 10
42.702657
 20
186.666421
 30
0.0
 11
42.78951
 21
186.173849
 31
0.0
  0
LINE
  5
4AC
330
6B
100
AcDbEntity
  8
0
100
AcDbLine
 10
43.219638
 20
186.744306
 30
0.0
 11
43.26322
 21
186.246166
 31
0.0
  0
LINE
  5
4AD
330
6B
100
AcDbEntity
  8
0
100
AcDbLine
 10
44.264943
 20
186.744304
 30
0.0
 11
44.221361
 21
186.246164
 31
0.0
  0
LINE
  5
4AE
330
6B
100
AcDbEntity
  8
0
100
AcDbLine
 10
44.781925
 20
186.666417
 30
0.0
 11
44.695071
 21
186.173845
 31
0.0
  0
LINE
  5
4AF
330
6B
100
AcDbEntity
  8
0
100
AcDbLine
 10
45.28766799999998
 20
186.537783
 30
0.0
 11
45.158161
 21
186.054454
 31
0.0
  0
LINE
  5
4B0
330
6B
100
AcDbEntity
  8
0
100
AcDbLine
 10
45.862408
 20
186.595329
 30
0.0
 11
43.74229099999999
 21
180.770354
 31
0.0
  0
LINE
  5
4B1
330
6B
100
AcDbEntity
  8
0
100
AcDbLine
 10
46.24426599999998
 20
186.135856
 30
0.0
 11
46.03253
 21
185.681786
 31
0.0
  0
LINE
  5
4B2
330
6B
100
AcDbEntity
  8
0
100
AcDbLine
 10
46.685357
 20
185.86789
 30
0.0
 11
46.434649
 21
185.433651
 31
0.0
  0
LINE
  5
4B3
330
6B
100
AcDbEntity
  8
0
100
AcDbLine
 10
47.09583799999999
 20
185.559711
 30
0.0
 11
46.80797899999999
 21
185.148606
 31
0.0
  0
LINE
  5
4B4
330
6B
100
AcDbEntity
  8
0
100
AcDbLine
 10
47.47198299999999
 20
185.215222
 30
0.0
 11
47.149081
 21
184.830402
 31
0.0
  0
LINE
  5
4B5
330
6B
100
AcDbEntity
  8
0
100
AcDbLine
 10
39.496292
 20
185.016323
 30
0.0
 11
40.029501
 21
184.483115
 31
0.0
  0
LINE
  5
4B6
330
6B
100
AcDbEntity
  8
0
100
AcDbLine
 10
38.69228
 20
180.14536
 30
0.0
 11
38.69228
 21
187.62036
 31
0.0
  0
LINE
  5
4B7
330
6B
100
AcDbEntity
  8
0
100
AcDbLine
 10
48.79228
 20
181.27036
 30
0.0
 11
38.69228
 21
181.27036
 31
0.0
  0
LINE
  5
4B8
330
6B
100
AcDbEntity
  8
0
100
AcDbLine
 10
48.79228
 20
180.89536
 30
0.0
 11
38.69228
 21
180.89536
 31
0.0
  0
LINE
  5
4B9
330
6B
100
AcDbEntity
  8
0
100
AcDbLine
 10
48.79228
 20
180.52036
 30
0.0
 11
38.69228
 21
180.52036
 31
0.0
  0
LINE
  5
4BA
330
6B
100
AcDbEntity
  8
0
100
AcDbLine
 10
48.79228
 20
180.14536
 30
0.0
 11
38.69228
 21
180.14536
 31
0.0
  0
ARC
  5
4BB
330
6B
100
AcDbEntity
  8
0
100
AcDbCircle
 10
43.74228
 20
180.770385
 30
0.0
 40
1.25
100
AcDbArc
 50
23.576928
 51
156.423072
  0
LINE
  5
4BC
330
6B
100
AcDbEntity
  8
0
100
AcDbLine
 10
72.547605
 20
163.958923
 30
0.0
 11
70.272605
 21
163.958923
 31
0.0
  0
LINE
  5
4BD
330
6B
100
AcDbEntity
  8
0
100
AcDbLine
 10
184.0956402469871
 20
40.913158
 30
0.0
 11
260.6133276769492
 21
40.913158
 31
0.0
  0
LINE
  5
4BE
330
6B
100
AcDbEntity
  8
0
100
AcDbLine
 10
184.0956402469871
 20
35.369158
 30
0.0
 11
260.6133276769492
 21
35.369158
 31
0.0
  0
LINE
  5
4BF
330
6B
100
AcDbEntity
  8
0
100
AcDbLine
 10
184.0956402469871
 20
29.825158
 30
0.0
 11
260.6133276769492
 21
29.82515800000001
 31
0.0
  0
LINE
  5
4C0
330
6B
100
AcDbEntity
  8
0
100
AcDbLine
 10
184.0956402469871
 20
24.281158
 30
0.0
 11
260.6133276769492
 21
24.281158
 31
0.0
  0
LINE
  5
4C1
330
6B
100
AcDbEntity
  8
0
100
AcDbLine
 10
184.0956402469871
 20
46.457158
 30
0.0
 11
260.6133276769492
 21
46.457158
 31
0.0
  0
LINE
  5
4C2
330
6B
100
AcDbEntity
  8
0
100
AcDbLine
 10
184.0956402469871
 20
13.193158
 30
0.0
 11
260.6133276769492
 21
13.193158
 31
0.0
  0
LINE
  5
4C3
330
6B
100
AcDbEntity
  8
0
100
AcDbLine
 10
184.0956402469871
 20
7.649157999999999
 30
0.0
 11
260.6133276769492
 21
7.649157999999999
 31
0.0
  0
LINE
  5
4C4
330
6B
100
AcDbEntity
  8
0
100
AcDbLine
 10
184.0956402469871
 20
2.105158
 30
0.0
 11
260.6133276769492
 21
2.105158
 31
0.0
  0
LINE
  5
4C5
330
6B
100
AcDbEntity
  8
0
100
AcDbLine
 10
184.0956402469871
 20
-3.438841999999998
 30
0.0
 11
260.6133276769492
 21
-3.438841999999998
 31
0.0
  0
LINE
  5
4C6
330
6B
100
AcDbEntity
  8
0
100
AcDbLine
 10
184.0956402469871
 20
18.737158
 30
0.0
 11
260.6133276769492
 21
18.737158
 31
0.0
  0
LINE
  5
4C7
330
6B
100
AcDbEntity
  8
0
100
AcDbLine
 10
83.6781447811448
 20
70.51463468013469
 30
0.0
 11
83.6781447811448
 21
-14.4155
 31
0.0
  0
LINE
  5
4C8
330
6B
100
AcDbEntity
  8
0
100
AcDbLine
 10
45.50474410774411
 20
70.51463468013469
 30
0.0
 11
45.50474410774411
 21
-14.4155
 31
0.0
  0
LINE
  5
4C9
330
6B
100
AcDbEntity
  8
0
100
AcDbLine
 10
-4.489363636363632
 20
70.51463468013469
 30
0.0
 11
-4.489363636363632
 21
-14.4155
 31
0.0
  0
LINE
  5
4CA
330
6B
100
AcDbEntity
  8
0
100
AcDbLine
 10
52.18403703703703
 20
70.51463468013469
 30
0.0
 11
52.18403703703703
 21
-14.4155
 31
0.0
  0
TEXT
  5
4CB
330
6B
100
AcDbEntity
  8
0
 62
     3
100
AcDbText
 10
85.17814478114479
 20
66.0180016835017
 30
0.0
 40
3.2
  1
成形品
 41
0.8
  7
高3.2
100
AcDbText
  0
TEXT
  5
4CC
330
6B
100
AcDbEntity
  8
0
 62
     3
100
AcDbText
 10
85.17814478114479
 20
61.02221043771042
 30
0.0
 40
3.2
  1
成形品
 41
0.8
  7
高3.2
100
AcDbText
  0
TEXT
  5
4CD
330
6B
100
AcDbEntity
  8
0
 62
     3
100
AcDbText
 10
85.17814478114479
 20
46.0348367003367
 30
0.0
 40
3.2
  1
成形品
 41
0.8
  7
高3.2
100
AcDbText
  0
TEXT
  5
4CE
330
6B
100
AcDbEntity
  8
0
 62
     3
100
AcDbText
 10
85.17814478114479
 20
26.05167171717172
 30
0.0
 40
3.2
  1
ランプ付きシーソー型
 41
0.8
  7
高3.2
100
AcDbText
  0
TEXT
  5
4CF
330
6B
100
AcDbEntity
  8
0
 62
     3
100
AcDbText
 10
85.17814478114479
 20
36.04325420875421
 30
0.0
 40
3.2
  1
10A
 41
0.8
  7
高3.2
100
AcDbText
  0
TEXT
  5
4D0
330
6B
100
AcDbEntity
  8
0
 62
     3
100
AcDbText
 10
85.17814478114479
 20
11.06429797979798
 30
0.0
 40
3.2
  1
%%c25
 41
0.8
  7
高3.2
100
AcDbText
  0
TEXT
  5
4D1
330
6B
100
AcDbEntity
  8
0
 62
     3
100
AcDbText
 10
85.17814478114479
 20
6.068506734006732
 30
0.0
 40
3.2
  1
焼付塗装仕上げ
 41
0.8
  7
高3.2
100
AcDbText
  0
TEXT
  5
4D2
330
6B
100
AcDbEntity
  8
0
 62
     3
100
AcDbText
 10
85.17814478114479
 20
-3.923917508417508
 30
0.0
 40
3.2
  1
焼付塗装仕上げ
 41
0.8
  7
高3.2
100
AcDbText
  0
TEXT
  5
4D3
330
6B
100
AcDbEntity
  8
0
 62
     3
100
AcDbText
 10
85.17814478114479
 20
1.071873737373735
 30
0.0
 40
3.2
  1
焼付塗装仕上げ
 41
0.8
  7
高3.2
100
AcDbText
  0
TEXT
  5
4D4
330
6B
100
AcDbEntity
  8
0
 62
     3
100
AcDbText
 10
85.17814478114479
 20
-8.919708754208754
 30
0.0
 40
3.2
  1
焼付塗装仕上げ
 41
0.8
  7
高3.2
100
AcDbText
  0
TEXT
  5
4D5
330
6B
100
AcDbEntity
  8
0
 62
     3
100
AcDbText
 10
85.17814478114479
 20
41.03904545454546
 30
0.0
 40
3.2
  1
25A
 41
0.8
  7
高3.2
100
AcDbText
  0
TEXT
  5
4D6
330
6B
100
AcDbEntity
  8
0
 62
     3
100
AcDbText
 10
85.17814478114479
 20
56.02641919191921
 30
0.0
 40
3.2
  1
5.5sqx2m
 41
0.8
  7
高3.2
100
AcDbText
  0
TEXT
  5
4D7
330
6B
100
AcDbEntity
  8
0
 62
     3
100
AcDbText
 10
85.17814478114479
 20
51.03062794612792
 30
0.0
 40
3.2
  1
1.25sqx2cx2m
 41
0.8
  7
高3.2
100
AcDbText
  0
TEXT
  5
4D8
330
6B
100
AcDbEntity
  8
0
 62
     3
100
AcDbText
 10
47.0047441077441
 20
-8.919708754208752
 30
0.0
 40
3.2
  1
1
 41
0.8
  7
高3.2
100
AcDbText
  0
TEXT
  5
4D9
330
6B
100
AcDbEntity
  8
0
 62
     3
100
AcDbText
 10
47.0047441077441
 20
-3.923917508417506
 30
0.0
 40
3.2
  1
1
 41
0.8
  7
高3.2
100
AcDbText
  0
TEXT
  5
4DA
330
6B
100
AcDbEntity
  8
0
 62
     3
100
AcDbText
 10
47.0047441077441
 20
1.071873737373737
 30
0.0
 40
3.2
  1
1
 41
0.8
  7
高3.2
100
AcDbText
  0
TEXT
  5
4DB
330
6B
100
AcDbEntity
  8
0
 62
     3
100
AcDbText
 10
47.0047441077441
 20
6.068506734006732
 30
0.0
 40
3.2
  1
1
 41
0.8
  7
高3.2
100
AcDbText
  0
TEXT
  5
4DC
330
6B
100
AcDbEntity
  8
0
 62
     3
100
AcDbText
 10
47.0047441077441
 20
11.06429797979798
 30
0.0
 40
3.2
  1
4
 41
0.8
  7
高3.2
100
AcDbText
  0
TEXT
  5
4DD
330
6B
100
AcDbEntity
  8
0
 62
     3
100
AcDbText
 10
47.0047441077441
 20
16.06008922558922
 30
0.0
 40
3.2
  1
1
 41
0.8
  7
高3.2
100
AcDbText
  0
TEXT
  5
4DE
330
6B
100
AcDbEntity
  8
0
 62
     3
100
AcDbText
 10
47.0047441077441
 20
21.05588047138048
 30
0.0
 40
3.2
  1
1
 41
0.8
  7
高3.2
100
AcDbText
  0
TEXT
  5
4DF
330
6B
100
AcDbEntity
  8
0
 62
     3
100
AcDbText
 10
47.0047441077441
 20
26.05167171717172
 30
0.0
 40
3.2
  1
1
 41
0.8
  7
高3.2
100
AcDbText
  0
TEXT
  5
4E0
330
6B
100
AcDbEntity
  8
0
 62
     3
100
AcDbText
 10
47.0047441077441
 20
31.04746296296297
 30
0.0
 40
3.2
  1
1
 41
0.8
  7
高3.2
100
AcDbText
  0
TEXT
  5
4E1
330
6B
100
AcDbEntity
  8
0
 62
     3
100
AcDbText
 10
47.0047441077441
 20
66.0180016835017
 30
0.0
 40
3.2
  1
2
 41
0.8
  7
高3.2
100
AcDbText
  0
TEXT
  5
4E2
330
6B
100
AcDbEntity
  8
0
 62
     3
100
AcDbText
 10
47.0047441077441
 20
61.02221043771042
 30
0.0
 40
3.2
  1
1
 41
0.8
  7
高3.2
100
AcDbText
  0
TEXT
  5
4E3
330
6B
100
AcDbEntity
  8
0
 62
     3
100
AcDbText
 10
47.0047441077441
 20
51.03062794612792
 30
0.0
 40
3.2
  1
1
 41
0.8
  7
高3.2
100
AcDbText
  0
TEXT
  5
4E4
330
6B
100
AcDbEntity
  8
0
 62
     3
100
AcDbText
 10
47.0047441077441
 20
46.0348367003367
 30
0.0
 40
3.2
  1
1
 41
0.8
  7
高3.2
100
AcDbText
  0
TEXT
  5
4E5
330
6B
100
AcDbEntity
  8
0
 62
     3
100
AcDbText
 10
47.0047441077441
 20
41.03904545454546
 30
0.0
 40
3.2
  1
1
 41
0.8
  7
高3.2
100
AcDbText
  0
TEXT
  5
4E6
330
6B
100
AcDbEntity
  8
0
 62
     3
100
AcDbText
 10
47.0047441077441
 20
36.04325420875421
 30
0.0
 40
3.2
  1
1
 41
0.8
  7
高3.2
100
AcDbText
  0
TEXT
  5
4E7
330
6B
100
AcDbEntity
  8
0
 62
     3
100
AcDbText
 10
47.0047441077441
 20
56.02641919191921
 30
0.0
 40
3.2
  1
2
 41
0.8
  7
高3.2
100
AcDbText
  0
TEXT
  5
4E8
330
6B
100
AcDbEntity
  8
0
 62
     3
100
AcDbText
 10
53.68403703703704
 20
6.068506734006732
 30
0.0
 40
3.2
  1
SPCC
 41
0.8
  7
高3.2
100
AcDbText
  0
TEXT
  5
4E9
330
6B
100
AcDbEntity
  8
0
 62
     3
100
AcDbText
 10
53.68403703703704
 20
1.071873737373735
 30
0.0
 40
3.2
  1
SPCC
 41
0.8
  7
高3.2
100
AcDbText
  0
TEXT
  5
4EA
330
6B
100
AcDbEntity
  8
0
 62
     3
100
AcDbText
 10
53.68403703703704
 20
-3.923917508417508
 30
0.0
 40
3.2
  1
SPCC
 41
0.8
  7
高3.2
100
AcDbText
  0
TEXT
  5
4EB
330
6B
100
AcDbEntity
  8
0
 62
     3
100
AcDbText
 10
53.68403703703704
 20
-8.919708754208754
 30
0.0
 40
3.2
  1
SPCC
 41
0.8
  7
高3.2
100
AcDbText
  0
TEXT
  5
4EC
330
6B
100
AcDbEntity
  8
0
 62
     3
100
AcDbText
 10
53.68403703703704
 20
61.02221043771042
 30
0.0
 40
3.2
  1
ナイロン樹脂
 41
0.8
  7
高3.2
100
AcDbText
  0
TEXT
  5
4ED
330
6B
100
AcDbEntity
  8
0
 62
     3
100
AcDbText
 10
53.68403703703704
 20
66.0180016835017
 30
0.0
 40
3.2
  1
ナイロン樹脂
 41
0.8
  7
高3.2
100
AcDbText
  0
TEXT
  5
4EE
330
6B
100
AcDbEntity
  8
0
 62
     3
100
AcDbText
 10
53.68403703703704
 20
11.06429797979798
 30
0.0
 40
3.2
  1
合成ゴム
 41
0.8
  7
高3.2
100
AcDbText
  0
TEXT
  5
4EF
330
6B
100
AcDbEntity
  8
0
 62
     3
100
AcDbText
 10
53.68403703703704
 20
46.0348367003367
 30
0.0
 40
3.2
  1
PF樹脂
 41
0.8
  7
高3.2
100
AcDbText
  0
TEXT
  5
4F0
330
6B
100
AcDbEntity
  8
0
 62
     3
100
AcDbText
 10
53.68403703703704
 20
51.03062794612792
 30
0.0
 40
3.2
  1
VCTFK
 41
0.8
  7
高3.2
100
AcDbText
  0
TEXT
  5
4F2
330
6B
100
AcDbEntity
  8
0
 62
     3
100
AcDbText
 10
53.68403703703704
 20
56.02641919191921
 30
0.0
 40
3.2
  1
SAVF 赤／黒
 41
0.8
  7
高3.2
100
AcDbText
  0
TEXT
  5
4F3
330
6B
100
AcDbEntity
  8
0
 62
     3
100
AcDbText
 10
-2.989363636363636
 20
6.068506734006732
 30
0.0
 40
3.2
  1
後面パネル
 41
0.8
  7
高3.2
100
AcDbText
  0
TEXT
  5
4F4
330
6B
100
AcDbEntity
  8
0
 62
     3
100
AcDbText
 10
-2.989363636363636
 20
1.071873737373737
 30
0.0
 40
3.2
  1
前面パネル
 41
0.8
  7
高3.2
100
AcDbText
  0
TEXT
  5
4F5
330
6B
100
AcDbEntity
  8
0
 62
     3
100
AcDbText
 10
-2.989363636363636
 20
-3.923917508417506
 30
0.0
 40
3.2
  1
シャ－シ
 41
0.8
  7
高3.2
100
AcDbText
  0
TEXT
  5
4F6
330
6B
100
AcDbEntity
  8
0
 62
     3
100
AcDbText
 10
-2.989363636363636
 20
-8.919708754208752
 30
0.0
 40
3.2
  1
カバ－
 41
0.8
  7
高3.2
100
AcDbText
  0
TEXT
  5
4F7
330
6B
100
AcDbEntity
  8
0
 62
     3
100
AcDbText
 10
-2.989363636363636
 20
66.0180016835017
 30
0.0
 40
3.2
  1
コ－ドフック
 41
0.8
  7
高3.2
100
AcDbText
  0
TEXT
  5
4F8
330
6B
100
AcDbEntity
  8
0
 62
     3
100
AcDbText
 10
-2.989363636363636
 20
61.02221043771042
 30
0.0
 40
3.2
  1
プロテクター
 41
0.8
  7
高3.2
100
AcDbText
  0
TEXT
  5
4F9
330
6B
100
AcDbEntity
  8
0
 62
     3
100
AcDbText
 10
-2.989363636363636
 20
46.0348367003367
 30
0.0
 40
3.2
  1
把手
 41
0.8
  7
高3.2
100
AcDbText
  0
TEXT
  5
4FA
330
6B
100
AcDbEntity
  8
0
 62
     3
100
AcDbText
 10
-11.353
 20
31.04746296296297
 30
0.0
 40
3.2
  1
9
 41
0.8
  7
高3.2
100
AcDbText
  0
TEXT
  5
4FB
330
6B
100
AcDbEntity
  8
0
 62
     3
100
AcDbText
 10
-11.353
 20
26.05167171717172
 30
0.0
 40
3.2
  1
8
 41
0.8
  7
高3.2
100
AcDbText
  0
TEXT
  5
4FC
330
6B
100
AcDbEntity
  8
0
 62
     3
100
AcDbText
 10
-11.353
 20
21.05588047138048
 30
0.0
 40
3.2
  1
7
 41
0.8
  7
高3.2
100
AcDbText
  0
TEXT
  5
4FD
330
6B
100
AcDbEntity
  8
0
 62
     3
100
AcDbText
 10
-11.353
 20
16.06008922558922
 30
0.0
 40
3.2
  1
6
 41
0.8
  7
高3.2
100
AcDbText
  0
TEXT
  5
4FE
330
6B
100
AcDbEntity
  8
0
 62
     3
100
AcDbText
 10
-11.353
 20
11.06429797979798
 30
0.0
 40
3.2
  1
5
 41
0.8
  7
高3.2
100
AcDbText
  0
TEXT
  5
4FF
330
6B
100
AcDbEntity
  8
0
 62
     3
100
AcDbText
 10
-11.353
 20
6.068506734006732
 30
0.0
 40
3.2
  1
4
 41
0.8
  7
高3.2
100
AcDbText
  0
TEXT
  5
500
330
6B
100
AcDbEntity
  8
0
 62
     3
100
AcDbText
 10
-11.353
 20
1.071873737373737
 30
0.0
 40
3.2
  1
3
 41
0.8
  7
高3.2
100
AcDbText
  0
TEXT
  5
501
330
6B
100
AcDbEntity
  8
0
 62
     3
100
AcDbText
 10
-11.353
 20
-3.923917508417506
 30
0.0
 40
3.2
  1
2
 41
0.8
  7
高3.2
100
AcDbText
  0
TEXT
  5
502
330
6B
100
AcDbEntity
  8
0
 62
     3
100
AcDbText
 10
-11.353
 20
-8.919708754208752
 30
0.0
 40
3.2
  1
1
 41
0.8
  7
高3.2
100
AcDbText
  0
TEXT
  5
503
330
6B
100
AcDbEntity
  8
0
 62
     3
100
AcDbText
 10
-11.353
 20
36.04325420875421
 30
0.0
 40
3.2
  1
10
 41
0.8
  7
高3.2
100
AcDbText
  0
TEXT
  5
504
330
6B
100
AcDbEntity
  8
0
 62
     3
100
AcDbText
 10
-11.353
 20
41.03904545454546
 30
0.0
 40
3.2
  1
11
 41
0.8
  7
高3.2
100
AcDbText
  0
TEXT
  5
505
330
6B
100
AcDbEntity
  8
0
 62
     3
100
AcDbText
 10
-11.353
 20
46.0348367003367
 30
0.0
 40
3.2
  1
12
 41
0.8
  7
高3.2
100
AcDbText
  0
TEXT
  5
506
330
6B
100
AcDbEntity
  8
0
 62
     3
100
AcDbText
 10
-11.353
 20
51.03062794612792
 30
0.0
 40
3.2
  1
13
 41
0.8
  7
高3.2
100
AcDbText
  0
TEXT
  5
507
330
6B
100
AcDbEntity
  8
0
 62
     3
100
AcDbText
 10
-11.353
 20
56.02641919191921
 30
0.0
 40
3.2
  1
14
 41
0.8
  7
高3.2
100
AcDbText
  0
TEXT
  5
508
330
6B
100
AcDbEntity
  8
0
 62
     3
100
AcDbText
 10
-11.353
 20
61.02221043771042
 30
0.0
 40
3.2
  1
15
 41
0.8
  7
高3.2
100
AcDbText
  0
TEXT
  5
509
330
6B
100
AcDbEntity
  8
0
 62
     3
100
AcDbText
 10
-11.353
 20
66.0180016835017
 30
0.0
 40
3.2
  1
16
 41
0.8
  7
高3.2
100
AcDbText
  0
TEXT
  5
50A
330
6B
100
AcDbEntity
  8
0
 62
     3
100
AcDbText
 10
-2.989363636363636
 20
16.06008922558922
 30
0.0
 40
3.2
  1
充電電流計
 41
0.8
  7
高3.2
100
AcDbText
  0
TEXT
  5
50B
330
6B
100
AcDbEntity
  8
0
 62
     3
100
AcDbText
 10
-2.989363636363636
 20
21.05588047138048
 30
0.0
 40
3.2
  1
バッテリー電圧切替スイッチ
 41
0.8
  7
高3.2
100
AcDbText
  0
TEXT
  5
50C
330
6B
100
AcDbEntity
  8
0
 62
     3
100
AcDbText
 10
-2.989363636363636
 20
11.06429797979798
 30
0.0
 40
3.2
  1
ゴム足
 41
0.8
  7
高3.2
100
AcDbText
  0
TEXT
  5
50D
330
6B
100
AcDbEntity
  8
0
 62
     3
100
AcDbText
 10
-2.989363636363636
 20
31.04746296296297
 30
0.0
 40
3.2
  1
充電電流切替スイッチ
 41
0.8
  7
高3.2
100
AcDbText
  0
TEXT
  5
50E
330
6B
100
AcDbEntity
  8
0
 62
     3
100
AcDbText
 10
-2.989363636363636
 20
26.05167171717172
 30
0.0
 40
3.2
  1
電源スイッチ
 41
0.8
  7
高3.2
100
AcDbText
  0
TEXT
  5
50F
330
6B
100
AcDbEntity
  8
0
 62
     3
100
AcDbText
 10
-2.989363636363636
 20
36.04325420875421
 30
0.0
 40
3.2
  1
入力サーキットブレーカー
 41
0.8
  7
高3.2
100
AcDbText
  0
TEXT
  5
510
330
6B
100
AcDbEntity
  8
0
 62
     3
100
AcDbText
 10
-2.989363636363636
 20
41.03904545454546
 30
0.0
 40
3.2
  1
出力サーキットブレーカー
 41
0.8
  7
高3.2
100
AcDbText
  0
TEXT
  5
511
330
6B
100
AcDbEntity
  8
0
 62
     3
100
AcDbText
 10
-2.989363636363636
 20
51.03062794612792
 30
0.0
 40
3.2
  1
プラグ付き入力コード
 41
0.8
  7
高3.2
100
AcDbText
  0
TEXT
  5
512
330
6B
100
AcDbEntity
  8
0
 62
     3
100
AcDbText
 10
-2.989363636363636
 20
56.02641919191921
 30
0.0
 40
3.2
  1
クリップ付き出力コード
 41
0.8
  7
高3.2
100
AcDbText
  0
TEXT
  5
513
330
6B
100
AcDbEntity
  8
0
 62
     3
100
AcDbText
 10
85.17814478114479
 20
-13.91549999999999
 30
0.0
 40
3.2
  1
備　　　　考
 41
0.8
  7
高3.2
100
AcDbText
  0
TEXT
  5
514
330
6B
100
AcDbEntity
  8
0
 62
     3
100
AcDbText
 10
53.68403703703704
 20
-13.9155
 30
0.0
 40
3.2
  1
材　　質
 41
0.8
  7
高3.2
100
AcDbText
  0
TEXT
  5
515
330
6B
100
AcDbEntity
  8
0
 62
     3
100
AcDbText
 10
47.0047441077441
 20
-13.9155
 30
0.0
 40
3.2
  1
数
 41
0.8
  7
高3.2
100
AcDbText
  0
TEXT
  5
516
330
6B
100
AcDbEntity
  8
0
 62
     3
100
AcDbText
 10
-2.989363636363635
 20
-13.9155
 30
0.0
 40
3.2
  1
部　　　品　　　名
 41
0.8
  7
高3.2
100
AcDbText
  0
TEXT
  5
517
330
6B
100
AcDbEntity
  8
0
 62
     3
100
AcDbText
 10
-11.353
 20
-13.9155
 30
0.0
 40
3.2
  1
No
 41
0.8
  7
高3.2
100
AcDbText
  0
LINE
  5
518
330
6B
100
AcDbEntity
  8
0
 62
     3
100
AcDbLine
 10
377.046964
 20
31.250223
 30
0.0
 11
325.4476
 21
31.250223
 31
0.0
  0
TEXT
  5
519
330
6B
100
AcDbEntity
  8
0
 62
     3
100
AcDbText
 10
326.497114
 20
25.806308
 30
0.0
 40
4.5
  1
コード
  7
高4.5
100
AcDbText
  0
LINE
  5
51A
330
6B
100
AcDbEntity
  8
0
 62
     3
100
AcDbLine
 10
351.4476
 20
25.250223
 30
0.0
 11
351.4476
 21
31.250223
 31
0.0
  0
LINE
  5
51B
330
6B
100
AcDbEntity
  8
0
 62
     3
100
AcDbLine
 10
325.4476
 20
25.250223
 30
0.0
 11
325.4476
 21
31.250223
 31
0.0
  0
LINE
  5
51C
330
6B
100
AcDbEntity
  8
0
 62
     3
100
AcDbLine
 10
-12.853
 20
70.51463468013469
 30
0.0
 11
130.2669772727273
 21
70.51463468013469
 31
0.0
  0
LINE
  5
51D
330
6B
100
AcDbEntity
  8
0
100
AcDbLine
 10
-12.853
 20
50.53062794612793
 30
0.0
 11
130.2669772727273
 21
50.53062794612793
 31
0.0
  0
LINE
  5
51E
330
6B
100
AcDbEntity
  8
0
100
AcDbLine
 10
-12.853
 20
45.5348367003367
 30
0.0
 11
130.2669772727273
 21
45.5348367003367
 31
0.0
  0
LINE
  5
51F
330
6B
100
AcDbEntity
  8
0
100
AcDbLine
 10
-12.853
 20
40.53904545454545
 30
0.0
 11
130.2669772727273
 21
40.53904545454545
 31
0.0
  0
LINE
  5
520
330
6B
100
AcDbEntity
  8
0
100
AcDbLine
 10
-12.853
 20
65.51800168350169
 30
0.0
 11
130.2669772727273
 21
65.51800168350169
 31
0.0
  0
LINE
  5
521
330
6B
100
AcDbEntity
  8
0
100
AcDbLine
 10
-12.853
 20
60.52221043771043
 30
0.0
 11
130.2669772727273
 21
60.52221043771043
 31
0.0
  0
LINE
  5
522
330
6B
100
AcDbEntity
  8
0
100
AcDbLine
 10
-12.853
 20
55.5264191919192
 30
0.0
 11
130.2669772727273
 21
55.5264191919192
 31
0.0
  0
LINE
  5
523
330
6B
100
AcDbEntity
  8
0
100
AcDbLine
 10
-12.853
 20
20.55588047138048
 30
0.0
 11
130.2669772727273
 21
20.55588047138048
 31
0.0
  0
LINE
  5
524
330
6B
100
AcDbEntity
  8
0
100
AcDbLine
 10
-12.853
 20
25.55167171717172
 30
0.0
 11
130.2669772727273
 21
25.55167171717172
 31
0.0
  0
LINE
  5
525
330
6B
100
AcDbEntity
  8
0
100
AcDbLine
 10
-12.853
 20
30.54746296296297
 30
0.0
 11
130.2669772727273
 21
30.54746296296297
 31
0.0
  0
LINE
  5
526
330
6B
100
AcDbEntity
  8
0
100
AcDbLine
 10
-12.853
 20
-4.423917508417502
 30
0.0
 11
130.2669772727273
 21
-4.423917508417502
 31
0.0
  0
LINE
  5
527
330
6B
100
AcDbEntity
  8
0
100
AcDbLine
 10
-12.853
 20
0.5718737373737386
 30
0.0
 11
130.2669772727273
 21
0.5718737373737386
 31
0.0
  0
LINE
  5
528
330
6B
100
AcDbEntity
  8
0
100
AcDbLine
 10
-12.853
 20
5.568506734006733
 30
0.0
 11
130.2669772727273
 21
5.568506734006733
 31
0.0
  0
LINE
  5
529
330
6B
100
AcDbEntity
  8
0
100
AcDbLine
 10
-12.853
 20
10.56429797979798
 30
0.0
 11
130.2669772727273
 21
10.56429797979798
 31
0.0
  0
LINE
  5
52A
330
6B
100
AcDbEntity
  8
0
100
AcDbLine
 10
-12.853
 20
15.56008922558922
 30
0.0
 11
130.2669772727273
 21
15.56008922558922
 31
0.0
  0
LINE
  5
52B
330
6B
100
AcDbEntity
  8
0
100
AcDbLine
 10
-12.853
 20
35.54325420875422
 30
0.0
 11
130.2669772727273
 21
35.54325420875422
 31
0.0
  0
LINE
  5
52C
330
6B
100
AcDbEntity
  8
0
 62
     3
100
AcDbLine
 10
-12.853
 20
-9.419708754208752
 30
0.0
 11
130.2669772727273
 21
-9.419708754208752
 31
0.0
  0
TEXT
  5
52D
330
6B
100
AcDbEntity
  8
0
 62
     3
100
AcDbText
 10
352.740391
 20
25.748579
 30
0.0
 40
4.5
  1
6546
  7
高4.5
100
AcDbText
  0
TEXT
  5
609
330
6B
100
AcDbEntity
  8
0
 62
     3
100
AcDbText
 10
364.647
 20
253.0845
 30
0.0
 40
3.2
  1
担　当
  7
高3.2
100
AcDbText
  0
TEXT
  5
60A
330
6B
100
AcDbEntity
  8
0
 62
     3
100
AcDbText
 10
320.647
 20
253.0845
 30
0.0
 40
3.2
  1
変更・追記内容
  7
高3.2
100
AcDbText
  0
TEXT
  5
60B
330
6B
100
AcDbEntity
  8
0
 62
     3
100
AcDbText
 10
295.7605150003392
 20
248.4139614900917
 30
0.0
 40
2.0
  1
1
  7
高2
100
AcDbText
  0
TEXT
  5
60C
330
6B
100
AcDbEntity
  8
0
 62
     3
100
AcDbText
 10
295.452003523582
 20
243.2441447778188
 30
0.0
 40
2.0
  1
2
  7
高2
100
AcDbText
  0
TEXT
  5
60D
330
6B
100
AcDbEntity
  8
0
 62
     3
100
AcDbText
 10
302.647
 20
253.0845
 30
0.0
 40
3.2
  1
日　付
  7
高3.2
100
AcDbText
  0
TEXT
  5
60E
330
6B
100
AcDbEntity
  8
0
 62
     3
100
AcDbText
 10
302.647
 20
258.0845
 30
0.0
 40
3.2
  1
図　　　　面　　　　略　　　　歴
  7
高3.2
100
AcDbText
  0
TEXT
  5
60F
330
6B
100
AcDbEntity
  8
0
 62
     3
100
AcDbText
 10
292.647
 20
253.0845
 30
0.0
 40
3.2
  1
記号
  7
高3.2
100
AcDbText
  0
LINE
  5
610
330
6B
100
AcDbEntity
  8
0
100
AcDbLine
 10
296.147
 20
246.3753960000001
 30
0.0
 11
294.247
 21
243.0845
 31
0.0
  0
LINE
  5
611
330
6B
100
AcDbEntity
  8
0
100
AcDbLine
 10
296.147
 20
246.3753960000001
 30
0.0
 11
298.047
 21
243.0845
 31
0.0
  0
LINE
  5
612
330
6B
100
AcDbEntity
  8
0
100
AcDbLine
 10
294.247
 20
243.0845
 30
0.0
 11
298.047
 21
243.0845
 31
0.0
  0
LINE
  5
613
330
6B
100
AcDbEntity
  8
0
100
AcDbLine
 10
296.147
 20
251.3753970000001
 30
0.0
 11
294.247
 21
248.0845
 31
0.0
  0
LINE
  5
614
330
6B
100
AcDbEntity
  8
0
100
AcDbLine
 10
296.147
 20
251.3753970000001
 30
0.0
 11
298.047
 21
248.0845
 31
0.0
  0
LINE
  5
615
330
6B
100
AcDbEntity
  8
0
100
AcDbLine
 10
294.247
 20
248.0845
 30
0.0
 11
298.047
 21
248.0845
 31
0.0
  0
LINE
  5
616
330
6B
100
AcDbEntity
  8
0
 62
     3
100
AcDbLine
 10
291.147
 20
257.5845
 30
0.0
 11
377.147
 21
257.5845
 31
0.0
  0
LINE
  5
617
330
6B
100
AcDbEntity
  8
0
 62
     3
100
AcDbLine
 10
291.147
 20
252.5845
 30
0.0
 11
377.147
 21
252.5845
 31
0.0
  0
LINE
  5
618
330
6B
100
AcDbEntity
  8
0
 62
     7
100
AcDbLine
 10
291.147
 20
247.5845
 30
0.0
 11
377.147
 21
247.5845
 31
0.0
  0
LINE
  5
619
330
6B
100
AcDbEntity
  8
0
 62
     3
100
AcDbLine
 10
291.147
 20
242.5845
 30
0.0
 11
377.147
 21
242.5845
 31
0.0
  0
LINE
  5
61A
330
6B
100
AcDbEntity
  8
0
 62
     7
100
AcDbLine
 10
363.1469999999998
 20
242.5845
 30
0.0
 11
363.147
 21
257.5845
 31
0.0
  0
LINE
  5
61B
330
6B
100
AcDbEntity
  8
0
 62
     7
100
AcDbLine
 10
319.147
 20
242.5845
 30
0.0
 11
319.147
 21
257.5845
 31
0.0
  0
LINE
  5
61C
330
6B
100
AcDbEntity
  8
0
 62
     7
100
AcDbLine
 10
301.147
 20
242.5845
 30
0.0
 11
301.147
 21
257.5845
 31
0.0
  0
LINE
  5
61D
330
6B
100
AcDbEntity
  8
0
 62
     3
100
AcDbLine
 10
291.147
 20
242.5845
 30
0.0
 11
291.147
 21
262.5845
 31
0.0
  0
TEXT
  5
92D
330
6B
100
AcDbEntity
  8
0
  6
Continuous
100
AcDbText
 10
302.647
 20
248.0845
 30
0.0
 40
2.5
  1
'15.02.09
  7
高2.5
100
AcDbText
  0
TEXT
  5
92E
330
6B
100
AcDbEntity
  8
0
  6
Continuous
100
AcDbText
 10
320.647
 20
248.0845
 30
0.0
 40
2.5
  1
充電時間および出力保護ブレーカー値修正
 41
0.7
  7
高2.5
100
AcDbText
  0
TEXT
  5
92F
330
6B
100
AcDbEntity
  8
0
  6
Continuous
100
AcDbText
 10
364.6469999999998
 20
248.0844999999993
 30
0.0
 40
2.5
  1
今村
  7
高2.5
100
AcDbText
  0
LINE
  5
B49
330
6B
100
AcDbEntity
  8
0
100
AcDbLine
 10
42.220386
 20
192.086466
 30
0.0
 11
42.20974099999999
 21
192.154619
 31
0.0
  0
LINE
  5
B4C
330
6B
100
AcDbEntity
  8
0
100
AcDbLine
 10
42.20974099999999
 20
192.154619
 30
0.0
 11
42.196958
 21
192.219879
 31
0.0
  0
LINE
  5
B4D
330
6B
100
AcDbEntity
  8
0
100
AcDbLine
 10
42.196958
 20
192.219879
 30
0.0
 11
42.182134
 21
192.281741
 31
0.0
  0
LINE
  5
B4E
330
6B
100
AcDbEntity
  8
0
100
AcDbLine
 10
42.182134
 20
192.281741
 30
0.0
 11
42.165384
 21
192.339727
 31
0.0
  0
LINE
  5
B4F
330
6B
100
AcDbEntity
  8
0
100
AcDbLine
 10
42.165384
 20
192.339727
 30
0.0
 11
42.146838
 21
192.39339
 31
0.0
  0
LINE
  5
B50
330
6B
100
AcDbEntity
  8
0
100
AcDbLine
 10
42.146838
 20
192.39339
 30
0.0
 11
42.126639
 21
192.442314
 31
0.0
  0
LINE
  5
B51
330
6B
100
AcDbEntity
  8
0
100
AcDbLine
 10
42.126639
 20
192.442314
 30
0.0
 11
42.10494299999999
 21
192.486121
 31
0.0
  0
LINE
  5
B52
330
6B
100
AcDbEntity
  8
0
100
AcDbLine
 10
42.10494299999999
 20
192.486121
 30
0.0
 11
42.08191699999999
 21
192.524473
 31
0.0
  0
LINE
  5
B53
330
6B
100
AcDbEntity
  8
0
100
AcDbLine
 10
42.08191699999999
 20
192.524473
 30
0.0
 11
42.057741
 21
192.557073
 31
0.0
  0
LINE
  5
B54
330
6B
100
AcDbEntity
  8
0
100
AcDbLine
 10
42.057741
 20
192.557073
 30
0.0
 11
42.0326
 21
192.583668
 31
0.0
  0
LINE
  5
B55
330
6B
100
AcDbEntity
  8
0
100
AcDbLine
 10
42.0326
 20
192.583668
 30
0.0
 11
42.006689
 21
192.604055
 31
0.0
  0
LINE
  5
B56
330
6B
100
AcDbEntity
  8
0
100
AcDbLine
 10
42.006689
 20
192.604055
 30
0.0
 11
41.980209
 21
192.618074
 31
0.0
  0
LINE
  5
B57
330
6B
100
AcDbEntity
  8
0
100
AcDbLine
 10
41.980209
 20
192.618074
 30
0.0
 11
41.953363
 21
192.625618
 31
0.0
  0
LINE
  5
B58
330
6B
100
AcDbEntity
  8
0
100
AcDbLine
 10
41.953363
 20
192.625618
 30
0.0
 11
41.92635999999999
 21
192.626628
 31
0.0
  0
LINE
  5
B59
330
6B
100
AcDbEntity
  8
0
100
AcDbLine
 10
41.92635999999999
 20
192.626628
 30
0.0
 11
41.899408
 21
192.6210969999999
 31
0.0
  0
LINE
  5
B5A
330
6B
100
AcDbEntity
  8
0
100
AcDbLine
 10
41.899408
 20
192.6210969999999
 30
0.0
 11
41.872715
 21
192.6090669999999
 31
0.0
  0
LINE
  5
B5B
330
6B
100
AcDbEntity
  8
0
100
AcDbLine
 10
41.872715
 20
192.6090669999999
 30
0.0
 11
41.846488
 21
192.590631
 31
0.0
  0
LINE
  5
B5C
330
6B
100
AcDbEntity
  8
0
100
AcDbLine
 10
41.846488
 20
192.590631
 30
0.0
 11
41.82093
 21
192.565932
 31
0.0
  0
LINE
  5
B5D
330
6B
100
AcDbEntity
  8
0
100
AcDbLine
 10
41.82093
 20
192.565932
 30
0.0
 11
41.796238
 21
192.53516
 31
0.0
  0
LINE
  5
B5E
330
6B
100
AcDbEntity
  8
0
100
AcDbLine
 10
41.796238
 20
192.53516
 30
0.0
 11
41.772603
 21
192.498554
 31
0.0
  0
LINE
  5
B5F
330
6B
100
AcDbEntity
  8
0
100
AcDbLine
 10
41.772603
 20
192.498554
 30
0.0
 11
41.750207
 21
192.456397
 31
0.0
  0
LINE
  5
B60
330
6B
100
AcDbEntity
  8
0
100
AcDbLine
 10
41.750207
 20
192.456397
 30
0.0
 11
41.729224
 21
192.409013
 31
0.0
  0
LINE
  5
B61
330
6B
100
AcDbEntity
  8
0
100
AcDbLine
 10
41.729224
 20
192.409013
 30
0.0
 11
41.709816
 21
192.3567699999999
 31
0.0
  0
LINE
  5
B62
330
6B
100
AcDbEntity
  8
0
100
AcDbLine
 10
41.709816
 20
192.3567699999999
 30
0.0
 11
41.692133
 21
192.300072
 31
0.0
  0
LINE
  5
B63
330
6B
100
AcDbEntity
  8
0
100
AcDbLine
 10
41.692133
 20
192.300072
 30
0.0
 11
41.676312
 21
192.239356
 31
0.0
  0
LINE
  5
B64
330
6B
100
AcDbEntity
  8
0
100
AcDbLine
 10
41.676312
 20
192.239356
 30
0.0
 11
41.66247399999996
 21
192.175092
 31
0.0
  0
LINE
  5
B65
330
6B
100
AcDbEntity
  8
0
100
AcDbLine
 10
41.66247399999996
 20
192.175092
 30
0.0
 11
41.65072799999999
 21
192.107777
 31
0.0
  0
LINE
  5
B66
330
6B
100
AcDbEntity
  8
0
100
AcDbLine
 10
41.65072799999999
 20
192.107777
 30
0.0
 11
41.64116299999998
 21
192.03793
 31
0.0
  0
LINE
  5
B67
330
6B
100
AcDbEntity
  8
0
100
AcDbLine
 10
41.64116299999998
 20
192.03793
 30
0.0
 11
41.633853
 21
191.966093
 31
0.0
  0
LINE
  5
B68
330
6B
100
AcDbEntity
  8
0
100
AcDbLine
 10
41.633853
 20
191.966093
 30
0.0
 11
41.628856
 21
191.892819
 31
0.0
  0
LINE
  5
B69
330
6B
100
AcDbEntity
  8
0
100
AcDbLine
 10
41.628856
 20
191.892819
 30
0.0
 11
41.626209
 21
191.818676
 31
0.0
  0
LINE
  5
B6A
330
6B
100
AcDbEntity
  8
0
100
AcDbLine
 10
41.626209
 20
191.818676
 30
0.0
 11
41.625934
 21
191.744237
 31
0.0
  0
LINE
  5
B6B
330
6B
100
AcDbEntity
  8
0
100
AcDbLine
 10
41.625934
 20
191.744237
 30
0.0
 11
41.62803199999999
 21
191.670076
 31
0.0
  0
LINE
  5
B6C
330
6B
100
AcDbEntity
  8
0
100
AcDbLine
 10
41.62803199999999
 20
191.670076
 30
0.0
 11
41.63248699999999
 21
191.596767
 31
0.0
  0
LINE
  5
B6D
330
6B
100
AcDbEntity
  8
0
100
AcDbLine
 10
41.63248699999999
 20
191.596767
 30
0.0
 11
41.639264
 21
191.524878
 31
0.0
  0
LINE
  5
B6E
330
6B
100
AcDbEntity
  8
0
100
AcDbLine
 10
41.639264
 20
191.524878
 30
0.0
 11
41.648312
 21
191.454962
 31
0.0
  0
LINE
  5
B6F
330
6B
100
AcDbEntity
  8
0
100
AcDbLine
 10
41.648312
 20
191.454962
 30
0.0
 11
41.65956
 21
191.387562
 31
0.0
  0
LINE
  5
B70
330
6B
100
AcDbEntity
  8
0
100
AcDbLine
 10
41.65956
 20
191.387562
 30
0.0
 11
41.672922
 21
191.323197
 31
0.0
  0
LINE
  5
B71
330
6B
100
AcDbEntity
  8
0
100
AcDbLine
 10
41.672922
 20
191.323197
 30
0.0
 11
41.688293
 21
191.262366
 31
0.0
  0
LINE
  5
B72
330
6B
100
AcDbEntity
  8
0
100
AcDbLine
 10
41.688293
 20
191.262366
 30
0.0
 11
41.705556
 21
191.205538
 31
0.0
  0
LINE
  5
B73
330
6B
100
AcDbEntity
  8
0
100
AcDbLine
 10
41.705556
 20
191.205538
 30
0.0
 11
41.724577
 21
191.153153
 31
0.0
  0
LINE
  5
B74
330
6B
100
AcDbEntity
  8
0
100
AcDbLine
 10
41.724577
 20
191.153153
 30
0.0
 11
41.745209
 21
191.105616
 31
0.0
  0
LINE
  5
B75
330
6B
100
AcDbEntity
  8
0
100
AcDbLine
 10
41.745209
 20
191.105616
 30
0.0
 11
41.76729199999999
 21
191.063294
 31
0.0
  0
LINE
  5
B76
330
6B
100
AcDbEntity
  8
0
100
AcDbLine
 10
41.76729199999999
 20
191.063294
 30
0.0
 11
41.790656
 21
191.026514
 31
0.0
  0
LINE
  5
B77
330
6B
100
AcDbEntity
  8
0
100
AcDbLine
 10
41.790656
 20
191.026514
 30
0.0
 11
41.815119
 21
190.99556
 31
0.0
  0
LINE
  5
B78
330
6B
100
AcDbEntity
  8
0
100
AcDbLine
 10
41.815119
 20
190.99556
 30
0.0
 11
41.840494
 21
190.970673
 31
0.0
  0
LINE
  5
B79
330
6B
100
AcDbEntity
  8
0
100
AcDbLine
 10
41.840494
 20
190.970673
 30
0.0
 11
41.866584
 21
190.952043
 31
0.0
  0
LINE
  5
B7A
330
6B
100
AcDbEntity
  8
0
100
AcDbLine
 10
41.866584
 20
190.952043
 30
0.0
 11
41.893187
 21
190.939816
 31
0.0
  0
LINE
  5
B7B
330
6B
100
AcDbEntity
  8
0
100
AcDbLine
 10
41.893187
 20
190.939816
 30
0.0
 11
41.92009699999998
 21
190.934085
 31
0.0
  0
LINE
  5
B7C
330
6B
100
AcDbEntity
  8
0
100
AcDbLine
 10
41.92009699999998
 20
190.934085
 30
0.0
 11
41.947107
 21
190.934896
 31
0.0
  0
LINE
  5
B7D
330
6B
100
AcDbEntity
  8
0
100
AcDbLine
 10
41.947107
 20
190.934896
 30
0.0
 11
41.974008
 21
190.942241
 31
0.0
  0
LINE
  5
B7E
330
6B
100
AcDbEntity
  8
0
100
AcDbLine
 10
41.974008
 20
190.942241
 30
0.0
 11
42.00059099999999
 21
190.956064
 31
0.0
  0
LINE
  5
B7F
330
6B
100
AcDbEntity
  8
0
100
AcDbLine
 10
42.00059099999999
 20
190.956064
 30
0.0
 11
42.026652
 21
190.976258
 31
0.0
  0
LINE
  5
B80
330
6B
100
AcDbEntity
  8
0
100
AcDbLine
 10
42.026652
 20
190.976258
 30
0.0
 11
42.051989
 21
191.002667
 31
0.0
  0
LINE
  5
B81
330
6B
100
AcDbEntity
  8
0
100
AcDbLine
 10
42.051989
 20
191.002667
 30
0.0
 11
42.076407
 21
191.035087
 31
0.0
  0
LINE
  5
B82
330
6B
100
AcDbEntity
  8
0
100
AcDbLine
 10
42.076407
 20
191.035087
 30
0.0
 11
42.099715
 21
191.0732669999999
 31
0.0
  0
LINE
  5
B83
330
6B
100
AcDbEntity
  8
0
100
AcDbLine
 10
42.099715
 20
191.0732669999999
 30
0.0
 11
42.121735
 21
191.116912
 31
0.0
  0
LINE
  5
B84
330
6B
100
AcDbEntity
  8
0
100
AcDbLine
 10
42.121735
 20
191.116912
 30
0.0
 11
42.142295
 21
191.165685
 31
0.0
  0
LINE
  5
B85
330
6B
100
AcDbEntity
  8
0
100
AcDbLine
 10
42.142295
 20
191.165685
 30
0.0
 11
42.161238
 21
191.219209
 31
0.0
  0
LINE
  5
B86
330
6B
100
AcDbEntity
  8
0
100
AcDbLine
 10
42.161238
 20
191.219209
 30
0.0
 11
42.178417
 21
191.27707
 31
0.0
  0
LINE
  5
B87
330
6B
100
AcDbEntity
  8
0
100
AcDbLine
 10
42.178417
 20
191.27707
 30
0.0
 11
42.19369799999999
 21
191.338821
 31
0.0
  0
LINE
  5
B88
330
6B
100
AcDbEntity
  8
0
100
AcDbLine
 10
42.19369799999999
 20
191.338821
 30
0.0
 11
42.206964
 21
191.403985
 31
0.0
  0
LINE
  5
B89
330
6B
100
AcDbEntity
  8
0
100
AcDbLine
 10
42.206964
 20
191.403985
 30
0.0
 11
42.218112
 21
191.472057
 31
0.0
  0
LINE
  5
B8C
330
6B
100
AcDbEntity
  8
0
100
AcDbLine
 10
329.75286
 20
120.978938
 30
0.0
 11
328.024
 21
119.839539
 31
0.0
  0
LINE
  5
B8D
330
6B
100
AcDbEntity
  8
0
100
AcDbLine
 10
328.024
 20
119.839539
 30
0.0
 11
330.090936
 21
119.961858
 31
0.0
  0
LINE
  5
B8E
330
6B
100
AcDbEntity
  8
0
100
AcDbLine
 10
260.286795
 20
124.91423
 30
0.0
 11
261.458
 21
126.621704
 31
0.0
  0
LINE
  5
B8F
330
6B
100
AcDbEntity
  8
0
100
AcDbLine
 10
261.458
 20
126.621704
 30
0.0
 11
259.58997
 21
125.72859
 31
0.0
  0
LINE
  5
B90
330
6B
100
AcDbEntity
  8
0
100
AcDbLine
 10
43.823376
 20
156.675905
 30
0.0
 11
43.080962
 21
158.60878
 31
0.0
  0
LINE
  5
B91
330
6B
100
AcDbEntity
  8
0
100
AcDbLine
 10
43.080962
 20
158.60878
 30
0.0
 11
42.757474
 21
156.563654
 31
0.0
  0
LINE
  5
B92
330
6B
100
AcDbEntity
  8
0
100
AcDbLine
 10
195.679651
 20
141.186772
 30
0.0
 11
194.453797
 21
142.855445
 31
0.0
  0
LINE
  5
B93
330
6B
100
AcDbEntity
  8
0
100
AcDbLine
 10
194.453797
 20
142.855445
 30
0.0
 11
194.681082
 21
140.797405
 31
0.0
  0
LINE
  5
B94
330
6B
100
AcDbEntity
  8
0
100
AcDbLine
 10
212.587983
 20
134.932478
 30
0.0
 11
211.302845
 21
136.555933
 31
0.0
  0
LINE
  5
B95
330
6B
100
AcDbEntity
  8
0
100
AcDbLine
 10
211.302845
 20
136.555933
 30
0.0
 11
211.60408
 21
134.50741
 31
0.0
  0
LINE
  5
B96
330
6B
100
AcDbEntity
  8
0
100
AcDbLine
 10
57.81074799999998
 20
155.158695
 30
0.0
 11
56.998812
 21
157.063412
 31
0.0
  0
LINE
  5
B97
330
6B
100
AcDbEntity
  8
0
100
AcDbLine
 10
56.998812
 20
157.063412
 30
0.0
 11
56.749611
 21
155.00791
 31
0.0
  0
LINE
  5
B98
330
6B
100
AcDbEntity
  8
0
100
AcDbLine
 10
72.63416099999997
 20
154.452331
 30
0.0
 11
71.687732
 21
156.293923
 31
0.0
  0
LINE
  5
B99
330
6B
100
AcDbEntity
  8
0
100
AcDbLine
 10
71.687732
 20
156.293923
 30
0.0
 11
71.586568
 21
154.225843
 31
0.0
  0
LINE
  5
B9A
330
6B
100
AcDbEntity
  8
0
100
AcDbLine
 10
90.31495599999999
 20
158.899734
 30
0.0
 11
89.59455
 21
160.84092
 31
0.0
  0
LINE
  5
B9B
330
6B
100
AcDbEntity
  8
0
100
AcDbLine
 10
89.59455
 20
160.84092
 30
0.0
 11
89.247847
 21
158.799601
 31
0.0
  0
LINE
  5
B9C
330
6B
100
AcDbEntity
  8
0
100
AcDbLine
 10
103.249534
 20
159.011097
 30
0.0
 11
102.5246
 21
160.950596
 31
0.0
  0
LINE
  5
B9D
330
6B
100
AcDbEntity
  8
0
100
AcDbLine
 10
102.5246
 20
160.950596
 30
0.0
 11
102.182662
 21
158.908473
 31
0.0
  0
LINE
  5
B9E
330
6B
100
AcDbEntity
  8
0
100
AcDbLine
 10
43.97668699999999
 20
188.771154
 30
0.0
 11
43.710588
 21
186.717772
 31
0.0
  0
LINE
  5
B9F
330
6B
100
AcDbEntity
  8
0
100
AcDbLine
 10
43.710588
 20
186.717772
 30
0.0
 11
44.967728
 21
188.363003
 31
0.0
  0
LINE
  5
BA0
330
6B
100
AcDbEntity
  8
0
100
AcDbLine
 10
105.007104
 20
194.718571
 30
0.0
 11
104.743246
 21
192.664899
 31
0.0
  0
LINE
  5
BA1
330
6B
100
AcDbEntity
  8
0
100
AcDbLine
 10
104.743246
 20
192.664899
 30
0.0
 11
105.998589
 21
194.311502
 31
0.0
  0
LINE
  5
BA2
330
6B
100
AcDbEntity
  8
0
100
AcDbLine
 10
142.637027
 20
200.247443
 30
0.0
 11
143.755544
 21
198.505
 31
0.0
  0
LINE
  5
BA3
330
6B
100
AcDbEntity
  8
0
100
AcDbLine
 10
143.755544
 20
198.505
 30
0.0
 11
143.658101
 21
200.573258
 31
0.0
  0
LINE
  5
BA4
330
6B
100
AcDbEntity
  8
0
100
AcDbLine
 10
152.444197
 20
217.132648
 30
0.0
 11
153.932351
 21
215.693
 31
0.0
  0
LINE
  5
BA5
330
6B
100
AcDbEntity
  8
0
100
AcDbLine
 10
153.932351
 20
215.693
 30
0.0
 11
153.363396
 21
217.683848
 31
0.0
  0
LINE
  5
BA6
330
6B
100
AcDbEntity
  8
0
100
AcDbLine
 10
168.689068
 20
215.62625
 30
0.0
 11
170.11658
 21
214.126451
 31
0.0
  0
LINE
  5
BA7
330
6B
100
AcDbEntity
  8
0
100
AcDbLine
 10
170.11658
 20
214.126451
 30
0.0
 11
169.630218
 21
216.139071
 31
0.0
  0
LINE
  5
BA8
330
6B
100
AcDbEntity
  8
0
100
AcDbLine
 10
261.323722
 20
197.041932
 30
0.0
 11
262.654051
 21
195.455297
 31
0.0
  0
LINE
  5
BA9
330
6B
100
AcDbEntity
  8
0
100
AcDbLine
 10
262.654051
 20
195.455297
 30
0.0
 11
262.29527
 21
197.494528
 31
0.0
  0
LINE
  5
BAA
330
6B
100
AcDbEntity
  8
0
100
AcDbLine
 10
217.9934049999999
 20
197.359795
 30
0.0
 11
217.640388
 21
195.319558
 31
0.0
  0
LINE
  5
BAB
330
6B
100
AcDbEntity
  8
0
100
AcDbLine
 10
217.640388
 20
195.319558
 30
0.0
 11
218.966228
 21
196.909947
 31
0.0
  0
ARC
  5
BAC
330
6B
100
AcDbEntity
  8
0
100
AcDbCircle
 10
318.534377
 20
113.601323
 30
0.0
 40
0.25
100
AcDbArc
 50
0.0
 51
180.0
  0
ARC
  5
BAD
330
6B
100
AcDbEntity
  8
0
100
AcDbCircle
 10
318.534377
 20
113.601323
 30
0.0
 40
0.25
100
AcDbArc
 50
180.0
 51
0.0
  0
ARC
  5
BAE
330
6B
100
AcDbEntity
  8
0
100
AcDbCircle
 10
318.710096
 20
93.04218400000001
 30
0.0
 40
0.25
100
AcDbArc
 50
0.0
 51
180.0
  0
ARC
  5
BAF
330
6B
100
AcDbEntity
  8
0
100
AcDbCircle
 10
318.710096
 20
93.04218400000001
 30
0.0
 40
0.25
100
AcDbArc
 50
180.0
 51
0.0
  0
LINE
  5
BB0
330
6B
100
AcDbEntity
  8
0
100
AcDbLine
 10
259.03105
 20
118.961918
 30
0.0
 11
260.338155
 21
119.563034
 31
0.0
  0
LINE
  5
BB1
330
6B
100
AcDbEntity
  8
0
100
AcDbLine
 10
260.338155
 20
119.563034
 30
0.0
 11
261.62885
 21
119.703142
 31
0.0
  0
LINE
  5
BB2
330
6B
100
AcDbEntity
  8
0
100
AcDbLine
 10
261.62885
 20
119.703142
 30
0.0
 11
262.634411
 21
119.320393
 31
0.0
  0
LINE
  5
BB3
330
6B
100
AcDbEntity
  8
0
100
AcDbLine
 10
262.634411
 20
119.320393
 30
0.0
 11
263.638734
 21
118.961918
 31
0.0
  0
LINE
  5
BB4
330
6B
100
AcDbEntity
  8
0
100
AcDbLine
 10
263.638734
 20
118.961918
 30
0.0
 11
264.759141
 21
119.119235
 31
0.0
  0
LINE
  5
BB5
330
6B
100
AcDbEntity
  8
0
100
AcDbLine
 10
264.759141
 20
119.119235
 30
0.0
 11
265.890536
 21
119.656728
 31
0.0
  0
LINE
  5
BB6
330
6B
100
AcDbEntity
  8
0
100
AcDbLine
 10
259.107001
 20
121.530182
 30
0.0
 11
260.414105
 21
122.131298
 31
0.0
  0
LINE
  5
BB7
330
6B
100
AcDbEntity
  8
0
100
AcDbLine
 10
260.414105
 20
122.131298
 30
0.0
 11
261.704801
 21
122.271406
 31
0.0
  0
LINE
  5
BB8
330
6B
100
AcDbEntity
  8
0
100
AcDbLine
 10
261.704801
 20
122.271406
 30
0.0
 11
262.710362
 21
121.888657
 31
0.0
  0
LINE
  5
BB9
330
6B
100
AcDbEntity
  8
0
100
AcDbLine
 10
262.710362
 20
121.888657
 30
0.0
 11
263.714685
 21
121.530182
 31
0.0
  0
LINE
  5
BBA
330
6B
100
AcDbEntity
  8
0
100
AcDbLine
 10
263.714685
 20
121.530182
 30
0.0
 11
264.835092
 21
121.687499
 31
0.0
  0
LINE
  5
BBB
330
6B
100
AcDbEntity
  8
0
100
AcDbLine
 10
264.835092
 20
121.687499
 30
0.0
 11
265.966487
 21
122.224992
 31
0.0
  0
LINE
  5
BBC
330
6B
100
AcDbEntity
  8
0
100
AcDbLine
 10
322.528503
 20
126.472323
 30
0.0
 11
323.835608
 21
127.073438
 31
0.0
  0
LINE
  5
BBD
330
6B
100
AcDbEntity
  8
0
100
AcDbLine
 10
323.835608
 20
127.073438
 30
0.0
 11
325.126303
 21
127.213547
 31
0.0
  0
LINE
  5
BBE
330
6B
100
AcDbEntity
  8
0
100
AcDbLine
 10
325.126303
 20
127.213547
 30
0.0
 11
326.131865
 21
126.830798
 31
0.0
  0
LINE
  5
BBF
330
6B
100
AcDbEntity
  8
0
100
AcDbLine
 10
326.131865
 20
126.830798
 30
0.0
 11
327.136188
 21
126.472323
 31
0.0
  0
LINE
  5
BC0
330
6B
100
AcDbEntity
  8
0
100
AcDbLine
 10
327.136188
 20
126.472323
 30
0.0
 11
328.256594
 21
126.629639
 31
0.0
  0
LINE
  5
BC1
330
6B
100
AcDbEntity
  8
0
100
AcDbLine
 10
328.256594
 20
126.629639
 30
0.0
 11
329.387989
 21
127.167132
 31
0.0
  0
LINE
  5
BC2
330
6B
100
AcDbEntity
  8
0
100
AcDbLine
 10
322.604454
 20
129.040586
 30
0.0
 11
323.911559
 21
129.641702
 31
0.0
  0
LINE
  5
BC3
330
6B
100
AcDbEntity
  8
0
100
AcDbLine
 10
323.911559
 20
129.641702
 30
0.0
 11
325.202254
 21
129.78181
 31
0.0
  0
LINE
  5
BC4
330
6B
100
AcDbEntity
  8
0
100
AcDbLine
 10
325.202254
 20
129.78181
 30
0.0
 11
326.207815
 21
129.399061
 31
0.0
  0
LINE
  5
BC5
330
6B
100
AcDbEntity
  8
0
100
AcDbLine
 10
326.207815
 20
129.399061
 30
0.0
 11
327.2121390000001
 21
129.040586
 31
0.0
  0
LINE
  5
BC6
330
6B
100
AcDbEntity
  8
0
100
AcDbLine
 10
327.2121390000001
 20
129.040586
 30
0.0
 11
328.332545
 21
129.197903
 31
0.0
  0
LINE
  5
BC7
330
6B
100
AcDbEntity
  8
0
100
AcDbLine
 10
328.332545
 20
129.197903
 30
0.0
 11
329.46394
 21
129.735396
 31
0.0
  0
LINE
  5
BC8
330
6B
100
AcDbEntity
  8
0
100
AcDbLine
 10
138.673
 20
141.88
 30
0.0
 11
138.673
 21
124.257538
 31
0.0
  0
LINE
  5
BC9
330
6B
100
AcDbEntity
  8
0
100
AcDbLine
 10
219.454
 20
141.88
 30
0.0
 11
219.454
 21
124.257538
 31
0.0
  0
LINE
  5
BCA
330
6B
100
AcDbEntity
  8
0
100
AcDbLine
 10
141.173
 20
125.507538
 30
0.0
 11
216.954
 21
125.507538
 31
0.0
  0
LINE
  5
BCE
330
6B
100
AcDbEntity
  8
0
100
AcDbLine
 10
27.041
 20
146.693
 30
0.0
 11
27.041
 21
124.257538
 31
0.0
  0
LINE
  5
BCF
330
6B
100
AcDbEntity
  8
0
100
AcDbLine
 10
116.76
 20
146.693
 30
0.0
 11
116.76
 21
124.257538
 31
0.0
  0
LINE
  5
BD0
330
6B
100
AcDbEntity
  8
0
100
AcDbLine
 10
29.541
 20
125.507538
 30
0.0
 11
114.26
 21
125.507538
 31
0.0
  0
LINE
  5
BD4
330
6B
100
AcDbEntity
  8
0
100
AcDbLine
 10
35.385
 20
136.286
 30
0.0
 11
12.88136899999998
 21
136.286
 31
0.0
  0
LINE
  5
BD5
330
6B
100
AcDbEntity
  8
0
100
AcDbLine
 10
67.526
 20
215.696
 30
0.0
 11
12.881369
 21
215.696
 31
0.0
  0
LINE
  5
BD6
330
6B
100
AcDbEntity
  8
0
100
AcDbLine
 10
14.13136899999998
 20
138.786
 30
0.0
 11
14.131369
 21
213.196
 31
0.0
  0
TEXT
  5
BDA
330
6B
100
AcDbEntity
  8
0
  6
Continuous
 62
     4
100
AcDbText
 10
175.0635
 20
126.132538
 30
0.0
 40
3.0
  1
226
100
AcDbText
  0
LINE
  5
BDB
330
6B
100
AcDbEntity
  8
0
  6
ByBlock
 62
     0
370
    -2
100
AcDbLine
 10
216.954
 20
126.1774104999999
 30
0.0
 11
219.454
 21
125.507538
 31
0.0
  0
LINE
  5
BDC
330
6B
100
AcDbEntity
  8
0
  6
ByBlock
 62
     0
370
    -2
100
AcDbLine
 10
219.454
 20
125.507538
 30
0.0
 11
216.954
 21
124.8376655
 31
0.0
  0
LINE
  5
BDD
330
6B
100
AcDbEntity
  8
0
  6
ByBlock
 62
     0
370
    -2
100
AcDbLine
 10
219.454
 20
125.507538
 30
0.0
 11
216.954
 21
125.507538
 31
0.0
  0
LINE
  5
BDE
330
6B
100
AcDbEntity
  8
0
  6
ByBlock
 62
     0
370
    -2
100
AcDbLine
 10
141.173
 20
124.8376655
 30
0.0
 11
138.673
 21
125.507538
 31
0.0
  0
LINE
  5
BDF
330
6B
100
AcDbEntity
  8
0
  6
ByBlock
 62
     0
370
    -2
100
AcDbLine
 10
138.673
 20
125.507538
 30
0.0
 11
141.173
 21
126.1774104999999
 31
0.0
  0
LINE
  5
BE0
330
6B
100
AcDbEntity
  8
0
  6
ByBlock
 62
     0
370
    -2
100
AcDbLine
 10
138.673
 20
125.507538
 30
0.0
 11
141.173
 21
125.507538
 31
0.0
  0
TEXT
  5
BE1
330
6B
100
AcDbEntity
  8
0
  6
Continuous
 62
     4
100
AcDbText
 10
68.15050000000001
 20
126.132538
 30
0.0
 40
3.0
  1
260
100
AcDbText
  0
LINE
  5
BE2
330
6B
100
AcDbEntity
  8
0
  6
ByBlock
 62
     0
370
    -2
100
AcDbLine
 10
114.26
 20
126.1774104999999
 30
0.0
 11
116.76
 21
125.507538
 31
0.0
  0
LINE
  5
BE3
330
6B
100
AcDbEntity
  8
0
  6
ByBlock
 62
     0
370
    -2
100
AcDbLine
 10
116.76
 20
125.507538
 30
0.0
 11
114.26
 21
124.8376655
 31
0.0
  0
LINE
  5
BE4
330
6B
100
AcDbEntity
  8
0
  6
ByBlock
 62
     0
370
    -2
100
AcDbLine
 10
116.76
 20
125.507538
 30
0.0
 11
114.26
 21
125.507538
 31
0.0
  0
LINE
  5
BE5
330
6B
100
AcDbEntity
  8
0
  6
ByBlock
 62
     0
370
    -2
100
AcDbLine
 10
29.541
 20
124.8376655
 30
0.0
 11
27.041
 21
125.507538
 31
0.0
  0
LINE
  5
BE6
330
6B
100
AcDbEntity
  8
0
  6
ByBlock
 62
     0
370
    -2
100
AcDbLine
 10
27.041
 20
125.507538
 30
0.0
 11
29.541
 21
126.1774104999999
 31
0.0
  0
LINE
  5
BE7
330
6B
100
AcDbEntity
  8
0
  6
ByBlock
 62
     0
370
    -2
100
AcDbLine
 10
27.041
 20
125.507538
 30
0.0
 11
29.541
 21
125.507538
 31
0.0
  0
TEXT
  5
BE8
330
6B
100
AcDbEntity
  8
0
  6
Continuous
 62
     4
100
AcDbText
 10
13.50636899999996
 20
172.241
 30
0.0
 40
3.0
  1
230
 50
90.0
100
AcDbText
  0
LINE
  5
BE9
330
6B
100
AcDbEntity
  8
0
  6
ByBlock
 62
     0
370
    -2
100
AcDbLine
 10
13.4614965
 20
213.196
 30
0.0
 11
14.131369
 21
215.696
 31
0.0
  0
LINE
  5
BEA
330
6B
100
AcDbEntity
  8
0
  6
ByBlock
 62
     0
370
    -2
100
AcDbLine
 10
14.131369
 20
215.696
 30
0.0
 11
14.8012415
 21
213.196
 31
0.0
  0
LINE
  5
BEB
330
6B
100
AcDbEntity
  8
0
  6
ByBlock
 62
     0
370
    -2
100
AcDbLine
 10
14.131369
 20
215.696
 30
0.0
 11
14.131369
 21
213.196
 31
0.0
  0
LINE
  5
BEC
330
6B
100
AcDbEntity
  8
0
  6
ByBlock
 62
     0
370
    -2
100
AcDbLine
 10
14.80124149999998
 20
138.786
 30
0.0
 11
14.13136899999998
 21
136.286
 31
0.0
  0
LINE
  5
BED
330
6B
100
AcDbEntity
  8
0
  6
ByBlock
 62
     0
370
    -2
100
AcDbLine
 10
14.13136899999998
 20
136.286
 30
0.0
 11
13.46149649999998
 21
138.786
 31
0.0
  0
LINE
  5
BEE
330
6B
100
AcDbEntity
  8
0
  6
ByBlock
 62
     0
370
    -2
100
AcDbLine
 10
14.13136899999998
 20
136.286
 30
0.0
 11
14.13136899999998
 21
138.786
 31
0.0
  0
ENDSEC
  0
SECTION
  2
OBJECTS
  0
DICTIONARY
  5
C
330
0
100
AcDbDictionary
281
     1
  3
ACAD_2007HEADERVARS_RT
350
BF2
  3
ACAD_COLOR
350
62
  3
ACAD_GROUP
350
D
  3
ACAD_LAYOUT
350
61
  3
ACAD_MATERIAL
350
10
  3
ACAD_MLEADERSTYLE
350
65
  3
ACAD_MLINESTYLE
350
5E
  3
ACAD_PLOTSETTINGS
350
60
  3
ACAD_PLOTSTYLENAME
350
E
  3
ACAD_SCALELIST
350
42
  3
ACAD_TABLESTYLE
350
63
  3
ACAD_VISUALSTYLE
350
29
  3
ACDB_RECOMPOSE_DATA
350
BF0
  3
AcDbVariableDictionary
350
7A2
  3
DWGPROPS
350
BF1
  0
DICTIONARY
  5
5D4
330
2
100
AcDbDictionary
280
     1
281
     1
  3
ACAD_LAYERSTATES
360
5D5
  0
DICTIONARY
  5
7A0
330
54
100
AcDbDictionary
280
     1
281
     1
  3
ADSK_XREC_LAYER_RECONCILED
360
7A1
  0
DICTIONARY
  5
B8A
330
6B
100
AcDbDictionary
280
     1
281
     1
  3
ACAD_SORTENTS
360
B8B
  0
DICTIONARY
  5
BF2
102
{ACAD_REACTORS
330
C
102
}
330
C
100
AcDbDictionary
281
     1
  3
DIMARCSYM
350
BF4
  3
DIMFXL
350
BF3
  3
DIMJOGANG
350
BF5
  3
INTERFEREVPVS
350
BF6
  0
DICTIONARY
  5
62
102
{ACAD_REACTORS
330
C
102
}
330
C
100
AcDbDictionary
281
     1
  0
DICTIONARY
  5
D
102
{ACAD_REACTORS
330
C
102
}
330
C
100
AcDbDictionary
281
     1
  0
DICTIONARY
  5
61
102
{ACAD_REACTORS
330
C
102
}
330
C
100
AcDbDictionary
281
     1
  3
Model
350
6E
  3
レイアウト1
350
6A
  0
DICTIONARY
  5
10
102
{ACAD_REACTORS
330
C
102
}
330
C
100
AcDbDictionary
281
     1
  3
ByBlock
350
19
  3
ByLayer
350
11
  3
Global
350
21
  0
DICTIONARY
  5
65
102
{ACAD_REACTORS
330
C
102
}
330
C
100
AcDbDictionary
281
     1
  3
Standard
350
66
  0
DICTIONARY
  5
5E
102
{ACAD_REACTORS
330
C
102
}
330
C
100
AcDbDictionary
281
     1
  3
Standard
350
5F
  0
DICTIONARY
  5
60
102
{ACAD_REACTORS
330
C
102
}
330
C
100
AcDbDictionary
281
     1
  0
ACDBDICTIONARYWDFLT
  5
E
102
{ACAD_REACTORS
330
C
102
}
330
C
100
AcDbDictionary
281
     1
  3
Normal
350
F
100
AcDbDictionaryWithDefault
340
F
  0
DICTIONARY
  5
42
102
{ACAD_REACTORS
330
C
102
}
330
C
100
AcDbDictionary
281
     1
  3
A0
350
43
  3
A1
350
44
  3
A2
350
45
  3
A3
350
46
  3
A4
350
47
  3
A5
350
48
  3
A6
350
49
  3
A7
350
4A
  3
A8
350
4B
  3
A9
350
4C
  3
B0
350
4D
  3
B1
350
4E
  3
B2
350
4F
  3
B3
350
50
  3
B4
350
51
  3
B5
350
52
  3
B6
350
53
  0
DICTIONARY
  5
63
102
{ACAD_REACTORS
330
C
102
}
330
C
100
AcDbDictionary
281
     1
  3
Standard
350
64
  0
DICTIONARY
  5
29
102
{ACAD_REACTORS
330
C
102
}
330
C
100
AcDbDictionary
281
     1
  3
2dWireframe
350
2F
  3
3D Hidden
350
7F3
  3
3dWireframe
350
5D3
  3
Basic
350
2E
  3
Brighten
350
35
  3
ColorChange
350
39
  3
Conceptual
350
32
  3
Dim
350
34
  3
EdgeColorOff
350
41
  3
Facepattern
350
38
  3
Flat
350
2A
  3
FlatWithEdges
350
2B
  3
Gouraud
350
2C
  3
GouraudWithEdges
350
2D
  3
Hidden
350
31
  3
JitterOff
350
3F
  3
Linepattern
350
37
  3
OverhangOff
350
40
  3
Realistic
350
33
  3
Shaded
350
3E
  3
Shaded with edges
350
3D
  3
Shades of Gray
350
3A
  3
Sketchy
350
3B
  3
Thicken
350
36
  3
Wireframe
350
30
  3
X-Ray
350
3C
  0
XRECORD
  5
BF0
102
{ACAD_REACTORS
330
C
102
}
330
C
100
AcDbXrecord
280
     1
 90
        1
330
64
  0
DICTIONARY
  5
7A2
102
{ACAD_REACTORS
330
C
102
}
330
C
100
AcDbDictionary
281
     1
  3
CANNOSCALE
350
7A5
  3
CMLEADERSTYLE
350
7A4
  3
CTABLESTYLE
350
7A3
  3
DIMASSOC
350
7A8
  3
INDEXCTL
350
7A7
  3
LOFTANG1
350
B05
  3
LOFTANG2
350
B06
  3
SORTENTS
350
7A6
  3
XCLIPFRAME
350
B07
  0
XRECORD
  5
BF1
102
{ACAD_REACTORS
330
C
102
}
330
C
100
AcDbXrecord
280
     1
  1
DWGPROPS COOKIE
  2

  3

  4

  6

  7

  8
imamura
  9

300
=
301
=
302
=
303
=
304
=
305
=
306
=
307
=
308
=
309
=
 40
0.036171400462963
 41
2456311.423459062
 42
2457471.43712919
  1

 90
        0
  0
DICTIONARY
  5
5D5
102
{ACAD_REACTORS
330
5D4
102
}
330
5D4
100
AcDbDictionary
281
     1
  0
XRECORD
  5
7A1
102
{ACAD_REACTORS
330
7A0
102
}
330
7A0
100
AcDbXrecord
280
     1
290
     1
  0
SORTENTSTABLE
  5
B8B
102
{ACAD_REACTORS
330
B8A
102
}
330
B8A
100
AcDbSortentsTable
330
6B
331
320
  5
3BD
331
238
  5
277
331
249
  5
288
331
138
  5
177
331
120
  5
15F
331
4C1
  5
B69
331
149
  5
188
331
131
  5
170
331
342
  5
3DE
331
25A
  5
299
331
4D2
  5
B7A
331
15A
  5
199
331
B5B
  5
4E9
331
353
  5
3E9
331
26B
  5
2AA
331
4E3
  5
B8D
331
16B
  5
1AA
331
B6C
  5
4FB
331
364
  5
3F4
331
27C
  5
2BB
331
4F4
  5
B9D
331
17C
  5
1BB
331
B7D
  5
50C
331
B8D
  5
419
331
28D
  5
2DF
331
505
  5
BAE
331
18D
  5
1CC
331
92E
  5
BED
331
B9E
  5
3EB
331
516
  5
BBF
331
19E
  5
1DD
331
BAF
  5
35B
331
527
  5
BD0
331
1AF
  5
1EE
331
2B9
  5
32A
331
2A8
  5
2FE
331
419
  5
4BE
331
1B9
  5
1F8
331
3B2
  5
425
331
42A
  5
4CF
331
1CA
  5
20E
331
3C3
  5
432
331
2F4
  5
393
331
1DB
  5
21F
331
484
  5
527
331
1EC
  5
230
331
3E5
  5
48A
331
495
  5
613
331
ED
  5
12C
331
3F6
  5
49B
331
4A6
  5
B4E
331
20E
  5
24D
331
FE
  5
13D
331
407
  5
4AC
331
4B7
  5
B5F
331
21F
  5
25E
331
10F
  5
14E
331
BE2
  5
FE
331
BC0
  5
116
331
29E
  5
2F4
331
408
  5
4AD
331
228
  5
267
331
4B8
  5
B60
331
220
  5
25F
331
110
  5
14F
331
321
  5
3BE
331
239
  5
278
331
332
  5
3C8
331
139
  5
178
331
121
  5
160
331
24A
  5
289
331
4C2
  5
B6A
331
14A
  5
189
331
132
  5
171
331
343
  5
3DF
331
25B
  5
29A
331
4D3
  5
B7B
331
15B
  5
19A
331
B5C
  5
4EA
331
354
  5
3EA
331
26C
  5
2AB
331
4E4
  5
B8E
331
16C
  5
1AB
331
B6D
  5
4FC
331
27D
  5
2BC
331
4F5
  5
B9E
331
17D
  5
1BC
331
B7E
  5
50D
331
28E
  5
2E0
331
506
  5
BAF
331
18E
  5
1CD
331
92F
  5
BEE
331
29F
  5
2F5
331
517
  5
BC0
331
BB0
  5
11E
331
3A2
  5
41A
331
2A9
  5
302
331
BC1
  5
117
331
41A
  5
4BF
331
1BA
  5
1F9
331
3B3
  5
426
331
42B
  5
4D0
331
1CB
  5
20F
331
3C4
  5
433
331
2F5
  5
394
331
1DC
  5
220
331
485
  5
528
331
1ED
  5
231
331
3E6
  5
48B
331
496
  5
614
331
306
  5
3AE
331
EE
  5
12D
331
3F7
  5
49C
331
4A7
  5
B4F
331
20F
  5
24E
331
FF
  5
13E
331
BE3
  5
FF
331
2BA
  5
32B
331
19F
  5
1DE
331
B9F
  5
3EC
331
B8E
  5
413
331
3F8
  5
49D
331
4A8
  5
B50
331
210
  5
24F
331
100
  5
13F
331
409
  5
4AE
331
229
  5
268
331
4B9
  5
B61
331
221
  5
260
331
111
  5
150
331
23A
  5
279
331
333
  5
3C9
331
13A
  5
179
331
122
  5
161
331
24B
  5
28A
331
4C3
  5
B6B
331
14B
  5
18A
331
133
  5
172
331
B4C
  5
4DA
331
344
  5
3E0
331
25C
  5
29B
331
4D4
  5
B7C
331
15C
  5
19B
331
B5D
  5
4EB
331
26D
  5
2AC
331
4E5
  5
B8F
331
16D
  5
1AC
331
B6E
  5
4FD
331
27E
  5
2BD
331
4F6
  5
B9F
331
B7F
  5
50E
331
B8F
  5
414
331
507
  5
BB0
331
18F
  5
1CE
331
518
  5
BC1
331
1A0
  5
1DF
331
609
  5
BD7
331
3A3
  5
41B
331
2AA
  5
306
331
BC2
  5
10C
331
2BB
  5
32C
331
41B
  5
4C0
331
3B4
  5
427
331
42C
  5
4D1
331
1CC
  5
210
331
BE4
  5
100
331
2E5
  5
36B
331
2F6
  5
39A
331
1DD
  5
221
331
486
  5
529
331
1EE
  5
232
331
3E7
  5
48C
331
497
  5
615
331
307
  5
3AF
331
EF
  5
12E
331
3C5
  5
476
331
1BB
  5
1FA
331
BB1
  5
11F
331
BA0
  5
3E6
331
28F
  5
2E5
331
17E
  5
1BD
331
3E8
  5
48D
331
498
  5
616
331
F0
  5
12F
331
3F9
  5
49E
331
319
  5
3B3
331
101
  5
140
331
4A9
  5
B51
331
211
  5
250
331
40A
  5
4AF
331
22A
  5
269
331
4BA
  5
B62
331
222
  5
261
331
112
  5
151
331
323
  5
3BF
331
23B
  5
27A
331
334
  5
3CB
331
13B
  5
17A
331
123
  5
162
331
24C
  5
28B
331
4C4
  5
B6C
331
14C
  5
18B
331
134
  5
173
331
B4D
  5
4DB
331
25D
  5
29C
331
4D5
  5
B7D
331
15D
  5
19C
331
B5E
  5
4EC
331
4E6
  5
B90
331
16E
  5
1AD
331
27F
  5
2BE
331
4F7
  5
BA0
331
17F
  5
1BE
331
B90
  5
40E
331
508
  5
BB1
331
190
  5
1CF
331
BA1
  5
3E7
331
519
  5
BC2
331
60A
  5
BD8
331
BB2
  5
120
331
3A4
  5
41C
331
2AB
  5
307
331
2BC
  5
332
331
41C
  5
4C1
331
1BC
  5
1FB
331
3B5
  5
428
331
2D5
  5
34B
331
BE5
  5
FB
331
42D
  5
4D2
331
1CD
  5
211
331
3C6
  5
477
331
2E6
  5
36C
331
476
  5
519
331
1DE
  5
222
331
2F7
  5
39B
331
487
  5
52A
331
1EF
  5
233
331
BD4
  5
E5
331
BC3
  5
10D
331
1A1
  5
1E0
331
290
  5
2E6
331
B6F
  5
4FE
331
26E
  5
2AD
331
528
  5
BD1
331
2F8
  5
39C
331
488
  5
52B
331
1F0
  5
234
331
3E9
  5
48E
331
499
  5
617
331
201
  5
240
331
F1
  5
130
331
3FA
  5
49F
331
4AA
  5
B52
331
212
  5
251
331
102
  5
141
331
40B
  5
4B0
331
22B
  5
26A
331
4BB
  5
B63
331
223
  5
262
331
113
  5
152
331
324
  5
3C0
331
23C
  5
27B
331
24D
  5
28C
331
13C
  5
17B
331
124
  5
163
331
4C5
  5
B6D
331
14D
  5
18C
331
135
  5
174
331
B4E
  5
4DC
331
25E
  5
29D
331
4D6
  5
B7E
331
15E
  5
19D
331
B5F
  5
4ED
331
4E7
  5
B91
331
16F
  5
1AE
331
26F
  5
2AE
331
B80
  5
50F
331
280
  5
2BF
331
4F8
  5
BA1
331
B91
  5
40F
331
291
  5
2E7
331
509
  5
BB2
331
38A
  5
40B
331
BA2
  5
3E1
331
51A
  5
BC3
331
60B
  5
BD9
331
BB3
  5
121
331
3A5
  5
41D
331
2AC
  5
30B
331
BC4
  5
10E
331
2BD
  5
333
331
41D
  5
4C2
331
1BD
  5
201
331
3B6
  5
429
331
2D6
  5
34C
331
BE6
  5
FC
331
42E
  5
4D3
331
1CE
  5
212
331
3C7
  5
478
331
2E7
  5
372
331
477
  5
51A
331
1DF
  5
223
331
BD5
  5
E6
331
1A2
  5
1E1
331
191
  5
1D0
331
180
  5
1BF
331
B70
  5
4FF
331
3C8
  5
479
331
2E8
  5
373
331
478
  5
51B
331
1E0
  5
224
331
529
  5
BD2
331
3D9
  5
47E
331
2F9
  5
3A2
331
489
  5
52C
331
1F1
  5
235
331
3EA
  5
48F
331
49A
  5
618
331
202
  5
241
331
F2
  5
131
331
3FB
  5
4A0
331
31B
  5
3B4
331
103
  5
142
331
4AB
  5
B53
331
213
  5
252
331
40C
  5
4B1
331
22C
  5
26B
331
4BC
  5
B64
331
224
  5
263
331
114
  5
153
331
23D
  5
27C
331
24E
  5
28D
331
13D
  5
17C
331
125
  5
164
331
4C6
  5
B6E
331
14E
  5
18D
331
136
  5
175
331
B4F
  5
4DD
331
4D7
  5
B7F
331
15F
  5
19E
331
B60
  5
4EE
331
4E8
  5
B92
331
170
  5
1AF
331
270
  5
2AF
331
25F
  5
29E
331
B81
  5
510
331
281
  5
2C0
331
4F9
  5
BA2
331
B92
  5
409
331
37A
  5
401
331
292
  5
2E8
331
50A
  5
BB3
331
192
  5
1D1
331
BA3
  5
3E2
331
51B
  5
BC4
331
60C
  5
BDA
331
BB4
  5
122
331
2AD
  5
30F
331
BC5
  5
10F
331
2BE
  5
334
331
41E
  5
4C3
331
1BE
  5
202
331
3B7
  5
42A
331
2D7
  5
352
331
BE7
  5
FD
331
42F
  5
4D4
331
1CF
  5
213
331
BD6
  5
E7
331
1A3
  5
1E2
331
38B
  5
40C
331
181
  5
1C0
331
B71
  5
500
331
3B8
  5
42B
331
2D8
  5
353
331
BE8
  5
F7
331
430
  5
4D5
331
1D0
  5
214
331
3C9
  5
47A
331
2E9
  5
374
331
479
  5
51C
331
1E1
  5
225
331
52A
  5
BD3
331
3DA
  5
47F
331
2FA
  5
3A3
331
48A
  5
52D
331
1F2
  5
236
331
3EB
  5
490
331
30B
  5
3B0
331
F3
  5
132
331
49B
  5
619
331
203
  5
242
331
3FC
  5
4A1
331
31C
  5
3B5
331
104
  5
143
331
4AC
  5
B54
331
214
  5
253
331
40D
  5
4B2
331
22D
  5
26C
331
4BD
  5
B65
331
225
  5
264
331
115
  5
154
331
24F
  5
28E
331
13E
  5
17D
331
126
  5
165
331
4C7
  5
B6F
331
14F
  5
18E
331
137
  5
176
331
260
  5
29F
331
4D8
  5
B80
331
160
  5
19F
331
271
  5
2B0
331
B61
  5
4EF
331
B50
  5
4DE
331
23E
  5
27D
331
4E9
  5
B93
331
B82
  5
511
331
B72
  5
501
331
36A
  5
3F7
331
282
  5
2C1
331
4FA
  5
BA3
331
B93
  5
40A
331
37B
  5
402
331
293
  5
2E9
331
50B
  5
BB4
331
193
  5
1D2
331
BA4
  5
3DC
331
51C
  5
BC5
331
60D
  5
BDB
331
BB5
  5
123
331
2AE
  5
314
331
BC6
  5
110
331
2BF
  5
33A
331
41F
  5
4C4
331
1BF
  5
203
331
1A4
  5
1E3
331
38C
  5
40D
331
182
  5
1C1
331
171
  5
1B0
331
2C0
  5
33B
331
420
  5
4C5
331
1C0
  5
204
331
2D9
  5
354
331
BE9
  5
F1
331
431
  5
4D6
331
1D1
  5
215
331
2EA
  5
37A
331
47A
  5
51D
331
1E2
  5
226
331
52B
  5
BD4
331
3DB
  5
480
331
2FB
  5
3A4
331
48B
  5
609
331
1F3
  5
237
331
3EC
  5
491
331
49C
  5
61A
331
204
  5
243
331
F4
  5
133
331
3FD
  5
4A2
331
31D
  5
3B6
331
105
  5
144
331
4AD
  5
B55
331
215
  5
254
331
22E
  5
26D
331
4BE
  5
B66
331
226
  5
265
331
116
  5
155
331
23F
  5
27E
331
250
  5
28F
331
13F
  5
17E
331
127
  5
166
331
4C8
  5
B70
331
B51
  5
4DF
331
4D9
  5
B81
331
161
  5
1A0
331
B62
  5
4F0
331
35A
  5
3ED
331
4EA
  5
B94
331
172
  5
1B1
331
272
  5
2B1
331
261
  5
2A0
331
150
  5
18F
331
B83
  5
512
331
B73
  5
502
331
283
  5
2C2
331
4FB
  5
BA4
331
B94
  5
404
331
37C
  5
403
331
294
  5
2EA
331
50C
  5
BB5
331
194
  5
1D3
331
51D
  5
BC6
331
1A5
  5
1E4
331
60E
  5
BDC
331
2AF
  5
319
331
BC7
  5
111
331
BB6
  5
118
331
BA5
  5
3DD
331
183
  5
1C2
331
36B
  5
3F8
331
40E
  5
4B3
331
2B0
  5
31B
331
BC8
  5
102
331
410
  5
4B5
331
1B0
  5
1EF
331
3A9
  5
41E
331
2C1
  5
33C
331
421
  5
4C6
331
1C1
  5
205
331
432
  5
4D7
331
1D2
  5
216
331
3CB
  5
47B
331
2EB
  5
37B
331
47B
  5
51E
331
1E3
  5
227
331
52C
  5
BD5
331
3DC
  5
481
331
2FC
  5
3A5
331
48C
  5
60A
331
1F4
  5
238
331
3ED
  5
492
331
BEA
  5
F2
331
49D
  5
61B
331
205
  5
244
331
F5
  5
134
331
3FE
  5
4A3
331
31E
  5
3B7
331
106
  5
145
331
4AE
  5
B56
331
216
  5
255
331
22F
  5
26E
331
4BF
  5
B67
331
227
  5
266
331
117
  5
156
331
240
  5
27F
331
40F
  5
4B4
331
251
  5
290
331
140
  5
17F
331
4C9
  5
B71
331
151
  5
190
331
B52
  5
4E0
331
34A
  5
3E3
331
4DA
  5
B82
331
162
  5
1A1
331
B63
  5
4F2
331
35B
  5
3EE
331
4EB
  5
B95
331
173
  5
1B2
331
273
  5
2B2
331
262
  5
2A1
331
B84
  5
513
331
B74
  5
503
331
284
  5
2C3
331
4FC
  5
BA5
331
B95
  5
405
331
295
  5
2EB
331
50D
  5
BB6
331
195
  5
1D4
331
51E
  5
BC7
331
1A6
  5
1E5
331
60F
  5
BDD
331
BB7
  5
119
331
BA6
  5
3CD
331
184
  5
1C3
331
36C
  5
3F9
331
128
  5
167
331
610
  5
BDE
331
2A0
  5
2F6
331
BB8
  5
11A
331
2B1
  5
31C
331
BC9
  5
103
331
411
  5
4B6
331
1B1
  5
1F0
331
2C2
  5
342
331
BDA
  5
10B
331
422
  5
4C7
331
1C2
  5
206
331
433
  5
4D8
331
1D3
  5
217
331
BEB
  5
F3
331
2EC
  5
37C
331
47C
  5
51F
331
52D
  5
BD6
331
3DD
  5
482
331
2FD
  5
3A9
331
E5
  5
124
331
48D
  5
60B
331
1F5
  5
239
331
1E4
  5
228
331
3EE
  5
493
331
49E
  5
61C
331
206
  5
245
331
F6
  5
135
331
3FF
  5
4A4
331
31F
  5
3B8
331
107
  5
146
331
4AF
  5
B57
331
217
  5
256
331
230
  5
26F
331
241
  5
280
331
118
  5
157
331
33A
  5
3D9
331
141
  5
180
331
252
  5
291
331
4CA
  5
B72
331
B53
  5
4E1
331
34B
  5
3E4
331
263
  5
2A2
331
4DB
  5
B83
331
B64
  5
4F3
331
35C
  5
3EF
331
163
  5
1A2
331
152
  5
191
331
129
  5
168
331
4EC
  5
B96
331
174
  5
1B3
331
B85
  5
514
331
B75
  5
504
331
4FD
  5
BA6
331
185
  5
1C4
331
296
  5
2EC
331
50E
  5
BB7
331
196
  5
1D5
331
51F
  5
BC8
331
1A7
  5
1E6
331
BA7
  5
3D3
331
B96
  5
3FF
331
285
  5
2C4
331
274
  5
2B3
331
618
  5
BE6
331
BA8
  5
3C6
331
520
  5
BC9
331
1A8
  5
1E7
331
611
  5
BDF
331
2A1
  5
2F7
331
BB9
  5
11B
331
39A
  5
415
331
2B2
  5
31D
331
BCA
  5
104
331
412
  5
4B7
331
1B2
  5
1F1
331
3AB
  5
41F
331
2C3
  5
343
331
BDB
  5
108
331
423
  5
4C8
331
1C3
  5
207
331
3CD
  5
47C
331
1D4
  5
218
331
BEC
  5
EB
331
47D
  5
520
331
1E5
  5
229
331
3DE
  5
483
331
2FE
  5
3AB
331
E6
  5
125
331
2ED
  5
382
331
48E
  5
60C
331
1F6
  5
23A
331
3EF
  5
494
331
30F
  5
3B1
331
F7
  5
136
331
49F
  5
61D
331
400
  5
4A5
331
4B0
  5
B58
331
218
  5
257
331
108
  5
147
331
231
  5
270
331
32A
  5
3C3
331
242
  5
281
331
33B
  5
3DA
331
142
  5
181
331
12A
  5
169
331
4CB
  5
B73
331
153
  5
192
331
B54
  5
4E2
331
34C
  5
3E5
331
4DC
  5
B84
331
164
  5
1A3
331
264
  5
2A3
331
253
  5
292
331
119
  5
158
331
207
  5
246
331
275
  5
2B4
331
4ED
  5
B97
331
175
  5
1B4
331
B86
  5
515
331
286
  5
2C5
331
4FE
  5
BA7
331
186
  5
1C5
331
297
  5
2ED
331
50F
  5
BB8
331
197
  5
1D6
331
B97
  5
400
331
B76
  5
505
331
B65
  5
4F4
331
B98
  5
3FA
331
298
  5
2EE
331
619
  5
BE7
331
510
  5
BB9
331
198
  5
1D7
331
BA9
  5
3C7
331
521
  5
BCA
331
1A9
  5
1E8
331
612
  5
BE0
331
2A2
  5
2F8
331
BBA
  5
11C
331
39B
  5
416
331
2B3
  5
31E
331
413
  5
4B8
331
1B3
  5
1F2
331
2C4
  5
344
331
BDC
  5
109
331
424
  5
4C9
331
1C4
  5
208
331
3BD
  5
42C
331
2EE
  5
383
331
1D5
  5
219
331
BED
  5
EC
331
47E
  5
521
331
3DF
  5
484
331
48F
  5
60D
331
1F7
  5
23B
331
E7
  5
126
331
3F0
  5
495
331
1E6
  5
22A
331
4A0
  5
92D
331
208
  5
247
331
F8
  5
137
331
4B1
  5
B59
331
219
  5
258
331
109
  5
148
331
32B
  5
3C4
331
11A
  5
159
331
243
  5
282
331
33C
  5
3DB
331
143
  5
182
331
12B
  5
16A
331
4CC
  5
B74
331
154
  5
193
331
265
  5
2A4
331
4DD
  5
B85
331
B66
  5
4F5
331
276
  5
2B5
331
165
  5
1A4
331
B55
  5
4E3
331
254
  5
293
331
232
  5
271
331
401
  5
4A6
331
4EE
  5
B98
331
B87
  5
516
331
B77
  5
506
331
4FF
  5
BA8
331
187
  5
1C6
331
287
  5
2D5
331
176
  5
1B5
331
B88
  5
517
331
B78
  5
507
331
288
  5
2D6
331
500
  5
BA9
331
188
  5
1C7
331
B99
  5
3FB
331
299
  5
2EF
331
511
  5
BBA
331
199
  5
1D8
331
61A
  5
BE8
331
392
  5
410
331
BAA
  5
3C1
331
522
  5
BCB
331
1AA
  5
1E9
331
613
  5
BE1
331
2A3
  5
2F9
331
BBB
  5
11D
331
39C
  5
417
331
2B4
  5
31F
331
414
  5
4B9
331
1B4
  5
1F3
331
3AD
  5
420
331
2C5
  5
34A
331
BDD
  5
10A
331
425
  5
4CA
331
1C5
  5
209
331
3BE
  5
42D
331
2DE
  5
35C
331
BEE
  5
ED
331
2EF
  5
384
331
47F
  5
522
331
1E7
  5
22B
331
3E0
  5
485
331
490
  5
60E
331
1F8
  5
23C
331
3F1
  5
496
331
4A1
  5
92E
331
209
  5
248
331
F9
  5
138
331
4B2
  5
B5A
331
21A
  5
259
331
10A
  5
149
331
233
  5
272
331
32C
  5
3C5
331
11B
  5
15A
331
255
  5
294
331
144
  5
183
331
12C
  5
16B
331
244
  5
283
331
402
  5
4A7
331
E8
  5
127
331
1D6
  5
21A
331
4CD
  5
B75
331
B56
  5
4E4
331
266
  5
2A5
331
4DE
  5
B86
331
166
  5
1A5
331
B67
  5
4F6
331
277
  5
2B6
331
4EF
  5
B99
331
177
  5
1B6
331
155
  5
194
331
B68
  5
4F7
331
278
  5
2B7
331
4F0
  5
B9A
331
178
  5
1B7
331
B89
  5
518
331
B79
  5
508
331
289
  5
2D7
331
501
  5
BAA
331
189
  5
1C8
331
382
  5
406
331
B9A
  5
3F5
331
29A
  5
2F0
331
512
  5
BBB
331
19A
  5
1D9
331
61B
  5
BE9
331
393
  5
411
331
BAB
  5
3C2
331
523
  5
BCC
331
1AB
  5
1EA
331
614
  5
BE2
331
2A4
  5
2FA
331
BBC
  5
112
331
2B5
  5
320
331
415
  5
4BA
331
1B5
  5
1F4
331
3AE
  5
421
331
426
  5
4CB
331
1C6
  5
20A
331
BDE
  5
105
331
2DF
  5
362
331
2F0
  5
38A
331
1D7
  5
21B
331
480
  5
523
331
3E1
  5
486
331
491
  5
60F
331
1F9
  5
23D
331
E9
  5
128
331
3F2
  5
497
331
4A2
  5
92F
331
20A
  5
249
331
403
  5
4A8
331
4B3
  5
B5B
331
21B
  5
25A
331
10B
  5
14A
331
245
  5
284
331
11C
  5
15B
331
256
  5
295
331
145
  5
184
331
12D
  5
16C
331
4CE
  5
B76
331
B57
  5
4E5
331
156
  5
195
331
234
  5
273
331
FA
  5
139
331
1E8
  5
22C
331
3BF
  5
42E
331
4DF
  5
B87
331
167
  5
1A6
331
267
  5
2A6
331
B58
  5
4E6
331
268
  5
2A7
331
4E0
  5
B88
331
168
  5
1A7
331
B69
  5
4F8
331
279
  5
2B8
331
B7A
  5
509
331
372
  5
3FC
331
179
  5
1B8
331
28A
  5
2D8
331
502
  5
BAB
331
18A
  5
1C9
331
383
  5
407
331
B9B
  5
3F6
331
29B
  5
2F1
331
513
  5
BBC
331
19B
  5
1DA
331
61C
  5
BEA
331
394
  5
412
331
BAC
  5
364
331
524
  5
BCD
331
1AC
  5
1EB
331
615
  5
BE3
331
2A5
  5
2FB
331
BBD
  5
113
331
2B6
  5
321
331
BCE
  5
F8
331
416
  5
4BB
331
1B6
  5
1F5
331
427
  5
4CC
331
1C7
  5
20B
331
BDF
  5
106
331
3C0
  5
42F
331
2E0
  5
363
331
2F1
  5
38B
331
1D8
  5
21C
331
481
  5
524
331
1E9
  5
22D
331
3E2
  5
487
331
302
  5
3AD
331
EA
  5
129
331
492
  5
610
331
1FA
  5
23E
331
4A3
  5
B49
331
20B
  5
24A
331
FB
  5
13A
331
404
  5
4A9
331
4B4
  5
B5C
331
21C
  5
25B
331
235
  5
274
331
246
  5
285
331
11D
  5
15C
331
257
  5
296
331
146
  5
185
331
4CF
  5
B77
331
157
  5
196
331
12E
  5
16D
331
10C
  5
14B
331
3F3
  5
498
331
3AF
  5
422
331
258
  5
297
331
4D0
  5
B78
331
158
  5
197
331
B59
  5
4E7
331
269
  5
2A8
331
4E1
  5
B89
331
169
  5
1A8
331
B6A
  5
4F9
331
362
  5
3F2
331
27A
  5
2B9
331
4F2
  5
B9B
331
17A
  5
1B9
331
B7B
  5
50A
331
373
  5
3FD
331
28B
  5
2D9
331
503
  5
BAC
331
18B
  5
1CA
331
384
  5
408
331
B9C
  5
3F0
331
29C
  5
2F2
331
61D
  5
BEB
331
514
  5
BBD
331
19C
  5
1DB
331
BAD
  5
36A
331
525
  5
BCE
331
1AD
  5
1EC
331
616
  5
BE4
331
2A6
  5
2FC
331
2B7
  5
323
331
BCF
  5
F9
331
417
  5
4BC
331
1B7
  5
1F6
331
428
  5
4CD
331
1C8
  5
20C
331
BE0
  5
107
331
3C1
  5
430
331
2F2
  5
38C
331
1D9
  5
21D
331
482
  5
525
331
1EA
  5
22E
331
3E3
  5
488
331
493
  5
611
331
1FB
  5
23F
331
EB
  5
12A
331
3F4
  5
499
331
314
  5
3B2
331
FC
  5
13B
331
4A4
  5
B4C
331
20C
  5
24B
331
4B5
  5
B5D
331
21D
  5
25C
331
10D
  5
14C
331
247
  5
286
331
11E
  5
15D
331
147
  5
186
331
12F
  5
16E
331
236
  5
275
331
405
  5
4AA
331
3B0
  5
423
331
BBE
  5
114
331
248
  5
287
331
4C0
  5
B68
331
148
  5
187
331
130
  5
16F
331
B49
  5
4D9
331
259
  5
298
331
4D1
  5
B79
331
159
  5
198
331
B5A
  5
4E8
331
352
  5
3E8
331
26A
  5
2A9
331
4E2
  5
B8C
331
16A
  5
1A9
331
B6B
  5
4FA
331
363
  5
3F3
331
27B
  5
2BA
331
4F3
  5
B9C
331
17B
  5
1BA
331
B7C
  5
50B
331
374
  5
3FE
331
B8C
  5
418
331
28C
  5
2DE
331
504
  5
BAD
331
18C
  5
1CB
331
92D
  5
BEC
331
B9D
  5
3F1
331
29D
  5
2F3
331
515
  5
BBE
331
BAE
  5
35A
331
526
  5
BCF
331
1AE
  5
1ED
331
617
  5
BE5
331
2A7
  5
2FD
331
2B8
  5
324
331
BD0
  5
FA
331
418
  5
4BD
331
1B8
  5
1F7
331
429
  5
4CE
331
1C9
  5
20D
331
BE1
  5
101
331
3C2
  5
431
331
3D3
  5
47D
331
1DA
  5
21E
331
2F3
  5
392
331
483
  5
526
331
1EB
  5
22F
331
3E4
  5
489
331
494
  5
612
331
EC
  5
12B
331
3F5
  5
49A
331
4A5
  5
B4D
331
20D
  5
24C
331
FD
  5
13C
331
4B6
  5
B5E
331
21E
  5
25D
331
10E
  5
14D
331
11F
  5
15E
331
237
  5
276
331
406
  5
4AB
331
3B1
  5
424
331
BBF
  5
115
331
19D
  5
1DC
  0
XRECORD
  5
BF4
102
{ACAD_REACTORS
330
BF2
102
}
330
BF2
100
AcDbXrecord
280
     1
 70
     2
  0
XRECORD
  5
BF3
102
{ACAD_REACTORS
330
BF2
102
}
330
BF2
100
AcDbXrecord
280
     1
 40
1.25
  0
XRECORD
  5
BF5
102
{ACAD_REACTORS
330
BF2
102
}
330
BF2
100
AcDbXrecord
280
     1
 40
1.570796326794896
  0
XRECORD
  5
BF6
102
{ACAD_REACTORS
330
BF2
102
}
330
BF2
100
AcDbXrecord
280
     1
340
5D3
  0
LAYOUT
  5
6E
102
{ACAD_XDICTIONARY
360
C2A
102
}
102
{ACAD_REACTORS
330
61
102
}
330
61
100
AcDbPlotSettings
  1

  2
FX DP 205
  4

  6

 40
0.0
 41
0.0
 42
0.0
 43
0.0
 44
0.0
 45
0.0
 46
0.0
 47
0.0
 48
0.0
 49
0.0
140
0.0
141
0.0
142
1.0
143
1.0
 70
  1712
 72
     0
 73
     0
 74
     0
  7

 75
     0
147
1.0
148
0.0
149
0.0
100
AcDbLayout
  1
Model
 70
     1
 71
     0
 10
0.0
 20
0.0
 11
12.0
 21
9.0
 12
0.0
 22
0.0
 32
0.0
 14
0.0
 24
0.0
 34
0.0
 15
0.0
 25
0.0
 35
0.0
146
0.0
 13
0.0
 23
0.0
 33
0.0
 16
1.0
 26
0.0
 36
0.0
 17
0.0
 27
1.0
 37
0.0
 76
     0
330
6B
331
8B
  0
LAYOUT
  5
6A
102
{ACAD_XDICTIONARY
360
C28
102
}
102
{ACAD_REACTORS
330
61
102
}
330
61
100
AcDbPlotSettings
  1

  2
FX DP 205
  4

  6

 40
0.0
 41
0.0
 42
0.0
 43
0.0
 44
0.0
 45
0.0
 46
0.0
 47
0.0
 48
0.0
 49
0.0
140
0.0
141
0.0
142
1.0
143
1.0
 70
   688
 72
     0
 73
     0
 74
     5
  7

 75
    16
147
1.0
148
0.0
149
0.0
100
AcDbLayout
  1
レイアウト1
 70
     1
 71
     1
 10
0.0
 20
0.0
 11
12.0
 21
9.0
 12
0.0
 22
0.0
 32
0.0
 14
1.000000000000000E+20
 24
1.000000000000000E+20
 34
1.000000000000000E+20
 15
-1.000000000000000E+20
 25
-1.000000000000000E+20
 35
-1.000000000000000E+20
146
0.0
 13
0.0
 23
0.0
 33
0.0
 16
1.0
 26
0.0
 36
0.0
 17
0.0
 27
1.0
 37
0.0
 76
     0
330
67
  0
MATERIAL
  5
19
102
{ACAD_XDICTIONARY
360
1A
102
}
102
{ACAD_REACTORS
330
10
102
}
330
10
100
AcDbMaterial
  1
ByBlock
 72
     0
 43
0.0208333333333333
 43
0.0
 43
0.0
 43
0.0
 43
0.0
 43
0.0208333333333333
 43
0.0
 43
0.0
 43
0.0
 43
0.0
 43
1.0
 43
0.0
 43
0.0
 43
0.0
 43
0.0
 43
1.0
 77
     0
 47
0.0208333333333333
 47
0.0
 47
0.0
 47
0.0
 47
0.0
 47
0.0208333333333333
 47
0.0
 47
0.0
 47
0.0
 47
0.0
 47
1.0
 47
0.0
 47
0.0
 47
0.0
 47
0.0
 47
1.0
171
     0
 49
0.0208333333333333
 49
0.0
 49
0.0
 49
0.0
 49
0.0
 49
0.0208333333333333
 49
0.0
 49
0.0
 49
0.0
 49
0.0
 49
1.0
 49
0.0
 49
0.0
 49
0.0
 49
0.0
 49
1.0
175
     0
142
0.0208333333333333
142
0.0
142
0.0
142
0.0
142
0.0
142
0.0208333333333333
142
0.0
142
0.0
142
0.0
142
0.0
142
1.0
142
0.0
142
0.0
142
0.0
142
0.0
142
1.0
179
     0
144
0.0208333333333333
144
0.0
144
0.0
144
0.0
144
0.0
144
0.0208333333333333
144
0.0
144
0.0
144
0.0
144
0.0
144
1.0
144
0.0
144
0.0
144
0.0
144
0.0
144
1.0
147
0.0208333333333333
147
0.0
147
0.0
147
0.0
147
0.0
147
0.0208333333333333
147
0.0
147
0.0
147
0.0
147
0.0
147
1.0
147
0.0
147
0.0
147
0.0
147
0.0
147
1.0
  0
MATERIAL
  5
11
102
{ACAD_XDICTIONARY
360
12
102
}
102
{ACAD_REACTORS
330
10
102
}
330
10
100
AcDbMaterial
  1
ByLayer
 72
     0
 43
0.0208333333333333
 43
0.0
 43
0.0
 43
0.0
 43
0.0
 43
0.0208333333333333
 43
0.0
 43
0.0
 43
0.0
 43
0.0
 43
1.0
 43
0.0
 43
0.0
 43
0.0
 43
0.0
 43
1.0
 77
     0
 47
0.0208333333333333
 47
0.0
 47
0.0
 47
0.0
 47
0.0
 47
0.0208333333333333
 47
0.0
 47
0.0
 47
0.0
 47
0.0
 47
1.0
 47
0.0
 47
0.0
 47
0.0
 47
0.0
 47
1.0
171
     0
 49
0.0208333333333333
 49
0.0
 49
0.0
 49
0.0
 49
0.0
 49
0.0208333333333333
 49
0.0
 49
0.0
 49
0.0
 49
0.0
 49
1.0
 49
0.0
 49
0.0
 49
0.0
 49
0.0
 49
1.0
175
     0
142
0.0208333333333333
142
0.0
142
0.0
142
0.0
142
0.0
142
0.0208333333333333
142
0.0
142
0.0
142
0.0
142
0.0
142
1.0
142
0.0
142
0.0
142
0.0
142
0.0
142
1.0
179
     0
144
0.0208333333333333
144
0.0
144
0.0
144
0.0
144
0.0
144
0.0208333333333333
144
0.0
144
0.0
144
0.0
144
0.0
144
1.0
144
0.0
144
0.0
144
0.0
144
0.0
144
1.0
147
0.0208333333333333
147
0.0
147
0.0
147
0.0
147
0.0
147
0.0208333333333333
147
0.0
147
0.0
147
0.0
147
0.0
147
1.0
147
0.0
147
0.0
147
0.0
147
0.0
147
1.0
  0
MATERIAL
  5
21
102
{ACAD_XDICTIONARY
360
22
102
}
102
{ACAD_REACTORS
330
10
102
}
330
10
100
AcDbMaterial
  1
Global
 72
     0
 43
0.0208333333333333
 43
0.0
 43
0.0
 43
0.0
 43
0.0
 43
0.0208333333333333
 43
0.0
 43
0.0
 43
0.0
 43
0.0
 43
1.0
 43
0.0
 43
0.0
 43
0.0
 43
0.0
 43
1.0
 77
     0
 47
0.0208333333333333
 47
0.0
 47
0.0
 47
0.0
 47
0.0
 47
0.0208333333333333
 47
0.0
 47
0.0
 47
0.0
 47
0.0
 47
1.0
 47
0.0
 47
0.0
 47
0.0
 47
0.0
 47
1.0
171
     0
 49
0.0208333333333333
 49
0.0
 49
0.0
 49
0.0
 49
0.0
 49
0.0208333333333333
 49
0.0
 49
0.0
 49
0.0
 49
0.0
 49
1.0
 49
0.0
 49
0.0
 49
0.0
 49
0.0
 49
1.0
175
     0
142
0.0208333333333333
142
0.0
142
0.0
142
0.0
142
0.0
142
0.0208333333333333
142
0.0
142
0.0
142
0.0
142
0.0
142
1.0
142
0.0
142
0.0
142
0.0
142
0.0
142
1.0
179
     0
144
0.0208333333333333
144
0.0
144
0.0
144
0.0
144
0.0
144
0.0208333333333333
144
0.0
144
0.0
144
0.0
144
0.0
144
1.0
144
0.0
144
0.0
144
0.0
144
0.0
144
1.0
147
0.0208333333333333
147
0.0
147
0.0
147
0.0
147
0.0
147
0.0208333333333333
147
0.0
147
0.0
147
0.0
147
0.0
147
1.0
147
0.0
147
0.0
147
0.0
147
0.0
147
1.0
  0
MLEADERSTYLE
  5
66
102
{ACAD_REACTORS
330
65
102
}
330
65
100
AcDbMLeaderStyle
170
     2
171
     1
172
     0
 90
        2
 40
0.0
 41
0.0
173
     1
 91
-1056964608
340
5A
 92
       -2
290
     1
 42
0.09
291
     1
 43
0.36
  3
Standard
 44
0.18
300

342
55
174
     1
178
     6
175
     1
176
     0
 93
-1056964608
 45
0.18
292
     0
297
     0
 46
0.18
 94
-1056964608
 47
1.0
 49
1.0
140
1.0
293
     1
141
0.0
294
     1
177
     0
142
1.0
295
     0
296
     0
143
0.125
1001
ACAD_MLEADERVER
1070
     2
  0
MLINESTYLE
  5
5F
102
{ACAD_REACTORS
330
5E
102
}
330
5E
100
AcDbMlineStyle
  2
STANDARD
 70
     0
  3

 62
   256
 51
90.0
 52
90.0
 71
     2
 49
0.5
 62
   256
  6
BYLAYER
 49
-0.5
 62
   256
  6
BYLAYER
  0
ACDBPLACEHOLDER
  5
F
102
{ACAD_REACTORS
330
E
102
}
330
E
  0
SCALE
  5
43
102
{ACAD_REACTORS
330
42
102
}
330
42
100
AcDbScale
 70
     0
300
1:1
140
1.0
141
1.0
290
     1
  0
SCALE
  5
44
102
{ACAD_REACTORS
330
42
102
}
330
42
100
AcDbScale
 70
     0
300
1/128" = 1'-0"
140
0.0078125
141
12.0
290
     0
  0
SCALE
  5
45
102
{ACAD_REACTORS
330
42
102
}
330
42
100
AcDbScale
 70
     0
300
1/64" = 1'-0"
140
0.015625
141
12.0
290
     0
  0
SCALE
  5
46
102
{ACAD_REACTORS
330
42
102
}
330
42
100
AcDbScale
 70
     0
300
1/32" = 1'-0"
140
0.03125
141
12.0
290
     0
  0
SCALE
  5
47
102
{ACAD_REACTORS
330
42
102
}
330
42
100
AcDbScale
 70
     0
300
1/16" = 1'-0"
140
0.0625
141
12.0
290
     0
  0
SCALE
  5
48
102
{ACAD_REACTORS
330
42
102
}
330
42
100
AcDbScale
 70
     0
300
3/32" = 1'-0"
140
0.09375
141
12.0
290
     0
  0
SCALE
  5
49
102
{ACAD_REACTORS
330
42
102
}
330
42
100
AcDbScale
 70
     0
300
1/8" = 1'-0"
140
0.125
141
12.0
290
     0
  0
SCALE
  5
4A
102
{ACAD_REACTORS
330
42
102
}
330
42
100
AcDbScale
 70
     0
300
3/16" = 1'-0"
140
0.1875
141
12.0
290
     0
  0
SCALE
  5
4B
102
{ACAD_REACTORS
330
42
102
}
330
42
100
AcDbScale
 70
     0
300
1/4" = 1'-0"
140
0.25
141
12.0
290
     0
  0
SCALE
  5
4C
102
{ACAD_REACTORS
330
42
102
}
330
42
100
AcDbScale
 70
     0
300
3/8" = 1'-0"
140
0.375
141
12.0
290
     0
  0
SCALE
  5
4D
102
{ACAD_REACTORS
330
42
102
}
330
42
100
AcDbScale
 70
     0
300
1/2" = 1'-0"
140
0.5
141
12.0
290
     0
  0
SCALE
  5
4E
102
{ACAD_REACTORS
330
42
102
}
330
42
100
AcDbScale
 70
     0
300
3/4" = 1'-0"
140
0.75
141
12.0
290
     0
  0
SCALE
  5
4F
102
{ACAD_REACTORS
330
42
102
}
330
42
100
AcDbScale
 70
     0
300
1" = 1'-0"
140
1.0
141
12.0
290
     0
  0
SCALE
  5
50
102
{ACAD_REACTORS
330
42
102
}
330
42
100
AcDbScale
 70
     0
300
1-1/2" = 1'-0"
140
1.5
141
12.0
290
     0
  0
SCALE
  5
51
102
{ACAD_REACTORS
330
42
102
}
330
42
100
AcDbScale
 70
     0
300
3" = 1'-0"
140
3.0
141
12.0
290
     0
  0
SCALE
  5
52
102
{ACAD_REACTORS
330
42
102
}
330
42
100
AcDbScale
 70
     0
300
6" = 1'-0"
140
6.0
141
12.0
290
     0
  0
SCALE
  5
53
102
{ACAD_REACTORS
330
42
102
}
330
42
100
AcDbScale
 70
     0
300
1'-0" = 1'-0"
140
12.0
141
12.0
290
     0
  0
TABLESTYLE
  5
64
102
{ACAD_XDICTIONARY
360
7AA
102
}
102
{ACAD_REACTORS
330
63
102
}
330
63
100
AcDbTableStyle
  3
Standard
 70
     0
 71
     0
 40
0.06
 41
0.06
280
     0
281
     0
  7
STANDARD
140
0.18
170
     2
 62
     0
 63
     7
283
     0
274
    -2
284
     1
 64
     0
275
    -2
285
     1
 65
     0
276
    -2
286
     1
 66
     0
277
    -2
287
     1
 67
     0
278
    -2
288
     1
 68
     0
279
    -2
289
     1
 69
     0
  7
STANDARD
140
0.25
170
     5
 62
     0
 63
     7
283
     0
274
    -2
284
     1
 64
     0
275
    -2
285
     1
 65
     0
276
    -2
286
     1
 66
     0
277
    -2
287
     1
 67
     0
278
    -2
288
     1
 68
     0
279
    -2
289
     1
 69
     0
  7
STANDARD
140
0.18
170
     5
 62
     0
 63
     7
283
     0
274
    -2
284
     1
 64
     0
275
    -2
285
     1
 65
     0
276
    -2
286
     1
 66
     0
277
    -2
287
     1
 67
     0
278
    -2
288
     1
 68
     0
279
    -2
289
     1
 69
     0
  0
VISUALSTYLE
  5
2F
102
{ACAD_XDICTIONARY
360
C01
102
}
102
{ACAD_REACTORS
330
29
102
}
330
29
100
AcDbVisualStyle
  2

 70
     4
 71
     0
 72
     2
 73
     0
 90
        0
 40
-0.6
 41
-30.0
 62
     5
 63
     7
 74
     1
 91
        4
 64
     7
 65
   257
 75
     1
175
     1
 42
1.0
 92
        0
 66
   257
 43
1.0
 76
     1
 77
     6
 78
     2
 67
     7
 79
     5
170
     0
171
     0
290
     0
174
     0
 93
        1
 44
0.0
173
     0
291
     0
 45
0.0
1001
ACAD
1000
AcDbSavedByObjectVersion
1070
     0
  0
VISUALSTYLE
  5
7F3
102
{ACAD_XDICTIONARY
360
C2E
102
}
102
{ACAD_REACTORS
330
29
102
}
330
29
100
AcDbVisualStyle
  2

 70
     6
 71
     1
 72
     2
 73
     2
 90
        0
 40
-0.6
 41
-30.0
 62
     5
 63
     7
 74
     2
 91
        2
 64
     7
 65
   257
 75
     2
175
     1
 42
40.0
 92
        0
 66
   257
 43
1.0
 76
     1
 77
     6
 78
     2
 67
     7
 79
     3
170
     0
171
     0
290
     0
174
     0
 93
        1
 44
0.0
173
     0
291
     0
 45
0.0
1001
ACAD
1000
AcDbSavedByObjectVersion
1070
     0
  0
VISUALSTYLE
  5
5D3
102
{ACAD_XDICTIONARY
360
C2C
102
}
102
{ACAD_REACTORS
330
29
102
}
330
29
100
AcDbVisualStyle
  2

 70
     5
 71
     0
 72
     2
 73
     1
 90
        0
 40
-0.6
 41
-30.0
 62
     5
 63
     7
 74
     1
 91
        4
 64
     7
 65
   257
 75
     1
175
     1
 42
1.0
 92
        0
 66
   257
 43
1.0
 76
     1
 77
     6
 78
     2
 67
     7
 79
     5
170
     0
171
     0
290
     0
174
     0
 93
        1
 44
0.0
173
     0
291
     0
 45
0.0
1001
ACAD
1000
AcDbSavedByObjectVersion
1070
     0
  0
VISUALSTYLE
  5
2E
102
{ACAD_XDICTIONARY
360
BFF
102
}
102
{ACAD_REACTORS
330
29
102
}
330
29
100
AcDbVisualStyle
  2

 70
     7
 71
     1
 72
     0
 73
     1
 90
        0
 40
-0.6
 41
-30.0
 62
     5
 63
     7
 74
     0
 91
        4
 64
     7
 65
   257
 75
     1
175
     1
 42
1.0
 92
        8
 66
     7
 43
1.0
 76
     1
 77
     6
 78
     2
 67
     7
 79
     5
170
     0
171
     0
290
     0
174
     0
 93
        1
 44
0.0
173
     0
291
     1
 45
0.0
1001
ACAD
1000
AcDbSavedByObjectVersion
1070
     0
  0
VISUALSTYLE
  5
35
102
{ACAD_XDICTIONARY
360
C0D
102
}
102
{ACAD_REACTORS
330
29
102
}
330
29
100
AcDbVisualStyle
  2

 70
    12
 71
     2
 72
     2
 73
     0
 90
        0
 40
-0.6
 41
-30.0
 62
     5
 63
     7
 74
     1
 91
        4
 64
     7
 65
   257
 75
     1
175
     1
 42
1.0
 92
        8
 66
     7
 43
1.0
 76
     1
 77
     6
 78
     2
 67
     7
 79
     5
170
     0
171
     0
290
     0
174
     0
 93
        1
 44
50.0
173
     0
291
     1
 45
0.0
1001
ACAD
1000
AcDbSavedByObjectVersion
1070
     0
  0
VISUALSTYLE
  5
39
102
{ACAD_XDICTIONARY
360
C15
102
}
102
{ACAD_REACTORS
330
29
102
}
330
29
100
AcDbVisualStyle
  2

 70
    16
 71
     2
 72
     2
 73
     3
 90
        0
 40
-0.6
 41
-30.0
 62
     5
 63
     8
 74
     1
 91
        4
 64
     7
 65
   257
 75
     1
175
     1
 42
1.0
 92
        8
 66
     8
 43
1.0
 76
     1
 77
     6
 78
     2
 67
     7
 79
     5
170
     0
171
     0
290
     0
174
     0
 93
        1
 44
0.0
173
     0
291
     1
 45
0.0
1001
ACAD
1000
AcDbSavedByObjectVersion
1070
     0
  0
VISUALSTYLE
  5
32
102
{ACAD_XDICTIONARY
360
C07
102
}
102
{ACAD_REACTORS
330
29
102
}
330
29
100
AcDbVisualStyle
  2

 70
     9
 71
     3
 72
     2
 73
     0
 90
        0
 40
-0.6
 41
-30.0
 62
     5
 63
     7
 74
     2
 91
        2
 64
     7
 65
   257
 75
     1
175
     1
 42
179.0
 92
        8
 66
     7
 43
1.0
 76
     1
 77
     6
 78
     2
 67
     7
 79
     3
170
     0
171
     0
290
     0
174
     0
 93
        1
 44
0.0
173
     0
291
     0
 45
0.0
1001
ACAD
1000
AcDbSavedByObjectVersion
1070
     0
  0
VISUALSTYLE
  5
34
102
{ACAD_XDICTIONARY
360
C0B
102
}
102
{ACAD_REACTORS
330
29
102
}
330
29
100
AcDbVisualStyle
  2

 70
    11
 71
     2
 72
     2
 73
     0
 90
        0
 40
-0.6
 41
-30.0
 62
     5
 63
     7
 74
     1
 91
        4
 64
     7
 65
   257
 75
     1
175
     1
 42
1.0
 92
        8
 66
     7
 43
1.0
 76
     1
 77
     6
 78
     2
 67
     7
 79
     5
170
     0
171
     0
290
     0
174
     0
 93
        1
 44
-50.0
173
     0
291
     1
 45
0.0
1001
ACAD
1000
AcDbSavedByObjectVersion
1070
     0
  0
VISUALSTYLE
  5
41
102
{ACAD_XDICTIONARY
360
C25
102
}
102
{ACAD_REACTORS
330
29
102
}
330
29
100
AcDbVisualStyle
  2

 70
    22
 71
     2
 72
     2
 73
     0
 90
        0
 40
-0.6
 41
-30.0
 62
     5
 63
     7
 74
     1
 91
        4
 64
     7
 65
   257
 75
     1
175
     1
 42
1.0
 92
        8
 66
     7
 43
1.0
 76
     1
 77
     6
 78
     2
 67
     7
 79
     5
170
     0
171
     0
290
     0
174
     0
 93
        1
 44
0.0
173
     0
291
     1
 45
0.0
1001
ACAD
1000
AcDbSavedByObjectVersion
1070
     0
  0
VISUALSTYLE
  5
38
102
{ACAD_XDICTIONARY
360
C13
102
}
102
{ACAD_REACTORS
330
29
102
}
330
29
100
AcDbVisualStyle
  2

 70
    15
 71
     2
 72
     2
 73
     0
 90
        0
 40
-0.6
 41
-30.0
 62
     5
 63
     7
 74
     1
 91
        4
 64
     7
 65
   257
 75
     1
175
     1
 42
1.0
 92
        8
 66
     7
 43
1.0
 76
     1
 77
     6
 78
     2
 67
     7
 79
     5
170
     0
171
     0
290
     0
174
     0
 93
        1
 44
0.0
173
     0
291
     1
 45
0.0
1001
ACAD
1000
AcDbSavedByObjectVersion
1070
     0
  0
VISUALSTYLE
  5
2A
102
{ACAD_XDICTIONARY
360
BF7
102
}
102
{ACAD_REACTORS
330
29
102
}
330
29
100
AcDbVisualStyle
  2

 70
     0
 71
     2
 72
     1
 73
     1
 90
        2
 40
-0.6
 41
30.0
 62
     5
 63
     7
 74
     0
 91
        0
 64
     7
 65
   257
 75
     1
175
     1
 42
1.0
 92
        8
 66
     7
 43
1.0
 76
     1
 77
     6
 78
     2
 67
     7
 79
     5
170
     0
171
     0
290
     0
174
     0
 93
       13
 44
0.0
173
     0
291
     1
 45
0.0
1001
ACAD
1000
AcDbSavedByObjectVersion
1070
     0
  0
VISUALSTYLE
  5
2B
102
{ACAD_XDICTIONARY
360
BF9
102
}
102
{ACAD_REACTORS
330
29
102
}
330
29
100
AcDbVisualStyle
  2

 70
     1
 71
     2
 72
     1
 73
     1
 90
        2
 40
-0.6
 41
30.0
 62
     5
 63
     7
 74
     1
 91
        0
 64
     7
 65
   257
 75
     1
175
     1
 42
1.0
 92
        0
 66
   257
 43
1.0
 76
     1
 77
     6
 78
     2
 67
     7
 79
     5
170
     0
171
     0
290
     0
174
     0
 93
       13
 44
0.0
173
     0
291
     1
 45
0.0
1001
ACAD
1000
AcDbSavedByObjectVersion
1070
     0
  0
VISUALSTYLE
  5
2C
102
{ACAD_XDICTIONARY
360
BFB
102
}
102
{ACAD_REACTORS
330
29
102
}
330
29
100
AcDbVisualStyle
  2

 70
     2
 71
     2
 72
     2
 73
     1
 90
        2
 40
-0.6
 41
30.0
 62
     5
 63
     7
 74
     0
 91
        0
 64
     7
 65
   257
 75
     1
175
     1
 42
1.0
 92
        0
 66
     7
 43
1.0
 76
     1
 77
     6
 78
     2
 67
     7
 79
     5
170
     0
171
     0
290
     0
174
     0
 93
       13
 44
0.0
173
     0
291
     1
 45
0.0
1001
ACAD
1000
AcDbSavedByObjectVersion
1070
     0
  0
VISUALSTYLE
  5
2D
102
{ACAD_XDICTIONARY
360
BFD
102
}
102
{ACAD_REACTORS
330
29
102
}
330
29
100
AcDbVisualStyle
  2

 70
     3
 71
     2
 72
     2
 73
     1
 90
        2
 40
-0.6
 41
30.0
 62
     5
 63
     7
 74
     1
 91
        0
 64
     7
 65
   257
 75
     1
175
     1
 42
1.0
 92
        0
 66
   257
 43
1.0
 76
     1
 77
     6
 78
     2
 67
     7
 79
     5
170
     0
171
     0
290
     0
174
     0
 93
       13
 44
0.0
173
     0
291
     1
 45
0.0
1001
ACAD
1000
AcDbSavedByObjectVersion
1070
     0
  0
VISUALSTYLE
  5
31
102
{ACAD_XDICTIONARY
360
C05
102
}
102
{ACAD_REACTORS
330
29
102
}
330
29
100
AcDbVisualStyle
  2

 70
     6
 71
     1
 72
     2
 73
     2
 90
        0
 40
-0.6
 41
-30.0
 62
     5
 63
     7
 74
     2
 91
        2
 64
     7
 65
   257
 75
     2
175
     1
 42
40.0
 92
        0
 66
   257
 43
1.0
 76
     1
 77
     6
 78
     2
 67
     7
 79
     3
170
     0
171
     0
290
     0
174
     0
 93
        1
 44
0.0
173
     0
291
     0
 45
0.0
1001
ACAD
1000
AcDbSavedByObjectVersion
1070
     0
  0
VISUALSTYLE
  5
3F
102
{ACAD_XDICTIONARY
360
C21
102
}
102
{ACAD_REACTORS
330
29
102
}
330
29
100
AcDbVisualStyle
  2

 70
    20
 71
     2
 72
     2
 73
     0
 90
        0
 40
-0.6
 41
-30.0
 62
     5
 63
     7
 74
     1
 91
        4
 64
     7
 65
   257
 75
     1
175
     1
 42
1.0
 92
       10
 66
     7
 43
1.0
 76
     1
 77
     6
 78
     2
 67
     7
 79
     5
170
     0
171
     0
290
     0
174
     0
 93
        1
 44
0.0
173
     0
291
     1
 45
0.0
1001
ACAD
1000
AcDbSavedByObjectVersion
1070
     0
  0
VISUALSTYLE
  5
37
102
{ACAD_XDICTIONARY
360
C11
102
}
102
{ACAD_REACTORS
330
29
102
}
330
29
100
AcDbVisualStyle
  2

 70
    14
 71
     2
 72
     2
 73
     0
 90
        0
 40
-0.6
 41
-30.0
 62
     5
 63
     7
 74
     1
 91
        4
 64
     7
 65
   257
 75
     7
175
     7
 42
1.0
 92
        8
 66
     7
 43
1.0
 76
     1
 77
     6
 78
     2
 67
     7
 79
     5
170
     0
171
     0
290
     0
174
     0
 93
        1
 44
0.0
173
     0
291
     1
 45
0.0
1001
ACAD
1000
AcDbSavedByObjectVersion
1070
     0
  0
VISUALSTYLE
  5
40
102
{ACAD_XDICTIONARY
360
C23
102
}
102
{ACAD_REACTORS
330
29
102
}
330
29
100
AcDbVisualStyle
  2

 70
    21
 71
     2
 72
     2
 73
     0
 90
        0
 40
-0.6
 41
-30.0
 62
     5
 63
     7
 74
     1
 91
        4
 64
     7
 65
   257
 75
     1
175
     1
 42
1.0
 92
        9
 66
     7
 43
1.0
 76
     1
 77
     6
 78
     2
 67
     7
 79
     5
170
     0
171
     0
290
     0
174
     0
 93
        1
 44
0.0
173
     0
291
     1
 45
0.0
1001
ACAD
1000
AcDbSavedByObjectVersion
1070
     0
  0
VISUALSTYLE
  5
33
102
{ACAD_XDICTIONARY
360
C09
102
}
102
{ACAD_REACTORS
330
29
102
}
330
29
100
AcDbVisualStyle
  2

 70
     8
 71
     2
 72
     3
 73
     0
 90
        2
 40
-0.6
 41
30.0
 62
     5
 63
     7
 74
     0
 91
        0
 64
     7
 65
   257
 75
     1
175
     1
 42
1.0
 92
        8
 66
   257
 43
1.0
 76
     1
 77
     6
 78
     2
 67
     7
 79
     3
170
     0
171
     0
290
     0
174
     0
 93
       13
 44
0.0
173
     0
291
     0
 45
0.0
1001
ACAD
1000
AcDbSavedByObjectVersion
1070
     0
  0
VISUALSTYLE
  5
3E
102
{ACAD_XDICTIONARY
360
C1F
102
}
102
{ACAD_REACTORS
330
29
102
}
330
29
100
AcDbVisualStyle
  2

 70
    27
 71
     2
 72
     2
 73
     1
 90
        2
 40
-0.6
 41
30.0
 62
     5
 63
     7
 74
     0
 91
        4
 64
     7
 65
   257
 75
     1
175
     1
 42
1.0
 92
        8
 66
   257
 43
1.0
 76
     1
 77
     6
 78
     2
 67
     8
 79
     3
170
     0
171
     0
290
     0
174
     0
 93
        5
 44
0.0
173
     0
291
     0
 45
0.0
1001
ACAD
1000
AcDbSavedByObjectVersion
1070
     0
  0
VISUALSTYLE
  5
3D
102
{ACAD_XDICTIONARY
360
C1D
102
}
102
{ACAD_REACTORS
330
29
102
}
330
29
100
AcDbVisualStyle
  2

 70
    26
 71
     2
 72
     2
 73
     1
 90
        2
 40
-0.6
 41
30.0
 62
     5
 63
     7
 74
     1
 91
       10
 64
     7
 65
   257
 75
     2
175
     1
 42
1.0
 92
        8
 66
   257
 43
1.0
 76
     1
 77
     6
 78
     2
 67
     7
 79
     3
170
     0
171
     0
290
     0
174
     0
 93
        5
 44
0.0
173
     0
291
     0
 45
0.0
1001
ACAD
1000
AcDbSavedByObjectVersion
1070
     0
  0
VISUALSTYLE
  5
3A
102
{ACAD_XDICTIONARY
360
C17
102
}
102
{ACAD_REACTORS
330
29
102
}
330
29
100
AcDbVisualStyle
  2

 70
    23
 71
     2
 72
     2
 73
     3
 90
        0
 40
-0.6
 41
-30.0
 62
     5
 63
     7
 74
     2
 91
        2
 64
     7
 65
     7
 75
     1
175
     1
 42
40.0
 92
        8
 66
     7
 43
1.0
 76
     1
 77
     6
 78
     2
 67
     7
 79
     3
170
     0
171
     0
290
     0
174
     0
 93
        1
 44
0.0
173
     0
291
     0
 45
0.0
1001
ACAD
1000
AcDbSavedByObjectVersion
1070
     0
  0
VISUALSTYLE
  5
3B
102
{ACAD_XDICTIONARY
360
C19
102
}
102
{ACAD_REACTORS
330
29
102
}
330
29
100
AcDbVisualStyle
  2

 70
    24
 71
     1
 72
     2
 73
     2
 90
        0
 40
-0.6
 41
-30.0
 62
     5
 63
     7
 74
     2
 91
        2
 64
     7
 65
     7
 75
     1
175
     1
 42
40.0
 92
       11
 66
     7
 43
1.0
 76
     1
 77
     6
 78
     2
 67
     7
 79
     6
170
     0
171
     0
290
     0
174
     0
 93
        1
 44
0.0
173
     0
291
     0
 45
0.0
1001
ACAD
1000
AcDbSavedByObjectVersion
1070
     0
  0
VISUALSTYLE
  5
36
102
{ACAD_XDICTIONARY
360
C0F
102
}
102
{ACAD_REACTORS
330
29
102
}
330
29
100
AcDbVisualStyle
  2

 70
    13
 71
     2
 72
     2
 73
     0
 90
        0
 40
-0.6
 41
-30.0
 62
     5
 63
     7
 74
     1
 91
        4
 64
     7
 65
   257
 75
     1
175
     1
 42
1.0
 92
       12
 66
     7
 43
1.0
 76
     1
 77
     6
 78
     2
 67
     7
 79
     5
170
     0
171
     0
290
     0
174
     0
 93
        1
 44
0.0
173
     0
291
     1
 45
0.0
1001
ACAD
1000
AcDbSavedByObjectVersion
1070
     0
  0
VISUALSTYLE
  5
30
102
{ACAD_XDICTIONARY
360
C03
102
}
102
{ACAD_REACTORS
330
29
102
}
330
29
100
AcDbVisualStyle
  2

 70
     5
 71
     0
 72
     2
 73
     0
 90
        0
 40
-0.6
 41
-30.0
 62
     5
 63
     7
 74
     1
 91
        4
 64
     7
 65
   257
 75
     1
175
     1
 42
1.0
 92
        0
 66
   257
 43
1.0
 76
     1
 77
     6
 78
     2
 67
     7
 79
     3
170
     0
171
     0
290
     0
174
     0
 93
        1
 44
0.0
173
     0
291
     0
 45
0.0
1001
ACAD
1000
AcDbSavedByObjectVersion
1070
     0
  0
VISUALSTYLE
  5
3C
102
{ACAD_XDICTIONARY
360
C1B
102
}
102
{ACAD_REACTORS
330
29
102
}
330
29
100
AcDbVisualStyle
  2

 70
    25
 71
     2
 72
     2
 73
     1
 90
        1
 40
0.5
 41
-30.0
 62
     5
 63
     7
 74
     1
 91
        0
 64
     7
 65
   257
 75
     1
175
     1
 42
1.0
 92
        8
 66
     7
 43
1.0
 76
     1
 77
     6
 78
     2
 67
     7
 79
     3
170
     0
171
     0
290
     0
174
     0
 93
       13
 44
0.0
173
     0
291
     0
 45
0.0
1001
ACAD
1000
AcDbSavedByObjectVersion
1070
     0
  0
DICTIONARYVAR
  5
7A5
102
{ACAD_REACTORS
330
7A2
102
}
330
7A2
100
DictionaryVariables
280
     0
  1
1:1
  0
DICTIONARYVAR
  5
7A4
102
{ACAD_REACTORS
330
7A2
102
}
330
7A2
100
DictionaryVariables
280
     0
  1
STANDARD
  0
DICTIONARYVAR
  5
7A3
102
{ACAD_REACTORS
330
7A2
102
}
330
7A2
100
DictionaryVariables
280
     0
  1
STANDARD
  0
DICTIONARYVAR
  5
7A8
102
{ACAD_REACTORS
330
7A2
102
}
330
7A2
100
DictionaryVariables
280
     0
  1
1
  0
DICTIONARYVAR
  5
7A7
102
{ACAD_REACTORS
330
7A2
102
}
330
7A2
100
DictionaryVariables
280
     0
  1
0
  0
DICTIONARYVAR
  5
B05
102
{ACAD_REACTORS
330
7A2
102
}
330
7A2
100
DictionaryVariables
280
     0
  1
1.570796
  0
DICTIONARYVAR
  5
B06
102
{ACAD_REACTORS
330
7A2
102
}
330
7A2
100
DictionaryVariables
280
     0
  1
1.570796
  0
DICTIONARYVAR
  5
7A6
102
{ACAD_REACTORS
330
7A2
102
}
330
7A2
100
DictionaryVariables
280
     0
  1
127
  0
DICTIONARYVAR
  5
B07
102
{ACAD_REACTORS
330
7A2
102
}
330
7A2
100
DictionaryVariables
280
     0
  1
2
  0
DICTIONARY
  5
C2A
330
6E
100
AcDbDictionary
280
     1
281
     1
  3
ACAD_XREC_ROUNDTRIP
360
C2B
  0
DICTIONARY
  5
C28
330
6A
100
AcDbDictionary
280
     1
281
     1
  3
ACAD_XREC_ROUNDTRIP
360
C29
  0
DICTIONARY
  5
1A
330
19
100
AcDbDictionary
280
     1
281
     1
  3
ACAD_XREC_ROUNDTRIP
360
7B3
  3
BUMPTILE
360
1C
  3
DIFFUSETILE
360
1B
  3
OPACITYTILE
360
1F
  3
REFLECTIONTILE
360
1E
  3
REFRACTIONTILE
360
20
  3
SPECULARTILE
360
1D
  0
DICTIONARY
  5
12
330
11
100
AcDbDictionary
280
     1
281
     1
  3
ACAD_XREC_ROUNDTRIP
360
7B2
  3
BUMPTILE
360
14
  3
DIFFUSETILE
360
13
  3
OPACITYTILE
360
17
  3
REFLECTIONTILE
360
16
  3
REFRACTIONTILE
360
18
  3
SPECULARTILE
360
15
  0
DICTIONARY
  5
22
330
21
100
AcDbDictionary
280
     1
281
     1
  3
ACAD_XREC_ROUNDTRIP
360
7B4
  3
BUMPTILE
360
24
  3
DIFFUSETILE
360
23
  3
OPACITYTILE
360
27
  3
REFLECTIONTILE
360
26
  3
REFRACTIONTILE
360
28
  3
SPECULARTILE
360
25
  0
DICTIONARY
  5
7AA
330
64
100
AcDbDictionary
280
     1
281
     1
  3
ACAD_ROUNDTRIP_2008_TABLESTYLE_CELLSTYLEMAP
360
BEF
  3
ACAD_XREC_ROUNDTRIP
360
C27
  0
DICTIONARY
  5
C01
330
2F
100
AcDbDictionary
280
     1
281
     1
  3
ACAD_XREC_ROUNDTRIP
360
C02
  0
DICTIONARY
  5
C2E
330
7F3
100
AcDbDictionary
280
     1
281
     1
  3
ACAD_XREC_ROUNDTRIP
360
C2F
  0
DICTIONARY
  5
C2C
330
5D3
100
AcDbDictionary
280
     1
281
     1
  3
ACAD_XREC_ROUNDTRIP
360
C2D
  0
DICTIONARY
  5
BFF
330
2E
100
AcDbDictionary
280
     1
281
     1
  3
ACAD_XREC_ROUNDTRIP
360
C00
  0
DICTIONARY
  5
C0D
330
35
100
AcDbDictionary
280
     1
281
     1
  3
ACAD_XREC_ROUNDTRIP
360
C0E
  0
DICTIONARY
  5
C15
330
39
100
AcDbDictionary
280
     1
281
     1
  3
ACAD_XREC_ROUNDTRIP
360
C16
  0
DICTIONARY
  5
C07
330
32
100
AcDbDictionary
280
     1
281
     1
  3
ACAD_XREC_ROUNDTRIP
360
C08
  0
DICTIONARY
  5
C0B
330
34
100
AcDbDictionary
280
     1
281
     1
  3
ACAD_XREC_ROUNDTRIP
360
C0C
  0
DICTIONARY
  5
C25
330
41
100
AcDbDictionary
280
     1
281
     1
  3
ACAD_XREC_ROUNDTRIP
360
C26
  0
DICTIONARY
  5
C13
330
38
100
AcDbDictionary
280
     1
281
     1
  3
ACAD_XREC_ROUNDTRIP
360
C14
  0
DICTIONARY
  5
BF7
330
2A
100
AcDbDictionary
280
     1
281
     1
  3
ACAD_XREC_ROUNDTRIP
360
BF8
  0
DICTIONARY
  5
BF9
330
2B
100
AcDbDictionary
280
     1
281
     1
  3
ACAD_XREC_ROUNDTRIP
360
BFA
  0
DICTIONARY
  5
BFB
330
2C
100
AcDbDictionary
280
     1
281
     1
  3
ACAD_XREC_ROUNDTRIP
360
BFC
  0
DICTIONARY
  5
BFD
330
2D
100
AcDbDictionary
280
     1
281
     1
  3
ACAD_XREC_ROUNDTRIP
360
BFE
  0
DICTIONARY
  5
C05
330
31
100
AcDbDictionary
280
     1
281
     1
  3
ACAD_XREC_ROUNDTRIP
360
C06
  0
DICTIONARY
  5
C21
330
3F
100
AcDbDictionary
280
     1
281
     1
  3
ACAD_XREC_ROUNDTRIP
360
C22
  0
DICTIONARY
  5
C11
330
37
100
AcDbDictionary
280
     1
281
     1
  3
ACAD_XREC_ROUNDTRIP
360
C12
  0
DICTIONARY
  5
C23
330
40
100
AcDbDictionary
280
     1
281
     1
  3
ACAD_XREC_ROUNDTRIP
360
C24
  0
DICTIONARY
  5
C09
330
33
100
AcDbDictionary
280
     1
281
     1
  3
ACAD_XREC_ROUNDTRIP
360
C0A
  0
DICTIONARY
  5
C1F
330
3E
100
AcDbDictionary
280
     1
281
     1
  3
ACAD_XREC_ROUNDTRIP
360
C20
  0
DICTIONARY
  5
C1D
330
3D
100
AcDbDictionary
280
     1
281
     1
  3
ACAD_XREC_ROUNDTRIP
360
C1E
  0
DICTIONARY
  5
C17
330
3A
100
AcDbDictionary
280
     1
281
     1
  3
ACAD_XREC_ROUNDTRIP
360
C18
  0
DICTIONARY
  5
C19
330
3B
100
AcDbDictionary
280
     1
281
     1
  3
ACAD_XREC_ROUNDTRIP
360
C1A
  0
DICTIONARY
  5
C0F
330
36
100
AcDbDictionary
280
     1
281
     1
  3
ACAD_XREC_ROUNDTRIP
360
C10
  0
DICTIONARY
  5
C03
330
30
100
AcDbDictionary
280
     1
281
     1
  3
ACAD_XREC_ROUNDTRIP
360
C04
  0
DICTIONARY
  5
C1B
330
3C
100
AcDbDictionary
280
     1
281
     1
  3
ACAD_XREC_ROUNDTRIP
360
C1C
  0
XRECORD
  5
C2B
102
{ACAD_REACTORS
330
C2A
102
}
330
C2A
100
AcDbXrecord
280
     1
102
SHADEPLOT
 70
     0
102
SHADEPLOTRESLEVEL
 70
     2
102
SHADEPLOTCUSTOMDPI
 70
   300
  0
XRECORD
  5
C29
102
{ACAD_REACTORS
330
C28
102
}
330
C28
100
AcDbXrecord
280
     1
102
SHADEPLOT
 70
     0
102
SHADEPLOTRESLEVEL
 70
     2
102
SHADEPLOTCUSTOMDPI
 70
   300
  0
XRECORD
  5
7B3
102
{ACAD_REACTORS
330
1A
102
}
330
1A
100
AcDbXrecord
280
     1
102
MATERIAL
148
0.0
149
0.0
149
0.0
 93
        0
 94
      127
282
     0
 72
     0
 77
     0
171
     0
175
     0
179
     0
273
     0
  0
XRECORD
  5
1C
102
{ACAD_REACTORS
330
1A
102
}
330
1A
100
AcDbXrecord
280
     1
270
     1
271
     1
  0
XRECORD
  5
1B
102
{ACAD_REACTORS
330
1A
102
}
330
1A
100
AcDbXrecord
280
     1
270
     1
271
     1
  0
XRECORD
  5
1F
102
{ACAD_REACTORS
330
1A
102
}
330
1A
100
AcDbXrecord
280
     1
270
     1
271
     1
  0
XRECORD
  5
1E
102
{ACAD_REACTORS
330
1A
102
}
330
1A
100
AcDbXrecord
280
     1
270
     1
271
     1
  0
XRECORD
  5
20
102
{ACAD_REACTORS
330
1A
102
}
330
1A
100
AcDbXrecord
280
     1
270
     1
271
     1
  0
XRECORD
  5
1D
102
{ACAD_REACTORS
330
1A
102
}
330
1A
100
AcDbXrecord
280
     1
270
     1
271
     1
  0
XRECORD
  5
7B2
102
{ACAD_REACTORS
330
12
102
}
330
12
100
AcDbXrecord
280
     1
102
MATERIAL
148
0.0
149
0.0
149
0.0
 93
        0
 94
      127
282
     0
 72
     0
 77
     0
171
     0
175
     0
179
     0
273
     0
  0
XRECORD
  5
14
102
{ACAD_REACTORS
330
12
102
}
330
12
100
AcDbXrecord
280
     1
270
     1
271
     1
  0
XRECORD
  5
13
102
{ACAD_REACTORS
330
12
102
}
330
12
100
AcDbXrecord
280
     1
270
     1
271
     1
  0
XRECORD
  5
17
102
{ACAD_REACTORS
330
12
102
}
330
12
100
AcDbXrecord
280
     1
270
     1
271
     1
  0
XRECORD
  5
16
102
{ACAD_REACTORS
330
12
102
}
330
12
100
AcDbXrecord
280
     1
270
     1
271
     1
  0
XRECORD
  5
18
102
{ACAD_REACTORS
330
12
102
}
330
12
100
AcDbXrecord
280
     1
270
     1
271
     1
  0
XRECORD
  5
15
102
{ACAD_REACTORS
330
12
102
}
330
12
100
AcDbXrecord
280
     1
270
     1
271
     1
  0
XRECORD
  5
7B4
102
{ACAD_REACTORS
330
22
102
}
330
22
100
AcDbXrecord
280
     1
102
MATERIAL
148
0.0
149
0.0
149
0.0
 93
        0
 94
      127
282
     0
 72
     0
 77
     0
171
     0
175
     0
179
     0
273
     0
  0
XRECORD
  5
24
102
{ACAD_REACTORS
330
22
102
}
330
22
100
AcDbXrecord
280
     1
270
     1
271
     1
  0
XRECORD
  5
23
102
{ACAD_REACTORS
330
22
102
}
330
22
100
AcDbXrecord
280
     1
270
     1
271
     1
  0
XRECORD
  5
27
102
{ACAD_REACTORS
330
22
102
}
330
22
100
AcDbXrecord
280
     1
270
     1
271
     1
  0
XRECORD
  5
26
102
{ACAD_REACTORS
330
22
102
}
330
22
100
AcDbXrecord
280
     1
270
     1
271
     1
  0
XRECORD
  5
28
102
{ACAD_REACTORS
330
22
102
}
330
22
100
AcDbXrecord
280
     1
270
     1
271
     1
  0
XRECORD
  5
25
102
{ACAD_REACTORS
330
22
102
}
330
22
100
AcDbXrecord
280
     1
270
     1
271
     1
  0
CELLSTYLEMAP
  5
BEF
102
{ACAD_REACTORS
330
7AA
102
}
330
7AA
100
AcDbCellStyleMap
 90
        3
300
CELLSTYLE
  1
TABLEFORMAT_BEGIN
 90
        5
170
     1
 91
        0
 92
    32768
 62
   257
 93
        1
300
CONTENTFORMAT
  1
CONTENTFORMAT_BEGIN
 90
        0
 91
        0
 92
      512
 93
        0
300

 40
0.0
140
1.0
 94
        5
 62
     0
340
55
144
0.25
309
CONTENTFORMAT_END
171
     1
301
MARGIN
  1
CELLMARGIN_BEGIN
 40
0.06
 40
0.06
 40
0.06
 40
0.06
 40
0.18
 40
0.18
309
CELLMARGIN_END
 94
        6
 95
        1
302
GRIDFORMAT
  1
GRIDFORMAT_BEGIN
 90
        0
 91
        1
 62
     0
 92
       -2
340
0
 93
        0
 40
0.045
309
GRIDFORMAT_END
 95
        2
302
GRIDFORMAT
  1
GRIDFORMAT_BEGIN
 90
        0
 91
        1
 62
     0
 92
       -2
340
0
 93
        0
 40
0.045
309
GRIDFORMAT_END
 95
        4
302
GRIDFORMAT
  1
GRIDFORMAT_BEGIN
 90
        0
 91
        1
 62
     0
 92
       -2
340
0
 93
        0
 40
0.045
309
GRIDFORMAT_END
 95
        8
302
GRIDFORMAT
  1
GRIDFORMAT_BEGIN
 90
        0
 91
        1
 62
     0
 92
       -2
340
0
 93
        0
 40
0.045
309
GRIDFORMAT_END
 95
       16
302
GRIDFORMAT
  1
GRIDFORMAT_BEGIN
 90
        0
 91
        1
 62
     0
 92
       -2
340
0
 93
        0
 40
0.045
309
GRIDFORMAT_END
 95
       32
302
GRIDFORMAT
  1
GRIDFORMAT_BEGIN
 90
        0
 91
        1
 62
     0
 92
       -2
340
0
 93
        0
 40
0.045
309
GRIDFORMAT_END
309
TABLEFORMAT_END
  1
CELLSTYLE_BEGIN
 90
        1
 91
        1
300
_TITLE
309
CELLSTYLE_END
300
CELLSTYLE
  1
TABLEFORMAT_BEGIN
 90
        5
170
     1
 91
        0
 92
        0
 62
   257
 93
        1
300
CONTENTFORMAT
  1
CONTENTFORMAT_BEGIN
 90
        0
 91
        0
 92
      512
 93
        0
300

 40
0.0
140
1.0
 94
        5
 62
     0
340
55
144
0.18
309
CONTENTFORMAT_END
171
     1
301
MARGIN
  1
CELLMARGIN_BEGIN
 40
0.06
 40
0.06
 40
0.06
 40
0.06
 40
0.18
 40
0.18
309
CELLMARGIN_END
 94
        6
 95
        1
302
GRIDFORMAT
  1
GRIDFORMAT_BEGIN
 90
        0
 91
        1
 62
     0
 92
       -2
340
0
 93
        0
 40
0.045
309
GRIDFORMAT_END
 95
        2
302
GRIDFORMAT
  1
GRIDFORMAT_BEGIN
 90
        0
 91
        1
 62
     0
 92
       -2
340
0
 93
        0
 40
0.045
309
GRIDFORMAT_END
 95
        4
302
GRIDFORMAT
  1
GRIDFORMAT_BEGIN
 90
        0
 91
        1
 62
     0
 92
       -2
340
0
 93
        0
 40
0.045
309
GRIDFORMAT_END
 95
        8
302
GRIDFORMAT
  1
GRIDFORMAT_BEGIN
 90
        0
 91
        1
 62
     0
 92
       -2
340
0
 93
        0
 40
0.045
309
GRIDFORMAT_END
 95
       16
302
GRIDFORMAT
  1
GRIDFORMAT_BEGIN
 90
        0
 91
        1
 62
     0
 92
       -2
340
0
 93
        0
 40
0.045
309
GRIDFORMAT_END
 95
       32
302
GRIDFORMAT
  1
GRIDFORMAT_BEGIN
 90
        0
 91
        1
 62
     0
 92
       -2
340
0
 93
        0
 40
0.045
309
GRIDFORMAT_END
309
TABLEFORMAT_END
  1
CELLSTYLE_BEGIN
 90
        2
 91
        1
300
_HEADER
309
CELLSTYLE_END
300
CELLSTYLE
  1
TABLEFORMAT_BEGIN
 90
        5
170
     1
 91
        0
 92
        0
 62
   257
 93
        1
300
CONTENTFORMAT
  1
CONTENTFORMAT_BEGIN
 90
        0
 91
        0
 92
      512
 93
        0
300

 40
0.0
140
1.0
 94
        2
 62
     0
340
55
144
0.18
309
CONTENTFORMAT_END
171
     1
301
MARGIN
  1
CELLMARGIN_BEGIN
 40
0.06
 40
0.06
 40
0.06
 40
0.06
 40
0.18
 40
0.18
309
CELLMARGIN_END
 94
        6
 95
        1
302
GRIDFORMAT
  1
GRIDFORMAT_BEGIN
 90
        0
 91
        1
 62
     0
 92
       -2
340
0
 93
        0
 40
0.045
309
GRIDFORMAT_END
 95
        2
302
GRIDFORMAT
  1
GRIDFORMAT_BEGIN
 90
        0
 91
        1
 62
     0
 92
       -2
340
0
 93
        0
 40
0.045
309
GRIDFORMAT_END
 95
        4
302
GRIDFORMAT
  1
GRIDFORMAT_BEGIN
 90
        0
 91
        1
 62
     0
 92
       -2
340
0
 93
        0
 40
0.045
309
GRIDFORMAT_END
 95
        8
302
GRIDFORMAT
  1
GRIDFORMAT_BEGIN
 90
        0
 91
        1
 62
     0
 92
       -2
340
0
 93
        0
 40
0.045
309
GRIDFORMAT_END
 95
       16
302
GRIDFORMAT
  1
GRIDFORMAT_BEGIN
 90
        0
 91
        1
 62
     0
 92
       -2
340
0
 93
        0
 40
0.045
309
GRIDFORMAT_END
 95
       32
302
GRIDFORMAT
  1
GRIDFORMAT_BEGIN
 90
        0
 91
        1
 62
     0
 92
       -2
340
0
 93
        0
 40
0.045
309
GRIDFORMAT_END
309
TABLEFORMAT_END
  1
CELLSTYLE_BEGIN
 90
        3
 91
        2
300
_DATA
309
CELLSTYLE_END
  0
XRECORD
  5
C27
102
{ACAD_REACTORS
330
7AA
102
}
330
7AA
100
AcDbXrecord
280
     1
102
ACAD_ROUNDTRIP_PRE2007_TABLESTYLE
 90
      512
 91
        0
  1

 92
      512
 93
        0
  2

 94
      512
 95
        0
  3

  0
XRECORD
  5
C02
102
{ACAD_REACTORS
330
C01
102
}
330
C01
100
AcDbXrecord
280
     1
102
RTVSPropertyOp0
 70
     1
102
RTVSPropertyOp1
 70
     1
102
RTVSPropertyOp2
 70
     1
102
RTVSPropertyOp3
 70
     1
102
RTVSPropertyOp4
 70
     1
102
RTVSPropertyOp5
 70
     1
102
RTVSPropertyOp6
 70
     1
102
RTVSPropertyOp7
 70
     1
102
RTVSPropertyOp8
 70
     1
102
RTVSPropertyOp9
 70
     1
102
RTVSPropertyOp10
 70
     1
102
RTVSPropertyOp11
 70
     1
102
RTVSPropertyOp12
 70
     1
102
RTVSPropertyOp13
 70
     1
102
RTVSPropertyOp14
 70
     1
102
RTVSPropertyOp15
 70
     1
102
RTVSPropertyOp16
 70
     1
102
RTVSPropertyOp17
 70
     1
102
RTVSPropertyOp18
 70
     1
102
RTVSPropertyOp19
 70
     1
102
RTVSPropertyOp20
 70
     1
102
RTVSPropertyOp21
 70
     1
102
RTVSPropertyOp22
 70
     1
102
RTVSPropertyOp23
 70
     1
102
RTVSPropertyOp24
 70
     1
102
RTVSPropertyOp25
 70
     1
102
RTVSPropertyOp26
 70
     1
102
RTVSPropertyOp27
 70
     1
102
RTVSPropertyOp28
 70
     1
102
RTVSPropertyOp29
 70
     1
102
RTVSPropertyOp30
 70
     1
102
RTVSPropertyOp31
 70
     1
102
RTVSPropertyOp32
 70
     1
  0
XRECORD
  5
C2F
102
{ACAD_REACTORS
330
C2E
102
}
330
C2E
100
AcDbXrecord
280
     1
102
RTVSPropertyOp0
 70
     1
102
RTVSPropertyOp1
 70
     1
102
RTVSPropertyOp2
 70
     1
102
RTVSPropertyOp3
 70
     1
102
RTVSPropertyOp4
 70
     1
102
RTVSPropertyOp5
 70
     1
102
RTVSPropertyOp6
 70
     1
102
RTVSPropertyOp7
 70
     1
102
RTVSPropertyOp8
 70
     1
102
RTVSPropertyOp9
 70
     1
102
RTVSPropertyOp10
 70
     1
102
RTVSPropertyOp11
 70
     1
102
RTVSPropertyOp12
 70
     1
102
RTVSPropertyOp13
 70
     1
102
RTVSPropertyOp14
 70
     1
102
RTVSPropertyOp15
 70
     1
102
RTVSPropertyOp16
 70
     1
102
RTVSPropertyOp17
 70
     1
102
RTVSPropertyOp18
 70
     1
102
RTVSPropertyOp19
 70
     1
102
RTVSPropertyOp20
 70
     1
102
RTVSPropertyOp21
 70
     1
102
RTVSPropertyOp22
 70
     1
102
RTVSPropertyOp23
 70
     1
102
RTVSPropertyOp24
 70
     1
102
RTVSPropertyOp25
 70
     1
102
RTVSPropertyOp26
 70
     1
102
RTVSPropertyOp27
 70
     1
102
RTVSPropertyOp28
 70
     1
102
RTVSPropertyOp29
 70
     1
102
RTVSPropertyOp30
 70
     1
102
RTVSPropertyOp31
 70
     1
102
RTVSPropertyOp32
 70
     1
  0
XRECORD
  5
C2D
102
{ACAD_REACTORS
330
C2C
102
}
330
C2C
100
AcDbXrecord
280
     1
102
RTVSPropertyOp0
 70
     1
102
RTVSPropertyOp1
 70
     1
102
RTVSPropertyOp2
 70
     1
102
RTVSPropertyOp3
 70
     1
102
RTVSPropertyOp4
 70
     1
102
RTVSPropertyOp5
 70
     1
102
RTVSPropertyOp6
 70
     1
102
RTVSPropertyOp7
 70
     1
102
RTVSPropertyOp8
 70
     1
102
RTVSPropertyOp9
 70
     1
102
RTVSPropertyOp10
 70
     1
102
RTVSPropertyOp11
 70
     1
102
RTVSPropertyOp12
 70
     1
102
RTVSPropertyOp13
 70
     1
102
RTVSPropertyOp14
 70
     1
102
RTVSPropertyOp15
 70
     1
102
RTVSPropertyOp16
 70
     1
102
RTVSPropertyOp17
 70
     1
102
RTVSPropertyOp18
 70
     1
102
RTVSPropertyOp19
 70
     1
102
RTVSPropertyOp20
 70
     1
102
RTVSPropertyOp21
 70
     1
102
RTVSPropertyOp22
 70
     1
102
RTVSPropertyOp23
 70
     1
102
RTVSPropertyOp24
 70
     1
102
RTVSPropertyOp25
 70
     1
102
RTVSPropertyOp26
 70
     1
102
RTVSPropertyOp27
 70
     1
102
RTVSPropertyOp28
 70
     1
102
RTVSPropertyOp29
 70
     1
102
RTVSPropertyOp30
 70
     1
102
RTVSPropertyOp31
 70
     1
102
RTVSPropertyOp32
 70
     1
  0
XRECORD
  5
C00
102
{ACAD_REACTORS
330
BFF
102
}
330
BFF
100
AcDbXrecord
280
     1
102
RTVSPropertyOp0
 70
     1
102
RTVSPropertyOp1
 70
     1
102
RTVSPropertyOp2
 70
     1
102
RTVSPropertyOp3
 70
     1
102
RTVSPropertyOp4
 70
     1
102
RTVSPropertyOp5
 70
     1
102
RTVSPropertyOp6
 70
     1
102
RTVSPropertyOp7
 70
     1
102
RTVSPropertyOp8
 70
     1
102
RTVSPropertyOp9
 70
     1
102
RTVSPropertyOp10
 70
     1
102
RTVSPropertyOp11
 70
     1
102
RTVSPropertyOp12
 70
     1
102
RTVSPropertyOp13
 70
     1
102
RTVSPropertyOp14
 70
     1
102
RTVSPropertyOp15
 70
     1
102
RTVSPropertyOp16
 70
     1
102
RTVSPropertyOp17
 70
     1
102
RTVSPropertyOp18
 70
     1
102
RTVSPropertyOp19
 70
     1
102
RTVSPropertyOp20
 70
     1
102
RTVSPropertyOp21
 70
     1
102
RTVSPropertyOp22
 70
     1
102
RTVSPropertyOp23
 70
     1
102
RTVSPropertyOp24
 70
     1
102
RTVSPropertyOp25
 70
     1
102
RTVSPropertyOp26
 70
     1
102
RTVSPropertyOp27
 70
     1
102
RTVSPropertyOp28
 70
     1
102
RTVSPropertyOp29
 70
     1
102
RTVSPropertyOp30
 70
     1
102
RTVSPropertyOp31
 70
     1
102
RTVSPropertyOp32
 70
     1
  0
XRECORD
  5
C0E
102
{ACAD_REACTORS
330
C0D
102
}
330
C0D
100
AcDbXrecord
280
     1
102
RTVSPropertyOp0
 70
     1
102
RTVSPropertyOp1
 70
     1
102
RTVSPropertyOp2
 70
     1
102
RTVSPropertyOp3
 70
     1
102
RTVSPropertyOp4
 70
     1
102
RTVSPropertyOp5
 70
     1
102
RTVSPropertyOp6
 70
     1
102
RTVSPropertyOp7
 70
     1
102
RTVSPropertyOp8
 70
     1
102
RTVSPropertyOp9
 70
     1
102
RTVSPropertyOp10
 70
     1
102
RTVSPropertyOp11
 70
     1
102
RTVSPropertyOp12
 70
     1
102
RTVSPropertyOp13
 70
     1
102
RTVSPropertyOp14
 70
     1
102
RTVSPropertyOp15
 70
     1
102
RTVSPropertyOp16
 70
     1
102
RTVSPropertyOp17
 70
     1
102
RTVSPropertyOp18
 70
     1
102
RTVSPropertyOp19
 70
     1
102
RTVSPropertyOp20
 70
     1
102
RTVSPropertyOp21
 70
     1
102
RTVSPropertyOp22
 70
     1
102
RTVSPropertyOp23
 70
     1
102
RTVSPropertyOp24
 70
     1
102
RTVSPropertyOp25
 70
     1
102
RTVSPropertyOp26
 70
     1
102
RTVSPropertyOp27
 70
     1
102
RTVSPropertyOp28
 70
     1
102
RTVSPropertyOp29
 70
     1
102
RTVSPropertyOp30
 70
     1
102
RTVSPropertyOp31
 70
     1
102
RTVSPropertyOp32
 70
     1
  0
XRECORD
  5
C16
102
{ACAD_REACTORS
330
C15
102
}
330
C15
100
AcDbXrecord
280
     1
102
RTVSPropertyOp0
 70
     1
102
RTVSPropertyOp1
 70
     1
102
RTVSPropertyOp2
 70
     1
102
RTVSPropertyOp3
 70
     1
102
RTVSPropertyOp4
 70
     1
102
RTVSPropertyOp5
 70
     1
102
RTVSPropertyOp6
 70
     1
102
RTVSPropertyOp7
 70
     1
102
RTVSPropertyOp8
 70
     1
102
RTVSPropertyOp9
 70
     1
102
RTVSPropertyOp10
 70
     1
102
RTVSPropertyOp11
 70
     1
102
RTVSPropertyOp12
 70
     1
102
RTVSPropertyOp13
 70
     1
102
RTVSPropertyOp14
 70
     1
102
RTVSPropertyOp15
 70
     1
102
RTVSPropertyOp16
 70
     1
102
RTVSPropertyOp17
 70
     1
102
RTVSPropertyOp18
 70
     1
102
RTVSPropertyOp19
 70
     1
102
RTVSPropertyOp20
 70
     1
102
RTVSPropertyOp21
 70
     1
102
RTVSPropertyOp22
 70
     1
102
RTVSPropertyOp23
 70
     1
102
RTVSPropertyOp24
 70
     1
102
RTVSPropertyOp25
 70
     1
102
RTVSPropertyOp26
 70
     1
102
RTVSPropertyOp27
 70
     1
102
RTVSPropertyOp28
 70
     1
102
RTVSPropertyOp29
 70
     1
102
RTVSPropertyOp30
 70
     1
102
RTVSPropertyOp31
 70
     1
102
RTVSPropertyOp32
 70
     1
  0
XRECORD
  5
C08
102
{ACAD_REACTORS
330
C07
102
}
330
C07
100
AcDbXrecord
280
     1
102
RTVSPropertyOp0
 70
     1
102
RTVSPropertyOp1
 70
     1
102
RTVSPropertyOp2
 70
     1
102
RTVSPropertyOp3
 70
     1
102
RTVSPropertyOp4
 70
     1
102
RTVSPropertyOp5
 70
     1
102
RTVSPropertyOp6
 70
     1
102
RTVSPropertyOp7
 70
     1
102
RTVSPropertyOp8
 70
     1
102
RTVSPropertyOp9
 70
     1
102
RTVSPropertyOp10
 70
     1
102
RTVSPropertyOp11
 70
     1
102
RTVSPropertyOp12
 70
     1
102
RTVSPropertyOp13
 70
     1
102
RTVSPropertyOp14
 70
     1
102
RTVSPropertyOp15
 70
     1
102
RTVSPropertyOp16
 70
     1
102
RTVSPropertyOp17
 70
     1
102
RTVSPropertyOp18
 70
     1
102
RTVSPropertyOp19
 70
     1
102
RTVSPropertyOp20
 70
     1
102
RTVSPropertyOp21
 70
     1
102
RTVSPropertyOp22
 70
     1
102
RTVSPropertyOp23
 70
     1
102
RTVSPropertyOp24
 70
     1
102
RTVSPropertyOp25
 70
     1
102
RTVSPropertyOp26
 70
     1
102
RTVSPropertyOp27
 70
     1
102
RTVSPropertyOp28
 70
     1
102
RTVSPropertyOp29
 70
     1
102
RTVSPropertyOp30
 70
     1
102
RTVSPropertyOp31
 70
     1
102
RTVSPropertyOp32
 70
     1
  0
XRECORD
  5
C0C
102
{ACAD_REACTORS
330
C0B
102
}
330
C0B
100
AcDbXrecord
280
     1
102
RTVSPropertyOp0
 70
     1
102
RTVSPropertyOp1
 70
     1
102
RTVSPropertyOp2
 70
     1
102
RTVSPropertyOp3
 70
     1
102
RTVSPropertyOp4
 70
     1
102
RTVSPropertyOp5
 70
     1
102
RTVSPropertyOp6
 70
     1
102
RTVSPropertyOp7
 70
     1
102
RTVSPropertyOp8
 70
     1
102
RTVSPropertyOp9
 70
     1
102
RTVSPropertyOp10
 70
     1
102
RTVSPropertyOp11
 70
     1
102
RTVSPropertyOp12
 70
     1
102
RTVSPropertyOp13
 70
     1
102
RTVSPropertyOp14
 70
     1
102
RTVSPropertyOp15
 70
     1
102
RTVSPropertyOp16
 70
     1
102
RTVSPropertyOp17
 70
     1
102
RTVSPropertyOp18
 70
     1
102
RTVSPropertyOp19
 70
     1
102
RTVSPropertyOp20
 70
     1
102
RTVSPropertyOp21
 70
     1
102
RTVSPropertyOp22
 70
     1
102
RTVSPropertyOp23
 70
     1
102
RTVSPropertyOp24
 70
     1
102
RTVSPropertyOp25
 70
     1
102
RTVSPropertyOp26
 70
     1
102
RTVSPropertyOp27
 70
     1
102
RTVSPropertyOp28
 70
     1
102
RTVSPropertyOp29
 70
     1
102
RTVSPropertyOp30
 70
     1
102
RTVSPropertyOp31
 70
     1
102
RTVSPropertyOp32
 70
     1
  0
XRECORD
  5
C26
102
{ACAD_REACTORS
330
C25
102
}
330
C25
100
AcDbXrecord
280
     1
102
RTVSPropertyOp0
 70
     0
102
RTVSPropertyOp1
 70
     0
102
RTVSPropertyOp2
 70
     0
102
RTVSPropertyOp3
 70
     0
102
RTVSPropertyOp4
 70
     0
102
RTVSPropertyOp5
 70
     0
102
RTVSPropertyOp6
 70
     0
102
RTVSPropertyOp7
 70
     0
102
RTVSPropertyOp8
 70
     0
102
RTVSPropertyOp9
 70
     0
102
RTVSPropertyOp10
 70
     0
102
RTVSPropertyOp11
 70
     0
102
RTVSPropertyOp12
 70
     0
102
RTVSPropertyOp13
 70
     0
102
RTVSPropertyOp14
 70
     2
102
RTVSPropertyOp15
 70
     0
102
RTVSPropertyOp16
 70
     0
102
RTVSPropertyOp17
 70
     0
102
RTVSPropertyOp18
 70
     0
102
RTVSPropertyOp19
 70
     0
102
RTVSPropertyOp20
 70
     0
102
RTVSPropertyOp21
 70
     0
102
RTVSPropertyOp22
 70
     0
102
RTVSPropertyOp23
 70
     0
102
RTVSPropertyOp24
 70
     0
102
RTVSPropertyOp25
 70
     0
102
RTVSPropertyOp26
 70
     0
102
RTVSPropertyOp27
 70
     0
102
RTVSPropertyOp28
 70
     0
102
RTVSPropertyOp29
 70
     0
102
RTVSPropertyOp30
 70
     0
102
RTVSPropertyOp31
 70
     0
102
RTVSPropertyOp32
 70
     0
  0
XRECORD
  5
C14
102
{ACAD_REACTORS
330
C13
102
}
330
C13
100
AcDbXrecord
280
     1
102
RTVSPropertyOp0
 70
     1
102
RTVSPropertyOp1
 70
     1
102
RTVSPropertyOp2
 70
     1
102
RTVSPropertyOp3
 70
     1
102
RTVSPropertyOp4
 70
     1
102
RTVSPropertyOp5
 70
     1
102
RTVSPropertyOp6
 70
     1
102
RTVSPropertyOp7
 70
     1
102
RTVSPropertyOp8
 70
     1
102
RTVSPropertyOp9
 70
     1
102
RTVSPropertyOp10
 70
     1
102
RTVSPropertyOp11
 70
     1
102
RTVSPropertyOp12
 70
     1
102
RTVSPropertyOp13
 70
     1
102
RTVSPropertyOp14
 70
     1
102
RTVSPropertyOp15
 70
     1
102
RTVSPropertyOp16
 70
     1
102
RTVSPropertyOp17
 70
     1
102
RTVSPropertyOp18
 70
     1
102
RTVSPropertyOp19
 70
     1
102
RTVSPropertyOp20
 70
     1
102
RTVSPropertyOp21
 70
     1
102
RTVSPropertyOp22
 70
     1
102
RTVSPropertyOp23
 70
     1
102
RTVSPropertyOp24
 70
     1
102
RTVSPropertyOp25
 70
     1
102
RTVSPropertyOp26
 70
     1
102
RTVSPropertyOp27
 70
     1
102
RTVSPropertyOp28
 70
     1
102
RTVSPropertyOp29
 70
     1
102
RTVSPropertyOp30
 70
     1
102
RTVSPropertyOp31
 70
     1
102
RTVSPropertyOp32
 70
     1
  0
XRECORD
  5
BF8
102
{ACAD_REACTORS
330
BF7
102
}
330
BF7
100
AcDbXrecord
280
     1
102
RTVSPropertyOp0
 70
     1
102
RTVSPropertyOp1
 70
     1
102
RTVSPropertyOp2
 70
     1
102
RTVSPropertyOp3
 70
     1
102
RTVSPropertyOp4
 70
     1
102
RTVSPropertyOp5
 70
     1
102
RTVSPropertyOp6
 70
     1
102
RTVSPropertyOp7
 70
     1
102
RTVSPropertyOp8
 70
     1
102
RTVSPropertyOp9
 70
     1
102
RTVSPropertyOp10
 70
     1
102
RTVSPropertyOp11
 70
     1
102
RTVSPropertyOp12
 70
     1
102
RTVSPropertyOp13
 70
     1
102
RTVSPropertyOp14
 70
     1
102
RTVSPropertyOp15
 70
     1
102
RTVSPropertyOp16
 70
     1
102
RTVSPropertyOp17
 70
     1
102
RTVSPropertyOp18
 70
     1
102
RTVSPropertyOp19
 70
     1
102
RTVSPropertyOp20
 70
     1
102
RTVSPropertyOp21
 70
     1
102
RTVSPropertyOp22
 70
     1
102
RTVSPropertyOp23
 70
     1
102
RTVSPropertyOp24
 70
     1
102
RTVSPropertyOp25
 70
     1
102
RTVSPropertyOp26
 70
     1
102
RTVSPropertyOp27
 70
     1
102
RTVSPropertyOp28
 70
     1
102
RTVSPropertyOp29
 70
     1
102
RTVSPropertyOp30
 70
     1
102
RTVSPropertyOp31
 70
     1
102
RTVSPropertyOp32
 70
     1
  0
XRECORD
  5
BFA
102
{ACAD_REACTORS
330
BF9
102
}
330
BF9
100
AcDbXrecord
280
     1
102
RTVSPropertyOp0
 70
     1
102
RTVSPropertyOp1
 70
     1
102
RTVSPropertyOp2
 70
     1
102
RTVSPropertyOp3
 70
     1
102
RTVSPropertyOp4
 70
     1
102
RTVSPropertyOp5
 70
     1
102
RTVSPropertyOp6
 70
     1
102
RTVSPropertyOp7
 70
     1
102
RTVSPropertyOp8
 70
     1
102
RTVSPropertyOp9
 70
     1
102
RTVSPropertyOp10
 70
     1
102
RTVSPropertyOp11
 70
     1
102
RTVSPropertyOp12
 70
     1
102
RTVSPropertyOp13
 70
     1
102
RTVSPropertyOp14
 70
     1
102
RTVSPropertyOp15
 70
     1
102
RTVSPropertyOp16
 70
     1
102
RTVSPropertyOp17
 70
     1
102
RTVSPropertyOp18
 70
     1
102
RTVSPropertyOp19
 70
     1
102
RTVSPropertyOp20
 70
     1
102
RTVSPropertyOp21
 70
     1
102
RTVSPropertyOp22
 70
     1
102
RTVSPropertyOp23
 70
     1
102
RTVSPropertyOp24
 70
     1
102
RTVSPropertyOp25
 70
     1
102
RTVSPropertyOp26
 70
     1
102
RTVSPropertyOp27
 70
     1
102
RTVSPropertyOp28
 70
     1
102
RTVSPropertyOp29
 70
     1
102
RTVSPropertyOp30
 70
     1
102
RTVSPropertyOp31
 70
     1
102
RTVSPropertyOp32
 70
     1
  0
XRECORD
  5
BFC
102
{ACAD_REACTORS
330
BFB
102
}
330
BFB
100
AcDbXrecord
280
     1
102
RTVSPropertyOp0
 70
     1
102
RTVSPropertyOp1
 70
     1
102
RTVSPropertyOp2
 70
     1
102
RTVSPropertyOp3
 70
     1
102
RTVSPropertyOp4
 70
     1
102
RTVSPropertyOp5
 70
     1
102
RTVSPropertyOp6
 70
     1
102
RTVSPropertyOp7
 70
     1
102
RTVSPropertyOp8
 70
     1
102
RTVSPropertyOp9
 70
     1
102
RTVSPropertyOp10
 70
     1
102
RTVSPropertyOp11
 70
     1
102
RTVSPropertyOp12
 70
     1
102
RTVSPropertyOp13
 70
     1
102
RTVSPropertyOp14
 70
     1
102
RTVSPropertyOp15
 70
     1
102
RTVSPropertyOp16
 70
     1
102
RTVSPropertyOp17
 70
     1
102
RTVSPropertyOp18
 70
     1
102
RTVSPropertyOp19
 70
     1
102
RTVSPropertyOp20
 70
     1
102
RTVSPropertyOp21
 70
     1
102
RTVSPropertyOp22
 70
     1
102
RTVSPropertyOp23
 70
     1
102
RTVSPropertyOp24
 70
     1
102
RTVSPropertyOp25
 70
     1
102
RTVSPropertyOp26
 70
     1
102
RTVSPropertyOp27
 70
     1
102
RTVSPropertyOp28
 70
     1
102
RTVSPropertyOp29
 70
     1
102
RTVSPropertyOp30
 70
     1
102
RTVSPropertyOp31
 70
     1
102
RTVSPropertyOp32
 70
     1
  0
XRECORD
  5
BFE
102
{ACAD_REACTORS
330
BFD
102
}
330
BFD
100
AcDbXrecord
280
     1
102
RTVSPropertyOp0
 70
     1
102
RTVSPropertyOp1
 70
     1
102
RTVSPropertyOp2
 70
     1
102
RTVSPropertyOp3
 70
     1
102
RTVSPropertyOp4
 70
     1
102
RTVSPropertyOp5
 70
     1
102
RTVSPropertyOp6
 70
     1
102
RTVSPropertyOp7
 70
     1
102
RTVSPropertyOp8
 70
     1
102
RTVSPropertyOp9
 70
     1
102
RTVSPropertyOp10
 70
     1
102
RTVSPropertyOp11
 70
     1
102
RTVSPropertyOp12
 70
     1
102
RTVSPropertyOp13
 70
     1
102
RTVSPropertyOp14
 70
     1
102
RTVSPropertyOp15
 70
     1
102
RTVSPropertyOp16
 70
     1
102
RTVSPropertyOp17
 70
     1
102
RTVSPropertyOp18
 70
     1
102
RTVSPropertyOp19
 70
     1
102
RTVSPropertyOp20
 70
     1
102
RTVSPropertyOp21
 70
     1
102
RTVSPropertyOp22
 70
     1
102
RTVSPropertyOp23
 70
     1
102
RTVSPropertyOp24
 70
     1
102
RTVSPropertyOp25
 70
     1
102
RTVSPropertyOp26
 70
     1
102
RTVSPropertyOp27
 70
     1
102
RTVSPropertyOp28
 70
     1
102
RTVSPropertyOp29
 70
     1
102
RTVSPropertyOp30
 70
     1
102
RTVSPropertyOp31
 70
     1
102
RTVSPropertyOp32
 70
     1
  0
XRECORD
  5
C06
102
{ACAD_REACTORS
330
C05
102
}
330
C05
100
AcDbXrecord
280
     1
102
RTVSPropertyOp0
 70
     1
102
RTVSPropertyOp1
 70
     1
102
RTVSPropertyOp2
 70
     1
102
RTVSPropertyOp3
 70
     1
102
RTVSPropertyOp4
 70
     1
102
RTVSPropertyOp5
 70
     1
102
RTVSPropertyOp6
 70
     1
102
RTVSPropertyOp7
 70
     1
102
RTVSPropertyOp8
 70
     1
102
RTVSPropertyOp9
 70
     1
102
RTVSPropertyOp10
 70
     1
102
RTVSPropertyOp11
 70
     1
102
RTVSPropertyOp12
 70
     1
102
RTVSPropertyOp13
 70
     1
102
RTVSPropertyOp14
 70
     1
102
RTVSPropertyOp15
 70
     1
102
RTVSPropertyOp16
 70
     1
102
RTVSPropertyOp17
 70
     1
102
RTVSPropertyOp18
 70
     1
102
RTVSPropertyOp19
 70
     1
102
RTVSPropertyOp20
 70
     1
102
RTVSPropertyOp21
 70
     1
102
RTVSPropertyOp22
 70
     1
102
RTVSPropertyOp23
 70
     1
102
RTVSPropertyOp24
 70
     1
102
RTVSPropertyOp25
 70
     1
102
RTVSPropertyOp26
 70
     1
102
RTVSPropertyOp27
 70
     1
102
RTVSPropertyOp28
 70
     1
102
RTVSPropertyOp29
 70
     1
102
RTVSPropertyOp30
 70
     1
102
RTVSPropertyOp31
 70
     1
102
RTVSPropertyOp32
 70
     1
  0
XRECORD
  5
C22
102
{ACAD_REACTORS
330
C21
102
}
330
C21
100
AcDbXrecord
280
     1
102
RTVSPropertyOp0
 70
     0
102
RTVSPropertyOp1
 70
     0
102
RTVSPropertyOp2
 70
     0
102
RTVSPropertyOp3
 70
     0
102
RTVSPropertyOp4
 70
     0
102
RTVSPropertyOp5
 70
     0
102
RTVSPropertyOp6
 70
     0
102
RTVSPropertyOp7
 70
     0
102
RTVSPropertyOp8
 70
     0
102
RTVSPropertyOp9
 70
     0
102
RTVSPropertyOp10
 70
     0
102
RTVSPropertyOp11
 70
     0
102
RTVSPropertyOp12
 70
     0
102
RTVSPropertyOp13
 70
     0
102
RTVSPropertyOp14
 70
     2
102
RTVSPropertyOp15
 70
     0
102
RTVSPropertyOp16
 70
     0
102
RTVSPropertyOp17
 70
     0
102
RTVSPropertyOp18
 70
     0
102
RTVSPropertyOp19
 70
     0
102
RTVSPropertyOp20
 70
     0
102
RTVSPropertyOp21
 70
     0
102
RTVSPropertyOp22
 70
     0
102
RTVSPropertyOp23
 70
     0
102
RTVSPropertyOp24
 70
     0
102
RTVSPropertyOp25
 70
     0
102
RTVSPropertyOp26
 70
     0
102
RTVSPropertyOp27
 70
     0
102
RTVSPropertyOp28
 70
     0
102
RTVSPropertyOp29
 70
     0
102
RTVSPropertyOp30
 70
     0
102
RTVSPropertyOp31
 70
     0
102
RTVSPropertyOp32
 70
     0
  0
XRECORD
  5
C12
102
{ACAD_REACTORS
330
C11
102
}
330
C11
100
AcDbXrecord
280
     1
102
RTVSPropertyOp0
 70
     1
102
RTVSPropertyOp1
 70
     1
102
RTVSPropertyOp2
 70
     1
102
RTVSPropertyOp3
 70
     1
102
RTVSPropertyOp4
 70
     1
102
RTVSPropertyOp5
 70
     1
102
RTVSPropertyOp6
 70
     1
102
RTVSPropertyOp7
 70
     1
102
RTVSPropertyOp8
 70
     1
102
RTVSPropertyOp9
 70
     1
102
RTVSPropertyOp10
 70
     1
102
RTVSPropertyOp11
 70
     1
102
RTVSPropertyOp12
 70
     1
102
RTVSPropertyOp13
 70
     1
102
RTVSPropertyOp14
 70
     1
102
RTVSPropertyOp15
 70
     1
102
RTVSPropertyOp16
 70
     1
102
RTVSPropertyOp17
 70
     1
102
RTVSPropertyOp18
 70
     1
102
RTVSPropertyOp19
 70
     1
102
RTVSPropertyOp20
 70
     1
102
RTVSPropertyOp21
 70
     1
102
RTVSPropertyOp22
 70
     1
102
RTVSPropertyOp23
 70
     1
102
RTVSPropertyOp24
 70
     1
102
RTVSPropertyOp25
 70
     1
102
RTVSPropertyOp26
 70
     1
102
RTVSPropertyOp27
 70
     1
102
RTVSPropertyOp28
 70
     1
102
RTVSPropertyOp29
 70
     1
102
RTVSPropertyOp30
 70
     1
102
RTVSPropertyOp31
 70
     1
102
RTVSPropertyOp32
 70
     1
  0
XRECORD
  5
C24
102
{ACAD_REACTORS
330
C23
102
}
330
C23
100
AcDbXrecord
280
     1
102
RTVSPropertyOp0
 70
     0
102
RTVSPropertyOp1
 70
     0
102
RTVSPropertyOp2
 70
     0
102
RTVSPropertyOp3
 70
     0
102
RTVSPropertyOp4
 70
     0
102
RTVSPropertyOp5
 70
     0
102
RTVSPropertyOp6
 70
     0
102
RTVSPropertyOp7
 70
     0
102
RTVSPropertyOp8
 70
     0
102
RTVSPropertyOp9
 70
     0
102
RTVSPropertyOp10
 70
     0
102
RTVSPropertyOp11
 70
     0
102
RTVSPropertyOp12
 70
     0
102
RTVSPropertyOp13
 70
     0
102
RTVSPropertyOp14
 70
     2
102
RTVSPropertyOp15
 70
     0
102
RTVSPropertyOp16
 70
     0
102
RTVSPropertyOp17
 70
     0
102
RTVSPropertyOp18
 70
     0
102
RTVSPropertyOp19
 70
     0
102
RTVSPropertyOp20
 70
     0
102
RTVSPropertyOp21
 70
     0
102
RTVSPropertyOp22
 70
     0
102
RTVSPropertyOp23
 70
     0
102
RTVSPropertyOp24
 70
     0
102
RTVSPropertyOp25
 70
     0
102
RTVSPropertyOp26
 70
     0
102
RTVSPropertyOp27
 70
     0
102
RTVSPropertyOp28
 70
     0
102
RTVSPropertyOp29
 70
     0
102
RTVSPropertyOp30
 70
     0
102
RTVSPropertyOp31
 70
     0
102
RTVSPropertyOp32
 70
     0
  0
XRECORD
  5
C0A
102
{ACAD_REACTORS
330
C09
102
}
330
C09
100
AcDbXrecord
280
     1
102
RTVSPropertyOp0
 70
     1
102
RTVSPropertyOp1
 70
     1
102
RTVSPropertyOp2
 70
     1
102
RTVSPropertyOp3
 70
     1
102
RTVSPropertyOp4
 70
     1
102
RTVSPropertyOp5
 70
     1
102
RTVSPropertyOp6
 70
     1
102
RTVSPropertyOp7
 70
     1
102
RTVSPropertyOp8
 70
     1
102
RTVSPropertyOp9
 70
     1
102
RTVSPropertyOp10
 70
     1
102
RTVSPropertyOp11
 70
     1
102
RTVSPropertyOp12
 70
     1
102
RTVSPropertyOp13
 70
     1
102
RTVSPropertyOp14
 70
     1
102
RTVSPropertyOp15
 70
     1
102
RTVSPropertyOp16
 70
     1
102
RTVSPropertyOp17
 70
     1
102
RTVSPropertyOp18
 70
     1
102
RTVSPropertyOp19
 70
     1
102
RTVSPropertyOp20
 70
     1
102
RTVSPropertyOp21
 70
     1
102
RTVSPropertyOp22
 70
     1
102
RTVSPropertyOp23
 70
     1
102
RTVSPropertyOp24
 70
     1
102
RTVSPropertyOp25
 70
     1
102
RTVSPropertyOp26
 70
     1
102
RTVSPropertyOp27
 70
     1
102
RTVSPropertyOp28
 70
     1
102
RTVSPropertyOp29
 70
     1
102
RTVSPropertyOp30
 70
     1
102
RTVSPropertyOp31
 70
     1
102
RTVSPropertyOp32
 70
     1
  0
XRECORD
  5
C20
102
{ACAD_REACTORS
330
C1F
102
}
330
C1F
100
AcDbXrecord
280
     1
102
RTVSPropertyOp0
 70
     1
102
RTVSPropertyOp1
 70
     1
102
RTVSPropertyOp2
 70
     1
102
RTVSPropertyOp3
 70
     1
102
RTVSPropertyOp4
 70
     1
102
RTVSPropertyOp5
 70
     1
102
RTVSPropertyOp6
 70
     1
102
RTVSPropertyOp7
 70
     1
102
RTVSPropertyOp8
 70
     1
102
RTVSPropertyOp9
 70
     1
102
RTVSPropertyOp10
 70
     1
102
RTVSPropertyOp11
 70
     1
102
RTVSPropertyOp12
 70
     1
102
RTVSPropertyOp13
 70
     1
102
RTVSPropertyOp14
 70
     1
102
RTVSPropertyOp15
 70
     1
102
RTVSPropertyOp16
 70
     1
102
RTVSPropertyOp17
 70
     1
102
RTVSPropertyOp18
 70
     1
102
RTVSPropertyOp19
 70
     1
102
RTVSPropertyOp20
 70
     1
102
RTVSPropertyOp21
 70
     1
102
RTVSPropertyOp22
 70
     1
102
RTVSPropertyOp23
 70
     1
102
RTVSPropertyOp24
 70
     1
102
RTVSPropertyOp25
 70
     1
102
RTVSPropertyOp26
 70
     1
102
RTVSPropertyOp27
 70
     1
102
RTVSPropertyOp28
 70
     1
102
RTVSPropertyOp29
 70
     1
102
RTVSPropertyOp30
 70
     1
102
RTVSPropertyOp31
 70
     1
102
RTVSPropertyOp32
 70
     1
  0
XRECORD
  5
C1E
102
{ACAD_REACTORS
330
C1D
102
}
330
C1D
100
AcDbXrecord
280
     1
102
RTVSPropertyOp0
 70
     1
102
RTVSPropertyOp1
 70
     1
102
RTVSPropertyOp2
 70
     1
102
RTVSPropertyOp3
 70
     1
102
RTVSPropertyOp4
 70
     1
102
RTVSPropertyOp5
 70
     1
102
RTVSPropertyOp6
 70
     1
102
RTVSPropertyOp7
 70
     1
102
RTVSPropertyOp8
 70
     1
102
RTVSPropertyOp9
 70
     1
102
RTVSPropertyOp10
 70
     1
102
RTVSPropertyOp11
 70
     1
102
RTVSPropertyOp12
 70
     1
102
RTVSPropertyOp13
 70
     1
102
RTVSPropertyOp14
 70
     1
102
RTVSPropertyOp15
 70
     1
102
RTVSPropertyOp16
 70
     1
102
RTVSPropertyOp17
 70
     1
102
RTVSPropertyOp18
 70
     1
102
RTVSPropertyOp19
 70
     1
102
RTVSPropertyOp20
 70
     1
102
RTVSPropertyOp21
 70
     1
102
RTVSPropertyOp22
 70
     1
102
RTVSPropertyOp23
 70
     1
102
RTVSPropertyOp24
 70
     1
102
RTVSPropertyOp25
 70
     1
102
RTVSPropertyOp26
 70
     1
102
RTVSPropertyOp27
 70
     1
102
RTVSPropertyOp28
 70
     1
102
RTVSPropertyOp29
 70
     1
102
RTVSPropertyOp30
 70
     1
102
RTVSPropertyOp31
 70
     1
102
RTVSPropertyOp32
 70
     1
  0
XRECORD
  5
C18
102
{ACAD_REACTORS
330
C17
102
}
330
C17
100
AcDbXrecord
280
     1
102
RTVSPropertyOp0
 70
     1
102
RTVSPropertyOp1
 70
     1
102
RTVSPropertyOp2
 70
     1
102
RTVSPropertyOp3
 70
     1
102
RTVSPropertyOp4
 70
     1
102
RTVSPropertyOp5
 70
     1
102
RTVSPropertyOp6
 70
     1
102
RTVSPropertyOp7
 70
     1
102
RTVSPropertyOp8
 70
     1
102
RTVSPropertyOp9
 70
     1
102
RTVSPropertyOp10
 70
     1
102
RTVSPropertyOp11
 70
     1
102
RTVSPropertyOp12
 70
     1
102
RTVSPropertyOp13
 70
     1
102
RTVSPropertyOp14
 70
     1
102
RTVSPropertyOp15
 70
     1
102
RTVSPropertyOp16
 70
     1
102
RTVSPropertyOp17
 70
     1
102
RTVSPropertyOp18
 70
     1
102
RTVSPropertyOp19
 70
     1
102
RTVSPropertyOp20
 70
     1
102
RTVSPropertyOp21
 70
     1
102
RTVSPropertyOp22
 70
     1
102
RTVSPropertyOp23
 70
     1
102
RTVSPropertyOp24
 70
     1
102
RTVSPropertyOp25
 70
     1
102
RTVSPropertyOp26
 70
     1
102
RTVSPropertyOp27
 70
     1
102
RTVSPropertyOp28
 70
     1
102
RTVSPropertyOp29
 70
     1
102
RTVSPropertyOp30
 70
     1
102
RTVSPropertyOp31
 70
     1
102
RTVSPropertyOp32
 70
     1
  0
XRECORD
  5
C1A
102
{ACAD_REACTORS
330
C19
102
}
330
C19
100
AcDbXrecord
280
     1
102
RTVSPropertyOp0
 70
     1
102
RTVSPropertyOp1
 70
     1
102
RTVSPropertyOp2
 70
     1
102
RTVSPropertyOp3
 70
     1
102
RTVSPropertyOp4
 70
     1
102
RTVSPropertyOp5
 70
     1
102
RTVSPropertyOp6
 70
     1
102
RTVSPropertyOp7
 70
     1
102
RTVSPropertyOp8
 70
     1
102
RTVSPropertyOp9
 70
     1
102
RTVSPropertyOp10
 70
     1
102
RTVSPropertyOp11
 70
     1
102
RTVSPropertyOp12
 70
     1
102
RTVSPropertyOp13
 70
     1
102
RTVSPropertyOp14
 70
     1
102
RTVSPropertyOp15
 70
     1
102
RTVSPropertyOp16
 70
     1
102
RTVSPropertyOp17
 70
     1
102
RTVSPropertyOp18
 70
     1
102
RTVSPropertyOp19
 70
     1
102
RTVSPropertyOp20
 70
     1
102
RTVSPropertyOp21
 70
     1
102
RTVSPropertyOp22
 70
     1
102
RTVSPropertyOp23
 70
     1
102
RTVSPropertyOp24
 70
     1
102
RTVSPropertyOp25
 70
     1
102
RTVSPropertyOp26
 70
     1
102
RTVSPropertyOp27
 70
     1
102
RTVSPropertyOp28
 70
     1
102
RTVSPropertyOp29
 70
     1
102
RTVSPropertyOp30
 70
     1
102
RTVSPropertyOp31
 70
     1
102
RTVSPropertyOp32
 70
     1
  0
XRECORD
  5
C10
102
{ACAD_REACTORS
330
C0F
102
}
330
C0F
100
AcDbXrecord
280
     1
102
RTVSPropertyOp0
 70
     1
102
RTVSPropertyOp1
 70
     1
102
RTVSPropertyOp2
 70
     1
102
RTVSPropertyOp3
 70
     1
102
RTVSPropertyOp4
 70
     1
102
RTVSPropertyOp5
 70
     1
102
RTVSPropertyOp6
 70
     1
102
RTVSPropertyOp7
 70
     1
102
RTVSPropertyOp8
 70
     1
102
RTVSPropertyOp9
 70
     1
102
RTVSPropertyOp10
 70
     1
102
RTVSPropertyOp11
 70
     1
102
RTVSPropertyOp12
 70
     1
102
RTVSPropertyOp13
 70
     1
102
RTVSPropertyOp14
 70
     1
102
RTVSPropertyOp15
 70
     1
102
RTVSPropertyOp16
 70
     1
102
RTVSPropertyOp17
 70
     1
102
RTVSPropertyOp18
 70
     1
102
RTVSPropertyOp19
 70
     1
102
RTVSPropertyOp20
 70
     1
102
RTVSPropertyOp21
 70
     1
102
RTVSPropertyOp22
 70
     1
102
RTVSPropertyOp23
 70
     1
102
RTVSPropertyOp24
 70
     1
102
RTVSPropertyOp25
 70
     1
102
RTVSPropertyOp26
 70
     1
102
RTVSPropertyOp27
 70
     1
102
RTVSPropertyOp28
 70
     1
102
RTVSPropertyOp29
 70
     1
102
RTVSPropertyOp30
 70
     1
102
RTVSPropertyOp31
 70
     1
102
RTVSPropertyOp32
 70
     1
  0
XRECORD
  5
C04
102
{ACAD_REACTORS
330
C03
102
}
330
C03
100
AcDbXrecord
280
     1
102
RTVSPropertyOp0
 70
     1
102
RTVSPropertyOp1
 70
     1
102
RTVSPropertyOp2
 70
     1
102
RTVSPropertyOp3
 70
     1
102
RTVSPropertyOp4
 70
     1
102
RTVSPropertyOp5
 70
     1
102
RTVSPropertyOp6
 70
     1
102
RTVSPropertyOp7
 70
     1
102
RTVSPropertyOp8
 70
     1
102
RTVSPropertyOp9
 70
     1
102
RTVSPropertyOp10
 70
     1
102
RTVSPropertyOp11
 70
     1
102
RTVSPropertyOp12
 70
     1
102
RTVSPropertyOp13
 70
     1
102
RTVSPropertyOp14
 70
     1
102
RTVSPropertyOp15
 70
     1
102
RTVSPropertyOp16
 70
     1
102
RTVSPropertyOp17
 70
     1
102
RTVSPropertyOp18
 70
     1
102
RTVSPropertyOp19
 70
     1
102
RTVSPropertyOp20
 70
     1
102
RTVSPropertyOp21
 70
     1
102
RTVSPropertyOp22
 70
     1
102
RTVSPropertyOp23
 70
     1
102
RTVSPropertyOp24
 70
     1
102
RTVSPropertyOp25
 70
     1
102
RTVSPropertyOp26
 70
     1
102
RTVSPropertyOp27
 70
     1
102
RTVSPropertyOp28
 70
     1
102
RTVSPropertyOp29
 70
     1
102
RTVSPropertyOp30
 70
     1
102
RTVSPropertyOp31
 70
     1
102
RTVSPropertyOp32
 70
     1
  0
XRECORD
  5
C1C
102
{ACAD_REACTORS
330
C1B
102
}
330
C1B
100
AcDbXrecord
280
     1
102
RTVSPropertyOp0
 70
     1
102
RTVSPropertyOp1
 70
     1
102
RTVSPropertyOp2
 70
     1
102
RTVSPropertyOp3
 70
     1
102
RTVSPropertyOp4
 70
     1
102
RTVSPropertyOp5
 70
     1
102
RTVSPropertyOp6
 70
     1
102
RTVSPropertyOp7
 70
     1
102
RTVSPropertyOp8
 70
     1
102
RTVSPropertyOp9
 70
     1
102
RTVSPropertyOp10
 70
     1
102
RTVSPropertyOp11
 70
     1
102
RTVSPropertyOp12
 70
     1
102
RTVSPropertyOp13
 70
     1
102
RTVSPropertyOp14
 70
     1
102
RTVSPropertyOp15
 70
     1
102
RTVSPropertyOp16
 70
     1
102
RTVSPropertyOp17
 70
     1
102
RTVSPropertyOp18
 70
     1
102
RTVSPropertyOp19
 70
     1
102
RTVSPropertyOp20
 70
     1
102
RTVSPropertyOp21
 70
     1
102
RTVSPropertyOp22
 70
     1
102
RTVSPropertyOp23
 70
     1
102
RTVSPropertyOp24
 70
     1
102
RTVSPropertyOp25
 70
     1
102
RTVSPropertyOp26
 70
     1
102
RTVSPropertyOp27
 70
     1
102
RTVSPropertyOp28
 70
     1
102
RTVSPropertyOp29
 70
     1
102
RTVSPropertyOp30
 70
     1
102
RTVSPropertyOp31
 70
     1
102
RTVSPropertyOp32
 70
     1
  0
ENDSEC
  0
EOF
