  0
SECTION
  2
HEADER
  9
$ACADVER
  1
AC1015
  9
$ACADMAINTVER
 70
    20
  9
$DWGCODEPAGE
  3
ANSI_932
  9
$INSBASE
 10
0.0
 20
0.0
 30
0.0
  9
$EXTMIN
 10
1051.02936
 20
298.879851
 30
0.0
  9
$EXTMAX
 10
1456.02936
 20
572.9352119999998
 30
0.0
  9
$LIMMIN
 10
1051.028419
 20
298.878852
  9
$LIMMAX
 10
1456.056176
 20
572.936242
  9
$ORTHOMODE
 70
     1
  9
$REGENMODE
 70
     1
  9
$FILLMODE
 70
     1
  9
$QTEXTMODE
 70
     0
  9
$MIRRTEXT
 70
     0
  9
$LTSCALE
 40
6.750428999999998
  9
$ATTMODE
 70
     1
  9
$TEXTSIZE
 40
3.2
  9
$TRACEWID
 40
0.05
  9
$TEXTSTYLE
  7
高3.2
  9
$CLAYER
  8
0
  9
$CELTYPE
  6
CONTINUOUS
  9
$CECOLOR
 62
   256
  9
$CELTSCALE
 40
1.0
  9
$DISPSILH
 70
     0
  9
$DIMSCALE
 40
1.0
  9
$DIMASZ
 40
2.5
  9
$DIMEXO
 40
0.25
  9
$DIMDLI
 40
0.2
  9
$DIMRND
 40
0.0
  9
$DIMDLE
 40
0.0
  9
$DIMEXE
 40
1.25
  9
$DIMTP
 40
0.0
  9
$DIMTM
 40
0.0
  9
$DIMTXT
 40
3.0
  9
$DIMCEN
 40
0.0
  9
$DIMTSZ
 40
0.0
  9
$DIMTOL
 70
     0
  9
$DIMLIM
 70
     0
  9
$DIMTIH
 70
     0
  9
$DIMTOH
 70
     0
  9
$DIMSE1
 70
     0
  9
$DIMSE2
 70
     0
  9
$DIMTAD
 70
     3
  9
$DIMZIN
 70
     8
  9
$DIMBLK
  1
Open30
  9
$DIMASO
 70
     1
  9
$DIMSHO
 70
     1
  9
$DIMPOST
  1

  9
$DIMAPOST
  1

  9
$DIMALT
 70
     0
  9
$DIMALTD
 70
     3
  9
$DIMALTF
 40
0.03937007874016
  9
$DIMLFAC
 40
1.0
  9
$DIMTOFL
 70
     1
  9
$DIMTVP
 40
0.0
  9
$DIMTIX
 70
     0
  9
$DIMSOXD
 70
     0
  9
$DIMSAH
 70
     0
  9
$DIMBLK1
  1

  9
$DIMBLK2
  1

  9
$DIMSTYLE
  2
FREE
  9
$DIMCLRD
 70
     0
  9
$DIMCLRE
 70
     0
  9
$DIMCLRT
 70
     4
  9
$DIMTFAC
 40
1.0
  9
$DIMGAP
 40
0.625
  9
$DIMJUST
 70
     0
  9
$DIMSD1
 70
     0
  9
$DIMSD2
 70
     0
  9
$DIMTOLJ
 70
     0
  9
$DIMTZIN
 70
     8
  9
$DIMALTZ
 70
     0
  9
$DIMALTTZ
 70
     0
  9
$DIMUPT
 70
     1
  9
$DIMDEC
 70
     2
  9
$DIMTDEC
 70
     2
  9
$DIMALTU
 70
     2
  9
$DIMALTTD
 70
     3
  9
$DIMTXSTY
  7
STANDARD
  9
$DIMAUNIT
 70
     0
  9
$DIMADEC
 70
     1
  9
$DIMALTRND
 40
0.0
  9
$DIMAZIN
 70
     2
  9
$DIMDSEP
 70
    46
  9
$DIMATFIT
 70
     0
  9
$DIMFRAC
 70
     0
  9
$DIMLDRBLK
  1
Open30
  9
$DIMLUNIT
 70
     2
  9
$DIMLWD
 70
    -2
  9
$DIMLWE
 70
    -2
  9
$DIMTMOVE
 70
     0
  9
$LUNITS
 70
     2
  9
$LUPREC
 70
     4
  9
$SKETCHINC
 40
0.1
  9
$FILLETRAD
 40
0.0
  9
$AUNITS
 70
     0
  9
$AUPREC
 70
     0
  9
$MENU
  1
.
  9
$ELEVATION
 40
0.0
  9
$PELEVATION
 40
0.0
  9
$THICKNESS
 40
0.0
  9
$LIMCHECK
 70
     0
  9
$CHAMFERA
 40
0.0
  9
$CHAMFERB
 40
0.0
  9
$CHAMFERC
 40
0.0
  9
$CHAMFERD
 40
0.0
  9
$SKPOLY
 70
     0
  9
$TDCREATE
 40
2456311.391671401
  9
$TDUCREATE
 40
2456311.016671401
  9
$TDUPDATE
 40
2456849.473016157
  9
$TDUUPDATE
 40
2456849.098016157
  9
$TDINDWG
 40
0.0149233681
  9
$TDUSRTIMER
 40
0.0149233681
  9
$USRTIMER
 70
     1
  9
$ANGBASE
 50
0.0
  9
$ANGDIR
 70
     0
  9
$PDMODE
 70
     0
  9
$PDSIZE
 40
0.0
  9
$PLINEWID
 40
0.0
  9
$SPLFRAME
 70
     0
  9
$SPLINETYPE
 70
     6
  9
$SPLINESEGS
 70
     8
  9
$HANDSEED
  5
8EA
  9
$SURFTAB1
 70
     6
  9
$SURFTAB2
 70
     6
  9
$SURFTYPE
 70
     6
  9
$SURFU
 70
     6
  9
$SURFV
 70
     6
  9
$UCSBASE
  2

  9
$UCSNAME
  2

  9
$UCSORG
 10
0.0
 20
0.0
 30
0.0
  9
$UCSXDIR
 10
1.0
 20
0.0
 30
0.0
  9
$UCSYDIR
 10
0.0
 20
1.0
 30
0.0
  9
$UCSORTHOREF
  2

  9
$UCSORTHOVIEW
 70
     0
  9
$UCSORGTOP
 10
0.0
 20
0.0
 30
0.0
  9
$UCSORGBOTTOM
 10
0.0
 20
0.0
 30
0.0
  9
$UCSORGLEFT
 10
0.0
 20
0.0
 30
0.0
  9
$UCSORGRIGHT
 10
0.0
 20
0.0
 30
0.0
  9
$UCSORGFRONT
 10
0.0
 20
0.0
 30
0.0
  9
$UCSORGBACK
 10
0.0
 20
0.0
 30
0.0
  9
$PUCSBASE
  2

  9
$PUCSNAME
  2

  9
$PUCSORG
 10
0.0
 20
0.0
 30
0.0
  9
$PUCSXDIR
 10
1.0
 20
0.0
 30
0.0
  9
$PUCSYDIR
 10
0.0
 20
1.0
 30
0.0
  9
$PUCSORTHOREF
  2

  9
$PUCSORTHOVIEW
 70
     0
  9
$PUCSORGTOP
 10
0.0
 20
0.0
 30
0.0
  9
$PUCSORGBOTTOM
 10
0.0
 20
0.0
 30
0.0
  9
$PUCSORGLEFT
 10
0.0
 20
0.0
 30
0.0
  9
$PUCSORGRIGHT
 10
0.0
 20
0.0
 30
0.0
  9
$PUCSORGFRONT
 10
0.0
 20
0.0
 30
0.0
  9
$PUCSORGBACK
 10
0.0
 20
0.0
 30
0.0
  9
$USERI1
 70
     0
  9
$USERI2
 70
     0
  9
$USERI3
 70
     0
  9
$USERI4
 70
     0
  9
$USERI5
 70
     0
  9
$USERR1
 40
0.0
  9
$USERR2
 40
0.0
  9
$USERR3
 40
0.0
  9
$USERR4
 40
0.0
  9
$USERR5
 40
0.0
  9
$WORLDVIEW
 70
     1
  9
$SHADEDGE
 70
     3
  9
$SHADEDIF
 70
    70
  9
$TILEMODE
 70
     1
  9
$MAXACTVP
 70
    64
  9
$PINSBASE
 10
0.0
 20
0.0
 30
0.0
  9
$PLIMCHECK
 70
     0
  9
$PEXTMIN
 10
1.000000000000000E+20
 20
1.000000000000000E+20
 30
1.000000000000000E+20
  9
$PEXTMAX
 10
-1.000000000000000E+20
 20
-1.000000000000000E+20
 30
-1.000000000000000E+20
  9
$PLIMMIN
 10
0.0
 20
0.0
  9
$PLIMMAX
 10
12.0
 20
9.0
  9
$UNITMODE
 70
     0
  9
$VISRETAIN
 70
     1
  9
$PLINEGEN
 70
     0
  9
$PSLTSCALE
 70
     1
  9
$TREEDEPTH
 70
  3020
  9
$CMLSTYLE
  2
Standard
  9
$CMLJUST
 70
     0
  9
$CMLSCALE
 40
1.0
  9
$PROXYGRAPHICS
 70
     1
  9
$MEASUREMENT
 70
     0
  9
$CELWEIGHT
370
    -1
  9
$ENDCAPS
280
     0
  9
$JOINSTYLE
280
     0
  9
$LWDISPLAY
290
     0
  9
$INSUNITS
 70
     0
  9
$HYPERLINKBASE
  1

  9
$STYLESHEET
  1

  9
$XEDIT
290
     1
  9
$CEPSNTYPE
380
     0
  9
$PSTYLEMODE
290
     1
  9
$FINGERPRINTGUID
  2
{7CED349D-1958-439F-AA09-7AB726D0E5DD}
  9
$VERSIONGUID
  2
{E3DFEB77-B0C9-48A0-97AE-41080DD74235}
  9
$EXTNAMES
290
     1
  9
$PSVPSCALE
 40
0.0
  9
$OLESTARTUP
290
     0
  0
ENDSEC
  0
SECTION
  2
CLASSES
  0
CLASS
  1
ACDBDICTIONARYWDFLT
  2
AcDbDictionaryWithDefault
  3
ObjectDBX Classes
 90
        0
280
     0
281
     0
  0
CLASS
  1
MATERIAL
  2
AcDbMaterial
  3
ObjectDBX Classes
 90
     1153
280
     0
281
     0
  0
CLASS
  1
VISUALSTYLE
  2
AcDbVisualStyle
  3
ObjectDBX Classes
 90
     4095
280
     0
281
     0
  0
CLASS
  1
SCALE
  2
AcDbScale
  3
ObjectDBX Classes
 90
     1153
280
     0
281
     0
  0
CLASS
  1
TABLESTYLE
  2
AcDbTableStyle
  3
ObjectDBX Classes
 90
     4095
280
     0
281
     0
  0
CLASS
  1
MLEADERSTYLE
  2
AcDbMLeaderStyle
  3
ACDB_MLEADERSTYLE_CLASS
 90
     4095
280
     0
281
     0
  0
CLASS
  1
SORTENTSTABLE
  2
AcDbSortentsTable
  3
ObjectDBX Classes
 90
        0
280
     0
281
     0
  0
CLASS
  1
DICTIONARYVAR
  2
AcDbDictionaryVar
  3
ObjectDBX Classes
 90
        0
280
     0
281
     0
  0
CLASS
  1
CELLSTYLEMAP
  2
AcDbCellStyleMap
  3
ObjectDBX Classes
 90
     1152
280
     0
281
     0
  0
CLASS
  1
ACDBPLACEHOLDER
  2
AcDbPlaceHolder
  3
ObjectDBX Classes
 90
        0
280
     0
281
     0
  0
CLASS
  1
LAYOUT
  2
AcDbLayout
  3
ObjectDBX Classes
 90
        0
280
     0
281
     0
  0
ENDSEC
  0
SECTION
  2
TABLES
  0
TABLE
  2
VPORT
  5
8
330
0
100
AcDbSymbolTable
 70
     1
  0
VPORT
  5
8C
330
8
100
AcDbSymbolTableRecord
100
AcDbViewportTableRecord
  2
*Active
 70
     0
 10
0.0
 20
0.0
 11
1.0
 21
1.0
 12
1360.214064526168
 22
390.0045898440049
 13
0.0
 23
0.0
 14
1.0
 24
1.0
 15
0.0
 25
0.0
 16
0.0
 26
0.0
 36
1.0
 17
0.0
 27
0.0
 37
0.0
 40
720.4199370522317
 41
2.0347551342812
 42
50.0
 43
0.0
 44
0.0
 50
0.0
 51
0.0
 71
     0
 72
   100
 73
     1
 74
     1
 75
     0
 76
     0
 77
     0
 78
     0
281
     0
 65
     1
110
0.0
120
0.0
130
0.0
111
1.0
121
0.0
131
0.0
112
0.0
122
1.0
132
0.0
 79
     0
146
0.0
  0
ENDTAB
  0
TABLE
  2
LTYPE
  5
5
330
0
100
AcDbSymbolTable
 70
     2
  0
LTYPE
  5
5A
330
5
100
AcDbSymbolTableRecord
100
AcDbLinetypeTableRecord
  2
ByBlock
 70
     0
  3

 72
    65
 73
     0
 40
0.0
  0
LTYPE
  5
5B
330
5
100
AcDbSymbolTableRecord
100
AcDbLinetypeTableRecord
  2
ByLayer
 70
     0
  3

 72
    65
 73
     0
 40
0.0
  0
LTYPE
  5
5C
330
5
100
AcDbSymbolTableRecord
100
AcDbLinetypeTableRecord
  2
CONTINUOUS
 70
     0
  3
Solid-line
 72
    65
 73
     0
 40
0.0
  0
ENDTAB
  0
TABLE
  2
LAYER
  5
2
102
{ACAD_XDICTIONARY
360
561
102
}
330
0
100
AcDbSymbolTable
 70
     2
  0
LAYER
  5
54
102
{ACAD_XDICTIONARY
360
724
102
}
330
2
100
AcDbSymbolTableRecord
100
AcDbLayerTableRecord
  2
0
 70
     0
 62
     7
  6
CONTINUOUS
370
    -3
390
F
  0
LAYER
  5
54C
330
2
100
AcDbSymbolTableRecord
100
AcDbLayerTableRecord
  2
Defpoints
 70
     0
 62
     7
  6
CONTINUOUS
290
     0
370
    -3
390
F
  0
ENDTAB
  0
TABLE
  2
STYLE
  5
3
330
0
100
AcDbSymbolTable
 70
     5
  0
STYLE
  5
55
330
3
100
AcDbSymbolTableRecord
100
AcDbTextStyleTableRecord
  2
STANDARD
 70
     0
 40
0.0
 41
1.0
 50
0.0
 71
     0
 42
0.2
  3
TXT
  4
BIGFONT
  0
STYLE
  5
54D
330
3
100
AcDbSymbolTableRecord
100
AcDbTextStyleTableRecord
  2
高3.2
 70
     0
 40
3.2
 41
1.0
 50
0.0
 71
     0
 42
3.2
  3
txt.shx
  4
bigfont.shx
  0
STYLE
  5
54E
330
3
100
AcDbSymbolTableRecord
100
AcDbTextStyleTableRecord
  2
高6.3
 70
     0
 40
6.299999999999998
 41
1.0
 50
0.0
 71
     0
 42
6.299999999999998
  3
txt.shx
  4
bigfont.shx
  0
STYLE
  5
550
330
3
100
AcDbSymbolTableRecord
100
AcDbTextStyleTableRecord
  2
高4.5
 70
     0
 40
4.5
 41
1.0
 50
0.0
 71
     0
 42
6.299999999999998
  3
txt.shx
  4
bigfont.shx
  0
STYLE
  5
551
330
3
100
AcDbSymbolTableRecord
100
AcDbTextStyleTableRecord
  2
高2
 70
     0
 40
2.0
 41
1.0
 50
0.0
 71
     0
 42
2.0
  3
txt.shx
  4
bigfont.shx
  0
ENDTAB
  0
TABLE
  2
VIEW
  5
6
330
0
100
AcDbSymbolTable
 70
     0
  0
ENDTAB
  0
TABLE
  2
UCS
  5
7
330
0
100
AcDbSymbolTable
 70
     0
  0
ENDTAB
  0
TABLE
  2
APPID
  5
9
330
0
100
AcDbSymbolTable
 70
    10
  0
APPID
  5
56
330
9
100
AcDbSymbolTableRecord
100
AcDbRegAppTableRecord
  2
ACAD
 70
     0
  0
APPID
  5
5D
330
9
100
AcDbSymbolTableRecord
100
AcDbRegAppTableRecord
  2
AcadAnnotative
 70
     0
  0
APPID
  5
55C
330
9
100
AcDbSymbolTableRecord
100
AcDbRegAppTableRecord
  2
ACAD_DSTYLE_DIMJOGGED_JOGANGLE_SYMBOL
 70
     0
  0
APPID
  5
55D
330
9
100
AcDbSymbolTableRecord
100
AcDbRegAppTableRecord
  2
ACAD_DSTYLE_DIMJAG
 70
     0
  0
APPID
  5
55E
330
9
100
AcDbSymbolTableRecord
100
AcDbRegAppTableRecord
  2
ACAD_DSTYLE_DIMBREAK
 70
     0
  0
APPID
  5
55F
330
9
100
AcDbSymbolTableRecord
100
AcDbRegAppTableRecord
  2
ACAD_DSTYLE_DIMTALN
 70
     0
  0
APPID
  5
6B7
330
9
100
AcDbSymbolTableRecord
100
AcDbRegAppTableRecord
  2
ACAD_EXEMPT_FROM_CAD_STANDARDS
 70
     0
  0
APPID
  5
76A
330
9
100
AcDbSymbolTableRecord
100
AcDbRegAppTableRecord
  2
ACAD_MLEADERVER
 70
     0
  0
APPID
  5
76F
330
9
100
AcDbSymbolTableRecord
100
AcDbRegAppTableRecord
  2
ACAD_DSTYLE_DIMARC_LENGTH_SYMBOL
 70
     0
  0
APPID
  5
770
330
9
100
AcDbSymbolTableRecord
100
AcDbRegAppTableRecord
  2
ACAD_DSTYLE_DIMEXT_LENGTH
 70
     0
  0
ENDTAB
  0
TABLE
  2
DIMSTYLE
  5
A
330
0
100
AcDbSymbolTable
 70
     2
100
AcDbDimStyleTable
 71
     1
340
55B
  0
DIMSTYLE
105
57
330
A
100
AcDbSymbolTableRecord
100
AcDbDimStyleTableRecord
  2
Standard
 70
     0
340
55
  0
DIMSTYLE
105
55B
330
A
100
AcDbSymbolTableRecord
100
AcDbDimStyleTableRecord
  2
FREE
 70
     0
 41
2.5
 42
0.25
 43
0.2
 44
1.25
 73
     0
 74
     0
 77
     3
 78
     8
 79
     2
140
3.0
141
0.0
143
0.03937007874016
147
0.625
171
     3
172
     1
178
     4
179
     1
271
     2
272
     2
274
     3
283
     0
284
     8
288
     1
289
     0
340
55
341
4BC
342
4BC
1001
ACAD_DSTYLE_DIMBREAK
1070
   391
1040
3.75
1001
ACAD_DSTYLE_DIMJAG
1070
   388
1040
1.5
1001
ACAD_DSTYLE_DIMTALN
1070
   392
1070
     0
1001
ACAD_DSTYLE_DIMARC_LENGTH_SYMBOL
1070
   379
1070
     2
1001
ACAD_DSTYLE_DIMEXT_LENGTH
1070
   378
1040
1.25
1001
ACAD_DSTYLE_DIMJOGGED_JOGANGLE_SYMBOL
1070
   384
1040
1.570796326794896
  0
ENDTAB
  0
TABLE
  2
BLOCK_RECORD
  5
1
330
0
100
AcDbSymbolTable
 70
     4
  0
BLOCK_RECORD
  5
6B
102
{ACAD_XDICTIONARY
360
7D7
102
}
330
1
100
AcDbSymbolTableRecord
100
AcDbBlockTableRecord
  2
*Model_Space
340
6E
  0
BLOCK_RECORD
  5
67
330
1
100
AcDbSymbolTableRecord
100
AcDbBlockTableRecord
  2
*Paper_Space
340
6A
  0
BLOCK_RECORD
  5
4BC
330
1
100
AcDbSymbolTableRecord
100
AcDbBlockTableRecord
  2
_Open30
340
0
102
{BLKREFS
331
77A
331
77B
331
783
331
784
331
78C
331
78D
102
}
  0
BLOCK_RECORD
  5
6B9
330
1
100
AcDbSymbolTableRecord
100
AcDbBlockTableRecord
  2
*D1
340
0
  0
BLOCK_RECORD
  5
6C6
330
1
100
AcDbSymbolTableRecord
100
AcDbBlockTableRecord
  2
*D2
340
0
  0
BLOCK_RECORD
  5
6D3
330
1
100
AcDbSymbolTableRecord
100
AcDbBlockTableRecord
  2
*D3
340
0
  0
ENDTAB
  0
ENDSEC
  0
SECTION
  2
BLOCKS
  0
BLOCK
  5
6C
330
6B
100
AcDbEntity
  8
0
100
AcDbBlockBegin
  2
*Model_Space
 70
     0
 10
0.0
 20
0.0
 30
0.0
  3
*Model_Space
  1

  0
ENDBLK
  5
6D
330
6B
100
AcDbEntity
  8
0
100
AcDbBlockEnd
  0
BLOCK
  5
68
330
67
100
AcDbEntity
 67
     1
  8
0
100
AcDbBlockBegin
  2
*Paper_Space
 70
     0
 10
0.0
 20
0.0
 30
0.0
  3
*Paper_Space
  1

  0
ENDBLK
  5
69
330
67
100
AcDbEntity
 67
     1
  8
0
100
AcDbBlockEnd
  0
BLOCK
  5
4BD
330
4BC
100
AcDbEntity
  8
0
100
AcDbBlockBegin
  2
_Open30
 70
     0
 10
0.0
 20
0.0
 30
0.0
  3
_Open30
  1

  0
LINE
  5
4BE
330
4BC
100
AcDbEntity
  8
0
  6
ByBlock
 62
     0
370
    -2
100
AcDbLine
 10
-1.0
 20
0.267949
 30
0.0
 11
0.0
 21
0.0
 31
0.0
  0
LINE
  5
4BF
330
4BC
100
AcDbEntity
  8
0
  6
ByBlock
 62
     0
370
    -2
100
AcDbLine
 10
0.0
 20
0.0
 30
0.0
 11
-1.0
 21
-0.267949
 31
0.0
  0
LINE
  5
4C0
330
4BC
100
AcDbEntity
  8
0
  6
ByBlock
 62
     0
370
    -2
100
AcDbLine
 10
0.0
 20
0.0
 30
0.0
 11
-1.0
 21
0.0
 31
0.0
  0
ENDBLK
  5
4C1
330
4BC
100
AcDbEntity
  8
0
100
AcDbBlockEnd
  0
BLOCK
  5
6BA
330
6B9
100
AcDbEntity
  8
0
100
AcDbBlockBegin
  2
*D1
 70
     1
 10
0.0
 20
0.0
 30
0.0
  3
*D1
  1

  0
LINE
  5
780
330
6B9
100
AcDbEntity
  8
0
 62
     0
370
    -2
100
AcDbLine
 10
1251.09674
 20
418.2105369999998
 30
0.0
 11
1251.09674
 21
401.001872
 31
0.0
  0
LINE
  5
781
330
6B9
100
AcDbEntity
  8
0
 62
     0
370
    -2
100
AcDbLine
 10
1365.09674
 20
418.2105369999998
 30
0.0
 11
1365.09674
 21
401.001872
 31
0.0
  0
LINE
  5
782
330
6B9
100
AcDbEntity
  8
0
 62
     0
370
    -2
100
AcDbLine
 10
1253.59674
 20
402.251872
 30
0.0
 11
1362.59674
 21
402.251872
 31
0.0
  0
INSERT
  5
783
330
6B9
100
AcDbEntity
  8
0
 62
     0
370
    -2
100
AcDbBlockReference
  2
_Open30
 10
1251.09674
 20
402.251872
 30
0.0
 41
2.5
 42
2.5
 43
2.5
 50
180.0
  0
INSERT
  5
784
330
6B9
100
AcDbEntity
  8
0
 62
     0
370
    -2
100
AcDbBlockReference
  2
_Open30
 10
1365.09674
 20
402.251872
 30
0.0
 41
2.5
 42
2.5
 43
2.5
  0
MTEXT
  5
785
330
6B9
100
AcDbEntity
  8
0
 62
     4
100
AcDbMText
 10
1308.09674
 20
404.376872
 30
0.0
 40
3.0
 41
0.0
 71
     5
 72
     1
  1
190
 73
     1
 44
1.0
1001
ACAD
1000
MTEXTBEGIN
1070
    73
1070
     1
1070
    44
1040
1.0
1070
    74
1070
     0
1000
MTEXTEND
  0
POINT
  5
786
330
6B9
100
AcDbEntity
  8
Defpoints
 62
     0
100
AcDbPoint
 10
1251.09674
 20
418.4605369999998
 30
0.0
  0
POINT
  5
787
330
6B9
100
AcDbEntity
  8
Defpoints
 62
     0
100
AcDbPoint
 10
1365.09674
 20
418.4605369999998
 30
0.0
  0
POINT
  5
788
330
6B9
100
AcDbEntity
  8
Defpoints
 62
     0
100
AcDbPoint
 10
1365.09674
 20
402.251872
 30
0.0
  0
ENDBLK
  5
6BB
330
6B9
100
AcDbEntity
  8
0
100
AcDbBlockEnd
  0
BLOCK
  5
6C7
330
6C6
100
AcDbEntity
  8
0
100
AcDbBlockBegin
  2
*D2
 70
     1
 10
0.0
 20
0.0
 30
0.0
  3
*D2
  1

  0
LINE
  5
789
330
6C6
100
AcDbEntity
  8
0
 62
     0
370
    -2
100
AcDbLine
 10
1193.082898
 20
415.4605369999998
 30
0.0
 11
1225.390042
 21
415.4605369999998
 31
0.0
  0
LINE
  5
78A
330
6C6
100
AcDbEntity
  8
0
 62
     0
370
    -2
100
AcDbLine
 10
1158.597925
 20
525.260537
 30
0.0
 11
1225.390042
 21
525.260537
 31
0.0
  0
LINE
  5
78B
330
6C6
100
AcDbEntity
  8
0
 62
     0
370
    -2
100
AcDbLine
 10
1224.140042
 20
417.9605369999999
 30
0.0
 11
1224.140042
 21
522.760537
 31
0.0
  0
INSERT
  5
78C
330
6C6
100
AcDbEntity
  8
0
 62
     0
370
    -2
100
AcDbBlockReference
  2
_Open30
 10
1224.140042
 20
415.4605369999998
 30
0.0
 41
2.5
 42
2.5
 43
2.5
 50
270.0
  0
INSERT
  5
78D
330
6C6
100
AcDbEntity
  8
0
 62
     0
370
    -2
100
AcDbBlockReference
  2
_Open30
 10
1224.140042
 20
525.260537
 30
0.0
 41
2.5
 42
2.5
 43
2.5
 50
90.0
  0
MTEXT
  5
78E
330
6C6
100
AcDbEntity
  8
0
 62
     4
100
AcDbMText
 10
1222.015041999999
 20
470.3605370000001
 30
0.0
 40
3.0
 41
0.0
 71
     5
 72
     1
  1
183
 11
0.0000000000000001
 21
1.0
 31
0.0
 73
     1
 44
1.0
1001
ACAD
1000
MTEXTBEGIN
1070
    73
1070
     1
1070
    44
1040
1.0
1070
    74
1070
     0
1000
MTEXTEND
  0
POINT
  5
78F
330
6C6
100
AcDbEntity
  8
Defpoints
 62
     0
100
AcDbPoint
 10
1192.832898
 20
415.4605369999998
 30
0.0
  0
POINT
  5
790
330
6C6
100
AcDbEntity
  8
Defpoints
 62
     0
100
AcDbPoint
 10
1158.347925
 20
525.260537
 30
0.0
  0
POINT
  5
791
330
6C6
100
AcDbEntity
  8
Defpoints
 62
     0
100
AcDbPoint
 10
1224.140042
 20
525.260537
 30
0.0
  0
ENDBLK
  5
6C8
330
6C6
100
AcDbEntity
  8
0
100
AcDbBlockEnd
  0
BLOCK
  5
6D4
330
6D3
100
AcDbEntity
  8
0
100
AcDbBlockBegin
  2
*D3
 70
     1
 10
0.0
 20
0.0
 30
0.0
  3
*D3
  1

  0
LINE
  5
777
330
6D3
100
AcDbEntity
  8
0
 62
     0
370
    -2
100
AcDbLine
 10
1104.647925
 20
421.2105369999999
 30
0.0
 11
1104.647925
 21
392.881553
 31
0.0
  0
LINE
  5
778
330
6D3
100
AcDbEntity
  8
0
 62
     0
370
    -2
100
AcDbLine
 10
1206.647925
 20
421.2105369999999
 30
0.0
 11
1206.647925
 21
392.881553
 31
0.0
  0
LINE
  5
779
330
6D3
100
AcDbEntity
  8
0
 62
     0
370
    -2
100
AcDbLine
 10
1107.147925
 20
394.131553
 30
0.0
 11
1204.147925
 21
394.131553
 31
0.0
  0
INSERT
  5
77A
330
6D3
100
AcDbEntity
  8
0
 62
     0
370
    -2
100
AcDbBlockReference
  2
_Open30
 10
1104.647925
 20
394.131553
 30
0.0
 41
2.5
 42
2.5
 43
2.5
 50
180.0
  0
INSERT
  5
77B
330
6D3
100
AcDbEntity
  8
0
 62
     0
370
    -2
100
AcDbBlockReference
  2
_Open30
 10
1206.647925
 20
394.131553
 30
0.0
 41
2.5
 42
2.5
 43
2.5
  0
MTEXT
  5
77C
330
6D3
100
AcDbEntity
  8
0
 62
     4
100
AcDbMText
 10
1155.647925
 20
396.256553
 30
0.0
 40
3.0
 41
0.0
 71
     5
 72
     1
  1
170
 73
     1
 44
1.0
1001
ACAD
1000
MTEXTBEGIN
1070
    73
1070
     1
1070
    44
1040
1.0
1070
    74
1070
     0
1000
MTEXTEND
  0
POINT
  5
77D
330
6D3
100
AcDbEntity
  8
Defpoints
 62
     0
100
AcDbPoint
 10
1104.647925
 20
421.460537
 30
0.0
  0
POINT
  5
77E
330
6D3
100
AcDbEntity
  8
Defpoints
 62
     0
100
AcDbPoint
 10
1206.647925
 20
421.460537
 30
0.0
  0
POINT
  5
77F
330
6D3
100
AcDbEntity
  8
Defpoints
 62
     0
100
AcDbPoint
 10
1206.647925
 20
394.131553
 30
0.0
  0
ENDBLK
  5
6D5
330
6D3
100
AcDbEntity
  8
0
100
AcDbBlockEnd
  0
ENDSEC
  0
SECTION
  2
ENTITIES
  0
TEXT
  5
BC
330
6B
100
AcDbEntity
  8
0
 62
     3
100
AcDbText
 10
1116.451765
 20
458.772949
 30
0.0
 40
2.272567
  1
220～230V
 41
0.8541669999999999
100
AcDbText
  0
TEXT
  5
BD
330
6B
100
AcDbEntity
  8
0
 62
     3
100
AcDbText
 10
1151.812655
 20
458.772949
 30
0.0
 40
2.272567
  1
240V
100
AcDbText
  0
TEXT
  5
BE
330
6B
100
AcDbEntity
  8
0
 62
     3
100
AcDbText
 10
1182.707242
 20
458.772949
 30
0.0
 40
2.272567
  1
240V
100
AcDbText
  0
TEXT
  5
BF
330
6B
100
AcDbEntity
  8
0
 62
     3
100
AcDbText
 10
1180.547924
 20
487.546192
 30
0.0
 40
2.272567
  1
200～220V
 41
0.8368049999999998
100
AcDbText
  0
TEXT
  5
C0
330
6B
100
AcDbEntity
  8
0
 62
     3
100
AcDbText
 10
1159.843338
 20
487.5461929999998
 30
0.0
 40
2.272567
  1
120～127V
 41
0.802083
100
AcDbText
  0
TEXT
  5
C1
330
6B
100
AcDbEntity
  8
0
 62
     3
100
AcDbText
 10
1138.56302
 20
487.5461929999998
 30
0.0
 40
2.272567
  1
100～117V
 41
0.75
100
AcDbText
  0
TEXT
  5
C2
330
6B
100
AcDbEntity
  8
0
 62
     3
100
AcDbText
 10
1120.902932
 20
487.5461929999998
 30
0.0
 40
2.272567
  1
100V
100
AcDbText
  0
LINE
  5
C3
330
6B
100
AcDbEntity
  8
0
 62
     3
100
AcDbLine
 10
1251.09674
 20
418.4605369999998
 30
0.0
 11
1251.09674
 21
510.260537
 31
0.0
  0
LINE
  5
C4
330
6B
100
AcDbEntity
  8
0
 62
     3
100
AcDbLine
 10
1104.647925
 20
507.2605369999998
 30
0.0
 11
1104.647925
 21
421.460537
 31
0.0
  0
LINE
  5
C5
330
6B
100
AcDbEntity
  8
0
 62
     3
100
AcDbLine
 10
1206.647925
 20
507.2605369999998
 30
0.0
 11
1206.647925
 21
421.460537
 31
0.0
  0
LINE
  5
C6
330
6B
100
AcDbEntity
  8
0
 62
     3
100
AcDbLine
 10
1107.647925
 20
418.4605369999998
 30
0.0
 11
1203.647925
 21
418.4605369999998
 31
0.0
  0
LINE
  5
C7
330
6B
100
AcDbEntity
  8
0
 62
     3
100
AcDbLine
 10
1203.647925
 20
510.260537
 30
0.0
 11
1107.647925
 21
510.260537
 31
0.0
  0
ARC
  5
C8
330
6B
100
AcDbEntity
  8
0
 62
     3
100
AcDbCircle
 10
1203.647925
 20
507.2605369999998
 30
0.0
 40
3.0
100
AcDbArc
 50
0.0
 51
90.0
  0
ARC
  5
C9
330
6B
100
AcDbEntity
  8
0
 62
     3
100
AcDbCircle
 10
1107.647925
 20
507.2605369999998
 30
0.0
 40
3.0
100
AcDbArc
 50
90.0
 51
180.0
  0
ARC
  5
CA
330
6B
100
AcDbEntity
  8
0
 62
     3
100
AcDbCircle
 10
1107.647925
 20
421.460537
 30
0.0
 40
3.0
100
AcDbArc
 50
180.0
 51
270.0
  0
ARC
  5
CB
330
6B
100
AcDbEntity
  8
0
 62
     3
100
AcDbCircle
 10
1203.647925
 20
421.460537
 30
0.0
 40
3.0
100
AcDbArc
 50
270.0
 51
0.0
  0
LINE
  5
CC
330
6B
100
AcDbEntity
  8
0
 62
     3
100
AcDbLine
 10
1170.047925
 20
424.160537
 30
0.0
 11
1170.047925
 21
452.9605369999998
 31
0.0
  0
LINE
  5
CD
330
6B
100
AcDbEntity
  8
0
 62
     3
100
AcDbLine
 10
1141.247925
 20
424.160537
 30
0.0
 11
1141.247925
 21
452.9605369999998
 31
0.0
  0
LINE
  5
CE
330
6B
100
AcDbEntity
  8
0
 62
     3
100
AcDbLine
 10
1172.147925
 20
424.160537
 30
0.0
 11
1172.147925
 21
452.9605369999998
 31
0.0
  0
LINE
  5
CF
330
6B
100
AcDbEntity
  8
0
 62
     3
100
AcDbLine
 10
1139.147925
 20
424.160537
 30
0.0
 11
1139.147925
 21
452.9605369999998
 31
0.0
  0
LINE
  5
D0
330
6B
100
AcDbEntity
  8
0
 62
     3
100
AcDbLine
 10
1200.947925
 20
424.160537
 30
0.0
 11
1200.947925
 21
452.9605369999998
 31
0.0
  0
LINE
  5
D1
330
6B
100
AcDbEntity
  8
0
 62
     3
100
AcDbLine
 10
1110.347925
 20
424.160537
 30
0.0
 11
1110.347925
 21
452.9605369999998
 31
0.0
  0
LINE
  5
D2
330
6B
100
AcDbEntity
  8
0
 62
     3
100
AcDbLine
 10
1139.16013
 20
452.9605369999998
 30
0.0
 11
1110.347925
 21
452.9605369999998
 31
0.0
  0
LINE
  5
D3
330
6B
100
AcDbEntity
  8
0
 62
     3
100
AcDbLine
 10
1170.047925
 20
424.160537
 30
0.0
 11
1141.242698
 21
424.160537
 31
0.0
  0
LINE
  5
D4
330
6B
100
AcDbEntity
  8
0
 62
     3
100
AcDbLine
 10
1141.242698
 20
452.9605369999998
 30
0.0
 11
1170.047925
 21
452.9605369999998
 31
0.0
  0
LINE
  5
D5
330
6B
100
AcDbEntity
  8
0
 62
     3
100
AcDbLine
 10
1172.147925
 20
452.9605369999998
 30
0.0
 11
1200.947925
 21
452.9605369999998
 31
0.0
  0
LINE
  5
D6
330
6B
100
AcDbEntity
  8
0
 62
     3
100
AcDbLine
 10
1172.147925
 20
424.160537
 30
0.0
 11
1200.947925
 21
424.160537
 31
0.0
  0
LINE
  5
D7
330
6B
100
AcDbEntity
  8
0
 62
     3
100
AcDbLine
 10
1139.147925
 20
424.160537
 30
0.0
 11
1110.347925
 21
424.160537
 31
0.0
  0
LINE
  5
D8
330
6B
100
AcDbEntity
  8
0
 62
     3
100
AcDbLine
 10
1158.347925
 20
525.260537
 30
0.0
 11
1152.947925
 21
525.260537
 31
0.0
  0
LINE
  5
D9
330
6B
100
AcDbEntity
  8
0
 62
     3
100
AcDbLine
 10
1177.997925
 20
467.060537
 30
0.0
 11
1197.197925
 21
467.060537
 31
0.0
  0
LINE
  5
DA
330
6B
100
AcDbEntity
  8
0
 62
     3
100
AcDbLine
 10
1177.997925
 20
486.2605369999998
 30
0.0
 11
1197.197925
 21
486.2605369999998
 31
0.0
  0
LINE
  5
DB
330
6B
100
AcDbEntity
  8
0
 62
     3
100
AcDbLine
 10
1177.997925
 20
467.060537
 30
0.0
 11
1177.997925
 21
486.2605369999998
 31
0.0
  0
LINE
  5
DC
330
6B
100
AcDbEntity
  8
0
 62
     3
100
AcDbLine
 10
1197.197925
 20
467.060537
 30
0.0
 11
1197.197925
 21
486.2605369999998
 31
0.0
  0
LINE
  5
DD
330
6B
100
AcDbEntity
  8
0
 62
     3
100
AcDbLine
 10
1190.237674
 20
471.347295
 30
0.0
 11
1190.237674
 21
469.980576
 31
0.0
  0
LINE
  5
DE
330
6B
100
AcDbEntity
  8
0
 62
     3
100
AcDbLine
 10
1184.956088
 20
471.347295
 30
0.0
 11
1184.956088
 21
469.980576
 31
0.0
  0
ARC
  5
DF
330
6B
100
AcDbEntity
  8
0
 62
     3
100
AcDbCircle
 10
1187.596881
 20
471.347295
 30
0.0
 40
2.640792999999999
100
AcDbArc
 50
0.0
 51
180.0
  0
ARC
  5
E0
330
6B
100
AcDbEntity
  8
0
 62
     3
100
AcDbCircle
 10
1192.836555
 20
479.7895719999998
 30
0.0
 40
1.8
100
AcDbArc
 50
282.508977
 51
77.491023
  0
LINE
  5
E1
330
6B
100
AcDbEntity
  8
0
 62
     3
100
AcDbLine
 10
1189.904149
 20
482.28392
 30
0.0
 11
1193.226422
 21
481.546843
 31
0.0
  0
LINE
  5
E2
330
6B
100
AcDbEntity
  8
0
 62
     3
100
AcDbLine
 10
1189.904149
 20
477.295224
 30
0.0
 11
1193.226422
 21
478.0323
 31
0.0
  0
ARC
  5
E3
330
6B
100
AcDbEntity
  8
0
 62
     3
100
AcDbCircle
 10
1182.359295
 20
479.7895719999998
 30
0.0
 40
1.8
100
AcDbArc
 50
102.508977
 51
257.491023
  0
LINE
  5
E4
330
6B
100
AcDbEntity
  8
0
 62
     3
100
AcDbLine
 10
1185.291701
 20
482.28392
 30
0.0
 11
1181.969428
 21
481.546843
 31
0.0
  0
LINE
  5
E5
330
6B
100
AcDbEntity
  8
0
 62
     3
100
AcDbLine
 10
1185.291701
 20
477.295224
 30
0.0
 11
1181.969428
 21
478.0323
 31
0.0
  0
LINE
  5
E6
330
6B
100
AcDbEntity
  8
0
 62
     3
100
AcDbLine
 10
1156.697925
 20
467.060537
 30
0.0
 11
1156.697925
 21
486.2605369999998
 31
0.0
  0
LINE
  5
E7
330
6B
100
AcDbEntity
  8
0
 62
     3
100
AcDbLine
 10
1175.897925
 20
467.060537
 30
0.0
 11
1175.897925
 21
486.2605369999998
 31
0.0
  0
LINE
  5
E8
330
6B
100
AcDbEntity
  8
0
 62
     3
100
AcDbLine
 10
1156.697925
 20
467.060537
 30
0.0
 11
1175.897925
 21
467.060537
 31
0.0
  0
LINE
  5
E9
330
6B
100
AcDbEntity
  8
0
 62
     3
100
AcDbLine
 10
1156.697925
 20
486.2605369999998
 30
0.0
 11
1175.897925
 21
486.2605369999998
 31
0.0
  0
LINE
  5
EA
330
6B
100
AcDbEntity
  8
0
 62
     3
100
AcDbLine
 10
1168.937674
 20
471.347295
 30
0.0
 11
1168.937674
 21
469.980576
 31
0.0
  0
LINE
  5
EB
330
6B
100
AcDbEntity
  8
0
 62
     3
100
AcDbLine
 10
1163.656088
 20
471.347295
 30
0.0
 11
1163.656088
 21
469.980576
 31
0.0
  0
ARC
  5
EC
330
6B
100
AcDbEntity
  8
0
 62
     3
100
AcDbCircle
 10
1166.296881
 20
471.347295
 30
0.0
 40
2.640792999999999
100
AcDbArc
 50
0.0
 51
180.0
  0
ARC
  5
ED
330
6B
100
AcDbEntity
  8
0
 62
     3
100
AcDbCircle
 10
1171.536555
 20
479.7895719999998
 30
0.0
 40
1.8
100
AcDbArc
 50
282.508977
 51
77.491023
  0
LINE
  5
EE
330
6B
100
AcDbEntity
  8
0
 62
     3
100
AcDbLine
 10
1168.604149
 20
482.28392
 30
0.0
 11
1171.926422
 21
481.546843
 31
0.0
  0
LINE
  5
EF
330
6B
100
AcDbEntity
  8
0
 62
     3
100
AcDbLine
 10
1168.604149
 20
477.295224
 30
0.0
 11
1171.926422
 21
478.0323
 31
0.0
  0
ARC
  5
F0
330
6B
100
AcDbEntity
  8
0
 62
     3
100
AcDbCircle
 10
1161.059295
 20
479.7895719999998
 30
0.0
 40
1.8
100
AcDbArc
 50
102.508977
 51
257.491023
  0
LINE
  5
F1
330
6B
100
AcDbEntity
  8
0
 62
     3
100
AcDbLine
 10
1163.991701
 20
482.28392
 30
0.0
 11
1160.669428
 21
481.546843
 31
0.0
  0
LINE
  5
F2
330
6B
100
AcDbEntity
  8
0
 62
     3
100
AcDbLine
 10
1163.991701
 20
477.295224
 30
0.0
 11
1160.669428
 21
478.0323
 31
0.0
  0
LINE
  5
F3
330
6B
100
AcDbEntity
  8
0
 62
     3
100
AcDbLine
 10
1135.397925
 20
467.060537
 30
0.0
 11
1135.397925
 21
486.2605369999998
 31
0.0
  0
LINE
  5
F4
330
6B
100
AcDbEntity
  8
0
 62
     3
100
AcDbLine
 10
1154.597925
 20
467.060537
 30
0.0
 11
1154.597925
 21
486.2605369999998
 31
0.0
  0
LINE
  5
F5
330
6B
100
AcDbEntity
  8
0
 62
     3
100
AcDbLine
 10
1135.397925
 20
467.060537
 30
0.0
 11
1154.597925
 21
467.060537
 31
0.0
  0
LINE
  5
F6
330
6B
100
AcDbEntity
  8
0
 62
     3
100
AcDbLine
 10
1135.397925
 20
486.2605369999998
 30
0.0
 11
1154.597925
 21
486.2605369999998
 31
0.0
  0
LINE
  5
F7
330
6B
100
AcDbEntity
  8
0
 62
     3
100
AcDbLine
 10
1147.637674
 20
471.347295
 30
0.0
 11
1147.637674
 21
469.980576
 31
0.0
  0
LINE
  5
F8
330
6B
100
AcDbEntity
  8
0
 62
     3
100
AcDbLine
 10
1142.356088
 20
471.347295
 30
0.0
 11
1142.356088
 21
469.980576
 31
0.0
  0
ARC
  5
F9
330
6B
100
AcDbEntity
  8
0
 62
     3
100
AcDbCircle
 10
1144.996881
 20
471.347295
 30
0.0
 40
2.640792999999999
100
AcDbArc
 50
0.0
 51
180.0
  0
ARC
  5
FA
330
6B
100
AcDbEntity
  8
0
 62
     3
100
AcDbCircle
 10
1150.236555
 20
479.7895719999998
 30
0.0
 40
1.8
100
AcDbArc
 50
282.508977
 51
77.491023
  0
LINE
  5
FB
330
6B
100
AcDbEntity
  8
0
 62
     3
100
AcDbLine
 10
1147.304149
 20
482.28392
 30
0.0
 11
1150.626422
 21
481.546843
 31
0.0
  0
LINE
  5
FC
330
6B
100
AcDbEntity
  8
0
 62
     3
100
AcDbLine
 10
1147.304149
 20
477.295224
 30
0.0
 11
1150.626422
 21
478.0323
 31
0.0
  0
ARC
  5
FD
330
6B
100
AcDbEntity
  8
0
 62
     3
100
AcDbCircle
 10
1139.759295
 20
479.7895719999998
 30
0.0
 40
1.8
100
AcDbArc
 50
102.508977
 51
257.491023
  0
LINE
  5
FE
330
6B
100
AcDbEntity
  8
0
 62
     3
100
AcDbLine
 10
1142.691701
 20
482.28392
 30
0.0
 11
1139.369428
 21
481.546843
 31
0.0
  0
LINE
  5
FF
330
6B
100
AcDbEntity
  8
0
 62
     3
100
AcDbLine
 10
1142.691701
 20
477.295224
 30
0.0
 11
1139.369428
 21
478.0323
 31
0.0
  0
LINE
  5
100
330
6B
100
AcDbEntity
  8
0
 62
     3
100
AcDbLine
 10
1114.097925
 20
467.060537
 30
0.0
 11
1114.097925
 21
486.2605369999998
 31
0.0
  0
LINE
  5
101
330
6B
100
AcDbEntity
  8
0
 62
     3
100
AcDbLine
 10
1133.297925
 20
467.060537
 30
0.0
 11
1133.297925
 21
486.2605369999998
 31
0.0
  0
LINE
  5
102
330
6B
100
AcDbEntity
  8
0
 62
     3
100
AcDbLine
 10
1114.097925
 20
467.060537
 30
0.0
 11
1133.297925
 21
467.060537
 31
0.0
  0
LINE
  5
103
330
6B
100
AcDbEntity
  8
0
 62
     3
100
AcDbLine
 10
1114.097925
 20
486.2605369999998
 30
0.0
 11
1133.297925
 21
486.2605369999998
 31
0.0
  0
LINE
  5
104
330
6B
100
AcDbEntity
  8
0
 62
     3
100
AcDbLine
 10
1126.337674
 20
471.347295
 30
0.0
 11
1126.337674
 21
469.980576
 31
0.0
  0
LINE
  5
105
330
6B
100
AcDbEntity
  8
0
 62
     3
100
AcDbLine
 10
1121.056088
 20
471.347295
 30
0.0
 11
1121.056088
 21
469.980576
 31
0.0
  0
ARC
  5
106
330
6B
100
AcDbEntity
  8
0
 62
     3
100
AcDbCircle
 10
1123.696881
 20
471.347295
 30
0.0
 40
2.640792999999999
100
AcDbArc
 50
0.0
 51
180.0
  0
ARC
  5
107
330
6B
100
AcDbEntity
  8
0
 62
     3
100
AcDbCircle
 10
1128.936555
 20
479.7895719999998
 30
0.0
 40
1.8
100
AcDbArc
 50
282.508977
 51
77.491023
  0
LINE
  5
108
330
6B
100
AcDbEntity
  8
0
 62
     3
100
AcDbLine
 10
1126.004149
 20
482.28392
 30
0.0
 11
1129.326422
 21
481.546843
 31
0.0
  0
LINE
  5
109
330
6B
100
AcDbEntity
  8
0
 62
     3
100
AcDbLine
 10
1126.004149
 20
477.295224
 30
0.0
 11
1129.326422
 21
478.0323
 31
0.0
  0
ARC
  5
10A
330
6B
100
AcDbEntity
  8
0
 62
     3
100
AcDbCircle
 10
1118.459295
 20
479.7895719999998
 30
0.0
 40
1.8
100
AcDbArc
 50
102.508977
 51
257.491023
  0
LINE
  5
10B
330
6B
100
AcDbEntity
  8
0
 62
     3
100
AcDbLine
 10
1121.391701
 20
482.28392
 30
0.0
 11
1118.069428
 21
481.546843
 31
0.0
  0
LINE
  5
10C
330
6B
100
AcDbEntity
  8
0
 62
     3
100
AcDbLine
 10
1121.391701
 20
477.295224
 30
0.0
 11
1118.069428
 21
478.0323
 31
0.0
  0
LINE
  5
10D
330
6B
100
AcDbEntity
  8
0
 62
     3
100
AcDbLine
 10
1160.147925
 20
523.460537
 30
0.0
 11
1160.147925
 21
510.260537
 31
0.0
  0
LINE
  5
10E
330
6B
100
AcDbEntity
  8
0
 62
     3
100
AcDbLine
 10
1151.147925
 20
523.460537
 30
0.0
 11
1151.147925
 21
510.260537
 31
0.0
  0
ARC
  5
10F
330
6B
100
AcDbEntity
  8
0
 62
     3
100
AcDbCircle
 10
1158.347925
 20
523.460537
 30
0.0
 40
1.8
100
AcDbArc
 50
0.0
 51
90.0
  0
ARC
  5
110
330
6B
100
AcDbEntity
  8
0
 62
     3
100
AcDbCircle
 10
1152.947925
 20
523.460537
 30
0.0
 40
1.8
100
AcDbArc
 50
90.0
 51
180.0
  0
LINE
  5
111
330
6B
100
AcDbEntity
  8
0
 62
     3
100
AcDbLine
 10
1251.09674
 20
510.260537
 30
0.0
 11
1365.09674
 21
510.260537
 31
0.0
  0
LINE
  5
112
330
6B
100
AcDbEntity
  8
0
 62
     3
100
AcDbLine
 10
1329.09674
 20
525.260537
 30
0.0
 11
1287.09674
 21
525.260537
 31
0.0
  0
LINE
  5
113
330
6B
100
AcDbEntity
  8
0
 62
     3
100
AcDbLine
 10
1251.09674
 20
418.4605369999998
 30
0.0
 11
1365.09674
 21
418.4605369999998
 31
0.0
  0
LINE
  5
114
330
6B
100
AcDbEntity
  8
0
 62
     3
100
AcDbLine
 10
1365.09674
 20
418.4605369999998
 30
0.0
 11
1365.09674
 21
510.260537
 31
0.0
  0
LINE
  5
115
330
6B
100
AcDbEntity
  8
0
 62
     3
100
AcDbLine
 10
1365.09674
 20
460.010537
 30
0.0
 11
1251.09674
 21
460.010537
 31
0.0
  0
LINE
  5
116
330
6B
100
AcDbEntity
  8
0
 62
     3
100
AcDbLine
 10
1320.69674
 20
521.6605369999999
 30
0.0
 11
1295.49674
 21
521.6605369999999
 31
0.0
  0
ARC
  5
117
330
6B
100
AcDbEntity
  8
0
 62
     3
100
AcDbCircle
 10
1320.69674
 20
510.260537
 30
0.0
 40
11.4
100
AcDbArc
 50
0.0
 51
90.0
  0
ARC
  5
118
330
6B
100
AcDbEntity
  8
0
 62
     3
100
AcDbCircle
 10
1295.49674
 20
510.260537
 30
0.0
 40
11.4
100
AcDbArc
 50
90.0
 51
180.0
  0
ARC
  5
119
330
6B
100
AcDbEntity
  8
0
 62
     3
100
AcDbCircle
 10
1329.09674
 20
510.260537
 30
0.0
 40
15.0
100
AcDbArc
 50
0.0
 51
90.0
  0
ARC
  5
11A
330
6B
100
AcDbEntity
  8
0
 62
     3
100
AcDbCircle
 10
1287.09674
 20
510.260537
 30
0.0
 40
15.0
100
AcDbArc
 50
90.0
 51
180.0
  0
TEXT
  5
11B
330
6B
100
AcDbEntity
  8
0
 62
     3
100
AcDbText
 10
1159.099398
 20
498.733998
 30
0.0
 40
4.08
  1
AG-1000N
100
AcDbText
  0
TEXT
  5
11C
330
6B
100
AcDbEntity
  8
0
 62
     3
100
AcDbText
 10
1138.104585
 20
499.760124
 30
0.0
 40
4.2
  1
T
100
AcDbText
  0
TEXT
  5
11D
330
6B
100
AcDbEntity
  8
0
 62
     3
100
AcDbText
 10
1122.45807
 20
496.882973
 30
0.0
 40
1.679999999999999
  1
UP DOWN TRANSFORMER
100
AcDbText
  0
CIRCLE
  5
11E
330
6B
100
AcDbEntity
  8
0
100
AcDbCircle
 10
1360.59674
 20
454.010537
 30
0.0
 40
2.7
  0
CIRCLE
  5
11F
330
6B
100
AcDbEntity
  8
0
100
AcDbCircle
 10
1255.59674
 20
466.010537
 30
0.0
 40
2.7
  0
LINE
  5
120
330
6B
100
AcDbEntity
  8
0
100
AcDbLine
 10
1351.59674
 20
469.010537
 30
0.0
 11
1336.59674
 21
469.010537
 31
0.0
  0
LINE
  5
121
330
6B
100
AcDbEntity
  8
0
100
AcDbLine
 10
1351.59674
 20
472.0105369999997
 30
0.0
 11
1336.59674
 21
472.0105369999997
 31
0.0
  0
ARC
  5
122
330
6B
100
AcDbEntity
  8
0
100
AcDbCircle
 10
1351.59674
 20
470.510537
 30
0.0
 40
1.5
100
AcDbArc
 50
270.0
 51
90.0
  0
ARC
  5
123
330
6B
100
AcDbEntity
  8
0
100
AcDbCircle
 10
1336.59674
 20
470.510537
 30
0.0
 40
1.5
100
AcDbArc
 50
90.0
 51
270.0
  0
LINE
  5
124
330
6B
100
AcDbEntity
  8
0
100
AcDbLine
 10
1351.59674
 20
474.410537
 30
0.0
 11
1336.59674
 21
474.410537
 31
0.0
  0
LINE
  5
125
330
6B
100
AcDbEntity
  8
0
100
AcDbLine
 10
1351.59674
 20
477.410537
 30
0.0
 11
1336.59674
 21
477.410537
 31
0.0
  0
ARC
  5
126
330
6B
100
AcDbEntity
  8
0
100
AcDbCircle
 10
1351.59674
 20
475.910537
 30
0.0
 40
1.5
100
AcDbArc
 50
270.0
 51
90.0
  0
ARC
  5
127
330
6B
100
AcDbEntity
  8
0
100
AcDbCircle
 10
1336.59674
 20
475.910537
 30
0.0
 40
1.5
100
AcDbArc
 50
90.0
 51
270.0
  0
LINE
  5
128
330
6B
100
AcDbEntity
  8
0
100
AcDbLine
 10
1351.59674
 20
479.810537
 30
0.0
 11
1336.59674
 21
479.810537
 31
0.0
  0
LINE
  5
129
330
6B
100
AcDbEntity
  8
0
100
AcDbLine
 10
1351.59674
 20
482.810537
 30
0.0
 11
1336.59674
 21
482.810537
 31
0.0
  0
ARC
  5
12A
330
6B
100
AcDbEntity
  8
0
100
AcDbCircle
 10
1351.59674
 20
481.310537
 30
0.0
 40
1.5
100
AcDbArc
 50
270.0
 51
90.0
  0
ARC
  5
12B
330
6B
100
AcDbEntity
  8
0
100
AcDbCircle
 10
1336.59674
 20
481.310537
 30
0.0
 40
1.5
100
AcDbArc
 50
90.0
 51
270.0
  0
LINE
  5
12C
330
6B
100
AcDbEntity
  8
0
100
AcDbLine
 10
1351.59674
 20
485.210537
 30
0.0
 11
1336.59674
 21
485.210537
 31
0.0
  0
LINE
  5
12D
330
6B
100
AcDbEntity
  8
0
100
AcDbLine
 10
1351.59674
 20
488.2105369999998
 30
0.0
 11
1336.59674
 21
488.2105369999998
 31
0.0
  0
ARC
  5
12E
330
6B
100
AcDbEntity
  8
0
100
AcDbCircle
 10
1351.59674
 20
486.7105369999999
 30
0.0
 40
1.5
100
AcDbArc
 50
270.0
 51
90.0
  0
ARC
  5
12F
330
6B
100
AcDbEntity
  8
0
100
AcDbCircle
 10
1336.59674
 20
486.7105369999999
 30
0.0
 40
1.5
100
AcDbArc
 50
90.0
 51
270.0
  0
LINE
  5
130
330
6B
100
AcDbEntity
  8
0
100
AcDbLine
 10
1351.59674
 20
490.610537
 30
0.0
 11
1336.59674
 21
490.610537
 31
0.0
  0
LINE
  5
131
330
6B
100
AcDbEntity
  8
0
100
AcDbLine
 10
1351.59674
 20
493.6105369999999
 30
0.0
 11
1336.59674
 21
493.6105369999999
 31
0.0
  0
ARC
  5
132
330
6B
100
AcDbEntity
  8
0
100
AcDbCircle
 10
1351.59674
 20
492.110537
 30
0.0
 40
1.5
100
AcDbArc
 50
270.0
 51
90.0
  0
ARC
  5
133
330
6B
100
AcDbEntity
  8
0
100
AcDbCircle
 10
1336.59674
 20
492.110537
 30
0.0
 40
1.5
100
AcDbArc
 50
90.0
 51
270.0
  0
LINE
  5
134
330
6B
100
AcDbEntity
  8
0
100
AcDbLine
 10
1315.59674
 20
469.010537
 30
0.0
 11
1300.59674
 21
469.010537
 31
0.0
  0
LINE
  5
135
330
6B
100
AcDbEntity
  8
0
100
AcDbLine
 10
1315.59674
 20
472.0105369999997
 30
0.0
 11
1300.59674
 21
472.0105369999997
 31
0.0
  0
ARC
  5
136
330
6B
100
AcDbEntity
  8
0
100
AcDbCircle
 10
1315.59674
 20
470.510537
 30
0.0
 40
1.5
100
AcDbArc
 50
270.0
 51
90.0
  0
ARC
  5
137
330
6B
100
AcDbEntity
  8
0
100
AcDbCircle
 10
1300.59674
 20
470.510537
 30
0.0
 40
1.5
100
AcDbArc
 50
90.0
 51
270.0
  0
LINE
  5
138
330
6B
100
AcDbEntity
  8
0
100
AcDbLine
 10
1315.59674
 20
474.410537
 30
0.0
 11
1300.59674
 21
474.410537
 31
0.0
  0
LINE
  5
139
330
6B
100
AcDbEntity
  8
0
100
AcDbLine
 10
1315.59674
 20
477.410537
 30
0.0
 11
1300.59674
 21
477.410537
 31
0.0
  0
ARC
  5
13A
330
6B
100
AcDbEntity
  8
0
100
AcDbCircle
 10
1315.59674
 20
475.910537
 30
0.0
 40
1.5
100
AcDbArc
 50
270.0
 51
90.0
  0
ARC
  5
13B
330
6B
100
AcDbEntity
  8
0
100
AcDbCircle
 10
1300.59674
 20
475.910537
 30
0.0
 40
1.5
100
AcDbArc
 50
90.0
 51
270.0
  0
LINE
  5
13C
330
6B
100
AcDbEntity
  8
0
100
AcDbLine
 10
1315.59674
 20
479.810537
 30
0.0
 11
1300.59674
 21
479.810537
 31
0.0
  0
LINE
  5
13D
330
6B
100
AcDbEntity
  8
0
100
AcDbLine
 10
1315.59674
 20
482.810537
 30
0.0
 11
1300.59674
 21
482.810537
 31
0.0
  0
ARC
  5
13E
330
6B
100
AcDbEntity
  8
0
100
AcDbCircle
 10
1315.59674
 20
481.310537
 30
0.0
 40
1.5
100
AcDbArc
 50
270.0
 51
90.0
  0
ARC
  5
13F
330
6B
100
AcDbEntity
  8
0
100
AcDbCircle
 10
1300.59674
 20
481.310537
 30
0.0
 40
1.5
100
AcDbArc
 50
90.0
 51
270.0
  0
LINE
  5
140
330
6B
100
AcDbEntity
  8
0
100
AcDbLine
 10
1315.59674
 20
485.210537
 30
0.0
 11
1300.59674
 21
485.210537
 31
0.0
  0
LINE
  5
141
330
6B
100
AcDbEntity
  8
0
100
AcDbLine
 10
1315.59674
 20
488.2105369999998
 30
0.0
 11
1300.59674
 21
488.2105369999998
 31
0.0
  0
ARC
  5
142
330
6B
100
AcDbEntity
  8
0
100
AcDbCircle
 10
1315.59674
 20
486.7105369999999
 30
0.0
 40
1.5
100
AcDbArc
 50
270.0
 51
90.0
  0
ARC
  5
143
330
6B
100
AcDbEntity
  8
0
100
AcDbCircle
 10
1300.59674
 20
486.7105369999999
 30
0.0
 40
1.5
100
AcDbArc
 50
90.0
 51
270.0
  0
LINE
  5
144
330
6B
100
AcDbEntity
  8
0
100
AcDbLine
 10
1315.59674
 20
490.610537
 30
0.0
 11
1300.59674
 21
490.610537
 31
0.0
  0
LINE
  5
145
330
6B
100
AcDbEntity
  8
0
100
AcDbLine
 10
1315.59674
 20
493.6105369999999
 30
0.0
 11
1300.59674
 21
493.6105369999999
 31
0.0
  0
ARC
  5
146
330
6B
100
AcDbEntity
  8
0
100
AcDbCircle
 10
1315.59674
 20
492.110537
 30
0.0
 40
1.5
100
AcDbArc
 50
270.0
 51
90.0
  0
ARC
  5
147
330
6B
100
AcDbEntity
  8
0
100
AcDbCircle
 10
1300.59674
 20
492.110537
 30
0.0
 40
1.5
100
AcDbArc
 50
90.0
 51
270.0
  0
LINE
  5
148
330
6B
100
AcDbEntity
  8
0
100
AcDbLine
 10
1279.59674
 20
469.010537
 30
0.0
 11
1264.59674
 21
469.010537
 31
0.0
  0
LINE
  5
149
330
6B
100
AcDbEntity
  8
0
100
AcDbLine
 10
1279.59674
 20
472.0105369999997
 30
0.0
 11
1264.59674
 21
472.0105369999997
 31
0.0
  0
ARC
  5
14A
330
6B
100
AcDbEntity
  8
0
100
AcDbCircle
 10
1279.59674
 20
470.510537
 30
0.0
 40
1.5
100
AcDbArc
 50
270.0
 51
90.0
  0
ARC
  5
14B
330
6B
100
AcDbEntity
  8
0
100
AcDbCircle
 10
1264.59674
 20
470.510537
 30
0.0
 40
1.5
100
AcDbArc
 50
90.0
 51
270.0
  0
LINE
  5
14C
330
6B
100
AcDbEntity
  8
0
100
AcDbLine
 10
1279.59674
 20
474.410537
 30
0.0
 11
1264.59674
 21
474.410537
 31
0.0
  0
LINE
  5
14D
330
6B
100
AcDbEntity
  8
0
100
AcDbLine
 10
1279.59674
 20
477.410537
 30
0.0
 11
1264.59674
 21
477.410537
 31
0.0
  0
ARC
  5
14E
330
6B
100
AcDbEntity
  8
0
100
AcDbCircle
 10
1279.59674
 20
475.910537
 30
0.0
 40
1.5
100
AcDbArc
 50
270.0
 51
90.0
  0
ARC
  5
14F
330
6B
100
AcDbEntity
  8
0
100
AcDbCircle
 10
1264.59674
 20
475.910537
 30
0.0
 40
1.5
100
AcDbArc
 50
90.0
 51
270.0
  0
LINE
  5
150
330
6B
100
AcDbEntity
  8
0
100
AcDbLine
 10
1279.59674
 20
479.810537
 30
0.0
 11
1264.59674
 21
479.810537
 31
0.0
  0
LINE
  5
151
330
6B
100
AcDbEntity
  8
0
100
AcDbLine
 10
1279.59674
 20
482.810537
 30
0.0
 11
1264.59674
 21
482.810537
 31
0.0
  0
ARC
  5
152
330
6B
100
AcDbEntity
  8
0
100
AcDbCircle
 10
1279.59674
 20
481.310537
 30
0.0
 40
1.5
100
AcDbArc
 50
270.0
 51
90.0
  0
ARC
  5
153
330
6B
100
AcDbEntity
  8
0
100
AcDbCircle
 10
1264.59674
 20
481.310537
 30
0.0
 40
1.5
100
AcDbArc
 50
90.0
 51
270.0
  0
LINE
  5
154
330
6B
100
AcDbEntity
  8
0
100
AcDbLine
 10
1279.59674
 20
485.210537
 30
0.0
 11
1264.59674
 21
485.210537
 31
0.0
  0
LINE
  5
155
330
6B
100
AcDbEntity
  8
0
100
AcDbLine
 10
1279.59674
 20
488.2105369999998
 30
0.0
 11
1264.59674
 21
488.2105369999998
 31
0.0
  0
ARC
  5
156
330
6B
100
AcDbEntity
  8
0
100
AcDbCircle
 10
1279.59674
 20
486.7105369999999
 30
0.0
 40
1.5
100
AcDbArc
 50
270.0
 51
90.0
  0
ARC
  5
157
330
6B
100
AcDbEntity
  8
0
100
AcDbCircle
 10
1264.59674
 20
486.7105369999999
 30
0.0
 40
1.5
100
AcDbArc
 50
90.0
 51
270.0
  0
LINE
  5
158
330
6B
100
AcDbEntity
  8
0
100
AcDbLine
 10
1279.59674
 20
490.610537
 30
0.0
 11
1264.59674
 21
490.610537
 31
0.0
  0
LINE
  5
159
330
6B
100
AcDbEntity
  8
0
100
AcDbLine
 10
1279.59674
 20
493.6105369999999
 30
0.0
 11
1264.59674
 21
493.6105369999999
 31
0.0
  0
ARC
  5
15A
330
6B
100
AcDbEntity
  8
0
100
AcDbCircle
 10
1279.59674
 20
492.110537
 30
0.0
 40
1.5
100
AcDbArc
 50
270.0
 51
90.0
  0
ARC
  5
15B
330
6B
100
AcDbEntity
  8
0
100
AcDbCircle
 10
1264.59674
 20
492.110537
 30
0.0
 40
1.5
100
AcDbArc
 50
90.0
 51
270.0
  0
CIRCLE
  5
15C
330
6B
100
AcDbEntity
  8
0
100
AcDbCircle
 10
1360.59674
 20
466.010537
 30
0.0
 40
2.7
  0
CIRCLE
  5
15D
330
6B
100
AcDbEntity
  8
0
100
AcDbCircle
 10
1255.59674
 20
454.010537
 30
0.0
 40
2.7
  0
LINE
  5
15E
330
6B
100
AcDbEntity
  8
0
100
AcDbLine
 10
1351.59674
 20
457.010537
 30
0.0
 11
1336.59674
 21
457.010537
 31
0.0
  0
LINE
  5
15F
330
6B
100
AcDbEntity
  8
0
100
AcDbLine
 10
1351.59674
 20
454.010537
 30
0.0
 11
1336.59674
 21
454.010537
 31
0.0
  0
ARC
  5
160
330
6B
100
AcDbEntity
  8
0
100
AcDbCircle
 10
1351.59674
 20
455.5105369999998
 30
0.0
 40
1.5
100
AcDbArc
 50
270.0
 51
90.0
  0
ARC
  5
161
330
6B
100
AcDbEntity
  8
0
100
AcDbCircle
 10
1336.59674
 20
455.5105369999998
 30
0.0
 40
1.5
100
AcDbArc
 50
90.0
 51
270.0
  0
LINE
  5
162
330
6B
100
AcDbEntity
  8
0
100
AcDbLine
 10
1351.59674
 20
451.610537
 30
0.0
 11
1336.59674
 21
451.610537
 31
0.0
  0
LINE
  5
163
330
6B
100
AcDbEntity
  8
0
100
AcDbLine
 10
1351.59674
 20
448.610537
 30
0.0
 11
1336.59674
 21
448.610537
 31
0.0
  0
ARC
  5
164
330
6B
100
AcDbEntity
  8
0
100
AcDbCircle
 10
1351.59674
 20
450.110537
 30
0.0
 40
1.5
100
AcDbArc
 50
270.0
 51
90.0
  0
ARC
  5
165
330
6B
100
AcDbEntity
  8
0
100
AcDbCircle
 10
1336.59674
 20
450.110537
 30
0.0
 40
1.5
100
AcDbArc
 50
90.0
 51
270.0
  0
LINE
  5
166
330
6B
100
AcDbEntity
  8
0
100
AcDbLine
 10
1351.59674
 20
446.2105369999998
 30
0.0
 11
1336.59674
 21
446.2105369999998
 31
0.0
  0
LINE
  5
167
330
6B
100
AcDbEntity
  8
0
100
AcDbLine
 10
1351.59674
 20
443.210537
 30
0.0
 11
1336.59674
 21
443.210537
 31
0.0
  0
ARC
  5
168
330
6B
100
AcDbEntity
  8
0
100
AcDbCircle
 10
1351.59674
 20
444.710537
 30
0.0
 40
1.5
100
AcDbArc
 50
270.0
 51
90.0
  0
ARC
  5
169
330
6B
100
AcDbEntity
  8
0
100
AcDbCircle
 10
1336.59674
 20
444.710537
 30
0.0
 40
1.5
100
AcDbArc
 50
90.0
 51
270.0
  0
LINE
  5
16A
330
6B
100
AcDbEntity
  8
0
100
AcDbLine
 10
1351.59674
 20
440.810537
 30
0.0
 11
1336.59674
 21
440.810537
 31
0.0
  0
LINE
  5
16B
330
6B
100
AcDbEntity
  8
0
100
AcDbLine
 10
1351.59674
 20
437.810537
 30
0.0
 11
1336.59674
 21
437.810537
 31
0.0
  0
ARC
  5
16C
330
6B
100
AcDbEntity
  8
0
100
AcDbCircle
 10
1351.59674
 20
439.3105369999998
 30
0.0
 40
1.5
100
AcDbArc
 50
270.0
 51
90.0
  0
ARC
  5
16D
330
6B
100
AcDbEntity
  8
0
100
AcDbCircle
 10
1336.59674
 20
439.3105369999998
 30
0.0
 40
1.5
100
AcDbArc
 50
90.0
 51
270.0
  0
LINE
  5
16E
330
6B
100
AcDbEntity
  8
0
100
AcDbLine
 10
1351.59674
 20
435.410537
 30
0.0
 11
1336.59674
 21
435.410537
 31
0.0
  0
LINE
  5
16F
330
6B
100
AcDbEntity
  8
0
100
AcDbLine
 10
1351.59674
 20
432.410537
 30
0.0
 11
1336.59674
 21
432.410537
 31
0.0
  0
ARC
  5
170
330
6B
100
AcDbEntity
  8
0
100
AcDbCircle
 10
1351.59674
 20
433.910537
 30
0.0
 40
1.5
100
AcDbArc
 50
270.0
 51
90.0
  0
ARC
  5
171
330
6B
100
AcDbEntity
  8
0
100
AcDbCircle
 10
1336.59674
 20
433.910537
 30
0.0
 40
1.5
100
AcDbArc
 50
90.0
 51
270.0
  0
LINE
  5
172
330
6B
100
AcDbEntity
  8
0
100
AcDbLine
 10
1315.59674
 20
457.010537
 30
0.0
 11
1300.59674
 21
457.010537
 31
0.0
  0
LINE
  5
173
330
6B
100
AcDbEntity
  8
0
100
AcDbLine
 10
1315.59674
 20
454.010537
 30
0.0
 11
1300.59674
 21
454.010537
 31
0.0
  0
ARC
  5
174
330
6B
100
AcDbEntity
  8
0
100
AcDbCircle
 10
1315.59674
 20
455.5105369999998
 30
0.0
 40
1.5
100
AcDbArc
 50
270.0
 51
90.0
  0
ARC
  5
175
330
6B
100
AcDbEntity
  8
0
100
AcDbCircle
 10
1300.59674
 20
455.5105369999998
 30
0.0
 40
1.5
100
AcDbArc
 50
90.0
 51
270.0
  0
LINE
  5
176
330
6B
100
AcDbEntity
  8
0
100
AcDbLine
 10
1315.59674
 20
451.610537
 30
0.0
 11
1300.59674
 21
451.610537
 31
0.0
  0
LINE
  5
177
330
6B
100
AcDbEntity
  8
0
100
AcDbLine
 10
1315.59674
 20
448.610537
 30
0.0
 11
1300.59674
 21
448.610537
 31
0.0
  0
ARC
  5
178
330
6B
100
AcDbEntity
  8
0
100
AcDbCircle
 10
1315.59674
 20
450.110537
 30
0.0
 40
1.5
100
AcDbArc
 50
270.0
 51
90.0
  0
ARC
  5
179
330
6B
100
AcDbEntity
  8
0
100
AcDbCircle
 10
1300.59674
 20
450.110537
 30
0.0
 40
1.5
100
AcDbArc
 50
90.0
 51
270.0
  0
LINE
  5
17A
330
6B
100
AcDbEntity
  8
0
100
AcDbLine
 10
1315.59674
 20
446.2105369999998
 30
0.0
 11
1300.59674
 21
446.2105369999998
 31
0.0
  0
LINE
  5
17B
330
6B
100
AcDbEntity
  8
0
100
AcDbLine
 10
1315.59674
 20
443.210537
 30
0.0
 11
1300.59674
 21
443.210537
 31
0.0
  0
ARC
  5
17C
330
6B
100
AcDbEntity
  8
0
100
AcDbCircle
 10
1315.59674
 20
444.710537
 30
0.0
 40
1.5
100
AcDbArc
 50
270.0
 51
90.0
  0
ARC
  5
17D
330
6B
100
AcDbEntity
  8
0
100
AcDbCircle
 10
1300.59674
 20
444.710537
 30
0.0
 40
1.5
100
AcDbArc
 50
90.0
 51
270.0
  0
LINE
  5
17E
330
6B
100
AcDbEntity
  8
0
100
AcDbLine
 10
1315.59674
 20
440.810537
 30
0.0
 11
1300.59674
 21
440.810537
 31
0.0
  0
LINE
  5
17F
330
6B
100
AcDbEntity
  8
0
100
AcDbLine
 10
1315.59674
 20
437.810537
 30
0.0
 11
1300.59674
 21
437.810537
 31
0.0
  0
ARC
  5
180
330
6B
100
AcDbEntity
  8
0
100
AcDbCircle
 10
1315.59674
 20
439.3105369999998
 30
0.0
 40
1.5
100
AcDbArc
 50
270.0
 51
90.0
  0
ARC
  5
181
330
6B
100
AcDbEntity
  8
0
100
AcDbCircle
 10
1300.59674
 20
439.3105369999998
 30
0.0
 40
1.5
100
AcDbArc
 50
90.0
 51
270.0
  0
LINE
  5
182
330
6B
100
AcDbEntity
  8
0
100
AcDbLine
 10
1315.59674
 20
435.410537
 30
0.0
 11
1300.59674
 21
435.410537
 31
0.0
  0
LINE
  5
183
330
6B
100
AcDbEntity
  8
0
100
AcDbLine
 10
1315.59674
 20
432.410537
 30
0.0
 11
1300.59674
 21
432.410537
 31
0.0
  0
ARC
  5
184
330
6B
100
AcDbEntity
  8
0
100
AcDbCircle
 10
1315.59674
 20
433.910537
 30
0.0
 40
1.5
100
AcDbArc
 50
270.0
 51
90.0
  0
ARC
  5
185
330
6B
100
AcDbEntity
  8
0
100
AcDbCircle
 10
1300.59674
 20
433.910537
 30
0.0
 40
1.5
100
AcDbArc
 50
90.0
 51
270.0
  0
LINE
  5
186
330
6B
100
AcDbEntity
  8
0
100
AcDbLine
 10
1279.59674
 20
457.010537
 30
0.0
 11
1264.59674
 21
457.010537
 31
0.0
  0
LINE
  5
187
330
6B
100
AcDbEntity
  8
0
100
AcDbLine
 10
1279.59674
 20
454.010537
 30
0.0
 11
1264.59674
 21
454.010537
 31
0.0
  0
ARC
  5
188
330
6B
100
AcDbEntity
  8
0
100
AcDbCircle
 10
1279.59674
 20
455.5105369999998
 30
0.0
 40
1.5
100
AcDbArc
 50
270.0
 51
90.0
  0
ARC
  5
189
330
6B
100
AcDbEntity
  8
0
100
AcDbCircle
 10
1264.59674
 20
455.5105369999998
 30
0.0
 40
1.5
100
AcDbArc
 50
90.0
 51
270.0
  0
LINE
  5
18A
330
6B
100
AcDbEntity
  8
0
100
AcDbLine
 10
1279.59674
 20
451.610537
 30
0.0
 11
1264.59674
 21
451.610537
 31
0.0
  0
LINE
  5
18B
330
6B
100
AcDbEntity
  8
0
100
AcDbLine
 10
1279.59674
 20
448.610537
 30
0.0
 11
1264.59674
 21
448.610537
 31
0.0
  0
ARC
  5
18C
330
6B
100
AcDbEntity
  8
0
100
AcDbCircle
 10
1279.59674
 20
450.110537
 30
0.0
 40
1.5
100
AcDbArc
 50
270.0
 51
90.0
  0
ARC
  5
18D
330
6B
100
AcDbEntity
  8
0
100
AcDbCircle
 10
1264.59674
 20
450.110537
 30
0.0
 40
1.5
100
AcDbArc
 50
90.0
 51
270.0
  0
LINE
  5
18E
330
6B
100
AcDbEntity
  8
0
100
AcDbLine
 10
1279.59674
 20
446.2105369999998
 30
0.0
 11
1264.59674
 21
446.2105369999998
 31
0.0
  0
LINE
  5
18F
330
6B
100
AcDbEntity
  8
0
100
AcDbLine
 10
1279.59674
 20
443.210537
 30
0.0
 11
1264.59674
 21
443.210537
 31
0.0
  0
ARC
  5
190
330
6B
100
AcDbEntity
  8
0
100
AcDbCircle
 10
1279.59674
 20
444.710537
 30
0.0
 40
1.5
100
AcDbArc
 50
270.0
 51
90.0
  0
ARC
  5
191
330
6B
100
AcDbEntity
  8
0
100
AcDbCircle
 10
1264.59674
 20
444.710537
 30
0.0
 40
1.5
100
AcDbArc
 50
90.0
 51
270.0
  0
LINE
  5
192
330
6B
100
AcDbEntity
  8
0
100
AcDbLine
 10
1279.59674
 20
440.810537
 30
0.0
 11
1264.59674
 21
440.810537
 31
0.0
  0
LINE
  5
193
330
6B
100
AcDbEntity
  8
0
100
AcDbLine
 10
1279.59674
 20
437.810537
 30
0.0
 11
1264.59674
 21
437.810537
 31
0.0
  0
ARC
  5
194
330
6B
100
AcDbEntity
  8
0
100
AcDbCircle
 10
1279.59674
 20
439.3105369999998
 30
0.0
 40
1.5
100
AcDbArc
 50
270.0
 51
90.0
  0
ARC
  5
195
330
6B
100
AcDbEntity
  8
0
100
AcDbCircle
 10
1264.59674
 20
439.3105369999998
 30
0.0
 40
1.5
100
AcDbArc
 50
90.0
 51
270.0
  0
LINE
  5
196
330
6B
100
AcDbEntity
  8
0
100
AcDbLine
 10
1279.59674
 20
435.410537
 30
0.0
 11
1264.59674
 21
435.410537
 31
0.0
  0
LINE
  5
197
330
6B
100
AcDbEntity
  8
0
100
AcDbLine
 10
1279.59674
 20
432.410537
 30
0.0
 11
1264.59674
 21
432.410537
 31
0.0
  0
ARC
  5
198
330
6B
100
AcDbEntity
  8
0
100
AcDbCircle
 10
1279.59674
 20
433.910537
 30
0.0
 40
1.5
100
AcDbArc
 50
270.0
 51
90.0
  0
ARC
  5
199
330
6B
100
AcDbEntity
  8
0
100
AcDbCircle
 10
1264.59674
 20
433.910537
 30
0.0
 40
1.5
100
AcDbArc
 50
90.0
 51
270.0
  0
LINE
  5
19A
330
6B
100
AcDbEntity
  8
0
100
AcDbLine
 10
1249.59674
 20
452.9605369999998
 30
0.0
 11
1251.09674
 21
452.9605369999998
 31
0.0
  0
LINE
  5
19B
330
6B
100
AcDbEntity
  8
0
100
AcDbLine
 10
1249.59674
 20
424.160537
 30
0.0
 11
1251.09674
 21
424.160537
 31
0.0
  0
LINE
  5
19C
330
6B
100
AcDbEntity
  8
0
100
AcDbLine
 10
1248.69674
 20
452.060537
 30
0.0
 11
1248.69674
 21
425.060537
 31
0.0
  0
LINE
  5
19D
330
6B
100
AcDbEntity
  8
0
100
AcDbLine
 10
1249.59674
 20
452.9605369999998
 30
0.0
 11
1248.69674
 21
452.060537
 31
0.0
  0
LINE
  5
19E
330
6B
100
AcDbEntity
  8
0
100
AcDbLine
 10
1248.69674
 20
425.060537
 30
0.0
 11
1249.59674
 21
424.160537
 31
0.0
  0
LINE
  5
19F
330
6B
100
AcDbEntity
  8
0
100
AcDbLine
 10
1250.79674
 20
486.2605369999998
 30
0.0
 11
1251.09674
 21
486.2605369999998
 31
0.0
  0
LINE
  5
1A0
330
6B
100
AcDbEntity
  8
0
100
AcDbLine
 10
1250.79674
 20
467.060537
 30
0.0
 11
1251.09674
 21
467.060537
 31
0.0
  0
LINE
  5
1A1
330
6B
100
AcDbEntity
  8
0
100
AcDbLine
 10
1249.89674
 20
467.9605369999999
 30
0.0
 11
1249.89674
 21
485.360537
 31
0.0
  0
LINE
  5
1A2
330
6B
100
AcDbEntity
  8
0
100
AcDbLine
 10
1250.79674
 20
467.060537
 30
0.0
 11
1249.89674
 21
467.9605369999999
 31
0.0
  0
LINE
  5
1A3
330
6B
100
AcDbEntity
  8
0
100
AcDbLine
 10
1249.89674
 20
485.360537
 30
0.0
 11
1250.79674
 21
486.2605369999998
 31
0.0
  0
TEXT
  5
1A4
330
6B
100
AcDbEntity
  8
0
 62
     3
100
AcDbText
 10
1120.377651
 20
499.6296179999998
 30
0.0
 40
3.0
  1
WORLD
 41
0.9375
100
AcDbText
  0
TEXT
  5
1A5
330
6B
100
AcDbEntity
  8
0
 62
     3
100
AcDbText
 10
1142.18143
 20
499.682953
 30
0.0
 40
3.0
  1
RANS
100
AcDbText
  0
LINE
  5
1A6
330
6B
100
AcDbEntity
  8
0
100
AcDbLine
 10
1206.047925
 20
507.2605369999998
 30
0.0
 11
1206.047925
 21
421.460537
 31
0.0
  0
ARC
  5
1A7
330
6B
100
AcDbEntity
  8
0
100
AcDbCircle
 10
1203.647925
 20
507.2605369999998
 30
0.0
 40
2.399999999999999
100
AcDbArc
 50
0.0
 51
90.0
  0
LINE
  5
1F3
330
6B
100
AcDbEntity
  8
0
100
AcDbLine
 10
1203.647925
 20
509.660537
 30
0.0
 11
1107.647925
 21
509.660537
 31
0.0
  0
ARC
  5
1F4
330
6B
100
AcDbEntity
  8
0
100
AcDbCircle
 10
1107.647925
 20
507.2605369999998
 30
0.0
 40
2.399999999999999
100
AcDbArc
 50
90.0
 51
180.0
  0
LINE
  5
1F5
330
6B
100
AcDbEntity
  8
0
100
AcDbLine
 10
1105.247925
 20
507.2605369999998
 30
0.0
 11
1105.247925
 21
421.460537
 31
0.0
  0
ARC
  5
1F6
330
6B
100
AcDbEntity
  8
0
100
AcDbCircle
 10
1197.197925
 20
488.9605369999999
 30
0.0
 40
2.7
100
AcDbArc
 50
0.0
 51
90.0
  0
LINE
  5
1F7
330
6B
100
AcDbEntity
  8
0
100
AcDbLine
 10
1114.097925
 20
491.660537
 30
0.0
 11
1197.197925
 21
491.660537
 31
0.0
  0
LINE
  5
1F8
330
6B
100
AcDbEntity
  8
0
100
AcDbLine
 10
1199.897925
 20
467.060537
 30
0.0
 11
1199.897925
 21
488.9605369999999
 31
0.0
  0
ARC
  5
1F9
330
6B
100
AcDbEntity
  8
0
100
AcDbCircle
 10
1197.197925
 20
467.060537
 30
0.0
 40
2.7
100
AcDbArc
 50
270.0
 51
0.0
  0
LINE
  5
1FA
330
6B
100
AcDbEntity
  8
0
100
AcDbLine
 10
1114.097925
 20
464.360537
 30
0.0
 11
1197.197925
 21
464.360537
 31
0.0
  0
ARC
  5
1FB
330
6B
100
AcDbEntity
  8
0
100
AcDbCircle
 10
1114.097925
 20
467.060537
 30
0.0
 40
2.7
100
AcDbArc
 50
180.0
 51
270.0
  0
LINE
  5
1FC
330
6B
100
AcDbEntity
  8
0
100
AcDbLine
 10
1111.397925
 20
467.060537
 30
0.0
 11
1111.397925
 21
488.9605369999999
 31
0.0
  0
ARC
  5
1FD
330
6B
100
AcDbEntity
  8
0
100
AcDbCircle
 10
1114.097925
 20
488.9605369999999
 30
0.0
 40
2.7
100
AcDbArc
 50
90.0
 51
180.0
  0
LINE
  5
1FE
330
6B
100
AcDbEntity
  8
0
100
AcDbLine
 10
1200.647925
 20
457.7605369999998
 30
0.0
 11
1200.647925
 21
462.260537
 31
0.0
  0
LINE
  5
1FF
330
6B
100
AcDbEntity
  8
0
100
AcDbLine
 10
1110.647925
 20
462.260537
 30
0.0
 11
1200.647925
 21
462.260537
 31
0.0
  0
LINE
  5
200
330
6B
100
AcDbEntity
  8
0
100
AcDbLine
 10
1110.647925
 20
457.7605369999998
 30
0.0
 11
1200.647925
 21
457.7605369999998
 31
0.0
  0
LINE
  5
201
330
6B
100
AcDbEntity
  8
0
100
AcDbLine
 10
1110.647925
 20
457.7605369999998
 30
0.0
 11
1110.647925
 21
462.260537
 31
0.0
  0
ARC
  5
202
330
6B
100
AcDbEntity
  8
0
100
AcDbCircle
 10
1110.347925
 20
452.9605369999998
 30
0.0
 40
2.7
100
AcDbArc
 50
90.0
 51
180.0
  0
LINE
  5
203
330
6B
100
AcDbEntity
  8
0
100
AcDbLine
 10
1110.347925
 20
455.660537
 30
0.0
 11
1200.947925
 21
455.660537
 31
0.0
  0
LINE
  5
204
330
6B
100
AcDbEntity
  8
0
100
AcDbLine
 10
1107.647925
 20
424.160537
 30
0.0
 11
1107.647925
 21
452.9605369999998
 31
0.0
  0
ARC
  5
205
330
6B
100
AcDbEntity
  8
0
100
AcDbCircle
 10
1110.347925
 20
424.160537
 30
0.0
 40
2.7
100
AcDbArc
 50
180.0
 51
270.0
  0
ARC
  5
206
330
6B
100
AcDbEntity
  8
0
100
AcDbCircle
 10
1107.647925
 20
421.460537
 30
0.0
 40
2.399999999999999
100
AcDbArc
 50
180.0
 51
270.0
  0
LINE
  5
207
330
6B
100
AcDbEntity
  8
0
100
AcDbLine
 10
1107.647925
 20
419.060537
 30
0.0
 11
1203.647925
 21
419.060537
 31
0.0
  0
LINE
  5
208
330
6B
100
AcDbEntity
  8
0
100
AcDbLine
 10
1110.347925
 20
421.460537
 30
0.0
 11
1200.947925
 21
421.460537
 31
0.0
  0
ARC
  5
209
330
6B
100
AcDbEntity
  8
0
100
AcDbCircle
 10
1200.947925
 20
424.160537
 30
0.0
 40
2.7
100
AcDbArc
 50
270.0
 51
0.0
  0
ARC
  5
20A
330
6B
100
AcDbEntity
  8
0
100
AcDbCircle
 10
1203.647925
 20
421.460537
 30
0.0
 40
2.399999999999999
100
AcDbArc
 50
270.0
 51
0.0
  0
LINE
  5
20B
330
6B
100
AcDbEntity
  8
0
100
AcDbLine
 10
1203.647925
 20
424.160537
 30
0.0
 11
1203.647925
 21
452.9605369999998
 31
0.0
  0
ARC
  5
20C
330
6B
100
AcDbEntity
  8
0
100
AcDbCircle
 10
1200.947925
 20
452.9605369999998
 30
0.0
 40
2.7
100
AcDbArc
 50
0.0
 51
90.0
  0
LINE
  5
20D
330
6B
100
AcDbEntity
  8
0
100
AcDbLine
 10
1173.047925
 20
452.060537
 30
0.0
 11
1200.047925
 21
452.060537
 31
0.0
  0
LINE
  5
20E
330
6B
100
AcDbEntity
  8
0
100
AcDbLine
 10
1200.047925
 20
425.060537
 30
0.0
 11
1200.047925
 21
452.060537
 31
0.0
  0
LINE
  5
20F
330
6B
100
AcDbEntity
  8
0
100
AcDbLine
 10
1200.047925
 20
452.060537
 30
0.0
 11
1200.947925
 21
452.9605369999998
 31
0.0
  0
LINE
  5
210
330
6B
100
AcDbEntity
  8
0
100
AcDbLine
 10
1173.047925
 20
425.060537
 30
0.0
 11
1173.047925
 21
452.060537
 31
0.0
  0
LINE
  5
211
330
6B
100
AcDbEntity
  8
0
100
AcDbLine
 10
1173.047925
 20
425.060537
 30
0.0
 11
1200.047925
 21
425.060537
 31
0.0
  0
LINE
  5
212
330
6B
100
AcDbEntity
  8
0
100
AcDbLine
 10
1172.147925
 20
424.160537
 30
0.0
 11
1173.047925
 21
425.060537
 31
0.0
  0
LINE
  5
213
330
6B
100
AcDbEntity
  8
0
100
AcDbLine
 10
1173.047925
 20
452.060537
 30
0.0
 11
1172.147925
 21
452.9605369999998
 31
0.0
  0
LINE
  5
214
330
6B
100
AcDbEntity
  8
0
100
AcDbLine
 10
1200.947925
 20
424.160537
 30
0.0
 11
1200.047925
 21
425.060537
 31
0.0
  0
LINE
  5
215
330
6B
100
AcDbEntity
  8
0
100
AcDbLine
 10
1169.147925
 20
425.060537
 30
0.0
 11
1169.147925
 21
452.060537
 31
0.0
  0
LINE
  5
216
330
6B
100
AcDbEntity
  8
0
100
AcDbLine
 10
1142.147925
 20
425.060537
 30
0.0
 11
1169.147925
 21
425.060537
 31
0.0
  0
LINE
  5
217
330
6B
100
AcDbEntity
  8
0
100
AcDbLine
 10
1170.047925
 20
424.160537
 30
0.0
 11
1169.147925
 21
425.060537
 31
0.0
  0
LINE
  5
218
330
6B
100
AcDbEntity
  8
0
100
AcDbLine
 10
1142.147925
 20
452.060537
 30
0.0
 11
1169.147925
 21
452.060537
 31
0.0
  0
LINE
  5
219
330
6B
100
AcDbEntity
  8
0
100
AcDbLine
 10
1169.147925
 20
452.060537
 30
0.0
 11
1170.047925
 21
452.9605369999998
 31
0.0
  0
LINE
  5
21A
330
6B
100
AcDbEntity
  8
0
100
AcDbLine
 10
1142.147925
 20
425.060537
 30
0.0
 11
1142.147925
 21
452.060537
 31
0.0
  0
LINE
  5
21B
330
6B
100
AcDbEntity
  8
0
100
AcDbLine
 10
1142.147925
 20
452.060537
 30
0.0
 11
1141.247925
 21
452.9605369999998
 31
0.0
  0
LINE
  5
21C
330
6B
100
AcDbEntity
  8
0
100
AcDbLine
 10
1141.247925
 20
424.160537
 30
0.0
 11
1142.147925
 21
425.060537
 31
0.0
  0
LINE
  5
21D
330
6B
100
AcDbEntity
  8
0
100
AcDbLine
 10
1138.254642
 20
425.060537
 30
0.0
 11
1138.254642
 21
452.060537
 31
0.0
  0
LINE
  5
21E
330
6B
100
AcDbEntity
  8
0
100
AcDbLine
 10
1111.254642
 20
452.060537
 30
0.0
 11
1138.254642
 21
452.060537
 31
0.0
  0
LINE
  5
21F
330
6B
100
AcDbEntity
  8
0
100
AcDbLine
 10
1138.254642
 20
452.060537
 30
0.0
 11
1139.154642
 21
452.9605369999998
 31
0.0
  0
LINE
  5
220
330
6B
100
AcDbEntity
  8
0
100
AcDbLine
 10
1111.254642
 20
425.060537
 30
0.0
 11
1111.254642
 21
452.060537
 31
0.0
  0
LINE
  5
221
330
6B
100
AcDbEntity
  8
0
100
AcDbLine
 10
1111.254642
 20
452.060537
 30
0.0
 11
1110.354642
 21
452.9605369999998
 31
0.0
  0
LINE
  5
222
330
6B
100
AcDbEntity
  8
0
100
AcDbLine
 10
1111.254642
 20
425.060537
 30
0.0
 11
1138.254642
 21
425.060537
 31
0.0
  0
LINE
  5
223
330
6B
100
AcDbEntity
  8
0
100
AcDbLine
 10
1110.354642
 20
424.160537
 30
0.0
 11
1111.254642
 21
425.060537
 31
0.0
  0
LINE
  5
224
330
6B
100
AcDbEntity
  8
0
100
AcDbLine
 10
1139.154642
 20
424.160537
 30
0.0
 11
1138.254642
 21
425.060537
 31
0.0
  0
LINE
  5
225
330
6B
100
AcDbEntity
  8
0
100
AcDbLine
 10
1133.297925
 20
486.2605369999998
 30
0.0
 11
1132.397925
 21
485.360537
 31
0.0
  0
LINE
  5
226
330
6B
100
AcDbEntity
  8
0
100
AcDbLine
 10
1132.397925
 20
467.9605369999999
 30
0.0
 11
1132.397925
 21
485.360537
 31
0.0
  0
LINE
  5
227
330
6B
100
AcDbEntity
  8
0
100
AcDbLine
 10
1114.997925
 20
485.360537
 30
0.0
 11
1132.397925
 21
485.360537
 31
0.0
  0
LINE
  5
228
330
6B
100
AcDbEntity
  8
0
100
AcDbLine
 10
1114.097925
 20
486.2605369999998
 30
0.0
 11
1114.997925
 21
485.360537
 31
0.0
  0
LINE
  5
229
330
6B
100
AcDbEntity
  8
0
100
AcDbLine
 10
1114.997925
 20
467.9605369999999
 30
0.0
 11
1114.997925
 21
485.360537
 31
0.0
  0
LINE
  5
22A
330
6B
100
AcDbEntity
  8
0
100
AcDbLine
 10
1114.997925
 20
467.9605369999999
 30
0.0
 11
1114.097925
 21
467.060537
 31
0.0
  0
LINE
  5
22B
330
6B
100
AcDbEntity
  8
0
100
AcDbLine
 10
1114.997925
 20
467.9605369999999
 30
0.0
 11
1132.397925
 21
467.9605369999999
 31
0.0
  0
LINE
  5
22C
330
6B
100
AcDbEntity
  8
0
100
AcDbLine
 10
1132.397925
 20
467.9605369999999
 30
0.0
 11
1133.297925
 21
467.060537
 31
0.0
  0
LINE
  5
22D
330
6B
100
AcDbEntity
  8
0
100
AcDbLine
 10
1136.297925
 20
467.9605369999999
 30
0.0
 11
1135.397925
 21
467.060537
 31
0.0
  0
LINE
  5
22E
330
6B
100
AcDbEntity
  8
0
100
AcDbLine
 10
1136.297925
 20
467.9605369999999
 30
0.0
 11
1153.697925
 21
467.9605369999999
 31
0.0
  0
LINE
  5
22F
330
6B
100
AcDbEntity
  8
0
100
AcDbLine
 10
1136.297925
 20
467.9605369999999
 30
0.0
 11
1136.297925
 21
485.360537
 31
0.0
  0
LINE
  5
230
330
6B
100
AcDbEntity
  8
0
100
AcDbLine
 10
1135.397925
 20
486.2605369999998
 30
0.0
 11
1136.297925
 21
485.360537
 31
0.0
  0
LINE
  5
231
330
6B
100
AcDbEntity
  8
0
100
AcDbLine
 10
1136.297925
 20
485.360537
 30
0.0
 11
1153.697925
 21
485.360537
 31
0.0
  0
LINE
  5
232
330
6B
100
AcDbEntity
  8
0
100
AcDbLine
 10
1154.597925
 20
486.2605369999998
 30
0.0
 11
1153.697925
 21
485.360537
 31
0.0
  0
LINE
  5
233
330
6B
100
AcDbEntity
  8
0
100
AcDbLine
 10
1153.697925
 20
467.9605369999999
 30
0.0
 11
1153.697925
 21
485.360537
 31
0.0
  0
LINE
  5
234
330
6B
100
AcDbEntity
  8
0
100
AcDbLine
 10
1153.697925
 20
467.9605369999999
 30
0.0
 11
1154.597925
 21
467.060537
 31
0.0
  0
LINE
  5
235
330
6B
100
AcDbEntity
  8
0
100
AcDbLine
 10
1157.597925
 20
467.9605369999999
 30
0.0
 11
1157.597925
 21
485.360537
 31
0.0
  0
LINE
  5
236
330
6B
100
AcDbEntity
  8
0
100
AcDbLine
 10
1156.697925
 20
486.2605369999998
 30
0.0
 11
1157.597925
 21
485.360537
 31
0.0
  0
LINE
  5
237
330
6B
100
AcDbEntity
  8
0
100
AcDbLine
 10
1157.597925
 20
485.360537
 30
0.0
 11
1174.997925
 21
485.360537
 31
0.0
  0
LINE
  5
238
330
6B
100
AcDbEntity
  8
0
100
AcDbLine
 10
1175.897925
 20
486.2605369999998
 30
0.0
 11
1174.997925
 21
485.360537
 31
0.0
  0
LINE
  5
239
330
6B
100
AcDbEntity
  8
0
100
AcDbLine
 10
1174.997925
 20
467.9605369999999
 30
0.0
 11
1174.997925
 21
485.360537
 31
0.0
  0
LINE
  5
23A
330
6B
100
AcDbEntity
  8
0
100
AcDbLine
 10
1174.997925
 20
467.9605369999999
 30
0.0
 11
1175.897925
 21
467.060537
 31
0.0
  0
LINE
  5
23B
330
6B
100
AcDbEntity
  8
0
100
AcDbLine
 10
1157.597925
 20
467.9605369999999
 30
0.0
 11
1174.997925
 21
467.9605369999999
 31
0.0
  0
LINE
  5
23C
330
6B
100
AcDbEntity
  8
0
100
AcDbLine
 10
1157.597925
 20
467.9605369999999
 30
0.0
 11
1156.697925
 21
467.060537
 31
0.0
  0
LINE
  5
23D
330
6B
100
AcDbEntity
  8
0
100
AcDbLine
 10
1177.997925
 20
486.2605369999998
 30
0.0
 11
1178.897925
 21
485.360537
 31
0.0
  0
LINE
  5
23E
330
6B
100
AcDbEntity
  8
0
100
AcDbLine
 10
1178.897925
 20
485.360537
 30
0.0
 11
1196.297925
 21
485.360537
 31
0.0
  0
LINE
  5
23F
330
6B
100
AcDbEntity
  8
0
100
AcDbLine
 10
1197.197925
 20
486.2605369999998
 30
0.0
 11
1196.297925
 21
485.360537
 31
0.0
  0
LINE
  5
240
330
6B
100
AcDbEntity
  8
0
100
AcDbLine
 10
1196.297925
 20
467.9605369999999
 30
0.0
 11
1196.297925
 21
485.360537
 31
0.0
  0
LINE
  5
241
330
6B
100
AcDbEntity
  8
0
100
AcDbLine
 10
1196.297925
 20
467.9605369999999
 30
0.0
 11
1197.197925
 21
467.060537
 31
0.0
  0
LINE
  5
242
330
6B
100
AcDbEntity
  8
0
100
AcDbLine
 10
1178.897925
 20
467.9605369999999
 30
0.0
 11
1196.297925
 21
467.9605369999999
 31
0.0
  0
LINE
  5
243
330
6B
100
AcDbEntity
  8
0
100
AcDbLine
 10
1178.897925
 20
467.9605369999999
 30
0.0
 11
1177.997925
 21
467.060537
 31
0.0
  0
LINE
  5
244
330
6B
100
AcDbEntity
  8
0
100
AcDbLine
 10
1178.897925
 20
467.9605369999999
 30
0.0
 11
1178.897925
 21
485.360537
 31
0.0
  0
TEXT
  5
245
330
6B
100
AcDbEntity
  8
0
 62
     3
100
AcDbText
 10
1362.519519
 20
331.389833
 30
0.0
 40
4.5
  1
海外用トランス
  7
高4.5
100
AcDbText
  0
LINE
  5
248
330
6B
100
AcDbEntity
  8
0
 62
     3
100
AcDbLine
 10
1430.329996
 20
315.545573
 30
0.0
 11
1430.329996
 21
338.545573
 31
0.0
  0
LINE
  5
24A
330
6B
100
AcDbEntity
  8
0
 62
     3
100
AcDbLine
 10
1377.276387
 20
308.545573
 30
0.0
 11
1377.276387
 21
322.545573
 31
0.0
  0
TEXT
  5
24C
330
6B
100
AcDbEntity
  8
0
 62
     3
100
AcDbText
 10
1406.340314
 20
334.750689
 30
0.0
 40
2.0
  1
A
 41
0.7
100
AcDbText
  0
TEXT
  5
24D
330
6B
100
AcDbEntity
  8
0
 62
     3
100
AcDbText
 10
1408.875601
 20
334.750689
 30
0.0
 40
2.0
  1
P
 41
0.7
100
AcDbText
  0
TEXT
  5
24E
330
6B
100
AcDbEntity
  8
0
 62
     3
100
AcDbText
 10
1411.410887
 20
334.750689
 30
0.0
 40
2.0
  1
P
 41
0.7
100
AcDbText
  0
TEXT
  5
24F
330
6B
100
AcDbEntity
  8
0
 62
     3
100
AcDbText
 10
1413.946173
 20
334.750689
 30
0.0
 40
2.0
  1
D
 41
0.7
100
AcDbText
  0
TEXT
  5
250
330
6B
100
AcDbEntity
  8
0
 62
     3
100
AcDbText
 10
1419.314856
 20
334.750689
 30
0.0
 40
2.0
  1
C
 41
0.7
100
AcDbText
  0
TEXT
  5
251
330
6B
100
AcDbEntity
  8
0
 62
     3
100
AcDbText
 10
1421.850142
 20
334.750689
 30
0.0
 40
2.0
  1
H
 41
0.7
100
AcDbText
  0
TEXT
  5
252
330
6B
100
AcDbEntity
  8
0
 62
     3
100
AcDbText
 10
1424.385428
 20
334.750689
 30
0.0
 40
2.0
  1
C
 41
0.7
100
AcDbText
  0
TEXT
  5
253
330
6B
100
AcDbEntity
  8
0
 62
     3
100
AcDbText
 10
1426.920715
 20
334.750689
 30
0.0
 40
2.0
  1
K
 41
0.7
100
AcDbText
  0
TEXT
  5
254
330
6B
100
AcDbEntity
  8
0
 62
     3
100
AcDbText
 10
1432.594681
 20
334.750689
 30
0.0
 40
2.0
  1
DESN
 41
1.216762999999998
100
AcDbText
  0
TEXT
  5
255
330
6B
100
AcDbEntity
  8
0
 62
     3
100
AcDbText
 10
1347.588323
 20
305.404191
 30
0.0
 40
2.0
  1
NICHIDO IND.CO.LTD
 41
1.274876
100
AcDbText
  0
LINE
  5
256
330
6B
100
AcDbEntity
  8
0
 62
     3
100
AcDbLine
 10
1357.971352
 20
338.545573
 30
0.0
 11
1357.971352
 21
315.545573
 31
0.0
  0
LINE
  5
257
330
6B
100
AcDbEntity
  8
0
 62
     3
100
AcDbLine
 10
1404.329996
 20
338.545573
 30
0.0
 11
1404.329996
 21
298.879851
 31
0.0
  0
LINE
  5
25C
330
6B
100
AcDbEntity
  8
0
 62
     3
100
AcDbLine
 10
1417.329996
 20
338.545573
 30
0.0
 11
1417.329996
 21
308.545573
 31
0.0
  0
TEXT
  5
25D
330
6B
100
AcDbEntity
  8
0
 62
     3
100
AcDbText
 10
1405.442441
 20
309.41026
 30
0.0
 40
3.2
  1
作成日
 41
1.017225999999998
100
AcDbText
  0
LINE
  5
25E
330
6B
100
AcDbEntity
  8
0
 62
     3
100
AcDbLine
 10
1456.02936
 20
338.545573
 30
0.0
 11
1344.725917
 21
338.545573
 31
0.0
  0
LINE
  5
25F
330
6B
100
AcDbEntity
  8
0
 62
     3
100
AcDbLine
 10
1443.329996
 20
315.545573
 30
0.0
 11
1443.329996
 21
338.545573
 31
0.0
  0
TEXT
  5
260
330
6B
100
AcDbEntity
  8
0
 62
     3
100
AcDbText
 10
1446.6538
 20
334.836508
 30
0.0
 40
1.8
  1
D
 41
0.666667
100
AcDbText
  0
TEXT
  5
261
330
6B
100
AcDbEntity
  8
0
 62
     3
100
AcDbText
 10
1449.470428
 20
334.836508
 30
0.0
 40
1.8
  1
E
 41
0.666667
100
AcDbText
  0
TEXT
  5
262
330
6B
100
AcDbEntity
  8
0
 62
     3
100
AcDbText
 10
1452.287056
 20
334.836508
 30
0.0
 40
1.8
  1
F
 41
0.666667
100
AcDbText
  0
TEXT
  5
263
330
6B
100
AcDbEntity
  8
0
 62
     3
100
AcDbText
 10
1446.6538
 20
330.843954
 30
0.0
 40
3.2
  1
製図
 41
1.076369
100
AcDbText
  0
LINE
  5
264
330
6B
100
AcDbEntity
  8
0
 62
     3
100
AcDbLine
 10
1344.725917
 20
338.545573
 30
0.0
 11
1344.725917
 21
298.879851
 31
0.0
  0
TEXT
  5
265
330
6B
100
AcDbEntity
  8
0
 62
     3
100
AcDbText
 10
1346.10257
 20
299.212316
 30
0.0
 40
5.0
  1
日動工業株式会社
 41
0.833333
100
AcDbText
  0
LINE
  5
266
330
6B
100
AcDbEntity
  8
0
 62
     3
100
AcDbLine
 10
1387.608321
 20
322.5455729999999
 30
0.0
 11
1387.608321
 21
298.879851
 31
0.0
  0
LINE
  5
267
330
6B
100
AcDbEntity
  8
0
 62
     3
100
AcDbLine
 10
1387.608321
 20
303.712712
 30
0.0
 11
1404.329996
 21
303.712712
 31
0.0
  0
TEXT
  5
268
330
6B
100
AcDbEntity
  8
0
 62
     3
100
AcDbText
 10
1388.194923
 20
304.529143
 30
0.0
 40
3.2
  1
出図コード
 41
0.8356860000000001
100
AcDbText
  0
LINE
  5
27A
330
6B
100
AcDbEntity
  8
0
 62
     3
100
AcDbLine
 10
1344.725917
 20
308.545573
 30
0.0
 11
1456.02936
 21
308.545573
 31
0.0
  0
LINE
  5
27C
330
6B
100
AcDbEntity
  8
0
 62
     3
100
AcDbLine
 10
1344.725917
 20
329.545573
 30
0.0
 11
1456.02936
 21
329.545573
 31
0.0
  0
LINE
  5
282
330
6B
100
AcDbEntity
  8
0
 62
     3
100
AcDbLine
 10
1344.725917
 20
322.545573
 30
0.0
 11
1404.329996
 21
322.545573
 31
0.0
  0
LINE
  5
288
330
6B
100
AcDbEntity
  8
0
 62
     3
100
AcDbLine
 10
1344.725917
 20
315.545573
 30
0.0
 11
1456.02936
 21
315.545573
 31
0.0
  0
LINE
  5
28C
330
6B
100
AcDbEntity
  8
0
 62
     3
100
AcDbLine
 10
1456.02936
 20
572.9352119999998
 30
0.0
 11
1456.02936
 21
298.879851
 31
0.0
  0
LINE
  5
28D
330
6B
100
AcDbEntity
  8
0
 62
     3
100
AcDbLine
 10
1066.02936
 20
572.9352119999998
 30
0.0
 11
1066.02936
 21
298.879851
 31
0.0
  0
LINE
  5
28E
330
6B
100
AcDbEntity
  8
0
 62
     3
100
AcDbLine
 10
1456.02936
 20
298.879851
 30
0.0
 11
1066.02936
 21
298.879851
 31
0.0
  0
TEXT
  5
291
330
6B
100
AcDbEntity
  8
0
 62
     3
100
AcDbText
 10
1388.062375
 20
299.380307183239
 30
0.0
 40
3.2
  1
ZK-A3X
 41
0.8112849999999999
100
AcDbText
  0
TEXT
  5
292
330
6B
100
AcDbEntity
  8
0
 62
     3
100
AcDbText
 10
1346.543314
 20
334.715099
 30
0.0
 40
2.0
  1
CONPONENTS
 41
0.5331600000000001
100
AcDbText
  0
TEXT
  5
293
330
6B
100
AcDbEntity
  8
0
 62
     3
100
AcDbText
 10
1346.193588
 20
315.782922
 30
0.0
 40
3.0
  1
材
 41
0.833333
100
AcDbText
  0
TEXT
  5
294
330
6B
100
AcDbEntity
  8
0
 62
     3
100
AcDbText
 10
1353.72923
 20
315.782922
 30
0.0
 40
3.0
  1
質
 41
0.833333
100
AcDbText
  0
TEXT
  5
295
330
6B
100
AcDbEntity
  8
0
 62
     3
100
AcDbText
 10
1346.281658
 20
326.4074470000001
 30
0.0
 40
2.0
  1
MODEL
 41
1.031072999999999
100
AcDbText
  0
TEXT
  5
296
330
6B
100
AcDbEntity
  8
0
 62
     3
100
AcDbText
 10
1346.193588
 20
319.46523
 30
0.0
 40
2.0
  1
MATERIAL
 41
0.659278
100
AcDbText
  0
TEXT
  5
297
330
6B
100
AcDbEntity
  8
0
 62
     3
100
AcDbText
 10
1377.500868
 20
315.782922
 30
0.0
 40
3.0
  1
備
 41
0.833333
100
AcDbText
  0
TEXT
  5
298
330
6B
100
AcDbEntity
  8
0
 62
     3
100
AcDbText
 10
1384.23387
 20
315.782922
 30
0.0
 40
3.0
  1
考
 41
0.833333
100
AcDbText
  0
TEXT
  5
299
330
6B
100
AcDbEntity
  8
0
 62
     3
100
AcDbText
 10
1377.906814382361
 20
319.46523
 30
0.0
 40
2.0
  1
REMARKS
 41
0.675794
100
AcDbText
  0
TEXT
  5
29A
330
6B
100
AcDbEntity
  8
0
 62
     3
100
AcDbText
 10
1347.783317
 20
312.54511
 30
0.0
 40
2.0
  1
3AD
 41
1.42614
100
AcDbText
  0
TEXT
  5
29B
330
6B
100
AcDbEntity
  8
0
 62
     3
100
AcDbText
 10
1357.094296
 20
312.710843
 30
0.0
 40
2.0
  1
ANGLE
 41
1.669883999999998
100
AcDbText
  0
TEXT
  5
29C
330
6B
100
AcDbEntity
  8
0
 62
     3
100
AcDbText
 10
1378.028183
 20
312.334002
 30
0.0
 40
2.0
  1
SCALE
 41
0.7719630000000001
100
AcDbText
  0
TEXT
  5
29D
330
6B
100
AcDbEntity
  8
0
 62
     3
100
AcDbText
 10
1347.469446
 20
308.545573
 30
0.0
 40
3.0
  1
第
 41
0.833333
100
AcDbText
  0
TEXT
  5
29E
330
6B
100
AcDbEntity
  8
0
 62
     3
100
AcDbText
 10
1355.256296
 20
308.545573
 30
0.0
 40
3.0
  1
三
 41
0.833333
100
AcDbText
  0
TEXT
  5
29F
330
6B
100
AcDbEntity
  8
0
 62
     3
100
AcDbText
 10
1363.043146
 20
308.545573
 30
0.0
 40
3.0
  1
角
 41
0.833333
100
AcDbText
  0
TEXT
  5
2A0
330
6B
100
AcDbEntity
  8
0
 62
     3
100
AcDbText
 10
1370.829996
 20
308.545573
 30
0.0
 40
3.0
  1
法
 41
0.833333
100
AcDbText
  0
TEXT
  5
2A1
330
6B
100
AcDbEntity
  8
0
 62
     3
100
AcDbText
 10
1377.891388
 20
308.834002
 30
0.0
 40
3.0
  1
尺
 41
0.833333
100
AcDbText
  0
TEXT
  5
2A2
330
6B
100
AcDbEntity
  8
0
 62
     3
100
AcDbText
 10
1384.62439
 20
308.834002
 30
0.0
 40
3.0
  1
度
 41
0.833333
100
AcDbText
  0
TEXT
  5
2A3
330
6B
100
AcDbEntity
  8
0
 62
     3
100
AcDbText
 10
1407.20766
 20
331.003302
 30
0.0
 40
3.0
  1
承認
 41
1.089472999999999
100
AcDbText
  0
TEXT
  5
2A4
330
6B
100
AcDbEntity
  8
0
 62
     3
100
AcDbText
 10
1420.450541
 20
330.945573
 30
0.0
 40
3.0
  1
検図
 41
0.931761
100
AcDbText
  0
TEXT
  5
2A5
330
6B
100
AcDbEntity
  8
0
 62
     3
100
AcDbText
 10
1433.450937
 20
330.945573
 30
0.0
 40
3.0
  1
設
 41
0.833333
100
AcDbText
  0
TEXT
  5
2A6
330
6B
100
AcDbEntity
  8
0
 62
     3
100
AcDbText
 10
1437.940806
 20
330.945573
 30
0.0
 40
3.0
  1
計
 41
0.833333
100
AcDbText
  0
TEXT
  5
2A7
330
6B
100
AcDbEntity
  8
0
 62
     3
100
AcDbText
 10
1346.613421
 20
331.118126
 30
0.0
 40
3.0
  1
品
 41
0.833333
100
AcDbText
  0
TEXT
  5
2A8
330
6B
100
AcDbEntity
  8
0
 62
     3
100
AcDbText
 10
1354.149063
 20
331.118126
 30
0.0
 40
3.0
  1
名
 41
0.833333
100
AcDbText
  0
TEXT
  5
2A9
330
6B
100
AcDbEntity
  8
0
 62
     3
100
AcDbText
 10
1346.281658
 20
322.8708935382382
 30
0.0
 40
3.0
  1
型
 41
0.833333
100
AcDbText
  0
TEXT
  5
2AA
330
6B
100
AcDbEntity
  8
0
 62
     3
100
AcDbText
 10
1353.829749
 20
322.8708935382382
 30
0.0
 40
3.0
  1
式
 41
0.833333
100
AcDbText
  0
LINE
  5
2B2
330
6B
100
AcDbEntity
  8
0
 62
     3
100
AcDbLine
 10
1456.02936
 20
572.9352119999998
 30
0.0
 11
1066.02936
 21
572.9352119999998
 31
0.0
  0
LINE
  5
2B3
330
6B
100
AcDbEntity
  8
0
 62
     3
100
AcDbLine
 10
1430.329996
 20
338.545573
 30
0.0
 11
1430.329996
 21
344.545573
 31
0.0
  0
LINE
  5
2B4
330
6B
100
AcDbEntity
  8
0
 62
     3
100
AcDbLine
 10
1404.329996
 20
338.545573
 30
0.0
 11
1404.329996
 21
344.545573
 31
0.0
  0
LINE
  5
2B5
330
6B
100
AcDbEntity
  8
0
 62
     3
100
AcDbLine
 10
1456.02936
 20
344.545573
 30
0.0
 11
1404.329996
 21
344.545573
 31
0.0
  0
TEXT
  5
2B6
330
6B
100
AcDbEntity
  8
0
 62
     3
100
AcDbText
 10
1410.325594
 20
339.341922
 30
0.0
 40
4.5
  1
コード
  7
高4.5
100
AcDbText
  0
TEXT
  5
2B7
330
6B
100
AcDbEntity
  8
0
 62
     3
100
AcDbText
 10
1136.8064365625
 20
299.5137720937501
 30
0.0
 40
3.2
  1
備　　　　　考　
 41
0.8
  7
高3.2
100
AcDbText
  0
TEXT
  5
2B8
330
6B
100
AcDbEntity
  8
0
 62
     3
100
AcDbText
 10
1106.3376865625
 20
299.5137720937501
 30
0.0
 40
3.2
  1
個数
 41
0.8
  7
高3.2
100
AcDbText
  0
TEXT
  5
2B9
330
6B
100
AcDbEntity
  8
0
 62
     3
100
AcDbText
 10
1075.0876865625
 20
299.5137720937501
 30
0.0
 40
3.2
  1
部　　品　　名
 41
0.8
  7
高3.2
100
AcDbText
  0
TEXT
  5
2BA
330
6B
100
AcDbEntity
  8
0
 62
     3
100
AcDbText
 10
1067.52936
 20
299.379851
 30
0.0
 40
3.2
  1
No
 41
0.8
  7
高3.2
100
AcDbText
  0
TEXT
  5
2BB
330
6B
100
AcDbEntity
  8
0
 62
     3
100
AcDbText
 10
1116.4939365625
 20
299.5137720937501
 30
0.0
 40
3.2
  1
材　　　質
 41
0.8
  7
高3.2
100
AcDbText
  0
LINE
  5
2BC
330
6B
100
AcDbEntity
  8
0
100
AcDbLine
 10
1394.054825412351
 20
528.5290392239232
 30
0.0
 11
1430.306574459917
 21
528.5290392239232
 31
0.0
  0
TEXT
  5
2BD
330
6B
100
AcDbEntity
  8
0
 62
     3
100
AcDbText
 10
1394.03289505416
 20
529.175953
 30
0.0
 40
4.5
  1
主　　仕　　様
  7
高4.5
100
AcDbText
  0
TEXT
  5
2BE
330
6B
100
AcDbEntity
  8
0
 62
     3
100
AcDbText
 10
1068.5095615625
 20
314.6387720937501
 30
0.0
 40
3.2
  1
3
 41
0.8
  7
高3.2
100
AcDbText
  0
TEXT
  5
2BF
330
6B
100
AcDbEntity
  8
0
 62
     3
100
AcDbText
 10
1068.5095615625
 20
319.7168970937501
 30
0.0
 40
3.2
  1
4
 41
0.8
  7
高3.2
100
AcDbText
  0
TEXT
  5
2C0
330
6B
100
AcDbEntity
  8
0
 62
     3
100
AcDbText
 10
1068.5095615625
 20
324.7950220937501
 30
0.0
 40
3.2
  1
5
 41
0.8
  7
高3.2
100
AcDbText
  0
TEXT
  5
2C1
330
6B
100
AcDbEntity
  8
0
 62
     3
100
AcDbText
 10
1068.5095615625
 20
329.8731470937501
 30
0.0
 40
3.2
  1
6
 41
0.8
  7
高3.2
100
AcDbText
  0
TEXT
  5
2C2
330
6B
100
AcDbEntity
  8
0
 62
     3
100
AcDbText
 10
1106.3376865625
 20
314.51377209375
 30
0.0
 40
3.2
  1
1
 41
0.8
  7
高3.2
100
AcDbText
  0
TEXT
  5
2C3
330
6B
100
AcDbEntity
  8
0
 62
     3
100
AcDbText
 10
1068.5095615625
 20
304.8731470937501
 30
0.0
 40
3.2
  1
1
 41
0.8
  7
高3.2
100
AcDbText
  0
TEXT
  5
2C4
330
6B
100
AcDbEntity
  8
0
 62
     3
100
AcDbText
 10
1068.5095615625
 20
309.5606470937501
 30
0.0
 40
3.2
  1
2
 41
0.8
  7
高3.2
100
AcDbText
  0
TEXT
  5
2C5
330
6B
100
AcDbEntity
  8
0
 62
     3
100
AcDbText
 10
1074.9252896875
 20
304.76299709375
 30
0.0
 40
3.2
  1
ケース本体
 41
0.8
  7
高3.2
100
AcDbText
  0
TEXT
  5
2C6
330
6B
100
AcDbEntity
  8
0
 62
     3
100
AcDbText
 10
1106.3376865625
 20
319.51377209375
 30
0.0
 40
3.2
  1
1
 41
0.8
  7
高3.2
100
AcDbText
  0
TEXT
  5
2C7
330
6B
100
AcDbEntity
  8
0
 62
     3
100
AcDbText
 10
1106.3376865625
 20
304.51377209375
 30
0.0
 40
3.2
  1
1式
 41
0.8
  7
高3.2
100
AcDbText
  0
TEXT
  5
2C8
330
6B
100
AcDbEntity
  8
0
 62
     3
100
AcDbText
 10
1386.623373
 20
522.4623699999998
 30
0.0
 40
3.2
  1
型　式
  7
高3.2
100
AcDbText
  0
TEXT
  5
2C9
330
6B
100
AcDbEntity
  8
0
 62
     3
100
AcDbText
 10
1386.623373
 20
516.9183699999998
 30
0.0
 40
3.2
  1
容　量
  7
高3.2
100
AcDbText
  0
TEXT
  5
2CA
330
6B
100
AcDbEntity
  8
0
 62
     3
100
AcDbText
 10
1116.3315396875
 20
304.76299709375
 30
0.0
 40
3.2
  1
-
 41
0.8
  7
高3.2
100
AcDbText
  0
TEXT
  5
2CB
330
6B
100
AcDbEntity
  8
0
 62
     3
100
AcDbText
 10
1136.42233421875
 20
309.66820178125
 30
0.0
 40
3.2
  1
-
 41
0.8
  7
高3.2
100
AcDbText
  0
TEXT
  5
2CC
330
6B
100
AcDbEntity
  8
0
 62
     3
100
AcDbText
 10
1116.10983421875
 20
309.66820178125
 30
0.0
 40
3.2
  1
-
 41
0.8
  7
高3.2
100
AcDbText
  0
TEXT
  5
2CD
330
6B
100
AcDbEntity
  8
0
 62
     3
100
AcDbText
 10
1106.3376865625
 20
309.51377209375
 30
0.0
 40
3.2
  1
1
 41
0.8
  7
高3.2
100
AcDbText
  0
TEXT
  5
2CE
330
6B
100
AcDbEntity
  8
0
 62
     3
100
AcDbText
 10
1074.70358421875
 20
309.66820178125
 30
0.0
 40
3.2
  1
取手
 41
0.8
  7
高3.2
100
AcDbText
  0
TEXT
  5
2CF
330
6B
100
AcDbEntity
  8
0
 62
     3
100
AcDbText
 10
1115.97753578125
 20
314.74490334375
 30
0.0
 40
3.2
  1
-
 41
0.8
  7
高3.2
100
AcDbText
  0
TEXT
  5
2D0
330
6B
100
AcDbEntity
  8
0
 62
     3
100
AcDbText
 10
1136.29003578125
 20
314.74490334375
 30
0.0
 40
3.2
  1
ランプ付き
 41
0.8
  7
高3.2
100
AcDbText
  0
TEXT
  5
2D1
330
6B
100
AcDbEntity
  8
0
 62
     3
100
AcDbText
 10
1074.48382640625
 20
319.27241975
 30
0.0
 40
3.2
  1
電線　プラグ付き
 41
0.8
  7
高3.2
100
AcDbText
  0
TEXT
  5
2D2
330
6B
100
AcDbEntity
  8
0
 62
     3
100
AcDbText
 10
1116.11080765625
 20
324.72264396875
 30
0.0
 40
3.2
  1
-
 41
0.8
  7
高3.2
100
AcDbText
  0
TEXT
  5
2D3
330
6B
100
AcDbEntity
  8
0
 62
     3
100
AcDbText
 10
1074.48382640625
 20
324.27241975
 30
0.0
 40
3.2
  1
コンセント
 41
0.8
  7
高3.2
100
AcDbText
  0
TEXT
  5
2D4
330
6B
100
AcDbEntity
  8
0
 62
     3
100
AcDbText
 10
1389.946706
 20
309.066044
 30
0.0
 40
3.2
  1
FREE
  7
高3.2
100
AcDbText
  0
TEXT
  5
2D5
330
6B
100
AcDbEntity
  8
0
 62
     3
100
AcDbText
 10
1136.6440396875
 20
304.76299709375
 30
0.0
 40
3.2
  1
-
 41
0.8
  7
高3.2
100
AcDbText
  0
LINE
  5
2DC
330
6B
100
AcDbEntity
  8
0
 62
     3
100
AcDbLine
 10
1053.627436
 20
439.3798509999998
 30
0.0
 11
1051.02936
 21
437.879851
 31
0.0
  0
LINE
  5
2DD
330
6B
100
AcDbEntity
  8
0
 62
     3
100
AcDbLine
 10
1053.627436
 20
439.3798509999998
 30
0.0
 11
1051.02936
 21
440.8798509999998
 31
0.0
  0
LINE
  5
2DE
330
6B
100
AcDbEntity
  8
0
 62
     3
100
AcDbLine
 10
1051.02936
 20
437.879851
 30
0.0
 11
1051.02936
 21
440.8798509999998
 31
0.0
  0
LINE
  5
2DF
330
6B
100
AcDbEntity
  8
0
100
AcDbLine
 10
1390.17192
 20
407.876932
 30
0.0
 11
1400.97192
 21
407.876932
 31
0.0
  0
LINE
  5
2E0
330
6B
100
AcDbEntity
  8
0
 62
     3
100
AcDbLine
 10
1384.766007
 20
367.853404
 30
0.0
 11
1384.766007
 21
367.21811
 31
0.0
  0
ARC
  5
2E1
330
6B
100
AcDbEntity
  8
0
 62
     3
100
AcDbCircle
 10
1385.127632
 20
369.441639
 30
0.0
 40
1.626298999999999
100
AcDbArc
 50
102.420692
 51
257.579308
  0
ARC
  5
2E2
330
6B
100
AcDbEntity
  8
0
 62
     3
100
AcDbCircle
 10
1401.12483
 20
394.694579
 30
0.0
 40
0.476471
100
AcDbArc
 50
0.0
 51
90.0
  0
LINE
  5
2E3
330
6B
100
AcDbEntity
  8
0
 62
     3
100
AcDbLine
 10
1401.601301
 20
394.694579
 30
0.0
 11
1401.601301
 21
390.139087
 31
0.0
  0
ARC
  5
2E4
330
6B
100
AcDbEntity
  8
0
 62
     3
100
AcDbCircle
 10
1401.12483
 20
381.3534029999999
 30
0.0
 40
5.241176
100
AcDbArc
 50
0.0
 51
56.94426899999999
  0
LINE
  5
2E5
330
6B
100
AcDbEntity
  8
0
 62
     3
100
AcDbLine
 10
1406.366006
 20
381.3534029999999
 30
0.0
 11
1406.366006
 21
371.029874
 31
0.0
  0
ARC
  5
2E6
330
6B
100
AcDbEntity
  8
0
 62
     3
100
AcDbCircle
 10
1406.016209
 20
369.441639
 30
0.0
 40
1.626298999999999
100
AcDbArc
 50
282.420692
 51
77.579308
  0
ARC
  5
2E7
330
6B
100
AcDbEntity
  8
0
 62
     3
100
AcDbCircle
 10
1390.007183
 20
394.694579
 30
0.0
 40
0.476471
100
AcDbArc
 50
90.0
 51
180.0
  0
LINE
  5
2E8
330
6B
100
AcDbEntity
  8
0
 62
     3
100
AcDbLine
 10
1389.530713
 20
394.694579
 30
0.0
 11
1389.530713
 21
389.787181
 31
0.0
  0
LINE
  5
2E9
330
6B
100
AcDbEntity
  8
0
 62
     3
100
AcDbLine
 10
1400.336626
 20
405.9710499999998
 30
0.0
 11
1400.654273
 21
395.17105
 31
0.0
  0
LINE
  5
2EA
330
6B
100
AcDbEntity
  8
0
 62
     3
100
AcDbLine
 10
1390.807215
 20
405.9710499999998
 30
0.0
 11
1390.489568
 21
395.17105
 31
0.0
  0
ARC
  5
2EB
330
6B
100
AcDbEntity
  8
0
 62
     3
100
AcDbCircle
 10
1400.97192
 20
406.923991
 30
0.0
 40
0.952941
100
AcDbArc
 50
270.0
 51
90.0
  0
ARC
  5
2EC
330
6B
100
AcDbEntity
  8
0
 62
     3
100
AcDbCircle
 10
1390.17192
 20
406.923991
 30
0.0
 40
0.952941
100
AcDbArc
 50
90.0
 51
270.0
  0
LINE
  5
2ED
330
6B
100
AcDbEntity
  8
0
 62
     3
100
AcDbLine
 10
1384.771921
 20
381.602308
 30
0.0
 11
1384.771921
 21
371.029874
 31
0.0
  0
LINE
  5
2EE
330
6B
100
AcDbEntity
  8
0
 62
     3
100
AcDbLine
 10
1384.803685
 20
367.853404
 30
0.0
 11
1384.803685
 21
367.21811
 31
0.0
  0
LINE
  5
2EF
330
6B
100
AcDbEntity
  8
0
 62
     3
100
AcDbLine
 10
1406.403685
 20
367.879345
 30
0.0
 11
1406.403685
 21
367.21811
 31
0.0
  0
ARC
  5
2F0
330
6B
100
AcDbEntity
  8
0
 62
     3
100
AcDbCircle
 10
1390.007183
 20
381.3534029999999
 30
0.0
 40
5.241176
100
AcDbArc
 50
125.011039
 51
180.0
  0
ARC
  5
2F1
330
6B
100
AcDbEntity
  8
0
 62
     3
100
AcDbCircle
 10
1384.301364
 20
390.139087
 30
0.0
 40
5.241176
100
AcDbArc
 50
300.99199
 51
0.0
  0
LINE
  5
2F2
330
6B
100
AcDbEntity
  8
0
 62
     3
100
AcDbLine
 10
1426.691962
 20
397.749757
 30
0.0
 11
1423.515491
 21
397.749757
 31
0.0
  0
LINE
  5
2F3
330
6B
100
AcDbEntity
  8
0
 62
     3
100
AcDbLine
 10
1426.691962
 20
388.149326
 30
0.0
 11
1426.691962
 21
397.749757
 31
0.0
  0
LINE
  5
2F4
330
6B
100
AcDbEntity
  8
0
 62
     3
100
AcDbLine
 10
1423.515491
 20
388.149326
 30
0.0
 11
1423.515491
 21
397.749757
 31
0.0
  0
LINE
  5
2F5
330
6B
100
AcDbEntity
  8
0
 62
     3
100
AcDbLine
 10
1429.868432
 20
373.894542
 30
0.0
 11
1429.868432
 21
368.843875
 31
0.0
  0
LINE
  5
2F6
330
6B
100
AcDbEntity
  8
0
 62
     3
100
AcDbLine
 10
1420.339021
 20
373.894542
 30
0.0
 11
1420.339021
 21
368.843875
 31
0.0
  0
ARC
  5
2F7
330
6B
100
AcDbEntity
  8
0
 62
     3
100
AcDbCircle
 10
1429.233138
 20
373.894542
 30
0.0
 40
0.635294
100
AcDbArc
 50
0.0
 51
5.710593
  0
ARC
  5
2F8
330
6B
100
AcDbEntity
  8
0
 62
     3
100
AcDbCircle
 10
1420.974315
 20
373.894542
 30
0.0
 40
0.635294
100
AcDbArc
 50
174.289407
 51
180.0
  0
LINE
  5
2F9
330
6B
100
AcDbEntity
  8
0
 62
     3
100
AcDbLine
 10
1429.868432
 20
375.068785
 30
0.0
 11
1429.868432
 21
373.926228
 31
0.0
  0
LINE
  5
2FA
330
6B
100
AcDbEntity
  8
0
 62
     3
100
AcDbLine
 10
1420.339021
 20
375.068785
 30
0.0
 11
1420.339021
 21
373.894542
 31
0.0
  0
LINE
  5
2FB
330
6B
100
AcDbEntity
  8
0
 62
     3
100
AcDbLine
 10
1427.500279
 20
383.6897990000002
 30
0.0
 11
1429.060116
 21
379.5283120000001
 31
0.0
  0
LINE
  5
2FC
330
6B
100
AcDbEntity
  8
0
 62
     3
100
AcDbLine
 10
1422.707175
 20
383.6897990000002
 30
0.0
 11
1421.147338
 21
379.5283120000001
 31
0.0
  0
ARC
  5
2FD
330
6B
100
AcDbEntity
  8
0
 62
     3
100
AcDbCircle
 10
1417.16255
 20
375.068785
 30
0.0
 40
12.705882
100
AcDbArc
 50
0.0
 51
20.547347
  0
ARC
  5
2FE
330
6B
100
AcDbEntity
  8
0
 62
     3
100
AcDbCircle
 10
1433.044903
 20
375.068785
 30
0.0
 40
12.705882
100
AcDbArc
 50
159.452653
 51
180.0
  0
ARC
  5
30D
330
6B
100
AcDbEntity
  8
0
 62
     3
100
AcDbCircle
 10
1439.397844
 20
388.149326
 30
0.0
 40
12.705882
100
AcDbArc
 50
180.0
 51
200.547347
  0
ARC
  5
30E
330
6B
100
AcDbEntity
  8
0
 62
     3
100
AcDbCircle
 10
1410.809609
 20
388.149326
 30
0.0
 40
12.705882
100
AcDbArc
 50
339.452653
 51
0.0
  0
LINE
  5
30F
330
6B
100
AcDbEntity
  8
0
 62
     3
100
AcDbLine
 10
1429.233138
 20
367.573287
 30
0.0
 11
1420.974314
 21
367.573287
 31
0.0
  0
LINE
  5
310
330
6B
100
AcDbEntity
  8
0
100
AcDbLine
 10
1426.310785
 20
367.573287
 30
0.0
 11
1426.310785
 21
366.302699
 31
0.0
  0
LINE
  5
311
330
6B
100
AcDbEntity
  8
0
100
AcDbLine
 10
1423.896668
 20
367.573287
 30
0.0
 11
1423.896668
 21
366.302699
 31
0.0
  0
LINE
  5
312
330
6B
100
AcDbEntity
  8
0
100
AcDbLine
 10
1423.515491
 20
366.302699
 30
0.0
 11
1423.515491
 21
367.573287
 31
0.0
  0
LINE
  5
313
330
6B
100
AcDbEntity
  8
0
100
AcDbLine
 10
1426.691962
 20
366.302699
 30
0.0
 11
1426.691962
 21
367.573287
 31
0.0
  0
LINE
  5
314
330
6B
100
AcDbEntity
  8
0
100
AcDbLine
 10
1424.468433
 20
365.349758
 30
0.0
 11
1425.739021
 21
365.349758
 31
0.0
  0
LINE
  5
315
330
6B
100
AcDbEntity
  8
0
100
AcDbLine
 10
1424.468433
 20
365.730934
 30
0.0
 11
1425.739021
 21
365.730934
 31
0.0
  0
ARC
  5
316
330
6B
100
AcDbEntity
  8
0
100
AcDbCircle
 10
1425.739021
 20
366.302699
 30
0.0
 40
0.952941
100
AcDbArc
 50
270.0
 51
0.0
  0
ARC
  5
317
330
6B
100
AcDbEntity
  8
0
100
AcDbCircle
 10
1424.468433
 20
366.302699
 30
0.0
 40
0.952941
100
AcDbArc
 50
180.0
 51
270.0
  0
ARC
  5
318
330
6B
100
AcDbEntity
  8
0
100
AcDbCircle
 10
1425.739021
 20
366.302699
 30
0.0
 40
0.571765
100
AcDbArc
 50
270.0
 51
0.0
  0
ARC
  5
319
330
6B
100
AcDbEntity
  8
0
100
AcDbCircle
 10
1424.468433
 20
366.302699
 30
0.0
 40
0.571765
100
AcDbArc
 50
180.0
 51
270.0
  0
LINE
  5
34A
330
6B
100
AcDbEntity
  8
0
100
AcDbLine
 10
1396.201301
 20
403.74752
 30
0.0
 11
1396.201301
 21
405.0181089999998
 31
0.0
  0
LINE
  5
34B
330
6B
100
AcDbEntity
  8
0
100
AcDbLine
 10
1396.201301
 20
397.076932
 30
0.0
 11
1396.201301
 21
398.34752
 31
0.0
  0
LINE
  5
34C
330
6B
100
AcDbEntity
  8
0
100
AcDbLine
 10
1396.201301
 20
399.3004620000002
 30
0.0
 11
1396.201301
 21
400.57105
 31
0.0
  0
LINE
  5
34D
330
6B
100
AcDbEntity
  8
0
100
AcDbLine
 10
1396.201301
 20
401.523991
 30
0.0
 11
1396.201301
 21
402.794579
 31
0.0
  0
LINE
  5
34E
330
6B
100
AcDbEntity
  8
0
100
AcDbLine
 10
1395.57192
 20
405.9710499999998
 30
0.0
 11
1400.97192
 21
405.9710499999998
 31
0.0
  0
LINE
  5
34F
330
6B
100
AcDbEntity
  8
0
100
AcDbLine
 10
1396.201301
 20
397.076932
 30
0.0
 11
1400.598218
 21
397.076932
 31
0.0
  0
LINE
  5
350
330
6B
100
AcDbEntity
  8
0
100
AcDbLine
 10
1396.201301
 20
399.3004620000002
 30
0.0
 11
1400.53282
 21
399.3004620000002
 31
0.0
  0
LINE
  5
351
330
6B
100
AcDbEntity
  8
0
100
AcDbLine
 10
1396.201301
 20
401.523991
 30
0.0
 11
1400.467422
 21
401.523991
 31
0.0
  0
LINE
  5
352
330
6B
100
AcDbEntity
  8
0
100
AcDbLine
 10
1396.201301
 20
398.34752
 30
0.0
 11
1400.560848
 21
398.34752
 31
0.0
  0
LINE
  5
353
330
6B
100
AcDbEntity
  8
0
100
AcDbLine
 10
1396.201301
 20
400.57105
 30
0.0
 11
1400.49545
 21
400.57105
 31
0.0
  0
LINE
  5
354
330
6B
100
AcDbEntity
  8
0
100
AcDbLine
 10
1396.201301
 20
402.794579
 30
0.0
 11
1400.430052
 21
402.794579
 31
0.0
  0
LINE
  5
355
330
6B
100
AcDbEntity
  8
0
100
AcDbLine
 10
1396.201301
 20
403.74752
 30
0.0
 11
1400.402024
 21
403.74752
 31
0.0
  0
LINE
  5
356
330
6B
100
AcDbEntity
  8
0
100
AcDbLine
 10
1396.201301
 20
405.0181089999998
 30
0.0
 11
1400.364654
 21
405.0181089999998
 31
0.0
  0
LINE
  5
357
330
6B
100
AcDbEntity
  8
0
100
AcDbLine
 10
1394.930713
 20
397.076932
 30
0.0
 11
1394.930713
 21
398.34752
 31
0.0
  0
LINE
  5
358
330
6B
100
AcDbEntity
  8
0
100
AcDbLine
 10
1394.930713
 20
399.3004620000002
 30
0.0
 11
1394.930713
 21
400.57105
 31
0.0
  0
LINE
  5
359
330
6B
100
AcDbEntity
  8
0
100
AcDbLine
 10
1394.930713
 20
401.523991
 30
0.0
 11
1394.930713
 21
402.794579
 31
0.0
  0
LINE
  5
35A
330
6B
100
AcDbEntity
  8
0
100
AcDbLine
 10
1394.930713
 20
403.74752
 30
0.0
 11
1394.930713
 21
405.0181089999998
 31
0.0
  0
LINE
  5
35B
330
6B
100
AcDbEntity
  8
0
100
AcDbLine
 10
1395.57192
 20
405.9710499999998
 30
0.0
 11
1390.17192
 21
405.9710499999998
 31
0.0
  0
LINE
  5
35C
330
6B
100
AcDbEntity
  8
0
100
AcDbLine
 10
1390.545623
 20
397.076932
 30
0.0
 11
1394.930713
 21
397.076932
 31
0.0
  0
LINE
  5
35D
330
6B
100
AcDbEntity
  8
0
100
AcDbLine
 10
1390.611021
 20
399.3004620000002
 30
0.0
 11
1394.930713
 21
399.3004620000002
 31
0.0
  0
LINE
  5
35E
330
6B
100
AcDbEntity
  8
0
100
AcDbLine
 10
1390.676419
 20
401.523991
 30
0.0
 11
1394.930713
 21
401.523991
 31
0.0
  0
LINE
  5
35F
330
6B
100
AcDbEntity
  8
0
100
AcDbLine
 10
1390.582993
 20
398.34752
 30
0.0
 11
1394.930713
 21
398.34752
 31
0.0
  0
LINE
  5
360
330
6B
100
AcDbEntity
  8
0
100
AcDbLine
 10
1390.648391
 20
400.57105
 30
0.0
 11
1394.930713
 21
400.57105
 31
0.0
  0
LINE
  5
361
330
6B
100
AcDbEntity
  8
0
100
AcDbLine
 10
1390.713789
 20
402.794579
 30
0.0
 11
1394.930713
 21
402.794579
 31
0.0
  0
LINE
  5
362
330
6B
100
AcDbEntity
  8
0
100
AcDbLine
 10
1394.930713
 20
403.74752
 30
0.0
 11
1390.741817
 21
403.74752
 31
0.0
  0
LINE
  5
363
330
6B
100
AcDbEntity
  8
0
100
AcDbLine
 10
1394.930713
 20
405.0181089999998
 30
0.0
 11
1390.779187
 21
405.0181089999998
 31
0.0
  0
LINE
  5
364
330
6B
100
AcDbEntity
  8
0
100
AcDbLine
 10
1399.346007
 20
397.076932
 30
0.0
 11
1399.346007
 21
398.34752
 31
0.0
  0
LINE
  5
365
330
6B
100
AcDbEntity
  8
0
100
AcDbLine
 10
1399.346007
 20
399.3004620000002
 30
0.0
 11
1399.346007
 21
400.57105
 31
0.0
  0
LINE
  5
366
330
6B
100
AcDbEntity
  8
0
100
AcDbLine
 10
1399.346007
 20
401.523991
 30
0.0
 11
1399.346007
 21
402.794579
 31
0.0
  0
LINE
  5
367
330
6B
100
AcDbEntity
  8
0
100
AcDbLine
 10
1399.346007
 20
403.74752
 30
0.0
 11
1399.346007
 21
405.0181089999998
 31
0.0
  0
LINE
  5
368
330
6B
100
AcDbEntity
  8
0
100
AcDbLine
 10
1391.786007
 20
403.74752
 30
0.0
 11
1391.786007
 21
405.0181089999998
 31
0.0
  0
LINE
  5
369
330
6B
100
AcDbEntity
  8
0
100
AcDbLine
 10
1391.786007
 20
401.523991
 30
0.0
 11
1391.786007
 21
402.794579
 31
0.0
  0
LINE
  5
36A
330
6B
100
AcDbEntity
  8
0
100
AcDbLine
 10
1391.786007
 20
399.3004620000002
 30
0.0
 11
1391.786007
 21
400.57105
 31
0.0
  0
LINE
  5
36B
330
6B
100
AcDbEntity
  8
0
100
AcDbLine
 10
1391.786007
 20
397.076932
 30
0.0
 11
1391.786007
 21
398.34752
 31
0.0
  0
ARC
  5
36C
330
6B
100
AcDbEntity
  8
0
 62
     3
100
AcDbCircle
 10
1379.403685
 20
414.9981839999998
 30
0.0
 40
13.97647
100
AcDbArc
 50
0.0
 51
90.0
  0
ARC
  5
36D
330
6B
100
AcDbEntity
  8
0
 62
     3
100
AcDbCircle
 10
1379.403685
 20
414.9981839999998
 30
0.0
 40
18.359999
100
AcDbArc
 50
0.0
 51
90.0
  0
LINE
  5
36E
330
6B
100
AcDbEntity
  8
0
 62
     3
100
AcDbLine
 10
1393.380156
 20
414.9981839999998
 30
0.0
 11
1393.380156
 21
407.876932
 31
0.0
  0
LINE
  5
36F
330
6B
100
AcDbEntity
  8
0
 62
     3
100
AcDbLine
 10
1397.763685
 20
414.9981839999998
 30
0.0
 11
1397.763685
 21
407.876932
 31
0.0
  0
LINE
  5
370
330
6B
100
AcDbEntity
  8
0
100
AcDbLine
 10
1406.403685
 20
367.862173
 30
0.0
 11
1384.803685
 21
367.862173
 31
0.0
  0
LINE
  5
371
330
6B
100
AcDbEntity
  8
0
100
AcDbLine
 10
1406.510625
 20
370.990962
 30
0.0
 11
1384.633216
 21
370.990962
 31
0.0
  0
LINE
  5
372
330
6B
100
AcDbEntity
  8
0
 62
     3
100
AcDbLine
 10
1403.983654
 20
385.746245
 30
0.0
 11
1406.073853
 21
390.666114
 31
0.0
  0
LINE
  5
373
330
6B
100
AcDbEntity
  8
0
 62
     3
100
AcDbLine
 10
1401.601301
 20
392.447666
 30
0.0
 11
1406.073853
 21
390.666114
 31
0.0
  0
LINE
  5
374
330
6B
100
AcDbEntity
  8
0
100
AcDbLine
 10
1426.055139
 20
400.91136
 30
0.0
 11
1426.055139
 21
408.61561
 31
0.0
  0
LINE
  5
375
330
6B
100
AcDbEntity
  8
0
100
AcDbLine
 10
1426.055139
 20
399.586237
 30
0.0
 11
1426.055139
 21
397.749757
 31
0.0
  0
LINE
  5
376
330
6B
100
AcDbEntity
  8
0
100
AcDbLine
 10
1424.14907
 20
401.003408
 30
0.0
 11
1424.14907
 21
408.534845
 31
0.0
  0
LINE
  5
377
330
6B
100
AcDbEntity
  8
0
100
AcDbLine
 10
1424.149163
 20
401.003397
 30
0.0
 11
1424.149163
 21
412.3413329999998
 31
0.0
  0
LINE
  5
378
330
6B
100
AcDbEntity
  8
0
100
AcDbLine
 10
1426.055046
 20
400.9113549999998
 30
0.0
 11
1426.055046
 21
412.3413329999998
 31
0.0
  0
LINE
  5
379
330
6B
100
AcDbEntity
  8
0
100
AcDbLine
 10
1426.055046
 20
399.588625
 30
0.0
 11
1426.055046
 21
397.749757
 31
0.0
  0
LINE
  5
37A
330
6B
100
AcDbEntity
  8
0
100
AcDbLine
 10
1424.149163
 20
399.678289
 30
0.0
 11
1424.149163
 21
397.749757
 31
0.0
  0
ARC
  5
37B
330
6B
100
AcDbEntity
  8
0
100
AcDbCircle
 10
1416.363469
 20
412.3413329999998
 30
0.0
 40
9.691575999999999
100
AcDbArc
 50
0.0
 51
180.0
  0
ARC
  5
37C
330
6B
100
AcDbEntity
  8
0
100
AcDbCircle
 10
1416.363469
 20
412.3413329999998
 30
0.0
 40
7.785694
100
AcDbArc
 50
0.0
 51
180.0
  0
LINE
  5
37D
330
6B
100
AcDbEntity
  8
0
100
AcDbLine
 10
1406.671893
 20
400.432133
 30
0.0
 11
1406.671893
 21
412.3413329999998
 31
0.0
  0
LINE
  5
37E
330
6B
100
AcDbEntity
  8
0
100
AcDbLine
 10
1403.117986
 20
391.843525
 30
0.0
 11
1406.671893
 21
400.432133
 31
0.0
  0
LINE
  5
37F
330
6B
100
AcDbEntity
  8
0
100
AcDbLine
 10
1408.095059
 20
398.88682
 30
0.0
 11
1404.888727
 21
391.138185
 31
0.0
  0
LINE
  5
380
330
6B
100
AcDbEntity
  8
0
100
AcDbLine
 10
1408.577775
 20
401.315879
 30
0.0
 11
1408.577775
 21
412.3413329999998
 31
0.0
  0
ARC
  5
381
330
6B
100
AcDbEntity
  8
0
100
AcDbCircle
 10
1402.224834
 20
401.315879
 30
0.0
 40
6.352941
100
AcDbArc
 50
337.520566
 51
0.0
  0
ARC
  5
382
330
6B
100
AcDbEntity
  8
0
100
AcDbCircle
 10
1406.842477
 20
390.139087
 30
0.0
 40
5.241176
100
AcDbArc
 50
180.0
 51
236.944269
  0
LINE
  5
383
330
6B
100
AcDbEntity
  8
0
 62
     3
100
AcDbLine
 10
1406.403685
 20
367.21811
 30
0.0
 11
1384.803685
 21
367.21811
 31
0.0
  0
LINE
  5
384
330
6B
100
AcDbEntity
  8
0
 62
     3
100
AcDbLine
 10
1390.007183
 20
395.17105
 30
0.0
 11
1401.12483
 21
395.17105
 31
0.0
  0
LINE
  5
385
330
6B
100
AcDbEntity
  8
0
 62
     3
100
AcDbLine
 10
1391.750873
 20
355.099875
 30
0.0
 11
1391.750873
 21
367.21811
 31
0.0
  0
LINE
  5
386
330
6B
100
AcDbEntity
  8
0
 62
     3
100
AcDbLine
 10
1388.796755
 20
355.099875
 30
0.0
 11
1388.796755
 21
367.21811
 31
0.0
  0
ARC
  5
387
330
6B
100
AcDbEntity
  8
0
 62
     3
100
AcDbCircle
 10
1390.273814
 20
355.099875
 30
0.0
 40
1.477059
100
AcDbArc
 50
180.0
 51
0.0
  0
LINE
  5
388
330
6B
100
AcDbEntity
  8
0
 62
     3
100
AcDbLine
 10
1399.574273
 20
367.21811
 30
0.0
 11
1399.574273
 21
357.371051
 31
0.0
  0
ARC
  5
389
330
6B
100
AcDbEntity
  8
0
 62
     3
100
AcDbCircle
 10
1397.573097
 20
358.995816
 30
0.0
 40
2.577706
100
AcDbArc
 50
270.0
 51
320.92669
  0
CIRCLE
  5
38A
330
6B
100
AcDbEntity
  8
0
100
AcDbCircle
 10
1397.573097
 20
359.785169
 30
0.0
 40
0.952941
  0
LINE
  5
38B
330
6B
100
AcDbEntity
  8
0
 62
     3
100
AcDbLine
 10
1395.57192
 20
367.21811
 30
0.0
 11
1395.57192
 21
357.371051
 31
0.0
  0
ARC
  5
38C
330
6B
100
AcDbEntity
  8
0
 62
     3
100
AcDbCircle
 10
1397.573097
 20
358.995816
 30
0.0
 40
2.577706
100
AcDbArc
 50
219.07331
 51
270.0
  0
LINE
  5
38D
330
6B
100
AcDbEntity
  8
0
100
AcDbLine
 10
1397.573097
 20
357.371051
 30
0.0
 11
1395.57192
 21
357.371051
 31
0.0
  0
LINE
  5
38E
330
6B
100
AcDbEntity
  8
0
100
AcDbLine
 10
1397.573097
 20
357.371051
 30
0.0
 11
1399.574273
 21
357.371051
 31
0.0
  0
LINE
  5
38F
330
6B
100
AcDbEntity
  8
0
100
AcDbLine
 10
1366.367328
 20
426.084066
 30
0.0
 11
1366.367328
 21
436.2487719999998
 31
0.0
  0
LINE
  5
390
330
6B
100
AcDbEntity
  8
0
100
AcDbLine
 10
1365.09674
 20
426.084066
 30
0.0
 11
1366.367328
 21
426.084066
 31
0.0
  0
LINE
  5
391
330
6B
100
AcDbEntity
  8
0
100
AcDbLine
 10
1366.367328
 20
436.2487719999998
 30
0.0
 11
1365.09674
 21
436.2487719999998
 31
0.0
  0
LINE
  5
392
330
6B
100
AcDbEntity
  8
0
 62
     3
100
AcDbLine
 10
1375.625766
 20
433.3581839999998
 30
0.0
 11
1379.403685
 21
433.3581839999998
 31
0.0
  0
LINE
  5
393
330
6B
100
AcDbEntity
  8
0
 62
     3
100
AcDbLine
 10
1372.602701
 20
433.3581839999998
 30
0.0
 11
1366.367328
 21
433.3581839999998
 31
0.0
  0
LINE
  5
394
330
6B
100
AcDbEntity
  8
0
 62
     3
100
AcDbLine
 10
1376.508328
 20
428.974654
 30
0.0
 11
1379.403685
 21
428.974654
 31
0.0
  0
LINE
  5
395
330
6B
100
AcDbEntity
  8
0
 62
     3
100
AcDbLine
 10
1373.614021
 20
428.974654
 30
0.0
 11
1366.367328
 21
428.974654
 31
0.0
  0
TEXT
  5
3A8
330
6B
100
AcDbEntity
  8
0
 62
     3
100
AcDbText
 10
1386.623373
 20
511.3743699999998
 30
0.0
 40
3.2
  1
電　流
  7
高3.2
100
AcDbText
  0
TEXT
  5
3A9
330
6B
100
AcDbEntity
  8
0
 62
     3
100
AcDbText
 10
1386.623373
 20
505.83037
 30
0.0
 40
3.2
  1
入力電圧
  7
高3.2
100
AcDbText
  0
TEXT
  5
3AA
330
6B
100
AcDbEntity
  8
0
 62
     3
100
AcDbText
 10
1386.623373
 20
500.394895
 30
0.0
 40
3.2
  1
出力電圧
  7
高3.2
100
AcDbText
  0
TEXT
  5
3AB
330
6B
100
AcDbEntity
  8
0
 62
     3
100
AcDbText
 10
1414.390061
 20
506.1033659999998
 30
0.0
 40
3.2
  1
100V
  7
高3.2
100
AcDbText
  0
TEXT
  5
3AC
330
6B
100
AcDbEntity
  8
0
 62
     3
100
AcDbText
 10
1403.390061
 20
500.559366
 30
0.0
 40
3.2
  1
100V
  7
高3.2
100
AcDbText
  0
TEXT
  5
3AD
330
6B
100
AcDbEntity
  8
0
 62
     3
100
AcDbText
 10
1386.623373
 20
461.47837
 30
0.0
 40
3.2
  1
絶縁種類
  7
高3.2
100
AcDbText
  0
TEXT
  5
3AE
330
6B
100
AcDbEntity
  8
0
 62
     3
100
AcDbText
 10
1386.623373
 20
455.93437
 30
0.0
 40
3.2
  1
質　量
  7
高3.2
100
AcDbText
  0
LINE
  5
3AF
330
6B
100
AcDbEntity
  8
0
 62
     3
100
AcDbLine
 10
1401.810906
 20
527.2143699999998
 30
0.0
 11
1401.810906
 21
455.1423699999999
 31
0.0
  0
LINE
  5
3B0
330
6B
100
AcDbEntity
  8
0
 62
     3
100
AcDbLine
 10
1442.451883
 20
527.2143699999998
 30
0.0
 11
1442.451883
 21
455.1423699999999
 31
0.0
  0
LINE
  5
3B1
330
6B
100
AcDbEntity
  8
0
 62
     3
100
AcDbLine
 10
1385.039373
 20
527.2143699999998
 30
0.0
 11
1385.039373
 21
455.1423699999999
 31
0.0
  0
TEXT
  5
3B2
330
6B
100
AcDbEntity
  8
0
 62
     3
100
AcDbText
 10
1408.821059
 20
522.476382
 30
0.0
 40
3.2
  1
AG-1000N
  7
高3.2
100
AcDbText
  0
TEXT
  5
3B3
330
6B
100
AcDbEntity
  8
0
 62
     3
100
AcDbText
 10
1411.249984
 20
516.754612
 30
0.0
 40
3.2
  1
1.0KVA
  7
高3.2
100
AcDbText
  0
TEXT
  5
3B4
330
6B
100
AcDbEntity
  8
0
 62
     3
100
AcDbText
 10
1415.821059
 20
511.388382
 30
0.0
 40
3.2
  1
10A
  7
高3.2
100
AcDbText
  0
TEXT
  5
3B5
330
6B
100
AcDbEntity
  8
0
 62
     3
100
AcDbText
 10
1420.249984
 20
461.314612
 30
0.0
 40
3.2
  1
-
  7
高3.2
100
AcDbText
  0
TEXT
  5
3B6
330
6B
100
AcDbEntity
  8
0
 62
     3
100
AcDbText
 10
1411.593102
 20
455.985715
 30
0.0
 40
3.2
  1
約9.0kg
  7
高3.2
100
AcDbText
  0
TEXT
  5
3B7
330
6B
100
AcDbEntity
  8
0
 62
     3
100
AcDbText
 10
1403.390061
 20
495.015366
 30
0.0
 40
3.2
  1
110～117V
  7
高3.2
100
AcDbText
  0
TEXT
  5
3B8
330
6B
100
AcDbEntity
  8
0
 62
     3
100
AcDbText
 10
1403.390061
 20
489.4713659999998
 30
0.0
 40
3.2
  1
120～127V
  7
高3.2
100
AcDbText
  0
TEXT
  5
3B9
330
6B
100
AcDbEntity
  8
0
 62
     3
100
AcDbText
 10
1403.390061
 20
483.9273659999998
 30
0.0
 40
3.2
  1
200～220V
  7
高3.2
100
AcDbText
  0
TEXT
  5
3BA
330
6B
100
AcDbEntity
  8
0
 62
     3
100
AcDbText
 10
1403.390061
 20
478.3833659999998
 30
0.0
 40
3.2
  1
220～230V
  7
高3.2
100
AcDbText
  0
TEXT
  5
3BB
330
6B
100
AcDbEntity
  8
0
 62
     3
100
AcDbText
 10
1403.390061
 20
472.839366
 30
0.0
 40
3.2
  1
240V
  7
高3.2
100
AcDbText
  0
TEXT
  5
3BC
330
6B
100
AcDbEntity
  8
0
 62
     3
100
AcDbText
 10
1403.390061
 20
467.295366
 30
0.0
 40
3.2
  1
240V
  7
高3.2
100
AcDbText
  0
TEXT
  5
3BD
330
6B
100
AcDbEntity
  8
0
 62
     3
100
AcDbText
 10
1432.031038
 20
500.559366
 30
0.0
 40
3.2
  1
A型
  7
高3.2
100
AcDbText
  0
TEXT
  5
3BE
330
6B
100
AcDbEntity
  8
0
 62
     3
100
AcDbText
 10
1432.031038
 20
495.015366
 30
0.0
 40
3.2
  1
A型
  7
高3.2
100
AcDbText
  0
TEXT
  5
3BF
330
6B
100
AcDbEntity
  8
0
 62
     3
100
AcDbText
 10
1432.031038
 20
489.4713659999998
 30
0.0
 40
3.2
  1
A型
  7
高3.2
100
AcDbText
  0
TEXT
  5
3C0
330
6B
100
AcDbEntity
  8
0
 62
     3
100
AcDbText
 10
1432.031038
 20
483.9273659999998
 30
0.0
 40
3.2
  1
C2型
  7
高3.2
100
AcDbText
  0
TEXT
  5
3C1
330
6B
100
AcDbEntity
  8
0
 62
     3
100
AcDbText
 10
1432.031038
 20
478.3833659999998
 30
0.0
 40
3.2
  1
SE型
  7
高3.2
100
AcDbText
  0
TEXT
  5
3C2
330
6B
100
AcDbEntity
  8
0
 62
     3
100
AcDbText
 10
1432.031038
 20
472.839366
 30
0.0
 40
3.2
  1
BF型
  7
高3.2
100
AcDbText
  0
TEXT
  5
3C3
330
6B
100
AcDbEntity
  8
0
 62
     3
100
AcDbText
 10
1432.031038
 20
467.295366
 30
0.0
 40
3.2
  1
BF型
  7
高3.2
100
AcDbText
  0
LINE
  5
3C4
330
6B
100
AcDbEntity
  8
0
 62
     3
100
AcDbLine
 10
1385.039373
 20
527.2143699999998
 30
0.0
 11
1442.451883
 21
527.2143699999998
 31
0.0
  0
LINE
  5
3C5
330
6B
100
AcDbEntity
  8
0
100
AcDbLine
 10
1385.039373
 20
516.1263700000001
 30
0.0
 11
1442.451883
 21
516.1263700000001
 31
0.0
  0
LINE
  5
3C6
330
6B
100
AcDbEntity
  8
0
100
AcDbLine
 10
1385.039373
 20
510.58237
 30
0.0
 11
1442.451883
 21
510.58237
 31
0.0
  0
LINE
  5
3C7
330
6B
100
AcDbEntity
  8
0
100
AcDbLine
 10
1385.039373
 20
505.03837
 30
0.0
 11
1442.451883
 21
505.03837
 31
0.0
  0
LINE
  5
3C8
330
6B
100
AcDbEntity
  8
0
100
AcDbLine
 10
1385.039373
 20
521.67037
 30
0.0
 11
1442.451883
 21
521.67037
 31
0.0
  0
LINE
  5
3C9
330
6B
100
AcDbEntity
  8
0
100
AcDbLine
 10
1385.039373
 20
460.6863699999998
 30
0.0
 11
1442.451883
 21
460.6863699999998
 31
0.0
  0
LINE
  5
3CA
330
6B
100
AcDbEntity
  8
0
 62
     3
100
AcDbLine
 10
1385.039373
 20
455.1423699999999
 30
0.0
 11
1442.451883
 21
455.1423699999999
 31
0.0
  0
LINE
  5
3CB
330
6B
100
AcDbEntity
  8
0
100
AcDbLine
 10
1385.039373
 20
466.2303699999998
 30
0.0
 11
1442.451883
 21
466.2303699999998
 31
0.0
  0
LINE
  5
3CC
330
6B
100
AcDbEntity
  8
0
100
AcDbLine
 10
1430.451883
 20
505.03837
 30
0.0
 11
1430.451883
 21
466.2303699999998
 31
0.0
  0
LINE
  5
3CD
330
6B
100
AcDbEntity
  8
0
100
AcDbLine
 10
1401.810906
 20
493.95037
 30
0.0
 11
1442.451883
 21
493.95037
 31
0.0
  0
LINE
  5
3CE
330
6B
100
AcDbEntity
  8
0
100
AcDbLine
 10
1401.810906
 20
499.49437
 30
0.0
 11
1442.451883
 21
499.49437
 31
0.0
  0
LINE
  5
3CF
330
6B
100
AcDbEntity
  8
0
100
AcDbLine
 10
1401.810906
 20
488.40637
 30
0.0
 11
1442.451883
 21
488.40637
 31
0.0
  0
LINE
  5
3D0
330
6B
100
AcDbEntity
  8
0
100
AcDbLine
 10
1401.810906
 20
482.86237
 30
0.0
 11
1442.451883
 21
482.86237
 31
0.0
  0
LINE
  5
3D1
330
6B
100
AcDbEntity
  8
0
100
AcDbLine
 10
1401.810906
 20
477.31837
 30
0.0
 11
1442.451883
 21
477.31837
 31
0.0
  0
LINE
  5
3D2
330
6B
100
AcDbEntity
  8
0
100
AcDbLine
 10
1401.810906
 20
471.77437
 30
0.0
 11
1442.451883
 21
471.77437
 31
0.0
  0
TEXT
  5
3D3
330
6B
100
AcDbEntity
  8
0
 62
     3
100
AcDbText
 10
1074.57128578125
 20
314.74490334375
 30
0.0
 40
3.2
  1
電源ランプ
 41
0.8
  7
高3.2
100
AcDbText
  0
TEXT
  5
3D4
330
6B
100
AcDbEntity
  8
0
 62
     3
100
AcDbText
 10
1115.89007640625
 20
319.27241975
 30
0.0
 40
3.2
  1
VCTF
 41
0.8
  7
高3.2
100
AcDbText
  0
TEXT
  5
3D5
330
6B
100
AcDbEntity
  8
0
 62
     3
100
AcDbText
 10
1116.11080765625
 20
329.7226439687499
 30
0.0
 40
3.2
  1
-
 41
0.8
  7
高3.2
100
AcDbText
  0
TEXT
  5
3D6
330
6B
100
AcDbEntity
  8
0
 62
     3
100
AcDbText
 10
1074.48382640625
 20
329.2724197500001
 30
0.0
 40
3.2
  1
コンセント
 41
0.8
  7
高3.2
100
AcDbText
  0
TEXT
  5
3D7
330
6B
100
AcDbEntity
  8
0
 62
     3
100
AcDbText
 10
1116.11080765625
 20
339.72264396875
 30
0.0
 40
3.2
  1
-
 41
0.8
  7
高3.2
100
AcDbText
  0
TEXT
  5
3D8
330
6B
100
AcDbEntity
  8
0
 62
     3
100
AcDbText
 10
1116.11080765625
 20
344.72264396875
 30
0.0
 40
3.2
  1
-
 41
0.8
  7
高3.2
100
AcDbText
  0
TEXT
  5
3D9
330
6B
100
AcDbEntity
  8
0
 62
     3
100
AcDbText
 10
1074.48382640625
 20
339.27241975
 30
0.0
 40
3.2
  1
コンセント
 41
0.8
  7
高3.2
100
AcDbText
  0
TEXT
  5
3DA
330
6B
100
AcDbEntity
  8
0
 62
     3
100
AcDbText
 10
1074.48382640625
 20
344.27241975
 30
0.0
 40
3.2
  1
コンセント
 41
0.8
  7
高3.2
100
AcDbText
  0
TEXT
  5
3DB
330
6B
100
AcDbEntity
  8
0
 62
     3
100
AcDbText
 10
1136.38068890625
 20
359.462697875
 30
0.0
 40
3.2
  1
-
 41
0.8
  7
高3.2
100
AcDbText
  0
TEXT
  5
3DC
330
6B
100
AcDbEntity
  8
0
 62
     3
100
AcDbText
 10
1116.11080765625
 20
354.7226439687498
 30
0.0
 40
3.2
  1
-
 41
0.8
  7
高3.2
100
AcDbText
  0
TEXT
  5
3DD
330
6B
100
AcDbEntity
  8
0
 62
     3
100
AcDbText
 10
1115.97753578125
 20
359.74490334375
 30
0.0
 40
3.2
  1
合成ゴム
 41
0.8
  7
高3.2
100
AcDbText
  0
TEXT
  5
3DE
330
6B
100
AcDbEntity
  8
0
 62
     3
100
AcDbText
 10
1116.11080765625
 20
349.72264396875
 30
0.0
 40
3.2
  1
-
 41
0.8
  7
高3.2
100
AcDbText
  0
TEXT
  5
3DF
330
6B
100
AcDbEntity
  8
0
 62
     3
100
AcDbText
 10
1106.3376865625
 20
359.51377209375
 30
0.0
 40
3.2
  1
4
 41
0.8
  7
高3.2
100
AcDbText
  0
TEXT
  5
3E0
330
6B
100
AcDbEntity
  8
0
 62
     3
100
AcDbText
 10
1074.48382640625
 20
354.2724197500001
 30
0.0
 40
3.2
  1
コンセント
 41
0.8
  7
高3.2
100
AcDbText
  0
TEXT
  5
3E1
330
6B
100
AcDbEntity
  8
0
 62
     3
100
AcDbText
 10
1074.66193890625
 20
359.462697875
 30
0.0
 40
3.2
  1
ゴム脚
 41
0.8
  7
高3.2
100
AcDbText
  0
TEXT
  5
3E2
330
6B
100
AcDbEntity
  8
0
 62
     3
100
AcDbText
 10
1074.48382640625
 20
349.27241975
 30
0.0
 40
3.2
  1
コンセント
 41
0.8
  7
高3.2
100
AcDbText
  0
TEXT
  5
3E3
330
6B
100
AcDbEntity
  8
0
 62
     3
100
AcDbText
 10
1074.48382640625
 20
334.27241975
 30
0.0
 40
3.2
  1
コンセント
 41
0.8
  7
高3.2
100
AcDbText
  0
TEXT
  5
3E4
330
6B
100
AcDbEntity
  8
0
 62
     3
100
AcDbText
 10
1116.11080765625
 20
334.72264396875
 30
0.0
 40
3.2
  1
-
 41
0.8
  7
高3.2
100
AcDbText
  0
TEXT
  5
3E5
330
6B
100
AcDbEntity
  8
0
 62
     3
100
AcDbText
 10
1068.5095615625
 20
334.87314709375
 30
0.0
 40
3.2
  1
7
 41
0.8
  7
高3.2
100
AcDbText
  0
TEXT
  5
3E6
330
6B
100
AcDbEntity
  8
0
 62
     3
100
AcDbText
 10
1068.5095615625
 20
339.79502209375
 30
0.0
 40
3.2
  1
8
 41
0.8
  7
高3.2
100
AcDbText
  0
TEXT
  5
3E7
330
6B
100
AcDbEntity
  8
0
 62
     3
100
AcDbText
 10
1068.5095615625
 20
344.87314709375
 30
0.0
 40
3.2
  1
9
 41
0.8
  7
高3.2
100
AcDbText
  0
TEXT
  5
3E8
330
6B
100
AcDbEntity
  8
0
 62
     3
100
AcDbText
 10
1066.7517490625
 20
349.87314709375
 30
0.0
 40
3.2
  1
10
 41
0.8
  7
高3.2
100
AcDbText
  0
TEXT
  5
3E9
330
6B
100
AcDbEntity
  8
0
 62
     3
100
AcDbText
 10
1066.7517490625
 20
354.79502209375
 30
0.0
 40
3.2
  1
11
 41
0.8
  7
高3.2
100
AcDbText
  0
TEXT
  5
3EA
330
6B
100
AcDbEntity
  8
0
 62
     3
100
AcDbText
 10
1066.7517490625
 20
359.87314709375
 30
0.0
 40
3.2
  1
12
 41
0.8
  7
高3.2
100
AcDbText
  0
TEXT
  5
3EB
330
6B
100
AcDbEntity
  8
0
 62
     3
100
AcDbText
 10
1106.3376865625
 20
324.51377209375
 30
0.0
 40
3.2
  1
1
 41
0.8
  7
高3.2
100
AcDbText
  0
TEXT
  5
3EC
330
6B
100
AcDbEntity
  8
0
 62
     3
100
AcDbText
 10
1106.3376865625
 20
329.51377209375
 30
0.0
 40
3.2
  1
1
 41
0.8
  7
高3.2
100
AcDbText
  0
TEXT
  5
3ED
330
6B
100
AcDbEntity
  8
0
 62
     3
100
AcDbText
 10
1106.3376865625
 20
334.51377209375
 30
0.0
 40
3.2
  1
1
 41
0.8
  7
高3.2
100
AcDbText
  0
TEXT
  5
3EE
330
6B
100
AcDbEntity
  8
0
 62
     3
100
AcDbText
 10
1106.3376865625
 20
339.51377209375
 30
0.0
 40
3.2
  1
1
 41
0.8
  7
高3.2
100
AcDbText
  0
TEXT
  5
3EF
330
6B
100
AcDbEntity
  8
0
 62
     3
100
AcDbText
 10
1106.3376865625
 20
344.51377209375
 30
0.0
 40
3.2
  1
1
 41
0.8
  7
高3.2
100
AcDbText
  0
TEXT
  5
3F0
330
6B
100
AcDbEntity
  8
0
 62
     3
100
AcDbText
 10
1106.3376865625
 20
349.51377209375
 30
0.0
 40
3.2
  1
1
 41
0.8
  7
高3.2
100
AcDbText
  0
TEXT
  5
3F1
330
6B
100
AcDbEntity
  8
0
 62
     3
100
AcDbText
 10
1106.3376865625
 20
354.51377209375
 30
0.0
 40
3.2
  1
1
 41
0.8
  7
高3.2
100
AcDbText
  0
LINE
  5
3F2
330
6B
100
AcDbEntity
  8
0
100
AcDbLine
 10
1073.5876865625
 20
299.01377209375
 30
0.0
 11
1073.5876865625
 21
364.01377209375
 31
0.0
  0
LINE
  5
3F3
330
6B
100
AcDbEntity
  8
0
 62
     3
100
AcDbLine
 10
1165.944109330935
 20
299.01377209375
 30
0.0
 11
1165.944109330935
 21
364.01377209375
 31
0.0
  0
LINE
  5
3F4
330
6B
100
AcDbEntity
  8
0
100
AcDbLine
 10
1114.9939365625
 20
299.01377209375
 30
0.0
 11
1114.9939365625
 21
364.01377209375
 31
0.0
  0
LINE
  5
3F5
330
6B
100
AcDbEntity
  8
0
100
AcDbLine
 10
1104.8376865625
 20
299.01377209375
 30
0.0
 11
1104.8376865625
 21
364.01377209375
 31
0.0
  0
LINE
  5
3F6
330
6B
100
AcDbEntity
  8
0
100
AcDbLine
 10
1135.3064365625
 20
299.01377209375
 30
0.0
 11
1135.3064365625
 21
364.01377209375
 31
0.0
  0
TEXT
  5
3F7
330
6B
100
AcDbEntity
  8
0
 62
     3
100
AcDbText
 10
1136.29003578125
 20
324.74490334375
 30
0.0
 40
3.2
  1
AC100V
 41
0.8
  7
高3.2
100
AcDbText
  0
TEXT
  5
3F8
330
6B
100
AcDbEntity
  8
0
 62
     3
100
AcDbText
 10
1136.29003578125
 20
329.74490334375
 30
0.0
 40
3.2
  1
AC110～117V
 41
0.8
  7
高3.2
100
AcDbText
  0
TEXT
  5
3F9
330
6B
100
AcDbEntity
  8
0
 62
     3
100
AcDbText
 10
1136.29003578125
 20
334.74490334375
 30
0.0
 40
3.2
  1
AC120～127V
 41
0.8
  7
高3.2
100
AcDbText
  0
TEXT
  5
3FA
330
6B
100
AcDbEntity
  8
0
 62
     3
100
AcDbText
 10
1136.29003578125
 20
339.74490334375
 30
0.0
 40
3.2
  1
AC200～220V
 41
0.8
  7
高3.2
100
AcDbText
  0
TEXT
  5
3FB
330
6B
100
AcDbEntity
  8
0
 62
     3
100
AcDbText
 10
1136.29003578125
 20
344.74490334375
 30
0.0
 40
3.2
  1
AC220～230V
 41
0.8
  7
高3.2
100
AcDbText
  0
TEXT
  5
3FC
330
6B
100
AcDbEntity
  8
0
 62
     3
100
AcDbText
 10
1136.29003578125
 20
349.74490334375
 30
0.0
 40
3.2
  1
AC240V
 41
0.8
  7
高3.2
100
AcDbText
  0
TEXT
  5
3FD
330
6B
100
AcDbEntity
  8
0
 62
     3
100
AcDbText
 10
1136.29003578125
 20
354.74490334375
 30
0.0
 40
3.2
  1
AC240V
 41
0.8
  7
高3.2
100
AcDbText
  0
LINE
  5
403
330
6B
100
AcDbEntity
  8
0
100
AcDbLine
 10
1393.73731
 20
426.471492
 30
0.0
 11
1401.979006
 21
433.068533
 31
0.0
  0
CIRCLE
  5
404
330
6B
100
AcDbEntity
  8
0
100
AcDbCircle
 10
1405.882499
 20
436.193072
 30
0.0
 40
5.0
  0
TEXT
  5
405
330
6B
100
AcDbEntity
  8
0
 62
     4
100
AcDbText
 10
1403.632012076015
 20
432.9518362712475
 30
0.0
 40
6.299999999999998
  1
4
  7
高6.3
100
AcDbText
  0
LINE
  5
40B
330
6B
100
AcDbEntity
  8
0
100
AcDbLine
 10
1187.326997
 20
482.9002159999998
 30
0.0
 11
1204.125527
 21
537.19317
 31
0.0
  0
CIRCLE
  5
40C
330
6B
100
AcDbEntity
  8
0
100
AcDbCircle
 10
1205.603429
 20
541.9697599999998
 30
0.0
 40
5.0
  0
TEXT
  5
40D
330
6B
100
AcDbEntity
  8
0
 62
     4
100
AcDbText
 10
1203.352942076015
 20
538.7285242712473
 30
0.0
 40
6.299999999999998
  1
8
  7
高6.3
100
AcDbText
  0
LINE
  5
413
330
6B
100
AcDbEntity
  8
0
100
AcDbLine
 10
1165.640221
 20
482.9612799999998
 30
0.0
 11
1184.183048
 21
537.238256
 31
0.0
  0
CIRCLE
  5
414
330
6B
100
AcDbEntity
  8
0
100
AcDbCircle
 10
1185.799487
 20
541.9697599999998
 30
0.0
 40
5.0
  0
TEXT
  5
415
330
6B
100
AcDbEntity
  8
0
 62
     4
100
AcDbText
 10
1183.549000076015
 20
538.7285242712473
 30
0.0
 40
6.299999999999998
  1
7
  7
高6.3
100
AcDbText
  0
LINE
  5
41B
330
6B
100
AcDbEntity
  8
0
100
AcDbLine
 10
1144.991943
 20
482.655832
 30
0.0
 11
1146.23311
 21
536.971065
 31
0.0
  0
CIRCLE
  5
41C
330
6B
100
AcDbEntity
  8
0
100
AcDbCircle
 10
1146.347336
 20
541.9697599999998
 30
0.0
 40
5.0
  0
TEXT
  5
41D
330
6B
100
AcDbEntity
  8
0
 62
     4
100
AcDbText
 10
1144.096849076015
 20
538.7285242712473
 30
0.0
 40
6.299999999999998
  1
6
  7
高6.3
100
AcDbText
  0
LINE
  5
423
330
6B
100
AcDbEntity
  8
0
100
AcDbLine
 10
1123.793844
 20
482.716934
 30
0.0
 11
1126.82363
 21
536.977536
 31
0.0
  0
CIRCLE
  5
424
330
6B
100
AcDbEntity
  8
0
100
AcDbCircle
 10
1127.102384
 20
541.9697599999998
 30
0.0
 40
5.0
  0
TEXT
  5
425
330
6B
100
AcDbEntity
  8
0
 62
     4
100
AcDbText
 10
1124.851897076015
 20
538.7285242712473
 30
0.0
 40
6.299999999999998
  1
5
  7
高6.3
100
AcDbText
  0
LINE
  5
42B
330
6B
100
AcDbEntity
  8
0
100
AcDbLine
 10
1113.48766
 20
504.2151249999998
 30
0.0
 11
1109.851908
 21
537.0002239999998
 31
0.0
  0
CIRCLE
  5
42C
330
6B
100
AcDbEntity
  8
0
100
AcDbCircle
 10
1109.300803
 20
541.9697599999998
 30
0.0
 40
5.0
  0
TEXT
  5
42D
330
6B
100
AcDbEntity
  8
0
 62
     4
100
AcDbText
 10
1107.050316076015
 20
538.7285242712473
 30
0.0
 40
6.299999999999998
  1
3
  7
高6.3
100
AcDbText
  0
LINE
  5
433
330
6B
100
AcDbEntity
  8
0
100
AcDbLine
 10
1107.647925
 20
510.260537
 30
0.0
 11
1092.481519999999
 21
537.5975599999998
 31
0.0
  0
CIRCLE
  5
434
330
6B
100
AcDbEntity
  8
0
100
AcDbCircle
 10
1090.055852
 20
541.9697599999998
 30
0.0
 40
5.0
  0
TEXT
  5
435
330
6B
100
AcDbEntity
  8
0
 62
     4
100
AcDbText
 10
1088.840348973457
 20
538.9266195138299
 30
0.0
 40
6.299999999999998
  1
1
  7
高6.3
100
AcDbText
  0
LINE
  5
43B
330
6B
100
AcDbEntity
  8
0
100
AcDbLine
 10
1308.09674
 20
525.260537
 30
0.0
 11
1314.005754
 21
537.4691939999999
 31
0.0
  0
CIRCLE
  5
43C
330
6B
100
AcDbEntity
  8
0
100
AcDbCircle
 10
1316.184036
 20
541.9697599999998
 30
0.0
 40
5.0
  0
TEXT
  5
43D
330
6B
100
AcDbEntity
  8
0
 62
     4
100
AcDbText
 10
1313.933549076015
 20
538.7285242712473
 30
0.0
 40
6.299999999999998
  1
2
  7
高6.3
100
AcDbText
  0
LINE
  5
443
330
6B
100
AcDbEntity
  8
0
100
AcDbLine
 10
1188.793256
 20
426.331209
 30
0.0
 11
1195.140477
 21
409.06142
 31
0.0
  0
CIRCLE
  5
444
330
6B
100
AcDbEntity
  8
0
100
AcDbCircle
 10
1196.865334
 20
404.3683539999998
 30
0.0
 40
5.0
  0
TEXT
  5
445
330
6B
100
AcDbEntity
  8
0
 62
     4
100
AcDbText
 10
1194.153469003377
 20
402.2389741866859
 30
0.0
 40
4.5
  1
11
  7
高4.5
100
AcDbText
  0
LINE
  5
44B
330
6B
100
AcDbEntity
  8
0
100
AcDbLine
 10
1154.827395
 20
427.7973839999998
 30
0.0
 11
1166.795094
 21
408.610725
 31
0.0
  0
CIRCLE
  5
44C
330
6B
100
AcDbEntity
  8
0
100
AcDbCircle
 10
1169.441278
 20
404.3683539999998
 30
0.0
 40
5.0
  0
TEXT
  5
44D
330
6B
100
AcDbEntity
  8
0
 62
     4
100
AcDbText
 10
1166.729413003377
 20
402.2389741866859
 30
0.0
 40
4.5
  1
10
  7
高4.5
100
AcDbText
  0
LINE
  5
453
330
6B
100
AcDbEntity
  8
0
100
AcDbLine
 10
1125.993057
 20
429.874445
 30
0.0
 11
1138.512562
 21
408.673716
 31
0.0
  0
CIRCLE
  5
454
330
6B
100
AcDbEntity
  8
0
100
AcDbCircle
 10
1141.054974
 20
404.3683539999998
 30
0.0
 40
5.0
  0
TEXT
  5
455
330
6B
100
AcDbEntity
  8
0
 62
     4
100
AcDbText
 10
1138.804487076015
 20
401.1271182712475
 30
0.0
 40
6.299999999999998
  1
9
  7
高6.3
100
AcDbText
  0
LINE
  5
45B
330
6B
100
AcDbEntity
  8
0
100
AcDbLine
 10
1122.647925
 20
415.4605369999998
 30
0.0
 11
1117.531093
 21
408.414164
 31
0.0
  0
CIRCLE
  5
45C
330
6B
100
AcDbEntity
  8
0
100
AcDbCircle
 10
1114.593165
 20
404.3683539999998
 30
0.0
 40
5.0
  0
TEXT
  5
45D
330
6B
100
AcDbEntity
  8
0
 62
     4
100
AcDbText
 10
1111.881300003377
 20
402.2389741866859
 30
0.0
 40
4.5
  1
12
  7
高4.5
100
AcDbText
  0
TEXT
  5
45E
330
6B
100
AcDbEntity
  8
0
 62
     3
100
AcDbText
 10
1136.29003578125
 20
319.74490334375
 30
0.0
 40
3.2
  1
2sqx3cx1.8m
 41
0.8
  7
高3.2
100
AcDbText
  0
TEXT
  5
45F
330
6B
100
AcDbEntity
  8
0
 62
     3
100
AcDbText
 10
1354.950352
 20
364.662718
 30
0.0
 40
3.2
  1
ポッキンプラグ
  7
高3.2
100
AcDbText
  0
TEXT
  5
460
330
6B
100
AcDbEntity
  8
0
 62
     3
100
AcDbText
 10
1354.469228
 20
358.889232
 30
0.0
 40
3.2
  1
2PE125V15A
  7
高3.2
100
AcDbText
  0
TEXT
  5
461
330
6B
100
AcDbEntity
  8
0
 62
     3
100
AcDbText
 10
1405.759015
 20
299.654252
 30
0.0
 40
6.299999999999998
  1
AG-1000N
  7
高6.3
100
AcDbText
  0
TEXT
  5
462
330
6B
100
AcDbEntity
  8
0
 62
     3
100
AcDbText
 10
1364.439065922308
 20
323.356551
 30
0.0
 40
4.5
  1
AG-1000N
  7
高4.5
100
AcDbText
  0
TEXT
  5
463
330
6B
100
AcDbEntity
  8
0
 62
     3
100
AcDbText
 10
1422.184949
 20
309.845277
 30
0.0
 40
3.2
  1
2008.09.04
  7
高3.2
100
AcDbText
  0
LINE
  5
464
330
6B
100
AcDbEntity
  8
0
100
AcDbLine
 10
1066.02936
 20
309.01377209375
 30
0.0
 11
1165.944109330935
 21
309.01377209375
 31
0.0
  0
LINE
  5
465
330
6B
100
AcDbEntity
  8
0
100
AcDbLine
 10
1066.02936
 20
314.01377209375
 30
0.0
 11
1165.944109330935
 21
314.01377209375
 31
0.0
  0
LINE
  5
466
330
6B
100
AcDbEntity
  8
0
100
AcDbLine
 10
1066.02936
 20
319.01377209375
 30
0.0
 11
1165.944109330935
 21
319.01377209375
 31
0.0
  0
LINE
  5
467
330
6B
100
AcDbEntity
  8
0
100
AcDbLine
 10
1066.02936
 20
324.0137720937501
 30
0.0
 11
1165.944109330935
 21
324.0137720937501
 31
0.0
  0
LINE
  5
468
330
6B
100
AcDbEntity
  8
0
100
AcDbLine
 10
1066.02936
 20
329.01377209375
 30
0.0
 11
1165.944109330935
 21
329.01377209375
 31
0.0
  0
LINE
  5
469
330
6B
100
AcDbEntity
  8
0
 62
     3
100
AcDbLine
 10
1066.02936
 20
304.01377209375
 30
0.0
 11
1165.944109330935
 21
304.01377209375
 31
0.0
  0
LINE
  5
46A
330
6B
100
AcDbEntity
  8
0
100
AcDbLine
 10
1066.02936
 20
334.01377209375
 30
0.0
 11
1165.944109330935
 21
334.01377209375
 31
0.0
  0
LINE
  5
46B
330
6B
100
AcDbEntity
  8
0
100
AcDbLine
 10
1066.02936
 20
344.01377209375
 30
0.0
 11
1165.944109330935
 21
344.01377209375
 31
0.0
  0
LINE
  5
46C
330
6B
100
AcDbEntity
  8
0
100
AcDbLine
 10
1066.02936
 20
349.0137720937501
 30
0.0
 11
1165.944109330935
 21
349.0137720937501
 31
0.0
  0
LINE
  5
46D
330
6B
100
AcDbEntity
  8
0
100
AcDbLine
 10
1066.02936
 20
359.01377209375
 30
0.0
 11
1165.944109330935
 21
359.01377209375
 31
0.0
  0
LINE
  5
46E
330
6B
100
AcDbEntity
  8
0
100
AcDbLine
 10
1066.02936
 20
339.01377209375
 30
0.0
 11
1165.944109330935
 21
339.01377209375
 31
0.0
  0
LINE
  5
46F
330
6B
100
AcDbEntity
  8
0
100
AcDbLine
 10
1066.02936
 20
354.01377209375
 30
0.0
 11
1165.944109330935
 21
354.01377209375
 31
0.0
  0
LINE
  5
470
330
6B
100
AcDbEntity
  8
0
 62
     3
100
AcDbLine
 10
1066.02936
 20
364.01377209375
 30
0.0
 11
1165.944109330935
 21
364.01377209375
 31
0.0
  0
TEXT
  5
471
330
6B
100
AcDbEntity
  8
0
 62
     3
100
AcDbText
 10
1432.317143
 20
339.18971
 30
0.0
 40
4.5
  1
5863
  7
高4.5
100
AcDbText
  0
CIRCLE
  5
472
330
6B
100
AcDbEntity
  8
0
 62
     3
100
AcDbCircle
 10
1112.793698
 20
501.7448769999998
 30
0.0
 40
3.346987999999998
  0
LINE
  5
473
330
6B
100
AcDbEntity
  8
0
 62
     3
100
AcDbLine
 10
1184.956088
 20
469.980576
 30
0.0
 11
1190.237674
 21
469.980576
 31
0.0
  0
LINE
  5
474
330
6B
100
AcDbEntity
  8
0
 62
     3
100
AcDbLine
 10
1189.904149
 20
482.28392
 30
0.0
 11
1189.904149
 21
477.329595
 31
0.0
  0
LINE
  5
475
330
6B
100
AcDbEntity
  8
0
 62
     3
100
AcDbLine
 10
1185.291701
 20
482.28392
 30
0.0
 11
1185.291701
 21
477.329595
 31
0.0
  0
LINE
  5
476
330
6B
100
AcDbEntity
  8
0
 62
     3
100
AcDbLine
 10
1168.604149
 20
482.28392
 30
0.0
 11
1168.604149
 21
477.329595
 31
0.0
  0
LINE
  5
477
330
6B
100
AcDbEntity
  8
0
 62
     3
100
AcDbLine
 10
1163.656088
 20
469.980576
 30
0.0
 11
1168.937674
 21
469.980576
 31
0.0
  0
LINE
  5
478
330
6B
100
AcDbEntity
  8
0
 62
     3
100
AcDbLine
 10
1163.991701
 20
482.28392
 30
0.0
 11
1163.991701
 21
477.329595
 31
0.0
  0
LINE
  5
479
330
6B
100
AcDbEntity
  8
0
 62
     3
100
AcDbLine
 10
1147.304149
 20
482.28392
 30
0.0
 11
1147.304149
 21
477.329595
 31
0.0
  0
LINE
  5
47A
330
6B
100
AcDbEntity
  8
0
 62
     3
100
AcDbLine
 10
1142.356088
 20
469.980576
 30
0.0
 11
1147.637674
 21
469.980576
 31
0.0
  0
LINE
  5
47B
330
6B
100
AcDbEntity
  8
0
 62
     3
100
AcDbLine
 10
1142.691701
 20
482.28392
 30
0.0
 11
1142.691701
 21
477.329595
 31
0.0
  0
LINE
  5
47C
330
6B
100
AcDbEntity
  8
0
 62
     3
100
AcDbLine
 10
1126.004149
 20
482.28392
 30
0.0
 11
1126.004149
 21
477.329595
 31
0.0
  0
LINE
  5
47D
330
6B
100
AcDbEntity
  8
0
 62
     3
100
AcDbLine
 10
1121.056088
 20
469.980576
 30
0.0
 11
1126.337674
 21
469.980576
 31
0.0
  0
LINE
  5
47E
330
6B
100
AcDbEntity
  8
0
 62
     3
100
AcDbLine
 10
1121.391701
 20
482.28392
 30
0.0
 11
1121.391701
 21
477.329595
 31
0.0
  0
LINE
  5
47F
330
6B
100
AcDbEntity
  8
0
 62
     3
100
AcDbLine
 10
1159.099398
 20
497.699783
 30
0.0
 11
1188.339396
 21
497.699783
 31
0.0
  0
LINE
  5
480
330
6B
100
AcDbEntity
  8
0
100
AcDbLine
 10
1274.531852
 20
418.4605369999998
 30
0.0
 11
1273.281713
 21
415.4605369999998
 31
0.0
  0
LINE
  5
481
330
6B
100
AcDbEntity
  8
0
100
AcDbLine
 10
1273.281713
 20
415.4605369999998
 30
0.0
 11
1264.911767
 21
415.4605369999998
 31
0.0
  0
LINE
  5
482
330
6B
100
AcDbEntity
  8
0
100
AcDbLine
 10
1264.911767
 20
415.4605369999998
 30
0.0
 11
1263.829673
 21
418.4605369999998
 31
0.0
  0
LINE
  5
483
330
6B
100
AcDbEntity
  8
0
100
AcDbLine
 10
1352.531852
 20
418.4605369999998
 30
0.0
 11
1351.281713
 21
415.4605369999998
 31
0.0
  0
LINE
  5
484
330
6B
100
AcDbEntity
  8
0
100
AcDbLine
 10
1351.281713
 20
415.4605369999998
 30
0.0
 11
1342.911767
 21
415.4605369999998
 31
0.0
  0
LINE
  5
485
330
6B
100
AcDbEntity
  8
0
100
AcDbLine
 10
1342.911767
 20
415.4605369999998
 30
0.0
 11
1341.829673
 21
418.4605369999998
 31
0.0
  0
CIRCLE
  5
486
330
6B
100
AcDbEntity
  8
0
100
AcDbCircle
 10
1112.79474
 20
501.745919
 30
0.0
 40
2.564588999999998
  0
LINE
  5
487
330
6B
100
AcDbEntity
  8
0
100
AcDbLine
 10
1194.083037
 20
418.4605369999998
 30
0.0
 11
1192.832898
 21
415.4605369999998
 31
0.0
  0
LINE
  5
488
330
6B
100
AcDbEntity
  8
0
100
AcDbLine
 10
1192.832898
 20
415.4605369999998
 30
0.0
 11
1184.462952
 21
415.4605369999998
 31
0.0
  0
LINE
  5
489
330
6B
100
AcDbEntity
  8
0
100
AcDbLine
 10
1184.462952
 20
415.4605369999998
 30
0.0
 11
1183.380858
 21
418.4605369999998
 31
0.0
  0
CIRCLE
  5
4B4
330
6B
100
AcDbEntity
  8
0
100
AcDbCircle
 10
1124.754642
 20
438.560537
 30
0.0
 40
11.507634
  0
CIRCLE
  5
4B5
330
6B
100
AcDbEntity
  8
0
100
AcDbCircle
 10
1124.7536
 20
438.560537
 30
0.0
 40
12.681494
  0
CIRCLE
  5
4B6
330
6B
100
AcDbEntity
  8
0
100
AcDbCircle
 10
1131.370849
 20
438.5005139999998
 30
0.0
 40
1.929379
  0
CIRCLE
  5
4B7
330
6B
100
AcDbEntity
  8
0
100
AcDbCircle
 10
1118.414026
 20
438.5005139999998
 30
0.0
 40
1.928333999999999
  0
LINE
  5
4B8
330
6B
100
AcDbEntity
  8
0
100
AcDbLine
 10
1117.380786
 20
418.4605369999998
 30
0.0
 11
1118.464256
 21
415.4605369999998
 31
0.0
  0
LINE
  5
4B9
330
6B
100
AcDbEntity
  8
0
100
AcDbLine
 10
1118.464256
 20
415.4605369999998
 30
0.0
 11
1126.831594
 21
415.4605369999998
 31
0.0
  0
LINE
  5
4BA
330
6B
100
AcDbEntity
  8
0
100
AcDbLine
 10
1126.831594
 20
415.4605369999998
 30
0.0
 11
1128.082008
 21
418.4605369999998
 31
0.0
  0
TEXT
  5
596
330
6B
100
AcDbEntity
  8
0
 62
     3
100
AcDbText
 10
1443.52936
 20
563.4352119999999
 30
0.0
 40
3.2
  1
担　当
  7
高3.2
100
AcDbText
  0
TEXT
  5
597
330
6B
100
AcDbEntity
  8
0
 62
     3
100
AcDbText
 10
1399.52936
 20
563.4352119999999
 30
0.0
 40
3.2
  1
変更・追記内容
  7
高3.2
100
AcDbText
  0
TEXT
  5
598
330
6B
100
AcDbEntity
  8
0
 62
     3
100
AcDbText
 10
1374.642875000339
 20
558.7646734900917
 30
0.0
 40
2.0
  1
1
  7
高2
100
AcDbText
  0
TEXT
  5
599
330
6B
100
AcDbEntity
  8
0
 62
     3
100
AcDbText
 10
1374.334363523582
 20
553.5948567778188
 30
0.0
 40
2.0
  1
2
  7
高2
100
AcDbText
  0
TEXT
  5
59A
330
6B
100
AcDbEntity
  8
0
 62
     3
100
AcDbText
 10
1381.52936
 20
563.4352119999999
 30
0.0
 40
3.2
  1
日　付
  7
高3.2
100
AcDbText
  0
TEXT
  5
59B
330
6B
100
AcDbEntity
  8
0
 62
     3
100
AcDbText
 10
1381.52936
 20
568.4352119999998
 30
0.0
 40
3.2
  1
図　　　　面　　　　略　　　　歴
  7
高3.2
100
AcDbText
  0
TEXT
  5
59C
330
6B
100
AcDbEntity
  8
0
 62
     3
100
AcDbText
 10
1371.52936
 20
563.4352119999999
 30
0.0
 40
3.2
  1
記号
  7
高3.2
100
AcDbText
  0
LINE
  5
59D
330
6B
100
AcDbEntity
  8
0
100
AcDbLine
 10
1375.02936
 20
556.7261080000001
 30
0.0
 11
1373.12936
 21
553.435212
 31
0.0
  0
LINE
  5
59E
330
6B
100
AcDbEntity
  8
0
100
AcDbLine
 10
1375.02936
 20
556.7261080000001
 30
0.0
 11
1376.92936
 21
553.435212
 31
0.0
  0
LINE
  5
59F
330
6B
100
AcDbEntity
  8
0
100
AcDbLine
 10
1373.12936
 20
553.435212
 30
0.0
 11
1376.92936
 21
553.435212
 31
0.0
  0
LINE
  5
5A0
330
6B
100
AcDbEntity
  8
0
100
AcDbLine
 10
1375.02936
 20
561.7261089999999
 30
0.0
 11
1373.12936
 21
558.435212
 31
0.0
  0
LINE
  5
5A1
330
6B
100
AcDbEntity
  8
0
100
AcDbLine
 10
1375.02936
 20
561.7261089999999
 30
0.0
 11
1376.92936
 21
558.435212
 31
0.0
  0
LINE
  5
5A2
330
6B
100
AcDbEntity
  8
0
100
AcDbLine
 10
1373.12936
 20
558.435212
 30
0.0
 11
1376.92936
 21
558.435212
 31
0.0
  0
LINE
  5
5A3
330
6B
100
AcDbEntity
  8
0
 62
     3
100
AcDbLine
 10
1370.02936
 20
567.9352119999999
 30
0.0
 11
1456.02936
 21
567.9352119999999
 31
0.0
  0
LINE
  5
5A4
330
6B
100
AcDbEntity
  8
0
 62
     3
100
AcDbLine
 10
1370.02936
 20
562.935212
 30
0.0
 11
1456.02936
 21
562.935212
 31
0.0
  0
LINE
  5
5A5
330
6B
100
AcDbEntity
  8
0
 62
     7
100
AcDbLine
 10
1370.02936
 20
557.935212
 30
0.0
 11
1456.02936
 21
557.935212
 31
0.0
  0
LINE
  5
5A6
330
6B
100
AcDbEntity
  8
0
 62
     3
100
AcDbLine
 10
1370.02936
 20
552.9352119999998
 30
0.0
 11
1456.02936
 21
552.9352119999998
 31
0.0
  0
LINE
  5
5A7
330
6B
100
AcDbEntity
  8
0
 62
     7
100
AcDbLine
 10
1442.02936
 20
552.9352119999998
 30
0.0
 11
1442.02936
 21
567.9352119999999
 31
0.0
  0
LINE
  5
5A8
330
6B
100
AcDbEntity
  8
0
 62
     7
100
AcDbLine
 10
1398.02936
 20
552.9352119999998
 30
0.0
 11
1398.02936
 21
567.9352119999999
 31
0.0
  0
LINE
  5
5A9
330
6B
100
AcDbEntity
  8
0
 62
     7
100
AcDbLine
 10
1380.02936
 20
552.9352119999998
 30
0.0
 11
1380.02936
 21
567.9352119999999
 31
0.0
  0
LINE
  5
5AA
330
6B
100
AcDbEntity
  8
0
 62
     3
100
AcDbLine
 10
1370.02936
 20
552.9352119999998
 30
0.0
 11
1370.02936
 21
572.9352119999998
 31
0.0
  0
LINE
  5
7D3
330
6B
100
AcDbEntity
  8
0
100
AcDbLine
 10
1149.394472
 20
439.6686319999998
 30
0.0
 11
1150.380954
 21
438.9786169999998
 31
0.0
  0
LINE
  5
7D4
330
6B
100
AcDbEntity
  8
0
100
AcDbLine
 10
1150.380954
 20
438.9786169999998
 30
0.0
 11
1153.160322
 21
442.948549
 31
0.0
  0
LINE
  5
7D5
330
6B
100
AcDbEntity
  8
0
100
AcDbLine
 10
1153.160322
 20
442.948549
 30
0.0
 11
1152.173843
 21
443.6406519999998
 31
0.0
  0
LINE
  5
7D6
330
6B
100
AcDbEntity
  8
0
100
AcDbLine
 10
1152.173843
 20
443.6406519999998
 30
0.0
 11
1149.394472
 21
439.6686319999998
 31
0.0
  0
LINE
  5
7D9
330
6B
100
AcDbEntity
  8
0
100
AcDbLine
 10
1161.90242
 20
439.669674
 30
0.0
 11
1159.124095
 21
443.638564
 31
0.0
  0
LINE
  5
7DA
330
6B
100
AcDbEntity
  8
0
100
AcDbLine
 10
1159.124095
 20
443.638564
 30
0.0
 11
1158.136047
 21
442.9475039999998
 31
0.0
  0
LINE
  5
7DB
330
6B
100
AcDbEntity
  8
0
100
AcDbLine
 10
1158.136047
 20
442.9475039999998
 30
0.0
 11
1160.914372
 21
438.979662
 31
0.0
  0
LINE
  5
7DC
330
6B
100
AcDbEntity
  8
0
100
AcDbLine
 10
1160.914372
 20
438.979662
 30
0.0
 11
1161.90242
 21
439.669674
 31
0.0
  0
LINE
  5
7DD
330
6B
100
AcDbEntity
  8
0
100
AcDbLine
 10
1156.250773
 20
436.7540769999997
 30
0.0
 11
1155.045074
 21
436.7540769999997
 31
0.0
  0
LINE
  5
7DE
330
6B
100
AcDbEntity
  8
0
100
AcDbLine
 10
1155.045074
 20
436.7540769999997
 30
0.0
 11
1155.045074
 21
431.4322999999998
 31
0.0
  0
LINE
  5
7DF
330
6B
100
AcDbEntity
  8
0
100
AcDbLine
 10
1155.045074
 20
431.4322999999998
 30
0.0
 11
1156.250773
 21
431.4322999999998
 31
0.0
  0
LINE
  5
7E0
330
6B
100
AcDbEntity
  8
0
100
AcDbLine
 10
1156.250773
 20
431.4322999999998
 30
0.0
 11
1156.250773
 21
436.7540769999997
 31
0.0
  0
LINE
  5
7E1
330
6B
100
AcDbEntity
  8
0
100
AcDbLine
 10
1178.965337
 20
441.527807
 30
0.0
 11
1182.550593
 21
441.527807
 31
0.0
  0
LINE
  5
7E2
330
6B
100
AcDbEntity
  8
0
100
AcDbLine
 10
1182.550593
 20
441.527807
 30
0.0
 11
1182.550593
 21
443.4579679999997
 31
0.0
  0
LINE
  5
7E3
330
6B
100
AcDbEntity
  8
0
100
AcDbLine
 10
1182.550593
 20
443.4579679999997
 30
0.0
 11
1178.965337
 21
443.4579679999997
 31
0.0
  0
LINE
  5
7E4
330
6B
100
AcDbEntity
  8
0
100
AcDbLine
 10
1178.965337
 20
443.4579679999997
 30
0.0
 11
1178.965337
 21
441.527807
 31
0.0
  0
LINE
  5
7E5
330
6B
100
AcDbEntity
  8
0
100
AcDbLine
 10
1193.850751
 20
443.4579679999997
 30
0.0
 11
1190.268628
 21
443.4579679999997
 31
0.0
  0
LINE
  5
7E6
330
6B
100
AcDbEntity
  8
0
100
AcDbLine
 10
1190.268628
 20
443.4579679999997
 30
0.0
 11
1190.268628
 21
441.527807
 31
0.0
  0
LINE
  5
7E7
330
6B
100
AcDbEntity
  8
0
100
AcDbLine
 10
1190.268628
 20
441.527807
 30
0.0
 11
1193.850751
 21
441.527807
 31
0.0
  0
LINE
  5
7E8
330
6B
100
AcDbEntity
  8
0
100
AcDbLine
 10
1193.850751
 20
441.527807
 30
0.0
 11
1193.850751
 21
443.4579679999997
 31
0.0
  0
LINE
  5
7E9
330
6B
100
AcDbEntity
  8
0
100
AcDbLine
 10
1187.513789
 20
434.3604269999998
 30
0.0
 11
1185.582061
 21
434.3604269999998
 31
0.0
  0
LINE
  5
7EA
330
6B
100
AcDbEntity
  8
0
100
AcDbLine
 10
1185.582061
 20
434.3604269999998
 30
0.0
 11
1185.582061
 21
430.225558
 31
0.0
  0
LINE
  5
7EB
330
6B
100
AcDbEntity
  8
0
100
AcDbLine
 10
1185.582061
 20
430.225558
 30
0.0
 11
1187.513789
 21
430.225558
 31
0.0
  0
LINE
  5
7EC
330
6B
100
AcDbEntity
  8
0
100
AcDbLine
 10
1187.513789
 20
430.225558
 30
0.0
 11
1187.513789
 21
434.3604269999998
 31
0.0
  0
LINE
  5
7ED
330
6B
100
AcDbEntity
  8
0
100
AcDbLine
 10
1121.906383
 20
413.5273269999998
 30
0.0
 11
1122.647925
 21
415.4605369999998
 31
0.0
  0
LINE
  5
7EE
330
6B
100
AcDbEntity
  8
0
100
AcDbLine
 10
1122.647925
 20
415.4605369999998
 30
0.0
 11
1121.039125
 21
414.1570989999998
 31
0.0
  0
LINE
  5
7EF
330
6B
100
AcDbEntity
  8
0
100
AcDbLine
 10
1127.471469
 20
428.424795
 30
0.0
 11
1125.993057
 21
429.874445
 31
0.0
  0
LINE
  5
7F0
330
6B
100
AcDbEntity
  8
0
100
AcDbLine
 10
1125.993057
 20
429.874445
 30
0.0
 11
1126.548574
 21
427.8798049999998
 31
0.0
  0
LINE
  5
7F1
330
6B
100
AcDbEntity
  8
0
100
AcDbLine
 10
1156.340564
 20
426.3840519999998
 30
0.0
 11
1154.827395
 21
427.7973839999998
 31
0.0
  0
LINE
  5
7F2
330
6B
100
AcDbEntity
  8
0
100
AcDbLine
 10
1154.827395
 20
427.7973839999998
 30
0.0
 11
1155.431172
 21
425.8168179999998
 31
0.0
  0
LINE
  5
7F3
330
6B
100
AcDbEntity
  8
0
100
AcDbLine
 10
1189.9862
 20
424.6388519999999
 30
0.0
 11
1188.793256
 21
426.331209
 31
0.0
  0
LINE
  5
7F4
330
6B
100
AcDbEntity
  8
0
100
AcDbLine
 10
1188.793256
 20
426.331209
 30
0.0
 11
1188.980197
 21
424.2691129999998
 31
0.0
  0
LINE
  5
7F5
330
6B
100
AcDbEntity
  8
0
100
AcDbLine
 10
1308.485684
 20
527.2942309999998
 30
0.0
 11
1308.09674
 21
525.260537
 31
0.0
  0
LINE
  5
7F6
330
6B
100
AcDbEntity
  8
0
100
AcDbLine
 10
1308.09674
 20
525.260537
 30
0.0
 11
1309.450422
 21
526.827296
 31
0.0
  0
LINE
  5
7F7
330
6B
100
AcDbEntity
  8
0
100
AcDbLine
 10
1106.209047
 20
511.7494349999998
 30
0.0
 11
1107.647925
 21
510.260537
 31
0.0
  0
LINE
  5
7F8
330
6B
100
AcDbEntity
  8
0
100
AcDbLine
 10
1107.647925
 20
510.260537
 30
0.0
 11
1107.146269
 21
512.269399
 31
0.0
  0
LINE
  5
7F9
330
6B
100
AcDbEntity
  8
0
100
AcDbLine
 10
1112.734585
 20
506.1438719999999
 30
0.0
 11
1113.48766
 21
504.2151249999998
 31
0.0
  0
LINE
  5
7FA
330
6B
100
AcDbEntity
  8
0
100
AcDbLine
 10
1113.48766
 20
504.2151249999998
 30
0.0
 11
1113.799852
 21
506.2620059999998
 31
0.0
  0
LINE
  5
7FB
330
6B
100
AcDbEntity
  8
0
100
AcDbLine
 10
1123.37028
 20
484.7437
 30
0.0
 11
1123.793844
 21
482.716934
 31
0.0
  0
LINE
  5
7FC
330
6B
100
AcDbEntity
  8
0
100
AcDbLine
 10
1123.793844
 20
482.716934
 30
0.0
 11
1124.44041
 21
484.6839469999999
 31
0.0
  0
LINE
  5
7FD
330
6B
100
AcDbEntity
  8
0
100
AcDbLine
 10
1144.501875
 20
484.6675519999998
 30
0.0
 11
1144.991943
 21
482.655832
 31
0.0
  0
LINE
  5
7FE
330
6B
100
AcDbEntity
  8
0
100
AcDbLine
 10
1144.991943
 20
482.655832
 30
0.0
 11
1145.573392
 21
484.643067
 31
0.0
  0
LINE
  5
7FF
330
6B
100
AcDbEntity
  8
0
100
AcDbLine
 10
1165.779676
 20
485.02713
 30
0.0
 11
1165.640221
 21
482.9612799999998
 31
0.0
  0
LINE
  5
800
330
6B
100
AcDbEntity
  8
0
100
AcDbLine
 10
1165.640221
 20
482.9612799999998
 30
0.0
 11
1166.793918
 21
484.6806309999998
 31
0.0
  0
LINE
  5
801
330
6B
100
AcDbEntity
  8
0
100
AcDbLine
 10
1187.406204
 20
484.969253
 30
0.0
 11
1187.326997
 21
482.9002159999998
 31
0.0
  0
LINE
  5
802
330
6B
100
AcDbEntity
  8
0
100
AcDbLine
 10
1187.326997
 20
482.9002159999998
 30
0.0
 11
1188.430111
 21
484.652451
 31
0.0
  0
LINE
  5
803
330
6B
100
AcDbEntity
  8
0
100
AcDbLine
 10
1394.96382
 20
428.139683
 30
0.0
 11
1393.73731
 21
426.471492
 31
0.0
  0
LINE
  5
804
330
6B
100
AcDbEntity
  8
0
100
AcDbLine
 10
1393.73731
 20
426.471492
 30
0.0
 11
1395.633594
 21
427.302932
 31
0.0
  0
LINE
  5
805
330
6B
100
AcDbEntity
  8
0
100
AcDbLine
 10
1373.750158
 20
435.308699
 30
0.0
 11
1372.673816
 21
433.518758
 31
0.0
  0
LINE
  5
806
330
6B
100
AcDbEntity
  8
0
100
AcDbLine
 10
1372.673816
 20
433.518758
 30
0.0
 11
1372.331428
 21
431.697386
 31
0.0
  0
LINE
  5
807
330
6B
100
AcDbEntity
  8
0
100
AcDbLine
 10
1372.331428
 20
431.697386
 30
0.0
 11
1373.457284
 21
429.251509
 31
0.0
  0
LINE
  5
808
330
6B
100
AcDbEntity
  8
0
100
AcDbLine
 10
1373.457284
 20
429.251509
 30
0.0
 11
1374.137085
 21
426.925295
 31
0.0
  0
LINE
  5
809
330
6B
100
AcDbEntity
  8
0
100
AcDbLine
 10
1374.137085
 20
426.925295
 30
0.0
 11
1373.693697
 21
426.0730549999998
 31
0.0
  0
LINE
  5
80A
330
6B
100
AcDbEntity
  8
0
100
AcDbLine
 10
1373.693697
 20
426.0730549999998
 30
0.0
 11
1372.976306
 21
425.248614
 31
0.0
  0
LINE
  5
80B
330
6B
100
AcDbEntity
  8
0
100
AcDbLine
 10
1376.716594
 20
435.179724
 30
0.0
 11
1375.640252
 21
433.389783
 31
0.0
  0
LINE
  5
80C
330
6B
100
AcDbEntity
  8
0
100
AcDbLine
 10
1375.640252
 20
433.389783
 30
0.0
 11
1375.297864
 21
431.568411
 31
0.0
  0
LINE
  5
80D
330
6B
100
AcDbEntity
  8
0
100
AcDbLine
 10
1375.297864
 20
431.568411
 30
0.0
 11
1376.42372
 21
429.1225339999998
 31
0.0
  0
LINE
  5
80E
330
6B
100
AcDbEntity
  8
0
100
AcDbLine
 10
1376.42372
 20
429.1225339999998
 30
0.0
 11
1377.10352
 21
426.796319
 31
0.0
  0
LINE
  5
80F
330
6B
100
AcDbEntity
  8
0
100
AcDbLine
 10
1377.10352
 20
426.796319
 30
0.0
 11
1376.660133
 21
425.94408
 31
0.0
  0
LINE
  5
810
330
6B
100
AcDbEntity
  8
0
100
AcDbLine
 10
1376.660133
 20
425.94408
 30
0.0
 11
1375.942741
 21
425.119638
 31
0.0
  0
LINE
  5
811
330
6B
100
AcDbEntity
  8
0
100
AcDbLine
 10
1426.055139
 20
399.586236
 30
0.0
 11
1426.042411
 21
399.752621
 31
0.0
  0
LINE
  5
812
330
6B
100
AcDbEntity
  8
0
100
AcDbLine
 10
1426.042411
 20
399.752621
 30
0.0
 11
1425.993883
 21
399.896788
 31
0.0
  0
LINE
  5
813
330
6B
100
AcDbEntity
  8
0
100
AcDbLine
 10
1425.993883
 20
399.896788
 30
0.0
 11
1425.808535
 21
400.0392039999998
 31
0.0
  0
LINE
  5
814
330
6B
100
AcDbEntity
  8
0
100
AcDbLine
 10
1425.808535
 20
400.0392039999998
 30
0.0
 11
1425.556046
 21
400.0958049999998
 31
0.0
  0
LINE
  5
815
330
6B
100
AcDbEntity
  8
0
100
AcDbLine
 10
1425.556046
 20
400.0958049999998
 30
0.0
 11
1425.413477
 21
400.095896
 31
0.0
  0
LINE
  5
816
330
6B
100
AcDbEntity
  8
0
100
AcDbLine
 10
1425.413477
 20
400.095896
 30
0.0
 11
1425.277422
 21
400.075903
 31
0.0
  0
LINE
  5
817
330
6B
100
AcDbEntity
  8
0
100
AcDbLine
 10
1425.277422
 20
400.075903
 30
0.0
 11
1425.056718
 21
400.008033
 31
0.0
  0
LINE
  5
818
330
6B
100
AcDbEntity
  8
0
100
AcDbLine
 10
1425.056718
 20
400.008033
 30
0.0
 11
1424.839585
 21
399.91669
 31
0.0
  0
LINE
  5
819
330
6B
100
AcDbEntity
  8
0
100
AcDbLine
 10
1424.14907
 20
401.003408
 30
0.0
 11
1424.161798
 21
400.8370229999998
 31
0.0
  0
LINE
  5
81A
330
6B
100
AcDbEntity
  8
0
100
AcDbLine
 10
1424.161798
 20
400.8370229999998
 30
0.0
 11
1424.210326
 21
400.692856
 31
0.0
  0
LINE
  5
81B
330
6B
100
AcDbEntity
  8
0
100
AcDbLine
 10
1424.210326
 20
400.692856
 30
0.0
 11
1424.395674
 21
400.5504399999998
 31
0.0
  0
LINE
  5
81C
330
6B
100
AcDbEntity
  8
0
100
AcDbLine
 10
1424.395674
 20
400.5504399999998
 30
0.0
 11
1424.648163
 21
400.493839
 31
0.0
  0
LINE
  5
81D
330
6B
100
AcDbEntity
  8
0
100
AcDbLine
 10
1424.648163
 20
400.493839
 30
0.0
 11
1424.790732
 21
400.4937479999998
 31
0.0
  0
LINE
  5
81E
330
6B
100
AcDbEntity
  8
0
100
AcDbLine
 10
1424.790732
 20
400.4937479999998
 30
0.0
 11
1424.926787
 21
400.513741
 31
0.0
  0
LINE
  5
81F
330
6B
100
AcDbEntity
  8
0
100
AcDbLine
 10
1424.926787
 20
400.513741
 30
0.0
 11
1425.147491
 21
400.581611
 31
0.0
  0
LINE
  5
820
330
6B
100
AcDbEntity
  8
0
100
AcDbLine
 10
1425.147491
 20
400.581611
 30
0.0
 11
1425.364624
 21
400.672954
 31
0.0
  0
LINE
  5
821
330
6B
100
AcDbEntity
  8
0
100
AcDbLine
 10
1424.149163
 20
399.678289
 30
0.0
 11
1424.490555
 21
399.855615
 31
0.0
  0
LINE
  5
822
330
6B
100
AcDbEntity
  8
0
100
AcDbLine
 10
1424.490555
 20
399.855615
 30
0.0
 11
1424.839585
 21
399.91669
 31
0.0
  0
LINE
  5
823
330
6B
100
AcDbEntity
  8
0
100
AcDbLine
 10
1424.839585
 20
399.91669
 30
0.0
 11
1424.992441
 21
399.881896
 31
0.0
  0
LINE
  5
824
330
6B
100
AcDbEntity
  8
0
100
AcDbLine
 10
1424.992441
 20
399.881896
 30
0.0
 11
1425.13811
 21
399.817181
 31
0.0
  0
LINE
  5
825
330
6B
100
AcDbEntity
  8
0
100
AcDbLine
 10
1425.13811
 20
399.817181
 30
0.0
 11
1425.309889
 21
399.705813
 31
0.0
  0
LINE
  5
826
330
6B
100
AcDbEntity
  8
0
100
AcDbLine
 10
1425.309889
 20
399.705813
 30
0.0
 11
1425.476439
 21
399.578361
 31
0.0
  0
LINE
  5
827
330
6B
100
AcDbEntity
  8
0
100
AcDbLine
 10
1425.476439
 20
399.578361
 30
0.0
 11
1425.583294
 21
399.503878
 31
0.0
  0
LINE
  5
828
330
6B
100
AcDbEntity
  8
0
100
AcDbLine
 10
1425.583294
 20
399.503878
 30
0.0
 11
1425.695358
 21
399.4589509999999
 31
0.0
  0
LINE
  5
829
330
6B
100
AcDbEntity
  8
0
100
AcDbLine
 10
1425.695358
 20
399.4589509999999
 30
0.0
 11
1425.873209
 21
399.48731
 31
0.0
  0
LINE
  5
82A
330
6B
100
AcDbEntity
  8
0
100
AcDbLine
 10
1425.873209
 20
399.48731
 30
0.0
 11
1426.055046
 21
399.586247
 31
0.0
  0
LINE
  5
82B
330
6B
100
AcDbEntity
  8
0
100
AcDbLine
 10
1426.055046
 20
400.9113549999998
 30
0.0
 11
1425.713654
 21
400.734029
 31
0.0
  0
LINE
  5
82C
330
6B
100
AcDbEntity
  8
0
100
AcDbLine
 10
1425.713654
 20
400.734029
 30
0.0
 11
1425.364624
 21
400.672954
 31
0.0
  0
LINE
  5
82D
330
6B
100
AcDbEntity
  8
0
100
AcDbLine
 10
1425.364624
 20
400.672954
 30
0.0
 11
1425.211768
 21
400.7077479999998
 31
0.0
  0
LINE
  5
82E
330
6B
100
AcDbEntity
  8
0
100
AcDbLine
 10
1425.211768
 20
400.7077479999998
 30
0.0
 11
1425.066099
 21
400.772463
 31
0.0
  0
LINE
  5
82F
330
6B
100
AcDbEntity
  8
0
100
AcDbLine
 10
1425.066099
 20
400.772463
 30
0.0
 11
1424.89432
 21
400.8838309999998
 31
0.0
  0
LINE
  5
830
330
6B
100
AcDbEntity
  8
0
100
AcDbLine
 10
1424.89432
 20
400.8838309999998
 30
0.0
 11
1424.72777
 21
401.0112829999997
 31
0.0
  0
LINE
  5
831
330
6B
100
AcDbEntity
  8
0
100
AcDbLine
 10
1424.72777
 20
401.0112829999997
 30
0.0
 11
1424.620915
 21
401.085766
 31
0.0
  0
LINE
  5
832
330
6B
100
AcDbEntity
  8
0
100
AcDbLine
 10
1424.620915
 20
401.085766
 30
0.0
 11
1424.508851
 21
401.1306929999998
 31
0.0
  0
LINE
  5
833
330
6B
100
AcDbEntity
  8
0
100
AcDbLine
 10
1424.508851
 20
401.1306929999998
 30
0.0
 11
1424.331
 21
401.1023339999998
 31
0.0
  0
LINE
  5
834
330
6B
100
AcDbEntity
  8
0
100
AcDbLine
 10
1424.331
 20
401.1023339999998
 30
0.0
 11
1424.149163
 21
401.003397
 31
0.0
  0
LINE
  5
835
330
6B
100
AcDbEntity
  8
0
 62
     3
100
AcDbLine
 10
1420.974315
 20
367.573287
 30
0.0
 11
1420.706909
 21
367.87705
 31
0.0
  0
LINE
  5
836
330
6B
100
AcDbEntity
  8
0
 62
     3
100
AcDbLine
 10
1420.706909
 20
367.87705
 30
0.0
 11
1420.497844
 21
368.208581
 31
0.0
  0
LINE
  5
837
330
6B
100
AcDbEntity
  8
0
 62
     3
100
AcDbLine
 10
1420.497844
 20
368.208581
 30
0.0
 11
1420.398597
 21
368.516787
 31
0.0
  0
LINE
  5
838
330
6B
100
AcDbEntity
  8
0
 62
     3
100
AcDbLine
 10
1420.398597
 20
368.516787
 30
0.0
 11
1420.339021
 21
368.843875
 31
0.0
  0
LINE
  5
839
330
6B
100
AcDbEntity
  8
0
 62
     3
100
AcDbLine
 10
1429.868432
 20
368.843875
 30
0.0
 11
1429.808857
 21
368.516787
 31
0.0
  0
LINE
  5
83A
330
6B
100
AcDbEntity
  8
0
 62
     3
100
AcDbLine
 10
1429.808857
 20
368.516787
 30
0.0
 11
1429.709609
 21
368.208581
 31
0.0
  0
LINE
  5
83B
330
6B
100
AcDbEntity
  8
0
 62
     3
100
AcDbLine
 10
1429.709609
 20
368.208581
 30
0.0
 11
1429.500544
 21
367.87705
 31
0.0
  0
LINE
  5
83C
330
6B
100
AcDbEntity
  8
0
 62
     3
100
AcDbLine
 10
1429.500544
 20
367.87705
 30
0.0
 11
1429.233138
 21
367.573287
 31
0.0
  0
LINE
  5
83D
330
6B
100
AcDbEntity
  8
0
100
AcDbLine
 10
1194.854705
 20
503.2043049999998
 30
0.0
 11
1194.868405
 21
502.995132
 31
0.0
  0
LINE
  5
83E
330
6B
100
AcDbEntity
  8
0
100
AcDbLine
 10
1194.868405
 20
502.995132
 30
0.0
 11
1194.909398
 21
502.78755
 31
0.0
  0
LINE
  5
83F
330
6B
100
AcDbEntity
  8
0
100
AcDbLine
 10
1194.909398
 20
502.78755
 30
0.0
 11
1194.977372
 21
502.58314
 31
0.0
  0
LINE
  5
840
330
6B
100
AcDbEntity
  8
0
100
AcDbLine
 10
1194.977372
 20
502.58314
 30
0.0
 11
1195.071812
 21
502.3834569999998
 31
0.0
  0
LINE
  5
841
330
6B
100
AcDbEntity
  8
0
100
AcDbLine
 10
1195.071812
 20
502.3834569999998
 30
0.0
 11
1195.191997
 21
502.190022
 31
0.0
  0
LINE
  5
842
330
6B
100
AcDbEntity
  8
0
100
AcDbLine
 10
1195.191997
 20
502.190022
 30
0.0
 11
1195.337014
 21
502.0043049999999
 31
0.0
  0
LINE
  5
843
330
6B
100
AcDbEntity
  8
0
100
AcDbLine
 10
1195.337014
 20
502.0043049999999
 30
0.0
 11
1195.505758
 21
501.8277219999998
 31
0.0
  0
LINE
  5
844
330
6B
100
AcDbEntity
  8
0
100
AcDbLine
 10
1195.505758
 20
501.8277219999998
 30
0.0
 11
1195.696945
 21
501.661615
 31
0.0
  0
LINE
  5
845
330
6B
100
AcDbEntity
  8
0
100
AcDbLine
 10
1195.696945
 20
501.661615
 30
0.0
 11
1195.909121
 21
501.507249
 31
0.0
  0
LINE
  5
846
330
6B
100
AcDbEntity
  8
0
100
AcDbLine
 10
1195.909121
 20
501.507249
 30
0.0
 11
1196.14067
 21
501.365799
 31
0.0
  0
LINE
  5
847
330
6B
100
AcDbEntity
  8
0
100
AcDbLine
 10
1196.14067
 20
501.365799
 30
0.0
 11
1196.38983
 21
501.23834
 31
0.0
  0
LINE
  5
848
330
6B
100
AcDbEntity
  8
0
100
AcDbLine
 10
1196.38983
 20
501.23834
 30
0.0
 11
1196.654705
 21
501.125844
 31
0.0
  0
LINE
  5
849
330
6B
100
AcDbEntity
  8
0
100
AcDbLine
 10
1196.654705
 20
501.125844
 30
0.0
 11
1196.93328
 21
501.0291669999999
 31
0.0
  0
LINE
  5
84A
330
6B
100
AcDbEntity
  8
0
100
AcDbLine
 10
1196.93328
 20
501.0291669999999
 30
0.0
 11
1197.223433
 21
500.9490429999998
 31
0.0
  0
LINE
  5
84B
330
6B
100
AcDbEntity
  8
0
100
AcDbLine
 10
1197.223433
 20
500.9490429999998
 30
0.0
 11
1197.522957
 21
500.8860829999998
 31
0.0
  0
LINE
  5
84C
330
6B
100
AcDbEntity
  8
0
100
AcDbLine
 10
1197.522957
 20
500.8860829999998
 30
0.0
 11
1197.829572
 21
500.8407669999998
 31
0.0
  0
LINE
  5
84D
330
6B
100
AcDbEntity
  8
0
100
AcDbLine
 10
1197.829572
 20
500.8407669999998
 30
0.0
 11
1198.140945
 21
500.8134379999998
 31
0.0
  0
LINE
  5
84E
330
6B
100
AcDbEntity
  8
0
100
AcDbLine
 10
1198.140945
 20
500.8134379999998
 30
0.0
 11
1198.454705
 21
500.804305
 31
0.0
  0
LINE
  5
84F
330
6B
100
AcDbEntity
  8
0
100
AcDbLine
 10
1198.454705
 20
500.804305
 30
0.0
 11
1198.768466
 21
500.8134379999998
 31
0.0
  0
LINE
  5
850
330
6B
100
AcDbEntity
  8
0
100
AcDbLine
 10
1198.768466
 20
500.8134379999998
 30
0.0
 11
1199.079839
 21
500.8407669999998
 31
0.0
  0
LINE
  5
851
330
6B
100
AcDbEntity
  8
0
100
AcDbLine
 10
1199.079839
 20
500.8407669999998
 30
0.0
 11
1199.386454
 21
500.8860829999998
 31
0.0
  0
LINE
  5
852
330
6B
100
AcDbEntity
  8
0
100
AcDbLine
 10
1199.386454
 20
500.8860829999998
 30
0.0
 11
1199.685978
 21
500.9490429999998
 31
0.0
  0
LINE
  5
853
330
6B
100
AcDbEntity
  8
0
100
AcDbLine
 10
1199.685978
 20
500.9490429999998
 30
0.0
 11
1199.976131
 21
501.0291669999999
 31
0.0
  0
LINE
  5
854
330
6B
100
AcDbEntity
  8
0
100
AcDbLine
 10
1199.976131
 20
501.0291669999999
 30
0.0
 11
1200.254705
 21
501.125844
 31
0.0
  0
LINE
  5
855
330
6B
100
AcDbEntity
  8
0
100
AcDbLine
 10
1200.254705
 20
501.125844
 30
0.0
 11
1200.519581
 21
501.23834
 31
0.0
  0
LINE
  5
856
330
6B
100
AcDbEntity
  8
0
100
AcDbLine
 10
1200.519581
 20
501.23834
 30
0.0
 11
1200.768741
 21
501.365799
 31
0.0
  0
LINE
  5
857
330
6B
100
AcDbEntity
  8
0
100
AcDbLine
 10
1200.768741
 20
501.365799
 30
0.0
 11
1201.00029
 21
501.507249
 31
0.0
  0
LINE
  5
858
330
6B
100
AcDbEntity
  8
0
100
AcDbLine
 10
1201.00029
 20
501.507249
 30
0.0
 11
1201.212465
 21
501.661615
 31
0.0
  0
LINE
  5
859
330
6B
100
AcDbEntity
  8
0
100
AcDbLine
 10
1201.212465
 20
501.661615
 30
0.0
 11
1201.403653
 21
501.8277219999998
 31
0.0
  0
LINE
  5
85A
330
6B
100
AcDbEntity
  8
0
100
AcDbLine
 10
1201.403653
 20
501.8277219999998
 30
0.0
 11
1201.572397
 21
502.0043049999999
 31
0.0
  0
LINE
  5
85B
330
6B
100
AcDbEntity
  8
0
100
AcDbLine
 10
1201.572397
 20
502.0043049999999
 30
0.0
 11
1201.717413
 21
502.190022
 31
0.0
  0
LINE
  5
85C
330
6B
100
AcDbEntity
  8
0
100
AcDbLine
 10
1201.717413
 20
502.190022
 30
0.0
 11
1201.837599
 21
502.3834569999998
 31
0.0
  0
LINE
  5
85D
330
6B
100
AcDbEntity
  8
0
100
AcDbLine
 10
1201.837599
 20
502.3834569999998
 30
0.0
 11
1201.932038
 21
502.58314
 31
0.0
  0
LINE
  5
85E
330
6B
100
AcDbEntity
  8
0
100
AcDbLine
 10
1201.932038
 20
502.58314
 30
0.0
 11
1202.000013
 21
502.78755
 31
0.0
  0
LINE
  5
85F
330
6B
100
AcDbEntity
  8
0
100
AcDbLine
 10
1202.000013
 20
502.78755
 30
0.0
 11
1202.041006
 21
502.995132
 31
0.0
  0
LINE
  5
860
330
6B
100
AcDbEntity
  8
0
100
AcDbLine
 10
1202.041006
 20
502.995132
 30
0.0
 11
1202.054705
 21
503.2043049999998
 31
0.0
  0
LINE
  5
861
330
6B
100
AcDbEntity
  8
0
100
AcDbLine
 10
1202.054705
 20
503.2043049999998
 30
0.0
 11
1202.041006
 21
503.413479
 31
0.0
  0
LINE
  5
862
330
6B
100
AcDbEntity
  8
0
100
AcDbLine
 10
1202.041006
 20
503.413479
 30
0.0
 11
1202.000013
 21
503.621061
 31
0.0
  0
LINE
  5
863
330
6B
100
AcDbEntity
  8
0
100
AcDbLine
 10
1202.000013
 20
503.621061
 30
0.0
 11
1201.932038
 21
503.825471
 31
0.0
  0
LINE
  5
864
330
6B
100
AcDbEntity
  8
0
100
AcDbLine
 10
1201.932038
 20
503.825471
 30
0.0
 11
1201.837599
 21
504.0251539999998
 31
0.0
  0
LINE
  5
865
330
6B
100
AcDbEntity
  8
0
100
AcDbLine
 10
1201.837599
 20
504.0251539999998
 30
0.0
 11
1201.717413
 21
504.2185889999998
 31
0.0
  0
LINE
  5
866
330
6B
100
AcDbEntity
  8
0
100
AcDbLine
 10
1201.717413
 20
504.2185889999998
 30
0.0
 11
1201.572397
 21
504.4043049999998
 31
0.0
  0
LINE
  5
867
330
6B
100
AcDbEntity
  8
0
100
AcDbLine
 10
1201.572397
 20
504.4043049999998
 30
0.0
 11
1201.403653
 21
504.5808889999998
 31
0.0
  0
LINE
  5
868
330
6B
100
AcDbEntity
  8
0
100
AcDbLine
 10
1201.403653
 20
504.5808889999998
 30
0.0
 11
1201.212465
 21
504.7469959999999
 31
0.0
  0
LINE
  5
869
330
6B
100
AcDbEntity
  8
0
100
AcDbLine
 10
1201.212465
 20
504.7469959999999
 30
0.0
 11
1201.00029
 21
504.901362
 31
0.0
  0
LINE
  5
86A
330
6B
100
AcDbEntity
  8
0
100
AcDbLine
 10
1201.00029
 20
504.901362
 30
0.0
 11
1200.768741
 21
505.042812
 31
0.0
  0
LINE
  5
86B
330
6B
100
AcDbEntity
  8
0
100
AcDbLine
 10
1200.768741
 20
505.042812
 30
0.0
 11
1200.519581
 21
505.1702699999998
 31
0.0
  0
LINE
  5
86C
330
6B
100
AcDbEntity
  8
0
100
AcDbLine
 10
1200.519581
 20
505.1702699999998
 30
0.0
 11
1200.254705
 21
505.282766
 31
0.0
  0
LINE
  5
86D
330
6B
100
AcDbEntity
  8
0
100
AcDbLine
 10
1200.254705
 20
505.282766
 30
0.0
 11
1199.976131
 21
505.379444
 31
0.0
  0
LINE
  5
86E
330
6B
100
AcDbEntity
  8
0
100
AcDbLine
 10
1199.976131
 20
505.379444
 30
0.0
 11
1199.685978
 21
505.459568
 31
0.0
  0
LINE
  5
86F
330
6B
100
AcDbEntity
  8
0
100
AcDbLine
 10
1199.685978
 20
505.459568
 30
0.0
 11
1199.386454
 21
505.522527
 31
0.0
  0
LINE
  5
870
330
6B
100
AcDbEntity
  8
0
100
AcDbLine
 10
1199.386454
 20
505.522527
 30
0.0
 11
1199.079839
 21
505.567844
 31
0.0
  0
LINE
  5
871
330
6B
100
AcDbEntity
  8
0
100
AcDbLine
 10
1199.079839
 20
505.567844
 30
0.0
 11
1198.768466
 21
505.595173
 31
0.0
  0
LINE
  5
872
330
6B
100
AcDbEntity
  8
0
100
AcDbLine
 10
1198.768466
 20
505.595173
 30
0.0
 11
1198.454705
 21
505.6043049999998
 31
0.0
  0
LINE
  5
873
330
6B
100
AcDbEntity
  8
0
100
AcDbLine
 10
1198.454705
 20
505.6043049999998
 30
0.0
 11
1198.140945
 21
505.595173
 31
0.0
  0
LINE
  5
874
330
6B
100
AcDbEntity
  8
0
100
AcDbLine
 10
1198.140945
 20
505.595173
 30
0.0
 11
1197.829572
 21
505.567844
 31
0.0
  0
LINE
  5
875
330
6B
100
AcDbEntity
  8
0
100
AcDbLine
 10
1197.829572
 20
505.567844
 30
0.0
 11
1197.522957
 21
505.522527
 31
0.0
  0
LINE
  5
876
330
6B
100
AcDbEntity
  8
0
100
AcDbLine
 10
1197.522957
 20
505.522527
 30
0.0
 11
1197.223433
 21
505.459568
 31
0.0
  0
LINE
  5
877
330
6B
100
AcDbEntity
  8
0
100
AcDbLine
 10
1197.223433
 20
505.459568
 30
0.0
 11
1196.93328
 21
505.379444
 31
0.0
  0
LINE
  5
878
330
6B
100
AcDbEntity
  8
0
100
AcDbLine
 10
1196.93328
 20
505.379444
 30
0.0
 11
1196.654705
 21
505.282766
 31
0.0
  0
LINE
  5
879
330
6B
100
AcDbEntity
  8
0
100
AcDbLine
 10
1196.654705
 20
505.282766
 30
0.0
 11
1196.38983
 21
505.1702699999998
 31
0.0
  0
LINE
  5
87A
330
6B
100
AcDbEntity
  8
0
100
AcDbLine
 10
1196.38983
 20
505.1702699999998
 30
0.0
 11
1196.14067
 21
505.042812
 31
0.0
  0
LINE
  5
87B
330
6B
100
AcDbEntity
  8
0
100
AcDbLine
 10
1196.14067
 20
505.042812
 30
0.0
 11
1195.909121
 21
504.901362
 31
0.0
  0
LINE
  5
87C
330
6B
100
AcDbEntity
  8
0
100
AcDbLine
 10
1195.909121
 20
504.901362
 30
0.0
 11
1195.696945
 21
504.7469959999999
 31
0.0
  0
LINE
  5
87D
330
6B
100
AcDbEntity
  8
0
100
AcDbLine
 10
1195.696945
 20
504.7469959999999
 30
0.0
 11
1195.505758
 21
504.5808889999998
 31
0.0
  0
LINE
  5
87E
330
6B
100
AcDbEntity
  8
0
100
AcDbLine
 10
1195.505758
 20
504.5808889999998
 30
0.0
 11
1195.337014
 21
504.4043049999998
 31
0.0
  0
LINE
  5
87F
330
6B
100
AcDbEntity
  8
0
100
AcDbLine
 10
1195.337014
 20
504.4043049999998
 30
0.0
 11
1195.191997
 21
504.2185889999998
 31
0.0
  0
LINE
  5
880
330
6B
100
AcDbEntity
  8
0
100
AcDbLine
 10
1195.191997
 20
504.2185889999998
 30
0.0
 11
1195.071812
 21
504.0251539999998
 31
0.0
  0
LINE
  5
881
330
6B
100
AcDbEntity
  8
0
100
AcDbLine
 10
1195.071812
 20
504.0251539999998
 30
0.0
 11
1194.977372
 21
503.825471
 31
0.0
  0
LINE
  5
882
330
6B
100
AcDbEntity
  8
0
100
AcDbLine
 10
1194.977372
 20
503.825471
 30
0.0
 11
1194.909398
 21
503.621061
 31
0.0
  0
LINE
  5
883
330
6B
100
AcDbEntity
  8
0
100
AcDbLine
 10
1194.909398
 20
503.621061
 30
0.0
 11
1194.868405
 21
503.413479
 31
0.0
  0
LINE
  5
884
330
6B
100
AcDbEntity
  8
0
100
AcDbLine
 10
1194.868405
 20
503.413479
 30
0.0
 11
1194.854705
 21
503.2043049999998
 31
0.0
  0
LINE
  5
885
330
6B
100
AcDbEntity
  8
0
100
AcDbLine
 10
1104.647925
 20
421.2105369999999
 30
0.0
 11
1104.647925
 21
392.881553
 31
0.0
  0
LINE
  5
886
330
6B
100
AcDbEntity
  8
0
100
AcDbLine
 10
1206.647925
 20
421.2105369999999
 30
0.0
 11
1206.647925
 21
392.881553
 31
0.0
  0
LINE
  5
887
330
6B
100
AcDbEntity
  8
0
100
AcDbLine
 10
1107.147925
 20
394.131553
 30
0.0
 11
1204.147925
 21
394.131553
 31
0.0
  0
LINE
  5
88B
330
6B
100
AcDbEntity
  8
0
100
AcDbLine
 10
1193.082898
 20
415.4605369999998
 30
0.0
 11
1225.390042
 21
415.4605369999998
 31
0.0
  0
LINE
  5
88C
330
6B
100
AcDbEntity
  8
0
100
AcDbLine
 10
1158.597925
 20
525.260537
 30
0.0
 11
1225.390042
 21
525.260537
 31
0.0
  0
LINE
  5
88D
330
6B
100
AcDbEntity
  8
0
100
AcDbLine
 10
1224.140042
 20
417.9605369999999
 30
0.0
 11
1224.140042
 21
522.760537
 31
0.0
  0
LINE
  5
891
330
6B
100
AcDbEntity
  8
0
100
AcDbLine
 10
1251.09674
 20
418.2105369999998
 30
0.0
 11
1251.09674
 21
401.001872
 31
0.0
  0
LINE
  5
892
330
6B
100
AcDbEntity
  8
0
100
AcDbLine
 10
1365.09674
 20
418.2105369999998
 30
0.0
 11
1365.09674
 21
401.001872
 31
0.0
  0
LINE
  5
893
330
6B
100
AcDbEntity
  8
0
100
AcDbLine
 10
1253.59674
 20
402.251872
 30
0.0
 11
1362.59674
 21
402.251872
 31
0.0
  0
TEXT
  5
897
330
6B
100
AcDbEntity
  8
0
  6
Continuous
 62
     4
100
AcDbText
 10
1152.397925
 20
394.756553
 30
0.0
 40
3.0
  1
170
100
AcDbText
  0
LINE
  5
898
330
6B
100
AcDbEntity
  8
0
  6
ByBlock
 62
     0
370
    -2
100
AcDbLine
 10
1204.147925
 20
394.8014255
 30
0.0
 11
1206.647925
 21
394.131553
 31
0.0
  0
LINE
  5
899
330
6B
100
AcDbEntity
  8
0
  6
ByBlock
 62
     0
370
    -2
100
AcDbLine
 10
1206.647925
 20
394.131553
 30
0.0
 11
1204.147925
 21
393.4616805
 31
0.0
  0
LINE
  5
89A
330
6B
100
AcDbEntity
  8
0
  6
ByBlock
 62
     0
370
    -2
100
AcDbLine
 10
1206.647925
 20
394.131553
 30
0.0
 11
1204.147925
 21
394.131553
 31
0.0
  0
LINE
  5
89B
330
6B
100
AcDbEntity
  8
0
  6
ByBlock
 62
     0
370
    -2
100
AcDbLine
 10
1107.147925
 20
393.4616805
 30
0.0
 11
1104.647925
 21
394.131553
 31
0.0
  0
LINE
  5
89C
330
6B
100
AcDbEntity
  8
0
  6
ByBlock
 62
     0
370
    -2
100
AcDbLine
 10
1104.647925
 20
394.131553
 30
0.0
 11
1107.147925
 21
394.8014255
 31
0.0
  0
LINE
  5
89D
330
6B
100
AcDbEntity
  8
0
  6
ByBlock
 62
     0
370
    -2
100
AcDbLine
 10
1104.647925
 20
394.131553
 30
0.0
 11
1107.147925
 21
394.131553
 31
0.0
  0
TEXT
  5
89E
330
6B
100
AcDbEntity
  8
0
  6
Continuous
 62
     4
100
AcDbText
 10
1223.515042
 20
466.8605370000001
 30
0.0
 40
3.0
  1
183
 50
90.0
100
AcDbText
  0
LINE
  5
89F
330
6B
100
AcDbEntity
  8
0
  6
ByBlock
 62
     0
370
    -2
100
AcDbLine
 10
1223.4701695
 20
522.760537
 30
0.0
 11
1224.140042
 21
525.260537
 31
0.0
  0
LINE
  5
8A0
330
6B
100
AcDbEntity
  8
0
  6
ByBlock
 62
     0
370
    -2
100
AcDbLine
 10
1224.140042
 20
525.260537
 30
0.0
 11
1224.8099145
 21
522.760537
 31
0.0
  0
LINE
  5
8A1
330
6B
100
AcDbEntity
  8
0
  6
ByBlock
 62
     0
370
    -2
100
AcDbLine
 10
1224.140042
 20
525.260537
 30
0.0
 11
1224.140042
 21
522.760537
 31
0.0
  0
LINE
  5
8A2
330
6B
100
AcDbEntity
  8
0
  6
ByBlock
 62
     0
370
    -2
100
AcDbLine
 10
1224.8099145
 20
417.9605369999999
 30
0.0
 11
1224.140042
 21
415.4605369999998
 31
0.0
  0
LINE
  5
8A3
330
6B
100
AcDbEntity
  8
0
  6
ByBlock
 62
     0
370
    -2
100
AcDbLine
 10
1224.140042
 20
415.4605369999998
 30
0.0
 11
1223.470169499999
 21
417.9605369999999
 31
0.0
  0
LINE
  5
8A4
330
6B
100
AcDbEntity
  8
0
  6
ByBlock
 62
     0
370
    -2
100
AcDbLine
 10
1224.140042
 20
415.4605369999998
 30
0.0
 11
1224.140042
 21
417.9605369999999
 31
0.0
  0
TEXT
  5
8A5
330
6B
100
AcDbEntity
  8
0
  6
Continuous
 62
     4
100
AcDbText
 10
1304.84674
 20
402.876872
 30
0.0
 40
3.0
  1
190
100
AcDbText
  0
LINE
  5
8A6
330
6B
100
AcDbEntity
  8
0
  6
ByBlock
 62
     0
370
    -2
100
AcDbLine
 10
1362.59674
 20
402.9217445
 30
0.0
 11
1365.09674
 21
402.251872
 31
0.0
  0
LINE
  5
8A7
330
6B
100
AcDbEntity
  8
0
  6
ByBlock
 62
     0
370
    -2
100
AcDbLine
 10
1365.09674
 20
402.251872
 30
0.0
 11
1362.59674
 21
401.5819995
 31
0.0
  0
LINE
  5
8A8
330
6B
100
AcDbEntity
  8
0
  6
ByBlock
 62
     0
370
    -2
100
AcDbLine
 10
1365.09674
 20
402.251872
 30
0.0
 11
1362.59674
 21
402.251872
 31
0.0
  0
LINE
  5
8A9
330
6B
100
AcDbEntity
  8
0
  6
ByBlock
 62
     0
370
    -2
100
AcDbLine
 10
1253.59674
 20
401.5819995
 30
0.0
 11
1251.09674
 21
402.251872
 31
0.0
  0
LINE
  5
8AA
330
6B
100
AcDbEntity
  8
0
  6
ByBlock
 62
     0
370
    -2
100
AcDbLine
 10
1251.09674
 20
402.251872
 30
0.0
 11
1253.59674
 21
402.9217445
 31
0.0
  0
LINE
  5
8AB
330
6B
100
AcDbEntity
  8
0
  6
ByBlock
 62
     0
370
    -2
100
AcDbLine
 10
1251.09674
 20
402.251872
 30
0.0
 11
1253.59674
 21
402.251872
 31
0.0
  0
ENDSEC
  0
SECTION
  2
OBJECTS
  0
DICTIONARY
  5
C
330
0
100
AcDbDictionary
281
     1
  3
ACAD_2007HEADERVARS_RT
350
8AF
  3
ACAD_COLOR
350
62
  3
ACAD_GROUP
350
D
  3
ACAD_LAYOUT
350
61
  3
ACAD_MATERIAL
350
10
  3
ACAD_MLEADERSTYLE
350
65
  3
ACAD_MLINESTYLE
350
5E
  3
ACAD_PLOTSETTINGS
350
60
  3
ACAD_PLOTSTYLENAME
350
E
  3
ACAD_SCALELIST
350
42
  3
ACAD_TABLESTYLE
350
63
  3
ACAD_VISUALSTYLE
350
29
  3
ACDB_RECOMPOSE_DATA
350
8AD
  3
AcDbVariableDictionary
350
726
  3
DWGPROPS
350
8AE
  0
DICTIONARY
  5
561
330
2
100
AcDbDictionary
280
     1
281
     1
  3
ACAD_LAYERSTATES
360
562
  0
DICTIONARY
  5
724
330
54
100
AcDbDictionary
280
     1
281
     1
  3
ADSK_XREC_LAYER_RECONCILED
360
725
  0
DICTIONARY
  5
7D7
330
6B
100
AcDbDictionary
280
     1
281
     1
  3
ACAD_SORTENTS
360
7D8
  0
DICTIONARY
  5
8AF
102
{ACAD_REACTORS
330
C
102
}
330
C
100
AcDbDictionary
281
     1
  3
DIMARCSYM
350
8B1
  3
DIMFXL
350
8B0
  3
DIMJOGANG
350
8B2
  0
DICTIONARY
  5
62
102
{ACAD_REACTORS
330
C
102
}
330
C
100
AcDbDictionary
281
     1
  0
DICTIONARY
  5
D
102
{ACAD_REACTORS
330
C
102
}
330
C
100
AcDbDictionary
281
     1
  0
DICTIONARY
  5
61
102
{ACAD_REACTORS
330
C
102
}
330
C
100
AcDbDictionary
281
     1
  3
Model
350
6E
  3
レイアウト1
350
6A
  0
DICTIONARY
  5
10
102
{ACAD_REACTORS
330
C
102
}
330
C
100
AcDbDictionary
281
     1
  3
ByBlock
350
19
  3
ByLayer
350
11
  3
Global
350
21
  0
DICTIONARY
  5
65
102
{ACAD_REACTORS
330
C
102
}
330
C
100
AcDbDictionary
281
     1
  3
Standard
350
66
  0
DICTIONARY
  5
5E
102
{ACAD_REACTORS
330
C
102
}
330
C
100
AcDbDictionary
281
     1
  3
Standard
350
5F
  0
DICTIONARY
  5
60
102
{ACAD_REACTORS
330
C
102
}
330
C
100
AcDbDictionary
281
     1
  0
ACDBDICTIONARYWDFLT
  5
E
102
{ACAD_REACTORS
330
C
102
}
330
C
100
AcDbDictionary
281
     1
  3
Normal
350
F
100
AcDbDictionaryWithDefault
340
F
  0
DICTIONARY
  5
42
102
{ACAD_REACTORS
330
C
102
}
330
C
100
AcDbDictionary
281
     1
  3
A0
350
43
  3
A1
350
44
  3
A2
350
45
  3
A3
350
46
  3
A4
350
47
  3
A5
350
48
  3
A6
350
49
  3
A7
350
4A
  3
A8
350
4B
  3
A9
350
4C
  3
B0
350
4D
  3
B1
350
4E
  3
B2
350
4F
  3
B3
350
50
  3
B4
350
51
  3
B5
350
52
  3
B6
350
53
  0
DICTIONARY
  5
63
102
{ACAD_REACTORS
330
C
102
}
330
C
100
AcDbDictionary
281
     1
  3
Standard
350
64
  0
DICTIONARY
  5
29
102
{ACAD_REACTORS
330
C
102
}
330
C
100
AcDbDictionary
281
     1
  3
2dWireframe
350
2F
  3
3dWireframe
350
560
  3
Basic
350
2E
  3
Brighten
350
35
  3
ColorChange
350
39
  3
Conceptual
350
32
  3
Dim
350
34
  3
EdgeColorOff
350
41
  3
Facepattern
350
38
  3
Flat
350
2A
  3
FlatWithEdges
350
2B
  3
Gouraud
350
2C
  3
GouraudWithEdges
350
2D
  3
Hidden
350
31
  3
JitterOff
350
3F
  3
Linepattern
350
37
  3
OverhangOff
350
40
  3
Realistic
350
33
  3
Shaded
350
3E
  3
Shaded with edges
350
3D
  3
Shades of Gray
350
3A
  3
Sketchy
350
3B
  3
Thicken
350
36
  3
Wireframe
350
30
  3
X-Ray
350
3C
  0
XRECORD
  5
8AD
102
{ACAD_REACTORS
330
C
102
}
330
C
100
AcDbXrecord
280
     1
 90
        1
330
64
  0
DICTIONARY
  5
726
102
{ACAD_REACTORS
330
C
102
}
330
C
100
AcDbDictionary
281
     1
  3
CANNOSCALE
350
729
  3
CMLEADERSTYLE
350
728
  3
CTABLESTYLE
350
727
  3
DIMASSOC
350
72C
  3
INDEXCTL
350
72B
  3
SORTENTS
350
72A
  3
XCLIPFRAME
350
794
  0
XRECORD
  5
8AE
102
{ACAD_REACTORS
330
C
102
}
330
C
100
AcDbXrecord
280
     1
  1
DWGPROPS COOKIE
  2

  3

  4

  6

  7

  8
imamura
  9

300
=
301
=
302
=
303
=
304
=
305
=
306
=
307
=
308
=
309
=
 40
0.0149232638888889
 41
2456311.391671401
 42
2456849.473016157
  1

 90
        0
  0
DICTIONARY
  5
562
102
{ACAD_REACTORS
330
561
102
}
330
561
100
AcDbDictionary
281
     1
  0
XRECORD
  5
725
102
{ACAD_REACTORS
330
724
102
}
330
724
100
AcDbXrecord
280
     1
290
     1
  0
SORTENTSTABLE
  5
7D8
102
{ACAD_REACTORS
330
7D7
102
}
330
7D7
100
AcDbSortentsTable
330
6B
331
3D0
  5
7E2
331
3E1
  5
7F3
331
810
  5
484
331
821
  5
3DD
331
59A
  5
89B
331
3F2
  5
804
331
2E9
  5
3A8
331
201
  5
299
331
832
  5
3DA
331
403
  5
812
331
2FA
  5
3B9
331
212
  5
2AA
331
843
  5
220
331
414
  5
81D
331
EB
  5
112
331
854
  5
231
331
315
  5
3CE
331
21C
  5
2BB
331
FC
  5
123
331
C4
  5
EB
331
865
  5
242
331
22D
  5
2CC
331
10D
  5
134
331
D5
  5
FC
331
876
  5
257
331
23E
  5
2E3
331
11E
  5
145
331
E6
  5
10D
331
358
  5
414
331
24F
  5
2F0
331
12F
  5
156
331
887
  5
DB
331
369
  5
443
331
260
  5
2FD
331
140
  5
167
331
37A
  5
463
331
151
  5
178
331
7E2
  5
881
331
8A2
  5
D2
331
463
  5
851
331
38B
  5
474
331
474
  5
862
331
7F3
  5
838
331
485
  5
873
331
16C
  5
193
331
804
  5
811
331
3AE
  5
596
331
2A5
  5
35F
331
17D
  5
1A4
331
3BF
  5
5A7
331
2B6
  5
369
331
18E
  5
200
331
2C7
  5
37A
331
19F
  5
211
331
891
  5
BC
331
3C0
  5
5A8
331
3D1
  5
7E3
331
2C8
  5
37B
331
1A0
  5
212
331
3E2
  5
7F4
331
811
  5
3EF
331
822
  5
3DE
331
59B
  5
89C
331
3F3
  5
805
331
2EA
  5
3A9
331
202
  5
29A
331
833
  5
3DB
331
404
  5
813
331
2FB
  5
3BA
331
213
  5
2B2
331
844
  5
221
331
415
  5
81E
331
EC
  5
113
331
855
  5
232
331
316
  5
3CF
331
21D
  5
2BC
331
FD
  5
124
331
C5
  5
EC
331
866
  5
243
331
22E
  5
2CD
331
10E
  5
135
331
D6
  5
FD
331
23F
  5
2E4
331
11F
  5
146
331
E7
  5
10E
331
359
  5
415
331
250
  5
2F1
331
130
  5
157
331
36A
  5
444
331
261
  5
2FE
331
141
  5
168
331
877
  5
25C
331
453
  5
844
331
37B
  5
464
331
27A
  5
314
331
152
  5
179
331
7E3
  5
882
331
8A3
  5
D3
331
464
  5
852
331
38C
  5
475
331
475
  5
863
331
7F4
  5
839
331
486
  5
874
331
16D
  5
194
331
805
  5
485
331
3AF
  5
597
331
2A6
  5
360
331
17E
  5
1A5
331
2B7
  5
36A
331
18F
  5
201
331
892
  5
BD
331
3B0
  5
598
331
3C1
  5
5A9
331
2B8
  5
36B
331
190
  5
202
331
3D2
  5
7E4
331
2C9
  5
37C
331
1A1
  5
213
331
3E3
  5
7F5
331
812
  5
3F0
331
823
  5
3DF
331
59C
  5
89D
331
3F4
  5
806
331
2EB
  5
3AA
331
203
  5
29B
331
834
  5
3DC
331
405
  5
814
331
2FC
  5
3BB
331
214
  5
2B3
331
845
  5
222
331
30D
  5
3C6
331
ED
  5
114
331
856
  5
233
331
317
  5
3D0
331
21E
  5
2BD
331
FE
  5
125
331
C6
  5
ED
331
867
  5
244
331
22F
  5
2CE
331
10F
  5
136
331
878
  5
25D
331
240
  5
2E5
331
120
  5
147
331
35A
  5
41B
331
251
  5
2F2
331
131
  5
158
331
443
  5
83A
331
36B
  5
445
331
262
  5
30D
331
142
  5
169
331
D7
  5
FE
331
7D3
  5
88C
331
454
  5
845
331
37C
  5
465
331
153
  5
17A
331
7E4
  5
883
331
8A4
  5
D4
331
465
  5
853
331
38D
  5
476
331
28C
  5
318
331
476
  5
864
331
7F5
  5
833
331
487
  5
875
331
16E
  5
195
331
806
  5
486
331
2A7
  5
361
331
17F
  5
1A6
331
893
  5
BE
331
488
  5
876
331
3B1
  5
599
331
2A8
  5
362
331
180
  5
1A7
331
3C2
  5
5AA
331
2B9
  5
36C
331
191
  5
203
331
3D3
  5
7E5
331
2CA
  5
37D
331
1A2
  5
214
331
813
  5
3F1
331
4B4
  5
890
331
3E4
  5
7F6
331
1F3
  5
27C
331
824
  5
3E0
331
59D
  5
89E
331
3F5
  5
807
331
2EC
  5
3AB
331
204
  5
29C
331
835
  5
3C2
331
2FD
  5
3BC
331
215
  5
2B4
331
846
  5
223
331
30E
  5
3C7
331
EE
  5
115
331
857
  5
234
331
318
  5
3D1
331
21F
  5
2BE
331
FF
  5
126
331
868
  5
245
331
230
  5
2CF
331
110
  5
137
331
D8
  5
FF
331
879
  5
25E
331
34A
  5
3F7
331
241
  5
2E6
331
121
  5
148
331
433
  5
830
331
35B
  5
41C
331
252
  5
2F3
331
444
  5
83B
331
36C
  5
44B
331
263
  5
30E
331
143
  5
16A
331
132
  5
159
331
C7
  5
EE
331
7D4
  5
88D
331
455
  5
846
331
37D
  5
466
331
27C
  5
315
331
154
  5
17B
331
7E5
  5
87C
331
8A5
  5
CE
331
466
  5
854
331
38E
  5
477
331
28D
  5
319
331
477
  5
865
331
807
  5
487
331
7F6
  5
834
331
16F
  5
196
331
478
  5
866
331
808
  5
488
331
489
  5
877
331
298
  5
352
331
170
  5
197
331
3B2
  5
59A
331
2A9
  5
363
331
181
  5
1F3
331
3C3
  5
7D3
331
2BA
  5
36D
331
192
  5
204
331
3D4
  5
7E6
331
2CB
  5
37E
331
1A3
  5
215
331
814
  5
3F2
331
4B5
  5
891
331
3E5
  5
7F7
331
2DC
  5
389
331
1F4
  5
282
331
825
  5
3E1
331
59E
  5
89F
331
3F6
  5
808
331
2ED
  5
3AC
331
205
  5
29D
331
836
  5
3C3
331
2FE
  5
3BD
331
216
  5
2B5
331
30F
  5
3C8
331
EF
  5
116
331
858
  5
235
331
319
  5
3D2
331
220
  5
2BF
331
100
  5
127
331
C8
  5
EF
331
231
  5
2D0
331
111
  5
138
331
D9
  5
100
331
87A
  5
25F
331
423
  5
826
331
34B
  5
3F8
331
242
  5
2E7
331
122
  5
149
331
434
  5
831
331
35C
  5
41D
331
253
  5
2F4
331
7D5
  5
88E
331
445
  5
83C
331
36D
  5
44C
331
264
  5
30F
331
144
  5
16B
331
133
  5
15A
331
869
  5
248
331
37E
  5
467
331
7E6
  5
87D
331
8A6
  5
C8
331
467
  5
855
331
38F
  5
478
331
7F7
  5
82E
331
28E
  5
34A
331
155
  5
17C
331
847
  5
224
331
468
  5
856
331
390
  5
479
331
7F8
  5
82F
331
479
  5
867
331
160
  5
187
331
809
  5
489
331
299
  5
353
331
171
  5
198
331
3B3
  5
59B
331
2AA
  5
364
331
182
  5
1F4
331
3C4
  5
7D4
331
2BB
  5
36E
331
193
  5
205
331
3D5
  5
7E7
331
2CC
  5
37F
331
1A4
  5
216
331
815
  5
3F3
331
4B6
  5
892
331
3E6
  5
7F8
331
2DD
  5
38A
331
1F5
  5
288
331
826
  5
3E2
331
59F
  5
8A0
331
3F7
  5
809
331
2EE
  5
3AD
331
206
  5
29E
331
837
  5
3C4
331
217
  5
2B6
331
848
  5
225
331
859
  5
236
331
221
  5
2C0
331
101
  5
128
331
C9
  5
F0
331
86A
  5
24A
331
232
  5
2D1
331
112
  5
139
331
87B
  5
260
331
424
  5
827
331
34C
  5
3F9
331
243
  5
2E8
331
123
  5
14A
331
435
  5
832
331
35D
  5
423
331
254
  5
2F5
331
134
  5
15B
331
7D6
  5
88F
331
36E
  5
44D
331
265
  5
310
331
37F
  5
468
331
156
  5
17D
331
145
  5
16C
331
DA
  5
101
331
7E7
  5
87E
331
8A7
  5
C9
331
F0
  5
117
331
380
  5
469
331
7E8
  5
87F
331
8A8
  5
CA
331
469
  5
857
331
391
  5
47A
331
7F9
  5
829
331
47A
  5
868
331
161
  5
188
331
80A
  5
4B4
331
29A
  5
354
331
172
  5
199
331
3B4
  5
59C
331
183
  5
1F5
331
3C5
  5
7D5
331
2BC
  5
36F
331
194
  5
206
331
3D6
  5
7E8
331
2CD
  5
380
331
1A5
  5
217
331
816
  5
3F4
331
4B7
  5
893
331
3E7
  5
7F9
331
2DE
  5
38B
331
1F6
  5
28C
331
827
  5
3E3
331
5A0
  5
8A1
331
3F8
  5
80A
331
2EF
  5
3AE
331
207
  5
29F
331
838
  5
3C5
331
849
  5
226
331
85A
  5
237
331
222
  5
2C1
331
102
  5
129
331
CA
  5
F1
331
F1
  5
118
331
233
  5
2D2
331
113
  5
13A
331
DB
  5
102
331
425
  5
828
331
34D
  5
3FA
331
244
  5
2E9
331
124
  5
14B
331
35E
  5
424
331
255
  5
2F6
331
135
  5
15C
331
36F
  5
453
331
266
  5
311
331
146
  5
16D
331
157
  5
17E
331
897
  5
E2
331
87C
  5
261
331
86B
  5
24C
331
370
  5
454
331
381
  5
46A
331
158
  5
17F
331
898
  5
DF
331
7E9
  5
878
331
46A
  5
858
331
392
  5
47B
331
291
  5
34B
331
8A9
  5
C2
331
7FA
  5
82A
331
47B
  5
869
331
162
  5
189
331
80B
  5
47F
331
29B
  5
355
331
173
  5
19A
331
3B5
  5
59D
331
184
  5
1F6
331
BC
  5
E3
331
3C6
  5
7D6
331
2BD
  5
370
331
195
  5
207
331
3D7
  5
7E9
331
2CE
  5
381
331
1A6
  5
218
331
817
  5
3F5
331
3E8
  5
7FA
331
2DF
  5
38C
331
1F7
  5
28D
331
828
  5
3E4
331
5A1
  5
8A2
331
3F9
  5
80B
331
2F0
  5
3AF
331
839
  5
3BE
331
84A
  5
227
331
85B
  5
238
331
223
  5
2C2
331
103
  5
12A
331
CB
  5
F2
331
86C
  5
24D
331
F2
  5
119
331
208
  5
2A0
331
234
  5
2D3
331
114
  5
13B
331
87D
  5
262
331
34E
  5
3FB
331
245
  5
2EA
331
35F
  5
425
331
256
  5
2F7
331
136
  5
15D
331
267
  5
312
331
147
  5
16E
331
125
  5
14C
331
DC
  5
103
331
360
  5
42B
331
371
  5
455
331
268
  5
313
331
148
  5
16F
331
7D9
  5
888
331
899
  5
E0
331
382
  5
46B
331
159
  5
180
331
7EA
  5
879
331
46B
  5
859
331
393
  5
47C
331
292
  5
34C
331
8AA
  5
C3
331
7FB
  5
824
331
47C
  5
86A
331
163
  5
18A
331
29C
  5
356
331
174
  5
19B
331
3B6
  5
59E
331
185
  5
1F7
331
3C7
  5
7D9
331
2BE
  5
371
331
196
  5
208
331
BD
  5
E4
331
3D8
  5
7EA
331
2CF
  5
382
331
1A7
  5
219
331
80C
  5
480
331
818
  5
3F6
331
3E9
  5
7FB
331
2E0
  5
38D
331
1F8
  5
28E
331
5A2
  5
8A3
331
3FA
  5
80C
331
2F1
  5
3B0
331
209
  5
2A1
331
40B
  5
817
331
83A
  5
3BF
331
84B
  5
228
331
85C
  5
239
331
224
  5
2C3
331
104
  5
12B
331
CC
  5
F3
331
86D
  5
24E
331
F3
  5
11A
331
829
  5
3E5
331
235
  5
2D4
331
115
  5
13C
331
87E
  5
263
331
34F
  5
3FC
331
257
  5
2F8
331
137
  5
15E
331
126
  5
14D
331
DD
  5
104
331
350
  5
3FD
331
361
  5
42C
331
138
  5
15F
331
372
  5
45B
331
149
  5
170
331
7DA
  5
889
331
89A
  5
E1
331
45B
  5
849
331
383
  5
46C
331
282
  5
316
331
15A
  5
181
331
7EB
  5
87A
331
46C
  5
85A
331
394
  5
47D
331
293
  5
34D
331
8AB
  5
C4
331
7FC
  5
825
331
47D
  5
86B
331
164
  5
18B
331
80D
  5
481
331
29D
  5
357
331
3B7
  5
59F
331
186
  5
1F8
331
BE
  5
E5
331
3C8
  5
7DA
331
2BF
  5
372
331
197
  5
209
331
3D9
  5
7EB
331
2D0
  5
383
331
175
  5
19C
331
819
  5
3E7
331
3EA
  5
7FC
331
2E1
  5
38E
331
82A
  5
3E6
331
5A3
  5
8A4
331
3FB
  5
80D
331
2F2
  5
3B1
331
20A
  5
2A2
331
40C
  5
818
331
83B
  5
3C0
331
84C
  5
229
331
85D
  5
23A
331
225
  5
2C4
331
105
  5
12C
331
CD
  5
F4
331
86E
  5
24F
331
F4
  5
11B
331
1F9
  5
291
331
236
  5
2D5
331
116
  5
13D
331
87F
  5
264
331
127
  5
14E
331
DE
  5
105
331
880
  5
265
331
351
  5
403
331
248
  5
2EB
331
128
  5
14F
331
362
  5
42D
331
139
  5
160
331
44B
  5
83F
331
373
  5
45C
331
14A
  5
171
331
7DB
  5
88A
331
89B
  5
DC
331
7EC
  5
87B
331
45C
  5
84A
331
384
  5
46D
331
15B
  5
182
331
46D
  5
85B
331
395
  5
47E
331
294
  5
34E
331
7FD
  5
81F
331
47E
  5
86C
331
165
  5
18C
331
80E
  5
482
331
29E
  5
358
331
3B8
  5
5A0
331
187
  5
1F9
331
BF
  5
E6
331
176
  5
19D
331
3C9
  5
7DB
331
2C0
  5
373
331
3DA
  5
7EC
331
2D1
  5
384
331
198
  5
20A
331
3EB
  5
7FD
331
2E2
  5
38F
331
1FA
  5
292
331
5A4
  5
8A5
331
3FC
  5
80E
331
2F3
  5
3B2
331
20B
  5
2A3
331
40D
  5
819
331
83C
  5
3C1
331
84D
  5
22A
331
85E
  5
23B
331
226
  5
2C5
331
106
  5
12D
331
CE
  5
F5
331
86F
  5
250
331
F5
  5
11C
331
82B
  5
3D3
331
81A
  5
3E8
331
237
  5
2DC
331
117
  5
13E
331
DF
  5
106
331
870
  5
251
331
238
  5
2DD
331
118
  5
13F
331
E0
  5
107
331
881
  5
266
331
352
  5
404
331
129
  5
150
331
43B
  5
835
331
363
  5
433
331
13A
  5
161
331
44C
  5
840
331
374
  5
45D
331
14B
  5
172
331
88B
  5
CF
331
7DC
  5
88B
331
89C
  5
DD
331
45D
  5
84B
331
385
  5
46E
331
15C
  5
183
331
46E
  5
85C
331
295
  5
34F
331
7FE
  5
820
331
47F
  5
86D
331
166
  5
18D
331
4B8
  5
894
331
3A8
  5
4B5
331
29F
  5
359
331
177
  5
19E
331
80F
  5
483
331
3B9
  5
5A1
331
188
  5
1FA
331
3CA
  5
7DC
331
2C1
  5
374
331
199
  5
20B
331
3DB
  5
7ED
331
81B
  5
3E9
331
3EC
  5
7FE
331
2E3
  5
390
331
82C
  5
3D4
331
5A5
  5
8A6
331
3FD
  5
80F
331
2F4
  5
3B3
331
20C
  5
2A4
331
84E
  5
22B
331
83D
  5
21A
331
85F
  5
23C
331
F6
  5
11D
331
227
  5
2C6
331
107
  5
12E
331
CF
  5
F6
331
1FB
  5
293
331
2D2
  5
385
331
7ED
  5
847
331
310
  5
3C9
331
860
  5
23D
331
228
  5
2C7
331
108
  5
12F
331
D0
  5
F7
331
871
  5
252
331
239
  5
2DE
331
119
  5
140
331
E1
  5
108
331
882
  5
267
331
42B
  5
82B
331
353
  5
405
331
24A
  5
2EC
331
12A
  5
151
331
43C
  5
836
331
364
  5
434
331
13B
  5
162
331
44D
  5
841
331
375
  5
45E
331
14C
  5
173
331
88C
  5
D0
331
7DD
  5
884
331
89D
  5
DE
331
45E
  5
84C
331
386
  5
46F
331
15D
  5
184
331
46F
  5
85D
331
296
  5
350
331
7FF
  5
81A
331
480
  5
86E
331
167
  5
18E
331
4B9
  5
895
331
3A9
  5
4B6
331
2A0
  5
35A
331
3BA
  5
5A2
331
189
  5
1FB
331
178
  5
19F
331
3CB
  5
7DD
331
2C2
  5
375
331
19A
  5
20C
331
3DC
  5
7EE
331
2D3
  5
386
331
3ED
  5
7FF
331
2E4
  5
391
331
1FC
  5
294
331
82D
  5
3D5
331
5A6
  5
8A7
331
2F5
  5
3B4
331
84F
  5
22C
331
83E
  5
21B
331
20D
  5
2A5
331
F7
  5
11E
331
81C
  5
3EA
331
7EE
  5
848
331
850
  5
22D
331
311
  5
3CA
331
218
  5
2B7
331
F8
  5
11F
331
C0
  5
E7
331
861
  5
23E
331
229
  5
2C8
331
109
  5
130
331
D1
  5
F8
331
872
  5
253
331
41B
  5
821
331
23A
  5
2DF
331
11A
  5
141
331
E2
  5
109
331
883
  5
268
331
42C
  5
82C
331
354
  5
40B
331
12B
  5
152
331
43D
  5
837
331
365
  5
435
331
25C
  5
2F9
331
13C
  5
163
331
376
  5
45F
331
14D
  5
174
331
88D
  5
D1
331
7DE
  5
885
331
89E
  5
D8
331
45F
  5
84D
331
387
  5
470
331
15E
  5
185
331
470
  5
85E
331
297
  5
351
331
800
  5
81B
331
481
  5
86F
331
4BA
  5
896
331
3AA
  5
4B7
331
2A1
  5
35B
331
179
  5
1A0
331
168
  5
18F
331
3BB
  5
5A3
331
2B2
  5
365
331
18A
  5
1FC
331
3CC
  5
7DE
331
2C3
  5
376
331
19B
  5
20D
331
3DD
  5
7EF
331
2D4
  5
387
331
596
  5
897
331
3EE
  5
800
331
2E5
  5
392
331
1FD
  5
295
331
82E
  5
3D6
331
5A7
  5
8A8
331
2F6
  5
3B5
331
83F
  5
21C
331
20E
  5
2A6
331
81D
  5
3EB
331
7EF
  5
842
331
5A8
  5
8A9
331
840
  5
21D
331
851
  5
22E
331
E8
  5
10F
331
312
  5
3CB
331
219
  5
2B8
331
F9
  5
120
331
C1
  5
E8
331
862
  5
23F
331
22A
  5
2C9
331
10A
  5
131
331
D2
  5
F9
331
873
  5
254
331
41C
  5
822
331
23B
  5
2E0
331
11B
  5
142
331
E3
  5
10A
331
884
  5
27A
331
42D
  5
82D
331
355
  5
40C
331
24C
  5
2ED
331
12C
  5
153
331
366
  5
43B
331
25D
  5
2FA
331
13D
  5
164
331
377
  5
460
331
14E
  5
175
331
7DF
  5
886
331
89F
  5
D5
331
460
  5
84E
331
388
  5
471
331
15F
  5
186
331
471
  5
85F
331
801
  5
815
331
482
  5
870
331
3AB
  5
4B8
331
2A2
  5
35C
331
17A
  5
1A1
331
169
  5
190
331
3BC
  5
5A4
331
2B3
  5
366
331
18B
  5
1FD
331
3CD
  5
7DF
331
2C4
  5
377
331
19C
  5
20E
331
3DE
  5
7F0
331
2D5
  5
388
331
81E
  5
3EC
331
597
  5
898
331
3EF
  5
801
331
2E6
  5
393
331
82F
  5
3D7
331
2F7
  5
3B6
331
20F
  5
2A7
331
1FE
  5
296
331
7F0
  5
843
331
598
  5
899
331
3F0
  5
802
331
830
  5
3D8
331
5A9
  5
8AA
331
2F8
  5
3B7
331
210
  5
2A8
331
841
  5
21E
331
852
  5
22F
331
E9
  5
110
331
313
  5
3CC
331
21A
  5
2B9
331
FA
  5
121
331
C2
  5
E9
331
863
  5
240
331
22B
  5
2CA
331
10B
  5
132
331
D3
  5
FA
331
874
  5
255
331
41D
  5
823
331
23C
  5
2E1
331
11C
  5
143
331
E4
  5
10B
331
356
  5
40D
331
24D
  5
2EE
331
12D
  5
154
331
885
  5
D9
331
367
  5
43C
331
25E
  5
2FB
331
13E
  5
165
331
378
  5
461
331
14F
  5
176
331
7E0
  5
887
331
8A0
  5
D6
331
461
  5
84F
331
389
  5
472
331
288
  5
317
331
472
  5
860
331
7F1
  5
83D
331
483
  5
871
331
16A
  5
191
331
3AC
  5
4B9
331
2A3
  5
35D
331
17B
  5
1A2
331
3BD
  5
5A5
331
2B4
  5
367
331
18C
  5
1FE
331
3DF
  5
7F1
331
3CE
  5
7E0
331
2C5
  5
378
331
19D
  5
20F
331
81F
  5
3ED
331
2E7
  5
394
331
1FF
  5
297
331
802
  5
816
331
3E0
  5
7F2
331
820
  5
3EE
331
599
  5
89A
331
3F1
  5
803
331
2E8
  5
395
331
200
  5
298
331
831
  5
3D9
331
5AA
  5
8AB
331
2F9
  5
3B8
331
211
  5
2A9
331
842
  5
21F
331
413
  5
81C
331
EA
  5
111
331
853
  5
230
331
314
  5
3CD
331
21B
  5
2BA
331
FB
  5
122
331
C3
  5
EA
331
864
  5
241
331
22C
  5
2CB
331
10C
  5
133
331
D4
  5
FB
331
875
  5
256
331
23D
  5
2E2
331
11D
  5
144
331
E5
  5
10C
331
357
  5
413
331
24E
  5
2EF
331
12E
  5
155
331
886
  5
DA
331
368
  5
43D
331
25F
  5
2FC
331
13F
  5
166
331
379
  5
462
331
7E1
  5
880
331
8A1
  5
D7
331
462
  5
850
331
38A
  5
473
331
150
  5
177
331
473
  5
861
331
7F2
  5
83E
331
484
  5
872
331
16B
  5
192
331
3AD
  5
4BA
331
2A4
  5
35E
331
17C
  5
1A3
331
3BE
  5
5A6
331
2B5
  5
368
331
18D
  5
1FF
331
3CF
  5
7E1
331
2C6
  5
379
331
19E
  5
210
331
803
  5
810
  0
XRECORD
  5
8B1
102
{ACAD_REACTORS
330
8AF
102
}
330
8AF
100
AcDbXrecord
280
     1
 70
     2
  0
XRECORD
  5
8B0
102
{ACAD_REACTORS
330
8AF
102
}
330
8AF
100
AcDbXrecord
280
     1
 40
1.25
  0
XRECORD
  5
8B2
102
{ACAD_REACTORS
330
8AF
102
}
330
8AF
100
AcDbXrecord
280
     1
 40
1.570796326794896
  0
LAYOUT
  5
6E
102
{ACAD_XDICTIONARY
360
8E6
102
}
102
{ACAD_REACTORS
330
61
102
}
330
61
100
AcDbPlotSettings
  1

  2
FX DP 205
  4

  6

 40
0.0
 41
0.0
 42
0.0
 43
0.0
 44
0.0
 45
0.0
 46
0.0
 47
0.0
 48
0.0
 49
0.0
140
0.0
141
0.0
142
1.0
143
1.0
 70
  1712
 72
     0
 73
     0
 74
     0
  7

 75
     0
147
1.0
148
0.0
149
0.0
100
AcDbLayout
  1
Model
 70
     1
 71
     0
 10
0.0
 20
0.0
 11
12.0
 21
9.0
 12
0.0
 22
0.0
 32
0.0
 14
0.0
 24
0.0
 34
0.0
 15
0.0
 25
0.0
 35
0.0
146
0.0
 13
0.0
 23
0.0
 33
0.0
 16
1.0
 26
0.0
 36
0.0
 17
0.0
 27
1.0
 37
0.0
 76
     0
330
6B
331
8C
  0
LAYOUT
  5
6A
102
{ACAD_XDICTIONARY
360
8E4
102
}
102
{ACAD_REACTORS
330
61
102
}
330
61
100
AcDbPlotSettings
  1

  2
FX DP 205
  4

  6

 40
0.0
 41
0.0
 42
0.0
 43
0.0
 44
0.0
 45
0.0
 46
0.0
 47
0.0
 48
0.0
 49
0.0
140
0.0
141
0.0
142
1.0
143
1.0
 70
   688
 72
     0
 73
     0
 74
     5
  7

 75
    16
147
1.0
148
0.0
149
0.0
100
AcDbLayout
  1
レイアウト1
 70
     1
 71
     1
 10
0.0
 20
0.0
 11
12.0
 21
9.0
 12
0.0
 22
0.0
 32
0.0
 14
1.000000000000000E+20
 24
1.000000000000000E+20
 34
1.000000000000000E+20
 15
-1.000000000000000E+20
 25
-1.000000000000000E+20
 35
-1.000000000000000E+20
146
0.0
 13
0.0
 23
0.0
 33
0.0
 16
1.0
 26
0.0
 36
0.0
 17
0.0
 27
1.0
 37
0.0
 76
     0
330
67
  0
MATERIAL
  5
19
102
{ACAD_XDICTIONARY
360
1A
102
}
102
{ACAD_REACTORS
330
10
102
}
330
10
100
AcDbMaterial
  1
ByBlock
 72
     0
 43
0.0208333333333333
 43
0.0
 43
0.0
 43
0.0
 43
0.0
 43
0.0208333333333333
 43
0.0
 43
0.0
 43
0.0
 43
0.0
 43
1.0
 43
0.0
 43
0.0
 43
0.0
 43
0.0
 43
1.0
 77
     0
 47
0.0208333333333333
 47
0.0
 47
0.0
 47
0.0
 47
0.0
 47
0.0208333333333333
 47
0.0
 47
0.0
 47
0.0
 47
0.0
 47
1.0
 47
0.0
 47
0.0
 47
0.0
 47
0.0
 47
1.0
171
     0
 49
0.0208333333333333
 49
0.0
 49
0.0
 49
0.0
 49
0.0
 49
0.0208333333333333
 49
0.0
 49
0.0
 49
0.0
 49
0.0
 49
1.0
 49
0.0
 49
0.0
 49
0.0
 49
0.0
 49
1.0
175
     0
142
0.0208333333333333
142
0.0
142
0.0
142
0.0
142
0.0
142
0.0208333333333333
142
0.0
142
0.0
142
0.0
142
0.0
142
1.0
142
0.0
142
0.0
142
0.0
142
0.0
142
1.0
179
     0
144
0.0208333333333333
144
0.0
144
0.0
144
0.0
144
0.0
144
0.0208333333333333
144
0.0
144
0.0
144
0.0
144
0.0
144
1.0
144
0.0
144
0.0
144
0.0
144
0.0
144
1.0
147
0.0208333333333333
147
0.0
147
0.0
147
0.0
147
0.0
147
0.0208333333333333
147
0.0
147
0.0
147
0.0
147
0.0
147
1.0
147
0.0
147
0.0
147
0.0
147
0.0
147
1.0
  0
MATERIAL
  5
11
102
{ACAD_XDICTIONARY
360
12
102
}
102
{ACAD_REACTORS
330
10
102
}
330
10
100
AcDbMaterial
  1
ByLayer
 72
     0
 43
0.0208333333333333
 43
0.0
 43
0.0
 43
0.0
 43
0.0
 43
0.0208333333333333
 43
0.0
 43
0.0
 43
0.0
 43
0.0
 43
1.0
 43
0.0
 43
0.0
 43
0.0
 43
0.0
 43
1.0
 77
     0
 47
0.0208333333333333
 47
0.0
 47
0.0
 47
0.0
 47
0.0
 47
0.0208333333333333
 47
0.0
 47
0.0
 47
0.0
 47
0.0
 47
1.0
 47
0.0
 47
0.0
 47
0.0
 47
0.0
 47
1.0
171
     0
 49
0.0208333333333333
 49
0.0
 49
0.0
 49
0.0
 49
0.0
 49
0.0208333333333333
 49
0.0
 49
0.0
 49
0.0
 49
0.0
 49
1.0
 49
0.0
 49
0.0
 49
0.0
 49
0.0
 49
1.0
175
     0
142
0.0208333333333333
142
0.0
142
0.0
142
0.0
142
0.0
142
0.0208333333333333
142
0.0
142
0.0
142
0.0
142
0.0
142
1.0
142
0.0
142
0.0
142
0.0
142
0.0
142
1.0
179
     0
144
0.0208333333333333
144
0.0
144
0.0
144
0.0
144
0.0
144
0.0208333333333333
144
0.0
144
0.0
144
0.0
144
0.0
144
1.0
144
0.0
144
0.0
144
0.0
144
0.0
144
1.0
147
0.0208333333333333
147
0.0
147
0.0
147
0.0
147
0.0
147
0.0208333333333333
147
0.0
147
0.0
147
0.0
147
0.0
147
1.0
147
0.0
147
0.0
147
0.0
147
0.0
147
1.0
  0
MATERIAL
  5
21
102
{ACAD_XDICTIONARY
360
22
102
}
102
{ACAD_REACTORS
330
10
102
}
330
10
100
AcDbMaterial
  1
Global
 72
     0
 43
0.0208333333333333
 43
0.0
 43
0.0
 43
0.0
 43
0.0
 43
0.0208333333333333
 43
0.0
 43
0.0
 43
0.0
 43
0.0
 43
1.0
 43
0.0
 43
0.0
 43
0.0
 43
0.0
 43
1.0
 77
     0
 47
0.0208333333333333
 47
0.0
 47
0.0
 47
0.0
 47
0.0
 47
0.0208333333333333
 47
0.0
 47
0.0
 47
0.0
 47
0.0
 47
1.0
 47
0.0
 47
0.0
 47
0.0
 47
0.0
 47
1.0
171
     0
 49
0.0208333333333333
 49
0.0
 49
0.0
 49
0.0
 49
0.0
 49
0.0208333333333333
 49
0.0
 49
0.0
 49
0.0
 49
0.0
 49
1.0
 49
0.0
 49
0.0
 49
0.0
 49
0.0
 49
1.0
175
     0
142
0.0208333333333333
142
0.0
142
0.0
142
0.0
142
0.0
142
0.0208333333333333
142
0.0
142
0.0
142
0.0
142
0.0
142
1.0
142
0.0
142
0.0
142
0.0
142
0.0
142
1.0
179
     0
144
0.0208333333333333
144
0.0
144
0.0
144
0.0
144
0.0
144
0.0208333333333333
144
0.0
144
0.0
144
0.0
144
0.0
144
1.0
144
0.0
144
0.0
144
0.0
144
0.0
144
1.0
147
0.0208333333333333
147
0.0
147
0.0
147
0.0
147
0.0
147
0.0208333333333333
147
0.0
147
0.0
147
0.0
147
0.0
147
1.0
147
0.0
147
0.0
147
0.0
147
0.0
147
1.0
  0
MLEADERSTYLE
  5
66
102
{ACAD_REACTORS
330
65
102
}
330
65
100
AcDbMLeaderStyle
170
     2
171
     1
172
     0
 90
        2
 40
0.0
 41
0.0
173
     1
 91
-1056964608
340
5A
 92
       -2
290
     1
 42
0.09
291
     1
 43
0.36
  3
Standard
 44
0.18
300

342
55
174
     1
178
     6
175
     1
176
     0
 93
-1056964608
 45
0.18
292
     0
297
     0
 46
0.18
 94
-1056964608
 47
1.0
 49
1.0
140
1.0
293
     1
141
0.0
294
     1
177
     0
142
1.0
295
     0
296
     0
143
0.125
1001
ACAD_MLEADERVER
1070
     2
  0
MLINESTYLE
  5
5F
102
{ACAD_REACTORS
330
5E
102
}
330
5E
100
AcDbMlineStyle
  2
STANDARD
 70
     0
  3

 62
   256
 51
90.0
 52
90.0
 71
     2
 49
0.5
 62
   256
  6
BYLAYER
 49
-0.5
 62
   256
  6
BYLAYER
  0
ACDBPLACEHOLDER
  5
F
102
{ACAD_REACTORS
330
E
102
}
330
E
  0
SCALE
  5
43
102
{ACAD_REACTORS
330
42
102
}
330
42
100
AcDbScale
 70
     0
300
1:1
140
1.0
141
1.0
290
     1
  0
SCALE
  5
44
102
{ACAD_REACTORS
330
42
102
}
330
42
100
AcDbScale
 70
     0
300
1/128" = 1'-0"
140
0.0078125
141
12.0
290
     0
  0
SCALE
  5
45
102
{ACAD_REACTORS
330
42
102
}
330
42
100
AcDbScale
 70
     0
300
1/64" = 1'-0"
140
0.015625
141
12.0
290
     0
  0
SCALE
  5
46
102
{ACAD_REACTORS
330
42
102
}
330
42
100
AcDbScale
 70
     0
300
1/32" = 1'-0"
140
0.03125
141
12.0
290
     0
  0
SCALE
  5
47
102
{ACAD_REACTORS
330
42
102
}
330
42
100
AcDbScale
 70
     0
300
1/16" = 1'-0"
140
0.0625
141
12.0
290
     0
  0
SCALE
  5
48
102
{ACAD_REACTORS
330
42
102
}
330
42
100
AcDbScale
 70
     0
300
3/32" = 1'-0"
140
0.09375
141
12.0
290
     0
  0
SCALE
  5
49
102
{ACAD_REACTORS
330
42
102
}
330
42
100
AcDbScale
 70
     0
300
1/8" = 1'-0"
140
0.125
141
12.0
290
     0
  0
SCALE
  5
4A
102
{ACAD_REACTORS
330
42
102
}
330
42
100
AcDbScale
 70
     0
300
3/16" = 1'-0"
140
0.1875
141
12.0
290
     0
  0
SCALE
  5
4B
102
{ACAD_REACTORS
330
42
102
}
330
42
100
AcDbScale
 70
     0
300
1/4" = 1'-0"
140
0.25
141
12.0
290
     0
  0
SCALE
  5
4C
102
{ACAD_REACTORS
330
42
102
}
330
42
100
AcDbScale
 70
     0
300
3/8" = 1'-0"
140
0.375
141
12.0
290
     0
  0
SCALE
  5
4D
102
{ACAD_REACTORS
330
42
102
}
330
42
100
AcDbScale
 70
     0
300
1/2" = 1'-0"
140
0.5
141
12.0
290
     0
  0
SCALE
  5
4E
102
{ACAD_REACTORS
330
42
102
}
330
42
100
AcDbScale
 70
     0
300
3/4" = 1'-0"
140
0.75
141
12.0
290
     0
  0
SCALE
  5
4F
102
{ACAD_REACTORS
330
42
102
}
330
42
100
AcDbScale
 70
     0
300
1" = 1'-0"
140
1.0
141
12.0
290
     0
  0
SCALE
  5
50
102
{ACAD_REACTORS
330
42
102
}
330
42
100
AcDbScale
 70
     0
300
1-1/2" = 1'-0"
140
1.5
141
12.0
290
     0
  0
SCALE
  5
51
102
{ACAD_REACTORS
330
42
102
}
330
42
100
AcDbScale
 70
     0
300
3" = 1'-0"
140
3.0
141
12.0
290
     0
  0
SCALE
  5
52
102
{ACAD_REACTORS
330
42
102
}
330
42
100
AcDbScale
 70
     0
300
6" = 1'-0"
140
6.0
141
12.0
290
     0
  0
SCALE
  5
53
102
{ACAD_REACTORS
330
42
102
}
330
42
100
AcDbScale
 70
     0
300
1'-0" = 1'-0"
140
12.0
141
12.0
290
     0
  0
TABLESTYLE
  5
64
102
{ACAD_XDICTIONARY
360
72E
102
}
102
{ACAD_REACTORS
330
63
102
}
330
63
100
AcDbTableStyle
  3
Standard
 70
     0
 71
     0
 40
0.06
 41
0.06
280
     0
281
     0
  7
STANDARD
140
0.18
170
     2
 62
     0
 63
     7
283
     0
274
    -2
284
     1
 64
     0
275
    -2
285
     1
 65
     0
276
    -2
286
     1
 66
     0
277
    -2
287
     1
 67
     0
278
    -2
288
     1
 68
     0
279
    -2
289
     1
 69
     0
  7
STANDARD
140
0.25
170
     5
 62
     0
 63
     7
283
     0
274
    -2
284
     1
 64
     0
275
    -2
285
     1
 65
     0
276
    -2
286
     1
 66
     0
277
    -2
287
     1
 67
     0
278
    -2
288
     1
 68
     0
279
    -2
289
     1
 69
     0
  7
STANDARD
140
0.18
170
     5
 62
     0
 63
     7
283
     0
274
    -2
284
     1
 64
     0
275
    -2
285
     1
 65
     0
276
    -2
286
     1
 66
     0
277
    -2
287
     1
 67
     0
278
    -2
288
     1
 68
     0
279
    -2
289
     1
 69
     0
  0
VISUALSTYLE
  5
2F
102
{ACAD_XDICTIONARY
360
8BD
102
}
102
{ACAD_REACTORS
330
29
102
}
330
29
100
AcDbVisualStyle
  2

 70
     4
 71
     0
 72
     2
 73
     0
 90
        0
 40
-0.6
 41
-30.0
 62
     5
 63
     7
 74
     1
 91
        4
 64
     7
 65
   257
 75
     1
175
     1
 42
1.0
 92
        0
 66
   257
 43
1.0
 76
     1
 77
     6
 78
     2
 67
     7
 79
     5
170
     0
171
     0
290
     0
174
     0
 93
        1
 44
0.0
173
     0
291
     0
 45
0.0
1001
ACAD
1000
AcDbSavedByObjectVersion
1070
     0
  0
VISUALSTYLE
  5
560
102
{ACAD_XDICTIONARY
360
8E8
102
}
102
{ACAD_REACTORS
330
29
102
}
330
29
100
AcDbVisualStyle
  2

 70
     5
 71
     0
 72
     2
 73
     1
 90
        0
 40
-0.6
 41
-30.0
 62
     5
 63
     7
 74
     1
 91
        4
 64
     7
 65
   257
 75
     1
175
     1
 42
1.0
 92
        0
 66
   257
 43
1.0
 76
     1
 77
     6
 78
     2
 67
     7
 79
     5
170
     0
171
     0
290
     0
174
     0
 93
        1
 44
0.0
173
     0
291
     0
 45
0.0
1001
ACAD
1000
AcDbSavedByObjectVersion
1070
     0
  0
VISUALSTYLE
  5
2E
102
{ACAD_XDICTIONARY
360
8BB
102
}
102
{ACAD_REACTORS
330
29
102
}
330
29
100
AcDbVisualStyle
  2

 70
     7
 71
     1
 72
     0
 73
     1
 90
        0
 40
-0.6
 41
-30.0
 62
     5
 63
     7
 74
     0
 91
        4
 64
     7
 65
   257
 75
     1
175
     1
 42
1.0
 92
        8
 66
     7
 43
1.0
 76
     1
 77
     6
 78
     2
 67
     7
 79
     5
170
     0
171
     0
290
     0
174
     0
 93
        1
 44
0.0
173
     0
291
     1
 45
0.0
1001
ACAD
1000
AcDbSavedByObjectVersion
1070
     0
  0
VISUALSTYLE
  5
35
102
{ACAD_XDICTIONARY
360
8C9
102
}
102
{ACAD_REACTORS
330
29
102
}
330
29
100
AcDbVisualStyle
  2

 70
    12
 71
     2
 72
     2
 73
     0
 90
        0
 40
-0.6
 41
-30.0
 62
     5
 63
     7
 74
     1
 91
        4
 64
     7
 65
   257
 75
     1
175
     1
 42
1.0
 92
        8
 66
     7
 43
1.0
 76
     1
 77
     6
 78
     2
 67
     7
 79
     5
170
     0
171
     0
290
     0
174
     0
 93
        1
 44
50.0
173
     0
291
     1
 45
0.0
1001
ACAD
1000
AcDbSavedByObjectVersion
1070
     0
  0
VISUALSTYLE
  5
39
102
{ACAD_XDICTIONARY
360
8D1
102
}
102
{ACAD_REACTORS
330
29
102
}
330
29
100
AcDbVisualStyle
  2

 70
    16
 71
     2
 72
     2
 73
     3
 90
        0
 40
-0.6
 41
-30.0
 62
     5
 63
     8
 74
     1
 91
        4
 64
     7
 65
   257
 75
     1
175
     1
 42
1.0
 92
        8
 66
     8
 43
1.0
 76
     1
 77
     6
 78
     2
 67
     7
 79
     5
170
     0
171
     0
290
     0
174
     0
 93
        1
 44
0.0
173
     0
291
     1
 45
0.0
1001
ACAD
1000
AcDbSavedByObjectVersion
1070
     0
  0
VISUALSTYLE
  5
32
102
{ACAD_XDICTIONARY
360
8C3
102
}
102
{ACAD_REACTORS
330
29
102
}
330
29
100
AcDbVisualStyle
  2

 70
     9
 71
     3
 72
     2
 73
     0
 90
        0
 40
-0.6
 41
-30.0
 62
     5
 63
     7
 74
     2
 91
        2
 64
     7
 65
   257
 75
     1
175
     1
 42
179.0
 92
        8
 66
     7
 43
1.0
 76
     1
 77
     6
 78
     2
 67
     7
 79
     3
170
     0
171
     0
290
     0
174
     0
 93
        1
 44
0.0
173
     0
291
     0
 45
0.0
1001
ACAD
1000
AcDbSavedByObjectVersion
1070
     0
  0
VISUALSTYLE
  5
34
102
{ACAD_XDICTIONARY
360
8C7
102
}
102
{ACAD_REACTORS
330
29
102
}
330
29
100
AcDbVisualStyle
  2

 70
    11
 71
     2
 72
     2
 73
     0
 90
        0
 40
-0.6
 41
-30.0
 62
     5
 63
     7
 74
     1
 91
        4
 64
     7
 65
   257
 75
     1
175
     1
 42
1.0
 92
        8
 66
     7
 43
1.0
 76
     1
 77
     6
 78
     2
 67
     7
 79
     5
170
     0
171
     0
290
     0
174
     0
 93
        1
 44
-50.0
173
     0
291
     1
 45
0.0
1001
ACAD
1000
AcDbSavedByObjectVersion
1070
     0
  0
VISUALSTYLE
  5
41
102
{ACAD_XDICTIONARY
360
8E1
102
}
102
{ACAD_REACTORS
330
29
102
}
330
29
100
AcDbVisualStyle
  2

 70
    22
 71
     2
 72
     2
 73
     0
 90
        0
 40
-0.6
 41
-30.0
 62
     5
 63
     7
 74
     1
 91
        4
 64
     7
 65
   257
 75
     1
175
     1
 42
1.0
 92
        8
 66
     7
 43
1.0
 76
     1
 77
     6
 78
     2
 67
     7
 79
     5
170
     0
171
     0
290
     0
174
     0
 93
        1
 44
0.0
173
     0
291
     1
 45
0.0
1001
ACAD
1000
AcDbSavedByObjectVersion
1070
     0
  0
VISUALSTYLE
  5
38
102
{ACAD_XDICTIONARY
360
8CF
102
}
102
{ACAD_REACTORS
330
29
102
}
330
29
100
AcDbVisualStyle
  2

 70
    15
 71
     2
 72
     2
 73
     0
 90
        0
 40
-0.6
 41
-30.0
 62
     5
 63
     7
 74
     1
 91
        4
 64
     7
 65
   257
 75
     1
175
     1
 42
1.0
 92
        8
 66
     7
 43
1.0
 76
     1
 77
     6
 78
     2
 67
     7
 79
     5
170
     0
171
     0
290
     0
174
     0
 93
        1
 44
0.0
173
     0
291
     1
 45
0.0
1001
ACAD
1000
AcDbSavedByObjectVersion
1070
     0
  0
VISUALSTYLE
  5
2A
102
{ACAD_XDICTIONARY
360
8B3
102
}
102
{ACAD_REACTORS
330
29
102
}
330
29
100
AcDbVisualStyle
  2

 70
     0
 71
     2
 72
     1
 73
     1
 90
        2
 40
-0.6
 41
30.0
 62
     5
 63
     7
 74
     0
 91
        0
 64
     7
 65
   257
 75
     1
175
     1
 42
1.0
 92
        8
 66
     7
 43
1.0
 76
     1
 77
     6
 78
     2
 67
     7
 79
     5
170
     0
171
     0
290
     0
174
     0
 93
       13
 44
0.0
173
     0
291
     1
 45
0.0
1001
ACAD
1000
AcDbSavedByObjectVersion
1070
     0
  0
VISUALSTYLE
  5
2B
102
{ACAD_XDICTIONARY
360
8B5
102
}
102
{ACAD_REACTORS
330
29
102
}
330
29
100
AcDbVisualStyle
  2

 70
     1
 71
     2
 72
     1
 73
     1
 90
        2
 40
-0.6
 41
30.0
 62
     5
 63
     7
 74
     1
 91
        0
 64
     7
 65
   257
 75
     1
175
     1
 42
1.0
 92
        0
 66
   257
 43
1.0
 76
     1
 77
     6
 78
     2
 67
     7
 79
     5
170
     0
171
     0
290
     0
174
     0
 93
       13
 44
0.0
173
     0
291
     1
 45
0.0
1001
ACAD
1000
AcDbSavedByObjectVersion
1070
     0
  0
VISUALSTYLE
  5
2C
102
{ACAD_XDICTIONARY
360
8B7
102
}
102
{ACAD_REACTORS
330
29
102
}
330
29
100
AcDbVisualStyle
  2

 70
     2
 71
     2
 72
     2
 73
     1
 90
        2
 40
-0.6
 41
30.0
 62
     5
 63
     7
 74
     0
 91
        0
 64
     7
 65
   257
 75
     1
175
     1
 42
1.0
 92
        0
 66
     7
 43
1.0
 76
     1
 77
     6
 78
     2
 67
     7
 79
     5
170
     0
171
     0
290
     0
174
     0
 93
       13
 44
0.0
173
     0
291
     1
 45
0.0
1001
ACAD
1000
AcDbSavedByObjectVersion
1070
     0
  0
VISUALSTYLE
  5
2D
102
{ACAD_XDICTIONARY
360
8B9
102
}
102
{ACAD_REACTORS
330
29
102
}
330
29
100
AcDbVisualStyle
  2

 70
     3
 71
     2
 72
     2
 73
     1
 90
        2
 40
-0.6
 41
30.0
 62
     5
 63
     7
 74
     1
 91
        0
 64
     7
 65
   257
 75
     1
175
     1
 42
1.0
 92
        0
 66
   257
 43
1.0
 76
     1
 77
     6
 78
     2
 67
     7
 79
     5
170
     0
171
     0
290
     0
174
     0
 93
       13
 44
0.0
173
     0
291
     1
 45
0.0
1001
ACAD
1000
AcDbSavedByObjectVersion
1070
     0
  0
VISUALSTYLE
  5
31
102
{ACAD_XDICTIONARY
360
8C1
102
}
102
{ACAD_REACTORS
330
29
102
}
330
29
100
AcDbVisualStyle
  2

 70
     6
 71
     1
 72
     2
 73
     2
 90
        0
 40
-0.6
 41
-30.0
 62
     5
 63
     7
 74
     2
 91
        2
 64
     7
 65
   257
 75
     2
175
     1
 42
40.0
 92
        0
 66
   257
 43
1.0
 76
     1
 77
     6
 78
     2
 67
     7
 79
     3
170
     0
171
     0
290
     0
174
     0
 93
        1
 44
0.0
173
     0
291
     0
 45
0.0
1001
ACAD
1000
AcDbSavedByObjectVersion
1070
     0
  0
VISUALSTYLE
  5
3F
102
{ACAD_XDICTIONARY
360
8DD
102
}
102
{ACAD_REACTORS
330
29
102
}
330
29
100
AcDbVisualStyle
  2

 70
    20
 71
     2
 72
     2
 73
     0
 90
        0
 40
-0.6
 41
-30.0
 62
     5
 63
     7
 74
     1
 91
        4
 64
     7
 65
   257
 75
     1
175
     1
 42
1.0
 92
       10
 66
     7
 43
1.0
 76
     1
 77
     6
 78
     2
 67
     7
 79
     5
170
     0
171
     0
290
     0
174
     0
 93
        1
 44
0.0
173
     0
291
     1
 45
0.0
1001
ACAD
1000
AcDbSavedByObjectVersion
1070
     0
  0
VISUALSTYLE
  5
37
102
{ACAD_XDICTIONARY
360
8CD
102
}
102
{ACAD_REACTORS
330
29
102
}
330
29
100
AcDbVisualStyle
  2

 70
    14
 71
     2
 72
     2
 73
     0
 90
        0
 40
-0.6
 41
-30.0
 62
     5
 63
     7
 74
     1
 91
        4
 64
     7
 65
   257
 75
     7
175
     7
 42
1.0
 92
        8
 66
     7
 43
1.0
 76
     1
 77
     6
 78
     2
 67
     7
 79
     5
170
     0
171
     0
290
     0
174
     0
 93
        1
 44
0.0
173
     0
291
     1
 45
0.0
1001
ACAD
1000
AcDbSavedByObjectVersion
1070
     0
  0
VISUALSTYLE
  5
40
102
{ACAD_XDICTIONARY
360
8DF
102
}
102
{ACAD_REACTORS
330
29
102
}
330
29
100
AcDbVisualStyle
  2

 70
    21
 71
     2
 72
     2
 73
     0
 90
        0
 40
-0.6
 41
-30.0
 62
     5
 63
     7
 74
     1
 91
        4
 64
     7
 65
   257
 75
     1
175
     1
 42
1.0
 92
        9
 66
     7
 43
1.0
 76
     1
 77
     6
 78
     2
 67
     7
 79
     5
170
     0
171
     0
290
     0
174
     0
 93
        1
 44
0.0
173
     0
291
     1
 45
0.0
1001
ACAD
1000
AcDbSavedByObjectVersion
1070
     0
  0
VISUALSTYLE
  5
33
102
{ACAD_XDICTIONARY
360
8C5
102
}
102
{ACAD_REACTORS
330
29
102
}
330
29
100
AcDbVisualStyle
  2

 70
     8
 71
     2
 72
     3
 73
     0
 90
        2
 40
-0.6
 41
30.0
 62
     5
 63
     7
 74
     0
 91
        0
 64
     7
 65
   257
 75
     1
175
     1
 42
1.0
 92
        8
 66
   257
 43
1.0
 76
     1
 77
     6
 78
     2
 67
     7
 79
     3
170
     0
171
     0
290
     0
174
     0
 93
       13
 44
0.0
173
     0
291
     0
 45
0.0
1001
ACAD
1000
AcDbSavedByObjectVersion
1070
     0
  0
VISUALSTYLE
  5
3E
102
{ACAD_XDICTIONARY
360
8DB
102
}
102
{ACAD_REACTORS
330
29
102
}
330
29
100
AcDbVisualStyle
  2

 70
    27
 71
     2
 72
     2
 73
     1
 90
        2
 40
-0.6
 41
30.0
 62
     5
 63
     7
 74
     0
 91
        4
 64
     7
 65
   257
 75
     1
175
     1
 42
1.0
 92
        8
 66
   257
 43
1.0
 76
     1
 77
     6
 78
     2
 67
     8
 79
     3
170
     0
171
     0
290
     0
174
     0
 93
        5
 44
0.0
173
     0
291
     0
 45
0.0
1001
ACAD
1000
AcDbSavedByObjectVersion
1070
     0
  0
VISUALSTYLE
  5
3D
102
{ACAD_XDICTIONARY
360
8D9
102
}
102
{ACAD_REACTORS
330
29
102
}
330
29
100
AcDbVisualStyle
  2

 70
    26
 71
     2
 72
     2
 73
     1
 90
        2
 40
-0.6
 41
30.0
 62
     5
 63
     7
 74
     1
 91
       10
 64
     7
 65
   257
 75
     2
175
     1
 42
1.0
 92
        8
 66
   257
 43
1.0
 76
     1
 77
     6
 78
     2
 67
     7
 79
     3
170
     0
171
     0
290
     0
174
     0
 93
        5
 44
0.0
173
     0
291
     0
 45
0.0
1001
ACAD
1000
AcDbSavedByObjectVersion
1070
     0
  0
VISUALSTYLE
  5
3A
102
{ACAD_XDICTIONARY
360
8D3
102
}
102
{ACAD_REACTORS
330
29
102
}
330
29
100
AcDbVisualStyle
  2

 70
    23
 71
     2
 72
     2
 73
     3
 90
        0
 40
-0.6
 41
-30.0
 62
     5
 63
     7
 74
     2
 91
        2
 64
     7
 65
     7
 75
     1
175
     1
 42
40.0
 92
        8
 66
     7
 43
1.0
 76
     1
 77
     6
 78
     2
 67
     7
 79
     3
170
     0
171
     0
290
     0
174
     0
 93
        1
 44
0.0
173
     0
291
     0
 45
0.0
1001
ACAD
1000
AcDbSavedByObjectVersion
1070
     0
  0
VISUALSTYLE
  5
3B
102
{ACAD_XDICTIONARY
360
8D5
102
}
102
{ACAD_REACTORS
330
29
102
}
330
29
100
AcDbVisualStyle
  2

 70
    24
 71
     1
 72
     2
 73
     2
 90
        0
 40
-0.6
 41
-30.0
 62
     5
 63
     7
 74
     2
 91
        2
 64
     7
 65
     7
 75
     1
175
     1
 42
40.0
 92
       11
 66
     7
 43
1.0
 76
     1
 77
     6
 78
     2
 67
     7
 79
     6
170
     0
171
     0
290
     0
174
     0
 93
        1
 44
0.0
173
     0
291
     0
 45
0.0
1001
ACAD
1000
AcDbSavedByObjectVersion
1070
     0
  0
VISUALSTYLE
  5
36
102
{ACAD_XDICTIONARY
360
8CB
102
}
102
{ACAD_REACTORS
330
29
102
}
330
29
100
AcDbVisualStyle
  2

 70
    13
 71
     2
 72
     2
 73
     0
 90
        0
 40
-0.6
 41
-30.0
 62
     5
 63
     7
 74
     1
 91
        4
 64
     7
 65
   257
 75
     1
175
     1
 42
1.0
 92
       12
 66
     7
 43
1.0
 76
     1
 77
     6
 78
     2
 67
     7
 79
     5
170
     0
171
     0
290
     0
174
     0
 93
        1
 44
0.0
173
     0
291
     1
 45
0.0
1001
ACAD
1000
AcDbSavedByObjectVersion
1070
     0
  0
VISUALSTYLE
  5
30
102
{ACAD_XDICTIONARY
360
8BF
102
}
102
{ACAD_REACTORS
330
29
102
}
330
29
100
AcDbVisualStyle
  2

 70
     5
 71
     0
 72
     2
 73
     0
 90
        0
 40
-0.6
 41
-30.0
 62
     5
 63
     7
 74
     1
 91
        4
 64
     7
 65
   257
 75
     1
175
     1
 42
1.0
 92
        0
 66
   257
 43
1.0
 76
     1
 77
     6
 78
     2
 67
     7
 79
     3
170
     0
171
     0
290
     0
174
     0
 93
        1
 44
0.0
173
     0
291
     0
 45
0.0
1001
ACAD
1000
AcDbSavedByObjectVersion
1070
     0
  0
VISUALSTYLE
  5
3C
102
{ACAD_XDICTIONARY
360
8D7
102
}
102
{ACAD_REACTORS
330
29
102
}
330
29
100
AcDbVisualStyle
  2

 70
    25
 71
     2
 72
     2
 73
     1
 90
        1
 40
0.5
 41
-30.0
 62
     5
 63
     7
 74
     1
 91
        0
 64
     7
 65
   257
 75
     1
175
     1
 42
1.0
 92
        8
 66
     7
 43
1.0
 76
     1
 77
     6
 78
     2
 67
     7
 79
     3
170
     0
171
     0
290
     0
174
     0
 93
       13
 44
0.0
173
     0
291
     0
 45
0.0
1001
ACAD
1000
AcDbSavedByObjectVersion
1070
     0
  0
DICTIONARYVAR
  5
729
102
{ACAD_REACTORS
330
726
102
}
330
726
100
DictionaryVariables
280
     0
  1
1:1
  0
DICTIONARYVAR
  5
728
102
{ACAD_REACTORS
330
726
102
}
330
726
100
DictionaryVariables
280
     0
  1
STANDARD
  0
DICTIONARYVAR
  5
727
102
{ACAD_REACTORS
330
726
102
}
330
726
100
DictionaryVariables
280
     0
  1
STANDARD
  0
DICTIONARYVAR
  5
72C
102
{ACAD_REACTORS
330
726
102
}
330
726
100
DictionaryVariables
280
     0
  1
1
  0
DICTIONARYVAR
  5
72B
102
{ACAD_REACTORS
330
726
102
}
330
726
100
DictionaryVariables
280
     0
  1
0
  0
DICTIONARYVAR
  5
72A
102
{ACAD_REACTORS
330
726
102
}
330
726
100
DictionaryVariables
280
     0
  1
127
  0
DICTIONARYVAR
  5
794
102
{ACAD_REACTORS
330
726
102
}
330
726
100
DictionaryVariables
280
     0
  1
2
  0
DICTIONARY
  5
8E6
330
6E
100
AcDbDictionary
280
     1
281
     1
  3
ACAD_XREC_ROUNDTRIP
360
8E7
  0
DICTIONARY
  5
8E4
330
6A
100
AcDbDictionary
280
     1
281
     1
  3
ACAD_XREC_ROUNDTRIP
360
8E5
  0
DICTIONARY
  5
1A
330
19
100
AcDbDictionary
280
     1
281
     1
  3
ACAD_XREC_ROUNDTRIP
360
737
  3
BUMPTILE
360
1C
  3
DIFFUSETILE
360
1B
  3
OPACITYTILE
360
1F
  3
REFLECTIONTILE
360
1E
  3
REFRACTIONTILE
360
20
  3
SPECULARTILE
360
1D
  0
DICTIONARY
  5
12
330
11
100
AcDbDictionary
280
     1
281
     1
  3
ACAD_XREC_ROUNDTRIP
360
736
  3
BUMPTILE
360
14
  3
DIFFUSETILE
360
13
  3
OPACITYTILE
360
17
  3
REFLECTIONTILE
360
16
  3
REFRACTIONTILE
360
18
  3
SPECULARTILE
360
15
  0
DICTIONARY
  5
22
330
21
100
AcDbDictionary
280
     1
281
     1
  3
ACAD_XREC_ROUNDTRIP
360
738
  3
BUMPTILE
360
24
  3
DIFFUSETILE
360
23
  3
OPACITYTILE
360
27
  3
REFLECTIONTILE
360
26
  3
REFRACTIONTILE
360
28
  3
SPECULARTILE
360
25
  0
DICTIONARY
  5
72E
330
64
100
AcDbDictionary
280
     1
281
     1
  3
ACAD_ROUNDTRIP_2008_TABLESTYLE_CELLSTYLEMAP
360
8AC
  3
ACAD_XREC_ROUNDTRIP
360
8E3
  0
DICTIONARY
  5
8BD
330
2F
100
AcDbDictionary
280
     1
281
     1
  3
ACAD_XREC_ROUNDTRIP
360
8BE
  0
DICTIONARY
  5
8E8
330
560
100
AcDbDictionary
280
     1
281
     1
  3
ACAD_XREC_ROUNDTRIP
360
8E9
  0
DICTIONARY
  5
8BB
330
2E
100
AcDbDictionary
280
     1
281
     1
  3
ACAD_XREC_ROUNDTRIP
360
8BC
  0
DICTIONARY
  5
8C9
330
35
100
AcDbDictionary
280
     1
281
     1
  3
ACAD_XREC_ROUNDTRIP
360
8CA
  0
DICTIONARY
  5
8D1
330
39
100
AcDbDictionary
280
     1
281
     1
  3
ACAD_XREC_ROUNDTRIP
360
8D2
  0
DICTIONARY
  5
8C3
330
32
100
AcDbDictionary
280
     1
281
     1
  3
ACAD_XREC_ROUNDTRIP
360
8C4
  0
DICTIONARY
  5
8C7
330
34
100
AcDbDictionary
280
     1
281
     1
  3
ACAD_XREC_ROUNDTRIP
360
8C8
  0
DICTIONARY
  5
8E1
330
41
100
AcDbDictionary
280
     1
281
     1
  3
ACAD_XREC_ROUNDTRIP
360
8E2
  0
DICTIONARY
  5
8CF
330
38
100
AcDbDictionary
280
     1
281
     1
  3
ACAD_XREC_ROUNDTRIP
360
8D0
  0
DICTIONARY
  5
8B3
330
2A
100
AcDbDictionary
280
     1
281
     1
  3
ACAD_XREC_ROUNDTRIP
360
8B4
  0
DICTIONARY
  5
8B5
330
2B
100
AcDbDictionary
280
     1
281
     1
  3
ACAD_XREC_ROUNDTRIP
360
8B6
  0
DICTIONARY
  5
8B7
330
2C
100
AcDbDictionary
280
     1
281
     1
  3
ACAD_XREC_ROUNDTRIP
360
8B8
  0
DICTIONARY
  5
8B9
330
2D
100
AcDbDictionary
280
     1
281
     1
  3
ACAD_XREC_ROUNDTRIP
360
8BA
  0
DICTIONARY
  5
8C1
330
31
100
AcDbDictionary
280
     1
281
     1
  3
ACAD_XREC_ROUNDTRIP
360
8C2
  0
DICTIONARY
  5
8DD
330
3F
100
AcDbDictionary
280
     1
281
     1
  3
ACAD_XREC_ROUNDTRIP
360
8DE
  0
DICTIONARY
  5
8CD
330
37
100
AcDbDictionary
280
     1
281
     1
  3
ACAD_XREC_ROUNDTRIP
360
8CE
  0
DICTIONARY
  5
8DF
330
40
100
AcDbDictionary
280
     1
281
     1
  3
ACAD_XREC_ROUNDTRIP
360
8E0
  0
DICTIONARY
  5
8C5
330
33
100
AcDbDictionary
280
     1
281
     1
  3
ACAD_XREC_ROUNDTRIP
360
8C6
  0
DICTIONARY
  5
8DB
330
3E
100
AcDbDictionary
280
     1
281
     1
  3
ACAD_XREC_ROUNDTRIP
360
8DC
  0
DICTIONARY
  5
8D9
330
3D
100
AcDbDictionary
280
     1
281
     1
  3
ACAD_XREC_ROUNDTRIP
360
8DA
  0
DICTIONARY
  5
8D3
330
3A
100
AcDbDictionary
280
     1
281
     1
  3
ACAD_XREC_ROUNDTRIP
360
8D4
  0
DICTIONARY
  5
8D5
330
3B
100
AcDbDictionary
280
     1
281
     1
  3
ACAD_XREC_ROUNDTRIP
360
8D6
  0
DICTIONARY
  5
8CB
330
36
100
AcDbDictionary
280
     1
281
     1
  3
ACAD_XREC_ROUNDTRIP
360
8CC
  0
DICTIONARY
  5
8BF
330
30
100
AcDbDictionary
280
     1
281
     1
  3
ACAD_XREC_ROUNDTRIP
360
8C0
  0
DICTIONARY
  5
8D7
330
3C
100
AcDbDictionary
280
     1
281
     1
  3
ACAD_XREC_ROUNDTRIP
360
8D8
  0
XRECORD
  5
8E7
102
{ACAD_REACTORS
330
8E6
102
}
330
8E6
100
AcDbXrecord
280
     1
102
SHADEPLOT
 70
     0
102
SHADEPLOTRESLEVEL
 70
     2
102
SHADEPLOTCUSTOMDPI
 70
   300
  0
XRECORD
  5
8E5
102
{ACAD_REACTORS
330
8E4
102
}
330
8E4
100
AcDbXrecord
280
     1
102
SHADEPLOT
 70
     0
102
SHADEPLOTRESLEVEL
 70
     2
102
SHADEPLOTCUSTOMDPI
 70
   300
  0
XRECORD
  5
737
102
{ACAD_REACTORS
330
1A
102
}
330
1A
100
AcDbXrecord
280
     1
102
MATERIAL
148
0.0
149
0.0
149
0.0
 93
        0
 94
      127
282
     0
 72
     0
 77
     0
171
     0
175
     0
179
     0
273
     0
  0
XRECORD
  5
1C
102
{ACAD_REACTORS
330
1A
102
}
330
1A
100
AcDbXrecord
280
     1
270
     1
271
     1
  0
XRECORD
  5
1B
102
{ACAD_REACTORS
330
1A
102
}
330
1A
100
AcDbXrecord
280
     1
270
     1
271
     1
  0
XRECORD
  5
1F
102
{ACAD_REACTORS
330
1A
102
}
330
1A
100
AcDbXrecord
280
     1
270
     1
271
     1
  0
XRECORD
  5
1E
102
{ACAD_REACTORS
330
1A
102
}
330
1A
100
AcDbXrecord
280
     1
270
     1
271
     1
  0
XRECORD
  5
20
102
{ACAD_REACTORS
330
1A
102
}
330
1A
100
AcDbXrecord
280
     1
270
     1
271
     1
  0
XRECORD
  5
1D
102
{ACAD_REACTORS
330
1A
102
}
330
1A
100
AcDbXrecord
280
     1
270
     1
271
     1
  0
XRECORD
  5
736
102
{ACAD_REACTORS
330
12
102
}
330
12
100
AcDbXrecord
280
     1
102
MATERIAL
148
0.0
149
0.0
149
0.0
 93
        0
 94
      127
282
     0
 72
     0
 77
     0
171
     0
175
     0
179
     0
273
     0
  0
XRECORD
  5
14
102
{ACAD_REACTORS
330
12
102
}
330
12
100
AcDbXrecord
280
     1
270
     1
271
     1
  0
XRECORD
  5
13
102
{ACAD_REACTORS
330
12
102
}
330
12
100
AcDbXrecord
280
     1
270
     1
271
     1
  0
XRECORD
  5
17
102
{ACAD_REACTORS
330
12
102
}
330
12
100
AcDbXrecord
280
     1
270
     1
271
     1
  0
XRECORD
  5
16
102
{ACAD_REACTORS
330
12
102
}
330
12
100
AcDbXrecord
280
     1
270
     1
271
     1
  0
XRECORD
  5
18
102
{ACAD_REACTORS
330
12
102
}
330
12
100
AcDbXrecord
280
     1
270
     1
271
     1
  0
XRECORD
  5
15
102
{ACAD_REACTORS
330
12
102
}
330
12
100
AcDbXrecord
280
     1
270
     1
271
     1
  0
XRECORD
  5
738
102
{ACAD_REACTORS
330
22
102
}
330
22
100
AcDbXrecord
280
     1
102
MATERIAL
148
0.0
149
0.0
149
0.0
 93
        0
 94
      127
282
     0
 72
     0
 77
     0
171
     0
175
     0
179
     0
273
     0
  0
XRECORD
  5
24
102
{ACAD_REACTORS
330
22
102
}
330
22
100
AcDbXrecord
280
     1
270
     1
271
     1
  0
XRECORD
  5
23
102
{ACAD_REACTORS
330
22
102
}
330
22
100
AcDbXrecord
280
     1
270
     1
271
     1
  0
XRECORD
  5
27
102
{ACAD_REACTORS
330
22
102
}
330
22
100
AcDbXrecord
280
     1
270
     1
271
     1
  0
XRECORD
  5
26
102
{ACAD_REACTORS
330
22
102
}
330
22
100
AcDbXrecord
280
     1
270
     1
271
     1
  0
XRECORD
  5
28
102
{ACAD_REACTORS
330
22
102
}
330
22
100
AcDbXrecord
280
     1
270
     1
271
     1
  0
XRECORD
  5
25
102
{ACAD_REACTORS
330
22
102
}
330
22
100
AcDbXrecord
280
     1
270
     1
271
     1
  0
CELLSTYLEMAP
  5
8AC
102
{ACAD_REACTORS
330
72E
102
}
330
72E
100
AcDbCellStyleMap
 90
        3
300
CELLSTYLE
  1
TABLEFORMAT_BEGIN
 90
        5
170
     1
 91
        0
 92
    32768
 62
   257
 93
        1
300
CONTENTFORMAT
  1
CONTENTFORMAT_BEGIN
 90
        0
 91
        0
 92
      512
 93
        0
300

 40
0.0
140
1.0
 94
        5
 62
     0
340
55
144
0.25
309
CONTENTFORMAT_END
171
     1
301
MARGIN
  1
CELLMARGIN_BEGIN
 40
0.06
 40
0.06
 40
0.06
 40
0.06
 40
0.18
 40
0.18
309
CELLMARGIN_END
 94
        6
 95
        1
302
GRIDFORMAT
  1
GRIDFORMAT_BEGIN
 90
        0
 91
        1
 62
     0
 92
       -2
340
0
 93
        0
 40
0.045
309
GRIDFORMAT_END
 95
        2
302
GRIDFORMAT
  1
GRIDFORMAT_BEGIN
 90
        0
 91
        1
 62
     0
 92
       -2
340
0
 93
        0
 40
0.045
309
GRIDFORMAT_END
 95
        4
302
GRIDFORMAT
  1
GRIDFORMAT_BEGIN
 90
        0
 91
        1
 62
     0
 92
       -2
340
0
 93
        0
 40
0.045
309
GRIDFORMAT_END
 95
        8
302
GRIDFORMAT
  1
GRIDFORMAT_BEGIN
 90
        0
 91
        1
 62
     0
 92
       -2
340
0
 93
        0
 40
0.045
309
GRIDFORMAT_END
 95
       16
302
GRIDFORMAT
  1
GRIDFORMAT_BEGIN
 90
        0
 91
        1
 62
     0
 92
       -2
340
0
 93
        0
 40
0.045
309
GRIDFORMAT_END
 95
       32
302
GRIDFORMAT
  1
GRIDFORMAT_BEGIN
 90
        0
 91
        1
 62
     0
 92
       -2
340
0
 93
        0
 40
0.045
309
GRIDFORMAT_END
309
TABLEFORMAT_END
  1
CELLSTYLE_BEGIN
 90
        1
 91
        1
300
_TITLE
309
CELLSTYLE_END
300
CELLSTYLE
  1
TABLEFORMAT_BEGIN
 90
        5
170
     1
 91
        0
 92
        0
 62
   257
 93
        1
300
CONTENTFORMAT
  1
CONTENTFORMAT_BEGIN
 90
        0
 91
        0
 92
      512
 93
        0
300

 40
0.0
140
1.0
 94
        5
 62
     0
340
55
144
0.18
309
CONTENTFORMAT_END
171
     1
301
MARGIN
  1
CELLMARGIN_BEGIN
 40
0.06
 40
0.06
 40
0.06
 40
0.06
 40
0.18
 40
0.18
309
CELLMARGIN_END
 94
        6
 95
        1
302
GRIDFORMAT
  1
GRIDFORMAT_BEGIN
 90
        0
 91
        1
 62
     0
 92
       -2
340
0
 93
        0
 40
0.045
309
GRIDFORMAT_END
 95
        2
302
GRIDFORMAT
  1
GRIDFORMAT_BEGIN
 90
        0
 91
        1
 62
     0
 92
       -2
340
0
 93
        0
 40
0.045
309
GRIDFORMAT_END
 95
        4
302
GRIDFORMAT
  1
GRIDFORMAT_BEGIN
 90
        0
 91
        1
 62
     0
 92
       -2
340
0
 93
        0
 40
0.045
309
GRIDFORMAT_END
 95
        8
302
GRIDFORMAT
  1
GRIDFORMAT_BEGIN
 90
        0
 91
        1
 62
     0
 92
       -2
340
0
 93
        0
 40
0.045
309
GRIDFORMAT_END
 95
       16
302
GRIDFORMAT
  1
GRIDFORMAT_BEGIN
 90
        0
 91
        1
 62
     0
 92
       -2
340
0
 93
        0
 40
0.045
309
GRIDFORMAT_END
 95
       32
302
GRIDFORMAT
  1
GRIDFORMAT_BEGIN
 90
        0
 91
        1
 62
     0
 92
       -2
340
0
 93
        0
 40
0.045
309
GRIDFORMAT_END
309
TABLEFORMAT_END
  1
CELLSTYLE_BEGIN
 90
        2
 91
        1
300
_HEADER
309
CELLSTYLE_END
300
CELLSTYLE
  1
TABLEFORMAT_BEGIN
 90
        5
170
     1
 91
        0
 92
        0
 62
   257
 93
        1
300
CONTENTFORMAT
  1
CONTENTFORMAT_BEGIN
 90
        0
 91
        0
 92
      512
 93
        0
300

 40
0.0
140
1.0
 94
        2
 62
     0
340
55
144
0.18
309
CONTENTFORMAT_END
171
     1
301
MARGIN
  1
CELLMARGIN_BEGIN
 40
0.06
 40
0.06
 40
0.06
 40
0.06
 40
0.18
 40
0.18
309
CELLMARGIN_END
 94
        6
 95
        1
302
GRIDFORMAT
  1
GRIDFORMAT_BEGIN
 90
        0
 91
        1
 62
     0
 92
       -2
340
0
 93
        0
 40
0.045
309
GRIDFORMAT_END
 95
        2
302
GRIDFORMAT
  1
GRIDFORMAT_BEGIN
 90
        0
 91
        1
 62
     0
 92
       -2
340
0
 93
        0
 40
0.045
309
GRIDFORMAT_END
 95
        4
302
GRIDFORMAT
  1
GRIDFORMAT_BEGIN
 90
        0
 91
        1
 62
     0
 92
       -2
340
0
 93
        0
 40
0.045
309
GRIDFORMAT_END
 95
        8
302
GRIDFORMAT
  1
GRIDFORMAT_BEGIN
 90
        0
 91
        1
 62
     0
 92
       -2
340
0
 93
        0
 40
0.045
309
GRIDFORMAT_END
 95
       16
302
GRIDFORMAT
  1
GRIDFORMAT_BEGIN
 90
        0
 91
        1
 62
     0
 92
       -2
340
0
 93
        0
 40
0.045
309
GRIDFORMAT_END
 95
       32
302
GRIDFORMAT
  1
GRIDFORMAT_BEGIN
 90
        0
 91
        1
 62
     0
 92
       -2
340
0
 93
        0
 40
0.045
309
GRIDFORMAT_END
309
TABLEFORMAT_END
  1
CELLSTYLE_BEGIN
 90
        3
 91
        2
300
_DATA
309
CELLSTYLE_END
  0
XRECORD
  5
8E3
102
{ACAD_REACTORS
330
72E
102
}
330
72E
100
AcDbXrecord
280
     1
102
ACAD_ROUNDTRIP_PRE2007_TABLESTYLE
 90
      512
 91
        0
  1

 92
      512
 93
        0
  2

 94
      512
 95
        0
  3

  0
XRECORD
  5
8BE
102
{ACAD_REACTORS
330
8BD
102
}
330
8BD
100
AcDbXrecord
280
     1
102
RTVSPropertyOp0
 70
     1
102
RTVSPropertyOp1
 70
     1
102
RTVSPropertyOp2
 70
     1
102
RTVSPropertyOp3
 70
     1
102
RTVSPropertyOp4
 70
     1
102
RTVSPropertyOp5
 70
     1
102
RTVSPropertyOp6
 70
     1
102
RTVSPropertyOp7
 70
     1
102
RTVSPropertyOp8
 70
     1
102
RTVSPropertyOp9
 70
     1
102
RTVSPropertyOp10
 70
     1
102
RTVSPropertyOp11
 70
     1
102
RTVSPropertyOp12
 70
     1
102
RTVSPropertyOp13
 70
     1
102
RTVSPropertyOp14
 70
     1
102
RTVSPropertyOp15
 70
     1
102
RTVSPropertyOp16
 70
     1
102
RTVSPropertyOp17
 70
     1
102
RTVSPropertyOp18
 70
     1
102
RTVSPropertyOp19
 70
     1
102
RTVSPropertyOp20
 70
     1
102
RTVSPropertyOp21
 70
     1
102
RTVSPropertyOp22
 70
     1
102
RTVSPropertyOp23
 70
     1
102
RTVSPropertyOp24
 70
     1
102
RTVSPropertyOp25
 70
     1
102
RTVSPropertyOp26
 70
     1
102
RTVSPropertyOp27
 70
     1
102
RTVSPropertyOp28
 70
     1
102
RTVSPropertyOp29
 70
     1
102
RTVSPropertyOp30
 70
     1
102
RTVSPropertyOp31
 70
     1
102
RTVSPropertyOp32
 70
     1
  0
XRECORD
  5
8E9
102
{ACAD_REACTORS
330
8E8
102
}
330
8E8
100
AcDbXrecord
280
     1
102
RTVSPropertyOp0
 70
     1
102
RTVSPropertyOp1
 70
     1
102
RTVSPropertyOp2
 70
     1
102
RTVSPropertyOp3
 70
     1
102
RTVSPropertyOp4
 70
     1
102
RTVSPropertyOp5
 70
     1
102
RTVSPropertyOp6
 70
     1
102
RTVSPropertyOp7
 70
     1
102
RTVSPropertyOp8
 70
     1
102
RTVSPropertyOp9
 70
     1
102
RTVSPropertyOp10
 70
     1
102
RTVSPropertyOp11
 70
     1
102
RTVSPropertyOp12
 70
     1
102
RTVSPropertyOp13
 70
     1
102
RTVSPropertyOp14
 70
     1
102
RTVSPropertyOp15
 70
     1
102
RTVSPropertyOp16
 70
     1
102
RTVSPropertyOp17
 70
     1
102
RTVSPropertyOp18
 70
     1
102
RTVSPropertyOp19
 70
     1
102
RTVSPropertyOp20
 70
     1
102
RTVSPropertyOp21
 70
     1
102
RTVSPropertyOp22
 70
     1
102
RTVSPropertyOp23
 70
     1
102
RTVSPropertyOp24
 70
     1
102
RTVSPropertyOp25
 70
     1
102
RTVSPropertyOp26
 70
     1
102
RTVSPropertyOp27
 70
     1
102
RTVSPropertyOp28
 70
     1
102
RTVSPropertyOp29
 70
     1
102
RTVSPropertyOp30
 70
     1
102
RTVSPropertyOp31
 70
     1
102
RTVSPropertyOp32
 70
     1
  0
XRECORD
  5
8BC
102
{ACAD_REACTORS
330
8BB
102
}
330
8BB
100
AcDbXrecord
280
     1
102
RTVSPropertyOp0
 70
     1
102
RTVSPropertyOp1
 70
     1
102
RTVSPropertyOp2
 70
     1
102
RTVSPropertyOp3
 70
     1
102
RTVSPropertyOp4
 70
     1
102
RTVSPropertyOp5
 70
     1
102
RTVSPropertyOp6
 70
     1
102
RTVSPropertyOp7
 70
     1
102
RTVSPropertyOp8
 70
     1
102
RTVSPropertyOp9
 70
     1
102
RTVSPropertyOp10
 70
     1
102
RTVSPropertyOp11
 70
     1
102
RTVSPropertyOp12
 70
     1
102
RTVSPropertyOp13
 70
     1
102
RTVSPropertyOp14
 70
     1
102
RTVSPropertyOp15
 70
     1
102
RTVSPropertyOp16
 70
     1
102
RTVSPropertyOp17
 70
     1
102
RTVSPropertyOp18
 70
     1
102
RTVSPropertyOp19
 70
     1
102
RTVSPropertyOp20
 70
     1
102
RTVSPropertyOp21
 70
     1
102
RTVSPropertyOp22
 70
     1
102
RTVSPropertyOp23
 70
     1
102
RTVSPropertyOp24
 70
     1
102
RTVSPropertyOp25
 70
     1
102
RTVSPropertyOp26
 70
     1
102
RTVSPropertyOp27
 70
     1
102
RTVSPropertyOp28
 70
     1
102
RTVSPropertyOp29
 70
     1
102
RTVSPropertyOp30
 70
     1
102
RTVSPropertyOp31
 70
     1
102
RTVSPropertyOp32
 70
     1
  0
XRECORD
  5
8CA
102
{ACAD_REACTORS
330
8C9
102
}
330
8C9
100
AcDbXrecord
280
     1
102
RTVSPropertyOp0
 70
     1
102
RTVSPropertyOp1
 70
     1
102
RTVSPropertyOp2
 70
     1
102
RTVSPropertyOp3
 70
     1
102
RTVSPropertyOp4
 70
     1
102
RTVSPropertyOp5
 70
     1
102
RTVSPropertyOp6
 70
     1
102
RTVSPropertyOp7
 70
     1
102
RTVSPropertyOp8
 70
     1
102
RTVSPropertyOp9
 70
     1
102
RTVSPropertyOp10
 70
     1
102
RTVSPropertyOp11
 70
     1
102
RTVSPropertyOp12
 70
     1
102
RTVSPropertyOp13
 70
     1
102
RTVSPropertyOp14
 70
     1
102
RTVSPropertyOp15
 70
     1
102
RTVSPropertyOp16
 70
     1
102
RTVSPropertyOp17
 70
     1
102
RTVSPropertyOp18
 70
     1
102
RTVSPropertyOp19
 70
     1
102
RTVSPropertyOp20
 70
     1
102
RTVSPropertyOp21
 70
     1
102
RTVSPropertyOp22
 70
     1
102
RTVSPropertyOp23
 70
     1
102
RTVSPropertyOp24
 70
     1
102
RTVSPropertyOp25
 70
     1
102
RTVSPropertyOp26
 70
     1
102
RTVSPropertyOp27
 70
     1
102
RTVSPropertyOp28
 70
     1
102
RTVSPropertyOp29
 70
     1
102
RTVSPropertyOp30
 70
     1
102
RTVSPropertyOp31
 70
     1
102
RTVSPropertyOp32
 70
     1
  0
XRECORD
  5
8D2
102
{ACAD_REACTORS
330
8D1
102
}
330
8D1
100
AcDbXrecord
280
     1
102
RTVSPropertyOp0
 70
     1
102
RTVSPropertyOp1
 70
     1
102
RTVSPropertyOp2
 70
     1
102
RTVSPropertyOp3
 70
     1
102
RTVSPropertyOp4
 70
     1
102
RTVSPropertyOp5
 70
     1
102
RTVSPropertyOp6
 70
     1
102
RTVSPropertyOp7
 70
     1
102
RTVSPropertyOp8
 70
     1
102
RTVSPropertyOp9
 70
     1
102
RTVSPropertyOp10
 70
     1
102
RTVSPropertyOp11
 70
     1
102
RTVSPropertyOp12
 70
     1
102
RTVSPropertyOp13
 70
     1
102
RTVSPropertyOp14
 70
     1
102
RTVSPropertyOp15
 70
     1
102
RTVSPropertyOp16
 70
     1
102
RTVSPropertyOp17
 70
     1
102
RTVSPropertyOp18
 70
     1
102
RTVSPropertyOp19
 70
     1
102
RTVSPropertyOp20
 70
     1
102
RTVSPropertyOp21
 70
     1
102
RTVSPropertyOp22
 70
     1
102
RTVSPropertyOp23
 70
     1
102
RTVSPropertyOp24
 70
     1
102
RTVSPropertyOp25
 70
     1
102
RTVSPropertyOp26
 70
     1
102
RTVSPropertyOp27
 70
     1
102
RTVSPropertyOp28
 70
     1
102
RTVSPropertyOp29
 70
     1
102
RTVSPropertyOp30
 70
     1
102
RTVSPropertyOp31
 70
     1
102
RTVSPropertyOp32
 70
     1
  0
XRECORD
  5
8C4
102
{ACAD_REACTORS
330
8C3
102
}
330
8C3
100
AcDbXrecord
280
     1
102
RTVSPropertyOp0
 70
     1
102
RTVSPropertyOp1
 70
     1
102
RTVSPropertyOp2
 70
     1
102
RTVSPropertyOp3
 70
     1
102
RTVSPropertyOp4
 70
     1
102
RTVSPropertyOp5
 70
     1
102
RTVSPropertyOp6
 70
     1
102
RTVSPropertyOp7
 70
     1
102
RTVSPropertyOp8
 70
     1
102
RTVSPropertyOp9
 70
     1
102
RTVSPropertyOp10
 70
     1
102
RTVSPropertyOp11
 70
     1
102
RTVSPropertyOp12
 70
     1
102
RTVSPropertyOp13
 70
     1
102
RTVSPropertyOp14
 70
     1
102
RTVSPropertyOp15
 70
     1
102
RTVSPropertyOp16
 70
     1
102
RTVSPropertyOp17
 70
     1
102
RTVSPropertyOp18
 70
     1
102
RTVSPropertyOp19
 70
     1
102
RTVSPropertyOp20
 70
     1
102
RTVSPropertyOp21
 70
     1
102
RTVSPropertyOp22
 70
     1
102
RTVSPropertyOp23
 70
     1
102
RTVSPropertyOp24
 70
     1
102
RTVSPropertyOp25
 70
     1
102
RTVSPropertyOp26
 70
     1
102
RTVSPropertyOp27
 70
     1
102
RTVSPropertyOp28
 70
     1
102
RTVSPropertyOp29
 70
     1
102
RTVSPropertyOp30
 70
     1
102
RTVSPropertyOp31
 70
     1
102
RTVSPropertyOp32
 70
     1
  0
XRECORD
  5
8C8
102
{ACAD_REACTORS
330
8C7
102
}
330
8C7
100
AcDbXrecord
280
     1
102
RTVSPropertyOp0
 70
     1
102
RTVSPropertyOp1
 70
     1
102
RTVSPropertyOp2
 70
     1
102
RTVSPropertyOp3
 70
     1
102
RTVSPropertyOp4
 70
     1
102
RTVSPropertyOp5
 70
     1
102
RTVSPropertyOp6
 70
     1
102
RTVSPropertyOp7
 70
     1
102
RTVSPropertyOp8
 70
     1
102
RTVSPropertyOp9
 70
     1
102
RTVSPropertyOp10
 70
     1
102
RTVSPropertyOp11
 70
     1
102
RTVSPropertyOp12
 70
     1
102
RTVSPropertyOp13
 70
     1
102
RTVSPropertyOp14
 70
     1
102
RTVSPropertyOp15
 70
     1
102
RTVSPropertyOp16
 70
     1
102
RTVSPropertyOp17
 70
     1
102
RTVSPropertyOp18
 70
     1
102
RTVSPropertyOp19
 70
     1
102
RTVSPropertyOp20
 70
     1
102
RTVSPropertyOp21
 70
     1
102
RTVSPropertyOp22
 70
     1
102
RTVSPropertyOp23
 70
     1
102
RTVSPropertyOp24
 70
     1
102
RTVSPropertyOp25
 70
     1
102
RTVSPropertyOp26
 70
     1
102
RTVSPropertyOp27
 70
     1
102
RTVSPropertyOp28
 70
     1
102
RTVSPropertyOp29
 70
     1
102
RTVSPropertyOp30
 70
     1
102
RTVSPropertyOp31
 70
     1
102
RTVSPropertyOp32
 70
     1
  0
XRECORD
  5
8E2
102
{ACAD_REACTORS
330
8E1
102
}
330
8E1
100
AcDbXrecord
280
     1
102
RTVSPropertyOp0
 70
     0
102
RTVSPropertyOp1
 70
     0
102
RTVSPropertyOp2
 70
     0
102
RTVSPropertyOp3
 70
     0
102
RTVSPropertyOp4
 70
     0
102
RTVSPropertyOp5
 70
     0
102
RTVSPropertyOp6
 70
     0
102
RTVSPropertyOp7
 70
     0
102
RTVSPropertyOp8
 70
     0
102
RTVSPropertyOp9
 70
     0
102
RTVSPropertyOp10
 70
     0
102
RTVSPropertyOp11
 70
     0
102
RTVSPropertyOp12
 70
     0
102
RTVSPropertyOp13
 70
     0
102
RTVSPropertyOp14
 70
     2
102
RTVSPropertyOp15
 70
     0
102
RTVSPropertyOp16
 70
     0
102
RTVSPropertyOp17
 70
     0
102
RTVSPropertyOp18
 70
     0
102
RTVSPropertyOp19
 70
     0
102
RTVSPropertyOp20
 70
     0
102
RTVSPropertyOp21
 70
     0
102
RTVSPropertyOp22
 70
     0
102
RTVSPropertyOp23
 70
     0
102
RTVSPropertyOp24
 70
     0
102
RTVSPropertyOp25
 70
     0
102
RTVSPropertyOp26
 70
     0
102
RTVSPropertyOp27
 70
     0
102
RTVSPropertyOp28
 70
     0
102
RTVSPropertyOp29
 70
     0
102
RTVSPropertyOp30
 70
     0
102
RTVSPropertyOp31
 70
     0
102
RTVSPropertyOp32
 70
     0
  0
XRECORD
  5
8D0
102
{ACAD_REACTORS
330
8CF
102
}
330
8CF
100
AcDbXrecord
280
     1
102
RTVSPropertyOp0
 70
     1
102
RTVSPropertyOp1
 70
     1
102
RTVSPropertyOp2
 70
     1
102
RTVSPropertyOp3
 70
     1
102
RTVSPropertyOp4
 70
     1
102
RTVSPropertyOp5
 70
     1
102
RTVSPropertyOp6
 70
     1
102
RTVSPropertyOp7
 70
     1
102
RTVSPropertyOp8
 70
     1
102
RTVSPropertyOp9
 70
     1
102
RTVSPropertyOp10
 70
     1
102
RTVSPropertyOp11
 70
     1
102
RTVSPropertyOp12
 70
     1
102
RTVSPropertyOp13
 70
     1
102
RTVSPropertyOp14
 70
     1
102
RTVSPropertyOp15
 70
     1
102
RTVSPropertyOp16
 70
     1
102
RTVSPropertyOp17
 70
     1
102
RTVSPropertyOp18
 70
     1
102
RTVSPropertyOp19
 70
     1
102
RTVSPropertyOp20
 70
     1
102
RTVSPropertyOp21
 70
     1
102
RTVSPropertyOp22
 70
     1
102
RTVSPropertyOp23
 70
     1
102
RTVSPropertyOp24
 70
     1
102
RTVSPropertyOp25
 70
     1
102
RTVSPropertyOp26
 70
     1
102
RTVSPropertyOp27
 70
     1
102
RTVSPropertyOp28
 70
     1
102
RTVSPropertyOp29
 70
     1
102
RTVSPropertyOp30
 70
     1
102
RTVSPropertyOp31
 70
     1
102
RTVSPropertyOp32
 70
     1
  0
XRECORD
  5
8B4
102
{ACAD_REACTORS
330
8B3
102
}
330
8B3
100
AcDbXrecord
280
     1
102
RTVSPropertyOp0
 70
     1
102
RTVSPropertyOp1
 70
     1
102
RTVSPropertyOp2
 70
     1
102
RTVSPropertyOp3
 70
     1
102
RTVSPropertyOp4
 70
     1
102
RTVSPropertyOp5
 70
     1
102
RTVSPropertyOp6
 70
     1
102
RTVSPropertyOp7
 70
     1
102
RTVSPropertyOp8
 70
     1
102
RTVSPropertyOp9
 70
     1
102
RTVSPropertyOp10
 70
     1
102
RTVSPropertyOp11
 70
     1
102
RTVSPropertyOp12
 70
     1
102
RTVSPropertyOp13
 70
     1
102
RTVSPropertyOp14
 70
     1
102
RTVSPropertyOp15
 70
     1
102
RTVSPropertyOp16
 70
     1
102
RTVSPropertyOp17
 70
     1
102
RTVSPropertyOp18
 70
     1
102
RTVSPropertyOp19
 70
     1
102
RTVSPropertyOp20
 70
     1
102
RTVSPropertyOp21
 70
     1
102
RTVSPropertyOp22
 70
     1
102
RTVSPropertyOp23
 70
     1
102
RTVSPropertyOp24
 70
     1
102
RTVSPropertyOp25
 70
     1
102
RTVSPropertyOp26
 70
     1
102
RTVSPropertyOp27
 70
     1
102
RTVSPropertyOp28
 70
     1
102
RTVSPropertyOp29
 70
     1
102
RTVSPropertyOp30
 70
     1
102
RTVSPropertyOp31
 70
     1
102
RTVSPropertyOp32
 70
     1
  0
XRECORD
  5
8B6
102
{ACAD_REACTORS
330
8B5
102
}
330
8B5
100
AcDbXrecord
280
     1
102
RTVSPropertyOp0
 70
     1
102
RTVSPropertyOp1
 70
     1
102
RTVSPropertyOp2
 70
     1
102
RTVSPropertyOp3
 70
     1
102
RTVSPropertyOp4
 70
     1
102
RTVSPropertyOp5
 70
     1
102
RTVSPropertyOp6
 70
     1
102
RTVSPropertyOp7
 70
     1
102
RTVSPropertyOp8
 70
     1
102
RTVSPropertyOp9
 70
     1
102
RTVSPropertyOp10
 70
     1
102
RTVSPropertyOp11
 70
     1
102
RTVSPropertyOp12
 70
     1
102
RTVSPropertyOp13
 70
     1
102
RTVSPropertyOp14
 70
     1
102
RTVSPropertyOp15
 70
     1
102
RTVSPropertyOp16
 70
     1
102
RTVSPropertyOp17
 70
     1
102
RTVSPropertyOp18
 70
     1
102
RTVSPropertyOp19
 70
     1
102
RTVSPropertyOp20
 70
     1
102
RTVSPropertyOp21
 70
     1
102
RTVSPropertyOp22
 70
     1
102
RTVSPropertyOp23
 70
     1
102
RTVSPropertyOp24
 70
     1
102
RTVSPropertyOp25
 70
     1
102
RTVSPropertyOp26
 70
     1
102
RTVSPropertyOp27
 70
     1
102
RTVSPropertyOp28
 70
     1
102
RTVSPropertyOp29
 70
     1
102
RTVSPropertyOp30
 70
     1
102
RTVSPropertyOp31
 70
     1
102
RTVSPropertyOp32
 70
     1
  0
XRECORD
  5
8B8
102
{ACAD_REACTORS
330
8B7
102
}
330
8B7
100
AcDbXrecord
280
     1
102
RTVSPropertyOp0
 70
     1
102
RTVSPropertyOp1
 70
     1
102
RTVSPropertyOp2
 70
     1
102
RTVSPropertyOp3
 70
     1
102
RTVSPropertyOp4
 70
     1
102
RTVSPropertyOp5
 70
     1
102
RTVSPropertyOp6
 70
     1
102
RTVSPropertyOp7
 70
     1
102
RTVSPropertyOp8
 70
     1
102
RTVSPropertyOp9
 70
     1
102
RTVSPropertyOp10
 70
     1
102
RTVSPropertyOp11
 70
     1
102
RTVSPropertyOp12
 70
     1
102
RTVSPropertyOp13
 70
     1
102
RTVSPropertyOp14
 70
     1
102
RTVSPropertyOp15
 70
     1
102
RTVSPropertyOp16
 70
     1
102
RTVSPropertyOp17
 70
     1
102
RTVSPropertyOp18
 70
     1
102
RTVSPropertyOp19
 70
     1
102
RTVSPropertyOp20
 70
     1
102
RTVSPropertyOp21
 70
     1
102
RTVSPropertyOp22
 70
     1
102
RTVSPropertyOp23
 70
     1
102
RTVSPropertyOp24
 70
     1
102
RTVSPropertyOp25
 70
     1
102
RTVSPropertyOp26
 70
     1
102
RTVSPropertyOp27
 70
     1
102
RTVSPropertyOp28
 70
     1
102
RTVSPropertyOp29
 70
     1
102
RTVSPropertyOp30
 70
     1
102
RTVSPropertyOp31
 70
     1
102
RTVSPropertyOp32
 70
     1
  0
XRECORD
  5
8BA
102
{ACAD_REACTORS
330
8B9
102
}
330
8B9
100
AcDbXrecord
280
     1
102
RTVSPropertyOp0
 70
     1
102
RTVSPropertyOp1
 70
     1
102
RTVSPropertyOp2
 70
     1
102
RTVSPropertyOp3
 70
     1
102
RTVSPropertyOp4
 70
     1
102
RTVSPropertyOp5
 70
     1
102
RTVSPropertyOp6
 70
     1
102
RTVSPropertyOp7
 70
     1
102
RTVSPropertyOp8
 70
     1
102
RTVSPropertyOp9
 70
     1
102
RTVSPropertyOp10
 70
     1
102
RTVSPropertyOp11
 70
     1
102
RTVSPropertyOp12
 70
     1
102
RTVSPropertyOp13
 70
     1
102
RTVSPropertyOp14
 70
     1
102
RTVSPropertyOp15
 70
     1
102
RTVSPropertyOp16
 70
     1
102
RTVSPropertyOp17
 70
     1
102
RTVSPropertyOp18
 70
     1
102
RTVSPropertyOp19
 70
     1
102
RTVSPropertyOp20
 70
     1
102
RTVSPropertyOp21
 70
     1
102
RTVSPropertyOp22
 70
     1
102
RTVSPropertyOp23
 70
     1
102
RTVSPropertyOp24
 70
     1
102
RTVSPropertyOp25
 70
     1
102
RTVSPropertyOp26
 70
     1
102
RTVSPropertyOp27
 70
     1
102
RTVSPropertyOp28
 70
     1
102
RTVSPropertyOp29
 70
     1
102
RTVSPropertyOp30
 70
     1
102
RTVSPropertyOp31
 70
     1
102
RTVSPropertyOp32
 70
     1
  0
XRECORD
  5
8C2
102
{ACAD_REACTORS
330
8C1
102
}
330
8C1
100
AcDbXrecord
280
     1
102
RTVSPropertyOp0
 70
     1
102
RTVSPropertyOp1
 70
     1
102
RTVSPropertyOp2
 70
     1
102
RTVSPropertyOp3
 70
     1
102
RTVSPropertyOp4
 70
     1
102
RTVSPropertyOp5
 70
     1
102
RTVSPropertyOp6
 70
     1
102
RTVSPropertyOp7
 70
     1
102
RTVSPropertyOp8
 70
     1
102
RTVSPropertyOp9
 70
     1
102
RTVSPropertyOp10
 70
     1
102
RTVSPropertyOp11
 70
     1
102
RTVSPropertyOp12
 70
     1
102
RTVSPropertyOp13
 70
     1
102
RTVSPropertyOp14
 70
     1
102
RTVSPropertyOp15
 70
     1
102
RTVSPropertyOp16
 70
     1
102
RTVSPropertyOp17
 70
     1
102
RTVSPropertyOp18
 70
     1
102
RTVSPropertyOp19
 70
     1
102
RTVSPropertyOp20
 70
     1
102
RTVSPropertyOp21
 70
     1
102
RTVSPropertyOp22
 70
     1
102
RTVSPropertyOp23
 70
     1
102
RTVSPropertyOp24
 70
     1
102
RTVSPropertyOp25
 70
     1
102
RTVSPropertyOp26
 70
     1
102
RTVSPropertyOp27
 70
     1
102
RTVSPropertyOp28
 70
     1
102
RTVSPropertyOp29
 70
     1
102
RTVSPropertyOp30
 70
     1
102
RTVSPropertyOp31
 70
     1
102
RTVSPropertyOp32
 70
     1
  0
XRECORD
  5
8DE
102
{ACAD_REACTORS
330
8DD
102
}
330
8DD
100
AcDbXrecord
280
     1
102
RTVSPropertyOp0
 70
     0
102
RTVSPropertyOp1
 70
     0
102
RTVSPropertyOp2
 70
     0
102
RTVSPropertyOp3
 70
     0
102
RTVSPropertyOp4
 70
     0
102
RTVSPropertyOp5
 70
     0
102
RTVSPropertyOp6
 70
     0
102
RTVSPropertyOp7
 70
     0
102
RTVSPropertyOp8
 70
     0
102
RTVSPropertyOp9
 70
     0
102
RTVSPropertyOp10
 70
     0
102
RTVSPropertyOp11
 70
     0
102
RTVSPropertyOp12
 70
     0
102
RTVSPropertyOp13
 70
     0
102
RTVSPropertyOp14
 70
     2
102
RTVSPropertyOp15
 70
     0
102
RTVSPropertyOp16
 70
     0
102
RTVSPropertyOp17
 70
     0
102
RTVSPropertyOp18
 70
     0
102
RTVSPropertyOp19
 70
     0
102
RTVSPropertyOp20
 70
     0
102
RTVSPropertyOp21
 70
     0
102
RTVSPropertyOp22
 70
     0
102
RTVSPropertyOp23
 70
     0
102
RTVSPropertyOp24
 70
     0
102
RTVSPropertyOp25
 70
     0
102
RTVSPropertyOp26
 70
     0
102
RTVSPropertyOp27
 70
     0
102
RTVSPropertyOp28
 70
     0
102
RTVSPropertyOp29
 70
     0
102
RTVSPropertyOp30
 70
     0
102
RTVSPropertyOp31
 70
     0
102
RTVSPropertyOp32
 70
     0
  0
XRECORD
  5
8CE
102
{ACAD_REACTORS
330
8CD
102
}
330
8CD
100
AcDbXrecord
280
     1
102
RTVSPropertyOp0
 70
     1
102
RTVSPropertyOp1
 70
     1
102
RTVSPropertyOp2
 70
     1
102
RTVSPropertyOp3
 70
     1
102
RTVSPropertyOp4
 70
     1
102
RTVSPropertyOp5
 70
     1
102
RTVSPropertyOp6
 70
     1
102
RTVSPropertyOp7
 70
     1
102
RTVSPropertyOp8
 70
     1
102
RTVSPropertyOp9
 70
     1
102
RTVSPropertyOp10
 70
     1
102
RTVSPropertyOp11
 70
     1
102
RTVSPropertyOp12
 70
     1
102
RTVSPropertyOp13
 70
     1
102
RTVSPropertyOp14
 70
     1
102
RTVSPropertyOp15
 70
     1
102
RTVSPropertyOp16
 70
     1
102
RTVSPropertyOp17
 70
     1
102
RTVSPropertyOp18
 70
     1
102
RTVSPropertyOp19
 70
     1
102
RTVSPropertyOp20
 70
     1
102
RTVSPropertyOp21
 70
     1
102
RTVSPropertyOp22
 70
     1
102
RTVSPropertyOp23
 70
     1
102
RTVSPropertyOp24
 70
     1
102
RTVSPropertyOp25
 70
     1
102
RTVSPropertyOp26
 70
     1
102
RTVSPropertyOp27
 70
     1
102
RTVSPropertyOp28
 70
     1
102
RTVSPropertyOp29
 70
     1
102
RTVSPropertyOp30
 70
     1
102
RTVSPropertyOp31
 70
     1
102
RTVSPropertyOp32
 70
     1
  0
XRECORD
  5
8E0
102
{ACAD_REACTORS
330
8DF
102
}
330
8DF
100
AcDbXrecord
280
     1
102
RTVSPropertyOp0
 70
     0
102
RTVSPropertyOp1
 70
     0
102
RTVSPropertyOp2
 70
     0
102
RTVSPropertyOp3
 70
     0
102
RTVSPropertyOp4
 70
     0
102
RTVSPropertyOp5
 70
     0
102
RTVSPropertyOp6
 70
     0
102
RTVSPropertyOp7
 70
     0
102
RTVSPropertyOp8
 70
     0
102
RTVSPropertyOp9
 70
     0
102
RTVSPropertyOp10
 70
     0
102
RTVSPropertyOp11
 70
     0
102
RTVSPropertyOp12
 70
     0
102
RTVSPropertyOp13
 70
     0
102
RTVSPropertyOp14
 70
     2
102
RTVSPropertyOp15
 70
     0
102
RTVSPropertyOp16
 70
     0
102
RTVSPropertyOp17
 70
     0
102
RTVSPropertyOp18
 70
     0
102
RTVSPropertyOp19
 70
     0
102
RTVSPropertyOp20
 70
     0
102
RTVSPropertyOp21
 70
     0
102
RTVSPropertyOp22
 70
     0
102
RTVSPropertyOp23
 70
     0
102
RTVSPropertyOp24
 70
     0
102
RTVSPropertyOp25
 70
     0
102
RTVSPropertyOp26
 70
     0
102
RTVSPropertyOp27
 70
     0
102
RTVSPropertyOp28
 70
     0
102
RTVSPropertyOp29
 70
     0
102
RTVSPropertyOp30
 70
     0
102
RTVSPropertyOp31
 70
     0
102
RTVSPropertyOp32
 70
     0
  0
XRECORD
  5
8C6
102
{ACAD_REACTORS
330
8C5
102
}
330
8C5
100
AcDbXrecord
280
     1
102
RTVSPropertyOp0
 70
     1
102
RTVSPropertyOp1
 70
     1
102
RTVSPropertyOp2
 70
     1
102
RTVSPropertyOp3
 70
     1
102
RTVSPropertyOp4
 70
     1
102
RTVSPropertyOp5
 70
     1
102
RTVSPropertyOp6
 70
     1
102
RTVSPropertyOp7
 70
     1
102
RTVSPropertyOp8
 70
     1
102
RTVSPropertyOp9
 70
     1
102
RTVSPropertyOp10
 70
     1
102
RTVSPropertyOp11
 70
     1
102
RTVSPropertyOp12
 70
     1
102
RTVSPropertyOp13
 70
     1
102
RTVSPropertyOp14
 70
     1
102
RTVSPropertyOp15
 70
     1
102
RTVSPropertyOp16
 70
     1
102
RTVSPropertyOp17
 70
     1
102
RTVSPropertyOp18
 70
     1
102
RTVSPropertyOp19
 70
     1
102
RTVSPropertyOp20
 70
     1
102
RTVSPropertyOp21
 70
     1
102
RTVSPropertyOp22
 70
     1
102
RTVSPropertyOp23
 70
     1
102
RTVSPropertyOp24
 70
     1
102
RTVSPropertyOp25
 70
     1
102
RTVSPropertyOp26
 70
     1
102
RTVSPropertyOp27
 70
     1
102
RTVSPropertyOp28
 70
     1
102
RTVSPropertyOp29
 70
     1
102
RTVSPropertyOp30
 70
     1
102
RTVSPropertyOp31
 70
     1
102
RTVSPropertyOp32
 70
     1
  0
XRECORD
  5
8DC
102
{ACAD_REACTORS
330
8DB
102
}
330
8DB
100
AcDbXrecord
280
     1
102
RTVSPropertyOp0
 70
     1
102
RTVSPropertyOp1
 70
     1
102
RTVSPropertyOp2
 70
     1
102
RTVSPropertyOp3
 70
     1
102
RTVSPropertyOp4
 70
     1
102
RTVSPropertyOp5
 70
     1
102
RTVSPropertyOp6
 70
     1
102
RTVSPropertyOp7
 70
     1
102
RTVSPropertyOp8
 70
     1
102
RTVSPropertyOp9
 70
     1
102
RTVSPropertyOp10
 70
     1
102
RTVSPropertyOp11
 70
     1
102
RTVSPropertyOp12
 70
     1
102
RTVSPropertyOp13
 70
     1
102
RTVSPropertyOp14
 70
     1
102
RTVSPropertyOp15
 70
     1
102
RTVSPropertyOp16
 70
     1
102
RTVSPropertyOp17
 70
     1
102
RTVSPropertyOp18
 70
     1
102
RTVSPropertyOp19
 70
     1
102
RTVSPropertyOp20
 70
     1
102
RTVSPropertyOp21
 70
     1
102
RTVSPropertyOp22
 70
     1
102
RTVSPropertyOp23
 70
     1
102
RTVSPropertyOp24
 70
     1
102
RTVSPropertyOp25
 70
     1
102
RTVSPropertyOp26
 70
     1
102
RTVSPropertyOp27
 70
     1
102
RTVSPropertyOp28
 70
     1
102
RTVSPropertyOp29
 70
     1
102
RTVSPropertyOp30
 70
     1
102
RTVSPropertyOp31
 70
     1
102
RTVSPropertyOp32
 70
     1
  0
XRECORD
  5
8DA
102
{ACAD_REACTORS
330
8D9
102
}
330
8D9
100
AcDbXrecord
280
     1
102
RTVSPropertyOp0
 70
     1
102
RTVSPropertyOp1
 70
     1
102
RTVSPropertyOp2
 70
     1
102
RTVSPropertyOp3
 70
     1
102
RTVSPropertyOp4
 70
     1
102
RTVSPropertyOp5
 70
     1
102
RTVSPropertyOp6
 70
     1
102
RTVSPropertyOp7
 70
     1
102
RTVSPropertyOp8
 70
     1
102
RTVSPropertyOp9
 70
     1
102
RTVSPropertyOp10
 70
     1
102
RTVSPropertyOp11
 70
     1
102
RTVSPropertyOp12
 70
     1
102
RTVSPropertyOp13
 70
     1
102
RTVSPropertyOp14
 70
     1
102
RTVSPropertyOp15
 70
     1
102
RTVSPropertyOp16
 70
     1
102
RTVSPropertyOp17
 70
     1
102
RTVSPropertyOp18
 70
     1
102
RTVSPropertyOp19
 70
     1
102
RTVSPropertyOp20
 70
     1
102
RTVSPropertyOp21
 70
     1
102
RTVSPropertyOp22
 70
     1
102
RTVSPropertyOp23
 70
     1
102
RTVSPropertyOp24
 70
     1
102
RTVSPropertyOp25
 70
     1
102
RTVSPropertyOp26
 70
     1
102
RTVSPropertyOp27
 70
     1
102
RTVSPropertyOp28
 70
     1
102
RTVSPropertyOp29
 70
     1
102
RTVSPropertyOp30
 70
     1
102
RTVSPropertyOp31
 70
     1
102
RTVSPropertyOp32
 70
     1
  0
XRECORD
  5
8D4
102
{ACAD_REACTORS
330
8D3
102
}
330
8D3
100
AcDbXrecord
280
     1
102
RTVSPropertyOp0
 70
     1
102
RTVSPropertyOp1
 70
     1
102
RTVSPropertyOp2
 70
     1
102
RTVSPropertyOp3
 70
     1
102
RTVSPropertyOp4
 70
     1
102
RTVSPropertyOp5
 70
     1
102
RTVSPropertyOp6
 70
     1
102
RTVSPropertyOp7
 70
     1
102
RTVSPropertyOp8
 70
     1
102
RTVSPropertyOp9
 70
     1
102
RTVSPropertyOp10
 70
     1
102
RTVSPropertyOp11
 70
     1
102
RTVSPropertyOp12
 70
     1
102
RTVSPropertyOp13
 70
     1
102
RTVSPropertyOp14
 70
     1
102
RTVSPropertyOp15
 70
     1
102
RTVSPropertyOp16
 70
     1
102
RTVSPropertyOp17
 70
     1
102
RTVSPropertyOp18
 70
     1
102
RTVSPropertyOp19
 70
     1
102
RTVSPropertyOp20
 70
     1
102
RTVSPropertyOp21
 70
     1
102
RTVSPropertyOp22
 70
     1
102
RTVSPropertyOp23
 70
     1
102
RTVSPropertyOp24
 70
     1
102
RTVSPropertyOp25
 70
     1
102
RTVSPropertyOp26
 70
     1
102
RTVSPropertyOp27
 70
     1
102
RTVSPropertyOp28
 70
     1
102
RTVSPropertyOp29
 70
     1
102
RTVSPropertyOp30
 70
     1
102
RTVSPropertyOp31
 70
     1
102
RTVSPropertyOp32
 70
     1
  0
XRECORD
  5
8D6
102
{ACAD_REACTORS
330
8D5
102
}
330
8D5
100
AcDbXrecord
280
     1
102
RTVSPropertyOp0
 70
     1
102
RTVSPropertyOp1
 70
     1
102
RTVSPropertyOp2
 70
     1
102
RTVSPropertyOp3
 70
     1
102
RTVSPropertyOp4
 70
     1
102
RTVSPropertyOp5
 70
     1
102
RTVSPropertyOp6
 70
     1
102
RTVSPropertyOp7
 70
     1
102
RTVSPropertyOp8
 70
     1
102
RTVSPropertyOp9
 70
     1
102
RTVSPropertyOp10
 70
     1
102
RTVSPropertyOp11
 70
     1
102
RTVSPropertyOp12
 70
     1
102
RTVSPropertyOp13
 70
     1
102
RTVSPropertyOp14
 70
     1
102
RTVSPropertyOp15
 70
     1
102
RTVSPropertyOp16
 70
     1
102
RTVSPropertyOp17
 70
     1
102
RTVSPropertyOp18
 70
     1
102
RTVSPropertyOp19
 70
     1
102
RTVSPropertyOp20
 70
     1
102
RTVSPropertyOp21
 70
     1
102
RTVSPropertyOp22
 70
     1
102
RTVSPropertyOp23
 70
     1
102
RTVSPropertyOp24
 70
     1
102
RTVSPropertyOp25
 70
     1
102
RTVSPropertyOp26
 70
     1
102
RTVSPropertyOp27
 70
     1
102
RTVSPropertyOp28
 70
     1
102
RTVSPropertyOp29
 70
     1
102
RTVSPropertyOp30
 70
     1
102
RTVSPropertyOp31
 70
     1
102
RTVSPropertyOp32
 70
     1
  0
XRECORD
  5
8CC
102
{ACAD_REACTORS
330
8CB
102
}
330
8CB
100
AcDbXrecord
280
     1
102
RTVSPropertyOp0
 70
     1
102
RTVSPropertyOp1
 70
     1
102
RTVSPropertyOp2
 70
     1
102
RTVSPropertyOp3
 70
     1
102
RTVSPropertyOp4
 70
     1
102
RTVSPropertyOp5
 70
     1
102
RTVSPropertyOp6
 70
     1
102
RTVSPropertyOp7
 70
     1
102
RTVSPropertyOp8
 70
     1
102
RTVSPropertyOp9
 70
     1
102
RTVSPropertyOp10
 70
     1
102
RTVSPropertyOp11
 70
     1
102
RTVSPropertyOp12
 70
     1
102
RTVSPropertyOp13
 70
     1
102
RTVSPropertyOp14
 70
     1
102
RTVSPropertyOp15
 70
     1
102
RTVSPropertyOp16
 70
     1
102
RTVSPropertyOp17
 70
     1
102
RTVSPropertyOp18
 70
     1
102
RTVSPropertyOp19
 70
     1
102
RTVSPropertyOp20
 70
     1
102
RTVSPropertyOp21
 70
     1
102
RTVSPropertyOp22
 70
     1
102
RTVSPropertyOp23
 70
     1
102
RTVSPropertyOp24
 70
     1
102
RTVSPropertyOp25
 70
     1
102
RTVSPropertyOp26
 70
     1
102
RTVSPropertyOp27
 70
     1
102
RTVSPropertyOp28
 70
     1
102
RTVSPropertyOp29
 70
     1
102
RTVSPropertyOp30
 70
     1
102
RTVSPropertyOp31
 70
     1
102
RTVSPropertyOp32
 70
     1
  0
XRECORD
  5
8C0
102
{ACAD_REACTORS
330
8BF
102
}
330
8BF
100
AcDbXrecord
280
     1
102
RTVSPropertyOp0
 70
     1
102
RTVSPropertyOp1
 70
     1
102
RTVSPropertyOp2
 70
     1
102
RTVSPropertyOp3
 70
     1
102
RTVSPropertyOp4
 70
     1
102
RTVSPropertyOp5
 70
     1
102
RTVSPropertyOp6
 70
     1
102
RTVSPropertyOp7
 70
     1
102
RTVSPropertyOp8
 70
     1
102
RTVSPropertyOp9
 70
     1
102
RTVSPropertyOp10
 70
     1
102
RTVSPropertyOp11
 70
     1
102
RTVSPropertyOp12
 70
     1
102
RTVSPropertyOp13
 70
     1
102
RTVSPropertyOp14
 70
     1
102
RTVSPropertyOp15
 70
     1
102
RTVSPropertyOp16
 70
     1
102
RTVSPropertyOp17
 70
     1
102
RTVSPropertyOp18
 70
     1
102
RTVSPropertyOp19
 70
     1
102
RTVSPropertyOp20
 70
     1
102
RTVSPropertyOp21
 70
     1
102
RTVSPropertyOp22
 70
     1
102
RTVSPropertyOp23
 70
     1
102
RTVSPropertyOp24
 70
     1
102
RTVSPropertyOp25
 70
     1
102
RTVSPropertyOp26
 70
     1
102
RTVSPropertyOp27
 70
     1
102
RTVSPropertyOp28
 70
     1
102
RTVSPropertyOp29
 70
     1
102
RTVSPropertyOp30
 70
     1
102
RTVSPropertyOp31
 70
     1
102
RTVSPropertyOp32
 70
     1
  0
XRECORD
  5
8D8
102
{ACAD_REACTORS
330
8D7
102
}
330
8D7
100
AcDbXrecord
280
     1
102
RTVSPropertyOp0
 70
     1
102
RTVSPropertyOp1
 70
     1
102
RTVSPropertyOp2
 70
     1
102
RTVSPropertyOp3
 70
     1
102
RTVSPropertyOp4
 70
     1
102
RTVSPropertyOp5
 70
     1
102
RTVSPropertyOp6
 70
     1
102
RTVSPropertyOp7
 70
     1
102
RTVSPropertyOp8
 70
     1
102
RTVSPropertyOp9
 70
     1
102
RTVSPropertyOp10
 70
     1
102
RTVSPropertyOp11
 70
     1
102
RTVSPropertyOp12
 70
     1
102
RTVSPropertyOp13
 70
     1
102
RTVSPropertyOp14
 70
     1
102
RTVSPropertyOp15
 70
     1
102
RTVSPropertyOp16
 70
     1
102
RTVSPropertyOp17
 70
     1
102
RTVSPropertyOp18
 70
     1
102
RTVSPropertyOp19
 70
     1
102
RTVSPropertyOp20
 70
     1
102
RTVSPropertyOp21
 70
     1
102
RTVSPropertyOp22
 70
     1
102
RTVSPropertyOp23
 70
     1
102
RTVSPropertyOp24
 70
     1
102
RTVSPropertyOp25
 70
     1
102
RTVSPropertyOp26
 70
     1
102
RTVSPropertyOp27
 70
     1
102
RTVSPropertyOp28
 70
     1
102
RTVSPropertyOp29
 70
     1
102
RTVSPropertyOp30
 70
     1
102
RTVSPropertyOp31
 70
     1
102
RTVSPropertyOp32
 70
     1
  0
ENDSEC
  0
EOF
