  0
SECTION
  2
HEADER
  9
$ACADVER
  1
AC1015
  9
$ACADMAINTVER
 70
    20
  9
$DWGCODEPAGE
  3
ANSI_932
  9
$INSBASE
 10
0.0
 20
0.0
 30
0.0
  9
$EXTMIN
 10
-438.5697656951225
 20
-99.15703245100315
 30
-0.000000000000013
  9
$EXTMAX
 10
-161.5424451779704
 20
91.3321162785175
 30
0.0000000000000023
  9
$LIMMIN
 10
-138.501
 20
-90.00100000000001
  9
$LIMMAX
 10
139.323342
 20
100.473618
  9
$ORTHOMODE
 70
     1
  9
$REGENMODE
 70
     1
  9
$FILLMODE
 70
     1
  9
$QTEXTMODE
 70
     0
  9
$MIRRTEXT
 70
     0
  9
$LTSCALE
 40
4.630372
  9
$ATTMODE
 70
     1
  9
$TEXTSIZE
 40
3.2
  9
$TRACEWID
 40
0.05
  9
$TEXTSTYLE
  7
高3.2
  9
$CLAYER
  8
0
  9
$CELTYPE
  6
CONTINUOUS
  9
$CECOLOR
 62
   256
  9
$CELTSCALE
 40
1.0
  9
$DISPSILH
 70
     0
  9
$DIMSCALE
 40
1.0
  9
$DIMASZ
 40
2.5
  9
$DIMEXO
 40
0.25
  9
$DIMDLI
 40
0.2
  9
$DIMRND
 40
0.0
  9
$DIMDLE
 40
0.0
  9
$DIMEXE
 40
1.25
  9
$DIMTP
 40
0.0
  9
$DIMTM
 40
0.0
  9
$DIMTXT
 40
3.0
  9
$DIMCEN
 40
0.0
  9
$DIMTSZ
 40
0.0
  9
$DIMTOL
 70
     0
  9
$DIMLIM
 70
     0
  9
$DIMTIH
 70
     0
  9
$DIMTOH
 70
     0
  9
$DIMSE1
 70
     0
  9
$DIMSE2
 70
     0
  9
$DIMTAD
 70
     3
  9
$DIMZIN
 70
     8
  9
$DIMBLK
  1
Open30
  9
$DIMASO
 70
     1
  9
$DIMSHO
 70
     1
  9
$DIMPOST
  1

  9
$DIMAPOST
  1

  9
$DIMALT
 70
     0
  9
$DIMALTD
 70
     3
  9
$DIMALTF
 40
0.03937007874016
  9
$DIMLFAC
 40
1.0
  9
$DIMTOFL
 70
     1
  9
$DIMTVP
 40
0.0
  9
$DIMTIX
 70
     0
  9
$DIMSOXD
 70
     0
  9
$DIMSAH
 70
     0
  9
$DIMBLK1
  1

  9
$DIMBLK2
  1

  9
$DIMSTYLE
  2
FREE
  9
$DIMCLRD
 70
     0
  9
$DIMCLRE
 70
     0
  9
$DIMCLRT
 70
     4
  9
$DIMTFAC
 40
1.0
  9
$DIMGAP
 40
0.625
  9
$DIMJUST
 70
     0
  9
$DIMSD1
 70
     0
  9
$DIMSD2
 70
     0
  9
$DIMTOLJ
 70
     0
  9
$DIMTZIN
 70
     8
  9
$DIMALTZ
 70
     0
  9
$DIMALTTZ
 70
     0
  9
$DIMUPT
 70
     1
  9
$DIMDEC
 70
     2
  9
$DIMTDEC
 70
     2
  9
$DIMALTU
 70
     2
  9
$DIMALTTD
 70
     3
  9
$DIMTXSTY
  7
STANDARD
  9
$DIMAUNIT
 70
     0
  9
$DIMADEC
 70
     1
  9
$DIMALTRND
 40
0.0
  9
$DIMAZIN
 70
     2
  9
$DIMDSEP
 70
    46
  9
$DIMATFIT
 70
     0
  9
$DIMFRAC
 70
     0
  9
$DIMLDRBLK
  1
Open30
  9
$DIMLUNIT
 70
     2
  9
$DIMLWD
 70
    -2
  9
$DIMLWE
 70
    -2
  9
$DIMTMOVE
 70
     0
  9
$LUNITS
 70
     2
  9
$LUPREC
 70
     4
  9
$SKETCHINC
 40
0.1
  9
$FILLETRAD
 40
0.0
  9
$AUNITS
 70
     0
  9
$AUPREC
 70
     0
  9
$MENU
  1
.
  9
$ELEVATION
 40
0.0
  9
$PELEVATION
 40
0.0
  9
$THICKNESS
 40
0.0
  9
$LIMCHECK
 70
     0
  9
$CHAMFERA
 40
0.0
  9
$CHAMFERB
 40
0.0
  9
$CHAMFERC
 40
0.0
  9
$CHAMFERD
 40
0.0
  9
$SKPOLY
 70
     0
  9
$TDCREATE
 40
2455548.628987986
  9
$TDUCREATE
 40
2455548.253987986
  9
$TDUPDATE
 40
2456748.413871655
  9
$TDUUPDATE
 40
2456748.038871655
  9
$TDINDWG
 40
0.0247941667
  9
$TDUSRTIMER
 40
0.0247760995
  9
$USRTIMER
 70
     1
  9
$ANGBASE
 50
0.0
  9
$ANGDIR
 70
     0
  9
$PDMODE
 70
     0
  9
$PDSIZE
 40
0.0
  9
$PLINEWID
 40
0.0
  9
$SPLFRAME
 70
     0
  9
$SPLINETYPE
 70
     6
  9
$SPLINESEGS
 70
     8
  9
$HANDSEED
  5
F82
  9
$SURFTAB1
 70
     6
  9
$SURFTAB2
 70
     6
  9
$SURFTYPE
 70
     6
  9
$SURFU
 70
     6
  9
$SURFV
 70
     6
  9
$UCSBASE
  2

  9
$UCSNAME
  2

  9
$UCSORG
 10
0.0
 20
0.0
 30
0.0
  9
$UCSXDIR
 10
1.0
 20
0.0
 30
0.0
  9
$UCSYDIR
 10
0.0
 20
1.0
 30
0.0
  9
$UCSORTHOREF
  2

  9
$UCSORTHOVIEW
 70
     0
  9
$UCSORGTOP
 10
0.0
 20
0.0
 30
0.0
  9
$UCSORGBOTTOM
 10
0.0
 20
0.0
 30
0.0
  9
$UCSORGLEFT
 10
0.0
 20
0.0
 30
0.0
  9
$UCSORGRIGHT
 10
0.0
 20
0.0
 30
0.0
  9
$UCSORGFRONT
 10
0.0
 20
0.0
 30
0.0
  9
$UCSORGBACK
 10
0.0
 20
0.0
 30
0.0
  9
$PUCSBASE
  2

  9
$PUCSNAME
  2

  9
$PUCSORG
 10
0.0
 20
0.0
 30
0.0
  9
$PUCSXDIR
 10
1.0
 20
0.0
 30
0.0
  9
$PUCSYDIR
 10
0.0
 20
1.0
 30
0.0
  9
$PUCSORTHOREF
  2

  9
$PUCSORTHOVIEW
 70
     0
  9
$PUCSORGTOP
 10
0.0
 20
0.0
 30
0.0
  9
$PUCSORGBOTTOM
 10
0.0
 20
0.0
 30
0.0
  9
$PUCSORGLEFT
 10
0.0
 20
0.0
 30
0.0
  9
$PUCSORGRIGHT
 10
0.0
 20
0.0
 30
0.0
  9
$PUCSORGFRONT
 10
0.0
 20
0.0
 30
0.0
  9
$PUCSORGBACK
 10
0.0
 20
0.0
 30
0.0
  9
$USERI1
 70
     0
  9
$USERI2
 70
     0
  9
$USERI3
 70
     0
  9
$USERI4
 70
     0
  9
$USERI5
 70
     0
  9
$USERR1
 40
0.0
  9
$USERR2
 40
0.0
  9
$USERR3
 40
0.0
  9
$USERR4
 40
0.0
  9
$USERR5
 40
0.0
  9
$WORLDVIEW
 70
     1
  9
$SHADEDGE
 70
     3
  9
$SHADEDIF
 70
    70
  9
$TILEMODE
 70
     1
  9
$MAXACTVP
 70
    64
  9
$PINSBASE
 10
0.0
 20
0.0
 30
0.0
  9
$PLIMCHECK
 70
     0
  9
$PEXTMIN
 10
1.000000000000000E+20
 20
1.000000000000000E+20
 30
1.000000000000000E+20
  9
$PEXTMAX
 10
-1.000000000000000E+20
 20
-1.000000000000000E+20
 30
-1.000000000000000E+20
  9
$PLIMMIN
 10
0.0
 20
0.0
  9
$PLIMMAX
 10
12.0
 20
9.0
  9
$UNITMODE
 70
     0
  9
$VISRETAIN
 70
     1
  9
$PLINEGEN
 70
     0
  9
$PSLTSCALE
 70
     1
  9
$TREEDEPTH
 70
  3020
  9
$CMLSTYLE
  2
Standard
  9
$CMLJUST
 70
     0
  9
$CMLSCALE
 40
1.0
  9
$PROXYGRAPHICS
 70
     1
  9
$MEASUREMENT
 70
     0
  9
$CELWEIGHT
370
    -1
  9
$ENDCAPS
280
     0
  9
$JOINSTYLE
280
     0
  9
$LWDISPLAY
290
     0
  9
$INSUNITS
 70
     0
  9
$HYPERLINKBASE
  1

  9
$STYLESHEET
  1
n-plot.ctb
  9
$XEDIT
290
     1
  9
$CEPSNTYPE
380
     0
  9
$PSTYLEMODE
290
     1
  9
$FINGERPRINTGUID
  2
{549AE178-236E-4DCA-BCFB-127BE5669470}
  9
$VERSIONGUID
  2
{CCF1C43D-B058-4331-9DDE-16A0C0A0DF53}
  9
$EXTNAMES
290
     1
  9
$PSVPSCALE
 40
0.0
  9
$OLESTARTUP
290
     0
  0
ENDSEC
  0
SECTION
  2
CLASSES
  0
CLASS
  1
ACDBDICTIONARYWDFLT
  2
AcDbDictionaryWithDefault
  3
ObjectDBX Classes
 90
        0
280
     0
281
     0
  0
CLASS
  1
MATERIAL
  2
AcDbMaterial
  3
ObjectDBX Classes
 90
     1153
280
     0
281
     0
  0
CLASS
  1
VISUALSTYLE
  2
AcDbVisualStyle
  3
ObjectDBX Classes
 90
     4095
280
     0
281
     0
  0
CLASS
  1
TABLESTYLE
  2
AcDbTableStyle
  3
ObjectDBX Classes
 90
     4095
280
     0
281
     0
  0
CLASS
  1
SORTENTSTABLE
  2
AcDbSortentsTable
  3
ObjectDBX Classes
 90
        0
280
     0
281
     0
  0
CLASS
  1
DICTIONARYVAR
  2
AcDbDictionaryVar
  3
ObjectDBX Classes
 90
        0
280
     0
281
     0
  0
CLASS
  1
SCALE
  2
AcDbScale
  3
ObjectDBX Classes
 90
     1153
280
     0
281
     0
  0
CLASS
  1
MLEADERSTYLE
  2
AcDbMLeaderStyle
  3
ACDB_MLEADERSTYLE_CLASS
 90
     4095
280
     0
281
     0
  0
CLASS
  1
CELLSTYLEMAP
  2
AcDbCellStyleMap
  3
ObjectDBX Classes
 90
     1152
280
     0
281
     0
  0
CLASS
  1
ACDBPLACEHOLDER
  2
AcDbPlaceHolder
  3
ObjectDBX Classes
 90
        0
280
     0
281
     0
  0
CLASS
  1
LAYOUT
  2
AcDbLayout
  3
ObjectDBX Classes
 90
        0
280
     0
281
     0
  0
ENDSEC
  0
SECTION
  2
TABLES
  0
TABLE
  2
VPORT
  5
8
330
0
100
AcDbSymbolTable
 70
     1
  0
VPORT
  5
56
330
8
100
AcDbSymbolTableRecord
100
AcDbViewportTableRecord
  2
*Active
 70
     0
 10
0.0
 20
0.0
 11
1.0
 21
1.0
 12
-263.0500512811738
 22
-33.38982305198718
 13
0.0
 23
0.0
 14
1.0
 24
1.0
 15
0.0
 25
0.0
 16
0.0
 26
0.0
 36
1.0
 17
0.0
 27
0.0
 37
0.0
 40
474.748416433144
 41
1.732394366197183
 42
50.0
 43
0.0
 44
0.0
 50
0.0
 51
0.0
 71
     0
 72
   100
 73
     1
 74
     1
 75
     0
 76
     0
 77
     0
 78
     0
281
     0
 65
     1
110
0.0
120
0.0
130
0.0
111
1.0
121
0.0
131
0.0
112
0.0
122
1.0
132
0.0
 79
     0
146
0.0
  0
ENDTAB
  0
TABLE
  2
LTYPE
  5
5
330
0
100
AcDbSymbolTable
 70
    26
  0
LTYPE
  5
28
330
5
100
AcDbSymbolTableRecord
100
AcDbLinetypeTableRecord
  2
ByBlock
 70
     0
  3

 72
    65
 73
     0
 40
0.0
  0
LTYPE
  5
29
330
5
100
AcDbSymbolTableRecord
100
AcDbLinetypeTableRecord
  2
ByLayer
 70
     0
  3

 72
    65
 73
     0
 40
0.0
  0
LTYPE
  5
2A
330
5
100
AcDbSymbolTableRecord
100
AcDbLinetypeTableRecord
  2
CONTINUOUS
 70
     0
  3
Solid-line
 72
    65
 73
     0
 40
0.0
  0
ENDTAB
  0
TABLE
  2
LAYER
  5
2
102
{ACAD_XDICTIONARY
360
3E6
102
}
330
0
100
AcDbSymbolTable
 70
     3
  0
LAYER
  5
25
102
{ACAD_XDICTIONARY
360
E1B
102
}
330
2
100
AcDbSymbolTableRecord
100
AcDbLayerTableRecord
  2
0
 70
     0
 62
     7
  6
CONTINUOUS
370
    -3
390
F
  0
LAYER
  5
372
330
2
100
AcDbSymbolTableRecord
100
AcDbLayerTableRecord
  2
Defpoints
 70
     0
 62
     7
  6
CONTINUOUS
290
     0
370
    -3
390
F
  0
ENDTAB
  0
TABLE
  2
STYLE
  5
3
330
0
100
AcDbSymbolTable
 70
     8
  0
STYLE
  5
26
330
3
100
AcDbSymbolTableRecord
100
AcDbTextStyleTableRecord
  2
STANDARD
 70
     0
 40
0.0
 41
1.0
 50
0.0
 71
     0
 42
0.2
  3
TXT
  4
BIGFONT
  0
STYLE
  5
3DE
330
3
100
AcDbSymbolTableRecord
100
AcDbTextStyleTableRecord
  2
高3.2
 70
     0
 40
3.2
 41
1.0
 50
0.0
 71
     0
 42
3.2
  3
txt.shx
  4
bigfont.shx
  0
STYLE
  5
67B
330
3
100
AcDbSymbolTableRecord
100
AcDbTextStyleTableRecord
  2
高6.3
 70
     0
 40
6.299999999999999
 41
1.0
 50
0.0
 71
     0
 42
6.299999999999999
  3
txt.shx
  4
bigfont.shx
  0
STYLE
  5
67C
330
3
100
AcDbSymbolTableRecord
100
AcDbTextStyleTableRecord
  2
高2.5
 70
     0
 40
2.5
 41
1.0
 50
0.0
 71
     0
 42
0.2
  3
txt.shx
  4
bigfont.shx
  0
STYLE
  5
67D
330
3
100
AcDbSymbolTableRecord
100
AcDbTextStyleTableRecord
  2
高4.5
 70
     0
 40
4.5
 41
1.0
 50
0.0
 71
     0
 42
6.299999999999999
  3
txt.shx
  4
bigfont.shx
  0
STYLE
  5
67E
330
3
100
AcDbSymbolTableRecord
100
AcDbTextStyleTableRecord
  2
高2
 70
     0
 40
2.0
 41
1.0
 50
0.0
 71
     0
 42
2.0
  3
txt.shx
  4
bigfont.shx
  0
ENDTAB
  0
TABLE
  2
VIEW
  5
6
330
0
100
AcDbSymbolTable
 70
     0
  0
ENDTAB
  0
TABLE
  2
UCS
  5
7
330
0
100
AcDbSymbolTable
 70
     0
  0
ENDTAB
  0
TABLE
  2
APPID
  5
9
330
0
100
AcDbSymbolTable
 70
    10
  0
APPID
  5
27
330
9
100
AcDbSymbolTableRecord
100
AcDbRegAppTableRecord
  2
ACAD
 70
     0
  0
APPID
  5
3E5
330
9
100
AcDbSymbolTableRecord
100
AcDbRegAppTableRecord
  2
ACAD_DSTYLE_DIMJOGGED_JOGANGLE_SYMBOL
 70
     0
  0
APPID
  5
4F6
330
9
100
AcDbSymbolTableRecord
100
AcDbRegAppTableRecord
  2
ACAD_PSEXT
 70
     0
  0
APPID
  5
510
330
9
100
AcDbSymbolTableRecord
100
AcDbRegAppTableRecord
  2
ACAD_DSTYLE_DIMARC_LENGTH_SYMBOL
 70
     0
  0
APPID
  5
511
330
9
100
AcDbSymbolTableRecord
100
AcDbRegAppTableRecord
  2
ACAD_DSTYLE_DIMEXT_LENGTH
 70
     0
  0
APPID
  5
683
330
9
100
AcDbSymbolTableRecord
100
AcDbRegAppTableRecord
  2
ACAD_DSTYLE_DIMJAG
 70
     0
  0
APPID
  5
684
330
9
100
AcDbSymbolTableRecord
100
AcDbRegAppTableRecord
  2
ACAD_DSTYLE_DIMBREAK
 70
     0
  0
APPID
  5
685
330
9
100
AcDbSymbolTableRecord
100
AcDbRegAppTableRecord
  2
ACAD_DSTYLE_DIMTALN
 70
     0
  0
APPID
  5
D8A
330
9
100
AcDbSymbolTableRecord
100
AcDbRegAppTableRecord
  2
ACAD_EXEMPT_FROM_CAD_STANDARDS
 70
     0
  0
APPID
  5
F81
330
9
100
AcDbSymbolTableRecord
100
AcDbRegAppTableRecord
  2
ACAD_MLEADERVER
 70
     0
  0
ENDTAB
  0
TABLE
  2
DIMSTYLE
  5
A
330
0
100
AcDbSymbolTable
 70
    12
100
AcDbDimStyleTable
 71
     2
340
3DF
340
370
  0
DIMSTYLE
105
370
330
A
100
AcDbSymbolTableRecord
100
AcDbDimStyleTableRecord
  2
Standard
 70
     0
340
26
  0
DIMSTYLE
105
3DF
330
A
100
AcDbSymbolTableRecord
100
AcDbDimStyleTableRecord
  2
1：1
 70
     0
 41
2.5
 42
0.25
 43
0.2
 44
1.25
 73
     0
 74
     0
 77
     3
 78
     8
 79
     2
140
2.5
141
0.0
143
0.03937007874016
147
0.625
171
     3
172
     1
178
     4
179
     1
271
     2
272
     2
274
     3
283
     0
284
     8
288
     1
289
     0
340
26
341
3B4
342
3B4
1001
ACAD_DSTYLE_DIMARC_LENGTH_SYMBOL
1070
   379
1070
     2
1001
ACAD_DSTYLE_DIMEXT_LENGTH
1070
   378
1040
1.25
1001
ACAD_DSTYLE_DIMJOGGED_JOGANGLE_SYMBOL
1070
   384
1040
1.570796326794896
  0
DIMSTYLE
105
3E0
330
A
100
AcDbSymbolTableRecord
100
AcDbDimStyleTableRecord
  2
2：1
 70
     0
 41
2.5
 42
0.25
 43
0.2
 44
1.25
 73
     0
 74
     0
 77
     3
 78
     8
 79
     2
140
2.5
141
0.0
143
0.03937007874016
144
0.5
147
0.625
171
     3
172
     1
178
     4
179
     1
271
     2
272
     2
274
     3
283
     0
284
     8
288
     1
289
     0
340
26
341
3B4
342
3B4
1001
ACAD_DSTYLE_DIMARC_LENGTH_SYMBOL
1070
   379
1070
     2
1001
ACAD_DSTYLE_DIMEXT_LENGTH
1070
   378
1040
1.25
1001
ACAD_DSTYLE_DIMJOGGED_JOGANGLE_SYMBOL
1070
   384
1040
1.570796326794896
  0
DIMSTYLE
105
3E1
330
A
100
AcDbSymbolTableRecord
100
AcDbDimStyleTableRecord
  2
5：1
 70
     0
 41
2.5
 42
0.25
 43
0.2
 44
1.25
 73
     0
 74
     0
 77
     3
 78
     8
 79
     2
140
2.5
141
0.0
143
0.03937007874016
144
0.2
147
0.625
171
     3
178
     4
179
     1
271
     2
272
     2
274
     3
283
     0
284
     8
288
     1
289
     0
340
26
341
3B4
342
3B4
1001
ACAD_DSTYLE_DIMARC_LENGTH_SYMBOL
1070
   379
1070
     2
1001
ACAD_DSTYLE_DIMEXT_LENGTH
1070
   378
1040
1.25
1001
ACAD_DSTYLE_DIMJOGGED_JOGANGLE_SYMBOL
1070
   384
1040
1.570796326794896
  0
DIMSTYLE
105
3E2
330
A
100
AcDbSymbolTableRecord
100
AcDbDimStyleTableRecord
  2
1／2
 70
     0
 41
2.5
 42
0.25
 43
0.2
 44
1.25
 73
     0
 74
     0
 77
     3
 78
     8
 79
     2
140
2.5
141
0.0
143
0.03937007874016
144
2.0
147
0.625
171
     3
172
     1
178
     4
179
     1
271
     2
272
     2
274
     3
283
     0
284
     8
288
     1
289
     0
340
26
341
3B4
342
3B4
1001
ACAD_DSTYLE_DIMARC_LENGTH_SYMBOL
1070
   379
1070
     2
1001
ACAD_DSTYLE_DIMEXT_LENGTH
1070
   378
1040
1.25
1001
ACAD_DSTYLE_DIMJOGGED_JOGANGLE_SYMBOL
1070
   384
1040
1.570796326794896
  0
DIMSTYLE
105
3E3
330
A
100
AcDbSymbolTableRecord
100
AcDbDimStyleTableRecord
  2
1／5
 70
     0
 41
2.5
 42
0.25
 43
0.2
 44
1.25
 73
     0
 74
     0
 77
     3
 78
     8
 79
     2
140
2.5
141
0.0
143
0.03937007874016
144
5.0
147
0.625
171
     3
172
     1
178
     4
179
     1
271
     2
272
     2
274
     3
283
     0
284
     8
288
     1
289
     0
340
26
341
3B4
342
3B4
1001
ACAD_DSTYLE_DIMARC_LENGTH_SYMBOL
1070
   379
1070
     2
1001
ACAD_DSTYLE_DIMEXT_LENGTH
1070
   378
1040
1.25
1001
ACAD_DSTYLE_DIMJOGGED_JOGANGLE_SYMBOL
1070
   384
1040
1.570796326794896
  0
DIMSTYLE
105
3E4
330
A
100
AcDbSymbolTableRecord
100
AcDbDimStyleTableRecord
  2
1／10
 70
     0
 41
2.5
 42
0.25
 43
0.2
 44
1.25
 73
     0
 74
     0
 77
     3
 78
     8
 79
     2
140
2.5
141
0.0
143
0.03937007874016
144
10.0
147
0.625
171
     3
172
     1
178
     4
179
     1
271
     2
272
     2
274
     3
283
     0
284
     8
288
     1
289
     0
340
26
341
3B4
342
3B4
1001
ACAD_DSTYLE_DIMARC_LENGTH_SYMBOL
1070
   379
1070
     2
1001
ACAD_DSTYLE_DIMEXT_LENGTH
1070
   378
1040
1.25
1001
ACAD_DSTYLE_DIMJOGGED_JOGANGLE_SYMBOL
1070
   384
1040
1.570796326794896
  0
DIMSTYLE
105
67F
102
{ACAD_REACTORS
330
68D
102
}
330
A
100
AcDbSymbolTableRecord
100
AcDbDimStyleTableRecord
  2
10：1
 70
     0
 41
2.5
 42
0.25
 43
0.2
 44
1.25
 73
     0
 74
     0
 77
     3
 78
     8
 79
     2
140
3.0
141
0.0
143
0.03937007874016
144
0.1
147
0.625
171
     3
172
     1
178
     4
179
     1
271
     2
272
     2
274
     3
283
     0
284
     8
288
     1
289
     0
340
26
341
3B4
342
3B4
1001
ACAD_DSTYLE_DIMARC_LENGTH_SYMBOL
1070
   379
1070
     2
1001
ACAD_DSTYLE_DIMEXT_LENGTH
1070
   378
1040
1.25
1001
ACAD_DSTYLE_DIMJOGGED_JOGANGLE_SYMBOL
1070
   384
1040
1.570796326794896
  0
DIMSTYLE
105
680
102
{ACAD_REACTORS
330
690
102
}
330
A
100
AcDbSymbolTableRecord
100
AcDbDimStyleTableRecord
  2
1／4
 70
     0
 41
2.5
 42
0.25
 43
0.2
 44
1.25
 73
     0
 74
     0
 77
     3
 78
     8
 79
     2
140
3.0
141
0.0
143
0.03937007874016
144
4.0
147
0.625
171
     3
172
     1
178
     4
179
     1
271
     2
272
     2
274
     3
283
     0
284
     8
288
     1
289
     0
340
26
341
3B4
342
3B4
1001
ACAD_DSTYLE_DIMARC_LENGTH_SYMBOL
1070
   379
1070
     2
1001
ACAD_DSTYLE_DIMEXT_LENGTH
1070
   378
1040
1.25
1001
ACAD_DSTYLE_DIMJOGGED_JOGANGLE_SYMBOL
1070
   384
1040
1.570796326794896
  0
DIMSTYLE
105
681
102
{ACAD_REACTORS
330
691
102
}
330
A
100
AcDbSymbolTableRecord
100
AcDbDimStyleTableRecord
  2
1／3
 70
     0
 41
2.5
 42
0.25
 43
0.2
 44
1.25
 73
     0
 74
     0
 77
     3
 78
     8
 79
     2
140
3.0
141
0.0
143
0.03937007874016
144
3.0
147
0.625
171
     3
172
     1
178
     4
179
     1
271
     2
272
     2
274
     3
283
     0
284
     8
288
     1
289
     0
340
26
341
3B4
342
3B4
1001
ACAD_DSTYLE_DIMARC_LENGTH_SYMBOL
1070
   379
1070
     2
1001
ACAD_DSTYLE_DIMEXT_LENGTH
1070
   378
1040
1.25
1001
ACAD_DSTYLE_DIMJOGGED_JOGANGLE_SYMBOL
1070
   384
1040
1.570796326794896
  0
DIMSTYLE
105
682
102
{ACAD_REACTORS
330
692
102
}
330
A
100
AcDbSymbolTableRecord
100
AcDbDimStyleTableRecord
  2
FREE
 70
     0
 41
2.5
 42
0.25
 43
0.2
 44
1.25
 73
     0
 74
     0
 77
     3
 78
     8
 79
     2
140
3.0
141
0.0
143
0.03937007874016
147
0.625
171
     3
172
     1
178
     4
179
     1
271
     2
272
     2
274
     3
283
     0
284
     8
288
     1
289
     0
340
26
341
3B4
342
3B4
1001
ACAD_DSTYLE_DIMBREAK
1070
   391
1040
3.75
1001
ACAD_DSTYLE_DIMJAG
1070
   388
1040
1.5
1001
ACAD_DSTYLE_DIMTALN
1070
   392
1070
     0
1001
ACAD_DSTYLE_DIMARC_LENGTH_SYMBOL
1070
   379
1070
     2
1001
ACAD_DSTYLE_DIMEXT_LENGTH
1070
   378
1040
1.25
1001
ACAD_DSTYLE_DIMJOGGED_JOGANGLE_SYMBOL
1070
   384
1040
1.570796326794896
  0
ENDTAB
  0
TABLE
  2
BLOCK_RECORD
  5
1
330
0
100
AcDbSymbolTable
 70
    56
  0
BLOCK_RECORD
  5
36
102
{ACAD_XDICTIONARY
360
EF0
102
}
330
1
100
AcDbSymbolTableRecord
100
AcDbBlockTableRecord
  2
*Model_Space
340
39
  0
BLOCK_RECORD
  5
32
330
1
100
AcDbSymbolTableRecord
100
AcDbBlockTableRecord
  2
*Paper_Space
340
35
  0
BLOCK_RECORD
  5
3B4
330
1
100
AcDbSymbolTableRecord
100
AcDbBlockTableRecord
  2
_Open30
340
0
102
{BLKREFS
331
D69
331
D6A
331
D72
331
D73
331
D7B
331
D7C
331
D84
331
D85
331
DAA
331
DAB
331
DB5
331
DB6
331
DC0
331
DC1
331
DCB
331
DCC
331
DD6
331
DD7
331
DE1
331
DE2
331
DEC
331
DED
331
DF6
331
DF7
331
E01
331
E02
331
E0C
331
E0D
331
E15
331
E16
102
}
  0
BLOCK_RECORD
  5
6D0
330
1
100
AcDbSymbolTableRecord
100
AcDbBlockTableRecord
  2
*D34
340
0
  0
BLOCK_RECORD
  5
6DE
330
1
100
AcDbSymbolTableRecord
100
AcDbBlockTableRecord
  2
*D35
340
0
  0
BLOCK_RECORD
  5
6EC
330
1
100
AcDbSymbolTableRecord
100
AcDbBlockTableRecord
  2
*D36
340
0
  0
BLOCK_RECORD
  5
6FA
330
1
100
AcDbSymbolTableRecord
100
AcDbBlockTableRecord
  2
*D37
340
0
  0
BLOCK_RECORD
  5
708
330
1
100
AcDbSymbolTableRecord
100
AcDbBlockTableRecord
  2
*D38
340
0
  0
BLOCK_RECORD
  5
716
330
1
100
AcDbSymbolTableRecord
100
AcDbBlockTableRecord
  2
*D39
340
0
  0
BLOCK_RECORD
  5
724
330
1
100
AcDbSymbolTableRecord
100
AcDbBlockTableRecord
  2
*D40
340
0
  0
BLOCK_RECORD
  5
731
330
1
100
AcDbSymbolTableRecord
100
AcDbBlockTableRecord
  2
*D41
340
0
  0
BLOCK_RECORD
  5
73F
330
1
100
AcDbSymbolTableRecord
100
AcDbBlockTableRecord
  2
*D42
340
0
  0
BLOCK_RECORD
  5
74D
330
1
100
AcDbSymbolTableRecord
100
AcDbBlockTableRecord
  2
*D43
340
0
  0
BLOCK_RECORD
  5
D21
330
1
100
AcDbSymbolTableRecord
100
AcDbBlockTableRecord
  2
*D50
340
0
  0
BLOCK_RECORD
  5
D2D
330
1
100
AcDbSymbolTableRecord
100
AcDbBlockTableRecord
  2
*D51
340
0
  0
BLOCK_RECORD
  5
D39
330
1
100
AcDbSymbolTableRecord
100
AcDbBlockTableRecord
  2
*D52
340
0
  0
BLOCK_RECORD
  5
D45
330
1
100
AcDbSymbolTableRecord
100
AcDbBlockTableRecord
  2
*D53
340
0
  0
BLOCK_RECORD
  5
D51
330
1
100
AcDbSymbolTableRecord
100
AcDbBlockTableRecord
  2
*D54
340
0
  0
ENDTAB
  0
ENDSEC
  0
SECTION
  2
BLOCKS
  0
BLOCK
  5
37
330
36
100
AcDbEntity
  8
0
100
AcDbBlockBegin
  2
*Model_Space
 70
     0
 10
0.0
 20
0.0
 30
0.0
  3
*Model_Space
  1

  0
ENDBLK
  5
38
330
36
100
AcDbEntity
  8
0
100
AcDbBlockEnd
  0
BLOCK
  5
33
330
32
100
AcDbEntity
 67
     1
  8
0
100
AcDbBlockBegin
  2
*Paper_Space
 70
     0
 10
0.0
 20
0.0
 30
0.0
  3
*Paper_Space
  1

  0
ENDBLK
  5
34
330
32
100
AcDbEntity
 67
     1
  8
0
100
AcDbBlockEnd
  0
BLOCK
  5
3B5
330
3B4
100
AcDbEntity
  8
0
100
AcDbBlockBegin
  2
_Open30
 70
     0
 10
0.0
 20
0.0
 30
0.0
  3
_Open30
  1

  0
LINE
  5
3B6
330
3B4
100
AcDbEntity
  8
0
  6
ByBlock
 62
     0
370
    -2
100
AcDbLine
 10
-1.0
 20
0.267949
 30
0.0
 11
0.0
 21
0.0
 31
0.0
  0
LINE
  5
3B7
330
3B4
100
AcDbEntity
  8
0
  6
ByBlock
 62
     0
370
    -2
100
AcDbLine
 10
0.0
 20
0.0
 30
0.0
 11
-1.0
 21
-0.267949
 31
0.0
  0
LINE
  5
3B8
330
3B4
100
AcDbEntity
  8
0
  6
ByBlock
 62
     0
370
    -2
100
AcDbLine
 10
0.0
 20
0.0
 30
0.0
 11
-1.0
 21
0.0
 31
0.0
  0
ENDBLK
  5
3B9
330
3B4
100
AcDbEntity
  8
0
100
AcDbBlockEnd
  0
BLOCK
  5
6D1
330
6D0
100
AcDbEntity
  8
0
100
AcDbBlockBegin
  2
*D34
 70
     1
 10
0.0
 20
0.0
 30
0.0
  3
*D34
  1

  0
LINE
  5
DB0
330
6D0
100
AcDbEntity
  8
0
 62
     0
370
    -2
100
AcDbLine
 10
-108.5215779402659
 20
70.80728840618911
 30
0.0
 11
-108.5215779402659
 21
67.89765698418029
 31
0.0
  0
LINE
  5
DB1
330
6D0
100
AcDbEntity
  8
0
 62
     0
370
    -2
100
AcDbLine
 10
-110.9787649943862
 20
70.80728840618911
 30
0.0
 11
-110.9787649943862
 21
67.89765698418029
 31
0.0
  0
LINE
  5
DB2
330
6D0
100
AcDbEntity
  8
0
 62
     0
370
    -2
100
AcDbLine
 10
-106.0215779402659
 20
69.14765698418029
 30
0.0
 11
-103.5215779402659
 21
69.14765698418029
 31
0.0
  0
LINE
  5
DB3
330
6D0
100
AcDbEntity
  8
0
 62
     0
370
    -2
100
AcDbLine
 10
-113.4787649943862
 20
69.14765698418029
 30
0.0
 11
-125.4787649943862
 21
69.14765698418029
 31
0.0
  0
LINE
  5
DB4
330
6D0
100
AcDbEntity
  8
0
 62
     0
370
    -2
100
AcDbLine
 10
-108.5215779402659
 20
69.14765698418029
 30
0.0
 11
-110.9787649943862
 21
69.14765698418029
 31
0.0
  0
INSERT
  5
DB5
330
6D0
100
AcDbEntity
  8
0
 62
     0
370
    -2
100
AcDbBlockReference
  2
_Open30
 10
-108.5215779402659
 20
69.14765698418029
 30
0.0
 41
2.5
 42
2.5
 43
2.5
 50
180.0
  0
INSERT
  5
DB6
330
6D0
100
AcDbEntity
  8
0
 62
     0
370
    -2
100
AcDbBlockReference
  2
_Open30
 10
-110.9787649943862
 20
69.14765698418029
 30
0.0
 41
2.5
 42
2.5
 43
2.5
  0
MTEXT
  5
DB7
330
6D0
100
AcDbEntity
  8
0
 62
     4
100
AcDbMText
 10
-121.1037649943862
 20
71.02265698418029
 30
0.0
 40
2.5
 41
0.0
 71
     5
 72
     1
  1
2.46
 73
     1
 44
1.0
1001
ACAD
1000
MTEXTBEGIN
1070
    73
1070
     1
1070
    44
1040
1.0
1070
    74
1070
     0
1000
MTEXTEND
  0
POINT
  5
DB8
330
6D0
100
AcDbEntity
  8
Defpoints
 62
     0
100
AcDbPoint
 10
-108.5215779402659
 20
71.05728840618912
 30
0.0
  0
POINT
  5
DB9
330
6D0
100
AcDbEntity
  8
Defpoints
 62
     0
100
AcDbPoint
 10
-110.9787649943862
 20
71.05728840618912
 30
0.0
  0
POINT
  5
DBA
330
6D0
100
AcDbEntity
  8
Defpoints
 62
     0
100
AcDbPoint
 10
-110.9787649943862
 20
69.14765698418029
 30
0.0
  0
ENDBLK
  5
6D2
330
6D0
100
AcDbEntity
  8
0
100
AcDbBlockEnd
  0
BLOCK
  5
6DF
330
6DE
100
AcDbEntity
  8
0
100
AcDbBlockBegin
  2
*D35
 70
     1
 10
0.0
 20
0.0
 30
0.0
  3
*D35
  1

  0
LINE
  5
DBB
330
6DE
100
AcDbEntity
  8
0
 62
     0
370
    -2
100
AcDbLine
 10
-106.8834530341927
 20
65.35119883342673
 30
0.0
 11
-106.8834530341927
 21
62.80530676396342
 31
0.0
  0
LINE
  5
DBC
330
6DE
100
AcDbEntity
  8
0
 62
     0
370
    -2
100
AcDbLine
 10
-109.9776888323356
 20
65.35119883342673
 30
0.0
 11
-109.9776888323356
 21
62.80530676396342
 31
0.0
  0
LINE
  5
DBD
330
6DE
100
AcDbEntity
  8
0
 62
     0
370
    -2
100
AcDbLine
 10
-104.3834530341927
 20
64.05530676396342
 30
0.0
 11
-101.8834530341927
 21
64.05530676396342
 31
0.0
  0
LINE
  5
DBE
330
6DE
100
AcDbEntity
  8
0
 62
     0
370
    -2
100
AcDbLine
 10
-112.4776888323356
 20
64.05530676396342
 30
0.0
 11
-126.3110221656689
 21
64.05530676396342
 31
0.0
  0
LINE
  5
DBF
330
6DE
100
AcDbEntity
  8
0
 62
     0
370
    -2
100
AcDbLine
 10
-106.8834530341927
 20
64.05530676396342
 30
0.0
 11
-109.9776888323356
 21
64.05530676396342
 31
0.0
  0
INSERT
  5
DC0
330
6DE
100
AcDbEntity
  8
0
 62
     0
370
    -2
100
AcDbBlockReference
  2
_Open30
 10
-106.8834530341927
 20
64.05530676396342
 30
0.0
 41
2.5
 42
2.5
 43
2.5
 50
180.0
  0
INSERT
  5
DC1
330
6DE
100
AcDbEntity
  8
0
 62
     0
370
    -2
100
AcDbBlockReference
  2
_Open30
 10
-109.9776888323356
 20
64.05530676396342
 30
0.0
 41
2.5
 42
2.5
 43
2.5
  0
MTEXT
  5
DC2
330
6DE
100
AcDbEntity
  8
0
 62
     4
100
AcDbMText
 10
-121.1026888323356
 20
65.93030676396342
 30
0.0
 40
2.5
 41
0.0
 71
     5
 72
     1
  1
15.47
  7
高2.5
 73
     1
 44
1.0
1001
ACAD
1000
MTEXTBEGIN
1070
    73
1070
     1
1070
    44
1040
1.0
1070
    74
1070
     0
1000
MTEXTEND
  0
POINT
  5
DC3
330
6DE
100
AcDbEntity
  8
Defpoints
 62
     0
100
AcDbPoint
 10
-106.8834530341927
 20
65.60119883342673
 30
0.0
  0
POINT
  5
DC4
330
6DE
100
AcDbEntity
  8
Defpoints
 62
     0
100
AcDbPoint
 10
-109.9776888323356
 20
65.60119883342673
 30
0.0
  0
POINT
  5
DC5
330
6DE
100
AcDbEntity
  8
Defpoints
 62
     0
100
AcDbPoint
 10
-109.9776888323356
 20
64.05530676396342
 30
0.0
  0
ENDBLK
  5
6E0
330
6DE
100
AcDbEntity
  8
0
100
AcDbBlockEnd
  0
BLOCK
  5
6ED
330
6EC
100
AcDbEntity
  8
0
100
AcDbBlockBegin
  2
*D36
 70
     1
 10
0.0
 20
0.0
 30
0.0
  3
*D36
  1

  0
LINE
  5
DC6
330
6EC
100
AcDbEntity
  8
0
 62
     0
370
    -2
100
AcDbLine
 10
-105.1543214261072
 20
59.89510911758026
 30
0.0
 11
-105.1543214261072
 21
57.62202145521297
 31
0.0
  0
LINE
  5
DC7
330
6EC
100
AcDbEntity
  8
0
 62
     0
370
    -2
100
AcDbLine
 10
-109.158626379299
 20
59.89510911758026
 30
0.0
 11
-109.158626379299
 21
57.62202145521297
 31
0.0
  0
LINE
  5
DC8
330
6EC
100
AcDbEntity
  8
0
 62
     0
370
    -2
100
AcDbLine
 10
-102.6543214261072
 20
58.87202145521297
 30
0.0
 11
-100.1543214261072
 21
58.87202145521297
 31
0.0
  0
LINE
  5
DC9
330
6EC
100
AcDbEntity
  8
0
 62
     0
370
    -2
100
AcDbLine
 10
-111.658626379299
 20
58.87202145521297
 30
0.0
 11
-123.408626379299
 21
58.87202145521297
 31
0.0
  0
LINE
  5
DCA
330
6EC
100
AcDbEntity
  8
0
 62
     0
370
    -2
100
AcDbLine
 10
-105.1543214261072
 20
58.87202145521297
 30
0.0
 11
-109.158626379299
 21
58.87202145521297
 31
0.0
  0
INSERT
  5
DCB
330
6EC
100
AcDbEntity
  8
0
 62
     0
370
    -2
100
AcDbBlockReference
  2
_Open30
 10
-105.1543214261072
 20
58.87202145521297
 30
0.0
 41
2.5
 42
2.5
 43
2.5
 50
180.0
  0
INSERT
  5
DCC
330
6EC
100
AcDbEntity
  8
0
 62
     0
370
    -2
100
AcDbBlockReference
  2
_Open30
 10
-109.158626379299
 20
58.87202145521297
 30
0.0
 41
2.5
 42
2.5
 43
2.5
  0
MTEXT
  5
DCD
330
6EC
100
AcDbEntity
  8
0
 62
     4
100
AcDbMText
 10
-118.783626379299
 20
61.09702145521297
 30
0.0
 40
3.2
 41
0.0
 71
     5
 72
     1
  1
8.01
  7
高3.2
 73
     1
 44
1.0
1001
ACAD
1000
MTEXTBEGIN
1070
    73
1070
     1
1070
    44
1040
1.0
1070
    74
1070
     0
1000
MTEXTEND
  0
POINT
  5
DCE
330
6EC
100
AcDbEntity
  8
Defpoints
 62
     0
100
AcDbPoint
 10
-105.1543214261072
 20
60.14510911758026
 30
0.0
  0
POINT
  5
DCF
330
6EC
100
AcDbEntity
  8
Defpoints
 62
     0
100
AcDbPoint
 10
-109.158626379299
 20
60.14510911758026
 30
0.0
  0
POINT
  5
DD0
330
6EC
100
AcDbEntity
  8
Defpoints
 62
     0
100
AcDbPoint
 10
-109.158626379299
 20
58.87202145521297
 30
0.0
  0
ENDBLK
  5
6EE
330
6EC
100
AcDbEntity
  8
0
100
AcDbBlockEnd
  0
BLOCK
  5
6FB
330
6FA
100
AcDbEntity
  8
0
100
AcDbBlockBegin
  2
*D37
 70
     1
 10
0.0
 20
0.0
 30
0.0
  3
*D37
  1

  0
LINE
  5
DD1
330
6FA
100
AcDbEntity
  8
0
 62
     0
370
    -2
100
AcDbLine
 10
-105.2453281281195
 20
54.62088914954865
 30
0.0
 11
-105.2453281281195
 21
52.80247564209225
 31
0.0
  0
LINE
  5
DD2
330
6FA
100
AcDbEntity
  8
0
 62
     0
370
    -2
100
AcDbLine
 10
-109.9776888323356
 20
54.62088914954865
 30
0.0
 11
-109.9776888323356
 21
52.80247564209225
 31
0.0
  0
LINE
  5
DD3
330
6FA
100
AcDbEntity
  8
0
 62
     0
370
    -2
100
AcDbLine
 10
-102.7453281281195
 20
54.05247564209225
 30
0.0
 11
-100.2453281281195
 21
54.05247564209225
 31
0.0
  0
LINE
  5
DD4
330
6FA
100
AcDbEntity
  8
0
 62
     0
370
    -2
100
AcDbLine
 10
-112.4776888323356
 20
54.05247564209225
 30
0.0
 11
-134.2276888323356
 21
54.05247564209225
 31
0.0
  0
LINE
  5
DD5
330
6FA
100
AcDbEntity
  8
0
 62
     0
370
    -2
100
AcDbLine
 10
-105.2453281281195
 20
54.05247564209225
 30
0.0
 11
-109.9776888323356
 21
54.05247564209225
 31
0.0
  0
INSERT
  5
DD6
330
6FA
100
AcDbEntity
  8
0
 62
     0
370
    -2
100
AcDbBlockReference
  2
_Open30
 10
-105.2453281281195
 20
54.05247564209225
 30
0.0
 41
2.5
 42
2.5
 43
2.5
 50
180.0
  0
INSERT
  5
DD7
330
6FA
100
AcDbEntity
  8
0
 62
     0
370
    -2
100
AcDbBlockReference
  2
_Open30
 10
-109.9776888323356
 20
54.05247564209225
 30
0.0
 41
2.5
 42
2.5
 43
2.5
  0
MTEXT
  5
DD8
330
6FA
100
AcDbEntity
  8
0
 62
     4
100
AcDbMText
 10
-124.6026888323356
 20
56.92747564209224
 30
0.0
 40
4.5
 41
0.0
 71
     5
 72
     1
  1
47.32
  7
高4.5
 73
     1
 44
1.0
1001
ACAD
1000
MTEXTBEGIN
1070
    73
1070
     1
1070
    44
1040
1.0
1070
    74
1070
     0
1000
MTEXTEND
  0
POINT
  5
DD9
330
6FA
100
AcDbEntity
  8
Defpoints
 62
     0
100
AcDbPoint
 10
-105.2453281281195
 20
54.87088914954864
 30
0.0
  0
POINT
  5
DDA
330
6FA
100
AcDbEntity
  8
Defpoints
 62
     0
100
AcDbPoint
 10
-109.9776888323356
 20
54.87088914954864
 30
0.0
  0
POINT
  5
DDB
330
6FA
100
AcDbEntity
  8
Defpoints
 62
     0
100
AcDbPoint
 10
-109.9776888323356
 20
54.05247564209225
 30
0.0
  0
ENDBLK
  5
6FC
330
6FA
100
AcDbEntity
  8
0
100
AcDbBlockEnd
  0
BLOCK
  5
709
330
708
100
AcDbEntity
  8
0
100
AcDbBlockBegin
  2
*D38
 70
     1
 10
0.0
 20
0.0
 30
0.0
  3
*D38
  1

  0
LINE
  5
DDC
330
708
100
AcDbEntity
  8
0
 62
     0
370
    -2
100
AcDbLine
 10
-83.76769186011205
 20
70.80728840618911
 30
0.0
 11
-83.76769186011205
 21
67.89765698418029
 31
0.0
  0
LINE
  5
DDD
330
708
100
AcDbEntity
  8
0
 62
     0
370
    -2
100
AcDbLine
 10
-86.22487891423237
 20
70.80728840618911
 30
0.0
 11
-86.22487891423237
 21
67.89765698418029
 31
0.0
  0
LINE
  5
DDE
330
708
100
AcDbEntity
  8
0
 62
     0
370
    -2
100
AcDbLine
 10
-81.26769186011205
 20
69.14765698418029
 30
0.0
 11
-78.76769186011205
 21
69.14765698418029
 31
0.0
  0
LINE
  5
DDF
330
708
100
AcDbEntity
  8
0
 62
     0
370
    -2
100
AcDbLine
 10
-88.72487891423237
 20
69.14765698418029
 30
0.0
 11
-110.3248789142323
 21
69.14765698418029
 31
0.0
  0
LINE
  5
DE0
330
708
100
AcDbEntity
  8
0
 62
     0
370
    -2
100
AcDbLine
 10
-83.76769186011205
 20
69.14765698418029
 30
0.0
 11
-86.22487891423237
 21
69.14765698418029
 31
0.0
  0
INSERT
  5
DE1
330
708
100
AcDbEntity
  8
0
 62
     0
370
    -2
100
AcDbBlockReference
  2
_Open30
 10
-83.76769186011205
 20
69.14765698418029
 30
0.0
 41
2.5
 42
2.5
 43
2.5
 50
180.0
  0
INSERT
  5
DE2
330
708
100
AcDbEntity
  8
0
 62
     0
370
    -2
100
AcDbBlockReference
  2
_Open30
 10
-86.22487891423237
 20
69.14765698418029
 30
0.0
 41
2.5
 42
2.5
 43
2.5
  0
MTEXT
  5
DE3
330
708
100
AcDbEntity
  8
0
 62
     4
100
AcDbMText
 10
-100.7748789142324
 20
72.92265698418029
 30
0.0
 40
6.299999999999999
 41
0.0
 71
     5
 72
     1
  1
0.25
  7
高6.3
 73
     1
 44
1.0
1001
ACAD
1000
MTEXTBEGIN
1070
    73
1070
     1
1070
    44
1040
1.0
1070
    74
1070
     0
1000
MTEXTEND
  0
POINT
  5
DE4
330
708
100
AcDbEntity
  8
Defpoints
 62
     0
100
AcDbPoint
 10
-83.76769186011205
 20
71.05728840618912
 30
0.0
  0
POINT
  5
DE5
330
708
100
AcDbEntity
  8
Defpoints
 62
     0
100
AcDbPoint
 10
-86.22487891423237
 20
71.05728840618912
 30
0.0
  0
POINT
  5
DE6
330
708
100
AcDbEntity
  8
Defpoints
 62
     0
100
AcDbPoint
 10
-86.22487891423237
 20
69.14765698418029
 30
0.0
  0
ENDBLK
  5
70A
330
708
100
AcDbEntity
  8
0
100
AcDbBlockEnd
  0
BLOCK
  5
717
330
716
100
AcDbEntity
  8
0
100
AcDbBlockBegin
  2
*D39
 70
     1
 10
0.0
 20
0.0
 30
0.0
  3
*D39
  1

  0
LINE
  5
DE7
330
716
100
AcDbEntity
  8
0
 62
     0
370
    -2
100
AcDbLine
 10
-82.12956695403887
 20
65.35119883342673
 30
0.0
 11
-82.12956695403887
 21
62.80530676396342
 31
0.0
  0
LINE
  5
DE8
330
716
100
AcDbEntity
  8
0
 62
     0
370
    -2
100
AcDbLine
 10
-85.22380275218177
 20
65.35119883342673
 30
0.0
 11
-85.22380275218177
 21
62.80530676396342
 31
0.0
  0
LINE
  5
DE9
330
716
100
AcDbEntity
  8
0
 62
     0
370
    -2
100
AcDbLine
 10
-79.62956695403886
 20
64.05530676396342
 30
0.0
 11
-77.12956695403886
 21
64.05530676396342
 31
0.0
  0
LINE
  5
DEA
330
716
100
AcDbEntity
  8
0
 62
     0
370
    -2
100
AcDbLine
 10
-87.72380275218177
 20
64.05530676396342
 30
0.0
 11
-99.05713608551511
 21
64.05530676396342
 31
0.0
  0
LINE
  5
DEB
330
716
100
AcDbEntity
  8
0
 62
     0
370
    -2
100
AcDbLine
 10
-82.12956695403887
 20
64.05530676396342
 30
0.0
 11
-85.22380275218177
 21
64.05530676396342
 31
0.0
  0
INSERT
  5
DEC
330
716
100
AcDbEntity
  8
0
 62
     0
370
    -2
100
AcDbBlockReference
  2
_Open30
 10
-82.12956695403887
 20
64.05530676396342
 30
0.0
 41
2.5
 42
2.5
 43
2.5
 50
180.0
  0
INSERT
  5
DED
330
716
100
AcDbEntity
  8
0
 62
     0
370
    -2
100
AcDbBlockReference
  2
_Open30
 10
-85.22380275218177
 20
64.05530676396342
 30
0.0
 41
2.5
 42
2.5
 43
2.5
  0
MTEXT
  5
DEE
330
716
100
AcDbEntity
  8
0
 62
     4
100
AcDbMText
 10
-95.09880275218177
 20
65.93030676396342
 30
0.0
 40
2.5
 41
0.0
 71
     5
 72
     1
  1
1.55
 73
     1
 44
1.0
1001
ACAD
1000
MTEXTBEGIN
1070
    73
1070
     1
1070
    44
1040
1.0
1070
    74
1070
     0
1000
MTEXTEND
  0
POINT
  5
DEF
330
716
100
AcDbEntity
  8
Defpoints
 62
     0
100
AcDbPoint
 10
-82.12956695403887
 20
65.60119883342673
 30
0.0
  0
POINT
  5
DF0
330
716
100
AcDbEntity
  8
Defpoints
 62
     0
100
AcDbPoint
 10
-85.22380275218177
 20
65.60119883342673
 30
0.0
  0
POINT
  5
DF1
330
716
100
AcDbEntity
  8
Defpoints
 62
     0
100
AcDbPoint
 10
-85.22380275218177
 20
64.05530676396342
 30
0.0
  0
ENDBLK
  5
718
330
716
100
AcDbEntity
  8
0
100
AcDbBlockEnd
  0
BLOCK
  5
725
330
724
100
AcDbEntity
  8
0
100
AcDbBlockBegin
  2
*D40
 70
     1
 10
0.0
 20
0.0
 30
0.0
  3
*D40
  1

  0
LINE
  5
DF2
330
724
100
AcDbEntity
  8
0
 62
     0
370
    -2
100
AcDbLine
 10
-80.40043534595339
 20
59.89510911758026
 30
0.0
 11
-80.40043534595339
 21
57.62202145521297
 31
0.0
  0
LINE
  5
DF3
330
724
100
AcDbEntity
  8
0
 62
     0
370
    -2
100
AcDbLine
 10
-84.4047402991452
 20
59.89510911758026
 30
0.0
 11
-84.4047402991452
 21
57.62202145521297
 31
0.0
  0
LINE
  5
DF4
330
724
100
AcDbEntity
  8
0
 62
     0
370
    -2
100
AcDbLine
 10
-77.90043534595338
 20
58.87202145521297
 30
0.0
 11
-75.40043534595338
 21
58.87202145521297
 31
0.0
  0
LINE
  5
DF5
330
724
100
AcDbEntity
  8
0
 62
     0
370
    -2
100
AcDbLine
 10
-86.9047402991452
 20
58.87202145521297
 30
0.0
 11
-95.23807363247854
 21
58.87202145521297
 31
0.0
  0
INSERT
  5
DF6
330
724
100
AcDbEntity
  8
0
 62
     0
370
    -2
100
AcDbBlockReference
  2
_Open30
 10
-80.40043534595339
 20
58.87202145521297
 30
0.0
 41
2.5
 42
2.5
 43
2.5
 50
180.0
  0
INSERT
  5
DF7
330
724
100
AcDbEntity
  8
0
 62
     0
370
    -2
100
AcDbBlockReference
  2
_Open30
 10
-84.4047402991452
 20
58.87202145521297
 30
0.0
 41
2.5
 42
2.5
 43
2.5
  0
MTEXT
  5
DF8
330
724
100
AcDbEntity
  8
0
 62
     4
100
AcDbMText
 10
-92.77974029914521
 20
60.49702145521298
 30
0.0
 40
2.0
 41
0.0
 71
     5
 72
     1
  1
0.8
  7
高2
 73
     1
 44
1.0
1001
ACAD
1000
MTEXTBEGIN
1070
    73
1070
     1
1070
    44
1040
1.0
1070
    74
1070
     0
1000
MTEXTEND
  0
POINT
  5
DF9
330
724
100
AcDbEntity
  8
Defpoints
 62
     0
100
AcDbPoint
 10
-80.40043534595339
 20
60.14510911758026
 30
0.0
  0
POINT
  5
DFA
330
724
100
AcDbEntity
  8
Defpoints
 62
     0
100
AcDbPoint
 10
-84.4047402991452
 20
60.14510911758026
 30
0.0
  0
POINT
  5
DFB
330
724
100
AcDbEntity
  8
Defpoints
 62
     0
100
AcDbPoint
 10
-84.4047402991452
 20
58.87202145521297
 30
0.0
  0
ENDBLK
  5
726
330
724
100
AcDbEntity
  8
0
100
AcDbBlockEnd
  0
BLOCK
  5
732
330
731
100
AcDbEntity
  8
0
100
AcDbBlockBegin
  2
*D41
 70
     1
 10
0.0
 20
0.0
 30
0.0
  3
*D41
  1

  0
LINE
  5
DFC
330
731
100
AcDbEntity
  8
0
 62
     0
370
    -2
100
AcDbLine
 10
-80.49144204796567
 20
54.62088914954865
 30
0.0
 11
-80.49144204796567
 21
52.80247564209225
 31
0.0
  0
LINE
  5
DFD
330
731
100
AcDbEntity
  8
0
 62
     0
370
    -2
100
AcDbLine
 10
-85.22380275218177
 20
54.62088914954865
 30
0.0
 11
-85.22380275218177
 21
52.80247564209225
 31
0.0
  0
LINE
  5
DFE
330
731
100
AcDbEntity
  8
0
 62
     0
370
    -2
100
AcDbLine
 10
-77.99144204796568
 20
54.05247564209225
 30
0.0
 11
-75.49144204796568
 21
54.05247564209225
 31
0.0
  0
LINE
  5
DFF
330
731
100
AcDbEntity
  8
0
 62
     0
370
    -2
100
AcDbLine
 10
-87.72380275218177
 20
54.05247564209225
 30
0.0
 11
-102.4738027521817
 21
54.05247564209225
 31
0.0
  0
LINE
  5
E00
330
731
100
AcDbEntity
  8
0
 62
     0
370
    -2
100
AcDbLine
 10
-80.49144204796567
 20
54.05247564209225
 30
0.0
 11
-85.22380275218177
 21
54.05247564209225
 31
0.0
  0
INSERT
  5
E01
330
731
100
AcDbEntity
  8
0
 62
     0
370
    -2
100
AcDbBlockReference
  2
_Open30
 10
-80.49144204796567
 20
54.05247564209225
 30
0.0
 41
2.5
 42
2.5
 43
2.5
 50
180.0
  0
INSERT
  5
E02
330
731
100
AcDbEntity
  8
0
 62
     0
370
    -2
100
AcDbBlockReference
  2
_Open30
 10
-85.22380275218177
 20
54.05247564209225
 30
0.0
 41
2.5
 42
2.5
 43
2.5
  0
MTEXT
  5
E03
330
731
100
AcDbEntity
  8
0
 62
     4
100
AcDbMText
 10
-96.34880275218177
 20
56.17747564209224
 30
0.0
 40
3.0
 41
0.0
 71
     5
 72
     1
  1
18.93
 73
     1
 44
1.0
1001
ACAD
1000
MTEXTBEGIN
1070
    73
1070
     1
1070
    44
1040
1.0
1070
    74
1070
     0
1000
MTEXTEND
  0
POINT
  5
E04
330
731
100
AcDbEntity
  8
Defpoints
 62
     0
100
AcDbPoint
 10
-80.49144204796567
 20
54.87088914954864
 30
0.0
  0
POINT
  5
E05
330
731
100
AcDbEntity
  8
Defpoints
 62
     0
100
AcDbPoint
 10
-85.22380275218177
 20
54.87088914954864
 30
0.0
  0
POINT
  5
E06
330
731
100
AcDbEntity
  8
Defpoints
 62
     0
100
AcDbPoint
 10
-85.22380275218177
 20
54.05247564209225
 30
0.0
  0
ENDBLK
  5
733
330
731
100
AcDbEntity
  8
0
100
AcDbBlockEnd
  0
BLOCK
  5
740
330
73F
100
AcDbEntity
  8
0
100
AcDbBlockBegin
  2
*D42
 70
     1
 10
0.0
 20
0.0
 30
0.0
  3
*D42
  1

  0
LINE
  5
E07
330
73F
100
AcDbEntity
  8
0
 62
     0
370
    -2
100
AcDbLine
 10
-83.295868899104
 20
49.56504894295886
 30
0.0
 11
-83.295868899104
 21
47.25512786608334
 31
0.0
  0
LINE
  5
E08
330
73F
100
AcDbEntity
  8
0
 62
     0
370
    -2
100
AcDbLine
 10
-87.88454410125188
 20
49.56504894295886
 30
0.0
 11
-87.88454410125188
 21
47.25512786608334
 31
0.0
  0
LINE
  5
E09
330
73F
100
AcDbEntity
  8
0
 62
     0
370
    -2
100
AcDbLine
 10
-80.795868899104
 20
48.50512786608334
 30
0.0
 11
-78.29586889910399
 21
48.50512786608334
 31
0.0
  0
LINE
  5
E0A
330
73F
100
AcDbEntity
  8
0
 62
     0
370
    -2
100
AcDbLine
 10
-90.38454410125188
 20
48.50512786608334
 30
0.0
 11
-105.1345441012519
 21
48.50512786608334
 31
0.0
  0
LINE
  5
E0B
330
73F
100
AcDbEntity
  8
0
 62
     0
370
    -2
100
AcDbLine
 10
-83.295868899104
 20
48.50512786608334
 30
0.0
 11
-87.88454410125188
 21
48.50512786608334
 31
0.0
  0
INSERT
  5
E0C
330
73F
100
AcDbEntity
  8
0
 62
     0
370
    -2
100
AcDbBlockReference
  2
_Open30
 10
-83.295868899104
 20
48.50512786608334
 30
0.0
 41
2.5
 42
2.5
 43
2.5
 50
180.0
  0
INSERT
  5
E0D
330
73F
100
AcDbEntity
  8
0
 62
     0
370
    -2
100
AcDbBlockReference
  2
_Open30
 10
-87.88454410125188
 20
48.50512786608334
 30
0.0
 41
2.5
 42
2.5
 43
2.5
  0
MTEXT
  5
E0E
330
73F
100
AcDbEntity
  8
0
 62
     4
100
AcDbMText
 10
-99.00954410125189
 20
50.63012786608334
 30
0.0
 40
3.0
 41
0.0
 71
     5
 72
     1
  1
13.77
 73
     1
 44
1.0
1001
ACAD
1000
MTEXTBEGIN
1070
    73
1070
     1
1070
    44
1040
1.0
1070
    74
1070
     0
1000
MTEXTEND
  0
POINT
  5
E0F
330
73F
100
AcDbEntity
  8
Defpoints
 62
     0
100
AcDbPoint
 10
-83.295868899104
 20
49.81504894295887
 30
0.0
  0
POINT
  5
E10
330
73F
100
AcDbEntity
  8
Defpoints
 62
     0
100
AcDbPoint
 10
-87.88454410125188
 20
49.81504894295887
 30
0.0
  0
POINT
  5
E11
330
73F
100
AcDbEntity
  8
Defpoints
 62
     0
100
AcDbPoint
 10
-87.88454410125188
 20
48.50512786608334
 30
0.0
  0
ENDBLK
  5
741
330
73F
100
AcDbEntity
  8
0
100
AcDbBlockEnd
  0
BLOCK
  5
74E
330
74D
100
AcDbEntity
  8
0
100
AcDbBlockBegin
  2
*D43
 70
     1
 10
0.0
 20
0.0
 30
0.0
  3
*D43
  1

  0
LINE
  5
E12
330
74D
100
AcDbEntity
  8
0
 62
     0
370
    -2
100
AcDbLine
 10
-90.39215173225432
 20
80.49454026123322
 30
0.0
 11
-90.39215173225432
 21
87.89107373917095
 31
0.0
  0
LINE
  5
E13
330
74D
100
AcDbEntity
  8
0
 62
     0
370
    -2
100
AcDbLine
 10
-100.3306261017443
 20
80.49454026123322
 30
0.0
 11
-100.3306261017443
 21
87.89107373917095
 31
0.0
  0
LINE
  5
E14
330
74D
100
AcDbEntity
  8
0
 62
     0
370
    -2
100
AcDbLine
 10
-92.89215173225432
 20
86.64107373917095
 30
0.0
 11
-97.83062610174432
 21
86.64107373917095
 31
0.0
  0
INSERT
  5
E15
330
74D
100
AcDbEntity
  8
0
 62
     0
370
    -2
100
AcDbBlockReference
  2
_Open30
 10
-90.39215173225432
 20
86.64107373917095
 30
0.0
 41
2.5
 42
2.5
 43
2.5
  0
INSERT
  5
E16
330
74D
100
AcDbEntity
  8
0
 62
     0
370
    -2
100
AcDbBlockReference
  2
_Open30
 10
-100.3306261017443
 20
86.64107373917095
 30
0.0
 41
2.5
 42
2.5
 43
2.5
 50
180.0
  0
MTEXT
  5
E17
330
74D
100
AcDbEntity
  8
0
 62
     4
100
AcDbMText
 10
-95.36138891699932
 20
89.71607373917096
 30
0.0
 40
3.0
 41
0.0
 71
     5
 72
     1
  1
9.94\H0.7X;\S+0^ -0.02;
 73
     1
 44
1.0
1001
ACAD
1000
MTEXTBEGIN
1070
    73
1070
     1
1070
    44
1040
1.0
1070
    74
1070
     0
1000
MTEXTEND
  0
POINT
  5
E18
330
74D
100
AcDbEntity
  8
Defpoints
 62
     0
100
AcDbPoint
 10
-90.39215173225432
 20
80.24454026123322
 30
0.0
  0
POINT
  5
E19
330
74D
100
AcDbEntity
  8
Defpoints
 62
     0
100
AcDbPoint
 10
-100.3306261017443
 20
80.24454026123322
 30
0.0
  0
POINT
  5
E1A
330
74D
100
AcDbEntity
  8
Defpoints
 62
     0
100
AcDbPoint
 10
-100.3306261017443
 20
86.64107373917095
 30
0.0
  0
ENDBLK
  5
74F
330
74D
100
AcDbEntity
  8
0
100
AcDbBlockEnd
  0
BLOCK
  5
D22
330
D21
100
AcDbEntity
  8
0
100
AcDbBlockBegin
  2
*D50
 70
     1
 10
0.0
 20
0.0
 30
0.0
  3
*D50
  1

  0
LINE
  5
DA7
330
D21
100
AcDbEntity
  8
0
 62
     0
370
    -2
100
AcDbLine
 10
-368.8665097008725
 20
-4.096500982977246
 30
0.0
 11
-368.8665097008725
 21
-20.18456398297724
 31
0.0
  0
LINE
  5
DA8
330
D21
100
AcDbEntity
  8
0
 62
     0
370
    -2
100
AcDbLine
 10
-240.6529507008725
 20
-1.858645982977236
 30
0.0
 11
-240.6529507008725
 21
-20.18456398297724
 31
0.0
  0
LINE
  5
DA9
330
D21
100
AcDbEntity
  8
0
 62
     0
370
    -2
100
AcDbLine
 10
-366.3665097008725
 20
-18.93456398297724
 30
0.0
 11
-243.1529507008725
 21
-18.93456398297724
 31
0.0
  0
INSERT
  5
DAA
330
D21
100
AcDbEntity
  8
0
 62
     0
370
    -2
100
AcDbBlockReference
  2
_Open30
 10
-368.8665097008725
 20
-18.93456398297724
 30
0.0
 41
2.5
 42
2.5
 43
2.5
 50
180.0
  0
INSERT
  5
DAB
330
D21
100
AcDbEntity
  8
0
 62
     0
370
    -2
100
AcDbBlockReference
  2
_Open30
 10
-240.6529507008725
 20
-18.93456398297724
 30
0.0
 41
2.5
 42
2.5
 43
2.5
  0
MTEXT
  5
DAC
330
D21
100
AcDbEntity
  8
0
 62
     4
100
AcDbMText
 10
-304.7597302008725
 20
-17.05956398297724
 30
0.0
 40
2.5
 41
0.0
 71
     5
 72
     1
  1
電線長さ
 73
     1
 44
1.0
1001
ACAD
1000
MTEXTBEGIN
1070
    73
1070
     1
1070
    44
1040
1.0
1070
    74
1070
     0
1000
MTEXTEND
  0
POINT
  5
DAD
330
D21
100
AcDbEntity
  8
Defpoints
 62
     0
100
AcDbPoint
 10
-368.8665097008725
 20
-3.846500982977246
 30
0.0
  0
POINT
  5
DAE
330
D21
100
AcDbEntity
  8
Defpoints
 62
     0
100
AcDbPoint
 10
-240.6529507008725
 20
-1.608645982977236
 30
0.0
  0
POINT
  5
DAF
330
D21
100
AcDbEntity
  8
Defpoints
 62
     0
100
AcDbPoint
 10
-240.6529507008725
 20
-18.93456398297724
 30
0.0
  0
ENDBLK
  5
D23
330
D21
100
AcDbEntity
  8
0
100
AcDbBlockEnd
  0
BLOCK
  5
D2E
330
D2D
100
AcDbEntity
  8
0
100
AcDbBlockBegin
  2
*D51
 70
     1
 10
0.0
 20
0.0
 30
0.0
  3
*D51
  1

  0
LINE
  5
D66
330
D2D
100
AcDbEntity
  8
0
 62
     0
370
    -2
100
AcDbLine
 10
-215.8657307008725
 20
12.11289201702276
 30
0.0
 11
-215.8657307008725
 21
-12.35093698297724
 31
0.0
  0
LINE
  5
D67
330
D2D
100
AcDbEntity
  8
0
 62
     0
370
    -2
100
AcDbLine
 10
-185.3657307008725
 20
12.11289201702276
 30
0.0
 11
-185.3657307008725
 21
-12.35093698297724
 31
0.0
  0
LINE
  5
D68
330
D2D
100
AcDbEntity
  8
0
 62
     0
370
    -2
100
AcDbLine
 10
-213.3657307008725
 20
-11.10093698297724
 30
0.0
 11
-187.8657307008725
 21
-11.10093698297724
 31
0.0
  0
INSERT
  5
D69
330
D2D
100
AcDbEntity
  8
0
 62
     0
370
    -2
100
AcDbBlockReference
  2
_Open30
 10
-215.8657307008725
 20
-11.10093698297724
 30
0.0
 41
2.5
 42
2.5
 43
2.5
 50
180.0
  0
INSERT
  5
D6A
330
D2D
100
AcDbEntity
  8
0
 62
     0
370
    -2
100
AcDbBlockReference
  2
_Open30
 10
-185.3657307008725
 20
-11.10093698297724
 30
0.0
 41
2.5
 42
2.5
 43
2.5
  0
MTEXT
  5
D6B
330
D2D
100
AcDbEntity
  8
0
 62
     4
100
AcDbMText
 10
-200.6157307008725
 20
-9.225936982977245
 30
0.0
 40
2.5
 41
0.0
 71
     5
 72
     1
  1
%%C61
 73
     1
 44
1.0
1001
ACAD
1000
MTEXTBEGIN
1070
    73
1070
     1
1070
    44
1040
1.0
1070
    74
1070
     0
1000
MTEXTEND
  0
POINT
  5
D6C
330
D2D
100
AcDbEntity
  8
Defpoints
 62
     0
100
AcDbPoint
 10
-215.8657307008725
 20
12.36289201702276
 30
0.0
  0
POINT
  5
D6D
330
D2D
100
AcDbEntity
  8
Defpoints
 62
     0
100
AcDbPoint
 10
-185.3657307008725
 20
12.36289201702276
 30
0.0
  0
POINT
  5
D6E
330
D2D
100
AcDbEntity
  8
Defpoints
 62
     0
100
AcDbPoint
 10
-185.3657307008725
 20
-11.10093698297724
 30
0.0
  0
ENDBLK
  5
D2F
330
D2D
100
AcDbEntity
  8
0
100
AcDbBlockEnd
  0
BLOCK
  5
D3A
330
D39
100
AcDbEntity
  8
0
100
AcDbBlockBegin
  2
*D52
 70
     1
 10
0.0
 20
0.0
 30
0.0
  3
*D52
  1

  0
LINE
  5
D6F
330
D39
100
AcDbEntity
  8
0
 62
     0
370
    -2
100
AcDbLine
 10
-292.9029507008725
 20
9.153499017022767
 30
0.0
 11
-292.9029507008725
 21
-12.35093698297724
 31
0.0
  0
LINE
  5
D70
330
D39
100
AcDbEntity
  8
0
 62
     0
370
    -2
100
AcDbLine
 10
-240.6529507008725
 20
-1.858645982977236
 30
0.0
 11
-240.6529507008725
 21
-12.35093698297724
 31
0.0
  0
LINE
  5
D71
330
D39
100
AcDbEntity
  8
0
 62
     0
370
    -2
100
AcDbLine
 10
-290.4029507008725
 20
-11.10093698297724
 30
0.0
 11
-243.1529507008725
 21
-11.10093698297724
 31
0.0
  0
INSERT
  5
D72
330
D39
100
AcDbEntity
  8
0
 62
     0
370
    -2
100
AcDbBlockReference
  2
_Open30
 10
-292.9029507008725
 20
-11.10093698297724
 30
0.0
 41
2.5
 42
2.5
 43
2.5
 50
180.0
  0
INSERT
  5
D73
330
D39
100
AcDbEntity
  8
0
 62
     0
370
    -2
100
AcDbBlockReference
  2
_Open30
 10
-240.6529507008725
 20
-11.10093698297724
 30
0.0
 41
2.5
 42
2.5
 43
2.5
  0
MTEXT
  5
D74
330
D39
100
AcDbEntity
  8
0
 62
     4
100
AcDbMText
 10
-266.7779507008725
 20
-9.225936982977245
 30
0.0
 40
2.5
 41
0.0
 71
     5
 72
     1
  1
104
 73
     1
 44
1.0
1001
ACAD
1000
MTEXTBEGIN
1070
    73
1070
     1
1070
    44
1040
1.0
1070
    74
1070
     0
1000
MTEXTEND
  0
POINT
  5
D75
330
D39
100
AcDbEntity
  8
Defpoints
 62
     0
100
AcDbPoint
 10
-292.9029507008725
 20
9.403499017022767
 30
0.0
  0
POINT
  5
D76
330
D39
100
AcDbEntity
  8
Defpoints
 62
     0
100
AcDbPoint
 10
-240.6529507008725
 20
-1.608645982977236
 30
0.0
  0
POINT
  5
D77
330
D39
100
AcDbEntity
  8
Defpoints
 62
     0
100
AcDbPoint
 10
-240.6529507008725
 20
-11.10093698297724
 30
0.0
  0
ENDBLK
  5
D3B
330
D39
100
AcDbEntity
  8
0
100
AcDbBlockEnd
  0
BLOCK
  5
D46
330
D45
100
AcDbEntity
  8
0
100
AcDbBlockBegin
  2
*D53
 70
     1
 10
0.0
 20
0.0
 30
0.0
  3
*D53
  1

  0
LINE
  5
D78
330
D45
100
AcDbEntity
  8
0
 62
     0
370
    -2
100
AcDbLine
 10
-368.8665097008725
 20
-4.096500982977246
 30
0.0
 11
-368.8665097008725
 21
-12.35093698297724
 31
0.0
  0
LINE
  5
D79
330
D45
100
AcDbEntity
  8
0
 62
     0
370
    -2
100
AcDbLine
 10
-316.3665097008725
 20
9.153499017022767
 30
0.0
 11
-316.3665097008725
 21
-12.35093698297724
 31
0.0
  0
LINE
  5
D7A
330
D45
100
AcDbEntity
  8
0
 62
     0
370
    -2
100
AcDbLine
 10
-366.3665097008725
 20
-11.10093698297724
 30
0.0
 11
-318.8665097008725
 21
-11.10093698297724
 31
0.0
  0
INSERT
  5
D7B
330
D45
100
AcDbEntity
  8
0
 62
     0
370
    -2
100
AcDbBlockReference
  2
_Open30
 10
-368.8665097008725
 20
-11.10093698297724
 30
0.0
 41
2.5
 42
2.5
 43
2.5
 50
180.0
  0
INSERT
  5
D7C
330
D45
100
AcDbEntity
  8
0
 62
     0
370
    -2
100
AcDbBlockReference
  2
_Open30
 10
-316.3665097008725
 20
-11.10093698297724
 30
0.0
 41
2.5
 42
2.5
 43
2.5
  0
MTEXT
  5
D7D
330
D45
100
AcDbEntity
  8
0
 62
     4
100
AcDbMText
 10
-342.6165097008725
 20
-9.225936982977245
 30
0.0
 40
2.5
 41
0.0
 71
     5
 72
     1
  1
105
 73
     1
 44
1.0
1001
ACAD
1000
MTEXTBEGIN
1070
    73
1070
     1
1070
    44
1040
1.0
1070
    74
1070
     0
1000
MTEXTEND
  0
POINT
  5
D7E
330
D45
100
AcDbEntity
  8
Defpoints
 62
     0
100
AcDbPoint
 10
-368.8665097008725
 20
-3.846500982977246
 30
0.0
  0
POINT
  5
D7F
330
D45
100
AcDbEntity
  8
Defpoints
 62
     0
100
AcDbPoint
 10
-316.3665097008725
 20
9.403499017022767
 30
0.0
  0
POINT
  5
D80
330
D45
100
AcDbEntity
  8
Defpoints
 62
     0
100
AcDbPoint
 10
-316.3665097008725
 20
-11.10093698297724
 30
0.0
  0
ENDBLK
  5
D47
330
D45
100
AcDbEntity
  8
0
100
AcDbBlockEnd
  0
BLOCK
  5
D52
330
D51
100
AcDbEntity
  8
0
100
AcDbBlockBegin
  2
*D54
 70
     1
 10
0.0
 20
0.0
 30
0.0
  3
*D54
  1

  0
LINE
  5
D81
330
D51
100
AcDbEntity
  8
0
 62
     0
370
    -2
100
AcDbLine
 10
-418.7640757008725
 20
12.11730501702276
 30
0.0
 11
-418.7640757008725
 21
-12.35093698297724
 31
0.0
  0
LINE
  5
D82
330
D51
100
AcDbEntity
  8
0
 62
     0
370
    -2
100
AcDbLine
 10
-385.7640757008725
 20
12.11730501702276
 30
0.0
 11
-385.7640757008725
 21
-12.35093698297724
 31
0.0
  0
LINE
  5
D83
330
D51
100
AcDbEntity
  8
0
 62
     0
370
    -2
100
AcDbLine
 10
-416.2640757008725
 20
-11.10093698297724
 30
0.0
 11
-388.2640757008725
 21
-11.10093698297724
 31
0.0
  0
INSERT
  5
D84
330
D51
100
AcDbEntity
  8
0
 62
     0
370
    -2
100
AcDbBlockReference
  2
_Open30
 10
-418.7640757008725
 20
-11.10093698297724
 30
0.0
 41
2.5
 42
2.5
 43
2.5
 50
180.0
  0
INSERT
  5
D85
330
D51
100
AcDbEntity
  8
0
 62
     0
370
    -2
100
AcDbBlockReference
  2
_Open30
 10
-385.7640757008725
 20
-11.10093698297724
 30
0.0
 41
2.5
 42
2.5
 43
2.5
  0
MTEXT
  5
D86
330
D51
100
AcDbEntity
  8
0
 62
     4
100
AcDbMText
 10
-402.2640757008725
 20
-9.225936982977245
 30
0.0
 40
2.5
 41
0.0
 71
     5
 72
     1
  1
%%C65
 73
     1
 44
1.0
1001
ACAD
1000
MTEXTBEGIN
1070
    73
1070
     1
1070
    44
1040
1.0
1070
    74
1070
     0
1000
MTEXTEND
  0
POINT
  5
D87
330
D51
100
AcDbEntity
  8
Defpoints
 62
     0
100
AcDbPoint
 10
-418.7640757008725
 20
12.36730501702276
 30
0.0
  0
POINT
  5
D88
330
D51
100
AcDbEntity
  8
Defpoints
 62
     0
100
AcDbPoint
 10
-385.7640757008725
 20
12.36730501702276
 30
0.0
  0
POINT
  5
D89
330
D51
100
AcDbEntity
  8
Defpoints
 62
     0
100
AcDbPoint
 10
-385.7640757008725
 20
-11.10093698297724
 30
0.0
  0
ENDBLK
  5
D53
330
D51
100
AcDbEntity
  8
0
100
AcDbBlockEnd
  0
ENDSEC
  0
SECTION
  2
ENTITIES
  0
LINE
  5
ACD
330
36
100
AcDbEntity
  8
0
 62
     3
100
AcDbLine
 10
-300.0562467008725
 20
91.32067701702277
 30
0.0
 11
-300.0562467008725
 21
90.07211801702277
 31
0.0
  0
LINE
  5
ACE
330
36
100
AcDbEntity
  8
0
 62
     3
100
AcDbLine
 10
-329.8665097008725
 20
6.153499017022767
 30
0.0
 11
-329.8665097008725
 21
12.40349901702276
 31
0.0
  0
LINE
  5
ACF
330
36
100
AcDbEntity
  8
0
 62
     3
100
AcDbLine
 10
-335.1732917008725
 20
2.763055017022765
 30
0.0
 11
-329.8665097008725
 21
6.153499017022767
 31
0.0
  0
LINE
  5
AD0
330
36
100
AcDbEntity
  8
0
 62
     3
100
AcDbLine
 10
-316.3665097008725
 20
7.403499017022767
 30
0.0
 11
-316.3665097008725
 21
12.40349901702276
 31
0.0
  0
LINE
  5
AD1
330
36
100
AcDbEntity
  8
0
 62
     3
100
AcDbLine
 10
-318.8665097008725
 20
7.403499017022767
 30
0.0
 11
-318.8665097008725
 21
12.40349901702276
 31
0.0
  0
ARC
  5
AD2
330
36
100
AcDbEntity
  8
0
 62
     3
100
AcDbCircle
 10
-317.6165097008725
 20
7.403499017022767
 30
0.0
 40
1.25
100
AcDbArc
 50
180.0
 51
0.0
  0
LINE
  5
AD3
330
36
100
AcDbEntity
  8
0
 62
     3
100
AcDbLine
 10
-318.8665097008725
 20
7.403499017022767
 30
0.0
 11
-329.8665097008725
 21
6.153499017022767
 31
0.0
  0
LINE
  5
AD4
330
36
100
AcDbEntity
  8
0
 62
     3
100
AcDbLine
 10
-329.8665097008725
 20
18.65349901702277
 30
0.0
 11
-329.8665097008725
 21
12.40349901702276
 31
0.0
  0
LINE
  5
AD5
330
36
100
AcDbEntity
  8
0
 62
     3
100
AcDbLine
 10
-335.1732917008725
 20
22.04394301702277
 30
0.0
 11
-329.8665097008725
 21
18.65349901702277
 31
0.0
  0
LINE
  5
AD6
330
36
100
AcDbEntity
  8
0
 62
     3
100
AcDbLine
 10
-316.3665097008725
 20
17.40349901702276
 30
0.0
 11
-316.3665097008725
 21
12.40349901702276
 31
0.0
  0
LINE
  5
AD7
330
36
100
AcDbEntity
  8
0
 62
     3
100
AcDbLine
 10
-318.8665097008725
 20
17.40349901702276
 30
0.0
 11
-318.8665097008725
 21
12.40349901702276
 31
0.0
  0
ARC
  5
AD8
330
36
100
AcDbEntity
  8
0
 62
     3
100
AcDbCircle
 10
-317.6165097008725
 20
17.40349901702276
 30
0.0
 40
1.25
100
AcDbArc
 50
0.0
 51
180.0
  0
LINE
  5
AD9
330
36
100
AcDbEntity
  8
0
 62
     3
100
AcDbLine
 10
-318.8665097008725
 20
17.40349901702276
 30
0.0
 11
-329.8665097008725
 21
18.65349901702277
 31
0.0
  0
ARC
  5
ADB
330
36
100
AcDbEntity
  8
0
 62
     3
100
AcDbCircle
 10
-359.5471617008725
 20
-2.096500982977246
 30
0.0
 40
1.5
100
AcDbArc
 50
270.0
 51
318.8140750000009
  0
LINE
  5
ADC
330
36
100
AcDbEntity
  8
0
 62
     3
100
AcDbLine
 10
-358.4182967008725
 20
27.89125601702276
 30
0.0
 11
-355.3665097008725
 21
24.40349901702277
 31
0.0
  0
ARC
  5
ADD
330
36
100
AcDbEntity
  8
0
 62
     3
100
AcDbCircle
 10
-359.5471617008725
 20
26.90349901702277
 30
0.0
 40
1.5
100
AcDbArc
 50
41.18592499999913
 51
90.0
  0
LINE
  5
ADE
330
36
100
AcDbEntity
  8
0
 62
     3
100
AcDbLine
 10
-368.8665097008725
 20
28.65349901702277
 30
0.0
 11
-368.8665097008725
 21
12.40349901702276
 31
0.0
  0
LINE
  5
ADF
330
36
100
AcDbEntity
  8
0
 62
     3
100
AcDbLine
 10
-368.6165097008725
 20
28.90349901702277
 30
0.0
 11
-366.0563357008725
 21
28.90349901702277
 31
0.0
  0
ARC
  5
AE0
330
36
100
AcDbEntity
  8
0
 62
     3
100
AcDbCircle
 10
-366.0563357008725
 20
28.65349901702277
 30
0.0
 40
0.25
100
AcDbArc
 50
0.0
 51
90.0
  0
ARC
  5
AE1
330
36
100
AcDbEntity
  8
0
 62
     3
100
AcDbCircle
 10
-368.6165097008725
 20
28.65349901702277
 30
0.0
 40
0.25
100
AcDbArc
 50
90.0
 51
180.0
  0
LINE
  5
AE2
330
36
100
AcDbEntity
  8
0
 62
     3
100
AcDbLine
 10
-368.8665097008725
 20
-3.846500982977246
 30
0.0
 11
-368.8665097008725
 21
12.40349901702276
 31
0.0
  0
LINE
  5
AE3
330
36
100
AcDbEntity
  8
0
 62
     3
100
AcDbLine
 10
-358.4182967008725
 20
-3.084257982977248
 30
0.0
 11
-355.3665097008725
 21
0.4034990170227673
 31
0.0
  0
ARC
  5
AE4
330
36
100
AcDbEntity
  8
0
 62
     3
100
AcDbCircle
 10
-366.0563357008725
 20
-3.846500982977246
 30
0.0
 40
0.25
100
AcDbArc
 50
270.0
 51
0.0
  0
LINE
  5
AE5
330
36
100
AcDbEntity
  8
0
 62
     3
100
AcDbLine
 10
-368.6165097008725
 20
-4.096500982977246
 30
0.0
 11
-366.0563357008725
 21
-4.096500982977246
 31
0.0
  0
ARC
  5
AE6
330
36
100
AcDbEntity
  8
0
 62
     3
100
AcDbCircle
 10
-368.6165097008725
 20
-3.846500982977246
 30
0.0
 40
0.25
100
AcDbArc
 50
180.0
 51
270.0
  0
LINE
  5
AE7
330
36
100
AcDbEntity
  8
0
 62
     3
100
AcDbLine
 10
-358.8580717008725
 20
28.23584801702276
 30
0.0
 11
-358.8580717008725
 21
-3.084257982977248
 31
0.0
  0
LINE
  5
AE8
330
36
100
AcDbEntity
  8
0
 62
     3
100
AcDbLine
 10
-363.3063357008725
 20
-3.846500982977246
 30
0.0
 11
-363.3063357008725
 21
28.65349901702277
 31
0.0
  0
LINE
  5
AE9
330
36
100
AcDbEntity
  8
0
 62
     3
100
AcDbLine
 10
-361.8063357008725
 20
-3.846500982977246
 30
0.0
 11
-361.8063357008725
 21
28.65349901702277
 31
0.0
  0
LINE
  5
AEA
330
36
100
AcDbEntity
  8
0
 62
     3
100
AcDbLine
 10
-365.8063357008725
 20
28.65349901702277
 30
0.0
 11
-365.8063357008725
 21
-3.846500982977246
 31
0.0
  0
LINE
  5
AEB
330
36
100
AcDbEntity
  8
0
 62
     3
100
AcDbLine
 10
-363.0563357008725
 20
28.90349901702277
 30
0.0
 11
-362.0563357008725
 21
28.90349901702277
 31
0.0
  0
LINE
  5
AEC
330
36
100
AcDbEntity
  8
0
 62
     3
100
AcDbLine
 10
-362.0563357008725
 20
-4.096500982977246
 30
0.0
 11
-363.0563357008725
 21
-4.096500982977246
 31
0.0
  0
LINE
  5
AED
330
36
100
AcDbEntity
  8
0
 62
     3
100
AcDbLine
 10
-359.5471617008725
 20
28.40349901702277
 30
0.0
 11
-361.8063357008725
 21
28.40349901702277
 31
0.0
  0
LINE
  5
AEE
330
36
100
AcDbEntity
  8
0
 62
     3
100
AcDbLine
 10
-363.3063357008725
 20
28.40349901702277
 30
0.0
 11
-365.8063357008725
 21
28.40349901702277
 31
0.0
  0
LINE
  5
AEF
330
36
100
AcDbEntity
  8
0
 62
     3
100
AcDbLine
 10
-359.5471617008725
 20
-3.596500982977246
 30
0.0
 11
-361.8063357008725
 21
-3.596500982977246
 31
0.0
  0
LINE
  5
AF0
330
36
100
AcDbEntity
  8
0
 62
     3
100
AcDbLine
 10
-363.3063357008725
 20
-3.596500982977246
 30
0.0
 11
-365.8063357008725
 21
-3.596500982977246
 31
0.0
  0
ARC
  5
AF1
330
36
100
AcDbEntity
  8
0
 62
     3
100
AcDbCircle
 10
-362.0563357008725
 20
28.65349901702277
 30
0.0
 40
0.25
100
AcDbArc
 50
0.0
 51
90.0
  0
ARC
  5
AF2
330
36
100
AcDbEntity
  8
0
 62
     3
100
AcDbCircle
 10
-363.0563357008725
 20
28.65349901702277
 30
0.0
 40
0.25
100
AcDbArc
 50
90.0
 51
180.0
  0
ARC
  5
AF3
330
36
100
AcDbEntity
  8
0
 62
     3
100
AcDbCircle
 10
-363.0563357008725
 20
-3.846500982977246
 30
0.0
 40
0.25
100
AcDbArc
 50
180.0
 51
270.0
  0
ARC
  5
AF4
330
36
100
AcDbEntity
  8
0
 62
     3
100
AcDbCircle
 10
-362.0563357008725
 20
-3.846500982977246
 30
0.0
 40
0.25
100
AcDbArc
 50
270.0
 51
0.0
  0
CIRCLE
  5
AF5
330
36
100
AcDbEntity
  8
0
 62
     3
100
AcDbCircle
 10
-402.2640757008725
 20
12.36730501702276
 30
0.0
 40
13.5
  0
CIRCLE
  5
AF6
330
36
100
AcDbEntity
  8
0
 62
     3
100
AcDbCircle
 10
-402.2640757008725
 20
12.36730501702276
 30
0.0
 40
16.5
  0
LINE
  5
AF7
330
36
100
AcDbEntity
  8
0
 62
     3
100
AcDbLine
 10
-292.9029507008725
 20
15.90788201702276
 30
0.0
 11
-292.9029507008725
 21
8.874827017022766
 31
0.0
  0
LINE
  5
AF8
330
36
100
AcDbEntity
  8
0
 62
     3
100
AcDbLine
 10
-291.9196157008725
 20
16.90774301702276
 30
0.0
 11
-277.9029507008725
 21
17.14135401702276
 31
0.0
  0
LINE
  5
AF9
330
36
100
AcDbEntity
  8
0
 62
     3
100
AcDbLine
 10
-291.9196157008725
 20
7.874965017022759
 30
0.0
 11
-277.9029507008725
 21
7.641354017022763
 31
0.0
  0
LINE
  5
AFA
330
36
100
AcDbEntity
  8
0
 62
     3
100
AcDbLine
 10
-248.6529507008725
 20
26.39135401702276
 30
0.0
 11
-248.6529507008725
 21
-1.608645982977236
 31
0.0
  0
LINE
  5
AFB
330
36
100
AcDbEntity
  8
0
 62
     3
100
AcDbLine
 10
-248.6529507008725
 20
26.39135401702276
 30
0.0
 11
-246.1529507008725
 21
26.39135401702276
 31
0.0
  0
LINE
  5
AFC
330
36
100
AcDbEntity
  8
0
 62
     3
100
AcDbLine
 10
-240.6529507008725
 20
-1.608645982977236
 30
0.0
 11
-240.6529507008725
 21
26.39135401702276
 31
0.0
  0
LINE
  5
AFD
330
36
100
AcDbEntity
  8
0
 62
     3
100
AcDbLine
 10
-248.6529507008725
 20
26.39135401702276
 30
0.0
 11
-250.1529507008725
 21
24.89135401702276
 31
0.0
  0
LINE
  5
AFE
330
36
100
AcDbEntity
  8
0
 62
     3
100
AcDbLine
 10
-248.6529507008725
 20
-1.608645982977236
 30
0.0
 11
-250.1529507008725
 21
-0.1086459829772366
 31
0.0
  0
ARC
  5
AFF
330
36
100
AcDbEntity
  8
0
 62
     3
100
AcDbCircle
 10
-243.9029507008725
 20
-0.2086459829772451
 30
0.0
 40
2.649999999999999
100
AcDbArc
 50
211.8907920000002
 51
328.1092079999998
  0
ARC
  5
B00
330
36
100
AcDbEntity
  8
0
 62
     3
100
AcDbCircle
 10
-243.9029507008725
 20
24.99135401702276
 30
0.0
 40
2.649999999999999
100
AcDbArc
 50
31.89079200000017
 51
148.1092079999998
  0
LINE
  5
B01
330
36
100
AcDbEntity
  8
0
 62
     3
100
AcDbLine
 10
-241.6529507008725
 20
26.39135401702276
 30
0.0
 11
-240.6529507008725
 21
26.39135401702276
 31
0.0
  0
LINE
  5
B02
330
36
100
AcDbEntity
  8
0
 62
     3
100
AcDbLine
 10
-248.6529507008725
 20
-1.608645982977236
 30
0.0
 11
-246.1529507008725
 21
-1.608645982977236
 31
0.0
  0
LINE
  5
B03
330
36
100
AcDbEntity
  8
0
 62
     3
100
AcDbLine
 10
-241.6529507008725
 20
-1.608645982977236
 30
0.0
 11
-240.6529507008725
 21
-1.608645982977236
 31
0.0
  0
ARC
  5
B04
330
36
100
AcDbEntity
  8
0
 62
     3
100
AcDbCircle
 10
-291.9029507008725
 20
8.874827017022766
 30
0.0
 40
1.0
100
AcDbArc
 50
180.0
 51
269.0451589999994
  0
ARC
  5
B05
330
36
100
AcDbEntity
  8
0
 62
     3
100
AcDbCircle
 10
-291.9029507008725
 20
15.90788201702276
 30
0.0
 40
1.0
100
AcDbArc
 50
90.95484100000057
 51
180.0
  0
LINE
  5
B06
330
36
100
AcDbEntity
  8
0
 62
     3
100
AcDbLine
 10
-316.3665097008725
 20
15.40349901702277
 30
0.0
 11
-310.7400167008725
 21
15.40349901702277
 31
0.0
  0
LINE
  5
B07
330
36
100
AcDbEntity
  8
0
 62
     3
100
AcDbLine
 10
-316.3665097008725
 20
9.403499017022767
 30
0.0
 11
-310.7400167008725
 21
9.403499017022767
 31
0.0
  0
LINE
  5
B08
330
36
100
AcDbEntity
  8
0
 62
     3
100
AcDbLine
 10
-388.8354615934427
 20
-37.02323598739662
 30
0.0
 11
-388.8354615934427
 21
-86.02323598739662
 31
0.0
  0
TEXT
  5
B09
330
36
100
AcDbEntity
  8
0
 62
     3
100
AcDbText
 10
-386.8354615934427
 20
-50.02323598739661
 30
0.0
 40
4.5
  1
型       式
 41
0.8
  7
高4.5
100
AcDbText
  0
TEXT
  5
B0A
330
36
100
AcDbEntity
  8
0
 62
     3
100
AcDbText
 10
-386.8354615934427
 20
-57.0232359873966
 30
0.0
 40
4.5
  1
電 線 長 さ
 41
0.8
  7
高4.5
100
AcDbText
  0
TEXT
  5
B0B
330
36
100
AcDbEntity
  8
0
 62
     3
100
AcDbText
 10
-386.8354615934427
 20
-64.0232359873966
 30
0.0
 40
4.5
  1
電 線 仕 様
 41
0.8
  7
高4.5
100
AcDbText
  0
TEXT
  5
B0C
330
36
100
AcDbEntity
  8
0
 62
     3
100
AcDbText
 10
-386.8354615934427
 20
-71.02323598739663
 30
0.0
 40
4.5
  1
電線許容電流
 41
0.8
  7
高4.5
100
AcDbText
  0
TEXT
  5
B0D
330
36
100
AcDbEntity
  8
0
 62
     3
100
AcDbText
 10
-386.8354615934427
 20
-85.02323598739662
 30
0.0
 40
4.5
  1
電   線   色
 41
0.8
  7
高4.5
100
AcDbText
  0
LINE
  5
B0E
330
36
100
AcDbEntity
  8
0
 62
     3
100
AcDbLine
 10
-388.8354615934427
 20
-37.02323598739662
 30
0.0
 11
-310.0753176042301
 21
-37.02323598739662
 31
0.0
  0
LINE
  5
B0F
330
36
100
AcDbEntity
  8
0
 62
     7
100
AcDbLine
 10
-310.0753176042301
 20
-79.02323598739662
 30
0.0
 11
-388.8354615934427
 21
-79.02323598739662
 31
0.0
  0
LINE
  5
B11
330
36
100
AcDbEntity
  8
0
 62
     3
100
AcDbLine
 10
-305.3574987008725
 20
15.40349901702277
 30
0.0
 11
-310.4731437008725
 21
15.40349901702277
 31
0.0
  0
LINE
  5
B12
330
36
100
AcDbEntity
  8
0
 62
     3
100
AcDbLine
 10
-302.9392007008726
 20
15.40349901702277
 30
0.0
 11
-292.9029507008725
 21
15.40349901702277
 31
0.0
  0
LINE
  5
B13
330
36
100
AcDbEntity
  8
0
 62
     3
100
AcDbLine
 10
-305.5493447008725
 20
9.403499017022767
 30
0.0
 11
-310.6649897008725
 21
9.403499017022767
 31
0.0
  0
LINE
  5
B14
330
36
100
AcDbEntity
  8
0
 62
     3
100
AcDbLine
 10
-303.1430067008725
 20
9.403499017022767
 30
0.0
 11
-292.9029507008725
 21
9.403499017022767
 31
0.0
  0
TEXT
  5
B15
330
36
100
AcDbEntity
  8
0
 62
     3
100
AcDbText
 10
-258.1349507008726
 20
-67.21395298297725
 30
0.0
 40
4.5
  1
防雨型200V延長コード
 41
0.7
  7
高4.5
100
AcDbText
  0
TEXT
  5
B16
330
36
100
AcDbEntity
  8
0
 62
     3
100
AcDbText
 10
-195.7225957008725
 20
-87.43293798297724
 30
0.0
 40
3.2
  1
2003.2.27
  7
高3.2
100
AcDbText
  0
LINE
  5
B17
330
36
100
AcDbEntity
  8
0
 62
     3
100
AcDbLine
 10
-310.0753176042301
 20
-37.02323598739662
 30
0.0
 11
-310.0753176042301
 21
-86.02323598739662
 31
0.0
  0
LINE
  5
B18
330
36
100
AcDbEntity
  8
0
 62
     7
100
AcDbLine
 10
-357.0734455934427
 20
-44.02323598739662
 30
0.0
 11
-357.0734455934427
 21
-86.0232359873966
 31
0.0
  0
LINE
  5
B19
330
36
100
AcDbEntity
  8
0
 62
     7
100
AcDbLine
 10
-310.0753176042301
 20
-58.02323598739659
 30
0.0
 11
-388.8354615934427
 21
-58.02323598739659
 31
0.0
  0
LINE
  5
B1A
330
36
100
AcDbEntity
  8
0
 62
     7
100
AcDbLine
 10
-310.0753176042301
 20
-65.02323598739661
 30
0.0
 11
-388.8354615934427
 21
-65.02323598739661
 31
0.0
  0
LINE
  5
B1B
330
36
100
AcDbEntity
  8
0
 62
     7
100
AcDbLine
 10
-310.0753176042301
 20
-72.02323598739663
 30
0.0
 11
-388.8354615934427
 21
-72.02323598739663
 31
0.0
  0
TEXT
  5
B1C
330
36
100
AcDbEntity
  8
0
 62
     3
100
AcDbText
 10
-355.0734455934427
 20
-71.02323598739663
 30
0.0
 40
4.5
  1
19A
 41
0.8
  7
高4.5
100
AcDbText
  0
TEXT
  5
B1D
330
36
100
AcDbEntity
  8
0
 62
     3
100
AcDbText
 10
-355.0734455934427
 20
-85.02323598739661
 30
0.0
 40
4.5
  1
黒
 41
0.8
  7
高4.5
100
AcDbText
  0
TEXT
  5
B1E
330
36
100
AcDbEntity
  8
0
 62
     3
100
AcDbText
 10
-355.0734455934427
 20
-57.0232359873966
 30
0.0
 40
4.5
  1
10m
 41
0.8
  7
高4.5
100
AcDbText
  0
TEXT
  5
B1F
330
36
100
AcDbEntity
  8
0
 62
     3
100
AcDbText
 10
-386.8354615934427
 20
-43.02323598739661
 30
0.0
 40
4.5
  1
主　仕　様　　(防雨.防塵型)
  7
高4.5
100
AcDbText
  0
TEXT
  5
B21
330
36
100
AcDbEntity
  8
0
 62
     3
100
AcDbText
 10
-227.5694537008725
 20
-87.47804298297724
 30
0.0
 40
3.2
  1
FREE
  7
高3.2
100
AcDbText
  0
LINE
  5
B22
330
36
100
AcDbEntity
  8
0
 62
     3
100
AcDbLine
 10
-438.5562467008725
 20
80.84806001702276
 30
0.0
 11
-438.5562467008725
 21
-99.15193998297723
 31
0.0
  0
LINE
  5
B23
330
36
100
AcDbEntity
  8
0
 62
     3
100
AcDbLine
 10
-161.5562467008725
 20
-99.15193998297723
 30
0.0
 11
-161.5562467008725
 21
80.84806001702276
 31
0.0
  0
LINE
  5
B24
330
36
100
AcDbEntity
  8
0
 62
     3
100
AcDbLine
 10
-438.5562467008725
 20
-99.15193998297723
 30
0.0
 11
-161.5562467008725
 21
-99.15193998297723
 31
0.0
  0
LINE
  5
B25
330
36
100
AcDbEntity
  8
0
 62
     3
100
AcDbLine
 10
-438.5562467008725
 20
80.84806001702276
 30
0.0
 11
-161.5562467008725
 21
80.84806001702276
 31
0.0
  0
LINE
  5
B26
330
36
100
AcDbEntity
  8
0
 62
     3
100
AcDbLine
 10
-277.9029507008725
 20
17.39135401702276
 30
0.0
 11
-277.9029507008725
 21
7.391354017022763
 31
0.0
  0
LINE
  5
B27
330
36
100
AcDbEntity
  8
0
 62
     3
100
AcDbLine
 10
-273.4029507008725
 20
18.14135401702276
 30
0.0
 11
-273.4029507008725
 21
6.641354017022763
 31
0.0
  0
ARC
  5
B28
330
36
100
AcDbEntity
  8
0
 62
     3
100
AcDbCircle
 10
-275.6529507008725
 20
17.39135401702276
 30
0.0
 40
2.25
100
AcDbArc
 50
0.0
 51
180.0
  0
ARC
  5
B29
330
36
100
AcDbEntity
  8
0
 62
     3
100
AcDbCircle
 10
-275.6529507008725
 20
7.391354017022763
 30
0.0
 40
2.25
100
AcDbArc
 50
180.0
 51
0.0
  0
LINE
  5
B2A
330
36
100
AcDbEntity
  8
0
 62
     3
100
AcDbLine
 10
-267.4641307008725
 20
18.14135401702276
 30
0.0
 11
-273.4029507008725
 21
18.14135401702276
 31
0.0
  0
LINE
  5
B2B
330
36
100
AcDbEntity
  8
0
 62
     3
100
AcDbLine
 10
-267.4641307008725
 20
6.641354017022763
 30
0.0
 11
-273.4029507008725
 21
6.641354017022763
 31
0.0
  0
ARC
  5
B2C
330
36
100
AcDbEntity
  8
0
 62
     3
100
AcDbCircle
 10
-267.4641307008725
 20
22.14135401702276
 30
0.0
 40
4.0
100
AcDbArc
 50
270.0
 51
323.7784529999999
  0
ARC
  5
B2D
330
36
100
AcDbEntity
  8
0
 62
     3
100
AcDbCircle
 10
-267.4641307008725
 20
2.641354017022763
 30
0.0
 40
4.0
100
AcDbArc
 50
36.22154699999938
 51
90.0
  0
ARC
  5
B2E
330
36
100
AcDbEntity
  8
0
 62
     3
100
AcDbCircle
 10
-254.1529507008725
 20
12.39135401702276
 30
0.0
 40
12.5
100
AcDbArc
 50
90.0
 51
143.7784530000006
  0
ARC
  5
B2F
330
36
100
AcDbEntity
  8
0
 62
     3
100
AcDbCircle
 10
-254.1529507008725
 20
12.39135401702276
 30
0.0
 40
12.5
100
AcDbArc
 50
216.2215469999994
 51
270.0
  0
LINE
  5
B30
330
36
100
AcDbEntity
  8
0
 62
     3
100
AcDbLine
 10
-250.1529507008725
 20
-0.1086459829772366
 30
0.0
 11
-254.1529507008725
 21
-0.1086459829772366
 31
0.0
  0
LINE
  5
B31
330
36
100
AcDbEntity
  8
0
 62
     3
100
AcDbLine
 10
-250.1529507008725
 20
24.89135401702276
 30
0.0
 11
-254.1529507008725
 21
24.89135401702276
 31
0.0
  0
TEXT
  5
B32
330
36
100
AcDbEntity
  8
0
 62
     3
100
AcDbText
 10
-355.0734455934427
 20
-64.0232359873966
 30
0.0
 40
4.5
  1
SVCT 2.0sqx4c
 41
0.8
  7
高4.5
100
AcDbText
  0
LINE
  5
B33
330
36
100
AcDbEntity
  8
0
 62
     7
100
AcDbLine
 10
-310.0753176042301
 20
-51.0232359873966
 30
0.0
 11
-388.8354615934427
 21
-51.0232359873966
 31
0.0
  0
LINE
  5
B34
330
36
100
AcDbEntity
  8
0
 62
     7
100
AcDbLine
 10
-310.0753176042301
 20
-44.02323598739662
 30
0.0
 11
-388.8354615934427
 21
-44.02323598739662
 31
0.0
  0
TEXT
  5
B35
330
36
100
AcDbEntity
  8
0
 62
     7
100
AcDbText
 10
-201.6157307008725
 20
18.86289201702276
 30
0.0
 40
2.0
  1
Y
100
AcDbText
  0
TEXT
  5
B36
330
36
100
AcDbEntity
  8
0
 62
     7
100
AcDbText
 10
-189.5854897008725
 20
8.355050017022762
 30
0.0
 40
1.6
  1
防　雨　型
 50
90.00000300000001
 41
0.833333
100
AcDbText
  0
TEXT
  5
B37
330
36
100
AcDbEntity
  8
0
 62
     7
100
AcDbText
 10
-209.1157307008725
 20
11.36289201702276
 30
0.0
 40
2.0
  1
Z
100
AcDbText
  0
TEXT
  5
B38
330
36
100
AcDbEntity
  8
0
 62
     7
100
AcDbText
 10
-194.4657307008725
 20
10.78789201702275
 30
0.0
 40
3.149999999999999
  1
x
100
AcDbText
  0
LINE
  5
B39
330
36
100
AcDbEntity
  8
0
 62
     7
100
AcDbLine
 10
-198.2574687008725
 20
7.362892017022758
 30
0.0
 11
-197.2574687008725
 21
7.362892017022758
 31
0.0
  0
LINE
  5
B3A
330
36
100
AcDbEntity
  8
0
 62
     7
100
AcDbLine
 10
-197.7574687008725
 20
7.987892017022758
 30
0.0
 11
-197.7574687008725
 21
7.612892017022758
 31
0.0
  0
CIRCLE
  5
B3B
330
36
100
AcDbEntity
  8
0
 62
     7
100
AcDbCircle
 10
-197.7574687008725
 20
7.612892017022758
 30
0.0
 40
1.0
  0
LINE
  5
B3C
330
36
100
AcDbEntity
  8
0
 62
     7
100
AcDbLine
 10
-197.0074687008725
 20
7.612892017022758
 30
0.0
 11
-198.5074687008725
 21
7.612892017022758
 31
0.0
  0
LINE
  5
B3D
330
36
100
AcDbEntity
  8
0
 62
     7
100
AcDbLine
 10
-197.5074687008725
 20
7.112892017022758
 30
0.0
 11
-198.0074687008725
 21
7.112892017022758
 31
0.0
  0
TEXT
  5
B3E
330
36
100
AcDbEntity
  8
0
 62
     7
100
AcDbText
 10
-200.4015747008725
 20
21.53244801702276
 30
0.0
 40
1.404158999999999
  1
JET
100
AcDbText
  0
ARC
  5
B3F
330
36
100
AcDbEntity
  8
0
 62
     7
100
AcDbCircle
 10
-195.3172057008725
 20
22.19155301702276
 30
0.0
 40
0.599625
100
AcDbArc
 50
204.1020920000005
 51
28.32624699999923
  0
LINE
  5
B40
330
36
100
AcDbEntity
  8
0
 62
     7
100
AcDbLine
 10
-194.6972357008725
 20
22.56220101702276
 30
0.0
 11
-195.2570127008725
 21
21.59263901702276
 31
0.0
  0
LINE
  5
B41
330
36
100
AcDbEntity
  8
0
 62
     7
100
AcDbLine
 10
-195.9371757008725
 20
21.82090501702277
 30
0.0
 11
-195.3773987008725
 21
22.79046701702276
 31
0.0
  0
ARC
  5
B42
330
36
100
AcDbEntity
  8
0
 62
     7
100
AcDbCircle
 10
-195.3172057008725
 20
22.19155301702276
 30
0.0
 40
0.601931
100
AcDbArc
 50
26.80229100000064
 51
204.2608300000008
  0
LINE
  5
B43
330
36
100
AcDbEntity
  8
0
 62
     7
100
AcDbLine
 10
-195.3172057008725
 20
22.79348401702276
 30
0.0
 11
-195.3172057008725
 21
21.58962201702276
 31
0.0
  0
TEXT
  5
B44
330
36
100
AcDbEntity
  8
0
 62
     7
100
AcDbText
 10
-201.7714717008725
 20
21.53244801702276
 30
0.0
 40
1.404158999999999
  1
E
100
AcDbText
  0
TEXT
  5
B45
330
36
100
AcDbEntity
  8
0
 62
     7
100
AcDbText
 10
-205.5761847008725
 20
21.53325201702276
 30
0.0
 40
1.404158999999999
  1
PS
100
AcDbText
  0
LINE
  5
B46
330
36
100
AcDbEntity
  8
0
 62
     7
100
AcDbLine
 10
-206.4626517008725
 20
22.27349101702277
 30
0.0
 11
-205.7677097008725
 21
22.84295701702276
 31
0.0
  0
LINE
  5
B47
330
36
100
AcDbEntity
  8
0
 62
     7
100
AcDbLine
 10
-206.4626517008725
 20
22.27349101702277
 30
0.0
 11
-205.7677097008725
 21
21.70402501702276
 31
0.0
  0
LINE
  5
B48
330
36
100
AcDbEntity
  8
0
 62
     7
100
AcDbLine
 10
-202.1474377008725
 20
22.27349101702277
 30
0.0
 11
-202.8423787008725
 21
21.70402501702276
 31
0.0
  0
LINE
  5
B49
330
36
100
AcDbEntity
  8
0
 62
     7
100
AcDbLine
 10
-202.1474377008725
 20
22.27349101702277
 30
0.0
 11
-202.8423787008725
 21
22.84295701702276
 31
0.0
  0
TEXT
  5
B4A
330
36
100
AcDbEntity
  8
0
 62
     7
100
AcDbText
 10
-206.3873997008725
 20
1.815622017022761
 30
0.0
 40
1.75
  1
19A 250V
 41
0.9060489999999999
100
AcDbText
  0
LINE
  5
B4B
330
36
100
AcDbEntity
  8
0
 62
     7
100
AcDbLine
 10
-194.9657307008725
 20
14.36289201702276
 30
0.0
 11
-194.9657307008725
 21
10.36289201702276
 31
0.0
  0
LINE
  5
B4C
330
36
100
AcDbEntity
  8
0
 62
     7
100
AcDbLine
 10
-195.9657307008725
 20
14.36289201702276
 30
0.0
 11
-195.9657307008725
 21
10.36289201702276
 31
0.0
  0
LINE
  5
B4D
330
36
100
AcDbEntity
  8
0
 62
     7
100
AcDbLine
 10
-205.2657307008725
 20
14.36289201702276
 30
0.0
 11
-205.2657307008725
 21
10.36289201702276
 31
0.0
  0
LINE
  5
B4E
330
36
100
AcDbEntity
  8
0
 62
     7
100
AcDbLine
 10
-206.2657307008725
 20
14.36289201702276
 30
0.0
 11
-206.2657307008725
 21
10.36289201702276
 31
0.0
  0
LINE
  5
B4F
330
36
100
AcDbEntity
  8
0
 62
     7
100
AcDbLine
 10
-194.9657307008725
 20
14.36289201702276
 30
0.0
 11
-195.9657307008725
 21
14.36289201702276
 31
0.0
  0
LINE
  5
B50
330
36
100
AcDbEntity
  8
0
 62
     7
100
AcDbLine
 10
-205.2657307008725
 20
14.36289201702276
 30
0.0
 11
-206.2657307008725
 21
14.36289201702276
 31
0.0
  0
LINE
  5
B51
330
36
100
AcDbEntity
  8
0
 62
     7
100
AcDbLine
 10
-194.9657307008725
 20
10.36289201702276
 30
0.0
 11
-195.9657307008725
 21
10.36289201702276
 31
0.0
  0
LINE
  5
B52
330
36
100
AcDbEntity
  8
0
 62
     7
100
AcDbLine
 10
-205.2657307008725
 20
10.36289201702276
 30
0.0
 11
-206.2657307008725
 21
10.36289201702276
 31
0.0
  0
LINE
  5
B53
330
36
100
AcDbEntity
  8
0
 62
     7
100
AcDbLine
 10
-198.6157307008725
 20
18.01289201702276
 30
0.0
 11
-202.6157307008725
 21
18.01289201702276
 31
0.0
  0
LINE
  5
B54
330
36
100
AcDbEntity
  8
0
 62
     7
100
AcDbLine
 10
-198.6157307008725
 20
17.01289201702276
 30
0.0
 11
-202.6157307008725
 21
17.01289201702276
 31
0.0
  0
LINE
  5
B55
330
36
100
AcDbEntity
  8
0
 62
     7
100
AcDbLine
 10
-198.6157307008725
 20
18.01289201702276
 30
0.0
 11
-198.6157307008725
 21
17.01289201702276
 31
0.0
  0
LINE
  5
B56
330
36
100
AcDbEntity
  8
0
 62
     7
100
AcDbLine
 10
-202.6157307008725
 20
18.01289201702276
 30
0.0
 11
-202.6157307008725
 21
17.01289201702276
 31
0.0
  0
LINE
  5
B57
330
36
100
AcDbEntity
  8
0
 62
     7
100
AcDbLine
 10
-200.1157307008725
 20
9.612892017022758
 30
0.0
 11
-201.1157307008725
 21
9.612892017022758
 31
0.0
  0
LINE
  5
B58
330
36
100
AcDbEntity
  8
0
 62
     7
100
AcDbLine
 10
-200.1157307008725
 20
5.612892017022758
 30
0.0
 11
-201.1157307008725
 21
5.612892017022758
 31
0.0
  0
LINE
  5
B59
330
36
100
AcDbEntity
  8
0
 62
     7
100
AcDbLine
 10
-200.1157307008725
 20
9.612892017022758
 30
0.0
 11
-200.1157307008725
 21
5.612892017022758
 31
0.0
  0
LINE
  5
B5A
330
36
100
AcDbEntity
  8
0
 62
     7
100
AcDbLine
 10
-201.1157307008725
 20
9.612892017022758
 30
0.0
 11
-201.1157307008725
 21
5.612892017022758
 31
0.0
  0
LINE
  5
B5B
330
36
100
AcDbEntity
  8
0
 62
     7
100
AcDbLine
 10
-205.4157307008725
 20
13.48789201702276
 30
0.0
 11
-205.4157307008725
 21
11.23789201702276
 31
0.0
  0
LINE
  5
B5C
330
36
100
AcDbEntity
  8
0
 62
     7
100
AcDbLine
 10
-206.1157307008725
 20
13.48789201702276
 30
0.0
 11
-206.1157307008725
 21
11.23789201702276
 31
0.0
  0
LINE
  5
B5D
330
36
100
AcDbEntity
  8
0
 62
     7
100
AcDbLine
 10
-195.1157307008725
 20
13.48789201702276
 30
0.0
 11
-195.1157307008725
 21
11.23789201702276
 31
0.0
  0
LINE
  5
B5E
330
36
100
AcDbEntity
  8
0
 62
     7
100
AcDbLine
 10
-195.8157307008725
 20
13.48789201702276
 30
0.0
 11
-195.8157307008725
 21
11.23789201702276
 31
0.0
  0
LINE
  5
B5F
330
36
100
AcDbEntity
  8
0
 62
     7
100
AcDbLine
 10
-199.4907307008725
 20
17.86289201702276
 30
0.0
 11
-201.7407307008725
 21
17.86289201702276
 31
0.0
  0
LINE
  5
B60
330
36
100
AcDbEntity
  8
0
 62
     7
100
AcDbLine
 10
-199.4907307008725
 20
17.16289201702275
 30
0.0
 11
-201.7407307008725
 21
17.16289201702275
 31
0.0
  0
LINE
  5
B61
330
36
100
AcDbEntity
  8
0
 62
     7
100
AcDbLine
 10
-200.2657307008725
 20
8.737892017022758
 30
0.0
 11
-200.9657307008725
 21
8.737892017022758
 31
0.0
  0
LINE
  5
B62
330
36
100
AcDbEntity
  8
0
 62
     7
100
AcDbLine
 10
-200.2657307008725
 20
6.487892017022758
 30
0.0
 11
-200.9657307008725
 21
6.487892017022758
 31
0.0
  0
LINE
  5
B63
330
36
100
AcDbEntity
  8
0
 62
     7
100
AcDbLine
 10
-199.4907307008725
 20
17.16289201702275
 30
0.0
 11
-199.4907307008725
 21
17.86289201702276
 31
0.0
  0
LINE
  5
B64
330
36
100
AcDbEntity
  8
0
 62
     7
100
AcDbLine
 10
-201.7407307008725
 20
17.16289201702275
 30
0.0
 11
-201.7407307008725
 21
17.86289201702276
 31
0.0
  0
LINE
  5
B65
330
36
100
AcDbEntity
  8
0
 62
     7
100
AcDbLine
 10
-195.1157307008725
 20
13.48789201702276
 30
0.0
 11
-195.8157307008725
 21
13.48789201702276
 31
0.0
  0
LINE
  5
B66
330
36
100
AcDbEntity
  8
0
 62
     7
100
AcDbLine
 10
-205.4157307008725
 20
13.48789201702276
 30
0.0
 11
-206.1157307008725
 21
13.48789201702276
 31
0.0
  0
LINE
  5
B67
330
36
100
AcDbEntity
  8
0
 62
     7
100
AcDbLine
 10
-195.1157307008725
 20
11.23789201702276
 30
0.0
 11
-195.8157307008725
 21
11.23789201702276
 31
0.0
  0
LINE
  5
B68
330
36
100
AcDbEntity
  8
0
 62
     7
100
AcDbLine
 10
-205.4157307008725
 20
11.23789201702276
 30
0.0
 11
-206.1157307008725
 21
11.23789201702276
 31
0.0
  0
LINE
  5
B69
330
36
100
AcDbEntity
  8
0
 62
     7
100
AcDbLine
 10
-195.1157307008725
 20
13.48789201702276
 30
0.0
 11
-194.9657307008725
 21
14.36289201702276
 31
0.0
  0
LINE
  5
B6A
330
36
100
AcDbEntity
  8
0
 62
     7
100
AcDbLine
 10
-195.8157307008725
 20
13.48789201702276
 30
0.0
 11
-195.9657307008725
 21
14.36289201702276
 31
0.0
  0
LINE
  5
B6B
330
36
100
AcDbEntity
  8
0
 62
     7
100
AcDbLine
 10
-195.8157307008725
 20
11.23789201702276
 30
0.0
 11
-195.9657307008725
 21
10.36289201702276
 31
0.0
  0
LINE
  5
B6C
330
36
100
AcDbEntity
  8
0
 62
     7
100
AcDbLine
 10
-195.1157307008725
 20
11.23789201702276
 30
0.0
 11
-194.9657307008725
 21
10.36289201702276
 31
0.0
  0
LINE
  5
B6D
330
36
100
AcDbEntity
  8
0
 62
     7
100
AcDbLine
 10
-200.2657307008725
 20
8.737892017022758
 30
0.0
 11
-200.2657307008725
 21
6.487892017022758
 31
0.0
  0
LINE
  5
B6E
330
36
100
AcDbEntity
  8
0
 62
     7
100
AcDbLine
 10
-200.9657307008725
 20
8.737892017022758
 30
0.0
 11
-200.9657307008725
 21
6.487892017022758
 31
0.0
  0
LINE
  5
B6F
330
36
100
AcDbEntity
  8
0
 62
     7
100
AcDbLine
 10
-200.2657307008725
 20
8.737892017022758
 30
0.0
 11
-200.1157307008725
 21
9.612892017022758
 31
0.0
  0
LINE
  5
B70
330
36
100
AcDbEntity
  8
0
 62
     7
100
AcDbLine
 10
-200.9657307008725
 20
8.737892017022758
 30
0.0
 11
-201.1157307008725
 21
9.612892017022758
 31
0.0
  0
LINE
  5
B71
330
36
100
AcDbEntity
  8
0
 62
     7
100
AcDbLine
 10
-200.9657307008725
 20
6.487892017022758
 30
0.0
 11
-201.1157307008725
 21
5.612892017022758
 31
0.0
  0
LINE
  5
B72
330
36
100
AcDbEntity
  8
0
 62
     7
100
AcDbLine
 10
-200.2657307008725
 20
6.487892017022758
 30
0.0
 11
-200.1157307008725
 21
5.612892017022758
 31
0.0
  0
LINE
  5
B73
330
36
100
AcDbEntity
  8
0
 62
     7
100
AcDbLine
 10
-199.4907307008725
 20
17.86289201702276
 30
0.0
 11
-198.6157307008725
 21
18.01289201702276
 31
0.0
  0
LINE
  5
B74
330
36
100
AcDbEntity
  8
0
 62
     7
100
AcDbLine
 10
-199.4907307008725
 20
17.16289201702275
 30
0.0
 11
-198.6157307008725
 21
17.01289201702276
 31
0.0
  0
LINE
  5
B75
330
36
100
AcDbEntity
  8
0
 62
     7
100
AcDbLine
 10
-201.7407307008725
 20
17.86289201702276
 30
0.0
 11
-202.6157307008725
 21
18.01289201702276
 31
0.0
  0
LINE
  5
B76
330
36
100
AcDbEntity
  8
0
 62
     7
100
AcDbLine
 10
-201.7407307008725
 20
17.16289201702275
 30
0.0
 11
-202.6157307008725
 21
17.01289201702276
 31
0.0
  0
LINE
  5
B77
330
36
100
AcDbEntity
  8
0
 62
     7
100
AcDbLine
 10
-205.2657307008725
 20
10.36289201702276
 30
0.0
 11
-205.4157307008725
 21
11.23789201702276
 31
0.0
  0
LINE
  5
B78
330
36
100
AcDbEntity
  8
0
 62
     7
100
AcDbLine
 10
-205.4157307008725
 20
13.48789201702276
 30
0.0
 11
-205.2657307008725
 21
14.36289201702276
 31
0.0
  0
LINE
  5
B79
330
36
100
AcDbEntity
  8
0
 62
     7
100
AcDbLine
 10
-206.1157307008725
 20
13.48789201702276
 30
0.0
 11
-206.2657307008725
 21
14.36289201702276
 31
0.0
  0
LINE
  5
B7A
330
36
100
AcDbEntity
  8
0
 62
     7
100
AcDbLine
 10
-206.1157307008725
 20
11.23789201702276
 30
0.0
 11
-206.2657307008725
 21
10.36289201702276
 31
0.0
  0
CIRCLE
  5
B7B
330
36
100
AcDbEntity
  8
0
 62
     3
100
AcDbCircle
 10
-200.6157307008725
 20
12.36289201702276
 30
0.0
 40
15.25
  0
CIRCLE
  5
B7C
330
36
100
AcDbEntity
  8
0
 62
     3
100
AcDbCircle
 10
-200.6157307008725
 20
12.36289201702276
 30
0.0
 40
13.25
  0
LINE
  5
B7D
330
36
100
AcDbEntity
  8
0
 62
     7
100
AcDbLine
 10
-231.6534077008725
 20
18.04018301702275
 30
0.0
 11
-240.6534077008725
 21
18.04018301702275
 31
0.0
  0
LINE
  5
B7E
330
36
100
AcDbEntity
  8
0
 62
     7
100
AcDbLine
 10
-231.6534077008725
 20
17.04018301702277
 30
0.0
 11
-240.6534077008725
 21
17.04018301702277
 31
0.0
  0
LINE
  5
B7F
330
36
100
AcDbEntity
  8
0
 62
     7
100
AcDbLine
 10
-231.5284077008725
 20
14.39018301702276
 30
0.0
 11
-240.6534077008725
 21
14.39018301702276
 31
0.0
  0
LINE
  5
B80
330
36
100
AcDbEntity
  8
0
 62
     7
100
AcDbLine
 10
-231.5284077008725
 20
10.39018301702276
 30
0.0
 11
-240.6534077008725
 21
10.39018301702276
 31
0.0
  0
LINE
  5
B81
330
36
100
AcDbEntity
  8
0
 62
     7
100
AcDbLine
 10
-230.0284077008725
 20
9.640183017022764
 30
0.0
 11
-240.6534077008725
 21
9.640183017022764
 31
0.0
  0
LINE
  5
B82
330
36
100
AcDbEntity
  8
0
 62
     7
100
AcDbLine
 10
-230.0284077008725
 20
5.640183017022764
 30
0.0
 11
-240.6534077008725
 21
5.640183017022764
 31
0.0
  0
LINE
  5
B83
330
36
100
AcDbEntity
  8
0
 62
     7
100
AcDbLine
 10
-229.1534077008725
 20
8.765183017022764
 30
0.0
 11
-229.1534077008725
 21
6.515183017022764
 31
0.0
  0
LINE
  5
B84
330
36
100
AcDbEntity
  8
0
 62
     7
100
AcDbLine
 10
-230.6534077008725
 20
17.89018301702276
 30
0.0
 11
-230.6534077008725
 21
17.19018301702276
 31
0.0
  0
LINE
  5
B85
330
36
100
AcDbEntity
  8
0
 62
     7
100
AcDbLine
 10
-230.6534077008725
 20
13.51518301702276
 30
0.0
 11
-230.6534077008725
 21
11.26518301702276
 31
0.0
  0
LINE
  5
B86
330
36
100
AcDbEntity
  8
0
 62
     7
100
AcDbLine
 10
-230.1534077008725
 20
9.640183017022764
 30
0.0
 11
-230.1534077008725
 21
5.640183017022764
 31
0.0
  0
LINE
  5
B87
330
36
100
AcDbEntity
  8
0
 62
     7
100
AcDbLine
 10
-231.6534077008725
 20
14.39018301702276
 30
0.0
 11
-231.6534077008725
 21
10.39018301702276
 31
0.0
  0
LINE
  5
B88
330
36
100
AcDbEntity
  8
0
 62
     7
100
AcDbLine
 10
-231.6534077008725
 20
18.04018301702275
 30
0.0
 11
-231.6534077008725
 21
17.04018301702277
 31
0.0
  0
LINE
  5
B89
330
36
100
AcDbEntity
  8
0
 62
     7
100
AcDbLine
 10
-230.0284077008725
 20
9.640183017022764
 30
0.0
 11
-229.1534077008725
 21
8.765183017022764
 31
0.0
  0
LINE
  5
B8A
330
36
100
AcDbEntity
  8
0
 62
     7
100
AcDbLine
 10
-230.0284077008725
 20
5.640183017022764
 30
0.0
 11
-229.1534077008725
 21
6.515183017022764
 31
0.0
  0
LINE
  5
B8B
330
36
100
AcDbEntity
  8
0
 62
     7
100
AcDbLine
 10
-230.6534077008725
 20
11.26518301702276
 30
0.0
 11
-231.5284077008725
 21
10.39018301702276
 31
0.0
  0
LINE
  5
B8C
330
36
100
AcDbEntity
  8
0
 62
     7
100
AcDbLine
 10
-231.5284077008725
 20
14.39018301702276
 30
0.0
 11
-230.6534077008725
 21
13.51518301702276
 31
0.0
  0
LINE
  5
B8D
330
36
100
AcDbEntity
  8
0
 62
     7
100
AcDbLine
 10
-231.6534077008725
 20
18.04018301702275
 30
0.0
 11
-230.6534077008725
 21
17.89018301702276
 31
0.0
  0
LINE
  5
B8E
330
36
100
AcDbEntity
  8
0
 62
     7
100
AcDbLine
 10
-230.6534077008725
 20
17.19018301702276
 30
0.0
 11
-231.6534077008725
 21
17.04018301702277
 31
0.0
  0
LINE
  5
B8F
330
36
100
AcDbEntity
  8
0
 62
     7
100
AcDbLine
 10
-241.6529507008725
 20
26.39135401702276
 30
0.0
 11
-241.6529507008725
 21
-1.608645982977236
 31
0.0
  0
LINE
  5
B90
330
36
100
AcDbEntity
  8
0
 62
     7
100
AcDbLine
 10
-246.1529507008725
 20
26.39135401702276
 30
0.0
 11
-246.1529507008725
 21
-1.608645982977236
 31
0.0
  0
LINE
  5
B91
330
36
100
AcDbEntity
  8
0
 62
     7
100
AcDbLine
 10
-250.1529507008725
 20
24.89135401702276
 30
0.0
 11
-250.1529507008725
 21
-0.1086459829772366
 31
0.0
  0
LINE
  5
B92
330
36
100
AcDbEntity
  8
0
 62
     7
100
AcDbLine
 10
-254.1529507008725
 20
17.39135401702276
 30
0.0
 11
-250.1529507008725
 21
17.39135401702276
 31
0.0
  0
ARC
  5
B93
330
36
100
AcDbEntity
  8
0
 62
     7
100
AcDbCircle
 10
-254.1529507008725
 20
12.39135401702276
 30
0.0
 40
5.0
100
AcDbArc
 50
90.0
 51
270.0
  0
LINE
  5
B94
330
36
100
AcDbEntity
  8
0
 62
     7
100
AcDbLine
 10
-254.1529507008725
 20
7.391354017022763
 30
0.0
 11
-250.1529507008725
 21
7.391354017022763
 31
0.0
  0
LINE
  5
B95
330
36
100
AcDbEntity
  8
0
 62
     7
100
AcDbLine
 10
-252.5464127008725
 20
10.15544001702275
 30
0.0
 11
-251.9168827008725
 21
9.563148017022768
 31
0.0
  0
LINE
  5
B96
330
36
100
AcDbEntity
  8
0
 62
     7
100
AcDbLine
 10
-251.9168827008725
 20
9.563148017022768
 30
0.0
 11
-252.7313027008725
 21
10.03335301702276
 31
0.0
  0
LINE
  5
B97
330
36
100
AcDbEntity
  8
0
 62
     7
100
AcDbLine
 10
-253.2437907008725
 20
10.32923801702276
 30
0.0
 11
-256.4029507008725
 21
12.15318001702276
 31
0.0
  0
ARC
  5
B98
330
36
100
AcDbEntity
  8
0
 62
     7
100
AcDbCircle
 10
-254.1529507008725
 20
12.38737501702276
 30
0.0
 40
2.25
100
AcDbArc
 50
186.1670469999997
 51
293.8329529999995
  0
ARC
  5
B99
330
36
100
AcDbEntity
  8
0
 62
     7
100
AcDbCircle
 10
-254.1529507008725
 20
12.38737501702276
 30
0.0
 40
2.25
100
AcDbArc
 50
303.2601410000008
 51
353.6206299999997
  0
ARC
  5
B9A
330
36
100
AcDbEntity
  8
0
 62
     7
100
AcDbCircle
 10
-254.1529507008725
 20
12.38737501702276
 30
0.0
 40
2.75
100
AcDbArc
 50
305.7462030000006
 51
120.9686959999992
  0
ARC
  5
B9B
330
36
100
AcDbEntity
  8
0
 62
     7
100
AcDbCircle
 10
-254.1529507008725
 20
12.38737501702276
 30
0.0
 40
2.75
100
AcDbArc
 50
125.7142760000006
 51
301.128751
  0
LINE
  5
B9C
330
36
100
AcDbEntity
  8
0
 62
     7
100
AcDbLine
 10
-254.6529507008725
 20
12.13737501702276
 30
0.0
 11
-252.9189587008725
 21
10.50594901702275
 31
0.0
  0
LINE
  5
B9D
330
36
100
AcDbEntity
  8
0
 62
     7
100
AcDbLine
 10
-255.0544787008725
 20
14.44886601702276
 30
0.0
 11
-251.9168827008725
 21
12.63737501702276
 31
0.0
  0
ARC
  5
B9E
330
36
100
AcDbEntity
  8
0
 62
     7
100
AcDbCircle
 10
-254.1529507008725
 20
12.38737501702276
 30
0.0
 40
2.25
100
AcDbArc
 50
6.379370000000257
 51
113.6206299999998
  0
LINE
  5
B9F
330
36
100
AcDbEntity
  8
0
 62
     7
100
AcDbLine
 10
-251.9168827008725
 20
12.13737501702276
 30
0.0
 11
-254.6529507008725
 21
12.13737501702276
 31
0.0
  0
LINE
  5
BA0
330
36
100
AcDbEntity
  8
0
 62
     7
100
AcDbLine
 10
-253.6529507008725
 20
12.63737501702276
 30
0.0
 11
-256.3890187008725
 21
12.63737501702276
 31
0.0
  0
LINE
  5
BA1
330
36
100
AcDbEntity
  8
0
 62
     7
100
AcDbLine
 10
-256.4029507008725
 20
15.22740701702275
 30
0.0
 11
-255.5680177008725
 21
14.74535801702276
 31
0.0
  0
LINE
  5
BA2
330
36
100
AcDbEntity
  8
0
 62
     7
100
AcDbLine
 10
-256.4029507008725
 20
15.22740701702275
 30
0.0
 11
-255.7582457008725
 21
14.62020401702275
 31
0.0
  0
LINE
  5
BA3
330
36
100
AcDbEntity
  8
0
 62
     7
100
AcDbLine
 10
-255.3858787008725
 20
14.26949801702275
 30
0.0
 11
-253.6529507008725
 21
12.63737501702276
 31
0.0
  0
ARC
  5
BA4
330
36
100
AcDbEntity
  8
0
 62
     7
100
AcDbCircle
 10
-254.1529507008725
 20
12.38737501702276
 30
0.0
 40
2.25
100
AcDbArc
 50
123.2277170000001
 51
173.6206299999997
  0
LINE
  5
BA5
330
36
100
AcDbEntity
  8
0
 62
     7
100
AcDbLine
 10
-254.1529507008725
 20
16.14135401702276
 30
0.0
 11
-250.1529507008725
 21
16.14135401702276
 31
0.0
  0
ARC
  5
BA6
330
36
100
AcDbEntity
  8
0
 62
     7
100
AcDbCircle
 10
-254.1529507008725
 20
12.39135401702276
 30
0.0
 40
3.75
100
AcDbArc
 50
90.0
 51
270.0
  0
LINE
  5
BA7
330
36
100
AcDbEntity
  8
0
 62
     7
100
AcDbLine
 10
-254.1529507008725
 20
8.641354017022763
 30
0.0
 11
-250.1529507008725
 21
8.641354017022763
 31
0.0
  0
LINE
  5
BA8
330
36
100
AcDbEntity
  8
0
 62
     7
100
AcDbLine
 10
-279.4029507008725
 20
15.34135401702275
 30
0.0
 11
-279.4029507008725
 21
17.11635401702276
 31
0.0
  0
LINE
  5
BA9
330
36
100
AcDbEntity
  8
0
 62
     7
100
AcDbLine
 10
-279.4029507008725
 20
15.34135401702275
 30
0.0
 11
-279.4029507008725
 21
13.14135401702276
 31
0.0
  0
LINE
  5
BAA
330
36
100
AcDbEntity
  8
0
 62
     7
100
AcDbLine
 10
-280.9029507008726
 20
15.34135401702275
 30
0.0
 11
-279.4029507008725
 21
15.34135401702275
 31
0.0
  0
LINE
  5
BAB
330
36
100
AcDbEntity
  8
0
 62
     7
100
AcDbLine
 10
-280.9029507008726
 20
15.34135401702275
 30
0.0
 11
-280.9029507008726
 21
17.09135401702275
 31
0.0
  0
LINE
  5
BAC
330
36
100
AcDbEntity
  8
0
 62
     7
100
AcDbLine
 10
-282.4029507008725
 20
15.34135401702275
 30
0.0
 11
-282.4029507008725
 21
17.06635401702276
 31
0.0
  0
LINE
  5
BAD
330
36
100
AcDbEntity
  8
0
 62
     7
100
AcDbLine
 10
-283.9029507008725
 20
15.34135401702275
 30
0.0
 11
-283.9029507008725
 21
17.04135401702277
 31
0.0
  0
LINE
  5
BAE
330
36
100
AcDbEntity
  8
0
 62
     7
100
AcDbLine
 10
-285.4029507008725
 20
15.34135401702275
 30
0.0
 11
-285.4029507008725
 21
17.01635401702276
 31
0.0
  0
LINE
  5
BAF
330
36
100
AcDbEntity
  8
0
 62
     7
100
AcDbLine
 10
-286.9029507008725
 20
15.34135401702275
 30
0.0
 11
-286.9029507008725
 21
16.99135401702276
 31
0.0
  0
LINE
  5
BB0
330
36
100
AcDbEntity
  8
0
 62
     7
100
AcDbLine
 10
-288.4029507008725
 20
15.34135401702275
 30
0.0
 11
-288.4029507008725
 21
16.96635401702275
 31
0.0
  0
LINE
  5
BB1
330
36
100
AcDbEntity
  8
0
 62
     7
100
AcDbLine
 10
-289.9029507008725
 20
15.34135401702275
 30
0.0
 11
-289.9029507008725
 21
16.94135401702276
 31
0.0
  0
LINE
  5
BB2
330
36
100
AcDbEntity
  8
0
 62
     7
100
AcDbLine
 10
-289.9029507008725
 20
9.44135401702276
 30
0.0
 11
-289.9029507008725
 21
7.841354017022752
 31
0.0
  0
LINE
  5
BB3
330
36
100
AcDbEntity
  8
0
 62
     7
100
AcDbLine
 10
-288.4029507008725
 20
9.44135401702276
 30
0.0
 11
-288.4029507008725
 21
7.81635401702276
 31
0.0
  0
LINE
  5
BB4
330
36
100
AcDbEntity
  8
0
 62
     7
100
AcDbLine
 10
-286.9029507008725
 20
9.44135401702276
 30
0.0
 11
-286.9029507008725
 21
7.791354017022769
 31
0.0
  0
LINE
  5
BB5
330
36
100
AcDbEntity
  8
0
 62
     7
100
AcDbLine
 10
-285.4029507008725
 20
9.44135401702276
 30
0.0
 11
-285.4029507008725
 21
7.766354017022763
 31
0.0
  0
LINE
  5
BB6
330
36
100
AcDbEntity
  8
0
 62
     7
100
AcDbLine
 10
-283.9029507008725
 20
9.44135401702276
 30
0.0
 11
-283.9029507008725
 21
7.741354017022757
 31
0.0
  0
LINE
  5
BB7
330
36
100
AcDbEntity
  8
0
 62
     7
100
AcDbLine
 10
-282.4029507008725
 20
9.44135401702276
 30
0.0
 11
-282.4029507008725
 21
7.716354017022752
 31
0.0
  0
LINE
  5
BB8
330
36
100
AcDbEntity
  8
0
 62
     7
100
AcDbLine
 10
-280.9029507008726
 20
9.44135401702276
 30
0.0
 11
-280.9029507008726
 21
7.69135401702276
 31
0.0
  0
LINE
  5
BB9
330
36
100
AcDbEntity
  8
0
 62
     7
100
AcDbLine
 10
-279.4029507008725
 20
9.44135401702276
 30
0.0
 11
-279.4029507008725
 21
7.666354017022769
 31
0.0
  0
LINE
  5
BBA
330
36
100
AcDbEntity
  8
0
 62
     7
100
AcDbLine
 10
-288.4029507008725
 20
13.14135401702276
 30
0.0
 11
-289.9029507008725
 21
13.14135401702276
 31
0.0
  0
LINE
  5
BBB
330
36
100
AcDbEntity
  8
0
 62
     7
100
AcDbLine
 10
-288.4029507008725
 20
11.64135401702276
 30
0.0
 11
-289.9029507008725
 21
11.64135401702276
 31
0.0
  0
LINE
  5
BBC
330
36
100
AcDbEntity
  8
0
 62
     7
100
AcDbLine
 10
-285.4029507008725
 20
13.14135401702276
 30
0.0
 11
-286.9029507008725
 21
13.14135401702276
 31
0.0
  0
LINE
  5
BBD
330
36
100
AcDbEntity
  8
0
 62
     7
100
AcDbLine
 10
-285.4029507008725
 20
11.64135401702276
 30
0.0
 11
-286.9029507008725
 21
11.64135401702276
 31
0.0
  0
LINE
  5
BBE
330
36
100
AcDbEntity
  8
0
 62
     7
100
AcDbLine
 10
-279.4029507008725
 20
13.14135401702276
 30
0.0
 11
-280.9029507008726
 21
13.14135401702276
 31
0.0
  0
LINE
  5
BBF
330
36
100
AcDbEntity
  8
0
 62
     7
100
AcDbLine
 10
-282.4029507008725
 20
13.14135401702276
 30
0.0
 11
-283.9029507008725
 21
13.14135401702276
 31
0.0
  0
LINE
  5
BC0
330
36
100
AcDbEntity
  8
0
 62
     7
100
AcDbLine
 10
-279.4029507008725
 20
11.64135401702276
 30
0.0
 11
-280.9029507008726
 21
11.64135401702276
 31
0.0
  0
LINE
  5
BC1
330
36
100
AcDbEntity
  8
0
 62
     7
100
AcDbLine
 10
-282.4029507008725
 20
11.64135401702276
 30
0.0
 11
-283.9029507008725
 21
11.64135401702276
 31
0.0
  0
LINE
  5
BC2
330
36
100
AcDbEntity
  8
0
 62
     7
100
AcDbLine
 10
-288.4029507008725
 20
15.34135401702275
 30
0.0
 11
-288.4029507008725
 21
13.14135401702276
 31
0.0
  0
LINE
  5
BC3
330
36
100
AcDbEntity
  8
0
 62
     7
100
AcDbLine
 10
-288.4029507008725
 20
11.64135401702276
 30
0.0
 11
-288.4029507008725
 21
9.44135401702276
 31
0.0
  0
LINE
  5
BC4
330
36
100
AcDbEntity
  8
0
 62
     7
100
AcDbLine
 10
-285.4029507008725
 20
15.34135401702275
 30
0.0
 11
-285.4029507008725
 21
13.14135401702276
 31
0.0
  0
LINE
  5
BC5
330
36
100
AcDbEntity
  8
0
 62
     7
100
AcDbLine
 10
-285.4029507008725
 20
11.64135401702276
 30
0.0
 11
-285.4029507008725
 21
9.44135401702276
 31
0.0
  0
LINE
  5
BC6
330
36
100
AcDbEntity
  8
0
 62
     7
100
AcDbLine
 10
-282.4029507008725
 20
15.34135401702275
 30
0.0
 11
-282.4029507008725
 21
13.14135401702276
 31
0.0
  0
LINE
  5
BC7
330
36
100
AcDbEntity
  8
0
 62
     7
100
AcDbLine
 10
-282.4029507008725
 20
11.64135401702276
 30
0.0
 11
-282.4029507008725
 21
9.44135401702276
 31
0.0
  0
LINE
  5
BC8
330
36
100
AcDbEntity
  8
0
 62
     7
100
AcDbLine
 10
-283.9029507008725
 20
15.34135401702275
 30
0.0
 11
-283.9029507008725
 21
13.14135401702276
 31
0.0
  0
LINE
  5
BC9
330
36
100
AcDbEntity
  8
0
 62
     7
100
AcDbLine
 10
-283.9029507008725
 20
11.64135401702276
 30
0.0
 11
-283.9029507008725
 21
9.44135401702276
 31
0.0
  0
LINE
  5
BCA
330
36
100
AcDbEntity
  8
0
 62
     7
100
AcDbLine
 10
-280.9029507008726
 20
15.34135401702275
 30
0.0
 11
-280.9029507008726
 21
13.14135401702276
 31
0.0
  0
LINE
  5
BCB
330
36
100
AcDbEntity
  8
0
 62
     7
100
AcDbLine
 10
-280.9029507008726
 20
11.64135401702276
 30
0.0
 11
-280.9029507008726
 21
9.44135401702276
 31
0.0
  0
LINE
  5
BCC
330
36
100
AcDbEntity
  8
0
 62
     7
100
AcDbLine
 10
-279.4029507008725
 20
11.64135401702276
 30
0.0
 11
-279.4029507008725
 21
9.44135401702276
 31
0.0
  0
LINE
  5
BCD
330
36
100
AcDbEntity
  8
0
 62
     7
100
AcDbLine
 10
-286.9029507008725
 20
15.34135401702275
 30
0.0
 11
-286.9029507008725
 21
13.14135401702276
 31
0.0
  0
LINE
  5
BCE
330
36
100
AcDbEntity
  8
0
 62
     7
100
AcDbLine
 10
-286.9029507008725
 20
11.64135401702276
 30
0.0
 11
-286.9029507008725
 21
9.44135401702276
 31
0.0
  0
LINE
  5
BCF
330
36
100
AcDbEntity
  8
0
 62
     7
100
AcDbLine
 10
-289.9029507008725
 20
15.34135401702275
 30
0.0
 11
-289.9029507008725
 21
13.14135401702276
 31
0.0
  0
LINE
  5
BD0
330
36
100
AcDbEntity
  8
0
 62
     7
100
AcDbLine
 10
-289.9029507008725
 20
11.64135401702276
 30
0.0
 11
-289.9029507008725
 21
9.44135401702276
 31
0.0
  0
LINE
  5
BD1
330
36
100
AcDbEntity
  8
0
 62
     7
100
AcDbLine
 10
-289.9029507008725
 20
15.34135401702275
 30
0.0
 11
-288.4029507008725
 21
15.34135401702275
 31
0.0
  0
LINE
  5
BD2
330
36
100
AcDbEntity
  8
0
 62
     7
100
AcDbLine
 10
-289.9029507008725
 20
9.44135401702276
 30
0.0
 11
-288.4029507008725
 21
9.44135401702276
 31
0.0
  0
LINE
  5
BD3
330
36
100
AcDbEntity
  8
0
 62
     7
100
AcDbLine
 10
-286.9029507008725
 20
15.34135401702275
 30
0.0
 11
-285.4029507008725
 21
15.34135401702275
 31
0.0
  0
LINE
  5
BD4
330
36
100
AcDbEntity
  8
0
 62
     7
100
AcDbLine
 10
-286.9029507008725
 20
9.44135401702276
 30
0.0
 11
-285.4029507008725
 21
9.44135401702276
 31
0.0
  0
LINE
  5
BD5
330
36
100
AcDbEntity
  8
0
 62
     7
100
AcDbLine
 10
-283.9029507008725
 20
15.34135401702275
 30
0.0
 11
-282.4029507008725
 21
15.34135401702275
 31
0.0
  0
LINE
  5
BD6
330
36
100
AcDbEntity
  8
0
 62
     7
100
AcDbLine
 10
-283.9029507008725
 20
9.44135401702276
 30
0.0
 11
-282.4029507008725
 21
9.44135401702276
 31
0.0
  0
LINE
  5
BD7
330
36
100
AcDbEntity
  8
0
 62
     7
100
AcDbLine
 10
-280.9029507008726
 20
9.44135401702276
 30
0.0
 11
-279.4029507008725
 21
9.44135401702276
 31
0.0
  0
LINE
  5
BD8
330
36
100
AcDbEntity
  8
0
 62
     7
100
AcDbLine
 10
-320.3665097008725
 20
17.57395301702276
 30
0.0
 11
-320.3665097008725
 21
13.15349901702276
 31
0.0
  0
LINE
  5
BD9
330
36
100
AcDbEntity
  8
0
 62
     7
100
AcDbLine
 10
-321.8665097008725
 20
15.40349901702277
 30
0.0
 11
-320.3665097008725
 21
15.40349901702277
 31
0.0
  0
LINE
  5
BDA
330
36
100
AcDbEntity
  8
0
 62
     7
100
AcDbLine
 10
-320.3665097008725
 20
7.233044017022763
 30
0.0
 11
-320.3665097008725
 21
11.65349901702277
 31
0.0
  0
LINE
  5
BDB
330
36
100
AcDbEntity
  8
0
 62
     7
100
AcDbLine
 10
-321.8665097008725
 20
7.062590017022756
 30
0.0
 11
-321.8665097008725
 21
11.65349901702277
 31
0.0
  0
LINE
  5
BDC
330
36
100
AcDbEntity
  8
0
 62
     7
100
AcDbLine
 10
-323.3665097008725
 20
6.892135017022752
 30
0.0
 11
-323.3665097008725
 21
11.65349901702277
 31
0.0
  0
LINE
  5
BDD
330
36
100
AcDbEntity
  8
0
 62
     7
100
AcDbLine
 10
-324.8665097008725
 20
6.721680017022762
 30
0.0
 11
-324.8665097008725
 21
11.65349901702277
 31
0.0
  0
LINE
  5
BDE
330
36
100
AcDbEntity
  8
0
 62
     7
100
AcDbLine
 10
-326.3665097008725
 20
11.65349901702277
 30
0.0
 11
-326.3665097008725
 21
6.551226017022756
 31
0.0
  0
LINE
  5
BDF
330
36
100
AcDbEntity
  8
0
 62
     7
100
AcDbLine
 10
-327.8665097008725
 20
11.65349901702277
 30
0.0
 11
-327.8665097008725
 21
6.380771017022766
 31
0.0
  0
LINE
  5
BE0
330
36
100
AcDbEntity
  8
0
 62
     7
100
AcDbLine
 10
-321.8665097008725
 20
11.65349901702277
 30
0.0
 11
-320.3665097008725
 21
11.65349901702277
 31
0.0
  0
LINE
  5
BE1
330
36
100
AcDbEntity
  8
0
 62
     7
100
AcDbLine
 10
-327.8665097008725
 20
11.65349901702277
 30
0.0
 11
-326.3665097008725
 21
11.65349901702277
 31
0.0
  0
LINE
  5
BE2
330
36
100
AcDbEntity
  8
0
 62
     7
100
AcDbLine
 10
-324.8665097008725
 20
11.65349901702277
 30
0.0
 11
-323.3665097008725
 21
11.65349901702277
 31
0.0
  0
LINE
  5
BE3
330
36
100
AcDbEntity
  8
0
 62
     7
100
AcDbLine
 10
-321.8665097008725
 20
9.403499017022767
 30
0.0
 11
-320.3665097008725
 21
9.403499017022767
 31
0.0
  0
LINE
  5
BE4
330
36
100
AcDbEntity
  8
0
 62
     7
100
AcDbLine
 10
-324.8665097008725
 20
9.403499017022767
 30
0.0
 11
-323.3665097008725
 21
9.403499017022767
 31
0.0
  0
LINE
  5
BE5
330
36
100
AcDbEntity
  8
0
 62
     7
100
AcDbLine
 10
-327.8665097008725
 20
9.403499017022767
 30
0.0
 11
-326.3665097008725
 21
9.403499017022767
 31
0.0
  0
LINE
  5
BE6
330
36
100
AcDbEntity
  8
0
 62
     7
100
AcDbLine
 10
-321.8665097008725
 20
17.74440801702276
 30
0.0
 11
-321.8665097008725
 21
13.15349901702276
 31
0.0
  0
LINE
  5
BE7
330
36
100
AcDbEntity
  8
0
 62
     7
100
AcDbLine
 10
-323.3665097008725
 20
17.91486201702275
 30
0.0
 11
-323.3665097008725
 21
13.15349901702276
 31
0.0
  0
LINE
  5
BE8
330
36
100
AcDbEntity
  8
0
 62
     7
100
AcDbLine
 10
-324.8665097008725
 20
18.08531701702276
 30
0.0
 11
-324.8665097008725
 21
13.15349901702276
 31
0.0
  0
LINE
  5
BE9
330
36
100
AcDbEntity
  8
0
 62
     7
100
AcDbLine
 10
-326.3665097008725
 20
13.15349901702276
 30
0.0
 11
-326.3665097008725
 21
18.25577101702277
 31
0.0
  0
LINE
  5
BEA
330
36
100
AcDbEntity
  8
0
 62
     7
100
AcDbLine
 10
-327.8665097008725
 20
13.15349901702276
 30
0.0
 11
-327.8665097008725
 21
18.42622601702275
 31
0.0
  0
LINE
  5
BEB
330
36
100
AcDbEntity
  8
0
 62
     7
100
AcDbLine
 10
-321.8665097008725
 20
13.15349901702276
 30
0.0
 11
-320.3665097008725
 21
13.15349901702276
 31
0.0
  0
LINE
  5
BEC
330
36
100
AcDbEntity
  8
0
 62
     7
100
AcDbLine
 10
-327.8665097008725
 20
13.15349901702276
 30
0.0
 11
-326.3665097008725
 21
13.15349901702276
 31
0.0
  0
LINE
  5
BED
330
36
100
AcDbEntity
  8
0
 62
     7
100
AcDbLine
 10
-324.8665097008725
 20
13.15349901702276
 30
0.0
 11
-323.3665097008725
 21
13.15349901702276
 31
0.0
  0
LINE
  5
BEE
330
36
100
AcDbEntity
  8
0
 62
     7
100
AcDbLine
 10
-324.8665097008725
 20
15.40349901702277
 30
0.0
 11
-323.3665097008725
 21
15.40349901702277
 31
0.0
  0
LINE
  5
BEF
330
36
100
AcDbEntity
  8
0
 62
     7
100
AcDbLine
 10
-327.8665097008725
 20
15.40349901702277
 30
0.0
 11
-326.3665097008725
 21
15.40349901702277
 31
0.0
  0
LINE
  5
BF0
330
36
100
AcDbEntity
  8
0
 62
     7
100
AcDbLine
 10
-349.2866557008725
 20
1.403499017022767
 30
0.0
 11
-349.2866557008725
 21
8.403499017022767
 31
0.0
  0
ARC
  5
BF1
330
36
100
AcDbEntity
  8
0
 62
     7
100
AcDbCircle
 10
-345.9457547008725
 20
12.28697801702276
 30
0.0
 40
2.25
100
AcDbArc
 50
6.634483999999885
 51
114.2196929999985
  0
LINE
  5
BF2
330
36
100
AcDbEntity
  8
0
 62
     7
100
AcDbLine
 10
-346.8687867008725
 20
14.33893101702276
 30
0.0
 11
-343.7127747008725
 21
12.56320801702276
 31
0.0
  0
LINE
  5
BF3
330
36
100
AcDbEntity
  8
0
 62
     7
100
AcDbLine
 10
-347.0684547008725
 20
14.23686101702276
 30
0.0
 11
-345.0718767008725
 21
12.54087101702276
 31
0.0
  0
ARC
  5
BF4
330
36
100
AcDbEntity
  8
0
 62
     7
100
AcDbCircle
 10
-345.9457547008725
 20
12.28697801702276
 30
0.0
 40
2.5
100
AcDbArc
 50
302.3047630000011
 51
118.5813610000002
  0
ARC
  5
BF5
330
36
100
AcDbEntity
  8
0
 62
     7
100
AcDbCircle
 10
-345.9457547008725
 20
12.28697801702276
 30
0.0
 40
2.25
100
AcDbArc
 50
119.9323890000004
 51
173.8757439999999
  0
ARC
  5
BF6
330
36
100
AcDbEntity
  8
0
 62
     7
100
AcDbCircle
 10
-345.9457547008725
 20
12.28697801702276
 30
0.0
 40
2.5
100
AcDbArc
 50
122.3047649999991
 51
298.5813610000002
  0
LINE
  5
BF7
330
36
100
AcDbEntity
  8
0
 62
     7
100
AcDbLine
 10
-347.2818107008725
 20
14.40002101702276
 30
0.0
 11
-347.7068687008725
 21
14.77916101702276
 31
0.0
  0
LINE
  5
BF8
330
36
100
AcDbEntity
  8
0
 62
     7
100
AcDbLine
 10
-347.7068687008725
 20
14.77916101702276
 30
0.0
 11
-347.1568817008725
 21
14.47402401702276
 31
0.0
  0
LINE
  5
BF9
330
36
100
AcDbEntity
  8
0
 62
     7
100
AcDbLine
 10
-348.1829137008725
 20
12.52701901702275
 30
0.0
 11
-345.0718767008725
 21
12.54087101702276
 31
0.0
  0
ARC
  5
BFA
330
36
100
AcDbEntity
  8
0
 62
     7
100
AcDbCircle
 10
-345.9457547008725
 20
12.28697801702276
 30
0.0
 40
2.25
100
AcDbArc
 50
186.6344839999999
 51
294.2196930000015
  0
LINE
  5
BFB
330
36
100
AcDbEntity
  8
0
 62
     7
100
AcDbLine
 10
-345.0227227008725
 20
10.23502501702276
 30
0.0
 11
-348.1806867008725
 21
12.02702401702277
 31
0.0
  0
LINE
  5
BFC
330
36
100
AcDbEntity
  8
0
 62
     7
100
AcDbLine
 10
-344.8230547008725
 20
10.33709501702276
 30
0.0
 11
-346.8196327008725
 21
12.03308401702276
 31
0.0
  0
LINE
  5
BFD
330
36
100
AcDbEntity
  8
0
 62
     7
100
AcDbLine
 10
-346.8196327008725
 20
12.03308401702276
 30
0.0
 11
-343.7085957008725
 21
12.04693701702275
 31
0.0
  0
ARC
  5
BFE
330
36
100
AcDbEntity
  8
0
 62
     7
100
AcDbCircle
 10
-345.9457547008725
 20
12.28697801702276
 30
0.0
 40
2.25
100
AcDbArc
 50
299.9323890000004
 51
353.8757439999999
  0
LINE
  5
BFF
330
36
100
AcDbEntity
  8
0
 62
     7
100
AcDbLine
 10
-344.6096977008725
 20
10.17393401702276
 30
0.0
 11
-344.1846407008725
 21
9.794795017022764
 31
0.0
  0
LINE
  5
C00
330
36
100
AcDbEntity
  8
0
 62
     7
100
AcDbLine
 10
-344.1846407008725
 20
9.794795017022764
 30
0.0
 11
-344.7327487008725
 21
10.10097301702276
 31
0.0
  0
LINE
  5
C01
330
36
100
AcDbEntity
  8
0
 62
     7
100
AcDbLine
 10
-345.8818187008725
 20
16.40349901702277
 30
0.0
 11
-349.2866557008725
 21
16.40349901702277
 31
0.0
  0
LINE
  5
C02
330
36
100
AcDbEntity
  8
0
 62
     7
100
AcDbLine
 10
-345.8818187008725
 20
8.403499017022767
 30
0.0
 11
-349.2866557008725
 21
8.403499017022767
 31
0.0
  0
LINE
  5
C03
330
36
100
AcDbEntity
  8
0
 62
     7
100
AcDbLine
 10
-349.2866557008725
 20
16.40349901702277
 30
0.0
 11
-349.2866557008725
 21
23.40349901702277
 31
0.0
  0
ARC
  5
C04
330
36
100
AcDbEntity
  8
0
 62
     7
100
AcDbCircle
 10
-345.8818187008725
 20
12.40349901702276
 30
0.0
 40
4.0
100
AcDbArc
 50
270.0
 51
90.0
  0
LINE
  5
C05
330
36
100
AcDbEntity
  8
0
 62
     7
100
AcDbLine
 10
-352.7645657008725
 20
14.59170801702277
 30
0.0
 11
-352.7639657008725
 21
14.45697001702277
 31
0.0
  0
ARC
  5
C06
330
36
100
AcDbEntity
  8
0
 62
     7
100
AcDbCircle
 10
-352.5880587008725
 20
14.59249401702276
 30
0.0
 40
0.176509
100
AcDbArc
 50
90.25511400000052
 51
180.2551139999997
  0
LINE
  5
C07
330
36
100
AcDbEntity
  8
0
 62
     7
100
AcDbLine
 10
-352.5888447008725
 20
14.76900101702276
 30
0.0
 11
-350.7213717008725
 21
14.77731601702275
 31
0.0
  0
LINE
  5
C08
330
36
100
AcDbEntity
  8
0
 62
     7
100
AcDbLine
 10
-350.1774597008725
 20
16.08672501702276
 30
0.0
 11
-350.1702537008725
 21
14.46851901702276
 31
0.0
  0
LINE
  5
C09
330
36
100
AcDbEntity
  8
0
 62
     7
100
AcDbLine
 10
-350.5506847008725
 20
16.08506301702276
 30
0.0
 11
-350.1774597008725
 21
16.08672501702276
 31
0.0
  0
LINE
  5
C0A
330
36
100
AcDbEntity
  8
0
 62
     7
100
AcDbLine
 10
-350.5500847008725
 20
15.95032501702276
 30
0.0
 11
-350.5506847008725
 21
16.08506301702276
 31
0.0
  0
ARC
  5
C0B
330
36
100
AcDbEntity
  8
0
 62
     7
100
AcDbCircle
 10
-350.7265917008725
 20
15.94953901702275
 30
0.0
 40
0.176509
100
AcDbArc
 50
270.2551140000005
 51
0.2551139999997059
  0
LINE
  5
C0C
330
36
100
AcDbEntity
  8
0
 62
     7
100
AcDbLine
 10
-353.1343247008725
 20
13.82748801702276
 30
0.0
 11
-353.1275817008725
 21
12.31302901702276
 31
0.0
  0
LINE
  5
C0D
330
36
100
AcDbEntity
  8
0
 62
     7
100
AcDbLine
 10
-353.1343247008725
 20
13.82748801702276
 30
0.0
 11
-352.7586307008725
 21
13.82916001702276
 31
0.0
  0
LINE
  5
C0E
330
36
100
AcDbEntity
  8
0
 62
     7
100
AcDbLine
 10
-352.7581307008725
 20
13.71687901702276
 30
0.0
 11
-352.7586307008725
 21
13.82916001702276
 31
0.0
  0
ARC
  5
C0F
330
36
100
AcDbEntity
  8
0
 62
     7
100
AcDbCircle
 10
-352.5842237008725
 20
13.74707101702276
 30
0.0
 40
0.176509
100
AcDbArc
 50
189.8491820000005
 51
270.2551140000005
  0
LINE
  5
C10
330
36
100
AcDbEntity
  8
0
 62
     7
100
AcDbLine
 10
-352.5834377008725
 20
13.57056401702276
 30
0.0
 11
-350.7159657008725
 21
13.57887901702276
 31
0.0
  0
ARC
  5
C11
330
36
100
AcDbEntity
  8
0
 62
     7
100
AcDbCircle
 10
-350.7167517008725
 20
13.75538601702276
 30
0.0
 40
0.176509
100
AcDbArc
 50
270.2551140000005
 51
350.6610459999996
  0
LINE
  5
C12
330
36
100
AcDbEntity
  8
0
 62
     7
100
AcDbLine
 10
-350.5425817008725
 20
13.72674401702275
 30
0.0
 11
-350.5430817008725
 21
13.83902501702276
 31
0.0
  0
LINE
  5
C13
330
36
100
AcDbEntity
  8
0
 62
     7
100
AcDbLine
 10
-350.5430817008725
 20
13.83902501702276
 30
0.0
 11
-350.1673877008725
 21
13.84069801702276
 31
0.0
  0
LINE
  5
C14
330
36
100
AcDbEntity
  8
0
 62
     7
100
AcDbLine
 10
-350.1673877008725
 20
13.84069801702276
 30
0.0
 11
-350.1606447008725
 21
12.32624001702275
 31
0.0
  0
ARC
  5
C15
330
36
100
AcDbEntity
  8
0
 62
     7
100
AcDbCircle
 10
-352.5940637008726
 20
15.94122401702276
 30
0.0
 40
0.176509
100
AcDbArc
 50
180.2551139999997
 51
270.2551140000005
  0
LINE
  5
C16
330
36
100
AcDbEntity
  8
0
 62
     7
100
AcDbLine
 10
-352.5932777008725
 20
15.76471701702276
 30
0.0
 11
-350.7258057008725
 21
15.77303201702276
 31
0.0
  0
LINE
  5
C17
330
36
100
AcDbEntity
  8
0
 62
     7
100
AcDbLine
 10
-353.1443957008725
 20
16.07351501702275
 30
0.0
 11
-352.7711707008725
 21
16.07517601702275
 31
0.0
  0
LINE
  5
C18
330
36
100
AcDbEntity
  8
0
 62
     7
100
AcDbLine
 10
-352.7705707008725
 20
15.94043801702276
 30
0.0
 11
-352.7711707008725
 21
16.07517601702275
 31
0.0
  0
LINE
  5
C19
330
36
100
AcDbEntity
  8
0
 62
     7
100
AcDbLine
 10
-353.1443957008725
 20
16.07351501702275
 30
0.0
 11
-353.1371907008725
 21
14.45530801702276
 31
0.0
  0
LINE
  5
C1A
330
36
100
AcDbEntity
  8
0
 62
     7
100
AcDbLine
 10
-353.1371907008725
 20
14.45530801702276
 30
0.0
 11
-352.7639657008725
 21
14.45697001702277
 31
0.0
  0
LINE
  5
C1B
330
36
100
AcDbEntity
  8
0
 62
     7
100
AcDbLine
 10
-350.5533697008725
 20
16.68817001702275
 30
0.0
 11
-350.1801447008725
 21
16.68983201702275
 31
0.0
  0
ARC
  5
C1C
330
36
100
AcDbEntity
  8
0
 62
     7
100
AcDbCircle
 10
-350.7304767008725
 20
16.82212301702276
 30
0.0
 40
0.176509
100
AcDbArc
 50
0.2551139999997059
 51
90.25511400000052
  0
LINE
  5
C1D
330
36
100
AcDbEntity
  8
0
 62
     7
100
AcDbLine
 10
-350.5539697008725
 20
16.82290901702276
 30
0.0
 11
-350.5533697008725
 21
16.68817001702275
 31
0.0
  0
LINE
  5
C1E
330
36
100
AcDbEntity
  8
0
 62
     7
100
AcDbLine
 10
-350.1879247008725
 20
18.43717201702276
 30
0.0
 11
-350.1801447008725
 21
16.68983201702275
 31
0.0
  0
LINE
  5
C1F
330
36
100
AcDbEntity
  8
0
 62
     7
100
AcDbLine
 10
-352.5987347008725
 20
16.99031501702276
 30
0.0
 11
-350.7312627008726
 21
16.99863001702276
 31
0.0
  0
LINE
  5
C20
330
36
100
AcDbEntity
  8
0
 62
     7
100
AcDbLine
 10
-352.6759277008725
 20
17.98570701702276
 30
0.0
 11
-350.6629377008725
 21
17.99467001702275
 31
0.0
  0
LINE
  5
C21
330
36
100
AcDbEntity
  8
0
 62
     7
100
AcDbLine
 10
-350.6629377008725
 20
17.99467001702275
 30
0.0
 11
-350.6635417008725
 21
18.13041801702276
 31
0.0
  0
ARC
  5
C22
330
36
100
AcDbEntity
  8
0
 62
     7
100
AcDbCircle
 10
-351.6669457008725
 20
17.43181001702275
 30
0.0
 40
1.22265
100
AcDbArc
 50
34.84706900000083
 51
145.6631589999989
  0
ARC
  5
C23
330
36
100
AcDbEntity
  8
0
 62
     7
100
AcDbCircle
 10
-351.3601477008725
 20
18.43195301702276
 30
0.0
 40
1.172235
100
AcDbArc
 50
0.2551139999997059
 51
72.94636499999959
  0
ARC
  5
C24
330
36
100
AcDbEntity
  8
0
 62
     7
100
AcDbCircle
 10
-351.9826387008725
 20
18.42918101702275
 30
0.0
 40
1.172235
100
AcDbArc
 50
107.5638630000009
 51
180.2551139999997
  0
LINE
  5
C25
330
36
100
AcDbEntity
  8
0
 62
     7
100
AcDbLine
 10
-353.1548617008725
 20
18.42396201702276
 30
0.0
 11
-353.1470817008725
 21
16.67662201702276
 31
0.0
  0
LINE
  5
C26
330
36
100
AcDbEntity
  8
0
 62
     7
100
AcDbLine
 10
-353.1470817008725
 20
16.67662201702276
 30
0.0
 11
-352.7738567008726
 21
16.67828301702276
 31
0.0
  0
LINE
  5
C27
330
36
100
AcDbEntity
  8
0
 62
     7
100
AcDbLine
 10
-352.7744567008725
 20
16.81302201702276
 30
0.0
 11
-352.7738567008726
 21
16.67828301702276
 31
0.0
  0
ARC
  5
C28
330
36
100
AcDbEntity
  8
0
 62
     7
100
AcDbCircle
 10
-352.5979497008725
 20
16.81380801702276
 30
0.0
 40
0.176509
100
AcDbArc
 50
90.25511400000052
 51
180.2551139999997
  0
ARC
  5
C29
330
36
100
AcDbEntity
  8
0
 62
     7
100
AcDbCircle
 10
-350.7205857008725
 20
14.60080901702275
 30
0.0
 40
0.176509
100
AcDbArc
 50
0.2551139999997059
 51
90.25511400000052
  0
LINE
  5
C2A
330
36
100
AcDbEntity
  8
0
 62
     7
100
AcDbLine
 10
-350.5440787008725
 20
14.60159501702276
 30
0.0
 11
-350.5434787008725
 21
14.46685701702276
 31
0.0
  0
LINE
  5
C2B
330
36
100
AcDbEntity
  8
0
 62
     7
100
AcDbLine
 10
-350.5434787008725
 20
14.46685701702276
 30
0.0
 11
-350.1702537008725
 21
14.46851901702276
 31
0.0
  0
LINE
  5
C2C
330
36
100
AcDbEntity
  8
0
 62
     7
100
AcDbLine
 10
-352.6759277008725
 20
17.98570701702276
 30
0.0
 11
-352.6765317008725
 21
18.12145401702276
 31
0.0
  0
ARC
  5
C2D
330
36
100
AcDbEntity
  8
0
 62
     7
100
AcDbCircle
 10
-351.6669457008725
 20
17.43181001702275
 30
0.0
 40
2.218374999999999
100
AcDbArc
 50
72.94636499999959
 51
107.5636800000008
  0
ARC
  5
C2E
330
36
100
AcDbEntity
  8
0
 62
     7
100
AcDbCircle
 10
-351.8585327008725
 20
18.06466201702275
 30
0.0
 40
2.104519999999999
100
AcDbArc
 50
63.93039799999986
 51
109.9457489999993
  0
ARC
  5
C2F
330
36
100
AcDbEntity
  8
0
 62
     7
100
AcDbCircle
 10
-351.6682467008725
 20
22.86685201702275
 30
0.0
 40
1.968491999999999
100
AcDbArc
 50
239.5895270000009
 51
299.6165809999991
  0
ARC
  5
C30
330
36
100
AcDbEntity
  8
0
 62
     7
100
AcDbCircle
 10
-351.6891167008726
 20
21.23179601702276
 30
0.0
 40
1.483482999999997
100
AcDbArc
 50
300.6129539999998
 51
233.2631929999994
  0
ARC
  5
C31
330
36
100
AcDbEntity
  8
0
 62
     7
100
AcDbCircle
 10
-351.6536857008725
 20
19.59699101702276
 30
0.0
 40
1.968491999999999
100
AcDbArc
 50
60.62738699999815
 51
121.0956389999992
  0
ARC
  5
C32
330
36
100
AcDbEntity
  8
0
 62
     7
100
AcDbCircle
 10
-352.6127097008725
 20
21.22864201702276
 30
0.0
 40
0.078971
100
AcDbArc
 50
136.8768850000008
 51
228.844383000001
  0
ARC
  5
C33
330
36
100
AcDbEntity
  8
0
 62
     7
100
AcDbCircle
 10
-350.7550317008725
 20
21.23691301702277
 30
0.0
 40
0.100866
100
AcDbArc
 50
306.2202370000012
 51
48.47693000000105
  0
LINE
  5
C34
330
36
100
AcDbEntity
  8
0
 62
     7
100
AcDbLine
 10
-352.5541917008725
 20
6.988388017022757
 30
0.0
 11
-350.6867187008725
 21
6.996671017022762
 31
0.0
  0
LINE
  5
C35
330
36
100
AcDbEntity
  8
0
 62
     7
100
AcDbLine
 10
-350.5109947008725
 20
7.173961017022762
 30
0.0
 11
-350.5115927008725
 21
7.30869901702276
 31
0.0
  0
ARC
  5
C36
330
36
100
AcDbEntity
  8
0
 62
     7
100
AcDbCircle
 10
-350.6875017008725
 20
7.173178017022763
 30
0.0
 40
0.176509
100
AcDbArc
 50
270.2541139999985
 51
0.2541140000001871
  0
LINE
  5
C37
330
36
100
AcDbEntity
  8
0
 62
     7
100
AcDbLine
 10
-350.5115927008725
 20
7.30869901702276
 30
0.0
 11
-350.1383677008726
 21
7.31035401702276
 31
0.0
  0
LINE
  5
C38
330
36
100
AcDbEntity
  8
0
 62
     7
100
AcDbLine
 10
-350.1311907008725
 20
5.692147017022762
 30
0.0
 11
-350.1383677008726
 21
7.31035401702276
 31
0.0
  0
LINE
  5
C39
330
36
100
AcDbEntity
  8
0
 62
     7
100
AcDbLine
 10
-351.8591877008725
 20
3.013809017022765
 30
0.0
 11
-350.6690177008725
 21
3.019109017022756
 31
0.0
  0
ARC
  5
C3A
330
36
100
AcDbEntity
  8
0
 62
     7
100
AcDbCircle
 10
-350.6698037008725
 20
3.195616017022757
 30
0.0
 40
0.176509
100
AcDbArc
 50
270.2551140000005
 51
0.2551139999997059
  0
LINE
  5
C3B
330
36
100
AcDbEntity
  8
0
 62
     7
100
AcDbLine
 10
-350.1157757008725
 20
2.233337017022762
 30
0.0
 11
-350.1206707008726
 21
3.332802017022757
 31
0.0
  0
ARC
  5
C3C
330
36
100
AcDbEntity
  8
0
 62
     7
100
AcDbCircle
 10
-351.6297107008725
 20
9.069274017022763
 30
0.0
 40
1.483482999999997
100
AcDbArc
 50
137.0079939999992
 51
43.0782340000004
  0
ARC
  5
C3D
330
36
100
AcDbEntity
  8
0
 62
     7
100
AcDbCircle
 10
-351.6226067008725
 20
-0.3719279829772404
 30
0.0
 40
10.50969
100
AcDbArc
 50
84.12111999999998
 51
87.94914800000098
  0
LINE
  5
C3E
330
36
100
AcDbEntity
  8
0
 62
     7
100
AcDbLine
 10
-351.2459727008725
 20
9.427403017022754
 30
0.0
 11
-351.2465017008725
 21
10.13103001702276
 31
0.0
  0
LINE
  5
C40
330
36
100
AcDbEntity
  8
0
 62
     7
100
AcDbLine
 10
-352.0139877008725
 20
9.426825017022764
 30
0.0
 11
-352.0145177008725
 21
10.13045201702276
 31
0.0
  0
ARC
  5
C41
330
36
100
AcDbEntity
  8
0
 62
     7
100
AcDbCircle
 10
-351.6226067008725
 20
-0.3719279829772404
 30
0.0
 40
10.50969
100
AcDbArc
 50
92.1370799999987
 51
95.96510800000206
  0
ARC
  5
C42
330
36
100
AcDbEntity
  8
0
 62
     7
100
AcDbCircle
 10
-352.5549747008725
 20
7.164895017022757
 30
0.0
 40
0.176509
100
AcDbArc
 50
180.2541419999998
 51
270.2541139999985
  0
LINE
  5
C43
330
36
100
AcDbEntity
  8
0
 62
     7
100
AcDbLine
 10
-353.1053047008725
 20
7.297195017022758
 30
0.0
 11
-352.7320797008725
 21
7.298851017022755
 31
0.0
  0
LINE
  5
C44
330
36
100
AcDbEntity
  8
0
 62
     7
100
AcDbLine
 10
-353.0981277008725
 20
5.67898801702276
 30
0.0
 11
-353.1053047008725
 21
7.297195017022758
 31
0.0
  0
LINE
  5
C45
330
36
100
AcDbEntity
  8
0
 62
     7
100
AcDbLine
 10
-352.7314817008725
 20
7.164112017022759
 30
0.0
 11
-352.7320797008725
 21
7.298851017022755
 31
0.0
  0
ARC
  5
C46
330
36
100
AcDbEntity
  8
0
 62
     7
100
AcDbCircle
 10
-352.5489837008725
 20
5.816152017022758
 30
0.0
 40
0.176509
100
AcDbArc
 50
90.25491700000046
 51
180.2548880000001
  0
LINE
  5
C47
330
36
100
AcDbEntity
  8
0
 62
     7
100
AcDbLine
 10
-352.5497687008725
 20
5.992659017022759
 30
0.0
 11
-350.6822957008725
 21
6.000968017022756
 31
0.0
  0
ARC
  5
C48
330
36
100
AcDbEntity
  8
0
 62
     7
100
AcDbCircle
 10
-350.6815197008725
 20
5.824447017022762
 30
0.0
 40
0.176509
100
AcDbArc
 50
0.2541140000001871
 51
90.25411399999853
  0
LINE
  5
C49
330
36
100
AcDbEntity
  8
0
 62
     7
100
AcDbLine
 10
-350.5044157008725
 20
5.690492017022762
 30
0.0
 11
-350.1311907008725
 21
5.692147017022762
 31
0.0
  0
LINE
  5
C4A
330
36
100
AcDbEntity
  8
0
 62
     7
100
AcDbLine
 10
-350.5050127008725
 20
5.825230017022761
 30
0.0
 11
-350.5044157008725
 21
5.690492017022762
 31
0.0
  0
LINE
  5
C4B
330
36
100
AcDbEntity
  8
0
 62
     7
100
AcDbLine
 10
-353.0981277008725
 20
5.67898801702276
 30
0.0
 11
-352.7249027008725
 21
5.680644017022757
 31
0.0
  0
LINE
  5
C4C
330
36
100
AcDbEntity
  8
0
 62
     7
100
AcDbLine
 10
-352.7254997008725
 20
5.815382017022756
 30
0.0
 11
-352.7249027008725
 21
5.680644017022757
 31
0.0
  0
LINE
  5
C4D
330
36
100
AcDbEntity
  8
0
 62
     7
100
AcDbLine
 10
-350.4938957008725
 20
3.331140017022761
 30
0.0
 11
-350.1206707008726
 21
3.332802017022757
 31
0.0
  0
LINE
  5
C4E
330
36
100
AcDbEntity
  8
0
 62
     7
100
AcDbLine
 10
-350.4932957008725
 20
3.196402017022762
 30
0.0
 11
-350.4938957008725
 21
3.331140017022761
 31
0.0
  0
LINE
  5
C4F
330
36
100
AcDbEntity
  8
0
 62
     7
100
AcDbLine
 10
-351.8591877008725
 20
3.013809017022765
 30
0.0
 11
-350.1241267008725
 21
4.108996017022761
 31
0.0
  0
LINE
  5
C50
330
36
100
AcDbEntity
  8
0
 62
     7
100
AcDbLine
 10
-350.1241267008725
 20
4.108996017022761
 30
0.0
 11
-350.1273697008725
 21
4.837155017022766
 31
0.0
  0
LINE
  5
C51
330
36
100
AcDbEntity
  8
0
 62
     7
100
AcDbLine
 10
-352.4408257008726
 20
4.826854017022753
 30
0.0
 11
-350.1273697008725
 21
4.837155017022766
 31
0.0
  0
ARC
  5
C52
330
36
100
AcDbEntity
  8
0
 62
     7
100
AcDbCircle
 10
-352.4420737008725
 20
5.107109017022764
 30
0.0
 40
0.280258
100
AcDbArc
 50
173.9065400000002
 51
270.2551140000005
  0
LINE
  5
C53
330
36
100
AcDbEntity
  8
0
 62
     7
100
AcDbLine
 10
-353.0956917008725
 20
5.135189017022753
 30
0.0
 11
-352.7207487008725
 21
5.136859017022757
 31
0.0
  0
LINE
  5
C54
330
36
100
AcDbEntity
  8
0
 62
     7
100
AcDbLine
 10
-353.0907967008725
 20
4.035725017022755
 30
0.0
 11
-353.0956917008725
 21
5.135189017022753
 31
0.0
  0
LINE
  5
C55
330
36
100
AcDbEntity
  8
0
 62
     7
100
AcDbLine
 10
-353.0907967008725
 20
4.035725017022755
 30
0.0
 11
-352.7175717008725
 21
4.037387017022751
 31
0.0
  0
LINE
  5
C56
330
36
100
AcDbEntity
  8
0
 62
     7
100
AcDbLine
 10
-352.7175717008725
 20
4.037387017022751
 30
0.0
 11
-352.7181717008725
 21
4.172125017022764
 31
0.0
  0
ARC
  5
C57
330
36
100
AcDbEntity
  8
0
 62
     7
100
AcDbCircle
 10
-352.5416647008725
 20
4.172911017022755
 30
0.0
 40
0.176509
100
AcDbArc
 50
90.25511400000052
 51
180.2551139999997
  0
LINE
  5
C58
330
36
100
AcDbEntity
  8
0
 62
     7
100
AcDbLine
 10
-351.7483627008725
 20
4.352954017022767
 30
0.0
 11
-352.5424497008725
 21
4.349418017022756
 31
0.0
  0
LINE
  5
C59
330
36
100
AcDbEntity
  8
0
 62
     7
100
AcDbLine
 10
-351.7483627008725
 20
4.352954017022767
 30
0.0
 11
-353.0882557008725
 21
3.465089017022762
 31
0.0
  0
LINE
  5
C5A
330
36
100
AcDbEntity
  8
0
 62
     7
100
AcDbLine
 10
-353.0827127008726
 20
2.220127017022761
 30
0.0
 11
-353.0882557008725
 21
3.465089017022762
 31
0.0
  0
LINE
  5
C5B
330
36
100
AcDbEntity
  8
0
 62
     7
100
AcDbLine
 10
-350.7041407008725
 20
10.92318801702276
 30
0.0
 11
-352.5716127008725
 21
10.91487301702275
 31
0.0
  0
LINE
  5
C5C
330
36
100
AcDbEntity
  8
0
 62
     7
100
AcDbLine
 10
-353.1201907008725
 20
10.65305401702275
 30
0.0
 11
-353.1269337008725
 21
12.16751201702276
 31
0.0
  0
ARC
  5
C5D
330
36
100
AcDbEntity
  8
0
 62
     7
100
AcDbCircle
 10
-352.5710577008725
 20
10.79024001702276
 30
0.0
 40
0.124634
100
AcDbArc
 50
90.25511400000052
 51
180.2551139999997
  0
LINE
  5
C5E
330
36
100
AcDbEntity
  8
0
 62
     7
100
AcDbLine
 10
-352.6956907008726
 20
10.78968501702276
 30
0.0
 11
-352.6950907008725
 21
10.65494701702276
 31
0.0
  0
LINE
  5
C5F
330
36
100
AcDbEntity
  8
0
 62
     7
100
AcDbLine
 10
-352.6950907008725
 20
10.65494701702276
 30
0.0
 11
-353.1201907008725
 21
10.65305401702275
 31
0.0
  0
ARC
  5
C60
330
36
100
AcDbEntity
  8
0
 62
     7
100
AcDbCircle
 10
-350.7035857008725
 20
10.79855501702276
 30
0.0
 40
0.124634
100
AcDbArc
 50
0.2551139999997059
 51
90.25511400000052
  0
LINE
  5
C61
330
36
100
AcDbEntity
  8
0
 62
     7
100
AcDbLine
 10
-350.5789527008725
 20
10.79911001702275
 30
0.0
 11
-350.5783527008725
 21
10.66437201702275
 31
0.0
  0
LINE
  5
C62
330
36
100
AcDbEntity
  8
0
 62
     7
100
AcDbLine
 10
-350.1532537008725
 20
10.66626401702277
 30
0.0
 11
-350.5783527008725
 21
10.66437201702275
 31
0.0
  0
LINE
  5
C63
330
36
100
AcDbEntity
  8
0
 62
     7
100
AcDbLine
 10
-350.1532537008725
 20
10.66626401702277
 30
0.0
 11
-350.1599967008725
 21
12.18072301702276
 31
0.0
  0
ARC
  5
C64
330
36
100
AcDbEntity
  8
0
 62
     7
100
AcDbCircle
 10
-352.5782187008725
 20
12.39834101702276
 30
0.0
 40
0.176509
100
AcDbArc
 50
90.25511400000052
 51
170.6610459999996
  0
LINE
  5
C65
330
36
100
AcDbEntity
  8
0
 62
     7
100
AcDbLine
 10
-352.7523877008726
 20
12.42698401702276
 30
0.0
 11
-352.7518877008725
 21
12.31470201702277
 31
0.0
  0
LINE
  5
C66
330
36
100
AcDbEntity
  8
0
 62
     7
100
AcDbLine
 10
-351.8837547008725
 20
12.57794401702276
 30
0.0
 11
-352.5790047008725
 21
12.57484801702276
 31
0.0
  0
LINE
  5
C67
330
36
100
AcDbEntity
  8
0
 62
     7
100
AcDbLine
 10
-351.8837547008725
 20
12.57794401702276
 30
0.0
 11
-351.8807967008725
 21
11.91368401702276
 31
0.0
  0
LINE
  5
C68
330
36
100
AcDbEntity
  8
0
 62
     7
100
AcDbLine
 10
-351.4067817008726
 20
12.58006801702277
 30
0.0
 11
-351.4038237008725
 21
11.91580801702275
 31
0.0
  0
LINE
  5
C69
330
36
100
AcDbEntity
  8
0
 62
     7
100
AcDbLine
 10
-350.7115317008725
 20
12.58316301702275
 30
0.0
 11
-351.4067817008726
 21
12.58006801702277
 31
0.0
  0
ARC
  5
C6A
330
36
100
AcDbEntity
  8
0
 62
     7
100
AcDbCircle
 10
-350.7107457008725
 20
12.40665601702275
 30
0.0
 40
0.176509
100
AcDbArc
 50
9.849182000000572
 51
90.25511400000052
  0
LINE
  5
C6B
330
36
100
AcDbEntity
  8
0
 62
     7
100
AcDbLine
 10
-350.5368387008725
 20
12.43684901702276
 30
0.0
 11
-350.5363387008725
 21
12.32456701702276
 31
0.0
  0
LINE
  5
C6C
330
36
100
AcDbEntity
  8
0
 62
     7
100
AcDbLine
 10
-350.5363387008725
 20
12.32456701702276
 30
0.0
 11
-350.1606447008725
 21
12.32624001702275
 31
0.0
  0
LINE
  5
C6D
330
36
100
AcDbEntity
  8
0
 62
     7
100
AcDbLine
 10
-350.5356907008725
 20
12.17905001702276
 30
0.0
 11
-350.1599967008725
 21
12.18072301702276
 31
0.0
  0
LINE
  5
C6E
330
36
100
AcDbEntity
  8
0
 62
     7
100
AcDbLine
 10
-350.5351907008726
 20
12.06676801702275
 30
0.0
 11
-350.5356907008725
 21
12.17905001702276
 31
0.0
  0
ARC
  5
C6F
330
36
100
AcDbEntity
  8
0
 62
     7
100
AcDbCircle
 10
-350.7093597008725
 20
12.09541101702277
 30
0.0
 40
0.176509
100
AcDbArc
 50
270.2551140000005
 51
350.6610459999996
  0
LINE
  5
C70
330
36
100
AcDbEntity
  8
0
 62
     7
100
AcDbLine
 10
-350.7085737008726
 20
11.91890401702275
 30
0.0
 11
-351.4038237008725
 21
11.91580801702275
 31
0.0
  0
LINE
  5
C71
330
36
100
AcDbEntity
  8
0
 62
     7
100
AcDbLine
 10
-351.8807967008725
 20
11.91368401702276
 30
0.0
 11
-352.5760467008725
 21
11.91058901702276
 31
0.0
  0
ARC
  5
C72
330
36
100
AcDbEntity
  8
0
 62
     7
100
AcDbCircle
 10
-352.5768327008725
 20
12.08709601702276
 30
0.0
 40
0.176509
100
AcDbArc
 50
189.8491820000005
 51
270.2551140000005
  0
LINE
  5
C73
330
36
100
AcDbEntity
  8
0
 62
     7
100
AcDbLine
 10
-352.7507397008725
 20
12.05690301702276
 30
0.0
 11
-352.7512397008725
 21
12.16918501702275
 31
0.0
  0
LINE
  5
C74
330
36
100
AcDbEntity
  8
0
 62
     7
100
AcDbLine
 10
-352.7512397008725
 20
12.16918501702275
 30
0.0
 11
-353.1269337008725
 21
12.16751201702276
 31
0.0
  0
LINE
  5
C75
330
36
100
AcDbEntity
  8
0
 62
     7
100
AcDbLine
 10
-352.7518877008725
 20
12.31470201702277
 30
0.0
 11
-353.1275817008725
 21
12.31302901702276
 31
0.0
  0
LINE
  5
C76
330
36
100
AcDbEntity
  8
0
 62
     7
100
AcDbLine
 10
-350.4890007008725
 20
2.231676017022763
 30
0.0
 11
-350.1157757008725
 21
2.233337017022762
 31
0.0
  0
LINE
  5
C77
330
36
100
AcDbEntity
  8
0
 62
     7
100
AcDbLine
 10
-352.5343657008725
 20
2.533820017022762
 30
0.0
 11
-350.6668937008725
 21
2.542135017022758
 31
0.0
  0
ARC
  5
C78
330
36
100
AcDbEntity
  8
0
 62
     7
100
AcDbCircle
 10
-350.6661077008725
 20
2.365628017022757
 30
0.0
 40
0.176509
100
AcDbArc
 50
0.2551139999997059
 51
90.25511400000052
  0
LINE
  5
C79
330
36
100
AcDbEntity
  8
0
 62
     7
100
AcDbLine
 10
-350.4896007008725
 20
2.366414017022762
 30
0.0
 11
-350.4890007008725
 21
2.231676017022763
 31
0.0
  0
ARC
  5
C7A
330
36
100
AcDbEntity
  8
0
 62
     7
100
AcDbCircle
 10
-352.5335797008725
 20
2.357313017022761
 30
0.0
 40
0.176509
100
AcDbArc
 50
90.25511400000052
 51
180.2551139999997
  0
LINE
  5
C7B
330
36
100
AcDbEntity
  8
0
 62
     7
100
AcDbLine
 10
-353.0827127008726
 20
2.220127017022761
 30
0.0
 11
-352.7094877008725
 21
2.221789017022757
 31
0.0
  0
LINE
  5
C7C
330
36
100
AcDbEntity
  8
0
 62
     7
100
AcDbLine
 10
-352.7100877008725
 20
2.356527017022756
 30
0.0
 11
-352.7094877008725
 21
2.221789017022757
 31
0.0
  0
ARC
  5
C7D
330
36
100
AcDbEntity
  8
0
 62
     3
100
AcDbCircle
 10
-343.2491307008725
 20
15.40349901702277
 30
0.0
 40
15.0
100
AcDbArc
 50
270.0
 51
302.5740570000004
  0
LINE
  5
C7E
330
36
100
AcDbEntity
  8
0
 62
     3
100
AcDbLine
 10
-343.2491307008725
 20
0.4034990170227673
 30
0.0
 11
-347.8665097008725
 21
0.4034990170227673
 31
0.0
  0
ARC
  5
C7F
330
36
100
AcDbEntity
  8
0
 62
     3
100
AcDbCircle
 10
-351.6165097008725
 20
-4.29674098297724
 30
0.0
 40
6.012882
100
AcDbArc
 50
51.41602299999983
 51
128.5839770000001
  0
ARC
  5
C80
330
36
100
AcDbEntity
  8
0
 62
     3
100
AcDbCircle
 10
-351.6165097008725
 20
29.10373801702275
 30
0.0
 40
6.012882
100
AcDbArc
 50
231.4160229999998
 51
308.5839770000002
  0
LINE
  5
C81
330
36
100
AcDbEntity
  8
0
 62
     3
100
AcDbLine
 10
-343.2491307008725
 20
24.40349901702277
 30
0.0
 11
-347.8665097008725
 21
24.40349901702277
 31
0.0
  0
ARC
  5
C82
330
36
100
AcDbEntity
  8
0
 62
     3
100
AcDbCircle
 10
-343.2491307008725
 20
9.403499017022767
 30
0.0
 40
15.0
100
AcDbArc
 50
57.42594299999954
 51
90.0
  0
LINE
  5
C83
330
36
100
AcDbEntity
  8
0
 62
     7
100
AcDbLine
 10
-353.8128477008726
 20
1.403499017022767
 30
0.0
 11
-353.8128477008726
 21
23.40349901702277
 31
0.0
  0
LINE
  5
C84
330
36
100
AcDbEntity
  8
0
 62
     7
100
AcDbLine
 10
-355.3665097008725
 20
0.4034990170227673
 30
0.0
 11
-355.3665097008725
 21
24.40349901702277
 31
0.0
  0
TEXT
  5
C85
330
36
100
AcDbEntity
  8
0
 62
     7
100
AcDbText
 10
-391.7663187008725
 20
8.453304017022759
 30
0.0
 40
1.6
  1
防　雨　型
 50
90.00000300000001
 41
0.833333
100
AcDbText
  0
LINE
  5
C86
330
36
100
AcDbEntity
  8
0
 62
     7
100
AcDbLine
 10
-400.7640757008725
 20
4.617305017022758
 30
0.0
 11
-403.7640757008725
 21
4.617305017022758
 31
0.0
  0
LINE
  5
C87
330
36
100
AcDbEntity
  8
0
 62
     7
100
AcDbLine
 10
-401.5140757008725
 20
5.367305017022758
 30
0.0
 11
-403.0140757008725
 21
5.367305017022758
 31
0.0
  0
LINE
  5
C88
330
36
100
AcDbEntity
  8
0
 62
     7
100
AcDbLine
 10
-403.7640757008725
 20
10.61730501702276
 30
0.0
 11
-403.7640757008725
 21
4.617305017022758
 31
0.0
  0
LINE
  5
C89
330
36
100
AcDbEntity
  8
0
 62
     7
100
AcDbLine
 10
-403.0140757008725
 20
9.867305017022758
 30
0.0
 11
-403.0140757008725
 21
5.367305017022758
 31
0.0
  0
LINE
  5
C8A
330
36
100
AcDbEntity
  8
0
 62
     7
100
AcDbLine
 10
-401.5140757008725
 20
9.867305017022758
 30
0.0
 11
-401.5140757008725
 21
5.367305017022758
 31
0.0
  0
LINE
  5
C8B
330
36
100
AcDbEntity
  8
0
 62
     7
100
AcDbLine
 10
-400.7640757008725
 20
10.61730501702276
 30
0.0
 11
-400.7640757008725
 21
4.617305017022758
 31
0.0
  0
LINE
  5
C8C
330
36
100
AcDbEntity
  8
0
 62
     7
100
AcDbLine
 10
-400.7640757008725
 20
10.61730501702276
 30
0.0
 11
-403.7640757008725
 21
10.61730501702276
 31
0.0
  0
LINE
  5
C8D
330
36
100
AcDbEntity
  8
0
 62
     7
100
AcDbLine
 10
-401.5140757008725
 20
9.867305017022758
 30
0.0
 11
-403.0140757008725
 21
9.867305017022758
 31
0.0
  0
LINE
  5
C8E
330
36
100
AcDbEntity
  8
0
 62
     7
100
AcDbLine
 10
-405.9140757008725
 20
15.36730501702276
 30
0.0
 11
-408.9140757008725
 21
15.36730501702276
 31
0.0
  0
LINE
  5
C8F
330
36
100
AcDbEntity
  8
0
 62
     7
100
AcDbLine
 10
-408.9140757008725
 20
15.36730501702276
 30
0.0
 11
-408.9140757008725
 21
9.367305017022758
 31
0.0
  0
LINE
  5
C90
330
36
100
AcDbEntity
  8
0
 62
     7
100
AcDbLine
 10
-406.6640757008725
 20
14.61730501702276
 30
0.0
 11
-408.1640757008726
 21
14.61730501702276
 31
0.0
  0
LINE
  5
C91
330
36
100
AcDbEntity
  8
0
 62
     7
100
AcDbLine
 10
-408.1640757008726
 20
14.61730501702276
 30
0.0
 11
-408.1640757008726
 21
10.11730501702276
 31
0.0
  0
LINE
  5
C92
330
36
100
AcDbEntity
  8
0
 62
     7
100
AcDbLine
 10
-406.6640757008725
 20
14.61730501702276
 30
0.0
 11
-406.6640757008725
 21
10.11730501702276
 31
0.0
  0
LINE
  5
C93
330
36
100
AcDbEntity
  8
0
 62
     7
100
AcDbLine
 10
-405.9140757008725
 20
15.36730501702276
 30
0.0
 11
-405.9140757008725
 21
9.367305017022758
 31
0.0
  0
LINE
  5
C94
330
36
100
AcDbEntity
  8
0
 62
     7
100
AcDbLine
 10
-406.6640757008725
 20
10.11730501702276
 30
0.0
 11
-408.1640757008726
 21
10.11730501702276
 31
0.0
  0
LINE
  5
C95
330
36
100
AcDbEntity
  8
0
 62
     7
100
AcDbLine
 10
-405.9140757008725
 20
9.367305017022758
 30
0.0
 11
-408.9140757008725
 21
9.367305017022758
 31
0.0
  0
LINE
  5
C96
330
36
100
AcDbEntity
  8
0
 62
     7
100
AcDbLine
 10
-395.6140757008725
 20
15.36730501702276
 30
0.0
 11
-398.6140757008725
 21
15.36730501702276
 31
0.0
  0
LINE
  5
C97
330
36
100
AcDbEntity
  8
0
 62
     7
100
AcDbLine
 10
-398.6140757008725
 20
15.36730501702276
 30
0.0
 11
-398.6140757008725
 21
9.367305017022758
 31
0.0
  0
LINE
  5
C98
330
36
100
AcDbEntity
  8
0
 62
     7
100
AcDbLine
 10
-396.3640757008725
 20
14.61730501702276
 30
0.0
 11
-397.8640757008725
 21
14.61730501702276
 31
0.0
  0
LINE
  5
C99
330
36
100
AcDbEntity
  8
0
 62
     7
100
AcDbLine
 10
-397.8640757008725
 20
14.61730501702276
 30
0.0
 11
-397.8640757008725
 21
10.11730501702276
 31
0.0
  0
LINE
  5
C9A
330
36
100
AcDbEntity
  8
0
 62
     7
100
AcDbLine
 10
-396.3640757008725
 20
14.61730501702276
 30
0.0
 11
-396.3640757008725
 21
10.11730501702276
 31
0.0
  0
LINE
  5
C9B
330
36
100
AcDbEntity
  8
0
 62
     7
100
AcDbLine
 10
-396.3640757008725
 20
10.11730501702276
 30
0.0
 11
-397.8640757008725
 21
10.11730501702276
 31
0.0
  0
LINE
  5
C9C
330
36
100
AcDbEntity
  8
0
 62
     7
100
AcDbLine
 10
-395.6140757008725
 20
9.367305017022758
 30
0.0
 11
-398.6140757008725
 21
9.367305017022758
 31
0.0
  0
LINE
  5
C9D
330
36
100
AcDbEntity
  8
0
 62
     7
100
AcDbLine
 10
-405.2640757008725
 20
16.01730501702276
 30
0.0
 11
-399.2640757008725
 21
16.01730501702276
 31
0.0
  0
LINE
  5
C9E
330
36
100
AcDbEntity
  8
0
 62
     7
100
AcDbLine
 10
-404.5140757008724
 20
16.76730501702276
 30
0.0
 11
-400.0140757008725
 21
16.76730501702276
 31
0.0
  0
LINE
  5
C9F
330
36
100
AcDbEntity
  8
0
 62
     7
100
AcDbLine
 10
-405.2640757008725
 20
19.01730501702276
 30
0.0
 11
-405.2640757008725
 21
16.01730501702276
 31
0.0
  0
LINE
  5
CA0
330
36
100
AcDbEntity
  8
0
 62
     7
100
AcDbLine
 10
-404.5140757008724
 20
18.26730501702276
 30
0.0
 11
-404.5140757008724
 21
16.76730501702276
 31
0.0
  0
LINE
  5
CA1
330
36
100
AcDbEntity
  8
0
 62
     7
100
AcDbLine
 10
-399.2640757008725
 20
19.01730501702276
 30
0.0
 11
-399.2640757008725
 21
16.01730501702276
 31
0.0
  0
LINE
  5
CA2
330
36
100
AcDbEntity
  8
0
 62
     7
100
AcDbLine
 10
-400.0140757008725
 20
18.26730501702276
 30
0.0
 11
-400.0140757008725
 21
16.76730501702276
 31
0.0
  0
LINE
  5
CA3
330
36
100
AcDbEntity
  8
0
 62
     7
100
AcDbLine
 10
-404.5140757008724
 20
18.26730501702276
 30
0.0
 11
-400.0140757008725
 21
18.26730501702276
 31
0.0
  0
LINE
  5
CA4
330
36
100
AcDbEntity
  8
0
 62
     7
100
AcDbLine
 10
-405.2640757008725
 20
19.01730501702276
 30
0.0
 11
-399.2640757008725
 21
19.01730501702276
 31
0.0
  0
LINE
  5
CA5
330
36
100
AcDbEntity
  8
0
 62
     7
100
AcDbLine
 10
-405.2640757008725
 20
19.01730501702276
 30
0.0
 11
-404.5140757008724
 21
18.26730501702276
 31
0.0
  0
LINE
  5
CA6
330
36
100
AcDbEntity
  8
0
 62
     7
100
AcDbLine
 10
-404.5140757008724
 20
16.76730501702276
 30
0.0
 11
-405.2640757008725
 21
16.01730501702276
 31
0.0
  0
LINE
  5
CA7
330
36
100
AcDbEntity
  8
0
 62
     7
100
AcDbLine
 10
-400.0140757008725
 20
16.76730501702276
 30
0.0
 11
-399.2640757008725
 21
16.01730501702276
 31
0.0
  0
LINE
  5
CA8
330
36
100
AcDbEntity
  8
0
 62
     7
100
AcDbLine
 10
-399.2640757008725
 20
19.01730501702276
 30
0.0
 11
-400.0140757008725
 21
18.26730501702276
 31
0.0
  0
LINE
  5
CA9
330
36
100
AcDbEntity
  8
0
 62
     7
100
AcDbLine
 10
-398.6140757008725
 20
15.36730501702276
 30
0.0
 11
-397.8640757008725
 21
14.61730501702276
 31
0.0
  0
LINE
  5
CAA
330
36
100
AcDbEntity
  8
0
 62
     7
100
AcDbLine
 10
-396.3640757008725
 20
14.61730501702276
 30
0.0
 11
-395.6140757008725
 21
15.36730501702276
 31
0.0
  0
LINE
  5
CAB
330
36
100
AcDbEntity
  8
0
 62
     7
100
AcDbLine
 10
-396.3640757008725
 20
10.11730501702276
 30
0.0
 11
-395.6140757008725
 21
9.367305017022758
 31
0.0
  0
LINE
  5
CAC
330
36
100
AcDbEntity
  8
0
 62
     7
100
AcDbLine
 10
-397.8640757008725
 20
10.11730501702276
 30
0.0
 11
-398.6140757008725
 21
9.367305017022758
 31
0.0
  0
LINE
  5
CAD
330
36
100
AcDbEntity
  8
0
 62
     7
100
AcDbLine
 10
-405.9140757008725
 20
15.36730501702276
 30
0.0
 11
-406.6640757008725
 21
14.61730501702276
 31
0.0
  0
LINE
  5
CAE
330
36
100
AcDbEntity
  8
0
 62
     7
100
AcDbLine
 10
-408.1640757008726
 20
14.61730501702276
 30
0.0
 11
-408.9140757008725
 21
15.36730501702276
 31
0.0
  0
LINE
  5
CAF
330
36
100
AcDbEntity
  8
0
 62
     7
100
AcDbLine
 10
-408.1640757008726
 20
10.11730501702276
 30
0.0
 11
-408.9140757008725
 21
9.367305017022758
 31
0.0
  0
LINE
  5
CB0
330
36
100
AcDbEntity
  8
0
 62
     7
100
AcDbLine
 10
-406.6640757008725
 20
10.11730501702276
 30
0.0
 11
-405.9140757008725
 21
9.367305017022758
 31
0.0
  0
LINE
  5
CB1
330
36
100
AcDbEntity
  8
0
 62
     7
100
AcDbLine
 10
-403.7640757008725
 20
10.61730501702276
 30
0.0
 11
-403.0140757008725
 21
9.867305017022758
 31
0.0
  0
LINE
  5
CB2
330
36
100
AcDbEntity
  8
0
 62
     7
100
AcDbLine
 10
-401.5140757008725
 20
9.867305017022758
 30
0.0
 11
-400.7640757008725
 21
10.61730501702276
 31
0.0
  0
LINE
  5
CB3
330
36
100
AcDbEntity
  8
0
 62
     7
100
AcDbLine
 10
-401.5140757008725
 20
5.367305017022758
 30
0.0
 11
-400.7640757008725
 21
4.617305017022758
 31
0.0
  0
LINE
  5
CB4
330
36
100
AcDbEntity
  8
0
 62
     7
100
AcDbLine
 10
-403.0140757008725
 20
5.367305017022758
 30
0.0
 11
-403.7640757008725
 21
4.617305017022758
 31
0.0
  0
TEXT
  5
CB5
330
36
100
AcDbEntity
  8
0
 62
     7
100
AcDbText
 10
-406.6640747008724
 20
1.74326101702276
 30
0.0
 40
1.6
  1
19A 250V
 41
0.7166990000000001
100
AcDbText
  0
TEXT
  5
CB6
330
36
100
AcDbEntity
  8
0
 62
     7
100
AcDbText
 10
-402.0898227008725
 20
20.51802001702276
 30
0.0
 40
1.404158999999999
  1
JET
100
AcDbText
  0
ARC
  5
CB7
330
36
100
AcDbEntity
  8
0
 62
     7
100
AcDbCircle
 10
-397.0054537008725
 20
21.17712501702277
 30
0.0
 40
0.599625
100
AcDbArc
 50
204.1020920000005
 51
28.32624699999923
  0
LINE
  5
CB8
330
36
100
AcDbEntity
  8
0
 62
     7
100
AcDbLine
 10
-396.3854837008725
 20
21.54777201702277
 30
0.0
 11
-396.9452607008725
 21
20.57821101702277
 31
0.0
  0
LINE
  5
CB9
330
36
100
AcDbEntity
  8
0
 62
     7
100
AcDbLine
 10
-397.6254237008725
 20
20.80647701702276
 30
0.0
 11
-397.0656477008725
 21
21.77603901702275
 31
0.0
  0
ARC
  5
CBA
330
36
100
AcDbEntity
  8
0
 62
     7
100
AcDbCircle
 10
-397.0054537008725
 20
21.17712501702277
 30
0.0
 40
0.601931
100
AcDbArc
 50
26.80229100000064
 51
204.2608300000008
  0
TEXT
  5
CBB
330
36
100
AcDbEntity
  8
0
 62
     7
100
AcDbText
 10
-403.4597197008724
 20
20.51802001702276
 30
0.0
 40
1.404158999999999
  1
E
100
AcDbText
  0
TEXT
  5
CBC
330
36
100
AcDbEntity
  8
0
 62
     7
100
AcDbText
 10
-407.2644327008725
 20
20.51882401702277
 30
0.0
 40
1.404158999999999
  1
PS
100
AcDbText
  0
LINE
  5
CBD
330
36
100
AcDbEntity
  8
0
 62
     7
100
AcDbLine
 10
-408.1508997008724
 20
21.25906201702277
 30
0.0
 11
-407.4559587008725
 21
21.82852801702276
 31
0.0
  0
LINE
  5
CBE
330
36
100
AcDbEntity
  8
0
 62
     7
100
AcDbLine
 10
-408.1508997008724
 20
21.25906201702277
 30
0.0
 11
-407.4559587008725
 21
20.68959601702275
 31
0.0
  0
LINE
  5
CBF
330
36
100
AcDbEntity
  8
0
 62
     7
100
AcDbLine
 10
-403.8356857008725
 20
21.25906201702277
 30
0.0
 11
-404.5306267008725
 21
20.68959601702275
 31
0.0
  0
LINE
  5
CC0
330
36
100
AcDbEntity
  8
0
 62
     7
100
AcDbLine
 10
-403.8356857008725
 20
21.25906201702277
 30
0.0
 11
-404.5306267008725
 21
21.82852801702276
 31
0.0
  0
CIRCLE
  5
CC1
330
36
100
AcDbEntity
  8
0
 62
     7
100
AcDbCircle
 10
-405.8256287008725
 20
7.517717017022761
 30
0.0
 40
0.9374629999999999
  0
LINE
  5
CC2
330
36
100
AcDbEntity
  8
0
 62
     7
100
AcDbLine
 10
-405.2631517008725
 20
7.142732017022751
 30
0.0
 11
-406.3881067008725
 21
7.142732017022751
 31
0.0
  0
LINE
  5
CC3
330
36
100
AcDbEntity
  8
0
 62
     7
100
AcDbLine
 10
-405.8256287008725
 20
7.423971017022751
 30
0.0
 11
-405.8256287008725
 21
8.267687017022751
 31
0.0
  0
LINE
  5
CC4
330
36
100
AcDbEntity
  8
0
 62
     7
100
AcDbLine
 10
-405.5912627008725
 20
6.861494017022764
 30
0.0
 11
-406.0599947008724
 21
6.861494017022764
 31
0.0
  0
LINE
  5
CC5
330
36
100
AcDbEntity
  8
0
 62
     7
100
AcDbLine
 10
-405.0756587008724
 20
7.423971017022751
 30
0.0
 11
-406.5755987008725
 21
7.423971017022751
 31
0.0
  0
LINE
  5
CC6
330
36
100
AcDbEntity
  8
0
 62
     7
100
AcDbLine
 10
-397.0054537008725
 20
21.77905601702275
 30
0.0
 11
-397.0054537008725
 21
20.57519301702277
 31
0.0
  0
LINE
  5
CC7
330
36
100
AcDbEntity
  8
0
 62
     7
100
AcDbLine
 10
-395.6140757008725
 20
15.36730501702276
 30
0.0
 11
-395.6140757008725
 21
9.367305017022758
 31
0.0
  0
LINE
  5
CC8
330
36
100
AcDbEntity
  8
0
 62
     3
100
AcDbLine
 10
-187.3556467008725
 20
-82.42307298297722
 30
0.0
 11
-187.3556467008725
 21
-59.42307298297723
 31
0.0
  0
LINE
  5
CC9
330
36
100
AcDbEntity
  8
0
 62
     3
100
AcDbLine
 10
-240.4092557008725
 20
-89.42307298297722
 30
0.0
 11
-240.4092557008725
 21
-75.42307298297723
 31
0.0
  0
TEXT
  5
CCA
330
36
100
AcDbEntity
  8
0
 62
     3
100
AcDbText
 10
-211.3453287008725
 20
-63.21795698297724
 30
0.0
 40
2.0
  1
A
 41
0.7
100
AcDbText
  0
TEXT
  5
CCB
330
36
100
AcDbEntity
  8
0
 62
     3
100
AcDbText
 10
-208.8100417008725
 20
-63.21795698297724
 30
0.0
 40
2.0
  1
P
 41
0.7
100
AcDbText
  0
TEXT
  5
CCC
330
36
100
AcDbEntity
  8
0
 62
     3
100
AcDbText
 10
-206.2747557008725
 20
-63.21795698297724
 30
0.0
 40
2.0
  1
P
 41
0.7
100
AcDbText
  0
TEXT
  5
CCD
330
36
100
AcDbEntity
  8
0
 62
     3
100
AcDbText
 10
-203.7394697008725
 20
-63.21795698297724
 30
0.0
 40
2.0
  1
D
 41
0.7
100
AcDbText
  0
TEXT
  5
CCE
330
36
100
AcDbEntity
  8
0
 62
     3
100
AcDbText
 10
-198.3707867008725
 20
-63.21795698297724
 30
0.0
 40
2.0
  1
C
 41
0.7
100
AcDbText
  0
TEXT
  5
CCF
330
36
100
AcDbEntity
  8
0
 62
     3
100
AcDbText
 10
-195.8355007008725
 20
-63.21795698297724
 30
0.0
 40
2.0
  1
H
 41
0.7
100
AcDbText
  0
TEXT
  5
CD0
330
36
100
AcDbEntity
  8
0
 62
     3
100
AcDbText
 10
-193.3002137008725
 20
-63.21795698297724
 30
0.0
 40
2.0
  1
C
 41
0.7
100
AcDbText
  0
TEXT
  5
CD1
330
36
100
AcDbEntity
  8
0
 62
     3
100
AcDbText
 10
-190.7649277008725
 20
-63.21795698297724
 30
0.0
 40
2.0
  1
K
 41
0.7
100
AcDbText
  0
TEXT
  5
CD2
330
36
100
AcDbEntity
  8
0
 62
     3
100
AcDbText
 10
-185.0909617008725
 20
-63.21795698297724
 30
0.0
 40
2.0
  1
DESN
 41
1.216762999999998
100
AcDbText
  0
TEXT
  5
CD3
330
36
100
AcDbEntity
  8
0
 62
     3
100
AcDbText
 10
-270.0973197008725
 20
-92.56445498297724
 30
0.0
 40
2.0
  1
NICHIDO IND.CO.LTD
 41
1.274876
100
AcDbText
  0
LINE
  5
CD4
330
36
100
AcDbEntity
  8
0
 62
     3
100
AcDbLine
 10
-259.7142907008725
 20
-59.42307298297722
 30
0.0
 11
-259.7142907008725
 21
-82.42307298297722
 31
0.0
  0
LINE
  5
CD5
330
36
100
AcDbEntity
  8
0
 62
     3
100
AcDbLine
 10
-213.3556467008725
 20
-59.42307298297723
 30
0.0
 11
-213.3556467008726
 21
-99.08879598297724
 31
0.0
  0
LINE
  5
CD6
330
36
100
AcDbEntity
  8
0
 62
     3
100
AcDbLine
 10
-200.3556467008725
 20
-59.42307298297723
 30
0.0
 11
-200.3556467008725
 21
-89.42307298297722
 31
0.0
  0
TEXT
  5
CD7
330
36
100
AcDbEntity
  8
0
 62
     3
100
AcDbText
 10
-212.2432017008726
 20
-88.55838598297724
 30
0.0
 40
3.2
  1
作成日
 41
1.017225999999997
100
AcDbText
  0
LINE
  5
CD8
330
36
100
AcDbEntity
  8
0
 62
     3
100
AcDbLine
 10
-161.6562827008725
 20
-59.42307298297723
 30
0.0
 11
-272.9597257008725
 21
-59.42307298297723
 31
0.0
  0
LINE
  5
CD9
330
36
100
AcDbEntity
  8
0
 62
     3
100
AcDbLine
 10
-174.3556467008725
 20
-82.42307298297722
 30
0.0
 11
-174.3556467008725
 21
-59.42307298297723
 31
0.0
  0
TEXT
  5
CDA
330
36
100
AcDbEntity
  8
0
 62
     3
100
AcDbText
 10
-171.0318427008725
 20
-63.13213898297724
 30
0.0
 40
1.8
  1
D
 41
0.666667
100
AcDbText
  0
TEXT
  5
CDB
330
36
100
AcDbEntity
  8
0
 62
     3
100
AcDbText
 10
-168.2152147008725
 20
-63.13213898297724
 30
0.0
 40
1.8
  1
E
 41
0.666667
100
AcDbText
  0
TEXT
  5
CDC
330
36
100
AcDbEntity
  8
0
 62
     3
100
AcDbText
 10
-165.3985867008725
 20
-63.13213898297724
 30
0.0
 40
1.8
  1
F
 41
0.666667
100
AcDbText
  0
TEXT
  5
CDD
330
36
100
AcDbEntity
  8
0
 62
     3
100
AcDbText
 10
-171.0318427008725
 20
-67.12469198297724
 30
0.0
 40
3.2
  1
製図
 41
1.076369
100
AcDbText
  0
LINE
  5
CDE
330
36
100
AcDbEntity
  8
0
 62
     3
100
AcDbLine
 10
-272.9597257008725
 20
-59.42307298297723
 30
0.0
 11
-272.9597257008725
 21
-99.08879598297724
 31
0.0
  0
TEXT
  5
CDF
330
36
100
AcDbEntity
  8
0
 62
     3
100
AcDbText
 10
-271.5830727008726
 20
-98.75632998297724
 30
0.0
 40
5.0
  1
日動工業株式会社
 41
0.833333
100
AcDbText
  0
LINE
  5
CE0
330
36
100
AcDbEntity
  8
0
 62
     3
100
AcDbLine
 10
-230.0773217008725
 20
-75.42307298297725
 30
0.0
 11
-230.0773217008725
 21
-99.08879598297724
 31
0.0
  0
LINE
  5
CE1
330
36
100
AcDbEntity
  8
0
 62
     3
100
AcDbLine
 10
-230.0773217008725
 20
-94.25593398297724
 30
0.0
 11
-213.3556467008726
 21
-94.25593398297724
 31
0.0
  0
TEXT
  5
CE2
330
36
100
AcDbEntity
  8
0
 62
     3
100
AcDbText
 10
-229.4907197008725
 20
-93.43950398297726
 30
0.0
 40
3.2
  1
出図コード
 41
0.8356860000000001
100
AcDbText
  0
LINE
  5
CE3
330
36
100
AcDbEntity
  8
0
 62
     3
100
AcDbLine
 10
-272.9597257008725
 20
-89.42307298297722
 30
0.0
 11
-161.6562827008725
 21
-89.42307298297722
 31
0.0
  0
LINE
  5
CE4
330
36
100
AcDbEntity
  8
0
 62
     3
100
AcDbLine
 10
-272.9597257008725
 20
-68.42307298297723
 30
0.0
 11
-161.6562827008725
 21
-68.42307298297723
 31
0.0
  0
LINE
  5
CE5
330
36
100
AcDbEntity
  8
0
 62
     3
100
AcDbLine
 10
-272.9597257008725
 20
-75.42307298297723
 30
0.0
 11
-213.3556467008726
 21
-75.42307298297723
 31
0.0
  0
LINE
  5
CE6
330
36
100
AcDbEntity
  8
0
 62
     3
100
AcDbLine
 10
-272.9597257008725
 20
-82.42307298297722
 30
0.0
 11
-161.6562827008725
 21
-82.42307298297722
 31
0.0
  0
TEXT
  5
CE7
330
36
100
AcDbEntity
  8
0
 62
     3
100
AcDbText
 10
-229.6232677008725
 20
-98.48660098297724
 30
0.0
 40
3.2
  1
ZK-A4X
 41
0.8112849999999999
100
AcDbText
  0
TEXT
  5
CE8
330
36
100
AcDbEntity
  8
0
 62
     3
100
AcDbText
 10
-271.1423287008726
 20
-63.25354698297722
 30
0.0
 40
2.0
  1
CONPONENTS
 41
0.5331600000000001
100
AcDbText
  0
TEXT
  5
CE9
330
36
100
AcDbEntity
  8
0
 62
     3
100
AcDbText
 10
-271.4920547008725
 20
-82.18572398297721
 30
0.0
 40
3.0
  1
材
 41
0.833333
100
AcDbText
  0
TEXT
  5
CEA
330
36
100
AcDbEntity
  8
0
 62
     3
100
AcDbText
 10
-263.9564127008725
 20
-82.18572398297721
 30
0.0
 40
3.0
  1
質
 41
0.833333
100
AcDbText
  0
TEXT
  5
CEB
330
36
100
AcDbEntity
  8
0
 62
     3
100
AcDbText
 10
-271.4039847008725
 20
-71.56119998297723
 30
0.0
 40
2.0
  1
MODEL
 41
1.031072999999999
100
AcDbText
  0
TEXT
  5
CEC
330
36
100
AcDbEntity
  8
0
 62
     3
100
AcDbText
 10
-271.4920547008725
 20
-78.50341598297724
 30
0.0
 40
2.0
  1
MATERIAL
 41
0.659278
100
AcDbText
  0
TEXT
  5
CED
330
36
100
AcDbEntity
  8
0
 62
     3
100
AcDbText
 10
-240.1847747008726
 20
-82.18572398297721
 30
0.0
 40
3.0
  1
備
 41
0.833333
100
AcDbText
  0
TEXT
  5
CEE
330
36
100
AcDbEntity
  8
0
 62
     3
100
AcDbText
 10
-233.4517727008726
 20
-82.18572398297721
 30
0.0
 40
3.0
  1
考
 41
0.833333
100
AcDbText
  0
TEXT
  5
CEF
330
36
100
AcDbEntity
  8
0
 62
     3
100
AcDbText
 10
-239.9019337170718
 20
-78.50341598297724
 30
0.0
 40
2.0
  1
REMARKS
 41
0.675794
100
AcDbText
  0
TEXT
  5
CF0
330
36
100
AcDbEntity
  8
0
 62
     3
100
AcDbText
 10
-269.9023257008725
 20
-85.42353698297722
 30
0.0
 40
2.0
  1
3AD
 41
1.42614
100
AcDbText
  0
TEXT
  5
CF1
330
36
100
AcDbEntity
  8
0
 62
     3
100
AcDbText
 10
-260.5913467008725
 20
-85.25780298297723
 30
0.0
 40
2.0
  1
ANGLE
 41
1.669883999999997
100
AcDbText
  0
TEXT
  5
CF2
330
36
100
AcDbEntity
  8
0
 62
     3
100
AcDbText
 10
-239.6574597008725
 20
-85.63464398297723
 30
0.0
 40
2.0
  1
SCALE
 41
0.7719630000000001
100
AcDbText
  0
TEXT
  5
CF3
330
36
100
AcDbEntity
  8
0
 62
     3
100
AcDbText
 10
-270.2161967008725
 20
-89.42307298297722
 30
0.0
 40
3.0
  1
第
 41
0.833333
100
AcDbText
  0
TEXT
  5
CF4
330
36
100
AcDbEntity
  8
0
 62
     3
100
AcDbText
 10
-262.4293467008726
 20
-89.42307298297722
 30
0.0
 40
3.0
  1
三
 41
0.833333
100
AcDbText
  0
TEXT
  5
CF5
330
36
100
AcDbEntity
  8
0
 62
     3
100
AcDbText
 10
-254.6424967008725
 20
-89.42307298297722
 30
0.0
 40
3.0
  1
角
 41
0.833333
100
AcDbText
  0
TEXT
  5
CF6
330
36
100
AcDbEntity
  8
0
 62
     3
100
AcDbText
 10
-246.8556467008725
 20
-89.42307298297722
 30
0.0
 40
3.0
  1
法
 41
0.833333
100
AcDbText
  0
TEXT
  5
CF7
330
36
100
AcDbEntity
  8
0
 62
     3
100
AcDbText
 10
-239.7942547008725
 20
-89.13464398297724
 30
0.0
 40
3.0
  1
尺
 41
0.833333
100
AcDbText
  0
TEXT
  5
CF8
330
36
100
AcDbEntity
  8
0
 62
     3
100
AcDbText
 10
-233.0612527008725
 20
-89.13464398297724
 30
0.0
 40
3.0
  1
度
 41
0.833333
100
AcDbText
  0
TEXT
  5
CF9
330
36
100
AcDbEntity
  8
0
 62
     3
100
AcDbText
 10
-210.4779817008725
 20
-66.96534398297726
 30
0.0
 40
3.0
  1
承認
 41
1.089472999999999
100
AcDbText
  0
TEXT
  5
CFA
330
36
100
AcDbEntity
  8
0
 62
     3
100
AcDbText
 10
-197.2351017008725
 20
-67.02307298297722
 30
0.0
 40
3.0
  1
検図
 41
0.931761
100
AcDbText
  0
TEXT
  5
CFB
330
36
100
AcDbEntity
  8
0
 62
     3
100
AcDbText
 10
-184.2347047008725
 20
-67.02307298297722
 30
0.0
 40
3.0
  1
設
 41
0.833333
100
AcDbText
  0
TEXT
  5
CFC
330
36
100
AcDbEntity
  8
0
 62
     3
100
AcDbText
 10
-179.7448367008725
 20
-67.02307298297722
 30
0.0
 40
3.0
  1
計
 41
0.833333
100
AcDbText
  0
TEXT
  5
CFD
330
36
100
AcDbEntity
  8
0
 62
     3
100
AcDbText
 10
-271.2108567008725
 20
-67.73431698297724
 30
0.0
 40
3.0
  1
品
 41
0.833333
100
AcDbText
  0
TEXT
  5
CFE
330
36
100
AcDbEntity
  8
0
 62
     3
100
AcDbText
 10
-263.6752147008725
 20
-67.73431698297724
 30
0.0
 40
3.0
  1
名
 41
0.833333
100
AcDbText
  0
TEXT
  5
CFF
330
36
100
AcDbEntity
  8
0
 62
     3
100
AcDbText
 10
-271.4039847008725
 20
-75.19345998297723
 30
0.0
 40
3.0
  1
型
 41
0.833333
100
AcDbText
  0
TEXT
  5
D00
330
36
100
AcDbEntity
  8
0
 62
     3
100
AcDbText
 10
-263.8558937008725
 20
-75.19345998297723
 30
0.0
 40
3.0
  1
式
 41
0.833333
100
AcDbText
  0
TEXT
  5
D01
330
36
100
AcDbEntity
  8
0
 62
     3
100
AcDbText
 10
-254.0171217008726
 20
-74.21395298297724
 30
0.0
 40
4.5
  1
4P20AW-10
  7
高4.5
100
AcDbText
  0
TEXT
  5
D02
330
36
100
AcDbEntity
  8
0
 62
     3
100
AcDbText
 10
-355.0734455934427
 20
-50.02323598739661
 30
0.0
 40
4.5
  1
4P20AW-10
 41
0.8
  7
高4.5
100
AcDbText
  0
TEXT
  5
D03
330
36
100
AcDbEntity
  8
0
 62
     3
100
AcDbText
 10
-211.1436012813589
 20
-98.13507598297723
 30
0.0
 40
6.299999999999998
  1
4P20AW-10
 41
0.9
  7
高6.3
100
AcDbText
  0
LINE
  5
D04
330
36
100
AcDbEntity
  8
0
 62
     3
100
AcDbLine
 10
-187.3556467008725
 20
-59.42307298297723
 30
0.0
 11
-187.3556467008725
 21
-53.42307298297724
 31
0.0
  0
LINE
  5
D05
330
36
100
AcDbEntity
  8
0
 62
     3
100
AcDbLine
 10
-213.3556467008726
 20
-59.42307298297723
 30
0.0
 11
-213.3556467008726
 21
-53.42307298297724
 31
0.0
  0
LINE
  5
D06
330
36
100
AcDbEntity
  8
0
 62
     3
100
AcDbLine
 10
-161.6562837008725
 20
-53.42307298297724
 30
0.0
 11
-213.3556467008726
 21
-53.42307298297724
 31
0.0
  0
TEXT
  5
D07
330
36
100
AcDbEntity
  8
0
 62
     3
100
AcDbText
 10
-208.7168833781651
 20
-58.62672398297724
 30
0.0
 40
4.5
  1
コード
  7
高4.5
100
AcDbText
  0
TEXT
  5
D08
330
36
100
AcDbEntity
  8
0
 62
     3
100
AcDbText
 10
-185.3685007008725
 20
-58.77893598297724
 30
0.0
 40
4.5
  1
5071
  7
高4.5
100
AcDbText
  0
LINE
  5
D09
330
36
100
AcDbEntity
  8
0
 62
     3
100
AcDbLine
 10
-310.0753176042301
 20
-86.02323598739662
 30
0.0
 11
-388.8354615934427
 21
-86.02323598739662
 31
0.0
  0
TEXT
  5
D0A
330
36
100
AcDbEntity
  8
0
 62
     3
100
AcDbText
 10
-355.0734455934427
 20
-78.02323598739661
 30
0.0
 40
4.5
  1
材質 PVC樹脂
 41
0.8
  7
高4.5
100
AcDbText
  0
TEXT
  5
D0B
330
36
100
AcDbEntity
  8
0
 62
     3
100
AcDbText
 10
-386.8354615934427
 20
-78.02323598739661
 30
0.0
 40
4.5
  1
プラグ・コンセント
 41
0.6
  7
高4.5
100
AcDbText
  0
TEXT
  5
D0C
330
36
100
AcDbEntity
  8
0
 62
     3
100
AcDbText
 10
-174.0562467008726
 20
71.34806001702276
 30
0.0
 40
3.2
  1
担　当
  7
高3.2
100
AcDbText
  0
TEXT
  5
D0D
330
36
100
AcDbEntity
  8
0
 62
     3
100
AcDbText
 10
-218.0562467008726
 20
71.34806001702276
 30
0.0
 40
3.2
  1
変更・追記内容
  7
高3.2
100
AcDbText
  0
TEXT
  5
D0E
330
36
100
AcDbEntity
  8
0
 62
     3
100
AcDbText
 10
-242.9427317005334
 20
66.67752150711447
 30
0.0
 40
2.0
  1
1
  7
高2
100
AcDbText
  0
TEXT
  5
D0F
330
36
100
AcDbEntity
  8
0
 62
     3
100
AcDbText
 10
-243.2512431772907
 20
61.50770479484157
 30
0.0
 40
2.0
  1
2
  7
高2
100
AcDbText
  0
TEXT
  5
D10
330
36
100
AcDbEntity
  8
0
 62
     3
100
AcDbText
 10
-236.0562467008726
 20
71.34806001702276
 30
0.0
 40
3.2
  1
日　付
  7
高3.2
100
AcDbText
  0
TEXT
  5
D11
330
36
100
AcDbEntity
  8
0
 62
     3
100
AcDbText
 10
-236.0562467008726
 20
76.34806001702276
 30
0.0
 40
3.2
  1
図　　　　面　　　　略　　　　歴
  7
高3.2
100
AcDbText
  0
TEXT
  5
D12
330
36
100
AcDbEntity
  8
0
 62
     3
100
AcDbText
 10
-246.0562467008726
 20
71.34806001702276
 30
0.0
 40
3.2
  1
記号
  7
高3.2
100
AcDbText
  0
LINE
  5
D13
330
36
100
AcDbEntity
  8
0
 62
     7
100
AcDbLine
 10
-242.5562467008727
 20
64.63895601702285
 30
0.0
 11
-244.4562467008726
 21
61.34806001702276
 31
0.0
  0
LINE
  5
D14
330
36
100
AcDbEntity
  8
0
 62
     7
100
AcDbLine
 10
-242.5562467008727
 20
64.63895601702285
 30
0.0
 11
-240.6562467008726
 21
61.34806001702276
 31
0.0
  0
LINE
  5
D15
330
36
100
AcDbEntity
  8
0
 62
     7
100
AcDbLine
 10
-244.4562467008726
 20
61.34806001702276
 30
0.0
 11
-240.6562467008726
 21
61.34806001702276
 31
0.0
  0
LINE
  5
D16
330
36
100
AcDbEntity
  8
0
 62
     7
100
AcDbLine
 10
-242.5562467008727
 20
69.63895701702284
 30
0.0
 11
-244.4562467008726
 21
66.34806001702276
 31
0.0
  0
LINE
  5
D17
330
36
100
AcDbEntity
  8
0
 62
     7
100
AcDbLine
 10
-242.5562467008727
 20
69.63895701702284
 30
0.0
 11
-240.6562467008726
 21
66.34806001702276
 31
0.0
  0
LINE
  5
D18
330
36
100
AcDbEntity
  8
0
 62
     7
100
AcDbLine
 10
-244.4562467008726
 20
66.34806001702276
 30
0.0
 11
-240.6562467008726
 21
66.34806001702276
 31
0.0
  0
LINE
  5
D19
330
36
100
AcDbEntity
  8
0
 62
     3
100
AcDbLine
 10
-247.5562467008726
 20
75.84806001702276
 30
0.0
 11
-161.5562467008726
 21
75.84806001702276
 31
0.0
  0
LINE
  5
D1A
330
36
100
AcDbEntity
  8
0
 62
     3
100
AcDbLine
 10
-247.5562467008726
 20
70.84806001702276
 30
0.0
 11
-161.5562467008726
 21
70.84806001702276
 31
0.0
  0
LINE
  5
D1B
330
36
100
AcDbEntity
  8
0
 62
     7
100
AcDbLine
 10
-247.5562467008726
 20
65.84806001702276
 30
0.0
 11
-161.5562467008726
 21
65.84806001702276
 31
0.0
  0
LINE
  5
D1C
330
36
100
AcDbEntity
  8
0
 62
     3
100
AcDbLine
 10
-247.5562467008726
 20
60.84806001702276
 30
0.0
 11
-161.5562467008726
 21
60.84806001702276
 31
0.0
  0
LINE
  5
D1D
330
36
100
AcDbEntity
  8
0
 62
     7
100
AcDbLine
 10
-175.5562467008727
 20
60.84806001702276
 30
0.0
 11
-175.5562467008726
 21
75.84806001702276
 31
0.0
  0
LINE
  5
D1E
330
36
100
AcDbEntity
  8
0
 62
     7
100
AcDbLine
 10
-219.5562467008727
 20
60.84806001702276
 30
0.0
 11
-219.5562467008727
 21
75.84806001702276
 31
0.0
  0
LINE
  5
D1F
330
36
100
AcDbEntity
  8
0
 62
     7
100
AcDbLine
 10
-237.5562467008726
 20
60.84806001702276
 30
0.0
 11
-237.5562467008726
 21
75.84806001702276
 31
0.0
  0
LINE
  5
D20
330
36
100
AcDbEntity
  8
0
 62
     3
100
AcDbLine
 10
-247.5562467008726
 20
60.84806001702276
 30
0.0
 11
-247.5562467008726
 21
80.84806001702276
 31
0.0
  0
LINE
  5
EB1
330
36
100
AcDbEntity
  8
0
 62
     7
100
AcDbLine
 10
-352.0139877008725
 20
9.426825017022764
 30
0.0
 11
-352.0991197008725
 21
9.413141017022752
 31
0.0
  0
LINE
  5
EB2
330
36
100
AcDbEntity
  8
0
 62
     7
100
AcDbLine
 10
-352.0991197008725
 20
9.413141017022752
 30
0.0
 11
-352.1806217008725
 21
9.39679801702276
 31
0.0
  0
LINE
  5
EB3
330
36
100
AcDbEntity
  8
0
 62
     7
100
AcDbLine
 10
-352.1806217008725
 20
9.39679801702276
 30
0.0
 11
-352.2578667008725
 21
9.377924017022763
 31
0.0
  0
LINE
  5
EB4
330
36
100
AcDbEntity
  8
0
 62
     7
100
AcDbLine
 10
-352.2578667008725
 20
9.377924017022763
 30
0.0
 11
-352.3302557008725
 21
9.356664017022765
 31
0.0
  0
LINE
  5
EB5
330
36
100
AcDbEntity
  8
0
 62
     7
100
AcDbLine
 10
-352.3302557008725
 20
9.356664017022765
 30
0.0
 11
-352.3972307008725
 21
9.333183017022761
 31
0.0
  0
LINE
  5
EB6
330
36
100
AcDbEntity
  8
0
 62
     7
100
AcDbLine
 10
-352.3972307008725
 20
9.333183017022761
 30
0.0
 11
-352.4582727008725
 21
9.307662017022764
 31
0.0
  0
LINE
  5
EB7
330
36
100
AcDbEntity
  8
0
 62
     7
100
AcDbLine
 10
-352.4582727008725
 20
9.307662017022764
 30
0.0
 11
-352.5129097008725
 21
9.280298017022758
 31
0.0
  0
LINE
  5
EB8
330
36
100
AcDbEntity
  8
0
 62
     7
100
AcDbLine
 10
-352.5129097008725
 20
9.280298017022758
 30
0.0
 11
-352.5607207008726
 21
9.251304017022761
 31
0.0
  0
LINE
  5
EB9
330
36
100
AcDbEntity
  8
0
 62
     7
100
AcDbLine
 10
-352.5607207008726
 20
9.251304017022761
 30
0.0
 11
-352.6013357008725
 21
9.220902017022766
 31
0.0
  0
LINE
  5
EBA
330
36
100
AcDbEntity
  8
0
 62
     7
100
AcDbLine
 10
-352.6013357008725
 20
9.220902017022766
 30
0.0
 11
-352.6344397008725
 21
9.189328017022759
 31
0.0
  0
LINE
  5
EBB
330
36
100
AcDbEntity
  8
0
 62
     7
100
AcDbLine
 10
-352.6344397008725
 20
9.189328017022759
 30
0.0
 11
-352.6597787008725
 21
9.156826017022765
 31
0.0
  0
LINE
  5
EBC
330
36
100
AcDbEntity
  8
0
 62
     7
100
AcDbLine
 10
-352.6597787008725
 20
9.156826017022765
 30
0.0
 11
-352.6771557008725
 21
9.123648017022759
 31
0.0
  0
LINE
  5
EBD
330
36
100
AcDbEntity
  8
0
 62
     7
100
AcDbLine
 10
-352.6771557008725
 20
9.123648017022759
 30
0.0
 11
-352.6864357008725
 21
9.090049017022764
 31
0.0
  0
LINE
  5
EBE
330
36
100
AcDbEntity
  8
0
 62
     7
100
AcDbLine
 10
-352.6864357008725
 20
9.090049017022764
 30
0.0
 11
-352.6875477008725
 21
9.05629001702276
 31
0.0
  0
LINE
  5
EBF
330
36
100
AcDbEntity
  8
0
 62
     7
100
AcDbLine
 10
-352.6875477008725
 20
9.05629001702276
 30
0.0
 11
-352.6804837008725
 21
9.02263101702276
 31
0.0
  0
LINE
  5
EC0
330
36
100
AcDbEntity
  8
0
 62
     7
100
AcDbLine
 10
-352.6804837008725
 20
9.02263101702276
 30
0.0
 11
-352.6652977008725
 21
8.989332017022761
 31
0.0
  0
LINE
  5
EC1
330
36
100
AcDbEntity
  8
0
 62
     7
100
AcDbLine
 10
-352.6652977008725
 20
8.989332017022761
 30
0.0
 11
-352.6421077008726
 21
8.956652017022761
 31
0.0
  0
LINE
  5
EC2
330
36
100
AcDbEntity
  8
0
 62
     7
100
AcDbLine
 10
-352.6421077008726
 20
8.956652017022761
 30
0.0
 11
-352.6110917008725
 21
8.924842017022768
 31
0.0
  0
LINE
  5
EC3
330
36
100
AcDbEntity
  8
0
 62
     7
100
AcDbLine
 10
-352.6110917008725
 20
8.924842017022768
 30
0.0
 11
-352.5724897008725
 21
8.894148017022757
 31
0.0
  0
LINE
  5
EC4
330
36
100
AcDbEntity
  8
0
 62
     7
100
AcDbLine
 10
-352.5724897008725
 20
8.894148017022757
 30
0.0
 11
-352.5266017008726
 21
8.864808017022767
 31
0.0
  0
LINE
  5
EC5
330
36
100
AcDbEntity
  8
0
 62
     7
100
AcDbLine
 10
-352.5266017008726
 20
8.864808017022767
 30
0.0
 11
-352.4737807008725
 21
8.837049017022764
 31
0.0
  0
LINE
  5
EC6
330
36
100
AcDbEntity
  8
0
 62
     7
100
AcDbLine
 10
-352.4737807008725
 20
8.837049017022764
 30
0.0
 11
-352.4144347008725
 21
8.811084017022764
 31
0.0
  0
LINE
  5
EC7
330
36
100
AcDbEntity
  8
0
 62
     7
100
AcDbLine
 10
-352.4144347008725
 20
8.811084017022764
 30
0.0
 11
-352.3490237008725
 21
8.787115017022756
 31
0.0
  0
LINE
  5
EC8
330
36
100
AcDbEntity
  8
0
 62
     7
100
AcDbLine
 10
-352.3490237008725
 20
8.787115017022756
 30
0.0
 11
-352.2780537008725
 21
8.765327017022769
 31
0.0
  0
LINE
  5
EC9
330
36
100
AcDbEntity
  8
0
 62
     7
100
AcDbLine
 10
-352.2780537008725
 20
8.765327017022769
 30
0.0
 11
-352.2020707008725
 21
8.745888017022764
 31
0.0
  0
LINE
  5
ECA
330
36
100
AcDbEntity
  8
0
 62
     7
100
AcDbLine
 10
-352.2020707008725
 20
8.745888017022764
 30
0.0
 11
-352.1216647008726
 21
8.728949017022756
 31
0.0
  0
LINE
  5
ECB
330
36
100
AcDbEntity
  8
0
 62
     7
100
AcDbLine
 10
-352.1216647008726
 20
8.728949017022756
 30
0.0
 11
-352.0374557008726
 21
8.714641017022756
 31
0.0
  0
LINE
  5
ECC
330
36
100
AcDbEntity
  8
0
 62
     7
100
AcDbLine
 10
-352.0374557008726
 20
8.714641017022756
 30
0.0
 11
-351.9500957008725
 21
8.703073017022759
 31
0.0
  0
LINE
  5
ECD
330
36
100
AcDbEntity
  8
0
 62
     7
100
AcDbLine
 10
-351.9500957008725
 20
8.703073017022759
 30
0.0
 11
-351.8602587008725
 21
8.69433701702276
 31
0.0
  0
LINE
  5
ECE
330
36
100
AcDbEntity
  8
0
 62
     7
100
AcDbLine
 10
-351.8602587008725
 20
8.69433701702276
 30
0.0
 11
-351.7686397008725
 21
8.688498017022766
 31
0.0
  0
LINE
  5
ECF
330
36
100
AcDbEntity
  8
0
 62
     7
100
AcDbLine
 10
-351.7686397008725
 20
8.688498017022766
 30
0.0
 11
-351.6759477008725
 21
8.685602017022759
 31
0.0
  0
LINE
  5
ED0
330
36
100
AcDbEntity
  8
0
 62
     7
100
AcDbLine
 10
-351.6759477008725
 20
8.685602017022759
 30
0.0
 11
-351.5828977008725
 21
8.685672017022767
 31
0.0
  0
LINE
  5
ED1
330
36
100
AcDbEntity
  8
0
 62
     7
100
AcDbLine
 10
-351.5828977008725
 20
8.685672017022767
 30
0.0
 11
-351.4902087008725
 21
8.688707017022764
 31
0.0
  0
LINE
  5
ED2
330
36
100
AcDbEntity
  8
0
 62
     7
100
AcDbLine
 10
-351.4902087008725
 20
8.688707017022764
 30
0.0
 11
-351.3985997008725
 21
8.694684017022751
 31
0.0
  0
LINE
  5
ED3
330
36
100
AcDbEntity
  8
0
 62
     7
100
AcDbLine
 10
-351.3985997008725
 20
8.694684017022751
 30
0.0
 11
-351.3087757008725
 21
8.703556017022762
 31
0.0
  0
LINE
  5
ED4
330
36
100
AcDbEntity
  8
0
 62
     7
100
AcDbLine
 10
-351.3087757008725
 20
8.703556017022762
 30
0.0
 11
-351.2214327008725
 21
8.715255017022769
 31
0.0
  0
LINE
  5
ED5
330
36
100
AcDbEntity
  8
0
 62
     7
100
AcDbLine
 10
-351.2214327008725
 20
8.715255017022769
 30
0.0
 11
-351.1372457008726
 21
8.729690017022761
 31
0.0
  0
LINE
  5
ED6
330
36
100
AcDbEntity
  8
0
 62
     7
100
AcDbLine
 10
-351.1372457008726
 20
8.729690017022761
 30
0.0
 11
-351.0568647008725
 21
8.746750017022762
 31
0.0
  0
LINE
  5
ED7
330
36
100
AcDbEntity
  8
0
 62
     7
100
AcDbLine
 10
-351.0568647008725
 20
8.746750017022762
 30
0.0
 11
-350.9809127008725
 21
8.766303017022764
 31
0.0
  0
LINE
  5
ED8
330
36
100
AcDbEntity
  8
0
 62
     7
100
AcDbLine
 10
-350.9809127008725
 20
8.766303017022764
 30
0.0
 11
-350.9099747008725
 21
8.788198017022764
 31
0.0
  0
LINE
  5
ED9
330
36
100
AcDbEntity
  8
0
 62
     7
100
AcDbLine
 10
-350.9099747008725
 20
8.788198017022764
 30
0.0
 11
-350.8445997008725
 21
8.812265017022752
 31
0.0
  0
LINE
  5
EDA
330
36
100
AcDbEntity
  8
0
 62
     7
100
AcDbLine
 10
-350.8445997008725
 20
8.812265017022752
 30
0.0
 11
-350.7852937008725
 21
8.838319017022755
 31
0.0
  0
LINE
  5
EDB
330
36
100
AcDbEntity
  8
0
 62
     7
100
AcDbLine
 10
-350.7852937008725
 20
8.838319017022755
 30
0.0
 11
-350.7325137008725
 21
8.866158017022769
 31
0.0
  0
LINE
  5
EDC
330
36
100
AcDbEntity
  8
0
 62
     7
100
AcDbLine
 10
-350.7325137008725
 20
8.866158017022769
 30
0.0
 11
-350.6866697008725
 21
8.895567017022756
 31
0.0
  0
LINE
  5
EDD
330
36
100
AcDbEntity
  8
0
 62
     7
100
AcDbLine
 10
-350.6866697008725
 20
8.895567017022756
 30
0.0
 11
-350.6481147008725
 21
8.926319017022763
 31
0.0
  0
LINE
  5
EDE
330
36
100
AcDbEntity
  8
0
 62
     7
100
AcDbLine
 10
-350.6481147008725
 20
8.926319017022763
 30
0.0
 11
-350.6171467008725
 21
8.958176017022765
 31
0.0
  0
LINE
  5
EDF
330
36
100
AcDbEntity
  8
0
 62
     7
100
AcDbLine
 10
-350.6171467008725
 20
8.958176017022765
 30
0.0
 11
-350.5940047008725
 21
8.990891017022761
 31
0.0
  0
LINE
  5
EE0
330
36
100
AcDbEntity
  8
0
 62
     7
100
AcDbLine
 10
-350.5940047008725
 20
8.990891017022761
 30
0.0
 11
-350.5788697008725
 21
9.024212017022762
 31
0.0
  0
LINE
  5
EE1
330
36
100
AcDbEntity
  8
0
 62
     7
100
AcDbLine
 10
-350.5788697008725
 20
9.024212017022762
 30
0.0
 11
-350.5718557008726
 21
9.057882017022762
 31
0.0
  0
LINE
  5
EE2
330
36
100
AcDbEntity
  8
0
 62
     7
100
AcDbLine
 10
-350.5718557008726
 20
9.057882017022762
 30
0.0
 11
-350.5730187008725
 21
9.091639017022757
 31
0.0
  0
LINE
  5
EE3
330
36
100
AcDbEntity
  8
0
 62
     7
100
AcDbLine
 10
-350.5730187008725
 20
9.091639017022757
 30
0.0
 11
-350.5823497008726
 21
9.125224017022759
 31
0.0
  0
LINE
  5
EE4
330
36
100
AcDbEntity
  8
0
 62
     7
100
AcDbLine
 10
-350.5823497008726
 20
9.125224017022759
 30
0.0
 11
-350.5997767008725
 21
9.158377017022758
 31
0.0
  0
LINE
  5
EE5
330
36
100
AcDbEntity
  8
0
 62
     7
100
AcDbLine
 10
-350.5997767008725
 20
9.158377017022758
 30
0.0
 11
-350.6251637008725
 21
9.190840017022765
 31
0.0
  0
LINE
  5
EE6
330
36
100
AcDbEntity
  8
0
 62
     7
100
AcDbLine
 10
-350.6251637008725
 20
9.190840017022765
 30
0.0
 11
-350.6583157008726
 21
9.222364017022755
 31
0.0
  0
LINE
  5
EE7
330
36
100
AcDbEntity
  8
0
 62
     7
100
AcDbLine
 10
-350.6583157008726
 20
9.222364017022755
 30
0.0
 11
-350.6989757008725
 21
9.252705017022762
 31
0.0
  0
LINE
  5
EE8
330
36
100
AcDbEntity
  8
0
 62
     7
100
AcDbLine
 10
-350.6989757008725
 20
9.252705017022762
 30
0.0
 11
-350.7468307008725
 21
9.281627017022756
 31
0.0
  0
LINE
  5
EE9
330
36
100
AcDbEntity
  8
0
 62
     7
100
AcDbLine
 10
-350.7468307008725
 20
9.281627017022756
 30
0.0
 11
-350.8015097008725
 21
9.308909017022756
 31
0.0
  0
LINE
  5
EEA
330
36
100
AcDbEntity
  8
0
 62
     7
100
AcDbLine
 10
-350.8015097008725
 20
9.308909017022756
 30
0.0
 11
-350.8625897008725
 21
9.334338017022759
 31
0.0
  0
LINE
  5
EEB
330
36
100
AcDbEntity
  8
0
 62
     7
100
AcDbLine
 10
-350.8625897008725
 20
9.334338017022759
 30
0.0
 11
-350.9295997008725
 21
9.357718017022762
 31
0.0
  0
LINE
  5
EEC
330
36
100
AcDbEntity
  8
0
 62
     7
100
AcDbLine
 10
-350.9295997008725
 20
9.357718017022762
 30
0.0
 11
-351.0020207008726
 21
9.378869017022765
 31
0.0
  0
LINE
  5
EED
330
36
100
AcDbEntity
  8
0
 62
     7
100
AcDbLine
 10
-351.0020207008726
 20
9.378869017022765
 30
0.0
 11
-351.0792937008726
 21
9.397627017022756
 31
0.0
  0
LINE
  5
EEE
330
36
100
AcDbEntity
  8
0
 62
     7
100
AcDbLine
 10
-351.0792937008726
 20
9.397627017022756
 30
0.0
 11
-351.1608207008726
 21
9.41384701702276
 31
0.0
  0
LINE
  5
EEF
330
36
100
AcDbEntity
  8
0
 62
     7
100
AcDbLine
 10
-351.1608207008726
 20
9.41384701702276
 30
0.0
 11
-351.2459727008725
 21
9.427403017022754
 31
0.0
  0
LINE
  5
EF2
330
36
100
AcDbEntity
  8
0
 62
     7
100
AcDbLine
 10
-302.6407177008725
 20
8.364278017022755
 30
0.0
 11
-303.3829247008725
 21
10.02012101702276
 31
0.0
  0
LINE
  5
EF3
330
36
100
AcDbEntity
  8
0
 62
     7
100
AcDbLine
 10
-303.3829247008725
 20
10.02012101702276
 30
0.0
 11
-303.5409197008725
 21
11.65561701702276
 31
0.0
  0
LINE
  5
EF4
330
36
100
AcDbEntity
  8
0
 62
     7
100
AcDbLine
 10
-303.5409197008725
 20
11.65561701702276
 30
0.0
 11
-303.1010227008725
 21
12.83000901702276
 31
0.0
  0
LINE
  5
EF5
330
36
100
AcDbEntity
  8
0
 62
     7
100
AcDbLine
 10
-303.1010227008725
 20
12.83000901702276
 30
0.0
 11
-302.7080957008725
 21
14.00366401702276
 31
0.0
  0
LINE
  5
EF6
330
36
100
AcDbEntity
  8
0
 62
     7
100
AcDbLine
 10
-302.7080957008725
 20
14.00366401702276
 30
0.0
 11
-302.8821177008725
 21
15.24775801702276
 31
0.0
  0
LINE
  5
EF7
330
36
100
AcDbEntity
  8
0
 62
     7
100
AcDbLine
 10
-302.8821177008725
 20
15.24775801702276
 30
0.0
 11
-303.4484707008725
 21
16.50292001702276
 31
0.0
  0
LINE
  5
EF8
330
36
100
AcDbEntity
  8
0
 62
     7
100
AcDbLine
 10
-305.1139347008725
 20
8.513812017022758
 30
0.0
 11
-305.8561417008725
 21
10.16965601702276
 31
0.0
  0
LINE
  5
EF9
330
36
100
AcDbEntity
  8
0
 62
     7
100
AcDbLine
 10
-305.8561417008725
 20
10.16965601702276
 30
0.0
 11
-306.0141377008725
 21
11.80515201702276
 31
0.0
  0
LINE
  5
EFA
330
36
100
AcDbEntity
  8
0
 62
     7
100
AcDbLine
 10
-306.0141377008725
 20
11.80515201702276
 30
0.0
 11
-305.5742397008725
 21
12.97954301702276
 31
0.0
  0
LINE
  5
EFB
330
36
100
AcDbEntity
  8
0
 62
     7
100
AcDbLine
 10
-305.5742397008725
 20
12.97954301702276
 30
0.0
 11
-305.1813127008725
 21
14.15319801702276
 31
0.0
  0
LINE
  5
EFC
330
36
100
AcDbEntity
  8
0
 62
     7
100
AcDbLine
 10
-305.1813127008725
 20
14.15319801702276
 30
0.0
 11
-305.3553347008725
 21
15.39729201702276
 31
0.0
  0
LINE
  5
EFD
330
36
100
AcDbEntity
  8
0
 62
     7
100
AcDbLine
 10
-305.3553347008725
 20
15.39729201702276
 30
0.0
 11
-305.9216887008726
 21
16.65245401702276
 31
0.0
  0
LINE
  5
EFE
330
36
100
AcDbEntity
  8
0
100
AcDbLine
 10
-418.7640757008725
 20
12.11730501702276
 30
0.0
 11
-418.7640757008725
 21
-12.35093698297724
 31
0.0
  0
LINE
  5
EFF
330
36
100
AcDbEntity
  8
0
100
AcDbLine
 10
-385.7640757008725
 20
12.11730501702276
 30
0.0
 11
-385.7640757008725
 21
-12.35093698297724
 31
0.0
  0
LINE
  5
F00
330
36
100
AcDbEntity
  8
0
100
AcDbLine
 10
-416.2640757008725
 20
-11.10093698297724
 30
0.0
 11
-388.2640757008725
 21
-11.10093698297724
 31
0.0
  0
LINE
  5
F04
330
36
100
AcDbEntity
  8
0
100
AcDbLine
 10
-368.8665097008725
 20
-4.096500982977246
 30
0.0
 11
-368.8665097008725
 21
-12.35093698297724
 31
0.0
  0
LINE
  5
F05
330
36
100
AcDbEntity
  8
0
100
AcDbLine
 10
-316.3665097008725
 20
9.153499017022767
 30
0.0
 11
-316.3665097008725
 21
-12.35093698297724
 31
0.0
  0
LINE
  5
F06
330
36
100
AcDbEntity
  8
0
100
AcDbLine
 10
-366.3665097008725
 20
-11.10093698297724
 30
0.0
 11
-318.8665097008725
 21
-11.10093698297724
 31
0.0
  0
LINE
  5
F0A
330
36
100
AcDbEntity
  8
0
100
AcDbLine
 10
-292.9029507008725
 20
9.153499017022767
 30
0.0
 11
-292.9029507008725
 21
-12.35093698297724
 31
0.0
  0
LINE
  5
F0B
330
36
100
AcDbEntity
  8
0
100
AcDbLine
 10
-240.6529507008725
 20
-1.858645982977236
 30
0.0
 11
-240.6529507008725
 21
-12.35093698297724
 31
0.0
  0
LINE
  5
F0C
330
36
100
AcDbEntity
  8
0
100
AcDbLine
 10
-290.4029507008725
 20
-11.10093698297724
 30
0.0
 11
-243.1529507008725
 21
-11.10093698297724
 31
0.0
  0
LINE
  5
F10
330
36
100
AcDbEntity
  8
0
100
AcDbLine
 10
-215.8657307008725
 20
12.11289201702276
 30
0.0
 11
-215.8657307008725
 21
-12.35093698297724
 31
0.0
  0
LINE
  5
F11
330
36
100
AcDbEntity
  8
0
100
AcDbLine
 10
-185.3657307008725
 20
12.11289201702276
 30
0.0
 11
-185.3657307008725
 21
-12.35093698297724
 31
0.0
  0
LINE
  5
F12
330
36
100
AcDbEntity
  8
0
100
AcDbLine
 10
-213.3657307008725
 20
-11.10093698297724
 30
0.0
 11
-187.8657307008725
 21
-11.10093698297724
 31
0.0
  0
LINE
  5
F16
330
36
100
AcDbEntity
  8
0
100
AcDbLine
 10
-368.8665097008725
 20
-4.096500982977246
 30
0.0
 11
-368.8665097008725
 21
-20.18456398297724
 31
0.0
  0
LINE
  5
F17
330
36
100
AcDbEntity
  8
0
100
AcDbLine
 10
-240.6529507008725
 20
-1.858645982977236
 30
0.0
 11
-240.6529507008725
 21
-20.18456398297724
 31
0.0
  0
LINE
  5
F18
330
36
100
AcDbEntity
  8
0
100
AcDbLine
 10
-366.3665097008725
 20
-18.93456398297724
 30
0.0
 11
-243.1529507008725
 21
-18.93456398297724
 31
0.0
  0
TEXT
  5
F1C
330
36
100
AcDbEntity
  8
0
  6
Continuous
 62
     4
100
AcDbText
 10
-405.5974090342058
 20
-10.47593698297724
 30
0.0
 40
2.5
  1
\U+220565
100
AcDbText
  0
LINE
  5
F1D
330
36
100
AcDbEntity
  8
0
  6
ByBlock
 62
     0
370
    -2
100
AcDbLine
 10
-388.2640757008725
 20
-10.43106448297724
 30
0.0
 11
-385.7640757008725
 21
-11.10093698297724
 31
0.0
  0
LINE
  5
F1E
330
36
100
AcDbEntity
  8
0
  6
ByBlock
 62
     0
370
    -2
100
AcDbLine
 10
-385.7640757008725
 20
-11.10093698297724
 30
0.0
 11
-388.2640757008725
 21
-11.77080948297724
 31
0.0
  0
LINE
  5
F1F
330
36
100
AcDbEntity
  8
0
  6
ByBlock
 62
     0
370
    -2
100
AcDbLine
 10
-385.7640757008725
 20
-11.10093698297724
 30
0.0
 11
-388.2640757008725
 21
-11.10093698297724
 31
0.0
  0
LINE
  5
F20
330
36
100
AcDbEntity
  8
0
  6
ByBlock
 62
     0
370
    -2
100
AcDbLine
 10
-416.2640757008725
 20
-11.77080948297724
 30
0.0
 11
-418.7640757008725
 21
-11.10093698297724
 31
0.0
  0
LINE
  5
F21
330
36
100
AcDbEntity
  8
0
  6
ByBlock
 62
     0
370
    -2
100
AcDbLine
 10
-418.7640757008725
 20
-11.10093698297724
 30
0.0
 11
-416.2640757008725
 21
-10.43106448297724
 31
0.0
  0
LINE
  5
F22
330
36
100
AcDbEntity
  8
0
  6
ByBlock
 62
     0
370
    -2
100
AcDbLine
 10
-418.7640757008725
 20
-11.10093698297724
 30
0.0
 11
-416.2640757008725
 21
-11.10093698297724
 31
0.0
  0
TEXT
  5
F23
330
36
100
AcDbEntity
  8
0
  6
Continuous
 62
     4
100
AcDbText
 10
-345.3248430342058
 20
-10.47593698297724
 30
0.0
 40
2.5
  1
105
100
AcDbText
  0
LINE
  5
F24
330
36
100
AcDbEntity
  8
0
  6
ByBlock
 62
     0
370
    -2
100
AcDbLine
 10
-318.8665097008725
 20
-10.43106448297724
 30
0.0
 11
-316.3665097008725
 21
-11.10093698297724
 31
0.0
  0
LINE
  5
F25
330
36
100
AcDbEntity
  8
0
  6
ByBlock
 62
     0
370
    -2
100
AcDbLine
 10
-316.3665097008725
 20
-11.10093698297724
 30
0.0
 11
-318.8665097008725
 21
-11.77080948297724
 31
0.0
  0
LINE
  5
F26
330
36
100
AcDbEntity
  8
0
  6
ByBlock
 62
     0
370
    -2
100
AcDbLine
 10
-316.3665097008725
 20
-11.10093698297724
 30
0.0
 11
-318.8665097008725
 21
-11.10093698297724
 31
0.0
  0
LINE
  5
F27
330
36
100
AcDbEntity
  8
0
  6
ByBlock
 62
     0
370
    -2
100
AcDbLine
 10
-366.3665097008725
 20
-11.77080948297724
 30
0.0
 11
-368.8665097008725
 21
-11.10093698297724
 31
0.0
  0
LINE
  5
F28
330
36
100
AcDbEntity
  8
0
  6
ByBlock
 62
     0
370
    -2
100
AcDbLine
 10
-368.8665097008725
 20
-11.10093698297724
 30
0.0
 11
-366.3665097008725
 21
-10.43106448297724
 31
0.0
  0
LINE
  5
F29
330
36
100
AcDbEntity
  8
0
  6
ByBlock
 62
     0
370
    -2
100
AcDbLine
 10
-368.8665097008725
 20
-11.10093698297724
 30
0.0
 11
-366.3665097008725
 21
-11.10093698297724
 31
0.0
  0
TEXT
  5
F2A
330
36
100
AcDbEntity
  8
0
  6
Continuous
 62
     4
100
AcDbText
 10
-269.4862840342058
 20
-10.47593698297724
 30
0.0
 40
2.5
  1
104
100
AcDbText
  0
LINE
  5
F2B
330
36
100
AcDbEntity
  8
0
  6
ByBlock
 62
     0
370
    -2
100
AcDbLine
 10
-243.1529507008725
 20
-10.43106448297724
 30
0.0
 11
-240.6529507008725
 21
-11.10093698297724
 31
0.0
  0
LINE
  5
F2C
330
36
100
AcDbEntity
  8
0
  6
ByBlock
 62
     0
370
    -2
100
AcDbLine
 10
-240.6529507008725
 20
-11.10093698297724
 30
0.0
 11
-243.1529507008725
 21
-11.77080948297724
 31
0.0
  0
LINE
  5
F2D
330
36
100
AcDbEntity
  8
0
  6
ByBlock
 62
     0
370
    -2
100
AcDbLine
 10
-240.6529507008725
 20
-11.10093698297724
 30
0.0
 11
-243.1529507008725
 21
-11.10093698297724
 31
0.0
  0
LINE
  5
F2E
330
36
100
AcDbEntity
  8
0
  6
ByBlock
 62
     0
370
    -2
100
AcDbLine
 10
-290.4029507008725
 20
-11.77080948297724
 30
0.0
 11
-292.9029507008725
 21
-11.10093698297724
 31
0.0
  0
LINE
  5
F2F
330
36
100
AcDbEntity
  8
0
  6
ByBlock
 62
     0
370
    -2
100
AcDbLine
 10
-292.9029507008725
 20
-11.10093698297724
 30
0.0
 11
-290.4029507008725
 21
-10.43106448297724
 31
0.0
  0
LINE
  5
F30
330
36
100
AcDbEntity
  8
0
  6
ByBlock
 62
     0
370
    -2
100
AcDbLine
 10
-292.9029507008725
 20
-11.10093698297724
 30
0.0
 11
-290.4029507008725
 21
-11.10093698297724
 31
0.0
  0
TEXT
  5
F31
330
36
100
AcDbEntity
  8
0
  6
Continuous
 62
     4
100
AcDbText
 10
-203.5323973675392
 20
-10.47593698297724
 30
0.0
 40
2.5
  1
\U+220561
100
AcDbText
  0
LINE
  5
F32
330
36
100
AcDbEntity
  8
0
  6
ByBlock
 62
     0
370
    -2
100
AcDbLine
 10
-187.8657307008725
 20
-10.43106448297724
 30
0.0
 11
-185.3657307008725
 21
-11.10093698297724
 31
0.0
  0
LINE
  5
F33
330
36
100
AcDbEntity
  8
0
  6
ByBlock
 62
     0
370
    -2
100
AcDbLine
 10
-185.3657307008725
 20
-11.10093698297724
 30
0.0
 11
-187.8657307008725
 21
-11.77080948297724
 31
0.0
  0
LINE
  5
F34
330
36
100
AcDbEntity
  8
0
  6
ByBlock
 62
     0
370
    -2
100
AcDbLine
 10
-185.3657307008725
 20
-11.10093698297724
 30
0.0
 11
-187.8657307008725
 21
-11.10093698297724
 31
0.0
  0
LINE
  5
F35
330
36
100
AcDbEntity
  8
0
  6
ByBlock
 62
     0
370
    -2
100
AcDbLine
 10
-213.3657307008725
 20
-11.77080948297724
 30
0.0
 11
-215.8657307008725
 21
-11.10093698297724
 31
0.0
  0
LINE
  5
F36
330
36
100
AcDbEntity
  8
0
  6
ByBlock
 62
     0
370
    -2
100
AcDbLine
 10
-215.8657307008725
 20
-11.10093698297724
 30
0.0
 11
-213.3657307008725
 21
-10.43106448297724
 31
0.0
  0
LINE
  5
F37
330
36
100
AcDbEntity
  8
0
  6
ByBlock
 62
     0
370
    -2
100
AcDbLine
 10
-215.8657307008725
 20
-11.10093698297724
 30
0.0
 11
-213.3657307008725
 21
-11.10093698297724
 31
0.0
  0
TEXT
  5
F38
330
36
100
AcDbEntity
  8
0
  6
Continuous
 62
     4
100
AcDbText
 10
-310.2597302008725
 20
-18.30956398297724
 30
0.0
 40
2.5
  1
電線長さ
100
AcDbText
  0
LINE
  5
F39
330
36
100
AcDbEntity
  8
0
  6
ByBlock
 62
     0
370
    -2
100
AcDbLine
 10
-243.1529507008725
 20
-18.26469148297723
 30
0.0
 11
-240.6529507008725
 21
-18.93456398297724
 31
0.0
  0
LINE
  5
F3A
330
36
100
AcDbEntity
  8
0
  6
ByBlock
 62
     0
370
    -2
100
AcDbLine
 10
-240.6529507008725
 20
-18.93456398297724
 30
0.0
 11
-243.1529507008725
 21
-19.60443648297724
 31
0.0
  0
LINE
  5
F3B
330
36
100
AcDbEntity
  8
0
  6
ByBlock
 62
     0
370
    -2
100
AcDbLine
 10
-240.6529507008725
 20
-18.93456398297724
 30
0.0
 11
-243.1529507008725
 21
-18.93456398297724
 31
0.0
  0
LINE
  5
F3C
330
36
100
AcDbEntity
  8
0
  6
ByBlock
 62
     0
370
    -2
100
AcDbLine
 10
-366.3665097008725
 20
-19.60443648297724
 30
0.0
 11
-368.8665097008725
 21
-18.93456398297724
 31
0.0
  0
LINE
  5
F3D
330
36
100
AcDbEntity
  8
0
  6
ByBlock
 62
     0
370
    -2
100
AcDbLine
 10
-368.8665097008725
 20
-18.93456398297724
 30
0.0
 11
-366.3665097008725
 21
-18.26469148297723
 31
0.0
  0
LINE
  5
F3E
330
36
100
AcDbEntity
  8
0
  6
ByBlock
 62
     0
370
    -2
100
AcDbLine
 10
-368.8665097008725
 20
-18.93456398297724
 30
0.0
 11
-366.3665097008725
 21
-18.93456398297724
 31
0.0
  0
ENDSEC
  0
SECTION
  2
OBJECTS
  0
DICTIONARY
  5
C
330
0
100
AcDbDictionary
281
     1
  3
ACAD_2007HEADERVARS_RT
350
F43
  3
ACAD_COLOR
350
2F
  3
ACAD_GROUP
350
D
  3
ACAD_LAYOUT
350
2E
  3
ACAD_MATERIAL
350
10
  3
ACAD_MLEADERSTYLE
350
5EE
  3
ACAD_MLINESTYLE
350
2B
  3
ACAD_PLOTSETTINGS
350
2D
  3
ACAD_PLOTSTYLENAME
350
E
  3
ACAD_SCALELIST
350
5DC
  3
ACAD_TABLESTYLE
350
30
  3
ACAD_VISUALSTYLE
350
14
  3
ACDB_RECOMPOSE_DATA
350
F41
  3
AcDbVariableDictionary
350
4DE
  3
DWGPROPS
350
F42
  0
DICTIONARY
  5
3E6
330
2
100
AcDbDictionary
280
     1
281
     1
  3
ACAD_LAYERSTATES
360
3E7
  0
DICTIONARY
  5
E1B
330
25
100
AcDbDictionary
280
     1
281
     1
  3
ADSK_XREC_LAYER_RECONCILED
360
E1C
  0
DICTIONARY
  5
EF0
330
36
100
AcDbDictionary
280
     1
281
     1
  3
ACAD_SORTENTS
360
EF1
  0
DICTIONARY
  5
F43
102
{ACAD_REACTORS
330
C
102
}
330
C
100
AcDbDictionary
281
     1
  3
DIMARCSYM
350
F45
  3
DIMFXL
350
F44
  3
DIMJOGANG
350
F46
  3
INTERFEREVPVS
350
F47
  0
DICTIONARY
  5
2F
102
{ACAD_REACTORS
330
C
102
}
330
C
100
AcDbDictionary
281
     1
  0
DICTIONARY
  5
D
102
{ACAD_REACTORS
330
C
102
}
330
C
100
AcDbDictionary
281
     1
  0
DICTIONARY
  5
2E
102
{ACAD_REACTORS
330
C
102
}
330
C
100
AcDbDictionary
281
     1
  3
Model
350
39
  3
レイアウト1
350
35
  0
DICTIONARY
  5
10
102
{ACAD_REACTORS
330
C
102
}
330
C
100
AcDbDictionary
281
     1
  3
ByBlock
350
12
  3
ByLayer
350
11
  3
Global
350
13
  0
DICTIONARY
  5
5EE
102
{ACAD_REACTORS
330
C
102
}
330
C
100
AcDbDictionary
281
     1
  3
Standard
350
5EF
  0
DICTIONARY
  5
2B
102
{ACAD_REACTORS
330
C
102
}
330
C
100
AcDbDictionary
281
     1
  3
Standard
350
2C
  0
DICTIONARY
  5
2D
102
{ACAD_REACTORS
330
C
102
}
330
C
100
AcDbDictionary
281
     1
  0
ACDBDICTIONARYWDFLT
  5
E
102
{ACAD_REACTORS
330
C
102
}
330
C
100
AcDbDictionary
281
     1
  3
Normal
350
F
100
AcDbDictionaryWithDefault
340
F
  0
DICTIONARY
  5
5DC
102
{ACAD_REACTORS
330
C
102
}
330
C
100
AcDbDictionary
281
     1
  3
A0
350
5DD
  3
A1
350
5DE
  3
A2
350
5DF
  3
A3
350
5E0
  3
A4
350
5E1
  3
A5
350
5E2
  3
A6
350
5E3
  3
A7
350
5E4
  3
A8
350
5E5
  3
A9
350
5E6
  3
B0
350
5E7
  3
B1
350
5E8
  3
B2
350
5E9
  3
B3
350
5EA
  3
B4
350
5EB
  3
B5
350
5EC
  3
B6
350
5ED
  0
DICTIONARY
  5
30
102
{ACAD_REACTORS
330
C
102
}
330
C
100
AcDbDictionary
281
     1
  3
Standard
350
31
  0
DICTIONARY
  5
14
102
{ACAD_REACTORS
330
C
102
}
330
C
100
AcDbDictionary
281
     1
  3
2dWireframe
350
1A
  3
3D Hidden
350
1C
  3
3dWireframe
350
1B
  3
Basic
350
19
  3
Brighten
350
20
  3
ColorChange
350
24
  3
Conceptual
350
1D
  3
Dim
350
1F
  3
EdgeColorOff
350
5DB
  3
Facepattern
350
23
  3
Flat
350
15
  3
FlatWithEdges
350
16
  3
Gouraud
350
17
  3
GouraudWithEdges
350
18
  3
Hidden
350
5D3
  3
JitterOff
350
5D9
  3
Linepattern
350
22
  3
OverhangOff
350
5DA
  3
Realistic
350
1E
  3
Shaded
350
5D8
  3
Shaded with edges
350
5D7
  3
Shades of Gray
350
5D4
  3
Sketchy
350
5D5
  3
Thicken
350
21
  3
Wireframe
350
5D2
  3
X-Ray
350
5D6
  0
XRECORD
  5
F41
102
{ACAD_REACTORS
330
C
102
}
330
C
100
AcDbXrecord
280
     1
 90
        1
330
31
  0
DICTIONARY
  5
4DE
102
{ACAD_REACTORS
330
C
102
}
330
C
100
AcDbDictionary
281
     1
  3
CANNOSCALE
350
E1E
  3
CMLEADERSTYLE
350
E1D
  3
CTABLESTYLE
350
4DF
  3
DIMASSOC
350
4E2
  3
INDEXCTL
350
4E1
  3
LOFTANG1
350
E20
  3
LOFTANG2
350
E21
  3
LONGITUDE
350
E22
  3
SORTENTS
350
4E0
  3
XCLIPFRAME
350
E1F
  0
XRECORD
  5
F42
102
{ACAD_REACTORS
330
C
102
}
330
C
100
AcDbXrecord
280
     1
  1
DWGPROPS COOKIE
  2

  3

  4

  6

  7

  8
imamura
  9

300
=
301
=
302
=
303
=
304
=
305
=
306
=
307
=
308
=
309
=
 40
0.0247939814814815
 41
2455548.628987986
 42
2456748.413871655
  1

 90
        0
  0
DICTIONARY
  5
3E7
102
{ACAD_REACTORS
330
3E6
102
}
330
3E6
100
AcDbDictionary
281
     1
  0
XRECORD
  5
E1C
102
{ACAD_REACTORS
330
E1B
102
}
330
E1B
100
AcDbXrecord
280
     1
290
     1
  0
SORTENTSTABLE
  5
EF1
102
{ACAD_REACTORS
330
EF0
102
}
330
EF0
100
AcDbSortentsTable
330
36
331
D10
  5
F2E
331
C40
  5
CCC
331
B70
  5
BBD
331
C51
  5
CDD
331
B81
  5
BCE
331
C62
  5
CEE
331
ED2
  5
CAE
331
EE3
  5
CBF
331
C73
  5
CFF
331
B8B
  5
BD8
331
B9C
  5
BE9
331
EF4
  5
B5B
331
C7D
  5
D09
331
BAD
  5
BFA
331
F05
  5
AFC
331
BBE
  5
C0B
331
C8E
  5
D1A
331
ACE
  5
B11
331
BCF
  5
C1C
331
F27
  5
AFE
331
C9F
  5
EBB
331
ADF
  5
B28
331
BE0
  5
C2D
331
F38
  5
AE0
331
CB0
  5
ECC
331
AF0
  5
B39
331
EB1
  5
C8D
331
BF1
  5
C3E
331
CC1
  5
EDD
331
B01
  5
B4A
331
CD2
  5
EEE
331
EC2
  5
C9E
331
CE3
  5
F01
331
B1B
  5
B69
331
C0D
  5
C5B
331
B3D
  5
B8A
331
B2C
  5
B79
331
CFF
  5
F1D
331
C1E
  5
C6C
331
B4E
  5
B9B
331
C2F
  5
C7D
331
B5F
  5
BAC
331
F16
  5
ACD
331
D00
  5
F1E
331
D11
  5
F2F
331
C30
  5
C7E
331
B60
  5
BAD
331
C41
  5
CCD
331
B71
  5
BBE
331
C52
  5
CDE
331
B82
  5
BCF
331
C63
  5
CEF
331
ED3
  5
CAF
331
EE4
  5
CC0
331
C74
  5
D00
331
B8C
  5
BD9
331
B9D
  5
BEA
331
EF5
  5
B5C
331
C7E
  5
D0A
331
BAE
  5
BFB
331
F06
  5
AFD
331
BBF
  5
C0C
331
C8F
  5
D1B
331
ACF
  5
B12
331
BD0
  5
C1D
331
F28
  5
AFF
331
CA0
  5
EBC
331
AE0
  5
B29
331
BE1
  5
C2E
331
F39
  5
AD9
331
CB1
  5
ECD
331
AF1
  5
B3A
331
EB2
  5
C8E
331
BF2
  5
C40
331
CC2
  5
EDE
331
B02
  5
B4B
331
CD3
  5
EEF
331
EC3
  5
C9F
331
CE4
  5
F02
331
B1C
  5
B6A
331
C0E
  5
C5C
331
B3E
  5
B8B
331
B2D
  5
B7A
331
C1F
  5
C6D
331
B4F
  5
B9C
331
F17
  5
ACE
331
CF0
  5
F0E
331
D01
  5
F1F
331
C20
  5
C6E
331
B50
  5
B9D
331
D12
  5
F30
331
C31
  5
C7F
331
B61
  5
BAE
331
C42
  5
CCE
331
B72
  5
BBF
331
C53
  5
CDF
331
B83
  5
BD0
331
C64
  5
CF0
331
ED4
  5
CB0
331
EE5
  5
CC1
331
C75
  5
D01
331
B8D
  5
BDA
331
C7F
  5
D0B
331
BAF
  5
BFC
331
B9E
  5
BEB
331
EF6
  5
B5D
331
BC0
  5
C0D
331
C90
  5
D1C
331
AD0
  5
B13
331
BD1
  5
C1E
331
F29
  5
B00
331
CA1
  5
EBD
331
AE1
  5
B2A
331
BE2
  5
C2F
331
F3A
  5
ADB
331
CB2
  5
ECE
331
AF2
  5
B3B
331
EB3
  5
C8F
331
BF3
  5
C41
331
CC3
  5
EDF
331
B03
  5
B4C
331
CD4
  5
EF2
331
EC4
  5
CA0
331
CE5
  5
F03
331
B1D
  5
B6B
331
C0F
  5
C5D
331
B3F
  5
B8C
331
B2E
  5
B7B
331
F18
  5
ACF
331
CF1
  5
F0F
331
C10
  5
C5E
331
B40
  5
B8D
331
D02
  5
F20
331
C21
  5
C6F
331
B51
  5
B9E
331
D13
  5
F31
331
C32
  5
C80
331
B62
  5
BAF
331
C43
  5
CCF
331
B73
  5
BC0
331
C54
  5
CE0
331
B84
  5
BD1
331
C65
  5
CF1
331
ED5
  5
CB1
331
EE6
  5
CC2
331
C76
  5
D02
331
B8E
  5
BDB
331
C80
  5
D0C
331
BB0
  5
BFD
331
B9F
  5
BEC
331
EF7
  5
B5E
331
BC1
  5
C0E
331
C91
  5
D1D
331
AD1
  5
B14
331
BD2
  5
C1F
331
F2A
  5
AFA
331
CA2
  5
EBE
331
AE2
  5
B2B
331
BE3
  5
C30
331
F3B
  5
ADC
331
CB3
  5
ECF
331
AF3
  5
B3C
331
EB4
  5
C90
331
BF4
  5
C42
331
CC4
  5
EE0
331
B04
  5
B4D
331
CD5
  5
EF3
331
EC5
  5
CA1
331
CE6
  5
F04
331
B1E
  5
B6C
331
B2F
  5
B7C
331
C00
  5
C4E
331
B30
  5
B7D
331
CF2
  5
F10
331
C11
  5
C5F
331
B41
  5
B8E
331
D03
  5
F21
331
C22
  5
C70
331
B52
  5
B9F
331
D14
  5
F32
331
C33
  5
C81
331
B63
  5
BB0
331
C44
  5
CD0
331
B74
  5
BC1
331
C55
  5
CE1
331
B85
  5
BD2
331
C66
  5
CF2
331
ED6
  5
CB2
331
EE7
  5
CC3
331
C77
  5
D03
331
B8F
  5
BDC
331
C81
  5
D0D
331
BB1
  5
BFE
331
BA0
  5
BED
331
EF8
  5
B1D
331
BC2
  5
C0F
331
C92
  5
D1E
331
BD3
  5
C20
331
F2B
  5
AF7
331
CA3
  5
EBF
331
AE3
  5
B2C
331
BE4
  5
C31
331
F3C
  5
AD3
331
CB4
  5
ED0
331
AF4
  5
B3D
331
EB5
  5
C91
331
BF5
  5
C43
331
CC5
  5
EE1
331
B05
  5
B4E
331
CD6
  5
EF4
331
EC6
  5
CA2
331
CE7
  5
F05
331
B1F
  5
B6D
331
AD2
  5
B15
331
CE8
  5
F06
331
C01
  5
C4F
331
B31
  5
B7E
331
CF3
  5
F11
331
C12
  5
C60
331
B42
  5
B8F
331
D04
  5
F22
331
C23
  5
C71
331
B53
  5
BA0
331
D15
  5
F33
331
C34
  5
C82
331
B64
  5
BB1
331
C45
  5
CD1
331
B75
  5
BC2
331
C56
  5
CE2
331
B86
  5
BD3
331
C67
  5
CF3
331
ED7
  5
CB3
331
EE8
  5
CC4
331
B90
  5
BDD
331
BA1
  5
BEE
331
EF9
  5
B1E
331
C82
  5
D0E
331
BB2
  5
BFF
331
F0A
  5
AF1
331
BC3
  5
C10
331
C93
  5
D1F
331
AD3
  5
B16
331
BD4
  5
C21
331
CA4
  5
EC0
331
AE4
  5
B2D
331
BE5
  5
C32
331
F3D
  5
AD4
331
CB5
  5
ED1
331
AF5
  5
B3E
331
EB6
  5
C92
331
BF6
  5
C44
331
CC6
  5
EE2
331
B06
  5
B4F
331
CD7
  5
EF5
331
EC7
  5
CA3
331
F2C
  5
AF8
331
CD8
  5
EF6
331
EC8
  5
CA4
331
CE9
  5
F07
331
B21
  5
B6E
331
C02
  5
C50
331
B32
  5
B7F
331
CF4
  5
F12
331
C13
  5
C61
331
B43
  5
B90
331
D05
  5
F23
331
C24
  5
C72
331
B54
  5
BA1
331
D16
  5
F34
331
C35
  5
C83
331
B65
  5
BB2
331
C46
  5
CD2
331
B76
  5
BC3
331
C57
  5
CE3
331
B87
  5
BD4
331
C68
  5
CF4
331
ED8
  5
CB4
331
EE9
  5
CC5
331
B91
  5
BDE
331
BA2
  5
BEF
331
EFA
  5
B1F
331
C83
  5
D0F
331
BB3
  5
C00
331
F0B
  5
AF2
331
BC4
  5
C11
331
F1C
  5
B0E
331
C94
  5
D20
331
AD4
  5
B17
331
BD5
  5
C22
331
F2D
  5
AF9
331
CA5
  5
EC1
331
AE5
  5
B2E
331
BE6
  5
C33
331
F3E
  5
AD5
331
CB6
  5
ED2
331
EB7
  5
C93
331
BF7
  5
C45
331
CC7
  5
EE3
331
B07
  5
B50
331
AF6
  5
B3F
331
EB8
  5
C94
331
BF8
  5
C46
331
CC8
  5
EE4
331
B08
  5
B51
331
CD9
  5
EF7
331
EC9
  5
CA5
331
B11
  5
B5F
331
CEA
  5
F08
331
B22
  5
B6F
331
C03
  5
C51
331
B33
  5
B80
331
CF5
  5
F13
331
C14
  5
C62
331
B44
  5
B91
331
D06
  5
F24
331
C25
  5
C73
331
B55
  5
BA2
331
D17
  5
F35
331
C36
  5
C84
331
B66
  5
BB3
331
C58
  5
CE4
331
C47
  5
CD3
331
B77
  5
BC4
331
C69
  5
CF5
331
ED9
  5
CB5
331
EEA
  5
CC6
331
B92
  5
BDF
331
BA3
  5
BF0
331
EFB
  5
B21
331
C84
  5
D10
331
BB4
  5
C01
331
F0C
  5
AF3
331
BC5
  5
C12
331
F1D
  5
B0B
331
C95
  5
EB1
331
AD5
  5
B18
331
BD6
  5
C23
331
F2E
  5
AF4
331
CA6
  5
EC2
331
AE6
  5
B2F
331
BE7
  5
C34
331
CB7
  5
ED3
331
AF7
  5
B40
331
BE8
  5
C35
331
CB8
  5
ED4
331
AF8
  5
B41
331
EB9
  5
C95
331
BF9
  5
C47
331
CC9
  5
EE5
331
B09
  5
B52
331
CDA
  5
EF8
331
ECA
  5
CA6
331
B12
  5
B60
331
CEB
  5
F09
331
B23
  5
B70
331
C04
  5
C52
331
B34
  5
B81
331
CF6
  5
F14
331
C15
  5
C63
331
B45
  5
B92
331
D07
  5
F25
331
C26
  5
C74
331
B56
  5
BA3
331
D18
  5
F36
331
C37
  5
C85
331
B67
  5
BB4
331
C59
  5
CE5
331
C48
  5
CD4
331
B78
  5
BC5
331
C6A
  5
CF6
331
EDA
  5
CB6
331
EEB
  5
CC7
331
B93
  5
BE0
331
C85
  5
D11
331
BB5
  5
C02
331
BA4
  5
BF1
331
EFC
  5
B22
331
BC6
  5
C13
331
F1E
  5
B0C
331
C96
  5
EB2
331
AD6
  5
B19
331
BD7
  5
C24
331
F2F
  5
AF5
331
CA7
  5
EC3
331
AE7
  5
B30
331
BD8
  5
C25
331
F30
  5
AF6
331
CA8
  5
EC4
331
AE8
  5
B31
331
BE9
  5
C36
331
CB9
  5
ED5
331
AF9
  5
B42
331
EBA
  5
C96
331
BFA
  5
C48
331
CCA
  5
EE6
331
B0A
  5
B53
331
CDB
  5
EF9
331
ECB
  5
CA7
331
B13
  5
B61
331
CEC
  5
F0A
331
B24
  5
B71
331
C05
  5
C53
331
B35
  5
B82
331
CF7
  5
F15
331
C16
  5
C64
331
B46
  5
B93
331
D08
  5
F26
331
C27
  5
C75
331
B57
  5
BA4
331
D19
  5
F37
331
C38
  5
C86
331
B68
  5
BB5
331
C5A
  5
CE6
331
C49
  5
CD5
331
B79
  5
BC6
331
C6B
  5
CF7
331
EDB
  5
CB7
331
EEC
  5
CC8
331
B94
  5
BE1
331
C86
  5
D12
331
BB6
  5
C03
331
BA5
  5
BF2
331
EFD
  5
B23
331
BC7
  5
C14
331
F1F
  5
B0D
331
C97
  5
EB3
331
AD7
  5
B1A
331
BC8
  5
C15
331
F20
  5
B08
331
C98
  5
EB4
331
AD8
  5
B1B
331
BD9
  5
C26
331
F31
  5
AF0
331
CA9
  5
EC5
331
AE9
  5
B32
331
BEA
  5
C37
331
CBA
  5
ED6
331
AFA
  5
B43
331
EBB
  5
C97
331
BFB
  5
C49
331
CCB
  5
EE7
331
B0B
  5
B54
331
CDC
  5
EFA
331
ECC
  5
CA8
331
B14
  5
B62
331
CED
  5
F0B
331
B25
  5
B72
331
C06
  5
C54
331
B36
  5
B83
331
CF8
  5
F16
331
C17
  5
C65
331
B47
  5
B94
331
D09
  5
F27
331
C28
  5
C76
331
B58
  5
BA5
331
D1A
  5
F38
331
C39
  5
C87
331
B69
  5
BB6
331
C5B
  5
CE7
331
C4A
  5
CD6
331
B7A
  5
BC7
331
C6C
  5
CF8
331
EDC
  5
CB8
331
EED
  5
CC9
331
B95
  5
BE2
331
C87
  5
D13
331
BB7
  5
C04
331
BA6
  5
BF3
331
EFE
  5
B05
331
C88
  5
D14
331
BB8
  5
C05
331
F10
  5
AE1
331
BC9
  5
C16
331
F21
  5
B09
331
C99
  5
EB5
331
AD9
  5
B1C
331
BDA
  5
C27
331
F32
  5
AED
331
CAA
  5
EC6
331
AEA
  5
B33
331
BEB
  5
C38
331
CBB
  5
ED7
331
AFB
  5
B44
331
EBC
  5
C98
331
BFC
  5
C4A
331
CCC
  5
EE8
331
B0C
  5
B55
331
CDD
  5
EFB
331
ECD
  5
CA9
331
B15
  5
B63
331
CEE
  5
F0C
331
B26
  5
B73
331
C07
  5
C55
331
B37
  5
B84
331
CF9
  5
F17
331
C18
  5
C66
331
B48
  5
B95
331
D0A
  5
F28
331
C29
  5
C77
331
B59
  5
BA6
331
D1B
  5
F39
331
C3A
  5
C88
331
C5C
  5
CE8
331
C4B
  5
CD7
331
B7B
  5
BC8
331
C6D
  5
CF9
331
EDD
  5
CB9
331
EEE
  5
CCA
331
B96
  5
BE3
331
BA7
  5
BF4
331
EFF
  5
B06
331
B6A
  5
BB7
331
C78
  5
D04
331
BA8
  5
BF5
331
F00
  5
B07
331
C89
  5
D15
331
BB9
  5
C06
331
F11
  5
AE2
331
C9A
  5
EB6
331
BCA
  5
C17
331
F22
  5
B0A
331
BDB
  5
C28
331
F33
  5
AEE
331
CAB
  5
EC7
331
BEC
  5
C39
331
CBC
  5
ED8
331
AFC
  5
B45
331
EBD
  5
C99
331
BFD
  5
C4B
331
CCD
  5
EE9
331
B0D
  5
B56
331
CDE
  5
EFC
331
ECE
  5
CAA
331
B16
  5
B64
331
CEF
  5
F0D
331
B27
  5
B74
331
C08
  5
C56
331
B38
  5
B85
331
CFA
  5
F18
331
C19
  5
C67
331
B49
  5
B96
331
D0B
  5
F29
331
C2A
  5
C78
331
B5A
  5
BA7
331
D1C
  5
F3A
331
C3B
  5
C89
331
B6B
  5
BB8
331
C5D
  5
CE9
331
C4C
  5
CD8
331
B7C
  5
BC9
331
AEB
  5
B34
331
C6E
  5
CFA
331
EEF
  5
CCB
331
B97
  5
BE4
331
EDE
  5
CBA
331
C79
  5
D05
331
BA9
  5
BF6
331
B98
  5
BE5
331
C8A
  5
D16
331
BBA
  5
C07
331
F12
  5
AE6
331
BCB
  5
C18
331
F23
  5
B04
331
C9B
  5
EB7
331
ADB
  5
B24
331
BDC
  5
C29
331
CAC
  5
EC8
331
AEC
  5
B35
331
BED
  5
C3A
331
CBD
  5
ED9
331
AFD
  5
B46
331
EBE
  5
C9A
331
BFE
  5
C4C
331
CCE
  5
EEA
331
B0E
  5
B57
331
CDF
  5
EFD
331
ECF
  5
CAB
331
B17
  5
B65
331
C09
  5
C57
331
B39
  5
B86
331
B28
  5
B75
331
CFB
  5
F19
331
C1A
  5
C68
331
B4A
  5
B97
331
D0C
  5
F2A
331
C2B
  5
C79
331
B5B
  5
BA8
331
D1D
  5
F3B
331
C3C
  5
C8A
331
B6C
  5
BB9
331
C5E
  5
CEA
331
C4D
  5
CD9
331
B7D
  5
BCA
331
F34
  5
AEF
331
C6F
  5
CFB
331
EDF
  5
CBB
331
EE0
  5
CBC
331
C70
  5
CFC
331
B88
  5
BD5
331
C7A
  5
D06
331
BAA
  5
BF7
331
B99
  5
BE6
331
C8B
  5
D17
331
BBB
  5
C08
331
BCC
  5
C19
331
F24
  5
B01
331
C9C
  5
EB8
331
ADC
  5
B25
331
BDD
  5
C2A
331
CAD
  5
EC9
331
AED
  5
B36
331
BEE
  5
C3B
331
CBE
  5
EDA
331
AFE
  5
B47
331
EBF
  5
C9B
331
BFF
  5
C4D
331
CCF
  5
EEB
331
B0F
  5
B58
331
CE0
  5
EFE
331
B18
  5
B66
331
C0A
  5
C58
331
B3A
  5
B87
331
B29
  5
B76
331
CFC
  5
F1A
331
C1B
  5
C69
331
B4B
  5
B98
331
D0D
  5
F2B
331
C2C
  5
C7A
331
B5C
  5
BA9
331
D1E
  5
F3C
331
C3D
  5
C8B
331
B6D
  5
BBA
331
C5F
  5
CEB
331
C4E
  5
CDA
331
B7E
  5
BCB
331
F35
  5
AE7
331
C60
  5
CEC
331
ED0
  5
CAC
331
EE1
  5
CBD
331
C71
  5
CFD
331
B89
  5
BD6
331
C7B
  5
D07
331
BAB
  5
BF8
331
B9A
  5
BE7
331
EF2
  5
B59
331
C8C
  5
D18
331
BBC
  5
C09
331
BCD
  5
C1A
331
F25
  5
B02
331
C9D
  5
EB9
331
ADD
  5
B26
331
BDE
  5
C2B
331
F36
  5
AE8
331
CAE
  5
ECA
331
BEF
  5
C3C
331
CBF
  5
EDB
331
AFF
  5
B48
331
CD0
  5
EEC
331
EC0
  5
C9C
331
CE1
  5
EFF
331
B19
  5
B67
331
C0B
  5
C59
331
B3B
  5
B88
331
B2A
  5
B77
331
CFD
  5
F1B
331
C1C
  5
C6A
331
B4C
  5
B99
331
D0E
  5
F2C
331
C2D
  5
C7B
331
B5D
  5
BAA
331
D1F
  5
F3D
331
C3E
  5
C8C
331
B6E
  5
BBB
331
C4F
  5
CDB
331
B7F
  5
BCC
331
AEE
  5
B37
331
D20
  5
F3E
331
C50
  5
CDC
331
B80
  5
BCD
331
C61
  5
CED
331
ED1
  5
CAD
331
EE2
  5
CBE
331
C72
  5
CFE
331
B8A
  5
BD7
331
B9B
  5
BE8
331
EF3
  5
B5A
331
C7C
  5
D08
331
BAC
  5
BF9
331
F04
  5
AFB
331
BBD
  5
C0A
331
C8D
  5
D19
331
ACD
  5
B0F
331
BCE
  5
C1B
331
F26
  5
B03
331
C9E
  5
EBA
331
ADE
  5
B27
331
BDF
  5
C2C
331
F37
  5
AEC
331
CAF
  5
ECB
331
BF0
  5
C3D
331
CC0
  5
EDC
331
B00
  5
B49
331
CD1
  5
EED
331
EC1
  5
C9D
331
CE2
  5
F00
331
B1A
  5
B68
331
C0C
  5
C5A
331
B3C
  5
B89
331
B2B
  5
B78
331
CFE
  5
F1C
331
C1D
  5
C6B
331
B4D
  5
B9A
331
D0F
  5
F2D
331
C2E
  5
C7C
331
B5E
  5
BAB
331
B6F
  5
BBC
331
AEF
  5
B38
  0
XRECORD
  5
F45
102
{ACAD_REACTORS
330
F43
102
}
330
F43
100
AcDbXrecord
280
     1
 70
     2
  0
XRECORD
  5
F44
102
{ACAD_REACTORS
330
F43
102
}
330
F43
100
AcDbXrecord
280
     1
 40
1.25
  0
XRECORD
  5
F46
102
{ACAD_REACTORS
330
F43
102
}
330
F43
100
AcDbXrecord
280
     1
 40
1.570796326794896
  0
XRECORD
  5
F47
102
{ACAD_REACTORS
330
F43
102
}
330
F43
100
AcDbXrecord
280
     1
340
1B
  0
LAYOUT
  5
39
102
{ACAD_XDICTIONARY
360
F6B
102
}
102
{ACAD_REACTORS
330
2E
102
}
330
2E
100
AcDbPlotSettings
  1

  2
PDF Complete
  4
A4
  6

 40
3.174999952316281
 41
3.174999952316281
 42
3.175003051757812
 43
3.17498779296875
 44
209.9733276367186
 45
297.0106506347656
 46
0.0
 47
0.0
 48
0.0
 49
0.0
140
0.0
141
0.0
142
1.0
143
26.24503742757898
 70
 11952
 72
     0
 73
     1
 74
     0
  7

 75
     0
147
0.0381024413761808
148
3813.985570005147
149
2305.372838389462
100
AcDbLayout
  1
Model
 70
     1
 71
     0
 10
0.0
 20
0.0
 11
12.0
 21
9.0
 12
0.0
 22
0.0
 32
0.0
 14
0.0
 24
0.0
 34
0.0
 15
0.0
 25
0.0
 35
0.0
146
0.0
 13
0.0
 23
0.0
 33
0.0
 16
1.0
 26
0.0
 36
0.0
 17
0.0
 27
1.0
 37
0.0
 76
     0
330
36
331
56
1001
ACAD_PSEXT
1000
PDF Complete
1000
PDF Complete Converter
1000
PDFC
1000
PDF Document Creator
1070
     0
  0
LAYOUT
  5
35
102
{ACAD_XDICTIONARY
360
F69
102
}
102
{ACAD_REACTORS
330
2E
102
}
330
2E
100
AcDbPlotSettings
  1

  2
PDF Complete
  4

  6

 40
0.0
 41
0.0
 42
0.0
 43
0.0
 44
0.0
 45
0.0
 46
0.0
 47
0.0
 48
0.0
 49
0.0
140
0.0
141
0.0
142
1.0
143
1.0
 70
   688
 72
     0
 73
     0
 74
     5
  7

 75
    16
147
1.0
148
0.0
149
0.0
100
AcDbLayout
  1
レイアウト1
 70
     1
 71
     1
 10
0.0
 20
0.0
 11
12.0
 21
9.0
 12
0.0
 22
0.0
 32
0.0
 14
1.000000000000000E+20
 24
1.000000000000000E+20
 34
1.000000000000000E+20
 15
-1.000000000000000E+20
 25
-1.000000000000000E+20
 35
-1.000000000000000E+20
146
0.0
 13
0.0
 23
0.0
 33
0.0
 16
1.0
 26
0.0
 36
0.0
 17
0.0
 27
1.0
 37
0.0
 76
     0
330
32
  0
MATERIAL
  5
12
102
{ACAD_XDICTIONARY
360
506
102
}
102
{ACAD_REACTORS
330
10
102
}
330
10
100
AcDbMaterial
  1
ByBlock
  0
MATERIAL
  5
11
102
{ACAD_XDICTIONARY
360
504
102
}
102
{ACAD_REACTORS
330
10
102
}
330
10
100
AcDbMaterial
  1
ByLayer
  0
MATERIAL
  5
13
102
{ACAD_XDICTIONARY
360
508
102
}
102
{ACAD_REACTORS
330
10
102
}
330
10
100
AcDbMaterial
  1
Global
  0
MLEADERSTYLE
  5
5EF
102
{ACAD_REACTORS
330
5EE
102
}
330
5EE
100
AcDbMLeaderStyle
170
     2
171
     1
172
     0
 90
        2
 40
0.0
 41
0.0
173
     1
 91
-1056964608
340
28
 92
       -2
290
     1
 42
0.09
291
     1
 43
0.36
  3
Standard
 44
0.18
300

342
26
174
     1
178
     6
175
     1
176
     0
 93
-1056964608
 45
0.18
292
     0
297
     0
 46
0.18
 94
-1056964608
 47
1.0
 49
1.0
140
1.0
293
     1
141
0.0
294
     1
177
     0
142
1.0
295
     0
296
     0
143
0.125
1001
ACAD_MLEADERVER
1070
     2
  0
MLINESTYLE
  5
2C
102
{ACAD_REACTORS
330
2B
102
}
330
2B
100
AcDbMlineStyle
  2
STANDARD
 70
     0
  3

 62
   256
 51
90.0
 52
90.0
 71
     2
 49
0.5
 62
   256
  6
BYLAYER
 49
-0.5
 62
   256
  6
BYLAYER
  0
ACDBPLACEHOLDER
  5
F
102
{ACAD_REACTORS
330
E
102
}
330
E
  0
SCALE
  5
5DD
102
{ACAD_REACTORS
330
5DC
102
}
330
5DC
100
AcDbScale
 70
     0
300
1:1
140
1.0
141
1.0
290
     1
  0
SCALE
  5
5DE
102
{ACAD_REACTORS
330
5DC
102
}
330
5DC
100
AcDbScale
 70
     0
300
1/128" = 1'-0"
140
0.0078125
141
12.0
290
     0
  0
SCALE
  5
5DF
102
{ACAD_REACTORS
330
5DC
102
}
330
5DC
100
AcDbScale
 70
     0
300
1/64" = 1'-0"
140
0.015625
141
12.0
290
     0
  0
SCALE
  5
5E0
102
{ACAD_REACTORS
330
5DC
102
}
330
5DC
100
AcDbScale
 70
     0
300
1/32" = 1'-0"
140
0.03125
141
12.0
290
     0
  0
SCALE
  5
5E1
102
{ACAD_REACTORS
330
5DC
102
}
330
5DC
100
AcDbScale
 70
     0
300
1/16" = 1'-0"
140
0.0625
141
12.0
290
     0
  0
SCALE
  5
5E2
102
{ACAD_REACTORS
330
5DC
102
}
330
5DC
100
AcDbScale
 70
     0
300
3/32" = 1'-0"
140
0.09375
141
12.0
290
     0
  0
SCALE
  5
5E3
102
{ACAD_REACTORS
330
5DC
102
}
330
5DC
100
AcDbScale
 70
     0
300
1/8" = 1'-0"
140
0.125
141
12.0
290
     0
  0
SCALE
  5
5E4
102
{ACAD_REACTORS
330
5DC
102
}
330
5DC
100
AcDbScale
 70
     0
300
3/16" = 1'-0"
140
0.1875
141
12.0
290
     0
  0
SCALE
  5
5E5
102
{ACAD_REACTORS
330
5DC
102
}
330
5DC
100
AcDbScale
 70
     0
300
1/4" = 1'-0"
140
0.25
141
12.0
290
     0
  0
SCALE
  5
5E6
102
{ACAD_REACTORS
330
5DC
102
}
330
5DC
100
AcDbScale
 70
     0
300
3/8" = 1'-0"
140
0.375
141
12.0
290
     0
  0
SCALE
  5
5E7
102
{ACAD_REACTORS
330
5DC
102
}
330
5DC
100
AcDbScale
 70
     0
300
1/2" = 1'-0"
140
0.5
141
12.0
290
     0
  0
SCALE
  5
5E8
102
{ACAD_REACTORS
330
5DC
102
}
330
5DC
100
AcDbScale
 70
     0
300
3/4" = 1'-0"
140
0.75
141
12.0
290
     0
  0
SCALE
  5
5E9
102
{ACAD_REACTORS
330
5DC
102
}
330
5DC
100
AcDbScale
 70
     0
300
1" = 1'-0"
140
1.0
141
12.0
290
     0
  0
SCALE
  5
5EA
102
{ACAD_REACTORS
330
5DC
102
}
330
5DC
100
AcDbScale
 70
     0
300
1-1/2" = 1'-0"
140
1.5
141
12.0
290
     0
  0
SCALE
  5
5EB
102
{ACAD_REACTORS
330
5DC
102
}
330
5DC
100
AcDbScale
 70
     0
300
3" = 1'-0"
140
3.0
141
12.0
290
     0
  0
SCALE
  5
5EC
102
{ACAD_REACTORS
330
5DC
102
}
330
5DC
100
AcDbScale
 70
     0
300
6" = 1'-0"
140
6.0
141
12.0
290
     0
  0
SCALE
  5
5ED
102
{ACAD_REACTORS
330
5DC
102
}
330
5DC
100
AcDbScale
 70
     0
300
1'-0" = 1'-0"
140
12.0
141
12.0
290
     0
  0
TABLESTYLE
  5
31
102
{ACAD_XDICTIONARY
360
F3F
102
}
102
{ACAD_REACTORS
330
30
102
}
330
30
100
AcDbTableStyle
  3
Standard
 70
     0
 71
     0
 40
0.06
 41
0.06
280
     0
281
     0
  7
STANDARD
140
0.18
170
     2
 62
     0
 63
     7
283
     0
274
    -2
284
     1
 64
     0
275
    -2
285
     1
 65
     0
276
    -2
286
     1
 66
     0
277
    -2
287
     1
 67
     0
278
    -2
288
     1
 68
     0
279
    -2
289
     1
 69
     0
  7
STANDARD
140
0.25
170
     5
 62
     0
 63
     7
283
     0
274
    -2
284
     1
 64
     0
275
    -2
285
     1
 65
     0
276
    -2
286
     1
 66
     0
277
    -2
287
     1
 67
     0
278
    -2
288
     1
 68
     0
279
    -2
289
     1
 69
     0
  7
STANDARD
140
0.18
170
     5
 62
     0
 63
     7
283
     0
274
    -2
284
     1
 64
     0
275
    -2
285
     1
 65
     0
276
    -2
286
     1
 66
     0
277
    -2
287
     1
 67
     0
278
    -2
288
     1
 68
     0
279
    -2
289
     1
 69
     0
  0
VISUALSTYLE
  5
1A
102
{ACAD_XDICTIONARY
360
F52
102
}
102
{ACAD_REACTORS
330
14
102
}
330
14
100
AcDbVisualStyle
  2

 70
     4
 71
     0
 72
     2
 73
     0
 90
        0
 40
-0.6
 41
-30.0
 62
     5
 63
     7
 74
     1
 91
        4
 64
     7
 65
   257
 75
     1
175
     1
 42
1.0
 92
        0
 66
   257
 43
1.0
 76
     1
 77
     6
 78
     2
 67
     7
 79
     5
170
     0
171
     0
290
     0
174
     0
 93
        1
 44
0.0
173
     0
291
     0
 45
0.0
1001
ACAD
1000
AcDbSavedByObjectVersion
1070
     0
  0
VISUALSTYLE
  5
1C
102
{ACAD_XDICTIONARY
360
F56
102
}
102
{ACAD_REACTORS
330
14
102
}
330
14
100
AcDbVisualStyle
  2

 70
     6
 71
     1
 72
     2
 73
     2
 90
        0
 40
-0.6
 41
-30.0
 62
     5
 63
     7
 74
     2
 91
        2
 64
     7
 65
   257
 75
     2
175
     1
 42
40.0
 92
        0
 66
   257
 43
1.0
 76
     1
 77
     6
 78
     2
 67
     7
 79
     3
170
     0
171
     0
290
     0
174
     0
 93
        1
 44
0.0
173
     0
291
     0
 45
0.0
1001
ACAD
1000
AcDbSavedByObjectVersion
1070
     0
  0
VISUALSTYLE
  5
1B
102
{ACAD_XDICTIONARY
360
F54
102
}
102
{ACAD_REACTORS
330
14
102
}
330
14
100
AcDbVisualStyle
  2

 70
     5
 71
     0
 72
     2
 73
     0
 90
        0
 40
-0.6
 41
-30.0
 62
     5
 63
     7
 74
     1
 91
        4
 64
     7
 65
   257
 75
     1
175
     1
 42
1.0
 92
        0
 66
   257
 43
1.0
 76
     1
 77
     6
 78
     2
 67
     7
 79
     5
170
     0
171
     0
290
     0
174
     0
 93
        1
 44
0.0
173
     0
291
     0
 45
0.0
1001
ACAD
1000
AcDbSavedByObjectVersion
1070
     0
  0
VISUALSTYLE
  5
19
102
{ACAD_XDICTIONARY
360
F50
102
}
102
{ACAD_REACTORS
330
14
102
}
330
14
100
AcDbVisualStyle
  2

 70
     7
 71
     1
 72
     0
 73
     1
 90
        0
 40
-0.6
 41
-30.0
 62
     5
 63
     7
 74
     0
 91
        4
 64
     7
 65
   257
 75
     1
175
     1
 42
1.0
 92
        8
 66
     7
 43
1.0
 76
     1
 77
     6
 78
     2
 67
     7
 79
     5
170
     0
171
     0
290
     0
174
     0
 93
        1
 44
0.0
173
     0
291
     1
 45
0.0
1001
ACAD
1000
AcDbSavedByObjectVersion
1070
     0
  0
VISUALSTYLE
  5
20
102
{ACAD_XDICTIONARY
360
F5E
102
}
102
{ACAD_REACTORS
330
14
102
}
330
14
100
AcDbVisualStyle
  2

 70
    12
 71
     2
 72
     2
 73
     0
 90
        0
 40
-0.6
 41
-30.0
 62
     5
 63
     7
 74
     1
 91
        4
 64
     7
 65
   257
 75
     1
175
     1
 42
1.0
 92
        8
 66
     7
 43
1.0
 76
     1
 77
     6
 78
     2
 67
     7
 79
     5
170
     0
171
     0
290
     0
174
     0
 93
        1
 44
50.0
173
     0
291
     1
 45
0.0
1001
ACAD
1000
AcDbSavedByObjectVersion
1070
     0
  0
VISUALSTYLE
  5
24
102
{ACAD_XDICTIONARY
360
F66
102
}
102
{ACAD_REACTORS
330
14
102
}
330
14
100
AcDbVisualStyle
  2

 70
    16
 71
     2
 72
     2
 73
     3
 90
        0
 40
-0.6
 41
-30.0
 62
     5
 63
     8
 74
     1
 91
        4
 64
     7
 65
   257
 75
     1
175
     1
 42
1.0
 92
        8
 66
     8
 43
1.0
 76
     1
 77
     6
 78
     2
 67
     7
 79
     5
170
     0
171
     0
290
     0
174
     0
 93
        1
 44
0.0
173
     0
291
     1
 45
0.0
1001
ACAD
1000
AcDbSavedByObjectVersion
1070
     0
  0
VISUALSTYLE
  5
1D
102
{ACAD_XDICTIONARY
360
F58
102
}
102
{ACAD_REACTORS
330
14
102
}
330
14
100
AcDbVisualStyle
  2

 70
     9
 71
     3
 72
     2
 73
     0
 90
        0
 40
-0.6
 41
-30.0
 62
     5
 63
     7
 74
     2
 91
        2
 64
     7
 65
   257
 75
     1
175
     1
 42
40.0
 92
        8
 66
     7
 43
1.0
 76
     1
 77
     6
 78
     2
 67
     7
 79
     3
170
     0
171
     0
290
     0
174
     0
 93
        1
 44
0.0
173
     0
291
     0
 45
0.0
1001
ACAD
1000
AcDbSavedByObjectVersion
1070
     0
  0
VISUALSTYLE
  5
1F
102
{ACAD_XDICTIONARY
360
F5C
102
}
102
{ACAD_REACTORS
330
14
102
}
330
14
100
AcDbVisualStyle
  2

 70
    11
 71
     2
 72
     2
 73
     0
 90
        0
 40
-0.6
 41
-30.0
 62
     5
 63
     7
 74
     1
 91
        4
 64
     7
 65
   257
 75
     1
175
     1
 42
1.0
 92
        8
 66
     7
 43
1.0
 76
     1
 77
     6
 78
     2
 67
     7
 79
     5
170
     0
171
     0
290
     0
174
     0
 93
        1
 44
-50.0
173
     0
291
     1
 45
0.0
1001
ACAD
1000
AcDbSavedByObjectVersion
1070
     0
  0
VISUALSTYLE
  5
5DB
102
{ACAD_XDICTIONARY
360
F7F
102
}
102
{ACAD_REACTORS
330
14
102
}
330
14
100
AcDbVisualStyle
  2
EdgeColorOff
 70
    22
 71
     2
 72
     2
 73
     0
 90
        0
 40
-0.6
 41
-30.0
 62
     5
 63
     7
 74
     1
 91
        4
 64
     7
 65
   257
 75
     1
175
     1
 42
1.0
 92
        8
 66
     7
 43
1.0
 76
     1
 77
     6
 78
     2
 67
     7
 79
     5
170
     0
171
     0
290
     0
174
     0
 93
        1
 44
0.0
173
     0
291
     1
 45
0.0
1001
ACAD
1000
AcDbSavedByObjectVersion
1070
     0
  0
VISUALSTYLE
  5
23
102
{ACAD_XDICTIONARY
360
F64
102
}
102
{ACAD_REACTORS
330
14
102
}
330
14
100
AcDbVisualStyle
  2

 70
    15
 71
     2
 72
     2
 73
     0
 90
        0
 40
-0.6
 41
-30.0
 62
     5
 63
     7
 74
     1
 91
        4
 64
     7
 65
   257
 75
     1
175
     1
 42
1.0
 92
        8
 66
     7
 43
1.0
 76
     1
 77
     6
 78
     2
 67
     7
 79
     5
170
     0
171
     0
290
     0
174
     0
 93
        1
 44
0.0
173
     0
291
     1
 45
0.0
1001
ACAD
1000
AcDbSavedByObjectVersion
1070
     0
  0
VISUALSTYLE
  5
15
102
{ACAD_XDICTIONARY
360
F48
102
}
102
{ACAD_REACTORS
330
14
102
}
330
14
100
AcDbVisualStyle
  2

 70
     0
 71
     2
 72
     1
 73
     1
 90
        2
 40
-0.6
 41
30.0
 62
     5
 63
     7
 74
     0
 91
        4
 64
     7
 65
   257
 75
     1
175
     1
 42
1.0
 92
        8
 66
     7
 43
1.0
 76
     1
 77
     6
 78
     2
 67
     7
 79
     5
170
     0
171
     0
290
     0
174
     0
 93
       13
 44
0.0
173
     0
291
     1
 45
0.0
1001
ACAD
1000
AcDbSavedByObjectVersion
1070
     0
  0
VISUALSTYLE
  5
16
102
{ACAD_XDICTIONARY
360
F4A
102
}
102
{ACAD_REACTORS
330
14
102
}
330
14
100
AcDbVisualStyle
  2

 70
     1
 71
     2
 72
     1
 73
     1
 90
        2
 40
-0.6
 41
30.0
 62
     5
 63
     7
 74
     1
 91
        4
 64
     7
 65
   257
 75
     1
175
     1
 42
1.0
 92
        0
 66
   257
 43
1.0
 76
     1
 77
     6
 78
     2
 67
     7
 79
     5
170
     0
171
     0
290
     0
174
     0
 93
       13
 44
0.0
173
     0
291
     1
 45
0.0
1001
ACAD
1000
AcDbSavedByObjectVersion
1070
     0
  0
VISUALSTYLE
  5
17
102
{ACAD_XDICTIONARY
360
F4C
102
}
102
{ACAD_REACTORS
330
14
102
}
330
14
100
AcDbVisualStyle
  2

 70
     2
 71
     2
 72
     2
 73
     1
 90
        2
 40
-0.6
 41
30.0
 62
     5
 63
     7
 74
     0
 91
        4
 64
     7
 65
   257
 75
     1
175
     1
 42
1.0
 92
        0
 66
     7
 43
1.0
 76
     1
 77
     6
 78
     2
 67
     7
 79
     5
170
     0
171
     0
290
     0
174
     0
 93
       13
 44
0.0
173
     0
291
     1
 45
0.0
1001
ACAD
1000
AcDbSavedByObjectVersion
1070
     0
  0
VISUALSTYLE
  5
18
102
{ACAD_XDICTIONARY
360
F4E
102
}
102
{ACAD_REACTORS
330
14
102
}
330
14
100
AcDbVisualStyle
  2

 70
     3
 71
     2
 72
     2
 73
     1
 90
        2
 40
-0.6
 41
30.0
 62
     5
 63
     7
 74
     1
 91
        4
 64
     7
 65
   257
 75
     1
175
     1
 42
1.0
 92
        0
 66
   257
 43
1.0
 76
     1
 77
     6
 78
     2
 67
     7
 79
     5
170
     0
171
     0
290
     0
174
     0
 93
       13
 44
0.0
173
     0
291
     1
 45
0.0
1001
ACAD
1000
AcDbSavedByObjectVersion
1070
     0
  0
VISUALSTYLE
  5
5D3
102
{ACAD_XDICTIONARY
360
F6F
102
}
102
{ACAD_REACTORS
330
14
102
}
330
14
100
AcDbVisualStyle
  2
Hidden
 70
     6
 71
     1
 72
     2
 73
     2
 90
        0
 40
-0.6
 41
-30.0
 62
     5
 63
     7
 74
     2
 91
        2
 64
     7
 65
   257
 75
     2
175
     1
 42
40.0
 92
        0
 66
   257
 43
1.0
 76
     1
 77
     6
 78
     2
 67
     7
 79
     3
170
     0
171
     0
290
     0
174
     0
 93
        1
 44
0.0
173
     0
291
     0
 45
0.0
1001
ACAD
1000
AcDbSavedByObjectVersion
1070
     0
  0
VISUALSTYLE
  5
5D9
102
{ACAD_XDICTIONARY
360
F7B
102
}
102
{ACAD_REACTORS
330
14
102
}
330
14
100
AcDbVisualStyle
  2
JitterOff
 70
    20
 71
     2
 72
     2
 73
     0
 90
        0
 40
-0.6
 41
-30.0
 62
     5
 63
     7
 74
     1
 91
        4
 64
     7
 65
   257
 75
     1
175
     1
 42
1.0
 92
       10
 66
     7
 43
1.0
 76
     1
 77
     6
 78
     2
 67
     7
 79
     5
170
     0
171
     0
290
     0
174
     0
 93
        1
 44
0.0
173
     0
291
     1
 45
0.0
1001
ACAD
1000
AcDbSavedByObjectVersion
1070
     0
  0
VISUALSTYLE
  5
22
102
{ACAD_XDICTIONARY
360
F62
102
}
102
{ACAD_REACTORS
330
14
102
}
330
14
100
AcDbVisualStyle
  2

 70
    14
 71
     2
 72
     2
 73
     0
 90
        0
 40
-0.6
 41
-30.0
 62
     5
 63
     7
 74
     1
 91
        4
 64
     7
 65
   257
 75
     7
175
     7
 42
1.0
 92
        8
 66
     7
 43
1.0
 76
     1
 77
     6
 78
     2
 67
     7
 79
     5
170
     0
171
     0
290
     0
174
     0
 93
        1
 44
0.0
173
     0
291
     1
 45
0.0
1001
ACAD
1000
AcDbSavedByObjectVersion
1070
     0
  0
VISUALSTYLE
  5
5DA
102
{ACAD_XDICTIONARY
360
F7D
102
}
102
{ACAD_REACTORS
330
14
102
}
330
14
100
AcDbVisualStyle
  2
OverhangOff
 70
    21
 71
     2
 72
     2
 73
     0
 90
        0
 40
-0.6
 41
-30.0
 62
     5
 63
     7
 74
     1
 91
        4
 64
     7
 65
   257
 75
     1
175
     1
 42
1.0
 92
        9
 66
     7
 43
1.0
 76
     1
 77
     6
 78
     2
 67
     7
 79
     5
170
     0
171
     0
290
     0
174
     0
 93
        1
 44
0.0
173
     0
291
     1
 45
0.0
1001
ACAD
1000
AcDbSavedByObjectVersion
1070
     0
  0
VISUALSTYLE
  5
1E
102
{ACAD_XDICTIONARY
360
F5A
102
}
102
{ACAD_REACTORS
330
14
102
}
330
14
100
AcDbVisualStyle
  2

 70
     8
 71
     2
 72
     2
 73
     0
 90
        0
 40
-0.6
 41
-30.0
 62
     5
 63
     7
 74
     1
 91
        0
 64
     7
 65
   257
 75
     1
175
     1
 42
1.0
 92
        8
 66
     8
 43
1.0
 76
     1
 77
     6
 78
     2
 67
     7
 79
     5
170
     0
171
     0
290
     0
174
     0
 93
       13
 44
0.0
173
     0
291
     0
 45
0.0
1001
ACAD
1000
AcDbSavedByObjectVersion
1070
     0
  0
VISUALSTYLE
  5
5D8
102
{ACAD_XDICTIONARY
360
F79
102
}
102
{ACAD_REACTORS
330
14
102
}
330
14
100
AcDbVisualStyle
  2
Shaded
 70
    27
 71
     2
 72
     2
 73
     1
 90
        2
 40
-0.6
 41
30.0
 62
     5
 63
     7
 74
     0
 91
        4
 64
     7
 65
   257
 75
     1
175
     1
 42
1.0
 92
        8
 66
   257
 43
1.0
 76
     1
 77
     6
 78
     2
 67
     8
 79
     3
170
     0
171
     0
290
     0
174
     0
 93
        5
 44
0.0
173
     0
291
     0
 45
0.0
1001
ACAD
1000
AcDbSavedByObjectVersion
1070
     0
  0
VISUALSTYLE
  5
5D7
102
{ACAD_XDICTIONARY
360
F77
102
}
102
{ACAD_REACTORS
330
14
102
}
330
14
100
AcDbVisualStyle
  2
Shaded with edges
 70
    26
 71
     2
 72
     2
 73
     1
 90
        2
 40
-0.6
 41
30.0
 62
     5
 63
     7
 74
     1
 91
       10
 64
     7
 65
   257
 75
     2
175
     1
 42
1.0
 92
        8
 66
   257
 43
1.0
 76
     1
 77
     6
 78
     2
 67
     7
 79
     3
170
     0
171
     0
290
     0
174
     0
 93
        5
 44
0.0
173
     0
291
     0
 45
0.0
1001
ACAD
1000
AcDbSavedByObjectVersion
1070
     0
  0
VISUALSTYLE
  5
5D4
102
{ACAD_XDICTIONARY
360
F71
102
}
102
{ACAD_REACTORS
330
14
102
}
330
14
100
AcDbVisualStyle
  2
Shades of Gray
 70
    23
 71
     2
 72
     2
 73
     3
 90
        0
 40
-0.6
 41
-30.0
 62
     5
 63
     7
 74
     2
 91
        2
 64
     7
 65
     7
 75
     1
175
     1
 42
40.0
 92
        8
 66
     7
 43
1.0
 76
     1
 77
     6
 78
     2
 67
     7
 79
     3
170
     0
171
     0
290
     0
174
     0
 93
        1
 44
0.0
173
     0
291
     0
 45
0.0
1001
ACAD
1000
AcDbSavedByObjectVersion
1070
     0
  0
VISUALSTYLE
  5
5D5
102
{ACAD_XDICTIONARY
360
F73
102
}
102
{ACAD_REACTORS
330
14
102
}
330
14
100
AcDbVisualStyle
  2
Sketchy
 70
    24
 71
     1
 72
     2
 73
     2
 90
        0
 40
-0.6
 41
-30.0
 62
     5
 63
     7
 74
     2
 91
        2
 64
     7
 65
     7
 75
     1
175
     1
 42
40.0
 92
       11
 66
     7
 43
1.0
 76
     1
 77
     6
 78
     2
 67
     7
 79
     6
170
     0
171
     0
290
     0
174
     0
 93
        1
 44
0.0
173
     0
291
     0
 45
0.0
1001
ACAD
1000
AcDbSavedByObjectVersion
1070
     0
  0
VISUALSTYLE
  5
21
102
{ACAD_XDICTIONARY
360
F60
102
}
102
{ACAD_REACTORS
330
14
102
}
330
14
100
AcDbVisualStyle
  2

 70
    13
 71
     2
 72
     2
 73
     0
 90
        0
 40
-0.6
 41
-30.0
 62
     5
 63
     7
 74
     1
 91
        4
 64
     7
 65
   257
 75
     1
175
     1
 42
1.0
 92
       12
 66
     7
 43
1.0
 76
     1
 77
     6
 78
     2
 67
     7
 79
     5
170
     0
171
     0
290
     0
174
     0
 93
        1
 44
0.0
173
     0
291
     1
 45
0.0
1001
ACAD
1000
AcDbSavedByObjectVersion
1070
     0
  0
VISUALSTYLE
  5
5D2
102
{ACAD_XDICTIONARY
360
F6D
102
}
102
{ACAD_REACTORS
330
14
102
}
330
14
100
AcDbVisualStyle
  2
Wireframe
 70
     5
 71
     0
 72
     2
 73
     0
 90
        0
 40
-0.6
 41
-30.0
 62
     5
 63
     7
 74
     1
 91
        4
 64
     7
 65
   257
 75
     1
175
     1
 42
1.0
 92
        0
 66
   257
 43
1.0
 76
     1
 77
     6
 78
     2
 67
     7
 79
     3
170
     0
171
     0
290
     0
174
     0
 93
        1
 44
0.0
173
     0
291
     0
 45
0.0
1001
ACAD
1000
AcDbSavedByObjectVersion
1070
     0
  0
VISUALSTYLE
  5
5D6
102
{ACAD_XDICTIONARY
360
F75
102
}
102
{ACAD_REACTORS
330
14
102
}
330
14
100
AcDbVisualStyle
  2
X-Ray
 70
    25
 71
     2
 72
     2
 73
     1
 90
        1
 40
0.5
 41
-30.0
 62
     5
 63
     7
 74
     1
 91
        0
 64
     7
 65
   257
 75
     1
175
     1
 42
1.0
 92
        8
 66
     7
 43
1.0
 76
     1
 77
     6
 78
     2
 67
     7
 79
     3
170
     0
171
     0
290
     0
174
     0
 93
       13
 44
0.0
173
     0
291
     0
 45
0.0
1001
ACAD
1000
AcDbSavedByObjectVersion
1070
     0
  0
DICTIONARYVAR
  5
E1E
102
{ACAD_REACTORS
330
4DE
102
}
330
4DE
100
DictionaryVariables
280
     0
  1
1:1
  0
DICTIONARYVAR
  5
E1D
102
{ACAD_REACTORS
330
4DE
102
}
330
4DE
100
DictionaryVariables
280
     0
  1
STANDARD
  0
DICTIONARYVAR
  5
4DF
102
{ACAD_REACTORS
330
4DE
102
}
330
4DE
100
DictionaryVariables
280
     0
  1
STANDARD
  0
DICTIONARYVAR
  5
4E2
102
{ACAD_REACTORS
330
4DE
102
}
330
4DE
100
DictionaryVariables
280
     0
  1
1
  0
DICTIONARYVAR
  5
4E1
102
{ACAD_REACTORS
330
4DE
102
}
330
4DE
100
DictionaryVariables
280
     0
  1
0
  0
DICTIONARYVAR
  5
E20
102
{ACAD_REACTORS
330
4DE
102
}
330
4DE
100
DictionaryVariables
280
     0
  1
1.570796
  0
DICTIONARYVAR
  5
E21
102
{ACAD_REACTORS
330
4DE
102
}
330
4DE
100
DictionaryVariables
280
     0
  1
1.570796
  0
DICTIONARYVAR
  5
E22
102
{ACAD_REACTORS
330
4DE
102
}
330
4DE
100
DictionaryVariables
280
     0
  1
-122.394000
  0
DICTIONARYVAR
  5
4E0
102
{ACAD_REACTORS
330
4DE
102
}
330
4DE
100
DictionaryVariables
280
     0
  1
127
  0
DICTIONARYVAR
  5
E1F
102
{ACAD_REACTORS
330
4DE
102
}
330
4DE
100
DictionaryVariables
280
     0
  1
0
  0
DICTIONARY
  5
F6B
330
39
100
AcDbDictionary
280
     1
281
     1
  3
ACAD_XREC_ROUNDTRIP
360
F6C
  0
DICTIONARY
  5
F69
330
35
100
AcDbDictionary
280
     1
281
     1
  3
ACAD_XREC_ROUNDTRIP
360
F6A
  0
DICTIONARY
  5
506
330
12
100
AcDbDictionary
280
     1
281
     1
  3
ACAD_XREC_ROUNDTRIP
360
507
  0
DICTIONARY
  5
504
330
11
100
AcDbDictionary
280
     1
281
     1
  3
ACAD_XREC_ROUNDTRIP
360
505
  0
DICTIONARY
  5
508
330
13
100
AcDbDictionary
280
     1
281
     1
  3
ACAD_XREC_ROUNDTRIP
360
509
  0
DICTIONARY
  5
F3F
330
31
100
AcDbDictionary
280
     1
281
     1
  3
ACAD_ROUNDTRIP_2008_TABLESTYLE_CELLSTYLEMAP
360
F40
  3
ACAD_XREC_ROUNDTRIP
360
F68
  0
DICTIONARY
  5
F52
330
1A
100
AcDbDictionary
280
     1
281
     1
  3
ACAD_XREC_ROUNDTRIP
360
F53
  0
DICTIONARY
  5
F56
330
1C
100
AcDbDictionary
280
     1
281
     1
  3
ACAD_XREC_ROUNDTRIP
360
F57
  0
DICTIONARY
  5
F54
330
1B
100
AcDbDictionary
280
     1
281
     1
  3
ACAD_XREC_ROUNDTRIP
360
F55
  0
DICTIONARY
  5
F50
330
19
100
AcDbDictionary
280
     1
281
     1
  3
ACAD_XREC_ROUNDTRIP
360
F51
  0
DICTIONARY
  5
F5E
330
20
100
AcDbDictionary
280
     1
281
     1
  3
ACAD_XREC_ROUNDTRIP
360
F5F
  0
DICTIONARY
  5
F66
330
24
100
AcDbDictionary
280
     1
281
     1
  3
ACAD_XREC_ROUNDTRIP
360
F67
  0
DICTIONARY
  5
F58
330
1D
100
AcDbDictionary
280
     1
281
     1
  3
ACAD_XREC_ROUNDTRIP
360
F59
  0
DICTIONARY
  5
F5C
330
1F
100
AcDbDictionary
280
     1
281
     1
  3
ACAD_XREC_ROUNDTRIP
360
F5D
  0
DICTIONARY
  5
F7F
330
5DB
100
AcDbDictionary
280
     1
281
     1
  3
ACAD_XREC_ROUNDTRIP
360
F80
  0
DICTIONARY
  5
F64
330
23
100
AcDbDictionary
280
     1
281
     1
  3
ACAD_XREC_ROUNDTRIP
360
F65
  0
DICTIONARY
  5
F48
330
15
100
AcDbDictionary
280
     1
281
     1
  3
ACAD_XREC_ROUNDTRIP
360
F49
  0
DICTIONARY
  5
F4A
330
16
100
AcDbDictionary
280
     1
281
     1
  3
ACAD_XREC_ROUNDTRIP
360
F4B
  0
DICTIONARY
  5
F4C
330
17
100
AcDbDictionary
280
     1
281
     1
  3
ACAD_XREC_ROUNDTRIP
360
F4D
  0
DICTIONARY
  5
F4E
330
18
100
AcDbDictionary
280
     1
281
     1
  3
ACAD_XREC_ROUNDTRIP
360
F4F
  0
DICTIONARY
  5
F6F
330
5D3
100
AcDbDictionary
280
     1
281
     1
  3
ACAD_XREC_ROUNDTRIP
360
F70
  0
DICTIONARY
  5
F7B
330
5D9
100
AcDbDictionary
280
     1
281
     1
  3
ACAD_XREC_ROUNDTRIP
360
F7C
  0
DICTIONARY
  5
F62
330
22
100
AcDbDictionary
280
     1
281
     1
  3
ACAD_XREC_ROUNDTRIP
360
F63
  0
DICTIONARY
  5
F7D
330
5DA
100
AcDbDictionary
280
     1
281
     1
  3
ACAD_XREC_ROUNDTRIP
360
F7E
  0
DICTIONARY
  5
F5A
330
1E
100
AcDbDictionary
280
     1
281
     1
  3
ACAD_XREC_ROUNDTRIP
360
F5B
  0
DICTIONARY
  5
F79
330
5D8
100
AcDbDictionary
280
     1
281
     1
  3
ACAD_XREC_ROUNDTRIP
360
F7A
  0
DICTIONARY
  5
F77
330
5D7
100
AcDbDictionary
280
     1
281
     1
  3
ACAD_XREC_ROUNDTRIP
360
F78
  0
DICTIONARY
  5
F71
330
5D4
100
AcDbDictionary
280
     1
281
     1
  3
ACAD_XREC_ROUNDTRIP
360
F72
  0
DICTIONARY
  5
F73
330
5D5
100
AcDbDictionary
280
     1
281
     1
  3
ACAD_XREC_ROUNDTRIP
360
F74
  0
DICTIONARY
  5
F60
330
21
100
AcDbDictionary
280
     1
281
     1
  3
ACAD_XREC_ROUNDTRIP
360
F61
  0
DICTIONARY
  5
F6D
330
5D2
100
AcDbDictionary
280
     1
281
     1
  3
ACAD_XREC_ROUNDTRIP
360
F6E
  0
DICTIONARY
  5
F75
330
5D6
100
AcDbDictionary
280
     1
281
     1
  3
ACAD_XREC_ROUNDTRIP
360
F76
  0
XRECORD
  5
F6C
102
{ACAD_REACTORS
330
F6B
102
}
330
F6B
100
AcDbXrecord
280
     1
102
SHADEPLOT
 70
     0
102
SHADEPLOTRESLEVEL
 70
     2
102
SHADEPLOTCUSTOMDPI
 70
   300
  0
XRECORD
  5
F6A
102
{ACAD_REACTORS
330
F69
102
}
330
F69
100
AcDbXrecord
280
     1
102
SHADEPLOT
 70
     0
102
SHADEPLOTRESLEVEL
 70
     2
102
SHADEPLOTCUSTOMDPI
 70
   300
  0
XRECORD
  5
507
102
{ACAD_REACTORS
330
506
102
}
330
506
100
AcDbXrecord
280
     1
102
MATERIAL
148
0.0
149
0.0
149
0.0
 93
        0
 94
      127
282
     0
 72
     1
 77
     1
171
     1
175
     1
179
     1
273
     0
  0
XRECORD
  5
505
102
{ACAD_REACTORS
330
504
102
}
330
504
100
AcDbXrecord
280
     1
102
MATERIAL
148
0.0
149
0.0
149
0.0
 93
        0
 94
      127
282
     0
 72
     1
 77
     1
171
     1
175
     1
179
     1
273
     0
  0
XRECORD
  5
509
102
{ACAD_REACTORS
330
508
102
}
330
508
100
AcDbXrecord
280
     1
102
MATERIAL
148
0.0
149
0.0
149
0.0
 93
        0
 94
      127
282
     0
 72
     1
 77
     1
171
     1
175
     1
179
     1
273
     0
  0
CELLSTYLEMAP
  5
F40
102
{ACAD_REACTORS
330
F3F
102
}
330
F3F
100
AcDbCellStyleMap
 90
        3
300
CELLSTYLE
  1
TABLEFORMAT_BEGIN
 90
        5
170
     1
 91
        0
 92
    32768
 62
   257
 93
        1
300
CONTENTFORMAT
  1
CONTENTFORMAT_BEGIN
 90
        0
 91
        0
 92
      512
 93
        0
300

 40
0.0
140
1.0
 94
        5
 62
     0
340
26
144
0.25
309
CONTENTFORMAT_END
171
     0
 94
        6
 95
        1
302
GRIDFORMAT
  1
GRIDFORMAT_BEGIN
 90
        0
 91
        1
 62
     0
 92
       -2
340
0
 93
        0
 40
0.045
309
GRIDFORMAT_END
 95
        2
302
GRIDFORMAT
  1
GRIDFORMAT_BEGIN
 90
        0
 91
        1
 62
     0
 92
       -2
340
0
 93
        0
 40
0.045
309
GRIDFORMAT_END
 95
        4
302
GRIDFORMAT
  1
GRIDFORMAT_BEGIN
 90
        0
 91
        1
 62
     0
 92
       -2
340
0
 93
        0
 40
0.045
309
GRIDFORMAT_END
 95
        8
302
GRIDFORMAT
  1
GRIDFORMAT_BEGIN
 90
        0
 91
        1
 62
     0
 92
       -2
340
0
 93
        0
 40
0.045
309
GRIDFORMAT_END
 95
       16
302
GRIDFORMAT
  1
GRIDFORMAT_BEGIN
 90
        0
 91
        1
 62
     0
 92
       -2
340
0
 93
        0
 40
0.045
309
GRIDFORMAT_END
 95
       32
302
GRIDFORMAT
  1
GRIDFORMAT_BEGIN
 90
        0
 91
        1
 62
     0
 92
       -2
340
0
 93
        0
 40
0.045
309
GRIDFORMAT_END
309
TABLEFORMAT_END
  1
CELLSTYLE_BEGIN
 90
        1
 91
        1
300
_TITLE
309
CELLSTYLE_END
300
CELLSTYLE
  1
TABLEFORMAT_BEGIN
 90
        5
170
     1
 91
        0
 92
        0
 62
   257
 93
        1
300
CONTENTFORMAT
  1
CONTENTFORMAT_BEGIN
 90
        0
 91
        0
 92
      512
 93
        0
300

 40
0.0
140
1.0
 94
        5
 62
     0
340
26
144
0.18
309
CONTENTFORMAT_END
171
     0
 94
        6
 95
        1
302
GRIDFORMAT
  1
GRIDFORMAT_BEGIN
 90
        0
 91
        1
 62
     0
 92
       -2
340
0
 93
        0
 40
0.045
309
GRIDFORMAT_END
 95
        2
302
GRIDFORMAT
  1
GRIDFORMAT_BEGIN
 90
        0
 91
        1
 62
     0
 92
       -2
340
0
 93
        0
 40
0.045
309
GRIDFORMAT_END
 95
        4
302
GRIDFORMAT
  1
GRIDFORMAT_BEGIN
 90
        0
 91
        1
 62
     0
 92
       -2
340
0
 93
        0
 40
0.045
309
GRIDFORMAT_END
 95
        8
302
GRIDFORMAT
  1
GRIDFORMAT_BEGIN
 90
        0
 91
        1
 62
     0
 92
       -2
340
0
 93
        0
 40
0.045
309
GRIDFORMAT_END
 95
       16
302
GRIDFORMAT
  1
GRIDFORMAT_BEGIN
 90
        0
 91
        1
 62
     0
 92
       -2
340
0
 93
        0
 40
0.045
309
GRIDFORMAT_END
 95
       32
302
GRIDFORMAT
  1
GRIDFORMAT_BEGIN
 90
        0
 91
        1
 62
     0
 92
       -2
340
0
 93
        0
 40
0.045
309
GRIDFORMAT_END
309
TABLEFORMAT_END
  1
CELLSTYLE_BEGIN
 90
        2
 91
        1
300
_HEADER
309
CELLSTYLE_END
300
CELLSTYLE
  1
TABLEFORMAT_BEGIN
 90
        5
170
     1
 91
        0
 92
        0
 62
   257
 93
        1
300
CONTENTFORMAT
  1
CONTENTFORMAT_BEGIN
 90
        0
 91
        0
 92
      512
 93
        0
300

 40
0.0
140
1.0
 94
        2
 62
     0
340
26
144
0.18
309
CONTENTFORMAT_END
171
     0
 94
        6
 95
        1
302
GRIDFORMAT
  1
GRIDFORMAT_BEGIN
 90
        0
 91
        1
 62
     0
 92
       -2
340
0
 93
        0
 40
0.045
309
GRIDFORMAT_END
 95
        2
302
GRIDFORMAT
  1
GRIDFORMAT_BEGIN
 90
        0
 91
        1
 62
     0
 92
       -2
340
0
 93
        0
 40
0.045
309
GRIDFORMAT_END
 95
        4
302
GRIDFORMAT
  1
GRIDFORMAT_BEGIN
 90
        0
 91
        1
 62
     0
 92
       -2
340
0
 93
        0
 40
0.045
309
GRIDFORMAT_END
 95
        8
302
GRIDFORMAT
  1
GRIDFORMAT_BEGIN
 90
        0
 91
        1
 62
     0
 92
       -2
340
0
 93
        0
 40
0.045
309
GRIDFORMAT_END
 95
       16
302
GRIDFORMAT
  1
GRIDFORMAT_BEGIN
 90
        0
 91
        1
 62
     0
 92
       -2
340
0
 93
        0
 40
0.045
309
GRIDFORMAT_END
 95
       32
302
GRIDFORMAT
  1
GRIDFORMAT_BEGIN
 90
        0
 91
        1
 62
     0
 92
       -2
340
0
 93
        0
 40
0.045
309
GRIDFORMAT_END
309
TABLEFORMAT_END
  1
CELLSTYLE_BEGIN
 90
        3
 91
        2
300
_DATA
309
CELLSTYLE_END
  0
XRECORD
  5
F68
102
{ACAD_REACTORS
330
F3F
102
}
330
F3F
100
AcDbXrecord
280
     1
102
ACAD_ROUNDTRIP_PRE2007_TABLESTYLE
 90
      512
 91
        0
  1

 92
      512
 93
        0
  2

 94
      512
 95
        0
  3

  0
XRECORD
  5
F53
102
{ACAD_REACTORS
330
F52
102
}
330
F52
100
AcDbXrecord
280
     1
102
RTVSPropertyOp0
 70
     1
102
RTVSPropertyOp1
 70
     1
102
RTVSPropertyOp2
 70
     1
102
RTVSPropertyOp3
 70
     1
102
RTVSPropertyOp4
 70
     1
102
RTVSPropertyOp5
 70
     1
102
RTVSPropertyOp6
 70
     1
102
RTVSPropertyOp7
 70
     1
102
RTVSPropertyOp8
 70
     1
102
RTVSPropertyOp9
 70
     1
102
RTVSPropertyOp10
 70
     1
102
RTVSPropertyOp11
 70
     1
102
RTVSPropertyOp12
 70
     1
102
RTVSPropertyOp13
 70
     1
102
RTVSPropertyOp14
 70
     1
102
RTVSPropertyOp15
 70
     1
102
RTVSPropertyOp16
 70
     1
102
RTVSPropertyOp17
 70
     1
102
RTVSPropertyOp18
 70
     1
102
RTVSPropertyOp19
 70
     1
102
RTVSPropertyOp20
 70
     1
102
RTVSPropertyOp21
 70
     1
102
RTVSPropertyOp22
 70
     1
102
RTVSPropertyOp23
 70
     1
102
RTVSPropertyOp24
 70
     1
102
RTVSPropertyOp25
 70
     1
102
RTVSPropertyOp26
 70
     1
102
RTVSPropertyOp27
 70
     1
102
RTVSPropertyOp28
 70
     1
102
RTVSPropertyOp29
 70
     1
102
RTVSPropertyOp30
 70
     1
102
RTVSPropertyOp31
 70
     1
102
RTVSPropertyOp32
 70
     1
  0
XRECORD
  5
F57
102
{ACAD_REACTORS
330
F56
102
}
330
F56
100
AcDbXrecord
280
     1
102
RTVSPropertyOp0
 70
     1
102
RTVSPropertyOp1
 70
     1
102
RTVSPropertyOp2
 70
     1
102
RTVSPropertyOp3
 70
     1
102
RTVSPropertyOp4
 70
     1
102
RTVSPropertyOp5
 70
     1
102
RTVSPropertyOp6
 70
     1
102
RTVSPropertyOp7
 70
     1
102
RTVSPropertyOp8
 70
     1
102
RTVSPropertyOp9
 70
     1
102
RTVSPropertyOp10
 70
     1
102
RTVSPropertyOp11
 70
     1
102
RTVSPropertyOp12
 70
     1
102
RTVSPropertyOp13
 70
     1
102
RTVSPropertyOp14
 70
     1
102
RTVSPropertyOp15
 70
     1
102
RTVSPropertyOp16
 70
     1
102
RTVSPropertyOp17
 70
     1
102
RTVSPropertyOp18
 70
     1
102
RTVSPropertyOp19
 70
     1
102
RTVSPropertyOp20
 70
     1
102
RTVSPropertyOp21
 70
     1
102
RTVSPropertyOp22
 70
     1
102
RTVSPropertyOp23
 70
     1
102
RTVSPropertyOp24
 70
     1
102
RTVSPropertyOp25
 70
     1
102
RTVSPropertyOp26
 70
     1
102
RTVSPropertyOp27
 70
     1
102
RTVSPropertyOp28
 70
     1
102
RTVSPropertyOp29
 70
     1
102
RTVSPropertyOp30
 70
     1
102
RTVSPropertyOp31
 70
     1
102
RTVSPropertyOp32
 70
     1
  0
XRECORD
  5
F55
102
{ACAD_REACTORS
330
F54
102
}
330
F54
100
AcDbXrecord
280
     1
102
RTVSPropertyOp0
 70
     1
102
RTVSPropertyOp1
 70
     1
102
RTVSPropertyOp2
 70
     1
102
RTVSPropertyOp3
 70
     1
102
RTVSPropertyOp4
 70
     1
102
RTVSPropertyOp5
 70
     1
102
RTVSPropertyOp6
 70
     1
102
RTVSPropertyOp7
 70
     1
102
RTVSPropertyOp8
 70
     1
102
RTVSPropertyOp9
 70
     1
102
RTVSPropertyOp10
 70
     1
102
RTVSPropertyOp11
 70
     1
102
RTVSPropertyOp12
 70
     1
102
RTVSPropertyOp13
 70
     1
102
RTVSPropertyOp14
 70
     1
102
RTVSPropertyOp15
 70
     1
102
RTVSPropertyOp16
 70
     1
102
RTVSPropertyOp17
 70
     1
102
RTVSPropertyOp18
 70
     1
102
RTVSPropertyOp19
 70
     1
102
RTVSPropertyOp20
 70
     1
102
RTVSPropertyOp21
 70
     1
102
RTVSPropertyOp22
 70
     1
102
RTVSPropertyOp23
 70
     1
102
RTVSPropertyOp24
 70
     1
102
RTVSPropertyOp25
 70
     1
102
RTVSPropertyOp26
 70
     1
102
RTVSPropertyOp27
 70
     1
102
RTVSPropertyOp28
 70
     1
102
RTVSPropertyOp29
 70
     1
102
RTVSPropertyOp30
 70
     1
102
RTVSPropertyOp31
 70
     1
102
RTVSPropertyOp32
 70
     1
  0
XRECORD
  5
F51
102
{ACAD_REACTORS
330
F50
102
}
330
F50
100
AcDbXrecord
280
     1
102
RTVSPropertyOp0
 70
     1
102
RTVSPropertyOp1
 70
     1
102
RTVSPropertyOp2
 70
     1
102
RTVSPropertyOp3
 70
     1
102
RTVSPropertyOp4
 70
     1
102
RTVSPropertyOp5
 70
     1
102
RTVSPropertyOp6
 70
     1
102
RTVSPropertyOp7
 70
     1
102
RTVSPropertyOp8
 70
     1
102
RTVSPropertyOp9
 70
     1
102
RTVSPropertyOp10
 70
     1
102
RTVSPropertyOp11
 70
     1
102
RTVSPropertyOp12
 70
     1
102
RTVSPropertyOp13
 70
     1
102
RTVSPropertyOp14
 70
     1
102
RTVSPropertyOp15
 70
     1
102
RTVSPropertyOp16
 70
     1
102
RTVSPropertyOp17
 70
     1
102
RTVSPropertyOp18
 70
     1
102
RTVSPropertyOp19
 70
     1
102
RTVSPropertyOp20
 70
     1
102
RTVSPropertyOp21
 70
     1
102
RTVSPropertyOp22
 70
     1
102
RTVSPropertyOp23
 70
     1
102
RTVSPropertyOp24
 70
     1
102
RTVSPropertyOp25
 70
     1
102
RTVSPropertyOp26
 70
     1
102
RTVSPropertyOp27
 70
     1
102
RTVSPropertyOp28
 70
     1
102
RTVSPropertyOp29
 70
     1
102
RTVSPropertyOp30
 70
     1
102
RTVSPropertyOp31
 70
     1
102
RTVSPropertyOp32
 70
     1
  0
XRECORD
  5
F5F
102
{ACAD_REACTORS
330
F5E
102
}
330
F5E
100
AcDbXrecord
280
     1
102
RTVSPropertyOp0
 70
     1
102
RTVSPropertyOp1
 70
     1
102
RTVSPropertyOp2
 70
     1
102
RTVSPropertyOp3
 70
     1
102
RTVSPropertyOp4
 70
     1
102
RTVSPropertyOp5
 70
     1
102
RTVSPropertyOp6
 70
     1
102
RTVSPropertyOp7
 70
     1
102
RTVSPropertyOp8
 70
     1
102
RTVSPropertyOp9
 70
     1
102
RTVSPropertyOp10
 70
     1
102
RTVSPropertyOp11
 70
     1
102
RTVSPropertyOp12
 70
     1
102
RTVSPropertyOp13
 70
     1
102
RTVSPropertyOp14
 70
     1
102
RTVSPropertyOp15
 70
     1
102
RTVSPropertyOp16
 70
     1
102
RTVSPropertyOp17
 70
     1
102
RTVSPropertyOp18
 70
     1
102
RTVSPropertyOp19
 70
     1
102
RTVSPropertyOp20
 70
     1
102
RTVSPropertyOp21
 70
     1
102
RTVSPropertyOp22
 70
     1
102
RTVSPropertyOp23
 70
     1
102
RTVSPropertyOp24
 70
     1
102
RTVSPropertyOp25
 70
     1
102
RTVSPropertyOp26
 70
     1
102
RTVSPropertyOp27
 70
     1
102
RTVSPropertyOp28
 70
     1
102
RTVSPropertyOp29
 70
     1
102
RTVSPropertyOp30
 70
     1
102
RTVSPropertyOp31
 70
     1
102
RTVSPropertyOp32
 70
     1
  0
XRECORD
  5
F67
102
{ACAD_REACTORS
330
F66
102
}
330
F66
100
AcDbXrecord
280
     1
102
RTVSPropertyOp0
 70
     1
102
RTVSPropertyOp1
 70
     1
102
RTVSPropertyOp2
 70
     1
102
RTVSPropertyOp3
 70
     1
102
RTVSPropertyOp4
 70
     1
102
RTVSPropertyOp5
 70
     1
102
RTVSPropertyOp6
 70
     1
102
RTVSPropertyOp7
 70
     1
102
RTVSPropertyOp8
 70
     1
102
RTVSPropertyOp9
 70
     1
102
RTVSPropertyOp10
 70
     1
102
RTVSPropertyOp11
 70
     1
102
RTVSPropertyOp12
 70
     1
102
RTVSPropertyOp13
 70
     1
102
RTVSPropertyOp14
 70
     1
102
RTVSPropertyOp15
 70
     1
102
RTVSPropertyOp16
 70
     1
102
RTVSPropertyOp17
 70
     1
102
RTVSPropertyOp18
 70
     1
102
RTVSPropertyOp19
 70
     1
102
RTVSPropertyOp20
 70
     1
102
RTVSPropertyOp21
 70
     1
102
RTVSPropertyOp22
 70
     1
102
RTVSPropertyOp23
 70
     1
102
RTVSPropertyOp24
 70
     1
102
RTVSPropertyOp25
 70
     1
102
RTVSPropertyOp26
 70
     1
102
RTVSPropertyOp27
 70
     1
102
RTVSPropertyOp28
 70
     1
102
RTVSPropertyOp29
 70
     1
102
RTVSPropertyOp30
 70
     1
102
RTVSPropertyOp31
 70
     1
102
RTVSPropertyOp32
 70
     1
  0
XRECORD
  5
F59
102
{ACAD_REACTORS
330
F58
102
}
330
F58
100
AcDbXrecord
280
     1
102
RTVSPropertyOp0
 70
     1
102
RTVSPropertyOp1
 70
     1
102
RTVSPropertyOp2
 70
     1
102
RTVSPropertyOp3
 70
     1
102
RTVSPropertyOp4
 70
     1
102
RTVSPropertyOp5
 70
     1
102
RTVSPropertyOp6
 70
     1
102
RTVSPropertyOp7
 70
     1
102
RTVSPropertyOp8
 70
     1
102
RTVSPropertyOp9
 70
     1
102
RTVSPropertyOp10
 70
     1
102
RTVSPropertyOp11
 70
     1
102
RTVSPropertyOp12
 70
     1
102
RTVSPropertyOp13
 70
     1
102
RTVSPropertyOp14
 70
     1
102
RTVSPropertyOp15
 70
     1
102
RTVSPropertyOp16
 70
     1
102
RTVSPropertyOp17
 70
     1
102
RTVSPropertyOp18
 70
     1
102
RTVSPropertyOp19
 70
     1
102
RTVSPropertyOp20
 70
     1
102
RTVSPropertyOp21
 70
     1
102
RTVSPropertyOp22
 70
     1
102
RTVSPropertyOp23
 70
     1
102
RTVSPropertyOp24
 70
     1
102
RTVSPropertyOp25
 70
     1
102
RTVSPropertyOp26
 70
     1
102
RTVSPropertyOp27
 70
     1
102
RTVSPropertyOp28
 70
     1
102
RTVSPropertyOp29
 70
     1
102
RTVSPropertyOp30
 70
     1
102
RTVSPropertyOp31
 70
     1
102
RTVSPropertyOp32
 70
     1
  0
XRECORD
  5
F5D
102
{ACAD_REACTORS
330
F5C
102
}
330
F5C
100
AcDbXrecord
280
     1
102
RTVSPropertyOp0
 70
     1
102
RTVSPropertyOp1
 70
     1
102
RTVSPropertyOp2
 70
     1
102
RTVSPropertyOp3
 70
     1
102
RTVSPropertyOp4
 70
     1
102
RTVSPropertyOp5
 70
     1
102
RTVSPropertyOp6
 70
     1
102
RTVSPropertyOp7
 70
     1
102
RTVSPropertyOp8
 70
     1
102
RTVSPropertyOp9
 70
     1
102
RTVSPropertyOp10
 70
     1
102
RTVSPropertyOp11
 70
     1
102
RTVSPropertyOp12
 70
     1
102
RTVSPropertyOp13
 70
     1
102
RTVSPropertyOp14
 70
     1
102
RTVSPropertyOp15
 70
     1
102
RTVSPropertyOp16
 70
     1
102
RTVSPropertyOp17
 70
     1
102
RTVSPropertyOp18
 70
     1
102
RTVSPropertyOp19
 70
     1
102
RTVSPropertyOp20
 70
     1
102
RTVSPropertyOp21
 70
     1
102
RTVSPropertyOp22
 70
     1
102
RTVSPropertyOp23
 70
     1
102
RTVSPropertyOp24
 70
     1
102
RTVSPropertyOp25
 70
     1
102
RTVSPropertyOp26
 70
     1
102
RTVSPropertyOp27
 70
     1
102
RTVSPropertyOp28
 70
     1
102
RTVSPropertyOp29
 70
     1
102
RTVSPropertyOp30
 70
     1
102
RTVSPropertyOp31
 70
     1
102
RTVSPropertyOp32
 70
     1
  0
XRECORD
  5
F80
102
{ACAD_REACTORS
330
F7F
102
}
330
F7F
100
AcDbXrecord
280
     1
102
RTVSPropertyOp0
 70
     0
102
RTVSPropertyOp1
 70
     0
102
RTVSPropertyOp2
 70
     0
102
RTVSPropertyOp3
 70
     0
102
RTVSPropertyOp4
 70
     0
102
RTVSPropertyOp5
 70
     0
102
RTVSPropertyOp6
 70
     0
102
RTVSPropertyOp7
 70
     0
102
RTVSPropertyOp8
 70
     0
102
RTVSPropertyOp9
 70
     0
102
RTVSPropertyOp10
 70
     0
102
RTVSPropertyOp11
 70
     0
102
RTVSPropertyOp12
 70
     0
102
RTVSPropertyOp13
 70
     0
102
RTVSPropertyOp14
 70
     2
102
RTVSPropertyOp15
 70
     0
102
RTVSPropertyOp16
 70
     0
102
RTVSPropertyOp17
 70
     0
102
RTVSPropertyOp18
 70
     0
102
RTVSPropertyOp19
 70
     0
102
RTVSPropertyOp20
 70
     0
102
RTVSPropertyOp21
 70
     0
102
RTVSPropertyOp22
 70
     0
102
RTVSPropertyOp23
 70
     0
102
RTVSPropertyOp24
 70
     0
102
RTVSPropertyOp25
 70
     0
102
RTVSPropertyOp26
 70
     0
102
RTVSPropertyOp27
 70
     0
102
RTVSPropertyOp28
 70
     0
102
RTVSPropertyOp29
 70
     0
102
RTVSPropertyOp30
 70
     0
102
RTVSPropertyOp31
 70
     0
102
RTVSPropertyOp32
 70
     0
  0
XRECORD
  5
F65
102
{ACAD_REACTORS
330
F64
102
}
330
F64
100
AcDbXrecord
280
     1
102
RTVSPropertyOp0
 70
     1
102
RTVSPropertyOp1
 70
     1
102
RTVSPropertyOp2
 70
     1
102
RTVSPropertyOp3
 70
     1
102
RTVSPropertyOp4
 70
     1
102
RTVSPropertyOp5
 70
     1
102
RTVSPropertyOp6
 70
     1
102
RTVSPropertyOp7
 70
     1
102
RTVSPropertyOp8
 70
     1
102
RTVSPropertyOp9
 70
     1
102
RTVSPropertyOp10
 70
     1
102
RTVSPropertyOp11
 70
     1
102
RTVSPropertyOp12
 70
     1
102
RTVSPropertyOp13
 70
     1
102
RTVSPropertyOp14
 70
     1
102
RTVSPropertyOp15
 70
     1
102
RTVSPropertyOp16
 70
     1
102
RTVSPropertyOp17
 70
     1
102
RTVSPropertyOp18
 70
     1
102
RTVSPropertyOp19
 70
     1
102
RTVSPropertyOp20
 70
     1
102
RTVSPropertyOp21
 70
     1
102
RTVSPropertyOp22
 70
     1
102
RTVSPropertyOp23
 70
     1
102
RTVSPropertyOp24
 70
     1
102
RTVSPropertyOp25
 70
     1
102
RTVSPropertyOp26
 70
     1
102
RTVSPropertyOp27
 70
     1
102
RTVSPropertyOp28
 70
     1
102
RTVSPropertyOp29
 70
     1
102
RTVSPropertyOp30
 70
     1
102
RTVSPropertyOp31
 70
     1
102
RTVSPropertyOp32
 70
     1
  0
XRECORD
  5
F49
102
{ACAD_REACTORS
330
F48
102
}
330
F48
100
AcDbXrecord
280
     1
102
RTVSPropertyOp0
 70
     1
102
RTVSPropertyOp1
 70
     1
102
RTVSPropertyOp2
 70
     1
102
RTVSPropertyOp3
 70
     1
102
RTVSPropertyOp4
 70
     1
102
RTVSPropertyOp5
 70
     1
102
RTVSPropertyOp6
 70
     1
102
RTVSPropertyOp7
 70
     1
102
RTVSPropertyOp8
 70
     1
102
RTVSPropertyOp9
 70
     1
102
RTVSPropertyOp10
 70
     1
102
RTVSPropertyOp11
 70
     1
102
RTVSPropertyOp12
 70
     1
102
RTVSPropertyOp13
 70
     1
102
RTVSPropertyOp14
 70
     1
102
RTVSPropertyOp15
 70
     1
102
RTVSPropertyOp16
 70
     1
102
RTVSPropertyOp17
 70
     1
102
RTVSPropertyOp18
 70
     1
102
RTVSPropertyOp19
 70
     1
102
RTVSPropertyOp20
 70
     1
102
RTVSPropertyOp21
 70
     1
102
RTVSPropertyOp22
 70
     1
102
RTVSPropertyOp23
 70
     1
102
RTVSPropertyOp24
 70
     1
102
RTVSPropertyOp25
 70
     1
102
RTVSPropertyOp26
 70
     1
102
RTVSPropertyOp27
 70
     1
102
RTVSPropertyOp28
 70
     1
102
RTVSPropertyOp29
 70
     1
102
RTVSPropertyOp30
 70
     1
102
RTVSPropertyOp31
 70
     1
102
RTVSPropertyOp32
 70
     1
  0
XRECORD
  5
F4B
102
{ACAD_REACTORS
330
F4A
102
}
330
F4A
100
AcDbXrecord
280
     1
102
RTVSPropertyOp0
 70
     1
102
RTVSPropertyOp1
 70
     1
102
RTVSPropertyOp2
 70
     1
102
RTVSPropertyOp3
 70
     1
102
RTVSPropertyOp4
 70
     1
102
RTVSPropertyOp5
 70
     1
102
RTVSPropertyOp6
 70
     1
102
RTVSPropertyOp7
 70
     1
102
RTVSPropertyOp8
 70
     1
102
RTVSPropertyOp9
 70
     1
102
RTVSPropertyOp10
 70
     1
102
RTVSPropertyOp11
 70
     1
102
RTVSPropertyOp12
 70
     1
102
RTVSPropertyOp13
 70
     1
102
RTVSPropertyOp14
 70
     1
102
RTVSPropertyOp15
 70
     1
102
RTVSPropertyOp16
 70
     1
102
RTVSPropertyOp17
 70
     1
102
RTVSPropertyOp18
 70
     1
102
RTVSPropertyOp19
 70
     1
102
RTVSPropertyOp20
 70
     1
102
RTVSPropertyOp21
 70
     1
102
RTVSPropertyOp22
 70
     1
102
RTVSPropertyOp23
 70
     1
102
RTVSPropertyOp24
 70
     1
102
RTVSPropertyOp25
 70
     1
102
RTVSPropertyOp26
 70
     1
102
RTVSPropertyOp27
 70
     1
102
RTVSPropertyOp28
 70
     1
102
RTVSPropertyOp29
 70
     1
102
RTVSPropertyOp30
 70
     1
102
RTVSPropertyOp31
 70
     1
102
RTVSPropertyOp32
 70
     1
  0
XRECORD
  5
F4D
102
{ACAD_REACTORS
330
F4C
102
}
330
F4C
100
AcDbXrecord
280
     1
102
RTVSPropertyOp0
 70
     1
102
RTVSPropertyOp1
 70
     1
102
RTVSPropertyOp2
 70
     1
102
RTVSPropertyOp3
 70
     1
102
RTVSPropertyOp4
 70
     1
102
RTVSPropertyOp5
 70
     1
102
RTVSPropertyOp6
 70
     1
102
RTVSPropertyOp7
 70
     1
102
RTVSPropertyOp8
 70
     1
102
RTVSPropertyOp9
 70
     1
102
RTVSPropertyOp10
 70
     1
102
RTVSPropertyOp11
 70
     1
102
RTVSPropertyOp12
 70
     1
102
RTVSPropertyOp13
 70
     1
102
RTVSPropertyOp14
 70
     1
102
RTVSPropertyOp15
 70
     1
102
RTVSPropertyOp16
 70
     1
102
RTVSPropertyOp17
 70
     1
102
RTVSPropertyOp18
 70
     1
102
RTVSPropertyOp19
 70
     1
102
RTVSPropertyOp20
 70
     1
102
RTVSPropertyOp21
 70
     1
102
RTVSPropertyOp22
 70
     1
102
RTVSPropertyOp23
 70
     1
102
RTVSPropertyOp24
 70
     1
102
RTVSPropertyOp25
 70
     1
102
RTVSPropertyOp26
 70
     1
102
RTVSPropertyOp27
 70
     1
102
RTVSPropertyOp28
 70
     1
102
RTVSPropertyOp29
 70
     1
102
RTVSPropertyOp30
 70
     1
102
RTVSPropertyOp31
 70
     1
102
RTVSPropertyOp32
 70
     1
  0
XRECORD
  5
F4F
102
{ACAD_REACTORS
330
F4E
102
}
330
F4E
100
AcDbXrecord
280
     1
102
RTVSPropertyOp0
 70
     1
102
RTVSPropertyOp1
 70
     1
102
RTVSPropertyOp2
 70
     1
102
RTVSPropertyOp3
 70
     1
102
RTVSPropertyOp4
 70
     1
102
RTVSPropertyOp5
 70
     1
102
RTVSPropertyOp6
 70
     1
102
RTVSPropertyOp7
 70
     1
102
RTVSPropertyOp8
 70
     1
102
RTVSPropertyOp9
 70
     1
102
RTVSPropertyOp10
 70
     1
102
RTVSPropertyOp11
 70
     1
102
RTVSPropertyOp12
 70
     1
102
RTVSPropertyOp13
 70
     1
102
RTVSPropertyOp14
 70
     1
102
RTVSPropertyOp15
 70
     1
102
RTVSPropertyOp16
 70
     1
102
RTVSPropertyOp17
 70
     1
102
RTVSPropertyOp18
 70
     1
102
RTVSPropertyOp19
 70
     1
102
RTVSPropertyOp20
 70
     1
102
RTVSPropertyOp21
 70
     1
102
RTVSPropertyOp22
 70
     1
102
RTVSPropertyOp23
 70
     1
102
RTVSPropertyOp24
 70
     1
102
RTVSPropertyOp25
 70
     1
102
RTVSPropertyOp26
 70
     1
102
RTVSPropertyOp27
 70
     1
102
RTVSPropertyOp28
 70
     1
102
RTVSPropertyOp29
 70
     1
102
RTVSPropertyOp30
 70
     1
102
RTVSPropertyOp31
 70
     1
102
RTVSPropertyOp32
 70
     1
  0
XRECORD
  5
F70
102
{ACAD_REACTORS
330
F6F
102
}
330
F6F
100
AcDbXrecord
280
     1
102
RTVSPropertyOp0
 70
     1
102
RTVSPropertyOp1
 70
     1
102
RTVSPropertyOp2
 70
     1
102
RTVSPropertyOp3
 70
     1
102
RTVSPropertyOp4
 70
     1
102
RTVSPropertyOp5
 70
     1
102
RTVSPropertyOp6
 70
     1
102
RTVSPropertyOp7
 70
     1
102
RTVSPropertyOp8
 70
     1
102
RTVSPropertyOp9
 70
     1
102
RTVSPropertyOp10
 70
     1
102
RTVSPropertyOp11
 70
     1
102
RTVSPropertyOp12
 70
     1
102
RTVSPropertyOp13
 70
     1
102
RTVSPropertyOp14
 70
     1
102
RTVSPropertyOp15
 70
     1
102
RTVSPropertyOp16
 70
     1
102
RTVSPropertyOp17
 70
     1
102
RTVSPropertyOp18
 70
     1
102
RTVSPropertyOp19
 70
     1
102
RTVSPropertyOp20
 70
     1
102
RTVSPropertyOp21
 70
     1
102
RTVSPropertyOp22
 70
     1
102
RTVSPropertyOp23
 70
     1
102
RTVSPropertyOp24
 70
     1
102
RTVSPropertyOp25
 70
     1
102
RTVSPropertyOp26
 70
     1
102
RTVSPropertyOp27
 70
     1
102
RTVSPropertyOp28
 70
     1
102
RTVSPropertyOp29
 70
     1
102
RTVSPropertyOp30
 70
     1
102
RTVSPropertyOp31
 70
     1
102
RTVSPropertyOp32
 70
     1
  0
XRECORD
  5
F7C
102
{ACAD_REACTORS
330
F7B
102
}
330
F7B
100
AcDbXrecord
280
     1
102
RTVSPropertyOp0
 70
     0
102
RTVSPropertyOp1
 70
     0
102
RTVSPropertyOp2
 70
     0
102
RTVSPropertyOp3
 70
     0
102
RTVSPropertyOp4
 70
     0
102
RTVSPropertyOp5
 70
     0
102
RTVSPropertyOp6
 70
     0
102
RTVSPropertyOp7
 70
     0
102
RTVSPropertyOp8
 70
     0
102
RTVSPropertyOp9
 70
     0
102
RTVSPropertyOp10
 70
     0
102
RTVSPropertyOp11
 70
     0
102
RTVSPropertyOp12
 70
     0
102
RTVSPropertyOp13
 70
     0
102
RTVSPropertyOp14
 70
     2
102
RTVSPropertyOp15
 70
     0
102
RTVSPropertyOp16
 70
     0
102
RTVSPropertyOp17
 70
     0
102
RTVSPropertyOp18
 70
     0
102
RTVSPropertyOp19
 70
     0
102
RTVSPropertyOp20
 70
     0
102
RTVSPropertyOp21
 70
     0
102
RTVSPropertyOp22
 70
     0
102
RTVSPropertyOp23
 70
     0
102
RTVSPropertyOp24
 70
     0
102
RTVSPropertyOp25
 70
     0
102
RTVSPropertyOp26
 70
     0
102
RTVSPropertyOp27
 70
     0
102
RTVSPropertyOp28
 70
     0
102
RTVSPropertyOp29
 70
     0
102
RTVSPropertyOp30
 70
     0
102
RTVSPropertyOp31
 70
     0
102
RTVSPropertyOp32
 70
     0
  0
XRECORD
  5
F63
102
{ACAD_REACTORS
330
F62
102
}
330
F62
100
AcDbXrecord
280
     1
102
RTVSPropertyOp0
 70
     1
102
RTVSPropertyOp1
 70
     1
102
RTVSPropertyOp2
 70
     1
102
RTVSPropertyOp3
 70
     1
102
RTVSPropertyOp4
 70
     1
102
RTVSPropertyOp5
 70
     1
102
RTVSPropertyOp6
 70
     1
102
RTVSPropertyOp7
 70
     1
102
RTVSPropertyOp8
 70
     1
102
RTVSPropertyOp9
 70
     1
102
RTVSPropertyOp10
 70
     1
102
RTVSPropertyOp11
 70
     1
102
RTVSPropertyOp12
 70
     1
102
RTVSPropertyOp13
 70
     1
102
RTVSPropertyOp14
 70
     1
102
RTVSPropertyOp15
 70
     1
102
RTVSPropertyOp16
 70
     1
102
RTVSPropertyOp17
 70
     1
102
RTVSPropertyOp18
 70
     1
102
RTVSPropertyOp19
 70
     1
102
RTVSPropertyOp20
 70
     1
102
RTVSPropertyOp21
 70
     1
102
RTVSPropertyOp22
 70
     1
102
RTVSPropertyOp23
 70
     1
102
RTVSPropertyOp24
 70
     1
102
RTVSPropertyOp25
 70
     1
102
RTVSPropertyOp26
 70
     1
102
RTVSPropertyOp27
 70
     1
102
RTVSPropertyOp28
 70
     1
102
RTVSPropertyOp29
 70
     1
102
RTVSPropertyOp30
 70
     1
102
RTVSPropertyOp31
 70
     1
102
RTVSPropertyOp32
 70
     1
  0
XRECORD
  5
F7E
102
{ACAD_REACTORS
330
F7D
102
}
330
F7D
100
AcDbXrecord
280
     1
102
RTVSPropertyOp0
 70
     0
102
RTVSPropertyOp1
 70
     0
102
RTVSPropertyOp2
 70
     0
102
RTVSPropertyOp3
 70
     0
102
RTVSPropertyOp4
 70
     0
102
RTVSPropertyOp5
 70
     0
102
RTVSPropertyOp6
 70
     0
102
RTVSPropertyOp7
 70
     0
102
RTVSPropertyOp8
 70
     0
102
RTVSPropertyOp9
 70
     0
102
RTVSPropertyOp10
 70
     0
102
RTVSPropertyOp11
 70
     0
102
RTVSPropertyOp12
 70
     0
102
RTVSPropertyOp13
 70
     0
102
RTVSPropertyOp14
 70
     2
102
RTVSPropertyOp15
 70
     0
102
RTVSPropertyOp16
 70
     0
102
RTVSPropertyOp17
 70
     0
102
RTVSPropertyOp18
 70
     0
102
RTVSPropertyOp19
 70
     0
102
RTVSPropertyOp20
 70
     0
102
RTVSPropertyOp21
 70
     0
102
RTVSPropertyOp22
 70
     0
102
RTVSPropertyOp23
 70
     0
102
RTVSPropertyOp24
 70
     0
102
RTVSPropertyOp25
 70
     0
102
RTVSPropertyOp26
 70
     0
102
RTVSPropertyOp27
 70
     0
102
RTVSPropertyOp28
 70
     0
102
RTVSPropertyOp29
 70
     0
102
RTVSPropertyOp30
 70
     0
102
RTVSPropertyOp31
 70
     0
102
RTVSPropertyOp32
 70
     0
  0
XRECORD
  5
F5B
102
{ACAD_REACTORS
330
F5A
102
}
330
F5A
100
AcDbXrecord
280
     1
102
RTVSPropertyOp0
 70
     1
102
RTVSPropertyOp1
 70
     1
102
RTVSPropertyOp2
 70
     1
102
RTVSPropertyOp3
 70
     1
102
RTVSPropertyOp4
 70
     1
102
RTVSPropertyOp5
 70
     1
102
RTVSPropertyOp6
 70
     1
102
RTVSPropertyOp7
 70
     1
102
RTVSPropertyOp8
 70
     1
102
RTVSPropertyOp9
 70
     1
102
RTVSPropertyOp10
 70
     1
102
RTVSPropertyOp11
 70
     1
102
RTVSPropertyOp12
 70
     1
102
RTVSPropertyOp13
 70
     1
102
RTVSPropertyOp14
 70
     1
102
RTVSPropertyOp15
 70
     1
102
RTVSPropertyOp16
 70
     1
102
RTVSPropertyOp17
 70
     1
102
RTVSPropertyOp18
 70
     1
102
RTVSPropertyOp19
 70
     1
102
RTVSPropertyOp20
 70
     1
102
RTVSPropertyOp21
 70
     1
102
RTVSPropertyOp22
 70
     1
102
RTVSPropertyOp23
 70
     1
102
RTVSPropertyOp24
 70
     1
102
RTVSPropertyOp25
 70
     1
102
RTVSPropertyOp26
 70
     1
102
RTVSPropertyOp27
 70
     1
102
RTVSPropertyOp28
 70
     1
102
RTVSPropertyOp29
 70
     1
102
RTVSPropertyOp30
 70
     1
102
RTVSPropertyOp31
 70
     1
102
RTVSPropertyOp32
 70
     1
  0
XRECORD
  5
F7A
102
{ACAD_REACTORS
330
F79
102
}
330
F79
100
AcDbXrecord
280
     1
102
RTVSPropertyOp0
 70
     1
102
RTVSPropertyOp1
 70
     1
102
RTVSPropertyOp2
 70
     1
102
RTVSPropertyOp3
 70
     1
102
RTVSPropertyOp4
 70
     1
102
RTVSPropertyOp5
 70
     1
102
RTVSPropertyOp6
 70
     1
102
RTVSPropertyOp7
 70
     1
102
RTVSPropertyOp8
 70
     1
102
RTVSPropertyOp9
 70
     1
102
RTVSPropertyOp10
 70
     1
102
RTVSPropertyOp11
 70
     1
102
RTVSPropertyOp12
 70
     1
102
RTVSPropertyOp13
 70
     1
102
RTVSPropertyOp14
 70
     1
102
RTVSPropertyOp15
 70
     1
102
RTVSPropertyOp16
 70
     1
102
RTVSPropertyOp17
 70
     1
102
RTVSPropertyOp18
 70
     1
102
RTVSPropertyOp19
 70
     1
102
RTVSPropertyOp20
 70
     1
102
RTVSPropertyOp21
 70
     1
102
RTVSPropertyOp22
 70
     1
102
RTVSPropertyOp23
 70
     1
102
RTVSPropertyOp24
 70
     1
102
RTVSPropertyOp25
 70
     1
102
RTVSPropertyOp26
 70
     1
102
RTVSPropertyOp27
 70
     1
102
RTVSPropertyOp28
 70
     1
102
RTVSPropertyOp29
 70
     1
102
RTVSPropertyOp30
 70
     1
102
RTVSPropertyOp31
 70
     1
102
RTVSPropertyOp32
 70
     1
  0
XRECORD
  5
F78
102
{ACAD_REACTORS
330
F77
102
}
330
F77
100
AcDbXrecord
280
     1
102
RTVSPropertyOp0
 70
     1
102
RTVSPropertyOp1
 70
     1
102
RTVSPropertyOp2
 70
     1
102
RTVSPropertyOp3
 70
     1
102
RTVSPropertyOp4
 70
     1
102
RTVSPropertyOp5
 70
     1
102
RTVSPropertyOp6
 70
     1
102
RTVSPropertyOp7
 70
     1
102
RTVSPropertyOp8
 70
     1
102
RTVSPropertyOp9
 70
     1
102
RTVSPropertyOp10
 70
     1
102
RTVSPropertyOp11
 70
     1
102
RTVSPropertyOp12
 70
     1
102
RTVSPropertyOp13
 70
     1
102
RTVSPropertyOp14
 70
     1
102
RTVSPropertyOp15
 70
     1
102
RTVSPropertyOp16
 70
     1
102
RTVSPropertyOp17
 70
     1
102
RTVSPropertyOp18
 70
     1
102
RTVSPropertyOp19
 70
     1
102
RTVSPropertyOp20
 70
     1
102
RTVSPropertyOp21
 70
     1
102
RTVSPropertyOp22
 70
     1
102
RTVSPropertyOp23
 70
     1
102
RTVSPropertyOp24
 70
     1
102
RTVSPropertyOp25
 70
     1
102
RTVSPropertyOp26
 70
     1
102
RTVSPropertyOp27
 70
     1
102
RTVSPropertyOp28
 70
     1
102
RTVSPropertyOp29
 70
     1
102
RTVSPropertyOp30
 70
     1
102
RTVSPropertyOp31
 70
     1
102
RTVSPropertyOp32
 70
     1
  0
XRECORD
  5
F72
102
{ACAD_REACTORS
330
F71
102
}
330
F71
100
AcDbXrecord
280
     1
102
RTVSPropertyOp0
 70
     1
102
RTVSPropertyOp1
 70
     1
102
RTVSPropertyOp2
 70
     1
102
RTVSPropertyOp3
 70
     1
102
RTVSPropertyOp4
 70
     1
102
RTVSPropertyOp5
 70
     1
102
RTVSPropertyOp6
 70
     1
102
RTVSPropertyOp7
 70
     1
102
RTVSPropertyOp8
 70
     1
102
RTVSPropertyOp9
 70
     1
102
RTVSPropertyOp10
 70
     1
102
RTVSPropertyOp11
 70
     1
102
RTVSPropertyOp12
 70
     1
102
RTVSPropertyOp13
 70
     1
102
RTVSPropertyOp14
 70
     1
102
RTVSPropertyOp15
 70
     1
102
RTVSPropertyOp16
 70
     1
102
RTVSPropertyOp17
 70
     1
102
RTVSPropertyOp18
 70
     1
102
RTVSPropertyOp19
 70
     1
102
RTVSPropertyOp20
 70
     1
102
RTVSPropertyOp21
 70
     1
102
RTVSPropertyOp22
 70
     1
102
RTVSPropertyOp23
 70
     1
102
RTVSPropertyOp24
 70
     1
102
RTVSPropertyOp25
 70
     1
102
RTVSPropertyOp26
 70
     1
102
RTVSPropertyOp27
 70
     1
102
RTVSPropertyOp28
 70
     1
102
RTVSPropertyOp29
 70
     1
102
RTVSPropertyOp30
 70
     1
102
RTVSPropertyOp31
 70
     1
102
RTVSPropertyOp32
 70
     1
  0
XRECORD
  5
F74
102
{ACAD_REACTORS
330
F73
102
}
330
F73
100
AcDbXrecord
280
     1
102
RTVSPropertyOp0
 70
     1
102
RTVSPropertyOp1
 70
     1
102
RTVSPropertyOp2
 70
     1
102
RTVSPropertyOp3
 70
     1
102
RTVSPropertyOp4
 70
     1
102
RTVSPropertyOp5
 70
     1
102
RTVSPropertyOp6
 70
     1
102
RTVSPropertyOp7
 70
     1
102
RTVSPropertyOp8
 70
     1
102
RTVSPropertyOp9
 70
     1
102
RTVSPropertyOp10
 70
     1
102
RTVSPropertyOp11
 70
     1
102
RTVSPropertyOp12
 70
     1
102
RTVSPropertyOp13
 70
     1
102
RTVSPropertyOp14
 70
     1
102
RTVSPropertyOp15
 70
     1
102
RTVSPropertyOp16
 70
     1
102
RTVSPropertyOp17
 70
     1
102
RTVSPropertyOp18
 70
     1
102
RTVSPropertyOp19
 70
     1
102
RTVSPropertyOp20
 70
     1
102
RTVSPropertyOp21
 70
     1
102
RTVSPropertyOp22
 70
     1
102
RTVSPropertyOp23
 70
     1
102
RTVSPropertyOp24
 70
     1
102
RTVSPropertyOp25
 70
     1
102
RTVSPropertyOp26
 70
     1
102
RTVSPropertyOp27
 70
     1
102
RTVSPropertyOp28
 70
     1
102
RTVSPropertyOp29
 70
     1
102
RTVSPropertyOp30
 70
     1
102
RTVSPropertyOp31
 70
     1
102
RTVSPropertyOp32
 70
     1
  0
XRECORD
  5
F61
102
{ACAD_REACTORS
330
F60
102
}
330
F60
100
AcDbXrecord
280
     1
102
RTVSPropertyOp0
 70
     1
102
RTVSPropertyOp1
 70
     1
102
RTVSPropertyOp2
 70
     1
102
RTVSPropertyOp3
 70
     1
102
RTVSPropertyOp4
 70
     1
102
RTVSPropertyOp5
 70
     1
102
RTVSPropertyOp6
 70
     1
102
RTVSPropertyOp7
 70
     1
102
RTVSPropertyOp8
 70
     1
102
RTVSPropertyOp9
 70
     1
102
RTVSPropertyOp10
 70
     1
102
RTVSPropertyOp11
 70
     1
102
RTVSPropertyOp12
 70
     1
102
RTVSPropertyOp13
 70
     1
102
RTVSPropertyOp14
 70
     1
102
RTVSPropertyOp15
 70
     1
102
RTVSPropertyOp16
 70
     1
102
RTVSPropertyOp17
 70
     1
102
RTVSPropertyOp18
 70
     1
102
RTVSPropertyOp19
 70
     1
102
RTVSPropertyOp20
 70
     1
102
RTVSPropertyOp21
 70
     1
102
RTVSPropertyOp22
 70
     1
102
RTVSPropertyOp23
 70
     1
102
RTVSPropertyOp24
 70
     1
102
RTVSPropertyOp25
 70
     1
102
RTVSPropertyOp26
 70
     1
102
RTVSPropertyOp27
 70
     1
102
RTVSPropertyOp28
 70
     1
102
RTVSPropertyOp29
 70
     1
102
RTVSPropertyOp30
 70
     1
102
RTVSPropertyOp31
 70
     1
102
RTVSPropertyOp32
 70
     1
  0
XRECORD
  5
F6E
102
{ACAD_REACTORS
330
F6D
102
}
330
F6D
100
AcDbXrecord
280
     1
102
RTVSPropertyOp0
 70
     1
102
RTVSPropertyOp1
 70
     1
102
RTVSPropertyOp2
 70
     1
102
RTVSPropertyOp3
 70
     1
102
RTVSPropertyOp4
 70
     1
102
RTVSPropertyOp5
 70
     1
102
RTVSPropertyOp6
 70
     1
102
RTVSPropertyOp7
 70
     1
102
RTVSPropertyOp8
 70
     1
102
RTVSPropertyOp9
 70
     1
102
RTVSPropertyOp10
 70
     1
102
RTVSPropertyOp11
 70
     1
102
RTVSPropertyOp12
 70
     1
102
RTVSPropertyOp13
 70
     1
102
RTVSPropertyOp14
 70
     1
102
RTVSPropertyOp15
 70
     1
102
RTVSPropertyOp16
 70
     1
102
RTVSPropertyOp17
 70
     1
102
RTVSPropertyOp18
 70
     1
102
RTVSPropertyOp19
 70
     1
102
RTVSPropertyOp20
 70
     1
102
RTVSPropertyOp21
 70
     1
102
RTVSPropertyOp22
 70
     1
102
RTVSPropertyOp23
 70
     1
102
RTVSPropertyOp24
 70
     1
102
RTVSPropertyOp25
 70
     1
102
RTVSPropertyOp26
 70
     1
102
RTVSPropertyOp27
 70
     1
102
RTVSPropertyOp28
 70
     1
102
RTVSPropertyOp29
 70
     1
102
RTVSPropertyOp30
 70
     1
102
RTVSPropertyOp31
 70
     1
102
RTVSPropertyOp32
 70
     1
  0
XRECORD
  5
F76
102
{ACAD_REACTORS
330
F75
102
}
330
F75
100
AcDbXrecord
280
     1
102
RTVSPropertyOp0
 70
     1
102
RTVSPropertyOp1
 70
     1
102
RTVSPropertyOp2
 70
     1
102
RTVSPropertyOp3
 70
     1
102
RTVSPropertyOp4
 70
     1
102
RTVSPropertyOp5
 70
     1
102
RTVSPropertyOp6
 70
     1
102
RTVSPropertyOp7
 70
     1
102
RTVSPropertyOp8
 70
     1
102
RTVSPropertyOp9
 70
     1
102
RTVSPropertyOp10
 70
     1
102
RTVSPropertyOp11
 70
     1
102
RTVSPropertyOp12
 70
     1
102
RTVSPropertyOp13
 70
     1
102
RTVSPropertyOp14
 70
     1
102
RTVSPropertyOp15
 70
     1
102
RTVSPropertyOp16
 70
     1
102
RTVSPropertyOp17
 70
     1
102
RTVSPropertyOp18
 70
     1
102
RTVSPropertyOp19
 70
     1
102
RTVSPropertyOp20
 70
     1
102
RTVSPropertyOp21
 70
     1
102
RTVSPropertyOp22
 70
     1
102
RTVSPropertyOp23
 70
     1
102
RTVSPropertyOp24
 70
     1
102
RTVSPropertyOp25
 70
     1
102
RTVSPropertyOp26
 70
     1
102
RTVSPropertyOp27
 70
     1
102
RTVSPropertyOp28
 70
     1
102
RTVSPropertyOp29
 70
     1
102
RTVSPropertyOp30
 70
     1
102
RTVSPropertyOp31
 70
     1
102
RTVSPropertyOp32
 70
     1
  0
ENDSEC
  0
EOF
