  0
SECTION
  2
HEADER
  9
$ACADVER
  1
AC1015
  9
$ACADMAINTVER
 70
    20
  9
$DWGCODEPAGE
  3
ANSI_932
  9
$INSBASE
 10
0.0
 20
0.0
 30
0.0
  9
$EXTMIN
 10
415.4881319999998
 20
200.083413
 30
0.0
  9
$EXTMAX
 10
692.6167259999997
 20
392.556031
 30
0.0
  9
$LIMMIN
 10
415.4871289999999
 20
200.08242
  9
$LIMMAX
 10
692.617699
 20
392.55703
  9
$ORTHOMODE
 70
     1
  9
$REGENMODE
 70
     1
  9
$FILLMODE
 70
     1
  9
$QTEXTMODE
 70
     0
  9
$MIRRTEXT
 70
     0
  9
$LTSCALE
 40
4.618809999999998
  9
$ATTMODE
 70
     1
  9
$TEXTSIZE
 40
3.2
  9
$TRACEWID
 40
0.05
  9
$TEXTSTYLE
  7
高3.2
  9
$CLAYER
  8
0
  9
$CELTYPE
  6
CONTINUOUS
  9
$CECOLOR
 62
   256
  9
$CELTSCALE
 40
1.0
  9
$DISPSILH
 70
     0
  9
$DIMSCALE
 40
1.0
  9
$DIMASZ
 40
2.5
  9
$DIMEXO
 40
0.25
  9
$DIMDLI
 40
0.2
  9
$DIMRND
 40
0.0
  9
$DIMDLE
 40
0.0
  9
$DIMEXE
 40
1.25
  9
$DIMTP
 40
0.0
  9
$DIMTM
 40
0.0
  9
$DIMTXT
 40
3.0
  9
$DIMCEN
 40
0.0
  9
$DIMTSZ
 40
0.0
  9
$DIMTOL
 70
     0
  9
$DIMLIM
 70
     0
  9
$DIMTIH
 70
     0
  9
$DIMTOH
 70
     0
  9
$DIMSE1
 70
     0
  9
$DIMSE2
 70
     0
  9
$DIMTAD
 70
     3
  9
$DIMZIN
 70
     8
  9
$DIMBLK
  1
Open30
  9
$DIMASO
 70
     1
  9
$DIMSHO
 70
     1
  9
$DIMPOST
  1

  9
$DIMAPOST
  1

  9
$DIMALT
 70
     0
  9
$DIMALTD
 70
     3
  9
$DIMALTF
 40
0.03937007874016
  9
$DIMLFAC
 40
1.0
  9
$DIMTOFL
 70
     1
  9
$DIMTVP
 40
0.0
  9
$DIMTIX
 70
     0
  9
$DIMSOXD
 70
     0
  9
$DIMSAH
 70
     0
  9
$DIMBLK1
  1

  9
$DIMBLK2
  1

  9
$DIMSTYLE
  2
1：1
  9
$DIMCLRD
 70
     0
  9
$DIMCLRE
 70
     0
  9
$DIMCLRT
 70
     4
  9
$DIMTFAC
 40
1.0
  9
$DIMGAP
 40
0.625
  9
$DIMJUST
 70
     0
  9
$DIMSD1
 70
     0
  9
$DIMSD2
 70
     0
  9
$DIMTOLJ
 70
     0
  9
$DIMTZIN
 70
     8
  9
$DIMALTZ
 70
     0
  9
$DIMALTTZ
 70
     0
  9
$DIMUPT
 70
     1
  9
$DIMDEC
 70
     2
  9
$DIMTDEC
 70
     2
  9
$DIMALTU
 70
     2
  9
$DIMALTTD
 70
     3
  9
$DIMTXSTY
  7
STANDARD
  9
$DIMAUNIT
 70
     0
  9
$DIMADEC
 70
     1
  9
$DIMALTRND
 40
0.0
  9
$DIMAZIN
 70
     2
  9
$DIMDSEP
 70
    46
  9
$DIMATFIT
 70
     0
  9
$DIMFRAC
 70
     0
  9
$DIMLDRBLK
  1
Open30
  9
$DIMLUNIT
 70
     2
  9
$DIMLWD
 70
    -2
  9
$DIMLWE
 70
    -2
  9
$DIMTMOVE
 70
     0
  9
$LUNITS
 70
     2
  9
$LUPREC
 70
     4
  9
$SKETCHINC
 40
0.1
  9
$FILLETRAD
 40
0.0
  9
$AUNITS
 70
     0
  9
$AUPREC
 70
     0
  9
$MENU
  1
.
  9
$ELEVATION
 40
0.0
  9
$PELEVATION
 40
0.0
  9
$THICKNESS
 40
0.0
  9
$LIMCHECK
 70
     0
  9
$CHAMFERA
 40
0.0
  9
$CHAMFERB
 40
0.0
  9
$CHAMFERC
 40
0.0
  9
$CHAMFERD
 40
0.0
  9
$SKPOLY
 70
     0
  9
$TDCREATE
 40
2456009.473644930
  9
$TDUCREATE
 40
2456009.098644930
  9
$TDUPDATE
 40
2456976.615135938
  9
$TDUUPDATE
 40
2456976.240135937
  9
$TDINDWG
 40
0.4201501042
  9
$TDUSRTIMER
 40
0.4201498495
  9
$USRTIMER
 70
     1
  9
$ANGBASE
 50
0.0
  9
$ANGDIR
 70
     0
  9
$PDMODE
 70
     0
  9
$PDSIZE
 40
0.0
  9
$PLINEWID
 40
0.0
  9
$SPLFRAME
 70
     0
  9
$SPLINETYPE
 70
     6
  9
$SPLINESEGS
 70
     8
  9
$HANDSEED
  5
1757
  9
$SURFTAB1
 70
     6
  9
$SURFTAB2
 70
     6
  9
$SURFTYPE
 70
     6
  9
$SURFU
 70
     6
  9
$SURFV
 70
     6
  9
$UCSBASE
  2

  9
$UCSNAME
  2

  9
$UCSORG
 10
0.0
 20
0.0
 30
0.0
  9
$UCSXDIR
 10
1.0
 20
0.0
 30
0.0
  9
$UCSYDIR
 10
0.0
 20
1.0
 30
0.0
  9
$UCSORTHOREF
  2

  9
$UCSORTHOVIEW
 70
     0
  9
$UCSORGTOP
 10
0.0
 20
0.0
 30
0.0
  9
$UCSORGBOTTOM
 10
0.0
 20
0.0
 30
0.0
  9
$UCSORGLEFT
 10
0.0
 20
0.0
 30
0.0
  9
$UCSORGRIGHT
 10
0.0
 20
0.0
 30
0.0
  9
$UCSORGFRONT
 10
0.0
 20
0.0
 30
0.0
  9
$UCSORGBACK
 10
0.0
 20
0.0
 30
0.0
  9
$PUCSBASE
  2

  9
$PUCSNAME
  2

  9
$PUCSORG
 10
0.0
 20
0.0
 30
0.0
  9
$PUCSXDIR
 10
1.0
 20
0.0
 30
0.0
  9
$PUCSYDIR
 10
0.0
 20
1.0
 30
0.0
  9
$PUCSORTHOREF
  2

  9
$PUCSORTHOVIEW
 70
     0
  9
$PUCSORGTOP
 10
0.0
 20
0.0
 30
0.0
  9
$PUCSORGBOTTOM
 10
0.0
 20
0.0
 30
0.0
  9
$PUCSORGLEFT
 10
0.0
 20
0.0
 30
0.0
  9
$PUCSORGRIGHT
 10
0.0
 20
0.0
 30
0.0
  9
$PUCSORGFRONT
 10
0.0
 20
0.0
 30
0.0
  9
$PUCSORGBACK
 10
0.0
 20
0.0
 30
0.0
  9
$USERI1
 70
     0
  9
$USERI2
 70
     0
  9
$USERI3
 70
     0
  9
$USERI4
 70
     0
  9
$USERI5
 70
     0
  9
$USERR1
 40
0.0
  9
$USERR2
 40
0.0
  9
$USERR3
 40
0.0
  9
$USERR4
 40
0.0
  9
$USERR5
 40
0.0
  9
$WORLDVIEW
 70
     1
  9
$SHADEDGE
 70
     3
  9
$SHADEDIF
 70
    70
  9
$TILEMODE
 70
     1
  9
$MAXACTVP
 70
    64
  9
$PINSBASE
 10
0.0
 20
0.0
 30
0.0
  9
$PLIMCHECK
 70
     0
  9
$PEXTMIN
 10
1.000000000000000E+20
 20
1.000000000000000E+20
 30
1.000000000000000E+20
  9
$PEXTMAX
 10
-1.000000000000000E+20
 20
-1.000000000000000E+20
 30
-1.000000000000000E+20
  9
$PLIMMIN
 10
0.0
 20
0.0
  9
$PLIMMAX
 10
12.0
 20
9.0
  9
$UNITMODE
 70
     0
  9
$VISRETAIN
 70
     1
  9
$PLINEGEN
 70
     0
  9
$PSLTSCALE
 70
     1
  9
$TREEDEPTH
 70
  3020
  9
$CMLSTYLE
  2
Standard
  9
$CMLJUST
 70
     0
  9
$CMLSCALE
 40
1.0
  9
$PROXYGRAPHICS
 70
     1
  9
$MEASUREMENT
 70
     0
  9
$CELWEIGHT
370
    -1
  9
$ENDCAPS
280
     0
  9
$JOINSTYLE
280
     0
  9
$LWDISPLAY
290
     0
  9
$INSUNITS
 70
     0
  9
$HYPERLINKBASE
  1

  9
$STYLESHEET
  1

  9
$XEDIT
290
     1
  9
$CEPSNTYPE
380
     0
  9
$PSTYLEMODE
290
     1
  9
$FINGERPRINTGUID
  2
{2E65622F-3700-4BCC-91BF-6459F8D19598}
  9
$VERSIONGUID
  2
{0D3C91E0-4A08-48DE-9E1C-8EC97D1D4F99}
  9
$EXTNAMES
290
     1
  9
$PSVPSCALE
 40
0.0
  9
$OLESTARTUP
290
     0
  0
ENDSEC
  0
SECTION
  2
CLASSES
  0
CLASS
  1
ACDBDICTIONARYWDFLT
  2
AcDbDictionaryWithDefault
  3
ObjectDBX Classes
 90
        0
280
     0
281
     0
  0
CLASS
  1
MATERIAL
  2
AcDbMaterial
  3
ObjectDBX Classes
 90
     1153
280
     0
281
     0
  0
CLASS
  1
VISUALSTYLE
  2
AcDbVisualStyle
  3
ObjectDBX Classes
 90
     4095
280
     0
281
     0
  0
CLASS
  1
SCALE
  2
AcDbScale
  3
ObjectDBX Classes
 90
     1153
280
     0
281
     0
  0
CLASS
  1
TABLESTYLE
  2
AcDbTableStyle
  3
ObjectDBX Classes
 90
     4095
280
     0
281
     0
  0
CLASS
  1
MLEADERSTYLE
  2
AcDbMLeaderStyle
  3
ACDB_MLEADERSTYLE_CLASS
 90
     4095
280
     0
281
     0
  0
CLASS
  1
DICTIONARYVAR
  2
AcDbDictionaryVar
  3
ObjectDBX Classes
 90
        0
280
     0
281
     0
  0
CLASS
  1
SORTENTSTABLE
  2
AcDbSortentsTable
  3
ObjectDBX Classes
 90
        0
280
     0
281
     0
  0
CLASS
  1
CELLSTYLEMAP
  2
AcDbCellStyleMap
  3
ObjectDBX Classes
 90
     1152
280
     0
281
     0
  0
CLASS
  1
ACDBPLACEHOLDER
  2
AcDbPlaceHolder
  3
ObjectDBX Classes
 90
        0
280
     0
281
     0
  0
CLASS
  1
LAYOUT
  2
AcDbLayout
  3
ObjectDBX Classes
 90
        0
280
     0
281
     0
  0
ENDSEC
  0
SECTION
  2
TABLES
  0
TABLE
  2
VPORT
  5
8
330
0
100
AcDbSymbolTable
 70
     1
  0
VPORT
  5
8B
330
8
100
AcDbSymbolTableRecord
100
AcDbViewportTableRecord
  2
*Active
 70
     0
 10
0.0
 20
0.0
 11
1.0
 21
1.0
 12
653.3251227722616
 22
260.6495902372917
 13
0.0
 23
0.0
 14
1.0
 24
1.0
 15
0.0
 25
0.0
 16
0.0
 26
0.0
 36
1.0
 17
0.0
 27
0.0
 37
0.0
 40
374.1600502419851
 41
1.779237844940867
 42
50.0
 43
0.0
 44
0.0
 50
0.0
 51
0.0
 71
     0
 72
   100
 73
     1
 74
     1
 75
     0
 76
     0
 77
     0
 78
     0
281
     0
 65
     1
110
0.0
120
0.0
130
0.0
111
1.0
121
0.0
131
0.0
112
0.0
122
1.0
132
0.0
 79
     0
146
0.0
  0
ENDTAB
  0
TABLE
  2
LTYPE
  5
5
330
0
100
AcDbSymbolTable
 70
     4
  0
LTYPE
  5
5A
330
5
100
AcDbSymbolTableRecord
100
AcDbLinetypeTableRecord
  2
ByBlock
 70
     0
  3

 72
    65
 73
     0
 40
0.0
  0
LTYPE
  5
5B
330
5
100
AcDbSymbolTableRecord
100
AcDbLinetypeTableRecord
  2
ByLayer
 70
     0
  3

 72
    65
 73
     0
 40
0.0
  0
LTYPE
  5
5C
330
5
100
AcDbSymbolTableRecord
100
AcDbLinetypeTableRecord
  2
CONTINUOUS
 70
     0
  3
Solid-line
 72
    65
 73
     0
 40
0.0
  0
LTYPE
  5
72
330
5
100
AcDbSymbolTableRecord
100
AcDbLinetypeTableRecord
  2
CENTER
 70
     0
  3
CENTER
 72
    65
 73
     4
 40
2.0
 49
1.25
 74
     0
 49
-0.25
 74
     0
 49
0.25
 74
     0
 49
-0.25
 74
     0
  0
LTYPE
  5
81
330
5
100
AcDbSymbolTableRecord
100
AcDbLinetypeTableRecord
  2
HIDDEN
 70
     0
  3
HIDDEN
 72
    65
 73
     2
 40
0.375
 49
0.25
 74
     0
 49
-0.125
 74
     0
  0
ENDTAB
  0
TABLE
  2
LAYER
  5
2
102
{ACAD_XDICTIONARY
360
5C5
102
}
330
0
100
AcDbSymbolTable
 70
     2
  0
LAYER
  5
54
102
{ACAD_XDICTIONARY
360
AA3
102
}
330
2
100
AcDbSymbolTableRecord
100
AcDbLayerTableRecord
  2
0
 70
     0
 62
     7
  6
CONTINUOUS
370
    -3
390
F
  0
LAYER
  5
402
330
2
100
AcDbSymbolTableRecord
100
AcDbLayerTableRecord
  2
Defpoints
 70
     0
 62
     7
  6
CONTINUOUS
290
     0
370
    -3
390
F
  0
ENDTAB
  0
TABLE
  2
STYLE
  5
3
330
0
100
AcDbSymbolTable
 70
     6
  0
STYLE
  5
55
330
3
100
AcDbSymbolTableRecord
100
AcDbTextStyleTableRecord
  2
STANDARD
 70
     0
 40
0.0
 41
1.0
 50
0.0
 71
     0
 42
0.2
  3
TXT
  4
BIGFONT
  0
STYLE
  5
5B1
330
3
100
AcDbSymbolTableRecord
100
AcDbTextStyleTableRecord
  2
高3.2
 70
     0
 40
3.2
 41
1.0
 50
0.0
 71
     0
 42
3.2
  3
txt.shx
  4
bigfont.shx
  0
STYLE
  5
5B2
330
3
100
AcDbSymbolTableRecord
100
AcDbTextStyleTableRecord
  2
高6.3
 70
     0
 40
6.299999999999998
 41
1.0
 50
0.0
 71
     0
 42
6.299999999999998
  3
txt.shx
  4
bigfont.shx
  0
STYLE
  5
5B4
330
3
100
AcDbSymbolTableRecord
100
AcDbTextStyleTableRecord
  2
高4.5
 70
     0
 40
4.5
 41
1.0
 50
0.0
 71
     0
 42
6.299999999999998
  3
txt.shx
  4
bigfont.shx
  0
STYLE
  5
5B5
330
3
100
AcDbSymbolTableRecord
100
AcDbTextStyleTableRecord
  2
高2
 70
     0
 40
2.0
 41
1.0
 50
0.0
 71
     0
 42
2.0
  3
txt.shx
  4
bigfont.shx
  0
STYLE
  5
121F
330
3
100
AcDbSymbolTableRecord
100
AcDbTextStyleTableRecord
  2
高2.5
 70
     0
 40
2.5
 41
1.0
 50
0.0
 71
     0
 42
0.2
  3
txt.shx
  4
bigfont.shx
  0
ENDTAB
  0
TABLE
  2
VIEW
  5
6
330
0
100
AcDbSymbolTable
 70
     0
  0
ENDTAB
  0
TABLE
  2
UCS
  5
7
330
0
100
AcDbSymbolTable
 70
     0
  0
ENDTAB
  0
TABLE
  2
APPID
  5
9
330
0
100
AcDbSymbolTable
 70
    13
  0
APPID
  5
56
330
9
100
AcDbSymbolTableRecord
100
AcDbRegAppTableRecord
  2
ACAD
 70
     0
  0
APPID
  5
5D
330
9
100
AcDbSymbolTableRecord
100
AcDbRegAppTableRecord
  2
AcadAnnotative
 70
     0
  0
APPID
  5
410
330
9
100
AcDbSymbolTableRecord
100
AcDbRegAppTableRecord
  2
ACAD_EXEMPT_FROM_CAD_STANDARDS
 70
     0
  0
APPID
  5
5C0
330
9
100
AcDbSymbolTableRecord
100
AcDbRegAppTableRecord
  2
ACAD_DSTYLE_DIMJOGGED_JOGANGLE_SYMBOL
 70
     0
  0
APPID
  5
5C1
330
9
100
AcDbSymbolTableRecord
100
AcDbRegAppTableRecord
  2
ACAD_DSTYLE_DIMJAG
 70
     0
  0
APPID
  5
5C2
330
9
100
AcDbSymbolTableRecord
100
AcDbRegAppTableRecord
  2
ACAD_DSTYLE_DIMBREAK
 70
     0
  0
APPID
  5
5C3
330
9
100
AcDbSymbolTableRecord
100
AcDbRegAppTableRecord
  2
ACAD_DSTYLE_DIMTALN
 70
     0
  0
APPID
  5
AEB
330
9
100
AcDbSymbolTableRecord
100
AcDbRegAppTableRecord
  2
ACAD_MLEADERVER
 70
     0
  0
APPID
  5
AF0
330
9
100
AcDbSymbolTableRecord
100
AcDbRegAppTableRecord
  2
ACAD_DSTYLE_DIMARC_LENGTH_SYMBOL
 70
     0
  0
APPID
  5
AF1
330
9
100
AcDbSymbolTableRecord
100
AcDbRegAppTableRecord
  2
ACAD_DSTYLE_DIMEXT_LENGTH
 70
     0
  0
APPID
  5
DB2
330
9
100
AcDbSymbolTableRecord
100
AcDbRegAppTableRecord
  2
ACAD_DSTYLE_DIMRADIAL_EXTENSION
 70
     0
  0
APPID
  5
1085
330
9
100
AcDbSymbolTableRecord
100
AcDbRegAppTableRecord
  2
GradientColor1ACI
 70
     0
  0
APPID
  5
1086
330
9
100
AcDbSymbolTableRecord
100
AcDbRegAppTableRecord
  2
GradientColor2ACI
 70
     0
  0
ENDTAB
  0
TABLE
  2
DIMSTYLE
  5
A
330
0
100
AcDbSymbolTable
 70
     3
100
AcDbDimStyleTable
 71
     3
340
5B6
340
5BA
340
57
  0
DIMSTYLE
105
57
330
A
100
AcDbSymbolTableRecord
100
AcDbDimStyleTableRecord
  2
Standard
 70
     0
340
55
  0
DIMSTYLE
105
5B6
330
A
100
AcDbSymbolTableRecord
100
AcDbDimStyleTableRecord
  2
1：1
 70
     0
 41
2.5
 42
0.25
 43
0.2
 44
1.25
 73
     0
 74
     0
 77
     3
 78
     8
 79
     2
140
3.0
141
0.0
143
0.03937007874016
147
0.625
171
     3
172
     1
178
     4
179
     1
271
     2
272
     2
274
     3
283
     0
284
     8
288
     1
289
     0
340
55
341
521
342
521
1001
ACAD_DSTYLE_DIMARC_LENGTH_SYMBOL
1070
   379
1070
     2
1001
ACAD_DSTYLE_DIMEXT_LENGTH
1070
   378
1040
1.25
1001
ACAD_DSTYLE_DIMJOGGED_JOGANGLE_SYMBOL
1070
   384
1040
1.570796326794896
  0
DIMSTYLE
105
5BA
330
A
100
AcDbSymbolTableRecord
100
AcDbDimStyleTableRecord
  2
1／2
 70
     0
 41
2.5
 42
0.25
 43
0.2
 44
1.25
 73
     0
 74
     0
 77
     3
 78
     8
 79
     2
140
3.0
141
0.0
143
0.03937007874016
144
2.0
147
0.625
171
     3
172
     1
178
     4
179
     1
271
     2
272
     2
274
     3
283
     0
284
     8
288
     1
289
     0
340
55
341
521
342
521
1001
ACAD_DSTYLE_DIMARC_LENGTH_SYMBOL
1070
   379
1070
     2
1001
ACAD_DSTYLE_DIMEXT_LENGTH
1070
   378
1040
1.25
1001
ACAD_DSTYLE_DIMJOGGED_JOGANGLE_SYMBOL
1070
   384
1040
1.570796326794896
  0
ENDTAB
  0
TABLE
  2
BLOCK_RECORD
  5
1
330
0
100
AcDbSymbolTable
 70
     8
  0
BLOCK_RECORD
  5
6B
102
{ACAD_XDICTIONARY
360
3F2
102
}
330
1
100
AcDbSymbolTableRecord
100
AcDbBlockTableRecord
  2
*Model_Space
340
6E
  0
BLOCK_RECORD
  5
67
330
1
100
AcDbSymbolTableRecord
100
AcDbBlockTableRecord
  2
*Paper_Space
340
6A
  0
BLOCK_RECORD
  5
521
330
1
100
AcDbSymbolTableRecord
100
AcDbBlockTableRecord
  2
_Open30
340
0
102
{BLKREFS
331
1506
331
1507
331
150F
331
1510
331
1518
331
1519
331
1521
331
1522
331
152C
331
152D
331
1535
331
1536
331
153E
331
153F
102
}
  0
BLOCK_RECORD
  5
965
330
1
100
AcDbSymbolTableRecord
100
AcDbBlockTableRecord
  2
*D1
340
0
  0
BLOCK_RECORD
  5
972
330
1
100
AcDbSymbolTableRecord
100
AcDbBlockTableRecord
  2
*D2
340
0
  0
BLOCK_RECORD
  5
97F
330
1
100
AcDbSymbolTableRecord
100
AcDbBlockTableRecord
  2
*D3
340
0
  0
BLOCK_RECORD
  5
98E
330
1
100
AcDbSymbolTableRecord
100
AcDbBlockTableRecord
  2
*D4
340
0
  0
BLOCK_RECORD
  5
A65
330
1
100
AcDbSymbolTableRecord
100
AcDbBlockTableRecord
  2
*D5
340
0
  0
BLOCK_RECORD
  5
CB3
330
1
100
AcDbSymbolTableRecord
100
AcDbBlockTableRecord
  2
*D6
340
0
  0
BLOCK_RECORD
  5
E20
330
1
100
AcDbSymbolTableRecord
100
AcDbBlockTableRecord
  2
*D7
340
0
  0
ENDTAB
  0
ENDSEC
  0
SECTION
  2
BLOCKS
  0
BLOCK
  5
6C
330
6B
100
AcDbEntity
  8
0
100
AcDbBlockBegin
  2
*Model_Space
 70
     0
 10
0.0
 20
0.0
 30
0.0
  3
*Model_Space
  1

  0
ENDBLK
  5
6D
330
6B
100
AcDbEntity
  8
0
100
AcDbBlockEnd
  0
BLOCK
  5
68
330
67
100
AcDbEntity
 67
     1
  8
0
100
AcDbBlockBegin
  2
*Paper_Space
 70
     0
 10
0.0
 20
0.0
 30
0.0
  3
*Paper_Space
  1

  0
ENDBLK
  5
69
330
67
100
AcDbEntity
 67
     1
  8
0
100
AcDbBlockEnd
  0
BLOCK
  5
522
330
521
100
AcDbEntity
  8
0
100
AcDbBlockBegin
  2
_Open30
 70
     0
 10
0.0
 20
0.0
 30
0.0
  3
_Open30
  1

  0
LINE
  5
523
330
521
100
AcDbEntity
  8
0
  6
ByBlock
 62
     0
370
    -2
100
AcDbLine
 10
-1.0
 20
0.267949
 30
0.0
 11
0.0
 21
0.0
 31
0.0
  0
LINE
  5
524
330
521
100
AcDbEntity
  8
0
  6
ByBlock
 62
     0
370
    -2
100
AcDbLine
 10
0.0
 20
0.0
 30
0.0
 11
-1.0
 21
-0.267949
 31
0.0
  0
LINE
  5
525
330
521
100
AcDbEntity
  8
0
  6
ByBlock
 62
     0
370
    -2
100
AcDbLine
 10
0.0
 20
0.0
 30
0.0
 11
-1.0
 21
0.0
 31
0.0
  0
ENDBLK
  5
526
330
521
100
AcDbEntity
  8
0
100
AcDbBlockEnd
  0
BLOCK
  5
966
330
965
100
AcDbEntity
  8
0
100
AcDbBlockBegin
  2
*D1
 70
     1
 10
0.0
 20
0.0
 30
0.0
  3
*D1
  1

  0
LINE
  5
1503
330
965
100
AcDbEntity
  8
0
  6
Continuous
 62
     0
370
    -2
100
AcDbLine
 10
497.6941074994348
 20
266.056877541034
 30
0.0
 11
486.0412947742069
 21
266.056877541034
 31
0.0
  0
LINE
  5
1504
330
965
100
AcDbEntity
  8
0
  6
Continuous
 62
     0
370
    -2
100
AcDbLine
 10
497.6941074994351
 20
252.2568775410341
 30
0.0
 11
486.0412947742069
 21
252.2568775410341
 31
0.0
  0
LINE
  5
1505
330
965
100
AcDbEntity
  8
0
  6
Continuous
 62
     0
370
    -2
100
AcDbLine
 10
487.2912947742069
 20
263.556877541034
 30
0.0
 11
487.2912947742069
 21
254.7568775410341
 31
0.0
  0
INSERT
  5
1506
330
965
100
AcDbEntity
  8
0
  6
Continuous
 62
     0
370
    -2
100
AcDbBlockReference
  2
_Open30
 10
487.2912947742069
 20
266.056877541034
 30
0.0
 41
2.5
 42
2.5
 43
2.5
 50
90.0
  0
INSERT
  5
1507
330
965
100
AcDbEntity
  8
0
  6
Continuous
 62
     0
370
    -2
100
AcDbBlockReference
  2
_Open30
 10
487.2912947742069
 20
252.2568775410341
 30
0.0
 41
2.5
 42
2.5
 43
2.5
 50
270.0
  0
MTEXT
  5
1508
330
965
100
AcDbEntity
  8
0
  6
Continuous
 62
     4
100
AcDbMText
 10
485.1662947742068
 20
259.0733975720304
 30
0.0
 40
3.0
 41
0.0
 71
     5
 72
     1
  1
27.6
 11
0.0000000000000001
 21
1.0
 31
0.0
 73
     1
 44
1.0
1001
ACAD
1000
MTEXTBEGIN
1070
    73
1070
     1
1070
    44
1040
1.0
1070
    74
1070
     0
1000
MTEXTEND
  0
POINT
  5
1509
330
965
100
AcDbEntity
  8
Defpoints
  6
Continuous
 62
     0
100
AcDbPoint
 10
497.9441074994348
 20
266.056877541034
 30
0.0
  0
POINT
  5
150A
330
965
100
AcDbEntity
  8
Defpoints
  6
Continuous
 62
     0
100
AcDbPoint
 10
497.9441074994351
 20
252.2568775410341
 30
0.0
  0
POINT
  5
150B
330
965
100
AcDbEntity
  8
Defpoints
  6
Continuous
 62
     0
100
AcDbPoint
 10
487.2912947742069
 20
252.2568775410341
 30
0.0
  0
ENDBLK
  5
967
330
965
100
AcDbEntity
  8
0
100
AcDbBlockEnd
  0
BLOCK
  5
973
330
972
100
AcDbEntity
  8
0
100
AcDbBlockBegin
  2
*D2
 70
     1
 10
0.0
 20
0.0
 30
0.0
  3
*D2
  1

  0
LINE
  5
150C
330
972
100
AcDbEntity
  8
0
  6
Continuous
 62
     0
370
    -2
100
AcDbLine
 10
524.9990657766213
 20
304.4529765444998
 30
0.0
 11
524.9990657766213
 21
312.2075621504803
 31
0.0
  0
LINE
  5
150D
330
972
100
AcDbEntity
  8
0
  6
Continuous
 62
     0
370
    -2
100
AcDbLine
 10
493.2490657766213
 20
304.4529765444998
 30
0.0
 11
493.2490657766213
 21
312.2075621504803
 31
0.0
  0
LINE
  5
150E
330
972
100
AcDbEntity
  8
0
  6
Continuous
 62
     0
370
    -2
100
AcDbLine
 10
522.4990657766213
 20
310.9575621504803
 30
0.0
 11
495.7490657766213
 21
310.9575621504803
 31
0.0
  0
INSERT
  5
150F
330
972
100
AcDbEntity
  8
0
  6
Continuous
 62
     0
370
    -2
100
AcDbBlockReference
  2
_Open30
 10
524.9990657766213
 20
310.9575621504803
 30
0.0
 41
2.5
 42
2.5
 43
2.5
  0
INSERT
  5
1510
330
972
100
AcDbEntity
  8
0
  6
Continuous
 62
     0
370
    -2
100
AcDbBlockReference
  2
_Open30
 10
493.2490657766213
 20
310.9575621504803
 30
0.0
 41
2.5
 42
2.5
 43
2.5
 50
180.0
  0
MTEXT
  5
1511
330
972
100
AcDbEntity
  8
0
  6
Continuous
 62
     4
100
AcDbMText
 10
507.2024954121973
 20
313.0825621504803
 30
0.0
 40
3.0
 41
0.0
 71
     5
 72
     1
  1
63.5
 73
     1
 44
1.0
1001
ACAD
1000
MTEXTBEGIN
1070
    73
1070
     1
1070
    44
1040
1.0
1070
    74
1070
     0
1000
MTEXTEND
  0
POINT
  5
1512
330
972
100
AcDbEntity
  8
Defpoints
  6
Continuous
 62
     0
100
AcDbPoint
 10
524.9990657766213
 20
304.2029765444998
 30
0.0
  0
POINT
  5
1513
330
972
100
AcDbEntity
  8
Defpoints
  6
Continuous
 62
     0
100
AcDbPoint
 10
493.2490657766213
 20
304.2029765444998
 30
0.0
  0
POINT
  5
1514
330
972
100
AcDbEntity
  8
Defpoints
  6
Continuous
 62
     0
100
AcDbPoint
 10
493.2490657766213
 20
310.9575621504803
 30
0.0
  0
ENDBLK
  5
974
330
972
100
AcDbEntity
  8
0
100
AcDbBlockEnd
  0
BLOCK
  5
980
330
97F
100
AcDbEntity
  8
0
100
AcDbBlockBegin
  2
*D3
 70
     1
 10
0.0
 20
0.0
 30
0.0
  3
*D3
  1

  0
LINE
  5
1515
330
97F
100
AcDbEntity
  8
0
  6
Continuous
 62
     0
370
    -2
100
AcDbLine
 10
494.4990657766214
 20
306.2029765444998
 30
0.0
 11
487.6747995862177
 21
306.2029765444998
 31
0.0
  0
LINE
  5
1516
330
97F
100
AcDbEntity
  8
0
  6
Continuous
 62
     0
370
    -2
100
AcDbLine
 10
492.9990657766213
 20
284.7029765444998
 30
0.0
 11
487.6747995862177
 21
284.7029765444998
 31
0.0
  0
LINE
  5
1517
330
97F
100
AcDbEntity
  8
0
  6
Continuous
 62
     0
370
    -2
100
AcDbLine
 10
488.9247995862176
 20
303.7029765444998
 30
0.0
 11
488.9247995862176
 21
287.2029765444998
 31
0.0
  0
INSERT
  5
1518
330
97F
100
AcDbEntity
  8
0
  6
Continuous
 62
     0
370
    -2
100
AcDbBlockReference
  2
_Open30
 10
488.9247995862176
 20
306.2029765444998
 30
0.0
 41
2.5
 42
2.5
 43
2.5
 50
90.0
  0
INSERT
  5
1519
330
97F
100
AcDbEntity
  8
0
  6
Continuous
 62
     0
370
    -2
100
AcDbBlockReference
  2
_Open30
 10
488.9247995862176
 20
284.7029765444998
 30
0.0
 41
2.5
 42
2.5
 43
2.5
 50
270.0
  0
MTEXT
  5
151A
330
97F
100
AcDbEntity
  8
0
  6
Continuous
 62
     4
100
AcDbMText
 10
486.7997995862176
 20
294.4666640929538
 30
0.0
 40
3.0
 41
0.0
 71
     5
 72
     1
  1
43
 11
0.0000000000000001
 21
1.0
 31
0.0
 73
     1
 44
1.0
1001
ACAD
1000
MTEXTBEGIN
1070
    73
1070
     1
1070
    44
1040
1.0
1070
    74
1070
     0
1000
MTEXTEND
  0
POINT
  5
151B
330
97F
100
AcDbEntity
  8
Defpoints
  6
Continuous
 62
     0
100
AcDbPoint
 10
494.7490657766214
 20
306.2029765444998
 30
0.0
  0
POINT
  5
151C
330
97F
100
AcDbEntity
  8
Defpoints
  6
Continuous
 62
     0
100
AcDbPoint
 10
493.2490657766213
 20
284.7029765444998
 30
0.0
  0
POINT
  5
151D
330
97F
100
AcDbEntity
  8
Defpoints
  6
Continuous
 62
     0
100
AcDbPoint
 10
488.9247995862176
 20
284.7029765444998
 30
0.0
  0
ENDBLK
  5
981
330
97F
100
AcDbEntity
  8
0
100
AcDbBlockEnd
  0
BLOCK
  5
98F
330
98E
100
AcDbEntity
  8
0
100
AcDbBlockBegin
  2
*D4
 70
     1
 10
0.0
 20
0.0
 30
0.0
  3
*D4
  1

  0
LINE
  5
151E
330
98E
100
AcDbEntity
  8
0
  6
Continuous
 62
     0
370
    -2
100
AcDbLine
 10
502.7490657766214
 20
264.3977479864966
 30
0.0
 11
502.7490657766214
 21
271.5547277351823
 31
0.0
  0
LINE
  5
151F
330
98E
100
AcDbEntity
  8
0
  6
Continuous
 62
     0
370
    -2
100
AcDbLine
 10
493.2490657766213
 20
259.4068775410341
 30
0.0
 11
493.2490657766213
 21
271.5547277351823
 31
0.0
  0
LINE
  5
1520
330
98E
100
AcDbEntity
  8
0
  6
Continuous
 62
     0
370
    -2
100
AcDbLine
 10
500.2490657766214
 20
270.3047277351823
 30
0.0
 11
495.7490657766213
 21
270.3047277351823
 31
0.0
  0
INSERT
  5
1521
330
98E
100
AcDbEntity
  8
0
  6
Continuous
 62
     0
370
    -2
100
AcDbBlockReference
  2
_Open30
 10
502.7490657766214
 20
270.3047277351823
 30
0.0
 41
2.5
 42
2.5
 43
2.5
  0
INSERT
  5
1522
330
98E
100
AcDbEntity
  8
0
  6
Continuous
 62
     0
370
    -2
100
AcDbBlockReference
  2
_Open30
 10
493.2490657766213
 20
270.3047277351823
 30
0.0
 41
2.5
 42
2.5
 43
2.5
 50
180.0
  0
MTEXT
  5
1523
330
98E
100
AcDbEntity
  8
0
  6
Continuous
 62
     4
100
AcDbMText
 10
498.2726510477793
 20
272.4297277351823
 30
0.0
 40
3.0
 41
0.0
 71
     5
 72
     1
  1
19
 73
     1
 44
1.0
1001
ACAD
1000
MTEXTBEGIN
1070
    73
1070
     1
1070
    44
1040
1.0
1070
    74
1070
     0
1000
MTEXTEND
  0
POINT
  5
1524
330
98E
100
AcDbEntity
  8
Defpoints
  6
Continuous
 62
     0
100
AcDbPoint
 10
502.7490657766214
 20
264.1477479864966
 30
0.0
  0
POINT
  5
1525
330
98E
100
AcDbEntity
  8
Defpoints
  6
Continuous
 62
     0
100
AcDbPoint
 10
493.2490657766213
 20
259.1568775410341
 30
0.0
  0
POINT
  5
1526
330
98E
100
AcDbEntity
  8
Defpoints
  6
Continuous
 62
     0
100
AcDbPoint
 10
493.2490657766213
 20
270.3047277351823
 30
0.0
  0
ENDBLK
  5
990
330
98E
100
AcDbEntity
  8
0
100
AcDbBlockEnd
  0
BLOCK
  5
A66
330
A65
100
AcDbEntity
  8
0
100
AcDbBlockBegin
  2
*D5
 70
     1
 10
0.0
 20
0.0
 30
0.0
  3
*D5
  1

  0
LINE
  5
1527
330
A65
100
AcDbEntity
  8
0
  6
Continuous
 62
     0
370
    -2
100
AcDbLine
 10
534.9990657766213
 20
287.9529765444999
 30
0.0
 11
534.9990657766213
 21
278.3197148573896
 31
0.0
  0
LINE
  5
1528
330
A65
100
AcDbEntity
  8
0
  6
Continuous
 62
     0
370
    -2
100
AcDbLine
 10
549.9063895175311
 20
287.9529765444999
 30
0.0
 11
549.9063895175311
 21
278.3197148573896
 31
0.0
  0
LINE
  5
1529
330
A65
100
AcDbEntity
  8
0
  6
Continuous
 62
     0
370
    -2
100
AcDbLine
 10
532.4990657766213
 20
279.5697148573896
 30
0.0
 11
529.9990657766214
 21
279.5697148573896
 31
0.0
  0
LINE
  5
152A
330
A65
100
AcDbEntity
  8
0
  6
Continuous
 62
     0
370
    -2
100
AcDbLine
 10
552.4063895175311
 20
279.5697148573896
 30
0.0
 11
567.7563895175311
 21
279.5697148573896
 31
0.0
  0
LINE
  5
152B
330
A65
100
AcDbEntity
  8
0
  6
Continuous
 62
     0
370
    -2
100
AcDbLine
 10
534.9990657766213
 20
279.5697148573896
 30
0.0
 11
549.9063895175311
 21
279.5697148573896
 31
0.0
  0
INSERT
  5
152C
330
A65
100
AcDbEntity
  8
0
  6
Continuous
 62
     0
370
    -2
100
AcDbBlockReference
  2
_Open30
 10
534.9990657766213
 20
279.5697148573896
 30
0.0
 41
2.5
 42
2.5
 43
2.5
  0
INSERT
  5
152D
330
A65
100
AcDbEntity
  8
0
  6
Continuous
 62
     0
370
    -2
100
AcDbBlockReference
  2
_Open30
 10
549.9063895175311
 20
279.5697148573896
 30
0.0
 41
2.5
 42
2.5
 43
2.5
 50
180.0
  0
MTEXT
  5
152E
330
A65
100
AcDbEntity
  8
0
  6
Continuous
 62
     4
100
AcDbMText
 10
561.331389517531
 20
281.6947148573896
 30
0.0
 40
3.0
 41
0.0
 71
     5
 72
     1
  1
約1.7m
 73
     1
 44
1.0
1001
ACAD
1000
MTEXTBEGIN
1070
    73
1070
     1
1070
    44
1040
1.0
1070
    74
1070
     0
1000
MTEXTEND
  0
POINT
  5
152F
330
A65
100
AcDbEntity
  8
Defpoints
  6
Continuous
 62
     0
100
AcDbPoint
 10
534.9990657766213
 20
288.2029765444999
 30
0.0
  0
POINT
  5
1530
330
A65
100
AcDbEntity
  8
Defpoints
  6
Continuous
 62
     0
100
AcDbPoint
 10
549.9063895175311
 20
288.2029765444999
 30
0.0
  0
POINT
  5
1531
330
A65
100
AcDbEntity
  8
Defpoints
  6
Continuous
 62
     0
100
AcDbPoint
 10
549.9063895175311
 20
279.5697148573896
 30
0.0
  0
ENDBLK
  5
A67
330
A65
100
AcDbEntity
  8
0
100
AcDbBlockEnd
  0
BLOCK
  5
CB4
330
CB3
100
AcDbEntity
  8
0
100
AcDbBlockBegin
  2
*D6
 70
     1
 10
0.0
 20
0.0
 30
0.0
  3
*D6
  1

  0
LINE
  5
1532
330
CB3
100
AcDbEntity
  8
0
 62
     0
370
    -2
100
AcDbLine
 10
466.7520925566476
 20
357.7438225040142
 30
0.0
 11
466.7520925566476
 21
363.5490129259204
 31
0.0
  0
LINE
  5
1533
330
CB3
100
AcDbEntity
  8
0
 62
     0
370
    -2
100
AcDbLine
 10
568.5020878731766
 20
347.3438225040142
 30
0.0
 11
568.5020878731766
 21
363.5490129259204
 31
0.0
  0
LINE
  5
1534
330
CB3
100
AcDbEntity
  8
0
 62
     0
370
    -2
100
AcDbLine
 10
469.2520925566476
 20
362.2990129259203
 30
0.0
 11
566.0020878731765
 21
362.2990129259203
 31
0.0
  0
INSERT
  5
1535
330
CB3
100
AcDbEntity
  8
0
 62
     0
370
    -2
100
AcDbBlockReference
  2
_Open30
 10
466.7520925566476
 20
362.2990129259203
 30
0.0
 41
2.5
 42
2.5
 43
2.5
 50
180.0
  0
INSERT
  5
1536
330
CB3
100
AcDbEntity
  8
0
 62
     0
370
    -2
100
AcDbBlockReference
  2
_Open30
 10
568.5020878731766
 20
362.2990129259203
 30
0.0
 41
2.5
 42
2.5
 43
2.5
  0
MTEXT
  5
1537
330
CB3
100
AcDbEntity
  8
0
 62
     4
100
AcDbMText
 10
516.7091176205627
 20
364.4240129259204
 30
0.0
 40
3.0
 41
0.0
 71
     5
 72
     1
  1
203.5
 73
     1
 44
1.0
1001
ACAD
1000
MTEXTBEGIN
1070
    73
1070
     1
1070
    44
1040
1.0
1070
    74
1070
     0
1000
MTEXTEND
  0
POINT
  5
1538
330
CB3
100
AcDbEntity
  8
Defpoints
 62
     0
100
AcDbPoint
 10
466.7520925566476
 20
357.4938225040142
 30
0.0
  0
POINT
  5
1539
330
CB3
100
AcDbEntity
  8
Defpoints
 62
     0
100
AcDbPoint
 10
568.5020878731766
 20
347.0938225040142
 30
0.0
  0
POINT
  5
153A
330
CB3
100
AcDbEntity
  8
Defpoints
 62
     0
100
AcDbPoint
 10
568.5020878731766
 20
362.2990129259203
 30
0.0
  0
ENDBLK
  5
CB5
330
CB3
100
AcDbEntity
  8
0
100
AcDbBlockEnd
  0
BLOCK
  5
E21
330
E20
100
AcDbEntity
  8
0
100
AcDbBlockBegin
  2
*D7
 70
     1
 10
0.0
 20
0.0
 30
0.0
  3
*D7
  1

  0
LINE
  5
153B
330
E20
100
AcDbEntity
  8
0
  6
Continuous
 62
     0
370
    -2
100
AcDbLine
 10
453.981688958567
 20
347.3438228233177
 30
0.0
 11
453.981688958567
 21
362.21154491543
 31
0.0
  0
LINE
  5
153C
330
E20
100
AcDbEntity
  8
0
  6
Continuous
 62
     0
370
    -2
100
AcDbLine
 10
432.4816889585669
 20
347.3438225040142
 30
0.0
 11
432.4816889585669
 21
362.21154491543
 31
0.0
  0
LINE
  5
153D
330
E20
100
AcDbEntity
  8
0
  6
Continuous
 62
     0
370
    -2
100
AcDbLine
 10
451.4816889585669
 20
360.96154491543
 30
0.0
 11
434.9816889585668
 21
360.96154491543
 31
0.0
  0
INSERT
  5
153E
330
E20
100
AcDbEntity
  8
0
  6
Continuous
 62
     0
370
    -2
100
AcDbBlockReference
  2
_Open30
 10
453.981688958567
 20
360.96154491543
 30
0.0
 41
2.5
 42
2.5
 43
2.5
  0
INSERT
  5
153F
330
E20
100
AcDbEntity
  8
0
  6
Continuous
 62
     0
370
    -2
100
AcDbBlockReference
  2
_Open30
 10
432.4816889585669
 20
360.96154491543
 30
0.0
 41
2.5
 42
2.5
 43
2.5
 50
180.0
  0
MTEXT
  5
1540
330
E20
100
AcDbEntity
  8
0
  6
Continuous
 62
     4
100
AcDbMText
 10
443.265078933392
 20
363.08654491543
 30
0.0
 40
3.0
 41
0.0
 71
     5
 72
     1
  1
%%C43
 73
     1
 44
1.0
1001
ACAD
1000
MTEXTBEGIN
1070
    73
1070
     1
1070
    44
1040
1.0
1070
    74
1070
     0
1000
MTEXTEND
  0
POINT
  5
1541
330
E20
100
AcDbEntity
  8
Defpoints
  6
Continuous
 62
     0
100
AcDbPoint
 10
453.981688958567
 20
347.0938228233177
 30
0.0
  0
POINT
  5
1542
330
E20
100
AcDbEntity
  8
Defpoints
  6
Continuous
 62
     0
100
AcDbPoint
 10
432.4816889585669
 20
347.0938225040142
 30
0.0
  0
POINT
  5
1543
330
E20
100
AcDbEntity
  8
Defpoints
  6
Continuous
 62
     0
100
AcDbPoint
 10
432.4816889585669
 20
360.96154491543
 30
0.0
  0
ENDBLK
  5
E22
330
E20
100
AcDbEntity
  8
0
100
AcDbBlockEnd
  0
ENDSEC
  0
SECTION
  2
ENTITIES
  0
LINE
  5
B0
330
6B
100
AcDbEntity
  8
0
 62
     3
100
AcDbLine
 10
666.917363
 20
216.755761
 30
0.0
 11
666.917363
 21
239.755761
 31
0.0
  0
LINE
  5
B2
330
6B
100
AcDbEntity
  8
0
 62
     3
100
AcDbLine
 10
613.8637529999997
 20
209.755761
 30
0.0
 11
613.8637529999997
 21
223.755761
 31
0.0
  0
TEXT
  5
B4
330
6B
100
AcDbEntity
  8
0
 62
     3
100
AcDbText
 10
642.927681
 20
235.960878
 30
0.0
 40
2.0
  1
A
 41
0.7
100
AcDbText
  0
TEXT
  5
B5
330
6B
100
AcDbEntity
  8
0
 62
     3
100
AcDbText
 10
645.462967
 20
235.960878
 30
0.0
 40
2.0
  1
P
 41
0.7
100
AcDbText
  0
TEXT
  5
B6
330
6B
100
AcDbEntity
  8
0
 62
     3
100
AcDbText
 10
647.998253
 20
235.960878
 30
0.0
 40
2.0
  1
P
 41
0.7
100
AcDbText
  0
TEXT
  5
B7
330
6B
100
AcDbEntity
  8
0
 62
     3
100
AcDbText
 10
650.5335389999998
 20
235.960878
 30
0.0
 40
2.0
  1
D
 41
0.7
100
AcDbText
  0
TEXT
  5
B8
330
6B
100
AcDbEntity
  8
0
 62
     3
100
AcDbText
 10
655.902223
 20
235.960878
 30
0.0
 40
2.0
  1
C
 41
0.7
100
AcDbText
  0
TEXT
  5
B9
330
6B
100
AcDbEntity
  8
0
 62
     3
100
AcDbText
 10
658.4375089999999
 20
235.960878
 30
0.0
 40
2.0
  1
H
 41
0.7
100
AcDbText
  0
TEXT
  5
BA
330
6B
100
AcDbEntity
  8
0
 62
     3
100
AcDbText
 10
660.9727949999998
 20
235.960878
 30
0.0
 40
2.0
  1
C
 41
0.7
100
AcDbText
  0
TEXT
  5
BB
330
6B
100
AcDbEntity
  8
0
 62
     3
100
AcDbText
 10
663.5080809999997
 20
235.960878
 30
0.0
 40
2.0
  1
K
 41
0.7
100
AcDbText
  0
TEXT
  5
BC
330
6B
100
AcDbEntity
  8
0
 62
     3
100
AcDbText
 10
669.182048
 20
235.960878
 30
0.0
 40
2.0
  1
DESN
 41
1.216762999999998
100
AcDbText
  0
TEXT
  5
BD
330
6B
100
AcDbEntity
  8
0
 62
     3
100
AcDbText
 10
584.1756889999998
 20
206.61438
 30
0.0
 40
2.0
  1
NICHIDO IND.CO.LTD
 41
1.274876
100
AcDbText
  0
LINE
  5
BE
330
6B
100
AcDbEntity
  8
0
 62
     3
100
AcDbLine
 10
594.558718
 20
239.755761
 30
0.0
 11
594.558718
 21
216.755761
 31
0.0
  0
LINE
  5
BF
330
6B
100
AcDbEntity
  8
0
 62
     3
100
AcDbLine
 10
640.917363
 20
239.7557609999999
 30
0.0
 11
640.917363
 21
200.090039
 31
0.0
  0
LINE
  5
C4
330
6B
100
AcDbEntity
  8
0
 62
     3
100
AcDbLine
 10
653.9173629999997
 20
239.755761
 30
0.0
 11
653.917363
 21
209.755761
 31
0.0
  0
TEXT
  5
C5
330
6B
100
AcDbEntity
  8
0
 62
     3
100
AcDbText
 10
642.1958459999999
 20
211.461018
 30
0.0
 40
3.2
  1
作成日
 41
1.017225999999997
100
AcDbText
  0
LINE
  5
C6
330
6B
100
AcDbEntity
  8
0
 62
     3
100
AcDbLine
 10
692.6167259999997
 20
239.755761
 30
0.0
 11
581.3132839999997
 21
239.755761
 31
0.0
  0
LINE
  5
C7
330
6B
100
AcDbEntity
  8
0
 62
     3
100
AcDbLine
 10
692.6167259999997
 20
230.755761
 30
0.0
 11
581.3132839999997
 21
230.755761
 31
0.0
  0
LINE
  5
C8
330
6B
100
AcDbEntity
  8
0
 62
     3
100
AcDbLine
 10
692.6167259999997
 20
216.755761
 30
0.0
 11
581.3132839999997
 21
216.755761
 31
0.0
  0
LINE
  5
C9
330
6B
100
AcDbEntity
  8
0
 62
     3
100
AcDbLine
 10
692.6167259999997
 20
209.755761
 30
0.0
 11
581.3132839999997
 21
209.755761
 31
0.0
  0
LINE
  5
CA
330
6B
100
AcDbEntity
  8
0
 62
     3
100
AcDbLine
 10
679.917363
 20
216.755761
 30
0.0
 11
679.917363
 21
239.755761
 31
0.0
  0
TEXT
  5
CB
330
6B
100
AcDbEntity
  8
0
 62
     3
100
AcDbText
 10
683.2411659999998
 20
236.046696
 30
0.0
 40
1.8
  1
D
 41
0.666667
100
AcDbText
  0
TEXT
  5
CC
330
6B
100
AcDbEntity
  8
0
 62
     3
100
AcDbText
 10
686.057794
 20
236.046696
 30
0.0
 40
1.8
  1
E
 41
0.666667
100
AcDbText
  0
TEXT
  5
CD
330
6B
100
AcDbEntity
  8
0
 62
     3
100
AcDbText
 10
688.8744219999996
 20
236.046696
 30
0.0
 40
1.8
  1
F
 41
0.666667
100
AcDbText
  0
TEXT
  5
CE
330
6B
100
AcDbEntity
  8
0
 62
     3
100
AcDbText
 10
683.2411659999998
 20
232.054143
 30
0.0
 40
3.2
  1
製図
 41
1.076369
100
AcDbText
  0
LINE
  5
CF
330
6B
100
AcDbEntity
  8
0
 62
     3
100
AcDbLine
 10
581.3132839999997
 20
239.755761
 30
0.0
 11
581.3132839999997
 21
200.090039
 31
0.0
  0
LINE
  5
D0
330
6B
100
AcDbEntity
  8
0
 62
     3
100
AcDbLine
 10
640.917363
 20
223.755761
 30
0.0
 11
581.3132839999997
 21
223.755761
 31
0.0
  0
TEXT
  5
D1
330
6B
100
AcDbEntity
  8
0
 62
     3
100
AcDbText
 10
582.6899369999997
 20
200.422504
 30
0.0
 40
5.0
  1
日動工業株式会社
 41
0.833333
100
AcDbText
  0
LINE
  5
D2
330
6B
100
AcDbEntity
  8
0
 62
     3
100
AcDbLine
 10
624.195688
 20
223.755761
 30
0.0
 11
624.195688
 21
200.090039
 31
0.0
  0
LINE
  5
D3
330
6B
100
AcDbEntity
  8
0
 62
     3
100
AcDbLine
 10
624.195688
 20
204.9229
 30
0.0
 11
640.917363
 21
204.9229
 31
0.0
  0
TEXT
  5
D4
330
6B
100
AcDbEntity
  8
0
 62
     3
100
AcDbText
 10
624.78229
 20
205.739331
 30
0.0
 40
3.2
  1
出図コード
 41
0.8356860000000001
100
AcDbText
  0
TEXT
  5
D5
330
6B
100
AcDbEntity
  8
0
 62
     3
100
AcDbText
 10
624.78229
 20
200.90647
 30
0.0
 40
3.2
  1
HM-A4
 41
0.999426
100
AcDbText
  0
LINE
  5
E7
330
6B
100
AcDbEntity
  8
0
 62
     3
100
AcDbLine
 10
553.988132
 20
392.556031
 30
0.0
 11
553.988132
 21
391.307471
 31
0.0
  0
LINE
  5
ED
330
6B
100
AcDbEntity
  8
0
 62
     3
100
AcDbLine
 10
415.488132
 20
380.083413
 30
0.0
 11
415.488132
 21
200.083413
 31
0.0
  0
LINE
  5
EE
330
6B
100
AcDbEntity
  8
0
 62
     3
100
AcDbLine
 10
692.488132
 20
200.083413
 30
0.0
 11
692.488132
 21
380.083413
 31
0.0
  0
LINE
  5
EF
330
6B
100
AcDbEntity
  8
0
 62
     3
100
AcDbLine
 10
415.488132
 20
200.083413
 30
0.0
 11
692.488132
 21
200.083413
 31
0.0
  0
LINE
  5
F0
330
6B
100
AcDbEntity
  8
0
 62
     3
100
AcDbLine
 10
415.488132
 20
380.083413
 30
0.0
 11
692.488132
 21
380.083413
 31
0.0
  0
TEXT
  5
F1
330
6B
100
AcDbEntity
  8
0
 62
     3
100
AcDbText
 10
583.130681
 20
235.925287
 30
0.0
 40
2.0
  1
CONPONENTS
 41
0.5331600000000001
100
AcDbText
  0
TEXT
  5
F2
330
6B
100
AcDbEntity
  8
0
 62
     3
100
AcDbText
 10
582.7809539999996
 20
216.99311
 30
0.0
 40
3.0
  1
材
 41
0.833333
100
AcDbText
  0
TEXT
  5
F3
330
6B
100
AcDbEntity
  8
0
 62
     3
100
AcDbText
 10
590.3165969999998
 20
216.99311
 30
0.0
 40
3.0
  1
質
 41
0.833333
100
AcDbText
  0
TEXT
  5
F4
330
6B
100
AcDbEntity
  8
0
 62
     3
100
AcDbText
 10
582.869025
 20
227.617635
 30
0.0
 40
2.0
  1
MODEL
 41
1.031072999999999
100
AcDbText
  0
TEXT
  5
F5
330
6B
100
AcDbEntity
  8
0
 62
     3
100
AcDbText
 10
582.7809539999996
 20
220.675419
 30
0.0
 40
2.0
  1
MATERIAL
 41
0.659278
100
AcDbText
  0
TEXT
  5
F6
330
6B
100
AcDbEntity
  8
0
 62
     3
100
AcDbText
 10
614.0882339999997
 20
216.99311
 30
0.0
 40
3.0
  1
備
 41
0.833333
100
AcDbText
  0
TEXT
  5
F7
330
6B
100
AcDbEntity
  8
0
 62
     3
100
AcDbText
 10
620.821236
 20
216.99311
 30
0.0
 40
3.0
  1
考
 41
0.833333
100
AcDbText
  0
TEXT
  5
F8
330
6B
100
AcDbEntity
  8
0
 62
     3
100
AcDbText
 10
614.5413765218952
 20
220.675419
 30
0.0
 40
2.0
  1
REMARKS
 41
0.675794
100
AcDbText
  0
TEXT
  5
F9
330
6B
100
AcDbEntity
  8
0
 62
     3
100
AcDbText
 10
584.370683
 20
213.755298
 30
0.0
 40
2.0
  1
3AD
 41
1.42614
100
AcDbText
  0
TEXT
  5
FA
330
6B
100
AcDbEntity
  8
0
 62
     3
100
AcDbText
 10
593.681663
 20
213.921032
 30
0.0
 40
2.0
  1
ANGLE
 41
1.669883999999995
100
AcDbText
  0
TEXT
  5
FB
330
6B
100
AcDbEntity
  8
0
 62
     3
100
AcDbText
 10
614.6155499999998
 20
213.544191
 30
0.0
 40
2.0
  1
SCALE
 41
0.7719630000000001
100
AcDbText
  0
TEXT
  5
FC
330
6B
100
AcDbEntity
  8
0
 62
     3
100
AcDbText
 10
584.056813
 20
209.755761
 30
0.0
 40
3.0
  1
第
 41
0.833333
100
AcDbText
  0
TEXT
  5
FD
330
6B
100
AcDbEntity
  8
0
 62
     3
100
AcDbText
 10
591.843663
 20
209.755761
 30
0.0
 40
3.0
  1
三
 41
0.833333
100
AcDbText
  0
TEXT
  5
FE
330
6B
100
AcDbEntity
  8
0
 62
     3
100
AcDbText
 10
599.6305129999996
 20
209.755761
 30
0.0
 40
3.0
  1
角
 41
0.833333
100
AcDbText
  0
TEXT
  5
FF
330
6B
100
AcDbEntity
  8
0
 62
     3
100
AcDbText
 10
607.417363
 20
209.755761
 30
0.0
 40
3.0
  1
法
 41
0.833333
100
AcDbText
  0
TEXT
  5
100
330
6B
100
AcDbEntity
  8
0
 62
     3
100
AcDbText
 10
614.478755
 20
210.044191
 30
0.0
 40
3.0
  1
尺
 41
0.833333
100
AcDbText
  0
TEXT
  5
101
330
6B
100
AcDbEntity
  8
0
 62
     3
100
AcDbText
 10
621.2117559999998
 20
210.044191
 30
0.0
 40
3.0
  1
度
 41
0.833333
100
AcDbText
  0
TEXT
  5
102
330
6B
100
AcDbEntity
  8
0
 62
     3
100
AcDbText
 10
643.7950269999999
 20
232.21349
 30
0.0
 40
3.0
  1
承認
 41
1.089472999999999
100
AcDbText
  0
TEXT
  5
103
330
6B
100
AcDbEntity
  8
0
 62
     3
100
AcDbText
 10
657.037907
 20
232.155761
 30
0.0
 40
3.0
  1
検図
 41
0.931761
100
AcDbText
  0
TEXT
  5
104
330
6B
100
AcDbEntity
  8
0
 62
     3
100
AcDbText
 10
670.038304
 20
232.155761
 30
0.0
 40
3.0
  1
設
 41
0.833333
100
AcDbText
  0
TEXT
  5
105
330
6B
100
AcDbEntity
  8
0
 62
     3
100
AcDbText
 10
674.5281719999998
 20
232.155761
 30
0.0
 40
3.0
  1
計
 41
0.833333
100
AcDbText
  0
TEXT
  5
106
330
6B
100
AcDbEntity
  8
0
 62
     3
100
AcDbText
 10
583.2007869999999
 20
232.328314
 30
0.0
 40
3.0
  1
品
 41
0.833333
100
AcDbText
  0
TEXT
  5
107
330
6B
100
AcDbEntity
  8
0
 62
     3
100
AcDbText
 10
590.736429
 20
232.328314
 30
0.0
 40
3.0
  1
名
 41
0.833333
100
AcDbText
  0
TEXT
  5
108
330
6B
100
AcDbEntity
  8
0
 62
     3
100
AcDbText
 10
582.869025
 20
224.1377012751541
 30
0.0
 40
3.0
  1
型
 41
0.833333
100
AcDbText
  0
TEXT
  5
109
330
6B
100
AcDbEntity
  8
0
 62
     3
100
AcDbText
 10
590.417115
 20
224.1377012751541
 30
0.0
 40
3.0
  1
式
 41
0.833333
100
AcDbText
  0
LINE
  5
10A
330
6B
100
AcDbEntity
  8
0
 62
     3
100
AcDbLine
 10
692.3880959999997
 20
245.755761
 30
0.0
 11
640.917363
 21
245.755761
 31
0.0
  0
LINE
  5
10B
330
6B
100
AcDbEntity
  8
0
 62
     3
100
AcDbLine
 10
666.917363
 20
239.755761
 30
0.0
 11
666.917363
 21
245.755761
 31
0.0
  0
LINE
  5
10C
330
6B
100
AcDbEntity
  8
0
 62
     3
100
AcDbLine
 10
640.917363
 20
239.755761
 30
0.0
 11
640.917363
 21
245.755761
 31
0.0
  0
TEXT
  5
10D
330
6B
100
AcDbEntity
  8
0
 62
     3
100
AcDbText
 10
646.0555494683099
 20
240.311847
 30
0.0
 40
4.5
  1
コード
  7
高4.5
100
AcDbText
  0
TEXT
  5
10E
330
6B
100
AcDbEntity
  8
0
 62
     3
100
AcDbText
 10
451.4371054689719
 20
200.483413
 30
0.0
 40
2.5
  1
備　　　　　考　
 41
0.8
  7
高2.5
100
AcDbText
  0
TEXT
  5
10F
330
6B
100
AcDbEntity
  8
0
 62
     3
100
AcDbText
 10
499.8591162601436
 20
200.483413
 30
0.0
 40
2.5
  1
個数
 41
0.8
  7
高2.5
100
AcDbText
  0
TEXT
  5
110
330
6B
100
AcDbEntity
  8
0
 62
     3
100
AcDbText
 10
416.2590759999998
 20
200.483413
 30
0.0
 40
2.5
  1
No
 41
0.8
  7
高2.5
100
AcDbText
  0
TEXT
  5
111
330
6B
100
AcDbEntity
  8
0
 62
     3
100
AcDbText
 10
418.0278583999998
 20
212.483413
 30
0.0
 40
2.5
  1
3
 41
0.8
  7
高2.5
100
AcDbText
  0
TEXT
  5
112
330
6B
100
AcDbEntity
  8
0
 62
     3
100
AcDbText
 10
418.0278583999998
 20
216.483413
 30
0.0
 40
2.5
  1
4
 41
0.8
  7
高2.5
100
AcDbText
  0
TEXT
  5
113
330
6B
100
AcDbEntity
  8
0
 62
     3
100
AcDbText
 10
418.0278583999998
 20
220.483413
 30
0.0
 40
2.5
  1
5
 41
0.8
  7
高2.5
100
AcDbText
  0
TEXT
  5
114
330
6B
100
AcDbEntity
  8
0
 62
     3
100
AcDbText
 10
499.8591162601436
 20
212.483413
 30
0.0
 40
2.5
  1
1
 41
0.8
  7
高2.5
100
AcDbText
  0
TEXT
  5
115
330
6B
100
AcDbEntity
  8
0
 62
     3
100
AcDbText
 10
418.0278583999998
 20
204.483413
 30
0.0
 40
2.5
  1
1
 41
0.8
  7
高2.5
100
AcDbText
  0
TEXT
  5
116
330
6B
100
AcDbEntity
  8
0
 62
     3
100
AcDbText
 10
418.0278583999998
 20
208.483413
 30
0.0
 40
2.5
  1
2
 41
0.8
  7
高2.5
100
AcDbText
  0
TEXT
  5
117
330
6B
100
AcDbEntity
  8
0
 62
     3
100
AcDbText
 10
422.7020084977713
 20
204.483413
 30
0.0
 40
2.5
  1
ケース本体
 41
0.8
  7
高2.5
100
AcDbText
  0
TEXT
  5
118
330
6B
100
AcDbEntity
  8
0
 62
     3
100
AcDbText
 10
499.8591162601436
 20
216.483413
 30
0.0
 40
2.5
  1
1
 41
0.8
  7
高2.5
100
AcDbText
  0
TEXT
  5
119
330
6B
100
AcDbEntity
  8
0
 62
     3
100
AcDbText
 10
499.8591162601436
 20
204.483413
 30
0.0
 40
2.5
  1
1式
 41
0.8
  7
高2.5
100
AcDbText
  0
TEXT
  5
11A
330
6B
100
AcDbEntity
  8
0
 62
     3
100
AcDbText
 10
442.0430057152304
 20
216.483413
 30
0.0
 40
2.5
  1
-
 41
0.8
  7
高2.5
100
AcDbText
  0
TEXT
  5
11B
330
6B
100
AcDbEntity
  8
0
 62
     3
100
AcDbText
 10
499.8591162601436
 20
208.483413
 30
0.0
 40
2.5
  1
1
 41
0.8
  7
高2.5
100
AcDbText
  0
TEXT
  5
11C
330
6B
100
AcDbEntity
  8
0
 62
     3
100
AcDbText
 10
442.0430057152304
 20
212.483413
 30
0.0
 40
2.5
  1
-
 41
0.8
  7
高2.5
100
AcDbText
  0
TEXT
  5
11F
330
6B
100
AcDbEntity
  8
0
 62
     3
100
AcDbText
 10
422.7020084977713
 20
208.483413
 30
0.0
 40
2.5
  1
電池蓋
 41
0.8
  7
高2.5
100
AcDbText
  0
TEXT
  5
120
330
6B
100
AcDbEntity
  8
0
 62
     3
100
AcDbText
 10
422.7020084977713
 20
212.483413
 30
0.0
 40
2.5
  1
電池
 41
0.8
  7
高2.5
100
AcDbText
  0
TEXT
  5
121
330
6B
100
AcDbEntity
  8
0
 62
     3
100
AcDbText
 10
422.7020084977713
 20
216.483413
 30
0.0
 40
2.5
  1
LED
 41
0.8
  7
高2.5
100
AcDbText
  0
TEXT
  5
122
330
6B
100
AcDbEntity
  8
0
 62
     3
100
AcDbText
 10
422.7020084977713
 20
220.483413
 30
0.0
 40
2.5
  1
スイッチ
 41
0.8
  7
高2.5
100
AcDbText
  0
TEXT
  5
123
330
6B
100
AcDbEntity
  8
0
 62
     3
100
AcDbText
 10
451.4371054689719
 20
220.483413
 30
0.0
 40
2.5
  1
プッシュ式
 41
0.8
  7
高2.5
100
AcDbText
  0
TEXT
  5
124
330
6B
100
AcDbEntity
  8
0
 62
     3
100
AcDbText
 10
451.4371054689719
 20
212.483413
 30
0.0
 40
2.5
  1
リチウムイオン充電池
 41
0.8
  7
高2.5
100
AcDbText
  0
TEXT
  5
125
330
6B
100
AcDbEntity
  8
0
 62
     3
100
AcDbText
 10
442.0430057152304
 20
204.483413
 30
0.0
 40
2.5
  1
アルミ
 41
0.8
  7
高2.5
100
AcDbText
  0
TEXT
  5
126
330
6B
100
AcDbEntity
  8
0
 62
     3
100
AcDbText
 10
442.0430057152304
 20
208.483413
 30
0.0
 40
2.5
  1
アルミ
 41
0.8
  7
高2.5
100
AcDbText
  0
TEXT
  5
127
330
6B
100
AcDbEntity
  8
0
 62
     3
100
AcDbText
 10
442.0430057152304
 20
220.483413
 30
0.0
 40
2.5
  1
ゴム
 41
0.8
  7
高2.5
100
AcDbText
  0
LINE
  5
128
330
6B
100
AcDbEntity
  8
0
100
AcDbLine
 10
421.5020084977711
 20
200.083413
 30
0.0
 11
421.5020084977711
 21
236.083413
 31
0.0
  0
LINE
  5
129
330
6B
100
AcDbEntity
  8
0
 62
     7
100
AcDbLine
 10
505.8575028937286
 20
200.083413
 30
0.0
 11
505.8575028937286
 21
236.0834129999997
 31
0.0
  0
LINE
  5
12A
330
6B
100
AcDbEntity
  8
0
100
AcDbLine
 10
440.8430057152303
 20
200.083413
 30
0.0
 11
440.8430057152301
 21
236.0834129999999
 31
0.0
  0
LINE
  5
12B
330
6B
100
AcDbEntity
  8
0
100
AcDbLine
 10
498.6591162601438
 20
200.083413
 30
0.0
 11
498.6591162601436
 21
236.0834129999997
 31
0.0
  0
LINE
  5
12C
330
6B
100
AcDbEntity
  8
0
100
AcDbLine
 10
450.2371054689716
 20
200.083413
 30
0.0
 11
450.2371054689715
 21
236.0834129999999
 31
0.0
  0
TEXT
  5
12D
330
6B
100
AcDbEntity
  8
0
 62
     3
100
AcDbText
 10
422.7020084977713
 20
200.483413
 30
0.0
 40
2.5
  1
部　品　名
 41
0.8
  7
高2.5
100
AcDbText
  0
TEXT
  5
12E
330
6B
100
AcDbEntity
  8
0
 62
     3
100
AcDbText
 10
442.0430057152304
 20
200.483413
 30
0.0
 40
2.5
  1
材　質
 41
0.8
  7
高2.5
100
AcDbText
  0
TEXT
  5
12F
330
6B
100
AcDbEntity
  8
0
 62
     3
100
AcDbText
 10
598.2107970587642
 20
231.9938722648771
 30
0.0
 40
4.5
  1
スーパーLEDライト
 41
0.8
  7
高4.5
100
AcDbText
  0
TEXT
  5
130
330
6B
100
AcDbEntity
  8
0
 62
     3
100
AcDbText
 10
627.769783
 20
210.948628
 30
0.0
 40
3.2
  1
1/2
  7
高3.2
100
AcDbText
  0
TEXT
  5
131
330
6B
100
AcDbEntity
  8
0
 62
     3
100
AcDbText
 10
499.8591162601436
 20
220.483413
 30
0.0
 40
2.5
  1
1
 41
0.8
  7
高2.5
100
AcDbText
  0
TEXT
  5
132
330
6B
100
AcDbEntity
  8
0
 62
     3
100
AcDbText
 10
451.4371054689719
 20
208.483413
 30
0.0
 40
2.5
  1
アルマイト
 41
0.8
  7
高2.5
100
AcDbText
  0
TEXT
  5
133
330
6B
100
AcDbEntity
  8
0
 62
     3
100
AcDbText
 10
451.4371054689719
 20
204.483413
 30
0.0
 40
2.5
  1
アルマイト
 41
0.8
  7
高2.5
100
AcDbText
  0
TEXT
  5
143
330
6B
100
AcDbEntity
  8
0
 62
     3
100
AcDbText
 10
451.4371054689719
 20
216.483413
 30
0.0
 40
2.5
  1
5W
 41
0.8
  7
高2.5
100
AcDbText
  0
TEXT
  5
3D5
330
6B
100
AcDbEntity
  8
0
 62
     3
100
AcDbText
 10
599.2158890157377
 20
224.6215681794895
 30
0.0
 40
4.5
  1
SL-5W-CH
  7
高4.5
100
AcDbText
  0
TEXT
  5
3D6
330
6B
100
AcDbEntity
  8
0
 62
     3
100
AcDbText
 10
644.5205852705001
 20
201.5488912447089
 30
0.0
 40
6.299999999999998
  1
SL-5W-CH
 41
0.8
  7
高6.3
100
AcDbText
  0
TEXT
  5
3D7
330
6B
100
AcDbEntity
  8
0
 62
     3
100
AcDbText
 10
656.579957238125
 20
210.564355
 30
0.0
 40
3.2
  1
2008.10.16
  7
高3.2
100
AcDbText
  0
TEXT
  5
3D8
330
6B
100
AcDbEntity
  8
0
 62
     3
100
AcDbText
 10
672.0176498175084
 20
240.254118
 30
0.0
 40
4.5
  1
9109
  7
高4.5
100
AcDbText
  0
TEXT
  5
3D9
330
6B
100
AcDbEntity
  8
0
 62
     3
100
AcDbText
 10
507.3981540937285
 20
200.483413
 30
0.0
 40
2.5
  1
コード
 41
0.8
  7
高2.5
100
AcDbText
  0
LINE
  5
3DA
330
6B
100
AcDbEntity
  8
0
 62
     3
100
AcDbLine
 10
548.0928610913107
 20
200.083413
 30
0.0
 11
548.0928610913109
 21
236.0834129999999
 31
0.0
  0
LINE
  5
3DB
330
6B
100
AcDbEntity
  8
0
100
AcDbLine
 10
415.488132
 20
208.083413
 30
0.0
 11
548.0928610913109
 21
208.083413
 31
0.0
  0
LINE
  5
3DC
330
6B
100
AcDbEntity
  8
0
100
AcDbLine
 10
415.488132
 20
212.083413
 30
0.0
 11
548.0928610913109
 21
212.0834129999999
 31
0.0
  0
LINE
  5
3DD
330
6B
100
AcDbEntity
  8
0
100
AcDbLine
 10
415.488132
 20
216.083413
 30
0.0
 11
548.0928610913109
 21
216.083413
 31
0.0
  0
LINE
  5
3DE
330
6B
100
AcDbEntity
  8
0
100
AcDbLine
 10
415.488132
 20
220.083413
 30
0.0
 11
548.0928610913107
 21
220.0834129999999
 31
0.0
  0
LINE
  5
3DF
330
6B
100
AcDbEntity
  8
0
 62
     3
100
AcDbLine
 10
415.488132
 20
204.083413
 30
0.0
 11
548.0928610913107
 21
204.083413
 31
0.0
  0
LINE
  5
3E0
330
6B
100
AcDbEntity
  8
0
100
AcDbLine
 10
415.488132
 20
224.083413
 30
0.0
 11
548.0928610913107
 21
224.083413
 31
0.0
  0
TEXT
  5
3E1
330
6B
100
AcDbEntity
  8
0
 62
     3
100
AcDbText
 10
507.3088468937286
 20
220.483413
 30
0.0
 40
2.5
  1
-
 41
0.8
  7
高2.5
100
AcDbText
  0
TEXT
  5
3E2
330
6B
100
AcDbEntity
  8
0
 62
     3
100
AcDbText
 10
507.3088468937286
 20
216.483413
 30
0.0
 40
2.5
  1
-
 41
0.8
  7
高2.5
100
AcDbText
  0
TEXT
  5
3E3
330
6B
100
AcDbEntity
  8
0
 62
     3
100
AcDbText
 10
507.3088468937286
 20
208.483413
 30
0.0
 40
2.5
  1
-
 41
0.8
  7
高2.5
100
AcDbText
  0
TEXT
  5
3E4
330
6B
100
AcDbEntity
  8
0
 62
     3
100
AcDbText
 10
507.3088468937286
 20
204.483413
 30
0.0
 40
2.5
  1
-
 41
0.8
  7
高2.5
100
AcDbText
  0
TEXT
  5
3E5
330
6B
100
AcDbEntity
  8
0
 62
     3
100
AcDbText
 10
507.3088468937286
 20
212.483413
 30
0.0
 40
2.5
  1
53603
 41
0.8
  7
高2.5
100
AcDbText
  0
LINE
  5
3EF
330
6B
100
AcDbEntity
  8
0
  6
Continuous
 62
     3
100
AcDbLine
 10
493.2490657766213
 20
284.7029765444998
 30
0.0
 11
524.9990657766213
 21
284.7029765444998
 31
0.0
  0
LINE
  5
3F0
330
6B
100
AcDbEntity
  8
0
  6
Continuous
 62
     3
100
AcDbLine
 10
493.2490657766213
 20
304.7029765444999
 30
0.0
 11
493.2490657766213
 21
284.7029765444998
 31
0.0
  0
LINE
  5
3F1
330
6B
100
AcDbEntity
  8
0
  6
Continuous
 62
     3
100
AcDbLine
 10
524.9990657766213
 20
304.2029765444998
 30
0.0
 11
524.9990657766213
 21
284.7029765444998
 31
0.0
  0
LINE
  5
3F4
330
6B
100
AcDbEntity
  8
0
  6
Continuous
 62
     3
100
AcDbLine
 10
493.2490657766213
 20
288.2029765444999
 30
0.0
 11
524.9990657766213
 21
288.2029765444999
 31
0.0
  0
LINE
  5
3F6
330
6B
100
AcDbEntity
  8
0
  6
Continuous
 62
     3
100
AcDbLine
 10
509.8830403728368
 20
306.2029765444998
 30
0.0
 11
494.7490657766214
 21
306.2029765444998
 31
0.0
  0
LINE
  5
3F7
330
6B
100
AcDbEntity
  8
0
  6
Continuous
 62
     3
100
AcDbLine
 10
518.9990657766213
 20
304.7029765444999
 30
0.0
 11
510.7490657766213
 21
304.7029765444999
 31
0.0
  0
ARC
  5
3FA
330
6B
100
AcDbEntity
  8
0
  6
Continuous
 62
     3
100
AcDbCircle
 10
523.4990657766213
 20
304.2029765444998
 30
0.0
 40
1.5
100
AcDbArc
 50
0.0
 51
103.0071782150234
  0
LINE
  5
3FB
330
6B
100
AcDbEntity
  8
0
  6
Continuous
 62
     3
100
AcDbLine
 10
518.9990657766213
 20
304.7029765444999
 30
0.0
 11
523.1614560890355
 21
305.6644893562288
 31
0.0
  0
LINE
  5
3FC
330
6B
100
AcDbEntity
  8
0
  6
Continuous
 62
     3
100
AcDbLine
 10
510.7490657766213
 20
304.7029765444999
 30
0.0
 11
509.8830403728368
 21
306.2029765444998
 31
0.0
  0
ARC
  5
3FD
330
6B
100
AcDbEntity
  8
0
  6
Continuous
 62
     3
100
AcDbCircle
 10
494.7490657766214
 20
304.7029765444999
 30
0.0
 40
1.5
100
AcDbArc
 50
90.0
 51
180.0
  0
LINE
  5
3FE
330
6B
100
AcDbEntity
  8
0
  6
Continuous
 62
     7
100
AcDbLine
 10
499.1990657766214
 20
284.7029765444998
 30
0.0
 11
499.1990657766214
 21
276.1029765444998
 31
0.0
  0
LINE
  5
3FF
330
6B
100
AcDbEntity
  8
0
  6
Continuous
 62
     7
100
AcDbLine
 10
506.2990657766213
 20
284.7029765444998
 30
0.0
 11
506.2990657766213
 21
276.1029765444998
 31
0.0
  0
LINE
  5
417
330
6B
100
AcDbEntity
  8
0
  6
Continuous
 62
     7
100
AcDbLine
 10
499.1990657766214
 20
276.1029765444998
 30
0.0
 11
499.9490657766214
 21
276.1029765444998
 31
0.0
  0
LINE
  5
418
330
6B
100
AcDbEntity
  8
0
  6
Continuous
 62
     7
100
AcDbLine
 10
505.5490657766211
 20
284.7029765444998
 30
0.0
 11
505.5490657766211
 21
276.1029765444998
 31
0.0
  0
LINE
  5
419
330
6B
100
AcDbEntity
  8
0
  6
Continuous
 62
     7
100
AcDbLine
 10
499.9490657766214
 20
284.7029765444998
 30
0.0
 11
499.9490657766214
 21
276.1029765444998
 31
0.0
  0
LINE
  5
41A
330
6B
100
AcDbEntity
  8
0
  6
Continuous
 62
     7
100
AcDbLine
 10
505.5490657766211
 20
276.1029765444998
 30
0.0
 11
506.2990657766214
 21
276.1029765444998
 31
0.0
  0
LINE
  5
427
330
6B
100
AcDbEntity
  8
0
  6
Continuous
 62
     7
100
AcDbLine
 10
534.9990657766213
 20
291.2029765444998
 30
0.0
 11
531.5990657766215
 21
291.3899765444999
 31
0.0
  0
LINE
  5
428
330
6B
100
AcDbEntity
  8
0
  6
Continuous
 62
     7
100
AcDbLine
 10
534.9990657766213
 20
288.2029765444999
 30
0.0
 11
531.5990657766215
 21
288.0159765444998
 31
0.0
  0
LINE
  5
430
330
6B
100
AcDbEntity
  8
0
  6
Continuous
 62
     7
100
AcDbLine
 10
554.4063895175311
 20
290.1529765444998
 30
0.0
 11
553.6563895175311
 21
290.1529765444998
 31
0.0
  0
LINE
  5
431
330
6B
100
AcDbEntity
  8
0
  6
Continuous
 62
     7
100
AcDbLine
 10
554.4063895175311
 20
289.2529765444999
 30
0.0
 11
553.6563895175311
 21
289.2529765444999
 31
0.0
  0
LINE
  5
432
330
6B
100
AcDbEntity
  8
0
  6
Continuous
 62
     7
100
AcDbLine
 10
531.5990657766215
 20
290.0529765444998
 30
0.0
 11
530.4990657766214
 21
290.0529765444998
 31
0.0
  0
LINE
  5
433
330
6B
100
AcDbEntity
  8
0
  6
Continuous
 62
     7
100
AcDbLine
 10
531.5990657766215
 20
289.3529765444999
 30
0.0
 11
530.4990657766214
 21
289.3529765444999
 31
0.0
  0
LINE
  5
434
330
6B
100
AcDbEntity
  8
0
  6
Continuous
 62
     7
100
AcDbLine
 10
526.099065776621
 20
291.6924765444999
 30
0.0
 11
524.9990657766213
 21
291.7529765444998
 31
0.0
  0
LINE
  5
435
330
6B
100
AcDbEntity
  8
0
  6
Continuous
 62
     7
100
AcDbLine
 10
526.099065776621
 20
287.7134765444998
 30
0.0
 11
524.9990657766213
 21
287.6529765444999
 31
0.0
  0
LINE
  5
436
330
6B
100
AcDbEntity
  8
0
  6
Continuous
 62
     7
100
AcDbLine
 10
527.1990657766215
 20
290.0529765444998
 30
0.0
 11
526.099065776621
 21
290.0529765444998
 31
0.0
  0
LINE
  5
437
330
6B
100
AcDbEntity
  8
0
  6
Continuous
 62
     7
100
AcDbLine
 10
527.1990657766214
 20
289.3529765444998
 30
0.0
 11
526.099065776621
 21
289.3529765444998
 31
0.0
  0
LINE
  5
438
330
6B
100
AcDbEntity
  8
0
  6
Continuous
 62
     7
100
AcDbLine
 10
527.1990657766215
 20
290.1529765444998
 30
0.0
 11
526.099065776621
 21
290.1529765444998
 31
0.0
  0
LINE
  5
439
330
6B
100
AcDbEntity
  8
0
  6
Continuous
 62
     7
100
AcDbLine
 10
527.1990657766214
 20
289.2529765444999
 30
0.0
 11
526.099065776621
 21
289.2529765444999
 31
0.0
  0
LINE
  5
43C
330
6B
100
AcDbEntity
  8
0
  6
Continuous
 62
     7
100
AcDbLine
 10
529.3990657766214
 20
289.2529765444999
 30
0.0
 11
528.2990657766214
 21
289.2529765444999
 31
0.0
  0
LINE
  5
43D
330
6B
100
AcDbEntity
  8
0
  6
Continuous
 62
     7
100
AcDbLine
 10
529.3990657766214
 20
290.1529765444998
 30
0.0
 11
528.2990657766214
 21
290.1529765444998
 31
0.0
  0
LINE
  5
447
330
6B
100
AcDbEntity
  8
0
  6
Continuous
 62
     7
100
AcDbLine
 10
534.9990657766213
 20
291.2029765444998
 30
0.0
 11
534.9990657766213
 21
288.2029765444999
 31
0.0
  0
LINE
  5
450
330
6B
100
AcDbEntity
  8
0
  6
Continuous
 62
     7
100
AcDbLine
 10
526.099065776621
 20
291.6924765444999
 30
0.0
 11
526.099065776621
 21
290.0529765444998
 31
0.0
  0
LINE
  5
451
330
6B
100
AcDbEntity
  8
0
  6
Continuous
 62
     7
100
AcDbLine
 10
527.1990657766214
 20
291.6319765444999
 30
0.0
 11
527.1990657766214
 21
290.0529765444998
 31
0.0
  0
LINE
  5
452
330
6B
100
AcDbEntity
  8
0
  6
Continuous
 62
     7
100
AcDbLine
 10
528.2990657766214
 20
291.5714765444999
 30
0.0
 11
528.2990657766212
 21
287.8344765444998
 31
0.0
  0
LINE
  5
453
330
6B
100
AcDbEntity
  8
0
  6
Continuous
 62
     7
100
AcDbLine
 10
529.3990657766214
 20
291.5109765444999
 30
0.0
 11
529.3990657766214
 21
287.8949765444998
 31
0.0
  0
LINE
  5
454
330
6B
100
AcDbEntity
  8
0
  6
Continuous
 62
     7
100
AcDbLine
 10
530.4990657766214
 20
291.4504765444999
 30
0.0
 11
530.4990657766214
 21
290.0529765444998
 31
0.0
  0
LINE
  5
455
330
6B
100
AcDbEntity
  8
0
  6
Continuous
 62
     7
100
AcDbLine
 10
531.5990657766215
 20
291.3899765444999
 30
0.0
 11
531.5990657766215
 21
290.0529765444998
 31
0.0
  0
LINE
  5
456
330
6B
100
AcDbEntity
  8
0
  6
Continuous
 62
     7
100
AcDbLine
 10
532.6990657766214
 20
291.3294765444998
 30
0.0
 11
532.6990657766216
 21
288.0764765444999
 31
0.0
  0
LINE
  5
457
330
6B
100
AcDbEntity
  8
0
  6
Continuous
 62
     7
100
AcDbLine
 10
526.099065776621
 20
289.3529765444998
 30
0.0
 11
526.099065776621
 21
287.7134765444998
 31
0.0
  0
LINE
  5
458
330
6B
100
AcDbEntity
  8
0
  6
Continuous
 62
     7
100
AcDbLine
 10
527.1990657766214
 20
289.3529765444998
 30
0.0
 11
527.1990657766214
 21
287.7739765444999
 31
0.0
  0
LINE
  5
459
330
6B
100
AcDbEntity
  8
0
  6
Continuous
 62
     7
100
AcDbLine
 10
531.5990657766215
 20
290.1529765444998
 30
0.0
 11
530.4990657766214
 21
290.1529765444998
 31
0.0
  0
LINE
  5
45A
330
6B
100
AcDbEntity
  8
0
  6
Continuous
 62
     7
100
AcDbLine
 10
531.5990657766215
 20
289.2529765444999
 30
0.0
 11
530.4990657766214
 21
289.2529765444999
 31
0.0
  0
LINE
  5
45B
330
6B
100
AcDbEntity
  8
0
  6
Continuous
 62
     7
100
AcDbLine
 10
530.4990657766214
 20
289.3529765444999
 30
0.0
 11
530.4990657766214
 21
287.9554765444999
 31
0.0
  0
LINE
  5
45C
330
6B
100
AcDbEntity
  8
0
  6
Continuous
 62
     7
100
AcDbLine
 10
531.5990657766215
 20
289.3529765444999
 30
0.0
 11
531.5990657766215
 21
288.0159765444998
 31
0.0
  0
LINE
  5
45D
330
6B
100
AcDbEntity
  8
0
  6
Continuous
 62
     7
100
AcDbLine
 10
533.7990657766214
 20
291.2689765444998
 30
0.0
 11
533.7990657766214
 21
288.1369765444999
 31
0.0
  0
LINE
  5
45E
330
6B
100
AcDbEntity
  8
0
  6
Continuous
 62
     7
100
AcDbLine
 10
533.7990657766214
 20
289.2529765444999
 30
0.0
 11
532.6990657766215
 21
289.2529765444999
 31
0.0
  0
LINE
  5
45F
330
6B
100
AcDbEntity
  8
0
  6
Continuous
 62
     7
100
AcDbLine
 10
533.7990657766214
 20
290.1529765444998
 30
0.0
 11
532.6990657766215
 21
290.1529765444998
 31
0.0
  0
LINE
  5
460
330
6B
100
AcDbEntity
  8
0
  6
Continuous
 62
     7
100
AcDbLine
 10
530.4990657766214
 20
287.9554765444999
 30
0.0
 11
527.1990657766214
 21
287.7739765444999
 31
0.0
  0
LINE
  5
461
330
6B
100
AcDbEntity
  8
0
  6
Continuous
 62
     7
100
AcDbLine
 10
530.4990657766214
 20
291.4504765444999
 30
0.0
 11
527.1990657766214
 21
291.6319765444999
 31
0.0
  0
LINE
  5
462
330
6B
100
AcDbEntity
  8
0
  6
Continuous
 62
     3
100
AcDbLine
 10
524.9990657766213
 20
263.556877541034
 30
0.0
 11
524.9990657766213
 21
254.7568775410341
 31
0.0
  0
LINE
  5
464
330
6B
100
AcDbEntity
  8
0
  6
Continuous
 62
     3
100
AcDbLine
 10
497.9441074994348
 20
266.056877541034
 30
0.0
 11
522.4990657766213
 21
266.056877541034
 31
0.0
  0
LINE
  5
465
330
6B
100
AcDbEntity
  8
0
  6
Continuous
 62
     3
100
AcDbLine
 10
497.9441074994348
 20
252.2568775410341
 30
0.0
 11
522.4990657766213
 21
252.2568775410341
 31
0.0
  0
ARC
  5
468
330
6B
100
AcDbEntity
  8
0
  6
Continuous
 62
     3
100
AcDbCircle
 10
494.2490657766213
 20
259.1568775410341
 30
0.0
 40
1.0
100
AcDbArc
 50
149.9999999999972
 51
210.0000000000027
  0
LINE
  5
46B
330
6B
100
AcDbEntity
  8
0
  6
Continuous
 62
     3
100
AcDbLine
 10
493.3830403728368
 20
259.6568775410341
 30
0.0
 11
496.6450693937581
 21
265.3068775410341
 31
0.0
  0
LINE
  5
46C
330
6B
100
AcDbEntity
  8
0
  6
Continuous
 62
     3
100
AcDbLine
 10
493.3830403728368
 20
258.6568775410341
 30
0.0
 11
496.6450693937581
 21
253.0068775410341
 31
0.0
  0
ARC
  5
46D
330
6B
100
AcDbEntity
  8
0
  6
Continuous
 62
     3
100
AcDbCircle
 10
497.9441074994348
 20
264.5568775410342
 30
0.0
 40
1.5
100
AcDbArc
 50
90.0
 51
150.0000000000017
  0
ARC
  5
46E
330
6B
100
AcDbEntity
  8
0
  6
Continuous
 62
     3
100
AcDbCircle
 10
497.9441074994351
 20
253.7568775410341
 30
0.0
 40
1.5
100
AcDbArc
 50
209.9999999999982
 51
269.9999999999935
  0
ARC
  5
46F
330
6B
100
AcDbEntity
  8
0
  6
Continuous
 62
     3
100
AcDbCircle
 10
522.4990657766213
 20
263.556877541034
 30
0.0
 40
2.5
100
AcDbArc
 50
0.0
 51
90.0
  0
ARC
  5
470
330
6B
100
AcDbEntity
  8
0
  6
Continuous
 62
     3
100
AcDbCircle
 10
522.4990657766213
 20
254.756877541034
 30
0.0
 40
2.5
100
AcDbArc
 50
270.0
 51
0.0
  0
LINE
  5
47E
330
6B
100
AcDbEntity
  8
0
  6
Continuous
 62
     7
100
AcDbLine
 10
534.9990657766213
 20
257.6568775410341
 30
0.0
 11
533.7990657766214
 21
257.5908775410341
 31
0.0
  0
LINE
  5
47F
330
6B
100
AcDbEntity
  8
0
  6
Continuous
 62
     7
100
AcDbLine
 10
532.6990657766216
 20
257.5303775410341
 30
0.0
 11
529.3990657766214
 21
257.3488775410341
 31
0.0
  0
LINE
  5
480
330
6B
100
AcDbEntity
  8
0
  6
Continuous
 62
     7
100
AcDbLine
 10
528.2990657766212
 20
257.288377541034
 30
0.0
 11
524.9990657766213
 21
257.1068775410341
 31
0.0
  0
LINE
  5
481
330
6B
100
AcDbEntity
  8
0
  6
Continuous
 62
     7
100
AcDbLine
 10
534.9990657766213
 20
260.6568775410341
 30
0.0
 11
533.7990657766214
 21
260.722877541034
 31
0.0
  0
LINE
  5
482
330
6B
100
AcDbEntity
  8
0
  6
Continuous
 62
     7
100
AcDbLine
 10
532.6990657766214
 20
260.7833775410341
 30
0.0
 11
529.3990657766214
 21
260.9648775410341
 31
0.0
  0
LINE
  5
483
330
6B
100
AcDbEntity
  8
0
  6
Continuous
 62
     7
100
AcDbLine
 10
528.2990657766214
 20
261.025377541034
 30
0.0
 11
524.9990657766213
 21
261.2068775410341
 31
0.0
  0
LINE
  5
485
330
6B
100
AcDbEntity
  8
0
  6
Continuous
 62
     7
100
AcDbLine
 10
526.099065776621
 20
261.1463775410341
 30
0.0
 11
526.099065776621
 21
257.167377541034
 31
0.0
  0
LINE
  5
487
330
6B
100
AcDbEntity
  8
0
  6
Continuous
 62
     7
100
AcDbLine
 10
527.1990657766214
 20
261.0858775410341
 30
0.0
 11
527.1990657766214
 21
257.2278775410341
 31
0.0
  0
LINE
  5
488
330
6B
100
AcDbEntity
  8
0
  6
Continuous
 62
     7
100
AcDbLine
 10
528.2990657766214
 20
261.025377541034
 30
0.0
 11
528.2990657766214
 21
259.706877541034
 31
0.0
  0
LINE
  5
489
330
6B
100
AcDbEntity
  8
0
  6
Continuous
 62
     7
100
AcDbLine
 10
529.3990657766214
 20
260.9648775410341
 30
0.0
 11
529.3990657766214
 21
259.706877541034
 31
0.0
  0
LINE
  5
48B
330
6B
100
AcDbEntity
  8
0
  6
Continuous
 62
     7
100
AcDbLine
 10
530.4990657766214
 20
260.9043775410341
 30
0.0
 11
530.4990657766214
 21
257.4093775410341
 31
0.0
  0
LINE
  5
48D
330
6B
100
AcDbEntity
  8
0
  6
Continuous
 62
     7
100
AcDbLine
 10
531.5990657766215
 20
260.8438775410341
 30
0.0
 11
531.5990657766215
 21
257.469877541034
 31
0.0
  0
LINE
  5
48E
330
6B
100
AcDbEntity
  8
0
  6
Continuous
 62
     7
100
AcDbLine
 10
532.6990657766214
 20
260.7833775410341
 30
0.0
 11
532.6990657766214
 21
259.7068775410341
 31
0.0
  0
LINE
  5
48F
330
6B
100
AcDbEntity
  8
0
  6
Continuous
 62
     7
100
AcDbLine
 10
533.7990657766214
 20
260.722877541034
 30
0.0
 11
533.7990657766214
 21
259.7068775410341
 31
0.0
  0
LINE
  5
490
330
6B
100
AcDbEntity
  8
0
  6
Continuous
 62
     7
100
AcDbLine
 10
534.9990657766213
 20
260.6568775410341
 30
0.0
 11
534.9990657766213
 21
257.6568775410341
 31
0.0
  0
LINE
  5
493
330
6B
100
AcDbEntity
  8
0
  6
Continuous
 62
     7
100
AcDbLine
 10
529.3990657766214
 20
258.6068775410341
 30
0.0
 11
529.3990657766214
 21
257.3488775410341
 31
0.0
  0
LINE
  5
494
330
6B
100
AcDbEntity
  8
0
  6
Continuous
 62
     7
100
AcDbLine
 10
528.2990657766214
 20
258.6068775410341
 30
0.0
 11
528.2990657766212
 21
257.288377541034
 31
0.0
  0
LINE
  5
495
330
6B
100
AcDbEntity
  8
0
  6
Continuous
 62
     7
100
AcDbLine
 10
533.7990657766214
 20
258.6068775410341
 30
0.0
 11
533.7990657766214
 21
257.5908775410341
 31
0.0
  0
LINE
  5
496
330
6B
100
AcDbEntity
  8
0
  6
Continuous
 62
     7
100
AcDbLine
 10
532.6990657766215
 20
258.6068775410341
 30
0.0
 11
532.6990657766216
 21
257.5303775410341
 31
0.0
  0
LINE
  5
497
330
6B
100
AcDbEntity
  8
0
  6
Continuous
 62
     7
100
AcDbLine
 10
506.2990657766214
 20
260.7318775410341
 30
0.0
 11
506.2990657766214
 21
257.5818775410341
 31
0.0
  0
LINE
  5
498
330
6B
100
AcDbEntity
  8
0
  6
Continuous
 62
     7
100
AcDbLine
 10
505.5490657766211
 20
260.7318775410341
 30
0.0
 11
505.5490657766211
 21
257.5818775410341
 31
0.0
  0
LINE
  5
499
330
6B
100
AcDbEntity
  8
0
  6
Continuous
 62
     7
100
AcDbLine
 10
499.9490657766214
 20
257.5818775410341
 30
0.0
 11
499.9490657766214
 21
260.7318775410341
 31
0.0
  0
LINE
  5
49A
330
6B
100
AcDbEntity
  8
0
  6
Continuous
 62
     7
100
AcDbLine
 10
499.1990657766214
 20
257.5818775410341
 30
0.0
 11
499.1990657766214
 21
260.7318775410341
 31
0.0
  0
LINE
  5
49B
330
6B
100
AcDbEntity
  8
0
  6
Continuous
 62
     7
100
AcDbLine
 10
506.2990657766214
 20
260.7318775410341
 30
0.0
 11
505.5490657766211
 21
260.7318775410341
 31
0.0
  0
LINE
  5
49C
330
6B
100
AcDbEntity
  8
0
  6
Continuous
 62
     7
100
AcDbLine
 10
506.2990657766214
 20
257.5818775410341
 30
0.0
 11
505.5490657766211
 21
257.5818775410341
 31
0.0
  0
LINE
  5
49D
330
6B
100
AcDbEntity
  8
0
  6
Continuous
 62
     7
100
AcDbLine
 10
499.9490657766214
 20
260.7318775410341
 30
0.0
 11
499.1990657766214
 21
260.7318775410341
 31
0.0
  0
LINE
  5
49E
330
6B
100
AcDbEntity
  8
0
  6
Continuous
 62
     7
100
AcDbLine
 10
499.9490657766214
 20
257.5818775410341
 30
0.0
 11
499.1990657766214
 21
257.5818775410341
 31
0.0
  0
LINE
  5
4A7
330
6B
100
AcDbEntity
  8
0
  6
Continuous
 62
     7
100
AcDbLine
 10
549.9063895175311
 20
291.2029765444998
 30
0.0
 11
549.9063895175311
 21
288.2029765444999
 31
0.0
  0
LINE
  5
4A8
330
6B
100
AcDbEntity
  8
0
  6
Continuous
 62
     7
100
AcDbLine
 10
563.1563895175311
 20
287.4529765444998
 30
0.0
 11
563.1563895175311
 21
291.9529765444998
 31
0.0
  0
LINE
  5
4AA
330
6B
100
AcDbEntity
  8
0
  6
Continuous
 62
     7
100
AcDbLine
 10
563.1563895175311
 20
291.9529765444998
 30
0.0
 11
557.1563895175311
 21
291.9529765444998
 31
0.0
  0
LINE
  5
4AB
330
6B
100
AcDbEntity
  8
0
  6
Continuous
 62
     7
100
AcDbLine
 10
563.1563895175311
 20
287.4529765444998
 30
0.0
 11
557.1563895175311
 21
287.4529765444998
 31
0.0
  0
LINE
  5
4AC
330
6B
100
AcDbEntity
  8
0
  6
Continuous
 62
     7
100
AcDbLine
 10
557.1563895175311
 20
291.9529765444998
 30
0.0
 11
554.4063895175311
 21
291.6684937858791
 31
0.0
  0
LINE
  5
4AD
330
6B
100
AcDbEntity
  8
0
  6
Continuous
 62
     7
100
AcDbLine
 10
557.1563895175311
 20
287.4529765444998
 30
0.0
 11
554.4063895175311
 21
287.7374593031206
 31
0.0
  0
LINE
  5
4AE
330
6B
100
AcDbEntity
  8
0
  6
Continuous
 62
     7
100
AcDbLine
 10
550.6563895175311
 20
291.2805627513963
 30
0.0
 11
550.6563895175311
 21
290.1529765444998
 31
0.0
  0
LINE
  5
4AF
330
6B
100
AcDbEntity
  8
0
  6
Continuous
 62
     7
100
AcDbLine
 10
551.406389517531
 20
291.358148958293
 30
0.0
 11
551.406389517531
 21
290.1529765444998
 31
0.0
  0
LINE
  5
4B0
330
6B
100
AcDbEntity
  8
0
  6
Continuous
 62
     7
100
AcDbLine
 10
552.1563895175311
 20
291.4357351651895
 30
0.0
 11
552.1563895175311
 21
290.1529765444998
 31
0.0
  0
LINE
  5
4B1
330
6B
100
AcDbEntity
  8
0
  6
Continuous
 62
     7
100
AcDbLine
 10
552.9063895175311
 20
291.513321372086
 30
0.0
 11
552.9063895175311
 21
290.1529765444998
 31
0.0
  0
LINE
  5
4B2
330
6B
100
AcDbEntity
  8
0
  6
Continuous
 62
     7
100
AcDbLine
 10
553.6563895175311
 20
291.5909075789826
 30
0.0
 11
553.6563895175311
 21
290.1529765444998
 31
0.0
  0
LINE
  5
4B3
330
6B
100
AcDbEntity
  8
0
  6
Continuous
 62
     7
100
AcDbLine
 10
554.4063895175311
 20
291.6684937858791
 30
0.0
 11
554.4063895175311
 21
290.1529765444998
 31
0.0
  0
LINE
  5
4B4
330
6B
100
AcDbEntity
  8
0
  6
Continuous
 62
     7
100
AcDbLine
 10
549.9063895175311
 20
290.1529765444998
 30
0.0
 11
542.7831938017383
 21
290.1529765444998
 31
0.0
  0
LINE
  5
4B5
330
6B
100
AcDbEntity
  8
0
  6
Continuous
 62
     7
100
AcDbLine
 10
549.9063895175311
 20
289.2529765444999
 30
0.0
 11
542.2635785594676
 21
289.2529765444999
 31
0.0
  0
LINE
  5
4B6
330
6B
100
AcDbEntity
  8
0
  6
Continuous
 62
     7
100
AcDbLine
 10
551.406389517531
 20
289.2529765444999
 30
0.0
 11
550.6563895175311
 21
289.2529765444999
 31
0.0
  0
LINE
  5
4B7
330
6B
100
AcDbEntity
  8
0
  6
Continuous
 62
     7
100
AcDbLine
 10
551.406389517531
 20
290.1529765444998
 30
0.0
 11
550.6563895175311
 21
290.1529765444998
 31
0.0
  0
LINE
  5
4B8
330
6B
100
AcDbEntity
  8
0
  6
Continuous
 62
     7
100
AcDbLine
 10
552.9063895175311
 20
290.1529765444998
 30
0.0
 11
552.1563895175311
 21
290.1529765444998
 31
0.0
  0
LINE
  5
4B9
330
6B
100
AcDbEntity
  8
0
  6
Continuous
 62
     7
100
AcDbLine
 10
552.9063895175311
 20
289.2529765444999
 30
0.0
 11
552.1563895175311
 21
289.2529765444999
 31
0.0
  0
LINE
  5
4BA
330
6B
100
AcDbEntity
  8
0
  6
Continuous
 62
     7
100
AcDbLine
 10
550.6563895175311
 20
291.2805627513963
 30
0.0
 11
549.9063895175311
 21
291.2029765444998
 31
0.0
  0
LINE
  5
4BB
330
6B
100
AcDbEntity
  8
0
  6
Continuous
 62
     7
100
AcDbLine
 10
552.1563895175311
 20
291.4357351651895
 30
0.0
 11
551.406389517531
 21
291.358148958293
 31
0.0
  0
LINE
  5
4BC
330
6B
100
AcDbEntity
  8
0
  6
Continuous
 62
     7
100
AcDbLine
 10
553.6563895175311
 20
291.5909075789826
 30
0.0
 11
552.9063895175311
 21
291.513321372086
 31
0.0
  0
LINE
  5
4BD
330
6B
100
AcDbEntity
  8
0
  6
Continuous
 62
     7
100
AcDbLine
 10
553.6563895175311
 20
287.8150455100171
 30
0.0
 11
552.9063895175311
 21
287.8926317169136
 31
0.0
  0
LINE
  5
4BE
330
6B
100
AcDbEntity
  8
0
  6
Continuous
 62
     7
100
AcDbLine
 10
552.1563895175311
 20
287.9702179238102
 30
0.0
 11
551.406389517531
 21
288.0478041307067
 31
0.0
  0
LINE
  5
4BF
330
6B
100
AcDbEntity
  8
0
  6
Continuous
 62
     7
100
AcDbLine
 10
550.6563895175311
 20
288.1253903376034
 30
0.0
 11
549.9063895175311
 21
288.2029765444999
 31
0.0
  0
LINE
  5
4C0
330
6B
100
AcDbEntity
  8
0
  6
Continuous
 62
     7
100
AcDbLine
 10
552.9063895175311
 20
290.6529765444998
 30
0.0
 11
552.1563895175311
 21
290.6529765444998
 31
0.0
  0
LINE
  5
4C1
330
6B
100
AcDbEntity
  8
0
  6
Continuous
 62
     7
100
AcDbLine
 10
551.406389517531
 20
288.7529765444999
 30
0.0
 11
550.6563895175311
 21
288.7529765444999
 31
0.0
  0
LINE
  5
4C2
330
6B
100
AcDbEntity
  8
0
  6
Continuous
 62
     7
100
AcDbLine
 10
554.4063895175311
 20
288.7529765444999
 30
0.0
 11
553.6563895175311
 21
288.7529765444999
 31
0.0
  0
LINE
  5
4C3
330
6B
100
AcDbEntity
  8
0
  6
Continuous
 62
     7
100
AcDbLine
 10
554.4063895175311
 20
289.2529765444999
 30
0.0
 11
554.4063895175311
 21
287.7374593031206
 31
0.0
  0
LINE
  5
4C4
330
6B
100
AcDbEntity
  8
0
  6
Continuous
 62
     7
100
AcDbLine
 10
553.6563895175311
 20
289.2529765444999
 30
0.0
 11
553.6563895175311
 21
287.8150455100171
 31
0.0
  0
LINE
  5
4C5
330
6B
100
AcDbEntity
  8
0
  6
Continuous
 62
     7
100
AcDbLine
 10
552.9063895175311
 20
289.2529765444999
 30
0.0
 11
552.9063895175311
 21
287.8926317169136
 31
0.0
  0
LINE
  5
4C6
330
6B
100
AcDbEntity
  8
0
  6
Continuous
 62
     7
100
AcDbLine
 10
552.1563895175311
 20
289.2529765444999
 30
0.0
 11
552.1563895175311
 21
287.9702179238102
 31
0.0
  0
LINE
  5
4C7
330
6B
100
AcDbEntity
  8
0
  6
Continuous
 62
     7
100
AcDbLine
 10
551.406389517531
 20
289.2529765444999
 30
0.0
 11
551.406389517531
 21
288.0478041307067
 31
0.0
  0
LINE
  5
4C8
330
6B
100
AcDbEntity
  8
0
  6
Continuous
 62
     7
100
AcDbLine
 10
550.6563895175311
 20
289.2529765444999
 30
0.0
 11
550.6563895175311
 21
288.1253903376034
 31
0.0
  0
LINE
  5
4C9
330
6B
100
AcDbEntity
  8
0
  6
Continuous
 62
     7
100
AcDbLine
 10
567.6563895175311
 20
290.5779765444998
 30
0.0
 11
563.1563895175311
 21
290.5779765444998
 31
0.0
  0
LINE
  5
4CA
330
6B
100
AcDbEntity
  8
0
  6
Continuous
 62
     7
100
AcDbLine
 10
567.6563895175311
 20
288.8279765444998
 30
0.0
 11
563.1563895175311
 21
288.8279765444998
 31
0.0
  0
LINE
  5
4CB
330
6B
100
AcDbEntity
  8
0
  6
Continuous
 62
     7
100
AcDbLine
 10
567.6563895175311
 20
290.5779765444998
 30
0.0
 11
567.6563895175311
 21
288.8279765444998
 31
0.0
  0
LINE
  5
4CC
330
6B
100
AcDbEntity
  8
0
  6
Continuous
 62
     7
100
AcDbLine
 10
567.6563895175311
 20
258.2818775410341
 30
0.0
 11
563.1563895175311
 21
258.2818775410341
 31
0.0
  0
LINE
  5
4CD
330
6B
100
AcDbEntity
  8
0
  6
Continuous
 62
     7
100
AcDbLine
 10
567.6563895175311
 20
260.0318775410341
 30
0.0
 11
563.1563895175311
 21
260.0318775410341
 31
0.0
  0
LINE
  5
4CE
330
6B
100
AcDbEntity
  8
0
  6
Continuous
 62
     7
100
AcDbLine
 10
557.1563895175311
 20
256.9068775410341
 30
0.0
 11
549.9063895175311
 21
257.6568775410341
 31
0.0
  0
LINE
  5
4D2
330
6B
100
AcDbEntity
  8
0
  6
Continuous
 62
     7
100
AcDbLine
 10
557.1563895175311
 20
261.4068775410341
 30
0.0
 11
549.9063895175311
 21
260.6568775410341
 31
0.0
  0
LINE
  5
4D6
330
6B
100
AcDbEntity
  8
0
  6
Continuous
 62
     7
100
AcDbLine
 10
563.1563895175311
 20
256.9068775410341
 30
0.0
 11
557.1563895175311
 21
256.9068775410341
 31
0.0
  0
LINE
  5
4D7
330
6B
100
AcDbEntity
  8
0
  6
Continuous
 62
     7
100
AcDbLine
 10
563.1563895175311
 20
261.4068775410341
 30
0.0
 11
557.1563895175311
 21
261.4068775410341
 31
0.0
  0
LINE
  5
4E1
330
6B
100
AcDbEntity
  8
0
  6
Continuous
 62
     7
100
AcDbLine
 10
549.9063895175311
 20
260.6568775410341
 30
0.0
 11
549.9063895175311
 21
257.6568775410341
 31
0.0
  0
LINE
  5
4E2
330
6B
100
AcDbEntity
  8
0
  6
Continuous
 62
     7
100
AcDbLine
 10
550.6563895175311
 20
260.7344637479306
 30
0.0
 11
550.6563895175311
 21
257.5792913341376
 31
0.0
  0
LINE
  5
4E4
330
6B
100
AcDbEntity
  8
0
  6
Continuous
 62
     7
100
AcDbLine
 10
551.406389517531
 20
260.8120499548272
 30
0.0
 11
551.406389517531
 21
257.5017051272409
 31
0.0
  0
LINE
  5
4E6
330
6B
100
AcDbEntity
  8
0
  6
Continuous
 62
     7
100
AcDbLine
 10
552.1563895175311
 20
260.8896361617237
 30
0.0
 11
552.1563895175311
 21
257.4241189203444
 31
0.0
  0
LINE
  5
4E8
330
6B
100
AcDbEntity
  8
0
  6
Continuous
 62
     7
100
AcDbLine
 10
552.9063895175311
 20
260.9672223686203
 30
0.0
 11
552.9063895175307
 21
257.3465327134479
 31
0.0
  0
LINE
  5
4EA
330
6B
100
AcDbEntity
  8
0
  6
Continuous
 62
     7
100
AcDbLine
 10
553.6563895175311
 20
261.0448085755169
 30
0.0
 11
553.6563895175311
 21
257.2689465065514
 31
0.0
  0
LINE
  5
4EC
330
6B
100
AcDbEntity
  8
0
  6
Continuous
 62
     7
100
AcDbLine
 10
554.4063895175311
 20
261.1223947824134
 30
0.0
 11
554.4063895175311
 21
257.1913602996549
 31
0.0
  0
LINE
  5
4EE
330
6B
100
AcDbEntity
  8
0
  6
Continuous
 62
     7
100
AcDbLine
 10
563.1563895175311
 20
256.9068775410341
 30
0.0
 11
563.1563895175311
 21
261.4068775410341
 31
0.0
  0
LINE
  5
4EF
330
6B
100
AcDbEntity
  8
0
  6
Continuous
 62
     7
100
AcDbLine
 10
567.6563895175311
 20
260.0318775410341
 30
0.0
 11
567.6563895175311
 21
258.2818775410341
 31
0.0
  0
LINE
  5
4F0
330
6B
100
AcDbEntity
  8
0
  6
Continuous
 62
     7
100
AcDbLine
 10
526.099065776621
 20
260.0568775410341
 30
0.0
 11
527.1990657766214
 21
260.0568775410341
 31
0.0
  0
LINE
  5
4F1
330
6B
100
AcDbEntity
  8
0
  6
Continuous
 62
     7
100
AcDbLine
 10
526.099065776621
 20
258.2568775410341
 30
0.0
 11
527.1990657766214
 21
258.2568775410341
 31
0.0
  0
LINE
  5
4F2
330
6B
100
AcDbEntity
  8
0
  6
Continuous
 62
     7
100
AcDbLine
 10
533.7990657766214
 20
259.7068775410341
 30
0.0
 11
532.6990657766215
 21
259.7068775410341
 31
0.0
  0
LINE
  5
4F3
330
6B
100
AcDbEntity
  8
0
  6
Continuous
 62
     7
100
AcDbLine
 10
533.7990657766214
 20
258.6068775410341
 30
0.0
 11
532.6990657766214
 21
258.6068775410341
 31
0.0
  0
LINE
  5
4FC
330
6B
100
AcDbEntity
  8
0
  6
Continuous
 62
     7
100
AcDbLine
 10
529.3990657766214
 20
259.7068775410341
 30
0.0
 11
528.2990657766214
 21
259.706877541034
 31
0.0
  0
LINE
  5
4FD
330
6B
100
AcDbEntity
  8
0
  6
Continuous
 62
     7
100
AcDbLine
 10
529.3990657766214
 20
258.6068775410341
 30
0.0
 11
528.2990657766214
 21
258.6068775410341
 31
0.0
  0
LINE
  5
4FE
330
6B
100
AcDbEntity
  8
0
  6
Continuous
 62
     7
100
AcDbLine
 10
528.2990657766214
 20
260.0568775410341
 30
0.0
 11
529.3990657766214
 21
260.0568775410341
 31
0.0
  0
LINE
  5
4FF
330
6B
100
AcDbEntity
  8
0
  6
Continuous
 62
     7
100
AcDbLine
 10
528.2990657766214
 20
258.2568775410341
 30
0.0
 11
529.3990657766214
 21
258.2568775410341
 31
0.0
  0
LINE
  5
500
330
6B
100
AcDbEntity
  8
0
  6
Continuous
 62
     7
100
AcDbLine
 10
530.4990657766214
 20
258.2568775410341
 30
0.0
 11
531.5990657766215
 21
258.2568775410341
 31
0.0
  0
LINE
  5
501
330
6B
100
AcDbEntity
  8
0
  6
Continuous
 62
     7
100
AcDbLine
 10
530.4990657766214
 20
260.0568775410341
 30
0.0
 11
531.5990657766215
 21
260.0568775410341
 31
0.0
  0
LINE
  5
502
330
6B
100
AcDbEntity
  8
0
  6
Continuous
 62
     7
100
AcDbLine
 10
532.6990657766214
 20
260.0568775410341
 30
0.0
 11
533.7990657766214
 21
260.0568775410341
 31
0.0
  0
LINE
  5
503
330
6B
100
AcDbEntity
  8
0
  6
Continuous
 62
     7
100
AcDbLine
 10
532.6990657766215
 20
258.2568775410341
 30
0.0
 11
533.7990657766214
 21
258.2568775410341
 31
0.0
  0
LINE
  5
504
330
6B
100
AcDbEntity
  8
0
  6
Continuous
 62
     7
100
AcDbLine
 10
534.9990657766213
 20
258.2568775410341
 30
0.0
 11
540.7539486513684
 21
258.2568775410341
 31
0.0
  0
LINE
  5
505
330
6B
100
AcDbEntity
  8
0
  6
Continuous
 62
     7
100
AcDbLine
 10
534.9990657766213
 20
260.0568775410341
 30
0.0
 11
541.7931791359099
 21
260.0568775410341
 31
0.0
  0
LINE
  5
506
330
6B
100
AcDbEntity
  8
0
  6
Continuous
 62
     7
100
AcDbLine
 10
550.6563895175311
 20
260.0568775410341
 30
0.0
 11
551.406389517531
 21
260.0568775410341
 31
0.0
  0
LINE
  5
507
330
6B
100
AcDbEntity
  8
0
  6
Continuous
 62
     7
100
AcDbLine
 10
550.6563895175311
 20
258.2568775410341
 30
0.0
 11
551.406389517531
 21
258.2568775410341
 31
0.0
  0
LINE
  5
508
330
6B
100
AcDbEntity
  8
0
  6
Continuous
 62
     7
100
AcDbLine
 10
552.1563895175311
 20
258.2568775410341
 30
0.0
 11
552.9063895175307
 21
258.2568775410341
 31
0.0
  0
LINE
  5
509
330
6B
100
AcDbEntity
  8
0
  6
Continuous
 62
     7
100
AcDbLine
 10
552.1563895175311
 20
260.0568775410341
 30
0.0
 11
552.9063895175311
 21
260.0568775410341
 31
0.0
  0
LINE
  5
50A
330
6B
100
AcDbEntity
  8
0
  6
Continuous
 62
     7
100
AcDbLine
 10
553.6563895175311
 20
260.0568775410341
 30
0.0
 11
554.4063895175311
 21
260.0568775410341
 31
0.0
  0
LINE
  5
50B
330
6B
100
AcDbEntity
  8
0
  6
Continuous
 62
     7
100
AcDbLine
 10
553.6563895175311
 20
258.2568775410341
 30
0.0
 11
554.4063895175311
 21
258.2568775410341
 31
0.0
  0
LINE
  5
50C
330
6B
100
AcDbEntity
  8
0
  6
Continuous
 62
     7
100
AcDbLine
 10
526.099065776621
 20
259.1568775410341
 30
0.0
 11
527.1990657766214
 21
259.1568775410341
 31
0.0
  0
LINE
  5
50D
330
6B
100
AcDbEntity
  8
0
  6
Continuous
 62
     7
100
AcDbLine
 10
550.6563895175311
 20
259.1568775410337
 30
0.0
 11
551.406389517531
 21
259.1568775410337
 31
0.0
  0
LINE
  5
50E
330
6B
100
AcDbEntity
  8
0
  6
Continuous
 62
     7
100
AcDbLine
 10
552.1563895175311
 20
259.1568775410337
 30
0.0
 11
552.9063895175307
 21
259.1568775410337
 31
0.0
  0
LINE
  5
50F
330
6B
100
AcDbEntity
  8
0
  6
Continuous
 62
     7
100
AcDbLine
 10
553.6563895175311
 20
259.1568775410337
 30
0.0
 11
554.4063895175311
 21
259.1568775410337
 31
0.0
  0
LINE
  5
510
330
6B
100
AcDbEntity
  8
0
  6
Continuous
 62
     7
100
AcDbLine
 10
530.4990657766214
 20
259.1568775410341
 30
0.0
 11
531.5990657766215
 21
259.156877541034
 31
0.0
  0
LINE
  5
511
330
6B
100
AcDbEntity
  8
0
  6
Continuous
 62
     7
100
AcDbLine
 10
534.9990657766213
 20
259.156877541034
 30
0.0
 11
541.2735638936388
 21
259.1568775410339
 31
0.0
  0
LINE
  5
514
330
6B
100
AcDbEntity
  8
0
  6
Continuous
 62
     7
100
AcDbLine
 10
541.6832193110576
 20
288.2477648396115
 30
0.0
 11
543.3156364455446
 21
291.0751942556887
 31
0.0
  0
LINE
  5
515
330
6B
100
AcDbEntity
  8
0
  6
Continuous
 62
     7
100
AcDbLine
 10
540.1735894029583
 20
288.2477648396115
 30
0.0
 11
541.8060065374453
 21
291.0751942556887
 31
0.0
  0
LINE
  5
516
330
6B
100
AcDbEntity
  8
0
  6
Continuous
 62
     7
100
AcDbLine
 10
543.363487174231
 20
261.0619751454867
 30
0.0
 11
541.0991668881815
 21
257.1400573654399
 31
0.0
  0
LINE
  5
517
330
6B
100
AcDbEntity
  8
0
  6
Continuous
 62
     7
100
AcDbLine
 10
542.3734725084023
 20
261.0619751454867
 30
0.0
 11
540.1091522223528
 21
257.1400573654399
 31
0.0
  0
LINE
  5
51C
330
6B
100
AcDbEntity
  8
0
  6
Continuous
 62
     7
100
AcDbLine
 10
542.7831938017386
 20
260.0568775410341
 30
0.0
 11
549.9063895175311
 21
260.0568775410341
 31
0.0
  0
LINE
  5
51D
330
6B
100
AcDbEntity
  8
0
  6
Continuous
 62
     7
100
AcDbLine
 10
542.2635785594676
 20
259.1568775410339
 30
0.0
 11
549.9063895175311
 21
259.1568775410337
 31
0.0
  0
LINE
  5
51E
330
6B
100
AcDbEntity
  8
0
  6
Continuous
 62
     7
100
AcDbLine
 10
541.7439633171973
 20
258.2568775410341
 30
0.0
 11
549.9063895175311
 21
258.2568775410341
 31
0.0
  0
LINE
  5
51F
330
6B
100
AcDbEntity
  8
0
  6
Continuous
 62
     7
100
AcDbLine
 10
541.2735638936388
 20
290.1529765444998
 30
0.0
 11
534.9990657766213
 21
290.1529765444998
 31
0.0
  0
LINE
  5
520
330
6B
100
AcDbEntity
  8
0
  6
Continuous
 62
     7
100
AcDbLine
 10
540.7539486513683
 20
289.2529765444999
 30
0.0
 11
534.9990657766213
 21
289.2529765444999
 31
0.0
  0
LINE
  5
98C
330
6B
100
AcDbEntity
  8
0
  6
CENTER
100
AcDbLine
 10
502.7490657766214
 20
254.2708159038499
 30
0.0
 11
502.7490657766214
 21
264.1477479864966
 31
0.0
  0
TEXT
  5
9A9
330
6B
100
AcDbEntity
  8
0
 62
     3
100
AcDbText
 10
418.0278583999998
 20
224.483413
 30
0.0
 40
2.5
  1
6
 41
0.8
  7
高2.5
100
AcDbText
  0
TEXT
  5
9AA
330
6B
100
AcDbEntity
  8
0
 62
     3
100
AcDbText
 10
422.7020084977713
 20
224.483413
 30
0.0
 40
2.5
  1
充電アダプター
 41
0.8
  7
高2.5
100
AcDbText
  0
TEXT
  5
9AB
330
6B
100
AcDbEntity
  8
0
 62
     3
100
AcDbText
 10
451.4371054689719
 20
224.483413
 30
0.0
 40
2.5
  1
in:AC100-240V 10VA 50/60Hz out:DC5V 800mA
 41
0.5
  7
高2.5
100
AcDbText
  0
TEXT
  5
9AC
330
6B
100
AcDbEntity
  8
0
 62
     3
100
AcDbText
 10
442.0430057152304
 20
224.483413
 30
0.0
 40
2.5
  1
-
 41
0.8
  7
高2.5
100
AcDbText
  0
TEXT
  5
9AD
330
6B
100
AcDbEntity
  8
0
 62
     3
100
AcDbText
 10
499.8591162601436
 20
224.483413
 30
0.0
 40
2.5
  1
1
 41
0.8
  7
高2.5
100
AcDbText
  0
LINE
  5
9AE
330
6B
100
AcDbEntity
  8
0
100
AcDbLine
 10
415.488132
 20
228.083413
 30
0.0
 11
548.0928610913107
 21
228.083413
 31
0.0
  0
TEXT
  5
9AF
330
6B
100
AcDbEntity
  8
0
 62
     3
100
AcDbText
 10
507.3088468937286
 20
224.483413
 30
0.0
 40
2.5
  1
55836
 41
0.8
  7
高2.5
100
AcDbText
  0
CIRCLE
  5
9B0
330
6B
100
AcDbEntity
  8
0
100
AcDbCircle
 10
543.9268692216606
 20
303.7353216334593
 30
0.0
 40
5.0
  0
TEXT
  5
9B1
330
6B
100
AcDbEntity
  8
0
 62
     4
100
AcDbText
 10
541.9130664745641
 20
300.6991486160266
 30
0.0
 40
6.299999999999998
  1
6
  7
高6.3
100
AcDbText
  0
TEXT
  5
9BB
330
6B
100
AcDbEntity
  8
0
 62
     3
100
AcDbText
 10
416.0436221154459
 20
228.483413
 30
0.0
 40
2.5
  1
付属
 41
0.8
  7
高2.5
100
AcDbText
  0
TEXT
  5
9BC
330
6B
100
AcDbEntity
  8
0
 62
     3
100
AcDbText
 10
422.7020084977713
 20
228.483413
 30
0.0
 40
2.5
  1
ストラップ
 41
0.8
  7
高2.5
100
AcDbText
  0
TEXT
  5
9BD
330
6B
100
AcDbEntity
  8
0
 62
     3
100
AcDbText
 10
451.4371054689719
 20
228.483413
 30
0.0
 40
2.5
  1
-
 41
0.8
  7
高2.5
100
AcDbText
  0
TEXT
  5
9BE
330
6B
100
AcDbEntity
  8
0
 62
     3
100
AcDbText
 10
442.0430057152304
 20
228.483413
 30
0.0
 40
2.5
  1
-
 41
0.8
  7
高2.5
100
AcDbText
  0
TEXT
  5
9BF
330
6B
100
AcDbEntity
  8
0
 62
     3
100
AcDbText
 10
499.8591162601436
 20
228.483413
 30
0.0
 40
2.5
  1
1
 41
0.8
  7
高2.5
100
AcDbText
  0
LINE
  5
9C0
330
6B
100
AcDbEntity
  8
0
 62
     7
100
AcDbLine
 10
415.488132
 20
232.083413
 30
0.0
 11
548.0928610913107
 21
232.083413
 31
0.0
  0
TEXT
  5
9C1
330
6B
100
AcDbEntity
  8
0
 62
     3
100
AcDbText
 10
507.3088468937286
 20
228.483413
 30
0.0
 40
2.5
  1
-
 41
0.8
  7
高2.5
100
AcDbText
  0
LINE
  5
B7C
330
6B
100
AcDbEntity
  8
0
 62
     3
100
AcDbLine
 10
582.2229590049016
 20
353.4467253838008
 30
0.0
 11
582.2229590049016
 21
340.7409196242277
 31
0.0
  0
LINE
  5
B7E
330
6B
100
AcDbEntity
  8
0
 62
     3
100
AcDbLine
 10
584.9729590049016
 20
340.7409196242277
 30
0.0
 11
584.9729590049016
 21
353.4467253838008
 31
0.0
  0
CIRCLE
  5
B80
330
6B
100
AcDbEntity
  8
0
 62
     3
100
AcDbCircle
 10
583.5979590049016
 20
347.0938225040142
 30
0.0
 40
8.742479386185159
  0
LINE
  5
B81
330
6B
100
AcDbEntity
  8
0
 62
     3
100
AcDbLine
 10
481.0449382735007
 20
336.5819245500309
 30
0.0
 11
489.2542408433491
 21
338.0938225040142
 31
0.0
  0
LINE
  5
B82
330
6B
100
AcDbEntity
  8
0
 62
     3
100
AcDbLine
 10
489.2542408433491
 20
356.0938225040142
 30
0.0
 11
481.0449375477436
 21
357.6057205916594
 31
0.0
  0
LINE
  5
B83
330
6B
100
AcDbEntity
  8
0
 62
     3
100
AcDbLine
 10
476.7520925566475
 20
357.4938225040142
 30
0.0
 11
466.7520925566476
 21
357.4938225040142
 31
0.0
  0
LINE
  5
B84
330
6B
100
AcDbEntity
  8
0
 62
     3
100
AcDbLine
 10
466.7520925566476
 20
336.6938225040142
 30
0.0
 11
476.7520925566475
 21
336.6938225040142
 31
0.0
  0
CIRCLE
  5
B85
330
6B
100
AcDbEntity
  8
0
 62
     3
100
AcDbCircle
 10
496.7477944385763
 20
347.0983351845346
 30
0.0
 40
2.5
  0
ARC
  5
B86
330
6B
100
AcDbEntity
  8
0
 62
     3
100
AcDbCircle
 10
490.0034883875563
 20
337.4519260550006
 30
0.0
 40
0.9866118455382942
100
AcDbArc
 50
40.58737323818375
 51
139.4126267618198
  0
ARC
  5
B87
330
6B
100
AcDbEntity
  8
0
 62
     3
100
AcDbCircle
 10
490.0034883875563
 20
356.7620840481402
 30
0.0
 40
1.003964827002403
100
AcDbArc
 50
221.7300970358973
 51
318.2699029640992
  0
LINE
  5
B88
330
6B
100
AcDbEntity
  8
0
 62
     3
100
AcDbLine
 10
491.7520925566476
 20
356.0938225040143
 30
0.0
 11
490.7527359317635
 21
356.0938225040142
 31
0.0
  0
LINE
  5
B89
330
6B
100
AcDbEntity
  8
0
 62
     3
100
AcDbLine
 10
490.7527359317633
 20
338.0938225040142
 30
0.0
 11
491.7520925566476
 21
338.0938225040142
 31
0.0
  0
ARC
  5
B8A
330
6B
100
AcDbEntity
  8
0
 62
     3
100
AcDbCircle
 10
512.3518901003534
 20
337.1155734835515
 30
0.0
 40
1.946650155042189
100
AcDbArc
 50
62.59873708364072
 51
124.5539544838943
  0
ARC
  5
B8B
330
6B
100
AcDbEntity
  8
0
 62
     3
100
AcDbCircle
 10
512.3518822813512
 20
357.072014452517
 30
0.0
 40
1.946603087918326
100
AcDbArc
 50
235.4453708964512
 51
297.4022402884204
  0
LINE
  5
B8C
330
6B
100
AcDbEntity
  8
0
 62
     3
100
AcDbLine
 10
511.2477850716341
 20
355.4688198500472
 30
0.0
 11
506.2520863120195
 21
355.4688251579813
 31
0.0
  0
LINE
  5
B8D
330
6B
100
AcDbEntity
  8
0
 62
     3
100
AcDbLine
 10
506.2520863120195
 20
338.7188251579812
 30
0.0
 11
511.2477850716341
 21
338.7188198500472
 31
0.0
  0
ARC
  5
B8E
330
6B
100
AcDbEntity
  8
0
 62
     3
100
AcDbCircle
 10
546.6422825233536
 20
337.0244774193718
 30
0.0
 40
2.025456289419055
100
AcDbArc
 50
56.77498066915118
 51
116.0721900073401
  0
ARC
  5
B8F
330
6B
100
AcDbEntity
  8
0
 62
     3
100
AcDbCircle
 10
546.6422888990198
 20
357.1631470623247
 30
0.0
 40
2.025435625225643
100
AcDbArc
 50
243.9273220042393
 51
303.2251866143434
  0
LINE
  5
B90
330
6B
100
AcDbEntity
  8
0
 62
     3
100
AcDbLine
 10
545.7520878563099
 20
355.3438253108057
 30
0.0
 11
513.247776177058
 21
355.3438253108057
 31
0.0
  0
LINE
  5
B91
330
6B
100
AcDbEntity
  8
0
 62
     3
100
AcDbLine
 10
513.247776177058
 20
338.8438196939315
 30
0.0
 11
545.7520878913181
 21
338.8438253140969
 31
0.0
  0
ARC
  5
B92
330
6B
100
AcDbEntity
  8
0
 62
     3
100
AcDbCircle
 10
505.7525166858432
 20
355.4692522533751
 30
0.0
 40
0.4995702506391523
100
AcDbArc
 50
0.0
 51
90.0
  0
ARC
  5
B93
330
6B
100
AcDbEntity
  8
0
 62
     3
100
AcDbCircle
 10
505.7525185592314
 20
338.7183927546534
 30
0.0
 40
0.4995702506391523
100
AcDbArc
 50
270.0
 51
0.0
  0
LINE
  5
B94
330
6B
100
AcDbEntity
  8
0
 62
     3
100
AcDbLine
 10
505.7525185592314
 20
355.9688225040142
 30
0.0
 11
491.7520925566476
 21
355.973335496766
 31
0.0
  0
LINE
  5
B95
330
6B
100
AcDbEntity
  8
0
 62
     3
100
AcDbLine
 10
491.7520925566476
 20
338.2188225040142
 30
0.0
 11
505.7525185592314
 21
338.2188225040142
 31
0.0
  0
LINE
  5
B99
330
6B
100
AcDbEntity
  8
0
 62
     3
100
AcDbLine
 10
491.7520925566476
 20
338.0938225040142
 30
0.0
 11
491.7520925566476
 21
356.0938225040142
 31
0.0
  0
LINE
  5
B9A
330
6B
100
AcDbEntity
  8
0
 62
     3
100
AcDbLine
 10
506.2520888098705
 20
338.7183927546534
 30
0.0
 11
506.2520869364823
 21
355.4692522533751
 31
0.0
  0
LINE
  5
B9B
330
6B
100
AcDbEntity
  8
0
 62
     7
100
AcDbLine
 10
554.2520878731766
 20
355.4688225040142
 30
0.0
 11
554.2520878731766
 21
338.7188225040142
 31
0.0
  0
LINE
  5
BA0
330
6B
100
AcDbEntity
  8
0
 62
     3
100
AcDbLine
 10
563.003377745722
 20
355.0938225040142
 30
0.0
 11
561.7520878731766
 21
355.0938225040142
 31
0.0
  0
LINE
  5
BA1
330
6B
100
AcDbEntity
  8
0
 62
     3
100
AcDbLine
 10
561.7520878731766
 20
339.0938225040142
 30
0.0
 11
563.003377745722
 21
339.0938225040142
 31
0.0
  0
ARC
  5
BA2
330
6B
100
AcDbEntity
  8
0
 62
     3
100
AcDbCircle
 10
561.2208378431123
 20
347.0938225225153
 30
0.0
 40
7.281250030064282
100
AcDbArc
 50
296.7849956530832
 51
63.21500370079572
  0
LINE
  5
BA3
330
6B
100
AcDbEntity
  8
0
 62
     3
100
AcDbLine
 10
564.5020878731766
 20
355.4688225040142
 30
0.0
 11
564.5020878731766
 21
338.7188225040142
 31
0.0
  0
LINE
  5
BA6
330
6B
100
AcDbEntity
  8
0
 62
     3
100
AcDbLine
 10
554.2520878731766
 20
339.0938225040142
 30
0.0
 11
555.2520878731765
 21
339.0938225040142
 31
0.0
  0
LINE
  5
BA7
330
6B
100
AcDbEntity
  8
0
 62
     3
100
AcDbLine
 10
555.2520878731765
 20
355.0938225040142
 30
0.0
 11
554.2520878731766
 21
355.0938225040142
 31
0.0
  0
LINE
  5
BA8
330
6B
100
AcDbEntity
  8
0
 62
     3
100
AcDbLine
 10
547.7520878731763
 20
338.7188225040142
 30
0.0
 11
554.2520878731766
 21
338.7188225040142
 31
0.0
  0
LINE
  5
BA9
330
6B
100
AcDbEntity
  8
0
 62
     3
100
AcDbLine
 10
547.7520878731763
 20
355.4688225040142
 30
0.0
 11
554.2520878731766
 21
355.4688225040143
 31
0.0
  0
CIRCLE
  5
BAA
330
6B
100
AcDbEntity
  8
0
 62
     3
100
AcDbCircle
 10
443.2316886463357
 20
347.0938225040142
 30
0.0
 40
10.4
  0
LINE
  5
BB0
330
6B
100
AcDbEntity
  8
0
 62
     3
100
AcDbLine
 10
466.7520925566477
 20
336.6962352659267
 30
0.0
 11
466.752092556648
 21
357.4938225040142
 31
0.0
  0
CIRCLE
  5
BB1
330
6B
100
AcDbEntity
  8
0
  6
HIDDEN
 62
     7
100
AcDbCircle
 10
443.2316886463357
 20
347.0938225040142
 30
0.0
 40
1.0
  0
LINE
  5
BB2
330
6B
100
AcDbEntity
  8
0
100
AcDbLine
 10
489.2542400545262
 20
347.0983351845346
 30
0.0
 11
489.2542408433491
 21
338.0938225040142
 31
0.0
  0
LINE
  5
BB3
330
6B
100
AcDbEntity
  8
0
100
AcDbLine
 10
489.2542408433491
 20
356.0938225040142
 30
0.0
 11
489.2542400545262
 21
347.0983351845346
 31
0.0
  0
LINE
  5
BB6
330
6B
100
AcDbEntity
  8
0
100
AcDbLine
 10
479.7520920020462
 20
357.6057205916594
 30
0.0
 11
479.7520921788251
 21
354.2983289099207
 31
0.0
  0
LINE
  5
BC6
330
6B
100
AcDbEntity
  8
0
100
AcDbLine
 10
513.247776177058
 20
338.8438196939315
 30
0.0
 11
513.247776177058
 21
344.0938225040142
 31
0.0
  0
LINE
  5
BC7
330
6B
100
AcDbEntity
  8
0
100
AcDbLine
 10
513.247776177058
 20
350.0938225040142
 30
0.0
 11
513.247776177058
 21
355.3438253108057
 31
0.0
  0
LINE
  5
BC9
330
6B
100
AcDbEntity
  8
0
100
AcDbLine
 10
511.2477672823962
 20
338.7188198500662
 30
0.0
 11
511.2477850716341
 21
355.4688225040142
 31
0.0
  0
LINE
  5
BCA
330
6B
100
AcDbEntity
  8
0
100
AcDbLine
 10
545.7520878900431
 20
355.3438253140969
 30
0.0
 11
545.7520878563099
 21
350.0938225040142
 31
0.0
  0
LINE
  5
BCB
330
6B
100
AcDbEntity
  8
0
100
AcDbLine
 10
545.7520878550351
 20
344.0938225040142
 30
0.0
 11
545.7520878913181
 21
338.8438253140969
 31
0.0
  0
LINE
  5
BCF
330
6B
100
AcDbEntity
  8
0
100
AcDbLine
 10
547.7520878731763
 20
338.7188225040142
 30
0.0
 11
547.7520878731763
 21
355.4688225040142
 31
0.0
  0
LINE
  5
BD1
330
6B
100
AcDbEntity
  8
0
 62
     3
100
AcDbLine
 10
476.7520925566475
 20
357.6057205916594
 30
0.0
 11
476.7520925566483
 21
336.5819245500309
 31
0.0
  0
LINE
  5
BD8
330
6B
100
AcDbEntity
  8
0
100
AcDbLine
 10
563.003377745722
 20
355.4688225040142
 30
0.0
 11
563.003377745722
 21
338.7188225040142
 31
0.0
  0
CIRCLE
  5
BDA
330
6B
100
AcDbEntity
  8
0
100
AcDbCircle
 10
566.8520878731765
 20
347.0938225040142
 30
0.0
 40
0.6499999999999773
  0
ARC
  5
BDD
330
6B
100
AcDbEntity
  8
0
100
AcDbCircle
 10
443.2316886463357
 20
347.0938225040142
 30
0.0
 40
9.491834137681074
100
AcDbArc
 50
18.42488625022393
 51
53.57511186044487
  0
LINE
  5
BE8
330
6B
100
AcDbEntity
  8
0
  6
CENTER
100
AcDbLine
 10
583.5979590049016
 20
335.9443618198362
 30
0.0
 11
583.5979590049016
 21
358.2432831881924
 31
0.0
  0
LINE
  5
BE9
330
6B
100
AcDbEntity
  8
0
  6
CENTER
100
AcDbLine
 10
572.4484983207237
 20
347.0938225040142
 30
0.0
 11
594.7474196890797
 21
347.0938225040142
 31
0.0
  0
LINE
  5
BEA
330
6B
100
AcDbEntity
  8
0
  6
CENTER
100
AcDbLine
 10
443.2316886463357
 20
334.8350229903578
 30
0.0
 11
443.2316886463357
 21
359.3526226421336
 31
0.0
  0
LINE
  5
BEB
330
6B
100
AcDbEntity
  8
0
  6
CENTER
100
AcDbLine
 10
430.9728891326791
 20
347.0938225040142
 30
0.0
 11
455.4904887844549
 21
347.0938225040142
 31
0.0
  0
ARC
  5
D69
330
6B
100
AcDbEntity
  8
0
  6
Continuous
 62
     3
100
AcDbCircle
 10
443.231688958567
 20
347.0938225040142
 30
0.0
 40
10.75
100
AcDbArc
 50
102.0814715865442
 51
137.91853181713
  0
LINE
  5
D8D
330
6B
100
AcDbEntity
  8
0
100
AcDbLine
 10
490.7527359317633
 20
338.0938225040142
 30
0.0
 11
490.7527359317635
 21
356.0938225040142
 31
0.0
  0
ARC
  5
D93
330
6B
100
AcDbEntity
  8
0
  6
Continuous
 62
     3
100
AcDbCircle
 10
443.2316879760925
 20
380.1708150465543
 30
0.0
 40
22.6769925425401
100
AcDbArc
 50
264.3057737499207
 51
275.6942296537514
  0
ARC
  5
D94
330
6B
100
AcDbEntity
  8
0
  6
Continuous
 62
     3
100
AcDbCircle
 10
414.5861726447017
 20
363.6323179244365
 30
0.0
 40
22.6769925425401
100
AcDbArc
 50
324.3057737499186
 51
335.6942296537532
  0
ARC
  5
D95
330
6B
100
AcDbEntity
  8
0
  6
Continuous
 62
     3
100
AcDbCircle
 10
414.586173627176
 20
330.5553253818964
 30
0.0
 40
22.6769925425401
100
AcDbArc
 50
24.30577374992234
 51
35.69422965375475
  0
ARC
  5
D96
330
6B
100
AcDbEntity
  8
0
  6
Continuous
 62
     3
100
AcDbCircle
 10
443.2316899410413
 20
314.0168299614741
 30
0.0
 40
22.6769925425401
100
AcDbArc
 50
84.3057737499207
 51
95.69422965375141
  0
ARC
  5
D97
330
6B
100
AcDbEntity
  8
0
  6
Continuous
 62
     3
100
AcDbCircle
 10
471.8772052724323
 20
330.5553270835919
 30
0.0
 40
22.6769925425401
100
AcDbArc
 50
144.3057737499132
 51
155.6942296537532
  0
ARC
  5
D98
330
6B
100
AcDbEntity
  8
0
  6
Continuous
 62
     3
100
AcDbCircle
 10
471.8772042899579
 20
363.632319626132
 30
0.0
 40
22.6769925425401
100
AcDbArc
 50
204.3057737499224
 51
215.6942296537584
  0
ARC
  5
D99
330
6B
100
AcDbEntity
  8
0
  6
Continuous
 62
     3
100
AcDbCircle
 10
443.231688958567
 20
347.0938225040142
 30
0.0
 40
10.75
100
AcDbArc
 50
342.0814715865433
 51
17.91853181712882
  0
ARC
  5
D9A
330
6B
100
AcDbEntity
  8
0
  6
Continuous
 62
     3
100
AcDbCircle
 10
443.231688958567
 20
347.0938225040142
 30
0.0
 40
10.75
100
AcDbArc
 50
282.0814715865442
 51
317.9185318171314
  0
ARC
  5
D9B
330
6B
100
AcDbEntity
  8
0
  6
Continuous
 62
     3
100
AcDbCircle
 10
443.231688958567
 20
347.0938225040142
 30
0.0
 40
10.75
100
AcDbArc
 50
222.0814715865444
 51
257.9185318171294
  0
ARC
  5
D9C
330
6B
100
AcDbEntity
  8
0
  6
Continuous
 62
     3
100
AcDbCircle
 10
443.231688958567
 20
347.0938225040142
 30
0.0
 40
10.75
100
AcDbArc
 50
162.0814715865432
 51
197.9185318171288
  0
ARC
  5
D9D
330
6B
100
AcDbEntity
  8
0
  6
Continuous
 62
     3
100
AcDbCircle
 10
443.231688958567
 20
347.0938225040142
 30
0.0
 40
10.75
100
AcDbArc
 50
42.08147158654447
 51
77.91853181712935
  0
LINE
  5
D9E
330
6B
100
AcDbEntity
  8
0
  6
Continuous
 62
     3
100
AcDbLine
 10
481.0449375477436
 20
357.6057205916594
 30
0.0
 11
476.7520925566475
 21
357.6057205916594
 31
0.0
  0
LINE
  5
D9F
330
6B
100
AcDbEntity
  8
0
  6
Continuous
 62
     3
100
AcDbLine
 10
481.0449382735007
 20
336.5819245500309
 30
0.0
 11
476.7520925566483
 21
336.5819245500309
 31
0.0
  0
LINE
  5
DA0
330
6B
100
AcDbEntity
  8
0
  6
Continuous
100
AcDbLine
 10
476.7520925566476
 20
354.2983289099207
 30
0.0
 11
479.7520921788251
 21
354.2983289099207
 31
0.0
  0
LINE
  5
DA1
330
6B
100
AcDbEntity
  8
0
  6
Continuous
100
AcDbLine
 10
476.7520925566476
 20
350.4012146597213
 30
0.0
 11
479.7520923871247
 21
350.4012146597213
 31
0.0
  0
LINE
  5
DA2
330
6B
100
AcDbEntity
  8
0
  6
Continuous
100
AcDbLine
 10
476.7520925566478
 20
343.7864309559394
 30
0.0
 11
479.7520927406826
 21
343.7864309559394
 31
0.0
  0
LINE
  5
DA3
330
6B
100
AcDbEntity
  8
0
  6
Continuous
100
AcDbLine
 10
476.7520925566481
 20
339.8893165720772
 30
0.0
 11
479.7520929489821
 21
339.8893165720772
 31
0.0
  0
LINE
  5
DA4
330
6B
100
AcDbEntity
  8
0
100
AcDbLine
 10
479.7520929489821
 20
339.8893165720772
 30
0.0
 11
479.7520931257611
 21
336.5819245500309
 31
0.0
  0
LINE
  5
DA5
330
6B
100
AcDbEntity
  8
0
100
AcDbLine
 10
479.7520923871247
 20
350.4012146597213
 30
0.0
 11
479.7520927406826
 21
343.7864309559394
 31
0.0
  0
ELLIPSE
  5
DA8
330
6B
100
AcDbEntity
  8
0
  6
Continuous
100
AcDbEllipse
 10
479.7520922829748
 20
352.349771784821
 30
0.0
 11
-3.000000273672696
 21
0.0
 31
0.0
210
0.0
220
0.0
230
1.0
 40
0.6495189824480048
 41
1.570796361511462
 42
4.712389015101255
  0
ELLIPSE
  5
DA9
330
6B
100
AcDbEntity
  8
0
  6
Continuous
100
AcDbEllipse
 10
479.7520928448325
 20
341.8378737640082
 30
0.0
 11
-2.999999711815576
 21
0.0
 31
0.0
210
0.0
220
0.0
230
1.0
 40
0.6495191263708036
 41
1.570796361511465
 42
4.71238901510128
  0
LINE
  5
DBD
330
6B
100
AcDbEntity
  8
0
  6
Continuous
100
AcDbLine
 10
505.7525185592314
 20
351.4681791840337
 30
0.0
 11
491.7520925566476
 21
351.4681791840337
 31
0.0
  0
LINE
  5
DBE
330
6B
100
AcDbEntity
  8
0
  6
Continuous
100
AcDbLine
 10
505.7525185592314
 20
353.0862131727837
 30
0.0
 11
491.7520925566476
 21
353.0862131727837
 31
0.0
  0
LINE
  5
DBF
330
6B
100
AcDbEntity
  8
0
  6
Continuous
100
AcDbLine
 10
505.7525185592314
 20
341.1014318352447
 30
0.0
 11
491.7520925566476
 21
341.1014318352447
 31
0.0
  0
LINE
  5
DC0
330
6B
100
AcDbEntity
  8
0
  6
Continuous
100
AcDbLine
 10
505.7525185592314
 20
342.7194658239948
 30
0.0
 11
491.7520925566476
 21
342.7194658239948
 31
0.0
  0
LINE
  5
DC1
330
6B
100
AcDbEntity
  8
0
  6
Continuous
100
AcDbLine
 10
505.7525185592314
 20
338.2188225040142
 30
0.0
 11
505.7525185592314
 21
341.1014318352447
 31
0.0
  0
ELLIPSE
  5
DC4
330
6B
100
AcDbEntity
  8
0
  6
Continuous
100
AcDbEllipse
 10
505.7525185592314
 20
341.9104488296198
 30
0.0
 11
0.0
 21
0.8090169943750423
 31
0.0
210
0.0
220
0.0
230
1.0
 40
0.6175023480573542
 41
3.141592653589792
 42
6.283185307179584
  0
ELLIPSE
  5
DC7
330
6B
100
AcDbEntity
  8
0
  6
Continuous
100
AcDbEllipse
 10
505.7525185592314
 20
352.2771961784087
 30
0.0
 11
0.0
 21
0.8090169943749572
 31
0.0
210
0.0
220
0.0
230
1.0
 40
0.617500914960378
 41
3.141592653589792
 42
6.283185307179584
  0
LINE
  5
DC8
330
6B
100
AcDbEntity
  8
0
  6
Continuous
100
AcDbLine
 10
505.7525185592314
 20
342.7194658239948
 30
0.0
 11
505.7525185592314
 21
351.4681791840337
 31
0.0
  0
LINE
  5
DC9
330
6B
100
AcDbEntity
  8
0
  6
Continuous
100
AcDbLine
 10
505.7525185592314
 20
353.0862131727837
 30
0.0
 11
505.7525185592314
 21
355.9688225040142
 31
0.0
  0
LINE
  5
DD1
330
6B
100
AcDbEntity
  8
0
  6
Continuous
 62
     3
100
AcDbLine
 10
552.7520878731766
 20
355.4688225040142
 30
0.0
 11
552.7520878731766
 21
338.7188225040142
 31
0.0
  0
LINE
  5
DDF
330
6B
100
AcDbEntity
  8
0
  6
Continuous
100
AcDbLine
 10
513.247776177058
 20
350.0938225040142
 30
0.0
 11
545.7520878731766
 21
350.0938225040142
 31
0.0
  0
LINE
  5
DE0
330
6B
100
AcDbEntity
  8
0
  6
Continuous
100
AcDbLine
 10
513.247776177058
 20
344.0938225040142
 30
0.0
 11
545.7520878731766
 21
344.0938225040142
 31
0.0
  0
ELLIPSE
  5
DE1
330
6B
100
AcDbEntity
  8
0
  6
Continuous
100
AcDbEllipse
 10
545.7520878731766
 20
347.0938225040142
 30
0.0
 11
0.0
 21
3.0
 31
0.0
210
0.0
220
0.0
230
1.0
 40
0.3333333333333333
 41
3.141592653589792
 42
6.283185307179584
  0
ELLIPSE
  5
DE2
330
6B
100
AcDbEntity
  8
0
  6
Continuous
100
AcDbEllipse
 10
513.247776177058
 20
347.0938612731948
 30
0.0
 11
0.0
 21
2.999961230819423
 31
0.0
210
0.0
220
0.0
230
1.0
 40
0.3333376413262448
 41
0.0
 42
3.141592653589792
  0
LINE
  5
DE7
330
6B
100
AcDbEntity
  8
0
 62
     7
100
AcDbLine
 10
555.2520878731765
 20
355.4688225040142
 30
0.0
 11
555.2520878731765
 21
338.7188225040142
 31
0.0
  0
LINE
  5
DE9
330
6B
100
AcDbEntity
  8
0
 62
     3
100
AcDbLine
 10
555.2520878731765
 20
355.4688225040143
 30
0.0
 11
561.7520878731766
 21
355.4688225040142
 31
0.0
  0
LINE
  5
DEA
330
6B
100
AcDbEntity
  8
0
 62
     3
100
AcDbLine
 10
555.2520878731765
 20
338.7188225040142
 30
0.0
 11
561.7520878731766
 21
338.7188225040142
 31
0.0
  0
LINE
  5
DF1
330
6B
100
AcDbEntity
  8
0
 62
     7
100
AcDbLine
 10
561.7520878731766
 20
355.4688225040142
 30
0.0
 11
561.7520878731766
 21
338.7188225040142
 31
0.0
  0
LINE
  5
E11
330
6B
100
AcDbEntity
  8
0
 62
     3
100
AcDbLine
 10
563.003377745722
 20
355.4688225040142
 30
0.0
 11
564.5020878731766
 21
355.4688225040142
 31
0.0
  0
LINE
  5
E12
330
6B
100
AcDbEntity
  8
0
 62
     3
100
AcDbLine
 10
563.003377745722
 20
338.7188225040142
 30
0.0
 11
564.5020878731766
 21
338.7188225040142
 31
0.0
  0
CIRCLE
  5
E13
330
6B
100
AcDbEntity
  8
0
  6
Continuous
 62
     3
100
AcDbCircle
 10
583.5979590049019
 20
347.0938225040142
 30
0.0
 40
6.5
  0
ARC
  5
E17
330
6B
100
AcDbEntity
  8
0
 62
     7
100
AcDbCircle
 10
560.9443881619329
 20
347.0938225225153
 30
0.0
 40
7.281250030064282
100
AcDbArc
 50
299.2493351465284
 51
60.75066485347156
  0
CIRCLE
  5
E2E
330
6B
100
AcDbEntity
  8
0
  6
Continuous
 62
     3
100
AcDbCircle
 10
443.231688958567
 20
347.0938225040142
 30
0.0
 40
7.25
  0
ELLIPSE
  5
E31
330
6B
100
AcDbEntity
  8
0
  6
Continuous
100
AcDbEllipse
 10
452.2369601745711
 20
347.0938225040142
 30
0.0
 11
0.0
 21
3.0
 31
0.0
210
0.0
220
0.0
230
1.0
 40
0.3350904053347297
 41
0.0
 42
3.141592653589792
  0
LINE
  5
E32
330
6B
100
AcDbEntity
  8
0
  6
Continuous
100
AcDbLine
 10
452.2369601745711
 20
350.0938225040142
 30
0.0
 11
453.1896000739393
 21
350.0938225040142
 31
0.0
  0
LINE
  5
E33
330
6B
100
AcDbEntity
  8
0
  6
Continuous
100
AcDbLine
 10
452.2369601745711
 20
344.0938225040142
 30
0.0
 11
453.1896000739393
 21
344.0938225040142
 31
0.0
  0
LINE
  5
E34
330
6B
100
AcDbEntity
  8
0
  6
Continuous
100
AcDbLine
 10
448.8676403521533
 20
354.7312933918753
 30
0.0
 11
449.1620222705778
 21
355.6373077758522
 31
0.0
  0
LINE
  5
E35
330
6B
100
AcDbEntity
  8
0
  6
Continuous
100
AcDbLine
 10
443.1613012543823
 20
356.585395358125
 30
0.0
 11
443.4556831728068
 21
357.4914097421019
 31
0.0
  0
ELLIPSE
  5
E36
330
6B
100
AcDbEntity
  8
0
  6
Continuous
100
AcDbEllipse
 10
446.0144708032678
 20
355.6583443750001
 30
0.0
 11
-2.85316954888546
 21
0.927050983124843
 31
0.0
210
0.0
220
0.0
230
0.9999999999999998
 40
0.3350904053347297
 41
0.0
 42
3.141592653589792
  0
LINE
  5
E37
330
6B
100
AcDbEntity
  8
0
  6
Continuous
100
AcDbLine
 10
437.7096272627411
 20
354.8140391008002
 30
0.0
 11
436.9389253946327
 21
355.3739867843943
 31
0.0
  0
LINE
  5
E38
330
6B
100
AcDbEntity
  8
0
  6
Continuous
100
AcDbLine
 10
434.1829157489867
 20
349.9599371345506
 30
0.0
 11
433.4122138808781
 21
350.5198848181446
 31
0.0
  0
ELLIPSE
  5
E39
330
6B
100
AcDbEntity
  8
0
  6
Continuous
100
AcDbEllipse
 10
435.9462715058641
 20
352.3869881176754
 30
0.0
 11
-1.763355756877419
 21
-2.427050983124841
 31
0.0
210
0.0
220
0.0
230
1.0
 40
0.3350904053347297
 41
0.0
 42
3.141592653589792
  0
LINE
  5
E3A
330
6B
100
AcDbEntity
  8
0
  6
Continuous
100
AcDbLine
 10
434.1829157489867
 20
344.2277078734779
 30
0.0
 11
433.4122138808782
 21
343.6677601898839
 31
0.0
  0
LINE
  5
E3B
330
6B
100
AcDbEntity
  8
0
  6
Continuous
100
AcDbLine
 10
437.7096272627411
 20
339.3736059072282
 30
0.0
 11
436.9389253946327
 21
338.8136582236342
 31
0.0
  0
ELLIPSE
  5
E3C
330
6B
100
AcDbEntity
  8
0
  6
Continuous
100
AcDbEllipse
 10
435.9462715058641
 20
341.8006568903531
 30
0.0
 11
1.763355756877416
 21
-2.427050983124844
 31
0.0
210
0.0
220
0.0
230
1.0
 40
0.3350904053347297
 41
0.0
 42
3.141592653589792
  0
LINE
  5
E3D
330
6B
100
AcDbEntity
  8
0
  6
Continuous
100
AcDbLine
 10
443.1613012543823
 20
337.6022496499035
 30
0.0
 11
443.4556831728068
 21
336.6962352659265
 31
0.0
  0
LINE
  5
E3E
330
6B
100
AcDbEntity
  8
0
  6
Continuous
100
AcDbLine
 10
448.8676403521533
 20
339.4563516161531
 30
0.0
 11
449.1620222705777
 21
338.5503372321762
 31
0.0
  0
ELLIPSE
  5
E3F
330
6B
100
AcDbEntity
  8
0
  6
Continuous
100
AcDbEllipse
 10
446.0144708032678
 20
338.5293006330284
 30
0.0
 11
2.853169548885461
 21
0.9270509831248391
 31
0.0
210
0.0
220
0.0
230
0.9999999999999998
 40
0.3350904053347297
 41
0.0
 42
3.141592653589792
  0
ARC
  5
E40
330
6B
100
AcDbEntity
  8
0
100
AcDbCircle
 10
443.2316886463357
 20
347.0938225040142
 30
0.0
 40
9.491834137681074
100
AcDbArc
 50
306.4248881395552
 51
341.575113749776
  0
ARC
  5
E41
330
6B
100
AcDbEntity
  8
0
100
AcDbCircle
 10
443.2316886463357
 20
347.0938225040142
 30
0.0
 40
9.491834137681074
100
AcDbArc
 50
90.42488436088987
 51
125.5751125821058
  0
ARC
  5
E42
330
6B
100
AcDbEntity
  8
0
100
AcDbCircle
 10
443.2316886463357
 20
347.0938225040142
 30
0.0
 40
9.491834137681074
100
AcDbArc
 50
162.4248850825518
 51
197.5751149174482
  0
ARC
  5
E43
330
6B
100
AcDbEntity
  8
0
100
AcDbCircle
 10
443.2316886463357
 20
347.0938225040142
 30
0.0
 40
9.491834137681074
100
AcDbArc
 50
234.4248874178941
 51
269.5751156391101
  0
ARC
  5
E48
330
6B
100
AcDbEntity
  8
0
  6
Continuous
 62
     3
100
AcDbCircle
 10
464.5020925566476
 20
347.0938225040142
 30
0.0
 40
3.75
100
AcDbArc
 50
306.8698976458453
 51
53.13010235415469
  0
ELLIPSE
  5
E4D
330
6B
100
AcDbEntity
  8
0
  6
Continuous
 62
     3
100
AcDbEllipse
 10
466.7520925566477
 20
356.5643587589771
 30
0.0
 11
-1.499999999999943
 21
-0.000000000000092
 31
0.0
210
0.0
220
0.0
230
1.0
 40
0.6180339887498622
 41
1.570796326794896
 42
4.712388980384688
  0
ELLIPSE
  5
E4E
330
6B
100
AcDbEntity
  8
0
  6
Continuous
 62
     3
100
AcDbEllipse
 10
466.7520925566477
 20
355.6583443750001
 30
0.0
 11
-1.499999999999943
 21
-0.000000000000092
 31
0.0
210
0.0
220
0.0
230
1.0
 40
0.6180339887498622
 41
3.652139031742611
 42
4.712388980384688
  0
ELLIPSE
  5
E53
330
6B
100
AcDbEntity
  8
0
  6
Continuous
 62
     3
100
AcDbEllipse
 10
466.7520925566477
 20
337.6232862490514
 30
0.0
 11
-1.499999999999943
 21
0.000000000000092
 31
0.0
210
0.0
220
0.0
230
-1.0
 40
0.6180339887498622
 41
1.570796326794896
 42
4.712388980384688
  0
ELLIPSE
  5
E54
330
6B
100
AcDbEntity
  8
0
  6
Continuous
 62
     3
100
AcDbEllipse
 10
466.7520925566477
 20
338.5293006330282
 30
0.0
 11
-1.499999999999943
 21
0.000000000000092
 31
0.0
210
0.0
220
0.0
230
-1.0
 40
0.6180339887498622
 41
3.652139031742611
 42
4.712388980384688
  0
CIRCLE
  5
E82
330
6B
100
AcDbEntity
  8
0
100
AcDbCircle
 10
557.0793838773007
 20
324.3959283232015
 30
0.0
 40
5.0
  0
TEXT
  5
E83
330
6B
100
AcDbEntity
  8
0
 62
     4
100
AcDbText
 10
555.065140938328
 20
321.0858494096907
 30
0.0
 40
6.299999999999998
  1
3
  7
高6.3
100
AcDbText
  0
CIRCLE
  5
E84
330
6B
100
AcDbEntity
  8
0
100
AcDbCircle
 10
449.4609599263151
 20
324.3959283232015
 30
0.0
 40
5.0
  0
TEXT
  5
E85
330
6B
100
AcDbEntity
  8
0
 62
     4
100
AcDbText
 10
446.8740769954948
 20
320.9050193232015
 30
0.0
 40
6.299999999999998
  1
4
  7
高6.3
100
AcDbText
  0
CIRCLE
  5
E86
330
6B
100
AcDbEntity
  8
0
100
AcDbCircle
 10
569.079383877301
 20
324.3959283232015
 30
0.0
 40
5.0
  0
TEXT
  5
E87
330
6B
100
AcDbEntity
  8
0
 62
     4
100
AcDbText
 10
566.9098934382276
 20
321.2196321246207
 30
0.0
 40
6.299999999999998
  1
2
  7
高6.3
100
AcDbText
  0
CIRCLE
  5
E88
330
6B
100
AcDbEntity
  8
0
100
AcDbCircle
 10
502.892712511189
 20
324.3959283232015
 30
0.0
 40
5.0
  0
TEXT
  5
E89
330
6B
100
AcDbEntity
  8
0
 62
     4
100
AcDbText
 10
500.7706275431679
 20
320.9050183232015
 30
0.0
 40
6.299999999999998
  1
5
  7
高6.3
100
AcDbText
  0
CIRCLE
  5
E8A
330
6B
100
AcDbEntity
  8
0
100
AcDbCircle
 10
486.0691424889188
 20
324.3959283232015
 30
0.0
 40
5.0
  0
TEXT
  5
E8B
330
6B
100
AcDbEntity
  8
0
 62
     4
100
AcDbText
 10
485.0177459274607
 20
321.1887246140207
 30
0.0
 40
6.299999999999998
  1
1
  7
高6.3
100
AcDbText
  0
TEXT
  5
F61
330
6B
100
AcDbEntity
  8
0
 62
     3
100
AcDbText
 10
679.988132
 20
370.583413
 30
0.0
 40
3.2
  1
担　当
  7
高3.2
100
AcDbText
  0
TEXT
  5
F62
330
6B
100
AcDbEntity
  8
0
 62
     3
100
AcDbText
 10
635.988132
 20
370.583413
 30
0.0
 40
3.2
  1
変更・追記内容
  7
高3.2
100
AcDbText
  0
TEXT
  5
F63
330
6B
100
AcDbEntity
  8
0
 62
     3
100
AcDbText
 10
611.1016470003392
 20
365.9128744900917
 30
0.0
 40
2.0
  1
1
  7
高2
100
AcDbText
  0
TEXT
  5
F64
330
6B
100
AcDbEntity
  8
0
 62
     3
100
AcDbText
 10
610.793135523582
 20
360.7430577778188
 30
0.0
 40
2.0
  1
2
  7
高2
100
AcDbText
  0
TEXT
  5
F65
330
6B
100
AcDbEntity
  8
0
 62
     3
100
AcDbText
 10
617.988132
 20
370.583413
 30
0.0
 40
3.2
  1
日　付
  7
高3.2
100
AcDbText
  0
TEXT
  5
F66
330
6B
100
AcDbEntity
  8
0
 62
     3
100
AcDbText
 10
617.988132
 20
375.583413
 30
0.0
 40
3.2
  1
図　　　　面　　　　略　　　　歴
  7
高3.2
100
AcDbText
  0
TEXT
  5
F67
330
6B
100
AcDbEntity
  8
0
 62
     3
100
AcDbText
 10
607.9881320000001
 20
370.583413
 30
0.0
 40
3.2
  1
記号
  7
高3.2
100
AcDbText
  0
LINE
  5
F68
330
6B
100
AcDbEntity
  8
0
100
AcDbLine
 10
611.4881320000002
 20
363.8743090000001
 30
0.0
 11
609.588132
 21
360.583413
 31
0.0
  0
LINE
  5
F69
330
6B
100
AcDbEntity
  8
0
100
AcDbLine
 10
611.4881320000002
 20
363.8743090000001
 30
0.0
 11
613.3881319999998
 21
360.583413
 31
0.0
  0
LINE
  5
F6A
330
6B
100
AcDbEntity
  8
0
100
AcDbLine
 10
609.588132
 20
360.583413
 30
0.0
 11
613.3881319999998
 21
360.583413
 31
0.0
  0
LINE
  5
F6B
330
6B
100
AcDbEntity
  8
0
100
AcDbLine
 10
611.4881320000002
 20
368.8743100000002
 30
0.0
 11
609.588132
 21
365.583413
 31
0.0
  0
LINE
  5
F6C
330
6B
100
AcDbEntity
  8
0
100
AcDbLine
 10
611.4881320000002
 20
368.8743100000002
 30
0.0
 11
613.3881319999998
 21
365.583413
 31
0.0
  0
LINE
  5
F6D
330
6B
100
AcDbEntity
  8
0
100
AcDbLine
 10
609.588132
 20
365.583413
 30
0.0
 11
613.3881319999998
 21
365.583413
 31
0.0
  0
LINE
  5
F6E
330
6B
100
AcDbEntity
  8
0
 62
     3
100
AcDbLine
 10
606.488132
 20
375.083413
 30
0.0
 11
692.488132
 21
375.083413
 31
0.0
  0
LINE
  5
F6F
330
6B
100
AcDbEntity
  8
0
 62
     3
100
AcDbLine
 10
606.488132
 20
370.083413
 30
0.0
 11
692.488132
 21
370.083413
 31
0.0
  0
LINE
  5
F70
330
6B
100
AcDbEntity
  8
0
 62
     7
100
AcDbLine
 10
606.488132
 20
365.083413
 30
0.0
 11
692.488132
 21
365.083413
 31
0.0
  0
LINE
  5
F71
330
6B
100
AcDbEntity
  8
0
 62
     3
100
AcDbLine
 10
606.488132
 20
360.083413
 30
0.0
 11
692.488132
 21
360.083413
 31
0.0
  0
LINE
  5
F72
330
6B
100
AcDbEntity
  8
0
 62
     7
100
AcDbLine
 10
678.4881319999997
 20
360.083413
 30
0.0
 11
678.4881320000001
 21
375.083413
 31
0.0
  0
LINE
  5
F73
330
6B
100
AcDbEntity
  8
0
 62
     7
100
AcDbLine
 10
634.488132
 20
360.083413
 30
0.0
 11
634.488132
 21
375.083413
 31
0.0
  0
LINE
  5
F74
330
6B
100
AcDbEntity
  8
0
 62
     7
100
AcDbLine
 10
616.488132
 20
360.083413
 30
0.0
 11
616.488132
 21
375.083413
 31
0.0
  0
LINE
  5
F75
330
6B
100
AcDbEntity
  8
0
 62
     3
100
AcDbLine
 10
606.488132
 20
360.083413
 30
0.0
 11
606.488132
 21
380.083413
 31
0.0
  0
LINE
  5
126F
330
6B
100
AcDbEntity
  8
0
 62
     7
100
AcDbLine
 10
618.953570329447
 20
314.0211736314997
 30
0.0
 11
618.953570329447
 21
334.0211736314992
 31
0.0
  0
LINE
  5
1270
330
6B
100
AcDbEntity
  8
0
 62
     7
100
AcDbLine
 10
606.0529873294463
 20
290.0211736314998
 30
0.0
 11
669.7461470465347
 21
290.0211736314997
 31
0.0
  0
LINE
  5
1271
330
6B
100
AcDbEntity
  8
0
 62
     7
100
AcDbLine
 10
606.0529873294463
 20
294.0211736314997
 30
0.0
 11
669.7461470465347
 21
294.0211736314997
 31
0.0
  0
LINE
  5
1272
330
6B
100
AcDbEntity
  8
0
 62
     7
100
AcDbLine
 10
606.0529873294463
 20
302.0211736314997
 30
0.0
 11
669.7461470465347
 21
302.0211736314997
 31
0.0
  0
LINE
  5
1273
330
6B
100
AcDbEntity
  8
0
 62
     7
100
AcDbLine
 10
606.0529873294463
 20
310.0211736314997
 30
0.0
 11
669.7461470465347
 21
310.0211736314997
 31
0.0
  0
LINE
  5
1274
330
6B
100
AcDbEntity
  8
0
 62
     7
100
AcDbLine
 10
606.0529873294463
 20
314.0211736314997
 30
0.0
 11
669.7461470465347
 21
314.0211736314997
 31
0.0
  0
LINE
  5
1275
330
6B
100
AcDbEntity
  8
0
 62
     7
100
AcDbLine
 10
618.9535703294467
 20
318.0211736314998
 30
0.0
 11
669.7461470465342
 21
318.0211736314997
 31
0.0
  0
LINE
  5
1276
330
6B
100
AcDbEntity
  8
0
 62
     7
100
AcDbLine
 10
618.953570329447
 20
322.0211736314997
 30
0.0
 11
669.7461470465342
 21
322.0211736314997
 31
0.0
  0
LINE
  5
1277
330
6B
100
AcDbEntity
  8
0
 62
     7
100
AcDbLine
 10
618.953570329447
 20
326.0211736314996
 30
0.0
 11
669.7461470465347
 21
326.0211736314996
 31
0.0
  0
LINE
  5
1278
330
6B
100
AcDbEntity
  8
0
 62
     7
100
AcDbLine
 10
606.0529873294471
 20
338.0211736314998
 30
0.0
 11
669.746147046535
 21
338.0211736314997
 31
0.0
  0
LINE
  5
1279
330
6B
100
AcDbEntity
  8
0
 62
     7
100
AcDbLine
 10
606.0529873294471
 20
342.0211736314997
 30
0.0
 11
669.746147046535
 21
342.0211736314997
 31
0.0
  0
LINE
  5
127A
330
6B
100
AcDbEntity
  8
0
 62
     7
100
AcDbLine
 10
606.0529873294471
 20
346.0211736314997
 30
0.0
 11
669.746147046535
 21
346.0211736314997
 31
0.0
  0
LINE
  5
127B
330
6B
100
AcDbEntity
  8
0
 62
     3
100
AcDbLine
 10
606.0529873294471
 20
350.0211736314997
 30
0.0
 11
669.746147046535
 21
350.0211736314997
 31
0.0
  0
TEXT
  5
127C
330
6B
100
AcDbEntity
  8
0
 62
     3
100
AcDbText
 10
607.7029263294467
 20
330.5211736314997
 30
0.0
 40
2.5
  1
照度
  7
高2.5
100
AcDbText
  0
TEXT
  5
127D
330
6B
100
AcDbEntity
  8
0
 62
     3
100
AcDbText
 10
620.2882163294463
 20
330.5211736314997
 30
0.0
 40
2.5
  1
1m
  7
高2.5
100
AcDbText
  0
TEXT
  5
127E
330
6B
100
AcDbEntity
  8
0
 62
     3
100
AcDbText
 10
620.2882163294463
 20
326.5211736314995
 30
0.0
 40
2.5
  1
2m
  7
高2.5
100
AcDbText
  0
TEXT
  5
127F
330
6B
100
AcDbEntity
  8
0
 62
     3
100
AcDbText
 10
620.2882163294463
 20
322.5211736314995
 30
0.0
 40
2.5
  1
3m
  7
高2.5
100
AcDbText
  0
TEXT
  5
1280
330
6B
100
AcDbEntity
  8
0
 62
     3
100
AcDbText
 10
620.2882163294461
 20
318.5211736314995
 30
0.0
 40
2.5
  1
4m
  7
高2.5
100
AcDbText
  0
TEXT
  5
1281
330
6B
100
AcDbEntity
  8
0
 62
     3
100
AcDbText
 10
620.2882163294457
 20
314.5211736314995
 30
0.0
 40
2.5
  1
5m
  7
高2.5
100
AcDbText
  0
TEXT
  5
1282
330
6B
100
AcDbEntity
  8
0
 62
     3
100
AcDbText
 10
628.4210036431469
 20
338.5211736314996
 30
0.0
 40
2.5
  1
リチウム 4.2V 2000mAh
  7
高2.5
100
AcDbText
  0
TEXT
  5
1283
330
6B
100
AcDbEntity
  8
0
 62
     3
100
AcDbText
 10
607.7029263294472
 20
346.5211736314996
 30
0.0
 40
2.5
  1
型　　　式
  7
高2.5
100
AcDbText
  0
TEXT
  5
1284
330
6B
100
AcDbEntity
  8
0
 62
     3
100
AcDbText
 10
607.7029263294472
 20
342.5211736314996
 30
0.0
 40
2.5
  1
光　　　源
  7
高2.5
100
AcDbText
  0
TEXT
  5
1285
330
6B
100
AcDbEntity
  8
0
 62
     3
100
AcDbText
 10
607.7029263294472
 20
338.5211736314996
 30
0.0
 40
2.5
  1
電　　　源
  7
高2.5
100
AcDbText
  0
TEXT
  5
1286
330
6B
100
AcDbEntity
  8
0
 62
     3
100
AcDbText
 10
607.7029263294472
 20
334.5211736314998
 30
0.0
 40
2.5
  1
定格　光束
  7
高2.5
100
AcDbText
  0
TEXT
  5
1287
330
6B
100
AcDbEntity
  8
0
 62
     3
100
AcDbText
 10
607.7029263294467
 20
310.5211736314997
 30
0.0
 40
2.5
  1
照　射　角
  7
高2.5
100
AcDbText
  0
TEXT
  5
1288
330
6B
100
AcDbEntity
  8
0
 62
     3
100
AcDbText
 10
607.7029263294467
 20
306.5211736314997
 30
0.0
 40
2.5
  1
実用点灯時間
  7
高2.5
100
AcDbText
  0
TEXT
  5
1289
330
6B
100
AcDbEntity
  8
0
 62
     3
100
AcDbText
 10
607.7029263294455
 20
282.6929863187906
 30
0.0
 40
2.5
  1
質　　　量
  7
高2.5
100
AcDbText
  0
LINE
  5
128A
330
6B
100
AcDbEntity
  8
0
 62
     7
100
AcDbLine
 10
626.7710646431469
 20
350.0211736314997
 30
0.0
 11
626.7710646431467
 21
274.0211736314996
 31
0.0
  0
LINE
  5
128B
330
6B
100
AcDbEntity
  8
0
 62
     3
100
AcDbLine
 10
606.0529873294471
 20
350.0211736314997
 30
0.0
 11
606.0529873294474
 21
274.0211736314996
 31
0.0
  0
TEXT
  5
128C
330
6B
100
AcDbEntity
  8
0
 62
     3
100
AcDbText
 10
628.4210036431469
 20
342.5211736314996
 30
0.0
 40
2.5
  1
LED 3W
  7
高2.5
100
AcDbText
  0
TEXT
  5
128D
330
6B
100
AcDbEntity
  8
0
 62
     3
100
AcDbText
 10
628.4210036431467
 20
334.5211736314998
 30
0.0
 40
2.5
  1
180Lm
  7
高2.5
100
AcDbText
  0
TEXT
  5
128E
330
6B
100
AcDbEntity
  8
0
 62
     3
100
AcDbText
 10
628.4210036431463
 20
330.5211736314995
 30
0.0
 40
2.5
  1
5320Lx
  7
高2.5
100
AcDbText
  0
TEXT
  5
128F
330
6B
100
AcDbEntity
  8
0
 62
     3
100
AcDbText
 10
628.4210036431463
 20
326.5211736314995
 30
0.0
 40
2.5
  1
1350Lx
  7
高2.5
100
AcDbText
  0
TEXT
  5
1290
330
6B
100
AcDbEntity
  8
0
 62
     3
100
AcDbText
 10
628.4210036431461
 20
310.5211736314997
 30
0.0
 40
2.5
  1
24度
  7
高2.5
100
AcDbText
  0
TEXT
  5
1291
330
6B
100
AcDbEntity
  8
0
 62
     3
100
AcDbText
 10
628.4210036431461
 20
306.5211736314997
 30
0.0
 40
2.5
  1
5時間
  7
高2.5
100
AcDbText
  0
TEXT
  5
1292
330
6B
100
AcDbEntity
  8
0
 62
     3
100
AcDbText
 10
628.421003643145
 20
282.6929863187906
 30
0.0
 40
2.5
  1
約260g電池含
  7
高2.5
100
AcDbText
  0
TEXT
  5
1293
330
6B
100
AcDbEntity
  8
0
 62
     3
100
AcDbText
 10
607.7029263294457
 20
286.6929863187905
 30
0.0
 40
2.5
  1
使用環境温度
  7
高2.5
100
AcDbText
  0
TEXT
  5
1294
330
6B
100
AcDbEntity
  8
0
 62
     3
100
AcDbText
 10
628.4210036431452
 20
286.6929863187902
 30
0.0
 40
2.5
  1
-0～50℃
  7
高2.5
100
AcDbText
  0
TEXT
  5
1295
330
6B
100
AcDbEntity
  8
0
 62
     3
100
AcDbText
 10
628.4210036431467
 20
322.5211736314993
 30
0.0
 40
2.5
  1
580Lx
  7
高2.5
100
AcDbText
  0
TEXT
  5
1296
330
6B
100
AcDbEntity
  8
0
 62
     3
100
AcDbText
 10
628.4210036431461
 20
318.5211736314995
 30
0.0
 40
2.5
  1
330Lx
  7
高2.5
100
AcDbText
  0
TEXT
  5
1297
330
6B
100
AcDbEntity
  8
0
 62
     3
100
AcDbText
 10
628.421003643146
 20
314.5211736314995
 30
0.0
 40
2.5
  1
212Lx
  7
高2.5
100
AcDbText
  0
TEXT
  5
1298
330
6B
100
AcDbEntity
  8
0
 62
     3
100
AcDbText
 10
628.4169793815284
 20
346.5393874988492
 30
0.0
 40
2.5
  1
SL-5W-CH
  7
高2.5
100
AcDbText
  0
LINE
  5
1299
330
6B
100
AcDbEntity
  8
0
 62
     7
100
AcDbLine
 10
621.089896342996
 20
351.5353386174285
 30
0.0
 11
648.2168054862726
 21
351.5353386174285
 31
0.0
  0
TEXT
  5
129A
330
6B
100
AcDbEntity
  8
0
 62
     3
100
AcDbText
 10
621.089896342996
 20
352.1530810261184
 30
0.0
 40
3.2
  1
主　　仕　　様
  7
高3.2
100
AcDbText
  0
TEXT
  5
129B
330
6B
100
AcDbEntity
  8
0
 62
     7
100
AcDbText
 10
604.8305594375968
 20
252.9894346828166
 30
0.0
 40
2.5
  1
注３）：実用点灯時間は1m照度が初期照度の10%%%に低下するまでの時間です。
 41
0.8
  7
高2.5
100
AcDbText
  0
TEXT
  5
129C
330
6B
100
AcDbEntity
  8
0
 62
     7
100
AcDbText
 10
604.8305594375968
 20
268.2049614859005
 30
0.0
 40
2.5
  1
注１）：寿命は光束が70%%%まで低下するまでの時間です。
 41
0.8
  7
高2.5
100
AcDbText
  0
TEXT
  5
129D
330
6B
100
AcDbEntity
  8
0
 62
     7
100
AcDbText
 10
604.8305594375968
 20
264.0769273578968
 30
0.0
 40
2.5
  1
　　　　表示は設計値であり、製品の寿命を保証するものではありません。
 41
0.8
  7
高2.5
100
AcDbText
  0
TEXT
  5
129E
330
6B
100
AcDbEntity
  8
0
 62
     7
100
AcDbText
 10
604.8305594375968
 20
260.1410431825805
 30
0.0
 40
2.5
  1
注２）：照度は反射率などを含む当社実測値の為、
 41
0.8
  7
高2.5
100
AcDbText
  0
LINE
  5
129F
330
6B
100
AcDbEntity
  8
0
 62
     7
100
AcDbLine
 10
606.052987329446
 20
286.0211736314997
 30
0.0
 11
669.7461470465347
 21
286.0211736314997
 31
0.0
  0
TEXT
  5
12A0
330
6B
100
AcDbEntity
  8
0
 62
     3
100
AcDbText
 10
607.7029263294457
 20
290.8586489219303
 30
0.0
 40
2.5
  1
LED寿命
  7
高2.5
100
AcDbText
  0
TEXT
  5
12A1
330
6B
100
AcDbEntity
  8
0
 62
     3
100
AcDbText
 10
628.4210036431455
 20
290.8586489219303
 30
0.0
 40
2.5
  1
4万時間
  7
高2.5
100
AcDbText
  0
LINE
  5
12A2
330
6B
100
AcDbEntity
  8
0
 62
     3
100
AcDbLine
 10
606.0529873294447
 20
274.0211736314996
 30
0.0
 11
669.7461470465331
 21
274.0211736314996
 31
0.0
  0
TEXT
  5
12A3
330
6B
100
AcDbEntity
  8
0
 62
     3
100
AcDbText
 10
607.7029263294466
 20
294.5211736314995
 30
0.0
 40
2.5
  1
色　温　度
  7
高2.5
100
AcDbText
  0
TEXT
  5
12A4
330
6B
100
AcDbEntity
  8
0
 62
     3
100
AcDbText
 10
628.4210036431463
 20
294.5211736314995
 30
0.0
 40
2.5
  1
6000K
  7
高2.5
100
AcDbText
  0
LINE
  5
12A5
330
6B
100
AcDbEntity
  8
0
 62
     3
100
AcDbLine
 10
669.746147046535
 20
350.0211736314997
 30
0.0
 11
669.7461470465355
 21
274.0211736314996
 31
0.0
  0
TEXT
  5
12A6
330
6B
100
AcDbEntity
  8
0
 62
     7
100
AcDbText
 10
604.8305594375968
 20
256.3174037746183
 30
0.0
 40
2.5
  1
　　　　使用環境下により異なります。
 41
0.8
  7
高2.5
100
AcDbText
  0
LINE
  5
12A7
330
6B
100
AcDbEntity
  8
0
 62
     7
100
AcDbLine
 10
606.0529873294466
 20
334.021173631499
 30
0.0
 11
669.7461470465342
 21
334.0211736314997
 31
0.0
  0
LINE
  5
12AA
330
6B
100
AcDbEntity
  8
0
 62
     7
100
AcDbLine
 10
606.0529873294466
 20
334.0211736314998
 30
0.0
 11
669.7461470465347
 21
334.0211736314998
 31
0.0
  0
LINE
  5
12AB
330
6B
100
AcDbEntity
  8
0
 62
     7
100
AcDbLine
 10
618.953570329447
 20
330.0211736314996
 30
0.0
 11
669.7461470465347
 21
330.0211736314996
 31
0.0
  0
LINE
  5
12AD
330
6B
100
AcDbEntity
  8
0
 62
     7
100
AcDbLine
 10
606.0529873294463
 20
306.0211736314997
 30
0.0
 11
669.7461470465347
 21
306.0211736314997
 31
0.0
  0
TEXT
  5
12AE
330
6B
100
AcDbEntity
  8
0
 62
     3
100
AcDbText
 10
607.7029263294465
 20
302.5211736314996
 30
0.0
 40
2.5
  1
連続点灯時間
  7
高2.5
100
AcDbText
  0
TEXT
  5
12AF
330
6B
100
AcDbEntity
  8
0
 62
     3
100
AcDbText
 10
628.4210036431459
 20
302.5211736314996
 30
0.0
 40
2.5
  1
14時間
  7
高2.5
100
AcDbText
  0
TEXT
  5
12B0
330
6B
100
AcDbEntity
  8
0
 62
     7
100
AcDbText
 10
604.8305594375968
 20
249.5723261420305
 30
0.0
 40
2.5
  1
注４）：連続点灯時間は1m照度が、10Lx切るまでの時間です。
 41
0.8
  7
高2.5
100
AcDbText
  0
TEXT
  5
12B1
330
6B
100
AcDbEntity
  8
0
 62
     3
100
AcDbText
 10
607.702926329445
 20
278.6929863187904
 30
0.0
 40
2.5
  1
付　　　属
  7
高2.5
100
AcDbText
  0
TEXT
  5
12B2
330
6B
100
AcDbEntity
  8
0
 62
     3
100
AcDbText
 10
628.4210036431447
 20
278.6929863187904
 30
0.0
 40
2.5
  1
ストラップ
  7
高2.5
100
AcDbText
  0
LINE
  5
12B3
330
6B
100
AcDbEntity
  8
0
 62
     7
100
AcDbLine
 10
606.0529873294457
 20
282.0211736314996
 30
0.0
 11
669.7461470465342
 21
282.0211736314996
 31
0.0
  0
TEXT
  5
12B4
330
6B
100
AcDbEntity
  8
0
 62
     3
100
AcDbText
 10
628.4210036431447
 20
274.6929863187903
 30
0.0
 40
2.5
  1
ベルトポーチ
  7
高2.5
100
AcDbText
  0
LINE
  5
12B6
330
6B
100
AcDbEntity
  8
0
 62
     7
100
AcDbLine
 10
606.052987329446
 20
298.0211736314997
 30
0.0
 11
669.7461470465347
 21
298.0211736314997
 31
0.0
  0
TEXT
  5
12B7
330
6B
100
AcDbEntity
  8
0
 62
     3
100
AcDbText
 10
607.7029263294464
 20
298.5211736314996
 30
0.0
 40
2.5
  1
充電時間
  7
高2.5
100
AcDbText
  0
TEXT
  5
12B8
330
6B
100
AcDbEntity
  8
0
 62
     3
100
AcDbText
 10
628.4210036431455
 20
298.5211736314996
 30
0.0
 40
2.5
  1
8時間
  7
高2.5
100
AcDbText
  0
TEXT
  5
12B9
330
6B
100
AcDbEntity
  8
0
 62
     3
100
AcDbText
 10
416.0436221154458
 20
232.483413
 30
0.0
 40
2.5
  1
付属
 41
0.8
  7
高2.5
100
AcDbText
  0
TEXT
  5
12BA
330
6B
100
AcDbEntity
  8
0
 62
     3
100
AcDbText
 10
422.7020084977711
 20
232.483413
 30
0.0
 40
2.5
  1
ベルトポーチ
 41
0.8
  7
高2.5
100
AcDbText
  0
TEXT
  5
12BB
330
6B
100
AcDbEntity
  8
0
 62
     3
100
AcDbText
 10
451.4371054689717
 20
232.483413
 30
0.0
 40
2.5
  1
-
 41
0.8
  7
高2.5
100
AcDbText
  0
TEXT
  5
12BC
330
6B
100
AcDbEntity
  8
0
 62
     3
100
AcDbText
 10
442.0430057152304
 20
232.483413
 30
0.0
 40
2.5
  1
-
 41
0.8
  7
高2.5
100
AcDbText
  0
TEXT
  5
12BD
330
6B
100
AcDbEntity
  8
0
 62
     3
100
AcDbText
 10
499.8591162601436
 20
232.483413
 30
0.0
 40
2.5
  1
1
 41
0.8
  7
高2.5
100
AcDbText
  0
LINE
  5
12BE
330
6B
100
AcDbEntity
  8
0
 62
     3
100
AcDbLine
 10
415.4881319999998
 20
236.083413
 30
0.0
 11
548.0928610913107
 21
236.0834129999999
 31
0.0
  0
TEXT
  5
12BF
330
6B
100
AcDbEntity
  8
0
 62
     3
100
AcDbText
 10
507.3088468937283
 20
232.483413
 30
0.0
 40
2.5
  1
-
 41
0.8
  7
高2.5
100
AcDbText
  0
TEXT
  5
12E2
330
6B
100
AcDbEntity
  8
0
  6
Continuous
100
AcDbText
 10
617.988132
 20
365.583413
 30
0.0
 40
2.5
  1
13.02.28
  7
高2.5
100
AcDbText
  0
TEXT
  5
12E3
330
6B
100
AcDbEntity
  8
0
  6
Continuous
100
AcDbText
 10
635.988132
 20
365.583413
 30
0.0
 40
2.5
  1
LEDおよび反射板からレンズへ変更
 41
0.8
  7
高2.5
100
AcDbText
  0
TEXT
  5
12E4
330
6B
100
AcDbEntity
  8
0
  6
Continuous
100
AcDbText
 10
679.9881319999997
 20
365.5834129999981
 30
0.0
 40
2.5
  1
今村
  7
高2.5
100
AcDbText
  0
LINE
  5
1546
330
6B
100
AcDbEntity
  8
0
 62
     7
100
AcDbLine
 10
517.9405007531538
 20
200.083413
 30
0.0
 11
517.9405007531538
 21
236.0834129999997
 31
0.0
  0
TEXT
  5
1547
330
6B
100
AcDbEntity
  8
0
 62
     3
100
AcDbText
 10
519.4811519531537
 20
200.483413
 30
0.0
 40
2.5
  1
コード番号名称
 41
0.6
  7
高2.5
100
AcDbText
  0
TEXT
  5
1548
330
6B
100
AcDbEntity
  8
0
 62
     3
100
AcDbText
 10
519.3918447531538
 20
220.483413
 30
0.0
 40
2.5
  1
-
 41
0.6
  7
高2.5
100
AcDbText
  0
TEXT
  5
1549
330
6B
100
AcDbEntity
  8
0
 62
     3
100
AcDbText
 10
519.3918447531538
 20
216.483413
 30
0.0
 40
2.5
  1
-
 41
0.6
  7
高2.5
100
AcDbText
  0
TEXT
  5
154A
330
6B
100
AcDbEntity
  8
0
 62
     3
100
AcDbText
 10
519.3918447531538
 20
208.483413
 30
0.0
 40
2.5
  1
-
 41
0.6
  7
高2.5
100
AcDbText
  0
TEXT
  5
154B
330
6B
100
AcDbEntity
  8
0
 62
     3
100
AcDbText
 10
519.3918447531538
 20
204.483413
 30
0.0
 40
2.5
  1
-
 41
0.6
  7
高2.5
100
AcDbText
  0
TEXT
  5
154C
330
6B
100
AcDbEntity
  8
0
 62
     3
100
AcDbText
 10
519.3918447531538
 20
212.483413
 30
0.0
 40
2.5
  1
SL-5W-CH用充電池
 41
0.6
  7
高2.5
100
AcDbText
  0
TEXT
  5
154D
330
6B
100
AcDbEntity
  8
0
 62
     3
100
AcDbText
 10
519.3918447531538
 20
224.483413
 30
0.0
 40
2.5
  1
SL-5W-CH用充電アダプター
 41
0.6
  7
高2.5
100
AcDbText
  0
TEXT
  5
154E
330
6B
100
AcDbEntity
  8
0
 62
     3
100
AcDbText
 10
519.3918447531538
 20
228.483413
 30
0.0
 40
2.5
  1
-
 41
0.6
  7
高2.5
100
AcDbText
  0
TEXT
  5
154F
330
6B
100
AcDbEntity
  8
0
 62
     3
100
AcDbText
 10
519.3918447531536
 20
232.483413
 30
0.0
 40
2.5
  1
-
 41
0.6
  7
高2.5
100
AcDbText
  0
LINE
  5
1597
330
6B
100
AcDbEntity
  8
0
  6
Continuous
100
AcDbLine
 10
453.981688958567
 20
347.3438228233177
 30
0.0
 11
453.981688958567
 21
362.21154491543
 31
0.0
  0
LINE
  5
1598
330
6B
100
AcDbEntity
  8
0
  6
Continuous
100
AcDbLine
 10
432.4816889585669
 20
347.3438225040142
 30
0.0
 11
432.4816889585669
 21
362.21154491543
 31
0.0
  0
LINE
  5
1599
330
6B
100
AcDbEntity
  8
0
  6
Continuous
100
AcDbLine
 10
451.4816889585669
 20
360.96154491543
 30
0.0
 11
434.9816889585668
 21
360.96154491543
 31
0.0
  0
LINE
  5
159D
330
6B
100
AcDbEntity
  8
0
100
AcDbLine
 10
493.6990633232237
 20
349.9461647480554
 30
0.0
 11
494.0309996539471
 21
350.1821111529695
 31
0.0
  0
LINE
  5
159E
330
6B
100
AcDbEntity
  8
0
100
AcDbLine
 10
494.0309996539471
 20
350.1821111529695
 30
0.0
 11
494.3831923094078
 21
350.3866295934157
 31
0.0
  0
LINE
  5
159F
330
6B
100
AcDbEntity
  8
0
100
AcDbLine
 10
494.3831923094078
 20
350.3866295934157
 30
0.0
 11
494.7551542086122
 21
350.5607541798133
 31
0.0
  0
LINE
  5
15A0
330
6B
100
AcDbEntity
  8
0
100
AcDbLine
 10
494.7551542086122
 20
350.5607541798133
 30
0.0
 11
495.1405664123523
 21
350.7026489914907
 31
0.0
  0
LINE
  5
15A1
330
6B
100
AcDbEntity
  8
0
100
AcDbLine
 10
495.1405664123523
 20
350.7026489914907
 30
0.0
 11
495.5366581791253
 21
350.8125788006811
 31
0.0
  0
LINE
  5
15A2
330
6B
100
AcDbEntity
  8
0
100
AcDbLine
 10
495.5366581791253
 20
350.8125788006811
 30
0.0
 11
495.9402491198233
 21
350.8906204163104
 31
0.0
  0
LINE
  5
15A3
330
6B
100
AcDbEntity
  8
0
100
AcDbLine
 10
495.9402491198233
 20
350.8906204163104
 30
0.0
 11
496.3531114599101
 21
350.9373264879682
 31
0.0
  0
LINE
  5
15A4
330
6B
100
AcDbEntity
  8
0
100
AcDbLine
 10
496.3531114599101
 20
350.9373264879682
 30
0.0
 11
496.7683561256298
 21
350.9518115273855
 31
0.0
  0
LINE
  5
15A5
330
6B
100
AcDbEntity
  8
0
100
AcDbLine
 10
496.7683561256298
 20
350.9518115273855
 30
0.0
 11
497.1804984600928
 21
350.9343852681176
 31
0.0
  0
LINE
  5
15A6
330
6B
100
AcDbEntity
  8
0
100
AcDbLine
 10
497.1804984600928
 20
350.9343852681176
 30
0.0
 11
497.5900642609887
 21
350.885189463223
 31
0.0
  0
LINE
  5
15A7
330
6B
100
AcDbEntity
  8
0
100
AcDbLine
 10
497.5900642609887
 20
350.885189463223
 30
0.0
 11
497.9952706869844
 21
350.803912505758
 31
0.0
  0
LINE
  5
15A8
330
6B
100
AcDbEntity
  8
0
100
AcDbLine
 10
497.9952706869844
 20
350.803912505758
 30
0.0
 11
498.3926463493014
 21
350.6903789216722
 31
0.0
  0
LINE
  5
15A9
330
6B
100
AcDbEntity
  8
0
100
AcDbLine
 10
498.3926463493014
 20
350.6903789216722
 30
0.0
 11
498.7737641222746
 21
350.5467156313075
 31
0.0
  0
LINE
  5
15AA
330
6B
100
AcDbEntity
  8
0
100
AcDbLine
 10
498.7737641222746
 20
350.5467156313075
 30
0.0
 11
499.1413604019511
 21
350.3713652244075
 31
0.0
  0
LINE
  5
15AB
330
6B
100
AcDbEntity
  8
0
100
AcDbLine
 10
499.1413604019511
 20
350.3713652244075
 30
0.0
 11
499.492202344347
 21
350.1642371538643
 31
0.0
  0
LINE
  5
15AC
330
6B
100
AcDbEntity
  8
0
100
AcDbLine
 10
499.492202344347
 20
350.1642371538643
 30
0.0
 11
499.8225000846479
 21
349.9256174236467
 31
0.0
  0
LINE
  5
15AD
330
6B
100
AcDbEntity
  8
0
100
AcDbLine
 10
499.8225000846479
 20
349.9256174236467
 30
0.0
 11
500.1253558066186
 21
349.6589911607151
 31
0.0
  0
LINE
  5
15AE
330
6B
100
AcDbEntity
  8
0
100
AcDbLine
 10
500.1253558066186
 20
349.6589911607151
 30
0.0
 11
500.3999664510807
 21
349.3636995568021
 31
0.0
  0
LINE
  5
15AF
330
6B
100
AcDbEntity
  8
0
100
AcDbLine
 10
500.3999664510807
 20
349.3636995568021
 30
0.0
 11
500.5272681912741
 21
349.2033150256856
 31
0.0
  0
LINE
  5
15B0
330
6B
100
AcDbEntity
  8
0
100
AcDbLine
 10
500.5272681912741
 20
349.2033150256856
 30
0.0
 11
500.6456850745599
 21
349.0363211801532
 31
0.0
  0
LINE
  5
15B1
330
6B
100
AcDbEntity
  8
0
100
AcDbLine
 10
500.6456850745599
 20
349.0363211801532
 30
0.0
 11
500.7546794384563
 21
348.8631601398765
 31
0.0
  0
LINE
  5
15B2
330
6B
100
AcDbEntity
  8
0
100
AcDbLine
 10
500.7546794384563
 20
348.8631601398765
 30
0.0
 11
500.8538260237866
 21
348.6841572499817
 31
0.0
  0
LINE
  5
15B3
330
6B
100
AcDbEntity
  8
0
100
AcDbLine
 10
500.8538260237866
 20
348.6841572499817
 30
0.0
 11
500.9428244639378
 21
348.4993562228652
 31
0.0
  0
LINE
  5
15B4
330
6B
100
AcDbEntity
  8
0
100
AcDbLine
 10
500.9428244639378
 20
348.4993562228652
 30
0.0
 11
501.0209990901463
 21
348.3097537011773
 31
0.0
  0
LINE
  5
15B5
330
6B
100
AcDbEntity
  8
0
100
AcDbLine
 10
501.0209990901463
 20
348.3097537011773
 30
0.0
 11
501.0887289513394
 21
348.1134294617671
 31
0.0
  0
LINE
  5
15B6
330
6B
100
AcDbEntity
  8
0
100
AcDbLine
 10
501.0887289513394
 20
348.1134294617671
 30
0.0
 11
501.1445696650302
 21
347.9132847588652
 31
0.0
  0
LINE
  5
15B7
330
6B
100
AcDbEntity
  8
0
100
AcDbLine
 10
501.1445696650302
 20
347.9132847588652
 30
0.0
 11
501.2190793189873
 21
347.5066720426136
 31
0.0
  0
LINE
  5
15B8
330
6B
100
AcDbEntity
  8
0
100
AcDbLine
 10
501.2190793189873
 20
347.5066720426136
 30
0.0
 11
501.2439241964773
 21
347.0940407537676
 31
0.0
  0
LINE
  5
15B9
330
6B
100
AcDbEntity
  8
0
100
AcDbLine
 10
501.2439241964773
 20
347.0940407537676
 30
0.0
 11
501.2372137190858
 21
346.8850917496609
 31
0.0
  0
LINE
  5
15BA
330
6B
100
AcDbEntity
  8
0
100
AcDbLine
 10
501.2372137190858
 20
346.8850917496609
 30
0.0
 11
501.2176168270786
 21
346.6770875577906
 31
0.0
  0
LINE
  5
15BB
330
6B
100
AcDbEntity
  8
0
100
AcDbLine
 10
501.2176168270786
 20
346.6770875577906
 30
0.0
 11
501.1856774275669
 21
346.4727196128823
 31
0.0
  0
LINE
  5
15BC
330
6B
100
AcDbEntity
  8
0
100
AcDbLine
 10
501.1856774275669
 20
346.4727196128823
 30
0.0
 11
501.1413742888146
 21
346.2705479036882
 31
0.0
  0
LINE
  5
15BD
330
6B
100
AcDbEntity
  8
0
100
AcDbLine
 10
501.1413742888146
 20
346.2705479036882
 30
0.0
 11
501.0169107321076
 21
345.8764862655215
 31
0.0
  0
LINE
  5
15BE
330
6B
100
AcDbEntity
  8
0
100
AcDbLine
 10
501.0169107321076
 20
345.8764862655215
 30
0.0
 11
500.8471448961471
 21
345.4996641722412
 31
0.0
  0
LINE
  5
15BF
330
6B
100
AcDbEntity
  8
0
100
AcDbLine
 10
500.8471448961471
 20
345.4996641722412
 30
0.0
 11
500.7473001613913
 21
345.3210528205301
 31
0.0
  0
LINE
  5
15C0
330
6B
100
AcDbEntity
  8
0
100
AcDbLine
 10
500.7473001613913
 20
345.3210528205301
 30
0.0
 11
500.6376725922028
 21
345.1484194513308
 31
0.0
  0
LINE
  5
15C1
330
6B
100
AcDbEntity
  8
0
100
AcDbLine
 10
500.6376725922028
 20
345.1484194513308
 30
0.0
 11
500.5184058150278
 21
344.9816060755515
 31
0.0
  0
LINE
  5
15C2
330
6B
100
AcDbEntity
  8
0
100
AcDbLine
 10
500.5184058150278
 20
344.9816060755515
 30
0.0
 11
500.3902391938378
 21
344.8214101322047
 31
0.0
  0
LINE
  5
15C3
330
6B
100
AcDbEntity
  8
0
100
AcDbLine
 10
500.3902391938378
 20
344.8214101322047
 30
0.0
 11
500.1119935513393
 21
344.5247646929123
 31
0.0
  0
LINE
  5
15C4
330
6B
100
AcDbEntity
  8
0
100
AcDbLine
 10
500.1119935513393
 20
344.5247646929123
 30
0.0
 11
499.8053648250508
 21
344.2574608878283
 31
0.0
  0
LINE
  5
15C5
330
6B
100
AcDbEntity
  8
0
100
AcDbLine
 10
499.8053648250508
 20
344.2574608878283
 30
0.0
 11
499.6416818813545
 21
344.1345622349314
 31
0.0
  0
LINE
  5
15C6
330
6B
100
AcDbEntity
  8
0
100
AcDbLine
 10
499.6416818813545
 20
344.1345622349314
 30
0.0
 11
499.4724399696941
 21
344.0196042511685
 31
0.0
  0
LINE
  5
15C7
330
6B
100
AcDbEntity
  8
0
100
AcDbLine
 10
499.4724399696941
 20
344.0196042511685
 30
0.0
 11
499.2986450996624
 21
343.9129104082767
 31
0.0
  0
LINE
  5
15C8
330
6B
100
AcDbEntity
  8
0
100
AcDbLine
 10
499.2986450996624
 20
343.9129104082767
 30
0.0
 11
499.1201761254727
 21
343.8141147710475
 31
0.0
  0
LINE
  5
15C9
330
6B
100
AcDbEntity
  8
0
100
AcDbLine
 10
499.1201761254727
 20
343.8141147710475
 30
0.0
 11
498.7492389697449
 21
343.6396080134083
 31
0.0
  0
LINE
  5
15CA
330
6B
100
AcDbEntity
  8
0
100
AcDbLine
 10
498.7492389697449
 20
343.6396080134083
 30
0.0
 11
498.3646685418774
 21
343.4971361980913
 31
0.0
  0
LINE
  5
15CB
330
6B
100
AcDbEntity
  8
0
100
AcDbLine
 10
498.3646685418774
 20
343.4971361980913
 30
0.0
 11
497.9671124098071
 21
343.3860136649276
 31
0.0
  0
LINE
  5
15CC
330
6B
100
AcDbEntity
  8
0
100
AcDbLine
 10
497.9671124098071
 20
343.3860136649276
 30
0.0
 11
497.5619884129026
 21
343.3070715739215
 31
0.0
  0
LINE
  5
15CD
330
6B
100
AcDbEntity
  8
0
100
AcDbLine
 10
497.5619884129026
 20
343.3070715739215
 30
0.0
 11
497.1496300143061
 21
343.2598746744925
 31
0.0
  0
LINE
  5
15CE
330
6B
100
AcDbEntity
  8
0
100
AcDbLine
 10
497.1496300143061
 20
343.2598746744925
 30
0.0
 11
496.7348049875968
 21
343.2448357365598
 31
0.0
  0
LINE
  5
15CF
330
6B
100
AcDbEntity
  8
0
100
AcDbLine
 10
496.7348049875968
 20
343.2448357365598
 30
0.0
 11
496.321012197918
 21
343.2618136315277
 31
0.0
  0
LINE
  5
15D0
330
6B
100
AcDbEntity
  8
0
100
AcDbLine
 10
496.321012197918
 20
343.2618136315277
 30
0.0
 11
495.9099127163532
 21
343.3107815074953
 31
0.0
  0
LINE
  5
15D1
330
6B
100
AcDbEntity
  8
0
100
AcDbLine
 10
495.9099127163532
 20
343.3107815074953
 30
0.0
 11
495.7070578448413
 21
343.3471183741383
 31
0.0
  0
LINE
  5
15D2
330
6B
100
AcDbEntity
  8
0
100
AcDbLine
 10
495.7070578448413
 20
343.3471183741383
 30
0.0
 11
495.5058434371402
 21
343.3914277575188
 31
0.0
  0
LINE
  5
15D3
330
6B
100
AcDbEntity
  8
0
100
AcDbLine
 10
495.5058434371402
 20
343.3914277575188
 30
0.0
 11
495.3056531484529
 21
343.4440019062336
 31
0.0
  0
LINE
  5
15D4
330
6B
100
AcDbEntity
  8
0
100
AcDbLine
 10
495.3056531484529
 20
343.4440019062336
 30
0.0
 11
495.1077084280422
 21
343.5047196744961
 31
0.0
  0
LINE
  5
15D5
330
6B
100
AcDbEntity
  8
0
100
AcDbLine
 10
495.1077084280422
 20
343.5047196744961
 30
0.0
 11
494.7252049720864
 21
343.648532211473
 31
0.0
  0
LINE
  5
15D6
330
6B
100
AcDbEntity
  8
0
100
AcDbLine
 10
494.7252049720864
 20
343.648532211473
 30
0.0
 11
494.3562966960389
 21
343.8242067145733
 31
0.0
  0
LINE
  5
15D7
330
6B
100
AcDbEntity
  8
0
100
AcDbLine
 10
494.3562966960389
 20
343.8242067145733
 30
0.0
 11
494.1790379307816
 21
343.9234057547797
 31
0.0
  0
LINE
  5
15D8
330
6B
100
AcDbEntity
  8
0
100
AcDbLine
 10
494.1790379307816
 20
343.9234057547797
 30
0.0
 11
494.0064713791033
 21
344.0304286895742
 31
0.0
  0
LINE
  5
15D9
330
6B
100
AcDbEntity
  8
0
100
AcDbLine
 10
494.0064713791033
 20
344.0304286895742
 30
0.0
 11
493.8379313636453
 21
344.1460267477209
 31
0.0
  0
LINE
  5
15DA
330
6B
100
AcDbEntity
  8
0
100
AcDbLine
 10
493.8379313636453
 20
344.1460267477209
 30
0.0
 11
493.674984037143
 21
344.2695423698772
 31
0.0
  0
LINE
  5
15DB
330
6B
100
AcDbEntity
  8
0
100
AcDbLine
 10
493.674984037143
 20
344.2695423698772
 30
0.0
 11
493.3712247174816
 21
344.5367250291753
 31
0.0
  0
LINE
  5
15DC
330
6B
100
AcDbEntity
  8
0
100
AcDbLine
 10
493.3712247174816
 20
344.5367250291753
 30
0.0
 11
493.0957160954936
 21
344.8328590334237
 31
0.0
  0
LINE
  5
15DD
330
6B
100
AcDbEntity
  8
0
100
AcDbLine
 10
493.0957160954936
 20
344.8328590334237
 30
0.0
 11
492.969488431339
 21
344.9918073000696
 31
0.0
  0
LINE
  5
15DE
330
6B
100
AcDbEntity
  8
0
100
AcDbLine
 10
492.969488431339
 20
344.9918073000696
 30
0.0
 11
492.8520038710336
 21
345.1572131366678
 31
0.0
  0
LINE
  5
15DF
330
6B
100
AcDbEntity
  8
0
100
AcDbLine
 10
492.8520038710336
 20
345.1572131366678
 30
0.0
 11
492.742124643331
 21
345.3314245233962
 31
0.0
  0
LINE
  5
15E0
330
6B
100
AcDbEntity
  8
0
100
AcDbLine
 10
492.742124643331
 20
345.3314245233962
 30
0.0
 11
492.6421987284099
 21
345.5116713432154
 31
0.0
  0
LINE
  5
15E1
330
6B
100
AcDbEntity
  8
0
100
AcDbLine
 10
492.6421987284099
 20
345.5116713432154
 30
0.0
 11
492.4742606951037
 21
345.8881012738487
 31
0.0
  0
LINE
  5
15E2
330
6B
100
AcDbEntity
  8
0
100
AcDbLine
 10
492.4742606951037
 20
345.8881012738487
 30
0.0
 11
492.3514775678273
 21
346.2815334535001
 31
0.0
  0
LINE
  5
15E3
330
6B
100
AcDbEntity
  8
0
100
AcDbLine
 10
492.3514775678273
 20
346.2815334535001
 30
0.0
 11
492.3075147613083
 21
346.4856366261756
 31
0.0
  0
LINE
  5
15E4
330
6B
100
AcDbEntity
  8
0
100
AcDbLine
 10
492.3075147613083
 20
346.4856366261756
 30
0.0
 11
492.2761461208081
 21
346.6919266676232
 31
0.0
  0
LINE
  5
15E5
330
6B
100
AcDbEntity
  8
0
100
AcDbLine
 10
492.2761461208081
 20
346.6919266676232
 30
0.0
 11
492.2575739722772
 21
346.8981854859302
 31
0.0
  0
LINE
  5
15E6
330
6B
100
AcDbEntity
  8
0
100
AcDbLine
 10
492.2575739722772
 20
346.8981854859302
 30
0.0
 11
492.2516696763773
 21
347.1053254212668
 31
0.0
  0
LINE
  5
15E7
330
6B
100
AcDbEntity
  8
0
100
AcDbLine
 10
492.2516696763773
 20
347.1053254212668
 30
0.0
 11
492.2782805347035
 21
347.5209847302943
 31
0.0
  0
LINE
  5
15E8
330
6B
100
AcDbEntity
  8
0
100
AcDbLine
 10
492.2782805347035
 20
347.5209847302943
 30
0.0
 11
492.3552743017321
 21
347.930333218131
 31
0.0
  0
LINE
  5
15E9
330
6B
100
AcDbEntity
  8
0
100
AcDbLine
 10
492.3552743017321
 20
347.930333218131
 30
0.0
 11
492.4117750726166
 21
348.1290528968931
 31
0.0
  0
LINE
  5
15EA
330
6B
100
AcDbEntity
  8
0
100
AcDbLine
 10
492.4117750726166
 20
348.1290528968931
 30
0.0
 11
492.4799907658786
 21
348.3239283825763
 31
0.0
  0
LINE
  5
15EB
330
6B
100
AcDbEntity
  8
0
100
AcDbLine
 10
492.4799907658786
 20
348.3239283825763
 30
0.0
 11
492.5597958644925
 21
348.5150214969995
 31
0.0
  0
LINE
  5
15EC
330
6B
100
AcDbEntity
  8
0
100
AcDbLine
 10
492.5597958644925
 20
348.5150214969995
 30
0.0
 11
492.6506477102739
 21
348.7012157006527
 31
0.0
  0
LINE
  5
15ED
330
6B
100
AcDbEntity
  8
0
100
AcDbLine
 10
492.6506477102739
 20
348.7012157006527
 30
0.0
 11
492.8608006786843
 21
349.0524023465212
 31
0.0
  0
LINE
  5
15EE
330
6B
100
AcDbEntity
  8
0
100
AcDbLine
 10
492.8608006786843
 20
349.0524023465212
 30
0.0
 11
493.1082702958923
 21
349.3787128917593
 31
0.0
  0
LINE
  5
15EF
330
6B
100
AcDbEntity
  8
0
100
AcDbLine
 10
493.1082702958923
 20
349.3787128917593
 30
0.0
 11
493.3892898022076
 21
349.677450905939
 31
0.0
  0
LINE
  5
15F0
330
6B
100
AcDbEntity
  8
0
100
AcDbLine
 10
493.3892898022076
 20
349.677450905939
 30
0.0
 11
493.6990633232237
 21
349.9461647480554
 31
0.0
  0
LINE
  5
15F1
330
6B
100
AcDbEntity
  8
0
  6
Continuous
100
AcDbLine
 10
513.247776177058
 20
355.2094105818647
 30
0.0
 11
513.3821909059991
 21
355.3438253108057
 31
0.0
1001
GradientColor1ACI
1070
     5
1001
GradientColor2ACI
1070
     2
1001
ACAD
1010
0.0
1020
0.0
1030
0.0
  0
LINE
  5
15F2
330
6B
100
AcDbEntity
  8
0
  6
Continuous
100
AcDbLine
 10
513.2477761770579
 20
354.1487504100847
 30
0.0
 11
514.442851077779
 21
355.3438253108057
 31
0.0
1001
GradientColor1ACI
1070
     5
1001
GradientColor2ACI
1070
     2
1001
ACAD
1010
0.0
1020
0.0
1030
0.0
  0
LINE
  5
15F3
330
6B
100
AcDbEntity
  8
0
  6
Continuous
100
AcDbLine
 10
513.247776177058
 20
353.088090238305
 30
0.0
 11
515.5035112495586
 21
355.3438253108057
 31
0.0
1001
GradientColor1ACI
1070
     5
1001
GradientColor2ACI
1070
     2
1001
ACAD
1010
0.0
1020
0.0
1030
0.0
  0
LINE
  5
15F4
330
6B
100
AcDbEntity
  8
0
  6
Continuous
100
AcDbLine
 10
513.247776177058
 20
352.0274300665251
 30
0.0
 11
516.5641714213385
 21
355.3438253108056
 31
0.0
1001
GradientColor1ACI
1070
     5
1001
GradientColor2ACI
1070
     2
1001
ACAD
1010
0.0
1020
0.0
1030
0.0
  0
LINE
  5
15F5
330
6B
100
AcDbEntity
  8
0
  6
Continuous
100
AcDbLine
 10
513.2477761770579
 20
350.9667698947453
 30
0.0
 11
517.6248315931184
 21
355.3438253108057
 31
0.0
1001
GradientColor1ACI
1070
     5
1001
GradientColor2ACI
1070
     2
1001
ACAD
1010
0.0
1020
0.0
1030
0.0
  0
LINE
  5
15F6
330
6B
100
AcDbEntity
  8
0
  6
Continuous
100
AcDbLine
 10
513.4354889581068
 20
350.0938225040143
 30
0.0
 11
518.6854917648981
 21
355.3438253108057
 31
0.0
1001
GradientColor1ACI
1070
     5
1001
GradientColor2ACI
1070
     2
1001
ACAD
1010
0.0
1020
0.0
1030
0.0
  0
LINE
  5
15F7
330
6B
100
AcDbEntity
  8
0
  6
Continuous
100
AcDbLine
 10
514.4961491298865
 20
350.0938225040142
 30
0.0
 11
519.7461519366781
 21
355.3438253108057
 31
0.0
1001
GradientColor1ACI
1070
     5
1001
GradientColor2ACI
1070
     2
1001
ACAD
1010
0.0
1020
0.0
1030
0.0
  0
LINE
  5
15F8
330
6B
100
AcDbEntity
  8
0
  6
Continuous
100
AcDbLine
 10
515.5568093016663
 20
350.0938225040143
 30
0.0
 11
520.8068121084577
 21
355.3438253108057
 31
0.0
1001
GradientColor1ACI
1070
     5
1001
GradientColor2ACI
1070
     2
1001
ACAD
1010
0.0
1020
0.0
1030
0.0
  0
LINE
  5
15F9
330
6B
100
AcDbEntity
  8
0
  6
Continuous
100
AcDbLine
 10
516.6174694734462
 20
350.0938225040142
 30
0.0
 11
521.8674722802377
 21
355.3438253108057
 31
0.0
1001
GradientColor1ACI
1070
     5
1001
GradientColor2ACI
1070
     2
1001
ACAD
1010
0.0
1020
0.0
1030
0.0
  0
LINE
  5
15FA
330
6B
100
AcDbEntity
  8
0
  6
Continuous
100
AcDbLine
 10
517.6781296452259
 20
350.0938225040142
 30
0.0
 11
522.9281324520175
 21
355.3438253108057
 31
0.0
1001
GradientColor1ACI
1070
     5
1001
GradientColor2ACI
1070
     2
1001
ACAD
1010
0.0
1020
0.0
1030
0.0
  0
LINE
  5
15FB
330
6B
100
AcDbEntity
  8
0
  6
Continuous
100
AcDbLine
 10
518.7387898170059
 20
350.0938225040142
 30
0.0
 11
523.9887926237972
 21
355.3438253108056
 31
0.0
1001
GradientColor1ACI
1070
     5
1001
GradientColor2ACI
1070
     2
1001
ACAD
1010
0.0
1020
0.0
1030
0.0
  0
LINE
  5
15FC
330
6B
100
AcDbEntity
  8
0
  6
Continuous
100
AcDbLine
 10
513.2477761770579
 20
343.5421486922866
 30
0.0
 11
513.7994499887857
 21
344.0938225040142
 31
0.0
1001
GradientColor1ACI
1070
     5
1001
GradientColor2ACI
1070
     2
1001
ACAD
1010
0.0
1020
0.0
1030
0.0
  0
LINE
  5
15FD
330
6B
100
AcDbEntity
  8
0
  6
Continuous
100
AcDbLine
 10
519.7994499887856
 20
350.0938225040142
 30
0.0
 11
525.0494527955772
 21
355.3438253108057
 31
0.0
1001
GradientColor1ACI
1070
     5
1001
GradientColor2ACI
1070
     2
1001
ACAD
1010
0.0
1020
0.0
1030
0.0
  0
LINE
  5
15FE
330
6B
100
AcDbEntity
  8
0
  6
Continuous
100
AcDbLine
 10
513.247776177058
 20
342.4814885205068
 30
0.0
 11
514.8601101605655
 21
344.0938225040143
 31
0.0
1001
GradientColor1ACI
1070
     5
1001
GradientColor2ACI
1070
     2
1001
ACAD
1010
0.0
1020
0.0
1030
0.0
  0
LINE
  5
15FF
330
6B
100
AcDbEntity
  8
0
  6
Continuous
100
AcDbLine
 10
520.8601101605656
 20
350.0938225040143
 30
0.0
 11
526.1101129673569
 21
355.3438253108057
 31
0.0
1001
GradientColor1ACI
1070
     5
1001
GradientColor2ACI
1070
     2
1001
ACAD
1010
0.0
1020
0.0
1030
0.0
  0
LINE
  5
1600
330
6B
100
AcDbEntity
  8
0
  6
Continuous
100
AcDbLine
 10
513.2477761770579
 20
341.4208283487269
 30
0.0
 11
515.9207703323453
 21
344.0938225040142
 31
0.0
1001
GradientColor1ACI
1070
     5
1001
GradientColor2ACI
1070
     2
1001
ACAD
1010
0.0
1020
0.0
1030
0.0
  0
LINE
  5
1601
330
6B
100
AcDbEntity
  8
0
  6
Continuous
100
AcDbLine
 10
521.9207703323453
 20
350.0938225040142
 30
0.0
 11
527.1707731391368
 21
355.3438253108057
 31
0.0
1001
GradientColor1ACI
1070
     5
1001
GradientColor2ACI
1070
     2
1001
ACAD
1010
0.0
1020
0.0
1030
0.0
  0
LINE
  5
1602
330
6B
100
AcDbEntity
  8
0
  6
Continuous
100
AcDbLine
 10
513.247776177058
 20
340.3601681769471
 30
0.0
 11
516.9814305041252
 21
344.0938225040143
 31
0.0
1001
GradientColor1ACI
1070
     5
1001
GradientColor2ACI
1070
     2
1001
ACAD
1010
0.0
1020
0.0
1030
0.0
  0
LINE
  5
1603
330
6B
100
AcDbEntity
  8
0
  6
Continuous
100
AcDbLine
 10
522.9814305041251
 20
350.0938225040143
 30
0.0
 11
528.2314333109166
 21
355.3438253108057
 31
0.0
1001
GradientColor1ACI
1070
     5
1001
GradientColor2ACI
1070
     2
1001
ACAD
1010
0.0
1020
0.0
1030
0.0
  0
LINE
  5
1604
330
6B
100
AcDbEntity
  8
0
  6
Continuous
100
AcDbLine
 10
513.2477761770579
 20
339.2995080051672
 30
0.0
 11
518.0420906759049
 21
344.0938225040142
 31
0.0
1001
GradientColor1ACI
1070
     5
1001
GradientColor2ACI
1070
     2
1001
ACAD
1010
0.0
1020
0.0
1030
0.0
  0
LINE
  5
1605
330
6B
100
AcDbEntity
  8
0
  6
Continuous
100
AcDbLine
 10
524.042090675905
 20
350.0938225040142
 30
0.0
 11
529.2920934826963
 21
355.3438253108056
 31
0.0
1001
GradientColor1ACI
1070
     5
1001
GradientColor2ACI
1070
     2
1001
ACAD
1010
0.0
1020
0.0
1030
0.0
  0
LINE
  5
1606
330
6B
100
AcDbEntity
  8
0
  6
Continuous
100
AcDbLine
 10
513.8527481422049
 20
338.8438197985343
 30
0.0
 11
519.1027508476848
 21
344.0938225040143
 31
0.0
1001
GradientColor1ACI
1070
     5
1001
GradientColor2ACI
1070
     2
1001
ACAD
1010
0.0
1020
0.0
1030
0.0
  0
LINE
  5
1607
330
6B
100
AcDbEntity
  8
0
  6
Continuous
100
AcDbLine
 10
525.1027508476847
 20
350.0938225040142
 30
0.0
 11
530.3527536544762
 21
355.3438253108057
 31
0.0
1001
GradientColor1ACI
1070
     5
1001
GradientColor2ACI
1070
     2
1001
ACAD
1010
0.0
1020
0.0
1030
0.0
  0
LINE
  5
1608
330
6B
100
AcDbEntity
  8
0
  6
Continuous
100
AcDbLine
 10
514.9134084973784
 20
338.843819981928
 30
0.0
 11
520.1634110194646
 21
344.0938225040143
 31
0.0
1001
GradientColor1ACI
1070
     5
1001
GradientColor2ACI
1070
     2
1001
ACAD
1010
0.0
1020
0.0
1030
0.0
  0
LINE
  5
1609
330
6B
100
AcDbEntity
  8
0
  6
Continuous
100
AcDbLine
 10
526.1634110194647
 20
350.0938225040142
 30
0.0
 11
531.413413826256
 21
355.3438253108056
 31
0.0
1001
GradientColor1ACI
1070
     5
1001
GradientColor2ACI
1070
     2
1001
ACAD
1010
0.0
1020
0.0
1030
0.0
  0
LINE
  5
160A
330
6B
100
AcDbEntity
  8
0
  6
Continuous
100
AcDbLine
 10
515.9740688525519
 20
338.8438201653217
 30
0.0
 11
521.2240711912444
 21
344.0938225040142
 31
0.0
1001
GradientColor1ACI
1070
     5
1001
GradientColor2ACI
1070
     2
1001
ACAD
1010
0.0
1020
0.0
1030
0.0
  0
LINE
  5
160B
330
6B
100
AcDbEntity
  8
0
  6
Continuous
100
AcDbLine
 10
527.2240711912443
 20
350.0938225040142
 30
0.0
 11
532.4740739980359
 21
355.3438253108057
 31
0.0
1001
GradientColor1ACI
1070
     5
1001
GradientColor2ACI
1070
     2
1001
ACAD
1010
0.0
1020
0.0
1030
0.0
  0
LINE
  5
160C
330
6B
100
AcDbEntity
  8
0
  6
Continuous
100
AcDbLine
 10
517.0347292077255
 20
338.8438203487154
 30
0.0
 11
522.2847313630243
 21
344.0938225040143
 31
0.0
1001
GradientColor1ACI
1070
     5
1001
GradientColor2ACI
1070
     2
1001
ACAD
1010
0.0
1020
0.0
1030
0.0
  0
LINE
  5
160D
330
6B
100
AcDbEntity
  8
0
  6
Continuous
100
AcDbLine
 10
528.2847313630242
 20
350.0938225040143
 30
0.0
 11
533.5347341698157
 21
355.3438253108057
 31
0.0
1001
GradientColor1ACI
1070
     5
1001
GradientColor2ACI
1070
     2
1001
ACAD
1010
0.0
1020
0.0
1030
0.0
  0
LINE
  5
160E
330
6B
100
AcDbEntity
  8
0
  6
Continuous
100
AcDbLine
 10
518.0953895628991
 20
338.8438205321092
 30
0.0
 11
523.345391534804
 21
344.0938225040142
 31
0.0
1001
GradientColor1ACI
1070
     5
1001
GradientColor2ACI
1070
     2
1001
ACAD
1010
0.0
1020
0.0
1030
0.0
  0
LINE
  5
160F
330
6B
100
AcDbEntity
  8
0
  6
Continuous
100
AcDbLine
 10
529.3453915348041
 20
350.0938225040142
 30
0.0
 11
534.5953943415955
 21
355.3438253108057
 31
0.0
1001
GradientColor1ACI
1070
     5
1001
GradientColor2ACI
1070
     2
1001
ACAD
1010
0.0
1020
0.0
1030
0.0
  0
LINE
  5
1610
330
6B
100
AcDbEntity
  8
0
  6
Continuous
100
AcDbLine
 10
519.1560499180725
 20
338.8438207155028
 30
0.0
 11
524.406051706584
 21
344.0938225040143
 31
0.0
1001
GradientColor1ACI
1070
     5
1001
GradientColor2ACI
1070
     2
1001
ACAD
1010
0.0
1020
0.0
1030
0.0
  0
LINE
  5
1611
330
6B
100
AcDbEntity
  8
0
  6
Continuous
100
AcDbLine
 10
530.4060517065838
 20
350.0938225040142
 30
0.0
 11
535.6560545133752
 21
355.3438253108057
 31
0.0
1001
GradientColor1ACI
1070
     5
1001
GradientColor2ACI
1070
     2
1001
ACAD
1010
0.0
1020
0.0
1030
0.0
  0
LINE
  5
1612
330
6B
100
AcDbEntity
  8
0
  6
Continuous
100
AcDbLine
 10
520.216710273246
 20
338.8438208988966
 30
0.0
 11
525.4667118783637
 21
344.0938225040142
 31
0.0
1001
GradientColor1ACI
1070
     5
1001
GradientColor2ACI
1070
     2
1001
ACAD
1010
0.0
1020
0.0
1030
0.0
  0
LINE
  5
1613
330
6B
100
AcDbEntity
  8
0
  6
Continuous
100
AcDbLine
 10
531.4667118783638
 20
350.0938225040142
 30
0.0
 11
536.7167146851552
 21
355.3438253108057
 31
0.0
1001
GradientColor1ACI
1070
     5
1001
GradientColor2ACI
1070
     2
1001
ACAD
1010
0.0
1020
0.0
1030
0.0
  0
LINE
  5
1614
330
6B
100
AcDbEntity
  8
0
  6
Continuous
100
AcDbLine
 10
521.2773706284196
 20
338.8438210822904
 30
0.0
 11
526.5273720501436
 21
344.0938225040143
 31
0.0
1001
GradientColor1ACI
1070
     5
1001
GradientColor2ACI
1070
     2
1001
ACAD
1010
0.0
1020
0.0
1030
0.0
  0
LINE
  5
1615
330
6B
100
AcDbEntity
  8
0
  6
Continuous
100
AcDbLine
 10
532.5273720501434
 20
350.0938225040142
 30
0.0
 11
537.7773748569349
 21
355.3438253108057
 31
0.0
1001
GradientColor1ACI
1070
     5
1001
GradientColor2ACI
1070
     2
1001
ACAD
1010
0.0
1020
0.0
1030
0.0
  0
LINE
  5
1616
330
6B
100
AcDbEntity
  8
0
  6
Continuous
100
AcDbLine
 10
522.3380309835931
 20
338.843821265684
 30
0.0
 11
527.5880322219234
 21
344.0938225040143
 31
0.0
1001
GradientColor1ACI
1070
     5
1001
GradientColor2ACI
1070
     2
1001
ACAD
1010
0.0
1020
0.0
1030
0.0
  0
LINE
  5
1617
330
6B
100
AcDbEntity
  8
0
  6
Continuous
100
AcDbLine
 10
533.5880322219233
 20
350.0938225040142
 30
0.0
 11
538.8380350287148
 21
355.3438253108056
 31
0.0
1001
GradientColor1ACI
1070
     5
1001
GradientColor2ACI
1070
     2
1001
ACAD
1010
0.0
1020
0.0
1030
0.0
  0
LINE
  5
1618
330
6B
100
AcDbEntity
  8
0
  6
Continuous
100
AcDbLine
 10
523.3986913387666
 20
338.8438214490777
 30
0.0
 11
528.6486923937031
 21
344.0938225040142
 31
0.0
1001
GradientColor1ACI
1070
     5
1001
GradientColor2ACI
1070
     2
1001
ACAD
1010
0.0
1020
0.0
1030
0.0
  0
LINE
  5
1619
330
6B
100
AcDbEntity
  8
0
  6
Continuous
100
AcDbLine
 10
534.648692393703
 20
350.0938225040142
 30
0.0
 11
539.8986952004946
 21
355.3438253108057
 31
0.0
1001
GradientColor1ACI
1070
     5
1001
GradientColor2ACI
1070
     2
1001
ACAD
1010
0.0
1020
0.0
1030
0.0
  0
LINE
  5
161A
330
6B
100
AcDbEntity
  8
0
  6
Continuous
100
AcDbLine
 10
524.4593516939403
 20
338.8438216324715
 30
0.0
 11
529.7093525654831
 21
344.0938225040143
 31
0.0
1001
GradientColor1ACI
1070
     5
1001
GradientColor2ACI
1070
     2
1001
ACAD
1010
0.0
1020
0.0
1030
0.0
  0
LINE
  5
161B
330
6B
100
AcDbEntity
  8
0
  6
Continuous
100
AcDbLine
 10
535.709352565483
 20
350.0938225040143
 30
0.0
 11
540.9593553722744
 21
355.3438253108057
 31
0.0
1001
GradientColor1ACI
1070
     5
1001
GradientColor2ACI
1070
     2
1001
ACAD
1010
0.0
1020
0.0
1030
0.0
  0
LINE
  5
161C
330
6B
100
AcDbEntity
  8
0
  6
Continuous
100
AcDbLine
 10
525.5200120491138
 20
338.8438218158652
 30
0.0
 11
530.7700127372628
 21
344.0938225040142
 31
0.0
1001
GradientColor1ACI
1070
     5
1001
GradientColor2ACI
1070
     2
1001
ACAD
1010
0.0
1020
0.0
1030
0.0
  0
LINE
  5
161D
330
6B
100
AcDbEntity
  8
0
  6
Continuous
100
AcDbLine
 10
536.7700127372628
 20
350.0938225040142
 30
0.0
 11
542.0200155440543
 21
355.3438253108057
 31
0.0
1001
GradientColor1ACI
1070
     5
1001
GradientColor2ACI
1070
     2
1001
ACAD
1010
0.0
1020
0.0
1030
0.0
  0
LINE
  5
161E
330
6B
100
AcDbEntity
  8
0
  6
Continuous
100
AcDbLine
 10
526.5806724042874
 20
338.843821999259
 30
0.0
 11
531.8306729090427
 21
344.0938225040143
 31
0.0
1001
GradientColor1ACI
1070
     5
1001
GradientColor2ACI
1070
     2
1001
ACAD
1010
0.0
1020
0.0
1030
0.0
  0
LINE
  5
161F
330
6B
100
AcDbEntity
  8
0
  6
Continuous
100
AcDbLine
 10
537.8306729090427
 20
350.0938225040143
 30
0.0
 11
543.080675715834
 21
355.3438253108057
 31
0.0
1001
GradientColor1ACI
1070
     5
1001
GradientColor2ACI
1070
     2
1001
ACAD
1010
0.0
1020
0.0
1030
0.0
  0
LINE
  5
1620
330
6B
100
AcDbEntity
  8
0
  6
Continuous
100
AcDbLine
 10
527.6413327594609
 20
338.8438221826527
 30
0.0
 11
532.8913330808224
 21
344.0938225040142
 31
0.0
1001
GradientColor1ACI
1070
     5
1001
GradientColor2ACI
1070
     2
1001
ACAD
1010
0.0
1020
0.0
1030
0.0
  0
LINE
  5
1621
330
6B
100
AcDbEntity
  8
0
  6
Continuous
100
AcDbLine
 10
538.8913330808224
 20
350.0938225040142
 30
0.0
 11
544.141335887614
 21
355.3438253108057
 31
0.0
1001
GradientColor1ACI
1070
     5
1001
GradientColor2ACI
1070
     2
1001
ACAD
1010
0.0
1020
0.0
1030
0.0
  0
LINE
  5
1622
330
6B
100
AcDbEntity
  8
0
  6
Continuous
100
AcDbLine
 10
528.7019931146343
 20
338.8438223660463
 30
0.0
 11
533.9519932526022
 21
344.0938225040143
 31
0.0
1001
GradientColor1ACI
1070
     5
1001
GradientColor2ACI
1070
     2
1001
ACAD
1010
0.0
1020
0.0
1030
0.0
  0
LINE
  5
1623
330
6B
100
AcDbEntity
  8
0
  6
Continuous
100
AcDbLine
 10
539.9519932526021
 20
350.0938225040142
 30
0.0
 11
545.2019960593937
 21
355.3438253108057
 31
0.0
1001
GradientColor1ACI
1070
     5
1001
GradientColor2ACI
1070
     2
1001
ACAD
1010
0.0
1020
0.0
1030
0.0
  0
LINE
  5
1624
330
6B
100
AcDbEntity
  8
0
  6
Continuous
100
AcDbLine
 10
529.762653469808
 20
338.8438225494401
 30
0.0
 11
535.0126534243822
 21
344.0938225040143
 31
0.0
1001
GradientColor1ACI
1070
     5
1001
GradientColor2ACI
1070
     2
1001
ACAD
1010
0.0
1020
0.0
1030
0.0
  0
LINE
  5
1625
330
6B
100
AcDbEntity
  8
0
  6
Continuous
100
AcDbLine
 10
541.0126534243821
 20
350.0938225040142
 30
0.0
 11
545.7520878867625
 21
354.8332569663945
 31
0.0
1001
GradientColor1ACI
1070
     5
1001
GradientColor2ACI
1070
     2
1001
ACAD
1010
0.0
1020
0.0
1030
0.0
  0
LINE
  5
1626
330
6B
100
AcDbEntity
  8
0
  6
Continuous
100
AcDbLine
 10
530.8233138249816
 20
338.8438227328339
 30
0.0
 11
536.0733135961619
 21
344.0938225040143
 31
0.0
1001
GradientColor1ACI
1070
     5
1001
GradientColor2ACI
1070
     2
1001
ACAD
1010
0.0
1020
0.0
1030
0.0
  0
LINE
  5
1627
330
6B
100
AcDbEntity
  8
0
  6
Continuous
100
AcDbLine
 10
542.0733135961618
 20
350.0938225040142
 30
0.0
 11
545.7520878799473
 21
353.7725967877996
 31
0.0
1001
GradientColor1ACI
1070
     5
1001
GradientColor2ACI
1070
     2
1001
ACAD
1010
0.0
1020
0.0
1030
0.0
  0
LINE
  5
1628
330
6B
100
AcDbEntity
  8
0
  6
Continuous
100
AcDbLine
 10
531.883974180155
 20
338.8438229162275
 30
0.0
 11
537.1339737679418
 21
344.0938225040143
 31
0.0
1001
GradientColor1ACI
1070
     5
1001
GradientColor2ACI
1070
     2
1001
ACAD
1010
0.0
1020
0.0
1030
0.0
  0
LINE
  5
1629
330
6B
100
AcDbEntity
  8
0
  6
Continuous
100
AcDbLine
 10
543.1339737679418
 20
350.0938225040143
 30
0.0
 11
545.7520878731322
 21
352.7119366092047
 31
0.0
1001
GradientColor1ACI
1070
     5
1001
GradientColor2ACI
1070
     2
1001
ACAD
1010
0.0
1020
0.0
1030
0.0
  0
LINE
  5
162A
330
6B
100
AcDbEntity
  8
0
  6
Continuous
100
AcDbLine
 10
532.9446345353285
 20
338.8438230996212
 30
0.0
 11
538.1946339397216
 21
344.0938225040142
 31
0.0
1001
GradientColor1ACI
1070
     5
1001
GradientColor2ACI
1070
     2
1001
ACAD
1010
0.0
1020
0.0
1030
0.0
  0
LINE
  5
162B
330
6B
100
AcDbEntity
  8
0
  6
Continuous
100
AcDbLine
 10
544.1946339397215
 20
350.0938225040142
 30
0.0
 11
545.7520878663171
 21
351.6512764306096
 31
0.0
1001
GradientColor1ACI
1070
     5
1001
GradientColor2ACI
1070
     2
1001
ACAD
1010
0.0
1020
0.0
1030
0.0
  0
LINE
  5
162C
330
6B
100
AcDbEntity
  8
0
  6
Continuous
100
AcDbLine
 10
534.0052948905021
 20
338.843823283015
 30
0.0
 11
539.2552941115013
 21
344.0938225040143
 31
0.0
1001
GradientColor1ACI
1070
     5
1001
GradientColor2ACI
1070
     2
1001
ACAD
1010
0.0
1020
0.0
1030
0.0
  0
LINE
  5
162D
330
6B
100
AcDbEntity
  8
0
  6
Continuous
100
AcDbLine
 10
545.2552941115014
 20
350.0938225040142
 30
0.0
 11
545.752087859502
 21
350.5906162520148
 31
0.0
1001
GradientColor1ACI
1070
     5
1001
GradientColor2ACI
1070
     2
1001
ACAD
1010
0.0
1020
0.0
1030
0.0
  0
LINE
  5
162E
330
6B
100
AcDbEntity
  8
0
  6
Continuous
100
AcDbLine
 10
535.0659552456757
 20
338.8438234664087
 30
0.0
 11
540.3159542832812
 21
344.0938225040143
 31
0.0
1001
GradientColor1ACI
1070
     5
1001
GradientColor2ACI
1070
     2
1001
ACAD
1010
0.0
1020
0.0
1030
0.0
  0
LINE
  5
162F
330
6B
100
AcDbEntity
  8
0
  6
Continuous
100
AcDbLine
 10
536.1266156008492
 20
338.8438236498025
 30
0.0
 11
541.376614455061
 21
344.0938225040143
 31
0.0
1001
GradientColor1ACI
1070
     5
1001
GradientColor2ACI
1070
     2
1001
ACAD
1010
0.0
1020
0.0
1030
0.0
  0
LINE
  5
1630
330
6B
100
AcDbEntity
  8
0
  6
Continuous
100
AcDbLine
 10
537.1872759560228
 20
338.8438238331962
 30
0.0
 11
542.4372746268409
 21
344.0938225040143
 31
0.0
1001
GradientColor1ACI
1070
     5
1001
GradientColor2ACI
1070
     2
1001
ACAD
1010
0.0
1020
0.0
1030
0.0
  0
LINE
  5
1631
330
6B
100
AcDbEntity
  8
0
  6
Continuous
100
AcDbLine
 10
538.2479363111963
 20
338.8438240165899
 30
0.0
 11
543.4979347986207
 21
344.0938225040143
 31
0.0
1001
GradientColor1ACI
1070
     5
1001
GradientColor2ACI
1070
     2
1001
ACAD
1010
0.0
1020
0.0
1030
0.0
  0
LINE
  5
1632
330
6B
100
AcDbEntity
  8
0
  6
Continuous
100
AcDbLine
 10
539.3085966663697
 20
338.8438241999836
 30
0.0
 11
544.5585949704005
 21
344.0938225040143
 31
0.0
1001
GradientColor1ACI
1070
     5
1001
GradientColor2ACI
1070
     2
1001
ACAD
1010
0.0
1020
0.0
1030
0.0
  0
LINE
  5
1633
330
6B
100
AcDbEntity
  8
0
  6
Continuous
100
AcDbLine
 10
555.2520878731764
 20
354.7873154067902
 30
0.0
 11
555.9335949704005
 21
355.4688225040143
 31
0.0
1001
GradientColor1ACI
1070
     5
1001
GradientColor2ACI
1070
     2
1001
ACAD
1010
0.0
1020
0.0
1030
0.0
  0
LINE
  5
1634
330
6B
100
AcDbEntity
  8
0
  6
Continuous
100
AcDbLine
 10
540.3692570215433
 20
338.8438243833773
 30
0.0
 11
545.6192551421803
 21
344.0938225040142
 31
0.0
1001
GradientColor1ACI
1070
     5
1001
GradientColor2ACI
1070
     2
1001
ACAD
1010
0.0
1020
0.0
1030
0.0
  0
LINE
  5
1635
330
6B
100
AcDbEntity
  8
0
  6
Continuous
100
AcDbLine
 10
555.2520878731765
 20
353.7266552350103
 30
0.0
 11
556.9942551421804
 21
355.4688225040143
 31
0.0
1001
GradientColor1ACI
1070
     5
1001
GradientColor2ACI
1070
     2
1001
ACAD
1010
0.0
1020
0.0
1030
0.0
  0
LINE
  5
1636
330
6B
100
AcDbEntity
  8
0
  6
Continuous
100
AcDbLine
 10
541.4299173767169
 20
338.843824566771
 30
0.0
 11
545.7520878614473
 21
343.1659950515014
 31
0.0
1001
GradientColor1ACI
1070
     5
1001
GradientColor2ACI
1070
     2
1001
ACAD
1010
0.0
1020
0.0
1030
0.0
  0
LINE
  5
1637
330
6B
100
AcDbEntity
  8
0
  6
Continuous
100
AcDbLine
 10
555.2520878731764
 20
352.6659950632305
 30
0.0
 11
558.0549153139602
 21
355.4688225040143
 31
0.0
1001
GradientColor1ACI
1070
     5
1001
GradientColor2ACI
1070
     2
1001
ACAD
1010
0.0
1020
0.0
1030
0.0
  0
LINE
  5
1638
330
6B
100
AcDbEntity
  8
0
  6
Continuous
100
AcDbLine
 10
542.4905777318905
 20
338.8438247501647
 30
0.0
 11
545.7520878687776
 21
342.1053348870519
 31
0.0
1001
GradientColor1ACI
1070
     5
1001
GradientColor2ACI
1070
     2
1001
ACAD
1010
0.0
1020
0.0
1030
0.0
  0
LINE
  5
1639
330
6B
100
AcDbEntity
  8
0
  6
Continuous
100
AcDbLine
 10
555.2520878731765
 20
351.6053348914507
 30
0.0
 11
559.11557548574
 21
355.4688225040142
 31
0.0
1001
GradientColor1ACI
1070
     5
1001
GradientColor2ACI
1070
     2
1001
ACAD
1010
0.0
1020
0.0
1030
0.0
  0
LINE
  5
163A
330
6B
100
AcDbEntity
  8
0
  6
Continuous
100
AcDbLine
 10
543.551238087064
 20
338.8438249335584
 30
0.0
 11
545.752087876108
 21
341.0446747226024
 31
0.0
1001
GradientColor1ACI
1070
     5
1001
GradientColor2ACI
1070
     2
1001
ACAD
1010
0.0
1020
0.0
1030
0.0
  0
LINE
  5
163B
330
6B
100
AcDbEntity
  8
0
  6
Continuous
100
AcDbLine
 10
555.2520878731764
 20
350.5446747196709
 30
0.0
 11
560.1762356575197
 21
355.4688225040143
 31
0.0
1001
GradientColor1ACI
1070
     5
1001
GradientColor2ACI
1070
     2
1001
ACAD
1010
0.0
1020
0.0
1030
0.0
  0
LINE
  5
163C
330
6B
100
AcDbEntity
  8
0
  6
Continuous
100
AcDbLine
 10
544.6118984422375
 20
338.8438251169522
 30
0.0
 11
545.7520878834383
 21
339.9840145581529
 31
0.0
1001
GradientColor1ACI
1070
     5
1001
GradientColor2ACI
1070
     2
1001
ACAD
1010
0.0
1020
0.0
1030
0.0
  0
LINE
  5
163D
330
6B
100
AcDbEntity
  8
0
  6
Continuous
100
AcDbLine
 10
555.2520878731765
 20
349.4840145478911
 30
0.0
 11
561.2368958292996
 21
355.4688225040143
 31
0.0
1001
GradientColor1ACI
1070
     5
1001
GradientColor2ACI
1070
     2
1001
ACAD
1010
0.0
1020
0.0
1030
0.0
  0
LINE
  5
163E
330
6B
100
AcDbEntity
  8
0
  6
Continuous
100
AcDbLine
 10
545.672558797411
 20
338.8438253003459
 30
0.0
 11
545.7520878907685
 21
338.9233543937033
 31
0.0
1001
GradientColor1ACI
1070
     5
1001
GradientColor2ACI
1070
     2
1001
ACAD
1010
0.0
1020
0.0
1030
0.0
  0
LINE
  5
163F
330
6B
100
AcDbEntity
  8
0
  6
Continuous
100
AcDbLine
 10
555.2520878731765
 20
348.4233543761112
 30
0.0
 11
561.7520878731765
 21
354.9233543761113
 31
0.0
1001
GradientColor1ACI
1070
     5
1001
GradientColor2ACI
1070
     2
1001
ACAD
1010
0.0
1020
0.0
1030
0.0
  0
LINE
  5
1640
330
6B
100
AcDbEntity
  8
0
  6
Continuous
100
AcDbLine
 10
555.2520878731764
 20
347.3626942043314
 30
0.0
 11
561.7520878731765
 21
353.8626942043314
 31
0.0
1001
GradientColor1ACI
1070
     5
1001
GradientColor2ACI
1070
     2
1001
ACAD
1010
0.0
1020
0.0
1030
0.0
  0
LINE
  5
1641
330
6B
100
AcDbEntity
  8
0
  6
Continuous
100
AcDbLine
 10
555.2520878731765
 20
346.3020340325515
 30
0.0
 11
561.7520878731766
 21
352.8020340325517
 31
0.0
1001
GradientColor1ACI
1070
     5
1001
GradientColor2ACI
1070
     2
1001
ACAD
1010
0.0
1020
0.0
1030
0.0
  0
LINE
  5
1642
330
6B
100
AcDbEntity
  8
0
  6
Continuous
100
AcDbLine
 10
555.2520878731764
 20
345.2413738607718
 30
0.0
 11
561.7520878731765
 21
351.7413738607718
 31
0.0
1001
GradientColor1ACI
1070
     5
1001
GradientColor2ACI
1070
     2
1001
ACAD
1010
0.0
1020
0.0
1030
0.0
  0
LINE
  5
1643
330
6B
100
AcDbEntity
  8
0
  6
Continuous
100
AcDbLine
 10
555.2520878731765
 20
344.180713688992
 30
0.0
 11
561.7520878731765
 21
350.680713688992
 31
0.0
1001
GradientColor1ACI
1070
     5
1001
GradientColor2ACI
1070
     2
1001
ACAD
1010
0.0
1020
0.0
1030
0.0
  0
LINE
  5
1644
330
6B
100
AcDbEntity
  8
0
  6
Continuous
100
AcDbLine
 10
555.2520878731764
 20
343.1200535172121
 30
0.0
 11
561.7520878731765
 21
349.6200535172122
 31
0.0
1001
GradientColor1ACI
1070
     5
1001
GradientColor2ACI
1070
     2
1001
ACAD
1010
0.0
1020
0.0
1030
0.0
  0
LINE
  5
1645
330
6B
100
AcDbEntity
  8
0
  6
Continuous
100
AcDbLine
 10
555.2520878731765
 20
342.0593933454323
 30
0.0
 11
561.7520878731765
 21
348.5593933454323
 31
0.0
1001
GradientColor1ACI
1070
     5
1001
GradientColor2ACI
1070
     2
1001
ACAD
1010
0.0
1020
0.0
1030
0.0
  0
LINE
  5
1646
330
6B
100
AcDbEntity
  8
0
  6
Continuous
100
AcDbLine
 10
555.2520878731765
 20
340.9987331736525
 30
0.0
 11
561.7520878731765
 21
347.4987331736525
 31
0.0
1001
GradientColor1ACI
1070
     5
1001
GradientColor2ACI
1070
     2
1001
ACAD
1010
0.0
1020
0.0
1030
0.0
  0
LINE
  5
1647
330
6B
100
AcDbEntity
  8
0
  6
Continuous
100
AcDbLine
 10
555.2520878731764
 20
339.9380730018727
 30
0.0
 11
561.7520878731765
 21
346.4380730018727
 31
0.0
1001
GradientColor1ACI
1070
     5
1001
GradientColor2ACI
1070
     2
1001
ACAD
1010
0.0
1020
0.0
1030
0.0
  0
LINE
  5
1648
330
6B
100
AcDbEntity
  8
0
  6
Continuous
100
AcDbLine
 10
555.2520878731765
 20
338.8774128300928
 30
0.0
 11
561.7520878731765
 21
345.3774128300929
 31
0.0
1001
GradientColor1ACI
1070
     5
1001
GradientColor2ACI
1070
     2
1001
ACAD
1010
0.0
1020
0.0
1030
0.0
  0
LINE
  5
1649
330
6B
100
AcDbEntity
  8
0
  6
Continuous
100
AcDbLine
 10
556.1541577188775
 20
338.7188225040142
 30
0.0
 11
561.7520878731765
 21
344.3167526583131
 31
0.0
1001
GradientColor1ACI
1070
     5
1001
GradientColor2ACI
1070
     2
1001
ACAD
1010
0.0
1020
0.0
1030
0.0
  0
LINE
  5
164A
330
6B
100
AcDbEntity
  8
0
  6
Continuous
100
AcDbLine
 10
557.2148178906575
 20
338.7188225040142
 30
0.0
 11
561.7520878731765
 21
343.2560924865332
 31
0.0
1001
GradientColor1ACI
1070
     5
1001
GradientColor2ACI
1070
     2
1001
ACAD
1010
0.0
1020
0.0
1030
0.0
  0
LINE
  5
164B
330
6B
100
AcDbEntity
  8
0
  6
Continuous
100
AcDbLine
 10
558.2754780624372
 20
338.7188225040143
 30
0.0
 11
561.7520878731765
 21
342.1954323147534
 31
0.0
1001
GradientColor1ACI
1070
     5
1001
GradientColor2ACI
1070
     2
1001
ACAD
1010
0.0
1020
0.0
1030
0.0
  0
LINE
  5
164C
330
6B
100
AcDbEntity
  8
0
  6
Continuous
100
AcDbLine
 10
559.3361382342171
 20
338.7188225040143
 30
0.0
 11
561.7520878731765
 21
341.1347721429736
 31
0.0
1001
GradientColor1ACI
1070
     5
1001
GradientColor2ACI
1070
     2
1001
ACAD
1010
0.0
1020
0.0
1030
0.0
  0
LINE
  5
164D
330
6B
100
AcDbEntity
  8
0
  6
Continuous
100
AcDbLine
 10
560.3967984059969
 20
338.7188225040142
 30
0.0
 11
561.7520878731765
 21
340.0741119711938
 31
0.0
1001
GradientColor1ACI
1070
     5
1001
GradientColor2ACI
1070
     2
1001
ACAD
1010
0.0
1020
0.0
1030
0.0
  0
LINE
  5
164E
330
6B
100
AcDbEntity
  8
0
  6
Continuous
100
AcDbLine
 10
561.4574585777768
 20
338.7188225040143
 30
0.0
 11
561.7520878731765
 21
339.0134517994139
 31
0.0
1001
GradientColor1ACI
1070
     5
1001
GradientColor2ACI
1070
     2
1001
ACAD
1010
0.0
1020
0.0
1030
0.0
  0
LINE
  5
164F
330
6B
100
AcDbEntity
  8
0
  6
Continuous
100
AcDbLine
 10
513.9269582996106
 20
338.8438198113656
 30
0.0
 11
513.247776177058
 21
339.5230019339183
 31
0.0
1001
GradientColor1ACI
1070
     5
1001
GradientColor2ACI
1070
     2
1001
ACAD
1010
0.0
1020
0.0
1030
0.0
  0
LINE
  5
1650
330
6B
100
AcDbEntity
  8
0
  6
Continuous
100
AcDbLine
 10
514.9876182879968
 20
338.8438199947592
 30
0.0
 11
513.247776177058
 21
340.5836621056981
 31
0.0
1001
GradientColor1ACI
1070
     5
1001
GradientColor2ACI
1070
     2
1001
ACAD
1010
0.0
1020
0.0
1030
0.0
  0
LINE
  5
1651
330
6B
100
AcDbEntity
  8
0
  6
Continuous
100
AcDbLine
 10
516.048278276383
 20
338.8438201781529
 30
0.0
 11
513.247776177058
 21
341.6443222774779
 31
0.0
1001
GradientColor1ACI
1070
     5
1001
GradientColor2ACI
1070
     2
1001
ACAD
1010
0.0
1020
0.0
1030
0.0
  0
LINE
  5
1652
330
6B
100
AcDbEntity
  8
0
  6
Continuous
100
AcDbLine
 10
517.1089382647691
 20
338.8438203615466
 30
0.0
 11
513.247776177058
 21
342.7049824492577
 31
0.0
1001
GradientColor1ACI
1070
     5
1001
GradientColor2ACI
1070
     2
1001
ACAD
1010
0.0
1020
0.0
1030
0.0
  0
LINE
  5
1653
330
6B
100
AcDbEntity
  8
0
  6
Continuous
100
AcDbLine
 10
518.1695982531553
 20
338.8438205449403
 30
0.0
 11
513.247776177058
 21
343.7656426210375
 31
0.0
1001
GradientColor1ACI
1070
     5
1001
GradientColor2ACI
1070
     2
1001
ACAD
1010
0.0
1020
0.0
1030
0.0
  0
LINE
  5
1654
330
6B
100
AcDbEntity
  8
0
  6
Continuous
100
AcDbLine
 10
519.2302582415415
 20
338.8438207283339
 30
0.0
 11
513.9802564658611
 21
344.0938225040142
 31
0.0
1001
GradientColor1ACI
1070
     5
1001
GradientColor2ACI
1070
     2
1001
ACAD
1010
0.0
1020
0.0
1030
0.0
  0
LINE
  5
1655
330
6B
100
AcDbEntity
  8
0
  6
Continuous
100
AcDbLine
 10
520.2909182299277
 20
338.8438209117275
 30
0.0
 11
515.040916637641
 21
344.0938225040142
 31
0.0
1001
GradientColor1ACI
1070
     5
1001
GradientColor2ACI
1070
     2
1001
ACAD
1010
0.0
1020
0.0
1030
0.0
  0
LINE
  5
1656
330
6B
100
AcDbEntity
  8
0
  6
Continuous
100
AcDbLine
 10
521.3515782183137
 20
338.8438210951213
 30
0.0
 11
516.1015768094208
 21
344.0938225040142
 31
0.0
1001
GradientColor1ACI
1070
     5
1001
GradientColor2ACI
1070
     2
1001
ACAD
1010
0.0
1020
0.0
1030
0.0
  0
LINE
  5
1657
330
6B
100
AcDbEntity
  8
0
  6
Continuous
100
AcDbLine
 10
522.4122382066999
 20
338.8438212785149
 30
0.0
 11
517.1622369812006
 21
344.0938225040142
 31
0.0
1001
GradientColor1ACI
1070
     5
1001
GradientColor2ACI
1070
     2
1001
ACAD
1010
0.0
1020
0.0
1030
0.0
  0
LINE
  5
1658
330
6B
100
AcDbEntity
  8
0
  6
Continuous
100
AcDbLine
 10
523.4728981950861
 20
338.8438214619085
 30
0.0
 11
518.2228971529805
 21
344.0938225040142
 31
0.0
1001
GradientColor1ACI
1070
     5
1001
GradientColor2ACI
1070
     2
1001
ACAD
1010
0.0
1020
0.0
1030
0.0
  0
LINE
  5
1659
330
6B
100
AcDbEntity
  8
0
  6
Continuous
100
AcDbLine
 10
524.5335581834723
 20
338.8438216453022
 30
0.0
 11
519.2835573247602
 21
344.0938225040142
 31
0.0
1001
GradientColor1ACI
1070
     5
1001
GradientColor2ACI
1070
     2
1001
ACAD
1010
0.0
1020
0.0
1030
0.0
  0
LINE
  5
165A
330
6B
100
AcDbEntity
  8
0
  6
Continuous
100
AcDbLine
 10
513.2835573247603
 20
350.0938225040142
 30
0.0
 11
513.247776177058
 21
350.1296036517164
 31
0.0
1001
GradientColor1ACI
1070
     5
1001
GradientColor2ACI
1070
     2
1001
ACAD
1010
0.0
1020
0.0
1030
0.0
  0
LINE
  5
165B
330
6B
100
AcDbEntity
  8
0
  6
Continuous
100
AcDbLine
 10
525.5942181718584
 20
338.8438218286959
 30
0.0
 11
520.3442174965402
 21
344.0938225040142
 31
0.0
1001
GradientColor1ACI
1070
     5
1001
GradientColor2ACI
1070
     2
1001
ACAD
1010
0.0
1020
0.0
1030
0.0
  0
LINE
  5
165C
330
6B
100
AcDbEntity
  8
0
  6
Continuous
100
AcDbLine
 10
514.34421749654
 20
350.0938225040143
 30
0.0
 11
513.247776177058
 21
351.1902638234963
 31
0.0
1001
GradientColor1ACI
1070
     5
1001
GradientColor2ACI
1070
     2
1001
ACAD
1010
0.0
1020
0.0
1030
0.0
  0
LINE
  5
165D
330
6B
100
AcDbEntity
  8
0
  6
Continuous
100
AcDbLine
 10
526.6548781602446
 20
338.8438220120895
 30
0.0
 11
521.4048776683199
 21
344.0938225040142
 31
0.0
1001
GradientColor1ACI
1070
     5
1001
GradientColor2ACI
1070
     2
1001
ACAD
1010
0.0
1020
0.0
1030
0.0
  0
LINE
  5
165E
330
6B
100
AcDbEntity
  8
0
  6
Continuous
100
AcDbLine
 10
515.4048776683198
 20
350.0938225040143
 30
0.0
 11
513.247776177058
 21
352.2509239952761
 31
0.0
1001
GradientColor1ACI
1070
     5
1001
GradientColor2ACI
1070
     2
1001
ACAD
1010
0.0
1020
0.0
1030
0.0
  0
LINE
  5
165F
330
6B
100
AcDbEntity
  8
0
  6
Continuous
100
AcDbLine
 10
527.7155381486307
 20
338.8438221954832
 30
0.0
 11
522.4655378400997
 21
344.0938225040142
 31
0.0
1001
GradientColor1ACI
1070
     5
1001
GradientColor2ACI
1070
     2
1001
ACAD
1010
0.0
1020
0.0
1030
0.0
  0
LINE
  5
1660
330
6B
100
AcDbEntity
  8
0
  6
Continuous
100
AcDbLine
 10
516.4655378400998
 20
350.0938225040142
 30
0.0
 11
513.247776177058
 21
353.3115841670559
 31
0.0
1001
GradientColor1ACI
1070
     5
1001
GradientColor2ACI
1070
     2
1001
ACAD
1010
0.0
1020
0.0
1030
0.0
  0
LINE
  5
1661
330
6B
100
AcDbEntity
  8
0
  6
Continuous
100
AcDbLine
 10
528.7761981370169
 20
338.8438223788768
 30
0.0
 11
523.5261980118796
 21
344.0938225040142
 31
0.0
1001
GradientColor1ACI
1070
     5
1001
GradientColor2ACI
1070
     2
1001
ACAD
1010
0.0
1020
0.0
1030
0.0
  0
LINE
  5
1662
330
6B
100
AcDbEntity
  8
0
  6
Continuous
100
AcDbLine
 10
517.5261980118794
 20
350.0938225040143
 30
0.0
 11
513.247776177058
 21
354.3722443388357
 31
0.0
1001
GradientColor1ACI
1070
     5
1001
GradientColor2ACI
1070
     2
1001
ACAD
1010
0.0
1020
0.0
1030
0.0
  0
LINE
  5
1663
330
6B
100
AcDbEntity
  8
0
  6
Continuous
100
AcDbLine
 10
529.8368581254031
 20
338.8438225622705
 30
0.0
 11
524.5868581836593
 21
344.0938225040142
 31
0.0
1001
GradientColor1ACI
1070
     5
1001
GradientColor2ACI
1070
     2
1001
ACAD
1010
0.0
1020
0.0
1030
0.0
  0
LINE
  5
1664
330
6B
100
AcDbEntity
  8
0
  6
Continuous
100
AcDbLine
 10
518.5868581836594
 20
350.0938225040142
 30
0.0
 11
513.336855376868
 21
355.3438253108057
 31
0.0
1001
GradientColor1ACI
1070
     5
1001
GradientColor2ACI
1070
     2
1001
ACAD
1010
0.0
1020
0.0
1030
0.0
  0
LINE
  5
1665
330
6B
100
AcDbEntity
  8
0
  6
Continuous
100
AcDbLine
 10
530.8975181137894
 20
338.8438227456642
 30
0.0
 11
525.6475183554393
 21
344.0938225040142
 31
0.0
1001
GradientColor1ACI
1070
     5
1001
GradientColor2ACI
1070
     2
1001
ACAD
1010
0.0
1020
0.0
1030
0.0
  0
LINE
  5
1666
330
6B
100
AcDbEntity
  8
0
  6
Continuous
100
AcDbLine
 10
519.6475183554391
 20
350.0938225040143
 30
0.0
 11
514.3975155486478
 21
355.3438253108057
 31
0.0
1001
GradientColor1ACI
1070
     5
1001
GradientColor2ACI
1070
     2
1001
ACAD
1010
0.0
1020
0.0
1030
0.0
  0
LINE
  5
1667
330
6B
100
AcDbEntity
  8
0
  6
Continuous
100
AcDbLine
 10
531.9581781021756
 20
338.8438229290577
 30
0.0
 11
526.708178527219
 21
344.0938225040142
 31
0.0
1001
GradientColor1ACI
1070
     5
1001
GradientColor2ACI
1070
     2
1001
ACAD
1010
0.0
1020
0.0
1030
0.0
  0
LINE
  5
1668
330
6B
100
AcDbEntity
  8
0
  6
Continuous
100
AcDbLine
 10
520.708178527219
 20
350.0938225040142
 30
0.0
 11
515.4581757204276
 21
355.3438253108057
 31
0.0
1001
GradientColor1ACI
1070
     5
1001
GradientColor2ACI
1070
     2
1001
ACAD
1010
0.0
1020
0.0
1030
0.0
  0
LINE
  5
1669
330
6B
100
AcDbEntity
  8
0
  6
Continuous
100
AcDbLine
 10
533.0188380905615
 20
338.8438231124515
 30
0.0
 11
527.7688386989989
 21
344.0938225040142
 31
0.0
1001
GradientColor1ACI
1070
     5
1001
GradientColor2ACI
1070
     2
1001
ACAD
1010
0.0
1020
0.0
1030
0.0
  0
LINE
  5
166A
330
6B
100
AcDbEntity
  8
0
  6
Continuous
100
AcDbLine
 10
521.7688386989988
 20
350.0938225040143
 30
0.0
 11
516.5188358922074
 21
355.3438253108056
 31
0.0
1001
GradientColor1ACI
1070
     5
1001
GradientColor2ACI
1070
     2
1001
ACAD
1010
0.0
1020
0.0
1030
0.0
  0
LINE
  5
166B
330
6B
100
AcDbEntity
  8
0
  6
Continuous
100
AcDbLine
 10
534.0794980789477
 20
338.8438232958451
 30
0.0
 11
528.8294988707787
 21
344.0938225040142
 31
0.0
1001
GradientColor1ACI
1070
     5
1001
GradientColor2ACI
1070
     2
1001
ACAD
1010
0.0
1020
0.0
1030
0.0
  0
LINE
  5
166C
330
6B
100
AcDbEntity
  8
0
  6
Continuous
100
AcDbLine
 10
522.8294988707785
 20
350.0938225040143
 30
0.0
 11
517.5794960639872
 21
355.3438253108057
 31
0.0
1001
GradientColor1ACI
1070
     5
1001
GradientColor2ACI
1070
     2
1001
ACAD
1010
0.0
1020
0.0
1030
0.0
  0
LINE
  5
166D
330
6B
100
AcDbEntity
  8
0
  6
Continuous
100
AcDbLine
 10
535.1401580673338
 20
338.8438234792388
 30
0.0
 11
529.8901590425584
 21
344.0938225040142
 31
0.0
1001
GradientColor1ACI
1070
     5
1001
GradientColor2ACI
1070
     2
1001
ACAD
1010
0.0
1020
0.0
1030
0.0
  0
LINE
  5
166E
330
6B
100
AcDbEntity
  8
0
  6
Continuous
100
AcDbLine
 10
523.8901590425585
 20
350.0938225040142
 30
0.0
 11
518.6401562357671
 21
355.3438253108056
 31
0.0
1001
GradientColor1ACI
1070
     5
1001
GradientColor2ACI
1070
     2
1001
ACAD
1010
0.0
1020
0.0
1030
0.0
  0
LINE
  5
166F
330
6B
100
AcDbEntity
  8
0
  6
Continuous
100
AcDbLine
 10
536.2008180557201
 20
338.8438236626325
 30
0.0
 11
530.9508192143383
 21
344.0938225040142
 31
0.0
1001
GradientColor1ACI
1070
     5
1001
GradientColor2ACI
1070
     2
1001
ACAD
1010
0.0
1020
0.0
1030
0.0
  0
LINE
  5
1670
330
6B
100
AcDbEntity
  8
0
  6
Continuous
100
AcDbLine
 10
524.9508192143382
 20
350.0938225040143
 30
0.0
 11
519.7008164075469
 21
355.3438253108057
 31
0.0
1001
GradientColor1ACI
1070
     5
1001
GradientColor2ACI
1070
     2
1001
ACAD
1010
0.0
1020
0.0
1030
0.0
  0
LINE
  5
1671
330
6B
100
AcDbEntity
  8
0
  6
Continuous
100
AcDbLine
 10
537.2614780441063
 20
338.8438238460261
 30
0.0
 11
532.0114793861181
 21
344.0938225040142
 31
0.0
1001
GradientColor1ACI
1070
     5
1001
GradientColor2ACI
1070
     2
1001
ACAD
1010
0.0
1020
0.0
1030
0.0
  0
LINE
  5
1672
330
6B
100
AcDbEntity
  8
0
  6
Continuous
100
AcDbLine
 10
526.0114793861181
 20
350.0938225040142
 30
0.0
 11
520.7614765793267
 21
355.3438253108057
 31
0.0
1001
GradientColor1ACI
1070
     5
1001
GradientColor2ACI
1070
     2
1001
ACAD
1010
0.0
1020
0.0
1030
0.0
  0
LINE
  5
1673
330
6B
100
AcDbEntity
  8
0
  6
Continuous
100
AcDbLine
 10
538.3221380324925
 20
338.8438240294198
 30
0.0
 11
533.072139557898
 21
344.0938225040142
 31
0.0
1001
GradientColor1ACI
1070
     5
1001
GradientColor2ACI
1070
     2
1001
ACAD
1010
0.0
1020
0.0
1030
0.0
  0
LINE
  5
1674
330
6B
100
AcDbEntity
  8
0
  6
Continuous
100
AcDbLine
 10
527.0721395578979
 20
350.0938225040143
 30
0.0
 11
521.8221367511065
 21
355.3438253108057
 31
0.0
1001
GradientColor1ACI
1070
     5
1001
GradientColor2ACI
1070
     2
1001
ACAD
1010
0.0
1020
0.0
1030
0.0
  0
LINE
  5
1675
330
6B
100
AcDbEntity
  8
0
  6
Continuous
100
AcDbLine
 10
539.3827980208786
 20
338.8438242128134
 30
0.0
 11
534.1327997296778
 21
344.0938225040142
 31
0.0
1001
GradientColor1ACI
1070
     5
1001
GradientColor2ACI
1070
     2
1001
ACAD
1010
0.0
1020
0.0
1030
0.0
  0
LINE
  5
1676
330
6B
100
AcDbEntity
  8
0
  6
Continuous
100
AcDbLine
 10
528.1327997296777
 20
350.0938225040142
 30
0.0
 11
522.8827969228864
 21
355.3438253108057
 31
0.0
1001
GradientColor1ACI
1070
     5
1001
GradientColor2ACI
1070
     2
1001
ACAD
1010
0.0
1020
0.0
1030
0.0
  0
LINE
  5
1677
330
6B
100
AcDbEntity
  8
0
  6
Continuous
100
AcDbLine
 10
540.4434580092647
 20
338.843824396207
 30
0.0
 11
535.1934599014576
 21
344.0938225040142
 31
0.0
1001
GradientColor1ACI
1070
     5
1001
GradientColor2ACI
1070
     2
1001
ACAD
1010
0.0
1020
0.0
1030
0.0
  0
LINE
  5
1678
330
6B
100
AcDbEntity
  8
0
  6
Continuous
100
AcDbLine
 10
529.1934599014576
 20
350.0938225040142
 30
0.0
 11
523.9434570946662
 21
355.3438253108056
 31
0.0
1001
GradientColor1ACI
1070
     5
1001
GradientColor2ACI
1070
     2
1001
ACAD
1010
0.0
1020
0.0
1030
0.0
  0
LINE
  5
1679
330
6B
100
AcDbEntity
  8
0
  6
Continuous
100
AcDbLine
 10
541.5041179976509
 20
338.8438245796008
 30
0.0
 11
536.2541200732374
 21
344.0938225040142
 31
0.0
1001
GradientColor1ACI
1070
     5
1001
GradientColor2ACI
1070
     2
1001
ACAD
1010
0.0
1020
0.0
1030
0.0
  0
LINE
  5
167A
330
6B
100
AcDbEntity
  8
0
  6
Continuous
100
AcDbLine
 10
530.2541200732373
 20
350.0938225040143
 30
0.0
 11
525.004117266446
 21
355.3438253108057
 31
0.0
1001
GradientColor1ACI
1070
     5
1001
GradientColor2ACI
1070
     2
1001
ACAD
1010
0.0
1020
0.0
1030
0.0
  0
LINE
  5
167B
330
6B
100
AcDbEntity
  8
0
  6
Continuous
100
AcDbLine
 10
542.5647779860371
 20
338.8438247629943
 30
0.0
 11
537.3147802450172
 21
344.0938225040142
 31
0.0
1001
GradientColor1ACI
1070
     5
1001
GradientColor2ACI
1070
     2
1001
ACAD
1010
0.0
1020
0.0
1030
0.0
  0
LINE
  5
167C
330
6B
100
AcDbEntity
  8
0
  6
Continuous
100
AcDbLine
 10
531.3147802450172
 20
350.0938225040142
 30
0.0
 11
526.0647774382258
 21
355.3438253108056
 31
0.0
1001
GradientColor1ACI
1070
     5
1001
GradientColor2ACI
1070
     2
1001
ACAD
1010
0.0
1020
0.0
1030
0.0
  0
LINE
  5
167D
330
6B
100
AcDbEntity
  8
0
  6
Continuous
100
AcDbLine
 10
543.6254379744232
 20
338.843824946388
 30
0.0
 11
538.3754404167971
 21
344.0938225040142
 31
0.0
1001
GradientColor1ACI
1070
     5
1001
GradientColor2ACI
1070
     2
1001
ACAD
1010
0.0
1020
0.0
1030
0.0
  0
LINE
  5
167E
330
6B
100
AcDbEntity
  8
0
  6
Continuous
100
AcDbLine
 10
532.375440416797
 20
350.0938225040143
 30
0.0
 11
527.1254376100056
 21
355.3438253108057
 31
0.0
1001
GradientColor1ACI
1070
     5
1001
GradientColor2ACI
1070
     2
1001
ACAD
1010
0.0
1020
0.0
1030
0.0
  0
LINE
  5
167F
330
6B
100
AcDbEntity
  8
0
  6
Continuous
100
AcDbLine
 10
544.6860979628094
 20
338.8438251297817
 30
0.0
 11
539.4361005885769
 21
344.0938225040142
 31
0.0
1001
GradientColor1ACI
1070
     5
1001
GradientColor2ACI
1070
     2
1001
ACAD
1010
0.0
1020
0.0
1030
0.0
  0
LINE
  5
1680
330
6B
100
AcDbEntity
  8
0
  6
Continuous
100
AcDbLine
 10
533.4361005885768
 20
350.0938225040142
 30
0.0
 11
528.1860977817855
 21
355.3438253108057
 31
0.0
1001
GradientColor1ACI
1070
     5
1001
GradientColor2ACI
1070
     2
1001
ACAD
1010
0.0
1020
0.0
1030
0.0
  0
LINE
  5
1681
330
6B
100
AcDbEntity
  8
0
  6
Continuous
100
AcDbLine
 10
545.7467579511956
 20
338.8438253131753
 30
0.0
 11
540.4967607603567
 21
344.0938225040142
 31
0.0
1001
GradientColor1ACI
1070
     5
1001
GradientColor2ACI
1070
     2
1001
ACAD
1010
0.0
1020
0.0
1030
0.0
  0
LINE
  5
1682
330
6B
100
AcDbEntity
  8
0
  6
Continuous
100
AcDbLine
 10
534.4967607603567
 20
350.0938225040142
 30
0.0
 11
529.2467579535652
 21
355.3438253108057
 31
0.0
1001
GradientColor1ACI
1070
     5
1001
GradientColor2ACI
1070
     2
1001
ACAD
1010
0.0
1020
0.0
1030
0.0
  0
LINE
  5
1683
330
6B
100
AcDbEntity
  8
0
  6
Continuous
100
AcDbLine
 10
545.7520878840248
 20
339.899155552126
 30
0.0
 11
541.5574209321366
 21
344.0938225040142
 31
0.0
1001
GradientColor1ACI
1070
     5
1001
GradientColor2ACI
1070
     2
1001
ACAD
1010
0.0
1020
0.0
1030
0.0
  0
LINE
  5
1684
330
6B
100
AcDbEntity
  8
0
  6
Continuous
100
AcDbLine
 10
535.5574209321365
 20
350.0938225040142
 30
0.0
 11
530.3074181253451
 21
355.3438253108057
 31
0.0
1001
GradientColor1ACI
1070
     5
1001
GradientColor2ACI
1070
     2
1001
ACAD
1010
0.0
1020
0.0
1030
0.0
  0
LINE
  5
1685
330
6B
100
AcDbEntity
  8
0
  6
Continuous
100
AcDbLine
 10
545.7520878766945
 20
340.9598157312361
 30
0.0
 11
542.6180811039164
 21
344.0938225040142
 31
0.0
1001
GradientColor1ACI
1070
     5
1001
GradientColor2ACI
1070
     2
1001
ACAD
1010
0.0
1020
0.0
1030
0.0
  0
LINE
  5
1686
330
6B
100
AcDbEntity
  8
0
  6
Continuous
100
AcDbLine
 10
536.6180811039164
 20
350.0938225040142
 30
0.0
 11
531.3680782971249
 21
355.3438253108056
 31
0.0
1001
GradientColor1ACI
1070
     5
1001
GradientColor2ACI
1070
     2
1001
ACAD
1010
0.0
1020
0.0
1030
0.0
  0
LINE
  5
1687
330
6B
100
AcDbEntity
  8
0
  6
Continuous
100
AcDbLine
 10
545.7520878693641
 20
342.0204759103463
 30
0.0
 11
543.6787412756962
 21
344.0938225040142
 31
0.0
1001
GradientColor1ACI
1070
     5
1001
GradientColor2ACI
1070
     2
1001
ACAD
1010
0.0
1020
0.0
1030
0.0
  0
LINE
  5
1688
330
6B
100
AcDbEntity
  8
0
  6
Continuous
100
AcDbLine
 10
537.6787412756961
 20
350.0938225040143
 30
0.0
 11
532.4287384689047
 21
355.3438253108057
 31
0.0
1001
GradientColor1ACI
1070
     5
1001
GradientColor2ACI
1070
     2
1001
ACAD
1010
0.0
1020
0.0
1030
0.0
  0
LINE
  5
1689
330
6B
100
AcDbEntity
  8
0
  6
Continuous
100
AcDbLine
 10
545.7520878620339
 20
343.0811360894562
 30
0.0
 11
544.7394014474761
 21
344.0938225040142
 31
0.0
1001
GradientColor1ACI
1070
     5
1001
GradientColor2ACI
1070
     2
1001
ACAD
1010
0.0
1020
0.0
1030
0.0
  0
LINE
  5
168A
330
6B
100
AcDbEntity
  8
0
  6
Continuous
100
AcDbLine
 10
538.7394014474759
 20
350.0938225040142
 30
0.0
 11
533.4893986406846
 21
355.3438253108056
 31
0.0
1001
GradientColor1ACI
1070
     5
1001
GradientColor2ACI
1070
     2
1001
ACAD
1010
0.0
1020
0.0
1030
0.0
  0
LINE
  5
168B
330
6B
100
AcDbEntity
  8
0
  6
Continuous
100
AcDbLine
 10
539.8000616192557
 20
350.0938225040143
 30
0.0
 11
534.5500588124643
 21
355.3438253108057
 31
0.0
1001
GradientColor1ACI
1070
     5
1001
GradientColor2ACI
1070
     2
1001
ACAD
1010
0.0
1020
0.0
1030
0.0
  0
LINE
  5
168C
330
6B
100
AcDbEntity
  8
0
  6
Continuous
100
AcDbLine
 10
540.8607217910356
 20
350.0938225040142
 30
0.0
 11
535.6107189842442
 21
355.3438253108057
 31
0.0
1001
GradientColor1ACI
1070
     5
1001
GradientColor2ACI
1070
     2
1001
ACAD
1010
0.0
1020
0.0
1030
0.0
  0
LINE
  5
168D
330
6B
100
AcDbEntity
  8
0
  6
Continuous
100
AcDbLine
 10
541.9213819628153
 20
350.0938225040142
 30
0.0
 11
536.671379156024
 21
355.3438253108057
 31
0.0
1001
GradientColor1ACI
1070
     5
1001
GradientColor2ACI
1070
     2
1001
ACAD
1010
0.0
1020
0.0
1030
0.0
  0
LINE
  5
168E
330
6B
100
AcDbEntity
  8
0
  6
Continuous
100
AcDbLine
 10
542.9820421345953
 20
350.0938225040142
 30
0.0
 11
537.7320393278039
 21
355.3438253108057
 31
0.0
1001
GradientColor1ACI
1070
     5
1001
GradientColor2ACI
1070
     2
1001
ACAD
1010
0.0
1020
0.0
1030
0.0
  0
LINE
  5
168F
330
6B
100
AcDbEntity
  8
0
  6
Continuous
100
AcDbLine
 10
555.4177023063751
 20
338.7188225040142
 30
0.0
 11
555.2520878731765
 21
338.8844369372128
 31
0.0
1001
GradientColor1ACI
1070
     5
1001
GradientColor2ACI
1070
     2
1001
ACAD
1010
0.0
1020
0.0
1030
0.0
  0
LINE
  5
1690
330
6B
100
AcDbEntity
  8
0
  6
Continuous
100
AcDbLine
 10
544.042702306375
 20
350.0938225040142
 30
0.0
 11
538.7926994995837
 21
355.3438253108056
 31
0.0
1001
GradientColor1ACI
1070
     5
1001
GradientColor2ACI
1070
     2
1001
ACAD
1010
0.0
1020
0.0
1030
0.0
  0
LINE
  5
1691
330
6B
100
AcDbEntity
  8
0
  6
Continuous
100
AcDbLine
 10
556.4783624781548
 20
338.7188225040143
 30
0.0
 11
555.2520878731765
 21
339.9450971089926
 31
0.0
1001
GradientColor1ACI
1070
     5
1001
GradientColor2ACI
1070
     2
1001
ACAD
1010
0.0
1020
0.0
1030
0.0
  0
LINE
  5
1692
330
6B
100
AcDbEntity
  8
0
  6
Continuous
100
AcDbLine
 10
545.1033624781548
 20
350.0938225040143
 30
0.0
 11
539.8533596713634
 21
355.3438253108057
 31
0.0
1001
GradientColor1ACI
1070
     5
1001
GradientColor2ACI
1070
     2
1001
ACAD
1010
0.0
1020
0.0
1030
0.0
  0
LINE
  5
1693
330
6B
100
AcDbEntity
  8
0
  6
Continuous
100
AcDbLine
 10
557.5390226499347
 20
338.7188225040143
 30
0.0
 11
555.2520878731765
 21
341.0057572807724
 31
0.0
1001
GradientColor1ACI
1070
     5
1001
GradientColor2ACI
1070
     2
1001
ACAD
1010
0.0
1020
0.0
1030
0.0
  0
LINE
  5
1694
330
6B
100
AcDbEntity
  8
0
  6
Continuous
100
AcDbLine
 10
545.7520878589567
 20
350.5057572949922
 30
0.0
 11
540.9140198431433
 21
355.3438253108056
 31
0.0
1001
GradientColor1ACI
1070
     5
1001
GradientColor2ACI
1070
     2
1001
ACAD
1010
0.0
1020
0.0
1030
0.0
  0
LINE
  5
1695
330
6B
100
AcDbEntity
  8
0
  6
Continuous
100
AcDbLine
 10
558.5996828217145
 20
338.7188225040143
 30
0.0
 11
555.2520878731765
 21
342.0664174525523
 31
0.0
1001
GradientColor1ACI
1070
     5
1001
GradientColor2ACI
1070
     2
1001
ACAD
1010
0.0
1020
0.0
1030
0.0
  0
LINE
  5
1696
330
6B
100
AcDbEntity
  8
0
  6
Continuous
100
AcDbLine
 10
545.7520878657719
 20
351.566417459957
 30
0.0
 11
541.9746800149231
 21
355.3438253108057
 31
0.0
1001
GradientColor1ACI
1070
     5
1001
GradientColor2ACI
1070
     2
1001
ACAD
1010
0.0
1020
0.0
1030
0.0
  0
LINE
  5
1697
330
6B
100
AcDbEntity
  8
0
  6
Continuous
100
AcDbLine
 10
559.6603429934943
 20
338.7188225040143
 30
0.0
 11
555.2520878731765
 21
343.1270776243321
 31
0.0
1001
GradientColor1ACI
1070
     5
1001
GradientColor2ACI
1070
     2
1001
ACAD
1010
0.0
1020
0.0
1030
0.0
  0
LINE
  5
1698
330
6B
100
AcDbEntity
  8
0
  6
Continuous
100
AcDbLine
 10
545.752087872587
 20
352.6270776249216
 30
0.0
 11
543.035340186703
 21
355.3438253108057
 31
0.0
1001
GradientColor1ACI
1070
     5
1001
GradientColor2ACI
1070
     2
1001
ACAD
1010
0.0
1020
0.0
1030
0.0
  0
LINE
  5
1699
330
6B
100
AcDbEntity
  8
0
  6
Continuous
100
AcDbLine
 10
560.7210031652742
 20
338.7188225040143
 30
0.0
 11
555.2520878731765
 21
344.1877377961119
 31
0.0
1001
GradientColor1ACI
1070
     5
1001
GradientColor2ACI
1070
     2
1001
ACAD
1010
0.0
1020
0.0
1030
0.0
  0
LINE
  5
169A
330
6B
100
AcDbEntity
  8
0
  6
Continuous
100
AcDbLine
 10
545.7520878794021
 20
353.6877377898863
 30
0.0
 11
544.0960003584828
 21
355.3438253108057
 31
0.0
1001
GradientColor1ACI
1070
     5
1001
GradientColor2ACI
1070
     2
1001
ACAD
1010
0.0
1020
0.0
1030
0.0
  0
LINE
  5
169B
330
6B
100
AcDbEntity
  8
0
  6
Continuous
100
AcDbLine
 10
561.7520878731766
 20
338.7483979678916
 30
0.0
 11
555.2520878731765
 21
345.2483979678917
 31
0.0
1001
GradientColor1ACI
1070
     5
1001
GradientColor2ACI
1070
     2
1001
ACAD
1010
0.0
1020
0.0
1030
0.0
  0
LINE
  5
169C
330
6B
100
AcDbEntity
  8
0
  6
Continuous
100
AcDbLine
 10
545.7520878862172
 20
354.748397954851
 30
0.0
 11
545.1566605302625
 21
355.3438253108057
 31
0.0
1001
GradientColor1ACI
1070
     5
1001
GradientColor2ACI
1070
     2
1001
ACAD
1010
0.0
1020
0.0
1030
0.0
  0
LINE
  5
169D
330
6B
100
AcDbEntity
  8
0
  6
Continuous
100
AcDbLine
 10
561.7520878731766
 20
339.8090581396715
 30
0.0
 11
555.2520878731765
 21
346.3090581396715
 31
0.0
1001
GradientColor1ACI
1070
     5
1001
GradientColor2ACI
1070
     2
1001
ACAD
1010
0.0
1020
0.0
1030
0.0
  0
LINE
  5
169E
330
6B
100
AcDbEntity
  8
0
  6
Continuous
100
AcDbLine
 10
561.7520878731766
 20
340.8697183114512
 30
0.0
 11
555.2520878731765
 21
347.3697183114514
 31
0.0
1001
GradientColor1ACI
1070
     5
1001
GradientColor2ACI
1070
     2
1001
ACAD
1010
0.0
1020
0.0
1030
0.0
  0
LINE
  5
169F
330
6B
100
AcDbEntity
  8
0
  6
Continuous
100
AcDbLine
 10
561.7520878731767
 20
341.930378483231
 30
0.0
 11
555.2520878731765
 21
348.4303784832312
 31
0.0
1001
GradientColor1ACI
1070
     5
1001
GradientColor2ACI
1070
     2
1001
ACAD
1010
0.0
1020
0.0
1030
0.0
  0
LINE
  5
16A0
330
6B
100
AcDbEntity
  8
0
  6
Continuous
100
AcDbLine
 10
561.7520878731766
 20
342.9910386550109
 30
0.0
 11
555.2520878731765
 21
349.491038655011
 31
0.0
1001
GradientColor1ACI
1070
     5
1001
GradientColor2ACI
1070
     2
1001
ACAD
1010
0.0
1020
0.0
1030
0.0
  0
LINE
  5
16A1
330
6B
100
AcDbEntity
  8
0
  6
Continuous
100
AcDbLine
 10
561.7520878731767
 20
344.0516988267907
 30
0.0
 11
555.2520878731765
 21
350.5516988267909
 31
0.0
1001
GradientColor1ACI
1070
     5
1001
GradientColor2ACI
1070
     2
1001
ACAD
1010
0.0
1020
0.0
1030
0.0
  0
LINE
  5
16A2
330
6B
100
AcDbEntity
  8
0
  6
Continuous
100
AcDbLine
 10
561.7520878731766
 20
345.1123589985706
 30
0.0
 11
555.2520878731765
 21
351.6123589985707
 31
0.0
1001
GradientColor1ACI
1070
     5
1001
GradientColor2ACI
1070
     2
1001
ACAD
1010
0.0
1020
0.0
1030
0.0
  0
LINE
  5
16A3
330
6B
100
AcDbEntity
  8
0
  6
Continuous
100
AcDbLine
 10
561.7520878731766
 20
346.1730191703503
 30
0.0
 11
555.2520878731765
 21
352.6730191703505
 31
0.0
1001
GradientColor1ACI
1070
     5
1001
GradientColor2ACI
1070
     2
1001
ACAD
1010
0.0
1020
0.0
1030
0.0
  0
LINE
  5
16A4
330
6B
100
AcDbEntity
  8
0
  6
Continuous
100
AcDbLine
 10
561.7520878731766
 20
347.2336793421302
 30
0.0
 11
555.2520878731765
 21
353.7336793421304
 31
0.0
1001
GradientColor1ACI
1070
     5
1001
GradientColor2ACI
1070
     2
1001
ACAD
1010
0.0
1020
0.0
1030
0.0
  0
LINE
  5
16A5
330
6B
100
AcDbEntity
  8
0
  6
Continuous
100
AcDbLine
 10
561.7520878731766
 20
348.29433951391
 30
0.0
 11
555.2520878731765
 21
354.7943395139102
 31
0.0
1001
GradientColor1ACI
1070
     5
1001
GradientColor2ACI
1070
     2
1001
ACAD
1010
0.0
1020
0.0
1030
0.0
  0
LINE
  5
16A6
330
6B
100
AcDbEntity
  8
0
  6
Continuous
100
AcDbLine
 10
561.7520878731767
 20
349.3549996856898
 30
0.0
 11
555.6382650548522
 21
355.4688225040143
 31
0.0
1001
GradientColor1ACI
1070
     5
1001
GradientColor2ACI
1070
     2
1001
ACAD
1010
0.0
1020
0.0
1030
0.0
  0
LINE
  5
16A7
330
6B
100
AcDbEntity
  8
0
  6
Continuous
100
AcDbLine
 10
561.7520878731766
 20
350.4156598574696
 30
0.0
 11
556.698925226632
 21
355.4688225040142
 31
0.0
1001
GradientColor1ACI
1070
     5
1001
GradientColor2ACI
1070
     2
1001
ACAD
1010
0.0
1020
0.0
1030
0.0
  0
LINE
  5
16A8
330
6B
100
AcDbEntity
  8
0
  6
Continuous
100
AcDbLine
 10
561.7520878731766
 20
351.4763200292495
 30
0.0
 11
557.7595853984119
 21
355.4688225040143
 31
0.0
1001
GradientColor1ACI
1070
     5
1001
GradientColor2ACI
1070
     2
1001
ACAD
1010
0.0
1020
0.0
1030
0.0
  0
LINE
  5
16A9
330
6B
100
AcDbEntity
  8
0
  6
Continuous
100
AcDbLine
 10
561.7520878731766
 20
352.5369802010293
 30
0.0
 11
558.8202455701916
 21
355.4688225040142
 31
0.0
1001
GradientColor1ACI
1070
     5
1001
GradientColor2ACI
1070
     2
1001
ACAD
1010
0.0
1020
0.0
1030
0.0
  0
LINE
  5
16AA
330
6B
100
AcDbEntity
  8
0
  6
Continuous
100
AcDbLine
 10
561.7520878731766
 20
353.5976403728091
 30
0.0
 11
559.8809057419715
 21
355.4688225040142
 31
0.0
1001
GradientColor1ACI
1070
     5
1001
GradientColor2ACI
1070
     2
1001
ACAD
1010
0.0
1020
0.0
1030
0.0
  0
LINE
  5
16AB
330
6B
100
AcDbEntity
  8
0
  6
Continuous
100
AcDbLine
 10
561.7520878731766
 20
354.658300544589
 30
0.0
 11
560.9415659137513
 21
355.4688225040142
 31
0.0
1001
GradientColor1ACI
1070
     5
1001
GradientColor2ACI
1070
     2
1001
ACAD
1010
0.0
1020
0.0
1030
0.0
  0
LINE
  5
16AC
330
6B
100
AcDbEntity
  8
0
100
AcDbLine
 10
466.7520925566476
 20
357.7438225040142
 30
0.0
 11
466.7520925566476
 21
363.5490129259204
 31
0.0
  0
LINE
  5
16AD
330
6B
100
AcDbEntity
  8
0
100
AcDbLine
 10
568.5020878731766
 20
347.3438225040142
 30
0.0
 11
568.5020878731766
 21
363.5490129259204
 31
0.0
  0
LINE
  5
16AE
330
6B
100
AcDbEntity
  8
0
100
AcDbLine
 10
469.2520925566476
 20
362.2990129259203
 30
0.0
 11
566.0020878731765
 21
362.2990129259203
 31
0.0
  0
LINE
  5
16B2
330
6B
100
AcDbEntity
  8
0
  6
Continuous
100
AcDbLine
 10
534.9990657766213
 20
287.9529765444999
 30
0.0
 11
534.9990657766213
 21
278.3197148573896
 31
0.0
  0
LINE
  5
16B3
330
6B
100
AcDbEntity
  8
0
  6
Continuous
100
AcDbLine
 10
549.9063895175311
 20
287.9529765444999
 30
0.0
 11
549.9063895175311
 21
278.3197148573896
 31
0.0
  0
LINE
  5
16B4
330
6B
100
AcDbEntity
  8
0
  6
Continuous
100
AcDbLine
 10
532.4990657766213
 20
279.5697148573896
 30
0.0
 11
529.9990657766214
 21
279.5697148573896
 31
0.0
  0
LINE
  5
16B5
330
6B
100
AcDbEntity
  8
0
  6
Continuous
100
AcDbLine
 10
552.4063895175311
 20
279.5697148573896
 30
0.0
 11
567.7563895175311
 21
279.5697148573896
 31
0.0
  0
LINE
  5
16B6
330
6B
100
AcDbEntity
  8
0
  6
Continuous
100
AcDbLine
 10
534.9990657766213
 20
279.5697148573896
 30
0.0
 11
549.9063895175311
 21
279.5697148573896
 31
0.0
  0
LINE
  5
16BC
330
6B
100
AcDbEntity
  8
0
  6
Continuous
100
AcDbLine
 10
502.7490657766214
 20
264.3977479864966
 30
0.0
 11
502.7490657766214
 21
271.5547277351823
 31
0.0
  0
LINE
  5
16BD
330
6B
100
AcDbEntity
  8
0
  6
Continuous
100
AcDbLine
 10
493.2490657766213
 20
259.4068775410341
 30
0.0
 11
493.2490657766213
 21
271.5547277351823
 31
0.0
  0
LINE
  5
16BE
330
6B
100
AcDbEntity
  8
0
  6
Continuous
100
AcDbLine
 10
500.2490657766214
 20
270.3047277351823
 30
0.0
 11
495.7490657766213
 21
270.3047277351823
 31
0.0
  0
LINE
  5
16C2
330
6B
100
AcDbEntity
  8
0
  6
Continuous
100
AcDbLine
 10
494.4990657766214
 20
306.2029765444998
 30
0.0
 11
487.6747995862177
 21
306.2029765444998
 31
0.0
  0
LINE
  5
16C3
330
6B
100
AcDbEntity
  8
0
  6
Continuous
100
AcDbLine
 10
492.9990657766213
 20
284.7029765444998
 30
0.0
 11
487.6747995862177
 21
284.7029765444998
 31
0.0
  0
LINE
  5
16C4
330
6B
100
AcDbEntity
  8
0
  6
Continuous
100
AcDbLine
 10
488.9247995862176
 20
303.7029765444998
 30
0.0
 11
488.9247995862176
 21
287.2029765444998
 31
0.0
  0
LINE
  5
16C8
330
6B
100
AcDbEntity
  8
0
  6
Continuous
100
AcDbLine
 10
524.9990657766213
 20
304.4529765444998
 30
0.0
 11
524.9990657766213
 21
312.2075621504803
 31
0.0
  0
LINE
  5
16C9
330
6B
100
AcDbEntity
  8
0
  6
Continuous
100
AcDbLine
 10
493.2490657766213
 20
304.4529765444998
 30
0.0
 11
493.2490657766213
 21
312.2075621504803
 31
0.0
  0
LINE
  5
16CA
330
6B
100
AcDbEntity
  8
0
  6
Continuous
100
AcDbLine
 10
522.4990657766213
 20
310.9575621504803
 30
0.0
 11
495.7490657766213
 21
310.9575621504803
 31
0.0
  0
LINE
  5
16CE
330
6B
100
AcDbEntity
  8
0
  6
Continuous
100
AcDbLine
 10
497.6941074994348
 20
266.056877541034
 30
0.0
 11
486.0412947742069
 21
266.056877541034
 31
0.0
  0
LINE
  5
16CF
330
6B
100
AcDbEntity
  8
0
  6
Continuous
100
AcDbLine
 10
497.6941074994351
 20
252.2568775410341
 30
0.0
 11
486.0412947742069
 21
252.2568775410341
 31
0.0
  0
LINE
  5
16D0
330
6B
100
AcDbEntity
  8
0
  6
Continuous
100
AcDbLine
 10
487.2912947742069
 20
263.556877541034
 30
0.0
 11
487.2912947742069
 21
254.7568775410341
 31
0.0
  0
LINE
  5
16D4
330
6B
100
AcDbEntity
  8
0
  6
Continuous
100
AcDbLine
 10
564.6241650073263
 20
336.3756183036717
 30
0.0
 11
567.3365194815462
 21
329.0823367238865
 31
0.0
1001
ACAD
1000
DSTYLE
1002
{
1070
   147
1040
0.625
1070
    77
1070
     0
1002
}
  0
LINE
  5
16D5
330
6B
100
AcDbEntity
  8
0
  6
ByBlock
 62
     0
370
    -2
100
AcDbLine
 10
563.9963057850488
 20
336.1421189176827
 30
0.0
 11
563.7527328094491
 21
338.7188225040142
 31
0.0
  0
LINE
  5
16D6
330
6B
100
AcDbEntity
  8
0
  6
ByBlock
 62
     0
370
    -2
100
AcDbLine
 10
563.7527328094491
 20
338.7188225040142
 30
0.0
 11
565.252024229604
 21
336.6091176896607
 31
0.0
  0
LINE
  5
16D7
330
6B
100
AcDbEntity
  8
0
  6
ByBlock
 62
     0
370
    -2
100
AcDbLine
 10
563.7527328094491
 20
338.7188225040142
 30
0.0
 11
564.6241650073263
 21
336.3756183036717
 31
0.0
  0
LINE
  5
16D8
330
6B
100
AcDbEntity
  8
0
  6
Continuous
100
AcDbLine
 10
498.0541487831722
 20
342.2720075613457
 30
0.0
 11
501.5863581665934
 21
329.2222559463903
 31
0.0
1001
ACAD
1000
DSTYLE
1002
{
1070
   147
1040
0.625
1070
    77
1070
     0
1002
}
  0
LINE
  5
16D9
330
6B
100
AcDbEntity
  8
0
  6
ByBlock
 62
     0
370
    -2
100
AcDbLine
 10
497.4075439530192
 20
342.0969893912057
 30
0.0
 11
497.4009716108743
 21
344.6851713729401
 31
0.0
  0
LINE
  5
16DA
330
6B
100
AcDbEntity
  8
0
  6
ByBlock
 62
     0
370
    -2
100
AcDbLine
 10
497.4009716108743
 20
344.6851713729401
 30
0.0
 11
498.700753613325
 21
342.4470257314858
 31
0.0
  0
LINE
  5
16DB
330
6B
100
AcDbEntity
  8
0
  6
ByBlock
 62
     0
370
    -2
100
AcDbLine
 10
497.4009716108743
 20
344.6851713729401
 30
0.0
 11
498.0541487831722
 21
342.2720075613457
 31
0.0
  0
LINE
  5
16DC
330
6B
100
AcDbEntity
  8
0
  6
Continuous
100
AcDbLine
 10
485.3267732292517
 20
334.8441602422216
 30
0.0
 11
485.7147751472656
 21
329.3833548928033
 31
0.0
1001
ACAD
1000
DSTYLE
1002
{
1070
   147
1040
0.625
1070
    77
1070
     0
1002
}
  0
LINE
  5
16DD
330
6B
100
AcDbEntity
  8
0
  6
ByBlock
 62
     0
370
    -2
100
AcDbLine
 10
484.6585852483026
 20
334.7966840548073
 30
0.0
 11
485.1495895584251
 21
337.3378735270225
 31
0.0
  0
LINE
  5
16DE
330
6B
100
AcDbEntity
  8
0
  6
ByBlock
 62
     0
370
    -2
100
AcDbLine
 10
485.1495895584251
 20
337.3378735270225
 30
0.0
 11
485.9949612102008
 21
334.8916364296359
 31
0.0
  0
LINE
  5
16DF
330
6B
100
AcDbEntity
  8
0
  6
ByBlock
 62
     0
370
    -2
100
AcDbLine
 10
485.1495895584251
 20
337.3378735270225
 30
0.0
 11
485.3267732292517
 21
334.8441602422216
 31
0.0
  0
LINE
  5
16E0
330
6B
100
AcDbEntity
  8
0
  6
Continuous
100
AcDbLine
 10
444.1579876985606
 20
343.7186232408822
 30
0.0
 11
448.1376759807963
 21
329.2176416700868
 31
0.0
1001
ACAD
1000
DSTYLE
1002
{
1070
   340
1005
5B1
1002
}
  0
LINE
  5
16E1
330
6B
100
AcDbEntity
  8
0
  6
ByBlock
 62
     0
370
    -2
100
AcDbLine
 10
443.5120010637684
 20
343.5413369359233
 30
0.0
 11
443.4963457258011
 21
346.1294799143248
 31
0.0
  0
LINE
  5
16E2
330
6B
100
AcDbEntity
  8
0
  6
ByBlock
 62
     0
370
    -2
100
AcDbLine
 10
443.4963457258011
 20
346.1294799143248
 30
0.0
 11
444.8039743333529
 21
343.8959095458411
 31
0.0
  0
LINE
  5
16E3
330
6B
100
AcDbEntity
  8
0
  6
ByBlock
 62
     0
370
    -2
100
AcDbLine
 10
443.4963457258011
 20
346.1294799143248
 30
0.0
 11
444.1579876985606
 21
343.7186232408822
 31
0.0
  0
TEXT
  5
16E4
330
6B
100
AcDbEntity
  8
0
  6
Continuous
 62
     4
100
AcDbText
 10
439.265078933392
 20
361.58654491543
 30
0.0
 40
3.0
  1
\U+220543
100
AcDbText
  0
LINE
  5
16E5
330
6B
100
AcDbEntity
  8
0
  6
ByBlock
 62
     0
370
    -2
100
AcDbLine
 10
434.9816889585668
 20
360.29167241543
 30
0.0
 11
432.4816889585669
 21
360.96154491543
 31
0.0
  0
LINE
  5
16E6
330
6B
100
AcDbEntity
  8
0
  6
ByBlock
 62
     0
370
    -2
100
AcDbLine
 10
432.4816889585669
 20
360.96154491543
 30
0.0
 11
434.9816889585668
 21
361.63141741543
 31
0.0
  0
LINE
  5
16E7
330
6B
100
AcDbEntity
  8
0
  6
ByBlock
 62
     0
370
    -2
100
AcDbLine
 10
432.4816889585669
 20
360.96154491543
 30
0.0
 11
434.9816889585668
 21
360.96154491543
 31
0.0
  0
LINE
  5
16E8
330
6B
100
AcDbEntity
  8
0
  6
ByBlock
 62
     0
370
    -2
100
AcDbLine
 10
451.4816889585669
 20
361.63141741543
 30
0.0
 11
453.981688958567
 21
360.96154491543
 31
0.0
  0
LINE
  5
16E9
330
6B
100
AcDbEntity
  8
0
  6
ByBlock
 62
     0
370
    -2
100
AcDbLine
 10
453.981688958567
 20
360.96154491543
 30
0.0
 11
451.4816889585669
 21
360.29167241543
 31
0.0
  0
LINE
  5
16EA
330
6B
100
AcDbEntity
  8
0
  6
ByBlock
 62
     0
370
    -2
100
AcDbLine
 10
453.981688958567
 20
360.96154491543
 30
0.0
 11
451.4816889585669
 21
360.96154491543
 31
0.0
  0
TEXT
  5
16EB
330
6B
100
AcDbEntity
  8
0
  6
Continuous
 62
     4
100
AcDbText
 10
510.9591176205626
 20
362.9240129259204
 30
0.0
 40
3.0
  1
203.5
100
AcDbText
  0
LINE
  5
16EC
330
6B
100
AcDbEntity
  8
0
  6
ByBlock
 62
     0
370
    -2
100
AcDbLine
 10
566.0020878731765
 20
362.9688854259204
 30
0.0
 11
568.5020878731766
 21
362.2990129259203
 31
0.0
  0
LINE
  5
16ED
330
6B
100
AcDbEntity
  8
0
  6
ByBlock
 62
     0
370
    -2
100
AcDbLine
 10
568.5020878731766
 20
362.2990129259203
 30
0.0
 11
566.0020878731765
 21
361.6291404259204
 31
0.0
  0
LINE
  5
16EE
330
6B
100
AcDbEntity
  8
0
  6
ByBlock
 62
     0
370
    -2
100
AcDbLine
 10
568.5020878731766
 20
362.2990129259203
 30
0.0
 11
566.0020878731765
 21
362.2990129259203
 31
0.0
  0
LINE
  5
16EF
330
6B
100
AcDbEntity
  8
0
  6
ByBlock
 62
     0
370
    -2
100
AcDbLine
 10
469.2520925566476
 20
361.6291404259204
 30
0.0
 11
466.7520925566476
 21
362.2990129259203
 31
0.0
  0
LINE
  5
16F0
330
6B
100
AcDbEntity
  8
0
  6
ByBlock
 62
     0
370
    -2
100
AcDbLine
 10
466.7520925566476
 20
362.2990129259203
 30
0.0
 11
469.2520925566476
 21
362.9688854259204
 31
0.0
  0
LINE
  5
16F1
330
6B
100
AcDbEntity
  8
0
  6
ByBlock
 62
     0
370
    -2
100
AcDbLine
 10
466.7520925566476
 20
362.2990129259203
 30
0.0
 11
469.2520925566476
 21
362.2990129259203
 31
0.0
  0
TEXT
  5
16F2
330
6B
100
AcDbEntity
  8
0
  6
Continuous
 62
     4
100
AcDbText
 10
555.5313895175311
 20
280.1947148573896
 30
0.0
 40
3.0
  1
約1.7m
100
AcDbText
  0
LINE
  5
16F3
330
6B
100
AcDbEntity
  8
0
  6
ByBlock
 62
     0
370
    -2
100
AcDbLine
 10
552.4063895175311
 20
278.8998423573896
 30
0.0
 11
549.9063895175311
 21
279.5697148573896
 31
0.0
  0
LINE
  5
16F4
330
6B
100
AcDbEntity
  8
0
  6
ByBlock
 62
     0
370
    -2
100
AcDbLine
 10
549.9063895175311
 20
279.5697148573896
 30
0.0
 11
552.4063895175311
 21
280.2395873573896
 31
0.0
  0
LINE
  5
16F5
330
6B
100
AcDbEntity
  8
0
  6
ByBlock
 62
     0
370
    -2
100
AcDbLine
 10
549.9063895175311
 20
279.5697148573896
 30
0.0
 11
552.4063895175311
 21
279.5697148573896
 31
0.0
  0
LINE
  5
16F6
330
6B
100
AcDbEntity
  8
0
  6
ByBlock
 62
     0
370
    -2
100
AcDbLine
 10
532.4990657766213
 20
280.2395873573896
 30
0.0
 11
534.9990657766213
 21
279.5697148573896
 31
0.0
  0
LINE
  5
16F7
330
6B
100
AcDbEntity
  8
0
  6
ByBlock
 62
     0
370
    -2
100
AcDbLine
 10
534.9990657766213
 20
279.5697148573896
 30
0.0
 11
532.4990657766213
 21
278.8998423573896
 31
0.0
  0
LINE
  5
16F8
330
6B
100
AcDbEntity
  8
0
  6
ByBlock
 62
     0
370
    -2
100
AcDbLine
 10
534.9990657766213
 20
279.5697148573896
 30
0.0
 11
532.4990657766213
 21
279.5697148573896
 31
0.0
  0
LINE
  5
16F9
330
6B
100
AcDbEntity
  8
0
  6
Continuous
100
AcDbLine
 10
527.2436796021993
 20
295.5537529859376
 30
0.0
 11
539.437641570505
 21
301.5337687505838
 31
0.0
1001
ACAD
1000
DSTYLE
1002
{
1070
   147
1040
0.625
1070
    77
1070
     0
1002
}
  0
LINE
  5
16FA
330
6B
100
AcDbEntity
  8
0
  6
ByBlock
 62
     0
370
    -2
100
AcDbLine
 10
527.538631548906
 20
294.9523109559878
 30
0.0
 11
524.9990657766213
 21
294.4529765444999
 31
0.0
  0
LINE
  5
16FB
330
6B
100
AcDbEntity
  8
0
  6
ByBlock
 62
     0
370
    -2
100
AcDbLine
 10
524.9990657766213
 20
294.4529765444999
 30
0.0
 11
526.9487276554924
 21
296.1551950158874
 31
0.0
  0
LINE
  5
16FC
330
6B
100
AcDbEntity
  8
0
  6
ByBlock
 62
     0
370
    -2
100
AcDbLine
 10
524.9990657766213
 20
294.4529765444999
 30
0.0
 11
527.2436796021993
 21
295.5537529859376
 31
0.0
  0
TEXT
  5
16FD
330
6B
100
AcDbEntity
  8
0
  6
Continuous
 62
     4
100
AcDbText
 10
496.2726510477793
 20
270.9297277351823
 30
0.0
 40
3.0
  1
19
100
AcDbText
  0
LINE
  5
16FE
330
6B
100
AcDbEntity
  8
0
  6
ByBlock
 62
     0
370
    -2
100
AcDbLine
 10
495.7490657766213
 20
269.6348552351823
 30
0.0
 11
493.2490657766213
 21
270.3047277351823
 31
0.0
  0
LINE
  5
16FF
330
6B
100
AcDbEntity
  8
0
  6
ByBlock
 62
     0
370
    -2
100
AcDbLine
 10
493.2490657766213
 20
270.3047277351823
 30
0.0
 11
495.7490657766213
 21
270.9746002351823
 31
0.0
  0
LINE
  5
1700
330
6B
100
AcDbEntity
  8
0
  6
ByBlock
 62
     0
370
    -2
100
AcDbLine
 10
493.2490657766213
 20
270.3047277351823
 30
0.0
 11
495.7490657766213
 21
270.3047277351823
 31
0.0
  0
LINE
  5
1701
330
6B
100
AcDbEntity
  8
0
  6
ByBlock
 62
     0
370
    -2
100
AcDbLine
 10
500.2490657766214
 20
270.9746002351823
 30
0.0
 11
502.7490657766214
 21
270.3047277351823
 31
0.0
  0
LINE
  5
1702
330
6B
100
AcDbEntity
  8
0
  6
ByBlock
 62
     0
370
    -2
100
AcDbLine
 10
502.7490657766214
 20
270.3047277351823
 30
0.0
 11
500.2490657766214
 21
269.6348552351823
 31
0.0
  0
LINE
  5
1703
330
6B
100
AcDbEntity
  8
0
  6
ByBlock
 62
     0
370
    -2
100
AcDbLine
 10
502.7490657766214
 20
270.3047277351823
 30
0.0
 11
500.2490657766214
 21
270.3047277351823
 31
0.0
  0
TEXT
  5
1704
330
6B
100
AcDbEntity
  8
0
  6
Continuous
 62
     4
100
AcDbText
 10
488.2997995862176
 20
291.9666640929538
 30
0.0
 40
3.0
  1
43
 50
90.0
100
AcDbText
  0
LINE
  5
1705
330
6B
100
AcDbEntity
  8
0
  6
ByBlock
 62
     0
370
    -2
100
AcDbLine
 10
489.5946720862177
 20
287.2029765444998
 30
0.0
 11
488.9247995862176
 21
284.7029765444998
 31
0.0
  0
LINE
  5
1706
330
6B
100
AcDbEntity
  8
0
  6
ByBlock
 62
     0
370
    -2
100
AcDbLine
 10
488.9247995862176
 20
284.7029765444998
 30
0.0
 11
488.2549270862177
 21
287.2029765444998
 31
0.0
  0
LINE
  5
1707
330
6B
100
AcDbEntity
  8
0
  6
ByBlock
 62
     0
370
    -2
100
AcDbLine
 10
488.9247995862176
 20
284.7029765444998
 30
0.0
 11
488.9247995862176
 21
287.2029765444998
 31
0.0
  0
LINE
  5
1708
330
6B
100
AcDbEntity
  8
0
  6
ByBlock
 62
     0
370
    -2
100
AcDbLine
 10
488.2549270862177
 20
303.7029765444998
 30
0.0
 11
488.9247995862176
 21
306.2029765444998
 31
0.0
  0
LINE
  5
1709
330
6B
100
AcDbEntity
  8
0
  6
ByBlock
 62
     0
370
    -2
100
AcDbLine
 10
488.9247995862176
 20
306.2029765444998
 30
0.0
 11
489.5946720862177
 21
303.7029765444998
 31
0.0
  0
LINE
  5
170A
330
6B
100
AcDbEntity
  8
0
  6
ByBlock
 62
     0
370
    -2
100
AcDbLine
 10
488.9247995862176
 20
306.2029765444998
 30
0.0
 11
488.9247995862176
 21
303.7029765444998
 31
0.0
  0
TEXT
  5
170B
330
6B
100
AcDbEntity
  8
0
  6
Continuous
 62
     4
100
AcDbText
 10
502.7024954121973
 20
311.5825621504803
 30
0.0
 40
3.0
  1
63.5
100
AcDbText
  0
LINE
  5
170C
330
6B
100
AcDbEntity
  8
0
  6
ByBlock
 62
     0
370
    -2
100
AcDbLine
 10
495.7490657766213
 20
310.2876896504803
 30
0.0
 11
493.2490657766213
 21
310.9575621504803
 31
0.0
  0
LINE
  5
170D
330
6B
100
AcDbEntity
  8
0
  6
ByBlock
 62
     0
370
    -2
100
AcDbLine
 10
493.2490657766213
 20
310.9575621504803
 30
0.0
 11
495.7490657766213
 21
311.6274346504803
 31
0.0
  0
LINE
  5
170E
330
6B
100
AcDbEntity
  8
0
  6
ByBlock
 62
     0
370
    -2
100
AcDbLine
 10
493.2490657766213
 20
310.9575621504803
 30
0.0
 11
495.7490657766213
 21
310.9575621504803
 31
0.0
  0
LINE
  5
170F
330
6B
100
AcDbEntity
  8
0
  6
ByBlock
 62
     0
370
    -2
100
AcDbLine
 10
522.4990657766213
 20
311.6274346504803
 30
0.0
 11
524.9990657766213
 21
310.9575621504803
 31
0.0
  0
LINE
  5
1710
330
6B
100
AcDbEntity
  8
0
  6
ByBlock
 62
     0
370
    -2
100
AcDbLine
 10
524.9990657766213
 20
310.9575621504803
 30
0.0
 11
522.4990657766213
 21
310.2876896504803
 31
0.0
  0
LINE
  5
1711
330
6B
100
AcDbEntity
  8
0
  6
ByBlock
 62
     0
370
    -2
100
AcDbLine
 10
524.9990657766213
 20
310.9575621504803
 30
0.0
 11
522.4990657766213
 21
310.9575621504803
 31
0.0
  0
TEXT
  5
1712
330
6B
100
AcDbEntity
  8
0
  6
Continuous
 62
     4
100
AcDbText
 10
486.6662947742068
 20
254.5733975720304
 30
0.0
 40
3.0
  1
27.6
 50
90.0
100
AcDbText
  0
LINE
  5
1713
330
6B
100
AcDbEntity
  8
0
  6
ByBlock
 62
     0
370
    -2
100
AcDbLine
 10
487.9611672742068
 20
254.7568775410341
 30
0.0
 11
487.2912947742069
 21
252.2568775410341
 31
0.0
  0
LINE
  5
1714
330
6B
100
AcDbEntity
  8
0
  6
ByBlock
 62
     0
370
    -2
100
AcDbLine
 10
487.2912947742069
 20
252.2568775410341
 30
0.0
 11
486.6214222742069
 21
254.7568775410341
 31
0.0
  0
LINE
  5
1715
330
6B
100
AcDbEntity
  8
0
  6
ByBlock
 62
     0
370
    -2
100
AcDbLine
 10
487.2912947742069
 20
252.2568775410341
 30
0.0
 11
487.2912947742069
 21
254.7568775410341
 31
0.0
  0
LINE
  5
1716
330
6B
100
AcDbEntity
  8
0
  6
ByBlock
 62
     0
370
    -2
100
AcDbLine
 10
486.6214222742069
 20
263.556877541034
 30
0.0
 11
487.2912947742069
 21
266.056877541034
 31
0.0
  0
LINE
  5
1717
330
6B
100
AcDbEntity
  8
0
  6
ByBlock
 62
     0
370
    -2
100
AcDbLine
 10
487.2912947742069
 20
266.056877541034
 30
0.0
 11
487.9611672742068
 21
263.556877541034
 31
0.0
  0
LINE
  5
1718
330
6B
100
AcDbEntity
  8
0
  6
ByBlock
 62
     0
370
    -2
100
AcDbLine
 10
487.2912947742069
 20
266.056877541034
 30
0.0
 11
487.2912947742069
 21
263.556877541034
 31
0.0
  0
ENDSEC
  0
SECTION
  2
OBJECTS
  0
DICTIONARY
  5
C
330
0
100
AcDbDictionary
281
     1
  3
ACAD_2007HEADERVARS_RT
350
171C
  3
ACAD_COLOR
350
62
  3
ACAD_GROUP
350
D
  3
ACAD_LAYOUT
350
61
  3
ACAD_MATERIAL
350
10
  3
ACAD_MLEADERSTYLE
350
65
  3
ACAD_MLINESTYLE
350
5E
  3
ACAD_PLOTSETTINGS
350
60
  3
ACAD_PLOTSTYLENAME
350
E
  3
ACAD_SCALELIST
350
42
  3
ACAD_TABLESTYLE
350
63
  3
ACAD_VISUALSTYLE
350
29
  3
AcadDim
350
94D
  3
ACDB_RECOMPOSE_DATA
350
171A
  3
AcDbVariableDictionary
350
AA7
  3
DWGPROPS
350
171B
  0
DICTIONARY
  5
5C5
330
2
100
AcDbDictionary
280
     1
281
     1
  3
ACAD_LAYERSTATES
360
5C6
  0
DICTIONARY
  5
AA3
330
54
100
AcDbDictionary
280
     1
281
     1
  3
ADSK_XREC_LAYER_RECONCILED
360
AA4
  0
DICTIONARY
  5
3F2
330
6B
100
AcDbDictionary
280
     1
281
     1
  3
ACAD_SORTENTS
360
3F3
  0
DICTIONARY
  5
171C
102
{ACAD_REACTORS
330
C
102
}
330
C
100
AcDbDictionary
281
     1
  3
DIMARCSYM
350
171E
  3
DIMFXL
350
171D
  3
DIMJOGANG
350
171F
  0
DICTIONARY
  5
62
102
{ACAD_REACTORS
330
C
102
}
330
C
100
AcDbDictionary
281
     1
  0
DICTIONARY
  5
D
102
{ACAD_REACTORS
330
C
102
}
330
C
100
AcDbDictionary
281
     1
  0
DICTIONARY
  5
61
102
{ACAD_REACTORS
330
C
102
}
330
C
100
AcDbDictionary
281
     1
  3
Model
350
6E
  3
レイアウト1
350
6A
  0
DICTIONARY
  5
10
102
{ACAD_REACTORS
330
C
102
}
330
C
100
AcDbDictionary
281
     1
  3
ByBlock
350
19
  3
ByLayer
350
11
  3
Global
350
21
  0
DICTIONARY
  5
65
102
{ACAD_REACTORS
330
C
102
}
330
C
100
AcDbDictionary
281
     1
  3
Standard
350
66
  0
DICTIONARY
  5
5E
102
{ACAD_REACTORS
330
C
102
}
330
C
100
AcDbDictionary
281
     1
  3
Standard
350
5F
  0
DICTIONARY
  5
60
102
{ACAD_REACTORS
330
C
102
}
330
C
100
AcDbDictionary
281
     1
  0
ACDBDICTIONARYWDFLT
  5
E
102
{ACAD_REACTORS
330
C
102
}
330
C
100
AcDbDictionary
281
     1
  3
Normal
350
F
100
AcDbDictionaryWithDefault
340
F
  0
DICTIONARY
  5
42
102
{ACAD_REACTORS
330
C
102
}
330
C
100
AcDbDictionary
281
     1
  3
A0
350
43
  3
A1
350
44
  3
A2
350
45
  3
A3
350
46
  3
A4
350
47
  3
A5
350
48
  3
A6
350
49
  3
A7
350
4A
  3
A8
350
4B
  3
A9
350
4C
  3
B0
350
4D
  3
B1
350
4E
  3
B2
350
4F
  3
B3
350
50
  3
B4
350
51
  3
B5
350
52
  3
B6
350
53
  0
DICTIONARY
  5
63
102
{ACAD_REACTORS
330
C
102
}
330
C
100
AcDbDictionary
281
     1
  3
Standard
350
64
  0
DICTIONARY
  5
29
102
{ACAD_REACTORS
330
C
102
}
330
C
100
AcDbDictionary
281
     1
  3
2dWireframe
350
2F
  3
3dWireframe
350
5C4
  3
Basic
350
2E
  3
Brighten
350
35
  3
ColorChange
350
39
  3
Conceptual
350
32
  3
Dim
350
34
  3
EdgeColorOff
350
41
  3
Facepattern
350
38
  3
Flat
350
2A
  3
FlatWithEdges
350
2B
  3
Gouraud
350
2C
  3
GouraudWithEdges
350
2D
  3
Hidden
350
31
  3
JitterOff
350
3F
  3
Linepattern
350
37
  3
OverhangOff
350
40
  3
Realistic
350
33
  3
Shaded
350
3E
  3
Shaded with edges
350
3D
  3
Shades of Gray
350
3A
  3
Sketchy
350
3B
  3
Thicken
350
36
  3
Wireframe
350
30
  3
X-Ray
350
3C
  0
XRECORD
  5
94D
102
{ACAD_REACTORS
330
C
102
}
330
C
100
AcDbXrecord
280
     1
 90
   990106
  3

 60
     0
 61
     0
 62
     1
 63
     3
 64
     0
 65
     0
 66
     0
 67
     3
 68
     1
 69
     0
 70
     0
 71
     0
 72
     0
 40
0.0
170
     0
  0
XRECORD
  5
171A
102
{ACAD_REACTORS
330
C
102
}
330
C
100
AcDbXrecord
280
     1
 90
        1
330
64
  0
DICTIONARY
  5
AA7
102
{ACAD_REACTORS
330
C
102
}
330
C
100
AcDbDictionary
281
     1
  3
CANNOSCALE
350
AAA
  3
CMLEADERSTYLE
350
AA9
  3
CTABLESTYLE
350
AA8
  3
DIMASSOC
350
AAD
  3
INDEXCTL
350
AAC
  3
SORTENTS
350
AAB
  3
XCLIPFRAME
350
1550
  0
XRECORD
  5
171B
102
{ACAD_REACTORS
330
C
102
}
330
C
100
AcDbXrecord
280
     1
  1
DWGPROPS COOKIE
  2

  3

  4

  6

  7

  8
imamura
  9

300
=
301
=
302
=
303
=
304
=
305
=
306
=
307
=
308
=
309
=
 40
0.4201499189814815
 41
2456009.47364493
 42
2456976.615135938
  1

 90
        0
  0
DICTIONARY
  5
5C6
102
{ACAD_REACTORS
330
5C5
102
}
330
5C5
100
AcDbDictionary
281
     1
  0
XRECORD
  5
AA4
102
{ACAD_REACTORS
330
AA3
102
}
330
AA3
100
AcDbXrecord
280
     1
290
     1
  0
SORTENTSTABLE
  5
3F3
102
{ACAD_REACTORS
330
3F2
102
}
330
3F2
100
AcDbSortentsTable
330
6B
331
E87
  5
1695
331
515
  5
51E
331
E83
  5
1691
331
511
  5
514
331
ED
  5
ED
331
B8C
  5
E33
331
127E
  5
16CE
331
50D
  5
516
331
B88
  5
E2D
331
127A
  5
16CA
331
E53
  5
168E
331
BB3
  5
15D7
331
509
  5
499
331
124
  5
124
331
120
  5
120
331
16B4
  5
DC7
331
16EF
  5
DE5
331
16EB
  5
E11
331
16AC
  5
DD7
331
3FD
  5
465
331
497
  5
4D6
331
16A8
  5
15B8
331
493
  5
4C8
331
4CE
  5
503
331
454
  5
471
331
48F
  5
4CD
331
450
  5
467
331
12BE
  5
170A
331
48B
  5
4C9
331
4CA
  5
3F1
331
12BA
  5
1706
331
12B6
  5
1702
331
15C5
  5
1604
331
163F
  5
1289
331
12B2
  5
16FF
331
15C1
  5
1600
331
163B
  5
1285
331
1676
  5
1547
331
DBF
  5
1668
331
15CD
  5
160C
331
1637
  5
1281
331
1672
  5
12E2
331
15C9
  5
1608
331
1633
  5
127D
331
15A4
  5
15E3
331
1604
  5
E84
331
15A0
  5
15DF
331
1600
  5
E53
331
B84
  5
E1C
331
1276
  5
16C6
331
505
  5
490
331
B80
  5
E14
331
1272
  5
16C2
331
11C
  5
11C
331
501
  5
48D
331
D5
  5
D5
331
BA7
  5
15CC
331
4FD
  5
4B8
331
D1
  5
D1
331
118
  5
118
331
BEA
  5
1643
331
9C0
  5
DA8
331
E43
  5
163C
331
BA3
  5
15CA
331
CD
  5
CD
331
114
  5
114
331
16E7
  5
167B
331
C9
  5
C9
331
110
  5
110
331
16E3
  5
169C
331
16A4
  5
15B4
331
16DF
  5
16A0
331
16A0
  5
15B0
331
16DB
  5
16A4
331
169C
  5
15AC
331
1716
  5
9AE
331
487
  5
4C4
331
4C6
  5
4E4
331
3E5
  5
3E5
331
1698
  5
15A8
331
1712
  5
B7E
331
3E1
  5
3E1
331
483
  5
4C2
331
4C2
  5
426
331
4BE
  5
3FA
331
3DD
  5
3DD
331
43C
  5
42F
331
47F
  5
4BE
331
12AE
  5
16FB
331
15BD
  5
15FC
331
4BA
  5
400
331
3D9
  5
3D9
331
438
  5
454
331
12AA
  5
16F8
331
15B9
  5
15F8
331
12A6
  5
16F6
331
15B5
  5
15F4
331
166E
  5
12BC
331
162F
  5
1279
331
12A2
  5
16F2
331
15B1
  5
15F0
331
166A
  5
12B8
331
162B
  5
1275
331
1666
  5
12B3
331
1627
  5
1271
331
15FC
  5
E44
331
1662
  5
12AF
331
1598
  5
1674
331
1623
  5
1073
331
DA3
  5
165A
331
DEA
  5
15CE
331
15F8
  5
E40
331
D9F
  5
1656
331
15F4
  5
E3C
331
DE2
  5
1670
331
15F0
  5
162F
331
D9B
  5
164B
331
E3F
  5
168A
331
9BC
  5
DA2
331
F72
  5
16BB
331
E3B
  5
1686
331
BDA
  5
1638
331
B9B
  5
15C4
331
4F1
  5
47F
331
10C
  5
10C
331
C5
  5
C5
331
F6E
  5
16B7
331
E37
  5
1682
331
108
  5
108
331
F6A
  5
16B3
331
9B0
  5
BE5
331
E33
  5
1645
331
B93
  5
15BF
331
BD
  5
BD
331
104
  5
104
331
B9
  5
B9
331
100
  5
100
331
16D7
  5
16A8
331
3F1
  5
466
331
1694
  5
15A4
331
170E
  5
B8D
331
1690
  5
15A0
331
170A
  5
B9A
331
16CF
  5
9A9
331
168C
  5
159C
331
1706
  5
BA0
331
434
  5
45A
331
4B6
  5
42A
331
3D5
  5
3D5
331
1688
  5
1598
331
1702
  5
BAF
331
430
  5
444
331
4B2
  5
4EA
331
4AE
  5
4DD
331
46F
  5
4B5
331
129E
  5
16EE
331
15AD
  5
15EC
331
46B
  5
4B0
331
4AA
  5
418
331
428
  5
455
331
129A
  5
16EA
331
15A9
  5
15E8
331
1296
  5
16E6
331
165E
  5
12AA
331
161F
  5
F74
331
1292
  5
16E2
331
165A
  5
12A4
331
161B
  5
F70
331
1656
  5
12A0
331
154D
  5
1716
331
15EC
  5
162B
331
1617
  5
F6C
331
D97
  5
1653
331
1652
  5
129C
331
1549
  5
1712
331
15E8
  5
1627
331
1613
  5
F68
331
D93
  5
164F
331
15E4
  5
1623
331
15E0
  5
161F
331
F66
  5
16AF
331
9AC
  5
BDD
331
F62
  5
16AB
331
BCA
  5
1633
331
4E1
  5
507
331
FC
  5
FC
331
E17
  5
1672
331
BC6
  5
1630
331
51C
  5
491
331
F8
  5
F8
331
E8A
  5
1698
331
E13
  5
1671
331
B5
  5
B5
331
F4
  5
F4
331
F0
  5
F0
331
1684
  5
1594
331
16C3
  5
B90
331
16FE
  5
BCA
331
1680
  5
1590
331
16FA
  5
BE7
331
167C
  5
154D
331
16F6
  5
DCB
331
1678
  5
1549
331
16F2
  5
DD6
331
131
  5
131
331
49E
  5
4AA
331
12D
  5
12D
331
45F
  5
47D
331
49A
  5
4DA
331
129
  5
129
331
418
  5
464
331
128E
  5
16DE
331
45B
  5
472
331
128A
  5
16DA
331
1286
  5
16D6
331
164E
  5
1298
331
160F
  5
E8F
331
1282
  5
16D2
331
164A
  5
1294
331
160B
  5
E8B
331
15DC
  5
161B
331
1646
  5
1290
331
15D8
  5
1617
331
1642
  5
128C
331
15D4
  5
1613
331
15D0
  5
160F
331
E86
  5
1694
331
514
  5
51D
331
B8F
  5
E36
331
E82
  5
1690
331
510
  5
511
331
B8B
  5
E32
331
127D
  5
16CD
331
D8D
  5
15DB
331
BB6
  5
15D8
331
50C
  5
510
331
127
  5
127
331
1279
  5
16C9
331
BB2
  5
15D6
331
123
  5
123
331
508
  5
488
331
16B3
  5
DC4
331
16EE
  5
E0F
331
16EA
  5
1678
331
16AB
  5
15BB
331
3FC
  5
479
331
496
  5
4CC
331
457
  5
468
331
4CD
  5
502
331
453
  5
470
331
48E
  5
4CB
331
12BD
  5
1709
331
4C9
  5
3F5
331
12B9
  5
1705
331
15C4
  5
1603
331
163E
  5
1288
331
12B1
  5
16FE
331
15C0
  5
15FF
331
163A
  5
1284
331
1675
  5
1546
331
DBE
  5
1667
331
15CC
  5
160B
331
1636
  5
1280
331
1671
  5
12BF
331
15A7
  5
15E6
331
1632
  5
127C
331
15C8
  5
1607
331
1607
  5
E87
331
15A3
  5
15E2
331
1603
  5
E83
331
DF1
  5
15C6
331
B87
  5
E2C
331
B83
  5
E17
331
1275
  5
16C5
331
E4E
  5
168D
331
504
  5
483
331
11F
  5
11F
331
1271
  5
16C1
331
D69
  5
1649
331
BAA
  5
15D3
331
500
  5
481
331
11B
  5
11B
331
D4
  5
D4
331
BA6
  5
15CB
331
4FC
  5
4BC
331
D0
  5
D0
331
117
  5
117
331
BE9
  5
1642
331
E42
  5
163B
331
BA2
  5
15C9
331
CC
  5
CC
331
417
  5
45B
331
113
  5
113
331
16E6
  5
167A
331
16A7
  5
15B7
331
C8
  5
C8
331
16E2
  5
169B
331
16A3
  5
15B3
331
16DE
  5
169F
331
169F
  5
15AF
331
447
  5
47A
331
16DA
  5
16A3
331
169B
  5
15AB
331
1715
  5
9BF
331
3E4
  5
3E4
331
4C5
  5
4E8
331
1711
  5
B88
331
3E0
  5
3E0
331
482
  5
4C1
331
4C1
  5
42B
331
4BD
  5
3F8
331
3DC
  5
3DC
331
47E
  5
4BD
331
12AD
  5
16FA
331
15BC
  5
15FB
331
4B9
  5
429
331
3D8
  5
3D8
331
15B8
  5
15F7
331
12A5
  5
16F5
331
15B4
  5
15F3
331
166D
  5
12BB
331
162E
  5
1278
331
12A1
  5
16F1
331
15B0
  5
15EF
331
1669
  5
12B7
331
159F
  5
15DE
331
162A
  5
1274
331
15FF
  5
E4E
331
1665
  5
12B2
331
1626
  5
1270
331
15FB
  5
E43
331
1661
  5
12AE
331
1597
  5
1673
331
1622
  5
1072
331
DA2
  5
1659
331
DE9
  5
15D1
331
15F7
  5
E3F
331
D9E
  5
1655
331
15F3
  5
E3B
331
DE1
  5
166F
331
D9A
  5
164C
331
9BF
  5
DA5
331
F75
  5
16BE
331
9BB
  5
D9B
331
E3E
  5
1689
331
BDD
  5
1639
331
10F
  5
10F
331
F71
  5
16BA
331
E3A
  5
1685
331
B9A
  5
15C3
331
4F0
  5
48A
331
10B
  5
10B
331
C4
  5
C4
331
F6D
  5
16B6
331
E36
  5
1681
331
107
  5
107
331
4EC
  5
50D
331
F69
  5
16B2
331
E32
  5
1646
331
BD1
  5
1636
331
B92
  5
15BE
331
4E8
  5
50B
331
BC
  5
BC
331
3F4
  5
45F
331
103
  5
103
331
16D6
  5
16A7
331
1697
  5
15A7
331
3F0
  5
460
331
B8
  5
B8
331
1693
  5
15A3
331
B7C
  5
E12
331
170D
  5
B8B
331
168F
  5
159F
331
1709
  5
B99
331
16CE
  5
98C
331
437
  5
41A
331
168B
  5
159B
331
16CA
  5
B82
331
1705
  5
B9B
331
433
  5
419
331
4B5
  5
42C
331
1701
  5
BAE
331
4B1
  5
4E6
331
4AD
  5
3F6
331
46E
  5
4B4
331
129D
  5
16ED
331
15AC
  5
15EB
331
1299
  5
16E9
331
15A8
  5
15E7
331
1295
  5
16E5
331
165D
  5
12A7
331
161E
  5
F73
331
1291
  5
16E1
331
1659
  5
12A3
331
15EF
  5
162E
331
161A
  5
F6F
331
1655
  5
129F
331
154C
  5
1715
331
15EB
  5
162A
331
1616
  5
F6B
331
D96
  5
1652
331
1651
  5
129B
331
1548
  5
1711
331
15E7
  5
1626
331
1612
  5
F67
331
15E3
  5
1622
331
DD1
  5
1665
331
9AF
  5
BE4
331
9AB
  5
BDC
331
F65
  5
16AE
331
E2E
  5
167D
331
4E4
  5
509
331
FF
  5
FF
331
F61
  5
16AA
331
BC9
  5
1632
331
51F
  5
451
331
FB
  5
FB
331
F7
  5
F7
331
E89
  5
1697
331
E12
  5
15CF
331
B4
  5
B4
331
F3
  5
F3
331
1687
  5
1597
331
B0
  5
B0
331
1683
  5
1593
331
16C2
  5
B8F
331
16FD
  5
BCE
331
167F
  5
158F
331
16BE
  5
BAA
331
16F9
  5
D9A
331
427
  5
458
331
167B
  5
154C
331
16F5
  5
DD5
331
16F1
  5
DF1
331
130
  5
130
331
462
  5
47E
331
49D
  5
4AC
331
12C
  5
12C
331
45E
  5
47B
331
128D
  5
16DD
331
45A
  5
42E
331
499
  5
4D8
331
128
  5
128
331
1289
  5
16D9
331
12E4
  5
170E
331
1285
  5
16D5
331
164D
  5
1297
331
160E
  5
E8E
331
1281
  5
16D1
331
1649
  5
1293
331
15DF
  5
161E
331
160A
  5
E8A
331
15DB
  5
161A
331
1645
  5
128F
331
DC9
  5
166C
331
15D7
  5
1616
331
1641
  5
128B
331
15D3
  5
1612
331
DC1
  5
166A
331
517
  5
520
331
E85
  5
1693
331
EF
  5
EF
331
B8E
  5
E35
331
50F
  5
51C
331
B8A
  5
E30
331
127C
  5
16CC
331
E7
  5
E7
331
126
  5
126
331
50B
  5
489
331
1278
  5
16C8
331
BB1
  5
15D5
331
98C
  5
BA5
331
122
  5
122
331
16B6
  5
DCA
331
16B2
  5
DC3
331
16ED
  5
E05
331
16AE
  5
DE4
331
3FF
  5
463
331
16E9
  5
1677
331
16AA
  5
15BA
331
3FB
  5
478
331
495
  5
4CE
331
3EF
  5
3EF
331
456
  5
475
331
48D
  5
4CA
331
4CC
  5
501
331
452
  5
46F
331
12BC
  5
1708
331
489
  5
4C7
331
4C8
  5
4DE
331
12B8
  5
1704
331
15C7
  5
1606
331
12B4
  5
1701
331
15C3
  5
1602
331
163D
  5
1287
331
12B0
  5
16FD
331
15CF
  5
160E
331
1639
  5
1283
331
1674
  5
12E4
331
DBD
  5
1666
331
15CB
  5
160A
331
1635
  5
127F
331
1670
  5
12BE
331
15A6
  5
15E5
331
1631
  5
127B
331
1606
  5
E86
331
15A2
  5
15E1
331
1602
  5
E82
331
DA9
  5
165C
331
B86
  5
E1F
331
507
  5
487
331
B82
  5
E16
331
1274
  5
16C4
331
E4D
  5
168C
331
503
  5
482
331
1270
  5
16C0
331
BA9
  5
15D0
331
4FF
  5
480
331
11A
  5
11A
331
D3
  5
D3
331
CF
  5
CF
331
116
  5
116
331
BE8
  5
1641
331
E41
  5
163A
331
BA1
  5
15C8
331
CB
  5
CB
331
112
  5
112
331
16E5
  5
1679
331
16A6
  5
15B6
331
16E1
  5
169A
331
16A2
  5
15B2
331
16DD
  5
169E
331
169E
  5
15AE
331
1718
  5
9B0
331
16D9
  5
16A2
331
169A
  5
15AA
331
1714
  5
9BE
331
3E3
  5
3E3
331
485
  5
4C3
331
4C4
  5
4EC
331
1710
  5
B87
331
4C0
  5
446
331
3DF
  5
3DF
331
481
  5
4C0
331
15BF
  5
15FE
331
4BC
  5
3FE
331
3DB
  5
3DB
331
15BB
  5
15FA
331
4B8
  5
445
331
15B7
  5
15F6
331
12A4
  5
16F4
331
15B3
  5
15F2
331
166C
  5
12BA
331
162D
  5
1277
331
12A0
  5
16F0
331
1668
  5
12B6
331
159E
  5
15DD
331
1629
  5
1273
331
15FE
  5
E4D
331
1664
  5
12B1
331
1625
  5
126F
331
DA5
  5
15D9
331
15FA
  5
E42
331
1660
  5
12AD
331
1621
  5
1071
331
DA1
  5
1658
331
15F6
  5
E3E
331
D9D
  5
164E
331
15F2
  5
E39
331
D99
  5
164D
331
DE0
  5
1647
331
9BE
  5
DA4
331
F74
  5
16BD
331
E3D
  5
1688
331
4F3
  5
4B7
331
C7
  5
C7
331
10E
  5
10E
331
F70
  5
16B9
331
E39
  5
1684
331
BD8
  5
1637
331
B99
  5
15C2
331
4EF
  5
50F
331
10A
  5
10A
331
F6C
  5
16B5
331
E35
  5
1680
331
B95
  5
15C1
331
BF
  5
BF
331
3F7
  5
45D
331
106
  5
106
331
F68
  5
16B1
331
E31
  5
167E
331
B91
  5
15BD
331
BB
  5
BB
331
102
  5
102
331
16D5
  5
16A6
331
1696
  5
15A6
331
520
  5
42D
331
1692
  5
15A2
331
170C
  5
B89
331
168E
  5
159E
331
1708
  5
B95
331
436
  5
424
331
3D7
  5
3D7
331
168A
  5
159A
331
16C9
  5
B81
331
1704
  5
BA4
331
432
  5
423
331
4B4
  5
450
331
1700
  5
BCD
331
4B0
  5
4E2
331
4AC
  5
3FC
331
143
  5
143
331
15AF
  5
15EE
331
46D
  5
4B3
331
129C
  5
16EC
331
15AB
  5
15EA
331
4A8
  5
4FF
331
1298
  5
16E8
331
1294
  5
16E4
331
165C
  5
12A6
331
161D
  5
F72
331
1290
  5
16E0
331
1658
  5
12A2
331
154F
  5
1718
331
15EE
  5
162D
331
1619
  5
F6E
331
1654
  5
129E
331
154B
  5
1714
331
15EA
  5
1629
331
1615
  5
F6A
331
D95
  5
1651
331
1650
  5
129A
331
1547
  5
1710
331
15E6
  5
1625
331
1611
  5
F66
331
15E2
  5
1621
331
9AE
  5
BDF
331
F64
  5
16AD
331
9AA
  5
BD4
331
FE
  5
FE
331
FA
  5
FA
331
4D7
  5
506
331
51E
  5
485
331
B7
  5
B7
331
F6
  5
F6
331
E88
  5
1696
331
E11
  5
15D2
331
F2
  5
F2
331
1686
  5
1596
331
1682
  5
1592
331
16FC
  5
BF3
331
167E
  5
154F
331
16BD
  5
BA9
331
16F8
  5
DD2
331
167A
  5
154B
331
16F4
  5
DD4
331
465
  5
4AD
331
133
  5
133
331
16F0
  5
DEA
331
12F
  5
12F
331
461
  5
459
331
49C
  5
4A9
331
12B
  5
12B
331
41A
  5
45C
331
45D
  5
476
331
128C
  5
16DC
331
459
  5
452
331
498
  5
4D7
331
1288
  5
16D8
331
12E3
  5
170D
331
1284
  5
16D4
331
164C
  5
1296
331
160D
  5
E8D
331
1280
  5
16D0
331
1648
  5
1292
331
15DE
  5
161D
331
1609
  5
E89
331
15DA
  5
1619
331
1644
  5
128E
331
DC8
  5
166B
331
15D6
  5
1615
331
1640
  5
128A
331
DC4
  5
166D
331
15D2
  5
1611
331
DC0
  5
1669
331
516
  5
51F
331
E84
  5
1692
331
EE
  5
EE
331
B8D
  5
E34
331
127F
  5
16CF
331
50E
  5
517
331
B89
  5
E2E
331
127B
  5
16CB
331
E54
  5
168F
331
125
  5
125
331
50A
  5
49B
331
BB0
  5
15D4
331
121
  5
121
331
16B5
  5
DC9
331
16EC
  5
DFB
331
16AD
  5
DE2
331
3FE
  5
461
331
16E8
  5
1676
331
16A9
  5
15B9
331
3FA
  5
477
331
494
  5
4C6
331
455
  5
473
331
490
  5
4D2
331
12BF
  5
170B
331
4CB
  5
500
331
451
  5
46A
331
12BB
  5
1707
331
488
  5
4C5
331
12B7
  5
1703
331
15C6
  5
1605
331
12B3
  5
1700
331
15C2
  5
1601
331
163C
  5
1286
331
1677
  5
1548
331
15CE
  5
160D
331
1638
  5
1282
331
1673
  5
12E3
331
15CA
  5
1609
331
1634
  5
127E
331
15A5
  5
15E4
331
1630
  5
127A
331
1605
  5
E85
331
15A1
  5
15E0
331
1601
  5
E54
331
DA8
  5
165B
331
B85
  5
E1E
331
1277
  5
16C7
331
506
  5
492
331
B81
  5
E15
331
1273
  5
16C3
331
502
  5
48F
331
126F
  5
16BF
331
E48
  5
168B
331
BA8
  5
15CD
331
4FE
  5
48B
331
D2
  5
D2
331
119
  5
119
331
BEB
  5
1644
331
9C1
  5
DB1
331
CE
  5
CE
331
115
  5
115
331
E40
  5
1640
331
BA0
  5
15C7
331
CA
  5
CA
331
111
  5
111
331
16E4
  5
167C
331
16A5
  5
15B5
331
16E0
  5
169D
331
16A1
  5
15B1
331
16DC
  5
16A1
331
169D
  5
15AD
331
1717
  5
9AF
331
4C7
  5
4E1
331
16D8
  5
16A5
331
1699
  5
15A9
331
1713
  5
9BD
331
3E2
  5
3E2
331
4C3
  5
4FE
331
4BF
  5
3FB
331
3DE
  5
3DE
331
43D
  5
453
331
480
  5
4BF
331
12AF
  5
16FC
331
15BE
  5
15FD
331
4BB
  5
3FF
331
3DA
  5
3DA
331
439
  5
430
331
12AB
  5
16F9
331
15BA
  5
15F9
331
12A7
  5
16F7
331
15B6
  5
15F5
331
166F
  5
12BD
331
12A3
  5
16F3
331
15B2
  5
15F1
331
166B
  5
12B9
331
162C
  5
1276
331
1667
  5
12B4
331
159D
  5
15DC
331
1628
  5
1272
331
15FD
  5
E48
331
1663
  5
12B0
331
1599
  5
1675
331
1624
  5
1074
331
DA4
  5
15DA
331
15F9
  5
E41
331
1620
  5
F75
331
DA0
  5
1657
331
DE7
  5
15C5
331
15F5
  5
E3D
331
D9C
  5
164A
331
15F1
  5
E38
331
D98
  5
1654
331
9BD
  5
DA3
331
F73
  5
16BC
331
E3C
  5
1687
331
4F2
  5
4B9
331
C6
  5
C6
331
10D
  5
10D
331
F6F
  5
16B8
331
E38
  5
1683
331
4EE
  5
50E
331
109
  5
109
331
9B1
  5
BE6
331
F6B
  5
16B4
331
E34
  5
167F
331
B94
  5
15C0
331
4EA
  5
50C
331
BE
  5
BE
331
3F6
  5
45E
331
105
  5
105
331
B90
  5
15BC
331
BA
  5
BA
331
101
  5
101
331
16D4
  5
16A9
331
B7E
  5
E13
331
1695
  5
15A5
331
170F
  5
B86
331
1691
  5
15A1
331
170B
  5
B8E
331
16D0
  5
9AA
331
168D
  5
159D
331
1707
  5
BA3
331
435
  5
457
331
4B7
  5
447
331
3D6
  5
3D6
331
1689
  5
1599
331
16C8
  5
B80
331
1703
  5
BB0
331
431
  5
425
331
4B3
  5
4FD
331
4AF
  5
4E0
331
470
  5
4B6
331
4AB
  5
417
331
129F
  5
16EF
331
15AE
  5
15ED
331
46C
  5
4B1
331
129B
  5
16EB
331
15AA
  5
15E9
331
468
  5
4AF
331
1297
  5
16E7
331
165F
  5
12AB
331
1293
  5
16E3
331
165B
  5
12A5
331
161C
  5
F71
331
1657
  5
12A1
331
154E
  5
1717
331
15ED
  5
162C
331
1618
  5
F6D
331
DDF
  5
1648
331
1653
  5
129D
331
154A
  5
1713
331
15E9
  5
1628
331
1614
  5
F69
331
D94
  5
1650
331
1546
  5
170F
331
15E5
  5
1624
331
1610
  5
F65
331
15E1
  5
1620
331
9AD
  5
BDE
331
F67
  5
16B0
331
BCF
  5
1635
331
4E6
  5
50A
331
9A9
  5
BD2
331
F63
  5
16AC
331
BCB
  5
1634
331
4E2
  5
508
331
FD
  5
FD
331
BC7
  5
1631
331
4D6
  5
505
331
51D
  5
515
331
F9
  5
F9
331
E8B
  5
1699
331
B6
  5
B6
331
F5
  5
F5
331
4D2
  5
504
331
B2
  5
B2
331
F1
  5
F1
331
1685
  5
1595
331
16C4
  5
B94
331
16FF
  5
BCC
331
1681
  5
1591
331
16FB
  5
BE8
331
167D
  5
154E
331
16BC
  5
BA8
331
16F7
  5
DD1
331
4A7
  5
4DB
331
1679
  5
154A
331
16F3
  5
DD3
331
132
  5
132
331
464
  5
4AE
331
12E
  5
12E
331
460
  5
456
331
49B
  5
4AB
331
12A
  5
12A
331
419
  5
462
331
128F
  5
16DF
331
45C
  5
474
331
128B
  5
16DB
331
458
  5
46E
331
1287
  5
16D7
331
164F
  5
1299
331
12E2
  5
170C
331
1283
  5
16D3
331
164B
  5
1295
331
160C
  5
E8C
331
1647
  5
1291
331
15DD
  5
161C
331
1608
  5
E88
331
15D9
  5
1618
331
1643
  5
128D
331
DC7
  5
166E
331
15D5
  5
1614
331
15D1
  5
1610
  0
XRECORD
  5
171E
102
{ACAD_REACTORS
330
171C
102
}
330
171C
100
AcDbXrecord
280
     1
 70
     2
  0
XRECORD
  5
171D
102
{ACAD_REACTORS
330
171C
102
}
330
171C
100
AcDbXrecord
280
     1
 40
1.25
  0
XRECORD
  5
171F
102
{ACAD_REACTORS
330
171C
102
}
330
171C
100
AcDbXrecord
280
     1
 40
1.570796326794896
  0
LAYOUT
  5
6E
102
{ACAD_XDICTIONARY
360
1753
102
}
102
{ACAD_REACTORS
330
61
102
}
330
61
100
AcDbPlotSettings
  1

  2
FX DP 205
  4

  6

 40
0.0
 41
0.0
 42
0.0
 43
0.0
 44
0.0
 45
0.0
 46
0.0
 47
0.0
 48
0.0
 49
0.0
140
0.0
141
0.0
142
1.0
143
1.0
 70
  1712
 72
     0
 73
     0
 74
     0
  7

 75
     0
147
1.0
148
0.0
149
0.0
100
AcDbLayout
  1
Model
 70
     1
 71
     0
 10
0.0
 20
0.0
 11
12.0
 21
9.0
 12
0.0
 22
0.0
 32
0.0
 14
0.0
 24
0.0
 34
0.0
 15
0.0
 25
0.0
 35
0.0
146
0.0
 13
0.0
 23
0.0
 33
0.0
 16
1.0
 26
0.0
 36
0.0
 17
0.0
 27
1.0
 37
0.0
 76
     0
330
6B
331
8B
  0
LAYOUT
  5
6A
102
{ACAD_XDICTIONARY
360
1751
102
}
102
{ACAD_REACTORS
330
61
102
}
330
61
100
AcDbPlotSettings
  1

  2
FX DP 205
  4

  6

 40
0.0
 41
0.0
 42
0.0
 43
0.0
 44
0.0
 45
0.0
 46
0.0
 47
0.0
 48
0.0
 49
0.0
140
0.0
141
0.0
142
1.0
143
1.0
 70
   688
 72
     0
 73
     0
 74
     5
  7

 75
    16
147
1.0
148
0.0
149
0.0
100
AcDbLayout
  1
レイアウト1
 70
     1
 71
     1
 10
0.0
 20
0.0
 11
12.0
 21
9.0
 12
0.0
 22
0.0
 32
0.0
 14
1.000000000000000E+20
 24
1.000000000000000E+20
 34
1.000000000000000E+20
 15
-1.000000000000000E+20
 25
-1.000000000000000E+20
 35
-1.000000000000000E+20
146
0.0
 13
0.0
 23
0.0
 33
0.0
 16
1.0
 26
0.0
 36
0.0
 17
0.0
 27
1.0
 37
0.0
 76
     0
330
67
  0
MATERIAL
  5
19
102
{ACAD_XDICTIONARY
360
1A
102
}
102
{ACAD_REACTORS
330
10
102
}
330
10
100
AcDbMaterial
  1
ByBlock
 72
     0
 43
0.0208333333333333
 43
0.0
 43
0.0
 43
0.0
 43
0.0
 43
0.0208333333333333
 43
0.0
 43
0.0
 43
0.0
 43
0.0
 43
1.0
 43
0.0
 43
0.0
 43
0.0
 43
0.0
 43
1.0
 77
     0
 47
0.0208333333333333
 47
0.0
 47
0.0
 47
0.0
 47
0.0
 47
0.0208333333333333
 47
0.0
 47
0.0
 47
0.0
 47
0.0
 47
1.0
 47
0.0
 47
0.0
 47
0.0
 47
0.0
 47
1.0
171
     0
 49
0.0208333333333333
 49
0.0
 49
0.0
 49
0.0
 49
0.0
 49
0.0208333333333333
 49
0.0
 49
0.0
 49
0.0
 49
0.0
 49
1.0
 49
0.0
 49
0.0
 49
0.0
 49
0.0
 49
1.0
175
     0
142
0.0208333333333333
142
0.0
142
0.0
142
0.0
142
0.0
142
0.0208333333333333
142
0.0
142
0.0
142
0.0
142
0.0
142
1.0
142
0.0
142
0.0
142
0.0
142
0.0
142
1.0
179
     0
144
0.0208333333333333
144
0.0
144
0.0
144
0.0
144
0.0
144
0.0208333333333333
144
0.0
144
0.0
144
0.0
144
0.0
144
1.0
144
0.0
144
0.0
144
0.0
144
0.0
144
1.0
147
0.0208333333333333
147
0.0
147
0.0
147
0.0
147
0.0
147
0.0208333333333333
147
0.0
147
0.0
147
0.0
147
0.0
147
1.0
147
0.0
147
0.0
147
0.0
147
0.0
147
1.0
  0
MATERIAL
  5
11
102
{ACAD_XDICTIONARY
360
12
102
}
102
{ACAD_REACTORS
330
10
102
}
330
10
100
AcDbMaterial
  1
ByLayer
 72
     0
 43
0.0208333333333333
 43
0.0
 43
0.0
 43
0.0
 43
0.0
 43
0.0208333333333333
 43
0.0
 43
0.0
 43
0.0
 43
0.0
 43
1.0
 43
0.0
 43
0.0
 43
0.0
 43
0.0
 43
1.0
 77
     0
 47
0.0208333333333333
 47
0.0
 47
0.0
 47
0.0
 47
0.0
 47
0.0208333333333333
 47
0.0
 47
0.0
 47
0.0
 47
0.0
 47
1.0
 47
0.0
 47
0.0
 47
0.0
 47
0.0
 47
1.0
171
     0
 49
0.0208333333333333
 49
0.0
 49
0.0
 49
0.0
 49
0.0
 49
0.0208333333333333
 49
0.0
 49
0.0
 49
0.0
 49
0.0
 49
1.0
 49
0.0
 49
0.0
 49
0.0
 49
0.0
 49
1.0
175
     0
142
0.0208333333333333
142
0.0
142
0.0
142
0.0
142
0.0
142
0.0208333333333333
142
0.0
142
0.0
142
0.0
142
0.0
142
1.0
142
0.0
142
0.0
142
0.0
142
0.0
142
1.0
179
     0
144
0.0208333333333333
144
0.0
144
0.0
144
0.0
144
0.0
144
0.0208333333333333
144
0.0
144
0.0
144
0.0
144
0.0
144
1.0
144
0.0
144
0.0
144
0.0
144
0.0
144
1.0
147
0.0208333333333333
147
0.0
147
0.0
147
0.0
147
0.0
147
0.0208333333333333
147
0.0
147
0.0
147
0.0
147
0.0
147
1.0
147
0.0
147
0.0
147
0.0
147
0.0
147
1.0
  0
MATERIAL
  5
21
102
{ACAD_XDICTIONARY
360
22
102
}
102
{ACAD_REACTORS
330
10
102
}
330
10
100
AcDbMaterial
  1
Global
 72
     0
 43
0.0208333333333333
 43
0.0
 43
0.0
 43
0.0
 43
0.0
 43
0.0208333333333333
 43
0.0
 43
0.0
 43
0.0
 43
0.0
 43
1.0
 43
0.0
 43
0.0
 43
0.0
 43
0.0
 43
1.0
 77
     0
 47
0.0208333333333333
 47
0.0
 47
0.0
 47
0.0
 47
0.0
 47
0.0208333333333333
 47
0.0
 47
0.0
 47
0.0
 47
0.0
 47
1.0
 47
0.0
 47
0.0
 47
0.0
 47
0.0
 47
1.0
171
     0
 49
0.0208333333333333
 49
0.0
 49
0.0
 49
0.0
 49
0.0
 49
0.0208333333333333
 49
0.0
 49
0.0
 49
0.0
 49
0.0
 49
1.0
 49
0.0
 49
0.0
 49
0.0
 49
0.0
 49
1.0
175
     0
142
0.0208333333333333
142
0.0
142
0.0
142
0.0
142
0.0
142
0.0208333333333333
142
0.0
142
0.0
142
0.0
142
0.0
142
1.0
142
0.0
142
0.0
142
0.0
142
0.0
142
1.0
179
     0
144
0.0208333333333333
144
0.0
144
0.0
144
0.0
144
0.0
144
0.0208333333333333
144
0.0
144
0.0
144
0.0
144
0.0
144
1.0
144
0.0
144
0.0
144
0.0
144
0.0
144
1.0
147
0.0208333333333333
147
0.0
147
0.0
147
0.0
147
0.0
147
0.0208333333333333
147
0.0
147
0.0
147
0.0
147
0.0
147
1.0
147
0.0
147
0.0
147
0.0
147
0.0
147
1.0
  0
MLEADERSTYLE
  5
66
102
{ACAD_REACTORS
330
65
102
}
330
65
100
AcDbMLeaderStyle
170
     2
171
     1
172
     0
 90
        2
 40
0.0
 41
0.0
173
     1
 91
-1056964608
340
5A
 92
       -2
290
     1
 42
0.09
291
     1
 43
0.36
  3
Standard
 44
0.18
300

342
55
174
     1
178
     6
175
     1
176
     0
 93
-1056964608
 45
0.18
292
     0
297
     0
 46
0.18
 94
-1056964608
 47
1.0
 49
1.0
140
1.0
293
     1
141
0.0
294
     1
177
     0
142
1.0
295
     0
296
     0
143
0.125
1001
ACAD_MLEADERVER
1070
     2
  0
MLINESTYLE
  5
5F
102
{ACAD_REACTORS
330
5E
102
}
330
5E
100
AcDbMlineStyle
  2
STANDARD
 70
     0
  3

 62
   256
 51
90.0
 52
90.0
 71
     2
 49
0.5
 62
   256
  6
BYLAYER
 49
-0.5
 62
   256
  6
BYLAYER
  0
ACDBPLACEHOLDER
  5
F
102
{ACAD_REACTORS
330
E
102
}
330
E
  0
SCALE
  5
43
102
{ACAD_REACTORS
330
42
102
}
330
42
100
AcDbScale
 70
     0
300
1:1
140
1.0
141
1.0
290
     1
  0
SCALE
  5
44
102
{ACAD_REACTORS
330
42
102
}
330
42
100
AcDbScale
 70
     0
300
1/128" = 1'-0"
140
0.0078125
141
12.0
290
     0
  0
SCALE
  5
45
102
{ACAD_REACTORS
330
42
102
}
330
42
100
AcDbScale
 70
     0
300
1/64" = 1'-0"
140
0.015625
141
12.0
290
     0
  0
SCALE
  5
46
102
{ACAD_REACTORS
330
42
102
}
330
42
100
AcDbScale
 70
     0
300
1/32" = 1'-0"
140
0.03125
141
12.0
290
     0
  0
SCALE
  5
47
102
{ACAD_REACTORS
330
42
102
}
330
42
100
AcDbScale
 70
     0
300
1/16" = 1'-0"
140
0.0625
141
12.0
290
     0
  0
SCALE
  5
48
102
{ACAD_REACTORS
330
42
102
}
330
42
100
AcDbScale
 70
     0
300
3/32" = 1'-0"
140
0.09375
141
12.0
290
     0
  0
SCALE
  5
49
102
{ACAD_REACTORS
330
42
102
}
330
42
100
AcDbScale
 70
     0
300
1/8" = 1'-0"
140
0.125
141
12.0
290
     0
  0
SCALE
  5
4A
102
{ACAD_REACTORS
330
42
102
}
330
42
100
AcDbScale
 70
     0
300
3/16" = 1'-0"
140
0.1875
141
12.0
290
     0
  0
SCALE
  5
4B
102
{ACAD_REACTORS
330
42
102
}
330
42
100
AcDbScale
 70
     0
300
1/4" = 1'-0"
140
0.25
141
12.0
290
     0
  0
SCALE
  5
4C
102
{ACAD_REACTORS
330
42
102
}
330
42
100
AcDbScale
 70
     0
300
3/8" = 1'-0"
140
0.375
141
12.0
290
     0
  0
SCALE
  5
4D
102
{ACAD_REACTORS
330
42
102
}
330
42
100
AcDbScale
 70
     0
300
1/2" = 1'-0"
140
0.5
141
12.0
290
     0
  0
SCALE
  5
4E
102
{ACAD_REACTORS
330
42
102
}
330
42
100
AcDbScale
 70
     0
300
3/4" = 1'-0"
140
0.75
141
12.0
290
     0
  0
SCALE
  5
4F
102
{ACAD_REACTORS
330
42
102
}
330
42
100
AcDbScale
 70
     0
300
1" = 1'-0"
140
1.0
141
12.0
290
     0
  0
SCALE
  5
50
102
{ACAD_REACTORS
330
42
102
}
330
42
100
AcDbScale
 70
     0
300
1-1/2" = 1'-0"
140
1.5
141
12.0
290
     0
  0
SCALE
  5
51
102
{ACAD_REACTORS
330
42
102
}
330
42
100
AcDbScale
 70
     0
300
3" = 1'-0"
140
3.0
141
12.0
290
     0
  0
SCALE
  5
52
102
{ACAD_REACTORS
330
42
102
}
330
42
100
AcDbScale
 70
     0
300
6" = 1'-0"
140
6.0
141
12.0
290
     0
  0
SCALE
  5
53
102
{ACAD_REACTORS
330
42
102
}
330
42
100
AcDbScale
 70
     0
300
1'-0" = 1'-0"
140
12.0
141
12.0
290
     0
  0
TABLESTYLE
  5
64
102
{ACAD_XDICTIONARY
360
AAF
102
}
102
{ACAD_REACTORS
330
63
102
}
330
63
100
AcDbTableStyle
  3
Standard
 70
     0
 71
     0
 40
0.06
 41
0.06
280
     0
281
     0
  7
STANDARD
140
0.18
170
     2
 62
     0
 63
     7
283
     0
274
    -2
284
     1
 64
     0
275
    -2
285
     1
 65
     0
276
    -2
286
     1
 66
     0
277
    -2
287
     1
 67
     0
278
    -2
288
     1
 68
     0
279
    -2
289
     1
 69
     0
  7
STANDARD
140
0.25
170
     5
 62
     0
 63
     7
283
     0
274
    -2
284
     1
 64
     0
275
    -2
285
     1
 65
     0
276
    -2
286
     1
 66
     0
277
    -2
287
     1
 67
     0
278
    -2
288
     1
 68
     0
279
    -2
289
     1
 69
     0
  7
STANDARD
140
0.18
170
     5
 62
     0
 63
     7
283
     0
274
    -2
284
     1
 64
     0
275
    -2
285
     1
 65
     0
276
    -2
286
     1
 66
     0
277
    -2
287
     1
 67
     0
278
    -2
288
     1
 68
     0
279
    -2
289
     1
 69
     0
  0
VISUALSTYLE
  5
2F
102
{ACAD_XDICTIONARY
360
172A
102
}
102
{ACAD_REACTORS
330
29
102
}
330
29
100
AcDbVisualStyle
  2

 70
     4
 71
     0
 72
     2
 73
     0
 90
        0
 40
-0.6
 41
-30.0
 62
     5
 63
     7
 74
     1
 91
        4
 64
     7
 65
   257
 75
     1
175
     1
 42
1.0
 92
        0
 66
   257
 43
1.0
 76
     1
 77
     6
 78
     2
 67
     7
 79
     5
170
     0
171
     0
290
     0
174
     0
 93
        1
 44
0.0
173
     0
291
     0
 45
0.0
1001
ACAD
1000
AcDbSavedByObjectVersion
1070
     0
  0
VISUALSTYLE
  5
5C4
102
{ACAD_XDICTIONARY
360
1755
102
}
102
{ACAD_REACTORS
330
29
102
}
330
29
100
AcDbVisualStyle
  2

 70
     5
 71
     0
 72
     2
 73
     1
 90
        0
 40
-0.6
 41
-30.0
 62
     5
 63
     7
 74
     1
 91
        4
 64
     7
 65
   257
 75
     1
175
     1
 42
1.0
 92
        0
 66
   257
 43
1.0
 76
     1
 77
     6
 78
     2
 67
     7
 79
     5
170
     0
171
     0
290
     0
174
     0
 93
        1
 44
0.0
173
     0
291
     0
 45
0.0
1001
ACAD
1000
AcDbSavedByObjectVersion
1070
     0
  0
VISUALSTYLE
  5
2E
102
{ACAD_XDICTIONARY
360
1728
102
}
102
{ACAD_REACTORS
330
29
102
}
330
29
100
AcDbVisualStyle
  2

 70
     7
 71
     1
 72
     0
 73
     1
 90
        0
 40
-0.6
 41
-30.0
 62
     5
 63
     7
 74
     0
 91
        4
 64
     7
 65
   257
 75
     1
175
     1
 42
1.0
 92
        8
 66
     7
 43
1.0
 76
     1
 77
     6
 78
     2
 67
     7
 79
     5
170
     0
171
     0
290
     0
174
     0
 93
        1
 44
0.0
173
     0
291
     1
 45
0.0
1001
ACAD
1000
AcDbSavedByObjectVersion
1070
     0
  0
VISUALSTYLE
  5
35
102
{ACAD_XDICTIONARY
360
1736
102
}
102
{ACAD_REACTORS
330
29
102
}
330
29
100
AcDbVisualStyle
  2

 70
    12
 71
     2
 72
     2
 73
     0
 90
        0
 40
-0.6
 41
-30.0
 62
     5
 63
     7
 74
     1
 91
        4
 64
     7
 65
   257
 75
     1
175
     1
 42
1.0
 92
        8
 66
     7
 43
1.0
 76
     1
 77
     6
 78
     2
 67
     7
 79
     5
170
     0
171
     0
290
     0
174
     0
 93
        1
 44
50.0
173
     0
291
     1
 45
0.0
1001
ACAD
1000
AcDbSavedByObjectVersion
1070
     0
  0
VISUALSTYLE
  5
39
102
{ACAD_XDICTIONARY
360
173E
102
}
102
{ACAD_REACTORS
330
29
102
}
330
29
100
AcDbVisualStyle
  2

 70
    16
 71
     2
 72
     2
 73
     3
 90
        0
 40
-0.6
 41
-30.0
 62
     5
 63
     8
 74
     1
 91
        4
 64
     7
 65
   257
 75
     1
175
     1
 42
1.0
 92
        8
 66
     8
 43
1.0
 76
     1
 77
     6
 78
     2
 67
     7
 79
     5
170
     0
171
     0
290
     0
174
     0
 93
        1
 44
0.0
173
     0
291
     1
 45
0.0
1001
ACAD
1000
AcDbSavedByObjectVersion
1070
     0
  0
VISUALSTYLE
  5
32
102
{ACAD_XDICTIONARY
360
1730
102
}
102
{ACAD_REACTORS
330
29
102
}
330
29
100
AcDbVisualStyle
  2

 70
     9
 71
     3
 72
     2
 73
     0
 90
        0
 40
-0.6
 41
-30.0
 62
     5
 63
     7
 74
     2
 91
        2
 64
     7
 65
   257
 75
     1
175
     1
 42
179.0
 92
        8
 66
     7
 43
1.0
 76
     1
 77
     6
 78
     2
 67
     7
 79
     3
170
     0
171
     0
290
     0
174
     0
 93
        1
 44
0.0
173
     0
291
     0
 45
0.0
1001
ACAD
1000
AcDbSavedByObjectVersion
1070
     0
  0
VISUALSTYLE
  5
34
102
{ACAD_XDICTIONARY
360
1734
102
}
102
{ACAD_REACTORS
330
29
102
}
330
29
100
AcDbVisualStyle
  2

 70
    11
 71
     2
 72
     2
 73
     0
 90
        0
 40
-0.6
 41
-30.0
 62
     5
 63
     7
 74
     1
 91
        4
 64
     7
 65
   257
 75
     1
175
     1
 42
1.0
 92
        8
 66
     7
 43
1.0
 76
     1
 77
     6
 78
     2
 67
     7
 79
     5
170
     0
171
     0
290
     0
174
     0
 93
        1
 44
-50.0
173
     0
291
     1
 45
0.0
1001
ACAD
1000
AcDbSavedByObjectVersion
1070
     0
  0
VISUALSTYLE
  5
41
102
{ACAD_XDICTIONARY
360
174E
102
}
102
{ACAD_REACTORS
330
29
102
}
330
29
100
AcDbVisualStyle
  2

 70
    22
 71
     2
 72
     2
 73
     0
 90
        0
 40
-0.6
 41
-30.0
 62
     5
 63
     7
 74
     1
 91
        4
 64
     7
 65
   257
 75
     1
175
     1
 42
1.0
 92
        8
 66
     7
 43
1.0
 76
     1
 77
     6
 78
     2
 67
     7
 79
     5
170
     0
171
     0
290
     0
174
     0
 93
        1
 44
0.0
173
     0
291
     1
 45
0.0
1001
ACAD
1000
AcDbSavedByObjectVersion
1070
     0
  0
VISUALSTYLE
  5
38
102
{ACAD_XDICTIONARY
360
173C
102
}
102
{ACAD_REACTORS
330
29
102
}
330
29
100
AcDbVisualStyle
  2

 70
    15
 71
     2
 72
     2
 73
     0
 90
        0
 40
-0.6
 41
-30.0
 62
     5
 63
     7
 74
     1
 91
        4
 64
     7
 65
   257
 75
     1
175
     1
 42
1.0
 92
        8
 66
     7
 43
1.0
 76
     1
 77
     6
 78
     2
 67
     7
 79
     5
170
     0
171
     0
290
     0
174
     0
 93
        1
 44
0.0
173
     0
291
     1
 45
0.0
1001
ACAD
1000
AcDbSavedByObjectVersion
1070
     0
  0
VISUALSTYLE
  5
2A
102
{ACAD_XDICTIONARY
360
1720
102
}
102
{ACAD_REACTORS
330
29
102
}
330
29
100
AcDbVisualStyle
  2

 70
     0
 71
     2
 72
     1
 73
     1
 90
        2
 40
-0.6
 41
30.0
 62
     5
 63
     7
 74
     0
 91
        0
 64
     7
 65
   257
 75
     1
175
     1
 42
1.0
 92
        8
 66
     7
 43
1.0
 76
     1
 77
     6
 78
     2
 67
     7
 79
     5
170
     0
171
     0
290
     0
174
     0
 93
       13
 44
0.0
173
     0
291
     1
 45
0.0
1001
ACAD
1000
AcDbSavedByObjectVersion
1070
     0
  0
VISUALSTYLE
  5
2B
102
{ACAD_XDICTIONARY
360
1722
102
}
102
{ACAD_REACTORS
330
29
102
}
330
29
100
AcDbVisualStyle
  2

 70
     1
 71
     2
 72
     1
 73
     1
 90
        2
 40
-0.6
 41
30.0
 62
     5
 63
     7
 74
     1
 91
        0
 64
     7
 65
   257
 75
     1
175
     1
 42
1.0
 92
        0
 66
   257
 43
1.0
 76
     1
 77
     6
 78
     2
 67
     7
 79
     5
170
     0
171
     0
290
     0
174
     0
 93
       13
 44
0.0
173
     0
291
     1
 45
0.0
1001
ACAD
1000
AcDbSavedByObjectVersion
1070
     0
  0
VISUALSTYLE
  5
2C
102
{ACAD_XDICTIONARY
360
1724
102
}
102
{ACAD_REACTORS
330
29
102
}
330
29
100
AcDbVisualStyle
  2

 70
     2
 71
     2
 72
     2
 73
     1
 90
        2
 40
-0.6
 41
30.0
 62
     5
 63
     7
 74
     0
 91
        0
 64
     7
 65
   257
 75
     1
175
     1
 42
1.0
 92
        0
 66
     7
 43
1.0
 76
     1
 77
     6
 78
     2
 67
     7
 79
     5
170
     0
171
     0
290
     0
174
     0
 93
       13
 44
0.0
173
     0
291
     1
 45
0.0
1001
ACAD
1000
AcDbSavedByObjectVersion
1070
     0
  0
VISUALSTYLE
  5
2D
102
{ACAD_XDICTIONARY
360
1726
102
}
102
{ACAD_REACTORS
330
29
102
}
330
29
100
AcDbVisualStyle
  2

 70
     3
 71
     2
 72
     2
 73
     1
 90
        2
 40
-0.6
 41
30.0
 62
     5
 63
     7
 74
     1
 91
        0
 64
     7
 65
   257
 75
     1
175
     1
 42
1.0
 92
        0
 66
   257
 43
1.0
 76
     1
 77
     6
 78
     2
 67
     7
 79
     5
170
     0
171
     0
290
     0
174
     0
 93
       13
 44
0.0
173
     0
291
     1
 45
0.0
1001
ACAD
1000
AcDbSavedByObjectVersion
1070
     0
  0
VISUALSTYLE
  5
31
102
{ACAD_XDICTIONARY
360
172E
102
}
102
{ACAD_REACTORS
330
29
102
}
330
29
100
AcDbVisualStyle
  2

 70
     6
 71
     1
 72
     2
 73
     2
 90
        0
 40
-0.6
 41
-30.0
 62
     5
 63
     7
 74
     2
 91
        2
 64
     7
 65
   257
 75
     2
175
     1
 42
40.0
 92
        0
 66
   257
 43
1.0
 76
     1
 77
     6
 78
     2
 67
     7
 79
     3
170
     0
171
     0
290
     0
174
     0
 93
        1
 44
0.0
173
     0
291
     0
 45
0.0
1001
ACAD
1000
AcDbSavedByObjectVersion
1070
     0
  0
VISUALSTYLE
  5
3F
102
{ACAD_XDICTIONARY
360
174A
102
}
102
{ACAD_REACTORS
330
29
102
}
330
29
100
AcDbVisualStyle
  2

 70
    20
 71
     2
 72
     2
 73
     0
 90
        0
 40
-0.6
 41
-30.0
 62
     5
 63
     7
 74
     1
 91
        4
 64
     7
 65
   257
 75
     1
175
     1
 42
1.0
 92
       10
 66
     7
 43
1.0
 76
     1
 77
     6
 78
     2
 67
     7
 79
     5
170
     0
171
     0
290
     0
174
     0
 93
        1
 44
0.0
173
     0
291
     1
 45
0.0
1001
ACAD
1000
AcDbSavedByObjectVersion
1070
     0
  0
VISUALSTYLE
  5
37
102
{ACAD_XDICTIONARY
360
173A
102
}
102
{ACAD_REACTORS
330
29
102
}
330
29
100
AcDbVisualStyle
  2

 70
    14
 71
     2
 72
     2
 73
     0
 90
        0
 40
-0.6
 41
-30.0
 62
     5
 63
     7
 74
     1
 91
        4
 64
     7
 65
   257
 75
     7
175
     7
 42
1.0
 92
        8
 66
     7
 43
1.0
 76
     1
 77
     6
 78
     2
 67
     7
 79
     5
170
     0
171
     0
290
     0
174
     0
 93
        1
 44
0.0
173
     0
291
     1
 45
0.0
1001
ACAD
1000
AcDbSavedByObjectVersion
1070
     0
  0
VISUALSTYLE
  5
40
102
{ACAD_XDICTIONARY
360
174C
102
}
102
{ACAD_REACTORS
330
29
102
}
330
29
100
AcDbVisualStyle
  2

 70
    21
 71
     2
 72
     2
 73
     0
 90
        0
 40
-0.6
 41
-30.0
 62
     5
 63
     7
 74
     1
 91
        4
 64
     7
 65
   257
 75
     1
175
     1
 42
1.0
 92
        9
 66
     7
 43
1.0
 76
     1
 77
     6
 78
     2
 67
     7
 79
     5
170
     0
171
     0
290
     0
174
     0
 93
        1
 44
0.0
173
     0
291
     1
 45
0.0
1001
ACAD
1000
AcDbSavedByObjectVersion
1070
     0
  0
VISUALSTYLE
  5
33
102
{ACAD_XDICTIONARY
360
1732
102
}
102
{ACAD_REACTORS
330
29
102
}
330
29
100
AcDbVisualStyle
  2

 70
     8
 71
     2
 72
     3
 73
     0
 90
        2
 40
-0.6
 41
30.0
 62
     5
 63
     7
 74
     0
 91
        0
 64
     7
 65
   257
 75
     1
175
     1
 42
1.0
 92
        8
 66
   257
 43
1.0
 76
     1
 77
     6
 78
     2
 67
     7
 79
     3
170
     0
171
     0
290
     0
174
     0
 93
       13
 44
0.0
173
     0
291
     0
 45
0.0
1001
ACAD
1000
AcDbSavedByObjectVersion
1070
     0
  0
VISUALSTYLE
  5
3E
102
{ACAD_XDICTIONARY
360
1748
102
}
102
{ACAD_REACTORS
330
29
102
}
330
29
100
AcDbVisualStyle
  2

 70
    27
 71
     2
 72
     2
 73
     1
 90
        2
 40
-0.6
 41
30.0
 62
     5
 63
     7
 74
     0
 91
        4
 64
     7
 65
   257
 75
     1
175
     1
 42
1.0
 92
        8
 66
   257
 43
1.0
 76
     1
 77
     6
 78
     2
 67
     8
 79
     3
170
     0
171
     0
290
     0
174
     0
 93
        5
 44
0.0
173
     0
291
     0
 45
0.0
1001
ACAD
1000
AcDbSavedByObjectVersion
1070
     0
  0
VISUALSTYLE
  5
3D
102
{ACAD_XDICTIONARY
360
1746
102
}
102
{ACAD_REACTORS
330
29
102
}
330
29
100
AcDbVisualStyle
  2

 70
    26
 71
     2
 72
     2
 73
     1
 90
        2
 40
-0.6
 41
30.0
 62
     5
 63
     7
 74
     1
 91
       10
 64
     7
 65
   257
 75
     2
175
     1
 42
1.0
 92
        8
 66
   257
 43
1.0
 76
     1
 77
     6
 78
     2
 67
     7
 79
     3
170
     0
171
     0
290
     0
174
     0
 93
        5
 44
0.0
173
     0
291
     0
 45
0.0
1001
ACAD
1000
AcDbSavedByObjectVersion
1070
     0
  0
VISUALSTYLE
  5
3A
102
{ACAD_XDICTIONARY
360
1740
102
}
102
{ACAD_REACTORS
330
29
102
}
330
29
100
AcDbVisualStyle
  2

 70
    23
 71
     2
 72
     2
 73
     3
 90
        0
 40
-0.6
 41
-30.0
 62
     5
 63
     7
 74
     2
 91
        2
 64
     7
 65
     7
 75
     1
175
     1
 42
40.0
 92
        8
 66
     7
 43
1.0
 76
     1
 77
     6
 78
     2
 67
     7
 79
     3
170
     0
171
     0
290
     0
174
     0
 93
        1
 44
0.0
173
     0
291
     0
 45
0.0
1001
ACAD
1000
AcDbSavedByObjectVersion
1070
     0
  0
VISUALSTYLE
  5
3B
102
{ACAD_XDICTIONARY
360
1742
102
}
102
{ACAD_REACTORS
330
29
102
}
330
29
100
AcDbVisualStyle
  2

 70
    24
 71
     1
 72
     2
 73
     2
 90
        0
 40
-0.6
 41
-30.0
 62
     5
 63
     7
 74
     2
 91
        2
 64
     7
 65
     7
 75
     1
175
     1
 42
40.0
 92
       11
 66
     7
 43
1.0
 76
     1
 77
     6
 78
     2
 67
     7
 79
     6
170
     0
171
     0
290
     0
174
     0
 93
        1
 44
0.0
173
     0
291
     0
 45
0.0
1001
ACAD
1000
AcDbSavedByObjectVersion
1070
     0
  0
VISUALSTYLE
  5
36
102
{ACAD_XDICTIONARY
360
1738
102
}
102
{ACAD_REACTORS
330
29
102
}
330
29
100
AcDbVisualStyle
  2

 70
    13
 71
     2
 72
     2
 73
     0
 90
        0
 40
-0.6
 41
-30.0
 62
     5
 63
     7
 74
     1
 91
        4
 64
     7
 65
   257
 75
     1
175
     1
 42
1.0
 92
       12
 66
     7
 43
1.0
 76
     1
 77
     6
 78
     2
 67
     7
 79
     5
170
     0
171
     0
290
     0
174
     0
 93
        1
 44
0.0
173
     0
291
     1
 45
0.0
1001
ACAD
1000
AcDbSavedByObjectVersion
1070
     0
  0
VISUALSTYLE
  5
30
102
{ACAD_XDICTIONARY
360
172C
102
}
102
{ACAD_REACTORS
330
29
102
}
330
29
100
AcDbVisualStyle
  2

 70
     5
 71
     0
 72
     2
 73
     0
 90
        0
 40
-0.6
 41
-30.0
 62
     5
 63
     7
 74
     1
 91
        4
 64
     7
 65
   257
 75
     1
175
     1
 42
1.0
 92
        0
 66
   257
 43
1.0
 76
     1
 77
     6
 78
     2
 67
     7
 79
     3
170
     0
171
     0
290
     0
174
     0
 93
        1
 44
0.0
173
     0
291
     0
 45
0.0
1001
ACAD
1000
AcDbSavedByObjectVersion
1070
     0
  0
VISUALSTYLE
  5
3C
102
{ACAD_XDICTIONARY
360
1744
102
}
102
{ACAD_REACTORS
330
29
102
}
330
29
100
AcDbVisualStyle
  2

 70
    25
 71
     2
 72
     2
 73
     1
 90
        1
 40
0.5
 41
-30.0
 62
     5
 63
     7
 74
     1
 91
        0
 64
     7
 65
   257
 75
     1
175
     1
 42
1.0
 92
        8
 66
     7
 43
1.0
 76
     1
 77
     6
 78
     2
 67
     7
 79
     3
170
     0
171
     0
290
     0
174
     0
 93
       13
 44
0.0
173
     0
291
     0
 45
0.0
1001
ACAD
1000
AcDbSavedByObjectVersion
1070
     0
  0
DICTIONARYVAR
  5
AAA
102
{ACAD_REACTORS
330
AA7
102
}
330
AA7
100
DictionaryVariables
280
     0
  1
1:1
  0
DICTIONARYVAR
  5
AA9
102
{ACAD_REACTORS
330
AA7
102
}
330
AA7
100
DictionaryVariables
280
     0
  1
STANDARD
  0
DICTIONARYVAR
  5
AA8
102
{ACAD_REACTORS
330
AA7
102
}
330
AA7
100
DictionaryVariables
280
     0
  1
STANDARD
  0
DICTIONARYVAR
  5
AAD
102
{ACAD_REACTORS
330
AA7
102
}
330
AA7
100
DictionaryVariables
280
     0
  1
1
  0
DICTIONARYVAR
  5
AAC
102
{ACAD_REACTORS
330
AA7
102
}
330
AA7
100
DictionaryVariables
280
     0
  1
0
  0
DICTIONARYVAR
  5
AAB
102
{ACAD_REACTORS
330
AA7
102
}
330
AA7
100
DictionaryVariables
280
     0
  1
127
  0
DICTIONARYVAR
  5
1550
102
{ACAD_REACTORS
330
AA7
102
}
330
AA7
100
DictionaryVariables
280
     0
  1
2
  0
DICTIONARY
  5
1753
330
6E
100
AcDbDictionary
280
     1
281
     1
  3
ACAD_XREC_ROUNDTRIP
360
1754
  0
DICTIONARY
  5
1751
330
6A
100
AcDbDictionary
280
     1
281
     1
  3
ACAD_XREC_ROUNDTRIP
360
1752
  0
DICTIONARY
  5
1A
330
19
100
AcDbDictionary
280
     1
281
     1
  3
ACAD_XREC_ROUNDTRIP
360
AB8
  3
BUMPTILE
360
1C
  3
DIFFUSETILE
360
1B
  3
OPACITYTILE
360
1F
  3
REFLECTIONTILE
360
1E
  3
REFRACTIONTILE
360
20
  3
SPECULARTILE
360
1D
  0
DICTIONARY
  5
12
330
11
100
AcDbDictionary
280
     1
281
     1
  3
ACAD_XREC_ROUNDTRIP
360
AB7
  3
BUMPTILE
360
14
  3
DIFFUSETILE
360
13
  3
OPACITYTILE
360
17
  3
REFLECTIONTILE
360
16
  3
REFRACTIONTILE
360
18
  3
SPECULARTILE
360
15
  0
DICTIONARY
  5
22
330
21
100
AcDbDictionary
280
     1
281
     1
  3
ACAD_XREC_ROUNDTRIP
360
AB9
  3
BUMPTILE
360
24
  3
DIFFUSETILE
360
23
  3
OPACITYTILE
360
27
  3
REFLECTIONTILE
360
26
  3
REFRACTIONTILE
360
28
  3
SPECULARTILE
360
25
  0
DICTIONARY
  5
AAF
330
64
100
AcDbDictionary
280
     1
281
     1
  3
ACAD_ROUNDTRIP_2008_TABLESTYLE_CELLSTYLEMAP
360
1719
  3
ACAD_XREC_ROUNDTRIP
360
1750
  0
DICTIONARY
  5
172A
330
2F
100
AcDbDictionary
280
     1
281
     1
  3
ACAD_XREC_ROUNDTRIP
360
172B
  0
DICTIONARY
  5
1755
330
5C4
100
AcDbDictionary
280
     1
281
     1
  3
ACAD_XREC_ROUNDTRIP
360
1756
  0
DICTIONARY
  5
1728
330
2E
100
AcDbDictionary
280
     1
281
     1
  3
ACAD_XREC_ROUNDTRIP
360
1729
  0
DICTIONARY
  5
1736
330
35
100
AcDbDictionary
280
     1
281
     1
  3
ACAD_XREC_ROUNDTRIP
360
1737
  0
DICTIONARY
  5
173E
330
39
100
AcDbDictionary
280
     1
281
     1
  3
ACAD_XREC_ROUNDTRIP
360
173F
  0
DICTIONARY
  5
1730
330
32
100
AcDbDictionary
280
     1
281
     1
  3
ACAD_XREC_ROUNDTRIP
360
1731
  0
DICTIONARY
  5
1734
330
34
100
AcDbDictionary
280
     1
281
     1
  3
ACAD_XREC_ROUNDTRIP
360
1735
  0
DICTIONARY
  5
174E
330
41
100
AcDbDictionary
280
     1
281
     1
  3
ACAD_XREC_ROUNDTRIP
360
174F
  0
DICTIONARY
  5
173C
330
38
100
AcDbDictionary
280
     1
281
     1
  3
ACAD_XREC_ROUNDTRIP
360
173D
  0
DICTIONARY
  5
1720
330
2A
100
AcDbDictionary
280
     1
281
     1
  3
ACAD_XREC_ROUNDTRIP
360
1721
  0
DICTIONARY
  5
1722
330
2B
100
AcDbDictionary
280
     1
281
     1
  3
ACAD_XREC_ROUNDTRIP
360
1723
  0
DICTIONARY
  5
1724
330
2C
100
AcDbDictionary
280
     1
281
     1
  3
ACAD_XREC_ROUNDTRIP
360
1725
  0
DICTIONARY
  5
1726
330
2D
100
AcDbDictionary
280
     1
281
     1
  3
ACAD_XREC_ROUNDTRIP
360
1727
  0
DICTIONARY
  5
172E
330
31
100
AcDbDictionary
280
     1
281
     1
  3
ACAD_XREC_ROUNDTRIP
360
172F
  0
DICTIONARY
  5
174A
330
3F
100
AcDbDictionary
280
     1
281
     1
  3
ACAD_XREC_ROUNDTRIP
360
174B
  0
DICTIONARY
  5
173A
330
37
100
AcDbDictionary
280
     1
281
     1
  3
ACAD_XREC_ROUNDTRIP
360
173B
  0
DICTIONARY
  5
174C
330
40
100
AcDbDictionary
280
     1
281
     1
  3
ACAD_XREC_ROUNDTRIP
360
174D
  0
DICTIONARY
  5
1732
330
33
100
AcDbDictionary
280
     1
281
     1
  3
ACAD_XREC_ROUNDTRIP
360
1733
  0
DICTIONARY
  5
1748
330
3E
100
AcDbDictionary
280
     1
281
     1
  3
ACAD_XREC_ROUNDTRIP
360
1749
  0
DICTIONARY
  5
1746
330
3D
100
AcDbDictionary
280
     1
281
     1
  3
ACAD_XREC_ROUNDTRIP
360
1747
  0
DICTIONARY
  5
1740
330
3A
100
AcDbDictionary
280
     1
281
     1
  3
ACAD_XREC_ROUNDTRIP
360
1741
  0
DICTIONARY
  5
1742
330
3B
100
AcDbDictionary
280
     1
281
     1
  3
ACAD_XREC_ROUNDTRIP
360
1743
  0
DICTIONARY
  5
1738
330
36
100
AcDbDictionary
280
     1
281
     1
  3
ACAD_XREC_ROUNDTRIP
360
1739
  0
DICTIONARY
  5
172C
330
30
100
AcDbDictionary
280
     1
281
     1
  3
ACAD_XREC_ROUNDTRIP
360
172D
  0
DICTIONARY
  5
1744
330
3C
100
AcDbDictionary
280
     1
281
     1
  3
ACAD_XREC_ROUNDTRIP
360
1745
  0
XRECORD
  5
1754
102
{ACAD_REACTORS
330
1753
102
}
330
1753
100
AcDbXrecord
280
     1
102
SHADEPLOT
 70
     0
102
SHADEPLOTRESLEVEL
 70
     2
102
SHADEPLOTCUSTOMDPI
 70
   300
  0
XRECORD
  5
1752
102
{ACAD_REACTORS
330
1751
102
}
330
1751
100
AcDbXrecord
280
     1
102
SHADEPLOT
 70
     0
102
SHADEPLOTRESLEVEL
 70
     2
102
SHADEPLOTCUSTOMDPI
 70
   300
  0
XRECORD
  5
AB8
102
{ACAD_REACTORS
330
1A
102
}
330
1A
100
AcDbXrecord
280
     1
102
MATERIAL
148
0.0
149
0.0
149
0.0
 93
        0
 94
      127
282
     0
 72
     0
 77
     0
171
     0
175
     0
179
     0
273
     0
  0
XRECORD
  5
1C
102
{ACAD_REACTORS
330
1A
102
}
330
1A
100
AcDbXrecord
280
     1
270
     1
271
     1
  0
XRECORD
  5
1B
102
{ACAD_REACTORS
330
1A
102
}
330
1A
100
AcDbXrecord
280
     1
270
     1
271
     1
  0
XRECORD
  5
1F
102
{ACAD_REACTORS
330
1A
102
}
330
1A
100
AcDbXrecord
280
     1
270
     1
271
     1
  0
XRECORD
  5
1E
102
{ACAD_REACTORS
330
1A
102
}
330
1A
100
AcDbXrecord
280
     1
270
     1
271
     1
  0
XRECORD
  5
20
102
{ACAD_REACTORS
330
1A
102
}
330
1A
100
AcDbXrecord
280
     1
270
     1
271
     1
  0
XRECORD
  5
1D
102
{ACAD_REACTORS
330
1A
102
}
330
1A
100
AcDbXrecord
280
     1
270
     1
271
     1
  0
XRECORD
  5
AB7
102
{ACAD_REACTORS
330
12
102
}
330
12
100
AcDbXrecord
280
     1
102
MATERIAL
148
0.0
149
0.0
149
0.0
 93
        0
 94
      127
282
     0
 72
     0
 77
     0
171
     0
175
     0
179
     0
273
     0
  0
XRECORD
  5
14
102
{ACAD_REACTORS
330
12
102
}
330
12
100
AcDbXrecord
280
     1
270
     1
271
     1
  0
XRECORD
  5
13
102
{ACAD_REACTORS
330
12
102
}
330
12
100
AcDbXrecord
280
     1
270
     1
271
     1
  0
XRECORD
  5
17
102
{ACAD_REACTORS
330
12
102
}
330
12
100
AcDbXrecord
280
     1
270
     1
271
     1
  0
XRECORD
  5
16
102
{ACAD_REACTORS
330
12
102
}
330
12
100
AcDbXrecord
280
     1
270
     1
271
     1
  0
XRECORD
  5
18
102
{ACAD_REACTORS
330
12
102
}
330
12
100
AcDbXrecord
280
     1
270
     1
271
     1
  0
XRECORD
  5
15
102
{ACAD_REACTORS
330
12
102
}
330
12
100
AcDbXrecord
280
     1
270
     1
271
     1
  0
XRECORD
  5
AB9
102
{ACAD_REACTORS
330
22
102
}
330
22
100
AcDbXrecord
280
     1
102
MATERIAL
148
0.0
149
0.0
149
0.0
 93
        0
 94
      127
282
     0
 72
     0
 77
     0
171
     0
175
     0
179
     0
273
     0
  0
XRECORD
  5
24
102
{ACAD_REACTORS
330
22
102
}
330
22
100
AcDbXrecord
280
     1
270
     1
271
     1
  0
XRECORD
  5
23
102
{ACAD_REACTORS
330
22
102
}
330
22
100
AcDbXrecord
280
     1
270
     1
271
     1
  0
XRECORD
  5
27
102
{ACAD_REACTORS
330
22
102
}
330
22
100
AcDbXrecord
280
     1
270
     1
271
     1
  0
XRECORD
  5
26
102
{ACAD_REACTORS
330
22
102
}
330
22
100
AcDbXrecord
280
     1
270
     1
271
     1
  0
XRECORD
  5
28
102
{ACAD_REACTORS
330
22
102
}
330
22
100
AcDbXrecord
280
     1
270
     1
271
     1
  0
XRECORD
  5
25
102
{ACAD_REACTORS
330
22
102
}
330
22
100
AcDbXrecord
280
     1
270
     1
271
     1
  0
CELLSTYLEMAP
  5
1719
102
{ACAD_REACTORS
330
AAF
102
}
330
AAF
100
AcDbCellStyleMap
 90
        3
300
CELLSTYLE
  1
TABLEFORMAT_BEGIN
 90
        5
170
     1
 91
        0
 92
    32768
 62
   257
 93
        1
300
CONTENTFORMAT
  1
CONTENTFORMAT_BEGIN
 90
        0
 91
        0
 92
      512
 93
        0
300

 40
0.0
140
1.0
 94
        5
 62
     0
340
55
144
0.25
309
CONTENTFORMAT_END
171
     1
301
MARGIN
  1
CELLMARGIN_BEGIN
 40
0.06
 40
0.06
 40
0.06
 40
0.06
 40
0.18
 40
0.18
309
CELLMARGIN_END
 94
        6
 95
        1
302
GRIDFORMAT
  1
GRIDFORMAT_BEGIN
 90
        0
 91
        1
 62
     0
 92
       -2
340
0
 93
        0
 40
0.045
309
GRIDFORMAT_END
 95
        2
302
GRIDFORMAT
  1
GRIDFORMAT_BEGIN
 90
        0
 91
        1
 62
     0
 92
       -2
340
0
 93
        0
 40
0.045
309
GRIDFORMAT_END
 95
        4
302
GRIDFORMAT
  1
GRIDFORMAT_BEGIN
 90
        0
 91
        1
 62
     0
 92
       -2
340
0
 93
        0
 40
0.045
309
GRIDFORMAT_END
 95
        8
302
GRIDFORMAT
  1
GRIDFORMAT_BEGIN
 90
        0
 91
        1
 62
     0
 92
       -2
340
0
 93
        0
 40
0.045
309
GRIDFORMAT_END
 95
       16
302
GRIDFORMAT
  1
GRIDFORMAT_BEGIN
 90
        0
 91
        1
 62
     0
 92
       -2
340
0
 93
        0
 40
0.045
309
GRIDFORMAT_END
 95
       32
302
GRIDFORMAT
  1
GRIDFORMAT_BEGIN
 90
        0
 91
        1
 62
     0
 92
       -2
340
0
 93
        0
 40
0.045
309
GRIDFORMAT_END
309
TABLEFORMAT_END
  1
CELLSTYLE_BEGIN
 90
        1
 91
        1
300
_TITLE
309
CELLSTYLE_END
300
CELLSTYLE
  1
TABLEFORMAT_BEGIN
 90
        5
170
     1
 91
        0
 92
        0
 62
   257
 93
        1
300
CONTENTFORMAT
  1
CONTENTFORMAT_BEGIN
 90
        0
 91
        0
 92
      512
 93
        0
300

 40
0.0
140
1.0
 94
        5
 62
     0
340
55
144
0.18
309
CONTENTFORMAT_END
171
     1
301
MARGIN
  1
CELLMARGIN_BEGIN
 40
0.06
 40
0.06
 40
0.06
 40
0.06
 40
0.18
 40
0.18
309
CELLMARGIN_END
 94
        6
 95
        1
302
GRIDFORMAT
  1
GRIDFORMAT_BEGIN
 90
        0
 91
        1
 62
     0
 92
       -2
340
0
 93
        0
 40
0.045
309
GRIDFORMAT_END
 95
        2
302
GRIDFORMAT
  1
GRIDFORMAT_BEGIN
 90
        0
 91
        1
 62
     0
 92
       -2
340
0
 93
        0
 40
0.045
309
GRIDFORMAT_END
 95
        4
302
GRIDFORMAT
  1
GRIDFORMAT_BEGIN
 90
        0
 91
        1
 62
     0
 92
       -2
340
0
 93
        0
 40
0.045
309
GRIDFORMAT_END
 95
        8
302
GRIDFORMAT
  1
GRIDFORMAT_BEGIN
 90
        0
 91
        1
 62
     0
 92
       -2
340
0
 93
        0
 40
0.045
309
GRIDFORMAT_END
 95
       16
302
GRIDFORMAT
  1
GRIDFORMAT_BEGIN
 90
        0
 91
        1
 62
     0
 92
       -2
340
0
 93
        0
 40
0.045
309
GRIDFORMAT_END
 95
       32
302
GRIDFORMAT
  1
GRIDFORMAT_BEGIN
 90
        0
 91
        1
 62
     0
 92
       -2
340
0
 93
        0
 40
0.045
309
GRIDFORMAT_END
309
TABLEFORMAT_END
  1
CELLSTYLE_BEGIN
 90
        2
 91
        1
300
_HEADER
309
CELLSTYLE_END
300
CELLSTYLE
  1
TABLEFORMAT_BEGIN
 90
        5
170
     1
 91
        0
 92
        0
 62
   257
 93
        1
300
CONTENTFORMAT
  1
CONTENTFORMAT_BEGIN
 90
        0
 91
        0
 92
      512
 93
        0
300

 40
0.0
140
1.0
 94
        2
 62
     0
340
55
144
0.18
309
CONTENTFORMAT_END
171
     1
301
MARGIN
  1
CELLMARGIN_BEGIN
 40
0.06
 40
0.06
 40
0.06
 40
0.06
 40
0.18
 40
0.18
309
CELLMARGIN_END
 94
        6
 95
        1
302
GRIDFORMAT
  1
GRIDFORMAT_BEGIN
 90
        0
 91
        1
 62
     0
 92
       -2
340
0
 93
        0
 40
0.045
309
GRIDFORMAT_END
 95
        2
302
GRIDFORMAT
  1
GRIDFORMAT_BEGIN
 90
        0
 91
        1
 62
     0
 92
       -2
340
0
 93
        0
 40
0.045
309
GRIDFORMAT_END
 95
        4
302
GRIDFORMAT
  1
GRIDFORMAT_BEGIN
 90
        0
 91
        1
 62
     0
 92
       -2
340
0
 93
        0
 40
0.045
309
GRIDFORMAT_END
 95
        8
302
GRIDFORMAT
  1
GRIDFORMAT_BEGIN
 90
        0
 91
        1
 62
     0
 92
       -2
340
0
 93
        0
 40
0.045
309
GRIDFORMAT_END
 95
       16
302
GRIDFORMAT
  1
GRIDFORMAT_BEGIN
 90
        0
 91
        1
 62
     0
 92
       -2
340
0
 93
        0
 40
0.045
309
GRIDFORMAT_END
 95
       32
302
GRIDFORMAT
  1
GRIDFORMAT_BEGIN
 90
        0
 91
        1
 62
     0
 92
       -2
340
0
 93
        0
 40
0.045
309
GRIDFORMAT_END
309
TABLEFORMAT_END
  1
CELLSTYLE_BEGIN
 90
        3
 91
        2
300
_DATA
309
CELLSTYLE_END
  0
XRECORD
  5
1750
102
{ACAD_REACTORS
330
AAF
102
}
330
AAF
100
AcDbXrecord
280
     1
102
ACAD_ROUNDTRIP_PRE2007_TABLESTYLE
 90
      512
 91
        0
  1

 92
      512
 93
        0
  2

 94
      512
 95
        0
  3

  0
XRECORD
  5
172B
102
{ACAD_REACTORS
330
172A
102
}
330
172A
100
AcDbXrecord
280
     1
102
RTVSPropertyOp0
 70
     1
102
RTVSPropertyOp1
 70
     1
102
RTVSPropertyOp2
 70
     1
102
RTVSPropertyOp3
 70
     1
102
RTVSPropertyOp4
 70
     1
102
RTVSPropertyOp5
 70
     1
102
RTVSPropertyOp6
 70
     1
102
RTVSPropertyOp7
 70
     1
102
RTVSPropertyOp8
 70
     1
102
RTVSPropertyOp9
 70
     1
102
RTVSPropertyOp10
 70
     1
102
RTVSPropertyOp11
 70
     1
102
RTVSPropertyOp12
 70
     1
102
RTVSPropertyOp13
 70
     1
102
RTVSPropertyOp14
 70
     1
102
RTVSPropertyOp15
 70
     1
102
RTVSPropertyOp16
 70
     1
102
RTVSPropertyOp17
 70
     1
102
RTVSPropertyOp18
 70
     1
102
RTVSPropertyOp19
 70
     1
102
RTVSPropertyOp20
 70
     1
102
RTVSPropertyOp21
 70
     1
102
RTVSPropertyOp22
 70
     1
102
RTVSPropertyOp23
 70
     1
102
RTVSPropertyOp24
 70
     1
102
RTVSPropertyOp25
 70
     1
102
RTVSPropertyOp26
 70
     1
102
RTVSPropertyOp27
 70
     1
102
RTVSPropertyOp28
 70
     1
102
RTVSPropertyOp29
 70
     1
102
RTVSPropertyOp30
 70
     1
102
RTVSPropertyOp31
 70
     1
102
RTVSPropertyOp32
 70
     1
  0
XRECORD
  5
1756
102
{ACAD_REACTORS
330
1755
102
}
330
1755
100
AcDbXrecord
280
     1
102
RTVSPropertyOp0
 70
     1
102
RTVSPropertyOp1
 70
     1
102
RTVSPropertyOp2
 70
     1
102
RTVSPropertyOp3
 70
     1
102
RTVSPropertyOp4
 70
     1
102
RTVSPropertyOp5
 70
     1
102
RTVSPropertyOp6
 70
     1
102
RTVSPropertyOp7
 70
     1
102
RTVSPropertyOp8
 70
     1
102
RTVSPropertyOp9
 70
     1
102
RTVSPropertyOp10
 70
     1
102
RTVSPropertyOp11
 70
     1
102
RTVSPropertyOp12
 70
     1
102
RTVSPropertyOp13
 70
     1
102
RTVSPropertyOp14
 70
     1
102
RTVSPropertyOp15
 70
     1
102
RTVSPropertyOp16
 70
     1
102
RTVSPropertyOp17
 70
     1
102
RTVSPropertyOp18
 70
     1
102
RTVSPropertyOp19
 70
     1
102
RTVSPropertyOp20
 70
     1
102
RTVSPropertyOp21
 70
     1
102
RTVSPropertyOp22
 70
     1
102
RTVSPropertyOp23
 70
     1
102
RTVSPropertyOp24
 70
     1
102
RTVSPropertyOp25
 70
     1
102
RTVSPropertyOp26
 70
     1
102
RTVSPropertyOp27
 70
     1
102
RTVSPropertyOp28
 70
     1
102
RTVSPropertyOp29
 70
     1
102
RTVSPropertyOp30
 70
     1
102
RTVSPropertyOp31
 70
     1
102
RTVSPropertyOp32
 70
     1
  0
XRECORD
  5
1729
102
{ACAD_REACTORS
330
1728
102
}
330
1728
100
AcDbXrecord
280
     1
102
RTVSPropertyOp0
 70
     1
102
RTVSPropertyOp1
 70
     1
102
RTVSPropertyOp2
 70
     1
102
RTVSPropertyOp3
 70
     1
102
RTVSPropertyOp4
 70
     1
102
RTVSPropertyOp5
 70
     1
102
RTVSPropertyOp6
 70
     1
102
RTVSPropertyOp7
 70
     1
102
RTVSPropertyOp8
 70
     1
102
RTVSPropertyOp9
 70
     1
102
RTVSPropertyOp10
 70
     1
102
RTVSPropertyOp11
 70
     1
102
RTVSPropertyOp12
 70
     1
102
RTVSPropertyOp13
 70
     1
102
RTVSPropertyOp14
 70
     1
102
RTVSPropertyOp15
 70
     1
102
RTVSPropertyOp16
 70
     1
102
RTVSPropertyOp17
 70
     1
102
RTVSPropertyOp18
 70
     1
102
RTVSPropertyOp19
 70
     1
102
RTVSPropertyOp20
 70
     1
102
RTVSPropertyOp21
 70
     1
102
RTVSPropertyOp22
 70
     1
102
RTVSPropertyOp23
 70
     1
102
RTVSPropertyOp24
 70
     1
102
RTVSPropertyOp25
 70
     1
102
RTVSPropertyOp26
 70
     1
102
RTVSPropertyOp27
 70
     1
102
RTVSPropertyOp28
 70
     1
102
RTVSPropertyOp29
 70
     1
102
RTVSPropertyOp30
 70
     1
102
RTVSPropertyOp31
 70
     1
102
RTVSPropertyOp32
 70
     1
  0
XRECORD
  5
1737
102
{ACAD_REACTORS
330
1736
102
}
330
1736
100
AcDbXrecord
280
     1
102
RTVSPropertyOp0
 70
     1
102
RTVSPropertyOp1
 70
     1
102
RTVSPropertyOp2
 70
     1
102
RTVSPropertyOp3
 70
     1
102
RTVSPropertyOp4
 70
     1
102
RTVSPropertyOp5
 70
     1
102
RTVSPropertyOp6
 70
     1
102
RTVSPropertyOp7
 70
     1
102
RTVSPropertyOp8
 70
     1
102
RTVSPropertyOp9
 70
     1
102
RTVSPropertyOp10
 70
     1
102
RTVSPropertyOp11
 70
     1
102
RTVSPropertyOp12
 70
     1
102
RTVSPropertyOp13
 70
     1
102
RTVSPropertyOp14
 70
     1
102
RTVSPropertyOp15
 70
     1
102
RTVSPropertyOp16
 70
     1
102
RTVSPropertyOp17
 70
     1
102
RTVSPropertyOp18
 70
     1
102
RTVSPropertyOp19
 70
     1
102
RTVSPropertyOp20
 70
     1
102
RTVSPropertyOp21
 70
     1
102
RTVSPropertyOp22
 70
     1
102
RTVSPropertyOp23
 70
     1
102
RTVSPropertyOp24
 70
     1
102
RTVSPropertyOp25
 70
     1
102
RTVSPropertyOp26
 70
     1
102
RTVSPropertyOp27
 70
     1
102
RTVSPropertyOp28
 70
     1
102
RTVSPropertyOp29
 70
     1
102
RTVSPropertyOp30
 70
     1
102
RTVSPropertyOp31
 70
     1
102
RTVSPropertyOp32
 70
     1
  0
XRECORD
  5
173F
102
{ACAD_REACTORS
330
173E
102
}
330
173E
100
AcDbXrecord
280
     1
102
RTVSPropertyOp0
 70
     1
102
RTVSPropertyOp1
 70
     1
102
RTVSPropertyOp2
 70
     1
102
RTVSPropertyOp3
 70
     1
102
RTVSPropertyOp4
 70
     1
102
RTVSPropertyOp5
 70
     1
102
RTVSPropertyOp6
 70
     1
102
RTVSPropertyOp7
 70
     1
102
RTVSPropertyOp8
 70
     1
102
RTVSPropertyOp9
 70
     1
102
RTVSPropertyOp10
 70
     1
102
RTVSPropertyOp11
 70
     1
102
RTVSPropertyOp12
 70
     1
102
RTVSPropertyOp13
 70
     1
102
RTVSPropertyOp14
 70
     1
102
RTVSPropertyOp15
 70
     1
102
RTVSPropertyOp16
 70
     1
102
RTVSPropertyOp17
 70
     1
102
RTVSPropertyOp18
 70
     1
102
RTVSPropertyOp19
 70
     1
102
RTVSPropertyOp20
 70
     1
102
RTVSPropertyOp21
 70
     1
102
RTVSPropertyOp22
 70
     1
102
RTVSPropertyOp23
 70
     1
102
RTVSPropertyOp24
 70
     1
102
RTVSPropertyOp25
 70
     1
102
RTVSPropertyOp26
 70
     1
102
RTVSPropertyOp27
 70
     1
102
RTVSPropertyOp28
 70
     1
102
RTVSPropertyOp29
 70
     1
102
RTVSPropertyOp30
 70
     1
102
RTVSPropertyOp31
 70
     1
102
RTVSPropertyOp32
 70
     1
  0
XRECORD
  5
1731
102
{ACAD_REACTORS
330
1730
102
}
330
1730
100
AcDbXrecord
280
     1
102
RTVSPropertyOp0
 70
     1
102
RTVSPropertyOp1
 70
     1
102
RTVSPropertyOp2
 70
     1
102
RTVSPropertyOp3
 70
     1
102
RTVSPropertyOp4
 70
     1
102
RTVSPropertyOp5
 70
     1
102
RTVSPropertyOp6
 70
     1
102
RTVSPropertyOp7
 70
     1
102
RTVSPropertyOp8
 70
     1
102
RTVSPropertyOp9
 70
     1
102
RTVSPropertyOp10
 70
     1
102
RTVSPropertyOp11
 70
     1
102
RTVSPropertyOp12
 70
     1
102
RTVSPropertyOp13
 70
     1
102
RTVSPropertyOp14
 70
     1
102
RTVSPropertyOp15
 70
     1
102
RTVSPropertyOp16
 70
     1
102
RTVSPropertyOp17
 70
     1
102
RTVSPropertyOp18
 70
     1
102
RTVSPropertyOp19
 70
     1
102
RTVSPropertyOp20
 70
     1
102
RTVSPropertyOp21
 70
     1
102
RTVSPropertyOp22
 70
     1
102
RTVSPropertyOp23
 70
     1
102
RTVSPropertyOp24
 70
     1
102
RTVSPropertyOp25
 70
     1
102
RTVSPropertyOp26
 70
     1
102
RTVSPropertyOp27
 70
     1
102
RTVSPropertyOp28
 70
     1
102
RTVSPropertyOp29
 70
     1
102
RTVSPropertyOp30
 70
     1
102
RTVSPropertyOp31
 70
     1
102
RTVSPropertyOp32
 70
     1
  0
XRECORD
  5
1735
102
{ACAD_REACTORS
330
1734
102
}
330
1734
100
AcDbXrecord
280
     1
102
RTVSPropertyOp0
 70
     1
102
RTVSPropertyOp1
 70
     1
102
RTVSPropertyOp2
 70
     1
102
RTVSPropertyOp3
 70
     1
102
RTVSPropertyOp4
 70
     1
102
RTVSPropertyOp5
 70
     1
102
RTVSPropertyOp6
 70
     1
102
RTVSPropertyOp7
 70
     1
102
RTVSPropertyOp8
 70
     1
102
RTVSPropertyOp9
 70
     1
102
RTVSPropertyOp10
 70
     1
102
RTVSPropertyOp11
 70
     1
102
RTVSPropertyOp12
 70
     1
102
RTVSPropertyOp13
 70
     1
102
RTVSPropertyOp14
 70
     1
102
RTVSPropertyOp15
 70
     1
102
RTVSPropertyOp16
 70
     1
102
RTVSPropertyOp17
 70
     1
102
RTVSPropertyOp18
 70
     1
102
RTVSPropertyOp19
 70
     1
102
RTVSPropertyOp20
 70
     1
102
RTVSPropertyOp21
 70
     1
102
RTVSPropertyOp22
 70
     1
102
RTVSPropertyOp23
 70
     1
102
RTVSPropertyOp24
 70
     1
102
RTVSPropertyOp25
 70
     1
102
RTVSPropertyOp26
 70
     1
102
RTVSPropertyOp27
 70
     1
102
RTVSPropertyOp28
 70
     1
102
RTVSPropertyOp29
 70
     1
102
RTVSPropertyOp30
 70
     1
102
RTVSPropertyOp31
 70
     1
102
RTVSPropertyOp32
 70
     1
  0
XRECORD
  5
174F
102
{ACAD_REACTORS
330
174E
102
}
330
174E
100
AcDbXrecord
280
     1
102
RTVSPropertyOp0
 70
     0
102
RTVSPropertyOp1
 70
     0
102
RTVSPropertyOp2
 70
     0
102
RTVSPropertyOp3
 70
     0
102
RTVSPropertyOp4
 70
     0
102
RTVSPropertyOp5
 70
     0
102
RTVSPropertyOp6
 70
     0
102
RTVSPropertyOp7
 70
     0
102
RTVSPropertyOp8
 70
     0
102
RTVSPropertyOp9
 70
     0
102
RTVSPropertyOp10
 70
     0
102
RTVSPropertyOp11
 70
     0
102
RTVSPropertyOp12
 70
     0
102
RTVSPropertyOp13
 70
     0
102
RTVSPropertyOp14
 70
     2
102
RTVSPropertyOp15
 70
     0
102
RTVSPropertyOp16
 70
     0
102
RTVSPropertyOp17
 70
     0
102
RTVSPropertyOp18
 70
     0
102
RTVSPropertyOp19
 70
     0
102
RTVSPropertyOp20
 70
     0
102
RTVSPropertyOp21
 70
     0
102
RTVSPropertyOp22
 70
     0
102
RTVSPropertyOp23
 70
     0
102
RTVSPropertyOp24
 70
     0
102
RTVSPropertyOp25
 70
     0
102
RTVSPropertyOp26
 70
     0
102
RTVSPropertyOp27
 70
     0
102
RTVSPropertyOp28
 70
     0
102
RTVSPropertyOp29
 70
     0
102
RTVSPropertyOp30
 70
     0
102
RTVSPropertyOp31
 70
     0
102
RTVSPropertyOp32
 70
     0
  0
XRECORD
  5
173D
102
{ACAD_REACTORS
330
173C
102
}
330
173C
100
AcDbXrecord
280
     1
102
RTVSPropertyOp0
 70
     1
102
RTVSPropertyOp1
 70
     1
102
RTVSPropertyOp2
 70
     1
102
RTVSPropertyOp3
 70
     1
102
RTVSPropertyOp4
 70
     1
102
RTVSPropertyOp5
 70
     1
102
RTVSPropertyOp6
 70
     1
102
RTVSPropertyOp7
 70
     1
102
RTVSPropertyOp8
 70
     1
102
RTVSPropertyOp9
 70
     1
102
RTVSPropertyOp10
 70
     1
102
RTVSPropertyOp11
 70
     1
102
RTVSPropertyOp12
 70
     1
102
RTVSPropertyOp13
 70
     1
102
RTVSPropertyOp14
 70
     1
102
RTVSPropertyOp15
 70
     1
102
RTVSPropertyOp16
 70
     1
102
RTVSPropertyOp17
 70
     1
102
RTVSPropertyOp18
 70
     1
102
RTVSPropertyOp19
 70
     1
102
RTVSPropertyOp20
 70
     1
102
RTVSPropertyOp21
 70
     1
102
RTVSPropertyOp22
 70
     1
102
RTVSPropertyOp23
 70
     1
102
RTVSPropertyOp24
 70
     1
102
RTVSPropertyOp25
 70
     1
102
RTVSPropertyOp26
 70
     1
102
RTVSPropertyOp27
 70
     1
102
RTVSPropertyOp28
 70
     1
102
RTVSPropertyOp29
 70
     1
102
RTVSPropertyOp30
 70
     1
102
RTVSPropertyOp31
 70
     1
102
RTVSPropertyOp32
 70
     1
  0
XRECORD
  5
1721
102
{ACAD_REACTORS
330
1720
102
}
330
1720
100
AcDbXrecord
280
     1
102
RTVSPropertyOp0
 70
     1
102
RTVSPropertyOp1
 70
     1
102
RTVSPropertyOp2
 70
     1
102
RTVSPropertyOp3
 70
     1
102
RTVSPropertyOp4
 70
     1
102
RTVSPropertyOp5
 70
     1
102
RTVSPropertyOp6
 70
     1
102
RTVSPropertyOp7
 70
     1
102
RTVSPropertyOp8
 70
     1
102
RTVSPropertyOp9
 70
     1
102
RTVSPropertyOp10
 70
     1
102
RTVSPropertyOp11
 70
     1
102
RTVSPropertyOp12
 70
     1
102
RTVSPropertyOp13
 70
     1
102
RTVSPropertyOp14
 70
     1
102
RTVSPropertyOp15
 70
     1
102
RTVSPropertyOp16
 70
     1
102
RTVSPropertyOp17
 70
     1
102
RTVSPropertyOp18
 70
     1
102
RTVSPropertyOp19
 70
     1
102
RTVSPropertyOp20
 70
     1
102
RTVSPropertyOp21
 70
     1
102
RTVSPropertyOp22
 70
     1
102
RTVSPropertyOp23
 70
     1
102
RTVSPropertyOp24
 70
     1
102
RTVSPropertyOp25
 70
     1
102
RTVSPropertyOp26
 70
     1
102
RTVSPropertyOp27
 70
     1
102
RTVSPropertyOp28
 70
     1
102
RTVSPropertyOp29
 70
     1
102
RTVSPropertyOp30
 70
     1
102
RTVSPropertyOp31
 70
     1
102
RTVSPropertyOp32
 70
     1
  0
XRECORD
  5
1723
102
{ACAD_REACTORS
330
1722
102
}
330
1722
100
AcDbXrecord
280
     1
102
RTVSPropertyOp0
 70
     1
102
RTVSPropertyOp1
 70
     1
102
RTVSPropertyOp2
 70
     1
102
RTVSPropertyOp3
 70
     1
102
RTVSPropertyOp4
 70
     1
102
RTVSPropertyOp5
 70
     1
102
RTVSPropertyOp6
 70
     1
102
RTVSPropertyOp7
 70
     1
102
RTVSPropertyOp8
 70
     1
102
RTVSPropertyOp9
 70
     1
102
RTVSPropertyOp10
 70
     1
102
RTVSPropertyOp11
 70
     1
102
RTVSPropertyOp12
 70
     1
102
RTVSPropertyOp13
 70
     1
102
RTVSPropertyOp14
 70
     1
102
RTVSPropertyOp15
 70
     1
102
RTVSPropertyOp16
 70
     1
102
RTVSPropertyOp17
 70
     1
102
RTVSPropertyOp18
 70
     1
102
RTVSPropertyOp19
 70
     1
102
RTVSPropertyOp20
 70
     1
102
RTVSPropertyOp21
 70
     1
102
RTVSPropertyOp22
 70
     1
102
RTVSPropertyOp23
 70
     1
102
RTVSPropertyOp24
 70
     1
102
RTVSPropertyOp25
 70
     1
102
RTVSPropertyOp26
 70
     1
102
RTVSPropertyOp27
 70
     1
102
RTVSPropertyOp28
 70
     1
102
RTVSPropertyOp29
 70
     1
102
RTVSPropertyOp30
 70
     1
102
RTVSPropertyOp31
 70
     1
102
RTVSPropertyOp32
 70
     1
  0
XRECORD
  5
1725
102
{ACAD_REACTORS
330
1724
102
}
330
1724
100
AcDbXrecord
280
     1
102
RTVSPropertyOp0
 70
     1
102
RTVSPropertyOp1
 70
     1
102
RTVSPropertyOp2
 70
     1
102
RTVSPropertyOp3
 70
     1
102
RTVSPropertyOp4
 70
     1
102
RTVSPropertyOp5
 70
     1
102
RTVSPropertyOp6
 70
     1
102
RTVSPropertyOp7
 70
     1
102
RTVSPropertyOp8
 70
     1
102
RTVSPropertyOp9
 70
     1
102
RTVSPropertyOp10
 70
     1
102
RTVSPropertyOp11
 70
     1
102
RTVSPropertyOp12
 70
     1
102
RTVSPropertyOp13
 70
     1
102
RTVSPropertyOp14
 70
     1
102
RTVSPropertyOp15
 70
     1
102
RTVSPropertyOp16
 70
     1
102
RTVSPropertyOp17
 70
     1
102
RTVSPropertyOp18
 70
     1
102
RTVSPropertyOp19
 70
     1
102
RTVSPropertyOp20
 70
     1
102
RTVSPropertyOp21
 70
     1
102
RTVSPropertyOp22
 70
     1
102
RTVSPropertyOp23
 70
     1
102
RTVSPropertyOp24
 70
     1
102
RTVSPropertyOp25
 70
     1
102
RTVSPropertyOp26
 70
     1
102
RTVSPropertyOp27
 70
     1
102
RTVSPropertyOp28
 70
     1
102
RTVSPropertyOp29
 70
     1
102
RTVSPropertyOp30
 70
     1
102
RTVSPropertyOp31
 70
     1
102
RTVSPropertyOp32
 70
     1
  0
XRECORD
  5
1727
102
{ACAD_REACTORS
330
1726
102
}
330
1726
100
AcDbXrecord
280
     1
102
RTVSPropertyOp0
 70
     1
102
RTVSPropertyOp1
 70
     1
102
RTVSPropertyOp2
 70
     1
102
RTVSPropertyOp3
 70
     1
102
RTVSPropertyOp4
 70
     1
102
RTVSPropertyOp5
 70
     1
102
RTVSPropertyOp6
 70
     1
102
RTVSPropertyOp7
 70
     1
102
RTVSPropertyOp8
 70
     1
102
RTVSPropertyOp9
 70
     1
102
RTVSPropertyOp10
 70
     1
102
RTVSPropertyOp11
 70
     1
102
RTVSPropertyOp12
 70
     1
102
RTVSPropertyOp13
 70
     1
102
RTVSPropertyOp14
 70
     1
102
RTVSPropertyOp15
 70
     1
102
RTVSPropertyOp16
 70
     1
102
RTVSPropertyOp17
 70
     1
102
RTVSPropertyOp18
 70
     1
102
RTVSPropertyOp19
 70
     1
102
RTVSPropertyOp20
 70
     1
102
RTVSPropertyOp21
 70
     1
102
RTVSPropertyOp22
 70
     1
102
RTVSPropertyOp23
 70
     1
102
RTVSPropertyOp24
 70
     1
102
RTVSPropertyOp25
 70
     1
102
RTVSPropertyOp26
 70
     1
102
RTVSPropertyOp27
 70
     1
102
RTVSPropertyOp28
 70
     1
102
RTVSPropertyOp29
 70
     1
102
RTVSPropertyOp30
 70
     1
102
RTVSPropertyOp31
 70
     1
102
RTVSPropertyOp32
 70
     1
  0
XRECORD
  5
172F
102
{ACAD_REACTORS
330
172E
102
}
330
172E
100
AcDbXrecord
280
     1
102
RTVSPropertyOp0
 70
     1
102
RTVSPropertyOp1
 70
     1
102
RTVSPropertyOp2
 70
     1
102
RTVSPropertyOp3
 70
     1
102
RTVSPropertyOp4
 70
     1
102
RTVSPropertyOp5
 70
     1
102
RTVSPropertyOp6
 70
     1
102
RTVSPropertyOp7
 70
     1
102
RTVSPropertyOp8
 70
     1
102
RTVSPropertyOp9
 70
     1
102
RTVSPropertyOp10
 70
     1
102
RTVSPropertyOp11
 70
     1
102
RTVSPropertyOp12
 70
     1
102
RTVSPropertyOp13
 70
     1
102
RTVSPropertyOp14
 70
     1
102
RTVSPropertyOp15
 70
     1
102
RTVSPropertyOp16
 70
     1
102
RTVSPropertyOp17
 70
     1
102
RTVSPropertyOp18
 70
     1
102
RTVSPropertyOp19
 70
     1
102
RTVSPropertyOp20
 70
     1
102
RTVSPropertyOp21
 70
     1
102
RTVSPropertyOp22
 70
     1
102
RTVSPropertyOp23
 70
     1
102
RTVSPropertyOp24
 70
     1
102
RTVSPropertyOp25
 70
     1
102
RTVSPropertyOp26
 70
     1
102
RTVSPropertyOp27
 70
     1
102
RTVSPropertyOp28
 70
     1
102
RTVSPropertyOp29
 70
     1
102
RTVSPropertyOp30
 70
     1
102
RTVSPropertyOp31
 70
     1
102
RTVSPropertyOp32
 70
     1
  0
XRECORD
  5
174B
102
{ACAD_REACTORS
330
174A
102
}
330
174A
100
AcDbXrecord
280
     1
102
RTVSPropertyOp0
 70
     0
102
RTVSPropertyOp1
 70
     0
102
RTVSPropertyOp2
 70
     0
102
RTVSPropertyOp3
 70
     0
102
RTVSPropertyOp4
 70
     0
102
RTVSPropertyOp5
 70
     0
102
RTVSPropertyOp6
 70
     0
102
RTVSPropertyOp7
 70
     0
102
RTVSPropertyOp8
 70
     0
102
RTVSPropertyOp9
 70
     0
102
RTVSPropertyOp10
 70
     0
102
RTVSPropertyOp11
 70
     0
102
RTVSPropertyOp12
 70
     0
102
RTVSPropertyOp13
 70
     0
102
RTVSPropertyOp14
 70
     2
102
RTVSPropertyOp15
 70
     0
102
RTVSPropertyOp16
 70
     0
102
RTVSPropertyOp17
 70
     0
102
RTVSPropertyOp18
 70
     0
102
RTVSPropertyOp19
 70
     0
102
RTVSPropertyOp20
 70
     0
102
RTVSPropertyOp21
 70
     0
102
RTVSPropertyOp22
 70
     0
102
RTVSPropertyOp23
 70
     0
102
RTVSPropertyOp24
 70
     0
102
RTVSPropertyOp25
 70
     0
102
RTVSPropertyOp26
 70
     0
102
RTVSPropertyOp27
 70
     0
102
RTVSPropertyOp28
 70
     0
102
RTVSPropertyOp29
 70
     0
102
RTVSPropertyOp30
 70
     0
102
RTVSPropertyOp31
 70
     0
102
RTVSPropertyOp32
 70
     0
  0
XRECORD
  5
173B
102
{ACAD_REACTORS
330
173A
102
}
330
173A
100
AcDbXrecord
280
     1
102
RTVSPropertyOp0
 70
     1
102
RTVSPropertyOp1
 70
     1
102
RTVSPropertyOp2
 70
     1
102
RTVSPropertyOp3
 70
     1
102
RTVSPropertyOp4
 70
     1
102
RTVSPropertyOp5
 70
     1
102
RTVSPropertyOp6
 70
     1
102
RTVSPropertyOp7
 70
     1
102
RTVSPropertyOp8
 70
     1
102
RTVSPropertyOp9
 70
     1
102
RTVSPropertyOp10
 70
     1
102
RTVSPropertyOp11
 70
     1
102
RTVSPropertyOp12
 70
     1
102
RTVSPropertyOp13
 70
     1
102
RTVSPropertyOp14
 70
     1
102
RTVSPropertyOp15
 70
     1
102
RTVSPropertyOp16
 70
     1
102
RTVSPropertyOp17
 70
     1
102
RTVSPropertyOp18
 70
     1
102
RTVSPropertyOp19
 70
     1
102
RTVSPropertyOp20
 70
     1
102
RTVSPropertyOp21
 70
     1
102
RTVSPropertyOp22
 70
     1
102
RTVSPropertyOp23
 70
     1
102
RTVSPropertyOp24
 70
     1
102
RTVSPropertyOp25
 70
     1
102
RTVSPropertyOp26
 70
     1
102
RTVSPropertyOp27
 70
     1
102
RTVSPropertyOp28
 70
     1
102
RTVSPropertyOp29
 70
     1
102
RTVSPropertyOp30
 70
     1
102
RTVSPropertyOp31
 70
     1
102
RTVSPropertyOp32
 70
     1
  0
XRECORD
  5
174D
102
{ACAD_REACTORS
330
174C
102
}
330
174C
100
AcDbXrecord
280
     1
102
RTVSPropertyOp0
 70
     0
102
RTVSPropertyOp1
 70
     0
102
RTVSPropertyOp2
 70
     0
102
RTVSPropertyOp3
 70
     0
102
RTVSPropertyOp4
 70
     0
102
RTVSPropertyOp5
 70
     0
102
RTVSPropertyOp6
 70
     0
102
RTVSPropertyOp7
 70
     0
102
RTVSPropertyOp8
 70
     0
102
RTVSPropertyOp9
 70
     0
102
RTVSPropertyOp10
 70
     0
102
RTVSPropertyOp11
 70
     0
102
RTVSPropertyOp12
 70
     0
102
RTVSPropertyOp13
 70
     0
102
RTVSPropertyOp14
 70
     2
102
RTVSPropertyOp15
 70
     0
102
RTVSPropertyOp16
 70
     0
102
RTVSPropertyOp17
 70
     0
102
RTVSPropertyOp18
 70
     0
102
RTVSPropertyOp19
 70
     0
102
RTVSPropertyOp20
 70
     0
102
RTVSPropertyOp21
 70
     0
102
RTVSPropertyOp22
 70
     0
102
RTVSPropertyOp23
 70
     0
102
RTVSPropertyOp24
 70
     0
102
RTVSPropertyOp25
 70
     0
102
RTVSPropertyOp26
 70
     0
102
RTVSPropertyOp27
 70
     0
102
RTVSPropertyOp28
 70
     0
102
RTVSPropertyOp29
 70
     0
102
RTVSPropertyOp30
 70
     0
102
RTVSPropertyOp31
 70
     0
102
RTVSPropertyOp32
 70
     0
  0
XRECORD
  5
1733
102
{ACAD_REACTORS
330
1732
102
}
330
1732
100
AcDbXrecord
280
     1
102
RTVSPropertyOp0
 70
     1
102
RTVSPropertyOp1
 70
     1
102
RTVSPropertyOp2
 70
     1
102
RTVSPropertyOp3
 70
     1
102
RTVSPropertyOp4
 70
     1
102
RTVSPropertyOp5
 70
     1
102
RTVSPropertyOp6
 70
     1
102
RTVSPropertyOp7
 70
     1
102
RTVSPropertyOp8
 70
     1
102
RTVSPropertyOp9
 70
     1
102
RTVSPropertyOp10
 70
     1
102
RTVSPropertyOp11
 70
     1
102
RTVSPropertyOp12
 70
     1
102
RTVSPropertyOp13
 70
     1
102
RTVSPropertyOp14
 70
     1
102
RTVSPropertyOp15
 70
     1
102
RTVSPropertyOp16
 70
     1
102
RTVSPropertyOp17
 70
     1
102
RTVSPropertyOp18
 70
     1
102
RTVSPropertyOp19
 70
     1
102
RTVSPropertyOp20
 70
     1
102
RTVSPropertyOp21
 70
     1
102
RTVSPropertyOp22
 70
     1
102
RTVSPropertyOp23
 70
     1
102
RTVSPropertyOp24
 70
     1
102
RTVSPropertyOp25
 70
     1
102
RTVSPropertyOp26
 70
     1
102
RTVSPropertyOp27
 70
     1
102
RTVSPropertyOp28
 70
     1
102
RTVSPropertyOp29
 70
     1
102
RTVSPropertyOp30
 70
     1
102
RTVSPropertyOp31
 70
     1
102
RTVSPropertyOp32
 70
     1
  0
XRECORD
  5
1749
102
{ACAD_REACTORS
330
1748
102
}
330
1748
100
AcDbXrecord
280
     1
102
RTVSPropertyOp0
 70
     1
102
RTVSPropertyOp1
 70
     1
102
RTVSPropertyOp2
 70
     1
102
RTVSPropertyOp3
 70
     1
102
RTVSPropertyOp4
 70
     1
102
RTVSPropertyOp5
 70
     1
102
RTVSPropertyOp6
 70
     1
102
RTVSPropertyOp7
 70
     1
102
RTVSPropertyOp8
 70
     1
102
RTVSPropertyOp9
 70
     1
102
RTVSPropertyOp10
 70
     1
102
RTVSPropertyOp11
 70
     1
102
RTVSPropertyOp12
 70
     1
102
RTVSPropertyOp13
 70
     1
102
RTVSPropertyOp14
 70
     1
102
RTVSPropertyOp15
 70
     1
102
RTVSPropertyOp16
 70
     1
102
RTVSPropertyOp17
 70
     1
102
RTVSPropertyOp18
 70
     1
102
RTVSPropertyOp19
 70
     1
102
RTVSPropertyOp20
 70
     1
102
RTVSPropertyOp21
 70
     1
102
RTVSPropertyOp22
 70
     1
102
RTVSPropertyOp23
 70
     1
102
RTVSPropertyOp24
 70
     1
102
RTVSPropertyOp25
 70
     1
102
RTVSPropertyOp26
 70
     1
102
RTVSPropertyOp27
 70
     1
102
RTVSPropertyOp28
 70
     1
102
RTVSPropertyOp29
 70
     1
102
RTVSPropertyOp30
 70
     1
102
RTVSPropertyOp31
 70
     1
102
RTVSPropertyOp32
 70
     1
  0
XRECORD
  5
1747
102
{ACAD_REACTORS
330
1746
102
}
330
1746
100
AcDbXrecord
280
     1
102
RTVSPropertyOp0
 70
     1
102
RTVSPropertyOp1
 70
     1
102
RTVSPropertyOp2
 70
     1
102
RTVSPropertyOp3
 70
     1
102
RTVSPropertyOp4
 70
     1
102
RTVSPropertyOp5
 70
     1
102
RTVSPropertyOp6
 70
     1
102
RTVSPropertyOp7
 70
     1
102
RTVSPropertyOp8
 70
     1
102
RTVSPropertyOp9
 70
     1
102
RTVSPropertyOp10
 70
     1
102
RTVSPropertyOp11
 70
     1
102
RTVSPropertyOp12
 70
     1
102
RTVSPropertyOp13
 70
     1
102
RTVSPropertyOp14
 70
     1
102
RTVSPropertyOp15
 70
     1
102
RTVSPropertyOp16
 70
     1
102
RTVSPropertyOp17
 70
     1
102
RTVSPropertyOp18
 70
     1
102
RTVSPropertyOp19
 70
     1
102
RTVSPropertyOp20
 70
     1
102
RTVSPropertyOp21
 70
     1
102
RTVSPropertyOp22
 70
     1
102
RTVSPropertyOp23
 70
     1
102
RTVSPropertyOp24
 70
     1
102
RTVSPropertyOp25
 70
     1
102
RTVSPropertyOp26
 70
     1
102
RTVSPropertyOp27
 70
     1
102
RTVSPropertyOp28
 70
     1
102
RTVSPropertyOp29
 70
     1
102
RTVSPropertyOp30
 70
     1
102
RTVSPropertyOp31
 70
     1
102
RTVSPropertyOp32
 70
     1
  0
XRECORD
  5
1741
102
{ACAD_REACTORS
330
1740
102
}
330
1740
100
AcDbXrecord
280
     1
102
RTVSPropertyOp0
 70
     1
102
RTVSPropertyOp1
 70
     1
102
RTVSPropertyOp2
 70
     1
102
RTVSPropertyOp3
 70
     1
102
RTVSPropertyOp4
 70
     1
102
RTVSPropertyOp5
 70
     1
102
RTVSPropertyOp6
 70
     1
102
RTVSPropertyOp7
 70
     1
102
RTVSPropertyOp8
 70
     1
102
RTVSPropertyOp9
 70
     1
102
RTVSPropertyOp10
 70
     1
102
RTVSPropertyOp11
 70
     1
102
RTVSPropertyOp12
 70
     1
102
RTVSPropertyOp13
 70
     1
102
RTVSPropertyOp14
 70
     1
102
RTVSPropertyOp15
 70
     1
102
RTVSPropertyOp16
 70
     1
102
RTVSPropertyOp17
 70
     1
102
RTVSPropertyOp18
 70
     1
102
RTVSPropertyOp19
 70
     1
102
RTVSPropertyOp20
 70
     1
102
RTVSPropertyOp21
 70
     1
102
RTVSPropertyOp22
 70
     1
102
RTVSPropertyOp23
 70
     1
102
RTVSPropertyOp24
 70
     1
102
RTVSPropertyOp25
 70
     1
102
RTVSPropertyOp26
 70
     1
102
RTVSPropertyOp27
 70
     1
102
RTVSPropertyOp28
 70
     1
102
RTVSPropertyOp29
 70
     1
102
RTVSPropertyOp30
 70
     1
102
RTVSPropertyOp31
 70
     1
102
RTVSPropertyOp32
 70
     1
  0
XRECORD
  5
1743
102
{ACAD_REACTORS
330
1742
102
}
330
1742
100
AcDbXrecord
280
     1
102
RTVSPropertyOp0
 70
     1
102
RTVSPropertyOp1
 70
     1
102
RTVSPropertyOp2
 70
     1
102
RTVSPropertyOp3
 70
     1
102
RTVSPropertyOp4
 70
     1
102
RTVSPropertyOp5
 70
     1
102
RTVSPropertyOp6
 70
     1
102
RTVSPropertyOp7
 70
     1
102
RTVSPropertyOp8
 70
     1
102
RTVSPropertyOp9
 70
     1
102
RTVSPropertyOp10
 70
     1
102
RTVSPropertyOp11
 70
     1
102
RTVSPropertyOp12
 70
     1
102
RTVSPropertyOp13
 70
     1
102
RTVSPropertyOp14
 70
     1
102
RTVSPropertyOp15
 70
     1
102
RTVSPropertyOp16
 70
     1
102
RTVSPropertyOp17
 70
     1
102
RTVSPropertyOp18
 70
     1
102
RTVSPropertyOp19
 70
     1
102
RTVSPropertyOp20
 70
     1
102
RTVSPropertyOp21
 70
     1
102
RTVSPropertyOp22
 70
     1
102
RTVSPropertyOp23
 70
     1
102
RTVSPropertyOp24
 70
     1
102
RTVSPropertyOp25
 70
     1
102
RTVSPropertyOp26
 70
     1
102
RTVSPropertyOp27
 70
     1
102
RTVSPropertyOp28
 70
     1
102
RTVSPropertyOp29
 70
     1
102
RTVSPropertyOp30
 70
     1
102
RTVSPropertyOp31
 70
     1
102
RTVSPropertyOp32
 70
     1
  0
XRECORD
  5
1739
102
{ACAD_REACTORS
330
1738
102
}
330
1738
100
AcDbXrecord
280
     1
102
RTVSPropertyOp0
 70
     1
102
RTVSPropertyOp1
 70
     1
102
RTVSPropertyOp2
 70
     1
102
RTVSPropertyOp3
 70
     1
102
RTVSPropertyOp4
 70
     1
102
RTVSPropertyOp5
 70
     1
102
RTVSPropertyOp6
 70
     1
102
RTVSPropertyOp7
 70
     1
102
RTVSPropertyOp8
 70
     1
102
RTVSPropertyOp9
 70
     1
102
RTVSPropertyOp10
 70
     1
102
RTVSPropertyOp11
 70
     1
102
RTVSPropertyOp12
 70
     1
102
RTVSPropertyOp13
 70
     1
102
RTVSPropertyOp14
 70
     1
102
RTVSPropertyOp15
 70
     1
102
RTVSPropertyOp16
 70
     1
102
RTVSPropertyOp17
 70
     1
102
RTVSPropertyOp18
 70
     1
102
RTVSPropertyOp19
 70
     1
102
RTVSPropertyOp20
 70
     1
102
RTVSPropertyOp21
 70
     1
102
RTVSPropertyOp22
 70
     1
102
RTVSPropertyOp23
 70
     1
102
RTVSPropertyOp24
 70
     1
102
RTVSPropertyOp25
 70
     1
102
RTVSPropertyOp26
 70
     1
102
RTVSPropertyOp27
 70
     1
102
RTVSPropertyOp28
 70
     1
102
RTVSPropertyOp29
 70
     1
102
RTVSPropertyOp30
 70
     1
102
RTVSPropertyOp31
 70
     1
102
RTVSPropertyOp32
 70
     1
  0
XRECORD
  5
172D
102
{ACAD_REACTORS
330
172C
102
}
330
172C
100
AcDbXrecord
280
     1
102
RTVSPropertyOp0
 70
     1
102
RTVSPropertyOp1
 70
     1
102
RTVSPropertyOp2
 70
     1
102
RTVSPropertyOp3
 70
     1
102
RTVSPropertyOp4
 70
     1
102
RTVSPropertyOp5
 70
     1
102
RTVSPropertyOp6
 70
     1
102
RTVSPropertyOp7
 70
     1
102
RTVSPropertyOp8
 70
     1
102
RTVSPropertyOp9
 70
     1
102
RTVSPropertyOp10
 70
     1
102
RTVSPropertyOp11
 70
     1
102
RTVSPropertyOp12
 70
     1
102
RTVSPropertyOp13
 70
     1
102
RTVSPropertyOp14
 70
     1
102
RTVSPropertyOp15
 70
     1
102
RTVSPropertyOp16
 70
     1
102
RTVSPropertyOp17
 70
     1
102
RTVSPropertyOp18
 70
     1
102
RTVSPropertyOp19
 70
     1
102
RTVSPropertyOp20
 70
     1
102
RTVSPropertyOp21
 70
     1
102
RTVSPropertyOp22
 70
     1
102
RTVSPropertyOp23
 70
     1
102
RTVSPropertyOp24
 70
     1
102
RTVSPropertyOp25
 70
     1
102
RTVSPropertyOp26
 70
     1
102
RTVSPropertyOp27
 70
     1
102
RTVSPropertyOp28
 70
     1
102
RTVSPropertyOp29
 70
     1
102
RTVSPropertyOp30
 70
     1
102
RTVSPropertyOp31
 70
     1
102
RTVSPropertyOp32
 70
     1
  0
XRECORD
  5
1745
102
{ACAD_REACTORS
330
1744
102
}
330
1744
100
AcDbXrecord
280
     1
102
RTVSPropertyOp0
 70
     1
102
RTVSPropertyOp1
 70
     1
102
RTVSPropertyOp2
 70
     1
102
RTVSPropertyOp3
 70
     1
102
RTVSPropertyOp4
 70
     1
102
RTVSPropertyOp5
 70
     1
102
RTVSPropertyOp6
 70
     1
102
RTVSPropertyOp7
 70
     1
102
RTVSPropertyOp8
 70
     1
102
RTVSPropertyOp9
 70
     1
102
RTVSPropertyOp10
 70
     1
102
RTVSPropertyOp11
 70
     1
102
RTVSPropertyOp12
 70
     1
102
RTVSPropertyOp13
 70
     1
102
RTVSPropertyOp14
 70
     1
102
RTVSPropertyOp15
 70
     1
102
RTVSPropertyOp16
 70
     1
102
RTVSPropertyOp17
 70
     1
102
RTVSPropertyOp18
 70
     1
102
RTVSPropertyOp19
 70
     1
102
RTVSPropertyOp20
 70
     1
102
RTVSPropertyOp21
 70
     1
102
RTVSPropertyOp22
 70
     1
102
RTVSPropertyOp23
 70
     1
102
RTVSPropertyOp24
 70
     1
102
RTVSPropertyOp25
 70
     1
102
RTVSPropertyOp26
 70
     1
102
RTVSPropertyOp27
 70
     1
102
RTVSPropertyOp28
 70
     1
102
RTVSPropertyOp29
 70
     1
102
RTVSPropertyOp30
 70
     1
102
RTVSPropertyOp31
 70
     1
102
RTVSPropertyOp32
 70
     1
  0
ENDSEC
  0
EOF
